  0
SECTION
  2
HEADER
  9
$ACADVER
  1
AC1015
  9
$ACADMAINTVER
 70
    20
  9
$DWGCODEPAGE
  3
ANSI_932
  9
$INSBASE
 10
0.0
 20
0.0
 30
0.0
  9
$EXTMIN
 10
10.0
 20
9.999999999999998
 30
0.0
  9
$EXTMAX
 10
205.800477
 20
190.049575
 30
0.0
  9
$LIMMIN
 10
0.0
 20
0.0
  9
$LIMMAX
 10
396.0
 20
273.0
  9
$ORTHOMODE
 70
     1
  9
$REGENMODE
 70
     1
  9
$FILLMODE
 70
     1
  9
$QTEXTMODE
 70
     0
  9
$MIRRTEXT
 70
     1
  9
$LTSCALE
 40
20.0
  9
$ATTMODE
 70
     1
  9
$TEXTSIZE
 40
5.0
  9
$TRACEWID
 40
1.0
  9
$TEXTSTYLE
  7
STANDARD
  9
$CLAYER
  8
0
  9
$CELTYPE
  6
BYLAYER
  9
$CECOLOR
 62
   256
  9
$CELTSCALE
 40
1.0
  9
$DISPSILH
 70
     0
  9
$DIMSCALE
 40
1.0
  9
$DIMASZ
 40
2.5
  9
$DIMEXO
 40
1.0
  9
$DIMDLI
 40
10.0
  9
$DIMRND
 40
0.0
  9
$DIMDLE
 40
0.0
  9
$DIMEXE
 40
1.0
  9
$DIMTP
 40
0.0
  9
$DIMTM
 40
0.0
  9
$DIMTXT
 40
3.2
  9
$DIMCEN
 40
0.0
  9
$DIMTSZ
 40
0.0
  9
$DIMTOL
 70
     0
  9
$DIMLIM
 70
     0
  9
$DIMTIH
 70
     0
  9
$DIMTOH
 70
     0
  9
$DIMSE1
 70
     0
  9
$DIMSE2
 70
     0
  9
$DIMTAD
 70
     3
  9
$DIMZIN
 70
     8
  9
$DIMBLK
  1

  9
$DIMASO
 70
     1
  9
$DIMSHO
 70
     1
  9
$DIMPOST
  1

  9
$DIMAPOST
  1

  9
$DIMALT
 70
     0
  9
$DIMALTD
 70
     2
  9
$DIMALTF
 40
25.4
  9
$DIMLFAC
 40
1.0
  9
$DIMTOFL
 70
     1
  9
$DIMTVP
 40
0.0
  9
$DIMTIX
 70
     0
  9
$DIMSOXD
 70
     0
  9
$DIMSAH
 70
     1
  9
$DIMBLK1
  1

  9
$DIMBLK2
  1

  9
$DIMSTYLE
  2
STANDARD
  9
$DIMCLRD
 70
     0
  9
$DIMCLRE
 70
     0
  9
$DIMCLRT
 70
     0
  9
$DIMTFAC
 40
1.0
  9
$DIMGAP
 40
1.0
  9
$DIMJUST
 70
     0
  9
$DIMSD1
 70
     0
  9
$DIMSD2
 70
     0
  9
$DIMTOLJ
 70
     1
  9
$DIMTZIN
 70
     0
  9
$DIMALTZ
 70
     0
  9
$DIMALTTZ
 70
     0
  9
$DIMUPT
 70
     0
  9
$DIMDEC
 70
     4
  9
$DIMTDEC
 70
     4
  9
$DIMALTU
 70
     2
  9
$DIMALTTD
 70
     2
  9
$DIMTXSTY
  7
STANDARD
  9
$DIMAUNIT
 70
     0
  9
$DIMADEC
 70
     0
  9
$DIMALTRND
 40
0.0
  9
$DIMAZIN
 70
     0
  9
$DIMDSEP
 70
    46
  9
$DIMATFIT
 70
     3
  9
$DIMFRAC
 70
     0
  9
$DIMLDRBLK
  1

  9
$DIMLUNIT
 70
     2
  9
$DIMLWD
 70
    -2
  9
$DIMLWE
 70
    -2
  9
$DIMTMOVE
 70
     0
  9
$LUNITS
 70
     2
  9
$LUPREC
 70
     4
  9
$SKETCHINC
 40
1.0
  9
$FILLETRAD
 40
0.19
  9
$AUNITS
 70
     0
  9
$AUPREC
 70
     2
  9
$MENU
  1
.
  9
$ELEVATION
 40
0.0
  9
$PELEVATION
 40
0.0
  9
$THICKNESS
 40
0.0
  9
$LIMCHECK
 70
     0
  9
$CHAMFERA
 40
10.0
  9
$CHAMFERB
 40
10.0
  9
$CHAMFERC
 40
0.0
  9
$CHAMFERD
 40
0.0
  9
$SKPOLY
 70
     0
  9
$TDCREATE
 40
2451296.795933218
  9
$TDUCREATE
 40
2451296.420933218
  9
$TDUPDATE
 40
2457192.658336968
  9
$TDUUPDATE
 40
2457192.283336968
  9
$TDINDWG
 40
0.0000109491
  9
$TDUSRTIMER
 40
0.0000104630
  9
$USRTIMER
 70
     1
  9
$ANGBASE
 50
0.0
  9
$ANGDIR
 70
     0
  9
$PDMODE
 70
     0
  9
$PDSIZE
 40
0.0
  9
$PLINEWID
 40
0.0
  9
$SPLFRAME
 70
     0
  9
$SPLINETYPE
 70
     6
  9
$SPLINESEGS
 70
     8
  9
$HANDSEED
  5
C7A1
  9
$SURFTAB1
 70
     6
  9
$SURFTAB2
 70
     6
  9
$SURFTYPE
 70
     6
  9
$SURFU
 70
     6
  9
$SURFV
 70
     6
  9
$UCSBASE
  2

  9
$UCSNAME
  2

  9
$UCSORG
 10
0.0
 20
0.0
 30
0.0
  9
$UCSXDIR
 10
1.0
 20
0.0
 30
0.0
  9
$UCSYDIR
 10
0.0
 20
1.0
 30
0.0
  9
$UCSORTHOREF
  2

  9
$UCSORTHOVIEW
 70
     0
  9
$UCSORGTOP
 10
0.0
 20
0.0
 30
0.0
  9
$UCSORGBOTTOM
 10
0.0
 20
0.0
 30
0.0
  9
$UCSORGLEFT
 10
0.0
 20
0.0
 30
0.0
  9
$UCSORGRIGHT
 10
0.0
 20
0.0
 30
0.0
  9
$UCSORGFRONT
 10
0.0
 20
0.0
 30
0.0
  9
$UCSORGBACK
 10
0.0
 20
0.0
 30
0.0
  9
$PUCSBASE
  2

  9
$PUCSNAME
  2

  9
$PUCSORG
 10
0.0
 20
0.0
 30
0.0
  9
$PUCSXDIR
 10
1.0
 20
0.0
 30
0.0
  9
$PUCSYDIR
 10
0.0
 20
1.0
 30
0.0
  9
$PUCSORTHOREF
  2

  9
$PUCSORTHOVIEW
 70
     0
  9
$PUCSORGTOP
 10
0.0
 20
0.0
 30
0.0
  9
$PUCSORGBOTTOM
 10
0.0
 20
0.0
 30
0.0
  9
$PUCSORGLEFT
 10
0.0
 20
0.0
 30
0.0
  9
$PUCSORGRIGHT
 10
0.0
 20
0.0
 30
0.0
  9
$PUCSORGFRONT
 10
0.0
 20
0.0
 30
0.0
  9
$PUCSORGBACK
 10
0.0
 20
0.0
 30
0.0
  9
$USERI1
 70
     0
  9
$USERI2
 70
     0
  9
$USERI3
 70
     0
  9
$USERI4
 70
     0
  9
$USERI5
 70
     0
  9
$USERR1
 40
0.0
  9
$USERR2
 40
0.0
  9
$USERR3
 40
0.0
  9
$USERR4
 40
0.0
  9
$USERR5
 40
0.0
  9
$WORLDVIEW
 70
     1
  9
$SHADEDGE
 70
     3
  9
$SHADEDIF
 70
    70
  9
$TILEMODE
 70
     1
  9
$MAXACTVP
 70
    16
  9
$PINSBASE
 10
0.0
 20
0.0
 30
0.0
  9
$PLIMCHECK
 70
     0
  9
$PEXTMIN
 10
1.000000000000000E+20
 20
1.000000000000000E+20
 30
1.000000000000000E+20
  9
$PEXTMAX
 10
-1.000000000000000E+20
 20
-1.000000000000000E+20
 30
-1.000000000000000E+20
  9
$PLIMMIN
 10
0.0
 20
0.0
  9
$PLIMMAX
 10
420.0
 20
297.0
  9
$UNITMODE
 70
     0
  9
$VISRETAIN
 70
     0
  9
$PLINEGEN
 70
     0
  9
$PSLTSCALE
 70
     0
  9
$TREEDEPTH
 70
  3020
  9
$CMLSTYLE
  2
STANDARD
  9
$CMLJUST
 70
     0
  9
$CMLSCALE
 40
1.0
  9
$PROXYGRAPHICS
 70
     1
  9
$MEASUREMENT
 70
     0
  9
$CELWEIGHT
370
    -1
  9
$ENDCAPS
280
     0
  9
$JOINSTYLE
280
     0
  9
$LWDISPLAY
290
     0
  9
$INSUNITS
 70
     0
  9
$HYPERLINKBASE
  1

  9
$STYLESHEET
  1

  9
$XEDIT
290
     1
  9
$CEPSNTYPE
380
     0
  9
$PSTYLEMODE
290
     1
  9
$FINGERPRINTGUID
  2
{9725EF55-228E-42F7-BE90-6AD9EB82EF41}
  9
$VERSIONGUID
  2
{67B6CD68-ED0C-47E6-8906-BBD9F0FD2072}
  9
$EXTNAMES
290
     1
  9
$PSVPSCALE
 40
0.0
  9
$OLESTARTUP
290
     0
  0
ENDSEC
  0
SECTION
  2
CLASSES
  0
CLASS
  1
ACDBDICTIONARYWDFLT
  2
AcDbDictionaryWithDefault
  3
ObjectDBX Classes
 90
        0
280
     0
281
     0
  0
CLASS
  1
ACDBPLACEHOLDER
  2
AcDbPlaceHolder
  3
ObjectDBX Classes
 90
        0
280
     0
281
     0
  0
CLASS
  1
LAYOUT
  2
AcDbLayout
  3
ObjectDBX Classes
 90
        0
280
     0
281
     0
  0
CLASS
  1
DICTIONARYVAR
  2
AcDbDictionaryVar
  3
ObjectDBX Classes
 90
        0
280
     0
281
     0
  0
CLASS
  1
MATERIAL
  2
AcDbMaterial
  3
ObjectDBX Classes
 90
     1153
280
     0
281
     0
  0
CLASS
  1
VISUALSTYLE
  2
AcDbVisualStyle
  3
ObjectDBX Classes
 90
     4095
280
     0
281
     0
  0
CLASS
  1
TABLESTYLE
  2
AcDbTableStyle
  3
ObjectDBX Classes
 90
     4095
280
     0
281
     0
  0
CLASS
  1
SCALE
  2
AcDbScale
  3
ObjectDBX Classes
 90
     1153
280
     0
281
     0
  0
CLASS
  1
MLEADERSTYLE
  2
AcDbMLeaderStyle
  3
ACDB_MLEADERSTYLE_CLASS
 90
     4095
280
     0
281
     0
  0
CLASS
  1
ACDBSECTIONVIEWSTYLE
  2
AcDbSectionViewStyle
  3
ObjectDBX Classes
 90
     1025
280
     0
281
     0
  0
CLASS
  1
ACDBDETAILVIEWSTYLE
  2
AcDbDetailViewStyle
  3
ObjectDBX Classes
 90
     1025
280
     0
281
     0
  0
CLASS
  1
CELLSTYLEMAP
  2
AcDbCellStyleMap
  3
ObjectDBX Classes
 90
     1152
280
     0
281
     0
  0
ENDSEC
  0
SECTION
  2
TABLES
  0
TABLE
  2
VPORT
  5
C4D5
330
0
100
AcDbSymbolTable
 70
     1
  0
VPORT
  5
C6EA
330
C4D5
100
AcDbSymbolTableRecord
100
AcDbViewportTableRecord
  2
*ACTIVE
 70
     0
 10
0.0
 20
0.0
 11
1.0
 21
1.0
 12
162.4499097975929
 22
100.0297399730534
 13
0.0
 23
0.0
 14
10.0
 24
10.0
 15
10.0
 25
10.0
 16
0.0
 26
0.0
 36
1.0
 17
0.0
 27
0.0
 37
0.0
 40
182.095125451274
 41
1.899603698811096
 42
50.0
 43
0.0
 44
0.0
 50
0.0
 51
0.0
 71
     0
 72
   100
 73
     1
 74
     0
 75
     0
 76
     0
 77
     0
 78
     0
281
     0
 65
     1
110
0.0
120
0.0
130
0.0
111
1.0
121
0.0
131
0.0
112
0.0
122
1.0
132
0.0
 79
     0
146
0.0
1001
ACAD_NAV_VCDISPLAY
1070
     3
  0
ENDTAB
  0
TABLE
  2
LTYPE
  5
C4D2
330
0
100
AcDbSymbolTable
 70
     4
  0
LTYPE
  5
C4E0
330
C4D2
100
AcDbSymbolTableRecord
100
AcDbLinetypeTableRecord
  2
BYBLOCK
 70
     0
  3

 72
    65
 73
     0
 40
0.0
  0
LTYPE
  5
C4E1
330
C4D2
100
AcDbSymbolTableRecord
100
AcDbLinetypeTableRecord
  2
BYLAYER
 70
     0
  3

 72
    65
 73
     0
 40
0.0
  0
LTYPE
  5
C4E2
330
C4D2
100
AcDbSymbolTableRecord
100
AcDbLinetypeTableRecord
  2
CONTINUOUS
 70
     0
  3
Solid line
 72
    65
 73
     0
 40
0.0
  0
LTYPE
  5
C4F0
330
C4D2
100
AcDbSymbolTableRecord
100
AcDbLinetypeTableRecord
  2
DASHED
 70
     0
  3
__ __ __ __ __ __ __ __ __ __ __ __ __ __ __ __
 72
    65
 73
     2
 40
0.75
 49
0.5
 74
     0
 49
-0.25
 74
     0
  0
LTYPE
  5
C4F1
330
C4D2
100
AcDbSymbolTableRecord
100
AcDbLinetypeTableRecord
  2
CENTER
 70
     0
  3
____ _ ____ _ ____ _ ____ _ ____ _ ____ _ ____ 
 72
    65
 73
     4
 40
2.0
 49
1.25
 74
     0
 49
-0.25
 74
     0
 49
0.25
 74
     0
 49
-0.25
 74
     0
  0
LTYPE
  5
C4F2
330
C4D2
100
AcDbSymbolTableRecord
100
AcDbLinetypeTableRecord
  2
PHANTOM
 70
     0
  3
______  __  __  ______  __  __  ______  __  __ 
 72
    65
 73
     6
 40
2.5
 49
1.25
 74
     0
 49
-0.25
 74
     0
 49
0.25
 74
     0
 49
-0.25
 74
     0
 49
0.25
 74
     0
 49
-0.25
 74
     0
  0
ENDTAB
  0
TABLE
  2
LAYER
  5
C4CF
330
0
100
AcDbSymbolTable
 70
     8
  0
LAYER
  5
C4DD
102
{ACAD_XDICTIONARY
360
C745
102
}
330
C4CF
100
AcDbSymbolTableRecord
100
AcDbLayerTableRecord
  2
0
 70
     0
 62
     7
  6
CONTINUOUS
370
    -3
390
C6F3
  0
LAYER
  5
C4F3
102
{ACAD_XDICTIONARY
360
C747
102
}
330
C4CF
100
AcDbSymbolTableRecord
100
AcDbLayerTableRecord
  2
4
 70
     0
 62
     1
  6
CENTER
370
    -3
390
C6F3
  0
LAYER
  5
C4F4
102
{ACAD_XDICTIONARY
360
C749
102
}
330
C4CF
100
AcDbSymbolTableRecord
100
AcDbLayerTableRecord
  2
5
 70
     0
 62
     6
  6
PHANTOM
370
    -3
390
C6F3
  0
LAYER
  5
C4F5
102
{ACAD_XDICTIONARY
360
C74B
102
}
330
C4CF
100
AcDbSymbolTableRecord
100
AcDbLayerTableRecord
  2
1
 70
     0
 62
     7
  6
CONTINUOUS
370
    -3
390
C6F3
  0
LAYER
  5
C4F6
102
{ACAD_XDICTIONARY
360
C74D
102
}
330
C4CF
100
AcDbSymbolTableRecord
100
AcDbLayerTableRecord
  2
2
 70
     0
 62
     4
  6
CONTINUOUS
370
    -3
390
C6F3
  0
LAYER
  5
C4F7
102
{ACAD_XDICTIONARY
360
C74F
102
}
330
C4CF
100
AcDbSymbolTableRecord
100
AcDbLayerTableRecord
  2
3
 70
     0
 62
     2
  6
DASHED
370
    -3
390
C6F3
  0
LAYER
  5
C4F8
102
{ACAD_XDICTIONARY
360
C751
102
}
330
C4CF
100
AcDbSymbolTableRecord
100
AcDbLayerTableRecord
  2
6
 70
     0
 62
     5
  6
CONTINUOUS
370
    -3
390
C6F3
  0
LAYER
  5
C4F9
102
{ACAD_XDICTIONARY
360
C753
102
}
330
C4CF
100
AcDbSymbolTableRecord
100
AcDbLayerTableRecord
  2
7
 70
     0
 62
     3
  6
CONTINUOUS
370
    -3
390
C6F3
  0
ENDTAB
  0
TABLE
  2
STYLE
  5
C4D0
330
0
100
AcDbSymbolTable
 70
     1
  0
STYLE
  5
C4DE
330
C4D0
100
AcDbSymbolTableRecord
100
AcDbTextStyleTableRecord
  2
STANDARD
 70
     0
 40
0.0
 41
1.0
 50
0.0
 71
     0
 42
5.0
  3
txt
  4

  0
ENDTAB
  0
TABLE
  2
VIEW
  5
C4D3
330
0
100
AcDbSymbolTable
 70
     0
  0
ENDTAB
  0
TABLE
  2
UCS
  5
C4D4
330
0
100
AcDbSymbolTable
 70
     0
  0
ENDTAB
  0
TABLE
  2
APPID
  5
C4D6
330
0
100
AcDbSymbolTable
 70
     3
  0
APPID
  5
C4DF
330
C4D6
100
AcDbSymbolTableRecord
100
AcDbRegAppTableRecord
  2
ACAD
 70
     0
  0
APPID
  5
C75F
330
C4D6
100
AcDbSymbolTableRecord
100
AcDbRegAppTableRecord
  2
ACAD_NAV_VCDISPLAY
 70
     0
  0
APPID
  5
C798
330
C4D6
100
AcDbSymbolTableRecord
100
AcDbRegAppTableRecord
  2
ACAD_MLEADERVER
 70
     0
  0
ENDTAB
  0
TABLE
  2
DIMSTYLE
  5
C4D7
330
0
100
AcDbSymbolTable
 70
     1
100
AcDbDimStyleTable
 71
     0
  0
DIMSTYLE
105
C4FB
330
C4D7
100
AcDbSymbolTableRecord
100
AcDbDimStyleTableRecord
  2
STANDARD
 70
     0
 41
2.5
 42
1.0
 43
10.0
 44
1.0
 73
     0
 74
     0
 77
     3
 78
     8
140
3.2
141
0.0
147
1.0
172
     1
173
     1
284
     8
285
     8
286
     8
340
C4DE
  0
ENDTAB
  0
TABLE
  2
BLOCK_RECORD
  5
C4CE
330
0
100
AcDbSymbolTable
 70
     0
  0
BLOCK_RECORD
  5
C4EB
102
{ACAD_XDICTIONARY
360
C6ED
102
}
330
C4CE
100
AcDbSymbolTableRecord
100
AcDbBlockTableRecord
  2
*MODEL_SPACE
340
C741
  0
BLOCK_RECORD
  5
C4E7
102
{ACAD_XDICTIONARY
360
C6EB
102
}
330
C4CE
100
AcDbSymbolTableRecord
100
AcDbBlockTableRecord
  2
*PAPER_SPACE
340
C742
  0
ENDTAB
  0
ENDSEC
  0
SECTION
  2
BLOCKS
  0
BLOCK
  5
C4EC
330
C4EB
100
AcDbEntity
  8
0
100
AcDbBlockBegin
  2
*MODEL_SPACE
 70
     0
 10
0.0
 20
0.0
 30
0.0
  3
*MODEL_SPACE
  1

  0
ENDBLK
  5
C4ED
330
C4EB
100
AcDbEntity
  8
0
100
AcDbBlockEnd
  0
BLOCK
  5
C4E8
330
C4E7
100
AcDbEntity
 67
     1
  8
0
100
AcDbBlockBegin
  2
*PAPER_SPACE
 70
     0
 10
0.0
 20
0.0
 30
0.0
  3
*PAPER_SPACE
  1

  0
ENDBLK
  5
C4E9
330
C4E7
100
AcDbEntity
 67
     1
  8
0
100
AcDbBlockEnd
  0
ENDSEC
  0
SECTION
  2
ENTITIES
  0
TEXT
  5
C503
330
C4EB
100
AcDbEntity
  8
7
  6
Continuous
100
AcDbText
 10
10.0
 20
18.0
 30
0.0
 40
3.0
  1
TYPE No.TM-144SUS-25
100
AcDbText
  0
TEXT
  5
C504
330
C4EB
100
AcDbEntity
  8
7
  6
Continuous
100
AcDbText
 10
10.0
 20
26.0
 30
0.0
 40
3.0
  1
CODE No.5712
100
AcDbText
  0
TEXT
  5
C505
330
C4EB
100
AcDbEntity
  8
1
  6
Continuous
100
AcDbText
 10
10.0
 20
10.0
 30
0.0
 40
1.399999999999999
  1
LAYER
100
AcDbText
  0
TEXT
  5
C506
330
C4EB
100
AcDbEntity
  8
1
  6
Continuous
100
AcDbText
 10
17.97951099999998
 20
10.04873699999998
 30
0.0
 40
1.399999999999999
  1
1
100
AcDbText
  0
TEXT
  5
C507
330
C4EB
100
AcDbEntity
  8
7
  6
Continuous
100
AcDbText
 10
29.97951099999999
 20
10.04873699999998
 30
0.0
 40
1.399999999999999
  1
7
100
AcDbText
  0
TEXT
  5
C508
330
C4EB
100
AcDbEntity
  8
4
  6
CENTER
100
AcDbText
 10
23.97951099999999
 20
10.04873699999998
 30
0.0
 40
1.399999999999999
  1
4
100
AcDbText
  0
TEXT
  5
C509
330
C4EB
100
AcDbEntity
  8
3
  6
DASHED
100
AcDbText
 10
21.979511
 20
10.04873699999998
 30
0.0
 40
1.399999999999999
  1
3
100
AcDbText
  0
TEXT
  5
C50A
330
C4EB
100
AcDbEntity
  8
2
  6
Continuous
100
AcDbText
 10
19.97951099999999
 20
10.04873699999998
 30
0.0
 40
1.399999999999999
  1
2
100
AcDbText
  0
TEXT
  5
C50B
330
C4EB
100
AcDbEntity
  8
6
  6
Continuous
100
AcDbText
 10
27.979511
 20
10.04873699999998
 30
0.0
 40
1.399999999999999
  1
6
100
AcDbText
  0
TEXT
  5
C50C
330
C4EB
100
AcDbEntity
  8
5
  6
PHANTOM
100
AcDbText
 10
25.97951099999999
 20
10.04873699999998
 30
0.0
 40
1.399999999999999
  1
5
100
AcDbText
  0
LINE
  5
C50D
330
C4EB
100
AcDbEntity
  8
1
  6
Continuous
100
AcDbLine
 10
108.1002389999998
 20
119.549175
 30
0.0
 11
119.1002389999999
 21
119.549175
 31
0.0
  0
LINE
  5
C50E
330
C4EB
100
AcDbEntity
  8
1
  6
Continuous
100
AcDbLine
 10
130.8502389999999
 20
120.5256749999998
 30
0.0
 11
130.8502389999999
 21
124.499175
 31
0.0
  0
LINE
  5
C50F
330
C4EB
100
AcDbEntity
  8
1
  6
Continuous
100
AcDbLine
 10
122.8502389999998
 20
120.799175
 30
0.0
 11
122.8502389999998
 21
130.0491749999999
 31
0.0
  0
LINE
  5
C510
330
C4EB
100
AcDbEntity
  8
1
  6
Continuous
100
AcDbLine
 10
104.350239
 20
122.5491749999999
 30
0.0
 11
104.350239
 21
130.0491749999999
 31
0.0
  0
LINE
  5
C511
330
C4EB
100
AcDbEntity
  8
4
  6
CENTER
100
AcDbLine
 10
113.6002389999999
 20
92.49589699999999
 30
0.0
 11
113.6002389999999
 21
134.5491749999999
 31
0.0
  0
LINE
  5
C512
330
C4EB
100
AcDbEntity
  8
1
  6
Continuous
100
AcDbLine
 10
105.8502389999999
 20
131.5491749999999
 30
0.0
 11
121.3502389999999
 21
131.5491749999999
 31
0.0
  0
LINE
  5
C513
330
C4EB
100
AcDbEntity
  8
1
  6
Continuous
100
AcDbLine
 10
107.8002389999999
 20
171.549575
 30
0.0
 11
119.4002389999998
 21
171.549575
 31
0.0
  0
LINE
  5
C514
330
C4EB
100
AcDbEntity
  8
1
  6
Continuous
100
AcDbLine
 10
107.8002389999999
 20
187.049575
 30
0.0
 11
119.4002389999998
 21
187.049575
 31
0.0
  0
LINE
  5
C515
330
C4EB
100
AcDbEntity
  8
4
  6
CENTER
100
AcDbLine
 10
96.5
 20
179.299575
 30
0.0
 11
134.8502389999999
 21
179.299575
 31
0.0
  0
LINE
  5
C516
330
C4EB
100
AcDbEntity
  8
4
  6
CENTER
100
AcDbLine
 10
195.050477
 20
92.49589699999999
 30
0.0
 11
195.050477
 21
134.5492129999998
 31
0.0
  0
LINE
  5
C517
330
C4EB
100
AcDbEntity
  8
1
  6
Continuous
100
AcDbLine
 10
122.8502389999998
 20
174.549575
 30
0.0
 11
122.8502389999998
 21
184.049575
 31
0.0
  0
LINE
  5
C518
330
C4EB
100
AcDbEntity
  8
4
  6
CENTER
100
AcDbLine
 10
113.6002389999999
 20
168.549575
 30
0.0
 11
113.6002389999999
 21
190.049575
 31
0.0
  0
LINE
  5
C519
330
C4EB
100
AcDbEntity
  8
1
  6
Continuous
100
AcDbLine
 10
104.350239
 20
174.549575
 30
0.0
 11
104.350239
 21
184.049575
 31
0.0
  0
LINE
  5
C51A
330
C4EB
100
AcDbEntity
  8
1
  6
Continuous
100
AcDbLine
 10
104.3294049999999
 20
122.5491749999999
 30
0.0
 11
107.8002389999999
 21
122.5491749999999
 31
0.0
  0
ARC
  5
C51B
330
C4EB
100
AcDbEntity
  8
1
  6
Continuous
100
AcDbCircle
 10
105.8502389999999
 20
130.0491749999999
 30
0.0
 40
1.5
100
AcDbArc
 50
90.0
 51
180.0
  0
ARC
  5
C51C
330
C4EB
100
AcDbEntity
  8
1
  6
Continuous
100
AcDbCircle
 10
121.3502389999999
 20
130.0491749999999
 30
0.0
 40
1.5
100
AcDbArc
 50
0.0
 51
90.0
  0
LINE
  5
C51D
330
C4EB
100
AcDbEntity
  8
1
  6
Continuous
100
AcDbLine
 10
119.4002389999998
 20
122.5491749999999
 30
0.0
 11
122.8502389999998
 21
122.5491749999999
 31
0.0
  0
LINE
  5
C51E
330
C4EB
100
AcDbEntity
  8
4
  6
CENTER
100
AcDbLine
 10
97.35023900000001
 20
125.299175
 30
0.0
 11
133.8502389999999
 21
125.299175
 31
0.0
  0
LINE
  5
C51F
330
C4EB
100
AcDbEntity
  8
1
  6
Continuous
100
AcDbLine
 10
127.8502389999998
 20
126.099175
 30
0.0
 11
130.8502389999999
 21
126.099175
 31
0.0
  0
LINE
  5
C520
330
C4EB
100
AcDbEntity
  8
1
  6
Continuous
100
AcDbLine
 10
127.8502389999998
 20
124.499175
 30
0.0
 11
130.8502389999999
 21
124.499175
 31
0.0
  0
LINE
  5
C521
330
C4EB
100
AcDbEntity
  8
1
  6
Continuous
100
AcDbLine
 10
127.8502389999998
 20
124.499175
 30
0.0
 11
127.8502389999998
 21
126.099175
 31
0.0
  0
LINE
  5
C522
330
C4EB
100
AcDbEntity
  8
1
  6
Continuous
100
AcDbLine
 10
130.8502389999999
 20
126.099175
 30
0.0
 11
130.8502389999999
 21
130.072675
 31
0.0
  0
LINE
  5
C523
330
C4EB
100
AcDbEntity
  8
4
  6
CENTER
100
AcDbLine
 10
184.300477
 20
125.2992129999999
 30
0.0
 11
205.800477
 21
125.2992129999999
 31
0.0
  0
LINE
  5
C524
330
C4EB
100
AcDbEntity
  8
1
  6
Continuous
100
AcDbLine
 10
190.0504769999998
 20
126.0992129999999
 30
0.0
 11
200.050477
 21
126.0992129999999
 31
0.0
  0
LINE
  5
C525
330
C4EB
100
AcDbEntity
  8
1
  6
Continuous
100
AcDbLine
 10
190.0504769999998
 20
124.4992129999999
 30
0.0
 11
200.050477
 21
124.4992129999999
 31
0.0
  0
LINE
  5
C526
330
C4EB
100
AcDbEntity
  8
1
  6
Continuous
100
AcDbLine
 10
201.300477
 20
122.5492129999999
 30
0.0
 11
201.300477
 21
126.680901
 31
0.0
  0
LINE
  5
C527
330
C4EB
100
AcDbEntity
  8
1
  6
Continuous
100
AcDbLine
 10
188.800477
 20
122.5492129999999
 30
0.0
 11
188.800477
 21
126.680901
 31
0.0
  0
LINE
  5
C528
330
C4EB
100
AcDbEntity
  8
1
  6
Continuous
100
AcDbLine
 10
188.3830539999999
 20
122.5492129999999
 30
0.0
 11
190.1527729999999
 21
122.5492129999999
 31
0.0
  0
LINE
  5
C529
330
C4EB
100
AcDbEntity
  8
1
  6
Continuous
100
AcDbLine
 10
199.9481809999998
 20
122.5492129999999
 30
0.0
 11
201.7179
 21
122.5492129999999
 31
0.0
  0
ARC
  5
C52A
330
C4EB
100
AcDbEntity
  8
1
  6
Continuous
100
AcDbCircle
 10
188.800477
 20
121.0492129999999
 30
0.0
 40
1.5
100
AcDbArc
 50
180.0
 51
260.405932
  0
ARC
  5
C52B
330
C4EB
100
AcDbEntity
  8
1
  6
Continuous
100
AcDbCircle
 10
201.300477
 20
121.0492129999999
 30
0.0
 40
1.5
100
AcDbArc
 50
279.594068
 51
0.0
  0
LINE
  5
C52C
330
C4EB
100
AcDbEntity
  8
1
  6
Continuous
100
AcDbLine
 10
105.8502389999999
 20
185.549575
 30
0.0
 11
106.6002389999999
 21
185.549575
 31
0.0
  0
LINE
  5
C52D
330
C4EB
100
AcDbEntity
  8
1
  6
Continuous
100
AcDbLine
 10
105.8502389999999
 20
173.049575
 30
0.0
 11
106.6002389999999
 21
173.049575
 31
0.0
  0
LINE
  5
C52E
330
C4EB
100
AcDbEntity
  8
1
  6
Continuous
100
AcDbLine
 10
120.6002389999998
 20
185.549575
 30
0.0
 11
121.3502389999999
 21
185.549575
 31
0.0
  0
LINE
  5
C52F
330
C4EB
100
AcDbEntity
  8
1
  6
Continuous
100
AcDbLine
 10
120.6002389999998
 20
173.049575
 30
0.0
 11
121.3502389999999
 21
173.049575
 31
0.0
  0
LINE
  5
C530
330
C4EB
100
AcDbEntity
  8
1
  6
Continuous
100
AcDbLine
 10
201.962781
 20
120.467729
 30
0.0
 11
201.550477
 21
120.449175
 31
0.0
  0
LINE
  5
C531
330
C4EB
100
AcDbEntity
  8
1
  6
Continuous
100
AcDbLine
 10
188.1381739999999
 20
120.467729
 30
0.0
 11
188.550477
 21
120.449175
 31
0.0
  0
ARC
  5
C532
330
C4EB
100
AcDbEntity
  8
1
  6
Continuous
100
AcDbCircle
 10
121.3502389999999
 20
184.049575
 30
0.0
 40
1.5
100
AcDbArc
 50
0.0
 51
90.0
  0
ARC
  5
C533
330
C4EB
100
AcDbEntity
  8
1
  6
Continuous
100
AcDbCircle
 10
105.8502389999999
 20
184.049575
 30
0.0
 40
1.5
100
AcDbArc
 50
90.0
 51
180.0
  0
ARC
  5
C534
330
C4EB
100
AcDbEntity
  8
1
  6
Continuous
100
AcDbCircle
 10
105.8502389999999
 20
174.549575
 30
0.0
 40
1.5
100
AcDbArc
 50
180.0
 51
270.0
  0
ARC
  5
C535
330
C4EB
100
AcDbEntity
  8
1
  6
Continuous
100
AcDbCircle
 10
121.3502389999999
 20
174.549575
 30
0.0
 40
1.5
100
AcDbArc
 50
270.0
 51
0.0
  0
ARC
  5
C536
330
C4EB
100
AcDbEntity
  8
1
  6
Continuous
100
AcDbCircle
 10
104.350239
 20
179.299575
 30
0.0
 40
3.0
100
AcDbArc
 50
90.0
 51
270.0
  0
ARC
  5
C537
330
C4EB
100
AcDbEntity
  8
1
  6
Continuous
100
AcDbCircle
 10
104.339822
 20
125.549175
 30
0.0
 40
3.000017999999998
100
AcDbArc
 50
89.80105700000001
 51
270.1989429999999
  0
LINE
  5
C538
330
C4EB
100
AcDbEntity
  8
1
  6
Continuous
100
AcDbLine
 10
119.1002389999999
 20
119.549175
 30
0.0
 11
119.4002389999998
 21
122.5491749999999
 31
0.0
  0
LINE
  5
C539
330
C4EB
100
AcDbEntity
  8
1
  6
Continuous
100
AcDbLine
 10
107.8002389999999
 20
122.5491749999999
 30
0.0
 11
108.1002389999998
 21
119.549175
 31
0.0
  0
ARC
  5
C53A
330
C4EB
100
AcDbEntity
  8
1
  6
Continuous
100
AcDbCircle
 10
113.6002389999999
 20
118.442508
 30
0.0
 40
7.106666999999997
100
AcDbArc
 50
35.30024799999999
 51
144.6997519999999
  0
LINE
  5
C53B
330
C4EB
100
AcDbEntity
  8
1
  6
Continuous
100
AcDbLine
 10
124.8502389999998
 20
120.049175
 30
0.0
 11
124.8502389999998
 21
130.5491749999999
 31
0.0
  0
ARC
  5
C53C
330
C4EB
100
AcDbEntity
  8
1
  6
Continuous
100
AcDbCircle
 10
129.8502389999999
 20
130.072675
 30
0.0
 40
1.0
100
AcDbArc
 50
0.0
 51
28.45706
  0
ARC
  5
C53D
330
C4EB
100
AcDbEntity
  8
1
  6
Continuous
100
AcDbCircle
 10
129.8502389999999
 20
120.5256749999998
 30
0.0
 40
1.0
100
AcDbArc
 50
331.5429399999998
 51
0.0
  0
LINE
  5
C53E
330
C4EB
100
AcDbEntity
  8
1
  6
Continuous
100
AcDbLine
 10
126.823584
 20
127.549175
 30
0.0
 11
129.0502389999998
 21
127.549175
 31
0.0
  0
LINE
  5
C53F
330
C4EB
100
AcDbEntity
  8
1
  6
Continuous
100
AcDbLine
 10
126.823584
 20
123.049175
 30
0.0
 11
129.0502389999998
 21
123.049175
 31
0.0
  0
ARC
  5
C540
330
C4EB
100
AcDbEntity
  8
1
  6
Continuous
100
AcDbCircle
 10
127.9369109999999
 20
128.949543
 30
0.0
 40
6.004484999999997
100
AcDbArc
 50
239.065273
 51
259.3146159999998
  0
ARC
  5
C541
330
C4EB
100
AcDbEntity
  8
1
  6
Continuous
100
AcDbCircle
 10
127.9369109999999
 20
121.648807
 30
0.0
 40
6.004484999999997
100
AcDbArc
 50
60.974955
 51
79.314616
  0
ARC
  5
C542
330
C4EB
100
AcDbEntity
  8
1
  6
Continuous
100
AcDbCircle
 10
127.9369109999999
 20
121.648807
 30
0.0
 40
6.004484999999997
100
AcDbArc
 50
100.6853839999999
 51
120.934727
  0
ARC
  5
C543
330
C4EB
100
AcDbEntity
  8
1
  6
Continuous
100
AcDbCircle
 10
127.9369109999999
 20
128.949543
 30
0.0
 40
6.004484999999997
100
AcDbArc
 50
280.685384
 51
299.0250449999999
  0
LINE
  5
C544
330
C4EB
100
AcDbEntity
  8
1
  6
Continuous
100
AcDbLine
 10
126.823584
 20
128.849175
 30
0.0
 11
129.0502389999998
 21
128.849175
 31
0.0
  0
LINE
  5
C545
330
C4EB
100
AcDbEntity
  8
1
  6
Continuous
100
AcDbLine
 10
126.823584
 20
121.7491749999998
 30
0.0
 11
129.0502389999998
 21
121.7491749999998
 31
0.0
  0
ARC
  5
C546
330
C4EB
100
AcDbEntity
  8
1
  6
Continuous
100
AcDbCircle
 10
127.9369109999999
 20
134.7495429999999
 30
0.0
 40
6.004484999999997
100
AcDbArc
 50
239.065273
 51
259.3146159999998
  0
ARC
  5
C547
330
C4EB
100
AcDbEntity
  8
1
  6
Continuous
100
AcDbCircle
 10
127.9369109999999
 20
115.8488069999999
 30
0.0
 40
6.004484999999997
100
AcDbArc
 50
60.974955
 51
79.314616
  0
ARC
  5
C548
330
C4EB
100
AcDbEntity
  8
1
  6
Continuous
100
AcDbCircle
 10
127.9369109999999
 20
115.8488069999999
 30
0.0
 40
6.004484999999997
100
AcDbArc
 50
100.6853839999999
 51
120.934727
  0
ARC
  5
C549
330
C4EB
100
AcDbEntity
  8
1
  6
Continuous
100
AcDbCircle
 10
127.9369109999999
 20
134.7495429999999
 30
0.0
 40
6.004484999999997
100
AcDbArc
 50
280.685384
 51
299.0250449999999
  0
LINE
  5
C54A
330
C4EB
100
AcDbEntity
  8
1
  6
Continuous
100
AcDbLine
 10
122.8502389999998
 20
129.7991749999999
 30
0.0
 11
124.8502389999998
 21
129.7991749999999
 31
0.0
  0
LINE
  5
C54B
330
C4EB
100
AcDbEntity
  8
1
  6
Continuous
100
AcDbLine
 10
122.8502389999998
 20
120.799175
 30
0.0
 11
124.8502389999998
 21
120.799175
 31
0.0
  0
ARC
  5
C54C
330
C4EB
100
AcDbEntity
  8
1
  6
Continuous
100
AcDbCircle
 10
127.789826
 20
126.5233679999999
 30
0.0
 40
7.110299
100
AcDbArc
 50
245.5797249999998
 51
254.238518
  0
ARC
  5
C54D
330
C4EB
100
AcDbEntity
  8
1
  6
Continuous
100
AcDbCircle
 10
127.789826
 20
124.074982
 30
0.0
 40
7.110299
100
AcDbArc
 50
65.57972499999999
 51
74.24076499999998
  0
ARC
  5
C54E
330
C4EB
100
AcDbEntity
  8
1
  6
Continuous
100
AcDbCircle
 10
127.789826
 20
124.074982
 30
0.0
 40
7.110299
100
AcDbArc
 50
105.7592349999999
 51
114.420275
  0
ARC
  5
C54F
330
C4EB
100
AcDbEntity
  8
1
  6
Continuous
100
AcDbCircle
 10
127.789826
 20
126.5233679999999
 30
0.0
 40
7.110299
100
AcDbArc
 50
285.761482
 51
294.420275
  0
LINE
  5
C550
330
C4EB
100
AcDbEntity
  8
1
  6
Continuous
100
AcDbLine
 10
124.8502389999998
 20
174.299575
 30
0.0
 11
124.8502389999998
 21
184.299575
 31
0.0
  0
LINE
  5
C551
330
C4EB
100
AcDbEntity
  8
1
  6
Continuous
100
AcDbLine
 10
124.8502389999998
 20
184.299575
 30
0.0
 11
129.8502389999999
 21
184.299575
 31
0.0
  0
LINE
  5
C552
330
C4EB
100
AcDbEntity
  8
1
  6
Continuous
100
AcDbLine
 10
124.8502389999998
 20
174.299575
 30
0.0
 11
129.8502389999999
 21
174.299575
 31
0.0
  0
LINE
  5
C553
330
C4EB
100
AcDbEntity
  8
1
  6
Continuous
100
AcDbLine
 10
130.8502389999999
 20
175.299575
 30
0.0
 11
130.8502389999999
 21
183.299575
 31
0.0
  0
LINE
  5
C554
330
C4EB
100
AcDbEntity
  8
1
  6
Continuous
100
AcDbLine
 10
127.0893689999999
 20
179.799575
 30
0.0
 11
129.0502389999998
 21
179.799575
 31
0.0
  0
LINE
  5
C555
330
C4EB
100
AcDbEntity
  8
1
  6
Continuous
100
AcDbLine
 10
127.0893689999999
 20
178.799575
 30
0.0
 11
129.0502389999998
 21
178.799575
 31
0.0
  0
ARC
  5
C556
330
C4EB
100
AcDbEntity
  8
1
  6
Continuous
100
AcDbCircle
 10
128.069804
 20
183.684358
 30
0.0
 40
4.006592999999998
100
AcDbArc
 50
216.5279299999999
 51
255.8355779999999
  0
ARC
  5
C557
330
C4EB
100
AcDbEntity
  8
1
  6
Continuous
100
AcDbCircle
 10
128.069804
 20
174.914792
 30
0.0
 40
4.006592999999998
100
AcDbArc
 50
46.05521399999997
 51
75.835578
  0
ARC
  5
C558
330
C4EB
100
AcDbEntity
  8
1
  6
Continuous
100
AcDbCircle
 10
128.069804
 20
183.684358
 30
0.0
 40
4.006592999999998
100
AcDbArc
 50
284.164422
 51
313.9447859999999
  0
ARC
  5
C559
330
C4EB
100
AcDbEntity
  8
1
  6
Continuous
100
AcDbCircle
 10
128.069804
 20
174.914792
 30
0.0
 40
4.006592999999998
100
AcDbArc
 50
104.164422
 51
143.4720699999998
  0
ARC
  5
C55A
330
C4EB
100
AcDbEntity
  8
1
  6
Continuous
100
AcDbCircle
 10
129.8502389999999
 20
183.299575
 30
0.0
 40
1.0
100
AcDbArc
 50
0.0
 51
90.0
  0
ARC
  5
C55B
330
C4EB
100
AcDbEntity
  8
1
  6
Continuous
100
AcDbCircle
 10
129.8502389999999
 20
175.299575
 30
0.0
 40
1.0
100
AcDbArc
 50
270.0
 51
0.0
  0
ARC
  5
C55C
330
C4EB
100
AcDbEntity
  8
1
  6
Continuous
100
AcDbCircle
 10
128.214562
 20
178.489417
 30
0.0
 40
5.869947999999999
100
AcDbArc
 50
64.77410899999999
 51
81.81526300000001
  0
ARC
  5
C55D
330
C4EB
100
AcDbEntity
  8
1
  6
Continuous
100
AcDbCircle
 10
128.214562
 20
180.109733
 30
0.0
 40
5.869947999999999
100
AcDbArc
 50
235.030267
 51
261.815263
  0
ARC
  5
C55E
330
C4EB
100
AcDbEntity
  8
1
  6
Continuous
100
AcDbCircle
 10
128.214562
 20
178.489417
 30
0.0
 40
5.869947999999999
100
AcDbArc
 50
98.184737
 51
124.969733
  0
ARC
  5
C55F
330
C4EB
100
AcDbEntity
  8
1
  6
Continuous
100
AcDbCircle
 10
128.214562
 20
180.109733
 30
0.0
 40
5.869947999999999
100
AcDbArc
 50
278.1847369999999
 51
295.225891
  0
ARC
  5
C560
330
C4EB
100
AcDbEntity
  8
1
  6
Continuous
100
AcDbCircle
 10
195.050477
 20
125.2992129999999
 30
0.0
 40
4.5
100
AcDbArc
 50
190.240348
 51
349.759652
  0
ARC
  5
C561
330
C4EB
100
AcDbEntity
  8
1
  6
Continuous
100
AcDbCircle
 10
195.050477
 20
125.2992129999999
 30
0.0
 40
4.5
100
AcDbArc
 50
10.24034799999999
 51
169.7596519999999
  0
LINE
  5
C562
330
C4EB
100
AcDbEntity
  8
1
  6
Continuous
100
AcDbLine
 10
202.8004769999999
 20
121.0492129999999
 30
0.0
 11
202.191627
 21
126.2244369999999
 31
0.0
  0
LINE
  5
C563
330
C4EB
100
AcDbEntity
  8
1
  6
Continuous
100
AcDbLine
 10
187.300477
 20
121.0492129999999
 30
0.0
 11
187.909327
 21
126.2244369999999
 31
0.0
  0
LINE
  5
C564
330
C4EB
100
AcDbEntity
  8
1
  6
Continuous
100
AcDbLine
 10
188.1381739999999
 20
120.467729
 30
0.0
 11
188.3830539999999
 21
122.5492129999999
 31
0.0
  0
LINE
  5
C565
330
C4EB
100
AcDbEntity
  8
1
  6
Continuous
100
AcDbLine
 10
201.962781
 20
120.467729
 30
0.0
 11
201.7179
 21
122.5492129999999
 31
0.0
  0
LINE
  5
C566
330
C4EB
100
AcDbEntity
  8
1
  6
Continuous
100
AcDbLine
 10
129.720952
 20
130.9180149999999
 30
0.0
 11
125.8587
 21
130.9180149999999
 31
0.0
  0
LINE
  5
C567
330
C4EB
100
AcDbEntity
  8
1
  6
Continuous
100
AcDbLine
 10
129.7212199999999
 20
119.680411
 30
0.0
 11
125.8584319999999
 21
119.680411
 31
0.0
  0
ARC
  5
C568
330
C4EB
100
AcDbEntity
  8
1
  6
Continuous
100
AcDbCircle
 10
195.050477
 20
125.1030919999999
 30
0.0
 40
6.446082999999998
100
AcDbArc
 50
14.168254
 51
165.831746
  0
ARC
  5
C569
330
C4EB
100
AcDbEntity
  8
1
  6
Continuous
100
AcDbCircle
 10
189.399053
 20
126.049175
 30
0.0
 40
1.5
100
AcDbArc
 50
102.599855
 51
173.2901629999998
  0
ARC
  5
C56A
330
C4EB
100
AcDbEntity
  8
1
  6
Continuous
100
AcDbCircle
 10
200.7019019999999
 20
126.049175
 30
0.0
 40
1.5
100
AcDbArc
 50
6.709836999999998
 51
77.40014499999998
  0
LINE
  5
C56B
330
C4EB
100
AcDbEntity
  8
1
  6
Continuous
100
AcDbLine
 10
188.550477
 20
121.6942129999999
 30
0.0
 11
191.294521
 21
121.6942129999999
 31
0.0
  0
LINE
  5
C56C
330
C4EB
100
AcDbEntity
  8
1
  6
Continuous
100
AcDbLine
 10
201.550477
 20
96.49589699999999
 30
0.0
 11
201.550477
 21
121.6942129999999
 31
0.0
  0
LINE
  5
C56D
330
C4EB
100
AcDbEntity
  8
1
  6
Continuous
100
AcDbLine
 10
188.550477
 20
96.49589699999999
 30
0.0
 11
188.550477
 21
121.6942129999999
 31
0.0
  0
LINE
  5
C56E
330
C4EB
100
AcDbEntity
  8
1
  6
Continuous
100
AcDbLine
 10
198.806434
 20
121.6942129999999
 30
0.0
 11
201.550477
 21
121.6942129999999
 31
0.0
  0
LINE
  5
C56F
330
C4EB
100
AcDbEntity
  8
1
  6
Continuous
100
AcDbLine
 10
100.5
 20
185.799575
 30
0.0
 11
106.8002389999999
 21
185.799575
 31
0.0
  0
LINE
  5
C570
330
C4EB
100
AcDbEntity
  8
1
  6
Continuous
100
AcDbLine
 10
100.5
 20
172.799575
 30
0.0
 11
106.8002389999999
 21
172.799575
 31
0.0
  0
LINE
  5
C571
330
C4EB
100
AcDbEntity
  8
1
  6
Continuous
100
AcDbLine
 10
120.4002389999998
 20
185.799575
 30
0.0
 11
127.300477
 21
185.799575
 31
0.0
  0
LINE
  5
C572
330
C4EB
100
AcDbEntity
  8
1
  6
Continuous
100
AcDbLine
 10
120.4002389999998
 20
172.799575
 30
0.0
 11
127.300477
 21
172.799575
 31
0.0
  0
ARC
  5
C573
330
C4EB
100
AcDbEntity
  8
5
  6
PHANTOM
100
AcDbCircle
 10
113.763749
 20
112.502878
 30
0.0
 40
10.000223
100
AcDbArc
 50
125.275951
 51
56.845691
  0
ARC
  5
C574
330
C4EB
100
AcDbEntity
  8
1
  6
Continuous
100
AcDbCircle
 10
113.6002389999999
 20
109.596136
 30
0.0
 40
12.500239
100
AcDbArc
 50
116.72363
 51
63.27636999999999
  0
LINE
  5
C575
330
C4EB
100
AcDbEntity
  8
4
  6
CENTER
100
AcDbLine
 10
96.5
 20
109.596136
 30
0.0
 11
130.583892
 21
109.596136
 31
0.0
  0
ARC
  5
C576
330
C4EB
100
AcDbEntity
  8
5
  6
PHANTOM
100
AcDbCircle
 10
113.763749
 20
112.502878
 30
0.0
 40
10.60022299999999
100
AcDbArc
 50
123.452366
 51
58.51746099999998
  0
ARC
  5
C577
330
C4EB
100
AcDbEntity
  8
5
  6
PHANTOM
100
AcDbCircle
 10
113.763749
 20
112.502878
 30
0.0
 40
11.200223
100
AcDbArc
 50
189.295198
 51
59.990414
  0
ARC
  5
C578
330
C4EB
100
AcDbEntity
  8
1
  6
Continuous
100
AcDbCircle
 10
113.6002389999999
 20
109.596136
 30
0.0
 40
13.100239
100
AcDbArc
 50
115.718946
 51
64.28105399999998
  0
ARC
  5
C579
330
C4EB
100
AcDbEntity
  8
1
  6
Continuous
100
AcDbCircle
 10
113.6002389999999
 20
109.596136
 30
0.0
 40
13.700239
100
AcDbArc
 50
305.969033
 51
65.192165
  0
LINE
  5
C57A
330
C4EB
100
AcDbEntity
  8
1
  6
Continuous
100
AcDbLine
 10
100.5
 20
42.245897
 30
0.0
 11
100.5
 21
55.24589699999999
 31
0.0
  0
LINE
  5
C57B
330
C4EB
100
AcDbEntity
  8
1
  6
Continuous
100
AcDbLine
 10
127.300477
 20
55.24589699999999
 30
0.0
 11
127.300477
 21
42.245897
 31
0.0
  0
LINE
  5
C57C
330
C4EB
100
AcDbEntity
  8
4
  6
CENTER
100
AcDbLine
 10
184.5504769999998
 20
109.596136
 30
0.0
 11
205.550477
 21
109.596136
 31
0.0
  0
LINE
  5
C57D
330
C4EB
100
AcDbEntity
  8
4
  6
CENTER
100
AcDbLine
 10
22.0
 20
125.303315
 30
0.0
 11
43.5
 21
125.303315
 31
0.0
  0
LINE
  5
C57E
330
C4EB
100
AcDbEntity
  8
4
  6
CENTER
100
AcDbLine
 10
22.25
 20
109.6002389999999
 30
0.0
 11
43.25
 21
109.6002389999999
 31
0.0
  0
LINE
  5
C57F
330
C4EB
100
AcDbEntity
  8
4
  6
CENTER
100
AcDbLine
 10
32.75
 20
92.5
 30
0.0
 11
32.75
 21
134.553315
 31
0.0
  0
ARC
  5
C580
330
C4EB
100
AcDbEntity
  8
1
  6
Continuous
100
AcDbCircle
 10
32.75
 20
125.1071949999999
 30
0.0
 40
6.446082999999998
100
AcDbArc
 50
14.168254
 51
165.831746
  0
LINE
  5
C581
330
C4EB
100
AcDbEntity
  8
1
  6
Continuous
100
AcDbLine
 10
39.25
 20
96.5
 30
0.0
 11
39.25
 21
121.70917
 31
0.0
  0
LINE
  5
C582
330
C4EB
100
AcDbEntity
  8
1
  6
Continuous
100
AcDbLine
 10
26.25
 20
96.5
 30
0.0
 11
26.25
 21
121.70917
 31
0.0
  0
ARC
  5
C583
330
C4EB
100
AcDbEntity
  8
1
  6
Continuous
100
AcDbCircle
 10
26.5
 20
121.053315
 30
0.0
 40
1.5
100
AcDbArc
 50
180.0
 51
260.405932
  0
LINE
  5
C584
330
C4EB
100
AcDbEntity
  8
1
  6
Continuous
100
AcDbLine
 10
25.0
 20
121.053315
 30
0.0
 11
25.60885
 21
126.2285389999999
 31
0.0
  0
ARC
  5
C585
330
C4EB
100
AcDbEntity
  8
1
  6
Continuous
100
AcDbCircle
 10
27.098576
 20
126.053278
 30
0.0
 40
1.5
100
AcDbArc
 50
102.599855
 51
173.2901629999998
  0
LINE
  5
C586
330
C4EB
100
AcDbEntity
  8
1
  6
Continuous
100
AcDbLine
 10
39.0
 20
122.5533149999999
 30
0.0
 11
39.0
 21
126.685004
 31
0.0
  0
LINE
  5
C587
330
C4EB
100
AcDbEntity
  8
1
  6
Continuous
100
AcDbLine
 10
37.68761400000001
 20
122.5533149999999
 30
0.0
 11
39.41742299999999
 21
122.5533149999999
 31
0.0
  0
ARC
  5
C588
330
C4EB
100
AcDbEntity
  8
1
  6
Continuous
100
AcDbCircle
 10
39.0
 20
121.053315
 30
0.0
 40
1.5
100
AcDbArc
 50
279.594068
 51
0.0
  0
LINE
  5
C589
330
C4EB
100
AcDbEntity
  8
1
  6
Continuous
100
AcDbLine
 10
39.662304
 20
120.471832
 30
0.0
 11
39.25
 21
120.453278
 31
0.0
  0
LINE
  5
C58A
330
C4EB
100
AcDbEntity
  8
1
  6
Continuous
100
AcDbLine
 10
40.49999999999999
 20
121.053315
 30
0.0
 11
39.89115
 21
126.2285389999999
 31
0.0
  0
LINE
  5
C58B
330
C4EB
100
AcDbEntity
  8
1
  6
Continuous
100
AcDbLine
 10
39.662304
 20
120.471832
 30
0.0
 11
39.41742299999999
 21
122.5533149999999
 31
0.0
  0
ARC
  5
C58C
330
C4EB
100
AcDbEntity
  8
1
  6
Continuous
100
AcDbCircle
 10
38.40142399999999
 20
126.053278
 30
0.0
 40
1.5
100
AcDbArc
 50
6.709836999999998
 51
77.40014499999998
  0
LINE
  5
C58D
330
C4EB
100
AcDbEntity
  8
1
  6
Continuous
100
AcDbLine
 10
26.5
 20
122.5533149999999
 30
0.0
 11
26.5
 21
126.685004
 31
0.0
  0
LINE
  5
C58E
330
C4EB
100
AcDbEntity
  8
1
  6
Continuous
100
AcDbLine
 10
25.837696
 20
120.471832
 30
0.0
 11
26.25
 21
120.453278
 31
0.0
  0
LINE
  5
C58F
330
C4EB
100
AcDbEntity
  8
1
  6
Continuous
100
AcDbLine
 10
25.837696
 20
120.471832
 30
0.0
 11
26.082577
 21
122.5533149999999
 31
0.0
  0
LINE
  5
C590
330
C4EB
100
AcDbEntity
  8
1
  6
Continuous
100
AcDbLine
 10
26.082577
 20
122.5533149999999
 30
0.0
 11
27.812386
 21
122.5533149999999
 31
0.0
  0
CIRCLE
  5
C591
330
C4EB
100
AcDbEntity
  8
1
  6
Continuous
100
AcDbCircle
 10
32.75
 20
125.553278
 30
0.0
 40
3.0
  0
LINE
  5
C592
330
C4EB
100
AcDbEntity
  8
1
  6
Continuous
100
AcDbLine
 10
29.76504099999999
 20
125.8533149999999
 30
0.0
 11
28.74612899999998
 21
123.195369
 31
0.0
  0
LINE
  5
C593
330
C4EB
100
AcDbEntity
  8
1
  6
Continuous
100
AcDbLine
 10
35.73495900000001
 20
125.8533149999999
 30
0.0
 11
36.753871
 21
123.195369
 31
0.0
  0
ARC
  5
C594
330
C4EB
100
AcDbEntity
  8
1
  6
Continuous
100
AcDbCircle
 10
37.68761400000001
 20
123.5533149999999
 30
0.0
 40
1.0
100
AcDbArc
 50
200.9741219999999
 51
270.0
  0
ARC
  5
C595
330
C4EB
100
AcDbEntity
  8
1
  6
Continuous
100
AcDbCircle
 10
27.812386
 20
123.5533149999999
 30
0.0
 40
1.0
100
AcDbArc
 50
270.0
 51
339.0258779999999
  0
ARC
  5
C596
330
C4EB
100
AcDbEntity
  8
1
  6
Continuous
100
AcDbCircle
 10
128.214362
 20
49.556055
 30
0.0
 40
5.869947999999999
100
AcDbArc
 50
261.0432589999999
 51
261.815263
  0
ARC
  5
C597
330
C4EB
100
AcDbEntity
  8
1
  6
Continuous
100
AcDbCircle
 10
129.8502389999999
 20
44.745897
 30
0.0
 40
1.0
100
AcDbArc
 50
270.0
 51
0.0
  0
LINE
  5
C598
330
C4EB
100
AcDbEntity
  8
4
  6
CENTER
100
AcDbLine
 10
113.6002389999999
 20
37.995897
 30
0.0
 11
113.6002389999999
 21
59.495897
 31
0.0
  0
LINE
  5
C599
330
C4EB
100
AcDbEntity
  8
1
  6
Continuous
100
AcDbLine
 10
100.5
 20
42.245897
 30
0.0
 11
127.300477
 21
42.245897
 31
0.0
  0
LINE
  5
C59A
330
C4EB
100
AcDbEntity
  8
1
  6
Continuous
100
AcDbLine
 10
107.8002389999999
 20
40.995897
 30
0.0
 11
119.4002389999998
 21
40.995897
 31
0.0
  0
ARC
  5
C59B
330
C4EB
100
AcDbEntity
  8
1
  6
Continuous
100
AcDbCircle
 10
128.214362
 20
49.556055
 30
0.0
 40
5.869947999999999
100
AcDbArc
 50
278.1847369999999
 51
295.225891
  0
LINE
  5
C59C
330
C4EB
100
AcDbEntity
  8
1
  6
Continuous
100
AcDbLine
 10
127.300477
 20
43.745897
 30
0.0
 11
129.8500389999998
 21
43.745897
 31
0.0
  0
LINE
  5
C59D
330
C4EB
100
AcDbEntity
  8
1
  6
Continuous
100
AcDbLine
 10
100.5
 20
55.24589699999999
 30
0.0
 11
127.300477
 21
55.24589699999999
 31
0.0
  0
ARC
  5
C59E
330
C4EB
100
AcDbEntity
  8
1
  6
Continuous
100
AcDbCircle
 10
128.214562
 20
47.93574
 30
0.0
 40
5.869947999999999
100
AcDbArc
 50
98.184737
 51
98.95871800000001
  0
ARC
  5
C59F
330
C4EB
100
AcDbEntity
  8
1
  6
Continuous
100
AcDbCircle
 10
128.214562
 20
47.93574
 30
0.0
 40
5.869947999999999
100
AcDbArc
 50
64.77410899999999
 51
81.81526300000001
  0
ARC
  5
C5A0
330
C4EB
100
AcDbEntity
  8
1
  6
Continuous
100
AcDbCircle
 10
129.8502389999999
 20
52.74589699999999
 30
0.0
 40
1.0
100
AcDbArc
 50
0.0
 51
90.0
  0
ARC
  5
C5A1
330
C4EB
100
AcDbEntity
  8
1
  6
Continuous
100
AcDbCircle
 10
128.069804
 20
53.13068000000001
 30
0.0
 40
4.006592999999998
100
AcDbArc
 50
284.164422
 51
313.9447859999999
  0
ARC
  5
C5A2
330
C4EB
100
AcDbEntity
  8
1
  6
Continuous
100
AcDbCircle
 10
128.069804
 20
44.36111499999999
 30
0.0
 40
4.006592999999998
100
AcDbArc
 50
46.05521399999997
 51
75.835578
  0
LINE
  5
C5A3
330
C4EB
100
AcDbEntity
  8
1
  6
Continuous
100
AcDbLine
 10
127.300477
 20
48.245897
 30
0.0
 11
129.0502389999998
 21
48.245897
 31
0.0
  0
LINE
  5
C5A4
330
C4EB
100
AcDbEntity
  8
1
  6
Continuous
100
AcDbLine
 10
127.300477
 20
49.245897
 30
0.0
 11
129.0502389999998
 21
49.245897
 31
0.0
  0
LINE
  5
C5A5
330
C4EB
100
AcDbEntity
  8
1
  6
Continuous
100
AcDbLine
 10
130.8502389999999
 20
44.745897
 30
0.0
 11
130.8502389999999
 21
52.74589699999999
 31
0.0
  0
LINE
  5
C5A6
330
C4EB
100
AcDbEntity
  8
1
  6
Continuous
100
AcDbLine
 10
127.300477
 20
53.745897
 30
0.0
 11
129.8502389999999
 21
53.745897
 31
0.0
  0
LINE
  5
C5A7
330
C4EB
100
AcDbEntity
  8
1
  6
Continuous
100
AcDbLine
 10
100.5
 20
185.799575
 30
0.0
 11
100.5
 21
172.799575
 31
0.0
  0
LINE
  5
C5A8
330
C4EB
100
AcDbEntity
  8
1
  6
Continuous
100
AcDbLine
 10
127.300477
 20
185.799575
 30
0.0
 11
127.300477
 21
184.299575
 31
0.0
  0
LINE
  5
C5A9
330
C4EB
100
AcDbEntity
  8
1
  6
Continuous
100
AcDbLine
 10
127.300477
 20
174.299575
 30
0.0
 11
127.300477
 21
172.799575
 31
0.0
  0
LINE
  5
C5AA
330
C4EB
100
AcDbEntity
  8
1
  6
Continuous
100
AcDbLine
 10
26.25
 20
96.5
 30
0.0
 11
39.25
 21
96.5
 31
0.0
  0
LINE
  5
C5AB
330
C4EB
100
AcDbEntity
  8
1
  6
Continuous
100
AcDbLine
 10
188.550477
 20
96.49589699999999
 30
0.0
 11
201.550477
 21
96.49589699999999
 31
0.0
  0
LINE
  5
C5AC
330
C4EB
100
AcDbEntity
  8
5
  6
PHANTOM
100
AcDbLine
 10
103.302715
 20
110.7907189999999
 30
0.0
 11
102.710593
 21
110.693806
 31
0.0
  0
LINE
  5
C5AD
330
C4EB
100
AcDbEntity
  8
1
  6
Continuous
100
AcDbLine
 10
121.6470449999999
 20
98.50805900000001
 30
0.0
 11
121.294636
 21
98.99366
 31
0.0
  0
LINE
  5
C5AE
330
C4EB
100
AcDbEntity
  8
1
  6
Continuous
100
AcDbLine
 10
121.6823509999999
 20
52.46901799999999
 30
0.0
 11
122.689831
 21
49.02679599999999
 31
0.0
  0
LINE
  5
C5AF
330
C4EB
100
AcDbEntity
  8
1
  6
Continuous
100
AcDbLine
 10
122.689831
 20
48.464999
 30
0.0
 11
121.6823509999999
 21
45.02277699999999
 31
0.0
  0
LINE
  5
C5B0
330
C4EB
100
AcDbEntity
  8
1
  6
Continuous
100
AcDbLine
 10
121.3299429999999
 20
52.46901799999999
 30
0.0
 11
122.3374219999999
 21
49.02679599999999
 31
0.0
  0
LINE
  5
C5B1
330
C4EB
100
AcDbEntity
  8
1
  6
Continuous
100
AcDbLine
 10
122.3374219999999
 20
48.464999
 30
0.0
 11
121.3299429999999
 21
45.02277699999999
 31
0.0
  0
ARC
  5
C5B2
330
C4EB
100
AcDbEntity
  8
1
  6
Continuous
100
AcDbCircle
 10
122.6420889999999
 20
52.74991700000001
 30
0.0
 40
1.0
100
AcDbArc
 50
153.4349489999998
 51
196.313852
  0
ARC
  5
C5B3
330
C4EB
100
AcDbEntity
  8
1
  6
Continuous
100
AcDbCircle
 10
122.28968
 20
52.74991700000001
 30
0.0
 40
1.0
100
AcDbArc
 50
153.4349489999998
 51
196.313852
  0
ARC
  5
C5B4
330
C4EB
100
AcDbEntity
  8
1
  6
Continuous
100
AcDbCircle
 10
121.377685
 20
48.745897
 30
0.0
 40
1.0
100
AcDbArc
 50
343.686148
 51
16.313852
  0
ARC
  5
C5B5
330
C4EB
100
AcDbEntity
  8
1
  6
Continuous
100
AcDbCircle
 10
121.7300939999998
 20
48.745897
 30
0.0
 40
1.0
100
AcDbArc
 50
343.686148
 51
16.313852
  0
LINE
  5
C5B6
330
C4EB
100
AcDbEntity
  8
1
  6
Continuous
100
AcDbLine
 10
190.9595769999999
 20
98.53015300000002
 30
0.0
 11
194.7928149999999
 21
99.552349
 31
0.0
  0
LINE
  5
C5B7
330
C4EB
100
AcDbEntity
  8
1
  6
Continuous
100
AcDbLine
 10
195.3081399999999
 20
99.552349
 30
0.0
 11
199.141378
 21
98.53015300000002
 31
0.0
  0
ARC
  5
C5B8
330
C4EB
100
AcDbEntity
  8
1
  6
Continuous
100
AcDbCircle
 10
199.3990399999999
 20
99.496388
 30
0.0
 40
1.0
100
AcDbArc
 50
255.0685829999999
 51
300.9637569999998
  0
ARC
  5
C5B9
330
C4EB
100
AcDbEntity
  8
1
  6
Continuous
100
AcDbCircle
 10
190.7019139999999
 20
99.496388
 30
0.0
 40
1.0
100
AcDbArc
 50
239.036243
 51
284.9314169999999
  0
ARC
  5
C5BA
330
C4EB
100
AcDbEntity
  8
1
  6
Continuous
100
AcDbCircle
 10
195.050477
 20
98.586114
 30
0.0
 40
1.0
100
AcDbArc
 50
75.06858299999997
 51
104.9314169999999
  0
LINE
  5
C5BB
330
C4EB
100
AcDbEntity
  8
1
  6
Continuous
100
AcDbLine
 10
107.9790389999998
 20
120.7611739999999
 30
0.0
 11
103.4178439999999
 21
116.8319219999999
 31
0.0
  0
LINE
  5
C5BC
330
C4EB
100
AcDbEntity
  8
1
  6
Continuous
100
AcDbLine
 10
108.051951
 20
120.032053
 30
0.0
 11
103.8094469999999
 21
116.377337
 31
0.0
  0
LINE
  5
C5BD
330
C4EB
100
AcDbEntity
  8
1
  6
Continuous
100
AcDbLine
 10
103.4178439999999
 20
116.8319219999999
 30
0.0
 11
103.8094469999999
 21
116.377337
 31
0.0
  0
LINE
  5
C5BE
330
C4EB
100
AcDbEntity
  8
1
  6
Continuous
100
AcDbLine
 10
104.554306
 20
117.810929
 30
0.0
 11
104.945909
 21
117.3563449999999
 31
0.0
  0
LINE
  5
C5BF
330
C4EB
100
AcDbEntity
  8
1
  6
Continuous
100
AcDbLine
 10
107.8002389999999
 20
56.49589699999999
 30
0.0
 11
107.8002389999999
 21
55.24589699999999
 31
0.0
  0
LINE
  5
C5C0
330
C4EB
100
AcDbEntity
  8
1
  6
Continuous
100
AcDbLine
 10
119.4002389999998
 20
56.49589699999999
 30
0.0
 11
119.4002389999998
 21
55.24589699999999
 31
0.0
  0
LINE
  5
C5C1
330
C4EB
100
AcDbEntity
  8
1
  6
Continuous
100
AcDbLine
 10
119.4002389999998
 20
42.245897
 30
0.0
 11
119.4002389999998
 21
40.995897
 31
0.0
  0
LINE
  5
C5C2
330
C4EB
100
AcDbEntity
  8
1
  6
Continuous
100
AcDbLine
 10
107.8002389999999
 20
42.245897
 30
0.0
 11
107.8002389999999
 21
40.995897
 31
0.0
  0
LINE
  5
C5C3
330
C4EB
100
AcDbEntity
  8
1
  6
Continuous
100
AcDbLine
 10
26.25
 20
121.70917
 30
0.0
 11
39.25
 21
121.70917
 31
0.0
  0
LINE
  5
C5C4
330
C4EB
100
AcDbEntity
  8
1
  6
Continuous
100
AcDbLine
 10
199.913536
 20
98.63889499999999
 30
0.0
 11
201.550477
 21
99.45574
 31
0.0
  0
LINE
  5
C5C5
330
C4EB
100
AcDbEntity
  8
1
  6
Continuous
100
AcDbLine
 10
190.187419
 20
98.63889499999999
 30
0.0
 11
188.550477
 21
99.45574
 31
0.0
  0
LINE
  5
C5C6
330
C4EB
100
AcDbEntity
  8
1
  6
Continuous
100
AcDbLine
 10
121.395253
 20
53.19713
 30
0.0
 11
122.2334889999999
 21
55.24589699999999
 31
0.0
  0
LINE
  5
C5C7
330
C4EB
100
AcDbEntity
  8
1
  6
Continuous
100
AcDbLine
 10
121.747662
 20
53.19713
 30
0.0
 11
122.5873199999999
 21
55.24589699999999
 31
0.0
  0
LINE
  5
C5C8
330
C4EB
100
AcDbEntity
  8
1
  6
Continuous
100
AcDbLine
 10
121.395253
 20
44.294665
 30
0.0
 11
122.2334889999999
 21
42.245897
 31
0.0
  0
LINE
  5
C5C9
330
C4EB
100
AcDbEntity
  8
1
  6
Continuous
100
AcDbLine
 10
121.747662
 20
44.294665
 30
0.0
 11
122.5873199999999
 21
42.245897
 31
0.0
  0
LINE
  5
C5CA
330
C4EB
100
AcDbEntity
  8
1
  6
Continuous
100
AcDbLine
 10
195.050477
 20
101.1608579999999
 30
0.0
 11
192.132977
 21
101.1608579999999
 31
0.0
  0
LINE
  5
C5CB
330
C4EB
100
AcDbEntity
  8
1
  6
Continuous
100
AcDbLine
 10
195.050477
 20
103.19338
 30
0.0
 11
192.161727
 21
103.19338
 31
0.0
  0
LINE
  5
C5CC
330
C4EB
100
AcDbEntity
  8
1
  6
Continuous
100
AcDbLine
 10
195.050477
 20
105.414498
 30
0.0
 11
192.190977
 21
105.414498
 31
0.0
  0
LINE
  5
C5CD
330
C4EB
100
AcDbEntity
  8
1
  6
Continuous
100
AcDbLine
 10
195.050477
 20
107.7768969999999
 30
0.0
 11
192.195727
 21
107.7768969999999
 31
0.0
  0
LINE
  5
C5CE
330
C4EB
100
AcDbEntity
  8
1
  6
Continuous
100
AcDbLine
 10
195.050477
 20
110.196136
 30
0.0
 11
192.200477
 21
110.196136
 31
0.0
  0
LINE
  5
C5CF
330
C4EB
100
AcDbEntity
  8
1
  6
Continuous
100
AcDbLine
 10
195.050477
 20
112.596629
 30
0.0
 11
192.1987269999999
 21
112.596629
 31
0.0
  0
LINE
  5
C5D0
330
C4EB
100
AcDbEntity
  8
1
  6
Continuous
100
AcDbLine
 10
195.050477
 20
114.91446
 30
0.0
 11
192.187477
 21
114.91446
 31
0.0
  0
LINE
  5
C5D1
330
C4EB
100
AcDbEntity
  8
1
  6
Continuous
100
AcDbLine
 10
195.050477
 20
117.0442989999999
 30
0.0
 11
192.1592269999999
 21
117.0442989999999
 31
0.0
  0
LINE
  5
C5D2
330
C4EB
100
AcDbEntity
  8
1
  6
Continuous
100
AcDbLine
 10
195.050477
 20
118.9612939999999
 30
0.0
 11
192.132977
 21
118.9612939999999
 31
0.0
  0
LINE
  5
C5D3
330
C4EB
100
AcDbEntity
  8
1
  6
Continuous
100
AcDbLine
 10
193.2444969999998
 20
120.5683929999999
 30
0.0
 11
192.0904769999999
 21
120.5683929999999
 31
0.0
  0
LINE
  5
C5D4
330
C4EB
100
AcDbEntity
  8
1
  6
Continuous
100
AcDbLine
 10
127.179153
 20
48.745897
 30
0.0
 11
127.179153
 21
51.842397
 31
0.0
  0
LINE
  5
C5D5
330
C4EB
100
AcDbEntity
  8
1
  6
Continuous
100
AcDbLine
 10
126.646711
 20
48.745897
 30
0.0
 11
126.646711
 21
51.790647
 31
0.0
  0
LINE
  5
C5D6
330
C4EB
100
AcDbEntity
  8
1
  6
Continuous
100
AcDbLine
 10
124.3883199999998
 20
48.745897
 30
0.0
 11
124.3883199999998
 21
51.700897
 31
0.0
  0
LINE
  5
C5D7
330
C4EB
100
AcDbEntity
  8
1
  6
Continuous
100
AcDbLine
 10
120.4870169999999
 20
48.745897
 30
0.0
 11
120.4870169999999
 21
51.640397
 31
0.0
  0
LINE
  5
C5D8
330
C4EB
100
AcDbEntity
  8
1
  6
Continuous
100
AcDbLine
 10
118.406629
 20
48.745897
 30
0.0
 11
118.406629
 21
51.62189699999998
 31
0.0
  0
LINE
  5
C5D9
330
C4EB
100
AcDbEntity
  8
1
  6
Continuous
100
AcDbLine
 10
113.8842949999999
 20
48.745897
 30
0.0
 11
113.8842949999999
 21
51.609147
 31
0.0
  0
LINE
  5
C5DA
330
C4EB
100
AcDbEntity
  8
1
  6
Continuous
100
AcDbLine
 10
111.57386
 20
48.745897
 30
0.0
 11
111.57386
 21
51.61464699999999
 31
0.0
  0
LINE
  5
C5DB
330
C4EB
100
AcDbEntity
  8
1
  6
Continuous
100
AcDbLine
 10
109.33761
 20
48.745897
 30
0.0
 11
109.33761
 21
51.62639699999999
 31
0.0
  0
LINE
  5
C5DC
330
C4EB
100
AcDbEntity
  8
1
  6
Continuous
100
AcDbLine
 10
107.213137
 20
48.745897
 30
0.0
 11
107.213137
 21
51.65189699999999
 31
0.0
  0
LINE
  5
C5DD
330
C4EB
100
AcDbEntity
  8
1
  6
Continuous
100
AcDbLine
 10
105.2990969999999
 20
48.745897
 30
0.0
 11
105.2990969999999
 21
51.682147
 31
0.0
  0
LINE
  5
C5DE
330
C4EB
100
AcDbEntity
  8
1
  6
Continuous
100
AcDbLine
 10
103.6444179999999
 20
48.745897
 30
0.0
 11
103.6444179999999
 21
51.719147
 31
0.0
  0
LINE
  5
C5DF
330
C4EB
100
AcDbEntity
  8
1
  6
Continuous
100
AcDbLine
 10
102.306625
 20
48.745897
 30
0.0
 11
102.306625
 21
51.76014699999999
 31
0.0
  0
LINE
  5
C5E0
330
C4EB
100
AcDbEntity
  8
1
  6
Continuous
100
AcDbLine
 10
101.3142119999999
 20
48.745897
 30
0.0
 11
101.3142119999999
 21
51.806647
 31
0.0
  0
LINE
  5
C5E1
330
C4EB
100
AcDbEntity
  8
1
  6
Continuous
100
AcDbLine
 10
100.7036419999999
 20
48.745897
 30
0.0
 11
100.7036419999999
 21
51.85789699999999
 31
0.0
  0
LINE
  5
C5E2
330
C4EB
100
AcDbEntity
  8
1
  6
Continuous
100
AcDbLine
 10
32.75
 20
121.0435499999999
 30
0.0
 11
35.771
 21
121.0435499999999
 31
0.0
  0
LINE
  5
C5E3
330
C4EB
100
AcDbEntity
  8
1
  6
Continuous
100
AcDbLine
 10
32.75
 20
119.7346989999999
 30
0.0
 11
35.725
 21
119.7346989999999
 31
0.0
  0
LINE
  5
C5E4
330
C4EB
100
AcDbEntity
  8
1
  6
Continuous
100
AcDbLine
 10
32.75
 20
118.1235449999998
 30
0.0
 11
35.69274999999999
 21
118.1235449999998
 31
0.0
  0
LINE
  5
C5E5
330
C4EB
100
AcDbEntity
  8
1
  6
Continuous
100
AcDbLine
 10
32.75
 20
116.238803
 30
0.0
 11
35.65699999999999
 21
116.238803
 31
0.0
  0
LINE
  5
C5E6
330
C4EB
100
AcDbEntity
  8
1
  6
Continuous
100
AcDbLine
 10
32.75
 20
114.134387
 30
0.0
 11
35.63000000000001
 21
114.134387
 31
0.0
  0
LINE
  5
C5E7
330
C4EB
100
AcDbEntity
  8
1
  6
Continuous
100
AcDbLine
 10
32.75
 20
111.9011179999999
 30
0.0
 11
35.6145
 21
111.9011179999999
 31
0.0
  0
LINE
  5
C5E8
330
C4EB
100
AcDbEntity
  8
1
  6
Continuous
100
AcDbLine
 10
32.75
 20
109.5944889999999
 30
0.0
 11
35.6105
 21
109.5944889999999
 31
0.0
  0
LINE
  5
C5E9
330
C4EB
100
AcDbEntity
  8
1
  6
Continuous
100
AcDbLine
 10
32.75
 20
107.2880389999999
 30
0.0
 11
35.60999999999999
 21
107.2880389999999
 31
0.0
  0
LINE
  5
C5EA
330
C4EB
100
AcDbEntity
  8
1
  6
Continuous
100
AcDbLine
 10
32.75
 20
105.053832
 30
0.0
 11
35.62425000000001
 21
105.053832
 31
0.0
  0
LINE
  5
C5EB
330
C4EB
100
AcDbEntity
  8
1
  6
Continuous
100
AcDbLine
 10
32.75
 20
102.961674
 30
0.0
 11
35.64074999999998
 21
102.961674
 31
0.0
  0
LINE
  5
C5EC
330
C4EB
100
AcDbEntity
  8
1
  6
Continuous
100
AcDbLine
 10
32.75
 20
101.085669
 30
0.0
 11
35.6705
 21
101.085669
 31
0.0
  0
LINE
  5
C5ED
330
C4EB
100
AcDbEntity
  8
1
  6
Continuous
100
AcDbLine
 10
32.75
 20
99.44760999999999
 30
0.0
 11
35.70000000000001
 21
99.44760999999999
 31
0.0
  0
LINE
  5
C5EE
330
C4EB
100
AcDbEntity
  8
1
  6
Continuous
100
AcDbLine
 10
32.75
 20
98.16253000000001
 30
0.0
 11
35.74925000000001
 21
98.16253000000001
 31
0.0
  0
LINE
  5
C5EF
330
C4EB
100
AcDbEntity
  8
1
  6
Continuous
100
AcDbLine
 10
32.75
 20
97.216643
 30
0.0
 11
35.7875
 21
97.216643
 31
0.0
  0
LINE
  5
C5F0
330
C4EB
100
AcDbEntity
  8
1
  6
Continuous
100
AcDbLine
 10
32.75
 20
96.65767200000001
 30
0.0
 11
35.84324999999999
 21
96.65767200000001
 31
0.0
  0
LINE
  5
C5F1
330
C4EB
100
AcDbEntity
  8
1
  6
Continuous
100
AcDbLine
 10
102.300801
 20
177.108729
 30
0.0
 11
102.300801
 21
176.308825
 31
0.0
  0
LINE
  5
C5F2
330
C4EB
100
AcDbEntity
  8
1
  6
Continuous
100
AcDbLine
 10
101.3142119999999
 20
179.299575
 30
0.0
 11
101.3142119999999
 21
176.260825
 31
0.0
  0
LINE
  5
C5F3
330
C4EB
100
AcDbEntity
  8
1
  6
Continuous
100
AcDbLine
 10
100.705667
 20
179.299575
 30
0.0
 11
100.705667
 21
176.2125749999999
 31
0.0
  0
LINE
  5
C5F4
330
C4EB
100
AcDbEntity
  8
1
  6
Continuous
100
AcDbLine
 10
195.050477
 20
98.452145
 30
0.0
 11
192.041727
 21
98.452145
 31
0.0
  0
LINE
  5
C5F5
330
C4EB
100
AcDbEntity
  8
1
  6
Continuous
100
AcDbLine
 10
195.050477
 20
97.41369200000001
 30
0.0
 11
191.994977
 21
97.41369200000001
 31
0.0
  0
LINE
  5
C5F6
330
C4EB
100
AcDbEntity
  8
1
  6
Continuous
100
AcDbLine
 10
195.050477
 20
96.753596
 30
0.0
 11
191.944727
 21
96.753596
 31
0.0
  0
ARC
  5
C5F7
330
C4EB
100
AcDbEntity
  8
1
  6
Continuous
100
AcDbCircle
 10
192.0904769999999
 20
120.3783929999999
 30
0.0
 40
0.19
100
AcDbArc
 50
90.0
 51
270.0
  0
ARC
  5
C5F8
330
C4EB
100
AcDbEntity
  8
1
  6
Continuous
100
AcDbCircle
 10
198.010477
 20
119.998405
 30
0.0
 40
0.19
100
AcDbArc
 50
270.0
 51
90.0
  0
LINE
  5
C5F9
330
C4EB
100
AcDbEntity
  8
1
  6
Continuous
100
AcDbLine
 10
192.0904769999999
 20
120.1883929999999
 30
0.0
 11
194.1293489999999
 21
120.057524
 31
0.0
  0
LINE
  5
C5FA
330
C4EB
100
AcDbEntity
  8
1
  6
Continuous
100
AcDbLine
 10
198.010477
 20
120.188405
 30
0.0
 11
196.527942
 21
120.3787249999999
 31
0.0
  0
ARC
  5
C5FB
330
C4EB
100
AcDbEntity
  8
1
  6
Continuous
100
AcDbCircle
 10
192.132977
 20
118.728794
 30
0.0
 40
0.2325
100
AcDbArc
 50
90.0
 51
270.0
  0
ARC
  5
C5FC
330
C4EB
100
AcDbEntity
  8
1
  6
Continuous
100
AcDbCircle
 10
197.9679769999999
 20
118.2639139999998
 30
0.0
 40
0.2325
100
AcDbArc
 50
270.0
 51
90.0
  0
LINE
  5
C5FD
330
C4EB
100
AcDbEntity
  8
1
  6
Continuous
100
AcDbLine
 10
192.132977
 20
118.4962939999999
 30
0.0
 11
197.9679769999999
 21
118.0314139999999
 31
0.0
  0
LINE
  5
C5FE
330
C4EB
100
AcDbEntity
  8
1
  6
Continuous
100
AcDbLine
 10
197.9679769999999
 20
118.4964139999999
 30
0.0
 11
195.050477
 21
118.9612939999999
 31
0.0
  0
ARC
  5
C5FF
330
C4EB
100
AcDbEntity
  8
1
  6
Continuous
100
AcDbCircle
 10
192.1592269999999
 20
116.7855489999999
 30
0.0
 40
0.25875
100
AcDbArc
 50
90.0
 51
270.0
  0
ARC
  5
C600
330
C4EB
100
AcDbEntity
  8
1
  6
Continuous
100
AcDbCircle
 10
197.9417269999999
 20
116.268272
 30
0.0
 40
0.25875
100
AcDbArc
 50
259.7763469999999
 51
90.0
  0
LINE
  5
C601
330
C4EB
100
AcDbEntity
  8
1
  6
Continuous
100
AcDbLine
 10
197.9417269999999
 20
116.527022
 30
0.0
 11
195.050477
 21
117.0442989999999
 31
0.0
  0
ARC
  5
C602
330
C4EB
100
AcDbEntity
  8
1
  6
Continuous
100
AcDbCircle
 10
192.187477
 20
114.62746
 30
0.0
 40
0.287
100
AcDbArc
 50
90.0
 51
270.0
  0
ARC
  5
C603
330
C4EB
100
AcDbEntity
  8
1
  6
Continuous
100
AcDbCircle
 10
197.913477
 20
114.0533199999999
 30
0.0
 40
0.287
100
AcDbArc
 50
258.5483149999999
 51
90.0
  0
LINE
  5
C604
330
C4EB
100
AcDbEntity
  8
1
  6
Continuous
100
AcDbLine
 10
192.187477
 20
114.3404599999998
 30
0.0
 11
197.8564959999999
 21
113.7720339999999
 31
0.0
  0
LINE
  5
C605
330
C4EB
100
AcDbEntity
  8
1
  6
Continuous
100
AcDbLine
 10
197.913477
 20
114.3403199999999
 30
0.0
 11
195.050477
 21
114.91446
 31
0.0
  0
ARC
  5
C606
330
C4EB
100
AcDbEntity
  8
1
  6
Continuous
100
AcDbCircle
 10
192.1987269999999
 20
112.2983789999999
 30
0.0
 40
0.29825
100
AcDbArc
 50
90.0
 51
270.0
  0
ARC
  5
C607
330
C4EB
100
AcDbEntity
  8
1
  6
Continuous
100
AcDbCircle
 10
197.902227
 20
111.701705
 30
0.0
 40
0.29825
100
AcDbArc
 50
270.0
 51
90.0
  0
LINE
  5
C608
330
C4EB
100
AcDbEntity
  8
1
  6
Continuous
100
AcDbLine
 10
192.1987269999999
 20
112.000129
 30
0.0
 11
197.902227
 21
111.4034549999999
 31
0.0
  0
LINE
  5
C609
330
C4EB
100
AcDbEntity
  8
1
  6
Continuous
100
AcDbLine
 10
197.902227
 20
111.9999549999999
 30
0.0
 11
195.050477
 21
112.596629
 31
0.0
  0
ARC
  5
C60A
330
C4EB
100
AcDbEntity
  8
1
  6
Continuous
100
AcDbCircle
 10
192.200477
 20
109.896136
 30
0.0
 40
0.3
100
AcDbArc
 50
90.0
 51
270.0
  0
ARC
  5
C60B
330
C4EB
100
AcDbEntity
  8
1
  6
Continuous
100
AcDbCircle
 10
197.9004769999999
 20
109.296136
 30
0.0
 40
0.3
100
AcDbArc
 50
270.0
 51
90.0
  0
LINE
  5
C60C
330
C4EB
100
AcDbEntity
  8
1
  6
Continuous
100
AcDbLine
 10
192.200477
 20
109.596136
 30
0.0
 11
197.9004769999999
 21
108.9961359999998
 31
0.0
  0
LINE
  5
C60D
330
C4EB
100
AcDbEntity
  8
1
  6
Continuous
100
AcDbLine
 10
197.9004769999999
 20
109.596136
 30
0.0
 11
195.050477
 21
110.196136
 31
0.0
  0
ARC
  5
C60E
330
C4EB
100
AcDbEntity
  8
1
  6
Continuous
100
AcDbCircle
 10
192.195727
 20
107.481647
 30
0.0
 40
0.29525
100
AcDbArc
 50
90.0
 51
270.0
  0
ARC
  5
C60F
330
C4EB
100
AcDbEntity
  8
1
  6
Continuous
100
AcDbCircle
 10
197.905227
 20
106.8908929999999
 30
0.0
 40
0.29525
100
AcDbArc
 50
270.0
 51
90.0
  0
LINE
  5
C610
330
C4EB
100
AcDbEntity
  8
1
  6
Continuous
100
AcDbLine
 10
192.195727
 20
107.186397
 30
0.0
 11
197.905227
 21
106.5956429999999
 31
0.0
  0
LINE
  5
C611
330
C4EB
100
AcDbEntity
  8
1
  6
Continuous
100
AcDbLine
 10
197.905227
 20
107.186143
 30
0.0
 11
195.050477
 21
107.7768969999999
 31
0.0
  0
ARC
  5
C612
330
C4EB
100
AcDbEntity
  8
1
  6
Continuous
100
AcDbCircle
 10
192.190977
 20
105.123998
 30
0.0
 40
0.2905
100
AcDbArc
 50
90.0
 51
270.0
  0
ARC
  5
C613
330
C4EB
100
AcDbEntity
  8
1
  6
Continuous
100
AcDbCircle
 10
197.9099769999999
 20
104.5433319999998
 30
0.0
 40
0.2905
100
AcDbArc
 50
258.404933
 51
90.0
  0
LINE
  5
C614
330
C4EB
100
AcDbEntity
  8
1
  6
Continuous
100
AcDbLine
 10
192.190977
 20
104.8334979999999
 30
0.0
 11
197.8515889999999
 21
104.25876
 31
0.0
  0
LINE
  5
C615
330
C4EB
100
AcDbEntity
  8
1
  6
Continuous
100
AcDbLine
 10
197.9099769999999
 20
104.833832
 30
0.0
 11
195.050477
 21
105.414498
 31
0.0
  0
ARC
  5
C616
330
C4EB
100
AcDbEntity
  8
1
  6
Continuous
100
AcDbCircle
 10
192.161727
 20
102.93213
 30
0.0
 40
0.26125
100
AcDbArc
 50
90.0
 51
270.0
  0
ARC
  5
C617
330
C4EB
100
AcDbEntity
  8
1
  6
Continuous
100
AcDbCircle
 10
197.9392269999999
 20
102.4092229999999
 30
0.0
 40
0.26125
100
AcDbArc
 50
270.0
 51
90.0
  0
LINE
  5
C618
330
C4EB
100
AcDbEntity
  8
1
  6
Continuous
100
AcDbLine
 10
192.161727
 20
102.67088
 30
0.0
 11
197.9392269999999
 21
102.147973
 31
0.0
  0
LINE
  5
C619
330
C4EB
100
AcDbEntity
  8
1
  6
Continuous
100
AcDbLine
 10
197.9392269999999
 20
102.670473
 30
0.0
 11
195.050477
 21
103.19338
 31
0.0
  0
ARC
  5
C61A
330
C4EB
100
AcDbEntity
  8
1
  6
Continuous
100
AcDbCircle
 10
192.132977
 20
100.9283579999999
 30
0.0
 40
0.2325
100
AcDbArc
 50
90.0
 51
270.0
  0
ARC
  5
C61B
330
C4EB
100
AcDbEntity
  8
1
  6
Continuous
100
AcDbCircle
 10
197.9679769999999
 20
100.4634779999999
 30
0.0
 40
0.2325
100
AcDbArc
 50
260.889638
 51
90.0
  0
LINE
  5
C61C
330
C4EB
100
AcDbEntity
  8
1
  6
Continuous
100
AcDbLine
 10
192.132977
 20
100.695858
 30
0.0
 11
197.9311639999998
 21
100.2339109999999
 31
0.0
  0
LINE
  5
C61D
330
C4EB
100
AcDbEntity
  8
1
  6
Continuous
100
AcDbLine
 10
197.9679769999999
 20
100.695978
 30
0.0
 11
195.050477
 21
101.1608579999999
 31
0.0
  0
ARC
  5
C61E
330
C4EB
100
AcDbEntity
  8
1
  6
Continuous
100
AcDbCircle
 10
192.041727
 20
98.310895
 30
0.0
 40
0.14125
100
AcDbArc
 50
90.0
 51
270.0
  0
ARC
  5
C61F
330
C4EB
100
AcDbEntity
  8
1
  6
Continuous
100
AcDbCircle
 10
198.0592269999999
 20
98.028349
 30
0.0
 40
0.14125
100
AcDbArc
 50
270.0
 51
90.0
  0
LINE
  5
C620
330
C4EB
100
AcDbEntity
  8
1
  6
Continuous
100
AcDbLine
 10
192.041727
 20
98.16964499999999
 30
0.0
 11
198.0592269999999
 21
97.887099
 31
0.0
  0
LINE
  5
C621
330
C4EB
100
AcDbEntity
  8
1
  6
Continuous
100
AcDbLine
 10
198.0592269999999
 20
98.169599
 30
0.0
 11
195.050477
 21
98.452145
 31
0.0
  0
ARC
  5
C622
330
C4EB
100
AcDbEntity
  8
1
  6
Continuous
100
AcDbCircle
 10
198.105977
 20
97.13013000000001
 30
0.0
 40
0.0945
100
AcDbArc
 50
266.45589
 51
90.0
  0
ARC
  5
C623
330
C4EB
100
AcDbEntity
  8
1
  6
Continuous
100
AcDbCircle
 10
191.994977
 20
97.319192
 30
0.0
 40
0.0945
100
AcDbArc
 50
90.0
 51
270.0
  0
LINE
  5
C624
330
C4EB
100
AcDbEntity
  8
1
  6
Continuous
100
AcDbLine
 10
191.994977
 20
97.224692
 30
0.0
 11
198.100136
 21
97.035811
 31
0.0
  0
LINE
  5
C625
330
C4EB
100
AcDbEntity
  8
1
  6
Continuous
100
AcDbLine
 10
198.105977
 20
97.22463000000001
 30
0.0
 11
195.050477
 21
97.41369200000001
 31
0.0
  0
ARC
  5
C626
330
C4EB
100
AcDbEntity
  8
1
  6
Continuous
100
AcDbCircle
 10
191.944727
 20
96.709346
 30
0.0
 40
0.04425
100
AcDbArc
 50
90.0
 51
270.0
  0
ARC
  5
C627
330
C4EB
100
AcDbEntity
  8
1
  6
Continuous
100
AcDbCircle
 10
198.1562269999998
 20
96.62085300000001
 30
0.0
 40
0.04425
100
AcDbArc
 50
270.0
 51
90.0
  0
LINE
  5
C628
330
C4EB
100
AcDbEntity
  8
1
  6
Continuous
100
AcDbLine
 10
198.1562269999998
 20
96.57660300000001
 30
0.0
 11
191.944727
 21
96.66509600000001
 31
0.0
  0
LINE
  5
C629
330
C4EB
100
AcDbEntity
  8
1
  6
Continuous
100
AcDbLine
 10
195.050477
 20
96.753596
 30
0.0
 11
198.1562269999998
 21
96.665103
 31
0.0
  0
LINE
  5
C62A
330
C4EB
100
AcDbEntity
  8
1
  6
Continuous
100
AcDbLine
 10
194.006887
 20
99.342769
 30
0.0
 11
196.714779
 21
99.17724599999999
 31
0.0
  0
ARC
  5
C62B
330
C4EB
100
AcDbEntity
  8
1
  6
Continuous
100
AcDbCircle
 10
127.125653
 20
51.842397
 30
0.0
 40
0.0535
100
AcDbArc
 50
0.0
 51
180.0
  0
ARC
  5
C62C
330
C4EB
100
AcDbEntity
  8
1
  6
Continuous
100
AcDbCircle
 10
127.018731
 20
45.649397
 30
0.0
 40
0.0535
100
AcDbArc
 50
180.0
 51
0.0
  0
LINE
  5
C62D
330
C4EB
100
AcDbEntity
  8
1
  6
Continuous
100
AcDbLine
 10
126.965231
 20
45.649397
 30
0.0
 11
127.072153
 21
51.842397
 31
0.0
  0
LINE
  5
C62E
330
C4EB
100
AcDbEntity
  8
1
  6
Continuous
100
AcDbLine
 10
127.072231
 20
45.649397
 30
0.0
 11
127.179153
 21
48.745897
 31
0.0
  0
ARC
  5
C62F
330
C4EB
100
AcDbEntity
  8
1
  6
Continuous
100
AcDbCircle
 10
126.331334
 20
45.701147
 30
0.0
 40
0.10525
100
AcDbArc
 50
180.0
 51
0.0
  0
LINE
  5
C630
330
C4EB
100
AcDbEntity
  8
1
  6
Continuous
100
AcDbLine
 10
126.436584
 20
45.701147
 30
0.0
 11
126.646711
 21
48.745897
 31
0.0
  0
ARC
  5
C631
330
C4EB
100
AcDbEntity
  8
1
  6
Continuous
100
AcDbCircle
 10
126.541461
 20
51.790647
 30
0.0
 40
0.10525
100
AcDbArc
 50
0.0
 51
180.0
  0
LINE
  5
C632
330
C4EB
100
AcDbEntity
  8
1
  6
Continuous
100
AcDbLine
 10
126.436211
 20
51.790647
 30
0.0
 11
126.226084
 21
45.701147
 31
0.0
  0
ARC
  5
C633
330
C4EB
100
AcDbEntity
  8
1
  6
Continuous
100
AcDbCircle
 10
125.5572679999998
 20
51.74089699999999
 30
0.0
 40
0.155
100
AcDbArc
 50
0.0
 51
180.0
  0
ARC
  5
C634
330
C4EB
100
AcDbEntity
  8
1
  6
Continuous
100
AcDbCircle
 10
125.2474529999999
 20
45.75089699999998
 30
0.0
 40
0.155
100
AcDbArc
 50
180.0
 51
0.0
  0
LINE
  5
C635
330
C4EB
100
AcDbEntity
  8
1
  6
Continuous
100
AcDbLine
 10
125.4024529999999
 20
45.75089699999998
 30
0.0
 11
125.7122679999999
 21
48.745897
 31
0.0
  0
LINE
  5
C636
330
C4EB
100
AcDbEntity
  8
1
  6
Continuous
100
AcDbLine
 10
125.092453
 20
45.75089699999998
 30
0.0
 11
125.402268
 21
51.74089699999999
 31
0.0
  0
LINE
  5
C637
330
C4EB
100
AcDbEntity
  8
1
  6
Continuous
100
AcDbLine
 10
125.7122679999999
 20
48.745897
 30
0.0
 11
125.7122679999999
 21
51.74089699999999
 31
0.0
  0
ARC
  5
C638
330
C4EB
100
AcDbEntity
  8
1
  6
Continuous
100
AcDbCircle
 10
124.19332
 20
51.700897
 30
0.0
 40
0.195
100
AcDbArc
 50
0.0
 51
180.0
  0
ARC
  5
C639
330
C4EB
100
AcDbEntity
  8
1
  6
Continuous
100
AcDbCircle
 10
123.8029739999999
 20
45.79089699999999
 30
0.0
 40
0.195
100
AcDbArc
 50
180.0
 51
0.0
  0
LINE
  5
C63A
330
C4EB
100
AcDbEntity
  8
1
  6
Continuous
100
AcDbLine
 10
124.3883199999998
 20
48.745897
 30
0.0
 11
123.997974
 21
45.79089699999999
 31
0.0
  0
LINE
  5
C63B
330
C4EB
100
AcDbEntity
  8
1
  6
Continuous
100
AcDbLine
 10
123.607974
 20
45.79089699999999
 30
0.0
 11
123.9983199999998
 21
51.700897
 31
0.0
  0
ARC
  5
C63C
330
C4EB
100
AcDbEntity
  8
1
  6
Continuous
100
AcDbCircle
 10
121.660012
 20
45.820147
 30
0.0
 40
0.22425
100
AcDbArc
 50
180.0
 51
229.24112
  0
LINE
  5
C63D
330
C4EB
100
AcDbEntity
  8
1
  6
Continuous
100
AcDbLine
 10
121.435762
 20
45.820147
 30
0.0
 11
121.817796
 21
50.802186
 31
0.0
  0
LINE
  5
C63E
330
C4EB
100
AcDbEntity
  8
1
  6
Continuous
100
AcDbLine
 10
122.3329679999998
 20
48.745897
 30
0.0
 11
122.237562
 21
48.123809
 31
0.0
  0
ARC
  5
C63F
330
C4EB
100
AcDbEntity
  8
1
  6
Continuous
100
AcDbCircle
 10
120.231517
 20
51.640397
 30
0.0
 40
0.2555
100
AcDbArc
 50
0.0
 51
180.0
  0
ARC
  5
C640
330
C4EB
100
AcDbEntity
  8
1
  6
Continuous
100
AcDbCircle
 10
119.72038
 20
45.851397
 30
0.0
 40
0.2555
100
AcDbArc
 50
180.0
 51
0.0
  0
LINE
  5
C641
330
C4EB
100
AcDbEntity
  8
1
  6
Continuous
100
AcDbLine
 10
119.97588
 20
45.851397
 30
0.0
 11
120.4870169999999
 21
48.745897
 31
0.0
  0
LINE
  5
C642
330
C4EB
100
AcDbEntity
  8
1
  6
Continuous
100
AcDbLine
 10
119.4648799999999
 20
45.851397
 30
0.0
 11
119.976017
 21
51.640397
 31
0.0
  0
ARC
  5
C643
330
C4EB
100
AcDbEntity
  8
1
  6
Continuous
100
AcDbCircle
 10
118.1326289999999
 20
51.62189699999998
 30
0.0
 40
0.274
100
AcDbArc
 50
0.0
 51
180.0
  0
ARC
  5
C644
330
C4EB
100
AcDbEntity
  8
1
  6
Continuous
100
AcDbCircle
 10
117.584762
 20
45.86989699999999
 30
0.0
 40
0.274
100
AcDbArc
 50
180.0
 51
0.0
  0
LINE
  5
C645
330
C4EB
100
AcDbEntity
  8
1
  6
Continuous
100
AcDbLine
 10
118.406629
 20
48.745897
 30
0.0
 11
117.858762
 21
45.86989699999999
 31
0.0
  0
LINE
  5
C646
330
C4EB
100
AcDbEntity
  8
1
  6
Continuous
100
AcDbLine
 10
117.310762
 20
45.86989699999999
 30
0.0
 11
117.8586289999999
 21
51.62189699999998
 31
0.0
  0
ARC
  5
C647
330
C4EB
100
AcDbEntity
  8
1
  6
Continuous
100
AcDbCircle
 10
113.5975449999999
 20
51.609147
 30
0.0
 40
0.28675
100
AcDbArc
 50
0.0
 51
180.0
  0
ARC
  5
C648
330
C4EB
100
AcDbEntity
  8
1
  6
Continuous
100
AcDbCircle
 10
113.0238789999999
 20
45.88264699999998
 30
0.0
 40
0.28675
100
AcDbArc
 50
180.0
 51
0.0
  0
LINE
  5
C649
330
C4EB
100
AcDbEntity
  8
1
  6
Continuous
100
AcDbLine
 10
113.8842949999999
 20
48.745897
 30
0.0
 11
113.310629
 21
45.88264699999998
 31
0.0
  0
LINE
  5
C64A
330
C4EB
100
AcDbEntity
  8
1
  6
Continuous
100
AcDbLine
 10
112.737129
 20
45.88264699999998
 30
0.0
 11
113.310795
 21
51.609147
 31
0.0
  0
ARC
  5
C64B
330
C4EB
100
AcDbEntity
  8
1
  6
Continuous
100
AcDbCircle
 10
111.29261
 20
51.61464699999999
 30
0.0
 40
0.28125
100
AcDbArc
 50
0.0
 51
180.0
  0
ARC
  5
C64C
330
C4EB
100
AcDbEntity
  8
1
  6
Continuous
100
AcDbCircle
 10
110.730335
 20
45.87714699999999
 30
0.0
 40
0.28125
100
AcDbArc
 50
180.0
 51
0.0
  0
LINE
  5
C64D
330
C4EB
100
AcDbEntity
  8
1
  6
Continuous
100
AcDbLine
 10
111.011585
 20
45.87714699999999
 30
0.0
 11
111.57386
 21
48.745897
 31
0.0
  0
LINE
  5
C64E
330
C4EB
100
AcDbEntity
  8
1
  6
Continuous
100
AcDbLine
 10
110.449085
 20
45.87714699999999
 30
0.0
 11
111.01136
 21
51.61464699999999
 31
0.0
  0
ARC
  5
C64F
330
C4EB
100
AcDbEntity
  8
1
  6
Continuous
100
AcDbCircle
 10
109.06811
 20
51.62639699999999
 30
0.0
 40
0.2695
100
AcDbArc
 50
0.0
 51
180.0
  0
ARC
  5
C650
330
C4EB
100
AcDbEntity
  8
1
  6
Continuous
100
AcDbCircle
 10
108.5289959999999
 20
45.86539699999998
 30
0.0
 40
0.2695
100
AcDbArc
 50
180.0
 51
0.0
  0
LINE
  5
C651
330
C4EB
100
AcDbEntity
  8
1
  6
Continuous
100
AcDbLine
 10
108.798496
 20
45.86539699999998
 30
0.0
 11
109.33761
 21
48.745897
 31
0.0
  0
LINE
  5
C652
330
C4EB
100
AcDbEntity
  8
1
  6
Continuous
100
AcDbLine
 10
108.79861
 20
51.62639699999999
 30
0.0
 11
108.2594959999999
 21
45.86539699999998
 31
0.0
  0
ARC
  5
C653
330
C4EB
100
AcDbEntity
  8
1
  6
Continuous
100
AcDbCircle
 10
106.969137
 20
51.65189699999999
 30
0.0
 40
0.244
100
AcDbArc
 50
0.0
 51
180.0
  0
ARC
  5
C654
330
C4EB
100
AcDbEntity
  8
1
  6
Continuous
100
AcDbCircle
 10
106.480774
 20
45.839897
 30
0.0
 40
0.244
100
AcDbArc
 50
180.0
 51
0.0
  0
LINE
  5
C655
330
C4EB
100
AcDbEntity
  8
1
  6
Continuous
100
AcDbLine
 10
107.213137
 20
48.745897
 30
0.0
 11
106.724774
 21
45.839897
 31
0.0
  0
LINE
  5
C656
330
C4EB
100
AcDbEntity
  8
1
  6
Continuous
100
AcDbLine
 10
106.236774
 20
45.839897
 30
0.0
 11
106.725137
 21
51.65189699999999
 31
0.0
  0
ARC
  5
C657
330
C4EB
100
AcDbEntity
  8
1
  6
Continuous
100
AcDbCircle
 10
105.085347
 20
51.682147
 30
0.0
 40
0.21375
100
AcDbArc
 50
0.0
 51
180.0
  0
ARC
  5
C658
330
C4EB
100
AcDbEntity
  8
1
  6
Continuous
100
AcDbCircle
 10
104.657867
 20
45.809647
 30
0.0
 40
0.21375
100
AcDbArc
 50
180.0
 51
0.0
  0
LINE
  5
C659
330
C4EB
100
AcDbEntity
  8
1
  6
Continuous
100
AcDbLine
 10
105.2990969999999
 20
48.745897
 30
0.0
 11
104.8716169999998
 21
45.809647
 31
0.0
  0
LINE
  5
C65A
330
C4EB
100
AcDbEntity
  8
1
  6
Continuous
100
AcDbLine
 10
104.444117
 20
45.809647
 30
0.0
 11
104.8715969999998
 21
51.682147
 31
0.0
  0
ARC
  5
C65B
330
C4EB
100
AcDbEntity
  8
1
  6
Continuous
100
AcDbCircle
 10
103.467668
 20
51.719147
 30
0.0
 40
0.17675
100
AcDbArc
 50
0.0
 51
180.0
  0
ARC
  5
C65C
330
C4EB
100
AcDbEntity
  8
1
  6
Continuous
100
AcDbCircle
 10
103.1142859999998
 20
45.77264699999999
 30
0.0
 40
0.17675
100
AcDbArc
 50
180.0
 51
0.0
  0
LINE
  5
C65D
330
C4EB
100
AcDbEntity
  8
1
  6
Continuous
100
AcDbLine
 10
103.291036
 20
45.77264699999999
 30
0.0
 11
103.6444179999999
 21
48.745897
 31
0.0
  0
LINE
  5
C65E
330
C4EB
100
AcDbEntity
  8
1
  6
Continuous
100
AcDbLine
 10
103.290918
 20
51.719147
 30
0.0
 11
102.9375359999998
 21
45.77264699999999
 31
0.0
  0
ARC
  5
C65F
330
C4EB
100
AcDbEntity
  8
1
  6
Continuous
100
AcDbCircle
 10
102.1708749999999
 20
51.76014699999999
 30
0.0
 40
0.13575
100
AcDbArc
 50
0.0
 51
180.0
  0
ARC
  5
C660
330
C4EB
100
AcDbEntity
  8
1
  6
Continuous
100
AcDbCircle
 10
101.899852
 20
45.73164699999998
 30
0.0
 40
0.13575
100
AcDbArc
 50
180.0
 51
0.0
  0
LINE
  5
C661
330
C4EB
100
AcDbEntity
  8
1
  6
Continuous
100
AcDbLine
 10
102.0356019999999
 20
45.73164699999998
 30
0.0
 11
102.306625
 21
48.745897
 31
0.0
  0
LINE
  5
C662
330
C4EB
100
AcDbEntity
  8
1
  6
Continuous
100
AcDbLine
 10
102.035125
 20
51.76014699999999
 30
0.0
 11
101.7641019999999
 21
45.73164699999998
 31
0.0
  0
ARC
  5
C663
330
C4EB
100
AcDbEntity
  8
1
  6
Continuous
100
AcDbCircle
 10
101.2249619999999
 20
51.806647
 30
0.0
 40
0.08925
100
AcDbArc
 50
0.0
 51
180.0
  0
ARC
  5
C664
330
C4EB
100
AcDbEntity
  8
1
  6
Continuous
100
AcDbCircle
 10
101.046711
 20
45.685147
 30
0.0
 40
0.08925
100
AcDbArc
 50
180.0
 51
0.0
  0
LINE
  5
C665
330
C4EB
100
AcDbEntity
  8
1
  6
Continuous
100
AcDbLine
 10
101.3142119999999
 20
48.745897
 30
0.0
 11
101.1359609999999
 21
45.685147
 31
0.0
  0
LINE
  5
C666
330
C4EB
100
AcDbEntity
  8
1
  6
Continuous
100
AcDbLine
 10
101.1357119999999
 20
51.806647
 30
0.0
 11
100.957461
 21
45.685147
 31
0.0
  0
ARC
  5
C667
330
C4EB
100
AcDbEntity
  8
1
  6
Continuous
100
AcDbCircle
 10
100.665642
 20
51.85789699999999
 30
0.0
 40
0.038
100
AcDbArc
 50
0.0
 51
180.0
  0
ARC
  5
C668
330
C4EB
100
AcDbEntity
  8
1
  6
Continuous
100
AcDbCircle
 10
100.589773
 20
45.633897
 30
0.0
 40
0.038
100
AcDbArc
 50
180.0
 51
0.0
  0
LINE
  5
C669
330
C4EB
100
AcDbEntity
  8
1
  6
Continuous
100
AcDbLine
 10
100.627773
 20
45.633897
 30
0.0
 11
100.7036419999999
 21
48.745897
 31
0.0
  0
LINE
  5
C66A
330
C4EB
100
AcDbEntity
  8
1
  6
Continuous
100
AcDbLine
 10
100.5517729999998
 20
45.633897
 30
0.0
 11
100.627642
 21
51.85789699999999
 31
0.0
  0
ARC
  5
C66B
330
C4EB
100
AcDbEntity
  8
1
  6
Continuous
100
AcDbCircle
 10
29.729
 20
121.4302899999998
 30
0.0
 40
0.129
100
AcDbArc
 50
90.0
 51
270.0
  0
ARC
  5
C66C
330
C4EB
100
AcDbEntity
  8
1
  6
Continuous
100
AcDbCircle
 10
35.771
 20
121.17255
 30
0.0
 40
0.129
100
AcDbArc
 50
270.0
 51
90.0
  0
LINE
  5
C66D
330
C4EB
100
AcDbEntity
  8
1
  6
Continuous
100
AcDbLine
 10
29.729
 20
121.30129
 30
0.0
 11
32.75
 21
121.0435499999999
 31
0.0
  0
LINE
  5
C66E
330
C4EB
100
AcDbEntity
  8
1
  6
Continuous
100
AcDbLine
 10
35.771
 20
121.30155
 30
0.0
 11
29.729
 21
121.5592899999998
 31
0.0
  0
ARC
  5
C66F
330
C4EB
100
AcDbEntity
  8
1
  6
Continuous
100
AcDbCircle
 10
29.775
 20
120.2601649999998
 30
0.0
 40
0.175
100
AcDbArc
 50
90.0
 51
270.0
  0
ARC
  5
C670
330
C4EB
100
AcDbEntity
  8
1
  6
Continuous
100
AcDbCircle
 10
35.725
 20
119.909699
 30
0.0
 40
0.175
100
AcDbArc
 50
270.0
 51
90.0
  0
LINE
  5
C671
330
C4EB
100
AcDbEntity
  8
1
  6
Continuous
100
AcDbLine
 10
29.775
 20
120.4351649999999
 30
0.0
 11
35.725
 21
120.084699
 31
0.0
  0
LINE
  5
C672
330
C4EB
100
AcDbEntity
  8
1
  6
Continuous
100
AcDbLine
 10
29.775
 20
120.0851649999999
 30
0.0
 11
32.75
 21
119.7346989999999
 31
0.0
  0
ARC
  5
C673
330
C4EB
100
AcDbEntity
  8
1
  6
Continuous
100
AcDbCircle
 10
29.80724999999999
 20
118.7457379999998
 30
0.0
 40
0.20725
100
AcDbArc
 50
90.0
 51
270.0
  0
ARC
  5
C674
330
C4EB
100
AcDbEntity
  8
1
  6
Continuous
100
AcDbCircle
 10
35.69274999999999
 20
118.3307949999999
 30
0.0
 40
0.20725
100
AcDbArc
 50
270.0
 51
90.0
  0
LINE
  5
C675
330
C4EB
100
AcDbEntity
  8
1
  6
Continuous
100
AcDbLine
 10
29.80724999999999
 20
118.952988
 30
0.0
 11
35.69274999999999
 21
118.538045
 31
0.0
  0
LINE
  5
C676
330
C4EB
100
AcDbEntity
  8
1
  6
Continuous
100
AcDbLine
 10
29.80724999999999
 20
118.5384879999999
 30
0.0
 11
32.75
 21
118.1235449999998
 31
0.0
  0
ARC
  5
C677
330
C4EB
100
AcDbEntity
  8
1
  6
Continuous
100
AcDbCircle
 10
29.84300000000001
 20
116.967956
 30
0.0
 40
0.243
100
AcDbArc
 50
90.0
 51
270.0
  0
ARC
  5
C678
330
C4EB
100
AcDbEntity
  8
1
  6
Continuous
100
AcDbCircle
 10
35.65699999999999
 20
116.4818029999999
 30
0.0
 40
0.243
100
AcDbArc
 50
270.0
 51
90.0
  0
LINE
  5
C679
330
C4EB
100
AcDbEntity
  8
1
  6
Continuous
100
AcDbLine
 10
29.84300000000001
 20
117.210956
 30
0.0
 11
35.65699999999999
 21
116.7248029999999
 31
0.0
  0
LINE
  5
C67A
330
C4EB
100
AcDbEntity
  8
1
  6
Continuous
100
AcDbLine
 10
32.75
 20
116.238803
 30
0.0
 11
29.84300000000001
 21
116.724956
 31
0.0
  0
ARC
  5
C67B
330
C4EB
100
AcDbEntity
  8
1
  6
Continuous
100
AcDbCircle
 10
29.87
 20
114.944694
 30
0.0
 40
0.27
100
AcDbArc
 50
90.0
 51
270.0
  0
ARC
  5
C67C
330
C4EB
100
AcDbEntity
  8
1
  6
Continuous
100
AcDbCircle
 10
35.63000000000001
 20
114.404387
 30
0.0
 40
0.27
100
AcDbArc
 50
270.0
 51
90.0
  0
LINE
  5
C67D
330
C4EB
100
AcDbEntity
  8
1
  6
Continuous
100
AcDbLine
 10
29.87
 20
115.2146939999998
 30
0.0
 11
35.63000000000001
 21
114.674387
 31
0.0
  0
LINE
  5
C67E
330
C4EB
100
AcDbEntity
  8
1
  6
Continuous
100
AcDbLine
 10
29.87
 20
114.6746939999998
 30
0.0
 11
32.75
 21
114.134387
 31
0.0
  0
ARC
  5
C67F
330
C4EB
100
AcDbEntity
  8
1
  6
Continuous
100
AcDbCircle
 10
29.8855
 20
112.7575139999999
 30
0.0
 40
0.2855
100
AcDbArc
 50
90.0
 51
270.0
  0
ARC
  5
C680
330
C4EB
100
AcDbEntity
  8
1
  6
Continuous
100
AcDbCircle
 10
35.6145
 20
112.186618
 30
0.0
 40
0.2855
100
AcDbArc
 50
270.0
 51
90.0
  0
LINE
  5
C681
330
C4EB
100
AcDbEntity
  8
1
  6
Continuous
100
AcDbLine
 10
29.8855
 20
113.0430139999998
 30
0.0
 11
35.6145
 21
112.4721179999999
 31
0.0
  0
LINE
  5
C682
330
C4EB
100
AcDbEntity
  8
1
  6
Continuous
100
AcDbLine
 10
29.8855
 20
112.4720139999999
 30
0.0
 11
32.75
 21
111.9011179999999
 31
0.0
  0
ARC
  5
C683
330
C4EB
100
AcDbEntity
  8
1
  6
Continuous
100
AcDbCircle
 10
29.8895
 20
110.462722
 30
0.0
 40
0.2894999999999999
100
AcDbArc
 50
90.0
 51
277.3798919999999
  0
ARC
  5
C684
330
C4EB
100
AcDbEntity
  8
1
  6
Continuous
100
AcDbCircle
 10
35.6105
 20
109.8839889999998
 30
0.0
 40
0.2894999999999999
100
AcDbArc
 50
270.0
 51
90.0
  0
LINE
  5
C685
330
C4EB
100
AcDbEntity
  8
1
  6
Continuous
100
AcDbLine
 10
35.6105
 20
110.1734889999999
 30
0.0
 11
29.8895
 21
110.752222
 31
0.0
  0
LINE
  5
C686
330
C4EB
100
AcDbEntity
  8
1
  6
Continuous
100
AcDbLine
 10
29.926686
 20
110.17562
 30
0.0
 11
32.75
 21
109.5944889999999
 31
0.0
  0
ARC
  5
C687
330
C4EB
100
AcDbEntity
  8
1
  6
Continuous
100
AcDbCircle
 10
29.89
 20
108.158255
 30
0.0
 40
0.29
100
AcDbArc
 50
90.0
 51
270.0
  0
ARC
  5
C688
330
C4EB
100
AcDbEntity
  8
1
  6
Continuous
100
AcDbCircle
 10
35.60999999999999
 20
107.578039
 30
0.0
 40
0.29
100
AcDbArc
 50
270.0
 51
90.0
  0
LINE
  5
C689
330
C4EB
100
AcDbEntity
  8
1
  6
Continuous
100
AcDbLine
 10
29.89
 20
108.448255
 30
0.0
 11
35.60999999999999
 21
107.8680389999999
 31
0.0
  0
LINE
  5
C68A
330
C4EB
100
AcDbEntity
  8
1
  6
Continuous
100
AcDbLine
 10
29.89
 20
107.868255
 30
0.0
 11
32.75
 21
107.2880389999999
 31
0.0
  0
ARC
  5
C68B
330
C4EB
100
AcDbEntity
  8
1
  6
Continuous
100
AcDbCircle
 10
29.87575
 20
105.8808919999999
 30
0.0
 40
0.27575
100
AcDbArc
 50
90.0
 51
270.0
  0
ARC
  5
C68C
330
C4EB
100
AcDbEntity
  8
1
  6
Continuous
100
AcDbCircle
 10
35.62425000000001
 20
105.3295819999999
 30
0.0
 40
0.27575
100
AcDbArc
 50
270.0
 51
90.0
  0
LINE
  5
C68D
330
C4EB
100
AcDbEntity
  8
1
  6
Continuous
100
AcDbLine
 10
29.87575
 20
106.1566419999999
 30
0.0
 11
35.62425000000001
 21
105.6053319999999
 31
0.0
  0
LINE
  5
C68E
330
C4EB
100
AcDbEntity
  8
1
  6
Continuous
100
AcDbLine
 10
29.87575
 20
105.6051419999999
 30
0.0
 11
32.75
 21
105.053832
 31
0.0
  0
ARC
  5
C68F
330
C4EB
100
AcDbEntity
  8
1
  6
Continuous
100
AcDbCircle
 10
29.85924999999999
 20
103.739256
 30
0.0
 40
0.25925
100
AcDbArc
 50
90.0
 51
270.0
  0
ARC
  5
C690
330
C4EB
100
AcDbEntity
  8
1
  6
Continuous
100
AcDbCircle
 10
35.64074999999998
 20
103.220924
 30
0.0
 40
0.25925
100
AcDbArc
 50
270.0
 51
90.0
  0
LINE
  5
C691
330
C4EB
100
AcDbEntity
  8
1
  6
Continuous
100
AcDbLine
 10
29.85924999999999
 20
103.480006
 30
0.0
 11
32.75
 21
102.961674
 31
0.0
  0
LINE
  5
C692
330
C4EB
100
AcDbEntity
  8
1
  6
Continuous
100
AcDbLine
 10
35.64074999999998
 20
103.480174
 30
0.0
 11
29.85924999999999
 21
103.998506
 31
0.0
  0
ARC
  5
C693
330
C4EB
100
AcDbEntity
  8
1
  6
Continuous
100
AcDbCircle
 10
29.8295
 20
101.7741409999999
 30
0.0
 40
0.2295
100
AcDbArc
 50
90.0
 51
270.0
  0
ARC
  5
C694
330
C4EB
100
AcDbEntity
  8
1
  6
Continuous
100
AcDbCircle
 10
35.6705
 20
101.3151689999999
 30
0.0
 40
0.2295
100
AcDbArc
 50
270.0
 51
90.0
  0
LINE
  5
C695
330
C4EB
100
AcDbEntity
  8
1
  6
Continuous
100
AcDbLine
 10
29.8295
 20
102.003641
 30
0.0
 11
35.6705
 21
101.544669
 31
0.0
  0
LINE
  5
C696
330
C4EB
100
AcDbEntity
  8
1
  6
Continuous
100
AcDbLine
 10
29.8295
 20
101.544641
 30
0.0
 11
32.75
 21
101.085669
 31
0.0
  0
ARC
  5
C697
330
C4EB
100
AcDbEntity
  8
1
  6
Continuous
100
AcDbCircle
 10
29.8
 20
100.047489
 30
0.0
 40
0.2
100
AcDbArc
 50
90.0
 51
270.0
  0
ARC
  5
C698
330
C4EB
100
AcDbEntity
  8
1
  6
Continuous
100
AcDbCircle
 10
35.70000000000001
 20
99.64761000000001
 30
0.0
 40
0.2
100
AcDbArc
 50
270.0
 51
90.0
  0
LINE
  5
C699
330
C4EB
100
AcDbEntity
  8
1
  6
Continuous
100
AcDbLine
 10
29.8
 20
100.247489
 30
0.0
 11
35.70000000000001
 21
99.84761
 31
0.0
  0
LINE
  5
C69A
330
C4EB
100
AcDbEntity
  8
1
  6
Continuous
100
AcDbLine
 10
29.8
 20
99.84748899999999
 30
0.0
 11
32.75
 21
99.44760999999999
 31
0.0
  0
ARC
  5
C69B
330
C4EB
100
AcDbEntity
  8
1
  6
Continuous
100
AcDbCircle
 10
29.75075
 20
98.61456200000001
 30
0.0
 40
0.15075
100
AcDbArc
 50
90.0
 51
270.0
  0
ARC
  5
C69C
330
C4EB
100
AcDbEntity
  8
1
  6
Continuous
100
AcDbCircle
 10
35.74925000000001
 20
98.31328
 30
0.0
 40
0.15075
100
AcDbArc
 50
270.0
 51
90.0
  0
LINE
  5
C69D
330
C4EB
100
AcDbEntity
  8
1
  6
Continuous
100
AcDbLine
 10
29.75075
 20
98.765312
 30
0.0
 11
35.74925000000001
 21
98.46403000000002
 31
0.0
  0
LINE
  5
C69E
330
C4EB
100
AcDbEntity
  8
1
  6
Continuous
100
AcDbLine
 10
29.75075
 20
98.46381200000001
 30
0.0
 11
32.75
 21
98.16253000000001
 31
0.0
  0
ARC
  5
C69F
330
C4EB
100
AcDbEntity
  8
1
  6
Continuous
100
AcDbCircle
 10
29.71249999999999
 20
97.553754
 30
0.0
 40
0.1125
100
AcDbArc
 50
85.765133
 51
270.0
  0
ARC
  5
C6A0
330
C4EB
100
AcDbEntity
  8
1
  6
Continuous
100
AcDbCircle
 10
35.7875
 20
97.329143
 30
0.0
 40
0.1125
100
AcDbArc
 50
270.0
 51
90.0
  0
LINE
  5
C6A1
330
C4EB
100
AcDbEntity
  8
1
  6
Continuous
100
AcDbLine
 10
29.720808
 20
97.665947
 30
0.0
 11
35.7875
 21
97.44164300000001
 31
0.0
  0
LINE
  5
C6A2
330
C4EB
100
AcDbEntity
  8
1
  6
Continuous
100
AcDbLine
 10
29.71249999999999
 20
97.44125400000001
 30
0.0
 11
32.75
 21
97.216643
 31
0.0
  0
ARC
  5
C6A3
330
C4EB
100
AcDbEntity
  8
1
  6
Continuous
100
AcDbCircle
 10
29.65675
 20
96.82788900000002
 30
0.0
 40
0.05675
100
AcDbArc
 50
90.0
 51
270.0
  0
ARC
  5
C6A4
330
C4EB
100
AcDbEntity
  8
1
  6
Continuous
100
AcDbCircle
 10
35.84324999999999
 20
96.71442200000001
 30
0.0
 40
0.05675
100
AcDbArc
 50
270.0
 51
90.0
  0
LINE
  5
C6A5
330
C4EB
100
AcDbEntity
  8
1
  6
Continuous
100
AcDbLine
 10
29.65675
 20
96.77113900000001
 30
0.0
 11
32.75
 21
96.65767200000001
 31
0.0
  0
LINE
  5
C6A6
330
C4EB
100
AcDbEntity
  8
1
  6
Continuous
100
AcDbLine
 10
35.84324999999999
 20
96.77117200000001
 30
0.0
 11
29.65675
 21
96.88463900000002
 31
0.0
  0
ARC
  5
C6A7
330
C4EB
100
AcDbEntity
  8
1
  6
Continuous
100
AcDbCircle
 10
103.844418
 20
176.3495749999999
 30
0.0
 40
0.2
100
AcDbArc
 50
180.0
 51
350.1916549999998
  0
ARC
  5
C6A8
330
C4EB
100
AcDbEntity
  8
1
  6
Continuous
100
AcDbCircle
 10
104.244117
 20
182.2495749999999
 30
0.0
 40
0.2
100
AcDbArc
 50
57.95339399999999
 51
170.0233449999998
  0
LINE
  5
C6A9
330
C4EB
100
AcDbEntity
  8
1
  6
Continuous
100
AcDbLine
 10
103.6444179999999
 20
176.383787
 30
0.0
 11
103.6444179999999
 21
176.3495749999999
 31
0.0
  0
ARC
  5
C6AA
330
C4EB
100
AcDbEntity
  8
1
  6
Continuous
100
AcDbCircle
 10
102.7782859999998
 20
182.2903249999999
 30
0.0
 40
0.15925
100
AcDbArc
 50
0.0
 51
180.0
  0
ARC
  5
C6AB
330
C4EB
100
AcDbEntity
  8
1
  6
Continuous
100
AcDbCircle
 10
102.460051
 20
176.308825
 30
0.0
 40
0.15925
100
AcDbArc
 50
180.0
 51
0.0
  0
LINE
  5
C6AC
330
C4EB
100
AcDbEntity
  8
1
  6
Continuous
100
AcDbLine
 10
102.6193009999999
 20
176.308825
 30
0.0
 11
102.6470269999999
 21
176.829946
 31
0.0
  0
LINE
  5
C6AD
330
C4EB
100
AcDbEntity
  8
1
  6
Continuous
100
AcDbLine
 10
102.6190359999998
 20
182.2903249999999
 30
0.0
 11
102.55669
 21
181.7043999999999
 31
0.0
  0
LINE
  5
C6AE
330
C4EB
100
AcDbEntity
  8
1
  6
Continuous
100
AcDbLine
 10
102.9186839999999
 20
181.9359839999999
 30
0.0
 11
102.9375359999998
 21
182.2903249999999
 31
0.0
  0
ARC
  5
C6AF
330
C4EB
100
AcDbEntity
  8
1
  6
Continuous
100
AcDbCircle
 10
101.6479279999998
 20
182.338325
 30
0.0
 40
0.11125
100
AcDbArc
 50
0.0
 51
180.0
  0
ARC
  5
C6B0
330
C4EB
100
AcDbEntity
  8
1
  6
Continuous
100
AcDbCircle
 10
101.4254619999999
 20
176.260825
 30
0.0
 40
0.11125
100
AcDbArc
 50
180.0
 51
0.0
  0
LINE
  5
C6B1
330
C4EB
100
AcDbEntity
  8
1
  6
Continuous
100
AcDbLine
 10
101.536712
 20
176.260825
 30
0.0
 11
101.603763
 21
178.092566
 31
0.0
  0
LINE
  5
C6B2
330
C4EB
100
AcDbEntity
  8
1
  6
Continuous
100
AcDbLine
 10
101.5366779999999
 20
182.338325
 30
0.0
 11
101.3142119999999
 21
179.299575
 31
0.0
  0
ARC
  5
C6B3
330
C4EB
100
AcDbEntity
  8
1
  6
Continuous
100
AcDbCircle
 10
100.768667
 20
176.2125749999999
 30
0.0
 40
0.063
100
AcDbArc
 50
180.0
 51
0.0
  0
ARC
  5
C6B4
330
C4EB
100
AcDbEntity
  8
1
  6
Continuous
100
AcDbCircle
 10
100.8944609999998
 20
182.3865749999999
 30
0.0
 40
0.063
100
AcDbArc
 50
0.0
 51
180.0
  0
LINE
  5
C6B5
330
C4EB
100
AcDbEntity
  8
1
  6
Continuous
100
AcDbLine
 10
100.957461
 20
182.3865749999999
 30
0.0
 11
100.831667
 21
176.2125749999999
 31
0.0
  0
LINE
  5
C6B6
330
C4EB
100
AcDbEntity
  8
1
  6
Continuous
100
AcDbLine
 10
100.705667
 20
179.299575
 30
0.0
 11
100.831461
 21
182.3865749999999
 31
0.0
  0
ARC
  5
C6B7
330
C4EB
100
AcDbEntity
  8
1
  6
Continuous
100
AcDbCircle
 10
100.532273
 20
182.4300749999999
 30
0.0
 40
0.0195
100
AcDbArc
 50
0.0
 51
180.0
  0
LINE
  5
C6B8
330
C4EB
100
AcDbEntity
  8
1
  6
Continuous
100
AcDbLine
 10
100.5127729999999
 20
182.4300749999999
 30
0.0
 11
100.5
 21
179.299575
 31
0.0
  0
ARC
  5
C6B9
330
C4EB
100
AcDbEntity
  8
1
  6
Continuous
100
AcDbCircle
 10
100.5129999999999
 20
176.162575
 30
0.0
 40
0.013
100
AcDbArc
 50
180.0
 51
0.0
  0
LINE
  5
C6BA
330
C4EB
100
AcDbEntity
  8
1
  6
Continuous
100
AcDbLine
 10
100.526
 20
176.162575
 30
0.0
 11
100.5517729999998
 21
182.4300749999999
 31
0.0
  0
LINE
  5
C6BB
330
C4EB
100
AcDbEntity
  8
1
  6
Continuous
100
AcDbLine
 10
122.8502389999998
 20
183.799575
 30
0.0
 11
124.8502389999998
 21
183.799575
 31
0.0
  0
LINE
  5
C6BC
330
C4EB
100
AcDbEntity
  8
1
  6
Continuous
100
AcDbLine
 10
122.8502389999998
 20
174.799575
 30
0.0
 11
124.8502389999998
 21
174.799575
 31
0.0
  0
LINE
  5
C6BD
330
C4EB
100
AcDbEntity
  8
4
  6
CENTER
100
AcDbLine
 10
95.783415
 20
48.745897
 30
0.0
 11
134.8502389999999
 21
48.745897
 31
0.0
  0
ARC
  5
C6BE
330
C4EB
100
AcDbEntity
  8
1
  6
Continuous
100
AcDbCircle
 10
122.28968
 20
44.741878
 30
0.0
 40
1.0
100
AcDbArc
 50
163.686148
 51
206.565051
  0
ARC
  5
C6BF
330
C4EB
100
AcDbEntity
  8
1
  6
Continuous
100
AcDbCircle
 10
122.6420879999998
 20
44.741878
 30
0.0
 40
1.0
100
AcDbArc
 50
163.686148
 51
206.565051
  0
LINE
  5
C6C0
330
C4EB
100
AcDbEntity
  8
1
  6
Continuous
100
AcDbLine
 10
116.197127
 20
48.745897
 30
0.0
 11
116.197127
 21
51.584535
 31
0.0
  0
LINE
  5
C6C1
330
C4EB
100
AcDbEntity
  8
1
  6
Continuous
100
AcDbLine
 10
195.787284
 20
119.9511049999999
 30
0.0
 11
198.0104779999998
 21
119.808405
 31
0.0
  0
LINE
  5
C6C2
330
C4EB
100
AcDbEntity
  8
1
  6
Continuous
100
AcDbLine
 10
194.006887
 20
99.342769
 30
0.0
 11
196.714779
 21
99.17724599999999
 31
0.0
  0
LINE
  5
C6C3
330
C4EB
100
AcDbEntity
  8
1
  6
Continuous
100
AcDbLine
 10
116.197127
 20
48.745897
 30
0.0
 11
115.620447
 21
45.893483
 31
0.0
  0
LINE
  5
C6C4
330
C4EB
100
AcDbEntity
  8
1
  6
Continuous
100
AcDbLine
 10
115.0450989999998
 20
45.928303
 30
0.0
 11
115.6199159999999
 21
51.61469499999999
 31
0.0
  0
LINE
  5
C6C5
330
C4EB
100
AcDbEntity
  8
1
  6
Continuous
100
AcDbLine
 10
192.1592269999999
 20
116.526799
 30
0.0
 11
197.895802
 21
116.01363
 31
0.0
  0
LINE
  5
C6C6
330
C4EB
100
AcDbEntity
  8
1
  6
Continuous
100
AcDbLine
 10
108.1002389999998
 20
40.995897
 30
0.0
 11
108.1002389999998
 21
42.245897
 31
0.0
  0
LINE
  5
C6C7
330
C4EB
100
AcDbEntity
  8
1
  6
Continuous
100
AcDbLine
 10
119.1002389999999
 20
40.995897
 30
0.0
 11
119.1002389999999
 21
42.245897
 31
0.0
  0
LINE
  5
C6C8
330
C4EB
100
AcDbEntity
  8
1
  6
Continuous
100
AcDbLine
 10
119.1002389999999
 20
55.24589699999999
 30
0.0
 11
119.1002389999999
 21
56.49589699999999
 31
0.0
  0
LINE
  5
C6C9
330
C4EB
100
AcDbEntity
  8
1
  6
Continuous
100
AcDbLine
 10
108.1002389999998
 20
55.24589699999999
 30
0.0
 11
108.1002389999998
 21
56.49589699999999
 31
0.0
  0
LINE
  5
C6CA
330
C4EB
100
AcDbEntity
  8
1
  6
Continuous
100
AcDbLine
 10
107.8002389999999
 20
56.49589699999999
 30
0.0
 11
119.4002389999998
 21
56.49589699999999
 31
0.0
  0
LINE
  5
C6CB
330
C4EB
100
AcDbEntity
  8
1
  6
Continuous
100
AcDbLine
 10
107.8002389999999
 20
187.049575
 30
0.0
 11
106.6002389999999
 21
185.549575
 31
0.0
  0
LINE
  5
C6CC
330
C4EB
100
AcDbEntity
  8
1
  6
Continuous
100
AcDbLine
 10
119.4002389999998
 20
187.049575
 30
0.0
 11
120.6002389999998
 21
185.549575
 31
0.0
  0
ARC
  5
C6CD
330
C4EB
100
AcDbEntity
  8
1
  6
Continuous
100
AcDbCircle
 10
113.6002389999999
 20
209.5495749999999
 30
0.0
 40
25.0
100
AcDbArc
 50
253.7397949999999
 51
286.2602049999999
  0
ARC
  5
C6CE
330
C4EB
100
AcDbEntity
  8
1
  6
Continuous
100
AcDbCircle
 10
113.6002389999999
 20
149.049575
 30
0.0
 40
25.0
100
AcDbArc
 50
73.739795
 51
106.2602049999999
  0
LINE
  5
C6CF
330
C4EB
100
AcDbEntity
  8
1
  6
Continuous
100
AcDbLine
 10
106.6002389999999
 20
173.049575
 30
0.0
 11
107.8002389999999
 21
171.549575
 31
0.0
  0
LINE
  5
C6D0
330
C4EB
100
AcDbEntity
  8
1
  6
Continuous
100
AcDbLine
 10
120.6002389999998
 20
173.049575
 30
0.0
 11
119.4002389999998
 21
171.549575
 31
0.0
  0
ARC
  5
C6D1
330
C4EB
100
AcDbEntity
  8
1
  6
Continuous
100
AcDbCircle
 10
113.6002389999999
 20
120.1491749999999
 30
0.0
 40
7.4
100
AcDbArc
 50
18.924644
 51
161.075356
  0
LINE
  5
C6D2
330
C4EB
100
AcDbEntity
  8
1
  6
Continuous
100
AcDbLine
 10
119.4002389999998
 20
56.49589699999999
 30
0.0
 11
120.4002389999998
 21
55.24589699999999
 31
0.0
  0
LINE
  5
C6D3
330
C4EB
100
AcDbEntity
  8
1
  6
Continuous
100
AcDbLine
 10
107.8002389999999
 20
56.49589699999999
 30
0.0
 11
106.8002389999999
 21
55.24589699999999
 31
0.0
  0
LINE
  5
C6D4
330
C4EB
100
AcDbEntity
  8
1
  6
Continuous
100
AcDbLine
 10
106.8002389999999
 20
42.245897
 30
0.0
 11
107.8002389999999
 21
40.995897
 31
0.0
  0
LINE
  5
C6D5
330
C4EB
100
AcDbEntity
  8
1
  6
Continuous
100
AcDbLine
 10
120.4002389999998
 20
42.245897
 30
0.0
 11
119.4002389999998
 21
40.995897
 31
0.0
  0
ARC
  5
C6D6
330
C4EB
100
AcDbEntity
  8
1
  6
Continuous
100
AcDbCircle
 10
115.331475
 20
45.889449
 30
0.0
 40
0.289
100
AcDbArc
 50
172.273469
 51
0.7998520000000001
  0
ARC
  5
C6D7
330
C4EB
100
AcDbEntity
  8
1
  6
Continuous
100
AcDbCircle
 10
115.9085469999999
 20
51.600105
 30
0.0
 40
0.289
100
AcDbArc
 50
356.911675
 51
177.1063279999999
  0
LINE
  5
C6D8
330
C4EB
100
AcDbEntity
  8
1
  6
Continuous
100
AcDbLine
 10
101.699359
 20
180.704152
 30
0.0
 11
101.759178
 21
182.338325
 31
0.0
  0
LINE
  5
C6D9
330
C4EB
100
AcDbEntity
  8
1
  6
Continuous
100
AcDbLine
 10
190.550477
 20
122.123786
 30
0.0
 11
194.550477
 21
119.814385
 31
0.0
  0
ARC
  5
C6DA
330
C4EB
100
AcDbEntity
  8
1
  6
Continuous
100
AcDbCircle
 10
195.050477
 20
120.6804109999999
 30
0.0
 40
1.0
100
AcDbArc
 50
239.9999999999999
 51
300.0
  0
LINE
  5
C6DB
330
C4EB
100
AcDbEntity
  8
1
  6
Continuous
100
AcDbLine
 10
195.550477
 20
119.814385
 30
0.0
 11
199.550477
 21
122.123786
 31
0.0
  0
ARC
  5
C6DC
330
C4EB
100
AcDbEntity
  8
1
  6
Continuous
100
AcDbCircle
 10
199.050477
 20
122.989812
 30
0.0
 40
1.0
100
AcDbArc
 50
300.0
 51
0.0
  0
LINE
  5
C6DD
330
C4EB
100
AcDbEntity
  8
1
  6
Continuous
100
AcDbLine
 10
200.050477
 20
122.989812
 30
0.0
 11
200.050477
 21
127.6086139999998
 31
0.0
  0
ARC
  5
C6DE
330
C4EB
100
AcDbEntity
  8
1
  6
Continuous
100
AcDbCircle
 10
199.050477
 20
127.6086139999998
 30
0.0
 40
1.0
100
AcDbArc
 50
0.0
 51
60.0
  0
LINE
  5
C6DF
330
C4EB
100
AcDbEntity
  8
1
  6
Continuous
100
AcDbLine
 10
199.550477
 20
128.474639
 30
0.0
 11
195.550477
 21
130.78404
 31
0.0
  0
ARC
  5
C6E0
330
C4EB
100
AcDbEntity
  8
1
  6
Continuous
100
AcDbCircle
 10
195.050477
 20
129.9180149999999
 30
0.0
 40
1.0
100
AcDbArc
 50
60.0
 51
119.9999999999999
  0
LINE
  5
C6E1
330
C4EB
100
AcDbEntity
  8
1
  6
Continuous
100
AcDbLine
 10
194.550477
 20
130.78404
 30
0.0
 11
190.550477
 21
128.474639
 31
0.0
  0
ARC
  5
C6E2
330
C4EB
100
AcDbEntity
  8
1
  6
Continuous
100
AcDbCircle
 10
191.050477
 20
127.6086139999998
 30
0.0
 40
1.0
100
AcDbArc
 50
119.9999999999999
 51
180.0
  0
LINE
  5
C6E3
330
C4EB
100
AcDbEntity
  8
1
  6
Continuous
100
AcDbLine
 10
190.0504769999998
 20
127.6086139999998
 30
0.0
 11
190.0504769999998
 21
122.989812
 31
0.0
  0
ARC
  5
C6E4
330
C4EB
100
AcDbEntity
  8
1
  6
Continuous
100
AcDbCircle
 10
191.050477
 20
122.989812
 30
0.0
 40
1.0
100
AcDbArc
 50
180.0
 51
239.9999999999999
  0
ENDSEC
  0
SECTION
  2
OBJECTS
  0
DICTIONARY
  5
C4D9
330
0
100
AcDbDictionary
281
     1
  3
ACAD_CIP_PREVIOUS_PRODUCT_INFO
350
C744
  3
ACAD_COLOR
350
C726
  3
ACAD_DETAILVIEWSTYLE
350
C73F
  3
ACAD_GROUP
350
C4DA
  3
ACAD_LAYOUT
350
C4E6
  3
ACAD_MATERIAL
350
C6F4
  3
ACAD_MLEADERSTYLE
350
C73B
  3
ACAD_MLINESTYLE
350
C4E3
  3
ACAD_PLOTSETTINGS
350
C4E5
  3
ACAD_PLOTSTYLENAME
350
C6F2
  3
ACAD_SCALELIST
350
C729
  3
ACAD_SECTIONVIEWSTYLE
350
C73D
  3
ACAD_TABLESTYLE
350
C727
  3
ACAD_VISUALSTYLE
350
C70D
  3
ACDB_RECOMPOSE_DATA
350
C762
  3
AcDbVariableDictionary
350
C755
  3
DWGPROPS
350
C763
  0
DICTIONARY
  5
C745
330
C4DD
100
AcDbDictionary
280
     1
281
     1
  3
ADSK_XREC_LAYER_RECONCILED
360
C746
  0
DICTIONARY
  5
C747
330
C4F3
100
AcDbDictionary
280
     1
281
     1
  3
ADSK_XREC_LAYER_RECONCILED
360
C748
  0
DICTIONARY
  5
C749
330
C4F4
100
AcDbDictionary
280
     1
281
     1
  3
ADSK_XREC_LAYER_RECONCILED
360
C74A
  0
DICTIONARY
  5
C74B
330
C4F5
100
AcDbDictionary
280
     1
281
     1
  3
ADSK_XREC_LAYER_RECONCILED
360
C74C
  0
DICTIONARY
  5
C74D
330
C4F6
100
AcDbDictionary
280
     1
281
     1
  3
ADSK_XREC_LAYER_RECONCILED
360
C74E
  0
DICTIONARY
  5
C74F
330
C4F7
100
AcDbDictionary
280
     1
281
     1
  3
ADSK_XREC_LAYER_RECONCILED
360
C750
  0
DICTIONARY
  5
C751
330
C4F8
100
AcDbDictionary
280
     1
281
     1
  3
ADSK_XREC_LAYER_RECONCILED
360
C752
  0
DICTIONARY
  5
C753
330
C4F9
100
AcDbDictionary
280
     1
281
     1
  3
ADSK_XREC_LAYER_RECONCILED
360
C754
  0
DICTIONARY
  5
C6ED
330
C4EB
100
AcDbDictionary
281
     1
  3
ACAD_LAYOUTSELFREF
350
C6EE
  0
DICTIONARY
  5
C6EB
330
C4E7
100
AcDbDictionary
281
     1
  3
ACAD_LAYOUTSELFREF
350
C6EC
  0
XRECORD
  5
C744
102
{ACAD_REACTORS
330
C4D9
102
}
330
C4D9
100
AcDbXrecord
280
     1
300
ACDLT
300
2014
300
ACDLT_F_S
  0
DICTIONARY
  5
C726
102
{ACAD_REACTORS
330
C4D9
102
}
330
C4D9
100
AcDbDictionary
281
     1
  0
DICTIONARY
  5
C73F
102
{ACAD_REACTORS
330
C4D9
102
}
330
C4D9
100
AcDbDictionary
281
     1
  3
Imperial24
350
C740
  0
DICTIONARY
  5
C4DA
102
{ACAD_REACTORS
330
C4D9
102
}
330
C4D9
100
AcDbDictionary
281
     1
  0
DICTIONARY
  5
C4E6
102
{ACAD_REACTORS
330
C4D9
102
}
330
C4D9
100
AcDbDictionary
281
     1
  3
Model
350
C741
  3
レイアウト1
350
C742
  0
DICTIONARY
  5
C6F4
102
{ACAD_REACTORS
330
C4D9
102
}
330
C4D9
100
AcDbDictionary
281
     1
  3
ByBlock
350
C6FD
  3
ByLayer
350
C6F5
  3
Global
350
C705
  0
DICTIONARY
  5
C73B
102
{ACAD_REACTORS
330
C4D9
102
}
330
C4D9
100
AcDbDictionary
281
     1
  3
Standard
350
C73C
  0
DICTIONARY
  5
C4E3
102
{ACAD_REACTORS
330
C4D9
102
}
330
C4D9
100
AcDbDictionary
281
     1
  3
STANDARD
350
C4E4
  0
DICTIONARY
  5
C4E5
102
{ACAD_REACTORS
330
C4D9
102
}
330
C4D9
100
AcDbDictionary
281
     1
  0
ACDBDICTIONARYWDFLT
  5
C6F2
102
{ACAD_REACTORS
330
C4D9
102
}
330
C4D9
100
AcDbDictionary
281
     1
  3
Normal
350
C6F3
100
AcDbDictionaryWithDefault
340
C6F3
  0
DICTIONARY
  5
C729
102
{ACAD_REACTORS
330
C4D9
102
}
330
C4D9
100
AcDbDictionary
281
     1
  3
A0
350
C72A
  3
A1
350
C72B
  3
A2
350
C72C
  3
A3
350
C72D
  3
A4
350
C72E
  3
A5
350
C72F
  3
A6
350
C730
  3
A7
350
C731
  3
A8
350
C732
  3
A9
350
C733
  3
B0
350
C734
  3
B1
350
C735
  3
B2
350
C736
  3
B3
350
C737
  3
B4
350
C738
  3
B5
350
C739
  3
B6
350
C73A
  0
DICTIONARY
  5
C73D
102
{ACAD_REACTORS
330
C4D9
102
}
330
C4D9
100
AcDbDictionary
281
     1
  3
Imperial24
350
C73E
  0
DICTIONARY
  5
C727
102
{ACAD_REACTORS
330
C4D9
102
}
330
C4D9
100
AcDbDictionary
281
     1
  3
Standard
350
C728
  0
DICTIONARY
  5
C70D
102
{ACAD_REACTORS
330
C4D9
102
}
330
C4D9
100
AcDbDictionary
281
     1
  3
2dWireframe
350
C713
  3
Basic
350
C712
  3
Brighten
350
C719
  3
ColorChange
350
C71D
  3
Conceptual
350
C716
  3
Dim
350
C718
  3
EdgeColorOff
350
C725
  3
Facepattern
350
C71C
  3
Flat
350
C70E
  3
FlatWithEdges
350
C70F
  3
Gouraud
350
C710
  3
GouraudWithEdges
350
C711
  3
Hidden
350
C715
  3
JitterOff
350
C723
  3
Linepattern
350
C71B
  3
OverhangOff
350
C724
  3
Realistic
350
C717
  3
Shaded
350
C722
  3
Shaded with edges
350
C721
  3
Shades of Gray
350
C71E
  3
Sketchy
350
C71F
  3
Thicken
350
C71A
  3
Wireframe
350
C714
  3
X-Ray
350
C720
  0
XRECORD
  5
C762
102
{ACAD_REACTORS
330
C4D9
102
}
330
C4D9
100
AcDbXrecord
280
     1
 90
        1
330
C728
  0
DICTIONARY
  5
C755
102
{ACAD_REACTORS
330
C4D9
102
}
330
C4D9
100
AcDbDictionary
281
     1
  3
CANNOSCALE
350
C75A
  3
CMLEADERSTYLE
350
C757
  3
CTABLESTYLE
350
C756
  3
CVIEWDETAILSTYLE
350
C758
  3
CVIEWSECTIONSTYLE
350
C759
  3
DIMASSOC
350
C75D
  3
INDEXCTL
350
C75C
  3
SORTENTS
350
C75B
  3
XCLIPFRAME
350
C75E
  0
XRECORD
  5
C763
102
{ACAD_REACTORS
330
C4D9
102
}
330
C4D9
100
AcDbXrecord
280
     1
  1
DWGPROPS COOKIE
  2

  3

  4

  6

  7

  8
Yoshitsune
  9

300
=
301
=
302
=
303
=
304
=
305
=
306
=
307
=
308
=
309
=
 40
0.0000102662037037
 41
2451296.795933218
 42
2457192.658336968
  1

 90
        0
  0
XRECORD
  5
C746
102
{ACAD_REACTORS
330
C745
102
}
330
C745
100
AcDbXrecord
280
     1
290
     1
  0
XRECORD
  5
C748
102
{ACAD_REACTORS
330
C747
102
}
330
C747
100
AcDbXrecord
280
     1
290
     1
  0
XRECORD
  5
C74A
102
{ACAD_REACTORS
330
C749
102
}
330
C749
100
AcDbXrecord
280
     1
290
     1
  0
XRECORD
  5
C74C
102
{ACAD_REACTORS
330
C74B
102
}
330
C74B
100
AcDbXrecord
280
     1
290
     1
  0
XRECORD
  5
C74E
102
{ACAD_REACTORS
330
C74D
102
}
330
C74D
100
AcDbXrecord
280
     1
290
     1
  0
XRECORD
  5
C750
102
{ACAD_REACTORS
330
C74F
102
}
330
C74F
100
AcDbXrecord
280
     1
290
     1
  0
XRECORD
  5
C752
102
{ACAD_REACTORS
330
C751
102
}
330
C751
100
AcDbXrecord
280
     1
290
     1
  0
XRECORD
  5
C754
102
{ACAD_REACTORS
330
C753
102
}
330
C753
100
AcDbXrecord
280
     1
290
     1
  0
XRECORD
  5
C6EE
102
{ACAD_REACTORS
330
C6ED
102
}
330
C6ED
100
AcDbXrecord
280
     1
340
C4EB
  0
XRECORD
  5
C6EC
102
{ACAD_REACTORS
330
C6EB
102
}
330
C6EB
100
AcDbXrecord
280
     1
340
C4E7
  0
ACDBDETAILVIEWSTYLE
  5
C740
102
{ACAD_XDICTIONARY
360
C79B
102
}
102
{ACAD_REACTORS
330
C73F
102
}
330
C73F
100
AcDbModelDocViewStyle
 70
     0
  3
Imperial24
290
     0
100
AcDbDetailViewStyle
 70
     0
 71
     0
 90
        3
 71
     1
340
C4DE
 40
0.24
340
0
 40
0.24
300

 40
0.36
280
     3
 71
     2
340
C4E2
 90
       25
 71
     3
340
C4DE
 40
0.24
 90
        1
 40
0.75
 90
        1
300
%<\AcVar ViewType \f "%tc1">% %<\AcVar ViewDetailId>%\PSCALE %<\AcVar ViewScale \f "%sn">%
 71
     4
340
C4E2
 90
       25
340
C4E2
 90
       25
280
     0
  0
LAYOUT
  5
C741
102
{ACAD_XDICTIONARY
360
C79D
102
}
102
{ACAD_REACTORS
330
C4E6
102
}
330
C4E6
100
AcDbPlotSettings
  1

  2
Canon LBP9100C
  4

  6

 40
0.0
 41
0.0
 42
0.0
 43
0.0
 44
0.0
 45
0.0
 46
0.0
 47
0.0
 48
0.0
 49
0.0
140
0.0
141
0.0
142
1.0
143
1.0
 70
  1712
 72
     0
 73
     0
 74
     0
  7

 75
     0
147
1.0
148
0.0
149
0.0
100
AcDbLayout
  1
Model
 70
     1
 71
     0
 10
0.0
 20
0.0
 11
12.0
 21
9.0
 12
0.0
 22
0.0
 32
0.0
 14
0.0
 24
0.0
 34
0.0
 15
0.0
 25
0.0
 35
0.0
146
0.0
 13
0.0
 23
0.0
 33
0.0
 16
1.0
 26
0.0
 36
0.0
 17
0.0
 27
1.0
 37
0.0
 76
     0
330
C4EB
331
C6EA
  0
LAYOUT
  5
C742
102
{ACAD_XDICTIONARY
360
C79F
102
}
102
{ACAD_REACTORS
330
C4E6
102
}
330
C4E6
100
AcDbPlotSettings
  1

  2
Canon LBP9100C
  4

  6

 40
0.0
 41
0.0
 42
0.0
 43
0.0
 44
0.0
 45
0.0
 46
0.0
 47
0.0
 48
0.0
 49
0.0
140
0.0
141
0.0
142
1.0
143
1.0
 70
   688
 72
     0
 73
     0
 74
     5
  7

 75
    16
147
1.0
148
0.0
149
0.0
100
AcDbLayout
  1
レイアウト1
 70
     0
 71
     1
 10
0.0
 20
0.0
 11
420.0
 21
297.0
 12
0.0
 22
0.0
 32
0.0
 14
1.000000000000000E+20
 24
1.000000000000000E+20
 34
1.000000000000000E+20
 15
-1.000000000000000E+20
 25
-1.000000000000000E+20
 35
-1.000000000000000E+20
146
0.0
 13
0.0
 23
0.0
 33
0.0
 16
1.0
 26
0.0
 36
0.0
 17
0.0
 27
1.0
 37
0.0
 76
     0
330
C4E7
  0
MATERIAL
  5
C6FD
102
{ACAD_XDICTIONARY
360
C6FE
102
}
102
{ACAD_REACTORS
330
C6F4
102
}
330
C6F4
100
AcDbMaterial
  1
ByBlock
 72
     0
 43
0.0208333333333333
 43
0.0
 43
0.0
 43
0.0
 43
0.0
 43
0.0208333333333333
 43
0.0
 43
0.0
 43
0.0
 43
0.0
 43
1.0
 43
0.0
 43
0.0
 43
0.0
 43
0.0
 43
1.0
 77
     0
 47
0.0208333333333333
 47
0.0
 47
0.0
 47
0.0
 47
0.0
 47
0.0208333333333333
 47
0.0
 47
0.0
 47
0.0
 47
0.0
 47
1.0
 47
0.0
 47
0.0
 47
0.0
 47
0.0
 47
1.0
171
     0
 49
0.0208333333333333
 49
0.0
 49
0.0
 49
0.0
 49
0.0
 49
0.0208333333333333
 49
0.0
 49
0.0
 49
0.0
 49
0.0
 49
1.0
 49
0.0
 49
0.0
 49
0.0
 49
0.0
 49
1.0
175
     0
142
0.0208333333333333
142
0.0
142
0.0
142
0.0
142
0.0
142
0.0208333333333333
142
0.0
142
0.0
142
0.0
142
0.0
142
1.0
142
0.0
142
0.0
142
0.0
142
0.0
142
1.0
179
     0
144
0.0208333333333333
144
0.0
144
0.0
144
0.0
144
0.0
144
0.0208333333333333
144
0.0
144
0.0
144
0.0
144
0.0
144
1.0
144
0.0
144
0.0
144
0.0
144
0.0
144
1.0
147
0.0208333333333333
147
0.0
147
0.0
147
0.0
147
0.0
147
0.0208333333333333
147
0.0
147
0.0
147
0.0
147
0.0
147
1.0
147
0.0
147
0.0
147
0.0
147
0.0
147
1.0
  0
MATERIAL
  5
C6F5
102
{ACAD_XDICTIONARY
360
C6F6
102
}
102
{ACAD_REACTORS
330
C6F4
102
}
330
C6F4
100
AcDbMaterial
  1
ByLayer
 72
     0
 43
0.0208333333333333
 43
0.0
 43
0.0
 43
0.0
 43
0.0
 43
0.0208333333333333
 43
0.0
 43
0.0
 43
0.0
 43
0.0
 43
1.0
 43
0.0
 43
0.0
 43
0.0
 43
0.0
 43
1.0
 77
     0
 47
0.0208333333333333
 47
0.0
 47
0.0
 47
0.0
 47
0.0
 47
0.0208333333333333
 47
0.0
 47
0.0
 47
0.0
 47
0.0
 47
1.0
 47
0.0
 47
0.0
 47
0.0
 47
0.0
 47
1.0
171
     0
 49
0.0208333333333333
 49
0.0
 49
0.0
 49
0.0
 49
0.0
 49
0.0208333333333333
 49
0.0
 49
0.0
 49
0.0
 49
0.0
 49
1.0
 49
0.0
 49
0.0
 49
0.0
 49
0.0
 49
1.0
175
     0
142
0.0208333333333333
142
0.0
142
0.0
142
0.0
142
0.0
142
0.0208333333333333
142
0.0
142
0.0
142
0.0
142
0.0
142
1.0
142
0.0
142
0.0
142
0.0
142
0.0
142
1.0
179
     0
144
0.0208333333333333
144
0.0
144
0.0
144
0.0
144
0.0
144
0.0208333333333333
144
0.0
144
0.0
144
0.0
144
0.0
144
1.0
144
0.0
144
0.0
144
0.0
144
0.0
144
1.0
147
0.0208333333333333
147
0.0
147
0.0
147
0.0
147
0.0
147
0.0208333333333333
147
0.0
147
0.0
147
0.0
147
0.0
147
1.0
147
0.0
147
0.0
147
0.0
147
0.0
147
1.0
  0
MATERIAL
  5
C705
102
{ACAD_XDICTIONARY
360
C706
102
}
102
{ACAD_REACTORS
330
C6F4
102
}
330
C6F4
100
AcDbMaterial
  1
Global
 72
     0
 43
0.0208333333333333
 43
0.0
 43
0.0
 43
0.0
 43
0.0
 43
0.0208333333333333
 43
0.0
 43
0.0
 43
0.0
 43
0.0
 43
1.0
 43
0.0
 43
0.0
 43
0.0
 43
0.0
 43
1.0
 77
     0
 47
0.0208333333333333
 47
0.0
 47
0.0
 47
0.0
 47
0.0
 47
0.0208333333333333
 47
0.0
 47
0.0
 47
0.0
 47
0.0
 47
1.0
 47
0.0
 47
0.0
 47
0.0
 47
0.0
 47
1.0
171
     0
 49
0.0208333333333333
 49
0.0
 49
0.0
 49
0.0
 49
0.0
 49
0.0208333333333333
 49
0.0
 49
0.0
 49
0.0
 49
0.0
 49
1.0
 49
0.0
 49
0.0
 49
0.0
 49
0.0
 49
1.0
175
     0
142
0.0208333333333333
142
0.0
142
0.0
142
0.0
142
0.0
142
0.0208333333333333
142
0.0
142
0.0
142
0.0
142
0.0
142
1.0
142
0.0
142
0.0
142
0.0
142
0.0
142
1.0
179
     0
144
0.0208333333333333
144
0.0
144
0.0
144
0.0
144
0.0
144
0.0208333333333333
144
0.0
144
0.0
144
0.0
144
0.0
144
1.0
144
0.0
144
0.0
144
0.0
144
0.0
144
1.0
147
0.0208333333333333
147
0.0
147
0.0
147
0.0
147
0.0
147
0.0208333333333333
147
0.0
147
0.0
147
0.0
147
0.0
147
1.0
147
0.0
147
0.0
147
0.0
147
0.0
147
1.0
  0
MLEADERSTYLE
  5
C73C
102
{ACAD_REACTORS
330
C73B
102
}
330
C73B
100
AcDbMLeaderStyle
170
     2
171
     1
172
     0
 90
        2
 40
0.0
 41
0.0
173
     1
 91
-1056964608
340
C4E0
 92
       -2
290
     1
 42
0.09
291
     1
 43
0.36
  3
Standard
 44
0.18
300

342
C4DE
174
     1
178
     6
175
     1
176
     0
 93
-1056964608
 45
0.18
292
     0
297
     0
 46
0.18
 94
-1056964608
 47
1.0
 49
1.0
140
1.0
293
     1
141
0.0
294
     1
177
     0
142
1.0
295
     0
296
     0
143
0.125
1001
ACAD_MLEADERVER
1070
     2
  0
MLINESTYLE
  5
C4E4
102
{ACAD_REACTORS
330
C4E3
102
}
330
C4E3
100
AcDbMlineStyle
  2
STANDARD
 70
     0
  3

 62
   256
 51
90.0
 52
90.0
 71
     2
 49
0.5
 62
   256
  6
BYLAYER
 49
-0.5
 62
   256
  6
BYLAYER
  0
ACDBPLACEHOLDER
  5
C6F3
102
{ACAD_REACTORS
330
C6F2
102
}
330
C6F2
  0
SCALE
  5
C72A
102
{ACAD_REACTORS
330
C729
102
}
330
C729
100
AcDbScale
 70
     0
300
1:1
140
1.0
141
1.0
290
     1
  0
SCALE
  5
C72B
102
{ACAD_REACTORS
330
C729
102
}
330
C729
100
AcDbScale
 70
     0
300
1/128" = 1'-0"
140
0.0078125
141
12.0
290
     0
  0
SCALE
  5
C72C
102
{ACAD_REACTORS
330
C729
102
}
330
C729
100
AcDbScale
 70
     0
300
1/64" = 1'-0"
140
0.015625
141
12.0
290
     0
  0
SCALE
  5
C72D
102
{ACAD_REACTORS
330
C729
102
}
330
C729
100
AcDbScale
 70
     0
300
1/32" = 1'-0"
140
0.03125
141
12.0
290
     0
  0
SCALE
  5
C72E
102
{ACAD_REACTORS
330
C729
102
}
330
C729
100
AcDbScale
 70
     0
300
1/16" = 1'-0"
140
0.0625
141
12.0
290
     0
  0
SCALE
  5
C72F
102
{ACAD_REACTORS
330
C729
102
}
330
C729
100
AcDbScale
 70
     0
300
3/32" = 1'-0"
140
0.09375
141
12.0
290
     0
  0
SCALE
  5
C730
102
{ACAD_REACTORS
330
C729
102
}
330
C729
100
AcDbScale
 70
     0
300
1/8" = 1'-0"
140
0.125
141
12.0
290
     0
  0
SCALE
  5
C731
102
{ACAD_REACTORS
330
C729
102
}
330
C729
100
AcDbScale
 70
     0
300
3/16" = 1'-0"
140
0.1875
141
12.0
290
     0
  0
SCALE
  5
C732
102
{ACAD_REACTORS
330
C729
102
}
330
C729
100
AcDbScale
 70
     0
300
1/4" = 1'-0"
140
0.25
141
12.0
290
     0
  0
SCALE
  5
C733
102
{ACAD_REACTORS
330
C729
102
}
330
C729
100
AcDbScale
 70
     0
300
3/8" = 1'-0"
140
0.375
141
12.0
290
     0
  0
SCALE
  5
C734
102
{ACAD_REACTORS
330
C729
102
}
330
C729
100
AcDbScale
 70
     0
300
1/2" = 1'-0"
140
0.5
141
12.0
290
     0
  0
SCALE
  5
C735
102
{ACAD_REACTORS
330
C729
102
}
330
C729
100
AcDbScale
 70
     0
300
3/4" = 1'-0"
140
0.75
141
12.0
290
     0
  0
SCALE
  5
C736
102
{ACAD_REACTORS
330
C729
102
}
330
C729
100
AcDbScale
 70
     0
300
1" = 1'-0"
140
1.0
141
12.0
290
     0
  0
SCALE
  5
C737
102
{ACAD_REACTORS
330
C729
102
}
330
C729
100
AcDbScale
 70
     0
300
1-1/2" = 1'-0"
140
1.5
141
12.0
290
     0
  0
SCALE
  5
C738
102
{ACAD_REACTORS
330
C729
102
}
330
C729
100
AcDbScale
 70
     0
300
3" = 1'-0"
140
3.0
141
12.0
290
     0
  0
SCALE
  5
C739
102
{ACAD_REACTORS
330
C729
102
}
330
C729
100
AcDbScale
 70
     0
300
6" = 1'-0"
140
6.0
141
12.0
290
     0
  0
SCALE
  5
C73A
102
{ACAD_REACTORS
330
C729
102
}
330
C729
100
AcDbScale
 70
     0
300
1'-0" = 1'-0"
140
12.0
141
12.0
290
     0
  0
ACDBSECTIONVIEWSTYLE
  5
C73E
102
{ACAD_XDICTIONARY
360
C799
102
}
102
{ACAD_REACTORS
330
C73D
102
}
330
C73D
100
AcDbModelDocViewStyle
 70
     0
  3
Imperial24
290
     0
100
AcDbSectionViewStyle
 70
     0
 71
     0
 90
       78
 71
     1
340
C4DE
 40
0.24
340
0
340
0
 40
0.24
300
I, O, Q, S, X, Z
 40
0.48
 90
        3
 40
0.18
 90
        1
 71
     2
340
C4E2
 90
       25
340
C4E2
 90
       50
 40
0.24
 40
0.0
 40
0.24
 71
     3
340
C4DE
 40
0.24
 90
        1
 40
0.75
 90
        1
300
%<\AcVar ViewType \f "%tc1">% %<\AcVar ViewSectionStartId>%-%<\AcVar ViewSectionEndId>%\PSCALE %<\AcVar ViewScale \f "%sn">%
 71
     4
300
ANSI31
 40
1.0
 90
        0
290
     0
290
     0
 90
        6
 40
0.0
 40
1.570796326794896
 40
0.2617993877991494
 40
1.308996938995747
 40
-0.2617993877991494
 40
1.832595714594046
  0
TABLESTYLE
  5
C728
102
{ACAD_XDICTIONARY
360
C760
102
}
102
{ACAD_REACTORS
330
C727
102
}
330
C727
100
AcDbTableStyle
  3
Standard
 70
     0
 71
     0
 40
0.06
 41
0.06
280
     0
281
     0
  7
STANDARD
140
0.18
170
     2
 62
     0
 63
     7
283
     0
274
    -2
284
     1
 64
     0
275
    -2
285
     1
 65
     0
276
    -2
286
     1
 66
     0
277
    -2
287
     1
 67
     0
278
    -2
288
     1
 68
     0
279
    -2
289
     1
 69
     0
  7
STANDARD
140
0.25
170
     5
 62
     0
 63
     7
283
     0
274
    -2
284
     1
 64
     0
275
    -2
285
     1
 65
     0
276
    -2
286
     1
 66
     0
277
    -2
287
     1
 67
     0
278
    -2
288
     1
 68
     0
279
    -2
289
     1
 69
     0
  7
STANDARD
140
0.18
170
     5
 62
     0
 63
     7
283
     0
274
    -2
284
     1
 64
     0
275
    -2
285
     1
 65
     0
276
    -2
286
     1
 66
     0
277
    -2
287
     1
 67
     0
278
    -2
288
     1
 68
     0
279
    -2
289
     1
 69
     0
  0
VISUALSTYLE
  5
C713
102
{ACAD_XDICTIONARY
360
C771
102
}
102
{ACAD_REACTORS
330
C70D
102
}
330
C70D
100
AcDbVisualStyle
  2
2dWireframe
 70
     4
 71
     0
 72
     2
 73
     0
 90
        0
 40
-0.6
 41
-30.0
 62
     5
 63
     7
 74
     1
 91
        4
 64
     7
 65
   257
 75
     1
175
     1
 42
1.0
 92
        0
 66
   257
 43
1.0
 76
     1
 77
     6
 78
     2
 67
     7
 79
     5
170
     0
171
     0
290
     0
174
     0
 93
        1
 44
0.0
173
     0
291
     0
 45
0.0
1001
ACAD
1000
AcDbSavedByObjectVersion
1070
     0
  0
VISUALSTYLE
  5
C712
102
{ACAD_XDICTIONARY
360
C76F
102
}
102
{ACAD_REACTORS
330
C70D
102
}
330
C70D
100
AcDbVisualStyle
  2
Basic
 70
     7
 71
     1
 72
     0
 73
     1
 90
        0
 40
-0.6
 41
-30.0
 62
     5
 63
     7
 74
     0
 91
        4
 64
     7
 65
   257
 75
     1
175
     1
 42
1.0
 92
        8
 66
     7
 43
1.0
 76
     1
 77
     6
 78
     2
 67
     7
 79
     5
170
     0
171
     0
290
     0
174
     0
 93
        1
 44
0.0
173
     0
291
     1
 45
0.0
1001
ACAD
1000
AcDbSavedByObjectVersion
1070
     0
  0
VISUALSTYLE
  5
C719
102
{ACAD_XDICTIONARY
360
C77D
102
}
102
{ACAD_REACTORS
330
C70D
102
}
330
C70D
100
AcDbVisualStyle
  2
Brighten
 70
    12
 71
     2
 72
     2
 73
     0
 90
        0
 40
-0.6
 41
-30.0
 62
     5
 63
     7
 74
     1
 91
        4
 64
     7
 65
   257
 75
     1
175
     1
 42
1.0
 92
        8
 66
     7
 43
1.0
 76
     1
 77
     6
 78
     2
 67
     7
 79
     5
170
     0
171
     0
290
     0
174
     0
 93
        1
 44
50.0
173
     0
291
     1
 45
0.0
1001
ACAD
1000
AcDbSavedByObjectVersion
1070
     0
  0
VISUALSTYLE
  5
C71D
102
{ACAD_XDICTIONARY
360
C785
102
}
102
{ACAD_REACTORS
330
C70D
102
}
330
C70D
100
AcDbVisualStyle
  2
ColorChange
 70
    16
 71
     2
 72
     2
 73
     3
 90
        0
 40
-0.6
 41
-30.0
 62
     5
 63
     8
 74
     1
 91
        4
 64
     7
 65
   257
 75
     1
175
     1
 42
1.0
 92
        8
 66
     8
 43
1.0
 76
     1
 77
     6
 78
     2
 67
     7
 79
     5
170
     0
171
     0
290
     0
174
     0
 93
        1
 44
0.0
173
     0
291
     1
 45
0.0
1001
ACAD
1000
AcDbSavedByObjectVersion
1070
     0
  0
VISUALSTYLE
  5
C716
102
{ACAD_XDICTIONARY
360
C777
102
}
102
{ACAD_REACTORS
330
C70D
102
}
330
C70D
100
AcDbVisualStyle
  2
Conceptual
 70
     9
 71
     3
 72
     2
 73
     0
 90
        0
 40
-0.6
 41
-30.0
 62
     5
 63
     7
 74
     2
 91
        2
 64
     7
 65
   257
 75
     1
175
     1
 42
179.0
 92
        8
 66
     7
 43
1.0
 76
     1
 77
     6
 78
     2
 67
     7
 79
     3
170
     0
171
     0
290
     0
174
     0
 93
        1
 44
0.0
173
     0
291
     0
 45
0.0
1001
ACAD
1000
AcDbSavedByObjectVersion
1070
     0
  0
VISUALSTYLE
  5
C718
102
{ACAD_XDICTIONARY
360
C77B
102
}
102
{ACAD_REACTORS
330
C70D
102
}
330
C70D
100
AcDbVisualStyle
  2
Dim
 70
    11
 71
     2
 72
     2
 73
     0
 90
        0
 40
-0.6
 41
-30.0
 62
     5
 63
     7
 74
     1
 91
        4
 64
     7
 65
   257
 75
     1
175
     1
 42
1.0
 92
        8
 66
     7
 43
1.0
 76
     1
 77
     6
 78
     2
 67
     7
 79
     5
170
     0
171
     0
290
     0
174
     0
 93
        1
 44
-50.0
173
     0
291
     1
 45
0.0
1001
ACAD
1000
AcDbSavedByObjectVersion
1070
     0
  0
VISUALSTYLE
  5
C725
102
{ACAD_XDICTIONARY
360
C795
102
}
102
{ACAD_REACTORS
330
C70D
102
}
330
C70D
100
AcDbVisualStyle
  2
EdgeColorOff
 70
    22
 71
     2
 72
     2
 73
     0
 90
        0
 40
-0.6
 41
-30.0
 62
     5
 63
     7
 74
     1
 91
        4
 64
     7
 65
   257
 75
     1
175
     1
 42
1.0
 92
        8
 66
     7
 43
1.0
 76
     1
 77
     6
 78
     2
 67
     7
 79
     5
170
     0
171
     0
290
     0
174
     0
 93
        1
 44
0.0
173
     0
291
     1
 45
0.0
1001
ACAD
1000
AcDbSavedByObjectVersion
1070
     0
  0
VISUALSTYLE
  5
C71C
102
{ACAD_XDICTIONARY
360
C783
102
}
102
{ACAD_REACTORS
330
C70D
102
}
330
C70D
100
AcDbVisualStyle
  2
Facepattern
 70
    15
 71
     2
 72
     2
 73
     0
 90
        0
 40
-0.6
 41
-30.0
 62
     5
 63
     7
 74
     1
 91
        4
 64
     7
 65
   257
 75
     1
175
     1
 42
1.0
 92
        8
 66
     7
 43
1.0
 76
     1
 77
     6
 78
     2
 67
     7
 79
     5
170
     0
171
     0
290
     0
174
     0
 93
        1
 44
0.0
173
     0
291
     1
 45
0.0
1001
ACAD
1000
AcDbSavedByObjectVersion
1070
     0
  0
VISUALSTYLE
  5
C70E
102
{ACAD_XDICTIONARY
360
C767
102
}
102
{ACAD_REACTORS
330
C70D
102
}
330
C70D
100
AcDbVisualStyle
  2
Flat
 70
     0
 71
     2
 72
     1
 73
     1
 90
        2
 40
-0.6
 41
30.0
 62
     5
 63
     7
 74
     0
 91
        0
 64
     7
 65
   257
 75
     1
175
     1
 42
1.0
 92
        8
 66
     7
 43
1.0
 76
     1
 77
     6
 78
     2
 67
     7
 79
     5
170
     0
171
     0
290
     0
174
     0
 93
       13
 44
0.0
173
     0
291
     1
 45
0.0
1001
ACAD
1000
AcDbSavedByObjectVersion
1070
     0
  0
VISUALSTYLE
  5
C70F
102
{ACAD_XDICTIONARY
360
C769
102
}
102
{ACAD_REACTORS
330
C70D
102
}
330
C70D
100
AcDbVisualStyle
  2
FlatWithEdges
 70
     1
 71
     2
 72
     1
 73
     1
 90
        2
 40
-0.6
 41
30.0
 62
     5
 63
     7
 74
     1
 91
        0
 64
     7
 65
   257
 75
     1
175
     1
 42
1.0
 92
        0
 66
   257
 43
1.0
 76
     1
 77
     6
 78
     2
 67
     7
 79
     5
170
     0
171
     0
290
     0
174
     0
 93
       13
 44
0.0
173
     0
291
     1
 45
0.0
1001
ACAD
1000
AcDbSavedByObjectVersion
1070
     0
  0
VISUALSTYLE
  5
C710
102
{ACAD_XDICTIONARY
360
C76B
102
}
102
{ACAD_REACTORS
330
C70D
102
}
330
C70D
100
AcDbVisualStyle
  2
Gouraud
 70
     2
 71
     2
 72
     2
 73
     1
 90
        2
 40
-0.6
 41
30.0
 62
     5
 63
     7
 74
     0
 91
        0
 64
     7
 65
   257
 75
     1
175
     1
 42
1.0
 92
        0
 66
     7
 43
1.0
 76
     1
 77
     6
 78
     2
 67
     7
 79
     5
170
     0
171
     0
290
     0
174
     0
 93
       13
 44
0.0
173
     0
291
     1
 45
0.0
1001
ACAD
1000
AcDbSavedByObjectVersion
1070
     0
  0
VISUALSTYLE
  5
C711
102
{ACAD_XDICTIONARY
360
C76D
102
}
102
{ACAD_REACTORS
330
C70D
102
}
330
C70D
100
AcDbVisualStyle
  2
GouraudWithEdges
 70
     3
 71
     2
 72
     2
 73
     1
 90
        2
 40
-0.6
 41
30.0
 62
     5
 63
     7
 74
     1
 91
        0
 64
     7
 65
   257
 75
     1
175
     1
 42
1.0
 92
        0
 66
   257
 43
1.0
 76
     1
 77
     6
 78
     2
 67
     7
 79
     5
170
     0
171
     0
290
     0
174
     0
 93
       13
 44
0.0
173
     0
291
     1
 45
0.0
1001
ACAD
1000
AcDbSavedByObjectVersion
1070
     0
  0
VISUALSTYLE
  5
C715
102
{ACAD_XDICTIONARY
360
C775
102
}
102
{ACAD_REACTORS
330
C70D
102
}
330
C70D
100
AcDbVisualStyle
  2
Hidden
 70
     6
 71
     1
 72
     2
 73
     2
 90
        0
 40
-0.6
 41
-30.0
 62
     5
 63
     7
 74
     2
 91
        2
 64
     7
 65
   257
 75
     2
175
     1
 42
40.0
 92
        0
 66
   257
 43
1.0
 76
     1
 77
     6
 78
     2
 67
     7
 79
     3
170
     0
171
     0
290
     0
174
     0
 93
        1
 44
0.0
173
     0
291
     0
 45
0.0
1001
ACAD
1000
AcDbSavedByObjectVersion
1070
     0
  0
VISUALSTYLE
  5
C723
102
{ACAD_XDICTIONARY
360
C791
102
}
102
{ACAD_REACTORS
330
C70D
102
}
330
C70D
100
AcDbVisualStyle
  2
JitterOff
 70
    20
 71
     2
 72
     2
 73
     0
 90
        0
 40
-0.6
 41
-30.0
 62
     5
 63
     7
 74
     1
 91
        4
 64
     7
 65
   257
 75
     1
175
     1
 42
1.0
 92
       10
 66
     7
 43
1.0
 76
     1
 77
     6
 78
     2
 67
     7
 79
     5
170
     0
171
     0
290
     0
174
     0
 93
        1
 44
0.0
173
     0
291
     1
 45
0.0
1001
ACAD
1000
AcDbSavedByObjectVersion
1070
     0
  0
VISUALSTYLE
  5
C71B
102
{ACAD_XDICTIONARY
360
C781
102
}
102
{ACAD_REACTORS
330
C70D
102
}
330
C70D
100
AcDbVisualStyle
  2
Linepattern
 70
    14
 71
     2
 72
     2
 73
     0
 90
        0
 40
-0.6
 41
-30.0
 62
     5
 63
     7
 74
     1
 91
        4
 64
     7
 65
   257
 75
     7
175
     7
 42
1.0
 92
        8
 66
     7
 43
1.0
 76
     1
 77
     6
 78
     2
 67
     7
 79
     5
170
     0
171
     0
290
     0
174
     0
 93
        1
 44
0.0
173
     0
291
     1
 45
0.0
1001
ACAD
1000
AcDbSavedByObjectVersion
1070
     0
  0
VISUALSTYLE
  5
C724
102
{ACAD_XDICTIONARY
360
C793
102
}
102
{ACAD_REACTORS
330
C70D
102
}
330
C70D
100
AcDbVisualStyle
  2
OverhangOff
 70
    21
 71
     2
 72
     2
 73
     0
 90
        0
 40
-0.6
 41
-30.0
 62
     5
 63
     7
 74
     1
 91
        4
 64
     7
 65
   257
 75
     1
175
     1
 42
1.0
 92
        9
 66
     7
 43
1.0
 76
     1
 77
     6
 78
     2
 67
     7
 79
     5
170
     0
171
     0
290
     0
174
     0
 93
        1
 44
0.0
173
     0
291
     1
 45
0.0
1001
ACAD
1000
AcDbSavedByObjectVersion
1070
     0
  0
VISUALSTYLE
  5
C717
102
{ACAD_XDICTIONARY
360
C779
102
}
102
{ACAD_REACTORS
330
C70D
102
}
330
C70D
100
AcDbVisualStyle
  2
Realistic
 70
     8
 71
     2
 72
     3
 73
     0
 90
        2
 40
-0.6
 41
30.0
 62
     5
 63
     7
 74
     0
 91
        0
 64
     7
 65
   257
 75
     1
175
     1
 42
1.0
 92
        8
 66
   257
 43
1.0
 76
     1
 77
     6
 78
     2
 67
     7
 79
     3
170
     0
171
     0
290
     0
174
     0
 93
       13
 44
0.0
173
     0
291
     0
 45
0.0
1001
ACAD
1000
AcDbSavedByObjectVersion
1070
     0
  0
VISUALSTYLE
  5
C722
102
{ACAD_XDICTIONARY
360
C78F
102
}
102
{ACAD_REACTORS
330
C70D
102
}
330
C70D
100
AcDbVisualStyle
  2
Shaded
 70
    27
 71
     2
 72
     2
 73
     1
 90
        2
 40
-0.6
 41
30.0
 62
     5
 63
     7
 74
     0
 91
        4
 64
     7
 65
   257
 75
     1
175
     1
 42
1.0
 92
        8
 66
   257
 43
1.0
 76
     1
 77
     6
 78
     2
 67
     8
 79
     3
170
     0
171
     0
290
     0
174
     0
 93
        5
 44
0.0
173
     0
291
     0
 45
0.0
1001
ACAD
1000
AcDbSavedByObjectVersion
1070
     0
  0
VISUALSTYLE
  5
C721
102
{ACAD_XDICTIONARY
360
C78D
102
}
102
{ACAD_REACTORS
330
C70D
102
}
330
C70D
100
AcDbVisualStyle
  2
Shaded with edges
 70
    26
 71
     2
 72
     2
 73
     1
 90
        2
 40
-0.6
 41
30.0
 62
     5
 63
     7
 74
     1
 91
       10
 64
     7
 65
   257
 75
     2
175
     1
 42
1.0
 92
        8
 66
   257
 43
1.0
 76
     1
 77
     6
 78
     2
 67
     7
 79
     3
170
     0
171
     0
290
     0
174
     0
 93
        5
 44
0.0
173
     0
291
     0
 45
0.0
1001
ACAD
1000
AcDbSavedByObjectVersion
1070
     0
  0
VISUALSTYLE
  5
C71E
102
{ACAD_XDICTIONARY
360
C787
102
}
102
{ACAD_REACTORS
330
C70D
102
}
330
C70D
100
AcDbVisualStyle
  2
Shades of Gray
 70
    23
 71
     2
 72
     2
 73
     3
 90
        0
 40
-0.6
 41
-30.0
 62
     5
 63
     7
 74
     2
 91
        2
 64
     7
 65
     7
 75
     1
175
     1
 42
40.0
 92
        8
 66
     7
 43
1.0
 76
     1
 77
     6
 78
     2
 67
     7
 79
     3
170
     0
171
     0
290
     0
174
     0
 93
        1
 44
0.0
173
     0
291
     0
 45
0.0
1001
ACAD
1000
AcDbSavedByObjectVersion
1070
     0
  0
VISUALSTYLE
  5
C71F
102
{ACAD_XDICTIONARY
360
C789
102
}
102
{ACAD_REACTORS
330
C70D
102
}
330
C70D
100
AcDbVisualStyle
  2
Sketchy
 70
    24
 71
     1
 72
     2
 73
     2
 90
        0
 40
-0.6
 41
-30.0
 62
     5
 63
     7
 74
     2
 91
        2
 64
     7
 65
     7
 75
     1
175
     1
 42
40.0
 92
       11
 66
     7
 43
1.0
 76
     1
 77
     6
 78
     2
 67
     7
 79
     6
170
     0
171
     0
290
     0
174
     0
 93
        1
 44
0.0
173
     0
291
     0
 45
0.0
1001
ACAD
1000
AcDbSavedByObjectVersion
1070
     0
  0
VISUALSTYLE
  5
C71A
102
{ACAD_XDICTIONARY
360
C77F
102
}
102
{ACAD_REACTORS
330
C70D
102
}
330
C70D
100
AcDbVisualStyle
  2
Thicken
 70
    13
 71
     2
 72
     2
 73
     0
 90
        0
 40
-0.6
 41
-30.0
 62
     5
 63
     7
 74
     1
 91
        4
 64
     7
 65
   257
 75
     1
175
     1
 42
1.0
 92
       12
 66
     7
 43
1.0
 76
     1
 77
     6
 78
     2
 67
     7
 79
     5
170
     0
171
     0
290
     0
174
     0
 93
        1
 44
0.0
173
     0
291
     1
 45
0.0
1001
ACAD
1000
AcDbSavedByObjectVersion
1070
     0
  0
VISUALSTYLE
  5
C714
102
{ACAD_XDICTIONARY
360
C773
102
}
102
{ACAD_REACTORS
330
C70D
102
}
330
C70D
100
AcDbVisualStyle
  2
Wireframe
 70
     5
 71
     0
 72
     2
 73
     0
 90
        0
 40
-0.6
 41
-30.0
 62
     5
 63
     7
 74
     1
 91
        4
 64
     7
 65
   257
 75
     1
175
     1
 42
1.0
 92
        0
 66
   257
 43
1.0
 76
     1
 77
     6
 78
     2
 67
     7
 79
     3
170
     0
171
     0
290
     0
174
     0
 93
        1
 44
0.0
173
     0
291
     0
 45
0.0
1001
ACAD
1000
AcDbSavedByObjectVersion
1070
     0
  0
VISUALSTYLE
  5
C720
102
{ACAD_XDICTIONARY
360
C78B
102
}
102
{ACAD_REACTORS
330
C70D
102
}
330
C70D
100
AcDbVisualStyle
  2
X-Ray
 70
    25
 71
     2
 72
     2
 73
     1
 90
        1
 40
0.5
 41
-30.0
 62
     5
 63
     7
 74
     1
 91
        0
 64
     7
 65
   257
 75
     1
175
     1
 42
1.0
 92
        8
 66
     7
 43
1.0
 76
     1
 77
     6
 78
     2
 67
     7
 79
     3
170
     0
171
     0
290
     0
174
     0
 93
       13
 44
0.0
173
     0
291
     0
 45
0.0
1001
ACAD
1000
AcDbSavedByObjectVersion
1070
     0
  0
DICTIONARYVAR
  5
C75A
102
{ACAD_REACTORS
330
C755
102
}
330
C755
100
DictionaryVariables
280
     0
  1
1:1
  0
DICTIONARYVAR
  5
C757
102
{ACAD_REACTORS
330
C755
102
}
330
C755
100
DictionaryVariables
280
     0
  1
STANDARD
  0
DICTIONARYVAR
  5
C756
102
{ACAD_REACTORS
330
C755
102
}
330
C755
100
DictionaryVariables
280
     0
  1
STANDARD
  0
DICTIONARYVAR
  5
C758
102
{ACAD_REACTORS
330
C755
102
}
330
C755
100
DictionaryVariables
280
     0
  1
Imperial24
  0
DICTIONARYVAR
  5
C759
102
{ACAD_REACTORS
330
C755
102
}
330
C755
100
DictionaryVariables
280
     0
  1
Imperial24
  0
DICTIONARYVAR
  5
C75D
102
{ACAD_REACTORS
330
C755
102
}
330
C755
100
DictionaryVariables
280
     0
  1
1
  0
DICTIONARYVAR
  5
C75C
102
{ACAD_REACTORS
330
C755
102
}
330
C755
100
DictionaryVariables
280
     0
  1
0
  0
DICTIONARYVAR
  5
C75B
102
{ACAD_REACTORS
330
C755
102
}
330
C755
100
DictionaryVariables
280
     0
  1
127
  0
DICTIONARYVAR
  5
C75E
102
{ACAD_REACTORS
330
C755
102
}
330
C755
100
DictionaryVariables
280
     0
  1
2
  0
DICTIONARY
  5
C79B
330
C740
100
AcDbDictionary
280
     1
281
     1
  3
ACAD_XREC_ROUNDTRIP
360
C79C
  0
DICTIONARY
  5
C79D
330
C741
100
AcDbDictionary
280
     1
281
     1
  3
ACAD_XREC_ROUNDTRIP
360
C79E
  0
DICTIONARY
  5
C79F
330
C742
100
AcDbDictionary
280
     1
281
     1
  3
ACAD_XREC_ROUNDTRIP
360
C7A0
  0
DICTIONARY
  5
C6FE
330
C6FD
100
AcDbDictionary
280
     1
281
     1
  3
ACAD_XREC_ROUNDTRIP
360
C765
  3
BUMPTILE
360
C700
  3
DIFFUSETILE
360
C6FF
  3
OPACITYTILE
360
C703
  3
REFLECTIONTILE
360
C702
  3
REFRACTIONTILE
360
C704
  3
SPECULARTILE
360
C701
  0
DICTIONARY
  5
C6F6
330
C6F5
100
AcDbDictionary
280
     1
281
     1
  3
ACAD_XREC_ROUNDTRIP
360
C764
  3
BUMPTILE
360
C6F8
  3
DIFFUSETILE
360
C6F7
  3
OPACITYTILE
360
C6FB
  3
REFLECTIONTILE
360
C6FA
  3
REFRACTIONTILE
360
C6FC
  3
SPECULARTILE
360
C6F9
  0
DICTIONARY
  5
C706
330
C705
100
AcDbDictionary
280
     1
281
     1
  3
ACAD_XREC_ROUNDTRIP
360
C766
  3
BUMPTILE
360
C708
  3
DIFFUSETILE
360
C707
  3
OPACITYTILE
360
C70B
  3
REFLECTIONTILE
360
C70A
  3
REFRACTIONTILE
360
C70C
  3
SPECULARTILE
360
C709
  0
DICTIONARY
  5
C799
330
C73E
100
AcDbDictionary
280
     1
281
     1
  3
ACAD_XREC_ROUNDTRIP
360
C79A
  0
DICTIONARY
  5
C760
330
C728
100
AcDbDictionary
280
     1
281
     1
  3
ACAD_ROUNDTRIP_2008_TABLESTYLE_CELLSTYLEMAP
360
C761
  3
ACAD_XREC_ROUNDTRIP
360
C797
  0
DICTIONARY
  5
C771
330
C713
100
AcDbDictionary
280
     1
281
     1
  3
ACAD_XREC_ROUNDTRIP
360
C772
  0
DICTIONARY
  5
C76F
330
C712
100
AcDbDictionary
280
     1
281
     1
  3
ACAD_XREC_ROUNDTRIP
360
C770
  0
DICTIONARY
  5
C77D
330
C719
100
AcDbDictionary
280
     1
281
     1
  3
ACAD_XREC_ROUNDTRIP
360
C77E
  0
DICTIONARY
  5
C785
330
C71D
100
AcDbDictionary
280
     1
281
     1
  3
ACAD_XREC_ROUNDTRIP
360
C786
  0
DICTIONARY
  5
C777
330
C716
100
AcDbDictionary
280
     1
281
     1
  3
ACAD_XREC_ROUNDTRIP
360
C778
  0
DICTIONARY
  5
C77B
330
C718
100
AcDbDictionary
280
     1
281
     1
  3
ACAD_XREC_ROUNDTRIP
360
C77C
  0
DICTIONARY
  5
C795
330
C725
100
AcDbDictionary
280
     1
281
     1
  3
ACAD_XREC_ROUNDTRIP
360
C796
  0
DICTIONARY
  5
C783
330
C71C
100
AcDbDictionary
280
     1
281
     1
  3
ACAD_XREC_ROUNDTRIP
360
C784
  0
DICTIONARY
  5
C767
330
C70E
100
AcDbDictionary
280
     1
281
     1
  3
ACAD_XREC_ROUNDTRIP
360
C768
  0
DICTIONARY
  5
C769
330
C70F
100
AcDbDictionary
280
     1
281
     1
  3
ACAD_XREC_ROUNDTRIP
360
C76A
  0
DICTIONARY
  5
C76B
330
C710
100
AcDbDictionary
280
     1
281
     1
  3
ACAD_XREC_ROUNDTRIP
360
C76C
  0
DICTIONARY
  5
C76D
330
C711
100
AcDbDictionary
280
     1
281
     1
  3
ACAD_XREC_ROUNDTRIP
360
C76E
  0
DICTIONARY
  5
C775
330
C715
100
AcDbDictionary
280
     1
281
     1
  3
ACAD_XREC_ROUNDTRIP
360
C776
  0
DICTIONARY
  5
C791
330
C723
100
AcDbDictionary
280
     1
281
     1
  3
ACAD_XREC_ROUNDTRIP
360
C792
  0
DICTIONARY
  5
C781
330
C71B
100
AcDbDictionary
280
     1
281
     1
  3
ACAD_XREC_ROUNDTRIP
360
C782
  0
DICTIONARY
  5
C793
330
C724
100
AcDbDictionary
280
     1
281
     1
  3
ACAD_XREC_ROUNDTRIP
360
C794
  0
DICTIONARY
  5
C779
330
C717
100
AcDbDictionary
280
     1
281
     1
  3
ACAD_XREC_ROUNDTRIP
360
C77A
  0
DICTIONARY
  5
C78F
330
C722
100
AcDbDictionary
280
     1
281
     1
  3
ACAD_XREC_ROUNDTRIP
360
C790
  0
DICTIONARY
  5
C78D
330
C721
100
AcDbDictionary
280
     1
281
     1
  3
ACAD_XREC_ROUNDTRIP
360
C78E
  0
DICTIONARY
  5
C787
330
C71E
100
AcDbDictionary
280
     1
281
     1
  3
ACAD_XREC_ROUNDTRIP
360
C788
  0
DICTIONARY
  5
C789
330
C71F
100
AcDbDictionary
280
     1
281
     1
  3
ACAD_XREC_ROUNDTRIP
360
C78A
  0
DICTIONARY
  5
C77F
330
C71A
100
AcDbDictionary
280
     1
281
     1
  3
ACAD_XREC_ROUNDTRIP
360
C780
  0
DICTIONARY
  5
C773
330
C714
100
AcDbDictionary
280
     1
281
     1
  3
ACAD_XREC_ROUNDTRIP
360
C774
  0
DICTIONARY
  5
C78B
330
C720
100
AcDbDictionary
280
     1
281
     1
  3
ACAD_XREC_ROUNDTRIP
360
C78C
  0
XRECORD
  5
C79C
102
{ACAD_REACTORS
330
C79B
102
}
330
C79B
100
AcDbXrecord
280
     1
102
DISPLAYNAME
  1
Imperial24
102
FLAGS
 90
        0
  0
XRECORD
  5
C79E
102
{ACAD_REACTORS
330
C79D
102
}
330
C79D
100
AcDbXrecord
280
     1
102
SHADEPLOT
 70
     0
102
SHADEPLOTRESLEVEL
 70
     2
102
SHADEPLOTCUSTOMDPI
 70
   300
  0
XRECORD
  5
C7A0
102
{ACAD_REACTORS
330
C79F
102
}
330
C79F
100
AcDbXrecord
280
     1
102
SHADEPLOT
 70
     0
102
SHADEPLOTRESLEVEL
 70
     2
102
SHADEPLOTCUSTOMDPI
 70
   300
  0
XRECORD
  5
C765
102
{ACAD_REACTORS
330
C6FE
102
}
330
C6FE
100
AcDbXrecord
280
     1
102
MATERIAL
148
0.0
149
0.0
149
0.0
 93
        0
 94
      127
282
     0
 72
     0
 77
     0
171
     0
175
     0
179
     0
273
     0
  0
XRECORD
  5
C700
102
{ACAD_REACTORS
330
C6FE
102
}
330
C6FE
100
AcDbXrecord
280
     1
270
     1
271
     1
  0
XRECORD
  5
C6FF
102
{ACAD_REACTORS
330
C6FE
102
}
330
C6FE
100
AcDbXrecord
280
     1
270
     1
271
     1
  0
XRECORD
  5
C703
102
{ACAD_REACTORS
330
C6FE
102
}
330
C6FE
100
AcDbXrecord
280
     1
270
     1
271
     1
  0
XRECORD
  5
C702
102
{ACAD_REACTORS
330
C6FE
102
}
330
C6FE
100
AcDbXrecord
280
     1
270
     1
271
     1
  0
XRECORD
  5
C704
102
{ACAD_REACTORS
330
C6FE
102
}
330
C6FE
100
AcDbXrecord
280
     1
270
     1
271
     1
  0
XRECORD
  5
C701
102
{ACAD_REACTORS
330
C6FE
102
}
330
C6FE
100
AcDbXrecord
280
     1
270
     1
271
     1
  0
XRECORD
  5
C764
102
{ACAD_REACTORS
330
C6F6
102
}
330
C6F6
100
AcDbXrecord
280
     1
102
MATERIAL
148
0.0
149
0.0
149
0.0
 93
        0
 94
      127
282
     0
 72
     0
 77
     0
171
     0
175
     0
179
     0
273
     0
  0
XRECORD
  5
C6F8
102
{ACAD_REACTORS
330
C6F6
102
}
330
C6F6
100
AcDbXrecord
280
     1
270
     1
271
     1
  0
XRECORD
  5
C6F7
102
{ACAD_REACTORS
330
C6F6
102
}
330
C6F6
100
AcDbXrecord
280
     1
270
     1
271
     1
  0
XRECORD
  5
C6FB
102
{ACAD_REACTORS
330
C6F6
102
}
330
C6F6
100
AcDbXrecord
280
     1
270
     1
271
     1
  0
XRECORD
  5
C6FA
102
{ACAD_REACTORS
330
C6F6
102
}
330
C6F6
100
AcDbXrecord
280
     1
270
     1
271
     1
  0
XRECORD
  5
C6FC
102
{ACAD_REACTORS
330
C6F6
102
}
330
C6F6
100
AcDbXrecord
280
     1
270
     1
271
     1
  0
XRECORD
  5
C6F9
102
{ACAD_REACTORS
330
C6F6
102
}
330
C6F6
100
AcDbXrecord
280
     1
270
     1
271
     1
  0
XRECORD
  5
C766
102
{ACAD_REACTORS
330
C706
102
}
330
C706
100
AcDbXrecord
280
     1
102
MATERIAL
148
0.0
149
0.0
149
0.0
 93
        0
 94
      127
282
     0
 72
     0
 77
     0
171
     0
175
     0
179
     0
273
     0
  0
XRECORD
  5
C708
102
{ACAD_REACTORS
330
C706
102
}
330
C706
100
AcDbXrecord
280
     1
270
     1
271
     1
  0
XRECORD
  5
C707
102
{ACAD_REACTORS
330
C706
102
}
330
C706
100
AcDbXrecord
280
     1
270
     1
271
     1
  0
XRECORD
  5
C70B
102
{ACAD_REACTORS
330
C706
102
}
330
C706
100
AcDbXrecord
280
     1
270
     1
271
     1
  0
XRECORD
  5
C70A
102
{ACAD_REACTORS
330
C706
102
}
330
C706
100
AcDbXrecord
280
     1
270
     1
271
     1
  0
XRECORD
  5
C70C
102
{ACAD_REACTORS
330
C706
102
}
330
C706
100
AcDbXrecord
280
     1
270
     1
271
     1
  0
XRECORD
  5
C709
102
{ACAD_REACTORS
330
C706
102
}
330
C706
100
AcDbXrecord
280
     1
270
     1
271
     1
  0
XRECORD
  5
C79A
102
{ACAD_REACTORS
330
C799
102
}
330
C799
100
AcDbXrecord
280
     1
102
DISPLAYNAME
  1
Imperial24
102
FLAGS
 90
        0
  0
CELLSTYLEMAP
  5
C761
102
{ACAD_REACTORS
330
C760
102
}
330
C760
100
AcDbCellStyleMap
 90
        3
300
CELLSTYLE
  1
TABLEFORMAT_BEGIN
 90
        5
170
     1
 91
        0
 92
    32768
 62
   257
 93
        1
300
CONTENTFORMAT
  1
CONTENTFORMAT_BEGIN
 90
        0
 91
        0
 92
      512
 93
        0
300

 40
0.0
140
1.0
 94
        5
 62
     0
340
C4DE
144
0.25
309
CONTENTFORMAT_END
171
     0
 94
        0
309
TABLEFORMAT_END
  1
CELLSTYLE_BEGIN
 90
        1
 91
        1
300
_TITLE
309
CELLSTYLE_END
300
CELLSTYLE
  1
TABLEFORMAT_BEGIN
 90
        5
170
     1
 91
        0
 92
        0
 62
   257
 93
        1
300
CONTENTFORMAT
  1
CONTENTFORMAT_BEGIN
 90
        0
 91
        0
 92
      512
 93
        0
300

 40
0.0
140
1.0
 94
        5
 62
     0
340
C4DE
144
0.18
309
CONTENTFORMAT_END
171
     0
 94
        0
309
TABLEFORMAT_END
  1
CELLSTYLE_BEGIN
 90
        2
 91
        1
300
_HEADER
309
CELLSTYLE_END
300
CELLSTYLE
  1
TABLEFORMAT_BEGIN
 90
        5
170
     1
 91
        0
 92
        0
 62
   257
 93
        1
300
CONTENTFORMAT
  1
CONTENTFORMAT_BEGIN
 90
        0
 91
        0
 92
      512
 93
        0
300

 40
0.0
140
1.0
 94
        2
 62
     0
340
C4DE
144
0.18
309
CONTENTFORMAT_END
171
     0
 94
        0
309
TABLEFORMAT_END
  1
CELLSTYLE_BEGIN
 90
        3
 91
        2
300
_DATA
309
CELLSTYLE_END
  0
XRECORD
  5
C797
102
{ACAD_REACTORS
330
C760
102
}
330
C760
100
AcDbXrecord
280
     1
102
ACAD_ROUNDTRIP_PRE2007_TABLESTYLE
 90
      512
 91
        0
  1

 92
      512
 93
        0
  2

 94
      512
 95
        0
  3

  0
XRECORD
  5
C772
102
{ACAD_REACTORS
330
C771
102
}
330
C771
100
AcDbXrecord
280
     1
102
RTVSPost2010Prop28
280
     1
102
RTVSPost2010PropOp28
 70
     1
102
RTVSPost2010Prop29
280
     1
102
RTVSPost2010PropOp29
 70
     1
102
RTVSPost2010Prop30
280
     0
102
RTVSPost2010PropOp30
 70
     1
102
RTVSPost2010Prop31
280
     0
102
RTVSPost2010PropOp31
 70
     1
102
RTVSPost2010Prop32
280
     0
102
RTVSPost2010PropOp32
 70
     1
102
RTVSPost2010Prop33
280
     0
102
RTVSPost2010PropOp33
 70
     1
102
RTVSPost2010Prop34
280
     0
102
RTVSPost2010PropOp34
 70
     1
102
RTVSPost2010Prop35
280
     0
102
RTVSPost2010PropOp35
 70
     1
102
RTVSPost2010Prop36
280
     0
102
RTVSPost2010PropOp36
 70
     1
102
RTVSPost2010Prop37
 90
       50
102
RTVSPost2010PropOp37
 70
     1
102
RTVSPost2010Prop38
140
0.0
102
RTVSPost2010PropOp38
 70
     1
102
RTVSPost2010Prop39
140
1.0
102
RTVSPost2010PropOp39
 70
     1
102
RTVSPost2010Prop40
 90
        0
102
RTVSPost2010PropOp40
 70
     1
102
RTVSPost2010Prop41ColorIndex
 90
       18
102
RTVSPost2010Prop41ColorRGB
 90
        0
102
RTVSPost2010PropOp41
 70
     1
102
RTVSPost2010Prop42
 90
       50
102
RTVSPost2010PropOp42
 70
     1
102
RTVSPost2010Prop43
 90
        3
102
RTVSPost2010PropOp43
 70
     1
102
RTVSPost2010Prop44ColorIndex
 90
        5
102
RTVSPost2010Prop44ColorRGB
 90
      255
102
RTVSPost2010PropOp44
 70
     1
102
RTVSPost2010Prop45
280
     0
102
RTVSPost2010PropOp45
 70
     1
102
RTVSPost2010Prop46
 90
       50
102
RTVSPost2010PropOp46
 70
     1
102
RTVSPost2010Prop47
 90
       50
102
RTVSPost2010PropOp47
 70
     1
102
RTVSPost2010Prop48
 90
       50
102
RTVSPost2010PropOp48
 70
     1
102
RTVSPost2010Prop49
280
     0
102
RTVSPost2010PropOp49
 70
     1
102
RTVSPost2010Prop50
 90
       50
102
RTVSPost2010PropOp50
 70
     1
102
RTVSPost2010Prop51ColorIndex
 90
      256
102
RTVSPost2010Prop51ColorRGB
 90
-16777216
102
RTVSPost2010PropOp51
 70
     0
102
RTVSPost2010Prop52
140
1.0
102
RTVSPost2010PropOp52
 70
     0
102
RTVSPost2010Prop53
 90
        2
102
RTVSPost2010PropOp53
 70
     1
102
RTVSPost2010Prop54
  1
strokes_ogs.tif
102
RTVSPost2010PropOp54
 70
     1
102
RTVSPost2010Prop55
280
     0
102
RTVSPost2010PropOp55
 70
     1
102
RTVSPost2010Prop56
140
1.0
102
RTVSPost2010PropOp56
 70
     1
102
RTVSPost2010Prop57
140
1.0
102
RTVSPost2010PropOp57
 70
     1
102
RTVSPropertyOp0
 70
     1
102
RTVSPropertyOp1
 70
     1
102
RTVSPropertyOp2
 70
     1
102
RTVSPropertyOp3
 70
     1
102
RTVSPropertyOp4
 70
     1
102
RTVSPropertyOp5
 70
     1
102
RTVSPropertyOp6
 70
     1
102
RTVSPropertyOp7
 70
     1
102
RTVSPropertyOp8
 70
     1
102
RTVSPropertyOp9
 70
     1
102
RTVSPropertyOp10
 70
     1
102
RTVSPropertyOp11
 70
     1
102
RTVSPropertyOp12
 70
     1
102
RTVSPropertyOp13
 70
     1
102
RTVSPropertyOp14
 70
     1
102
RTVSPropertyOp15
 70
     1
102
RTVSPropertyOp16
 70
     1
102
RTVSPropertyOp17
 70
     1
102
RTVSPropertyOp18
 70
     1
102
RTVSPropertyOp19
 70
     1
102
RTVSPropertyOp20
 70
     1
102
RTVSPropertyOp21
 70
     1
102
RTVSPropertyOp22
 70
     1
102
RTVSPropertyOp23
 70
     1
102
RTVSPropertyOp24
 70
     1
102
RTVSPropertyOp25
 70
     1
102
RTVSPropertyOp26
 70
     1
102
RTVSPropertyOp27
 70
     1
102
RTVSPropertyOp28
 70
     1
102
RTVSPropertyOp29
 70
     1
102
RTVSPropertyOp30
 70
     1
102
RTVSPropertyOp31
 70
     1
102
RTVSPropertyOp32
 70
     1
102
RTVSPropertyOp33
 70
     1
102
RTVSPropertyOp34
 70
     1
102
RTVSPropertyOp35
 70
     1
102
RTVSPropertyOp36
 70
     1
102
RTVSPropertyOp37
 70
     1
102
RTVSPropertyOp38
 70
     1
102
RTVSPropertyOp39
 70
     1
102
RTVSPropertyOp40
 70
     1
102
RTVSPropertyOp41
 70
     1
102
RTVSPropertyOp42
 70
     1
102
RTVSPropertyOp43
 70
     1
102
RTVSPropertyOp44
 70
     1
102
RTVSPropertyOp45
 70
     1
102
RTVSPropertyOp46
 70
     1
102
RTVSPropertyOp47
 70
     1
102
RTVSPropertyOp48
 70
     1
102
RTVSPropertyOp49
 70
     1
102
RTVSPropertyOp50
 70
     1
102
RTVSPropertyOp51
 70
     0
102
RTVSPropertyOp52
 70
     0
102
RTVSPropertyOp53
 70
     1
102
RTVSPropertyOp54
 70
     1
102
RTVSPropertyOp55
 70
     1
102
RTVSPropertyOp56
 70
     1
102
RTVSPropertyOp57
 70
     1
102
RTVSPropertyOp58
 70
     1
102
RTVSPropertyOp59
 70
     1
102
RTVSPropertyOp60
 70
     1
102
RTVSPropertyOp61
 70
     1
102
RTVSPropertyOp62
 70
     1
  0
XRECORD
  5
C770
102
{ACAD_REACTORS
330
C76F
102
}
330
C76F
100
AcDbXrecord
280
     1
102
RTVSPost2010Prop28
280
     0
102
RTVSPost2010PropOp28
 70
     1
102
RTVSPost2010Prop29
280
     1
102
RTVSPost2010PropOp29
 70
     1
102
RTVSPost2010Prop30
280
     1
102
RTVSPost2010PropOp30
 70
     1
102
RTVSPost2010Prop31
280
     0
102
RTVSPost2010PropOp31
 70
     1
102
RTVSPost2010Prop32
280
     0
102
RTVSPost2010PropOp32
 70
     1
102
RTVSPost2010Prop33
280
     0
102
RTVSPost2010PropOp33
 70
     1
102
RTVSPost2010Prop34
280
     0
102
RTVSPost2010PropOp34
 70
     1
102
RTVSPost2010Prop35
280
     0
102
RTVSPost2010PropOp35
 70
     1
102
RTVSPost2010Prop36
280
     0
102
RTVSPost2010PropOp36
 70
     1
102
RTVSPost2010Prop37
 90
       50
102
RTVSPost2010PropOp37
 70
     1
102
RTVSPost2010Prop38
140
0.0
102
RTVSPost2010PropOp38
 70
     1
102
RTVSPost2010Prop39
140
1.0
102
RTVSPost2010PropOp39
 70
     1
102
RTVSPost2010Prop40
 90
        0
102
RTVSPost2010PropOp40
 70
     1
102
RTVSPost2010Prop41ColorIndex
 90
       18
102
RTVSPost2010Prop41ColorRGB
 90
        0
102
RTVSPost2010PropOp41
 70
     1
102
RTVSPost2010Prop42
 90
       50
102
RTVSPost2010PropOp42
 70
     1
102
RTVSPost2010Prop43
 90
        3
102
RTVSPost2010PropOp43
 70
     1
102
RTVSPost2010Prop44ColorIndex
 90
        5
102
RTVSPost2010Prop44ColorRGB
 90
      255
102
RTVSPost2010PropOp44
 70
     1
102
RTVSPost2010Prop45
280
     0
102
RTVSPost2010PropOp45
 70
     1
102
RTVSPost2010Prop46
 90
       50
102
RTVSPost2010PropOp46
 70
     1
102
RTVSPost2010Prop47
 90
       50
102
RTVSPost2010PropOp47
 70
     1
102
RTVSPost2010Prop48
 90
       50
102
RTVSPost2010PropOp48
 70
     1
102
RTVSPost2010Prop49
280
     0
102
RTVSPost2010PropOp49
 70
     1
102
RTVSPost2010Prop50
 90
       50
102
RTVSPost2010PropOp50
 70
     1
102
RTVSPost2010Prop51ColorIndex
 90
      256
102
RTVSPost2010Prop51ColorRGB
 90
-16777216
102
RTVSPost2010PropOp51
 70
     0
102
RTVSPost2010Prop52
140
1.0
102
RTVSPost2010PropOp52
 70
     0
102
RTVSPost2010Prop53
 90
        2
102
RTVSPost2010PropOp53
 70
     1
102
RTVSPost2010Prop54
  1
strokes_ogs.tif
102
RTVSPost2010PropOp54
 70
     1
102
RTVSPost2010Prop55
280
     0
102
RTVSPost2010PropOp55
 70
     1
102
RTVSPost2010Prop56
140
1.0
102
RTVSPost2010PropOp56
 70
     1
102
RTVSPost2010Prop57
140
1.0
102
RTVSPost2010PropOp57
 70
     1
102
RTVSPropertyOp0
 70
     1
102
RTVSPropertyOp1
 70
     1
102
RTVSPropertyOp2
 70
     1
102
RTVSPropertyOp3
 70
     1
102
RTVSPropertyOp4
 70
     1
102
RTVSPropertyOp5
 70
     1
102
RTVSPropertyOp6
 70
     1
102
RTVSPropertyOp7
 70
     1
102
RTVSPropertyOp8
 70
     1
102
RTVSPropertyOp9
 70
     1
102
RTVSPropertyOp10
 70
     1
102
RTVSPropertyOp11
 70
     1
102
RTVSPropertyOp12
 70
     1
102
RTVSPropertyOp13
 70
     1
102
RTVSPropertyOp14
 70
     1
102
RTVSPropertyOp15
 70
     1
102
RTVSPropertyOp16
 70
     1
102
RTVSPropertyOp17
 70
     1
102
RTVSPropertyOp18
 70
     1
102
RTVSPropertyOp19
 70
     1
102
RTVSPropertyOp20
 70
     1
102
RTVSPropertyOp21
 70
     1
102
RTVSPropertyOp22
 70
     1
102
RTVSPropertyOp23
 70
     1
102
RTVSPropertyOp24
 70
     1
102
RTVSPropertyOp25
 70
     1
102
RTVSPropertyOp26
 70
     1
102
RTVSPropertyOp27
 70
     1
102
RTVSPropertyOp28
 70
     1
102
RTVSPropertyOp29
 70
     1
102
RTVSPropertyOp30
 70
     1
102
RTVSPropertyOp31
 70
     1
102
RTVSPropertyOp32
 70
     1
102
RTVSPropertyOp33
 70
     1
102
RTVSPropertyOp34
 70
     1
102
RTVSPropertyOp35
 70
     1
102
RTVSPropertyOp36
 70
     1
102
RTVSPropertyOp37
 70
     1
102
RTVSPropertyOp38
 70
     1
102
RTVSPropertyOp39
 70
     1
102
RTVSPropertyOp40
 70
     1
102
RTVSPropertyOp41
 70
     1
102
RTVSPropertyOp42
 70
     1
102
RTVSPropertyOp43
 70
     1
102
RTVSPropertyOp44
 70
     1
102
RTVSPropertyOp45
 70
     1
102
RTVSPropertyOp46
 70
     1
102
RTVSPropertyOp47
 70
     1
102
RTVSPropertyOp48
 70
     1
102
RTVSPropertyOp49
 70
     1
102
RTVSPropertyOp50
 70
     1
102
RTVSPropertyOp51
 70
     0
102
RTVSPropertyOp52
 70
     0
102
RTVSPropertyOp53
 70
     1
102
RTVSPropertyOp54
 70
     1
102
RTVSPropertyOp55
 70
     1
102
RTVSPropertyOp56
 70
     1
102
RTVSPropertyOp57
 70
     1
102
RTVSPropertyOp58
 70
     1
102
RTVSPropertyOp59
 70
     1
102
RTVSPropertyOp60
 70
     1
102
RTVSPropertyOp61
 70
     1
102
RTVSPropertyOp62
 70
     1
  0
XRECORD
  5
C77E
102
{ACAD_REACTORS
330
C77D
102
}
330
C77D
100
AcDbXrecord
280
     1
102
RTVSPost2010Prop28
280
     0
102
RTVSPost2010PropOp28
 70
     1
102
RTVSPost2010Prop29
280
     1
102
RTVSPost2010PropOp29
 70
     1
102
RTVSPost2010Prop30
280
     1
102
RTVSPost2010PropOp30
 70
     1
102
RTVSPost2010Prop31
280
     0
102
RTVSPost2010PropOp31
 70
     1
102
RTVSPost2010Prop32
280
     0
102
RTVSPost2010PropOp32
 70
     1
102
RTVSPost2010Prop33
280
     0
102
RTVSPost2010PropOp33
 70
     1
102
RTVSPost2010Prop34
280
     0
102
RTVSPost2010PropOp34
 70
     1
102
RTVSPost2010Prop35
280
     0
102
RTVSPost2010PropOp35
 70
     1
102
RTVSPost2010Prop36
280
     0
102
RTVSPost2010PropOp36
 70
     1
102
RTVSPost2010Prop37
 90
       50
102
RTVSPost2010PropOp37
 70
     1
102
RTVSPost2010Prop38
140
0.0
102
RTVSPost2010PropOp38
 70
     1
102
RTVSPost2010Prop39
140
1.0
102
RTVSPost2010PropOp39
 70
     1
102
RTVSPost2010Prop40
 90
        0
102
RTVSPost2010PropOp40
 70
     1
102
RTVSPost2010Prop41ColorIndex
 90
       18
102
RTVSPost2010Prop41ColorRGB
 90
        0
102
RTVSPost2010PropOp41
 70
     1
102
RTVSPost2010Prop42
 90
       50
102
RTVSPost2010PropOp42
 70
     1
102
RTVSPost2010Prop43
 90
        3
102
RTVSPost2010PropOp43
 70
     1
102
RTVSPost2010Prop44ColorIndex
 90
        5
102
RTVSPost2010Prop44ColorRGB
 90
      255
102
RTVSPost2010PropOp44
 70
     1
102
RTVSPost2010Prop45
280
     0
102
RTVSPost2010PropOp45
 70
     1
102
RTVSPost2010Prop46
 90
       50
102
RTVSPost2010PropOp46
 70
     1
102
RTVSPost2010Prop47
 90
       50
102
RTVSPost2010PropOp47
 70
     1
102
RTVSPost2010Prop48
 90
       50
102
RTVSPost2010PropOp48
 70
     1
102
RTVSPost2010Prop49
280
     0
102
RTVSPost2010PropOp49
 70
     1
102
RTVSPost2010Prop50
 90
       50
102
RTVSPost2010PropOp50
 70
     1
102
RTVSPost2010Prop51ColorIndex
 90
      256
102
RTVSPost2010Prop51ColorRGB
 90
-16777216
102
RTVSPost2010PropOp51
 70
     0
102
RTVSPost2010Prop52
140
1.0
102
RTVSPost2010PropOp52
 70
     0
102
RTVSPost2010Prop53
 90
        2
102
RTVSPost2010PropOp53
 70
     1
102
RTVSPost2010Prop54
  1
strokes_ogs.tif
102
RTVSPost2010PropOp54
 70
     1
102
RTVSPost2010Prop55
280
     0
102
RTVSPost2010PropOp55
 70
     1
102
RTVSPost2010Prop56
140
1.0
102
RTVSPost2010PropOp56
 70
     1
102
RTVSPost2010Prop57
140
1.0
102
RTVSPost2010PropOp57
 70
     1
102
RTVSPropertyOp0
 70
     1
102
RTVSPropertyOp1
 70
     1
102
RTVSPropertyOp2
 70
     1
102
RTVSPropertyOp3
 70
     1
102
RTVSPropertyOp4
 70
     1
102
RTVSPropertyOp5
 70
     1
102
RTVSPropertyOp6
 70
     1
102
RTVSPropertyOp7
 70
     1
102
RTVSPropertyOp8
 70
     1
102
RTVSPropertyOp9
 70
     1
102
RTVSPropertyOp10
 70
     1
102
RTVSPropertyOp11
 70
     1
102
RTVSPropertyOp12
 70
     1
102
RTVSPropertyOp13
 70
     1
102
RTVSPropertyOp14
 70
     1
102
RTVSPropertyOp15
 70
     1
102
RTVSPropertyOp16
 70
     1
102
RTVSPropertyOp17
 70
     1
102
RTVSPropertyOp18
 70
     1
102
RTVSPropertyOp19
 70
     1
102
RTVSPropertyOp20
 70
     1
102
RTVSPropertyOp21
 70
     1
102
RTVSPropertyOp22
 70
     1
102
RTVSPropertyOp23
 70
     1
102
RTVSPropertyOp24
 70
     1
102
RTVSPropertyOp25
 70
     1
102
RTVSPropertyOp26
 70
     1
102
RTVSPropertyOp27
 70
     1
102
RTVSPropertyOp28
 70
     1
102
RTVSPropertyOp29
 70
     1
102
RTVSPropertyOp30
 70
     1
102
RTVSPropertyOp31
 70
     1
102
RTVSPropertyOp32
 70
     1
102
RTVSPropertyOp33
 70
     1
102
RTVSPropertyOp34
 70
     1
102
RTVSPropertyOp35
 70
     1
102
RTVSPropertyOp36
 70
     1
102
RTVSPropertyOp37
 70
     1
102
RTVSPropertyOp38
 70
     1
102
RTVSPropertyOp39
 70
     1
102
RTVSPropertyOp40
 70
     1
102
RTVSPropertyOp41
 70
     1
102
RTVSPropertyOp42
 70
     1
102
RTVSPropertyOp43
 70
     1
102
RTVSPropertyOp44
 70
     1
102
RTVSPropertyOp45
 70
     1
102
RTVSPropertyOp46
 70
     1
102
RTVSPropertyOp47
 70
     1
102
RTVSPropertyOp48
 70
     1
102
RTVSPropertyOp49
 70
     1
102
RTVSPropertyOp50
 70
     1
102
RTVSPropertyOp51
 70
     0
102
RTVSPropertyOp52
 70
     0
102
RTVSPropertyOp53
 70
     1
102
RTVSPropertyOp54
 70
     1
102
RTVSPropertyOp55
 70
     1
102
RTVSPropertyOp56
 70
     1
102
RTVSPropertyOp57
 70
     1
102
RTVSPropertyOp58
 70
     1
102
RTVSPropertyOp59
 70
     1
102
RTVSPropertyOp60
 70
     1
102
RTVSPropertyOp61
 70
     1
102
RTVSPropertyOp62
 70
     1
  0
XRECORD
  5
C786
102
{ACAD_REACTORS
330
C785
102
}
330
C785
100
AcDbXrecord
280
     1
102
RTVSPost2010Prop28
280
     0
102
RTVSPost2010PropOp28
 70
     1
102
RTVSPost2010Prop29
280
     1
102
RTVSPost2010PropOp29
 70
     1
102
RTVSPost2010Prop30
280
     1
102
RTVSPost2010PropOp30
 70
     1
102
RTVSPost2010Prop31
280
     0
102
RTVSPost2010PropOp31
 70
     1
102
RTVSPost2010Prop32
280
     0
102
RTVSPost2010PropOp32
 70
     1
102
RTVSPost2010Prop33
280
     0
102
RTVSPost2010PropOp33
 70
     1
102
RTVSPost2010Prop34
280
     0
102
RTVSPost2010PropOp34
 70
     1
102
RTVSPost2010Prop35
280
     0
102
RTVSPost2010PropOp35
 70
     1
102
RTVSPost2010Prop36
280
     0
102
RTVSPost2010PropOp36
 70
     1
102
RTVSPost2010Prop37
 90
       50
102
RTVSPost2010PropOp37
 70
     1
102
RTVSPost2010Prop38
140
0.0
102
RTVSPost2010PropOp38
 70
     1
102
RTVSPost2010Prop39
140
1.0
102
RTVSPost2010PropOp39
 70
     1
102
RTVSPost2010Prop40
 90
        0
102
RTVSPost2010PropOp40
 70
     1
102
RTVSPost2010Prop41ColorIndex
 90
       18
102
RTVSPost2010Prop41ColorRGB
 90
        0
102
RTVSPost2010PropOp41
 70
     1
102
RTVSPost2010Prop42
 90
       50
102
RTVSPost2010PropOp42
 70
     1
102
RTVSPost2010Prop43
 90
        3
102
RTVSPost2010PropOp43
 70
     1
102
RTVSPost2010Prop44ColorIndex
 90
        5
102
RTVSPost2010Prop44ColorRGB
 90
      255
102
RTVSPost2010PropOp44
 70
     1
102
RTVSPost2010Prop45
280
     0
102
RTVSPost2010PropOp45
 70
     1
102
RTVSPost2010Prop46
 90
       50
102
RTVSPost2010PropOp46
 70
     1
102
RTVSPost2010Prop47
 90
       50
102
RTVSPost2010PropOp47
 70
     1
102
RTVSPost2010Prop48
 90
       50
102
RTVSPost2010PropOp48
 70
     1
102
RTVSPost2010Prop49
280
     0
102
RTVSPost2010PropOp49
 70
     1
102
RTVSPost2010Prop50
 90
       50
102
RTVSPost2010PropOp50
 70
     1
102
RTVSPost2010Prop51ColorIndex
 90
      256
102
RTVSPost2010Prop51ColorRGB
 90
-16777216
102
RTVSPost2010PropOp51
 70
     0
102
RTVSPost2010Prop52
140
1.0
102
RTVSPost2010PropOp52
 70
     0
102
RTVSPost2010Prop53
 90
        2
102
RTVSPost2010PropOp53
 70
     1
102
RTVSPost2010Prop54
  1
strokes_ogs.tif
102
RTVSPost2010PropOp54
 70
     1
102
RTVSPost2010Prop55
280
     0
102
RTVSPost2010PropOp55
 70
     1
102
RTVSPost2010Prop56
140
1.0
102
RTVSPost2010PropOp56
 70
     1
102
RTVSPost2010Prop57
140
1.0
102
RTVSPost2010PropOp57
 70
     1
102
RTVSPropertyOp0
 70
     1
102
RTVSPropertyOp1
 70
     1
102
RTVSPropertyOp2
 70
     1
102
RTVSPropertyOp3
 70
     1
102
RTVSPropertyOp4
 70
     1
102
RTVSPropertyOp5
 70
     1
102
RTVSPropertyOp6
 70
     1
102
RTVSPropertyOp7
 70
     1
102
RTVSPropertyOp8
 70
     1
102
RTVSPropertyOp9
 70
     1
102
RTVSPropertyOp10
 70
     1
102
RTVSPropertyOp11
 70
     1
102
RTVSPropertyOp12
 70
     1
102
RTVSPropertyOp13
 70
     1
102
RTVSPropertyOp14
 70
     1
102
RTVSPropertyOp15
 70
     1
102
RTVSPropertyOp16
 70
     1
102
RTVSPropertyOp17
 70
     1
102
RTVSPropertyOp18
 70
     1
102
RTVSPropertyOp19
 70
     1
102
RTVSPropertyOp20
 70
     1
102
RTVSPropertyOp21
 70
     1
102
RTVSPropertyOp22
 70
     1
102
RTVSPropertyOp23
 70
     1
102
RTVSPropertyOp24
 70
     1
102
RTVSPropertyOp25
 70
     1
102
RTVSPropertyOp26
 70
     1
102
RTVSPropertyOp27
 70
     1
102
RTVSPropertyOp28
 70
     1
102
RTVSPropertyOp29
 70
     1
102
RTVSPropertyOp30
 70
     1
102
RTVSPropertyOp31
 70
     1
102
RTVSPropertyOp32
 70
     1
102
RTVSPropertyOp33
 70
     1
102
RTVSPropertyOp34
 70
     1
102
RTVSPropertyOp35
 70
     1
102
RTVSPropertyOp36
 70
     1
102
RTVSPropertyOp37
 70
     1
102
RTVSPropertyOp38
 70
     1
102
RTVSPropertyOp39
 70
     1
102
RTVSPropertyOp40
 70
     1
102
RTVSPropertyOp41
 70
     1
102
RTVSPropertyOp42
 70
     1
102
RTVSPropertyOp43
 70
     1
102
RTVSPropertyOp44
 70
     1
102
RTVSPropertyOp45
 70
     1
102
RTVSPropertyOp46
 70
     1
102
RTVSPropertyOp47
 70
     1
102
RTVSPropertyOp48
 70
     1
102
RTVSPropertyOp49
 70
     1
102
RTVSPropertyOp50
 70
     1
102
RTVSPropertyOp51
 70
     0
102
RTVSPropertyOp52
 70
     0
102
RTVSPropertyOp53
 70
     1
102
RTVSPropertyOp54
 70
     1
102
RTVSPropertyOp55
 70
     1
102
RTVSPropertyOp56
 70
     1
102
RTVSPropertyOp57
 70
     1
102
RTVSPropertyOp58
 70
     1
102
RTVSPropertyOp59
 70
     1
102
RTVSPropertyOp60
 70
     1
102
RTVSPropertyOp61
 70
     1
102
RTVSPropertyOp62
 70
     1
  0
XRECORD
  5
C778
102
{ACAD_REACTORS
330
C777
102
}
330
C777
100
AcDbXrecord
280
     1
102
RTVSPost2010Prop28
280
     0
102
RTVSPost2010PropOp28
 70
     1
102
RTVSPost2010Prop29
280
     1
102
RTVSPost2010PropOp29
 70
     1
102
RTVSPost2010Prop30
280
     1
102
RTVSPost2010PropOp30
 70
     1
102
RTVSPost2010Prop31
280
     0
102
RTVSPost2010PropOp31
 70
     1
102
RTVSPost2010Prop32
280
     0
102
RTVSPost2010PropOp32
 70
     1
102
RTVSPost2010Prop33
280
     0
102
RTVSPost2010PropOp33
 70
     1
102
RTVSPost2010Prop34
280
     0
102
RTVSPost2010PropOp34
 70
     1
102
RTVSPost2010Prop35
280
     0
102
RTVSPost2010PropOp35
 70
     1
102
RTVSPost2010Prop36
280
     0
102
RTVSPost2010PropOp36
 70
     1
102
RTVSPost2010Prop37
 90
       50
102
RTVSPost2010PropOp37
 70
     1
102
RTVSPost2010Prop38
140
0.0
102
RTVSPost2010PropOp38
 70
     1
102
RTVSPost2010Prop39
140
1.0
102
RTVSPost2010PropOp39
 70
     1
102
RTVSPost2010Prop40
 90
        0
102
RTVSPost2010PropOp40
 70
     1
102
RTVSPost2010Prop41ColorIndex
 90
       18
102
RTVSPost2010Prop41ColorRGB
 90
        0
102
RTVSPost2010PropOp41
 70
     1
102
RTVSPost2010Prop42
 90
       50
102
RTVSPost2010PropOp42
 70
     1
102
RTVSPost2010Prop43
 90
        3
102
RTVSPost2010PropOp43
 70
     1
102
RTVSPost2010Prop44ColorIndex
 90
        5
102
RTVSPost2010Prop44ColorRGB
 90
      255
102
RTVSPost2010PropOp44
 70
     1
102
RTVSPost2010Prop45
280
     0
102
RTVSPost2010PropOp45
 70
     1
102
RTVSPost2010Prop46
 90
       50
102
RTVSPost2010PropOp46
 70
     1
102
RTVSPost2010Prop47
 90
       50
102
RTVSPost2010PropOp47
 70
     1
102
RTVSPost2010Prop48
 90
       50
102
RTVSPost2010PropOp48
 70
     1
102
RTVSPost2010Prop49
280
     0
102
RTVSPost2010PropOp49
 70
     1
102
RTVSPost2010Prop50
 90
       50
102
RTVSPost2010PropOp50
 70
     1
102
RTVSPost2010Prop51ColorIndex
 90
      256
102
RTVSPost2010Prop51ColorRGB
 90
-16777216
102
RTVSPost2010PropOp51
 70
     0
102
RTVSPost2010Prop52
140
1.0
102
RTVSPost2010PropOp52
 70
     0
102
RTVSPost2010Prop53
 90
        2
102
RTVSPost2010PropOp53
 70
     1
102
RTVSPost2010Prop54
  1
strokes_ogs.tif
102
RTVSPost2010PropOp54
 70
     1
102
RTVSPost2010Prop55
280
     0
102
RTVSPost2010PropOp55
 70
     1
102
RTVSPost2010Prop56
140
1.0
102
RTVSPost2010PropOp56
 70
     1
102
RTVSPost2010Prop57
140
1.0
102
RTVSPost2010PropOp57
 70
     1
102
RTVSPropertyOp0
 70
     1
102
RTVSPropertyOp1
 70
     1
102
RTVSPropertyOp2
 70
     1
102
RTVSPropertyOp3
 70
     1
102
RTVSPropertyOp4
 70
     1
102
RTVSPropertyOp5
 70
     1
102
RTVSPropertyOp6
 70
     1
102
RTVSPropertyOp7
 70
     1
102
RTVSPropertyOp8
 70
     1
102
RTVSPropertyOp9
 70
     1
102
RTVSPropertyOp10
 70
     1
102
RTVSPropertyOp11
 70
     1
102
RTVSPropertyOp12
 70
     1
102
RTVSPropertyOp13
 70
     1
102
RTVSPropertyOp14
 70
     1
102
RTVSPropertyOp15
 70
     1
102
RTVSPropertyOp16
 70
     1
102
RTVSPropertyOp17
 70
     1
102
RTVSPropertyOp18
 70
     1
102
RTVSPropertyOp19
 70
     1
102
RTVSPropertyOp20
 70
     1
102
RTVSPropertyOp21
 70
     1
102
RTVSPropertyOp22
 70
     1
102
RTVSPropertyOp23
 70
     1
102
RTVSPropertyOp24
 70
     1
102
RTVSPropertyOp25
 70
     1
102
RTVSPropertyOp26
 70
     1
102
RTVSPropertyOp27
 70
     1
102
RTVSPropertyOp28
 70
     1
102
RTVSPropertyOp29
 70
     1
102
RTVSPropertyOp30
 70
     1
102
RTVSPropertyOp31
 70
     1
102
RTVSPropertyOp32
 70
     1
102
RTVSPropertyOp33
 70
     1
102
RTVSPropertyOp34
 70
     1
102
RTVSPropertyOp35
 70
     1
102
RTVSPropertyOp36
 70
     1
102
RTVSPropertyOp37
 70
     1
102
RTVSPropertyOp38
 70
     1
102
RTVSPropertyOp39
 70
     1
102
RTVSPropertyOp40
 70
     1
102
RTVSPropertyOp41
 70
     1
102
RTVSPropertyOp42
 70
     1
102
RTVSPropertyOp43
 70
     1
102
RTVSPropertyOp44
 70
     1
102
RTVSPropertyOp45
 70
     1
102
RTVSPropertyOp46
 70
     1
102
RTVSPropertyOp47
 70
     1
102
RTVSPropertyOp48
 70
     1
102
RTVSPropertyOp49
 70
     1
102
RTVSPropertyOp50
 70
     1
102
RTVSPropertyOp51
 70
     0
102
RTVSPropertyOp52
 70
     0
102
RTVSPropertyOp53
 70
     1
102
RTVSPropertyOp54
 70
     1
102
RTVSPropertyOp55
 70
     1
102
RTVSPropertyOp56
 70
     1
102
RTVSPropertyOp57
 70
     1
102
RTVSPropertyOp58
 70
     1
102
RTVSPropertyOp59
 70
     1
102
RTVSPropertyOp60
 70
     1
102
RTVSPropertyOp61
 70
     1
102
RTVSPropertyOp62
 70
     1
  0
XRECORD
  5
C77C
102
{ACAD_REACTORS
330
C77B
102
}
330
C77B
100
AcDbXrecord
280
     1
102
RTVSPost2010Prop28
280
     0
102
RTVSPost2010PropOp28
 70
     1
102
RTVSPost2010Prop29
280
     1
102
RTVSPost2010PropOp29
 70
     1
102
RTVSPost2010Prop30
280
     1
102
RTVSPost2010PropOp30
 70
     1
102
RTVSPost2010Prop31
280
     0
102
RTVSPost2010PropOp31
 70
     1
102
RTVSPost2010Prop32
280
     0
102
RTVSPost2010PropOp32
 70
     1
102
RTVSPost2010Prop33
280
     0
102
RTVSPost2010PropOp33
 70
     1
102
RTVSPost2010Prop34
280
     0
102
RTVSPost2010PropOp34
 70
     1
102
RTVSPost2010Prop35
280
     0
102
RTVSPost2010PropOp35
 70
     1
102
RTVSPost2010Prop36
280
     0
102
RTVSPost2010PropOp36
 70
     1
102
RTVSPost2010Prop37
 90
       50
102
RTVSPost2010PropOp37
 70
     1
102
RTVSPost2010Prop38
140
0.0
102
RTVSPost2010PropOp38
 70
     1
102
RTVSPost2010Prop39
140
1.0
102
RTVSPost2010PropOp39
 70
     1
102
RTVSPost2010Prop40
 90
        0
102
RTVSPost2010PropOp40
 70
     1
102
RTVSPost2010Prop41ColorIndex
 90
       18
102
RTVSPost2010Prop41ColorRGB
 90
        0
102
RTVSPost2010PropOp41
 70
     1
102
RTVSPost2010Prop42
 90
       50
102
RTVSPost2010PropOp42
 70
     1
102
RTVSPost2010Prop43
 90
        3
102
RTVSPost2010PropOp43
 70
     1
102
RTVSPost2010Prop44ColorIndex
 90
        5
102
RTVSPost2010Prop44ColorRGB
 90
      255
102
RTVSPost2010PropOp44
 70
     1
102
RTVSPost2010Prop45
280
     0
102
RTVSPost2010PropOp45
 70
     1
102
RTVSPost2010Prop46
 90
       50
102
RTVSPost2010PropOp46
 70
     1
102
RTVSPost2010Prop47
 90
       50
102
RTVSPost2010PropOp47
 70
     1
102
RTVSPost2010Prop48
 90
       50
102
RTVSPost2010PropOp48
 70
     1
102
RTVSPost2010Prop49
280
     0
102
RTVSPost2010PropOp49
 70
     1
102
RTVSPost2010Prop50
 90
       50
102
RTVSPost2010PropOp50
 70
     1
102
RTVSPost2010Prop51ColorIndex
 90
      256
102
RTVSPost2010Prop51ColorRGB
 90
-16777216
102
RTVSPost2010PropOp51
 70
     0
102
RTVSPost2010Prop52
140
1.0
102
RTVSPost2010PropOp52
 70
     0
102
RTVSPost2010Prop53
 90
        2
102
RTVSPost2010PropOp53
 70
     1
102
RTVSPost2010Prop54
  1
strokes_ogs.tif
102
RTVSPost2010PropOp54
 70
     1
102
RTVSPost2010Prop55
280
     0
102
RTVSPost2010PropOp55
 70
     1
102
RTVSPost2010Prop56
140
1.0
102
RTVSPost2010PropOp56
 70
     1
102
RTVSPost2010Prop57
140
1.0
102
RTVSPost2010PropOp57
 70
     1
102
RTVSPropertyOp0
 70
     1
102
RTVSPropertyOp1
 70
     1
102
RTVSPropertyOp2
 70
     1
102
RTVSPropertyOp3
 70
     1
102
RTVSPropertyOp4
 70
     1
102
RTVSPropertyOp5
 70
     1
102
RTVSPropertyOp6
 70
     1
102
RTVSPropertyOp7
 70
     1
102
RTVSPropertyOp8
 70
     1
102
RTVSPropertyOp9
 70
     1
102
RTVSPropertyOp10
 70
     1
102
RTVSPropertyOp11
 70
     1
102
RTVSPropertyOp12
 70
     1
102
RTVSPropertyOp13
 70
     1
102
RTVSPropertyOp14
 70
     1
102
RTVSPropertyOp15
 70
     1
102
RTVSPropertyOp16
 70
     1
102
RTVSPropertyOp17
 70
     1
102
RTVSPropertyOp18
 70
     1
102
RTVSPropertyOp19
 70
     1
102
RTVSPropertyOp20
 70
     1
102
RTVSPropertyOp21
 70
     1
102
RTVSPropertyOp22
 70
     1
102
RTVSPropertyOp23
 70
     1
102
RTVSPropertyOp24
 70
     1
102
RTVSPropertyOp25
 70
     1
102
RTVSPropertyOp26
 70
     1
102
RTVSPropertyOp27
 70
     1
102
RTVSPropertyOp28
 70
     1
102
RTVSPropertyOp29
 70
     1
102
RTVSPropertyOp30
 70
     1
102
RTVSPropertyOp31
 70
     1
102
RTVSPropertyOp32
 70
     1
102
RTVSPropertyOp33
 70
     1
102
RTVSPropertyOp34
 70
     1
102
RTVSPropertyOp35
 70
     1
102
RTVSPropertyOp36
 70
     1
102
RTVSPropertyOp37
 70
     1
102
RTVSPropertyOp38
 70
     1
102
RTVSPropertyOp39
 70
     1
102
RTVSPropertyOp40
 70
     1
102
RTVSPropertyOp41
 70
     1
102
RTVSPropertyOp42
 70
     1
102
RTVSPropertyOp43
 70
     1
102
RTVSPropertyOp44
 70
     1
102
RTVSPropertyOp45
 70
     1
102
RTVSPropertyOp46
 70
     1
102
RTVSPropertyOp47
 70
     1
102
RTVSPropertyOp48
 70
     1
102
RTVSPropertyOp49
 70
     1
102
RTVSPropertyOp50
 70
     1
102
RTVSPropertyOp51
 70
     0
102
RTVSPropertyOp52
 70
     0
102
RTVSPropertyOp53
 70
     1
102
RTVSPropertyOp54
 70
     1
102
RTVSPropertyOp55
 70
     1
102
RTVSPropertyOp56
 70
     1
102
RTVSPropertyOp57
 70
     1
102
RTVSPropertyOp58
 70
     1
102
RTVSPropertyOp59
 70
     1
102
RTVSPropertyOp60
 70
     1
102
RTVSPropertyOp61
 70
     1
102
RTVSPropertyOp62
 70
     1
  0
XRECORD
  5
C796
102
{ACAD_REACTORS
330
C795
102
}
330
C795
100
AcDbXrecord
280
     1
102
RTVSPost2010Prop28
280
     0
102
RTVSPost2010PropOp28
 70
     1
102
RTVSPost2010Prop29
280
     1
102
RTVSPost2010PropOp29
 70
     1
102
RTVSPost2010Prop30
280
     1
102
RTVSPost2010PropOp30
 70
     1
102
RTVSPost2010Prop31
280
     0
102
RTVSPost2010PropOp31
 70
     1
102
RTVSPost2010Prop32
280
     0
102
RTVSPost2010PropOp32
 70
     1
102
RTVSPost2010Prop33
280
     0
102
RTVSPost2010PropOp33
 70
     1
102
RTVSPost2010Prop34
280
     0
102
RTVSPost2010PropOp34
 70
     1
102
RTVSPost2010Prop35
280
     0
102
RTVSPost2010PropOp35
 70
     1
102
RTVSPost2010Prop36
280
     0
102
RTVSPost2010PropOp36
 70
     1
102
RTVSPost2010Prop37
 90
       50
102
RTVSPost2010PropOp37
 70
     0
102
RTVSPost2010Prop38
140
0.0
102
RTVSPost2010PropOp38
 70
     0
102
RTVSPost2010Prop39
140
1.0
102
RTVSPost2010PropOp39
 70
     0
102
RTVSPost2010Prop40
 90
        0
102
RTVSPost2010PropOp40
 70
     0
102
RTVSPost2010Prop41ColorIndex
 90
       18
102
RTVSPost2010Prop41ColorRGB
 90
        0
102
RTVSPost2010PropOp41
 70
     0
102
RTVSPost2010Prop42
 90
       50
102
RTVSPost2010PropOp42
 70
     0
102
RTVSPost2010Prop43
 90
        3
102
RTVSPost2010PropOp43
 70
     0
102
RTVSPost2010Prop44ColorIndex
 90
        5
102
RTVSPost2010Prop44ColorRGB
 90
      255
102
RTVSPost2010PropOp44
 70
     0
102
RTVSPost2010Prop45
280
     0
102
RTVSPost2010PropOp45
 70
     1
102
RTVSPost2010Prop46
 90
       50
102
RTVSPost2010PropOp46
 70
     0
102
RTVSPost2010Prop47
 90
       50
102
RTVSPost2010PropOp47
 70
     0
102
RTVSPost2010Prop48
 90
       50
102
RTVSPost2010PropOp48
 70
     0
102
RTVSPost2010Prop49
280
     0
102
RTVSPost2010PropOp49
 70
     1
102
RTVSPost2010Prop50
 90
       50
102
RTVSPost2010PropOp50
 70
     0
102
RTVSPost2010Prop51ColorIndex
 90
      256
102
RTVSPost2010Prop51ColorRGB
 90
-16777216
102
RTVSPost2010PropOp51
 70
     0
102
RTVSPost2010Prop52
140
1.0
102
RTVSPost2010PropOp52
 70
     0
102
RTVSPost2010Prop53
 90
        2
102
RTVSPost2010PropOp53
 70
     0
102
RTVSPost2010Prop54
  1
strokes_ogs.tif
102
RTVSPost2010PropOp54
 70
     0
102
RTVSPost2010Prop55
280
     0
102
RTVSPost2010PropOp55
 70
     1
102
RTVSPost2010Prop56
140
1.0
102
RTVSPost2010PropOp56
 70
     0
102
RTVSPost2010Prop57
140
1.0
102
RTVSPost2010PropOp57
 70
     0
102
RTVSPropertyOp0
 70
     0
102
RTVSPropertyOp1
 70
     0
102
RTVSPropertyOp2
 70
     0
102
RTVSPropertyOp3
 70
     0
102
RTVSPropertyOp4
 70
     0
102
RTVSPropertyOp5
 70
     0
102
RTVSPropertyOp6
 70
     0
102
RTVSPropertyOp7
 70
     0
102
RTVSPropertyOp8
 70
     0
102
RTVSPropertyOp9
 70
     0
102
RTVSPropertyOp10
 70
     0
102
RTVSPropertyOp11
 70
     0
102
RTVSPropertyOp12
 70
     0
102
RTVSPropertyOp13
 70
     0
102
RTVSPropertyOp14
 70
     2
102
RTVSPropertyOp15
 70
     0
102
RTVSPropertyOp16
 70
     0
102
RTVSPropertyOp17
 70
     0
102
RTVSPropertyOp18
 70
     0
102
RTVSPropertyOp19
 70
     0
102
RTVSPropertyOp20
 70
     0
102
RTVSPropertyOp21
 70
     0
102
RTVSPropertyOp22
 70
     0
102
RTVSPropertyOp23
 70
     0
102
RTVSPropertyOp24
 70
     0
102
RTVSPropertyOp25
 70
     0
102
RTVSPropertyOp26
 70
     0
102
RTVSPropertyOp27
 70
     0
102
RTVSPropertyOp28
 70
     1
102
RTVSPropertyOp29
 70
     1
102
RTVSPropertyOp30
 70
     1
102
RTVSPropertyOp31
 70
     1
102
RTVSPropertyOp32
 70
     1
102
RTVSPropertyOp33
 70
     1
102
RTVSPropertyOp34
 70
     1
102
RTVSPropertyOp35
 70
     1
102
RTVSPropertyOp36
 70
     1
102
RTVSPropertyOp37
 70
     0
102
RTVSPropertyOp38
 70
     0
102
RTVSPropertyOp39
 70
     0
102
RTVSPropertyOp40
 70
     0
102
RTVSPropertyOp41
 70
     0
102
RTVSPropertyOp42
 70
     0
102
RTVSPropertyOp43
 70
     0
102
RTVSPropertyOp44
 70
     0
102
RTVSPropertyOp45
 70
     1
102
RTVSPropertyOp46
 70
     0
102
RTVSPropertyOp47
 70
     0
102
RTVSPropertyOp48
 70
     0
102
RTVSPropertyOp49
 70
     1
102
RTVSPropertyOp50
 70
     0
102
RTVSPropertyOp51
 70
     0
102
RTVSPropertyOp52
 70
     0
102
RTVSPropertyOp53
 70
     0
102
RTVSPropertyOp54
 70
     0
102
RTVSPropertyOp55
 70
     1
102
RTVSPropertyOp56
 70
     0
102
RTVSPropertyOp57
 70
     0
102
RTVSPropertyOp58
 70
     0
102
RTVSPropertyOp59
 70
     0
102
RTVSPropertyOp60
 70
     0
102
RTVSPropertyOp61
 70
     0
102
RTVSPropertyOp62
 70
     0
  0
XRECORD
  5
C784
102
{ACAD_REACTORS
330
C783
102
}
330
C783
100
AcDbXrecord
280
     1
102
RTVSPost2010Prop28
280
     0
102
RTVSPost2010PropOp28
 70
     1
102
RTVSPost2010Prop29
280
     1
102
RTVSPost2010PropOp29
 70
     1
102
RTVSPost2010Prop30
280
     1
102
RTVSPost2010PropOp30
 70
     1
102
RTVSPost2010Prop31
280
     0
102
RTVSPost2010PropOp31
 70
     1
102
RTVSPost2010Prop32
280
     0
102
RTVSPost2010PropOp32
 70
     1
102
RTVSPost2010Prop33
280
     0
102
RTVSPost2010PropOp33
 70
     1
102
RTVSPost2010Prop34
280
     0
102
RTVSPost2010PropOp34
 70
     1
102
RTVSPost2010Prop35
280
     0
102
RTVSPost2010PropOp35
 70
     1
102
RTVSPost2010Prop36
280
     0
102
RTVSPost2010PropOp36
 70
     1
102
RTVSPost2010Prop37
 90
       50
102
RTVSPost2010PropOp37
 70
     1
102
RTVSPost2010Prop38
140
0.0
102
RTVSPost2010PropOp38
 70
     1
102
RTVSPost2010Prop39
140
1.0
102
RTVSPost2010PropOp39
 70
     1
102
RTVSPost2010Prop40
 90
        0
102
RTVSPost2010PropOp40
 70
     1
102
RTVSPost2010Prop41ColorIndex
 90
       18
102
RTVSPost2010Prop41ColorRGB
 90
        0
102
RTVSPost2010PropOp41
 70
     1
102
RTVSPost2010Prop42
 90
       50
102
RTVSPost2010PropOp42
 70
     1
102
RTVSPost2010Prop43
 90
        3
102
RTVSPost2010PropOp43
 70
     1
102
RTVSPost2010Prop44ColorIndex
 90
        5
102
RTVSPost2010Prop44ColorRGB
 90
      255
102
RTVSPost2010PropOp44
 70
     1
102
RTVSPost2010Prop45
280
     0
102
RTVSPost2010PropOp45
 70
     1
102
RTVSPost2010Prop46
 90
       50
102
RTVSPost2010PropOp46
 70
     1
102
RTVSPost2010Prop47
 90
       50
102
RTVSPost2010PropOp47
 70
     1
102
RTVSPost2010Prop48
 90
       50
102
RTVSPost2010PropOp48
 70
     1
102
RTVSPost2010Prop49
280
     0
102
RTVSPost2010PropOp49
 70
     1
102
RTVSPost2010Prop50
 90
       50
102
RTVSPost2010PropOp50
 70
     1
102
RTVSPost2010Prop51ColorIndex
 90
      256
102
RTVSPost2010Prop51ColorRGB
 90
-16777216
102
RTVSPost2010PropOp51
 70
     0
102
RTVSPost2010Prop52
140
1.0
102
RTVSPost2010PropOp52
 70
     0
102
RTVSPost2010Prop53
 90
        2
102
RTVSPost2010PropOp53
 70
     1
102
RTVSPost2010Prop54
  1
strokes_ogs.tif
102
RTVSPost2010PropOp54
 70
     1
102
RTVSPost2010Prop55
280
     0
102
RTVSPost2010PropOp55
 70
     1
102
RTVSPost2010Prop56
140
1.0
102
RTVSPost2010PropOp56
 70
     1
102
RTVSPost2010Prop57
140
1.0
102
RTVSPost2010PropOp57
 70
     1
102
RTVSPropertyOp0
 70
     1
102
RTVSPropertyOp1
 70
     1
102
RTVSPropertyOp2
 70
     1
102
RTVSPropertyOp3
 70
     1
102
RTVSPropertyOp4
 70
     1
102
RTVSPropertyOp5
 70
     1
102
RTVSPropertyOp6
 70
     1
102
RTVSPropertyOp7
 70
     1
102
RTVSPropertyOp8
 70
     1
102
RTVSPropertyOp9
 70
     1
102
RTVSPropertyOp10
 70
     1
102
RTVSPropertyOp11
 70
     1
102
RTVSPropertyOp12
 70
     1
102
RTVSPropertyOp13
 70
     1
102
RTVSPropertyOp14
 70
     1
102
RTVSPropertyOp15
 70
     1
102
RTVSPropertyOp16
 70
     1
102
RTVSPropertyOp17
 70
     1
102
RTVSPropertyOp18
 70
     1
102
RTVSPropertyOp19
 70
     1
102
RTVSPropertyOp20
 70
     1
102
RTVSPropertyOp21
 70
     1
102
RTVSPropertyOp22
 70
     1
102
RTVSPropertyOp23
 70
     1
102
RTVSPropertyOp24
 70
     1
102
RTVSPropertyOp25
 70
     1
102
RTVSPropertyOp26
 70
     1
102
RTVSPropertyOp27
 70
     1
102
RTVSPropertyOp28
 70
     1
102
RTVSPropertyOp29
 70
     1
102
RTVSPropertyOp30
 70
     1
102
RTVSPropertyOp31
 70
     1
102
RTVSPropertyOp32
 70
     1
102
RTVSPropertyOp33
 70
     1
102
RTVSPropertyOp34
 70
     1
102
RTVSPropertyOp35
 70
     1
102
RTVSPropertyOp36
 70
     1
102
RTVSPropertyOp37
 70
     1
102
RTVSPropertyOp38
 70
     1
102
RTVSPropertyOp39
 70
     1
102
RTVSPropertyOp40
 70
     1
102
RTVSPropertyOp41
 70
     1
102
RTVSPropertyOp42
 70
     1
102
RTVSPropertyOp43
 70
     1
102
RTVSPropertyOp44
 70
     1
102
RTVSPropertyOp45
 70
     1
102
RTVSPropertyOp46
 70
     1
102
RTVSPropertyOp47
 70
     1
102
RTVSPropertyOp48
 70
     1
102
RTVSPropertyOp49
 70
     1
102
RTVSPropertyOp50
 70
     1
102
RTVSPropertyOp51
 70
     0
102
RTVSPropertyOp52
 70
     0
102
RTVSPropertyOp53
 70
     1
102
RTVSPropertyOp54
 70
     1
102
RTVSPropertyOp55
 70
     1
102
RTVSPropertyOp56
 70
     1
102
RTVSPropertyOp57
 70
     1
102
RTVSPropertyOp58
 70
     1
102
RTVSPropertyOp59
 70
     1
102
RTVSPropertyOp60
 70
     1
102
RTVSPropertyOp61
 70
     1
102
RTVSPropertyOp62
 70
     1
  0
XRECORD
  5
C768
102
{ACAD_REACTORS
330
C767
102
}
330
C767
100
AcDbXrecord
280
     1
102
RTVSPost2010Prop28
280
     0
102
RTVSPost2010PropOp28
 70
     1
102
RTVSPost2010Prop29
280
     1
102
RTVSPost2010PropOp29
 70
     1
102
RTVSPost2010Prop30
280
     1
102
RTVSPost2010PropOp30
 70
     1
102
RTVSPost2010Prop31
280
     0
102
RTVSPost2010PropOp31
 70
     1
102
RTVSPost2010Prop32
280
     0
102
RTVSPost2010PropOp32
 70
     1
102
RTVSPost2010Prop33
280
     0
102
RTVSPost2010PropOp33
 70
     1
102
RTVSPost2010Prop34
280
     0
102
RTVSPost2010PropOp34
 70
     1
102
RTVSPost2010Prop35
280
     0
102
RTVSPost2010PropOp35
 70
     1
102
RTVSPost2010Prop36
280
     0
102
RTVSPost2010PropOp36
 70
     1
102
RTVSPost2010Prop37
 90
       50
102
RTVSPost2010PropOp37
 70
     1
102
RTVSPost2010Prop38
140
0.0
102
RTVSPost2010PropOp38
 70
     1
102
RTVSPost2010Prop39
140
1.0
102
RTVSPost2010PropOp39
 70
     1
102
RTVSPost2010Prop40
 90
        0
102
RTVSPost2010PropOp40
 70
     1
102
RTVSPost2010Prop41ColorIndex
 90
       18
102
RTVSPost2010Prop41ColorRGB
 90
        0
102
RTVSPost2010PropOp41
 70
     1
102
RTVSPost2010Prop42
 90
       50
102
RTVSPost2010PropOp42
 70
     1
102
RTVSPost2010Prop43
 90
        3
102
RTVSPost2010PropOp43
 70
     1
102
RTVSPost2010Prop44ColorIndex
 90
        5
102
RTVSPost2010Prop44ColorRGB
 90
      255
102
RTVSPost2010PropOp44
 70
     1
102
RTVSPost2010Prop45
280
     0
102
RTVSPost2010PropOp45
 70
     1
102
RTVSPost2010Prop46
 90
       50
102
RTVSPost2010PropOp46
 70
     1
102
RTVSPost2010Prop47
 90
       50
102
RTVSPost2010PropOp47
 70
     1
102
RTVSPost2010Prop48
 90
       50
102
RTVSPost2010PropOp48
 70
     1
102
RTVSPost2010Prop49
280
     0
102
RTVSPost2010PropOp49
 70
     1
102
RTVSPost2010Prop50
 90
       50
102
RTVSPost2010PropOp50
 70
     1
102
RTVSPost2010Prop51ColorIndex
 90
      256
102
RTVSPost2010Prop51ColorRGB
 90
-16777216
102
RTVSPost2010PropOp51
 70
     0
102
RTVSPost2010Prop52
140
1.0
102
RTVSPost2010PropOp52
 70
     0
102
RTVSPost2010Prop53
 90
        2
102
RTVSPost2010PropOp53
 70
     1
102
RTVSPost2010Prop54
  1
strokes_ogs.tif
102
RTVSPost2010PropOp54
 70
     1
102
RTVSPost2010Prop55
280
     0
102
RTVSPost2010PropOp55
 70
     1
102
RTVSPost2010Prop56
140
1.0
102
RTVSPost2010PropOp56
 70
     1
102
RTVSPost2010Prop57
140
1.0
102
RTVSPost2010PropOp57
 70
     1
102
RTVSPropertyOp0
 70
     1
102
RTVSPropertyOp1
 70
     1
102
RTVSPropertyOp2
 70
     1
102
RTVSPropertyOp3
 70
     1
102
RTVSPropertyOp4
 70
     1
102
RTVSPropertyOp5
 70
     1
102
RTVSPropertyOp6
 70
     1
102
RTVSPropertyOp7
 70
     1
102
RTVSPropertyOp8
 70
     1
102
RTVSPropertyOp9
 70
     1
102
RTVSPropertyOp10
 70
     1
102
RTVSPropertyOp11
 70
     1
102
RTVSPropertyOp12
 70
     1
102
RTVSPropertyOp13
 70
     1
102
RTVSPropertyOp14
 70
     1
102
RTVSPropertyOp15
 70
     1
102
RTVSPropertyOp16
 70
     1
102
RTVSPropertyOp17
 70
     1
102
RTVSPropertyOp18
 70
     1
102
RTVSPropertyOp19
 70
     1
102
RTVSPropertyOp20
 70
     1
102
RTVSPropertyOp21
 70
     1
102
RTVSPropertyOp22
 70
     1
102
RTVSPropertyOp23
 70
     1
102
RTVSPropertyOp24
 70
     1
102
RTVSPropertyOp25
 70
     1
102
RTVSPropertyOp26
 70
     1
102
RTVSPropertyOp27
 70
     1
102
RTVSPropertyOp28
 70
     1
102
RTVSPropertyOp29
 70
     1
102
RTVSPropertyOp30
 70
     1
102
RTVSPropertyOp31
 70
     1
102
RTVSPropertyOp32
 70
     1
102
RTVSPropertyOp33
 70
     1
102
RTVSPropertyOp34
 70
     1
102
RTVSPropertyOp35
 70
     1
102
RTVSPropertyOp36
 70
     1
102
RTVSPropertyOp37
 70
     1
102
RTVSPropertyOp38
 70
     1
102
RTVSPropertyOp39
 70
     1
102
RTVSPropertyOp40
 70
     1
102
RTVSPropertyOp41
 70
     1
102
RTVSPropertyOp42
 70
     1
102
RTVSPropertyOp43
 70
     1
102
RTVSPropertyOp44
 70
     1
102
RTVSPropertyOp45
 70
     1
102
RTVSPropertyOp46
 70
     1
102
RTVSPropertyOp47
 70
     1
102
RTVSPropertyOp48
 70
     1
102
RTVSPropertyOp49
 70
     1
102
RTVSPropertyOp50
 70
     1
102
RTVSPropertyOp51
 70
     0
102
RTVSPropertyOp52
 70
     0
102
RTVSPropertyOp53
 70
     1
102
RTVSPropertyOp54
 70
     1
102
RTVSPropertyOp55
 70
     1
102
RTVSPropertyOp56
 70
     1
102
RTVSPropertyOp57
 70
     1
102
RTVSPropertyOp58
 70
     1
102
RTVSPropertyOp59
 70
     1
102
RTVSPropertyOp60
 70
     1
102
RTVSPropertyOp61
 70
     1
102
RTVSPropertyOp62
 70
     1
  0
XRECORD
  5
C76A
102
{ACAD_REACTORS
330
C769
102
}
330
C769
100
AcDbXrecord
280
     1
102
RTVSPost2010Prop28
280
     0
102
RTVSPost2010PropOp28
 70
     1
102
RTVSPost2010Prop29
280
     1
102
RTVSPost2010PropOp29
 70
     1
102
RTVSPost2010Prop30
280
     1
102
RTVSPost2010PropOp30
 70
     1
102
RTVSPost2010Prop31
280
     0
102
RTVSPost2010PropOp31
 70
     1
102
RTVSPost2010Prop32
280
     0
102
RTVSPost2010PropOp32
 70
     1
102
RTVSPost2010Prop33
280
     0
102
RTVSPost2010PropOp33
 70
     1
102
RTVSPost2010Prop34
280
     0
102
RTVSPost2010PropOp34
 70
     1
102
RTVSPost2010Prop35
280
     0
102
RTVSPost2010PropOp35
 70
     1
102
RTVSPost2010Prop36
280
     0
102
RTVSPost2010PropOp36
 70
     1
102
RTVSPost2010Prop37
 90
       50
102
RTVSPost2010PropOp37
 70
     1
102
RTVSPost2010Prop38
140
0.0
102
RTVSPost2010PropOp38
 70
     1
102
RTVSPost2010Prop39
140
1.0
102
RTVSPost2010PropOp39
 70
     1
102
RTVSPost2010Prop40
 90
        0
102
RTVSPost2010PropOp40
 70
     1
102
RTVSPost2010Prop41ColorIndex
 90
       18
102
RTVSPost2010Prop41ColorRGB
 90
        0
102
RTVSPost2010PropOp41
 70
     1
102
RTVSPost2010Prop42
 90
       50
102
RTVSPost2010PropOp42
 70
     1
102
RTVSPost2010Prop43
 90
        3
102
RTVSPost2010PropOp43
 70
     1
102
RTVSPost2010Prop44ColorIndex
 90
        5
102
RTVSPost2010Prop44ColorRGB
 90
      255
102
RTVSPost2010PropOp44
 70
     1
102
RTVSPost2010Prop45
280
     0
102
RTVSPost2010PropOp45
 70
     1
102
RTVSPost2010Prop46
 90
       50
102
RTVSPost2010PropOp46
 70
     1
102
RTVSPost2010Prop47
 90
       50
102
RTVSPost2010PropOp47
 70
     1
102
RTVSPost2010Prop48
 90
       50
102
RTVSPost2010PropOp48
 70
     1
102
RTVSPost2010Prop49
280
     0
102
RTVSPost2010PropOp49
 70
     1
102
RTVSPost2010Prop50
 90
       50
102
RTVSPost2010PropOp50
 70
     1
102
RTVSPost2010Prop51ColorIndex
 90
      256
102
RTVSPost2010Prop51ColorRGB
 90
-16777216
102
RTVSPost2010PropOp51
 70
     0
102
RTVSPost2010Prop52
140
1.0
102
RTVSPost2010PropOp52
 70
     0
102
RTVSPost2010Prop53
 90
        2
102
RTVSPost2010PropOp53
 70
     1
102
RTVSPost2010Prop54
  1
strokes_ogs.tif
102
RTVSPost2010PropOp54
 70
     1
102
RTVSPost2010Prop55
280
     0
102
RTVSPost2010PropOp55
 70
     1
102
RTVSPost2010Prop56
140
1.0
102
RTVSPost2010PropOp56
 70
     1
102
RTVSPost2010Prop57
140
1.0
102
RTVSPost2010PropOp57
 70
     1
102
RTVSPropertyOp0
 70
     1
102
RTVSPropertyOp1
 70
     1
102
RTVSPropertyOp2
 70
     1
102
RTVSPropertyOp3
 70
     1
102
RTVSPropertyOp4
 70
     1
102
RTVSPropertyOp5
 70
     1
102
RTVSPropertyOp6
 70
     1
102
RTVSPropertyOp7
 70
     1
102
RTVSPropertyOp8
 70
     1
102
RTVSPropertyOp9
 70
     1
102
RTVSPropertyOp10
 70
     1
102
RTVSPropertyOp11
 70
     1
102
RTVSPropertyOp12
 70
     1
102
RTVSPropertyOp13
 70
     1
102
RTVSPropertyOp14
 70
     1
102
RTVSPropertyOp15
 70
     1
102
RTVSPropertyOp16
 70
     1
102
RTVSPropertyOp17
 70
     1
102
RTVSPropertyOp18
 70
     1
102
RTVSPropertyOp19
 70
     1
102
RTVSPropertyOp20
 70
     1
102
RTVSPropertyOp21
 70
     1
102
RTVSPropertyOp22
 70
     1
102
RTVSPropertyOp23
 70
     1
102
RTVSPropertyOp24
 70
     1
102
RTVSPropertyOp25
 70
     1
102
RTVSPropertyOp26
 70
     1
102
RTVSPropertyOp27
 70
     1
102
RTVSPropertyOp28
 70
     1
102
RTVSPropertyOp29
 70
     1
102
RTVSPropertyOp30
 70
     1
102
RTVSPropertyOp31
 70
     1
102
RTVSPropertyOp32
 70
     1
102
RTVSPropertyOp33
 70
     1
102
RTVSPropertyOp34
 70
     1
102
RTVSPropertyOp35
 70
     1
102
RTVSPropertyOp36
 70
     1
102
RTVSPropertyOp37
 70
     1
102
RTVSPropertyOp38
 70
     1
102
RTVSPropertyOp39
 70
     1
102
RTVSPropertyOp40
 70
     1
102
RTVSPropertyOp41
 70
     1
102
RTVSPropertyOp42
 70
     1
102
RTVSPropertyOp43
 70
     1
102
RTVSPropertyOp44
 70
     1
102
RTVSPropertyOp45
 70
     1
102
RTVSPropertyOp46
 70
     1
102
RTVSPropertyOp47
 70
     1
102
RTVSPropertyOp48
 70
     1
102
RTVSPropertyOp49
 70
     1
102
RTVSPropertyOp50
 70
     1
102
RTVSPropertyOp51
 70
     0
102
RTVSPropertyOp52
 70
     0
102
RTVSPropertyOp53
 70
     1
102
RTVSPropertyOp54
 70
     1
102
RTVSPropertyOp55
 70
     1
102
RTVSPropertyOp56
 70
     1
102
RTVSPropertyOp57
 70
     1
102
RTVSPropertyOp58
 70
     1
102
RTVSPropertyOp59
 70
     1
102
RTVSPropertyOp60
 70
     1
102
RTVSPropertyOp61
 70
     1
102
RTVSPropertyOp62
 70
     1
  0
XRECORD
  5
C76C
102
{ACAD_REACTORS
330
C76B
102
}
330
C76B
100
AcDbXrecord
280
     1
102
RTVSPost2010Prop28
280
     0
102
RTVSPost2010PropOp28
 70
     1
102
RTVSPost2010Prop29
280
     1
102
RTVSPost2010PropOp29
 70
     1
102
RTVSPost2010Prop30
280
     1
102
RTVSPost2010PropOp30
 70
     1
102
RTVSPost2010Prop31
280
     0
102
RTVSPost2010PropOp31
 70
     1
102
RTVSPost2010Prop32
280
     0
102
RTVSPost2010PropOp32
 70
     1
102
RTVSPost2010Prop33
280
     0
102
RTVSPost2010PropOp33
 70
     1
102
RTVSPost2010Prop34
280
     0
102
RTVSPost2010PropOp34
 70
     1
102
RTVSPost2010Prop35
280
     0
102
RTVSPost2010PropOp35
 70
     1
102
RTVSPost2010Prop36
280
     0
102
RTVSPost2010PropOp36
 70
     1
102
RTVSPost2010Prop37
 90
       50
102
RTVSPost2010PropOp37
 70
     1
102
RTVSPost2010Prop38
140
0.0
102
RTVSPost2010PropOp38
 70
     1
102
RTVSPost2010Prop39
140
1.0
102
RTVSPost2010PropOp39
 70
     1
102
RTVSPost2010Prop40
 90
        0
102
RTVSPost2010PropOp40
 70
     1
102
RTVSPost2010Prop41ColorIndex
 90
       18
102
RTVSPost2010Prop41ColorRGB
 90
        0
102
RTVSPost2010PropOp41
 70
     1
102
RTVSPost2010Prop42
 90
       50
102
RTVSPost2010PropOp42
 70
     1
102
RTVSPost2010Prop43
 90
        3
102
RTVSPost2010PropOp43
 70
     1
102
RTVSPost2010Prop44ColorIndex
 90
        5
102
RTVSPost2010Prop44ColorRGB
 90
      255
102
RTVSPost2010PropOp44
 70
     1
102
RTVSPost2010Prop45
280
     0
102
RTVSPost2010PropOp45
 70
     1
102
RTVSPost2010Prop46
 90
       50
102
RTVSPost2010PropOp46
 70
     1
102
RTVSPost2010Prop47
 90
       50
102
RTVSPost2010PropOp47
 70
     1
102
RTVSPost2010Prop48
 90
       50
102
RTVSPost2010PropOp48
 70
     1
102
RTVSPost2010Prop49
280
     0
102
RTVSPost2010PropOp49
 70
     1
102
RTVSPost2010Prop50
 90
       50
102
RTVSPost2010PropOp50
 70
     1
102
RTVSPost2010Prop51ColorIndex
 90
      256
102
RTVSPost2010Prop51ColorRGB
 90
-16777216
102
RTVSPost2010PropOp51
 70
     0
102
RTVSPost2010Prop52
140
1.0
102
RTVSPost2010PropOp52
 70
     0
102
RTVSPost2010Prop53
 90
        2
102
RTVSPost2010PropOp53
 70
     1
102
RTVSPost2010Prop54
  1
strokes_ogs.tif
102
RTVSPost2010PropOp54
 70
     1
102
RTVSPost2010Prop55
280
     0
102
RTVSPost2010PropOp55
 70
     1
102
RTVSPost2010Prop56
140
1.0
102
RTVSPost2010PropOp56
 70
     1
102
RTVSPost2010Prop57
140
1.0
102
RTVSPost2010PropOp57
 70
     1
102
RTVSPropertyOp0
 70
     1
102
RTVSPropertyOp1
 70
     1
102
RTVSPropertyOp2
 70
     1
102
RTVSPropertyOp3
 70
     1
102
RTVSPropertyOp4
 70
     1
102
RTVSPropertyOp5
 70
     1
102
RTVSPropertyOp6
 70
     1
102
RTVSPropertyOp7
 70
     1
102
RTVSPropertyOp8
 70
     1
102
RTVSPropertyOp9
 70
     1
102
RTVSPropertyOp10
 70
     1
102
RTVSPropertyOp11
 70
     1
102
RTVSPropertyOp12
 70
     1
102
RTVSPropertyOp13
 70
     1
102
RTVSPropertyOp14
 70
     1
102
RTVSPropertyOp15
 70
     1
102
RTVSPropertyOp16
 70
     1
102
RTVSPropertyOp17
 70
     1
102
RTVSPropertyOp18
 70
     1
102
RTVSPropertyOp19
 70
     1
102
RTVSPropertyOp20
 70
     1
102
RTVSPropertyOp21
 70
     1
102
RTVSPropertyOp22
 70
     1
102
RTVSPropertyOp23
 70
     1
102
RTVSPropertyOp24
 70
     1
102
RTVSPropertyOp25
 70
     1
102
RTVSPropertyOp26
 70
     1
102
RTVSPropertyOp27
 70
     1
102
RTVSPropertyOp28
 70
     1
102
RTVSPropertyOp29
 70
     1
102
RTVSPropertyOp30
 70
     1
102
RTVSPropertyOp31
 70
     1
102
RTVSPropertyOp32
 70
     1
102
RTVSPropertyOp33
 70
     1
102
RTVSPropertyOp34
 70
     1
102
RTVSPropertyOp35
 70
     1
102
RTVSPropertyOp36
 70
     1
102
RTVSPropertyOp37
 70
     1
102
RTVSPropertyOp38
 70
     1
102
RTVSPropertyOp39
 70
     1
102
RTVSPropertyOp40
 70
     1
102
RTVSPropertyOp41
 70
     1
102
RTVSPropertyOp42
 70
     1
102
RTVSPropertyOp43
 70
     1
102
RTVSPropertyOp44
 70
     1
102
RTVSPropertyOp45
 70
     1
102
RTVSPropertyOp46
 70
     1
102
RTVSPropertyOp47
 70
     1
102
RTVSPropertyOp48
 70
     1
102
RTVSPropertyOp49
 70
     1
102
RTVSPropertyOp50
 70
     1
102
RTVSPropertyOp51
 70
     0
102
RTVSPropertyOp52
 70
     0
102
RTVSPropertyOp53
 70
     1
102
RTVSPropertyOp54
 70
     1
102
RTVSPropertyOp55
 70
     1
102
RTVSPropertyOp56
 70
     1
102
RTVSPropertyOp57
 70
     1
102
RTVSPropertyOp58
 70
     1
102
RTVSPropertyOp59
 70
     1
102
RTVSPropertyOp60
 70
     1
102
RTVSPropertyOp61
 70
     1
102
RTVSPropertyOp62
 70
     1
  0
XRECORD
  5
C76E
102
{ACAD_REACTORS
330
C76D
102
}
330
C76D
100
AcDbXrecord
280
     1
102
RTVSPost2010Prop28
280
     0
102
RTVSPost2010PropOp28
 70
     1
102
RTVSPost2010Prop29
280
     1
102
RTVSPost2010PropOp29
 70
     1
102
RTVSPost2010Prop30
280
     1
102
RTVSPost2010PropOp30
 70
     1
102
RTVSPost2010Prop31
280
     0
102
RTVSPost2010PropOp31
 70
     1
102
RTVSPost2010Prop32
280
     0
102
RTVSPost2010PropOp32
 70
     1
102
RTVSPost2010Prop33
280
     0
102
RTVSPost2010PropOp33
 70
     1
102
RTVSPost2010Prop34
280
     0
102
RTVSPost2010PropOp34
 70
     1
102
RTVSPost2010Prop35
280
     0
102
RTVSPost2010PropOp35
 70
     1
102
RTVSPost2010Prop36
280
     0
102
RTVSPost2010PropOp36
 70
     1
102
RTVSPost2010Prop37
 90
       50
102
RTVSPost2010PropOp37
 70
     1
102
RTVSPost2010Prop38
140
0.0
102
RTVSPost2010PropOp38
 70
     1
102
RTVSPost2010Prop39
140
1.0
102
RTVSPost2010PropOp39
 70
     1
102
RTVSPost2010Prop40
 90
        0
102
RTVSPost2010PropOp40
 70
     1
102
RTVSPost2010Prop41ColorIndex
 90
       18
102
RTVSPost2010Prop41ColorRGB
 90
        0
102
RTVSPost2010PropOp41
 70
     1
102
RTVSPost2010Prop42
 90
       50
102
RTVSPost2010PropOp42
 70
     1
102
RTVSPost2010Prop43
 90
        3
102
RTVSPost2010PropOp43
 70
     1
102
RTVSPost2010Prop44ColorIndex
 90
        5
102
RTVSPost2010Prop44ColorRGB
 90
      255
102
RTVSPost2010PropOp44
 70
     1
102
RTVSPost2010Prop45
280
     0
102
RTVSPost2010PropOp45
 70
     1
102
RTVSPost2010Prop46
 90
       50
102
RTVSPost2010PropOp46
 70
     1
102
RTVSPost2010Prop47
 90
       50
102
RTVSPost2010PropOp47
 70
     1
102
RTVSPost2010Prop48
 90
       50
102
RTVSPost2010PropOp48
 70
     1
102
RTVSPost2010Prop49
280
     0
102
RTVSPost2010PropOp49
 70
     1
102
RTVSPost2010Prop50
 90
       50
102
RTVSPost2010PropOp50
 70
     1
102
RTVSPost2010Prop51ColorIndex
 90
      256
102
RTVSPost2010Prop51ColorRGB
 90
-16777216
102
RTVSPost2010PropOp51
 70
     0
102
RTVSPost2010Prop52
140
1.0
102
RTVSPost2010PropOp52
 70
     0
102
RTVSPost2010Prop53
 90
        2
102
RTVSPost2010PropOp53
 70
     1
102
RTVSPost2010Prop54
  1
strokes_ogs.tif
102
RTVSPost2010PropOp54
 70
     1
102
RTVSPost2010Prop55
280
     0
102
RTVSPost2010PropOp55
 70
     1
102
RTVSPost2010Prop56
140
1.0
102
RTVSPost2010PropOp56
 70
     1
102
RTVSPost2010Prop57
140
1.0
102
RTVSPost2010PropOp57
 70
     1
102
RTVSPropertyOp0
 70
     1
102
RTVSPropertyOp1
 70
     1
102
RTVSPropertyOp2
 70
     1
102
RTVSPropertyOp3
 70
     1
102
RTVSPropertyOp4
 70
     1
102
RTVSPropertyOp5
 70
     1
102
RTVSPropertyOp6
 70
     1
102
RTVSPropertyOp7
 70
     1
102
RTVSPropertyOp8
 70
     1
102
RTVSPropertyOp9
 70
     1
102
RTVSPropertyOp10
 70
     1
102
RTVSPropertyOp11
 70
     1
102
RTVSPropertyOp12
 70
     1
102
RTVSPropertyOp13
 70
     1
102
RTVSPropertyOp14
 70
     1
102
RTVSPropertyOp15
 70
     1
102
RTVSPropertyOp16
 70
     1
102
RTVSPropertyOp17
 70
     1
102
RTVSPropertyOp18
 70
     1
102
RTVSPropertyOp19
 70
     1
102
RTVSPropertyOp20
 70
     1
102
RTVSPropertyOp21
 70
     1
102
RTVSPropertyOp22
 70
     1
102
RTVSPropertyOp23
 70
     1
102
RTVSPropertyOp24
 70
     1
102
RTVSPropertyOp25
 70
     1
102
RTVSPropertyOp26
 70
     1
102
RTVSPropertyOp27
 70
     1
102
RTVSPropertyOp28
 70
     1
102
RTVSPropertyOp29
 70
     1
102
RTVSPropertyOp30
 70
     1
102
RTVSPropertyOp31
 70
     1
102
RTVSPropertyOp32
 70
     1
102
RTVSPropertyOp33
 70
     1
102
RTVSPropertyOp34
 70
     1
102
RTVSPropertyOp35
 70
     1
102
RTVSPropertyOp36
 70
     1
102
RTVSPropertyOp37
 70
     1
102
RTVSPropertyOp38
 70
     1
102
RTVSPropertyOp39
 70
     1
102
RTVSPropertyOp40
 70
     1
102
RTVSPropertyOp41
 70
     1
102
RTVSPropertyOp42
 70
     1
102
RTVSPropertyOp43
 70
     1
102
RTVSPropertyOp44
 70
     1
102
RTVSPropertyOp45
 70
     1
102
RTVSPropertyOp46
 70
     1
102
RTVSPropertyOp47
 70
     1
102
RTVSPropertyOp48
 70
     1
102
RTVSPropertyOp49
 70
     1
102
RTVSPropertyOp50
 70
     1
102
RTVSPropertyOp51
 70
     0
102
RTVSPropertyOp52
 70
     0
102
RTVSPropertyOp53
 70
     1
102
RTVSPropertyOp54
 70
     1
102
RTVSPropertyOp55
 70
     1
102
RTVSPropertyOp56
 70
     1
102
RTVSPropertyOp57
 70
     1
102
RTVSPropertyOp58
 70
     1
102
RTVSPropertyOp59
 70
     1
102
RTVSPropertyOp60
 70
     1
102
RTVSPropertyOp61
 70
     1
102
RTVSPropertyOp62
 70
     1
  0
XRECORD
  5
C776
102
{ACAD_REACTORS
330
C775
102
}
330
C775
100
AcDbXrecord
280
     1
102
RTVSPost2010Prop28
280
     0
102
RTVSPost2010PropOp28
 70
     1
102
RTVSPost2010Prop29
280
     1
102
RTVSPost2010PropOp29
 70
     1
102
RTVSPost2010Prop30
280
     1
102
RTVSPost2010PropOp30
 70
     1
102
RTVSPost2010Prop31
280
     0
102
RTVSPost2010PropOp31
 70
     1
102
RTVSPost2010Prop32
280
     0
102
RTVSPost2010PropOp32
 70
     1
102
RTVSPost2010Prop33
280
     0
102
RTVSPost2010PropOp33
 70
     1
102
RTVSPost2010Prop34
280
     0
102
RTVSPost2010PropOp34
 70
     1
102
RTVSPost2010Prop35
280
     0
102
RTVSPost2010PropOp35
 70
     1
102
RTVSPost2010Prop36
280
     0
102
RTVSPost2010PropOp36
 70
     1
102
RTVSPost2010Prop37
 90
       50
102
RTVSPost2010PropOp37
 70
     1
102
RTVSPost2010Prop38
140
0.0
102
RTVSPost2010PropOp38
 70
     1
102
RTVSPost2010Prop39
140
1.0
102
RTVSPost2010PropOp39
 70
     1
102
RTVSPost2010Prop40
 90
        0
102
RTVSPost2010PropOp40
 70
     1
102
RTVSPost2010Prop41ColorIndex
 90
       18
102
RTVSPost2010Prop41ColorRGB
 90
        0
102
RTVSPost2010PropOp41
 70
     1
102
RTVSPost2010Prop42
 90
       50
102
RTVSPost2010PropOp42
 70
     1
102
RTVSPost2010Prop43
 90
        3
102
RTVSPost2010PropOp43
 70
     1
102
RTVSPost2010Prop44ColorIndex
 90
        5
102
RTVSPost2010Prop44ColorRGB
 90
      255
102
RTVSPost2010PropOp44
 70
     1
102
RTVSPost2010Prop45
280
     0
102
RTVSPost2010PropOp45
 70
     1
102
RTVSPost2010Prop46
 90
       50
102
RTVSPost2010PropOp46
 70
     1
102
RTVSPost2010Prop47
 90
       50
102
RTVSPost2010PropOp47
 70
     1
102
RTVSPost2010Prop48
 90
       50
102
RTVSPost2010PropOp48
 70
     1
102
RTVSPost2010Prop49
280
     0
102
RTVSPost2010PropOp49
 70
     1
102
RTVSPost2010Prop50
 90
       50
102
RTVSPost2010PropOp50
 70
     1
102
RTVSPost2010Prop51ColorIndex
 90
      256
102
RTVSPost2010Prop51ColorRGB
 90
-16777216
102
RTVSPost2010PropOp51
 70
     0
102
RTVSPost2010Prop52
140
1.0
102
RTVSPost2010PropOp52
 70
     0
102
RTVSPost2010Prop53
 90
        2
102
RTVSPost2010PropOp53
 70
     1
102
RTVSPost2010Prop54
  1
strokes_ogs.tif
102
RTVSPost2010PropOp54
 70
     1
102
RTVSPost2010Prop55
280
     0
102
RTVSPost2010PropOp55
 70
     1
102
RTVSPost2010Prop56
140
1.0
102
RTVSPost2010PropOp56
 70
     1
102
RTVSPost2010Prop57
140
1.0
102
RTVSPost2010PropOp57
 70
     1
102
RTVSPropertyOp0
 70
     1
102
RTVSPropertyOp1
 70
     1
102
RTVSPropertyOp2
 70
     1
102
RTVSPropertyOp3
 70
     1
102
RTVSPropertyOp4
 70
     1
102
RTVSPropertyOp5
 70
     1
102
RTVSPropertyOp6
 70
     1
102
RTVSPropertyOp7
 70
     1
102
RTVSPropertyOp8
 70
     1
102
RTVSPropertyOp9
 70
     1
102
RTVSPropertyOp10
 70
     1
102
RTVSPropertyOp11
 70
     1
102
RTVSPropertyOp12
 70
     1
102
RTVSPropertyOp13
 70
     1
102
RTVSPropertyOp14
 70
     1
102
RTVSPropertyOp15
 70
     1
102
RTVSPropertyOp16
 70
     1
102
RTVSPropertyOp17
 70
     1
102
RTVSPropertyOp18
 70
     1
102
RTVSPropertyOp19
 70
     1
102
RTVSPropertyOp20
 70
     1
102
RTVSPropertyOp21
 70
     1
102
RTVSPropertyOp22
 70
     1
102
RTVSPropertyOp23
 70
     1
102
RTVSPropertyOp24
 70
     1
102
RTVSPropertyOp25
 70
     1
102
RTVSPropertyOp26
 70
     1
102
RTVSPropertyOp27
 70
     1
102
RTVSPropertyOp28
 70
     1
102
RTVSPropertyOp29
 70
     1
102
RTVSPropertyOp30
 70
     1
102
RTVSPropertyOp31
 70
     1
102
RTVSPropertyOp32
 70
     1
102
RTVSPropertyOp33
 70
     1
102
RTVSPropertyOp34
 70
     1
102
RTVSPropertyOp35
 70
     1
102
RTVSPropertyOp36
 70
     1
102
RTVSPropertyOp37
 70
     1
102
RTVSPropertyOp38
 70
     1
102
RTVSPropertyOp39
 70
     1
102
RTVSPropertyOp40
 70
     1
102
RTVSPropertyOp41
 70
     1
102
RTVSPropertyOp42
 70
     1
102
RTVSPropertyOp43
 70
     1
102
RTVSPropertyOp44
 70
     1
102
RTVSPropertyOp45
 70
     1
102
RTVSPropertyOp46
 70
     1
102
RTVSPropertyOp47
 70
     1
102
RTVSPropertyOp48
 70
     1
102
RTVSPropertyOp49
 70
     1
102
RTVSPropertyOp50
 70
     1
102
RTVSPropertyOp51
 70
     0
102
RTVSPropertyOp52
 70
     0
102
RTVSPropertyOp53
 70
     1
102
RTVSPropertyOp54
 70
     1
102
RTVSPropertyOp55
 70
     1
102
RTVSPropertyOp56
 70
     1
102
RTVSPropertyOp57
 70
     1
102
RTVSPropertyOp58
 70
     1
102
RTVSPropertyOp59
 70
     1
102
RTVSPropertyOp60
 70
     1
102
RTVSPropertyOp61
 70
     1
102
RTVSPropertyOp62
 70
     1
  0
XRECORD
  5
C792
102
{ACAD_REACTORS
330
C791
102
}
330
C791
100
AcDbXrecord
280
     1
102
RTVSPost2010Prop28
280
     0
102
RTVSPost2010PropOp28
 70
     1
102
RTVSPost2010Prop29
280
     1
102
RTVSPost2010PropOp29
 70
     1
102
RTVSPost2010Prop30
280
     1
102
RTVSPost2010PropOp30
 70
     1
102
RTVSPost2010Prop31
280
     0
102
RTVSPost2010PropOp31
 70
     1
102
RTVSPost2010Prop32
280
     0
102
RTVSPost2010PropOp32
 70
     1
102
RTVSPost2010Prop33
280
     0
102
RTVSPost2010PropOp33
 70
     1
102
RTVSPost2010Prop34
280
     0
102
RTVSPost2010PropOp34
 70
     1
102
RTVSPost2010Prop35
280
     0
102
RTVSPost2010PropOp35
 70
     1
102
RTVSPost2010Prop36
280
     0
102
RTVSPost2010PropOp36
 70
     1
102
RTVSPost2010Prop37
 90
       50
102
RTVSPost2010PropOp37
 70
     0
102
RTVSPost2010Prop38
140
0.0
102
RTVSPost2010PropOp38
 70
     0
102
RTVSPost2010Prop39
140
1.0
102
RTVSPost2010PropOp39
 70
     0
102
RTVSPost2010Prop40
 90
        0
102
RTVSPost2010PropOp40
 70
     0
102
RTVSPost2010Prop41ColorIndex
 90
       18
102
RTVSPost2010Prop41ColorRGB
 90
        0
102
RTVSPost2010PropOp41
 70
     0
102
RTVSPost2010Prop42
 90
       50
102
RTVSPost2010PropOp42
 70
     0
102
RTVSPost2010Prop43
 90
        3
102
RTVSPost2010PropOp43
 70
     0
102
RTVSPost2010Prop44ColorIndex
 90
        5
102
RTVSPost2010Prop44ColorRGB
 90
      255
102
RTVSPost2010PropOp44
 70
     0
102
RTVSPost2010Prop45
280
     0
102
RTVSPost2010PropOp45
 70
     1
102
RTVSPost2010Prop46
 90
       50
102
RTVSPost2010PropOp46
 70
     0
102
RTVSPost2010Prop47
 90
       50
102
RTVSPost2010PropOp47
 70
     0
102
RTVSPost2010Prop48
 90
       50
102
RTVSPost2010PropOp48
 70
     0
102
RTVSPost2010Prop49
280
     0
102
RTVSPost2010PropOp49
 70
     1
102
RTVSPost2010Prop50
 90
       50
102
RTVSPost2010PropOp50
 70
     0
102
RTVSPost2010Prop51ColorIndex
 90
      256
102
RTVSPost2010Prop51ColorRGB
 90
-16777216
102
RTVSPost2010PropOp51
 70
     0
102
RTVSPost2010Prop52
140
1.0
102
RTVSPost2010PropOp52
 70
     0
102
RTVSPost2010Prop53
 90
        2
102
RTVSPost2010PropOp53
 70
     0
102
RTVSPost2010Prop54
  1
strokes_ogs.tif
102
RTVSPost2010PropOp54
 70
     0
102
RTVSPost2010Prop55
280
     0
102
RTVSPost2010PropOp55
 70
     1
102
RTVSPost2010Prop56
140
1.0
102
RTVSPost2010PropOp56
 70
     0
102
RTVSPost2010Prop57
140
1.0
102
RTVSPost2010PropOp57
 70
     0
102
RTVSPropertyOp0
 70
     0
102
RTVSPropertyOp1
 70
     0
102
RTVSPropertyOp2
 70
     0
102
RTVSPropertyOp3
 70
     0
102
RTVSPropertyOp4
 70
     0
102
RTVSPropertyOp5
 70
     0
102
RTVSPropertyOp6
 70
     0
102
RTVSPropertyOp7
 70
     0
102
RTVSPropertyOp8
 70
     0
102
RTVSPropertyOp9
 70
     0
102
RTVSPropertyOp10
 70
     0
102
RTVSPropertyOp11
 70
     0
102
RTVSPropertyOp12
 70
     0
102
RTVSPropertyOp13
 70
     0
102
RTVSPropertyOp14
 70
     2
102
RTVSPropertyOp15
 70
     0
102
RTVSPropertyOp16
 70
     0
102
RTVSPropertyOp17
 70
     0
102
RTVSPropertyOp18
 70
     0
102
RTVSPropertyOp19
 70
     0
102
RTVSPropertyOp20
 70
     0
102
RTVSPropertyOp21
 70
     0
102
RTVSPropertyOp22
 70
     0
102
RTVSPropertyOp23
 70
     0
102
RTVSPropertyOp24
 70
     0
102
RTVSPropertyOp25
 70
     0
102
RTVSPropertyOp26
 70
     0
102
RTVSPropertyOp27
 70
     0
102
RTVSPropertyOp28
 70
     1
102
RTVSPropertyOp29
 70
     1
102
RTVSPropertyOp30
 70
     1
102
RTVSPropertyOp31
 70
     1
102
RTVSPropertyOp32
 70
     1
102
RTVSPropertyOp33
 70
     1
102
RTVSPropertyOp34
 70
     1
102
RTVSPropertyOp35
 70
     1
102
RTVSPropertyOp36
 70
     1
102
RTVSPropertyOp37
 70
     0
102
RTVSPropertyOp38
 70
     0
102
RTVSPropertyOp39
 70
     0
102
RTVSPropertyOp40
 70
     0
102
RTVSPropertyOp41
 70
     0
102
RTVSPropertyOp42
 70
     0
102
RTVSPropertyOp43
 70
     0
102
RTVSPropertyOp44
 70
     0
102
RTVSPropertyOp45
 70
     1
102
RTVSPropertyOp46
 70
     0
102
RTVSPropertyOp47
 70
     0
102
RTVSPropertyOp48
 70
     0
102
RTVSPropertyOp49
 70
     1
102
RTVSPropertyOp50
 70
     0
102
RTVSPropertyOp51
 70
     0
102
RTVSPropertyOp52
 70
     0
102
RTVSPropertyOp53
 70
     0
102
RTVSPropertyOp54
 70
     0
102
RTVSPropertyOp55
 70
     1
102
RTVSPropertyOp56
 70
     0
102
RTVSPropertyOp57
 70
     0
102
RTVSPropertyOp58
 70
     0
102
RTVSPropertyOp59
 70
     0
102
RTVSPropertyOp60
 70
     0
102
RTVSPropertyOp61
 70
     0
102
RTVSPropertyOp62
 70
     0
  0
XRECORD
  5
C782
102
{ACAD_REACTORS
330
C781
102
}
330
C781
100
AcDbXrecord
280
     1
102
RTVSPost2010Prop28
280
     0
102
RTVSPost2010PropOp28
 70
     1
102
RTVSPost2010Prop29
280
     1
102
RTVSPost2010PropOp29
 70
     1
102
RTVSPost2010Prop30
280
     1
102
RTVSPost2010PropOp30
 70
     1
102
RTVSPost2010Prop31
280
     0
102
RTVSPost2010PropOp31
 70
     1
102
RTVSPost2010Prop32
280
     0
102
RTVSPost2010PropOp32
 70
     1
102
RTVSPost2010Prop33
280
     0
102
RTVSPost2010PropOp33
 70
     1
102
RTVSPost2010Prop34
280
     0
102
RTVSPost2010PropOp34
 70
     1
102
RTVSPost2010Prop35
280
     0
102
RTVSPost2010PropOp35
 70
     1
102
RTVSPost2010Prop36
280
     0
102
RTVSPost2010PropOp36
 70
     1
102
RTVSPost2010Prop37
 90
       50
102
RTVSPost2010PropOp37
 70
     1
102
RTVSPost2010Prop38
140
0.0
102
RTVSPost2010PropOp38
 70
     1
102
RTVSPost2010Prop39
140
1.0
102
RTVSPost2010PropOp39
 70
     1
102
RTVSPost2010Prop40
 90
        0
102
RTVSPost2010PropOp40
 70
     1
102
RTVSPost2010Prop41ColorIndex
 90
       18
102
RTVSPost2010Prop41ColorRGB
 90
        0
102
RTVSPost2010PropOp41
 70
     1
102
RTVSPost2010Prop42
 90
       50
102
RTVSPost2010PropOp42
 70
     1
102
RTVSPost2010Prop43
 90
        3
102
RTVSPost2010PropOp43
 70
     1
102
RTVSPost2010Prop44ColorIndex
 90
        5
102
RTVSPost2010Prop44ColorRGB
 90
      255
102
RTVSPost2010PropOp44
 70
     1
102
RTVSPost2010Prop45
280
     0
102
RTVSPost2010PropOp45
 70
     1
102
RTVSPost2010Prop46
 90
       50
102
RTVSPost2010PropOp46
 70
     1
102
RTVSPost2010Prop47
 90
       50
102
RTVSPost2010PropOp47
 70
     1
102
RTVSPost2010Prop48
 90
       50
102
RTVSPost2010PropOp48
 70
     1
102
RTVSPost2010Prop49
280
     0
102
RTVSPost2010PropOp49
 70
     1
102
RTVSPost2010Prop50
 90
       50
102
RTVSPost2010PropOp50
 70
     1
102
RTVSPost2010Prop51ColorIndex
 90
      256
102
RTVSPost2010Prop51ColorRGB
 90
-16777216
102
RTVSPost2010PropOp51
 70
     0
102
RTVSPost2010Prop52
140
1.0
102
RTVSPost2010PropOp52
 70
     0
102
RTVSPost2010Prop53
 90
        2
102
RTVSPost2010PropOp53
 70
     1
102
RTVSPost2010Prop54
  1
strokes_ogs.tif
102
RTVSPost2010PropOp54
 70
     1
102
RTVSPost2010Prop55
280
     0
102
RTVSPost2010PropOp55
 70
     1
102
RTVSPost2010Prop56
140
1.0
102
RTVSPost2010PropOp56
 70
     1
102
RTVSPost2010Prop57
140
1.0
102
RTVSPost2010PropOp57
 70
     1
102
RTVSPropertyOp0
 70
     1
102
RTVSPropertyOp1
 70
     1
102
RTVSPropertyOp2
 70
     1
102
RTVSPropertyOp3
 70
     1
102
RTVSPropertyOp4
 70
     1
102
RTVSPropertyOp5
 70
     1
102
RTVSPropertyOp6
 70
     1
102
RTVSPropertyOp7
 70
     1
102
RTVSPropertyOp8
 70
     1
102
RTVSPropertyOp9
 70
     1
102
RTVSPropertyOp10
 70
     1
102
RTVSPropertyOp11
 70
     1
102
RTVSPropertyOp12
 70
     1
102
RTVSPropertyOp13
 70
     1
102
RTVSPropertyOp14
 70
     1
102
RTVSPropertyOp15
 70
     1
102
RTVSPropertyOp16
 70
     1
102
RTVSPropertyOp17
 70
     1
102
RTVSPropertyOp18
 70
     1
102
RTVSPropertyOp19
 70
     1
102
RTVSPropertyOp20
 70
     1
102
RTVSPropertyOp21
 70
     1
102
RTVSPropertyOp22
 70
     1
102
RTVSPropertyOp23
 70
     1
102
RTVSPropertyOp24
 70
     1
102
RTVSPropertyOp25
 70
     1
102
RTVSPropertyOp26
 70
     1
102
RTVSPropertyOp27
 70
     1
102
RTVSPropertyOp28
 70
     1
102
RTVSPropertyOp29
 70
     1
102
RTVSPropertyOp30
 70
     1
102
RTVSPropertyOp31
 70
     1
102
RTVSPropertyOp32
 70
     1
102
RTVSPropertyOp33
 70
     1
102
RTVSPropertyOp34
 70
     1
102
RTVSPropertyOp35
 70
     1
102
RTVSPropertyOp36
 70
     1
102
RTVSPropertyOp37
 70
     1
102
RTVSPropertyOp38
 70
     1
102
RTVSPropertyOp39
 70
     1
102
RTVSPropertyOp40
 70
     1
102
RTVSPropertyOp41
 70
     1
102
RTVSPropertyOp42
 70
     1
102
RTVSPropertyOp43
 70
     1
102
RTVSPropertyOp44
 70
     1
102
RTVSPropertyOp45
 70
     1
102
RTVSPropertyOp46
 70
     1
102
RTVSPropertyOp47
 70
     1
102
RTVSPropertyOp48
 70
     1
102
RTVSPropertyOp49
 70
     1
102
RTVSPropertyOp50
 70
     1
102
RTVSPropertyOp51
 70
     0
102
RTVSPropertyOp52
 70
     0
102
RTVSPropertyOp53
 70
     1
102
RTVSPropertyOp54
 70
     1
102
RTVSPropertyOp55
 70
     1
102
RTVSPropertyOp56
 70
     1
102
RTVSPropertyOp57
 70
     1
102
RTVSPropertyOp58
 70
     1
102
RTVSPropertyOp59
 70
     1
102
RTVSPropertyOp60
 70
     1
102
RTVSPropertyOp61
 70
     1
102
RTVSPropertyOp62
 70
     1
  0
XRECORD
  5
C794
102
{ACAD_REACTORS
330
C793
102
}
330
C793
100
AcDbXrecord
280
     1
102
RTVSPost2010Prop28
280
     0
102
RTVSPost2010PropOp28
 70
     1
102
RTVSPost2010Prop29
280
     1
102
RTVSPost2010PropOp29
 70
     1
102
RTVSPost2010Prop30
280
     1
102
RTVSPost2010PropOp30
 70
     1
102
RTVSPost2010Prop31
280
     0
102
RTVSPost2010PropOp31
 70
     1
102
RTVSPost2010Prop32
280
     0
102
RTVSPost2010PropOp32
 70
     1
102
RTVSPost2010Prop33
280
     0
102
RTVSPost2010PropOp33
 70
     1
102
RTVSPost2010Prop34
280
     0
102
RTVSPost2010PropOp34
 70
     1
102
RTVSPost2010Prop35
280
     0
102
RTVSPost2010PropOp35
 70
     1
102
RTVSPost2010Prop36
280
     0
102
RTVSPost2010PropOp36
 70
     1
102
RTVSPost2010Prop37
 90
       50
102
RTVSPost2010PropOp37
 70
     0
102
RTVSPost2010Prop38
140
0.0
102
RTVSPost2010PropOp38
 70
     0
102
RTVSPost2010Prop39
140
1.0
102
RTVSPost2010PropOp39
 70
     0
102
RTVSPost2010Prop40
 90
        0
102
RTVSPost2010PropOp40
 70
     0
102
RTVSPost2010Prop41ColorIndex
 90
       18
102
RTVSPost2010Prop41ColorRGB
 90
        0
102
RTVSPost2010PropOp41
 70
     0
102
RTVSPost2010Prop42
 90
       50
102
RTVSPost2010PropOp42
 70
     0
102
RTVSPost2010Prop43
 90
        3
102
RTVSPost2010PropOp43
 70
     0
102
RTVSPost2010Prop44ColorIndex
 90
        5
102
RTVSPost2010Prop44ColorRGB
 90
      255
102
RTVSPost2010PropOp44
 70
     0
102
RTVSPost2010Prop45
280
     0
102
RTVSPost2010PropOp45
 70
     1
102
RTVSPost2010Prop46
 90
       50
102
RTVSPost2010PropOp46
 70
     0
102
RTVSPost2010Prop47
 90
       50
102
RTVSPost2010PropOp47
 70
     0
102
RTVSPost2010Prop48
 90
       50
102
RTVSPost2010PropOp48
 70
     0
102
RTVSPost2010Prop49
280
     0
102
RTVSPost2010PropOp49
 70
     1
102
RTVSPost2010Prop50
 90
       50
102
RTVSPost2010PropOp50
 70
     0
102
RTVSPost2010Prop51ColorIndex
 90
      256
102
RTVSPost2010Prop51ColorRGB
 90
-16777216
102
RTVSPost2010PropOp51
 70
     0
102
RTVSPost2010Prop52
140
1.0
102
RTVSPost2010PropOp52
 70
     0
102
RTVSPost2010Prop53
 90
        2
102
RTVSPost2010PropOp53
 70
     0
102
RTVSPost2010Prop54
  1
strokes_ogs.tif
102
RTVSPost2010PropOp54
 70
     0
102
RTVSPost2010Prop55
280
     0
102
RTVSPost2010PropOp55
 70
     1
102
RTVSPost2010Prop56
140
1.0
102
RTVSPost2010PropOp56
 70
     0
102
RTVSPost2010Prop57
140
1.0
102
RTVSPost2010PropOp57
 70
     0
102
RTVSPropertyOp0
 70
     0
102
RTVSPropertyOp1
 70
     0
102
RTVSPropertyOp2
 70
     0
102
RTVSPropertyOp3
 70
     0
102
RTVSPropertyOp4
 70
     0
102
RTVSPropertyOp5
 70
     0
102
RTVSPropertyOp6
 70
     0
102
RTVSPropertyOp7
 70
     0
102
RTVSPropertyOp8
 70
     0
102
RTVSPropertyOp9
 70
     0
102
RTVSPropertyOp10
 70
     0
102
RTVSPropertyOp11
 70
     0
102
RTVSPropertyOp12
 70
     0
102
RTVSPropertyOp13
 70
     0
102
RTVSPropertyOp14
 70
     2
102
RTVSPropertyOp15
 70
     0
102
RTVSPropertyOp16
 70
     0
102
RTVSPropertyOp17
 70
     0
102
RTVSPropertyOp18
 70
     0
102
RTVSPropertyOp19
 70
     0
102
RTVSPropertyOp20
 70
     0
102
RTVSPropertyOp21
 70
     0
102
RTVSPropertyOp22
 70
     0
102
RTVSPropertyOp23
 70
     0
102
RTVSPropertyOp24
 70
     0
102
RTVSPropertyOp25
 70
     0
102
RTVSPropertyOp26
 70
     0
102
RTVSPropertyOp27
 70
     0
102
RTVSPropertyOp28
 70
     1
102
RTVSPropertyOp29
 70
     1
102
RTVSPropertyOp30
 70
     1
102
RTVSPropertyOp31
 70
     1
102
RTVSPropertyOp32
 70
     1
102
RTVSPropertyOp33
 70
     1
102
RTVSPropertyOp34
 70
     1
102
RTVSPropertyOp35
 70
     1
102
RTVSPropertyOp36
 70
     1
102
RTVSPropertyOp37
 70
     0
102
RTVSPropertyOp38
 70
     0
102
RTVSPropertyOp39
 70
     0
102
RTVSPropertyOp40
 70
     0
102
RTVSPropertyOp41
 70
     0
102
RTVSPropertyOp42
 70
     0
102
RTVSPropertyOp43
 70
     0
102
RTVSPropertyOp44
 70
     0
102
RTVSPropertyOp45
 70
     1
102
RTVSPropertyOp46
 70
     0
102
RTVSPropertyOp47
 70
     0
102
RTVSPropertyOp48
 70
     0
102
RTVSPropertyOp49
 70
     1
102
RTVSPropertyOp50
 70
     0
102
RTVSPropertyOp51
 70
     0
102
RTVSPropertyOp52
 70
     0
102
RTVSPropertyOp53
 70
     0
102
RTVSPropertyOp54
 70
     0
102
RTVSPropertyOp55
 70
     1
102
RTVSPropertyOp56
 70
     0
102
RTVSPropertyOp57
 70
     0
102
RTVSPropertyOp58
 70
     0
102
RTVSPropertyOp59
 70
     0
102
RTVSPropertyOp60
 70
     0
102
RTVSPropertyOp61
 70
     0
102
RTVSPropertyOp62
 70
     0
  0
XRECORD
  5
C77A
102
{ACAD_REACTORS
330
C779
102
}
330
C779
100
AcDbXrecord
280
     1
102
RTVSPost2010Prop28
280
     0
102
RTVSPost2010PropOp28
 70
     1
102
RTVSPost2010Prop29
280
     1
102
RTVSPost2010PropOp29
 70
     1
102
RTVSPost2010Prop30
280
     1
102
RTVSPost2010PropOp30
 70
     1
102
RTVSPost2010Prop31
280
     0
102
RTVSPost2010PropOp31
 70
     1
102
RTVSPost2010Prop32
280
     0
102
RTVSPost2010PropOp32
 70
     1
102
RTVSPost2010Prop33
280
     0
102
RTVSPost2010PropOp33
 70
     1
102
RTVSPost2010Prop34
280
     0
102
RTVSPost2010PropOp34
 70
     1
102
RTVSPost2010Prop35
280
     0
102
RTVSPost2010PropOp35
 70
     1
102
RTVSPost2010Prop36
280
     0
102
RTVSPost2010PropOp36
 70
     1
102
RTVSPost2010Prop37
 90
       50
102
RTVSPost2010PropOp37
 70
     1
102
RTVSPost2010Prop38
140
0.0
102
RTVSPost2010PropOp38
 70
     1
102
RTVSPost2010Prop39
140
1.0
102
RTVSPost2010PropOp39
 70
     1
102
RTVSPost2010Prop40
 90
        0
102
RTVSPost2010PropOp40
 70
     1
102
RTVSPost2010Prop41ColorIndex
 90
       18
102
RTVSPost2010Prop41ColorRGB
 90
        0
102
RTVSPost2010PropOp41
 70
     1
102
RTVSPost2010Prop42
 90
       50
102
RTVSPost2010PropOp42
 70
     1
102
RTVSPost2010Prop43
 90
        3
102
RTVSPost2010PropOp43
 70
     1
102
RTVSPost2010Prop44ColorIndex
 90
        5
102
RTVSPost2010Prop44ColorRGB
 90
      255
102
RTVSPost2010PropOp44
 70
     1
102
RTVSPost2010Prop45
280
     0
102
RTVSPost2010PropOp45
 70
     1
102
RTVSPost2010Prop46
 90
       50
102
RTVSPost2010PropOp46
 70
     1
102
RTVSPost2010Prop47
 90
       50
102
RTVSPost2010PropOp47
 70
     1
102
RTVSPost2010Prop48
 90
       50
102
RTVSPost2010PropOp48
 70
     1
102
RTVSPost2010Prop49
280
     0
102
RTVSPost2010PropOp49
 70
     1
102
RTVSPost2010Prop50
 90
       50
102
RTVSPost2010PropOp50
 70
     1
102
RTVSPost2010Prop51ColorIndex
 90
      256
102
RTVSPost2010Prop51ColorRGB
 90
-16777216
102
RTVSPost2010PropOp51
 70
     0
102
RTVSPost2010Prop52
140
1.0
102
RTVSPost2010PropOp52
 70
     0
102
RTVSPost2010Prop53
 90
        2
102
RTVSPost2010PropOp53
 70
     1
102
RTVSPost2010Prop54
  1
strokes_ogs.tif
102
RTVSPost2010PropOp54
 70
     1
102
RTVSPost2010Prop55
280
     0
102
RTVSPost2010PropOp55
 70
     1
102
RTVSPost2010Prop56
140
1.0
102
RTVSPost2010PropOp56
 70
     1
102
RTVSPost2010Prop57
140
1.0
102
RTVSPost2010PropOp57
 70
     1
102
RTVSPropertyOp0
 70
     1
102
RTVSPropertyOp1
 70
     1
102
RTVSPropertyOp2
 70
     1
102
RTVSPropertyOp3
 70
     1
102
RTVSPropertyOp4
 70
     1
102
RTVSPropertyOp5
 70
     1
102
RTVSPropertyOp6
 70
     1
102
RTVSPropertyOp7
 70
     1
102
RTVSPropertyOp8
 70
     1
102
RTVSPropertyOp9
 70
     1
102
RTVSPropertyOp10
 70
     1
102
RTVSPropertyOp11
 70
     1
102
RTVSPropertyOp12
 70
     1
102
RTVSPropertyOp13
 70
     1
102
RTVSPropertyOp14
 70
     1
102
RTVSPropertyOp15
 70
     1
102
RTVSPropertyOp16
 70
     1
102
RTVSPropertyOp17
 70
     1
102
RTVSPropertyOp18
 70
     1
102
RTVSPropertyOp19
 70
     1
102
RTVSPropertyOp20
 70
     1
102
RTVSPropertyOp21
 70
     1
102
RTVSPropertyOp22
 70
     1
102
RTVSPropertyOp23
 70
     1
102
RTVSPropertyOp24
 70
     1
102
RTVSPropertyOp25
 70
     1
102
RTVSPropertyOp26
 70
     1
102
RTVSPropertyOp27
 70
     1
102
RTVSPropertyOp28
 70
     1
102
RTVSPropertyOp29
 70
     1
102
RTVSPropertyOp30
 70
     1
102
RTVSPropertyOp31
 70
     1
102
RTVSPropertyOp32
 70
     1
102
RTVSPropertyOp33
 70
     1
102
RTVSPropertyOp34
 70
     1
102
RTVSPropertyOp35
 70
     1
102
RTVSPropertyOp36
 70
     1
102
RTVSPropertyOp37
 70
     1
102
RTVSPropertyOp38
 70
     1
102
RTVSPropertyOp39
 70
     1
102
RTVSPropertyOp40
 70
     1
102
RTVSPropertyOp41
 70
     1
102
RTVSPropertyOp42
 70
     1
102
RTVSPropertyOp43
 70
     1
102
RTVSPropertyOp44
 70
     1
102
RTVSPropertyOp45
 70
     1
102
RTVSPropertyOp46
 70
     1
102
RTVSPropertyOp47
 70
     1
102
RTVSPropertyOp48
 70
     1
102
RTVSPropertyOp49
 70
     1
102
RTVSPropertyOp50
 70
     1
102
RTVSPropertyOp51
 70
     0
102
RTVSPropertyOp52
 70
     0
102
RTVSPropertyOp53
 70
     1
102
RTVSPropertyOp54
 70
     1
102
RTVSPropertyOp55
 70
     1
102
RTVSPropertyOp56
 70
     1
102
RTVSPropertyOp57
 70
     1
102
RTVSPropertyOp58
 70
     1
102
RTVSPropertyOp59
 70
     1
102
RTVSPropertyOp60
 70
     1
102
RTVSPropertyOp61
 70
     1
102
RTVSPropertyOp62
 70
     1
  0
XRECORD
  5
C790
102
{ACAD_REACTORS
330
C78F
102
}
330
C78F
100
AcDbXrecord
280
     1
102
RTVSPost2010Prop28
280
     0
102
RTVSPost2010PropOp28
 70
     1
102
RTVSPost2010Prop29
280
     1
102
RTVSPost2010PropOp29
 70
     1
102
RTVSPost2010Prop30
280
     1
102
RTVSPost2010PropOp30
 70
     1
102
RTVSPost2010Prop31
280
     0
102
RTVSPost2010PropOp31
 70
     1
102
RTVSPost2010Prop32
280
     0
102
RTVSPost2010PropOp32
 70
     1
102
RTVSPost2010Prop33
280
     0
102
RTVSPost2010PropOp33
 70
     1
102
RTVSPost2010Prop34
280
     0
102
RTVSPost2010PropOp34
 70
     1
102
RTVSPost2010Prop35
280
     0
102
RTVSPost2010PropOp35
 70
     1
102
RTVSPost2010Prop36
280
     0
102
RTVSPost2010PropOp36
 70
     1
102
RTVSPost2010Prop37
 90
       50
102
RTVSPost2010PropOp37
 70
     1
102
RTVSPost2010Prop38
140
0.0
102
RTVSPost2010PropOp38
 70
     1
102
RTVSPost2010Prop39
140
1.0
102
RTVSPost2010PropOp39
 70
     1
102
RTVSPost2010Prop40
 90
        0
102
RTVSPost2010PropOp40
 70
     1
102
RTVSPost2010Prop41ColorIndex
 90
       18
102
RTVSPost2010Prop41ColorRGB
 90
        0
102
RTVSPost2010PropOp41
 70
     1
102
RTVSPost2010Prop42
 90
       50
102
RTVSPost2010PropOp42
 70
     1
102
RTVSPost2010Prop43
 90
        3
102
RTVSPost2010PropOp43
 70
     1
102
RTVSPost2010Prop44ColorIndex
 90
        5
102
RTVSPost2010Prop44ColorRGB
 90
      255
102
RTVSPost2010PropOp44
 70
     1
102
RTVSPost2010Prop45
280
     0
102
RTVSPost2010PropOp45
 70
     1
102
RTVSPost2010Prop46
 90
       50
102
RTVSPost2010PropOp46
 70
     1
102
RTVSPost2010Prop47
 90
       50
102
RTVSPost2010PropOp47
 70
     1
102
RTVSPost2010Prop48
 90
       50
102
RTVSPost2010PropOp48
 70
     1
102
RTVSPost2010Prop49
280
     0
102
RTVSPost2010PropOp49
 70
     1
102
RTVSPost2010Prop50
 90
       50
102
RTVSPost2010PropOp50
 70
     1
102
RTVSPost2010Prop51ColorIndex
 90
      256
102
RTVSPost2010Prop51ColorRGB
 90
-16777216
102
RTVSPost2010PropOp51
 70
     0
102
RTVSPost2010Prop52
140
1.0
102
RTVSPost2010PropOp52
 70
     0
102
RTVSPost2010Prop53
 90
        2
102
RTVSPost2010PropOp53
 70
     1
102
RTVSPost2010Prop54
  1
strokes_ogs.tif
102
RTVSPost2010PropOp54
 70
     1
102
RTVSPost2010Prop55
280
     0
102
RTVSPost2010PropOp55
 70
     1
102
RTVSPost2010Prop56
140
1.0
102
RTVSPost2010PropOp56
 70
     1
102
RTVSPost2010Prop57
140
1.0
102
RTVSPost2010PropOp57
 70
     1
102
RTVSPropertyOp0
 70
     1
102
RTVSPropertyOp1
 70
     1
102
RTVSPropertyOp2
 70
     1
102
RTVSPropertyOp3
 70
     1
102
RTVSPropertyOp4
 70
     1
102
RTVSPropertyOp5
 70
     1
102
RTVSPropertyOp6
 70
     1
102
RTVSPropertyOp7
 70
     1
102
RTVSPropertyOp8
 70
     1
102
RTVSPropertyOp9
 70
     1
102
RTVSPropertyOp10
 70
     1
102
RTVSPropertyOp11
 70
     1
102
RTVSPropertyOp12
 70
     1
102
RTVSPropertyOp13
 70
     1
102
RTVSPropertyOp14
 70
     1
102
RTVSPropertyOp15
 70
     1
102
RTVSPropertyOp16
 70
     1
102
RTVSPropertyOp17
 70
     1
102
RTVSPropertyOp18
 70
     1
102
RTVSPropertyOp19
 70
     1
102
RTVSPropertyOp20
 70
     1
102
RTVSPropertyOp21
 70
     1
102
RTVSPropertyOp22
 70
     1
102
RTVSPropertyOp23
 70
     1
102
RTVSPropertyOp24
 70
     1
102
RTVSPropertyOp25
 70
     1
102
RTVSPropertyOp26
 70
     1
102
RTVSPropertyOp27
 70
     1
102
RTVSPropertyOp28
 70
     1
102
RTVSPropertyOp29
 70
     1
102
RTVSPropertyOp30
 70
     1
102
RTVSPropertyOp31
 70
     1
102
RTVSPropertyOp32
 70
     1
102
RTVSPropertyOp33
 70
     1
102
RTVSPropertyOp34
 70
     1
102
RTVSPropertyOp35
 70
     1
102
RTVSPropertyOp36
 70
     1
102
RTVSPropertyOp37
 70
     1
102
RTVSPropertyOp38
 70
     1
102
RTVSPropertyOp39
 70
     1
102
RTVSPropertyOp40
 70
     1
102
RTVSPropertyOp41
 70
     1
102
RTVSPropertyOp42
 70
     1
102
RTVSPropertyOp43
 70
     1
102
RTVSPropertyOp44
 70
     1
102
RTVSPropertyOp45
 70
     1
102
RTVSPropertyOp46
 70
     1
102
RTVSPropertyOp47
 70
     1
102
RTVSPropertyOp48
 70
     1
102
RTVSPropertyOp49
 70
     1
102
RTVSPropertyOp50
 70
     1
102
RTVSPropertyOp51
 70
     0
102
RTVSPropertyOp52
 70
     0
102
RTVSPropertyOp53
 70
     1
102
RTVSPropertyOp54
 70
     1
102
RTVSPropertyOp55
 70
     1
102
RTVSPropertyOp56
 70
     1
102
RTVSPropertyOp57
 70
     1
102
RTVSPropertyOp58
 70
     1
102
RTVSPropertyOp59
 70
     1
102
RTVSPropertyOp60
 70
     1
102
RTVSPropertyOp61
 70
     1
102
RTVSPropertyOp62
 70
     1
  0
XRECORD
  5
C78E
102
{ACAD_REACTORS
330
C78D
102
}
330
C78D
100
AcDbXrecord
280
     1
102
RTVSPost2010Prop28
280
     0
102
RTVSPost2010PropOp28
 70
     1
102
RTVSPost2010Prop29
280
     1
102
RTVSPost2010PropOp29
 70
     1
102
RTVSPost2010Prop30
280
     1
102
RTVSPost2010PropOp30
 70
     1
102
RTVSPost2010Prop31
280
     0
102
RTVSPost2010PropOp31
 70
     1
102
RTVSPost2010Prop32
280
     0
102
RTVSPost2010PropOp32
 70
     1
102
RTVSPost2010Prop33
280
     0
102
RTVSPost2010PropOp33
 70
     1
102
RTVSPost2010Prop34
280
     0
102
RTVSPost2010PropOp34
 70
     1
102
RTVSPost2010Prop35
280
     0
102
RTVSPost2010PropOp35
 70
     1
102
RTVSPost2010Prop36
280
     0
102
RTVSPost2010PropOp36
 70
     1
102
RTVSPost2010Prop37
 90
       50
102
RTVSPost2010PropOp37
 70
     1
102
RTVSPost2010Prop38
140
0.0
102
RTVSPost2010PropOp38
 70
     1
102
RTVSPost2010Prop39
140
1.0
102
RTVSPost2010PropOp39
 70
     1
102
RTVSPost2010Prop40
 90
        0
102
RTVSPost2010PropOp40
 70
     1
102
RTVSPost2010Prop41ColorIndex
 90
       18
102
RTVSPost2010Prop41ColorRGB
 90
        0
102
RTVSPost2010PropOp41
 70
     1
102
RTVSPost2010Prop42
 90
       50
102
RTVSPost2010PropOp42
 70
     1
102
RTVSPost2010Prop43
 90
        3
102
RTVSPost2010PropOp43
 70
     1
102
RTVSPost2010Prop44ColorIndex
 90
        5
102
RTVSPost2010Prop44ColorRGB
 90
      255
102
RTVSPost2010PropOp44
 70
     1
102
RTVSPost2010Prop45
280
     0
102
RTVSPost2010PropOp45
 70
     1
102
RTVSPost2010Prop46
 90
       50
102
RTVSPost2010PropOp46
 70
     1
102
RTVSPost2010Prop47
 90
       50
102
RTVSPost2010PropOp47
 70
     1
102
RTVSPost2010Prop48
 90
       50
102
RTVSPost2010PropOp48
 70
     1
102
RTVSPost2010Prop49
280
     0
102
RTVSPost2010PropOp49
 70
     1
102
RTVSPost2010Prop50
 90
       50
102
RTVSPost2010PropOp50
 70
     1
102
RTVSPost2010Prop51ColorIndex
 90
      256
102
RTVSPost2010Prop51ColorRGB
 90
-16777216
102
RTVSPost2010PropOp51
 70
     0
102
RTVSPost2010Prop52
140
1.0
102
RTVSPost2010PropOp52
 70
     0
102
RTVSPost2010Prop53
 90
        2
102
RTVSPost2010PropOp53
 70
     1
102
RTVSPost2010Prop54
  1
strokes_ogs.tif
102
RTVSPost2010PropOp54
 70
     1
102
RTVSPost2010Prop55
280
     0
102
RTVSPost2010PropOp55
 70
     1
102
RTVSPost2010Prop56
140
1.0
102
RTVSPost2010PropOp56
 70
     1
102
RTVSPost2010Prop57
140
1.0
102
RTVSPost2010PropOp57
 70
     1
102
RTVSPropertyOp0
 70
     1
102
RTVSPropertyOp1
 70
     1
102
RTVSPropertyOp2
 70
     1
102
RTVSPropertyOp3
 70
     1
102
RTVSPropertyOp4
 70
     1
102
RTVSPropertyOp5
 70
     1
102
RTVSPropertyOp6
 70
     1
102
RTVSPropertyOp7
 70
     1
102
RTVSPropertyOp8
 70
     1
102
RTVSPropertyOp9
 70
     1
102
RTVSPropertyOp10
 70
     1
102
RTVSPropertyOp11
 70
     1
102
RTVSPropertyOp12
 70
     1
102
RTVSPropertyOp13
 70
     1
102
RTVSPropertyOp14
 70
     1
102
RTVSPropertyOp15
 70
     1
102
RTVSPropertyOp16
 70
     1
102
RTVSPropertyOp17
 70
     1
102
RTVSPropertyOp18
 70
     1
102
RTVSPropertyOp19
 70
     1
102
RTVSPropertyOp20
 70
     1
102
RTVSPropertyOp21
 70
     1
102
RTVSPropertyOp22
 70
     1
102
RTVSPropertyOp23
 70
     1
102
RTVSPropertyOp24
 70
     1
102
RTVSPropertyOp25
 70
     1
102
RTVSPropertyOp26
 70
     1
102
RTVSPropertyOp27
 70
     1
102
RTVSPropertyOp28
 70
     1
102
RTVSPropertyOp29
 70
     1
102
RTVSPropertyOp30
 70
     1
102
RTVSPropertyOp31
 70
     1
102
RTVSPropertyOp32
 70
     1
102
RTVSPropertyOp33
 70
     1
102
RTVSPropertyOp34
 70
     1
102
RTVSPropertyOp35
 70
     1
102
RTVSPropertyOp36
 70
     1
102
RTVSPropertyOp37
 70
     1
102
RTVSPropertyOp38
 70
     1
102
RTVSPropertyOp39
 70
     1
102
RTVSPropertyOp40
 70
     1
102
RTVSPropertyOp41
 70
     1
102
RTVSPropertyOp42
 70
     1
102
RTVSPropertyOp43
 70
     1
102
RTVSPropertyOp44
 70
     1
102
RTVSPropertyOp45
 70
     1
102
RTVSPropertyOp46
 70
     1
102
RTVSPropertyOp47
 70
     1
102
RTVSPropertyOp48
 70
     1
102
RTVSPropertyOp49
 70
     1
102
RTVSPropertyOp50
 70
     1
102
RTVSPropertyOp51
 70
     0
102
RTVSPropertyOp52
 70
     0
102
RTVSPropertyOp53
 70
     1
102
RTVSPropertyOp54
 70
     1
102
RTVSPropertyOp55
 70
     1
102
RTVSPropertyOp56
 70
     1
102
RTVSPropertyOp57
 70
     1
102
RTVSPropertyOp58
 70
     1
102
RTVSPropertyOp59
 70
     1
102
RTVSPropertyOp60
 70
     1
102
RTVSPropertyOp61
 70
     1
102
RTVSPropertyOp62
 70
     1
  0
XRECORD
  5
C788
102
{ACAD_REACTORS
330
C787
102
}
330
C787
100
AcDbXrecord
280
     1
102
RTVSPost2010Prop28
280
     0
102
RTVSPost2010PropOp28
 70
     1
102
RTVSPost2010Prop29
280
     1
102
RTVSPost2010PropOp29
 70
     1
102
RTVSPost2010Prop30
280
     1
102
RTVSPost2010PropOp30
 70
     1
102
RTVSPost2010Prop31
280
     0
102
RTVSPost2010PropOp31
 70
     1
102
RTVSPost2010Prop32
280
     0
102
RTVSPost2010PropOp32
 70
     1
102
RTVSPost2010Prop33
280
     0
102
RTVSPost2010PropOp33
 70
     1
102
RTVSPost2010Prop34
280
     0
102
RTVSPost2010PropOp34
 70
     1
102
RTVSPost2010Prop35
280
     0
102
RTVSPost2010PropOp35
 70
     1
102
RTVSPost2010Prop36
280
     0
102
RTVSPost2010PropOp36
 70
     1
102
RTVSPost2010Prop37
 90
       50
102
RTVSPost2010PropOp37
 70
     1
102
RTVSPost2010Prop38
140
0.0
102
RTVSPost2010PropOp38
 70
     1
102
RTVSPost2010Prop39
140
1.0
102
RTVSPost2010PropOp39
 70
     1
102
RTVSPost2010Prop40
 90
        0
102
RTVSPost2010PropOp40
 70
     1
102
RTVSPost2010Prop41ColorIndex
 90
       18
102
RTVSPost2010Prop41ColorRGB
 90
        0
102
RTVSPost2010PropOp41
 70
     1
102
RTVSPost2010Prop42
 90
       50
102
RTVSPost2010PropOp42
 70
     1
102
RTVSPost2010Prop43
 90
        3
102
RTVSPost2010PropOp43
 70
     1
102
RTVSPost2010Prop44ColorIndex
 90
        5
102
RTVSPost2010Prop44ColorRGB
 90
      255
102
RTVSPost2010PropOp44
 70
     1
102
RTVSPost2010Prop45
280
     0
102
RTVSPost2010PropOp45
 70
     1
102
RTVSPost2010Prop46
 90
       50
102
RTVSPost2010PropOp46
 70
     1
102
RTVSPost2010Prop47
 90
       50
102
RTVSPost2010PropOp47
 70
     1
102
RTVSPost2010Prop48
 90
       50
102
RTVSPost2010PropOp48
 70
     1
102
RTVSPost2010Prop49
280
     0
102
RTVSPost2010PropOp49
 70
     1
102
RTVSPost2010Prop50
 90
       50
102
RTVSPost2010PropOp50
 70
     1
102
RTVSPost2010Prop51ColorIndex
 90
      256
102
RTVSPost2010Prop51ColorRGB
 90
-16777216
102
RTVSPost2010PropOp51
 70
     0
102
RTVSPost2010Prop52
140
1.0
102
RTVSPost2010PropOp52
 70
     0
102
RTVSPost2010Prop53
 90
        2
102
RTVSPost2010PropOp53
 70
     1
102
RTVSPost2010Prop54
  1
strokes_ogs.tif
102
RTVSPost2010PropOp54
 70
     1
102
RTVSPost2010Prop55
280
     0
102
RTVSPost2010PropOp55
 70
     1
102
RTVSPost2010Prop56
140
1.0
102
RTVSPost2010PropOp56
 70
     1
102
RTVSPost2010Prop57
140
1.0
102
RTVSPost2010PropOp57
 70
     1
102
RTVSPropertyOp0
 70
     1
102
RTVSPropertyOp1
 70
     1
102
RTVSPropertyOp2
 70
     1
102
RTVSPropertyOp3
 70
     1
102
RTVSPropertyOp4
 70
     1
102
RTVSPropertyOp5
 70
     1
102
RTVSPropertyOp6
 70
     1
102
RTVSPropertyOp7
 70
     1
102
RTVSPropertyOp8
 70
     1
102
RTVSPropertyOp9
 70
     1
102
RTVSPropertyOp10
 70
     1
102
RTVSPropertyOp11
 70
     1
102
RTVSPropertyOp12
 70
     1
102
RTVSPropertyOp13
 70
     1
102
RTVSPropertyOp14
 70
     1
102
RTVSPropertyOp15
 70
     1
102
RTVSPropertyOp16
 70
     1
102
RTVSPropertyOp17
 70
     1
102
RTVSPropertyOp18
 70
     1
102
RTVSPropertyOp19
 70
     1
102
RTVSPropertyOp20
 70
     1
102
RTVSPropertyOp21
 70
     1
102
RTVSPropertyOp22
 70
     1
102
RTVSPropertyOp23
 70
     1
102
RTVSPropertyOp24
 70
     1
102
RTVSPropertyOp25
 70
     1
102
RTVSPropertyOp26
 70
     1
102
RTVSPropertyOp27
 70
     1
102
RTVSPropertyOp28
 70
     1
102
RTVSPropertyOp29
 70
     1
102
RTVSPropertyOp30
 70
     1
102
RTVSPropertyOp31
 70
     1
102
RTVSPropertyOp32
 70
     1
102
RTVSPropertyOp33
 70
     1
102
RTVSPropertyOp34
 70
     1
102
RTVSPropertyOp35
 70
     1
102
RTVSPropertyOp36
 70
     1
102
RTVSPropertyOp37
 70
     1
102
RTVSPropertyOp38
 70
     1
102
RTVSPropertyOp39
 70
     1
102
RTVSPropertyOp40
 70
     1
102
RTVSPropertyOp41
 70
     1
102
RTVSPropertyOp42
 70
     1
102
RTVSPropertyOp43
 70
     1
102
RTVSPropertyOp44
 70
     1
102
RTVSPropertyOp45
 70
     1
102
RTVSPropertyOp46
 70
     1
102
RTVSPropertyOp47
 70
     1
102
RTVSPropertyOp48
 70
     1
102
RTVSPropertyOp49
 70
     1
102
RTVSPropertyOp50
 70
     1
102
RTVSPropertyOp51
 70
     0
102
RTVSPropertyOp52
 70
     0
102
RTVSPropertyOp53
 70
     1
102
RTVSPropertyOp54
 70
     1
102
RTVSPropertyOp55
 70
     1
102
RTVSPropertyOp56
 70
     1
102
RTVSPropertyOp57
 70
     1
102
RTVSPropertyOp58
 70
     1
102
RTVSPropertyOp59
 70
     1
102
RTVSPropertyOp60
 70
     1
102
RTVSPropertyOp61
 70
     1
102
RTVSPropertyOp62
 70
     1
  0
XRECORD
  5
C78A
102
{ACAD_REACTORS
330
C789
102
}
330
C789
100
AcDbXrecord
280
     1
102
RTVSPost2010Prop28
280
     0
102
RTVSPost2010PropOp28
 70
     1
102
RTVSPost2010Prop29
280
     1
102
RTVSPost2010PropOp29
 70
     1
102
RTVSPost2010Prop30
280
     1
102
RTVSPost2010PropOp30
 70
     1
102
RTVSPost2010Prop31
280
     0
102
RTVSPost2010PropOp31
 70
     1
102
RTVSPost2010Prop32
280
     0
102
RTVSPost2010PropOp32
 70
     1
102
RTVSPost2010Prop33
280
     0
102
RTVSPost2010PropOp33
 70
     1
102
RTVSPost2010Prop34
280
     0
102
RTVSPost2010PropOp34
 70
     1
102
RTVSPost2010Prop35
280
     0
102
RTVSPost2010PropOp35
 70
     1
102
RTVSPost2010Prop36
280
     0
102
RTVSPost2010PropOp36
 70
     1
102
RTVSPost2010Prop37
 90
       50
102
RTVSPost2010PropOp37
 70
     1
102
RTVSPost2010Prop38
140
0.0
102
RTVSPost2010PropOp38
 70
     1
102
RTVSPost2010Prop39
140
1.0
102
RTVSPost2010PropOp39
 70
     1
102
RTVSPost2010Prop40
 90
        0
102
RTVSPost2010PropOp40
 70
     1
102
RTVSPost2010Prop41ColorIndex
 90
       18
102
RTVSPost2010Prop41ColorRGB
 90
        0
102
RTVSPost2010PropOp41
 70
     1
102
RTVSPost2010Prop42
 90
       50
102
RTVSPost2010PropOp42
 70
     1
102
RTVSPost2010Prop43
 90
        3
102
RTVSPost2010PropOp43
 70
     1
102
RTVSPost2010Prop44ColorIndex
 90
        5
102
RTVSPost2010Prop44ColorRGB
 90
      255
102
RTVSPost2010PropOp44
 70
     1
102
RTVSPost2010Prop45
280
     0
102
RTVSPost2010PropOp45
 70
     1
102
RTVSPost2010Prop46
 90
       50
102
RTVSPost2010PropOp46
 70
     1
102
RTVSPost2010Prop47
 90
       50
102
RTVSPost2010PropOp47
 70
     1
102
RTVSPost2010Prop48
 90
       50
102
RTVSPost2010PropOp48
 70
     1
102
RTVSPost2010Prop49
280
     0
102
RTVSPost2010PropOp49
 70
     1
102
RTVSPost2010Prop50
 90
       50
102
RTVSPost2010PropOp50
 70
     1
102
RTVSPost2010Prop51ColorIndex
 90
      256
102
RTVSPost2010Prop51ColorRGB
 90
-16777216
102
RTVSPost2010PropOp51
 70
     0
102
RTVSPost2010Prop52
140
1.0
102
RTVSPost2010PropOp52
 70
     0
102
RTVSPost2010Prop53
 90
        2
102
RTVSPost2010PropOp53
 70
     1
102
RTVSPost2010Prop54
  1
strokes_ogs.tif
102
RTVSPost2010PropOp54
 70
     1
102
RTVSPost2010Prop55
280
     0
102
RTVSPost2010PropOp55
 70
     1
102
RTVSPost2010Prop56
140
1.0
102
RTVSPost2010PropOp56
 70
     1
102
RTVSPost2010Prop57
140
1.0
102
RTVSPost2010PropOp57
 70
     1
102
RTVSPropertyOp0
 70
     1
102
RTVSPropertyOp1
 70
     1
102
RTVSPropertyOp2
 70
     1
102
RTVSPropertyOp3
 70
     1
102
RTVSPropertyOp4
 70
     1
102
RTVSPropertyOp5
 70
     1
102
RTVSPropertyOp6
 70
     1
102
RTVSPropertyOp7
 70
     1
102
RTVSPropertyOp8
 70
     1
102
RTVSPropertyOp9
 70
     1
102
RTVSPropertyOp10
 70
     1
102
RTVSPropertyOp11
 70
     1
102
RTVSPropertyOp12
 70
     1
102
RTVSPropertyOp13
 70
     1
102
RTVSPropertyOp14
 70
     1
102
RTVSPropertyOp15
 70
     1
102
RTVSPropertyOp16
 70
     1
102
RTVSPropertyOp17
 70
     1
102
RTVSPropertyOp18
 70
     1
102
RTVSPropertyOp19
 70
     1
102
RTVSPropertyOp20
 70
     1
102
RTVSPropertyOp21
 70
     1
102
RTVSPropertyOp22
 70
     1
102
RTVSPropertyOp23
 70
     1
102
RTVSPropertyOp24
 70
     1
102
RTVSPropertyOp25
 70
     1
102
RTVSPropertyOp26
 70
     1
102
RTVSPropertyOp27
 70
     1
102
RTVSPropertyOp28
 70
     1
102
RTVSPropertyOp29
 70
     1
102
RTVSPropertyOp30
 70
     1
102
RTVSPropertyOp31
 70
     1
102
RTVSPropertyOp32
 70
     1
102
RTVSPropertyOp33
 70
     1
102
RTVSPropertyOp34
 70
     1
102
RTVSPropertyOp35
 70
     1
102
RTVSPropertyOp36
 70
     1
102
RTVSPropertyOp37
 70
     1
102
RTVSPropertyOp38
 70
     1
102
RTVSPropertyOp39
 70
     1
102
RTVSPropertyOp40
 70
     1
102
RTVSPropertyOp41
 70
     1
102
RTVSPropertyOp42
 70
     1
102
RTVSPropertyOp43
 70
     1
102
RTVSPropertyOp44
 70
     1
102
RTVSPropertyOp45
 70
     1
102
RTVSPropertyOp46
 70
     1
102
RTVSPropertyOp47
 70
     1
102
RTVSPropertyOp48
 70
     1
102
RTVSPropertyOp49
 70
     1
102
RTVSPropertyOp50
 70
     1
102
RTVSPropertyOp51
 70
     0
102
RTVSPropertyOp52
 70
     0
102
RTVSPropertyOp53
 70
     1
102
RTVSPropertyOp54
 70
     1
102
RTVSPropertyOp55
 70
     1
102
RTVSPropertyOp56
 70
     1
102
RTVSPropertyOp57
 70
     1
102
RTVSPropertyOp58
 70
     1
102
RTVSPropertyOp59
 70
     1
102
RTVSPropertyOp60
 70
     1
102
RTVSPropertyOp61
 70
     1
102
RTVSPropertyOp62
 70
     1
  0
XRECORD
  5
C780
102
{ACAD_REACTORS
330
C77F
102
}
330
C77F
100
AcDbXrecord
280
     1
102
RTVSPost2010Prop28
280
     0
102
RTVSPost2010PropOp28
 70
     1
102
RTVSPost2010Prop29
280
     1
102
RTVSPost2010PropOp29
 70
     1
102
RTVSPost2010Prop30
280
     1
102
RTVSPost2010PropOp30
 70
     1
102
RTVSPost2010Prop31
280
     0
102
RTVSPost2010PropOp31
 70
     1
102
RTVSPost2010Prop32
280
     0
102
RTVSPost2010PropOp32
 70
     1
102
RTVSPost2010Prop33
280
     0
102
RTVSPost2010PropOp33
 70
     1
102
RTVSPost2010Prop34
280
     0
102
RTVSPost2010PropOp34
 70
     1
102
RTVSPost2010Prop35
280
     0
102
RTVSPost2010PropOp35
 70
     1
102
RTVSPost2010Prop36
280
     0
102
RTVSPost2010PropOp36
 70
     1
102
RTVSPost2010Prop37
 90
       50
102
RTVSPost2010PropOp37
 70
     1
102
RTVSPost2010Prop38
140
0.0
102
RTVSPost2010PropOp38
 70
     1
102
RTVSPost2010Prop39
140
1.0
102
RTVSPost2010PropOp39
 70
     1
102
RTVSPost2010Prop40
 90
        0
102
RTVSPost2010PropOp40
 70
     1
102
RTVSPost2010Prop41ColorIndex
 90
       18
102
RTVSPost2010Prop41ColorRGB
 90
        0
102
RTVSPost2010PropOp41
 70
     1
102
RTVSPost2010Prop42
 90
       50
102
RTVSPost2010PropOp42
 70
     1
102
RTVSPost2010Prop43
 90
        3
102
RTVSPost2010PropOp43
 70
     1
102
RTVSPost2010Prop44ColorIndex
 90
        5
102
RTVSPost2010Prop44ColorRGB
 90
      255
102
RTVSPost2010PropOp44
 70
     1
102
RTVSPost2010Prop45
280
     0
102
RTVSPost2010PropOp45
 70
     1
102
RTVSPost2010Prop46
 90
       50
102
RTVSPost2010PropOp46
 70
     1
102
RTVSPost2010Prop47
 90
       50
102
RTVSPost2010PropOp47
 70
     1
102
RTVSPost2010Prop48
 90
       50
102
RTVSPost2010PropOp48
 70
     1
102
RTVSPost2010Prop49
280
     0
102
RTVSPost2010PropOp49
 70
     1
102
RTVSPost2010Prop50
 90
       50
102
RTVSPost2010PropOp50
 70
     1
102
RTVSPost2010Prop51ColorIndex
 90
      256
102
RTVSPost2010Prop51ColorRGB
 90
-16777216
102
RTVSPost2010PropOp51
 70
     0
102
RTVSPost2010Prop52
140
1.0
102
RTVSPost2010PropOp52
 70
     0
102
RTVSPost2010Prop53
 90
        2
102
RTVSPost2010PropOp53
 70
     1
102
RTVSPost2010Prop54
  1
strokes_ogs.tif
102
RTVSPost2010PropOp54
 70
     1
102
RTVSPost2010Prop55
280
     0
102
RTVSPost2010PropOp55
 70
     1
102
RTVSPost2010Prop56
140
1.0
102
RTVSPost2010PropOp56
 70
     1
102
RTVSPost2010Prop57
140
1.0
102
RTVSPost2010PropOp57
 70
     1
102
RTVSPropertyOp0
 70
     1
102
RTVSPropertyOp1
 70
     1
102
RTVSPropertyOp2
 70
     1
102
RTVSPropertyOp3
 70
     1
102
RTVSPropertyOp4
 70
     1
102
RTVSPropertyOp5
 70
     1
102
RTVSPropertyOp6
 70
     1
102
RTVSPropertyOp7
 70
     1
102
RTVSPropertyOp8
 70
     1
102
RTVSPropertyOp9
 70
     1
102
RTVSPropertyOp10
 70
     1
102
RTVSPropertyOp11
 70
     1
102
RTVSPropertyOp12
 70
     1
102
RTVSPropertyOp13
 70
     1
102
RTVSPropertyOp14
 70
     1
102
RTVSPropertyOp15
 70
     1
102
RTVSPropertyOp16
 70
     1
102
RTVSPropertyOp17
 70
     1
102
RTVSPropertyOp18
 70
     1
102
RTVSPropertyOp19
 70
     1
102
RTVSPropertyOp20
 70
     1
102
RTVSPropertyOp21
 70
     1
102
RTVSPropertyOp22
 70
     1
102
RTVSPropertyOp23
 70
     1
102
RTVSPropertyOp24
 70
     1
102
RTVSPropertyOp25
 70
     1
102
RTVSPropertyOp26
 70
     1
102
RTVSPropertyOp27
 70
     1
102
RTVSPropertyOp28
 70
     1
102
RTVSPropertyOp29
 70
     1
102
RTVSPropertyOp30
 70
     1
102
RTVSPropertyOp31
 70
     1
102
RTVSPropertyOp32
 70
     1
102
RTVSPropertyOp33
 70
     1
102
RTVSPropertyOp34
 70
     1
102
RTVSPropertyOp35
 70
     1
102
RTVSPropertyOp36
 70
     1
102
RTVSPropertyOp37
 70
     1
102
RTVSPropertyOp38
 70
     1
102
RTVSPropertyOp39
 70
     1
102
RTVSPropertyOp40
 70
     1
102
RTVSPropertyOp41
 70
     1
102
RTVSPropertyOp42
 70
     1
102
RTVSPropertyOp43
 70
     1
102
RTVSPropertyOp44
 70
     1
102
RTVSPropertyOp45
 70
     1
102
RTVSPropertyOp46
 70
     1
102
RTVSPropertyOp47
 70
     1
102
RTVSPropertyOp48
 70
     1
102
RTVSPropertyOp49
 70
     1
102
RTVSPropertyOp50
 70
     1
102
RTVSPropertyOp51
 70
     0
102
RTVSPropertyOp52
 70
     0
102
RTVSPropertyOp53
 70
     1
102
RTVSPropertyOp54
 70
     1
102
RTVSPropertyOp55
 70
     1
102
RTVSPropertyOp56
 70
     1
102
RTVSPropertyOp57
 70
     1
102
RTVSPropertyOp58
 70
     1
102
RTVSPropertyOp59
 70
     1
102
RTVSPropertyOp60
 70
     1
102
RTVSPropertyOp61
 70
     1
102
RTVSPropertyOp62
 70
     1
  0
XRECORD
  5
C774
102
{ACAD_REACTORS
330
C773
102
}
330
C773
100
AcDbXrecord
280
     1
102
RTVSPost2010Prop28
280
     0
102
RTVSPost2010PropOp28
 70
     1
102
RTVSPost2010Prop29
280
     1
102
RTVSPost2010PropOp29
 70
     1
102
RTVSPost2010Prop30
280
     1
102
RTVSPost2010PropOp30
 70
     1
102
RTVSPost2010Prop31
280
     0
102
RTVSPost2010PropOp31
 70
     1
102
RTVSPost2010Prop32
280
     0
102
RTVSPost2010PropOp32
 70
     1
102
RTVSPost2010Prop33
280
     0
102
RTVSPost2010PropOp33
 70
     1
102
RTVSPost2010Prop34
280
     0
102
RTVSPost2010PropOp34
 70
     1
102
RTVSPost2010Prop35
280
     0
102
RTVSPost2010PropOp35
 70
     1
102
RTVSPost2010Prop36
280
     0
102
RTVSPost2010PropOp36
 70
     1
102
RTVSPost2010Prop37
 90
       50
102
RTVSPost2010PropOp37
 70
     1
102
RTVSPost2010Prop38
140
0.0
102
RTVSPost2010PropOp38
 70
     1
102
RTVSPost2010Prop39
140
1.0
102
RTVSPost2010PropOp39
 70
     1
102
RTVSPost2010Prop40
 90
        0
102
RTVSPost2010PropOp40
 70
     1
102
RTVSPost2010Prop41ColorIndex
 90
       18
102
RTVSPost2010Prop41ColorRGB
 90
        0
102
RTVSPost2010PropOp41
 70
     1
102
RTVSPost2010Prop42
 90
       50
102
RTVSPost2010PropOp42
 70
     1
102
RTVSPost2010Prop43
 90
        3
102
RTVSPost2010PropOp43
 70
     1
102
RTVSPost2010Prop44ColorIndex
 90
        5
102
RTVSPost2010Prop44ColorRGB
 90
      255
102
RTVSPost2010PropOp44
 70
     1
102
RTVSPost2010Prop45
280
     0
102
RTVSPost2010PropOp45
 70
     1
102
RTVSPost2010Prop46
 90
       50
102
RTVSPost2010PropOp46
 70
     1
102
RTVSPost2010Prop47
 90
       50
102
RTVSPost2010PropOp47
 70
     1
102
RTVSPost2010Prop48
 90
       50
102
RTVSPost2010PropOp48
 70
     1
102
RTVSPost2010Prop49
280
     0
102
RTVSPost2010PropOp49
 70
     1
102
RTVSPost2010Prop50
 90
       50
102
RTVSPost2010PropOp50
 70
     1
102
RTVSPost2010Prop51ColorIndex
 90
      256
102
RTVSPost2010Prop51ColorRGB
 90
-16777216
102
RTVSPost2010PropOp51
 70
     0
102
RTVSPost2010Prop52
140
1.0
102
RTVSPost2010PropOp52
 70
     0
102
RTVSPost2010Prop53
 90
        2
102
RTVSPost2010PropOp53
 70
     1
102
RTVSPost2010Prop54
  1
strokes_ogs.tif
102
RTVSPost2010PropOp54
 70
     1
102
RTVSPost2010Prop55
280
     0
102
RTVSPost2010PropOp55
 70
     1
102
RTVSPost2010Prop56
140
1.0
102
RTVSPost2010PropOp56
 70
     1
102
RTVSPost2010Prop57
140
1.0
102
RTVSPost2010PropOp57
 70
     1
102
RTVSPropertyOp0
 70
     1
102
RTVSPropertyOp1
 70
     1
102
RTVSPropertyOp2
 70
     1
102
RTVSPropertyOp3
 70
     1
102
RTVSPropertyOp4
 70
     1
102
RTVSPropertyOp5
 70
     1
102
RTVSPropertyOp6
 70
     1
102
RTVSPropertyOp7
 70
     1
102
RTVSPropertyOp8
 70
     1
102
RTVSPropertyOp9
 70
     1
102
RTVSPropertyOp10
 70
     1
102
RTVSPropertyOp11
 70
     1
102
RTVSPropertyOp12
 70
     1
102
RTVSPropertyOp13
 70
     1
102
RTVSPropertyOp14
 70
     1
102
RTVSPropertyOp15
 70
     1
102
RTVSPropertyOp16
 70
     1
102
RTVSPropertyOp17
 70
     1
102
RTVSPropertyOp18
 70
     1
102
RTVSPropertyOp19
 70
     1
102
RTVSPropertyOp20
 70
     1
102
RTVSPropertyOp21
 70
     1
102
RTVSPropertyOp22
 70
     1
102
RTVSPropertyOp23
 70
     1
102
RTVSPropertyOp24
 70
     1
102
RTVSPropertyOp25
 70
     1
102
RTVSPropertyOp26
 70
     1
102
RTVSPropertyOp27
 70
     1
102
RTVSPropertyOp28
 70
     1
102
RTVSPropertyOp29
 70
     1
102
RTVSPropertyOp30
 70
     1
102
RTVSPropertyOp31
 70
     1
102
RTVSPropertyOp32
 70
     1
102
RTVSPropertyOp33
 70
     1
102
RTVSPropertyOp34
 70
     1
102
RTVSPropertyOp35
 70
     1
102
RTVSPropertyOp36
 70
     1
102
RTVSPropertyOp37
 70
     1
102
RTVSPropertyOp38
 70
     1
102
RTVSPropertyOp39
 70
     1
102
RTVSPropertyOp40
 70
     1
102
RTVSPropertyOp41
 70
     1
102
RTVSPropertyOp42
 70
     1
102
RTVSPropertyOp43
 70
     1
102
RTVSPropertyOp44
 70
     1
102
RTVSPropertyOp45
 70
     1
102
RTVSPropertyOp46
 70
     1
102
RTVSPropertyOp47
 70
     1
102
RTVSPropertyOp48
 70
     1
102
RTVSPropertyOp49
 70
     1
102
RTVSPropertyOp50
 70
     1
102
RTVSPropertyOp51
 70
     0
102
RTVSPropertyOp52
 70
     0
102
RTVSPropertyOp53
 70
     1
102
RTVSPropertyOp54
 70
     1
102
RTVSPropertyOp55
 70
     1
102
RTVSPropertyOp56
 70
     1
102
RTVSPropertyOp57
 70
     1
102
RTVSPropertyOp58
 70
     1
102
RTVSPropertyOp59
 70
     1
102
RTVSPropertyOp60
 70
     1
102
RTVSPropertyOp61
 70
     1
102
RTVSPropertyOp62
 70
     1
  0
XRECORD
  5
C78C
102
{ACAD_REACTORS
330
C78B
102
}
330
C78B
100
AcDbXrecord
280
     1
102
RTVSPost2010Prop28
280
     0
102
RTVSPost2010PropOp28
 70
     1
102
RTVSPost2010Prop29
280
     1
102
RTVSPost2010PropOp29
 70
     1
102
RTVSPost2010Prop30
280
     1
102
RTVSPost2010PropOp30
 70
     1
102
RTVSPost2010Prop31
280
     0
102
RTVSPost2010PropOp31
 70
     1
102
RTVSPost2010Prop32
280
     0
102
RTVSPost2010PropOp32
 70
     1
102
RTVSPost2010Prop33
280
     0
102
RTVSPost2010PropOp33
 70
     1
102
RTVSPost2010Prop34
280
     0
102
RTVSPost2010PropOp34
 70
     1
102
RTVSPost2010Prop35
280
     0
102
RTVSPost2010PropOp35
 70
     1
102
RTVSPost2010Prop36
280
     0
102
RTVSPost2010PropOp36
 70
     1
102
RTVSPost2010Prop37
 90
       50
102
RTVSPost2010PropOp37
 70
     1
102
RTVSPost2010Prop38
140
0.0
102
RTVSPost2010PropOp38
 70
     1
102
RTVSPost2010Prop39
140
1.0
102
RTVSPost2010PropOp39
 70
     1
102
RTVSPost2010Prop40
 90
        0
102
RTVSPost2010PropOp40
 70
     1
102
RTVSPost2010Prop41ColorIndex
 90
       18
102
RTVSPost2010Prop41ColorRGB
 90
        0
102
RTVSPost2010PropOp41
 70
     1
102
RTVSPost2010Prop42
 90
       50
102
RTVSPost2010PropOp42
 70
     1
102
RTVSPost2010Prop43
 90
        3
102
RTVSPost2010PropOp43
 70
     1
102
RTVSPost2010Prop44ColorIndex
 90
        5
102
RTVSPost2010Prop44ColorRGB
 90
      255
102
RTVSPost2010PropOp44
 70
     1
102
RTVSPost2010Prop45
280
     0
102
RTVSPost2010PropOp45
 70
     1
102
RTVSPost2010Prop46
 90
       50
102
RTVSPost2010PropOp46
 70
     1
102
RTVSPost2010Prop47
 90
       50
102
RTVSPost2010PropOp47
 70
     1
102
RTVSPost2010Prop48
 90
       50
102
RTVSPost2010PropOp48
 70
     1
102
RTVSPost2010Prop49
280
     0
102
RTVSPost2010PropOp49
 70
     1
102
RTVSPost2010Prop50
 90
       50
102
RTVSPost2010PropOp50
 70
     1
102
RTVSPost2010Prop51ColorIndex
 90
      256
102
RTVSPost2010Prop51ColorRGB
 90
-16777216
102
RTVSPost2010PropOp51
 70
     0
102
RTVSPost2010Prop52
140
1.0
102
RTVSPost2010PropOp52
 70
     0
102
RTVSPost2010Prop53
 90
        2
102
RTVSPost2010PropOp53
 70
     1
102
RTVSPost2010Prop54
  1
strokes_ogs.tif
102
RTVSPost2010PropOp54
 70
     1
102
RTVSPost2010Prop55
280
     0
102
RTVSPost2010PropOp55
 70
     1
102
RTVSPost2010Prop56
140
1.0
102
RTVSPost2010PropOp56
 70
     1
102
RTVSPost2010Prop57
140
1.0
102
RTVSPost2010PropOp57
 70
     1
102
RTVSPropertyOp0
 70
     1
102
RTVSPropertyOp1
 70
     1
102
RTVSPropertyOp2
 70
     1
102
RTVSPropertyOp3
 70
     1
102
RTVSPropertyOp4
 70
     1
102
RTVSPropertyOp5
 70
     1
102
RTVSPropertyOp6
 70
     1
102
RTVSPropertyOp7
 70
     1
102
RTVSPropertyOp8
 70
     1
102
RTVSPropertyOp9
 70
     1
102
RTVSPropertyOp10
 70
     1
102
RTVSPropertyOp11
 70
     1
102
RTVSPropertyOp12
 70
     1
102
RTVSPropertyOp13
 70
     1
102
RTVSPropertyOp14
 70
     1
102
RTVSPropertyOp15
 70
     1
102
RTVSPropertyOp16
 70
     1
102
RTVSPropertyOp17
 70
     1
102
RTVSPropertyOp18
 70
     1
102
RTVSPropertyOp19
 70
     1
102
RTVSPropertyOp20
 70
     1
102
RTVSPropertyOp21
 70
     1
102
RTVSPropertyOp22
 70
     1
102
RTVSPropertyOp23
 70
     1
102
RTVSPropertyOp24
 70
     1
102
RTVSPropertyOp25
 70
     1
102
RTVSPropertyOp26
 70
     1
102
RTVSPropertyOp27
 70
     1
102
RTVSPropertyOp28
 70
     1
102
RTVSPropertyOp29
 70
     1
102
RTVSPropertyOp30
 70
     1
102
RTVSPropertyOp31
 70
     1
102
RTVSPropertyOp32
 70
     1
102
RTVSPropertyOp33
 70
     1
102
RTVSPropertyOp34
 70
     1
102
RTVSPropertyOp35
 70
     1
102
RTVSPropertyOp36
 70
     1
102
RTVSPropertyOp37
 70
     1
102
RTVSPropertyOp38
 70
     1
102
RTVSPropertyOp39
 70
     1
102
RTVSPropertyOp40
 70
     1
102
RTVSPropertyOp41
 70
     1
102
RTVSPropertyOp42
 70
     1
102
RTVSPropertyOp43
 70
     1
102
RTVSPropertyOp44
 70
     1
102
RTVSPropertyOp45
 70
     1
102
RTVSPropertyOp46
 70
     1
102
RTVSPropertyOp47
 70
     1
102
RTVSPropertyOp48
 70
     1
102
RTVSPropertyOp49
 70
     1
102
RTVSPropertyOp50
 70
     1
102
RTVSPropertyOp51
 70
     0
102
RTVSPropertyOp52
 70
     0
102
RTVSPropertyOp53
 70
     1
102
RTVSPropertyOp54
 70
     1
102
RTVSPropertyOp55
 70
     1
102
RTVSPropertyOp56
 70
     1
102
RTVSPropertyOp57
 70
     1
102
RTVSPropertyOp58
 70
     1
102
RTVSPropertyOp59
 70
     1
102
RTVSPropertyOp60
 70
     1
102
RTVSPropertyOp61
 70
     1
102
RTVSPropertyOp62
 70
     1
  0
ENDSEC
  0
EOF
