  0
SECTION
  2
HEADER
  9
$ACADVER
  1
AC1015
  9
$ACADMAINTVER
 70
    20
  9
$DWGCODEPAGE
  3
ANSI_932
  9
$INSBASE
 10
0.0
 20
0.0
 30
0.0
  9
$EXTMIN
 10
10.0
 20
9.999999999999998
 30
0.0
  9
$EXTMAX
 10
218.950477
 20
203.5280699999999
 30
0.0
  9
$LIMMIN
 10
0.0
 20
0.0
  9
$LIMMAX
 10
396.0
 20
273.0
  9
$ORTHOMODE
 70
     1
  9
$REGENMODE
 70
     1
  9
$FILLMODE
 70
     1
  9
$QTEXTMODE
 70
     0
  9
$MIRRTEXT
 70
     1
  9
$LTSCALE
 40
20.0
  9
$ATTMODE
 70
     1
  9
$TEXTSIZE
 40
5.0
  9
$TRACEWID
 40
1.0
  9
$TEXTSTYLE
  7
STANDARD
  9
$CLAYER
  8
0
  9
$CELTYPE
  6
BYLAYER
  9
$CECOLOR
 62
   256
  9
$CELTSCALE
 40
1.0
  9
$DISPSILH
 70
     0
  9
$DIMSCALE
 40
1.0
  9
$DIMASZ
 40
2.5
  9
$DIMEXO
 40
1.0
  9
$DIMDLI
 40
10.0
  9
$DIMRND
 40
0.0
  9
$DIMDLE
 40
0.0
  9
$DIMEXE
 40
1.0
  9
$DIMTP
 40
0.0
  9
$DIMTM
 40
0.0
  9
$DIMTXT
 40
3.2
  9
$DIMCEN
 40
0.0
  9
$DIMTSZ
 40
0.0
  9
$DIMTOL
 70
     0
  9
$DIMLIM
 70
     0
  9
$DIMTIH
 70
     0
  9
$DIMTOH
 70
     0
  9
$DIMSE1
 70
     0
  9
$DIMSE2
 70
     0
  9
$DIMTAD
 70
     3
  9
$DIMZIN
 70
     8
  9
$DIMBLK
  1

  9
$DIMASO
 70
     1
  9
$DIMSHO
 70
     1
  9
$DIMPOST
  1

  9
$DIMAPOST
  1

  9
$DIMALT
 70
     0
  9
$DIMALTD
 70
     2
  9
$DIMALTF
 40
25.4
  9
$DIMLFAC
 40
1.0
  9
$DIMTOFL
 70
     1
  9
$DIMTVP
 40
0.0
  9
$DIMTIX
 70
     0
  9
$DIMSOXD
 70
     0
  9
$DIMSAH
 70
     1
  9
$DIMBLK1
  1

  9
$DIMBLK2
  1

  9
$DIMSTYLE
  2
STANDARD
  9
$DIMCLRD
 70
     0
  9
$DIMCLRE
 70
     0
  9
$DIMCLRT
 70
     0
  9
$DIMTFAC
 40
1.0
  9
$DIMGAP
 40
1.0
  9
$DIMJUST
 70
     0
  9
$DIMSD1
 70
     0
  9
$DIMSD2
 70
     0
  9
$DIMTOLJ
 70
     1
  9
$DIMTZIN
 70
     0
  9
$DIMALTZ
 70
     0
  9
$DIMALTTZ
 70
     0
  9
$DIMUPT
 70
     0
  9
$DIMDEC
 70
     4
  9
$DIMTDEC
 70
     4
  9
$DIMALTU
 70
     2
  9
$DIMALTTD
 70
     2
  9
$DIMTXSTY
  7
STANDARD
  9
$DIMAUNIT
 70
     0
  9
$DIMADEC
 70
     0
  9
$DIMALTRND
 40
0.0
  9
$DIMAZIN
 70
     0
  9
$DIMDSEP
 70
    46
  9
$DIMATFIT
 70
     3
  9
$DIMFRAC
 70
     0
  9
$DIMLDRBLK
  1

  9
$DIMLUNIT
 70
     2
  9
$DIMLWD
 70
    -2
  9
$DIMLWE
 70
    -2
  9
$DIMTMOVE
 70
     0
  9
$LUNITS
 70
     2
  9
$LUPREC
 70
     4
  9
$SKETCHINC
 40
1.0
  9
$FILLETRAD
 40
1.0
  9
$AUNITS
 70
     0
  9
$AUPREC
 70
     2
  9
$MENU
  1
.
  9
$ELEVATION
 40
0.0
  9
$PELEVATION
 40
0.0
  9
$THICKNESS
 40
0.0
  9
$LIMCHECK
 70
     0
  9
$CHAMFERA
 40
10.0
  9
$CHAMFERB
 40
10.0
  9
$CHAMFERC
 40
0.0
  9
$CHAMFERD
 40
0.0
  9
$SKPOLY
 70
     0
  9
$TDCREATE
 40
2451296.796261343
  9
$TDUCREATE
 40
2451296.421261343
  9
$TDUPDATE
 40
2457192.658355625
  9
$TDUUPDATE
 40
2457192.283355625
  9
$TDINDWG
 40
0.0000114236
  9
$TDUSRTIMER
 40
0.0000109375
  9
$USRTIMER
 70
     1
  9
$ANGBASE
 50
0.0
  9
$ANGDIR
 70
     0
  9
$PDMODE
 70
     0
  9
$PDSIZE
 40
0.0
  9
$PLINEWID
 40
0.0
  9
$SPLFRAME
 70
     0
  9
$SPLINETYPE
 70
     6
  9
$SPLINESEGS
 70
     8
  9
$HANDSEED
  5
C1AF
  9
$SURFTAB1
 70
     6
  9
$SURFTAB2
 70
     6
  9
$SURFTYPE
 70
     6
  9
$SURFU
 70
     6
  9
$SURFV
 70
     6
  9
$UCSBASE
  2

  9
$UCSNAME
  2

  9
$UCSORG
 10
0.0
 20
0.0
 30
0.0
  9
$UCSXDIR
 10
1.0
 20
0.0
 30
0.0
  9
$UCSYDIR
 10
0.0
 20
1.0
 30
0.0
  9
$UCSORTHOREF
  2

  9
$UCSORTHOVIEW
 70
     0
  9
$UCSORGTOP
 10
0.0
 20
0.0
 30
0.0
  9
$UCSORGBOTTOM
 10
0.0
 20
0.0
 30
0.0
  9
$UCSORGLEFT
 10
0.0
 20
0.0
 30
0.0
  9
$UCSORGRIGHT
 10
0.0
 20
0.0
 30
0.0
  9
$UCSORGFRONT
 10
0.0
 20
0.0
 30
0.0
  9
$UCSORGBACK
 10
0.0
 20
0.0
 30
0.0
  9
$PUCSBASE
  2

  9
$PUCSNAME
  2

  9
$PUCSORG
 10
0.0
 20
0.0
 30
0.0
  9
$PUCSXDIR
 10
1.0
 20
0.0
 30
0.0
  9
$PUCSYDIR
 10
0.0
 20
1.0
 30
0.0
  9
$PUCSORTHOREF
  2

  9
$PUCSORTHOVIEW
 70
     0
  9
$PUCSORGTOP
 10
0.0
 20
0.0
 30
0.0
  9
$PUCSORGBOTTOM
 10
0.0
 20
0.0
 30
0.0
  9
$PUCSORGLEFT
 10
0.0
 20
0.0
 30
0.0
  9
$PUCSORGRIGHT
 10
0.0
 20
0.0
 30
0.0
  9
$PUCSORGFRONT
 10
0.0
 20
0.0
 30
0.0
  9
$PUCSORGBACK
 10
0.0
 20
0.0
 30
0.0
  9
$USERI1
 70
     0
  9
$USERI2
 70
     0
  9
$USERI3
 70
     0
  9
$USERI4
 70
     0
  9
$USERI5
 70
     0
  9
$USERR1
 40
0.0
  9
$USERR2
 40
0.0
  9
$USERR3
 40
0.0
  9
$USERR4
 40
0.0
  9
$USERR5
 40
0.0
  9
$WORLDVIEW
 70
     1
  9
$SHADEDGE
 70
     3
  9
$SHADEDIF
 70
    70
  9
$TILEMODE
 70
     1
  9
$MAXACTVP
 70
    16
  9
$PINSBASE
 10
0.0
 20
0.0
 30
0.0
  9
$PLIMCHECK
 70
     0
  9
$PEXTMIN
 10
1.000000000000000E+20
 20
1.000000000000000E+20
 30
1.000000000000000E+20
  9
$PEXTMAX
 10
-1.000000000000000E+20
 20
-1.000000000000000E+20
 30
-1.000000000000000E+20
  9
$PLIMMIN
 10
0.0
 20
0.0
  9
$PLIMMAX
 10
420.0
 20
297.0
  9
$UNITMODE
 70
     0
  9
$VISRETAIN
 70
     0
  9
$PLINEGEN
 70
     0
  9
$PSLTSCALE
 70
     0
  9
$TREEDEPTH
 70
  3020
  9
$CMLSTYLE
  2
STANDARD
  9
$CMLJUST
 70
     0
  9
$CMLSCALE
 40
1.0
  9
$PROXYGRAPHICS
 70
     1
  9
$MEASUREMENT
 70
     0
  9
$CELWEIGHT
370
    -1
  9
$ENDCAPS
280
     0
  9
$JOINSTYLE
280
     0
  9
$LWDISPLAY
290
     0
  9
$INSUNITS
 70
     0
  9
$HYPERLINKBASE
  1

  9
$STYLESHEET
  1

  9
$XEDIT
290
     1
  9
$CEPSNTYPE
380
     0
  9
$PSTYLEMODE
290
     1
  9
$FINGERPRINTGUID
  2
{92A385CB-589C-4901-B290-50C34414710A}
  9
$VERSIONGUID
  2
{112D56E2-D7BF-4DFF-8BC0-0A37BA32CE26}
  9
$EXTNAMES
290
     1
  9
$PSVPSCALE
 40
0.0
  9
$OLESTARTUP
290
     0
  0
ENDSEC
  0
SECTION
  2
CLASSES
  0
CLASS
  1
ACDBDICTIONARYWDFLT
  2
AcDbDictionaryWithDefault
  3
ObjectDBX Classes
 90
        0
280
     0
281
     0
  0
CLASS
  1
ACDBPLACEHOLDER
  2
AcDbPlaceHolder
  3
ObjectDBX Classes
 90
        0
280
     0
281
     0
  0
CLASS
  1
LAYOUT
  2
AcDbLayout
  3
ObjectDBX Classes
 90
        0
280
     0
281
     0
  0
CLASS
  1
DICTIONARYVAR
  2
AcDbDictionaryVar
  3
ObjectDBX Classes
 90
        0
280
     0
281
     0
  0
CLASS
  1
MATERIAL
  2
AcDbMaterial
  3
ObjectDBX Classes
 90
     1153
280
     0
281
     0
  0
CLASS
  1
VISUALSTYLE
  2
AcDbVisualStyle
  3
ObjectDBX Classes
 90
     4095
280
     0
281
     0
  0
CLASS
  1
TABLESTYLE
  2
AcDbTableStyle
  3
ObjectDBX Classes
 90
     4095
280
     0
281
     0
  0
CLASS
  1
SCALE
  2
AcDbScale
  3
ObjectDBX Classes
 90
     1153
280
     0
281
     0
  0
CLASS
  1
MLEADERSTYLE
  2
AcDbMLeaderStyle
  3
ACDB_MLEADERSTYLE_CLASS
 90
     4095
280
     0
281
     0
  0
CLASS
  1
ACDBSECTIONVIEWSTYLE
  2
AcDbSectionViewStyle
  3
ObjectDBX Classes
 90
     1025
280
     0
281
     0
  0
CLASS
  1
ACDBDETAILVIEWSTYLE
  2
AcDbDetailViewStyle
  3
ObjectDBX Classes
 90
     1025
280
     0
281
     0
  0
CLASS
  1
CELLSTYLEMAP
  2
AcDbCellStyleMap
  3
ObjectDBX Classes
 90
     1152
280
     0
281
     0
  0
ENDSEC
  0
SECTION
  2
TABLES
  0
TABLE
  2
VPORT
  5
BF0E
330
0
100
AcDbSymbolTable
 70
     1
  0
VPORT
  5
C0F8
330
BF0E
100
AcDbSymbolTableRecord
100
AcDbViewportTableRecord
  2
*ACTIVE
 70
     0
 10
0.0
 20
0.0
 11
1.0
 21
1.0
 12
173.1027069546296
 22
106.7676779081435
 13
0.0
 23
0.0
 14
10.0
 24
10.0
 15
10.0
 25
10.0
 16
0.0
 26
0.0
 36
1.0
 17
0.0
 27
0.0
 37
0.0
 40
195.7217211458034
 41
1.899603698811096
 42
50.0
 43
0.0
 44
0.0
 50
0.0
 51
0.0
 71
     0
 72
   100
 73
     1
 74
     0
 75
     0
 76
     0
 77
     0
 78
     0
281
     0
 65
     1
110
0.0
120
0.0
130
0.0
111
1.0
121
0.0
131
0.0
112
0.0
122
1.0
132
0.0
 79
     0
146
0.0
1001
ACAD_NAV_VCDISPLAY
1070
     3
  0
ENDTAB
  0
TABLE
  2
LTYPE
  5
BF0B
330
0
100
AcDbSymbolTable
 70
     4
  0
LTYPE
  5
BF19
330
BF0B
100
AcDbSymbolTableRecord
100
AcDbLinetypeTableRecord
  2
BYBLOCK
 70
     0
  3

 72
    65
 73
     0
 40
0.0
  0
LTYPE
  5
BF1A
330
BF0B
100
AcDbSymbolTableRecord
100
AcDbLinetypeTableRecord
  2
BYLAYER
 70
     0
  3

 72
    65
 73
     0
 40
0.0
  0
LTYPE
  5
BF1B
330
BF0B
100
AcDbSymbolTableRecord
100
AcDbLinetypeTableRecord
  2
CONTINUOUS
 70
     0
  3
Solid line
 72
    65
 73
     0
 40
0.0
  0
LTYPE
  5
BF29
330
BF0B
100
AcDbSymbolTableRecord
100
AcDbLinetypeTableRecord
  2
DASHED
 70
     0
  3
__ __ __ __ __ __ __ __ __ __ __ __ __ __ __ __
 72
    65
 73
     2
 40
0.75
 49
0.5
 74
     0
 49
-0.25
 74
     0
  0
LTYPE
  5
BF2A
330
BF0B
100
AcDbSymbolTableRecord
100
AcDbLinetypeTableRecord
  2
CENTER
 70
     0
  3
____ _ ____ _ ____ _ ____ _ ____ _ ____ _ ____ 
 72
    65
 73
     4
 40
2.0
 49
1.25
 74
     0
 49
-0.25
 74
     0
 49
0.25
 74
     0
 49
-0.25
 74
     0
  0
LTYPE
  5
BF2B
330
BF0B
100
AcDbSymbolTableRecord
100
AcDbLinetypeTableRecord
  2
PHANTOM
 70
     0
  3
______  __  __  ______  __  __  ______  __  __ 
 72
    65
 73
     6
 40
2.5
 49
1.25
 74
     0
 49
-0.25
 74
     0
 49
0.25
 74
     0
 49
-0.25
 74
     0
 49
0.25
 74
     0
 49
-0.25
 74
     0
  0
ENDTAB
  0
TABLE
  2
LAYER
  5
BF08
330
0
100
AcDbSymbolTable
 70
     8
  0
LAYER
  5
BF16
102
{ACAD_XDICTIONARY
360
C153
102
}
330
BF08
100
AcDbSymbolTableRecord
100
AcDbLayerTableRecord
  2
0
 70
     0
 62
     7
  6
CONTINUOUS
370
    -3
390
C101
  0
LAYER
  5
BF2C
102
{ACAD_XDICTIONARY
360
C155
102
}
330
BF08
100
AcDbSymbolTableRecord
100
AcDbLayerTableRecord
  2
4
 70
     0
 62
     1
  6
CENTER
370
    -3
390
C101
  0
LAYER
  5
BF2D
102
{ACAD_XDICTIONARY
360
C157
102
}
330
BF08
100
AcDbSymbolTableRecord
100
AcDbLayerTableRecord
  2
5
 70
     0
 62
     6
  6
PHANTOM
370
    -3
390
C101
  0
LAYER
  5
BF2E
102
{ACAD_XDICTIONARY
360
C159
102
}
330
BF08
100
AcDbSymbolTableRecord
100
AcDbLayerTableRecord
  2
1
 70
     0
 62
     7
  6
CONTINUOUS
370
    -3
390
C101
  0
LAYER
  5
BF2F
102
{ACAD_XDICTIONARY
360
C15B
102
}
330
BF08
100
AcDbSymbolTableRecord
100
AcDbLayerTableRecord
  2
2
 70
     0
 62
     4
  6
CONTINUOUS
370
    -3
390
C101
  0
LAYER
  5
BF30
102
{ACAD_XDICTIONARY
360
C15D
102
}
330
BF08
100
AcDbSymbolTableRecord
100
AcDbLayerTableRecord
  2
3
 70
     0
 62
     2
  6
DASHED
370
    -3
390
C101
  0
LAYER
  5
BF31
102
{ACAD_XDICTIONARY
360
C15F
102
}
330
BF08
100
AcDbSymbolTableRecord
100
AcDbLayerTableRecord
  2
6
 70
     0
 62
     5
  6
CONTINUOUS
370
    -3
390
C101
  0
LAYER
  5
BF32
102
{ACAD_XDICTIONARY
360
C161
102
}
330
BF08
100
AcDbSymbolTableRecord
100
AcDbLayerTableRecord
  2
7
 70
     0
 62
     3
  6
CONTINUOUS
370
    -3
390
C101
  0
ENDTAB
  0
TABLE
  2
STYLE
  5
BF09
330
0
100
AcDbSymbolTable
 70
     1
  0
STYLE
  5
BF17
330
BF09
100
AcDbSymbolTableRecord
100
AcDbTextStyleTableRecord
  2
STANDARD
 70
     0
 40
0.0
 41
1.0
 50
0.0
 71
     0
 42
5.0
  3
txt
  4

  0
ENDTAB
  0
TABLE
  2
VIEW
  5
BF0C
330
0
100
AcDbSymbolTable
 70
     1
  0
VIEW
  5
BF33
330
BF0C
100
AcDbSymbolTableRecord
100
AcDbViewTableRecord
  2
OLE1
 70
     0
 40
82.33765400000001
 10
47.980739
 20
114.6557
 41
171.0089739999999
 11
0.0
 21
0.0
 31
1.0
 12
0.0
 22
0.0
 32
0.0
 42
50.0
 43
0.0
 44
0.0
 50
0.0
 71
     0
281
     0
 72
     0
  0
ENDTAB
  0
TABLE
  2
UCS
  5
BF0D
330
0
100
AcDbSymbolTable
 70
     0
  0
ENDTAB
  0
TABLE
  2
APPID
  5
BF0F
330
0
100
AcDbSymbolTable
 70
     3
  0
APPID
  5
BF18
330
BF0F
100
AcDbSymbolTableRecord
100
AcDbRegAppTableRecord
  2
ACAD
 70
     0
  0
APPID
  5
C16D
330
BF0F
100
AcDbSymbolTableRecord
100
AcDbRegAppTableRecord
  2
ACAD_NAV_VCDISPLAY
 70
     0
  0
APPID
  5
C1A6
330
BF0F
100
AcDbSymbolTableRecord
100
AcDbRegAppTableRecord
  2
ACAD_MLEADERVER
 70
     0
  0
ENDTAB
  0
TABLE
  2
DIMSTYLE
  5
BF10
330
0
100
AcDbSymbolTable
 70
     1
100
AcDbDimStyleTable
 71
     0
  0
DIMSTYLE
105
BF35
330
BF10
100
AcDbSymbolTableRecord
100
AcDbDimStyleTableRecord
  2
STANDARD
 70
     0
 41
2.5
 42
1.0
 43
10.0
 44
1.0
 73
     0
 74
     0
 77
     3
 78
     8
140
3.2
141
0.0
147
1.0
172
     1
173
     1
284
     8
285
     8
286
     8
340
BF17
  0
ENDTAB
  0
TABLE
  2
BLOCK_RECORD
  5
BF07
330
0
100
AcDbSymbolTable
 70
     0
  0
BLOCK_RECORD
  5
BF24
102
{ACAD_XDICTIONARY
360
C0FB
102
}
330
BF07
100
AcDbSymbolTableRecord
100
AcDbBlockTableRecord
  2
*MODEL_SPACE
340
C14F
  0
BLOCK_RECORD
  5
BF20
102
{ACAD_XDICTIONARY
360
C0F9
102
}
330
BF07
100
AcDbSymbolTableRecord
100
AcDbBlockTableRecord
  2
*PAPER_SPACE
340
C150
  0
ENDTAB
  0
ENDSEC
  0
SECTION
  2
BLOCKS
  0
BLOCK
  5
BF25
330
BF24
100
AcDbEntity
  8
0
100
AcDbBlockBegin
  2
*MODEL_SPACE
 70
     0
 10
0.0
 20
0.0
 30
0.0
  3
*MODEL_SPACE
  1

  0
ENDBLK
  5
BF26
330
BF24
100
AcDbEntity
  8
0
100
AcDbBlockEnd
  0
BLOCK
  5
BF21
330
BF20
100
AcDbEntity
 67
     1
  8
0
100
AcDbBlockBegin
  2
*PAPER_SPACE
 70
     0
 10
0.0
 20
0.0
 30
0.0
  3
*PAPER_SPACE
  1

  0
ENDBLK
  5
BF22
330
BF20
100
AcDbEntity
 67
     1
  8
0
100
AcDbBlockEnd
  0
ENDSEC
  0
SECTION
  2
ENTITIES
  0
TEXT
  5
BF3D
330
BF24
100
AcDbEntity
  8
7
  6
Continuous
100
AcDbText
 10
10.0
 20
18.0
 30
0.0
 40
3.0
  1
TYPE No.TM-144SUS-38
100
AcDbText
  0
TEXT
  5
BF3E
330
BF24
100
AcDbEntity
  8
7
  6
Continuous
100
AcDbText
 10
10.0
 20
26.0
 30
0.0
 40
3.0
  1
CODE No.5714
100
AcDbText
  0
TEXT
  5
BF3F
330
BF24
100
AcDbEntity
  8
1
  6
Continuous
100
AcDbText
 10
10.0
 20
10.0
 30
0.0
 40
1.399999999999999
  1
LAYER
100
AcDbText
  0
TEXT
  5
BF40
330
BF24
100
AcDbEntity
  8
1
  6
Continuous
100
AcDbText
 10
17.97951099999998
 20
10.04873699999998
 30
0.0
 40
1.399999999999999
  1
1
100
AcDbText
  0
TEXT
  5
BF41
330
BF24
100
AcDbEntity
  8
7
  6
Continuous
100
AcDbText
 10
29.97951099999999
 20
10.04873699999998
 30
0.0
 40
1.399999999999999
  1
7
100
AcDbText
  0
TEXT
  5
BF42
330
BF24
100
AcDbEntity
  8
4
  6
CENTER
100
AcDbText
 10
23.97951099999999
 20
10.04873699999998
 30
0.0
 40
1.399999999999999
  1
4
100
AcDbText
  0
TEXT
  5
BF43
330
BF24
100
AcDbEntity
  8
3
  6
DASHED
100
AcDbText
 10
21.979511
 20
10.04873699999998
 30
0.0
 40
1.399999999999999
  1
3
100
AcDbText
  0
TEXT
  5
BF44
330
BF24
100
AcDbEntity
  8
2
  6
Continuous
100
AcDbText
 10
19.97951099999999
 20
10.04873699999998
 30
0.0
 40
1.399999999999999
  1
2
100
AcDbText
  0
TEXT
  5
BF45
330
BF24
100
AcDbEntity
  8
6
  6
Continuous
100
AcDbText
 10
27.979511
 20
10.04873699999998
 30
0.0
 40
1.399999999999999
  1
6
100
AcDbText
  0
TEXT
  5
BF46
330
BF24
100
AcDbEntity
  8
5
  6
PHANTOM
100
AcDbText
 10
25.97951099999999
 20
10.04873699999998
 30
0.0
 40
1.399999999999999
  1
5
100
AcDbText
  0
LINE
  5
BF47
330
BF24
100
AcDbEntity
  8
1
  6
Continuous
100
AcDbLine
 10
114.6002389999999
 20
133.0276699999998
 30
0.0
 11
125.6002389999999
 21
133.0276699999998
 31
0.0
  0
LINE
  5
BF48
330
BF24
100
AcDbEntity
  8
1
  6
Continuous
100
AcDbLine
 10
137.3502389999998
 20
134.00417
 30
0.0
 11
137.3502389999998
 21
137.9776699999998
 31
0.0
  0
LINE
  5
BF49
330
BF24
100
AcDbEntity
  8
1
  6
Continuous
100
AcDbLine
 10
129.350239
 20
134.2776699999998
 30
0.0
 11
129.350239
 21
143.52767
 31
0.0
  0
LINE
  5
BF4A
330
BF24
100
AcDbEntity
  8
1
  6
Continuous
100
AcDbLine
 10
110.8502389999999
 20
136.02767
 30
0.0
 11
110.8502389999999
 21
143.52767
 31
0.0
  0
LINE
  5
BF4B
330
BF24
100
AcDbEntity
  8
4
  6
CENTER
100
AcDbLine
 10
120.1002389999999
 20
91.5
 30
0.0
 11
120.1002389999999
 21
148.02767
 31
0.0
  0
LINE
  5
BF4C
330
BF24
100
AcDbEntity
  8
1
  6
Continuous
100
AcDbLine
 10
112.3502389999998
 20
145.02767
 30
0.0
 11
127.8502389999998
 21
145.02767
 31
0.0
  0
LINE
  5
BF4D
330
BF24
100
AcDbEntity
  8
1
  6
Continuous
100
AcDbLine
 10
114.3002389999999
 20
185.0280699999999
 30
0.0
 11
125.9002389999998
 21
185.0280699999999
 31
0.0
  0
LINE
  5
BF4E
330
BF24
100
AcDbEntity
  8
1
  6
Continuous
100
AcDbLine
 10
114.3002389999999
 20
200.5280699999999
 30
0.0
 11
125.9002389999998
 21
200.5280699999999
 31
0.0
  0
LINE
  5
BF4F
330
BF24
100
AcDbEntity
  8
4
  6
CENTER
100
AcDbLine
 10
95.5
 20
192.7780699999999
 30
0.0
 11
144.700477
 21
192.7780699999999
 31
0.0
  0
LINE
  5
BF50
330
BF24
100
AcDbEntity
  8
4
  6
CENTER
100
AcDbLine
 10
207.4504769999998
 20
91.5
 30
0.0
 11
207.4504769999998
 21
148.027708
 31
0.0
  0
LINE
  5
BF51
330
BF24
100
AcDbEntity
  8
1
  6
Continuous
100
AcDbLine
 10
129.350239
 20
188.0280699999999
 30
0.0
 11
129.350239
 21
197.5280699999999
 31
0.0
  0
LINE
  5
BF52
330
BF24
100
AcDbEntity
  8
4
  6
CENTER
100
AcDbLine
 10
120.1002389999999
 20
182.0280699999999
 30
0.0
 11
120.1002389999999
 21
203.5280699999999
 31
0.0
  0
LINE
  5
BF53
330
BF24
100
AcDbEntity
  8
1
  6
Continuous
100
AcDbLine
 10
110.8502389999999
 20
188.0280699999999
 30
0.0
 11
110.8502389999999
 21
197.5280699999999
 31
0.0
  0
LINE
  5
BF54
330
BF24
100
AcDbEntity
  8
1
  6
Continuous
100
AcDbLine
 10
110.829405
 20
136.02767
 30
0.0
 11
114.3002389999999
 21
136.02767
 31
0.0
  0
ARC
  5
BF55
330
BF24
100
AcDbEntity
  8
1
  6
Continuous
100
AcDbCircle
 10
112.3502389999998
 20
143.52767
 30
0.0
 40
1.5
100
AcDbArc
 50
90.0
 51
180.0
  0
ARC
  5
BF56
330
BF24
100
AcDbEntity
  8
1
  6
Continuous
100
AcDbCircle
 10
127.8502389999998
 20
143.52767
 30
0.0
 40
1.5
100
AcDbArc
 50
0.0
 51
90.0
  0
LINE
  5
BF57
330
BF24
100
AcDbEntity
  8
1
  6
Continuous
100
AcDbLine
 10
125.9002389999998
 20
136.02767
 30
0.0
 11
129.350239
 21
136.02767
 31
0.0
  0
LINE
  5
BF58
330
BF24
100
AcDbEntity
  8
4
  6
CENTER
100
AcDbLine
 10
103.850239
 20
138.77767
 30
0.0
 11
140.3502389999998
 21
138.77767
 31
0.0
  0
LINE
  5
BF59
330
BF24
100
AcDbEntity
  8
1
  6
Continuous
100
AcDbLine
 10
134.3502389999999
 20
139.5776699999998
 30
0.0
 11
137.3502389999998
 21
139.5776699999998
 31
0.0
  0
LINE
  5
BF5A
330
BF24
100
AcDbEntity
  8
1
  6
Continuous
100
AcDbLine
 10
134.3502389999999
 20
137.9776699999998
 30
0.0
 11
137.3502389999998
 21
137.9776699999998
 31
0.0
  0
LINE
  5
BF5B
330
BF24
100
AcDbEntity
  8
1
  6
Continuous
100
AcDbLine
 10
134.3502389999999
 20
137.9776699999998
 30
0.0
 11
134.3502389999999
 21
139.5776699999998
 31
0.0
  0
LINE
  5
BF5C
330
BF24
100
AcDbEntity
  8
1
  6
Continuous
100
AcDbLine
 10
137.3502389999998
 20
139.5776699999998
 30
0.0
 11
137.3502389999998
 21
143.5511699999999
 31
0.0
  0
LINE
  5
BF5D
330
BF24
100
AcDbEntity
  8
4
  6
CENTER
100
AcDbLine
 10
196.700477
 20
138.777708
 30
0.0
 11
218.200477
 21
138.777708
 31
0.0
  0
LINE
  5
BF5E
330
BF24
100
AcDbEntity
  8
1
  6
Continuous
100
AcDbLine
 10
202.450477
 20
139.577708
 30
0.0
 11
212.450477
 21
139.577708
 31
0.0
  0
LINE
  5
BF5F
330
BF24
100
AcDbEntity
  8
1
  6
Continuous
100
AcDbLine
 10
202.450477
 20
137.9777079999997
 30
0.0
 11
212.450477
 21
137.9777079999997
 31
0.0
  0
LINE
  5
BF60
330
BF24
100
AcDbEntity
  8
1
  6
Continuous
100
AcDbLine
 10
213.700477
 20
136.0277079999999
 30
0.0
 11
213.700477
 21
140.1593959999999
 31
0.0
  0
LINE
  5
BF61
330
BF24
100
AcDbEntity
  8
1
  6
Continuous
100
AcDbLine
 10
201.2004769999998
 20
136.0277079999999
 30
0.0
 11
201.2004769999998
 21
140.1593959999999
 31
0.0
  0
LINE
  5
BF62
330
BF24
100
AcDbEntity
  8
1
  6
Continuous
100
AcDbLine
 10
200.783054
 20
136.0277079999999
 30
0.0
 11
202.5527729999998
 21
136.0277079999999
 31
0.0
  0
LINE
  5
BF63
330
BF24
100
AcDbEntity
  8
1
  6
Continuous
100
AcDbLine
 10
212.348181
 20
136.0277079999999
 30
0.0
 11
214.1179
 21
136.0277079999999
 31
0.0
  0
ARC
  5
BF64
330
BF24
100
AcDbEntity
  8
1
  6
Continuous
100
AcDbCircle
 10
201.2004769999998
 20
134.527708
 30
0.0
 40
1.5
100
AcDbArc
 50
180.0
 51
260.405932
  0
ARC
  5
BF65
330
BF24
100
AcDbEntity
  8
1
  6
Continuous
100
AcDbCircle
 10
213.700477
 20
134.527708
 30
0.0
 40
1.5
100
AcDbArc
 50
279.594068
 51
0.0
  0
LINE
  5
BF66
330
BF24
100
AcDbEntity
  8
1
  6
Continuous
100
AcDbLine
 10
112.3502389999998
 20
199.0280699999999
 30
0.0
 11
113.1002389999999
 21
199.0280699999999
 31
0.0
  0
LINE
  5
BF67
330
BF24
100
AcDbEntity
  8
1
  6
Continuous
100
AcDbLine
 10
112.3502389999998
 20
186.5280699999999
 30
0.0
 11
113.1002389999999
 21
186.5280699999999
 31
0.0
  0
LINE
  5
BF68
330
BF24
100
AcDbEntity
  8
1
  6
Continuous
100
AcDbLine
 10
127.1002389999999
 20
199.0280699999999
 30
0.0
 11
127.8502389999998
 21
199.0280699999999
 31
0.0
  0
LINE
  5
BF69
330
BF24
100
AcDbEntity
  8
1
  6
Continuous
100
AcDbLine
 10
127.1002389999999
 20
186.5280699999999
 30
0.0
 11
127.8502389999998
 21
186.5280699999999
 31
0.0
  0
LINE
  5
BF6A
330
BF24
100
AcDbEntity
  8
1
  6
Continuous
100
AcDbLine
 10
214.362781
 20
133.946224
 30
0.0
 11
213.950477
 21
133.92767
 31
0.0
  0
LINE
  5
BF6B
330
BF24
100
AcDbEntity
  8
1
  6
Continuous
100
AcDbLine
 10
200.5381739999999
 20
133.946224
 30
0.0
 11
200.9504769999999
 21
133.92767
 31
0.0
  0
ARC
  5
BF6C
330
BF24
100
AcDbEntity
  8
1
  6
Continuous
100
AcDbCircle
 10
127.8502389999998
 20
197.5280699999999
 30
0.0
 40
1.5
100
AcDbArc
 50
0.0
 51
90.0
  0
ARC
  5
BF6D
330
BF24
100
AcDbEntity
  8
1
  6
Continuous
100
AcDbCircle
 10
112.3502389999998
 20
197.5280699999999
 30
0.0
 40
1.5
100
AcDbArc
 50
90.0
 51
180.0
  0
ARC
  5
BF6E
330
BF24
100
AcDbEntity
  8
1
  6
Continuous
100
AcDbCircle
 10
112.3502389999998
 20
188.0280699999999
 30
0.0
 40
1.5
100
AcDbArc
 50
180.0
 51
270.0
  0
ARC
  5
BF6F
330
BF24
100
AcDbEntity
  8
1
  6
Continuous
100
AcDbCircle
 10
127.8502389999998
 20
188.0280699999999
 30
0.0
 40
1.5
100
AcDbArc
 50
270.0
 51
0.0
  0
ARC
  5
BF70
330
BF24
100
AcDbEntity
  8
1
  6
Continuous
100
AcDbCircle
 10
110.8502389999999
 20
192.7780699999999
 30
0.0
 40
3.0
100
AcDbArc
 50
90.0
 51
270.0
  0
ARC
  5
BF71
330
BF24
100
AcDbEntity
  8
1
  6
Continuous
100
AcDbCircle
 10
110.8398219999999
 20
139.02767
 30
0.0
 40
3.000017999999998
100
AcDbArc
 50
89.80105700000001
 51
270.1989429999999
  0
LINE
  5
BF72
330
BF24
100
AcDbEntity
  8
1
  6
Continuous
100
AcDbLine
 10
125.6002389999999
 20
133.0276699999998
 30
0.0
 11
125.9002389999998
 21
136.02767
 31
0.0
  0
LINE
  5
BF73
330
BF24
100
AcDbEntity
  8
1
  6
Continuous
100
AcDbLine
 10
114.3002389999999
 20
136.02767
 30
0.0
 11
114.6002389999999
 21
133.0276699999998
 31
0.0
  0
ARC
  5
BF74
330
BF24
100
AcDbEntity
  8
1
  6
Continuous
100
AcDbCircle
 10
120.1002389999999
 20
131.921003
 30
0.0
 40
7.106666999999997
100
AcDbArc
 50
35.30024799999999
 51
144.6997519999999
  0
LINE
  5
BF75
330
BF24
100
AcDbEntity
  8
1
  6
Continuous
100
AcDbLine
 10
131.3502389999999
 20
133.52767
 30
0.0
 11
131.3502389999999
 21
144.02767
 31
0.0
  0
ARC
  5
BF76
330
BF24
100
AcDbEntity
  8
1
  6
Continuous
100
AcDbCircle
 10
136.3502389999998
 20
143.5511699999999
 30
0.0
 40
1.0
100
AcDbArc
 50
0.0
 51
28.45706
  0
ARC
  5
BF77
330
BF24
100
AcDbEntity
  8
1
  6
Continuous
100
AcDbCircle
 10
136.3502389999998
 20
134.00417
 30
0.0
 40
1.0
100
AcDbArc
 50
331.5429399999998
 51
0.0
  0
LINE
  5
BF78
330
BF24
100
AcDbEntity
  8
1
  6
Continuous
100
AcDbLine
 10
133.323584
 20
141.02767
 30
0.0
 11
135.5502389999998
 21
141.02767
 31
0.0
  0
LINE
  5
BF79
330
BF24
100
AcDbEntity
  8
1
  6
Continuous
100
AcDbLine
 10
133.323584
 20
136.52767
 30
0.0
 11
135.5502389999998
 21
136.52767
 31
0.0
  0
ARC
  5
BF7A
330
BF24
100
AcDbEntity
  8
1
  6
Continuous
100
AcDbCircle
 10
134.436911
 20
142.4280369999999
 30
0.0
 40
6.004484999999997
100
AcDbArc
 50
239.065273
 51
259.3146159999998
  0
ARC
  5
BF7B
330
BF24
100
AcDbEntity
  8
1
  6
Continuous
100
AcDbCircle
 10
134.436911
 20
135.1273019999999
 30
0.0
 40
6.004484999999997
100
AcDbArc
 50
60.974955
 51
79.314616
  0
ARC
  5
BF7C
330
BF24
100
AcDbEntity
  8
1
  6
Continuous
100
AcDbCircle
 10
134.436911
 20
135.1273019999999
 30
0.0
 40
6.004484999999997
100
AcDbArc
 50
100.6853839999999
 51
120.934727
  0
ARC
  5
BF7D
330
BF24
100
AcDbEntity
  8
1
  6
Continuous
100
AcDbCircle
 10
134.436911
 20
142.4280369999999
 30
0.0
 40
6.004484999999997
100
AcDbArc
 50
280.685384
 51
299.0250449999999
  0
LINE
  5
BF7E
330
BF24
100
AcDbEntity
  8
1
  6
Continuous
100
AcDbLine
 10
133.323584
 20
142.3276699999999
 30
0.0
 11
135.5502389999998
 21
142.3276699999999
 31
0.0
  0
LINE
  5
BF7F
330
BF24
100
AcDbEntity
  8
1
  6
Continuous
100
AcDbLine
 10
133.323584
 20
135.2276699999999
 30
0.0
 11
135.5502389999998
 21
135.2276699999999
 31
0.0
  0
ARC
  5
BF80
330
BF24
100
AcDbEntity
  8
1
  6
Continuous
100
AcDbCircle
 10
134.436911
 20
148.2280369999998
 30
0.0
 40
6.004484999999997
100
AcDbArc
 50
239.065273
 51
259.3146159999998
  0
ARC
  5
BF81
330
BF24
100
AcDbEntity
  8
1
  6
Continuous
100
AcDbCircle
 10
134.436911
 20
129.3273019999998
 30
0.0
 40
6.004484999999997
100
AcDbArc
 50
60.974955
 51
79.314616
  0
ARC
  5
BF82
330
BF24
100
AcDbEntity
  8
1
  6
Continuous
100
AcDbCircle
 10
134.436911
 20
129.3273019999998
 30
0.0
 40
6.004484999999997
100
AcDbArc
 50
100.6853839999999
 51
120.934727
  0
ARC
  5
BF83
330
BF24
100
AcDbEntity
  8
1
  6
Continuous
100
AcDbCircle
 10
134.436911
 20
148.2280369999998
 30
0.0
 40
6.004484999999997
100
AcDbArc
 50
280.685384
 51
299.0250449999999
  0
LINE
  5
BF84
330
BF24
100
AcDbEntity
  8
1
  6
Continuous
100
AcDbLine
 10
129.350239
 20
143.2776699999998
 30
0.0
 11
131.3502389999999
 21
143.2776699999998
 31
0.0
  0
LINE
  5
BF85
330
BF24
100
AcDbEntity
  8
1
  6
Continuous
100
AcDbLine
 10
129.350239
 20
134.2776699999998
 30
0.0
 11
131.3502389999999
 21
134.2776699999998
 31
0.0
  0
ARC
  5
BF86
330
BF24
100
AcDbEntity
  8
1
  6
Continuous
100
AcDbCircle
 10
134.289826
 20
140.0018629999999
 30
0.0
 40
7.110299
100
AcDbArc
 50
245.5797249999998
 51
254.238518
  0
ARC
  5
BF87
330
BF24
100
AcDbEntity
  8
1
  6
Continuous
100
AcDbCircle
 10
134.289826
 20
137.5534759999998
 30
0.0
 40
7.110299
100
AcDbArc
 50
65.57972499999999
 51
74.24076499999998
  0
ARC
  5
BF88
330
BF24
100
AcDbEntity
  8
1
  6
Continuous
100
AcDbCircle
 10
134.289826
 20
137.5534759999998
 30
0.0
 40
7.110299
100
AcDbArc
 50
105.7592349999999
 51
114.420275
  0
ARC
  5
BF89
330
BF24
100
AcDbEntity
  8
1
  6
Continuous
100
AcDbCircle
 10
134.289826
 20
140.0018629999999
 30
0.0
 40
7.110299
100
AcDbArc
 50
285.761482
 51
294.420275
  0
LINE
  5
BF8A
330
BF24
100
AcDbEntity
  8
1
  6
Continuous
100
AcDbLine
 10
129.350239
 20
197.2780699999999
 30
0.0
 11
131.3502389999999
 21
197.2780699999999
 31
0.0
  0
LINE
  5
BF8B
330
BF24
100
AcDbEntity
  8
1
  6
Continuous
100
AcDbLine
 10
129.350239
 20
188.2780699999999
 30
0.0
 11
131.3502389999999
 21
188.2780699999999
 31
0.0
  0
LINE
  5
BF8C
330
BF24
100
AcDbEntity
  8
1
  6
Continuous
100
AcDbLine
 10
131.3502389999999
 20
187.7780699999999
 30
0.0
 11
131.3502389999999
 21
197.7780699999999
 31
0.0
  0
LINE
  5
BF8D
330
BF24
100
AcDbEntity
  8
1
  6
Continuous
100
AcDbLine
 10
131.3502389999999
 20
197.7780699999999
 30
0.0
 11
136.3502389999998
 21
197.7780699999999
 31
0.0
  0
LINE
  5
BF8E
330
BF24
100
AcDbEntity
  8
1
  6
Continuous
100
AcDbLine
 10
131.3502389999999
 20
187.7780699999999
 30
0.0
 11
136.3502389999998
 21
187.7780699999999
 31
0.0
  0
LINE
  5
BF8F
330
BF24
100
AcDbEntity
  8
1
  6
Continuous
100
AcDbLine
 10
137.3502389999998
 20
188.77807
 30
0.0
 11
137.3502389999998
 21
196.7780699999999
 31
0.0
  0
LINE
  5
BF90
330
BF24
100
AcDbEntity
  8
1
  6
Continuous
100
AcDbLine
 10
133.589369
 20
193.2780699999999
 30
0.0
 11
135.5502389999998
 21
193.2780699999999
 31
0.0
  0
LINE
  5
BF91
330
BF24
100
AcDbEntity
  8
1
  6
Continuous
100
AcDbLine
 10
133.589369
 20
192.2780699999999
 30
0.0
 11
135.5502389999998
 21
192.2780699999999
 31
0.0
  0
ARC
  5
BF92
330
BF24
100
AcDbEntity
  8
1
  6
Continuous
100
AcDbCircle
 10
134.569804
 20
197.1628519999999
 30
0.0
 40
4.006592999999998
100
AcDbArc
 50
216.5279299999999
 51
255.8355779999999
  0
ARC
  5
BF93
330
BF24
100
AcDbEntity
  8
1
  6
Continuous
100
AcDbCircle
 10
134.569804
 20
188.3932869999999
 30
0.0
 40
4.006592999999998
100
AcDbArc
 50
46.05521399999997
 51
75.835578
  0
ARC
  5
BF94
330
BF24
100
AcDbEntity
  8
1
  6
Continuous
100
AcDbCircle
 10
134.569804
 20
197.1628519999999
 30
0.0
 40
4.006592999999998
100
AcDbArc
 50
284.164422
 51
313.9447859999999
  0
ARC
  5
BF95
330
BF24
100
AcDbEntity
  8
1
  6
Continuous
100
AcDbCircle
 10
134.569804
 20
188.3932869999999
 30
0.0
 40
4.006592999999998
100
AcDbArc
 50
104.164422
 51
143.4720699999998
  0
ARC
  5
BF96
330
BF24
100
AcDbEntity
  8
1
  6
Continuous
100
AcDbCircle
 10
136.3502389999998
 20
196.7780699999999
 30
0.0
 40
1.0
100
AcDbArc
 50
0.0
 51
90.0
  0
ARC
  5
BF97
330
BF24
100
AcDbEntity
  8
1
  6
Continuous
100
AcDbCircle
 10
136.3502389999998
 20
188.77807
 30
0.0
 40
1.0
100
AcDbArc
 50
270.0
 51
0.0
  0
ARC
  5
BF98
330
BF24
100
AcDbEntity
  8
1
  6
Continuous
100
AcDbCircle
 10
134.714562
 20
191.9679119999999
 30
0.0
 40
5.869947999999999
100
AcDbArc
 50
64.77410899999999
 51
81.81526300000001
  0
ARC
  5
BF99
330
BF24
100
AcDbEntity
  8
1
  6
Continuous
100
AcDbCircle
 10
134.714562
 20
193.5882279999999
 30
0.0
 40
5.869947999999999
100
AcDbArc
 50
235.030267
 51
261.815263
  0
ARC
  5
BF9A
330
BF24
100
AcDbEntity
  8
1
  6
Continuous
100
AcDbCircle
 10
134.714562
 20
191.9679119999999
 30
0.0
 40
5.869947999999999
100
AcDbArc
 50
98.184737
 51
124.969733
  0
ARC
  5
BF9B
330
BF24
100
AcDbEntity
  8
1
  6
Continuous
100
AcDbCircle
 10
134.714562
 20
193.5882279999999
 30
0.0
 40
5.869947999999999
100
AcDbArc
 50
278.1847369999999
 51
295.225891
  0
ARC
  5
BF9C
330
BF24
100
AcDbEntity
  8
1
  6
Continuous
100
AcDbCircle
 10
207.4504769999998
 20
138.777708
 30
0.0
 40
4.5
100
AcDbArc
 50
190.240348
 51
349.759652
  0
ARC
  5
BF9D
330
BF24
100
AcDbEntity
  8
1
  6
Continuous
100
AcDbCircle
 10
207.4504769999998
 20
138.777708
 30
0.0
 40
4.5
100
AcDbArc
 50
10.24034799999999
 51
169.7596519999999
  0
LINE
  5
BF9E
330
BF24
100
AcDbEntity
  8
1
  6
Continuous
100
AcDbLine
 10
215.200477
 20
134.527708
 30
0.0
 11
214.5916269999999
 21
139.702932
 31
0.0
  0
LINE
  5
BF9F
330
BF24
100
AcDbEntity
  8
1
  6
Continuous
100
AcDbLine
 10
199.700477
 20
134.527708
 30
0.0
 11
200.3093269999999
 21
139.702932
 31
0.0
  0
LINE
  5
BFA0
330
BF24
100
AcDbEntity
  8
1
  6
Continuous
100
AcDbLine
 10
200.5381739999999
 20
133.946224
 30
0.0
 11
200.783054
 21
136.0277079999999
 31
0.0
  0
LINE
  5
BFA1
330
BF24
100
AcDbEntity
  8
1
  6
Continuous
100
AcDbLine
 10
214.362781
 20
133.946224
 30
0.0
 11
214.1179
 21
136.0277079999999
 31
0.0
  0
LINE
  5
BFA2
330
BF24
100
AcDbEntity
  8
1
  6
Continuous
100
AcDbLine
 10
136.220952
 20
144.3965099999998
 30
0.0
 11
132.3587
 21
144.3965099999998
 31
0.0
  0
LINE
  5
BFA3
330
BF24
100
AcDbEntity
  8
1
  6
Continuous
100
AcDbLine
 10
136.2212199999998
 20
133.1589059999998
 30
0.0
 11
132.3584319999999
 21
133.1589059999998
 31
0.0
  0
ARC
  5
BFA4
330
BF24
100
AcDbEntity
  8
1
  6
Continuous
100
AcDbCircle
 10
207.4504769999998
 20
138.581587
 30
0.0
 40
6.446082999999998
100
AcDbArc
 50
14.168254
 51
165.831746
  0
ARC
  5
BFA5
330
BF24
100
AcDbEntity
  8
1
  6
Continuous
100
AcDbCircle
 10
201.799053
 20
139.5276699999998
 30
0.0
 40
1.5
100
AcDbArc
 50
102.599855
 51
173.2901629999998
  0
ARC
  5
BFA6
330
BF24
100
AcDbEntity
  8
1
  6
Continuous
100
AcDbCircle
 10
213.101902
 20
139.5276699999998
 30
0.0
 40
1.5
100
AcDbArc
 50
6.709836999999998
 51
77.40014499999998
  0
LINE
  5
BFA7
330
BF24
100
AcDbEntity
  8
1
  6
Continuous
100
AcDbLine
 10
200.9504769999999
 20
135.172708
 30
0.0
 11
203.694521
 21
135.172708
 31
0.0
  0
LINE
  5
BFA8
330
BF24
100
AcDbEntity
  8
1
  6
Continuous
100
AcDbLine
 10
213.950477
 20
96.5
 30
0.0
 11
213.950477
 21
135.172708
 31
0.0
  0
LINE
  5
BFA9
330
BF24
100
AcDbEntity
  8
1
  6
Continuous
100
AcDbLine
 10
200.9504769999999
 20
96.5
 30
0.0
 11
200.9504769999999
 21
135.172708
 31
0.0
  0
LINE
  5
BFAA
330
BF24
100
AcDbEntity
  8
1
  6
Continuous
100
AcDbLine
 10
211.2064339999998
 20
135.172708
 30
0.0
 11
213.950477
 21
135.172708
 31
0.0
  0
LINE
  5
BFAB
330
BF24
100
AcDbEntity
  8
1
  6
Continuous
100
AcDbLine
 10
100.5
 20
199.2780699999999
 30
0.0
 11
113.3002389999999
 21
199.2780699999999
 31
0.0
  0
LINE
  5
BFAC
330
BF24
100
AcDbEntity
  8
1
  6
Continuous
100
AcDbLine
 10
100.5
 20
186.2780699999999
 30
0.0
 11
113.3002389999999
 21
186.2780699999999
 31
0.0
  0
LINE
  5
BFAD
330
BF24
100
AcDbEntity
  8
1
  6
Continuous
100
AcDbLine
 10
126.9002389999998
 20
199.2780699999999
 30
0.0
 11
139.700477
 21
199.2780699999999
 31
0.0
  0
LINE
  5
BFAE
330
BF24
100
AcDbEntity
  8
1
  6
Continuous
100
AcDbLine
 10
126.9002389999998
 20
186.2780699999999
 30
0.0
 11
139.700477
 21
186.2780699999999
 31
0.0
  0
LINE
  5
BFAF
330
BF24
100
AcDbEntity
  8
4
  6
CENTER
100
AcDbLine
 10
22.0
 20
138.777708
 30
0.0
 11
43.5
 21
138.777708
 31
0.0
  0
LINE
  5
BFB0
330
BF24
100
AcDbEntity
  8
4
  6
CENTER
100
AcDbLine
 10
32.75
 20
91.5
 30
0.0
 11
32.75
 21
148.027708
 31
0.0
  0
ARC
  5
BFB1
330
BF24
100
AcDbEntity
  8
1
  6
Continuous
100
AcDbCircle
 10
32.75
 20
138.581587
 30
0.0
 40
6.446082999999998
100
AcDbArc
 50
14.168254
 51
165.831746
  0
LINE
  5
BFB2
330
BF24
100
AcDbEntity
  8
1
  6
Continuous
100
AcDbLine
 10
39.25
 20
96.5
 30
0.0
 11
39.25
 21
135.172708
 31
0.0
  0
LINE
  5
BFB3
330
BF24
100
AcDbEntity
  8
1
  6
Continuous
100
AcDbLine
 10
26.25
 20
96.5
 30
0.0
 11
26.25
 21
135.172708
 31
0.0
  0
ARC
  5
BFB4
330
BF24
100
AcDbEntity
  8
1
  6
Continuous
100
AcDbCircle
 10
26.5
 20
134.527708
 30
0.0
 40
1.5
100
AcDbArc
 50
180.0
 51
260.405932
  0
LINE
  5
BFB5
330
BF24
100
AcDbEntity
  8
1
  6
Continuous
100
AcDbLine
 10
25.0
 20
134.527708
 30
0.0
 11
25.60885
 21
139.702932
 31
0.0
  0
ARC
  5
BFB6
330
BF24
100
AcDbEntity
  8
1
  6
Continuous
100
AcDbCircle
 10
27.098576
 20
139.5276699999998
 30
0.0
 40
1.5
100
AcDbArc
 50
102.599855
 51
173.2901629999998
  0
LINE
  5
BFB7
330
BF24
100
AcDbEntity
  8
1
  6
Continuous
100
AcDbLine
 10
39.0
 20
136.0277079999999
 30
0.0
 11
39.0
 21
140.1593959999999
 31
0.0
  0
LINE
  5
BFB8
330
BF24
100
AcDbEntity
  8
1
  6
Continuous
100
AcDbLine
 10
37.68761400000001
 20
136.0277079999999
 30
0.0
 11
39.41742299999999
 21
136.0277079999999
 31
0.0
  0
ARC
  5
BFB9
330
BF24
100
AcDbEntity
  8
1
  6
Continuous
100
AcDbCircle
 10
39.0
 20
134.527708
 30
0.0
 40
1.5
100
AcDbArc
 50
279.594068
 51
0.0
  0
LINE
  5
BFBA
330
BF24
100
AcDbEntity
  8
1
  6
Continuous
100
AcDbLine
 10
39.662304
 20
133.946224
 30
0.0
 11
39.25
 21
133.92767
 31
0.0
  0
LINE
  5
BFBB
330
BF24
100
AcDbEntity
  8
1
  6
Continuous
100
AcDbLine
 10
40.49999999999999
 20
134.527708
 30
0.0
 11
39.89115
 21
139.702932
 31
0.0
  0
LINE
  5
BFBC
330
BF24
100
AcDbEntity
  8
1
  6
Continuous
100
AcDbLine
 10
39.662304
 20
133.946224
 30
0.0
 11
39.41742299999999
 21
136.0277079999999
 31
0.0
  0
ARC
  5
BFBD
330
BF24
100
AcDbEntity
  8
1
  6
Continuous
100
AcDbCircle
 10
38.40142399999999
 20
139.5276699999998
 30
0.0
 40
1.5
100
AcDbArc
 50
6.709836999999998
 51
77.40014499999998
  0
LINE
  5
BFBE
330
BF24
100
AcDbEntity
  8
1
  6
Continuous
100
AcDbLine
 10
26.5
 20
136.0277079999999
 30
0.0
 11
26.5
 21
140.1593959999999
 31
0.0
  0
LINE
  5
BFBF
330
BF24
100
AcDbEntity
  8
1
  6
Continuous
100
AcDbLine
 10
25.837696
 20
133.946224
 30
0.0
 11
26.25
 21
133.92767
 31
0.0
  0
LINE
  5
BFC0
330
BF24
100
AcDbEntity
  8
1
  6
Continuous
100
AcDbLine
 10
25.837696
 20
133.946224
 30
0.0
 11
26.082577
 21
136.0277079999999
 31
0.0
  0
LINE
  5
BFC1
330
BF24
100
AcDbEntity
  8
1
  6
Continuous
100
AcDbLine
 10
26.082577
 20
136.0277079999999
 30
0.0
 11
27.812386
 21
136.0277079999999
 31
0.0
  0
LINE
  5
BFC2
330
BF24
100
AcDbEntity
  8
1
  6
Continuous
100
AcDbLine
 10
26.25
 20
135.172708
 30
0.0
 11
39.25
 21
135.172708
 31
0.0
  0
CIRCLE
  5
BFC3
330
BF24
100
AcDbEntity
  8
1
  6
Continuous
100
AcDbCircle
 10
32.75
 20
139.02767
 30
0.0
 40
3.0
  0
LINE
  5
BFC4
330
BF24
100
AcDbEntity
  8
1
  6
Continuous
100
AcDbLine
 10
29.76504099999999
 20
139.327708
 30
0.0
 11
28.74612899999998
 21
136.6697609999999
 31
0.0
  0
LINE
  5
BFC5
330
BF24
100
AcDbEntity
  8
1
  6
Continuous
100
AcDbLine
 10
35.73495900000001
 20
139.327708
 30
0.0
 11
36.753871
 21
136.6697609999999
 31
0.0
  0
ARC
  5
BFC6
330
BF24
100
AcDbEntity
  8
1
  6
Continuous
100
AcDbCircle
 10
37.68761400000001
 20
137.0277079999999
 30
0.0
 40
1.0
100
AcDbArc
 50
200.9741219999999
 51
270.0
  0
ARC
  5
BFC7
330
BF24
100
AcDbEntity
  8
1
  6
Continuous
100
AcDbCircle
 10
27.812386
 20
137.0277079999999
 30
0.0
 40
1.0
100
AcDbArc
 50
270.0
 51
339.0258779999999
  0
LINE
  5
BFC8
330
BF24
100
AcDbEntity
  8
4
  6
CENTER
100
AcDbLine
 10
120.1002389999999
 20
38.0
 30
0.0
 11
120.1002389999999
 21
59.5
 31
0.0
  0
LINE
  5
BFC9
330
BF24
100
AcDbEntity
  8
1
  6
Continuous
100
AcDbLine
 10
100.5
 20
42.25
 30
0.0
 11
139.700477
 21
42.25
 31
0.0
  0
LINE
  5
BFCA
330
BF24
100
AcDbEntity
  8
1
  6
Continuous
100
AcDbLine
 10
114.3002389999999
 20
41.0
 30
0.0
 11
125.9002389999998
 21
41.0
 31
0.0
  0
LINE
  5
BFCB
330
BF24
100
AcDbEntity
  8
1
  6
Continuous
100
AcDbLine
 10
100.5
 20
55.25
 30
0.0
 11
139.700477
 21
55.25
 31
0.0
  0
LINE
  5
BFCC
330
BF24
100
AcDbEntity
  8
4
  6
CENTER
100
AcDbLine
 10
95.5
 20
48.75
 30
0.0
 11
144.700477
 21
48.75
 31
0.0
  0
LINE
  5
BFCD
330
BF24
100
AcDbEntity
  8
1
  6
Continuous
100
AcDbLine
 10
114.3002389999999
 20
56.5
 30
0.0
 11
125.9002389999998
 21
56.5
 31
0.0
  0
LINE
  5
BFCE
330
BF24
100
AcDbEntity
  8
1
  6
Continuous
100
AcDbLine
 10
114.4780439999999
 20
134.249619
 30
0.0
 11
109.447834
 21
131.1911519999999
 31
0.0
  0
LINE
  5
BFCF
330
BF24
100
AcDbEntity
  8
1
  6
Continuous
100
AcDbLine
 10
114.5442389999999
 20
133.5876649999998
 30
0.0
 11
109.75955
 21
130.678479
 31
0.0
  0
LINE
  5
BFD0
330
BF24
100
AcDbEntity
  8
1
  6
Continuous
100
AcDbLine
 10
109.447834
 20
131.1911519999999
 30
0.0
 11
109.75955
 21
130.678479
 31
0.0
  0
LINE
  5
BFD1
330
BF24
100
AcDbEntity
  8
1
  6
Continuous
100
AcDbLine
 10
110.7295169999999
 20
131.9704399999999
 30
0.0
 11
111.041232
 21
131.457767
 31
0.0
  0
ARC
  5
BFD2
330
BF24
100
AcDbEntity
  8
5
  6
PHANTOM
100
AcDbCircle
 10
120.3532269999999
 20
120.334631
 30
0.0
 40
15.000239
100
AcDbArc
 50
113.0135489999998
 51
68.990166
  0
ARC
  5
BFD3
330
BF24
100
AcDbEntity
  8
1
  6
Continuous
100
AcDbCircle
 10
120.1002389999999
 20
116.1002389999999
 30
0.0
 40
19.000239
100
AcDbArc
 50
107.2115899999999
 51
72.78840999999999
  0
ARC
  5
BFD4
330
BF24
100
AcDbEntity
  8
1
  6
Continuous
100
AcDbCircle
 10
120.1002389999999
 20
116.1002389999999
 30
0.0
 40
19.60023899999999
100
AcDbArc
 50
106.8549399999999
 51
73.14506
  0
ARC
  5
BFD5
330
BF24
100
AcDbEntity
  8
1
  6
Continuous
100
AcDbCircle
 10
120.1002389999999
 20
116.1002389999999
 30
0.0
 40
20.20023899999999
100
AcDbArc
 50
24.62177399999999
 51
73.480124
  0
ARC
  5
BFD6
330
BF24
100
AcDbEntity
  8
5
  6
PHANTOM
100
AcDbCircle
 10
120.3532269999999
 20
120.334631
 30
0.0
 40
15.600239
100
AcDbArc
 50
112.3283229999999
 51
69.59213100000001
  0
ARC
  5
BFD7
330
BF24
100
AcDbEntity
  8
5
  6
PHANTOM
100
AcDbCircle
 10
120.3532269999999
 20
120.334631
 30
0.0
 40
16.200239
100
AcDbArc
 50
287.066189
 51
70.14803
  0
LINE
  5
BFD8
330
BF24
100
AcDbEntity
  8
5
  6
PHANTOM
100
AcDbLine
 10
124.931737
 20
105.421392
 30
0.0
 11
125.107612
 21
104.847748
 31
0.0
  0
LINE
  5
BFD9
330
BF24
100
AcDbEntity
  8
4
  6
CENTER
100
AcDbLine
 10
21.25
 20
116.1002389999999
 30
0.0
 11
44.24999999999999
 21
116.1002389999999
 31
0.0
  0
LINE
  5
BFDA
330
BF24
100
AcDbEntity
  8
1
  6
Continuous
100
AcDbLine
 10
213.950477
 20
96.5
 30
0.0
 11
200.9504769999999
 21
96.5
 31
0.0
  0
LINE
  5
BFDB
330
BF24
100
AcDbEntity
  8
1
  6
Continuous
100
AcDbLine
 10
100.5
 20
42.25
 30
0.0
 11
100.5
 21
55.25
 31
0.0
  0
LINE
  5
BFDC
330
BF24
100
AcDbEntity
  8
1
  6
Continuous
100
AcDbLine
 10
138.463828
 20
124.5161889999998
 30
0.0
 11
137.918381
 21
124.266213
 31
0.0
  0
LINE
  5
BFDD
330
BF24
100
AcDbEntity
  8
1
  6
Continuous
100
AcDbLine
 10
139.700477
 20
42.25
 30
0.0
 11
139.700477
 21
55.25
 31
0.0
  0
LINE
  5
BFDE
330
BF24
100
AcDbEntity
  8
4
  6
CENTER
100
AcDbLine
 10
95.5
 20
116.1002389999999
 30
0.0
 11
144.700477
 21
116.1002389999999
 31
0.0
  0
LINE
  5
BFDF
330
BF24
100
AcDbEntity
  8
4
  6
CENTER
100
AcDbLine
 10
195.950477
 20
116.1002389999999
 30
0.0
 11
218.950477
 21
116.1002389999999
 31
0.0
  0
LINE
  5
BFE0
330
BF24
100
AcDbEntity
  8
1
  6
Continuous
100
AcDbLine
 10
39.25
 20
96.5
 30
0.0
 11
26.25
 21
96.5
 31
0.0
  0
LINE
  5
BFE1
330
BF24
100
AcDbEntity
  8
1
  6
Continuous
100
AcDbLine
 10
100.5
 20
199.2780699999999
 30
0.0
 11
100.5
 21
186.2780699999999
 31
0.0
  0
LINE
  5
BFE2
330
BF24
100
AcDbEntity
  8
1
  6
Continuous
100
AcDbLine
 10
139.700477
 20
199.2780699999999
 30
0.0
 11
139.700477
 21
186.2780699999999
 31
0.0
  0
LINE
  5
BFE3
330
BF24
100
AcDbEntity
  8
1
  6
Continuous
100
AcDbLine
 10
213.946448
 20
125.6391419999998
 30
0.0
 11
212.309507
 21
124.656977
 31
0.0
  0
LINE
  5
BFE4
330
BF24
100
AcDbEntity
  8
1
  6
Continuous
100
AcDbLine
 10
211.537348
 20
124.548235
 30
0.0
 11
207.7041099999999
 21
125.570432
 31
0.0
  0
LINE
  5
BFE5
330
BF24
100
AcDbEntity
  8
1
  6
Continuous
100
AcDbLine
 10
207.1887849999999
 20
125.570432
 30
0.0
 11
203.363152
 21
124.5502629999998
 31
0.0
  0
LINE
  5
BFE6
330
BF24
100
AcDbEntity
  8
1
  6
Continuous
100
AcDbLine
 10
202.5796259999999
 20
124.665928
 30
0.0
 11
200.946448
 21
125.6756379999999
 31
0.0
  0
LINE
  5
BFE7
330
BF24
100
AcDbEntity
  8
1
  6
Continuous
100
AcDbLine
 10
200.946448
 20
125.427376
 30
0.0
 11
202.579454
 21
124.4163729999998
 31
0.0
  0
LINE
  5
BFE8
330
BF24
100
AcDbEntity
  8
1
  6
Continuous
100
AcDbLine
 10
203.3635069999998
 20
124.300382
 30
0.0
 11
207.1887849999999
 21
125.3204559999999
 31
0.0
  0
LINE
  5
BFE9
330
BF24
100
AcDbEntity
  8
1
  6
Continuous
100
AcDbLine
 10
207.7041099999999
 20
125.3204559999999
 30
0.0
 11
211.537348
 21
124.2982589999999
 31
0.0
  0
LINE
  5
BFEA
330
BF24
100
AcDbEntity
  8
1
  6
Continuous
100
AcDbLine
 10
212.309507
 20
124.4070009999998
 30
0.0
 11
213.946448
 21
125.3891659999998
 31
0.0
  0
ARC
  5
BFEB
330
BF24
100
AcDbEntity
  8
1
  6
Continuous
100
AcDbCircle
 10
211.7950109999999
 20
125.2644939999999
 30
0.0
 40
1.0
100
AcDbArc
 50
255.0685829999999
 51
300.9637569999998
  0
ARC
  5
BFEC
330
BF24
100
AcDbEntity
  8
1
  6
Continuous
100
AcDbCircle
 10
203.1058439999999
 20
125.2666169999999
 30
0.0
 40
1.0
100
AcDbArc
 50
238.238133
 51
284.9314169999999
  0
ARC
  5
BFED
330
BF24
100
AcDbEntity
  8
1
  6
Continuous
100
AcDbCircle
 10
203.1054889999999
 20
125.5164979999999
 30
0.0
 40
1.0
100
AcDbArc
 50
238.273652
 51
284.9314169999999
  0
ARC
  5
BFEE
330
BF24
100
AcDbEntity
  8
1
  6
Continuous
100
AcDbCircle
 10
211.7950109999999
 20
125.51447
 30
0.0
 40
1.0
100
AcDbArc
 50
255.0685829999999
 51
300.9637569999998
  0
ARC
  5
BFEF
330
BF24
100
AcDbEntity
  8
1
  6
Continuous
100
AcDbCircle
 10
207.446448
 20
124.3542209999999
 30
0.0
 40
1.0
100
AcDbArc
 50
75.06858299999997
 51
104.9314169999999
  0
ARC
  5
BFF0
330
BF24
100
AcDbEntity
  8
1
  6
Continuous
100
AcDbCircle
 10
207.446448
 20
124.604197
 30
0.0
 40
1.0
100
AcDbArc
 50
75.06858299999997
 51
104.9314169999999
  0
LINE
  5
BFF1
330
BF24
100
AcDbEntity
  8
1
  6
Continuous
100
AcDbLine
 10
114.3002389999999
 20
56.5
 30
0.0
 11
114.3002389999999
 21
55.25
 31
0.0
  0
LINE
  5
BFF2
330
BF24
100
AcDbEntity
  8
1
  6
Continuous
100
AcDbLine
 10
125.9002389999998
 20
56.5
 30
0.0
 11
125.9002389999998
 21
55.25
 31
0.0
  0
LINE
  5
BFF3
330
BF24
100
AcDbEntity
  8
1
  6
Continuous
100
AcDbLine
 10
114.3002389999999
 20
42.25
 30
0.0
 11
114.3002389999999
 21
41.0
 31
0.0
  0
LINE
  5
BFF4
330
BF24
100
AcDbEntity
  8
1
  6
Continuous
100
AcDbLine
 10
125.9002389999998
 20
42.25
 30
0.0
 11
125.9002389999998
 21
41.0
 31
0.0
  0
LINE
  5
BFF5
330
BF24
100
AcDbEntity
  8
1
  6
Continuous
100
AcDbLine
 10
207.4504769999998
 20
127.261229
 30
0.0
 11
204.5649769999999
 21
127.261229
 31
0.0
  0
LINE
  5
BFF6
330
BF24
100
AcDbEntity
  8
1
  6
Continuous
100
AcDbLine
 10
207.4504769999998
 20
132.58975
 30
0.0
 11
204.487977
 21
132.58975
 31
0.0
  0
ARC
  5
BFF7
330
BF24
100
AcDbEntity
  8
1
  6
Continuous
100
AcDbCircle
 10
204.5649769999999
 20
126.996729
 30
0.0
 40
0.2645
100
AcDbArc
 50
90.0
 51
270.0
  0
ARC
  5
BFF8
330
BF24
100
AcDbEntity
  8
1
  6
Continuous
100
AcDbCircle
 10
210.3359769999999
 20
126.4680639999999
 30
0.0
 40
0.2645
100
AcDbArc
 50
259.53181
 51
90.0
  0
LINE
  5
BFF9
330
BF24
100
AcDbEntity
  8
1
  6
Continuous
100
AcDbLine
 10
207.4504769999998
 20
127.261229
 30
0.0
 11
210.3359769999999
 21
126.7325639999999
 31
0.0
  0
LINE
  5
BFFA
330
BF24
100
AcDbEntity
  8
1
  6
Continuous
100
AcDbLine
 10
204.5649769999999
 20
126.732229
 30
0.0
 11
210.28792
 21
126.2079659999999
 31
0.0
  0
LINE
  5
BFFB
330
BF24
100
AcDbEntity
  8
1
  6
Continuous
100
AcDbLine
 10
204.5649769999999
 20
128.7162289999999
 30
0.0
 11
210.28792
 21
128.1919659999998
 31
0.0
  0
ARC
  5
BFFC
330
BF24
100
AcDbEntity
  8
1
  6
Continuous
100
AcDbCircle
 10
210.3359769999999
 20
128.4520639999997
 30
0.0
 40
0.2645
100
AcDbArc
 50
259.53181
 51
90.0
  0
LINE
  5
BFFD
330
BF24
100
AcDbEntity
  8
1
  6
Continuous
100
AcDbLine
 10
207.4504769999998
 20
129.2452289999999
 30
0.0
 11
210.3359769999999
 21
128.7165639999997
 31
0.0
  0
LINE
  5
BFFE
330
BF24
100
AcDbEntity
  8
1
  6
Continuous
100
AcDbLine
 10
207.4504769999998
 20
129.2452289999999
 30
0.0
 11
204.5649769999999
 21
129.2452289999999
 31
0.0
  0
ARC
  5
BFFF
330
BF24
100
AcDbEntity
  8
1
  6
Continuous
100
AcDbCircle
 10
204.5649769999999
 20
128.9807289999999
 30
0.0
 40
0.2645
100
AcDbArc
 50
90.0
 51
270.0
  0
LINE
  5
C000
330
BF24
100
AcDbEntity
  8
1
  6
Continuous
100
AcDbLine
 10
204.5649769999999
 20
130.5022289999998
 30
0.0
 11
210.28792
 21
129.9779659999997
 31
0.0
  0
LINE
  5
C001
330
BF24
100
AcDbEntity
  8
1
  6
Continuous
100
AcDbLine
 10
207.4504769999998
 20
131.0312289999999
 30
0.0
 11
210.3359769999999
 21
130.5025639999997
 31
0.0
  0
ARC
  5
C002
330
BF24
100
AcDbEntity
  8
1
  6
Continuous
100
AcDbCircle
 10
210.3359769999999
 20
130.2380639999997
 30
0.0
 40
0.2645
100
AcDbArc
 50
259.53181
 51
90.0
  0
LINE
  5
C003
330
BF24
100
AcDbEntity
  8
1
  6
Continuous
100
AcDbLine
 10
207.4504769999998
 20
131.0312289999999
 30
0.0
 11
204.5649769999999
 21
131.0312289999999
 31
0.0
  0
ARC
  5
C004
330
BF24
100
AcDbEntity
  8
1
  6
Continuous
100
AcDbCircle
 10
204.5649769999999
 20
130.7667289999999
 30
0.0
 40
0.2645
100
AcDbArc
 50
90.0
 51
270.0
  0
ARC
  5
C005
330
BF24
100
AcDbEntity
  8
1
  6
Continuous
100
AcDbCircle
 10
204.487977
 20
132.40225
 30
0.0
 40
0.1875
100
AcDbArc
 50
90.0
 51
270.0
  0
ARC
  5
C006
330
BF24
100
AcDbEntity
  8
1
  6
Continuous
100
AcDbCircle
 10
210.412977
 20
132.027673
 30
0.0
 40
0.1875
100
AcDbArc
 50
262.7651809999999
 51
90.0
  0
LINE
  5
C007
330
BF24
100
AcDbEntity
  8
1
  6
Continuous
100
AcDbLine
 10
204.487977
 20
132.21475
 30
0.0
 11
210.3893639999999
 21
131.841666
 31
0.0
  0
LINE
  5
C008
330
BF24
100
AcDbEntity
  8
1
  6
Continuous
100
AcDbLine
 10
210.412977
 20
132.2151729999999
 30
0.0
 11
207.4504769999998
 21
132.58975
 31
0.0
  0
LINE
  5
C009
330
BF24
100
AcDbEntity
  8
1
  6
Continuous
100
AcDbLine
 10
204.487977
 20
133.52375
 30
0.0
 11
206.8042279999999
 21
133.377317
 31
0.0
  0
ARC
  5
C00A
330
BF24
100
AcDbEntity
  8
1
  6
Continuous
100
AcDbCircle
 10
210.412977
 20
133.3366729999999
 30
0.0
 40
0.1875
100
AcDbArc
 50
262.7651809999999
 51
90.0
  0
LINE
  5
C00B
330
BF24
100
AcDbEntity
  8
1
  6
Continuous
100
AcDbLine
 10
210.412977
 20
133.5241729999999
 30
0.0
 11
208.7215169999999
 21
133.7380399999998
 31
0.0
  0
LINE
  5
C00C
330
BF24
100
AcDbEntity
  8
1
  6
Continuous
100
AcDbLine
 10
205.90108
 20
133.8987499999997
 30
0.0
 11
204.487977
 21
133.8987499999997
 31
0.0
  0
ARC
  5
C00D
330
BF24
100
AcDbEntity
  8
1
  6
Continuous
100
AcDbCircle
 10
204.487977
 20
133.71125
 30
0.0
 40
0.1875
100
AcDbArc
 50
90.0
 51
270.0
  0
LINE
  5
C00E
330
BF24
100
AcDbEntity
  8
1
  6
Continuous
100
AcDbLine
 10
207.9691659999999
 20
133.3036699999998
 30
0.0
 11
210.3893639999999
 21
133.150666
 31
0.0
  0
ARC
  5
C00F
330
BF24
100
AcDbEntity
  8
1
  6
Continuous
100
AcDbCircle
 10
204.434727
 20
134.855927
 30
0.0
 40
0.13425
100
AcDbArc
 50
195.505479
 51
270.0
  0
ARC
  5
C010
330
BF24
100
AcDbEntity
  8
1
  6
Continuous
100
AcDbCircle
 10
210.4662269999999
 20
134.587251
 30
0.0
 40
0.13425
100
AcDbArc
 50
264.8988469999999
 51
90.0
  0
LINE
  5
C011
330
BF24
100
AcDbEntity
  8
1
  6
Continuous
100
AcDbLine
 10
204.434727
 20
134.7216769999998
 30
0.0
 11
204.479157
 21
134.7196969999999
 31
0.0
  0
LINE
  5
C012
330
BF24
100
AcDbEntity
  8
1
  6
Continuous
100
AcDbLine
 10
210.4662269999999
 20
134.7215009999999
 30
0.0
 11
210.430443
 21
134.7246889999998
 31
0.0
  0
LINE
  5
C013
330
BF24
100
AcDbEntity
  8
1
  6
Continuous
100
AcDbLine
 10
209.9961359999999
 20
134.473941
 30
0.0
 11
210.454291
 21
134.453533
 31
0.0
  0
LINE
  5
C014
330
BF24
100
AcDbEntity
  8
1
  6
Continuous
100
AcDbLine
 10
105.2133839999999
 20
192.7780699999999
 30
0.0
 11
105.2133839999999
 21
189.83132
 31
0.0
  0
LINE
  5
C015
330
BF24
100
AcDbEntity
  8
1
  6
Continuous
100
AcDbLine
 10
102.5532239999999
 20
192.7780699999999
 30
0.0
 11
102.5532239999999
 21
189.7708199999999
 31
0.0
  0
LINE
  5
C016
330
BF24
100
AcDbEntity
  8
1
  6
Continuous
100
AcDbLine
 10
101.6129929999999
 20
192.7780699999999
 30
0.0
 11
101.6129929999999
 21
189.7370699999999
 31
0.0
  0
LINE
  5
C017
330
BF24
100
AcDbEntity
  8
1
  6
Continuous
100
AcDbLine
 10
100.9530099999999
 20
192.7780699999999
 30
0.0
 11
100.9530099999999
 21
189.70157
 31
0.0
  0
ARC
  5
C018
330
BF24
100
AcDbEntity
  8
1
  6
Continuous
100
AcDbCircle
 10
111.1179659999999
 20
189.92157
 30
0.0
 40
0.2935
100
AcDbArc
 50
180.0
 51
204.190298
  0
LINE
  5
C019
330
BF24
100
AcDbEntity
  8
1
  6
Continuous
100
AcDbLine
 10
110.8244659999999
 20
190.008423
 30
0.0
 11
110.8244659999999
 21
189.92157
 31
0.0
  0
LINE
  5
C01A
330
BF24
100
AcDbEntity
  8
1
  6
Continuous
100
AcDbLine
 10
109.3593209999998
 20
195.6345699999999
 30
0.0
 11
109.300155
 21
195.3465789999999
 31
0.0
  0
ARC
  5
C01B
330
BF24
100
AcDbEntity
  8
1
  6
Continuous
100
AcDbCircle
 10
109.6528209999999
 20
195.6345699999999
 30
0.0
 40
0.2935
100
AcDbArc
 50
0.0
 51
180.0
  0
LINE
  5
C01C
330
BF24
100
AcDbEntity
  8
1
  6
Continuous
100
AcDbLine
 10
108.7724659999998
 20
190.614078
 30
0.0
 11
108.7724659999998
 21
189.92157
 31
0.0
  0
ARC
  5
C01D
330
BF24
100
AcDbEntity
  8
1
  6
Continuous
100
AcDbCircle
 10
109.0659659999999
 20
189.92157
 30
0.0
 40
0.2935
100
AcDbArc
 50
180.0
 51
0.0
  0
ARC
  5
C01E
330
BF24
100
AcDbEntity
  8
1
  6
Continuous
100
AcDbCircle
 10
107.7728209999998
 20
195.6345699999999
 30
0.0
 40
0.2935
100
AcDbArc
 50
0.0
 51
180.0
  0
LINE
  5
C01F
330
BF24
100
AcDbEntity
  8
1
  6
Continuous
100
AcDbLine
 10
108.0663209999999
 20
195.6345699999999
 30
0.0
 11
107.479466
 21
189.92157
 31
0.0
  0
LINE
  5
C020
330
BF24
100
AcDbEntity
  8
1
  6
Continuous
100
AcDbLine
 10
107.4793209999999
 20
195.6345699999999
 30
0.0
 11
106.8924659999999
 21
192.7780699999999
 31
0.0
  0
ARC
  5
C021
330
BF24
100
AcDbEntity
  8
1
  6
Continuous
100
AcDbCircle
 10
107.1859659999998
 20
189.92157
 30
0.0
 40
0.2935
100
AcDbArc
 50
180.0
 51
0.0
  0
LINE
  5
C022
330
BF24
100
AcDbEntity
  8
1
  6
Continuous
100
AcDbLine
 10
106.8924659999999
 20
192.7780699999999
 30
0.0
 11
106.8924659999999
 21
189.92157
 31
0.0
  0
LINE
  5
C023
330
BF24
100
AcDbEntity
  8
1
  6
Continuous
100
AcDbLine
 10
109.3840379999999
 20
190.160771
 30
0.0
 11
109.3594659999999
 21
189.92157
 31
0.0
  0
ARC
  5
C024
330
BF24
100
AcDbEntity
  8
1
  6
Continuous
100
AcDbCircle
 10
105.8232429999999
 20
195.72482
 30
0.0
 40
0.20325
100
AcDbArc
 50
0.0
 51
180.0
  0
ARC
  5
C025
330
BF24
100
AcDbEntity
  8
1
  6
Continuous
100
AcDbCircle
 10
105.416634
 20
189.83132
 30
0.0
 40
0.20325
100
AcDbArc
 50
180.0
 51
0.0
  0
LINE
  5
C026
330
BF24
100
AcDbEntity
  8
1
  6
Continuous
100
AcDbLine
 10
106.0264929999999
 20
195.72482
 30
0.0
 11
105.619884
 21
189.83132
 31
0.0
  0
LINE
  5
C027
330
BF24
100
AcDbEntity
  8
1
  6
Continuous
100
AcDbLine
 10
105.2133839999999
 20
192.7780699999999
 30
0.0
 11
105.619993
 21
195.72482
 31
0.0
  0
ARC
  5
C028
330
BF24
100
AcDbEntity
  8
1
  6
Continuous
100
AcDbCircle
 10
104.369243
 20
195.72482
 30
0.0
 40
0.20325
100
AcDbArc
 50
0.0
 51
180.0
  0
LINE
  5
C029
330
BF24
100
AcDbEntity
  8
1
  6
Continuous
100
AcDbLine
 10
103.7593839999999
 20
192.7780699999999
 30
0.0
 11
104.165993
 21
195.72482
 31
0.0
  0
LINE
  5
C02A
330
BF24
100
AcDbEntity
  8
1
  6
Continuous
100
AcDbLine
 10
104.5724929999998
 20
195.72482
 30
0.0
 11
104.1658839999999
 21
189.83132
 31
0.0
  0
LINE
  5
C02B
330
BF24
100
AcDbEntity
  8
1
  6
Continuous
100
AcDbLine
 10
103.7593839999999
 20
192.7780699999999
 30
0.0
 11
103.7593839999999
 21
189.83132
 31
0.0
  0
ARC
  5
C02C
330
BF24
100
AcDbEntity
  8
1
  6
Continuous
100
AcDbCircle
 10
103.9626339999998
 20
189.83132
 30
0.0
 40
0.20325
100
AcDbArc
 50
180.0
 51
0.0
  0
ARC
  5
C02D
330
BF24
100
AcDbEntity
  8
1
  6
Continuous
100
AcDbCircle
 10
102.981388
 20
195.7853199999999
 30
0.0
 40
0.14275
100
AcDbArc
 50
0.0
 51
180.0
  0
ARC
  5
C02E
330
BF24
100
AcDbEntity
  8
1
  6
Continuous
100
AcDbCircle
 10
102.6959739999998
 20
189.7708199999999
 30
0.0
 40
0.14275
100
AcDbArc
 50
180.0
 51
0.0
  0
LINE
  5
C02F
330
BF24
100
AcDbEntity
  8
1
  6
Continuous
100
AcDbLine
 10
103.1241379999999
 20
195.7853199999999
 30
0.0
 11
102.838724
 21
189.7708199999999
 31
0.0
  0
LINE
  5
C030
330
BF24
100
AcDbEntity
  8
1
  6
Continuous
100
AcDbLine
 10
102.5532239999999
 20
192.7780699999999
 30
0.0
 11
102.838638
 21
195.7853199999999
 31
0.0
  0
ARC
  5
C031
330
BF24
100
AcDbEntity
  8
1
  6
Continuous
100
AcDbCircle
 10
101.9398709999999
 20
195.8190699999999
 30
0.0
 40
0.109
100
AcDbArc
 50
355.896698
 51
180.0
  0
LINE
  5
C032
330
BF24
100
AcDbEntity
  8
1
  6
Continuous
100
AcDbLine
 10
101.830871
 20
195.8190699999999
 30
0.0
 11
101.6129929999999
 21
192.7780699999999
 31
0.0
  0
ARC
  5
C033
330
BF24
100
AcDbEntity
  8
1
  6
Continuous
100
AcDbCircle
 10
101.721993
 20
189.7370699999999
 30
0.0
 40
0.109
100
AcDbArc
 50
180.0
 51
0.0
  0
LINE
  5
C034
330
BF24
100
AcDbEntity
  8
1
  6
Continuous
100
AcDbLine
 10
101.830993
 20
189.7370699999999
 30
0.0
 11
102.048591
 21
195.81127
 31
0.0
  0
ARC
  5
C035
330
BF24
100
AcDbEntity
  8
1
  6
Continuous
100
AcDbCircle
 10
101.173744
 20
195.8545699999999
 30
0.0
 40
0.0735
100
AcDbArc
 50
0.0
 51
180.0
  0
LINE
  5
C036
330
BF24
100
AcDbEntity
  8
1
  6
Continuous
100
AcDbLine
 10
101.1002439999999
 20
195.8545699999999
 30
0.0
 11
100.9530099999999
 21
192.7780699999999
 31
0.0
  0
ARC
  5
C037
330
BF24
100
AcDbEntity
  8
1
  6
Continuous
100
AcDbCircle
 10
101.02651
 20
189.70157
 30
0.0
 40
0.0735
100
AcDbArc
 50
180.0
 51
0.0
  0
LINE
  5
C038
330
BF24
100
AcDbEntity
  8
1
  6
Continuous
100
AcDbLine
 10
101.1000099999999
 20
189.70157
 30
0.0
 11
101.247244
 21
195.8545699999999
 31
0.0
  0
LINE
  5
C039
330
BF24
100
AcDbEntity
  8
1
  6
Continuous
100
AcDbLine
 10
100.58328
 20
189.66507
 30
0.0
 11
100.58328
 21
192.7780699999999
 31
0.0
  0
ARC
  5
C03A
330
BF24
100
AcDbEntity
  8
1
  6
Continuous
100
AcDbCircle
 10
100.6944089999998
 20
195.8910699999999
 30
0.0
 40
0.037
100
AcDbArc
 50
0.0
 51
180.0
  0
LINE
  5
C03B
330
BF24
100
AcDbEntity
  8
1
  6
Continuous
100
AcDbLine
 10
100.6574089999999
 20
195.8910699999999
 30
0.0
 11
100.58328
 21
192.7780699999999
 31
0.0
  0
ARC
  5
C03C
330
BF24
100
AcDbEntity
  8
1
  6
Continuous
100
AcDbCircle
 10
100.62028
 20
189.66507
 30
0.0
 40
0.037
100
AcDbArc
 50
180.0
 51
0.0
  0
LINE
  5
C03D
330
BF24
100
AcDbEntity
  8
1
  6
Continuous
100
AcDbLine
 10
100.65728
 20
189.66507
 30
0.0
 11
100.7314089999999
 21
195.8910699999999
 31
0.0
  0
LINE
  5
C03E
330
BF24
100
AcDbEntity
  8
1
  6
Continuous
100
AcDbLine
 10
32.75
 20
115.5002389999998
 30
0.0
 11
35.6
 21
115.5002389999998
 31
0.0
  0
LINE
  5
C03F
330
BF24
100
AcDbEntity
  8
1
  6
Continuous
100
AcDbLine
 10
32.75
 20
104.2855899999999
 30
0.0
 11
35.65375
 21
104.2855899999999
 31
0.0
  0
ARC
  5
C040
330
BF24
100
AcDbEntity
  8
1
  6
Continuous
100
AcDbCircle
 10
35.6
 20
115.8002389999999
 30
0.0
 40
0.3
100
AcDbArc
 50
270.0
 51
90.0
  0
ARC
  5
C041
330
BF24
100
AcDbEntity
  8
1
  6
Continuous
100
AcDbCircle
 10
29.9
 20
116.4002389999998
 30
0.0
 40
0.3
100
AcDbArc
 50
90.0
 51
270.0
  0
LINE
  5
C042
330
BF24
100
AcDbEntity
  8
1
  6
Continuous
100
AcDbLine
 10
29.9
 20
116.1002389999999
 30
0.0
 11
32.75
 21
115.5002389999998
 31
0.0
  0
LINE
  5
C043
330
BF24
100
AcDbEntity
  8
1
  6
Continuous
100
AcDbLine
 10
35.6
 20
116.1002389999999
 30
0.0
 11
29.9
 21
116.7002389999999
 31
0.0
  0
LINE
  5
C044
330
BF24
100
AcDbEntity
  8
1
  6
Continuous
100
AcDbLine
 10
35.6
 20
113.6902389999999
 30
0.0
 11
29.9
 21
114.2902389999999
 31
0.0
  0
LINE
  5
C045
330
BF24
100
AcDbEntity
  8
1
  6
Continuous
100
AcDbLine
 10
29.9
 20
113.6902389999999
 30
0.0
 11
32.75
 21
113.0902389999999
 31
0.0
  0
LINE
  5
C046
330
BF24
100
AcDbEntity
  8
1
  6
Continuous
100
AcDbLine
 10
32.75
 20
113.0902389999999
 30
0.0
 11
35.6
 21
113.0902389999999
 31
0.0
  0
ARC
  5
C047
330
BF24
100
AcDbEntity
  8
1
  6
Continuous
100
AcDbCircle
 10
35.6
 20
113.390239
 30
0.0
 40
0.3
100
AcDbArc
 50
270.0
 51
90.0
  0
ARC
  5
C048
330
BF24
100
AcDbEntity
  8
1
  6
Continuous
100
AcDbCircle
 10
29.9
 20
113.9902389999999
 30
0.0
 40
0.3
100
AcDbArc
 50
90.0
 51
270.0
  0
ARC
  5
C049
330
BF24
100
AcDbEntity
  8
1
  6
Continuous
100
AcDbCircle
 10
35.6
 20
111.0332389999999
 30
0.0
 40
0.3
100
AcDbArc
 50
270.0
 51
90.0
  0
LINE
  5
C04A
330
BF24
100
AcDbEntity
  8
1
  6
Continuous
100
AcDbLine
 10
32.75
 20
110.7332389999998
 30
0.0
 11
35.6
 21
110.7332389999998
 31
0.0
  0
LINE
  5
C04B
330
BF24
100
AcDbEntity
  8
1
  6
Continuous
100
AcDbLine
 10
35.6
 20
111.3332389999999
 30
0.0
 11
29.9
 21
111.9332389999998
 31
0.0
  0
ARC
  5
C04C
330
BF24
100
AcDbEntity
  8
1
  6
Continuous
100
AcDbCircle
 10
29.9
 20
111.6332389999999
 30
0.0
 40
0.3
100
AcDbArc
 50
90.0
 51
270.0
  0
LINE
  5
C04D
330
BF24
100
AcDbEntity
  8
1
  6
Continuous
100
AcDbLine
 10
29.9
 20
111.3332389999999
 30
0.0
 11
32.75
 21
110.7332389999998
 31
0.0
  0
ARC
  5
C04E
330
BF24
100
AcDbEntity
  8
1
  6
Continuous
100
AcDbCircle
 10
35.6
 20
108.7572389999998
 30
0.0
 40
0.3
100
AcDbArc
 50
270.0
 51
90.0
  0
LINE
  5
C04F
330
BF24
100
AcDbEntity
  8
1
  6
Continuous
100
AcDbLine
 10
32.75
 20
108.4572389999999
 30
0.0
 11
35.6
 21
108.4572389999999
 31
0.0
  0
LINE
  5
C050
330
BF24
100
AcDbEntity
  8
1
  6
Continuous
100
AcDbLine
 10
35.6
 20
109.0572389999999
 30
0.0
 11
29.9
 21
109.6572389999999
 31
0.0
  0
LINE
  5
C051
330
BF24
100
AcDbEntity
  8
1
  6
Continuous
100
AcDbLine
 10
29.9
 20
109.0572389999999
 30
0.0
 11
32.75
 21
108.4572389999999
 31
0.0
  0
ARC
  5
C052
330
BF24
100
AcDbEntity
  8
1
  6
Continuous
100
AcDbCircle
 10
29.9
 20
109.357239
 30
0.0
 40
0.3
100
AcDbArc
 50
90.0
 51
270.0
  0
LINE
  5
C053
330
BF24
100
AcDbEntity
  8
1
  6
Continuous
100
AcDbLine
 10
35.6
 20
106.8972389999998
 30
0.0
 11
29.9
 21
107.4972389999998
 31
0.0
  0
LINE
  5
C054
330
BF24
100
AcDbEntity
  8
1
  6
Continuous
100
AcDbLine
 10
32.75
 20
106.2972389999999
 30
0.0
 11
35.6
 21
106.2972389999999
 31
0.0
  0
ARC
  5
C055
330
BF24
100
AcDbEntity
  8
1
  6
Continuous
100
AcDbCircle
 10
35.6
 20
106.5972389999999
 30
0.0
 40
0.3
100
AcDbArc
 50
270.0
 51
90.0
  0
ARC
  5
C056
330
BF24
100
AcDbEntity
  8
1
  6
Continuous
100
AcDbCircle
 10
29.9
 20
107.1972389999999
 30
0.0
 40
0.3
100
AcDbArc
 50
90.0
 51
270.0
  0
LINE
  5
C057
330
BF24
100
AcDbEntity
  8
1
  6
Continuous
100
AcDbLine
 10
29.9
 20
106.8972389999998
 30
0.0
 11
32.75
 21
106.2972389999999
 31
0.0
  0
ARC
  5
C058
330
BF24
100
AcDbEntity
  8
1
  6
Continuous
100
AcDbCircle
 10
29.84625
 20
105.0245089999999
 30
0.0
 40
0.24625
100
AcDbArc
 50
80.30203700000001
 51
270.0
  0
ARC
  5
C059
330
BF24
100
AcDbEntity
  8
1
  6
Continuous
100
AcDbCircle
 10
35.65375
 20
104.5318399999999
 30
0.0
 40
0.24625
100
AcDbArc
 50
270.0
 51
90.0
  0
LINE
  5
C05A
330
BF24
100
AcDbEntity
  8
1
  6
Continuous
100
AcDbLine
 10
29.84625
 20
105.270759
 30
0.0
 11
35.65375
 21
104.77809
 31
0.0
  0
LINE
  5
C05B
330
BF24
100
AcDbEntity
  8
1
  6
Continuous
100
AcDbLine
 10
29.84625
 20
104.7782589999999
 30
0.0
 11
32.75
 21
104.2855899999999
 31
0.0
  0
ARC
  5
C05C
330
BF24
100
AcDbEntity
  8
1
  6
Continuous
100
AcDbCircle
 10
35.6
 20
118.200239
 30
0.0
 40
0.3
100
AcDbArc
 50
270.0
 51
90.0
  0
LINE
  5
C05D
330
BF24
100
AcDbEntity
  8
1
  6
Continuous
100
AcDbLine
 10
32.75
 20
117.9002389999999
 30
0.0
 11
35.6
 21
117.9002389999999
 31
0.0
  0
LINE
  5
C05E
330
BF24
100
AcDbEntity
  8
1
  6
Continuous
100
AcDbLine
 10
29.9
 20
118.5002389999998
 30
0.0
 11
32.75
 21
117.9002389999999
 31
0.0
  0
LINE
  5
C05F
330
BF24
100
AcDbEntity
  8
1
  6
Continuous
100
AcDbLine
 10
35.6
 20
118.5002389999998
 30
0.0
 11
29.9
 21
119.1002389999999
 31
0.0
  0
ARC
  5
C060
330
BF24
100
AcDbEntity
  8
1
  6
Continuous
100
AcDbCircle
 10
29.9
 20
118.8002389999999
 30
0.0
 40
0.3
100
AcDbArc
 50
90.0
 51
270.0
  0
LINE
  5
C061
330
BF24
100
AcDbEntity
  8
1
  6
Continuous
100
AcDbLine
 10
35.592751
 20
120.3954129999999
 30
0.0
 11
29.892751
 21
120.9954129999998
 31
0.0
  0
LINE
  5
C062
330
BF24
100
AcDbEntity
  8
1
  6
Continuous
100
AcDbLine
 10
32.742751
 20
119.7954129999999
 30
0.0
 11
35.592751
 21
119.7954129999999
 31
0.0
  0
ARC
  5
C063
330
BF24
100
AcDbEntity
  8
1
  6
Continuous
100
AcDbCircle
 10
35.592751
 20
120.0954129999998
 30
0.0
 40
0.3
100
AcDbArc
 50
270.0
 51
90.0
  0
ARC
  5
C064
330
BF24
100
AcDbEntity
  8
1
  6
Continuous
100
AcDbCircle
 10
29.892751
 20
120.6954129999999
 30
0.0
 40
0.3
100
AcDbArc
 50
90.0
 51
270.0
  0
LINE
  5
C065
330
BF24
100
AcDbEntity
  8
1
  6
Continuous
100
AcDbLine
 10
29.892751
 20
120.3954129999999
 30
0.0
 11
32.742751
 21
119.7954129999999
 31
0.0
  0
ARC
  5
C066
330
BF24
100
AcDbEntity
  8
1
  6
Continuous
100
AcDbCircle
 10
35.990584
 20
133.967205
 30
0.0
 40
0.1875
100
AcDbArc
 50
270.0
 51
90.0
  0
LINE
  5
C067
330
BF24
100
AcDbEntity
  8
1
  6
Continuous
100
AcDbLine
 10
33.02808399999999
 20
133.779705
 30
0.0
 11
35.990584
 21
133.779705
 31
0.0
  0
ARC
  5
C068
330
BF24
100
AcDbEntity
  8
1
  6
Continuous
100
AcDbCircle
 10
30.065584
 20
134.3417819999999
 30
0.0
 40
0.1875
100
AcDbArc
 50
82.76518100000002
 51
270.0
  0
LINE
  5
C069
330
BF24
100
AcDbEntity
  8
1
  6
Continuous
100
AcDbLine
 10
30.065584
 20
134.1542819999999
 30
0.0
 11
33.02808399999999
 21
133.779705
 31
0.0
  0
LINE
  5
C06A
330
BF24
100
AcDbEntity
  8
1
  6
Continuous
100
AcDbLine
 10
35.990584
 20
134.154705
 30
0.0
 11
30.08919699999999
 21
134.5277889999999
 31
0.0
  0
ARC
  5
C06B
330
BF24
100
AcDbEntity
  8
1
  6
Continuous
100
AcDbCircle
 10
35.93605199999999
 20
132.496892
 30
0.0
 40
0.1875
100
AcDbArc
 50
270.0
 51
90.0
  0
LINE
  5
C06C
330
BF24
100
AcDbEntity
  8
1
  6
Continuous
100
AcDbLine
 10
32.97355200000001
 20
132.309392
 30
0.0
 11
35.93605199999999
 21
132.309392
 31
0.0
  0
ARC
  5
C06D
330
BF24
100
AcDbEntity
  8
1
  6
Continuous
100
AcDbCircle
 10
30.011052
 20
132.8714689999999
 30
0.0
 40
0.1875
100
AcDbArc
 50
82.76518100000002
 51
270.0
  0
LINE
  5
C06E
330
BF24
100
AcDbEntity
  8
1
  6
Continuous
100
AcDbLine
 10
30.011052
 20
132.6839689999999
 30
0.0
 11
32.97355200000001
 21
132.309392
 31
0.0
  0
LINE
  5
C06F
330
BF24
100
AcDbEntity
  8
1
  6
Continuous
100
AcDbLine
 10
35.93605199999999
 20
132.6843919999998
 30
0.0
 11
30.034665
 21
133.057476
 31
0.0
  0
ARC
  5
C070
330
BF24
100
AcDbEntity
  8
1
  6
Continuous
100
AcDbCircle
 10
35.93605199999999
 20
130.8632079999999
 30
0.0
 40
0.1875
100
AcDbArc
 50
270.0
 51
90.0
  0
LINE
  5
C071
330
BF24
100
AcDbEntity
  8
1
  6
Continuous
100
AcDbLine
 10
32.97355200000001
 20
130.6757079999999
 30
0.0
 11
35.93605199999999
 21
130.6757079999999
 31
0.0
  0
ARC
  5
C072
330
BF24
100
AcDbEntity
  8
1
  6
Continuous
100
AcDbCircle
 10
30.011052
 20
131.237784
 30
0.0
 40
0.1875
100
AcDbArc
 50
82.76518100000002
 51
270.0
  0
LINE
  5
C073
330
BF24
100
AcDbEntity
  8
1
  6
Continuous
100
AcDbLine
 10
30.011052
 20
131.050284
 30
0.0
 11
32.97355200000001
 21
130.6757079999999
 31
0.0
  0
LINE
  5
C074
330
BF24
100
AcDbEntity
  8
1
  6
Continuous
100
AcDbLine
 10
35.93605199999999
 20
131.0507079999999
 30
0.0
 11
30.034665
 21
131.4237919999999
 31
0.0
  0
ARC
  5
C075
330
BF24
100
AcDbEntity
  8
1
  6
Continuous
100
AcDbCircle
 10
30.088052
 20
129.596657
 30
0.0
 40
0.2645
100
AcDbArc
 50
79.53180999999998
 51
270.0
  0
ARC
  5
C076
330
BF24
100
AcDbEntity
  8
1
  6
Continuous
100
AcDbCircle
 10
35.859052
 20
129.067992
 30
0.0
 40
0.2645
100
AcDbArc
 50
270.0
 51
90.0
  0
LINE
  5
C077
330
BF24
100
AcDbEntity
  8
1
  6
Continuous
100
AcDbLine
 10
32.97355200000001
 20
128.803492
 30
0.0
 11
30.088052
 21
129.332157
 31
0.0
  0
LINE
  5
C078
330
BF24
100
AcDbEntity
  8
1
  6
Continuous
100
AcDbLine
 10
35.859052
 20
129.332492
 30
0.0
 11
30.136108
 21
129.856755
 31
0.0
  0
LINE
  5
C079
330
BF24
100
AcDbEntity
  8
1
  6
Continuous
100
AcDbLine
 10
32.97355200000001
 20
128.803492
 30
0.0
 11
35.859052
 21
128.803492
 31
0.0
  0
ARC
  5
C07A
330
BF24
100
AcDbEntity
  8
1
  6
Continuous
100
AcDbCircle
 10
29.978986
 20
127.85406
 30
0.0
 40
0.2645
100
AcDbArc
 50
79.53180999999998
 51
270.0
  0
ARC
  5
C07B
330
BF24
100
AcDbEntity
  8
1
  6
Continuous
100
AcDbCircle
 10
35.749986
 20
127.3253949999999
 30
0.0
 40
0.2645
100
AcDbArc
 50
270.0
 51
90.0
  0
LINE
  5
C07C
330
BF24
100
AcDbEntity
  8
1
  6
Continuous
100
AcDbLine
 10
32.86448599999999
 20
127.0608949999999
 30
0.0
 11
29.978986
 21
127.58956
 31
0.0
  0
LINE
  5
C07D
330
BF24
100
AcDbEntity
  8
1
  6
Continuous
100
AcDbLine
 10
35.749986
 20
127.5898949999999
 30
0.0
 11
30.02704299999999
 21
128.114157
 31
0.0
  0
LINE
  5
C07E
330
BF24
100
AcDbEntity
  8
1
  6
Continuous
100
AcDbLine
 10
32.86448599999999
 20
127.0608949999999
 30
0.0
 11
35.749986
 21
127.0608949999999
 31
0.0
  0
ARC
  5
C07F
330
BF24
100
AcDbEntity
  8
1
  6
Continuous
100
AcDbCircle
 10
35.749992
 20
125.626202
 30
0.0
 40
0.2645
100
AcDbArc
 50
270.0
 51
90.0
  0
LINE
  5
C080
330
BF24
100
AcDbEntity
  8
1
  6
Continuous
100
AcDbLine
 10
32.86449199999999
 20
125.3617019999999
 30
0.0
 11
29.97899199999999
 21
125.890367
 31
0.0
  0
LINE
  5
C081
330
BF24
100
AcDbEntity
  8
1
  6
Continuous
100
AcDbLine
 10
35.749992
 20
125.890702
 30
0.0
 11
30.027048
 21
126.414965
 31
0.0
  0
LINE
  5
C082
330
BF24
100
AcDbEntity
  8
1
  6
Continuous
100
AcDbLine
 10
32.86449199999999
 20
125.3617019999999
 30
0.0
 11
35.749992
 21
125.3617019999999
 31
0.0
  0
ARC
  5
C083
330
BF24
100
AcDbEntity
  8
1
  6
Continuous
100
AcDbCircle
 10
29.97899199999999
 20
126.154867
 30
0.0
 40
0.2645
100
AcDbArc
 50
79.53180999999998
 51
270.0
  0
ARC
  5
C084
330
BF24
100
AcDbEntity
  8
1
  6
Continuous
100
AcDbCircle
 10
29.869926
 20
124.272481
 30
0.0
 40
0.2645
100
AcDbArc
 50
79.53180999999998
 51
270.0
  0
LINE
  5
C085
330
BF24
100
AcDbEntity
  8
1
  6
Continuous
100
AcDbLine
 10
35.640926
 20
124.0083169999999
 30
0.0
 11
29.91798300000001
 21
124.532579
 31
0.0
  0
ARC
  5
C086
330
BF24
100
AcDbEntity
  8
1
  6
Continuous
100
AcDbCircle
 10
35.640926
 20
123.7438169999998
 30
0.0
 40
0.2645
100
AcDbArc
 50
270.0
 51
90.0
  0
LINE
  5
C087
330
BF24
100
AcDbEntity
  8
1
  6
Continuous
100
AcDbLine
 10
32.755426
 20
123.4793169999999
 30
0.0
 11
29.869926
 21
124.007981
 31
0.0
  0
LINE
  5
C088
330
BF24
100
AcDbEntity
  8
1
  6
Continuous
100
AcDbLine
 10
32.755426
 20
123.4793169999999
 30
0.0
 11
35.640926
 21
123.4793169999999
 31
0.0
  0
ARC
  5
C089
330
BF24
100
AcDbEntity
  8
1
  6
Continuous
100
AcDbCircle
 10
29.92445899999999
 20
122.8021659999999
 30
0.0
 40
0.2645
100
AcDbArc
 50
79.53180999999998
 51
270.0
  0
LINE
  5
C08A
330
BF24
100
AcDbEntity
  8
1
  6
Continuous
100
AcDbLine
 10
35.695459
 20
122.538001
 30
0.0
 11
29.972516
 21
123.0622639999999
 31
0.0
  0
ARC
  5
C08B
330
BF24
100
AcDbEntity
  8
1
  6
Continuous
100
AcDbCircle
 10
35.695459
 20
122.273501
 30
0.0
 40
0.2645
100
AcDbArc
 50
270.0
 51
90.0
  0
LINE
  5
C08C
330
BF24
100
AcDbEntity
  8
1
  6
Continuous
100
AcDbLine
 10
32.809959
 20
122.009001
 30
0.0
 11
29.92445899999999
 21
122.537666
 31
0.0
  0
LINE
  5
C08D
330
BF24
100
AcDbEntity
  8
1
  6
Continuous
100
AcDbLine
 10
32.809959
 20
122.009001
 30
0.0
 11
35.695459
 21
122.009001
 31
0.0
  0
LINE
  5
C08E
330
BF24
100
AcDbEntity
  8
1
  6
Continuous
100
AcDbLine
 10
102.6888809999999
 20
51.76695399999999
 30
0.0
 11
102.3157969999999
 21
45.865567
 31
0.0
  0
ARC
  5
C08F
330
BF24
100
AcDbEntity
  8
1
  6
Continuous
100
AcDbCircle
 10
102.501804
 20
45.841954
 30
0.0
 40
0.1875
100
AcDbArc
 50
172.765181
 51
0.0
  0
ARC
  5
C090
330
BF24
100
AcDbEntity
  8
1
  6
Continuous
100
AcDbCircle
 10
114.6778609999999
 20
45.723653
 30
0.0
 40
0.3
100
AcDbArc
 50
180.0
 51
0.0
  0
LINE
  5
C091
330
BF24
100
AcDbEntity
  8
1
  6
Continuous
100
AcDbLine
 10
114.977861
 20
45.723653
 30
0.0
 11
115.577861
 21
48.573653
 31
0.0
  0
LINE
  5
C092
330
BF24
100
AcDbEntity
  8
1
  6
Continuous
100
AcDbLine
 10
114.977861
 20
51.423653
 30
0.0
 11
114.377861
 21
45.723653
 31
0.0
  0
LINE
  5
C093
330
BF24
100
AcDbEntity
  8
1
  6
Continuous
100
AcDbLine
 10
115.577861
 20
48.573653
 30
0.0
 11
115.577861
 21
51.423653
 31
0.0
  0
ARC
  5
C094
330
BF24
100
AcDbEntity
  8
1
  6
Continuous
100
AcDbCircle
 10
115.277861
 20
51.423653
 30
0.0
 40
0.3
100
AcDbArc
 50
0.0
 51
180.0
  0
LINE
  5
C095
330
BF24
100
AcDbEntity
  8
1
  6
Continuous
100
AcDbLine
 10
113.364272
 20
48.640861
 30
0.0
 11
113.364272
 21
51.526361
 31
0.0
  0
LINE
  5
C096
330
BF24
100
AcDbEntity
  8
1
  6
Continuous
100
AcDbLine
 10
113.364272
 20
48.640861
 30
0.0
 11
112.835607
 21
45.75536099999999
 31
0.0
  0
ARC
  5
C097
330
BF24
100
AcDbEntity
  8
1
  6
Continuous
100
AcDbCircle
 10
113.099772
 20
51.526361
 30
0.0
 40
0.2645
100
AcDbArc
 50
0.0
 51
180.0
  0
LINE
  5
C098
330
BF24
100
AcDbEntity
  8
1
  6
Continuous
100
AcDbLine
 10
112.835272
 20
51.526361
 30
0.0
 11
112.311009
 21
45.803418
 31
0.0
  0
ARC
  5
C099
330
BF24
100
AcDbEntity
  8
1
  6
Continuous
100
AcDbCircle
 10
112.571107
 20
45.75536099999999
 30
0.0
 40
0.2645
100
AcDbArc
 50
169.53181
 51
0.0
  0
LINE
  5
C09A
330
BF24
100
AcDbEntity
  8
1
  6
Continuous
100
AcDbLine
 10
111.8939569999999
 20
48.586328
 30
0.0
 11
111.8939569999999
 21
51.471828
 31
0.0
  0
LINE
  5
C09B
330
BF24
100
AcDbEntity
  8
1
  6
Continuous
100
AcDbLine
 10
111.8939569999999
 20
48.586328
 30
0.0
 11
111.3479509999999
 21
45.60617899999999
 31
0.0
  0
ARC
  5
C09C
330
BF24
100
AcDbEntity
  8
1
  6
Continuous
100
AcDbCircle
 10
111.6294569999999
 20
51.471828
 30
0.0
 40
0.2645
100
AcDbArc
 50
0.0
 51
180.0
  0
LINE
  5
C09D
330
BF24
100
AcDbEntity
  8
1
  6
Continuous
100
AcDbLine
 10
111.3649569999999
 20
51.471828
 30
0.0
 11
110.840694
 21
45.74888499999999
 31
0.0
  0
ARC
  5
C09E
330
BF24
100
AcDbEntity
  8
1
  6
Continuous
100
AcDbCircle
 10
111.100792
 20
45.70037399999999
 30
0.0
 40
0.2645
100
AcDbArc
 50
169.53181
 51
339.137617
  0
ARC
  5
C09F
330
BF24
100
AcDbEntity
  8
1
  6
Continuous
100
AcDbCircle
 10
109.218406
 20
45.80989399999999
 30
0.0
 40
0.2645
100
AcDbArc
 50
169.53181
 51
0.0
  0
LINE
  5
C0A0
330
BF24
100
AcDbEntity
  8
1
  6
Continuous
100
AcDbLine
 10
110.0115709999998
 20
48.695394
 30
0.0
 11
110.0115709999998
 21
51.580894
 31
0.0
  0
LINE
  5
C0A1
330
BF24
100
AcDbEntity
  8
1
  6
Continuous
100
AcDbLine
 10
109.482571
 20
51.580894
 30
0.0
 11
108.958309
 21
45.857951
 31
0.0
  0
LINE
  5
C0A2
330
BF24
100
AcDbEntity
  8
1
  6
Continuous
100
AcDbLine
 10
110.0115709999998
 20
48.695394
 30
0.0
 11
109.482906
 21
45.80989399999999
 31
0.0
  0
ARC
  5
C0A3
330
BF24
100
AcDbEntity
  8
1
  6
Continuous
100
AcDbCircle
 10
109.7470709999999
 20
51.580894
 30
0.0
 40
0.2645
100
AcDbArc
 50
0.0
 51
180.0
  0
LINE
  5
C0A4
330
BF24
100
AcDbEntity
  8
1
  6
Continuous
100
AcDbLine
 10
108.312379
 20
48.695388
 30
0.0
 11
108.312379
 21
51.580888
 31
0.0
  0
LINE
  5
C0A5
330
BF24
100
AcDbEntity
  8
1
  6
Continuous
100
AcDbLine
 10
107.783379
 20
51.580888
 30
0.0
 11
107.2591159999999
 21
45.857945
 31
0.0
  0
LINE
  5
C0A6
330
BF24
100
AcDbEntity
  8
1
  6
Continuous
100
AcDbLine
 10
108.312379
 20
48.695388
 30
0.0
 11
107.7837139999999
 21
45.809888
 31
0.0
  0
ARC
  5
C0A7
330
BF24
100
AcDbEntity
  8
1
  6
Continuous
100
AcDbCircle
 10
108.0478789999999
 20
51.580888
 30
0.0
 40
0.2645
100
AcDbArc
 50
0.0
 51
180.0
  0
ARC
  5
C0A8
330
BF24
100
AcDbEntity
  8
1
  6
Continuous
100
AcDbCircle
 10
107.5192139999999
 20
45.809888
 30
0.0
 40
0.2645
100
AcDbArc
 50
169.53181
 51
0.0
  0
LINE
  5
C0A9
330
BF24
100
AcDbEntity
  8
1
  6
Continuous
100
AcDbLine
 10
106.569781
 20
48.804454
 30
0.0
 11
106.569781
 21
51.689954
 31
0.0
  0
LINE
  5
C0AA
330
BF24
100
AcDbEntity
  8
1
  6
Continuous
100
AcDbLine
 10
106.040781
 20
51.689954
 30
0.0
 11
105.5165189999998
 21
45.96701099999999
 31
0.0
  0
LINE
  5
C0AB
330
BF24
100
AcDbEntity
  8
1
  6
Continuous
100
AcDbLine
 10
106.569781
 20
48.804454
 30
0.0
 11
106.0411159999999
 21
45.918954
 31
0.0
  0
ARC
  5
C0AC
330
BF24
100
AcDbEntity
  8
1
  6
Continuous
100
AcDbCircle
 10
106.3052809999999
 20
51.689954
 30
0.0
 40
0.2645
100
AcDbArc
 50
0.0
 51
180.0
  0
ARC
  5
C0AD
330
BF24
100
AcDbEntity
  8
1
  6
Continuous
100
AcDbCircle
 10
105.7766159999999
 20
45.918954
 30
0.0
 40
0.2645
100
AcDbArc
 50
169.53181
 51
0.0
  0
LINE
  5
C0AE
330
BF24
100
AcDbEntity
  8
1
  6
Continuous
100
AcDbLine
 10
104.322566
 20
51.76695399999999
 30
0.0
 11
103.9494819999999
 21
45.865567
 31
0.0
  0
LINE
  5
C0AF
330
BF24
100
AcDbEntity
  8
1
  6
Continuous
100
AcDbLine
 10
104.322989
 20
45.841954
 30
0.0
 11
104.6975659999999
 21
48.804454
 31
0.0
  0
ARC
  5
C0B0
330
BF24
100
AcDbEntity
  8
1
  6
Continuous
100
AcDbCircle
 10
104.135489
 20
45.841954
 30
0.0
 40
0.1875
100
AcDbArc
 50
172.765181
 51
0.0
  0
LINE
  5
C0B1
330
BF24
100
AcDbEntity
  8
1
  6
Continuous
100
AcDbLine
 10
104.6975659999999
 20
48.804454
 30
0.0
 11
104.6975659999999
 21
51.76695399999999
 31
0.0
  0
ARC
  5
C0B2
330
BF24
100
AcDbEntity
  8
1
  6
Continuous
100
AcDbCircle
 10
104.5100659999999
 20
51.76695399999999
 30
0.0
 40
0.1875
100
AcDbArc
 50
0.0
 51
180.0
  0
LINE
  5
C0B3
330
BF24
100
AcDbEntity
  8
1
  6
Continuous
100
AcDbLine
 10
102.689304
 20
45.841954
 30
0.0
 11
103.0638809999999
 21
48.804454
 31
0.0
  0
LINE
  5
C0B4
330
BF24
100
AcDbEntity
  8
1
  6
Continuous
100
AcDbLine
 10
103.0638809999999
 20
48.804454
 30
0.0
 11
103.0638809999999
 21
51.76695399999999
 31
0.0
  0
ARC
  5
C0B5
330
BF24
100
AcDbEntity
  8
1
  6
Continuous
100
AcDbCircle
 10
102.876381
 20
51.76695399999999
 30
0.0
 40
0.1875
100
AcDbArc
 50
0.0
 51
180.0
  0
ARC
  5
C0B6
330
BF24
100
AcDbEntity
  8
1
  6
Continuous
100
AcDbCircle
 10
116.573035
 20
45.730902
 30
0.0
 40
0.3
100
AcDbArc
 50
180.0
 51
0.0
  0
LINE
  5
C0B7
330
BF24
100
AcDbEntity
  8
1
  6
Continuous
100
AcDbLine
 10
116.873035
 20
51.430902
 30
0.0
 11
116.2730349999999
 21
45.730902
 31
0.0
  0
LINE
  5
C0B8
330
BF24
100
AcDbEntity
  8
1
  6
Continuous
100
AcDbLine
 10
101.2185689999999
 20
51.82148699999999
 30
0.0
 11
100.8454849999999
 21
45.9201
 31
0.0
  0
LINE
  5
C0B9
330
BF24
100
AcDbEntity
  8
1
  6
Continuous
100
AcDbLine
 10
101.2189919999999
 20
45.896487
 30
0.0
 11
101.5935689999998
 21
48.858987
 31
0.0
  0
ARC
  5
C0BA
330
BF24
100
AcDbEntity
  8
1
  6
Continuous
100
AcDbCircle
 10
101.031492
 20
45.896487
 30
0.0
 40
0.1875
100
AcDbArc
 50
172.765181
 51
0.0
  0
LINE
  5
C0BB
330
BF24
100
AcDbEntity
  8
1
  6
Continuous
100
AcDbLine
 10
101.5935689999998
 20
48.858987
 30
0.0
 11
101.5935689999998
 21
51.82148699999999
 31
0.0
  0
ARC
  5
C0BC
330
BF24
100
AcDbEntity
  8
1
  6
Continuous
100
AcDbCircle
 10
101.4060689999999
 20
51.82148699999999
 30
0.0
 40
0.1875
100
AcDbArc
 50
0.0
 51
180.0
  0
LINE
  5
C0BD
330
BF24
100
AcDbEntity
  8
1
  6
Continuous
100
AcDbLine
 10
116.873035
 20
45.730902
 30
0.0
 11
117.473035
 21
48.580902
 31
0.0
  0
LINE
  5
C0BE
330
BF24
100
AcDbEntity
  8
1
  6
Continuous
100
AcDbLine
 10
117.473035
 20
48.580902
 30
0.0
 11
117.473035
 21
51.430902
 31
0.0
  0
ARC
  5
C0BF
330
BF24
100
AcDbEntity
  8
1
  6
Continuous
100
AcDbCircle
 10
117.173035
 20
51.430902
 30
0.0
 40
0.3
100
AcDbArc
 50
0.0
 51
180.0
  0
ARC
  5
C0C0
330
BF24
100
AcDbEntity
  8
1
  6
Continuous
100
AcDbCircle
 10
35.65796699999999
 20
102.524268
 30
0.0
 40
0.1875
100
AcDbArc
 50
270.0
 51
90.0
  0
LINE
  5
C0C1
330
BF24
100
AcDbEntity
  8
1
  6
Continuous
100
AcDbLine
 10
32.695467
 20
102.336768
 30
0.0
 11
35.65796699999999
 21
102.336768
 31
0.0
  0
ARC
  5
C0C2
330
BF24
100
AcDbEntity
  8
1
  6
Continuous
100
AcDbCircle
 10
29.732967
 20
102.8988449999998
 30
0.0
 40
0.1875
100
AcDbArc
 50
82.76518100000002
 51
270.0
  0
LINE
  5
C0C3
330
BF24
100
AcDbEntity
  8
1
  6
Continuous
100
AcDbLine
 10
29.732967
 20
102.7113449999998
 30
0.0
 11
32.695467
 21
102.336768
 31
0.0
  0
LINE
  5
C0C4
330
BF24
100
AcDbEntity
  8
1
  6
Continuous
100
AcDbLine
 10
35.65796699999999
 20
102.711768
 30
0.0
 11
29.75658
 21
103.0848519999999
 31
0.0
  0
ARC
  5
C0C5
330
BF24
100
AcDbEntity
  8
1
  6
Continuous
100
AcDbCircle
 10
35.603434
 20
101.053956
 30
0.0
 40
0.1875
100
AcDbArc
 50
270.0
 51
90.0
  0
LINE
  5
C0C6
330
BF24
100
AcDbEntity
  8
1
  6
Continuous
100
AcDbLine
 10
32.640934
 20
100.8664559999999
 30
0.0
 11
35.603434
 21
100.8664559999999
 31
0.0
  0
LINE
  5
C0C7
330
BF24
100
AcDbEntity
  8
1
  6
Continuous
100
AcDbLine
 10
29.67843399999999
 20
101.241033
 30
0.0
 11
32.640934
 21
100.8664559999999
 31
0.0
  0
ARC
  5
C0C8
330
BF24
100
AcDbEntity
  8
1
  6
Continuous
100
AcDbCircle
 10
35.603434
 20
99.420271
 30
0.0
 40
0.1875
100
AcDbArc
 50
270.0
 51
90.0
  0
LINE
  5
C0C9
330
BF24
100
AcDbEntity
  8
1
  6
Continuous
100
AcDbLine
 10
32.640934
 20
99.23277099999999
 30
0.0
 11
35.603434
 21
99.23277099999999
 31
0.0
  0
ARC
  5
C0CA
330
BF24
100
AcDbEntity
  8
1
  6
Continuous
100
AcDbCircle
 10
29.67843399999999
 20
99.79484800000001
 30
0.0
 40
0.1875
100
AcDbArc
 50
82.76518100000002
 51
270.0
  0
LINE
  5
C0CB
330
BF24
100
AcDbEntity
  8
1
  6
Continuous
100
AcDbLine
 10
29.67843399999999
 20
99.607348
 30
0.0
 11
32.640934
 21
99.23277099999999
 31
0.0
  0
LINE
  5
C0CC
330
BF24
100
AcDbEntity
  8
1
  6
Continuous
100
AcDbLine
 10
35.603434
 20
99.60777100000001
 30
0.0
 11
29.702047
 21
99.98085500000001
 31
0.0
  0
ARC
  5
C0CD
330
BF24
100
AcDbEntity
  8
1
  6
Continuous
100
AcDbCircle
 10
29.67843399999999
 20
101.428533
 30
0.0
 40
0.1875
100
AcDbArc
 50
82.76518100000002
 51
270.0
  0
LINE
  5
C0CE
330
BF24
100
AcDbEntity
  8
1
  6
Continuous
100
AcDbLine
 10
35.603434
 20
101.241456
 30
0.0
 11
29.702047
 21
101.61454
 31
0.0
  0
LINE
  5
C0CF
330
BF24
100
AcDbEntity
  8
1
  6
Continuous
100
AcDbLine
 10
125.6002389999999
 20
56.5
 30
0.0
 11
125.6002389999999
 21
55.25
 31
0.0
  0
LINE
  5
C0D0
330
BF24
100
AcDbEntity
  8
1
  6
Continuous
100
AcDbLine
 10
114.6002389999999
 20
42.25
 30
0.0
 11
114.6002389999999
 21
41.0
 31
0.0
  0
LINE
  5
C0D1
330
BF24
100
AcDbEntity
  8
1
  6
Continuous
100
AcDbLine
 10
125.6002389999999
 20
42.25
 30
0.0
 11
125.6002389999999
 21
41.0
 31
0.0
  0
LINE
  5
C0D2
330
BF24
100
AcDbEntity
  8
1
  6
Continuous
100
AcDbLine
 10
114.6002389999999
 20
56.5
 30
0.0
 11
114.6002389999999
 21
55.25
 31
0.0
  0
LINE
  5
C0D3
330
BF24
100
AcDbEntity
  8
1
  6
Continuous
100
AcDbLine
 10
114.3002389999999
 20
200.5280699999999
 30
0.0
 11
113.1002389999999
 21
199.0280699999999
 31
0.0
  0
LINE
  5
C0D4
330
BF24
100
AcDbEntity
  8
1
  6
Continuous
100
AcDbLine
 10
125.9002389999998
 20
200.5280699999999
 30
0.0
 11
127.1002389999999
 21
199.0280699999999
 31
0.0
  0
ARC
  5
C0D5
330
BF24
100
AcDbEntity
  8
1
  6
Continuous
100
AcDbCircle
 10
120.1002389999999
 20
223.02807
 30
0.0
 40
25.0
100
AcDbArc
 50
253.7397949999999
 51
286.2602049999999
  0
LINE
  5
C0D6
330
BF24
100
AcDbEntity
  8
1
  6
Continuous
100
AcDbLine
 10
113.1002389999999
 20
186.5280699999999
 30
0.0
 11
114.3002389999999
 21
185.0280699999999
 31
0.0
  0
LINE
  5
C0D7
330
BF24
100
AcDbEntity
  8
1
  6
Continuous
100
AcDbLine
 10
127.1002389999999
 20
186.5280699999999
 30
0.0
 11
125.9002389999998
 21
185.0280699999999
 31
0.0
  0
ARC
  5
C0D8
330
BF24
100
AcDbEntity
  8
1
  6
Continuous
100
AcDbCircle
 10
120.1002389999999
 20
162.5280699999999
 30
0.0
 40
25.0
100
AcDbArc
 50
73.739795
 51
106.2602049999999
  0
ARC
  5
C0D9
330
BF24
100
AcDbEntity
  8
1
  6
Continuous
100
AcDbCircle
 10
120.1002389999999
 20
133.6276699999999
 30
0.0
 40
7.4
100
AcDbArc
 50
18.924644
 51
161.075356
  0
LINE
  5
C0DA
330
BF24
100
AcDbEntity
  8
1
  6
Continuous
100
AcDbLine
 10
114.3002389999999
 20
56.5
 30
0.0
 11
113.3002389999999
 21
55.25
 31
0.0
  0
LINE
  5
C0DB
330
BF24
100
AcDbEntity
  8
1
  6
Continuous
100
AcDbLine
 10
125.9002389999998
 20
56.5
 30
0.0
 11
126.9002389999998
 21
55.25
 31
0.0
  0
LINE
  5
C0DC
330
BF24
100
AcDbEntity
  8
1
  6
Continuous
100
AcDbLine
 10
126.9002389999998
 20
42.25
 30
0.0
 11
125.9002389999998
 21
41.0
 31
0.0
  0
LINE
  5
C0DD
330
BF24
100
AcDbEntity
  8
1
  6
Continuous
100
AcDbLine
 10
113.3002389999999
 20
42.25
 30
0.0
 11
114.3002389999999
 21
41.0
 31
0.0
  0
LINE
  5
C0DE
330
BF24
100
AcDbEntity
  8
1
  6
Continuous
100
AcDbLine
 10
139.700477
 20
55.25
 30
0.0
 11
139.700477
 21
42.25
 31
0.0
  0
LINE
  5
C0DF
330
BF24
100
AcDbEntity
  8
1
  6
Continuous
100
AcDbLine
 10
100.5
 20
42.25
 30
0.0
 11
100.5
 21
55.25
 31
0.0
  0
LINE
  5
C0E0
330
BF24
100
AcDbEntity
  8
1
  6
Continuous
100
AcDbLine
 10
137.40888
 20
192.5166049999999
 30
0.0
 11
138.4290489999999
 21
188.690972
 31
0.0
  0
ARC
  5
C0E1
330
BF24
100
AcDbEntity
  8
1
  6
Continuous
100
AcDbCircle
 10
137.4628139999997
 20
188.433309
 30
0.0
 40
1.0
100
AcDbArc
 50
328.273652
 51
14.931417
  0
LINE
  5
C0E2
330
BF24
100
AcDbEntity
  8
1
  6
Continuous
100
AcDbLine
 10
138.313384
 20
187.907446
 30
0.0
 11
137.303674
 21
186.274268
 31
0.0
  0
ARC
  5
C0E3
330
BF24
100
AcDbEntity
  8
1
  6
Continuous
100
AcDbCircle
 10
138.3751149999999
 20
192.774268
 30
0.0
 40
1.0
100
AcDbArc
 50
165.068583
 51
194.9314169999999
  0
ARC
  5
C0E4
330
BF24
100
AcDbEntity
  8
1
  6
Continuous
100
AcDbCircle
 10
137.4648419999997
 20
197.1228309999999
 30
0.0
 40
1.0
100
AcDbArc
 50
345.0685829999998
 51
30.96375700000001
  0
LINE
  5
C0E5
330
BF24
100
AcDbEntity
  8
1
  6
Continuous
100
AcDbLine
 10
138.4310769999999
 20
196.8651679999999
 30
0.0
 11
137.40888
 21
193.0319299999999
 31
0.0
  0
LINE
  5
C0E6
330
BF24
100
AcDbEntity
  8
1
  6
Continuous
100
AcDbLine
 10
137.34017
 20
199.274268
 30
0.0
 11
138.322335
 21
197.637326
 31
0.0
  0
LINE
  5
C0E7
330
BF24
100
AcDbEntity
  8
1
  6
Continuous
100
AcDbLine
 10
202.9504769999999
 20
135.602281
 30
0.0
 11
206.9504769999999
 21
133.2928799999999
 31
0.0
  0
ARC
  5
C0E8
330
BF24
100
AcDbEntity
  8
1
  6
Continuous
100
AcDbCircle
 10
207.4504769999998
 20
134.1589059999998
 30
0.0
 40
1.0
100
AcDbArc
 50
239.9999999999999
 51
300.0
  0
LINE
  5
C0E9
330
BF24
100
AcDbEntity
  8
1
  6
Continuous
100
AcDbLine
 10
207.950477
 20
133.2928799999999
 30
0.0
 11
211.950477
 21
135.602281
 31
0.0
  0
ARC
  5
C0EA
330
BF24
100
AcDbEntity
  8
1
  6
Continuous
100
AcDbCircle
 10
211.4504769999999
 20
136.468307
 30
0.0
 40
1.0
100
AcDbArc
 50
300.0
 51
0.0
  0
LINE
  5
C0EB
330
BF24
100
AcDbEntity
  8
1
  6
Continuous
100
AcDbLine
 10
212.450477
 20
136.468307
 30
0.0
 11
212.450477
 21
141.087109
 31
0.0
  0
ARC
  5
C0EC
330
BF24
100
AcDbEntity
  8
1
  6
Continuous
100
AcDbCircle
 10
211.4504769999999
 20
141.087109
 30
0.0
 40
1.0
100
AcDbArc
 50
0.0
 51
60.0
  0
LINE
  5
C0ED
330
BF24
100
AcDbEntity
  8
1
  6
Continuous
100
AcDbLine
 10
211.950477
 20
141.9531339999998
 30
0.0
 11
207.950477
 21
144.262535
 31
0.0
  0
ARC
  5
C0EE
330
BF24
100
AcDbEntity
  8
1
  6
Continuous
100
AcDbCircle
 10
207.4504769999998
 20
143.3965099999998
 30
0.0
 40
1.0
100
AcDbArc
 50
60.0
 51
119.9999999999999
  0
LINE
  5
C0EF
330
BF24
100
AcDbEntity
  8
1
  6
Continuous
100
AcDbLine
 10
206.9504769999999
 20
144.262535
 30
0.0
 11
202.9504769999999
 21
141.9531339999998
 31
0.0
  0
ARC
  5
C0F0
330
BF24
100
AcDbEntity
  8
1
  6
Continuous
100
AcDbCircle
 10
203.450477
 20
141.087109
 30
0.0
 40
1.0
100
AcDbArc
 50
119.9999999999999
 51
180.0
  0
LINE
  5
C0F1
330
BF24
100
AcDbEntity
  8
1
  6
Continuous
100
AcDbLine
 10
202.450477
 20
141.087109
 30
0.0
 11
202.450477
 21
136.468307
 31
0.0
  0
ARC
  5
C0F2
330
BF24
100
AcDbEntity
  8
1
  6
Continuous
100
AcDbCircle
 10
203.450477
 20
136.468307
 30
0.0
 40
1.0
100
AcDbArc
 50
180.0
 51
239.9999999999999
  0
ENDSEC
  0
SECTION
  2
OBJECTS
  0
DICTIONARY
  5
BF12
330
0
100
AcDbDictionary
281
     1
  3
ACAD_CIP_PREVIOUS_PRODUCT_INFO
350
C152
  3
ACAD_COLOR
350
C134
  3
ACAD_DETAILVIEWSTYLE
350
C14D
  3
ACAD_GROUP
350
BF13
  3
ACAD_LAYOUT
350
BF1F
  3
ACAD_MATERIAL
350
C102
  3
ACAD_MLEADERSTYLE
350
C149
  3
ACAD_MLINESTYLE
350
BF1C
  3
ACAD_PLOTSETTINGS
350
BF1E
  3
ACAD_PLOTSTYLENAME
350
C100
  3
ACAD_SCALELIST
350
C137
  3
ACAD_SECTIONVIEWSTYLE
350
C14B
  3
ACAD_TABLESTYLE
350
C135
  3
ACAD_VISUALSTYLE
350
C11B
  3
ACDB_RECOMPOSE_DATA
350
C170
  3
AcDbVariableDictionary
350
C163
  3
DWGPROPS
350
C171
  0
DICTIONARY
  5
C153
330
BF16
100
AcDbDictionary
280
     1
281
     1
  3
ADSK_XREC_LAYER_RECONCILED
360
C154
  0
DICTIONARY
  5
C155
330
BF2C
100
AcDbDictionary
280
     1
281
     1
  3
ADSK_XREC_LAYER_RECONCILED
360
C156
  0
DICTIONARY
  5
C157
330
BF2D
100
AcDbDictionary
280
     1
281
     1
  3
ADSK_XREC_LAYER_RECONCILED
360
C158
  0
DICTIONARY
  5
C159
330
BF2E
100
AcDbDictionary
280
     1
281
     1
  3
ADSK_XREC_LAYER_RECONCILED
360
C15A
  0
DICTIONARY
  5
C15B
330
BF2F
100
AcDbDictionary
280
     1
281
     1
  3
ADSK_XREC_LAYER_RECONCILED
360
C15C
  0
DICTIONARY
  5
C15D
330
BF30
100
AcDbDictionary
280
     1
281
     1
  3
ADSK_XREC_LAYER_RECONCILED
360
C15E
  0
DICTIONARY
  5
C15F
330
BF31
100
AcDbDictionary
280
     1
281
     1
  3
ADSK_XREC_LAYER_RECONCILED
360
C160
  0
DICTIONARY
  5
C161
330
BF32
100
AcDbDictionary
280
     1
281
     1
  3
ADSK_XREC_LAYER_RECONCILED
360
C162
  0
DICTIONARY
  5
C0FB
330
BF24
100
AcDbDictionary
281
     1
  3
ACAD_LAYOUTSELFREF
350
C0FC
  0
DICTIONARY
  5
C0F9
330
BF20
100
AcDbDictionary
281
     1
  3
ACAD_LAYOUTSELFREF
350
C0FA
  0
XRECORD
  5
C152
102
{ACAD_REACTORS
330
BF12
102
}
330
BF12
100
AcDbXrecord
280
     1
300
ACDLT
300
2014
300
ACDLT_F_S
  0
DICTIONARY
  5
C134
102
{ACAD_REACTORS
330
BF12
102
}
330
BF12
100
AcDbDictionary
281
     1
  0
DICTIONARY
  5
C14D
102
{ACAD_REACTORS
330
BF12
102
}
330
BF12
100
AcDbDictionary
281
     1
  3
Imperial24
350
C14E
  0
DICTIONARY
  5
BF13
102
{ACAD_REACTORS
330
BF12
102
}
330
BF12
100
AcDbDictionary
281
     1
  0
DICTIONARY
  5
BF1F
102
{ACAD_REACTORS
330
BF12
102
}
330
BF12
100
AcDbDictionary
281
     1
  3
Model
350
C14F
  3
レイアウト1
350
C150
  0
DICTIONARY
  5
C102
102
{ACAD_REACTORS
330
BF12
102
}
330
BF12
100
AcDbDictionary
281
     1
  3
ByBlock
350
C10B
  3
ByLayer
350
C103
  3
Global
350
C113
  0
DICTIONARY
  5
C149
102
{ACAD_REACTORS
330
BF12
102
}
330
BF12
100
AcDbDictionary
281
     1
  3
Standard
350
C14A
  0
DICTIONARY
  5
BF1C
102
{ACAD_REACTORS
330
BF12
102
}
330
BF12
100
AcDbDictionary
281
     1
  3
STANDARD
350
BF1D
  0
DICTIONARY
  5
BF1E
102
{ACAD_REACTORS
330
BF12
102
}
330
BF12
100
AcDbDictionary
281
     1
  0
ACDBDICTIONARYWDFLT
  5
C100
102
{ACAD_REACTORS
330
BF12
102
}
330
BF12
100
AcDbDictionary
281
     1
  3
Normal
350
C101
100
AcDbDictionaryWithDefault
340
C101
  0
DICTIONARY
  5
C137
102
{ACAD_REACTORS
330
BF12
102
}
330
BF12
100
AcDbDictionary
281
     1
  3
A0
350
C138
  3
A1
350
C139
  3
A2
350
C13A
  3
A3
350
C13B
  3
A4
350
C13C
  3
A5
350
C13D
  3
A6
350
C13E
  3
A7
350
C13F
  3
A8
350
C140
  3
A9
350
C141
  3
B0
350
C142
  3
B1
350
C143
  3
B2
350
C144
  3
B3
350
C145
  3
B4
350
C146
  3
B5
350
C147
  3
B6
350
C148
  0
DICTIONARY
  5
C14B
102
{ACAD_REACTORS
330
BF12
102
}
330
BF12
100
AcDbDictionary
281
     1
  3
Imperial24
350
C14C
  0
DICTIONARY
  5
C135
102
{ACAD_REACTORS
330
BF12
102
}
330
BF12
100
AcDbDictionary
281
     1
  3
Standard
350
C136
  0
DICTIONARY
  5
C11B
102
{ACAD_REACTORS
330
BF12
102
}
330
BF12
100
AcDbDictionary
281
     1
  3
2dWireframe
350
C121
  3
Basic
350
C120
  3
Brighten
350
C127
  3
ColorChange
350
C12B
  3
Conceptual
350
C124
  3
Dim
350
C126
  3
EdgeColorOff
350
C133
  3
Facepattern
350
C12A
  3
Flat
350
C11C
  3
FlatWithEdges
350
C11D
  3
Gouraud
350
C11E
  3
GouraudWithEdges
350
C11F
  3
Hidden
350
C123
  3
JitterOff
350
C131
  3
Linepattern
350
C129
  3
OverhangOff
350
C132
  3
Realistic
350
C125
  3
Shaded
350
C130
  3
Shaded with edges
350
C12F
  3
Shades of Gray
350
C12C
  3
Sketchy
350
C12D
  3
Thicken
350
C128
  3
Wireframe
350
C122
  3
X-Ray
350
C12E
  0
XRECORD
  5
C170
102
{ACAD_REACTORS
330
BF12
102
}
330
BF12
100
AcDbXrecord
280
     1
 90
        1
330
C136
  0
DICTIONARY
  5
C163
102
{ACAD_REACTORS
330
BF12
102
}
330
BF12
100
AcDbDictionary
281
     1
  3
CANNOSCALE
350
C168
  3
CMLEADERSTYLE
350
C165
  3
CTABLESTYLE
350
C164
  3
CVIEWDETAILSTYLE
350
C166
  3
CVIEWSECTIONSTYLE
350
C167
  3
DIMASSOC
350
C16B
  3
INDEXCTL
350
C16A
  3
SORTENTS
350
C169
  3
XCLIPFRAME
350
C16C
  0
XRECORD
  5
C171
102
{ACAD_REACTORS
330
BF12
102
}
330
BF12
100
AcDbXrecord
280
     1
  1
DWGPROPS COOKIE
  2

  3

  4

  6

  7

  8
Yoshitsune
  9

300
=
301
=
302
=
303
=
304
=
305
=
306
=
307
=
308
=
309
=
 40
0.0000107523148148
 41
2451296.796261343
 42
2457192.658355625
  1

 90
        0
  0
XRECORD
  5
C154
102
{ACAD_REACTORS
330
C153
102
}
330
C153
100
AcDbXrecord
280
     1
290
     1
  0
XRECORD
  5
C156
102
{ACAD_REACTORS
330
C155
102
}
330
C155
100
AcDbXrecord
280
     1
290
     1
  0
XRECORD
  5
C158
102
{ACAD_REACTORS
330
C157
102
}
330
C157
100
AcDbXrecord
280
     1
290
     1
  0
XRECORD
  5
C15A
102
{ACAD_REACTORS
330
C159
102
}
330
C159
100
AcDbXrecord
280
     1
290
     1
  0
XRECORD
  5
C15C
102
{ACAD_REACTORS
330
C15B
102
}
330
C15B
100
AcDbXrecord
280
     1
290
     1
  0
XRECORD
  5
C15E
102
{ACAD_REACTORS
330
C15D
102
}
330
C15D
100
AcDbXrecord
280
     1
290
     1
  0
XRECORD
  5
C160
102
{ACAD_REACTORS
330
C15F
102
}
330
C15F
100
AcDbXrecord
280
     1
290
     1
  0
XRECORD
  5
C162
102
{ACAD_REACTORS
330
C161
102
}
330
C161
100
AcDbXrecord
280
     1
290
     1
  0
XRECORD
  5
C0FC
102
{ACAD_REACTORS
330
C0FB
102
}
330
C0FB
100
AcDbXrecord
280
     1
340
BF24
  0
XRECORD
  5
C0FA
102
{ACAD_REACTORS
330
C0F9
102
}
330
C0F9
100
AcDbXrecord
280
     1
340
BF20
  0
ACDBDETAILVIEWSTYLE
  5
C14E
102
{ACAD_XDICTIONARY
360
C1A9
102
}
102
{ACAD_REACTORS
330
C14D
102
}
330
C14D
100
AcDbModelDocViewStyle
 70
     0
  3
Imperial24
290
     0
100
AcDbDetailViewStyle
 70
     0
 71
     0
 90
        3
 71
     1
340
BF17
 40
0.24
340
0
 40
0.24
300

 40
0.36
280
     3
 71
     2
340
BF1B
 90
       25
 71
     3
340
BF17
 40
0.24
 90
        1
 40
0.75
 90
        1
300
%<\AcVar ViewType \f "%tc1">% %<\AcVar ViewDetailId>%\PSCALE %<\AcVar ViewScale \f "%sn">%
 71
     4
340
BF1B
 90
       25
340
BF1B
 90
       25
280
     0
  0
LAYOUT
  5
C14F
102
{ACAD_XDICTIONARY
360
C1AB
102
}
102
{ACAD_REACTORS
330
BF1F
102
}
330
BF1F
100
AcDbPlotSettings
  1

  2
Canon LBP9100C
  4

  6

 40
0.0
 41
0.0
 42
0.0
 43
0.0
 44
0.0
 45
0.0
 46
0.0
 47
0.0
 48
0.0
 49
0.0
140
0.0
141
0.0
142
1.0
143
1.0
 70
  1712
 72
     0
 73
     0
 74
     0
  7

 75
     0
147
1.0
148
0.0
149
0.0
100
AcDbLayout
  1
Model
 70
     1
 71
     0
 10
0.0
 20
0.0
 11
12.0
 21
9.0
 12
0.0
 22
0.0
 32
0.0
 14
0.0
 24
0.0
 34
0.0
 15
0.0
 25
0.0
 35
0.0
146
0.0
 13
0.0
 23
0.0
 33
0.0
 16
1.0
 26
0.0
 36
0.0
 17
0.0
 27
1.0
 37
0.0
 76
     0
330
BF24
331
C0F8
  0
LAYOUT
  5
C150
102
{ACAD_XDICTIONARY
360
C1AD
102
}
102
{ACAD_REACTORS
330
BF1F
102
}
330
BF1F
100
AcDbPlotSettings
  1

  2
Canon LBP9100C
  4

  6

 40
0.0
 41
0.0
 42
0.0
 43
0.0
 44
0.0
 45
0.0
 46
0.0
 47
0.0
 48
0.0
 49
0.0
140
0.0
141
0.0
142
1.0
143
1.0
 70
   688
 72
     0
 73
     0
 74
     5
  7

 75
    16
147
1.0
148
0.0
149
0.0
100
AcDbLayout
  1
レイアウト1
 70
     0
 71
     1
 10
0.0
 20
0.0
 11
420.0
 21
297.0
 12
0.0
 22
0.0
 32
0.0
 14
1.000000000000000E+20
 24
1.000000000000000E+20
 34
1.000000000000000E+20
 15
-1.000000000000000E+20
 25
-1.000000000000000E+20
 35
-1.000000000000000E+20
146
0.0
 13
0.0
 23
0.0
 33
0.0
 16
1.0
 26
0.0
 36
0.0
 17
0.0
 27
1.0
 37
0.0
 76
     0
330
BF20
  0
MATERIAL
  5
C10B
102
{ACAD_XDICTIONARY
360
C10C
102
}
102
{ACAD_REACTORS
330
C102
102
}
330
C102
100
AcDbMaterial
  1
ByBlock
 72
     0
 43
0.0208333333333333
 43
0.0
 43
0.0
 43
0.0
 43
0.0
 43
0.0208333333333333
 43
0.0
 43
0.0
 43
0.0
 43
0.0
 43
1.0
 43
0.0
 43
0.0
 43
0.0
 43
0.0
 43
1.0
 77
     0
 47
0.0208333333333333
 47
0.0
 47
0.0
 47
0.0
 47
0.0
 47
0.0208333333333333
 47
0.0
 47
0.0
 47
0.0
 47
0.0
 47
1.0
 47
0.0
 47
0.0
 47
0.0
 47
0.0
 47
1.0
171
     0
 49
0.0208333333333333
 49
0.0
 49
0.0
 49
0.0
 49
0.0
 49
0.0208333333333333
 49
0.0
 49
0.0
 49
0.0
 49
0.0
 49
1.0
 49
0.0
 49
0.0
 49
0.0
 49
0.0
 49
1.0
175
     0
142
0.0208333333333333
142
0.0
142
0.0
142
0.0
142
0.0
142
0.0208333333333333
142
0.0
142
0.0
142
0.0
142
0.0
142
1.0
142
0.0
142
0.0
142
0.0
142
0.0
142
1.0
179
     0
144
0.0208333333333333
144
0.0
144
0.0
144
0.0
144
0.0
144
0.0208333333333333
144
0.0
144
0.0
144
0.0
144
0.0
144
1.0
144
0.0
144
0.0
144
0.0
144
0.0
144
1.0
147
0.0208333333333333
147
0.0
147
0.0
147
0.0
147
0.0
147
0.0208333333333333
147
0.0
147
0.0
147
0.0
147
0.0
147
1.0
147
0.0
147
0.0
147
0.0
147
0.0
147
1.0
  0
MATERIAL
  5
C103
102
{ACAD_XDICTIONARY
360
C104
102
}
102
{ACAD_REACTORS
330
C102
102
}
330
C102
100
AcDbMaterial
  1
ByLayer
 72
     0
 43
0.0208333333333333
 43
0.0
 43
0.0
 43
0.0
 43
0.0
 43
0.0208333333333333
 43
0.0
 43
0.0
 43
0.0
 43
0.0
 43
1.0
 43
0.0
 43
0.0
 43
0.0
 43
0.0
 43
1.0
 77
     0
 47
0.0208333333333333
 47
0.0
 47
0.0
 47
0.0
 47
0.0
 47
0.0208333333333333
 47
0.0
 47
0.0
 47
0.0
 47
0.0
 47
1.0
 47
0.0
 47
0.0
 47
0.0
 47
0.0
 47
1.0
171
     0
 49
0.0208333333333333
 49
0.0
 49
0.0
 49
0.0
 49
0.0
 49
0.0208333333333333
 49
0.0
 49
0.0
 49
0.0
 49
0.0
 49
1.0
 49
0.0
 49
0.0
 49
0.0
 49
0.0
 49
1.0
175
     0
142
0.0208333333333333
142
0.0
142
0.0
142
0.0
142
0.0
142
0.0208333333333333
142
0.0
142
0.0
142
0.0
142
0.0
142
1.0
142
0.0
142
0.0
142
0.0
142
0.0
142
1.0
179
     0
144
0.0208333333333333
144
0.0
144
0.0
144
0.0
144
0.0
144
0.0208333333333333
144
0.0
144
0.0
144
0.0
144
0.0
144
1.0
144
0.0
144
0.0
144
0.0
144
0.0
144
1.0
147
0.0208333333333333
147
0.0
147
0.0
147
0.0
147
0.0
147
0.0208333333333333
147
0.0
147
0.0
147
0.0
147
0.0
147
1.0
147
0.0
147
0.0
147
0.0
147
0.0
147
1.0
  0
MATERIAL
  5
C113
102
{ACAD_XDICTIONARY
360
C114
102
}
102
{ACAD_REACTORS
330
C102
102
}
330
C102
100
AcDbMaterial
  1
Global
 72
     0
 43
0.0208333333333333
 43
0.0
 43
0.0
 43
0.0
 43
0.0
 43
0.0208333333333333
 43
0.0
 43
0.0
 43
0.0
 43
0.0
 43
1.0
 43
0.0
 43
0.0
 43
0.0
 43
0.0
 43
1.0
 77
     0
 47
0.0208333333333333
 47
0.0
 47
0.0
 47
0.0
 47
0.0
 47
0.0208333333333333
 47
0.0
 47
0.0
 47
0.0
 47
0.0
 47
1.0
 47
0.0
 47
0.0
 47
0.0
 47
0.0
 47
1.0
171
     0
 49
0.0208333333333333
 49
0.0
 49
0.0
 49
0.0
 49
0.0
 49
0.0208333333333333
 49
0.0
 49
0.0
 49
0.0
 49
0.0
 49
1.0
 49
0.0
 49
0.0
 49
0.0
 49
0.0
 49
1.0
175
     0
142
0.0208333333333333
142
0.0
142
0.0
142
0.0
142
0.0
142
0.0208333333333333
142
0.0
142
0.0
142
0.0
142
0.0
142
1.0
142
0.0
142
0.0
142
0.0
142
0.0
142
1.0
179
     0
144
0.0208333333333333
144
0.0
144
0.0
144
0.0
144
0.0
144
0.0208333333333333
144
0.0
144
0.0
144
0.0
144
0.0
144
1.0
144
0.0
144
0.0
144
0.0
144
0.0
144
1.0
147
0.0208333333333333
147
0.0
147
0.0
147
0.0
147
0.0
147
0.0208333333333333
147
0.0
147
0.0
147
0.0
147
0.0
147
1.0
147
0.0
147
0.0
147
0.0
147
0.0
147
1.0
  0
MLEADERSTYLE
  5
C14A
102
{ACAD_REACTORS
330
C149
102
}
330
C149
100
AcDbMLeaderStyle
170
     2
171
     1
172
     0
 90
        2
 40
0.0
 41
0.0
173
     1
 91
-1056964608
340
BF19
 92
       -2
290
     1
 42
0.09
291
     1
 43
0.36
  3
Standard
 44
0.18
300

342
BF17
174
     1
178
     6
175
     1
176
     0
 93
-1056964608
 45
0.18
292
     0
297
     0
 46
0.18
 94
-1056964608
 47
1.0
 49
1.0
140
1.0
293
     1
141
0.0
294
     1
177
     0
142
1.0
295
     0
296
     0
143
0.125
1001
ACAD_MLEADERVER
1070
     2
  0
MLINESTYLE
  5
BF1D
102
{ACAD_REACTORS
330
BF1C
102
}
330
BF1C
100
AcDbMlineStyle
  2
STANDARD
 70
     0
  3

 62
   256
 51
90.0
 52
90.0
 71
     2
 49
0.5
 62
   256
  6
BYLAYER
 49
-0.5
 62
   256
  6
BYLAYER
  0
ACDBPLACEHOLDER
  5
C101
102
{ACAD_REACTORS
330
C100
102
}
330
C100
  0
SCALE
  5
C138
102
{ACAD_REACTORS
330
C137
102
}
330
C137
100
AcDbScale
 70
     0
300
1:1
140
1.0
141
1.0
290
     1
  0
SCALE
  5
C139
102
{ACAD_REACTORS
330
C137
102
}
330
C137
100
AcDbScale
 70
     0
300
1/128" = 1'-0"
140
0.0078125
141
12.0
290
     0
  0
SCALE
  5
C13A
102
{ACAD_REACTORS
330
C137
102
}
330
C137
100
AcDbScale
 70
     0
300
1/64" = 1'-0"
140
0.015625
141
12.0
290
     0
  0
SCALE
  5
C13B
102
{ACAD_REACTORS
330
C137
102
}
330
C137
100
AcDbScale
 70
     0
300
1/32" = 1'-0"
140
0.03125
141
12.0
290
     0
  0
SCALE
  5
C13C
102
{ACAD_REACTORS
330
C137
102
}
330
C137
100
AcDbScale
 70
     0
300
1/16" = 1'-0"
140
0.0625
141
12.0
290
     0
  0
SCALE
  5
C13D
102
{ACAD_REACTORS
330
C137
102
}
330
C137
100
AcDbScale
 70
     0
300
3/32" = 1'-0"
140
0.09375
141
12.0
290
     0
  0
SCALE
  5
C13E
102
{ACAD_REACTORS
330
C137
102
}
330
C137
100
AcDbScale
 70
     0
300
1/8" = 1'-0"
140
0.125
141
12.0
290
     0
  0
SCALE
  5
C13F
102
{ACAD_REACTORS
330
C137
102
}
330
C137
100
AcDbScale
 70
     0
300
3/16" = 1'-0"
140
0.1875
141
12.0
290
     0
  0
SCALE
  5
C140
102
{ACAD_REACTORS
330
C137
102
}
330
C137
100
AcDbScale
 70
     0
300
1/4" = 1'-0"
140
0.25
141
12.0
290
     0
  0
SCALE
  5
C141
102
{ACAD_REACTORS
330
C137
102
}
330
C137
100
AcDbScale
 70
     0
300
3/8" = 1'-0"
140
0.375
141
12.0
290
     0
  0
SCALE
  5
C142
102
{ACAD_REACTORS
330
C137
102
}
330
C137
100
AcDbScale
 70
     0
300
1/2" = 1'-0"
140
0.5
141
12.0
290
     0
  0
SCALE
  5
C143
102
{ACAD_REACTORS
330
C137
102
}
330
C137
100
AcDbScale
 70
     0
300
3/4" = 1'-0"
140
0.75
141
12.0
290
     0
  0
SCALE
  5
C144
102
{ACAD_REACTORS
330
C137
102
}
330
C137
100
AcDbScale
 70
     0
300
1" = 1'-0"
140
1.0
141
12.0
290
     0
  0
SCALE
  5
C145
102
{ACAD_REACTORS
330
C137
102
}
330
C137
100
AcDbScale
 70
     0
300
1-1/2" = 1'-0"
140
1.5
141
12.0
290
     0
  0
SCALE
  5
C146
102
{ACAD_REACTORS
330
C137
102
}
330
C137
100
AcDbScale
 70
     0
300
3" = 1'-0"
140
3.0
141
12.0
290
     0
  0
SCALE
  5
C147
102
{ACAD_REACTORS
330
C137
102
}
330
C137
100
AcDbScale
 70
     0
300
6" = 1'-0"
140
6.0
141
12.0
290
     0
  0
SCALE
  5
C148
102
{ACAD_REACTORS
330
C137
102
}
330
C137
100
AcDbScale
 70
     0
300
1'-0" = 1'-0"
140
12.0
141
12.0
290
     0
  0
ACDBSECTIONVIEWSTYLE
  5
C14C
102
{ACAD_XDICTIONARY
360
C1A7
102
}
102
{ACAD_REACTORS
330
C14B
102
}
330
C14B
100
AcDbModelDocViewStyle
 70
     0
  3
Imperial24
290
     0
100
AcDbSectionViewStyle
 70
     0
 71
     0
 90
       78
 71
     1
340
BF17
 40
0.24
340
0
340
0
 40
0.24
300
I, O, Q, S, X, Z
 40
0.48
 90
        3
 40
0.18
 90
        1
 71
     2
340
BF1B
 90
       25
340
BF1B
 90
       50
 40
0.24
 40
0.0
 40
0.24
 71
     3
340
BF17
 40
0.24
 90
        1
 40
0.75
 90
        1
300
%<\AcVar ViewType \f "%tc1">% %<\AcVar ViewSectionStartId>%-%<\AcVar ViewSectionEndId>%\PSCALE %<\AcVar ViewScale \f "%sn">%
 71
     4
300
ANSI31
 40
1.0
 90
        0
290
     0
290
     0
 90
        6
 40
0.0
 40
1.570796326794896
 40
0.2617993877991494
 40
1.308996938995747
 40
-0.2617993877991494
 40
1.832595714594046
  0
TABLESTYLE
  5
C136
102
{ACAD_XDICTIONARY
360
C16E
102
}
102
{ACAD_REACTORS
330
C135
102
}
330
C135
100
AcDbTableStyle
  3
Standard
 70
     0
 71
     0
 40
0.06
 41
0.06
280
     0
281
     0
  7
STANDARD
140
0.18
170
     2
 62
     0
 63
     7
283
     0
274
    -2
284
     1
 64
     0
275
    -2
285
     1
 65
     0
276
    -2
286
     1
 66
     0
277
    -2
287
     1
 67
     0
278
    -2
288
     1
 68
     0
279
    -2
289
     1
 69
     0
  7
STANDARD
140
0.25
170
     5
 62
     0
 63
     7
283
     0
274
    -2
284
     1
 64
     0
275
    -2
285
     1
 65
     0
276
    -2
286
     1
 66
     0
277
    -2
287
     1
 67
     0
278
    -2
288
     1
 68
     0
279
    -2
289
     1
 69
     0
  7
STANDARD
140
0.18
170
     5
 62
     0
 63
     7
283
     0
274
    -2
284
     1
 64
     0
275
    -2
285
     1
 65
     0
276
    -2
286
     1
 66
     0
277
    -2
287
     1
 67
     0
278
    -2
288
     1
 68
     0
279
    -2
289
     1
 69
     0
  0
VISUALSTYLE
  5
C121
102
{ACAD_XDICTIONARY
360
C17F
102
}
102
{ACAD_REACTORS
330
C11B
102
}
330
C11B
100
AcDbVisualStyle
  2
2dWireframe
 70
     4
 71
     0
 72
     2
 73
     0
 90
        0
 40
-0.6
 41
-30.0
 62
     5
 63
     7
 74
     1
 91
        4
 64
     7
 65
   257
 75
     1
175
     1
 42
1.0
 92
        0
 66
   257
 43
1.0
 76
     1
 77
     6
 78
     2
 67
     7
 79
     5
170
     0
171
     0
290
     0
174
     0
 93
        1
 44
0.0
173
     0
291
     0
 45
0.0
1001
ACAD
1000
AcDbSavedByObjectVersion
1070
     0
  0
VISUALSTYLE
  5
C120
102
{ACAD_XDICTIONARY
360
C17D
102
}
102
{ACAD_REACTORS
330
C11B
102
}
330
C11B
100
AcDbVisualStyle
  2
Basic
 70
     7
 71
     1
 72
     0
 73
     1
 90
        0
 40
-0.6
 41
-30.0
 62
     5
 63
     7
 74
     0
 91
        4
 64
     7
 65
   257
 75
     1
175
     1
 42
1.0
 92
        8
 66
     7
 43
1.0
 76
     1
 77
     6
 78
     2
 67
     7
 79
     5
170
     0
171
     0
290
     0
174
     0
 93
        1
 44
0.0
173
     0
291
     1
 45
0.0
1001
ACAD
1000
AcDbSavedByObjectVersion
1070
     0
  0
VISUALSTYLE
  5
C127
102
{ACAD_XDICTIONARY
360
C18B
102
}
102
{ACAD_REACTORS
330
C11B
102
}
330
C11B
100
AcDbVisualStyle
  2
Brighten
 70
    12
 71
     2
 72
     2
 73
     0
 90
        0
 40
-0.6
 41
-30.0
 62
     5
 63
     7
 74
     1
 91
        4
 64
     7
 65
   257
 75
     1
175
     1
 42
1.0
 92
        8
 66
     7
 43
1.0
 76
     1
 77
     6
 78
     2
 67
     7
 79
     5
170
     0
171
     0
290
     0
174
     0
 93
        1
 44
50.0
173
     0
291
     1
 45
0.0
1001
ACAD
1000
AcDbSavedByObjectVersion
1070
     0
  0
VISUALSTYLE
  5
C12B
102
{ACAD_XDICTIONARY
360
C193
102
}
102
{ACAD_REACTORS
330
C11B
102
}
330
C11B
100
AcDbVisualStyle
  2
ColorChange
 70
    16
 71
     2
 72
     2
 73
     3
 90
        0
 40
-0.6
 41
-30.0
 62
     5
 63
     8
 74
     1
 91
        4
 64
     7
 65
   257
 75
     1
175
     1
 42
1.0
 92
        8
 66
     8
 43
1.0
 76
     1
 77
     6
 78
     2
 67
     7
 79
     5
170
     0
171
     0
290
     0
174
     0
 93
        1
 44
0.0
173
     0
291
     1
 45
0.0
1001
ACAD
1000
AcDbSavedByObjectVersion
1070
     0
  0
VISUALSTYLE
  5
C124
102
{ACAD_XDICTIONARY
360
C185
102
}
102
{ACAD_REACTORS
330
C11B
102
}
330
C11B
100
AcDbVisualStyle
  2
Conceptual
 70
     9
 71
     3
 72
     2
 73
     0
 90
        0
 40
-0.6
 41
-30.0
 62
     5
 63
     7
 74
     2
 91
        2
 64
     7
 65
   257
 75
     1
175
     1
 42
179.0
 92
        8
 66
     7
 43
1.0
 76
     1
 77
     6
 78
     2
 67
     7
 79
     3
170
     0
171
     0
290
     0
174
     0
 93
        1
 44
0.0
173
     0
291
     0
 45
0.0
1001
ACAD
1000
AcDbSavedByObjectVersion
1070
     0
  0
VISUALSTYLE
  5
C126
102
{ACAD_XDICTIONARY
360
C189
102
}
102
{ACAD_REACTORS
330
C11B
102
}
330
C11B
100
AcDbVisualStyle
  2
Dim
 70
    11
 71
     2
 72
     2
 73
     0
 90
        0
 40
-0.6
 41
-30.0
 62
     5
 63
     7
 74
     1
 91
        4
 64
     7
 65
   257
 75
     1
175
     1
 42
1.0
 92
        8
 66
     7
 43
1.0
 76
     1
 77
     6
 78
     2
 67
     7
 79
     5
170
     0
171
     0
290
     0
174
     0
 93
        1
 44
-50.0
173
     0
291
     1
 45
0.0
1001
ACAD
1000
AcDbSavedByObjectVersion
1070
     0
  0
VISUALSTYLE
  5
C133
102
{ACAD_XDICTIONARY
360
C1A3
102
}
102
{ACAD_REACTORS
330
C11B
102
}
330
C11B
100
AcDbVisualStyle
  2
EdgeColorOff
 70
    22
 71
     2
 72
     2
 73
     0
 90
        0
 40
-0.6
 41
-30.0
 62
     5
 63
     7
 74
     1
 91
        4
 64
     7
 65
   257
 75
     1
175
     1
 42
1.0
 92
        8
 66
     7
 43
1.0
 76
     1
 77
     6
 78
     2
 67
     7
 79
     5
170
     0
171
     0
290
     0
174
     0
 93
        1
 44
0.0
173
     0
291
     1
 45
0.0
1001
ACAD
1000
AcDbSavedByObjectVersion
1070
     0
  0
VISUALSTYLE
  5
C12A
102
{ACAD_XDICTIONARY
360
C191
102
}
102
{ACAD_REACTORS
330
C11B
102
}
330
C11B
100
AcDbVisualStyle
  2
Facepattern
 70
    15
 71
     2
 72
     2
 73
     0
 90
        0
 40
-0.6
 41
-30.0
 62
     5
 63
     7
 74
     1
 91
        4
 64
     7
 65
   257
 75
     1
175
     1
 42
1.0
 92
        8
 66
     7
 43
1.0
 76
     1
 77
     6
 78
     2
 67
     7
 79
     5
170
     0
171
     0
290
     0
174
     0
 93
        1
 44
0.0
173
     0
291
     1
 45
0.0
1001
ACAD
1000
AcDbSavedByObjectVersion
1070
     0
  0
VISUALSTYLE
  5
C11C
102
{ACAD_XDICTIONARY
360
C175
102
}
102
{ACAD_REACTORS
330
C11B
102
}
330
C11B
100
AcDbVisualStyle
  2
Flat
 70
     0
 71
     2
 72
     1
 73
     1
 90
        2
 40
-0.6
 41
30.0
 62
     5
 63
     7
 74
     0
 91
        0
 64
     7
 65
   257
 75
     1
175
     1
 42
1.0
 92
        8
 66
     7
 43
1.0
 76
     1
 77
     6
 78
     2
 67
     7
 79
     5
170
     0
171
     0
290
     0
174
     0
 93
       13
 44
0.0
173
     0
291
     1
 45
0.0
1001
ACAD
1000
AcDbSavedByObjectVersion
1070
     0
  0
VISUALSTYLE
  5
C11D
102
{ACAD_XDICTIONARY
360
C177
102
}
102
{ACAD_REACTORS
330
C11B
102
}
330
C11B
100
AcDbVisualStyle
  2
FlatWithEdges
 70
     1
 71
     2
 72
     1
 73
     1
 90
        2
 40
-0.6
 41
30.0
 62
     5
 63
     7
 74
     1
 91
        0
 64
     7
 65
   257
 75
     1
175
     1
 42
1.0
 92
        0
 66
   257
 43
1.0
 76
     1
 77
     6
 78
     2
 67
     7
 79
     5
170
     0
171
     0
290
     0
174
     0
 93
       13
 44
0.0
173
     0
291
     1
 45
0.0
1001
ACAD
1000
AcDbSavedByObjectVersion
1070
     0
  0
VISUALSTYLE
  5
C11E
102
{ACAD_XDICTIONARY
360
C179
102
}
102
{ACAD_REACTORS
330
C11B
102
}
330
C11B
100
AcDbVisualStyle
  2
Gouraud
 70
     2
 71
     2
 72
     2
 73
     1
 90
        2
 40
-0.6
 41
30.0
 62
     5
 63
     7
 74
     0
 91
        0
 64
     7
 65
   257
 75
     1
175
     1
 42
1.0
 92
        0
 66
     7
 43
1.0
 76
     1
 77
     6
 78
     2
 67
     7
 79
     5
170
     0
171
     0
290
     0
174
     0
 93
       13
 44
0.0
173
     0
291
     1
 45
0.0
1001
ACAD
1000
AcDbSavedByObjectVersion
1070
     0
  0
VISUALSTYLE
  5
C11F
102
{ACAD_XDICTIONARY
360
C17B
102
}
102
{ACAD_REACTORS
330
C11B
102
}
330
C11B
100
AcDbVisualStyle
  2
GouraudWithEdges
 70
     3
 71
     2
 72
     2
 73
     1
 90
        2
 40
-0.6
 41
30.0
 62
     5
 63
     7
 74
     1
 91
        0
 64
     7
 65
   257
 75
     1
175
     1
 42
1.0
 92
        0
 66
   257
 43
1.0
 76
     1
 77
     6
 78
     2
 67
     7
 79
     5
170
     0
171
     0
290
     0
174
     0
 93
       13
 44
0.0
173
     0
291
     1
 45
0.0
1001
ACAD
1000
AcDbSavedByObjectVersion
1070
     0
  0
VISUALSTYLE
  5
C123
102
{ACAD_XDICTIONARY
360
C183
102
}
102
{ACAD_REACTORS
330
C11B
102
}
330
C11B
100
AcDbVisualStyle
  2
Hidden
 70
     6
 71
     1
 72
     2
 73
     2
 90
        0
 40
-0.6
 41
-30.0
 62
     5
 63
     7
 74
     2
 91
        2
 64
     7
 65
   257
 75
     2
175
     1
 42
40.0
 92
        0
 66
   257
 43
1.0
 76
     1
 77
     6
 78
     2
 67
     7
 79
     3
170
     0
171
     0
290
     0
174
     0
 93
        1
 44
0.0
173
     0
291
     0
 45
0.0
1001
ACAD
1000
AcDbSavedByObjectVersion
1070
     0
  0
VISUALSTYLE
  5
C131
102
{ACAD_XDICTIONARY
360
C19F
102
}
102
{ACAD_REACTORS
330
C11B
102
}
330
C11B
100
AcDbVisualStyle
  2
JitterOff
 70
    20
 71
     2
 72
     2
 73
     0
 90
        0
 40
-0.6
 41
-30.0
 62
     5
 63
     7
 74
     1
 91
        4
 64
     7
 65
   257
 75
     1
175
     1
 42
1.0
 92
       10
 66
     7
 43
1.0
 76
     1
 77
     6
 78
     2
 67
     7
 79
     5
170
     0
171
     0
290
     0
174
     0
 93
        1
 44
0.0
173
     0
291
     1
 45
0.0
1001
ACAD
1000
AcDbSavedByObjectVersion
1070
     0
  0
VISUALSTYLE
  5
C129
102
{ACAD_XDICTIONARY
360
C18F
102
}
102
{ACAD_REACTORS
330
C11B
102
}
330
C11B
100
AcDbVisualStyle
  2
Linepattern
 70
    14
 71
     2
 72
     2
 73
     0
 90
        0
 40
-0.6
 41
-30.0
 62
     5
 63
     7
 74
     1
 91
        4
 64
     7
 65
   257
 75
     7
175
     7
 42
1.0
 92
        8
 66
     7
 43
1.0
 76
     1
 77
     6
 78
     2
 67
     7
 79
     5
170
     0
171
     0
290
     0
174
     0
 93
        1
 44
0.0
173
     0
291
     1
 45
0.0
1001
ACAD
1000
AcDbSavedByObjectVersion
1070
     0
  0
VISUALSTYLE
  5
C132
102
{ACAD_XDICTIONARY
360
C1A1
102
}
102
{ACAD_REACTORS
330
C11B
102
}
330
C11B
100
AcDbVisualStyle
  2
OverhangOff
 70
    21
 71
     2
 72
     2
 73
     0
 90
        0
 40
-0.6
 41
-30.0
 62
     5
 63
     7
 74
     1
 91
        4
 64
     7
 65
   257
 75
     1
175
     1
 42
1.0
 92
        9
 66
     7
 43
1.0
 76
     1
 77
     6
 78
     2
 67
     7
 79
     5
170
     0
171
     0
290
     0
174
     0
 93
        1
 44
0.0
173
     0
291
     1
 45
0.0
1001
ACAD
1000
AcDbSavedByObjectVersion
1070
     0
  0
VISUALSTYLE
  5
C125
102
{ACAD_XDICTIONARY
360
C187
102
}
102
{ACAD_REACTORS
330
C11B
102
}
330
C11B
100
AcDbVisualStyle
  2
Realistic
 70
     8
 71
     2
 72
     3
 73
     0
 90
        2
 40
-0.6
 41
30.0
 62
     5
 63
     7
 74
     0
 91
        0
 64
     7
 65
   257
 75
     1
175
     1
 42
1.0
 92
        8
 66
   257
 43
1.0
 76
     1
 77
     6
 78
     2
 67
     7
 79
     3
170
     0
171
     0
290
     0
174
     0
 93
       13
 44
0.0
173
     0
291
     0
 45
0.0
1001
ACAD
1000
AcDbSavedByObjectVersion
1070
     0
  0
VISUALSTYLE
  5
C130
102
{ACAD_XDICTIONARY
360
C19D
102
}
102
{ACAD_REACTORS
330
C11B
102
}
330
C11B
100
AcDbVisualStyle
  2
Shaded
 70
    27
 71
     2
 72
     2
 73
     1
 90
        2
 40
-0.6
 41
30.0
 62
     5
 63
     7
 74
     0
 91
        4
 64
     7
 65
   257
 75
     1
175
     1
 42
1.0
 92
        8
 66
   257
 43
1.0
 76
     1
 77
     6
 78
     2
 67
     8
 79
     3
170
     0
171
     0
290
     0
174
     0
 93
        5
 44
0.0
173
     0
291
     0
 45
0.0
1001
ACAD
1000
AcDbSavedByObjectVersion
1070
     0
  0
VISUALSTYLE
  5
C12F
102
{ACAD_XDICTIONARY
360
C19B
102
}
102
{ACAD_REACTORS
330
C11B
102
}
330
C11B
100
AcDbVisualStyle
  2
Shaded with edges
 70
    26
 71
     2
 72
     2
 73
     1
 90
        2
 40
-0.6
 41
30.0
 62
     5
 63
     7
 74
     1
 91
       10
 64
     7
 65
   257
 75
     2
175
     1
 42
1.0
 92
        8
 66
   257
 43
1.0
 76
     1
 77
     6
 78
     2
 67
     7
 79
     3
170
     0
171
     0
290
     0
174
     0
 93
        5
 44
0.0
173
     0
291
     0
 45
0.0
1001
ACAD
1000
AcDbSavedByObjectVersion
1070
     0
  0
VISUALSTYLE
  5
C12C
102
{ACAD_XDICTIONARY
360
C195
102
}
102
{ACAD_REACTORS
330
C11B
102
}
330
C11B
100
AcDbVisualStyle
  2
Shades of Gray
 70
    23
 71
     2
 72
     2
 73
     3
 90
        0
 40
-0.6
 41
-30.0
 62
     5
 63
     7
 74
     2
 91
        2
 64
     7
 65
     7
 75
     1
175
     1
 42
40.0
 92
        8
 66
     7
 43
1.0
 76
     1
 77
     6
 78
     2
 67
     7
 79
     3
170
     0
171
     0
290
     0
174
     0
 93
        1
 44
0.0
173
     0
291
     0
 45
0.0
1001
ACAD
1000
AcDbSavedByObjectVersion
1070
     0
  0
VISUALSTYLE
  5
C12D
102
{ACAD_XDICTIONARY
360
C197
102
}
102
{ACAD_REACTORS
330
C11B
102
}
330
C11B
100
AcDbVisualStyle
  2
Sketchy
 70
    24
 71
     1
 72
     2
 73
     2
 90
        0
 40
-0.6
 41
-30.0
 62
     5
 63
     7
 74
     2
 91
        2
 64
     7
 65
     7
 75
     1
175
     1
 42
40.0
 92
       11
 66
     7
 43
1.0
 76
     1
 77
     6
 78
     2
 67
     7
 79
     6
170
     0
171
     0
290
     0
174
     0
 93
        1
 44
0.0
173
     0
291
     0
 45
0.0
1001
ACAD
1000
AcDbSavedByObjectVersion
1070
     0
  0
VISUALSTYLE
  5
C128
102
{ACAD_XDICTIONARY
360
C18D
102
}
102
{ACAD_REACTORS
330
C11B
102
}
330
C11B
100
AcDbVisualStyle
  2
Thicken
 70
    13
 71
     2
 72
     2
 73
     0
 90
        0
 40
-0.6
 41
-30.0
 62
     5
 63
     7
 74
     1
 91
        4
 64
     7
 65
   257
 75
     1
175
     1
 42
1.0
 92
       12
 66
     7
 43
1.0
 76
     1
 77
     6
 78
     2
 67
     7
 79
     5
170
     0
171
     0
290
     0
174
     0
 93
        1
 44
0.0
173
     0
291
     1
 45
0.0
1001
ACAD
1000
AcDbSavedByObjectVersion
1070
     0
  0
VISUALSTYLE
  5
C122
102
{ACAD_XDICTIONARY
360
C181
102
}
102
{ACAD_REACTORS
330
C11B
102
}
330
C11B
100
AcDbVisualStyle
  2
Wireframe
 70
     5
 71
     0
 72
     2
 73
     0
 90
        0
 40
-0.6
 41
-30.0
 62
     5
 63
     7
 74
     1
 91
        4
 64
     7
 65
   257
 75
     1
175
     1
 42
1.0
 92
        0
 66
   257
 43
1.0
 76
     1
 77
     6
 78
     2
 67
     7
 79
     3
170
     0
171
     0
290
     0
174
     0
 93
        1
 44
0.0
173
     0
291
     0
 45
0.0
1001
ACAD
1000
AcDbSavedByObjectVersion
1070
     0
  0
VISUALSTYLE
  5
C12E
102
{ACAD_XDICTIONARY
360
C199
102
}
102
{ACAD_REACTORS
330
C11B
102
}
330
C11B
100
AcDbVisualStyle
  2
X-Ray
 70
    25
 71
     2
 72
     2
 73
     1
 90
        1
 40
0.5
 41
-30.0
 62
     5
 63
     7
 74
     1
 91
        0
 64
     7
 65
   257
 75
     1
175
     1
 42
1.0
 92
        8
 66
     7
 43
1.0
 76
     1
 77
     6
 78
     2
 67
     7
 79
     3
170
     0
171
     0
290
     0
174
     0
 93
       13
 44
0.0
173
     0
291
     0
 45
0.0
1001
ACAD
1000
AcDbSavedByObjectVersion
1070
     0
  0
DICTIONARYVAR
  5
C168
102
{ACAD_REACTORS
330
C163
102
}
330
C163
100
DictionaryVariables
280
     0
  1
1:1
  0
DICTIONARYVAR
  5
C165
102
{ACAD_REACTORS
330
C163
102
}
330
C163
100
DictionaryVariables
280
     0
  1
STANDARD
  0
DICTIONARYVAR
  5
C164
102
{ACAD_REACTORS
330
C163
102
}
330
C163
100
DictionaryVariables
280
     0
  1
STANDARD
  0
DICTIONARYVAR
  5
C166
102
{ACAD_REACTORS
330
C163
102
}
330
C163
100
DictionaryVariables
280
     0
  1
Imperial24
  0
DICTIONARYVAR
  5
C167
102
{ACAD_REACTORS
330
C163
102
}
330
C163
100
DictionaryVariables
280
     0
  1
Imperial24
  0
DICTIONARYVAR
  5
C16B
102
{ACAD_REACTORS
330
C163
102
}
330
C163
100
DictionaryVariables
280
     0
  1
1
  0
DICTIONARYVAR
  5
C16A
102
{ACAD_REACTORS
330
C163
102
}
330
C163
100
DictionaryVariables
280
     0
  1
0
  0
DICTIONARYVAR
  5
C169
102
{ACAD_REACTORS
330
C163
102
}
330
C163
100
DictionaryVariables
280
     0
  1
127
  0
DICTIONARYVAR
  5
C16C
102
{ACAD_REACTORS
330
C163
102
}
330
C163
100
DictionaryVariables
280
     0
  1
2
  0
DICTIONARY
  5
C1A9
330
C14E
100
AcDbDictionary
280
     1
281
     1
  3
ACAD_XREC_ROUNDTRIP
360
C1AA
  0
DICTIONARY
  5
C1AB
330
C14F
100
AcDbDictionary
280
     1
281
     1
  3
ACAD_XREC_ROUNDTRIP
360
C1AC
  0
DICTIONARY
  5
C1AD
330
C150
100
AcDbDictionary
280
     1
281
     1
  3
ACAD_XREC_ROUNDTRIP
360
C1AE
  0
DICTIONARY
  5
C10C
330
C10B
100
AcDbDictionary
280
     1
281
     1
  3
ACAD_XREC_ROUNDTRIP
360
C173
  3
BUMPTILE
360
C10E
  3
DIFFUSETILE
360
C10D
  3
OPACITYTILE
360
C111
  3
REFLECTIONTILE
360
C110
  3
REFRACTIONTILE
360
C112
  3
SPECULARTILE
360
C10F
  0
DICTIONARY
  5
C104
330
C103
100
AcDbDictionary
280
     1
281
     1
  3
ACAD_XREC_ROUNDTRIP
360
C172
  3
BUMPTILE
360
C106
  3
DIFFUSETILE
360
C105
  3
OPACITYTILE
360
C109
  3
REFLECTIONTILE
360
C108
  3
REFRACTIONTILE
360
C10A
  3
SPECULARTILE
360
C107
  0
DICTIONARY
  5
C114
330
C113
100
AcDbDictionary
280
     1
281
     1
  3
ACAD_XREC_ROUNDTRIP
360
C174
  3
BUMPTILE
360
C116
  3
DIFFUSETILE
360
C115
  3
OPACITYTILE
360
C119
  3
REFLECTIONTILE
360
C118
  3
REFRACTIONTILE
360
C11A
  3
SPECULARTILE
360
C117
  0
DICTIONARY
  5
C1A7
330
C14C
100
AcDbDictionary
280
     1
281
     1
  3
ACAD_XREC_ROUNDTRIP
360
C1A8
  0
DICTIONARY
  5
C16E
330
C136
100
AcDbDictionary
280
     1
281
     1
  3
ACAD_ROUNDTRIP_2008_TABLESTYLE_CELLSTYLEMAP
360
C16F
  3
ACAD_XREC_ROUNDTRIP
360
C1A5
  0
DICTIONARY
  5
C17F
330
C121
100
AcDbDictionary
280
     1
281
     1
  3
ACAD_XREC_ROUNDTRIP
360
C180
  0
DICTIONARY
  5
C17D
330
C120
100
AcDbDictionary
280
     1
281
     1
  3
ACAD_XREC_ROUNDTRIP
360
C17E
  0
DICTIONARY
  5
C18B
330
C127
100
AcDbDictionary
280
     1
281
     1
  3
ACAD_XREC_ROUNDTRIP
360
C18C
  0
DICTIONARY
  5
C193
330
C12B
100
AcDbDictionary
280
     1
281
     1
  3
ACAD_XREC_ROUNDTRIP
360
C194
  0
DICTIONARY
  5
C185
330
C124
100
AcDbDictionary
280
     1
281
     1
  3
ACAD_XREC_ROUNDTRIP
360
C186
  0
DICTIONARY
  5
C189
330
C126
100
AcDbDictionary
280
     1
281
     1
  3
ACAD_XREC_ROUNDTRIP
360
C18A
  0
DICTIONARY
  5
C1A3
330
C133
100
AcDbDictionary
280
     1
281
     1
  3
ACAD_XREC_ROUNDTRIP
360
C1A4
  0
DICTIONARY
  5
C191
330
C12A
100
AcDbDictionary
280
     1
281
     1
  3
ACAD_XREC_ROUNDTRIP
360
C192
  0
DICTIONARY
  5
C175
330
C11C
100
AcDbDictionary
280
     1
281
     1
  3
ACAD_XREC_ROUNDTRIP
360
C176
  0
DICTIONARY
  5
C177
330
C11D
100
AcDbDictionary
280
     1
281
     1
  3
ACAD_XREC_ROUNDTRIP
360
C178
  0
DICTIONARY
  5
C179
330
C11E
100
AcDbDictionary
280
     1
281
     1
  3
ACAD_XREC_ROUNDTRIP
360
C17A
  0
DICTIONARY
  5
C17B
330
C11F
100
AcDbDictionary
280
     1
281
     1
  3
ACAD_XREC_ROUNDTRIP
360
C17C
  0
DICTIONARY
  5
C183
330
C123
100
AcDbDictionary
280
     1
281
     1
  3
ACAD_XREC_ROUNDTRIP
360
C184
  0
DICTIONARY
  5
C19F
330
C131
100
AcDbDictionary
280
     1
281
     1
  3
ACAD_XREC_ROUNDTRIP
360
C1A0
  0
DICTIONARY
  5
C18F
330
C129
100
AcDbDictionary
280
     1
281
     1
  3
ACAD_XREC_ROUNDTRIP
360
C190
  0
DICTIONARY
  5
C1A1
330
C132
100
AcDbDictionary
280
     1
281
     1
  3
ACAD_XREC_ROUNDTRIP
360
C1A2
  0
DICTIONARY
  5
C187
330
C125
100
AcDbDictionary
280
     1
281
     1
  3
ACAD_XREC_ROUNDTRIP
360
C188
  0
DICTIONARY
  5
C19D
330
C130
100
AcDbDictionary
280
     1
281
     1
  3
ACAD_XREC_ROUNDTRIP
360
C19E
  0
DICTIONARY
  5
C19B
330
C12F
100
AcDbDictionary
280
     1
281
     1
  3
ACAD_XREC_ROUNDTRIP
360
C19C
  0
DICTIONARY
  5
C195
330
C12C
100
AcDbDictionary
280
     1
281
     1
  3
ACAD_XREC_ROUNDTRIP
360
C196
  0
DICTIONARY
  5
C197
330
C12D
100
AcDbDictionary
280
     1
281
     1
  3
ACAD_XREC_ROUNDTRIP
360
C198
  0
DICTIONARY
  5
C18D
330
C128
100
AcDbDictionary
280
     1
281
     1
  3
ACAD_XREC_ROUNDTRIP
360
C18E
  0
DICTIONARY
  5
C181
330
C122
100
AcDbDictionary
280
     1
281
     1
  3
ACAD_XREC_ROUNDTRIP
360
C182
  0
DICTIONARY
  5
C199
330
C12E
100
AcDbDictionary
280
     1
281
     1
  3
ACAD_XREC_ROUNDTRIP
360
C19A
  0
XRECORD
  5
C1AA
102
{ACAD_REACTORS
330
C1A9
102
}
330
C1A9
100
AcDbXrecord
280
     1
102
DISPLAYNAME
  1
Imperial24
102
FLAGS
 90
        0
  0
XRECORD
  5
C1AC
102
{ACAD_REACTORS
330
C1AB
102
}
330
C1AB
100
AcDbXrecord
280
     1
102
SHADEPLOT
 70
     0
102
SHADEPLOTRESLEVEL
 70
     2
102
SHADEPLOTCUSTOMDPI
 70
   300
  0
XRECORD
  5
C1AE
102
{ACAD_REACTORS
330
C1AD
102
}
330
C1AD
100
AcDbXrecord
280
     1
102
SHADEPLOT
 70
     0
102
SHADEPLOTRESLEVEL
 70
     2
102
SHADEPLOTCUSTOMDPI
 70
   300
  0
XRECORD
  5
C173
102
{ACAD_REACTORS
330
C10C
102
}
330
C10C
100
AcDbXrecord
280
     1
102
MATERIAL
148
0.0
149
0.0
149
0.0
 93
        0
 94
      127
282
     0
 72
     0
 77
     0
171
     0
175
     0
179
     0
273
     0
  0
XRECORD
  5
C10E
102
{ACAD_REACTORS
330
C10C
102
}
330
C10C
100
AcDbXrecord
280
     1
270
     1
271
     1
  0
XRECORD
  5
C10D
102
{ACAD_REACTORS
330
C10C
102
}
330
C10C
100
AcDbXrecord
280
     1
270
     1
271
     1
  0
XRECORD
  5
C111
102
{ACAD_REACTORS
330
C10C
102
}
330
C10C
100
AcDbXrecord
280
     1
270
     1
271
     1
  0
XRECORD
  5
C110
102
{ACAD_REACTORS
330
C10C
102
}
330
C10C
100
AcDbXrecord
280
     1
270
     1
271
     1
  0
XRECORD
  5
C112
102
{ACAD_REACTORS
330
C10C
102
}
330
C10C
100
AcDbXrecord
280
     1
270
     1
271
     1
  0
XRECORD
  5
C10F
102
{ACAD_REACTORS
330
C10C
102
}
330
C10C
100
AcDbXrecord
280
     1
270
     1
271
     1
  0
XRECORD
  5
C172
102
{ACAD_REACTORS
330
C104
102
}
330
C104
100
AcDbXrecord
280
     1
102
MATERIAL
148
0.0
149
0.0
149
0.0
 93
        0
 94
      127
282
     0
 72
     0
 77
     0
171
     0
175
     0
179
     0
273
     0
  0
XRECORD
  5
C106
102
{ACAD_REACTORS
330
C104
102
}
330
C104
100
AcDbXrecord
280
     1
270
     1
271
     1
  0
XRECORD
  5
C105
102
{ACAD_REACTORS
330
C104
102
}
330
C104
100
AcDbXrecord
280
     1
270
     1
271
     1
  0
XRECORD
  5
C109
102
{ACAD_REACTORS
330
C104
102
}
330
C104
100
AcDbXrecord
280
     1
270
     1
271
     1
  0
XRECORD
  5
C108
102
{ACAD_REACTORS
330
C104
102
}
330
C104
100
AcDbXrecord
280
     1
270
     1
271
     1
  0
XRECORD
  5
C10A
102
{ACAD_REACTORS
330
C104
102
}
330
C104
100
AcDbXrecord
280
     1
270
     1
271
     1
  0
XRECORD
  5
C107
102
{ACAD_REACTORS
330
C104
102
}
330
C104
100
AcDbXrecord
280
     1
270
     1
271
     1
  0
XRECORD
  5
C174
102
{ACAD_REACTORS
330
C114
102
}
330
C114
100
AcDbXrecord
280
     1
102
MATERIAL
148
0.0
149
0.0
149
0.0
 93
        0
 94
      127
282
     0
 72
     0
 77
     0
171
     0
175
     0
179
     0
273
     0
  0
XRECORD
  5
C116
102
{ACAD_REACTORS
330
C114
102
}
330
C114
100
AcDbXrecord
280
     1
270
     1
271
     1
  0
XRECORD
  5
C115
102
{ACAD_REACTORS
330
C114
102
}
330
C114
100
AcDbXrecord
280
     1
270
     1
271
     1
  0
XRECORD
  5
C119
102
{ACAD_REACTORS
330
C114
102
}
330
C114
100
AcDbXrecord
280
     1
270
     1
271
     1
  0
XRECORD
  5
C118
102
{ACAD_REACTORS
330
C114
102
}
330
C114
100
AcDbXrecord
280
     1
270
     1
271
     1
  0
XRECORD
  5
C11A
102
{ACAD_REACTORS
330
C114
102
}
330
C114
100
AcDbXrecord
280
     1
270
     1
271
     1
  0
XRECORD
  5
C117
102
{ACAD_REACTORS
330
C114
102
}
330
C114
100
AcDbXrecord
280
     1
270
     1
271
     1
  0
XRECORD
  5
C1A8
102
{ACAD_REACTORS
330
C1A7
102
}
330
C1A7
100
AcDbXrecord
280
     1
102
DISPLAYNAME
  1
Imperial24
102
FLAGS
 90
        0
  0
CELLSTYLEMAP
  5
C16F
102
{ACAD_REACTORS
330
C16E
102
}
330
C16E
100
AcDbCellStyleMap
 90
        3
300
CELLSTYLE
  1
TABLEFORMAT_BEGIN
 90
        5
170
     1
 91
        0
 92
    32768
 62
   257
 93
        1
300
CONTENTFORMAT
  1
CONTENTFORMAT_BEGIN
 90
        0
 91
        0
 92
      512
 93
        0
300

 40
0.0
140
1.0
 94
        5
 62
     0
340
BF17
144
0.25
309
CONTENTFORMAT_END
171
     0
 94
        0
309
TABLEFORMAT_END
  1
CELLSTYLE_BEGIN
 90
        1
 91
        1
300
_TITLE
309
CELLSTYLE_END
300
CELLSTYLE
  1
TABLEFORMAT_BEGIN
 90
        5
170
     1
 91
        0
 92
        0
 62
   257
 93
        1
300
CONTENTFORMAT
  1
CONTENTFORMAT_BEGIN
 90
        0
 91
        0
 92
      512
 93
        0
300

 40
0.0
140
1.0
 94
        5
 62
     0
340
BF17
144
0.18
309
CONTENTFORMAT_END
171
     0
 94
        0
309
TABLEFORMAT_END
  1
CELLSTYLE_BEGIN
 90
        2
 91
        1
300
_HEADER
309
CELLSTYLE_END
300
CELLSTYLE
  1
TABLEFORMAT_BEGIN
 90
        5
170
     1
 91
        0
 92
        0
 62
   257
 93
        1
300
CONTENTFORMAT
  1
CONTENTFORMAT_BEGIN
 90
        0
 91
        0
 92
      512
 93
        0
300

 40
0.0
140
1.0
 94
        2
 62
     0
340
BF17
144
0.18
309
CONTENTFORMAT_END
171
     0
 94
        0
309
TABLEFORMAT_END
  1
CELLSTYLE_BEGIN
 90
        3
 91
        2
300
_DATA
309
CELLSTYLE_END
  0
XRECORD
  5
C1A5
102
{ACAD_REACTORS
330
C16E
102
}
330
C16E
100
AcDbXrecord
280
     1
102
ACAD_ROUNDTRIP_PRE2007_TABLESTYLE
 90
      512
 91
        0
  1

 92
      512
 93
        0
  2

 94
      512
 95
        0
  3

  0
XRECORD
  5
C180
102
{ACAD_REACTORS
330
C17F
102
}
330
C17F
100
AcDbXrecord
280
     1
102
RTVSPost2010Prop28
280
     1
102
RTVSPost2010PropOp28
 70
     1
102
RTVSPost2010Prop29
280
     1
102
RTVSPost2010PropOp29
 70
     1
102
RTVSPost2010Prop30
280
     0
102
RTVSPost2010PropOp30
 70
     1
102
RTVSPost2010Prop31
280
     0
102
RTVSPost2010PropOp31
 70
     1
102
RTVSPost2010Prop32
280
     0
102
RTVSPost2010PropOp32
 70
     1
102
RTVSPost2010Prop33
280
     0
102
RTVSPost2010PropOp33
 70
     1
102
RTVSPost2010Prop34
280
     0
102
RTVSPost2010PropOp34
 70
     1
102
RTVSPost2010Prop35
280
     0
102
RTVSPost2010PropOp35
 70
     1
102
RTVSPost2010Prop36
280
     0
102
RTVSPost2010PropOp36
 70
     1
102
RTVSPost2010Prop37
 90
       50
102
RTVSPost2010PropOp37
 70
     1
102
RTVSPost2010Prop38
140
0.0
102
RTVSPost2010PropOp38
 70
     1
102
RTVSPost2010Prop39
140
1.0
102
RTVSPost2010PropOp39
 70
     1
102
RTVSPost2010Prop40
 90
        0
102
RTVSPost2010PropOp40
 70
     1
102
RTVSPost2010Prop41ColorIndex
 90
       18
102
RTVSPost2010Prop41ColorRGB
 90
        0
102
RTVSPost2010PropOp41
 70
     1
102
RTVSPost2010Prop42
 90
       50
102
RTVSPost2010PropOp42
 70
     1
102
RTVSPost2010Prop43
 90
        3
102
RTVSPost2010PropOp43
 70
     1
102
RTVSPost2010Prop44ColorIndex
 90
        5
102
RTVSPost2010Prop44ColorRGB
 90
      255
102
RTVSPost2010PropOp44
 70
     1
102
RTVSPost2010Prop45
280
     0
102
RTVSPost2010PropOp45
 70
     1
102
RTVSPost2010Prop46
 90
       50
102
RTVSPost2010PropOp46
 70
     1
102
RTVSPost2010Prop47
 90
       50
102
RTVSPost2010PropOp47
 70
     1
102
RTVSPost2010Prop48
 90
       50
102
RTVSPost2010PropOp48
 70
     1
102
RTVSPost2010Prop49
280
     0
102
RTVSPost2010PropOp49
 70
     1
102
RTVSPost2010Prop50
 90
       50
102
RTVSPost2010PropOp50
 70
     1
102
RTVSPost2010Prop51ColorIndex
 90
      256
102
RTVSPost2010Prop51ColorRGB
 90
-16777216
102
RTVSPost2010PropOp51
 70
     0
102
RTVSPost2010Prop52
140
1.0
102
RTVSPost2010PropOp52
 70
     0
102
RTVSPost2010Prop53
 90
        2
102
RTVSPost2010PropOp53
 70
     1
102
RTVSPost2010Prop54
  1
strokes_ogs.tif
102
RTVSPost2010PropOp54
 70
     1
102
RTVSPost2010Prop55
280
     0
102
RTVSPost2010PropOp55
 70
     1
102
RTVSPost2010Prop56
140
1.0
102
RTVSPost2010PropOp56
 70
     1
102
RTVSPost2010Prop57
140
1.0
102
RTVSPost2010PropOp57
 70
     1
102
RTVSPropertyOp0
 70
     1
102
RTVSPropertyOp1
 70
     1
102
RTVSPropertyOp2
 70
     1
102
RTVSPropertyOp3
 70
     1
102
RTVSPropertyOp4
 70
     1
102
RTVSPropertyOp5
 70
     1
102
RTVSPropertyOp6
 70
     1
102
RTVSPropertyOp7
 70
     1
102
RTVSPropertyOp8
 70
     1
102
RTVSPropertyOp9
 70
     1
102
RTVSPropertyOp10
 70
     1
102
RTVSPropertyOp11
 70
     1
102
RTVSPropertyOp12
 70
     1
102
RTVSPropertyOp13
 70
     1
102
RTVSPropertyOp14
 70
     1
102
RTVSPropertyOp15
 70
     1
102
RTVSPropertyOp16
 70
     1
102
RTVSPropertyOp17
 70
     1
102
RTVSPropertyOp18
 70
     1
102
RTVSPropertyOp19
 70
     1
102
RTVSPropertyOp20
 70
     1
102
RTVSPropertyOp21
 70
     1
102
RTVSPropertyOp22
 70
     1
102
RTVSPropertyOp23
 70
     1
102
RTVSPropertyOp24
 70
     1
102
RTVSPropertyOp25
 70
     1
102
RTVSPropertyOp26
 70
     1
102
RTVSPropertyOp27
 70
     1
102
RTVSPropertyOp28
 70
     1
102
RTVSPropertyOp29
 70
     1
102
RTVSPropertyOp30
 70
     1
102
RTVSPropertyOp31
 70
     1
102
RTVSPropertyOp32
 70
     1
102
RTVSPropertyOp33
 70
     1
102
RTVSPropertyOp34
 70
     1
102
RTVSPropertyOp35
 70
     1
102
RTVSPropertyOp36
 70
     1
102
RTVSPropertyOp37
 70
     1
102
RTVSPropertyOp38
 70
     1
102
RTVSPropertyOp39
 70
     1
102
RTVSPropertyOp40
 70
     1
102
RTVSPropertyOp41
 70
     1
102
RTVSPropertyOp42
 70
     1
102
RTVSPropertyOp43
 70
     1
102
RTVSPropertyOp44
 70
     1
102
RTVSPropertyOp45
 70
     1
102
RTVSPropertyOp46
 70
     1
102
RTVSPropertyOp47
 70
     1
102
RTVSPropertyOp48
 70
     1
102
RTVSPropertyOp49
 70
     1
102
RTVSPropertyOp50
 70
     1
102
RTVSPropertyOp51
 70
     0
102
RTVSPropertyOp52
 70
     0
102
RTVSPropertyOp53
 70
     1
102
RTVSPropertyOp54
 70
     1
102
RTVSPropertyOp55
 70
     1
102
RTVSPropertyOp56
 70
     1
102
RTVSPropertyOp57
 70
     1
102
RTVSPropertyOp58
 70
     1
102
RTVSPropertyOp59
 70
     1
102
RTVSPropertyOp60
 70
     1
102
RTVSPropertyOp61
 70
     1
102
RTVSPropertyOp62
 70
     1
  0
XRECORD
  5
C17E
102
{ACAD_REACTORS
330
C17D
102
}
330
C17D
100
AcDbXrecord
280
     1
102
RTVSPost2010Prop28
280
     0
102
RTVSPost2010PropOp28
 70
     1
102
RTVSPost2010Prop29
280
     1
102
RTVSPost2010PropOp29
 70
     1
102
RTVSPost2010Prop30
280
     1
102
RTVSPost2010PropOp30
 70
     1
102
RTVSPost2010Prop31
280
     0
102
RTVSPost2010PropOp31
 70
     1
102
RTVSPost2010Prop32
280
     0
102
RTVSPost2010PropOp32
 70
     1
102
RTVSPost2010Prop33
280
     0
102
RTVSPost2010PropOp33
 70
     1
102
RTVSPost2010Prop34
280
     0
102
RTVSPost2010PropOp34
 70
     1
102
RTVSPost2010Prop35
280
     0
102
RTVSPost2010PropOp35
 70
     1
102
RTVSPost2010Prop36
280
     0
102
RTVSPost2010PropOp36
 70
     1
102
RTVSPost2010Prop37
 90
       50
102
RTVSPost2010PropOp37
 70
     1
102
RTVSPost2010Prop38
140
0.0
102
RTVSPost2010PropOp38
 70
     1
102
RTVSPost2010Prop39
140
1.0
102
RTVSPost2010PropOp39
 70
     1
102
RTVSPost2010Prop40
 90
        0
102
RTVSPost2010PropOp40
 70
     1
102
RTVSPost2010Prop41ColorIndex
 90
       18
102
RTVSPost2010Prop41ColorRGB
 90
        0
102
RTVSPost2010PropOp41
 70
     1
102
RTVSPost2010Prop42
 90
       50
102
RTVSPost2010PropOp42
 70
     1
102
RTVSPost2010Prop43
 90
        3
102
RTVSPost2010PropOp43
 70
     1
102
RTVSPost2010Prop44ColorIndex
 90
        5
102
RTVSPost2010Prop44ColorRGB
 90
      255
102
RTVSPost2010PropOp44
 70
     1
102
RTVSPost2010Prop45
280
     0
102
RTVSPost2010PropOp45
 70
     1
102
RTVSPost2010Prop46
 90
       50
102
RTVSPost2010PropOp46
 70
     1
102
RTVSPost2010Prop47
 90
       50
102
RTVSPost2010PropOp47
 70
     1
102
RTVSPost2010Prop48
 90
       50
102
RTVSPost2010PropOp48
 70
     1
102
RTVSPost2010Prop49
280
     0
102
RTVSPost2010PropOp49
 70
     1
102
RTVSPost2010Prop50
 90
       50
102
RTVSPost2010PropOp50
 70
     1
102
RTVSPost2010Prop51ColorIndex
 90
      256
102
RTVSPost2010Prop51ColorRGB
 90
-16777216
102
RTVSPost2010PropOp51
 70
     0
102
RTVSPost2010Prop52
140
1.0
102
RTVSPost2010PropOp52
 70
     0
102
RTVSPost2010Prop53
 90
        2
102
RTVSPost2010PropOp53
 70
     1
102
RTVSPost2010Prop54
  1
strokes_ogs.tif
102
RTVSPost2010PropOp54
 70
     1
102
RTVSPost2010Prop55
280
     0
102
RTVSPost2010PropOp55
 70
     1
102
RTVSPost2010Prop56
140
1.0
102
RTVSPost2010PropOp56
 70
     1
102
RTVSPost2010Prop57
140
1.0
102
RTVSPost2010PropOp57
 70
     1
102
RTVSPropertyOp0
 70
     1
102
RTVSPropertyOp1
 70
     1
102
RTVSPropertyOp2
 70
     1
102
RTVSPropertyOp3
 70
     1
102
RTVSPropertyOp4
 70
     1
102
RTVSPropertyOp5
 70
     1
102
RTVSPropertyOp6
 70
     1
102
RTVSPropertyOp7
 70
     1
102
RTVSPropertyOp8
 70
     1
102
RTVSPropertyOp9
 70
     1
102
RTVSPropertyOp10
 70
     1
102
RTVSPropertyOp11
 70
     1
102
RTVSPropertyOp12
 70
     1
102
RTVSPropertyOp13
 70
     1
102
RTVSPropertyOp14
 70
     1
102
RTVSPropertyOp15
 70
     1
102
RTVSPropertyOp16
 70
     1
102
RTVSPropertyOp17
 70
     1
102
RTVSPropertyOp18
 70
     1
102
RTVSPropertyOp19
 70
     1
102
RTVSPropertyOp20
 70
     1
102
RTVSPropertyOp21
 70
     1
102
RTVSPropertyOp22
 70
     1
102
RTVSPropertyOp23
 70
     1
102
RTVSPropertyOp24
 70
     1
102
RTVSPropertyOp25
 70
     1
102
RTVSPropertyOp26
 70
     1
102
RTVSPropertyOp27
 70
     1
102
RTVSPropertyOp28
 70
     1
102
RTVSPropertyOp29
 70
     1
102
RTVSPropertyOp30
 70
     1
102
RTVSPropertyOp31
 70
     1
102
RTVSPropertyOp32
 70
     1
102
RTVSPropertyOp33
 70
     1
102
RTVSPropertyOp34
 70
     1
102
RTVSPropertyOp35
 70
     1
102
RTVSPropertyOp36
 70
     1
102
RTVSPropertyOp37
 70
     1
102
RTVSPropertyOp38
 70
     1
102
RTVSPropertyOp39
 70
     1
102
RTVSPropertyOp40
 70
     1
102
RTVSPropertyOp41
 70
     1
102
RTVSPropertyOp42
 70
     1
102
RTVSPropertyOp43
 70
     1
102
RTVSPropertyOp44
 70
     1
102
RTVSPropertyOp45
 70
     1
102
RTVSPropertyOp46
 70
     1
102
RTVSPropertyOp47
 70
     1
102
RTVSPropertyOp48
 70
     1
102
RTVSPropertyOp49
 70
     1
102
RTVSPropertyOp50
 70
     1
102
RTVSPropertyOp51
 70
     0
102
RTVSPropertyOp52
 70
     0
102
RTVSPropertyOp53
 70
     1
102
RTVSPropertyOp54
 70
     1
102
RTVSPropertyOp55
 70
     1
102
RTVSPropertyOp56
 70
     1
102
RTVSPropertyOp57
 70
     1
102
RTVSPropertyOp58
 70
     1
102
RTVSPropertyOp59
 70
     1
102
RTVSPropertyOp60
 70
     1
102
RTVSPropertyOp61
 70
     1
102
RTVSPropertyOp62
 70
     1
  0
XRECORD
  5
C18C
102
{ACAD_REACTORS
330
C18B
102
}
330
C18B
100
AcDbXrecord
280
     1
102
RTVSPost2010Prop28
280
     0
102
RTVSPost2010PropOp28
 70
     1
102
RTVSPost2010Prop29
280
     1
102
RTVSPost2010PropOp29
 70
     1
102
RTVSPost2010Prop30
280
     1
102
RTVSPost2010PropOp30
 70
     1
102
RTVSPost2010Prop31
280
     0
102
RTVSPost2010PropOp31
 70
     1
102
RTVSPost2010Prop32
280
     0
102
RTVSPost2010PropOp32
 70
     1
102
RTVSPost2010Prop33
280
     0
102
RTVSPost2010PropOp33
 70
     1
102
RTVSPost2010Prop34
280
     0
102
RTVSPost2010PropOp34
 70
     1
102
RTVSPost2010Prop35
280
     0
102
RTVSPost2010PropOp35
 70
     1
102
RTVSPost2010Prop36
280
     0
102
RTVSPost2010PropOp36
 70
     1
102
RTVSPost2010Prop37
 90
       50
102
RTVSPost2010PropOp37
 70
     1
102
RTVSPost2010Prop38
140
0.0
102
RTVSPost2010PropOp38
 70
     1
102
RTVSPost2010Prop39
140
1.0
102
RTVSPost2010PropOp39
 70
     1
102
RTVSPost2010Prop40
 90
        0
102
RTVSPost2010PropOp40
 70
     1
102
RTVSPost2010Prop41ColorIndex
 90
       18
102
RTVSPost2010Prop41ColorRGB
 90
        0
102
RTVSPost2010PropOp41
 70
     1
102
RTVSPost2010Prop42
 90
       50
102
RTVSPost2010PropOp42
 70
     1
102
RTVSPost2010Prop43
 90
        3
102
RTVSPost2010PropOp43
 70
     1
102
RTVSPost2010Prop44ColorIndex
 90
        5
102
RTVSPost2010Prop44ColorRGB
 90
      255
102
RTVSPost2010PropOp44
 70
     1
102
RTVSPost2010Prop45
280
     0
102
RTVSPost2010PropOp45
 70
     1
102
RTVSPost2010Prop46
 90
       50
102
RTVSPost2010PropOp46
 70
     1
102
RTVSPost2010Prop47
 90
       50
102
RTVSPost2010PropOp47
 70
     1
102
RTVSPost2010Prop48
 90
       50
102
RTVSPost2010PropOp48
 70
     1
102
RTVSPost2010Prop49
280
     0
102
RTVSPost2010PropOp49
 70
     1
102
RTVSPost2010Prop50
 90
       50
102
RTVSPost2010PropOp50
 70
     1
102
RTVSPost2010Prop51ColorIndex
 90
      256
102
RTVSPost2010Prop51ColorRGB
 90
-16777216
102
RTVSPost2010PropOp51
 70
     0
102
RTVSPost2010Prop52
140
1.0
102
RTVSPost2010PropOp52
 70
     0
102
RTVSPost2010Prop53
 90
        2
102
RTVSPost2010PropOp53
 70
     1
102
RTVSPost2010Prop54
  1
strokes_ogs.tif
102
RTVSPost2010PropOp54
 70
     1
102
RTVSPost2010Prop55
280
     0
102
RTVSPost2010PropOp55
 70
     1
102
RTVSPost2010Prop56
140
1.0
102
RTVSPost2010PropOp56
 70
     1
102
RTVSPost2010Prop57
140
1.0
102
RTVSPost2010PropOp57
 70
     1
102
RTVSPropertyOp0
 70
     1
102
RTVSPropertyOp1
 70
     1
102
RTVSPropertyOp2
 70
     1
102
RTVSPropertyOp3
 70
     1
102
RTVSPropertyOp4
 70
     1
102
RTVSPropertyOp5
 70
     1
102
RTVSPropertyOp6
 70
     1
102
RTVSPropertyOp7
 70
     1
102
RTVSPropertyOp8
 70
     1
102
RTVSPropertyOp9
 70
     1
102
RTVSPropertyOp10
 70
     1
102
RTVSPropertyOp11
 70
     1
102
RTVSPropertyOp12
 70
     1
102
RTVSPropertyOp13
 70
     1
102
RTVSPropertyOp14
 70
     1
102
RTVSPropertyOp15
 70
     1
102
RTVSPropertyOp16
 70
     1
102
RTVSPropertyOp17
 70
     1
102
RTVSPropertyOp18
 70
     1
102
RTVSPropertyOp19
 70
     1
102
RTVSPropertyOp20
 70
     1
102
RTVSPropertyOp21
 70
     1
102
RTVSPropertyOp22
 70
     1
102
RTVSPropertyOp23
 70
     1
102
RTVSPropertyOp24
 70
     1
102
RTVSPropertyOp25
 70
     1
102
RTVSPropertyOp26
 70
     1
102
RTVSPropertyOp27
 70
     1
102
RTVSPropertyOp28
 70
     1
102
RTVSPropertyOp29
 70
     1
102
RTVSPropertyOp30
 70
     1
102
RTVSPropertyOp31
 70
     1
102
RTVSPropertyOp32
 70
     1
102
RTVSPropertyOp33
 70
     1
102
RTVSPropertyOp34
 70
     1
102
RTVSPropertyOp35
 70
     1
102
RTVSPropertyOp36
 70
     1
102
RTVSPropertyOp37
 70
     1
102
RTVSPropertyOp38
 70
     1
102
RTVSPropertyOp39
 70
     1
102
RTVSPropertyOp40
 70
     1
102
RTVSPropertyOp41
 70
     1
102
RTVSPropertyOp42
 70
     1
102
RTVSPropertyOp43
 70
     1
102
RTVSPropertyOp44
 70
     1
102
RTVSPropertyOp45
 70
     1
102
RTVSPropertyOp46
 70
     1
102
RTVSPropertyOp47
 70
     1
102
RTVSPropertyOp48
 70
     1
102
RTVSPropertyOp49
 70
     1
102
RTVSPropertyOp50
 70
     1
102
RTVSPropertyOp51
 70
     0
102
RTVSPropertyOp52
 70
     0
102
RTVSPropertyOp53
 70
     1
102
RTVSPropertyOp54
 70
     1
102
RTVSPropertyOp55
 70
     1
102
RTVSPropertyOp56
 70
     1
102
RTVSPropertyOp57
 70
     1
102
RTVSPropertyOp58
 70
     1
102
RTVSPropertyOp59
 70
     1
102
RTVSPropertyOp60
 70
     1
102
RTVSPropertyOp61
 70
     1
102
RTVSPropertyOp62
 70
     1
  0
XRECORD
  5
C194
102
{ACAD_REACTORS
330
C193
102
}
330
C193
100
AcDbXrecord
280
     1
102
RTVSPost2010Prop28
280
     0
102
RTVSPost2010PropOp28
 70
     1
102
RTVSPost2010Prop29
280
     1
102
RTVSPost2010PropOp29
 70
     1
102
RTVSPost2010Prop30
280
     1
102
RTVSPost2010PropOp30
 70
     1
102
RTVSPost2010Prop31
280
     0
102
RTVSPost2010PropOp31
 70
     1
102
RTVSPost2010Prop32
280
     0
102
RTVSPost2010PropOp32
 70
     1
102
RTVSPost2010Prop33
280
     0
102
RTVSPost2010PropOp33
 70
     1
102
RTVSPost2010Prop34
280
     0
102
RTVSPost2010PropOp34
 70
     1
102
RTVSPost2010Prop35
280
     0
102
RTVSPost2010PropOp35
 70
     1
102
RTVSPost2010Prop36
280
     0
102
RTVSPost2010PropOp36
 70
     1
102
RTVSPost2010Prop37
 90
       50
102
RTVSPost2010PropOp37
 70
     1
102
RTVSPost2010Prop38
140
0.0
102
RTVSPost2010PropOp38
 70
     1
102
RTVSPost2010Prop39
140
1.0
102
RTVSPost2010PropOp39
 70
     1
102
RTVSPost2010Prop40
 90
        0
102
RTVSPost2010PropOp40
 70
     1
102
RTVSPost2010Prop41ColorIndex
 90
       18
102
RTVSPost2010Prop41ColorRGB
 90
        0
102
RTVSPost2010PropOp41
 70
     1
102
RTVSPost2010Prop42
 90
       50
102
RTVSPost2010PropOp42
 70
     1
102
RTVSPost2010Prop43
 90
        3
102
RTVSPost2010PropOp43
 70
     1
102
RTVSPost2010Prop44ColorIndex
 90
        5
102
RTVSPost2010Prop44ColorRGB
 90
      255
102
RTVSPost2010PropOp44
 70
     1
102
RTVSPost2010Prop45
280
     0
102
RTVSPost2010PropOp45
 70
     1
102
RTVSPost2010Prop46
 90
       50
102
RTVSPost2010PropOp46
 70
     1
102
RTVSPost2010Prop47
 90
       50
102
RTVSPost2010PropOp47
 70
     1
102
RTVSPost2010Prop48
 90
       50
102
RTVSPost2010PropOp48
 70
     1
102
RTVSPost2010Prop49
280
     0
102
RTVSPost2010PropOp49
 70
     1
102
RTVSPost2010Prop50
 90
       50
102
RTVSPost2010PropOp50
 70
     1
102
RTVSPost2010Prop51ColorIndex
 90
      256
102
RTVSPost2010Prop51ColorRGB
 90
-16777216
102
RTVSPost2010PropOp51
 70
     0
102
RTVSPost2010Prop52
140
1.0
102
RTVSPost2010PropOp52
 70
     0
102
RTVSPost2010Prop53
 90
        2
102
RTVSPost2010PropOp53
 70
     1
102
RTVSPost2010Prop54
  1
strokes_ogs.tif
102
RTVSPost2010PropOp54
 70
     1
102
RTVSPost2010Prop55
280
     0
102
RTVSPost2010PropOp55
 70
     1
102
RTVSPost2010Prop56
140
1.0
102
RTVSPost2010PropOp56
 70
     1
102
RTVSPost2010Prop57
140
1.0
102
RTVSPost2010PropOp57
 70
     1
102
RTVSPropertyOp0
 70
     1
102
RTVSPropertyOp1
 70
     1
102
RTVSPropertyOp2
 70
     1
102
RTVSPropertyOp3
 70
     1
102
RTVSPropertyOp4
 70
     1
102
RTVSPropertyOp5
 70
     1
102
RTVSPropertyOp6
 70
     1
102
RTVSPropertyOp7
 70
     1
102
RTVSPropertyOp8
 70
     1
102
RTVSPropertyOp9
 70
     1
102
RTVSPropertyOp10
 70
     1
102
RTVSPropertyOp11
 70
     1
102
RTVSPropertyOp12
 70
     1
102
RTVSPropertyOp13
 70
     1
102
RTVSPropertyOp14
 70
     1
102
RTVSPropertyOp15
 70
     1
102
RTVSPropertyOp16
 70
     1
102
RTVSPropertyOp17
 70
     1
102
RTVSPropertyOp18
 70
     1
102
RTVSPropertyOp19
 70
     1
102
RTVSPropertyOp20
 70
     1
102
RTVSPropertyOp21
 70
     1
102
RTVSPropertyOp22
 70
     1
102
RTVSPropertyOp23
 70
     1
102
RTVSPropertyOp24
 70
     1
102
RTVSPropertyOp25
 70
     1
102
RTVSPropertyOp26
 70
     1
102
RTVSPropertyOp27
 70
     1
102
RTVSPropertyOp28
 70
     1
102
RTVSPropertyOp29
 70
     1
102
RTVSPropertyOp30
 70
     1
102
RTVSPropertyOp31
 70
     1
102
RTVSPropertyOp32
 70
     1
102
RTVSPropertyOp33
 70
     1
102
RTVSPropertyOp34
 70
     1
102
RTVSPropertyOp35
 70
     1
102
RTVSPropertyOp36
 70
     1
102
RTVSPropertyOp37
 70
     1
102
RTVSPropertyOp38
 70
     1
102
RTVSPropertyOp39
 70
     1
102
RTVSPropertyOp40
 70
     1
102
RTVSPropertyOp41
 70
     1
102
RTVSPropertyOp42
 70
     1
102
RTVSPropertyOp43
 70
     1
102
RTVSPropertyOp44
 70
     1
102
RTVSPropertyOp45
 70
     1
102
RTVSPropertyOp46
 70
     1
102
RTVSPropertyOp47
 70
     1
102
RTVSPropertyOp48
 70
     1
102
RTVSPropertyOp49
 70
     1
102
RTVSPropertyOp50
 70
     1
102
RTVSPropertyOp51
 70
     0
102
RTVSPropertyOp52
 70
     0
102
RTVSPropertyOp53
 70
     1
102
RTVSPropertyOp54
 70
     1
102
RTVSPropertyOp55
 70
     1
102
RTVSPropertyOp56
 70
     1
102
RTVSPropertyOp57
 70
     1
102
RTVSPropertyOp58
 70
     1
102
RTVSPropertyOp59
 70
     1
102
RTVSPropertyOp60
 70
     1
102
RTVSPropertyOp61
 70
     1
102
RTVSPropertyOp62
 70
     1
  0
XRECORD
  5
C186
102
{ACAD_REACTORS
330
C185
102
}
330
C185
100
AcDbXrecord
280
     1
102
RTVSPost2010Prop28
280
     0
102
RTVSPost2010PropOp28
 70
     1
102
RTVSPost2010Prop29
280
     1
102
RTVSPost2010PropOp29
 70
     1
102
RTVSPost2010Prop30
280
     1
102
RTVSPost2010PropOp30
 70
     1
102
RTVSPost2010Prop31
280
     0
102
RTVSPost2010PropOp31
 70
     1
102
RTVSPost2010Prop32
280
     0
102
RTVSPost2010PropOp32
 70
     1
102
RTVSPost2010Prop33
280
     0
102
RTVSPost2010PropOp33
 70
     1
102
RTVSPost2010Prop34
280
     0
102
RTVSPost2010PropOp34
 70
     1
102
RTVSPost2010Prop35
280
     0
102
RTVSPost2010PropOp35
 70
     1
102
RTVSPost2010Prop36
280
     0
102
RTVSPost2010PropOp36
 70
     1
102
RTVSPost2010Prop37
 90
       50
102
RTVSPost2010PropOp37
 70
     1
102
RTVSPost2010Prop38
140
0.0
102
RTVSPost2010PropOp38
 70
     1
102
RTVSPost2010Prop39
140
1.0
102
RTVSPost2010PropOp39
 70
     1
102
RTVSPost2010Prop40
 90
        0
102
RTVSPost2010PropOp40
 70
     1
102
RTVSPost2010Prop41ColorIndex
 90
       18
102
RTVSPost2010Prop41ColorRGB
 90
        0
102
RTVSPost2010PropOp41
 70
     1
102
RTVSPost2010Prop42
 90
       50
102
RTVSPost2010PropOp42
 70
     1
102
RTVSPost2010Prop43
 90
        3
102
RTVSPost2010PropOp43
 70
     1
102
RTVSPost2010Prop44ColorIndex
 90
        5
102
RTVSPost2010Prop44ColorRGB
 90
      255
102
RTVSPost2010PropOp44
 70
     1
102
RTVSPost2010Prop45
280
     0
102
RTVSPost2010PropOp45
 70
     1
102
RTVSPost2010Prop46
 90
       50
102
RTVSPost2010PropOp46
 70
     1
102
RTVSPost2010Prop47
 90
       50
102
RTVSPost2010PropOp47
 70
     1
102
RTVSPost2010Prop48
 90
       50
102
RTVSPost2010PropOp48
 70
     1
102
RTVSPost2010Prop49
280
     0
102
RTVSPost2010PropOp49
 70
     1
102
RTVSPost2010Prop50
 90
       50
102
RTVSPost2010PropOp50
 70
     1
102
RTVSPost2010Prop51ColorIndex
 90
      256
102
RTVSPost2010Prop51ColorRGB
 90
-16777216
102
RTVSPost2010PropOp51
 70
     0
102
RTVSPost2010Prop52
140
1.0
102
RTVSPost2010PropOp52
 70
     0
102
RTVSPost2010Prop53
 90
        2
102
RTVSPost2010PropOp53
 70
     1
102
RTVSPost2010Prop54
  1
strokes_ogs.tif
102
RTVSPost2010PropOp54
 70
     1
102
RTVSPost2010Prop55
280
     0
102
RTVSPost2010PropOp55
 70
     1
102
RTVSPost2010Prop56
140
1.0
102
RTVSPost2010PropOp56
 70
     1
102
RTVSPost2010Prop57
140
1.0
102
RTVSPost2010PropOp57
 70
     1
102
RTVSPropertyOp0
 70
     1
102
RTVSPropertyOp1
 70
     1
102
RTVSPropertyOp2
 70
     1
102
RTVSPropertyOp3
 70
     1
102
RTVSPropertyOp4
 70
     1
102
RTVSPropertyOp5
 70
     1
102
RTVSPropertyOp6
 70
     1
102
RTVSPropertyOp7
 70
     1
102
RTVSPropertyOp8
 70
     1
102
RTVSPropertyOp9
 70
     1
102
RTVSPropertyOp10
 70
     1
102
RTVSPropertyOp11
 70
     1
102
RTVSPropertyOp12
 70
     1
102
RTVSPropertyOp13
 70
     1
102
RTVSPropertyOp14
 70
     1
102
RTVSPropertyOp15
 70
     1
102
RTVSPropertyOp16
 70
     1
102
RTVSPropertyOp17
 70
     1
102
RTVSPropertyOp18
 70
     1
102
RTVSPropertyOp19
 70
     1
102
RTVSPropertyOp20
 70
     1
102
RTVSPropertyOp21
 70
     1
102
RTVSPropertyOp22
 70
     1
102
RTVSPropertyOp23
 70
     1
102
RTVSPropertyOp24
 70
     1
102
RTVSPropertyOp25
 70
     1
102
RTVSPropertyOp26
 70
     1
102
RTVSPropertyOp27
 70
     1
102
RTVSPropertyOp28
 70
     1
102
RTVSPropertyOp29
 70
     1
102
RTVSPropertyOp30
 70
     1
102
RTVSPropertyOp31
 70
     1
102
RTVSPropertyOp32
 70
     1
102
RTVSPropertyOp33
 70
     1
102
RTVSPropertyOp34
 70
     1
102
RTVSPropertyOp35
 70
     1
102
RTVSPropertyOp36
 70
     1
102
RTVSPropertyOp37
 70
     1
102
RTVSPropertyOp38
 70
     1
102
RTVSPropertyOp39
 70
     1
102
RTVSPropertyOp40
 70
     1
102
RTVSPropertyOp41
 70
     1
102
RTVSPropertyOp42
 70
     1
102
RTVSPropertyOp43
 70
     1
102
RTVSPropertyOp44
 70
     1
102
RTVSPropertyOp45
 70
     1
102
RTVSPropertyOp46
 70
     1
102
RTVSPropertyOp47
 70
     1
102
RTVSPropertyOp48
 70
     1
102
RTVSPropertyOp49
 70
     1
102
RTVSPropertyOp50
 70
     1
102
RTVSPropertyOp51
 70
     0
102
RTVSPropertyOp52
 70
     0
102
RTVSPropertyOp53
 70
     1
102
RTVSPropertyOp54
 70
     1
102
RTVSPropertyOp55
 70
     1
102
RTVSPropertyOp56
 70
     1
102
RTVSPropertyOp57
 70
     1
102
RTVSPropertyOp58
 70
     1
102
RTVSPropertyOp59
 70
     1
102
RTVSPropertyOp60
 70
     1
102
RTVSPropertyOp61
 70
     1
102
RTVSPropertyOp62
 70
     1
  0
XRECORD
  5
C18A
102
{ACAD_REACTORS
330
C189
102
}
330
C189
100
AcDbXrecord
280
     1
102
RTVSPost2010Prop28
280
     0
102
RTVSPost2010PropOp28
 70
     1
102
RTVSPost2010Prop29
280
     1
102
RTVSPost2010PropOp29
 70
     1
102
RTVSPost2010Prop30
280
     1
102
RTVSPost2010PropOp30
 70
     1
102
RTVSPost2010Prop31
280
     0
102
RTVSPost2010PropOp31
 70
     1
102
RTVSPost2010Prop32
280
     0
102
RTVSPost2010PropOp32
 70
     1
102
RTVSPost2010Prop33
280
     0
102
RTVSPost2010PropOp33
 70
     1
102
RTVSPost2010Prop34
280
     0
102
RTVSPost2010PropOp34
 70
     1
102
RTVSPost2010Prop35
280
     0
102
RTVSPost2010PropOp35
 70
     1
102
RTVSPost2010Prop36
280
     0
102
RTVSPost2010PropOp36
 70
     1
102
RTVSPost2010Prop37
 90
       50
102
RTVSPost2010PropOp37
 70
     1
102
RTVSPost2010Prop38
140
0.0
102
RTVSPost2010PropOp38
 70
     1
102
RTVSPost2010Prop39
140
1.0
102
RTVSPost2010PropOp39
 70
     1
102
RTVSPost2010Prop40
 90
        0
102
RTVSPost2010PropOp40
 70
     1
102
RTVSPost2010Prop41ColorIndex
 90
       18
102
RTVSPost2010Prop41ColorRGB
 90
        0
102
RTVSPost2010PropOp41
 70
     1
102
RTVSPost2010Prop42
 90
       50
102
RTVSPost2010PropOp42
 70
     1
102
RTVSPost2010Prop43
 90
        3
102
RTVSPost2010PropOp43
 70
     1
102
RTVSPost2010Prop44ColorIndex
 90
        5
102
RTVSPost2010Prop44ColorRGB
 90
      255
102
RTVSPost2010PropOp44
 70
     1
102
RTVSPost2010Prop45
280
     0
102
RTVSPost2010PropOp45
 70
     1
102
RTVSPost2010Prop46
 90
       50
102
RTVSPost2010PropOp46
 70
     1
102
RTVSPost2010Prop47
 90
       50
102
RTVSPost2010PropOp47
 70
     1
102
RTVSPost2010Prop48
 90
       50
102
RTVSPost2010PropOp48
 70
     1
102
RTVSPost2010Prop49
280
     0
102
RTVSPost2010PropOp49
 70
     1
102
RTVSPost2010Prop50
 90
       50
102
RTVSPost2010PropOp50
 70
     1
102
RTVSPost2010Prop51ColorIndex
 90
      256
102
RTVSPost2010Prop51ColorRGB
 90
-16777216
102
RTVSPost2010PropOp51
 70
     0
102
RTVSPost2010Prop52
140
1.0
102
RTVSPost2010PropOp52
 70
     0
102
RTVSPost2010Prop53
 90
        2
102
RTVSPost2010PropOp53
 70
     1
102
RTVSPost2010Prop54
  1
strokes_ogs.tif
102
RTVSPost2010PropOp54
 70
     1
102
RTVSPost2010Prop55
280
     0
102
RTVSPost2010PropOp55
 70
     1
102
RTVSPost2010Prop56
140
1.0
102
RTVSPost2010PropOp56
 70
     1
102
RTVSPost2010Prop57
140
1.0
102
RTVSPost2010PropOp57
 70
     1
102
RTVSPropertyOp0
 70
     1
102
RTVSPropertyOp1
 70
     1
102
RTVSPropertyOp2
 70
     1
102
RTVSPropertyOp3
 70
     1
102
RTVSPropertyOp4
 70
     1
102
RTVSPropertyOp5
 70
     1
102
RTVSPropertyOp6
 70
     1
102
RTVSPropertyOp7
 70
     1
102
RTVSPropertyOp8
 70
     1
102
RTVSPropertyOp9
 70
     1
102
RTVSPropertyOp10
 70
     1
102
RTVSPropertyOp11
 70
     1
102
RTVSPropertyOp12
 70
     1
102
RTVSPropertyOp13
 70
     1
102
RTVSPropertyOp14
 70
     1
102
RTVSPropertyOp15
 70
     1
102
RTVSPropertyOp16
 70
     1
102
RTVSPropertyOp17
 70
     1
102
RTVSPropertyOp18
 70
     1
102
RTVSPropertyOp19
 70
     1
102
RTVSPropertyOp20
 70
     1
102
RTVSPropertyOp21
 70
     1
102
RTVSPropertyOp22
 70
     1
102
RTVSPropertyOp23
 70
     1
102
RTVSPropertyOp24
 70
     1
102
RTVSPropertyOp25
 70
     1
102
RTVSPropertyOp26
 70
     1
102
RTVSPropertyOp27
 70
     1
102
RTVSPropertyOp28
 70
     1
102
RTVSPropertyOp29
 70
     1
102
RTVSPropertyOp30
 70
     1
102
RTVSPropertyOp31
 70
     1
102
RTVSPropertyOp32
 70
     1
102
RTVSPropertyOp33
 70
     1
102
RTVSPropertyOp34
 70
     1
102
RTVSPropertyOp35
 70
     1
102
RTVSPropertyOp36
 70
     1
102
RTVSPropertyOp37
 70
     1
102
RTVSPropertyOp38
 70
     1
102
RTVSPropertyOp39
 70
     1
102
RTVSPropertyOp40
 70
     1
102
RTVSPropertyOp41
 70
     1
102
RTVSPropertyOp42
 70
     1
102
RTVSPropertyOp43
 70
     1
102
RTVSPropertyOp44
 70
     1
102
RTVSPropertyOp45
 70
     1
102
RTVSPropertyOp46
 70
     1
102
RTVSPropertyOp47
 70
     1
102
RTVSPropertyOp48
 70
     1
102
RTVSPropertyOp49
 70
     1
102
RTVSPropertyOp50
 70
     1
102
RTVSPropertyOp51
 70
     0
102
RTVSPropertyOp52
 70
     0
102
RTVSPropertyOp53
 70
     1
102
RTVSPropertyOp54
 70
     1
102
RTVSPropertyOp55
 70
     1
102
RTVSPropertyOp56
 70
     1
102
RTVSPropertyOp57
 70
     1
102
RTVSPropertyOp58
 70
     1
102
RTVSPropertyOp59
 70
     1
102
RTVSPropertyOp60
 70
     1
102
RTVSPropertyOp61
 70
     1
102
RTVSPropertyOp62
 70
     1
  0
XRECORD
  5
C1A4
102
{ACAD_REACTORS
330
C1A3
102
}
330
C1A3
100
AcDbXrecord
280
     1
102
RTVSPost2010Prop28
280
     0
102
RTVSPost2010PropOp28
 70
     1
102
RTVSPost2010Prop29
280
     1
102
RTVSPost2010PropOp29
 70
     1
102
RTVSPost2010Prop30
280
     1
102
RTVSPost2010PropOp30
 70
     1
102
RTVSPost2010Prop31
280
     0
102
RTVSPost2010PropOp31
 70
     1
102
RTVSPost2010Prop32
280
     0
102
RTVSPost2010PropOp32
 70
     1
102
RTVSPost2010Prop33
280
     0
102
RTVSPost2010PropOp33
 70
     1
102
RTVSPost2010Prop34
280
     0
102
RTVSPost2010PropOp34
 70
     1
102
RTVSPost2010Prop35
280
     0
102
RTVSPost2010PropOp35
 70
     1
102
RTVSPost2010Prop36
280
     0
102
RTVSPost2010PropOp36
 70
     1
102
RTVSPost2010Prop37
 90
       50
102
RTVSPost2010PropOp37
 70
     0
102
RTVSPost2010Prop38
140
0.0
102
RTVSPost2010PropOp38
 70
     0
102
RTVSPost2010Prop39
140
1.0
102
RTVSPost2010PropOp39
 70
     0
102
RTVSPost2010Prop40
 90
        0
102
RTVSPost2010PropOp40
 70
     0
102
RTVSPost2010Prop41ColorIndex
 90
       18
102
RTVSPost2010Prop41ColorRGB
 90
        0
102
RTVSPost2010PropOp41
 70
     0
102
RTVSPost2010Prop42
 90
       50
102
RTVSPost2010PropOp42
 70
     0
102
RTVSPost2010Prop43
 90
        3
102
RTVSPost2010PropOp43
 70
     0
102
RTVSPost2010Prop44ColorIndex
 90
        5
102
RTVSPost2010Prop44ColorRGB
 90
      255
102
RTVSPost2010PropOp44
 70
     0
102
RTVSPost2010Prop45
280
     0
102
RTVSPost2010PropOp45
 70
     1
102
RTVSPost2010Prop46
 90
       50
102
RTVSPost2010PropOp46
 70
     0
102
RTVSPost2010Prop47
 90
       50
102
RTVSPost2010PropOp47
 70
     0
102
RTVSPost2010Prop48
 90
       50
102
RTVSPost2010PropOp48
 70
     0
102
RTVSPost2010Prop49
280
     0
102
RTVSPost2010PropOp49
 70
     1
102
RTVSPost2010Prop50
 90
       50
102
RTVSPost2010PropOp50
 70
     0
102
RTVSPost2010Prop51ColorIndex
 90
      256
102
RTVSPost2010Prop51ColorRGB
 90
-16777216
102
RTVSPost2010PropOp51
 70
     0
102
RTVSPost2010Prop52
140
1.0
102
RTVSPost2010PropOp52
 70
     0
102
RTVSPost2010Prop53
 90
        2
102
RTVSPost2010PropOp53
 70
     0
102
RTVSPost2010Prop54
  1
strokes_ogs.tif
102
RTVSPost2010PropOp54
 70
     0
102
RTVSPost2010Prop55
280
     0
102
RTVSPost2010PropOp55
 70
     1
102
RTVSPost2010Prop56
140
1.0
102
RTVSPost2010PropOp56
 70
     0
102
RTVSPost2010Prop57
140
1.0
102
RTVSPost2010PropOp57
 70
     0
102
RTVSPropertyOp0
 70
     0
102
RTVSPropertyOp1
 70
     0
102
RTVSPropertyOp2
 70
     0
102
RTVSPropertyOp3
 70
     0
102
RTVSPropertyOp4
 70
     0
102
RTVSPropertyOp5
 70
     0
102
RTVSPropertyOp6
 70
     0
102
RTVSPropertyOp7
 70
     0
102
RTVSPropertyOp8
 70
     0
102
RTVSPropertyOp9
 70
     0
102
RTVSPropertyOp10
 70
     0
102
RTVSPropertyOp11
 70
     0
102
RTVSPropertyOp12
 70
     0
102
RTVSPropertyOp13
 70
     0
102
RTVSPropertyOp14
 70
     2
102
RTVSPropertyOp15
 70
     0
102
RTVSPropertyOp16
 70
     0
102
RTVSPropertyOp17
 70
     0
102
RTVSPropertyOp18
 70
     0
102
RTVSPropertyOp19
 70
     0
102
RTVSPropertyOp20
 70
     0
102
RTVSPropertyOp21
 70
     0
102
RTVSPropertyOp22
 70
     0
102
RTVSPropertyOp23
 70
     0
102
RTVSPropertyOp24
 70
     0
102
RTVSPropertyOp25
 70
     0
102
RTVSPropertyOp26
 70
     0
102
RTVSPropertyOp27
 70
     0
102
RTVSPropertyOp28
 70
     1
102
RTVSPropertyOp29
 70
     1
102
RTVSPropertyOp30
 70
     1
102
RTVSPropertyOp31
 70
     1
102
RTVSPropertyOp32
 70
     1
102
RTVSPropertyOp33
 70
     1
102
RTVSPropertyOp34
 70
     1
102
RTVSPropertyOp35
 70
     1
102
RTVSPropertyOp36
 70
     1
102
RTVSPropertyOp37
 70
     0
102
RTVSPropertyOp38
 70
     0
102
RTVSPropertyOp39
 70
     0
102
RTVSPropertyOp40
 70
     0
102
RTVSPropertyOp41
 70
     0
102
RTVSPropertyOp42
 70
     0
102
RTVSPropertyOp43
 70
     0
102
RTVSPropertyOp44
 70
     0
102
RTVSPropertyOp45
 70
     1
102
RTVSPropertyOp46
 70
     0
102
RTVSPropertyOp47
 70
     0
102
RTVSPropertyOp48
 70
     0
102
RTVSPropertyOp49
 70
     1
102
RTVSPropertyOp50
 70
     0
102
RTVSPropertyOp51
 70
     0
102
RTVSPropertyOp52
 70
     0
102
RTVSPropertyOp53
 70
     0
102
RTVSPropertyOp54
 70
     0
102
RTVSPropertyOp55
 70
     1
102
RTVSPropertyOp56
 70
     0
102
RTVSPropertyOp57
 70
     0
102
RTVSPropertyOp58
 70
     0
102
RTVSPropertyOp59
 70
     0
102
RTVSPropertyOp60
 70
     0
102
RTVSPropertyOp61
 70
     0
102
RTVSPropertyOp62
 70
     0
  0
XRECORD
  5
C192
102
{ACAD_REACTORS
330
C191
102
}
330
C191
100
AcDbXrecord
280
     1
102
RTVSPost2010Prop28
280
     0
102
RTVSPost2010PropOp28
 70
     1
102
RTVSPost2010Prop29
280
     1
102
RTVSPost2010PropOp29
 70
     1
102
RTVSPost2010Prop30
280
     1
102
RTVSPost2010PropOp30
 70
     1
102
RTVSPost2010Prop31
280
     0
102
RTVSPost2010PropOp31
 70
     1
102
RTVSPost2010Prop32
280
     0
102
RTVSPost2010PropOp32
 70
     1
102
RTVSPost2010Prop33
280
     0
102
RTVSPost2010PropOp33
 70
     1
102
RTVSPost2010Prop34
280
     0
102
RTVSPost2010PropOp34
 70
     1
102
RTVSPost2010Prop35
280
     0
102
RTVSPost2010PropOp35
 70
     1
102
RTVSPost2010Prop36
280
     0
102
RTVSPost2010PropOp36
 70
     1
102
RTVSPost2010Prop37
 90
       50
102
RTVSPost2010PropOp37
 70
     1
102
RTVSPost2010Prop38
140
0.0
102
RTVSPost2010PropOp38
 70
     1
102
RTVSPost2010Prop39
140
1.0
102
RTVSPost2010PropOp39
 70
     1
102
RTVSPost2010Prop40
 90
        0
102
RTVSPost2010PropOp40
 70
     1
102
RTVSPost2010Prop41ColorIndex
 90
       18
102
RTVSPost2010Prop41ColorRGB
 90
        0
102
RTVSPost2010PropOp41
 70
     1
102
RTVSPost2010Prop42
 90
       50
102
RTVSPost2010PropOp42
 70
     1
102
RTVSPost2010Prop43
 90
        3
102
RTVSPost2010PropOp43
 70
     1
102
RTVSPost2010Prop44ColorIndex
 90
        5
102
RTVSPost2010Prop44ColorRGB
 90
      255
102
RTVSPost2010PropOp44
 70
     1
102
RTVSPost2010Prop45
280
     0
102
RTVSPost2010PropOp45
 70
     1
102
RTVSPost2010Prop46
 90
       50
102
RTVSPost2010PropOp46
 70
     1
102
RTVSPost2010Prop47
 90
       50
102
RTVSPost2010PropOp47
 70
     1
102
RTVSPost2010Prop48
 90
       50
102
RTVSPost2010PropOp48
 70
     1
102
RTVSPost2010Prop49
280
     0
102
RTVSPost2010PropOp49
 70
     1
102
RTVSPost2010Prop50
 90
       50
102
RTVSPost2010PropOp50
 70
     1
102
RTVSPost2010Prop51ColorIndex
 90
      256
102
RTVSPost2010Prop51ColorRGB
 90
-16777216
102
RTVSPost2010PropOp51
 70
     0
102
RTVSPost2010Prop52
140
1.0
102
RTVSPost2010PropOp52
 70
     0
102
RTVSPost2010Prop53
 90
        2
102
RTVSPost2010PropOp53
 70
     1
102
RTVSPost2010Prop54
  1
strokes_ogs.tif
102
RTVSPost2010PropOp54
 70
     1
102
RTVSPost2010Prop55
280
     0
102
RTVSPost2010PropOp55
 70
     1
102
RTVSPost2010Prop56
140
1.0
102
RTVSPost2010PropOp56
 70
     1
102
RTVSPost2010Prop57
140
1.0
102
RTVSPost2010PropOp57
 70
     1
102
RTVSPropertyOp0
 70
     1
102
RTVSPropertyOp1
 70
     1
102
RTVSPropertyOp2
 70
     1
102
RTVSPropertyOp3
 70
     1
102
RTVSPropertyOp4
 70
     1
102
RTVSPropertyOp5
 70
     1
102
RTVSPropertyOp6
 70
     1
102
RTVSPropertyOp7
 70
     1
102
RTVSPropertyOp8
 70
     1
102
RTVSPropertyOp9
 70
     1
102
RTVSPropertyOp10
 70
     1
102
RTVSPropertyOp11
 70
     1
102
RTVSPropertyOp12
 70
     1
102
RTVSPropertyOp13
 70
     1
102
RTVSPropertyOp14
 70
     1
102
RTVSPropertyOp15
 70
     1
102
RTVSPropertyOp16
 70
     1
102
RTVSPropertyOp17
 70
     1
102
RTVSPropertyOp18
 70
     1
102
RTVSPropertyOp19
 70
     1
102
RTVSPropertyOp20
 70
     1
102
RTVSPropertyOp21
 70
     1
102
RTVSPropertyOp22
 70
     1
102
RTVSPropertyOp23
 70
     1
102
RTVSPropertyOp24
 70
     1
102
RTVSPropertyOp25
 70
     1
102
RTVSPropertyOp26
 70
     1
102
RTVSPropertyOp27
 70
     1
102
RTVSPropertyOp28
 70
     1
102
RTVSPropertyOp29
 70
     1
102
RTVSPropertyOp30
 70
     1
102
RTVSPropertyOp31
 70
     1
102
RTVSPropertyOp32
 70
     1
102
RTVSPropertyOp33
 70
     1
102
RTVSPropertyOp34
 70
     1
102
RTVSPropertyOp35
 70
     1
102
RTVSPropertyOp36
 70
     1
102
RTVSPropertyOp37
 70
     1
102
RTVSPropertyOp38
 70
     1
102
RTVSPropertyOp39
 70
     1
102
RTVSPropertyOp40
 70
     1
102
RTVSPropertyOp41
 70
     1
102
RTVSPropertyOp42
 70
     1
102
RTVSPropertyOp43
 70
     1
102
RTVSPropertyOp44
 70
     1
102
RTVSPropertyOp45
 70
     1
102
RTVSPropertyOp46
 70
     1
102
RTVSPropertyOp47
 70
     1
102
RTVSPropertyOp48
 70
     1
102
RTVSPropertyOp49
 70
     1
102
RTVSPropertyOp50
 70
     1
102
RTVSPropertyOp51
 70
     0
102
RTVSPropertyOp52
 70
     0
102
RTVSPropertyOp53
 70
     1
102
RTVSPropertyOp54
 70
     1
102
RTVSPropertyOp55
 70
     1
102
RTVSPropertyOp56
 70
     1
102
RTVSPropertyOp57
 70
     1
102
RTVSPropertyOp58
 70
     1
102
RTVSPropertyOp59
 70
     1
102
RTVSPropertyOp60
 70
     1
102
RTVSPropertyOp61
 70
     1
102
RTVSPropertyOp62
 70
     1
  0
XRECORD
  5
C176
102
{ACAD_REACTORS
330
C175
102
}
330
C175
100
AcDbXrecord
280
     1
102
RTVSPost2010Prop28
280
     0
102
RTVSPost2010PropOp28
 70
     1
102
RTVSPost2010Prop29
280
     1
102
RTVSPost2010PropOp29
 70
     1
102
RTVSPost2010Prop30
280
     1
102
RTVSPost2010PropOp30
 70
     1
102
RTVSPost2010Prop31
280
     0
102
RTVSPost2010PropOp31
 70
     1
102
RTVSPost2010Prop32
280
     0
102
RTVSPost2010PropOp32
 70
     1
102
RTVSPost2010Prop33
280
     0
102
RTVSPost2010PropOp33
 70
     1
102
RTVSPost2010Prop34
280
     0
102
RTVSPost2010PropOp34
 70
     1
102
RTVSPost2010Prop35
280
     0
102
RTVSPost2010PropOp35
 70
     1
102
RTVSPost2010Prop36
280
     0
102
RTVSPost2010PropOp36
 70
     1
102
RTVSPost2010Prop37
 90
       50
102
RTVSPost2010PropOp37
 70
     1
102
RTVSPost2010Prop38
140
0.0
102
RTVSPost2010PropOp38
 70
     1
102
RTVSPost2010Prop39
140
1.0
102
RTVSPost2010PropOp39
 70
     1
102
RTVSPost2010Prop40
 90
        0
102
RTVSPost2010PropOp40
 70
     1
102
RTVSPost2010Prop41ColorIndex
 90
       18
102
RTVSPost2010Prop41ColorRGB
 90
        0
102
RTVSPost2010PropOp41
 70
     1
102
RTVSPost2010Prop42
 90
       50
102
RTVSPost2010PropOp42
 70
     1
102
RTVSPost2010Prop43
 90
        3
102
RTVSPost2010PropOp43
 70
     1
102
RTVSPost2010Prop44ColorIndex
 90
        5
102
RTVSPost2010Prop44ColorRGB
 90
      255
102
RTVSPost2010PropOp44
 70
     1
102
RTVSPost2010Prop45
280
     0
102
RTVSPost2010PropOp45
 70
     1
102
RTVSPost2010Prop46
 90
       50
102
RTVSPost2010PropOp46
 70
     1
102
RTVSPost2010Prop47
 90
       50
102
RTVSPost2010PropOp47
 70
     1
102
RTVSPost2010Prop48
 90
       50
102
RTVSPost2010PropOp48
 70
     1
102
RTVSPost2010Prop49
280
     0
102
RTVSPost2010PropOp49
 70
     1
102
RTVSPost2010Prop50
 90
       50
102
RTVSPost2010PropOp50
 70
     1
102
RTVSPost2010Prop51ColorIndex
 90
      256
102
RTVSPost2010Prop51ColorRGB
 90
-16777216
102
RTVSPost2010PropOp51
 70
     0
102
RTVSPost2010Prop52
140
1.0
102
RTVSPost2010PropOp52
 70
     0
102
RTVSPost2010Prop53
 90
        2
102
RTVSPost2010PropOp53
 70
     1
102
RTVSPost2010Prop54
  1
strokes_ogs.tif
102
RTVSPost2010PropOp54
 70
     1
102
RTVSPost2010Prop55
280
     0
102
RTVSPost2010PropOp55
 70
     1
102
RTVSPost2010Prop56
140
1.0
102
RTVSPost2010PropOp56
 70
     1
102
RTVSPost2010Prop57
140
1.0
102
RTVSPost2010PropOp57
 70
     1
102
RTVSPropertyOp0
 70
     1
102
RTVSPropertyOp1
 70
     1
102
RTVSPropertyOp2
 70
     1
102
RTVSPropertyOp3
 70
     1
102
RTVSPropertyOp4
 70
     1
102
RTVSPropertyOp5
 70
     1
102
RTVSPropertyOp6
 70
     1
102
RTVSPropertyOp7
 70
     1
102
RTVSPropertyOp8
 70
     1
102
RTVSPropertyOp9
 70
     1
102
RTVSPropertyOp10
 70
     1
102
RTVSPropertyOp11
 70
     1
102
RTVSPropertyOp12
 70
     1
102
RTVSPropertyOp13
 70
     1
102
RTVSPropertyOp14
 70
     1
102
RTVSPropertyOp15
 70
     1
102
RTVSPropertyOp16
 70
     1
102
RTVSPropertyOp17
 70
     1
102
RTVSPropertyOp18
 70
     1
102
RTVSPropertyOp19
 70
     1
102
RTVSPropertyOp20
 70
     1
102
RTVSPropertyOp21
 70
     1
102
RTVSPropertyOp22
 70
     1
102
RTVSPropertyOp23
 70
     1
102
RTVSPropertyOp24
 70
     1
102
RTVSPropertyOp25
 70
     1
102
RTVSPropertyOp26
 70
     1
102
RTVSPropertyOp27
 70
     1
102
RTVSPropertyOp28
 70
     1
102
RTVSPropertyOp29
 70
     1
102
RTVSPropertyOp30
 70
     1
102
RTVSPropertyOp31
 70
     1
102
RTVSPropertyOp32
 70
     1
102
RTVSPropertyOp33
 70
     1
102
RTVSPropertyOp34
 70
     1
102
RTVSPropertyOp35
 70
     1
102
RTVSPropertyOp36
 70
     1
102
RTVSPropertyOp37
 70
     1
102
RTVSPropertyOp38
 70
     1
102
RTVSPropertyOp39
 70
     1
102
RTVSPropertyOp40
 70
     1
102
RTVSPropertyOp41
 70
     1
102
RTVSPropertyOp42
 70
     1
102
RTVSPropertyOp43
 70
     1
102
RTVSPropertyOp44
 70
     1
102
RTVSPropertyOp45
 70
     1
102
RTVSPropertyOp46
 70
     1
102
RTVSPropertyOp47
 70
     1
102
RTVSPropertyOp48
 70
     1
102
RTVSPropertyOp49
 70
     1
102
RTVSPropertyOp50
 70
     1
102
RTVSPropertyOp51
 70
     0
102
RTVSPropertyOp52
 70
     0
102
RTVSPropertyOp53
 70
     1
102
RTVSPropertyOp54
 70
     1
102
RTVSPropertyOp55
 70
     1
102
RTVSPropertyOp56
 70
     1
102
RTVSPropertyOp57
 70
     1
102
RTVSPropertyOp58
 70
     1
102
RTVSPropertyOp59
 70
     1
102
RTVSPropertyOp60
 70
     1
102
RTVSPropertyOp61
 70
     1
102
RTVSPropertyOp62
 70
     1
  0
XRECORD
  5
C178
102
{ACAD_REACTORS
330
C177
102
}
330
C177
100
AcDbXrecord
280
     1
102
RTVSPost2010Prop28
280
     0
102
RTVSPost2010PropOp28
 70
     1
102
RTVSPost2010Prop29
280
     1
102
RTVSPost2010PropOp29
 70
     1
102
RTVSPost2010Prop30
280
     1
102
RTVSPost2010PropOp30
 70
     1
102
RTVSPost2010Prop31
280
     0
102
RTVSPost2010PropOp31
 70
     1
102
RTVSPost2010Prop32
280
     0
102
RTVSPost2010PropOp32
 70
     1
102
RTVSPost2010Prop33
280
     0
102
RTVSPost2010PropOp33
 70
     1
102
RTVSPost2010Prop34
280
     0
102
RTVSPost2010PropOp34
 70
     1
102
RTVSPost2010Prop35
280
     0
102
RTVSPost2010PropOp35
 70
     1
102
RTVSPost2010Prop36
280
     0
102
RTVSPost2010PropOp36
 70
     1
102
RTVSPost2010Prop37
 90
       50
102
RTVSPost2010PropOp37
 70
     1
102
RTVSPost2010Prop38
140
0.0
102
RTVSPost2010PropOp38
 70
     1
102
RTVSPost2010Prop39
140
1.0
102
RTVSPost2010PropOp39
 70
     1
102
RTVSPost2010Prop40
 90
        0
102
RTVSPost2010PropOp40
 70
     1
102
RTVSPost2010Prop41ColorIndex
 90
       18
102
RTVSPost2010Prop41ColorRGB
 90
        0
102
RTVSPost2010PropOp41
 70
     1
102
RTVSPost2010Prop42
 90
       50
102
RTVSPost2010PropOp42
 70
     1
102
RTVSPost2010Prop43
 90
        3
102
RTVSPost2010PropOp43
 70
     1
102
RTVSPost2010Prop44ColorIndex
 90
        5
102
RTVSPost2010Prop44ColorRGB
 90
      255
102
RTVSPost2010PropOp44
 70
     1
102
RTVSPost2010Prop45
280
     0
102
RTVSPost2010PropOp45
 70
     1
102
RTVSPost2010Prop46
 90
       50
102
RTVSPost2010PropOp46
 70
     1
102
RTVSPost2010Prop47
 90
       50
102
RTVSPost2010PropOp47
 70
     1
102
RTVSPost2010Prop48
 90
       50
102
RTVSPost2010PropOp48
 70
     1
102
RTVSPost2010Prop49
280
     0
102
RTVSPost2010PropOp49
 70
     1
102
RTVSPost2010Prop50
 90
       50
102
RTVSPost2010PropOp50
 70
     1
102
RTVSPost2010Prop51ColorIndex
 90
      256
102
RTVSPost2010Prop51ColorRGB
 90
-16777216
102
RTVSPost2010PropOp51
 70
     0
102
RTVSPost2010Prop52
140
1.0
102
RTVSPost2010PropOp52
 70
     0
102
RTVSPost2010Prop53
 90
        2
102
RTVSPost2010PropOp53
 70
     1
102
RTVSPost2010Prop54
  1
strokes_ogs.tif
102
RTVSPost2010PropOp54
 70
     1
102
RTVSPost2010Prop55
280
     0
102
RTVSPost2010PropOp55
 70
     1
102
RTVSPost2010Prop56
140
1.0
102
RTVSPost2010PropOp56
 70
     1
102
RTVSPost2010Prop57
140
1.0
102
RTVSPost2010PropOp57
 70
     1
102
RTVSPropertyOp0
 70
     1
102
RTVSPropertyOp1
 70
     1
102
RTVSPropertyOp2
 70
     1
102
RTVSPropertyOp3
 70
     1
102
RTVSPropertyOp4
 70
     1
102
RTVSPropertyOp5
 70
     1
102
RTVSPropertyOp6
 70
     1
102
RTVSPropertyOp7
 70
     1
102
RTVSPropertyOp8
 70
     1
102
RTVSPropertyOp9
 70
     1
102
RTVSPropertyOp10
 70
     1
102
RTVSPropertyOp11
 70
     1
102
RTVSPropertyOp12
 70
     1
102
RTVSPropertyOp13
 70
     1
102
RTVSPropertyOp14
 70
     1
102
RTVSPropertyOp15
 70
     1
102
RTVSPropertyOp16
 70
     1
102
RTVSPropertyOp17
 70
     1
102
RTVSPropertyOp18
 70
     1
102
RTVSPropertyOp19
 70
     1
102
RTVSPropertyOp20
 70
     1
102
RTVSPropertyOp21
 70
     1
102
RTVSPropertyOp22
 70
     1
102
RTVSPropertyOp23
 70
     1
102
RTVSPropertyOp24
 70
     1
102
RTVSPropertyOp25
 70
     1
102
RTVSPropertyOp26
 70
     1
102
RTVSPropertyOp27
 70
     1
102
RTVSPropertyOp28
 70
     1
102
RTVSPropertyOp29
 70
     1
102
RTVSPropertyOp30
 70
     1
102
RTVSPropertyOp31
 70
     1
102
RTVSPropertyOp32
 70
     1
102
RTVSPropertyOp33
 70
     1
102
RTVSPropertyOp34
 70
     1
102
RTVSPropertyOp35
 70
     1
102
RTVSPropertyOp36
 70
     1
102
RTVSPropertyOp37
 70
     1
102
RTVSPropertyOp38
 70
     1
102
RTVSPropertyOp39
 70
     1
102
RTVSPropertyOp40
 70
     1
102
RTVSPropertyOp41
 70
     1
102
RTVSPropertyOp42
 70
     1
102
RTVSPropertyOp43
 70
     1
102
RTVSPropertyOp44
 70
     1
102
RTVSPropertyOp45
 70
     1
102
RTVSPropertyOp46
 70
     1
102
RTVSPropertyOp47
 70
     1
102
RTVSPropertyOp48
 70
     1
102
RTVSPropertyOp49
 70
     1
102
RTVSPropertyOp50
 70
     1
102
RTVSPropertyOp51
 70
     0
102
RTVSPropertyOp52
 70
     0
102
RTVSPropertyOp53
 70
     1
102
RTVSPropertyOp54
 70
     1
102
RTVSPropertyOp55
 70
     1
102
RTVSPropertyOp56
 70
     1
102
RTVSPropertyOp57
 70
     1
102
RTVSPropertyOp58
 70
     1
102
RTVSPropertyOp59
 70
     1
102
RTVSPropertyOp60
 70
     1
102
RTVSPropertyOp61
 70
     1
102
RTVSPropertyOp62
 70
     1
  0
XRECORD
  5
C17A
102
{ACAD_REACTORS
330
C179
102
}
330
C179
100
AcDbXrecord
280
     1
102
RTVSPost2010Prop28
280
     0
102
RTVSPost2010PropOp28
 70
     1
102
RTVSPost2010Prop29
280
     1
102
RTVSPost2010PropOp29
 70
     1
102
RTVSPost2010Prop30
280
     1
102
RTVSPost2010PropOp30
 70
     1
102
RTVSPost2010Prop31
280
     0
102
RTVSPost2010PropOp31
 70
     1
102
RTVSPost2010Prop32
280
     0
102
RTVSPost2010PropOp32
 70
     1
102
RTVSPost2010Prop33
280
     0
102
RTVSPost2010PropOp33
 70
     1
102
RTVSPost2010Prop34
280
     0
102
RTVSPost2010PropOp34
 70
     1
102
RTVSPost2010Prop35
280
     0
102
RTVSPost2010PropOp35
 70
     1
102
RTVSPost2010Prop36
280
     0
102
RTVSPost2010PropOp36
 70
     1
102
RTVSPost2010Prop37
 90
       50
102
RTVSPost2010PropOp37
 70
     1
102
RTVSPost2010Prop38
140
0.0
102
RTVSPost2010PropOp38
 70
     1
102
RTVSPost2010Prop39
140
1.0
102
RTVSPost2010PropOp39
 70
     1
102
RTVSPost2010Prop40
 90
        0
102
RTVSPost2010PropOp40
 70
     1
102
RTVSPost2010Prop41ColorIndex
 90
       18
102
RTVSPost2010Prop41ColorRGB
 90
        0
102
RTVSPost2010PropOp41
 70
     1
102
RTVSPost2010Prop42
 90
       50
102
RTVSPost2010PropOp42
 70
     1
102
RTVSPost2010Prop43
 90
        3
102
RTVSPost2010PropOp43
 70
     1
102
RTVSPost2010Prop44ColorIndex
 90
        5
102
RTVSPost2010Prop44ColorRGB
 90
      255
102
RTVSPost2010PropOp44
 70
     1
102
RTVSPost2010Prop45
280
     0
102
RTVSPost2010PropOp45
 70
     1
102
RTVSPost2010Prop46
 90
       50
102
RTVSPost2010PropOp46
 70
     1
102
RTVSPost2010Prop47
 90
       50
102
RTVSPost2010PropOp47
 70
     1
102
RTVSPost2010Prop48
 90
       50
102
RTVSPost2010PropOp48
 70
     1
102
RTVSPost2010Prop49
280
     0
102
RTVSPost2010PropOp49
 70
     1
102
RTVSPost2010Prop50
 90
       50
102
RTVSPost2010PropOp50
 70
     1
102
RTVSPost2010Prop51ColorIndex
 90
      256
102
RTVSPost2010Prop51ColorRGB
 90
-16777216
102
RTVSPost2010PropOp51
 70
     0
102
RTVSPost2010Prop52
140
1.0
102
RTVSPost2010PropOp52
 70
     0
102
RTVSPost2010Prop53
 90
        2
102
RTVSPost2010PropOp53
 70
     1
102
RTVSPost2010Prop54
  1
strokes_ogs.tif
102
RTVSPost2010PropOp54
 70
     1
102
RTVSPost2010Prop55
280
     0
102
RTVSPost2010PropOp55
 70
     1
102
RTVSPost2010Prop56
140
1.0
102
RTVSPost2010PropOp56
 70
     1
102
RTVSPost2010Prop57
140
1.0
102
RTVSPost2010PropOp57
 70
     1
102
RTVSPropertyOp0
 70
     1
102
RTVSPropertyOp1
 70
     1
102
RTVSPropertyOp2
 70
     1
102
RTVSPropertyOp3
 70
     1
102
RTVSPropertyOp4
 70
     1
102
RTVSPropertyOp5
 70
     1
102
RTVSPropertyOp6
 70
     1
102
RTVSPropertyOp7
 70
     1
102
RTVSPropertyOp8
 70
     1
102
RTVSPropertyOp9
 70
     1
102
RTVSPropertyOp10
 70
     1
102
RTVSPropertyOp11
 70
     1
102
RTVSPropertyOp12
 70
     1
102
RTVSPropertyOp13
 70
     1
102
RTVSPropertyOp14
 70
     1
102
RTVSPropertyOp15
 70
     1
102
RTVSPropertyOp16
 70
     1
102
RTVSPropertyOp17
 70
     1
102
RTVSPropertyOp18
 70
     1
102
RTVSPropertyOp19
 70
     1
102
RTVSPropertyOp20
 70
     1
102
RTVSPropertyOp21
 70
     1
102
RTVSPropertyOp22
 70
     1
102
RTVSPropertyOp23
 70
     1
102
RTVSPropertyOp24
 70
     1
102
RTVSPropertyOp25
 70
     1
102
RTVSPropertyOp26
 70
     1
102
RTVSPropertyOp27
 70
     1
102
RTVSPropertyOp28
 70
     1
102
RTVSPropertyOp29
 70
     1
102
RTVSPropertyOp30
 70
     1
102
RTVSPropertyOp31
 70
     1
102
RTVSPropertyOp32
 70
     1
102
RTVSPropertyOp33
 70
     1
102
RTVSPropertyOp34
 70
     1
102
RTVSPropertyOp35
 70
     1
102
RTVSPropertyOp36
 70
     1
102
RTVSPropertyOp37
 70
     1
102
RTVSPropertyOp38
 70
     1
102
RTVSPropertyOp39
 70
     1
102
RTVSPropertyOp40
 70
     1
102
RTVSPropertyOp41
 70
     1
102
RTVSPropertyOp42
 70
     1
102
RTVSPropertyOp43
 70
     1
102
RTVSPropertyOp44
 70
     1
102
RTVSPropertyOp45
 70
     1
102
RTVSPropertyOp46
 70
     1
102
RTVSPropertyOp47
 70
     1
102
RTVSPropertyOp48
 70
     1
102
RTVSPropertyOp49
 70
     1
102
RTVSPropertyOp50
 70
     1
102
RTVSPropertyOp51
 70
     0
102
RTVSPropertyOp52
 70
     0
102
RTVSPropertyOp53
 70
     1
102
RTVSPropertyOp54
 70
     1
102
RTVSPropertyOp55
 70
     1
102
RTVSPropertyOp56
 70
     1
102
RTVSPropertyOp57
 70
     1
102
RTVSPropertyOp58
 70
     1
102
RTVSPropertyOp59
 70
     1
102
RTVSPropertyOp60
 70
     1
102
RTVSPropertyOp61
 70
     1
102
RTVSPropertyOp62
 70
     1
  0
XRECORD
  5
C17C
102
{ACAD_REACTORS
330
C17B
102
}
330
C17B
100
AcDbXrecord
280
     1
102
RTVSPost2010Prop28
280
     0
102
RTVSPost2010PropOp28
 70
     1
102
RTVSPost2010Prop29
280
     1
102
RTVSPost2010PropOp29
 70
     1
102
RTVSPost2010Prop30
280
     1
102
RTVSPost2010PropOp30
 70
     1
102
RTVSPost2010Prop31
280
     0
102
RTVSPost2010PropOp31
 70
     1
102
RTVSPost2010Prop32
280
     0
102
RTVSPost2010PropOp32
 70
     1
102
RTVSPost2010Prop33
280
     0
102
RTVSPost2010PropOp33
 70
     1
102
RTVSPost2010Prop34
280
     0
102
RTVSPost2010PropOp34
 70
     1
102
RTVSPost2010Prop35
280
     0
102
RTVSPost2010PropOp35
 70
     1
102
RTVSPost2010Prop36
280
     0
102
RTVSPost2010PropOp36
 70
     1
102
RTVSPost2010Prop37
 90
       50
102
RTVSPost2010PropOp37
 70
     1
102
RTVSPost2010Prop38
140
0.0
102
RTVSPost2010PropOp38
 70
     1
102
RTVSPost2010Prop39
140
1.0
102
RTVSPost2010PropOp39
 70
     1
102
RTVSPost2010Prop40
 90
        0
102
RTVSPost2010PropOp40
 70
     1
102
RTVSPost2010Prop41ColorIndex
 90
       18
102
RTVSPost2010Prop41ColorRGB
 90
        0
102
RTVSPost2010PropOp41
 70
     1
102
RTVSPost2010Prop42
 90
       50
102
RTVSPost2010PropOp42
 70
     1
102
RTVSPost2010Prop43
 90
        3
102
RTVSPost2010PropOp43
 70
     1
102
RTVSPost2010Prop44ColorIndex
 90
        5
102
RTVSPost2010Prop44ColorRGB
 90
      255
102
RTVSPost2010PropOp44
 70
     1
102
RTVSPost2010Prop45
280
     0
102
RTVSPost2010PropOp45
 70
     1
102
RTVSPost2010Prop46
 90
       50
102
RTVSPost2010PropOp46
 70
     1
102
RTVSPost2010Prop47
 90
       50
102
RTVSPost2010PropOp47
 70
     1
102
RTVSPost2010Prop48
 90
       50
102
RTVSPost2010PropOp48
 70
     1
102
RTVSPost2010Prop49
280
     0
102
RTVSPost2010PropOp49
 70
     1
102
RTVSPost2010Prop50
 90
       50
102
RTVSPost2010PropOp50
 70
     1
102
RTVSPost2010Prop51ColorIndex
 90
      256
102
RTVSPost2010Prop51ColorRGB
 90
-16777216
102
RTVSPost2010PropOp51
 70
     0
102
RTVSPost2010Prop52
140
1.0
102
RTVSPost2010PropOp52
 70
     0
102
RTVSPost2010Prop53
 90
        2
102
RTVSPost2010PropOp53
 70
     1
102
RTVSPost2010Prop54
  1
strokes_ogs.tif
102
RTVSPost2010PropOp54
 70
     1
102
RTVSPost2010Prop55
280
     0
102
RTVSPost2010PropOp55
 70
     1
102
RTVSPost2010Prop56
140
1.0
102
RTVSPost2010PropOp56
 70
     1
102
RTVSPost2010Prop57
140
1.0
102
RTVSPost2010PropOp57
 70
     1
102
RTVSPropertyOp0
 70
     1
102
RTVSPropertyOp1
 70
     1
102
RTVSPropertyOp2
 70
     1
102
RTVSPropertyOp3
 70
     1
102
RTVSPropertyOp4
 70
     1
102
RTVSPropertyOp5
 70
     1
102
RTVSPropertyOp6
 70
     1
102
RTVSPropertyOp7
 70
     1
102
RTVSPropertyOp8
 70
     1
102
RTVSPropertyOp9
 70
     1
102
RTVSPropertyOp10
 70
     1
102
RTVSPropertyOp11
 70
     1
102
RTVSPropertyOp12
 70
     1
102
RTVSPropertyOp13
 70
     1
102
RTVSPropertyOp14
 70
     1
102
RTVSPropertyOp15
 70
     1
102
RTVSPropertyOp16
 70
     1
102
RTVSPropertyOp17
 70
     1
102
RTVSPropertyOp18
 70
     1
102
RTVSPropertyOp19
 70
     1
102
RTVSPropertyOp20
 70
     1
102
RTVSPropertyOp21
 70
     1
102
RTVSPropertyOp22
 70
     1
102
RTVSPropertyOp23
 70
     1
102
RTVSPropertyOp24
 70
     1
102
RTVSPropertyOp25
 70
     1
102
RTVSPropertyOp26
 70
     1
102
RTVSPropertyOp27
 70
     1
102
RTVSPropertyOp28
 70
     1
102
RTVSPropertyOp29
 70
     1
102
RTVSPropertyOp30
 70
     1
102
RTVSPropertyOp31
 70
     1
102
RTVSPropertyOp32
 70
     1
102
RTVSPropertyOp33
 70
     1
102
RTVSPropertyOp34
 70
     1
102
RTVSPropertyOp35
 70
     1
102
RTVSPropertyOp36
 70
     1
102
RTVSPropertyOp37
 70
     1
102
RTVSPropertyOp38
 70
     1
102
RTVSPropertyOp39
 70
     1
102
RTVSPropertyOp40
 70
     1
102
RTVSPropertyOp41
 70
     1
102
RTVSPropertyOp42
 70
     1
102
RTVSPropertyOp43
 70
     1
102
RTVSPropertyOp44
 70
     1
102
RTVSPropertyOp45
 70
     1
102
RTVSPropertyOp46
 70
     1
102
RTVSPropertyOp47
 70
     1
102
RTVSPropertyOp48
 70
     1
102
RTVSPropertyOp49
 70
     1
102
RTVSPropertyOp50
 70
     1
102
RTVSPropertyOp51
 70
     0
102
RTVSPropertyOp52
 70
     0
102
RTVSPropertyOp53
 70
     1
102
RTVSPropertyOp54
 70
     1
102
RTVSPropertyOp55
 70
     1
102
RTVSPropertyOp56
 70
     1
102
RTVSPropertyOp57
 70
     1
102
RTVSPropertyOp58
 70
     1
102
RTVSPropertyOp59
 70
     1
102
RTVSPropertyOp60
 70
     1
102
RTVSPropertyOp61
 70
     1
102
RTVSPropertyOp62
 70
     1
  0
XRECORD
  5
C184
102
{ACAD_REACTORS
330
C183
102
}
330
C183
100
AcDbXrecord
280
     1
102
RTVSPost2010Prop28
280
     0
102
RTVSPost2010PropOp28
 70
     1
102
RTVSPost2010Prop29
280
     1
102
RTVSPost2010PropOp29
 70
     1
102
RTVSPost2010Prop30
280
     1
102
RTVSPost2010PropOp30
 70
     1
102
RTVSPost2010Prop31
280
     0
102
RTVSPost2010PropOp31
 70
     1
102
RTVSPost2010Prop32
280
     0
102
RTVSPost2010PropOp32
 70
     1
102
RTVSPost2010Prop33
280
     0
102
RTVSPost2010PropOp33
 70
     1
102
RTVSPost2010Prop34
280
     0
102
RTVSPost2010PropOp34
 70
     1
102
RTVSPost2010Prop35
280
     0
102
RTVSPost2010PropOp35
 70
     1
102
RTVSPost2010Prop36
280
     0
102
RTVSPost2010PropOp36
 70
     1
102
RTVSPost2010Prop37
 90
       50
102
RTVSPost2010PropOp37
 70
     1
102
RTVSPost2010Prop38
140
0.0
102
RTVSPost2010PropOp38
 70
     1
102
RTVSPost2010Prop39
140
1.0
102
RTVSPost2010PropOp39
 70
     1
102
RTVSPost2010Prop40
 90
        0
102
RTVSPost2010PropOp40
 70
     1
102
RTVSPost2010Prop41ColorIndex
 90
       18
102
RTVSPost2010Prop41ColorRGB
 90
        0
102
RTVSPost2010PropOp41
 70
     1
102
RTVSPost2010Prop42
 90
       50
102
RTVSPost2010PropOp42
 70
     1
102
RTVSPost2010Prop43
 90
        3
102
RTVSPost2010PropOp43
 70
     1
102
RTVSPost2010Prop44ColorIndex
 90
        5
102
RTVSPost2010Prop44ColorRGB
 90
      255
102
RTVSPost2010PropOp44
 70
     1
102
RTVSPost2010Prop45
280
     0
102
RTVSPost2010PropOp45
 70
     1
102
RTVSPost2010Prop46
 90
       50
102
RTVSPost2010PropOp46
 70
     1
102
RTVSPost2010Prop47
 90
       50
102
RTVSPost2010PropOp47
 70
     1
102
RTVSPost2010Prop48
 90
       50
102
RTVSPost2010PropOp48
 70
     1
102
RTVSPost2010Prop49
280
     0
102
RTVSPost2010PropOp49
 70
     1
102
RTVSPost2010Prop50
 90
       50
102
RTVSPost2010PropOp50
 70
     1
102
RTVSPost2010Prop51ColorIndex
 90
      256
102
RTVSPost2010Prop51ColorRGB
 90
-16777216
102
RTVSPost2010PropOp51
 70
     0
102
RTVSPost2010Prop52
140
1.0
102
RTVSPost2010PropOp52
 70
     0
102
RTVSPost2010Prop53
 90
        2
102
RTVSPost2010PropOp53
 70
     1
102
RTVSPost2010Prop54
  1
strokes_ogs.tif
102
RTVSPost2010PropOp54
 70
     1
102
RTVSPost2010Prop55
280
     0
102
RTVSPost2010PropOp55
 70
     1
102
RTVSPost2010Prop56
140
1.0
102
RTVSPost2010PropOp56
 70
     1
102
RTVSPost2010Prop57
140
1.0
102
RTVSPost2010PropOp57
 70
     1
102
RTVSPropertyOp0
 70
     1
102
RTVSPropertyOp1
 70
     1
102
RTVSPropertyOp2
 70
     1
102
RTVSPropertyOp3
 70
     1
102
RTVSPropertyOp4
 70
     1
102
RTVSPropertyOp5
 70
     1
102
RTVSPropertyOp6
 70
     1
102
RTVSPropertyOp7
 70
     1
102
RTVSPropertyOp8
 70
     1
102
RTVSPropertyOp9
 70
     1
102
RTVSPropertyOp10
 70
     1
102
RTVSPropertyOp11
 70
     1
102
RTVSPropertyOp12
 70
     1
102
RTVSPropertyOp13
 70
     1
102
RTVSPropertyOp14
 70
     1
102
RTVSPropertyOp15
 70
     1
102
RTVSPropertyOp16
 70
     1
102
RTVSPropertyOp17
 70
     1
102
RTVSPropertyOp18
 70
     1
102
RTVSPropertyOp19
 70
     1
102
RTVSPropertyOp20
 70
     1
102
RTVSPropertyOp21
 70
     1
102
RTVSPropertyOp22
 70
     1
102
RTVSPropertyOp23
 70
     1
102
RTVSPropertyOp24
 70
     1
102
RTVSPropertyOp25
 70
     1
102
RTVSPropertyOp26
 70
     1
102
RTVSPropertyOp27
 70
     1
102
RTVSPropertyOp28
 70
     1
102
RTVSPropertyOp29
 70
     1
102
RTVSPropertyOp30
 70
     1
102
RTVSPropertyOp31
 70
     1
102
RTVSPropertyOp32
 70
     1
102
RTVSPropertyOp33
 70
     1
102
RTVSPropertyOp34
 70
     1
102
RTVSPropertyOp35
 70
     1
102
RTVSPropertyOp36
 70
     1
102
RTVSPropertyOp37
 70
     1
102
RTVSPropertyOp38
 70
     1
102
RTVSPropertyOp39
 70
     1
102
RTVSPropertyOp40
 70
     1
102
RTVSPropertyOp41
 70
     1
102
RTVSPropertyOp42
 70
     1
102
RTVSPropertyOp43
 70
     1
102
RTVSPropertyOp44
 70
     1
102
RTVSPropertyOp45
 70
     1
102
RTVSPropertyOp46
 70
     1
102
RTVSPropertyOp47
 70
     1
102
RTVSPropertyOp48
 70
     1
102
RTVSPropertyOp49
 70
     1
102
RTVSPropertyOp50
 70
     1
102
RTVSPropertyOp51
 70
     0
102
RTVSPropertyOp52
 70
     0
102
RTVSPropertyOp53
 70
     1
102
RTVSPropertyOp54
 70
     1
102
RTVSPropertyOp55
 70
     1
102
RTVSPropertyOp56
 70
     1
102
RTVSPropertyOp57
 70
     1
102
RTVSPropertyOp58
 70
     1
102
RTVSPropertyOp59
 70
     1
102
RTVSPropertyOp60
 70
     1
102
RTVSPropertyOp61
 70
     1
102
RTVSPropertyOp62
 70
     1
  0
XRECORD
  5
C1A0
102
{ACAD_REACTORS
330
C19F
102
}
330
C19F
100
AcDbXrecord
280
     1
102
RTVSPost2010Prop28
280
     0
102
RTVSPost2010PropOp28
 70
     1
102
RTVSPost2010Prop29
280
     1
102
RTVSPost2010PropOp29
 70
     1
102
RTVSPost2010Prop30
280
     1
102
RTVSPost2010PropOp30
 70
     1
102
RTVSPost2010Prop31
280
     0
102
RTVSPost2010PropOp31
 70
     1
102
RTVSPost2010Prop32
280
     0
102
RTVSPost2010PropOp32
 70
     1
102
RTVSPost2010Prop33
280
     0
102
RTVSPost2010PropOp33
 70
     1
102
RTVSPost2010Prop34
280
     0
102
RTVSPost2010PropOp34
 70
     1
102
RTVSPost2010Prop35
280
     0
102
RTVSPost2010PropOp35
 70
     1
102
RTVSPost2010Prop36
280
     0
102
RTVSPost2010PropOp36
 70
     1
102
RTVSPost2010Prop37
 90
       50
102
RTVSPost2010PropOp37
 70
     0
102
RTVSPost2010Prop38
140
0.0
102
RTVSPost2010PropOp38
 70
     0
102
RTVSPost2010Prop39
140
1.0
102
RTVSPost2010PropOp39
 70
     0
102
RTVSPost2010Prop40
 90
        0
102
RTVSPost2010PropOp40
 70
     0
102
RTVSPost2010Prop41ColorIndex
 90
       18
102
RTVSPost2010Prop41ColorRGB
 90
        0
102
RTVSPost2010PropOp41
 70
     0
102
RTVSPost2010Prop42
 90
       50
102
RTVSPost2010PropOp42
 70
     0
102
RTVSPost2010Prop43
 90
        3
102
RTVSPost2010PropOp43
 70
     0
102
RTVSPost2010Prop44ColorIndex
 90
        5
102
RTVSPost2010Prop44ColorRGB
 90
      255
102
RTVSPost2010PropOp44
 70
     0
102
RTVSPost2010Prop45
280
     0
102
RTVSPost2010PropOp45
 70
     1
102
RTVSPost2010Prop46
 90
       50
102
RTVSPost2010PropOp46
 70
     0
102
RTVSPost2010Prop47
 90
       50
102
RTVSPost2010PropOp47
 70
     0
102
RTVSPost2010Prop48
 90
       50
102
RTVSPost2010PropOp48
 70
     0
102
RTVSPost2010Prop49
280
     0
102
RTVSPost2010PropOp49
 70
     1
102
RTVSPost2010Prop50
 90
       50
102
RTVSPost2010PropOp50
 70
     0
102
RTVSPost2010Prop51ColorIndex
 90
      256
102
RTVSPost2010Prop51ColorRGB
 90
-16777216
102
RTVSPost2010PropOp51
 70
     0
102
RTVSPost2010Prop52
140
1.0
102
RTVSPost2010PropOp52
 70
     0
102
RTVSPost2010Prop53
 90
        2
102
RTVSPost2010PropOp53
 70
     0
102
RTVSPost2010Prop54
  1
strokes_ogs.tif
102
RTVSPost2010PropOp54
 70
     0
102
RTVSPost2010Prop55
280
     0
102
RTVSPost2010PropOp55
 70
     1
102
RTVSPost2010Prop56
140
1.0
102
RTVSPost2010PropOp56
 70
     0
102
RTVSPost2010Prop57
140
1.0
102
RTVSPost2010PropOp57
 70
     0
102
RTVSPropertyOp0
 70
     0
102
RTVSPropertyOp1
 70
     0
102
RTVSPropertyOp2
 70
     0
102
RTVSPropertyOp3
 70
     0
102
RTVSPropertyOp4
 70
     0
102
RTVSPropertyOp5
 70
     0
102
RTVSPropertyOp6
 70
     0
102
RTVSPropertyOp7
 70
     0
102
RTVSPropertyOp8
 70
     0
102
RTVSPropertyOp9
 70
     0
102
RTVSPropertyOp10
 70
     0
102
RTVSPropertyOp11
 70
     0
102
RTVSPropertyOp12
 70
     0
102
RTVSPropertyOp13
 70
     0
102
RTVSPropertyOp14
 70
     2
102
RTVSPropertyOp15
 70
     0
102
RTVSPropertyOp16
 70
     0
102
RTVSPropertyOp17
 70
     0
102
RTVSPropertyOp18
 70
     0
102
RTVSPropertyOp19
 70
     0
102
RTVSPropertyOp20
 70
     0
102
RTVSPropertyOp21
 70
     0
102
RTVSPropertyOp22
 70
     0
102
RTVSPropertyOp23
 70
     0
102
RTVSPropertyOp24
 70
     0
102
RTVSPropertyOp25
 70
     0
102
RTVSPropertyOp26
 70
     0
102
RTVSPropertyOp27
 70
     0
102
RTVSPropertyOp28
 70
     1
102
RTVSPropertyOp29
 70
     1
102
RTVSPropertyOp30
 70
     1
102
RTVSPropertyOp31
 70
     1
102
RTVSPropertyOp32
 70
     1
102
RTVSPropertyOp33
 70
     1
102
RTVSPropertyOp34
 70
     1
102
RTVSPropertyOp35
 70
     1
102
RTVSPropertyOp36
 70
     1
102
RTVSPropertyOp37
 70
     0
102
RTVSPropertyOp38
 70
     0
102
RTVSPropertyOp39
 70
     0
102
RTVSPropertyOp40
 70
     0
102
RTVSPropertyOp41
 70
     0
102
RTVSPropertyOp42
 70
     0
102
RTVSPropertyOp43
 70
     0
102
RTVSPropertyOp44
 70
     0
102
RTVSPropertyOp45
 70
     1
102
RTVSPropertyOp46
 70
     0
102
RTVSPropertyOp47
 70
     0
102
RTVSPropertyOp48
 70
     0
102
RTVSPropertyOp49
 70
     1
102
RTVSPropertyOp50
 70
     0
102
RTVSPropertyOp51
 70
     0
102
RTVSPropertyOp52
 70
     0
102
RTVSPropertyOp53
 70
     0
102
RTVSPropertyOp54
 70
     0
102
RTVSPropertyOp55
 70
     1
102
RTVSPropertyOp56
 70
     0
102
RTVSPropertyOp57
 70
     0
102
RTVSPropertyOp58
 70
     0
102
RTVSPropertyOp59
 70
     0
102
RTVSPropertyOp60
 70
     0
102
RTVSPropertyOp61
 70
     0
102
RTVSPropertyOp62
 70
     0
  0
XRECORD
  5
C190
102
{ACAD_REACTORS
330
C18F
102
}
330
C18F
100
AcDbXrecord
280
     1
102
RTVSPost2010Prop28
280
     0
102
RTVSPost2010PropOp28
 70
     1
102
RTVSPost2010Prop29
280
     1
102
RTVSPost2010PropOp29
 70
     1
102
RTVSPost2010Prop30
280
     1
102
RTVSPost2010PropOp30
 70
     1
102
RTVSPost2010Prop31
280
     0
102
RTVSPost2010PropOp31
 70
     1
102
RTVSPost2010Prop32
280
     0
102
RTVSPost2010PropOp32
 70
     1
102
RTVSPost2010Prop33
280
     0
102
RTVSPost2010PropOp33
 70
     1
102
RTVSPost2010Prop34
280
     0
102
RTVSPost2010PropOp34
 70
     1
102
RTVSPost2010Prop35
280
     0
102
RTVSPost2010PropOp35
 70
     1
102
RTVSPost2010Prop36
280
     0
102
RTVSPost2010PropOp36
 70
     1
102
RTVSPost2010Prop37
 90
       50
102
RTVSPost2010PropOp37
 70
     1
102
RTVSPost2010Prop38
140
0.0
102
RTVSPost2010PropOp38
 70
     1
102
RTVSPost2010Prop39
140
1.0
102
RTVSPost2010PropOp39
 70
     1
102
RTVSPost2010Prop40
 90
        0
102
RTVSPost2010PropOp40
 70
     1
102
RTVSPost2010Prop41ColorIndex
 90
       18
102
RTVSPost2010Prop41ColorRGB
 90
        0
102
RTVSPost2010PropOp41
 70
     1
102
RTVSPost2010Prop42
 90
       50
102
RTVSPost2010PropOp42
 70
     1
102
RTVSPost2010Prop43
 90
        3
102
RTVSPost2010PropOp43
 70
     1
102
RTVSPost2010Prop44ColorIndex
 90
        5
102
RTVSPost2010Prop44ColorRGB
 90
      255
102
RTVSPost2010PropOp44
 70
     1
102
RTVSPost2010Prop45
280
     0
102
RTVSPost2010PropOp45
 70
     1
102
RTVSPost2010Prop46
 90
       50
102
RTVSPost2010PropOp46
 70
     1
102
RTVSPost2010Prop47
 90
       50
102
RTVSPost2010PropOp47
 70
     1
102
RTVSPost2010Prop48
 90
       50
102
RTVSPost2010PropOp48
 70
     1
102
RTVSPost2010Prop49
280
     0
102
RTVSPost2010PropOp49
 70
     1
102
RTVSPost2010Prop50
 90
       50
102
RTVSPost2010PropOp50
 70
     1
102
RTVSPost2010Prop51ColorIndex
 90
      256
102
RTVSPost2010Prop51ColorRGB
 90
-16777216
102
RTVSPost2010PropOp51
 70
     0
102
RTVSPost2010Prop52
140
1.0
102
RTVSPost2010PropOp52
 70
     0
102
RTVSPost2010Prop53
 90
        2
102
RTVSPost2010PropOp53
 70
     1
102
RTVSPost2010Prop54
  1
strokes_ogs.tif
102
RTVSPost2010PropOp54
 70
     1
102
RTVSPost2010Prop55
280
     0
102
RTVSPost2010PropOp55
 70
     1
102
RTVSPost2010Prop56
140
1.0
102
RTVSPost2010PropOp56
 70
     1
102
RTVSPost2010Prop57
140
1.0
102
RTVSPost2010PropOp57
 70
     1
102
RTVSPropertyOp0
 70
     1
102
RTVSPropertyOp1
 70
     1
102
RTVSPropertyOp2
 70
     1
102
RTVSPropertyOp3
 70
     1
102
RTVSPropertyOp4
 70
     1
102
RTVSPropertyOp5
 70
     1
102
RTVSPropertyOp6
 70
     1
102
RTVSPropertyOp7
 70
     1
102
RTVSPropertyOp8
 70
     1
102
RTVSPropertyOp9
 70
     1
102
RTVSPropertyOp10
 70
     1
102
RTVSPropertyOp11
 70
     1
102
RTVSPropertyOp12
 70
     1
102
RTVSPropertyOp13
 70
     1
102
RTVSPropertyOp14
 70
     1
102
RTVSPropertyOp15
 70
     1
102
RTVSPropertyOp16
 70
     1
102
RTVSPropertyOp17
 70
     1
102
RTVSPropertyOp18
 70
     1
102
RTVSPropertyOp19
 70
     1
102
RTVSPropertyOp20
 70
     1
102
RTVSPropertyOp21
 70
     1
102
RTVSPropertyOp22
 70
     1
102
RTVSPropertyOp23
 70
     1
102
RTVSPropertyOp24
 70
     1
102
RTVSPropertyOp25
 70
     1
102
RTVSPropertyOp26
 70
     1
102
RTVSPropertyOp27
 70
     1
102
RTVSPropertyOp28
 70
     1
102
RTVSPropertyOp29
 70
     1
102
RTVSPropertyOp30
 70
     1
102
RTVSPropertyOp31
 70
     1
102
RTVSPropertyOp32
 70
     1
102
RTVSPropertyOp33
 70
     1
102
RTVSPropertyOp34
 70
     1
102
RTVSPropertyOp35
 70
     1
102
RTVSPropertyOp36
 70
     1
102
RTVSPropertyOp37
 70
     1
102
RTVSPropertyOp38
 70
     1
102
RTVSPropertyOp39
 70
     1
102
RTVSPropertyOp40
 70
     1
102
RTVSPropertyOp41
 70
     1
102
RTVSPropertyOp42
 70
     1
102
RTVSPropertyOp43
 70
     1
102
RTVSPropertyOp44
 70
     1
102
RTVSPropertyOp45
 70
     1
102
RTVSPropertyOp46
 70
     1
102
RTVSPropertyOp47
 70
     1
102
RTVSPropertyOp48
 70
     1
102
RTVSPropertyOp49
 70
     1
102
RTVSPropertyOp50
 70
     1
102
RTVSPropertyOp51
 70
     0
102
RTVSPropertyOp52
 70
     0
102
RTVSPropertyOp53
 70
     1
102
RTVSPropertyOp54
 70
     1
102
RTVSPropertyOp55
 70
     1
102
RTVSPropertyOp56
 70
     1
102
RTVSPropertyOp57
 70
     1
102
RTVSPropertyOp58
 70
     1
102
RTVSPropertyOp59
 70
     1
102
RTVSPropertyOp60
 70
     1
102
RTVSPropertyOp61
 70
     1
102
RTVSPropertyOp62
 70
     1
  0
XRECORD
  5
C1A2
102
{ACAD_REACTORS
330
C1A1
102
}
330
C1A1
100
AcDbXrecord
280
     1
102
RTVSPost2010Prop28
280
     0
102
RTVSPost2010PropOp28
 70
     1
102
RTVSPost2010Prop29
280
     1
102
RTVSPost2010PropOp29
 70
     1
102
RTVSPost2010Prop30
280
     1
102
RTVSPost2010PropOp30
 70
     1
102
RTVSPost2010Prop31
280
     0
102
RTVSPost2010PropOp31
 70
     1
102
RTVSPost2010Prop32
280
     0
102
RTVSPost2010PropOp32
 70
     1
102
RTVSPost2010Prop33
280
     0
102
RTVSPost2010PropOp33
 70
     1
102
RTVSPost2010Prop34
280
     0
102
RTVSPost2010PropOp34
 70
     1
102
RTVSPost2010Prop35
280
     0
102
RTVSPost2010PropOp35
 70
     1
102
RTVSPost2010Prop36
280
     0
102
RTVSPost2010PropOp36
 70
     1
102
RTVSPost2010Prop37
 90
       50
102
RTVSPost2010PropOp37
 70
     0
102
RTVSPost2010Prop38
140
0.0
102
RTVSPost2010PropOp38
 70
     0
102
RTVSPost2010Prop39
140
1.0
102
RTVSPost2010PropOp39
 70
     0
102
RTVSPost2010Prop40
 90
        0
102
RTVSPost2010PropOp40
 70
     0
102
RTVSPost2010Prop41ColorIndex
 90
       18
102
RTVSPost2010Prop41ColorRGB
 90
        0
102
RTVSPost2010PropOp41
 70
     0
102
RTVSPost2010Prop42
 90
       50
102
RTVSPost2010PropOp42
 70
     0
102
RTVSPost2010Prop43
 90
        3
102
RTVSPost2010PropOp43
 70
     0
102
RTVSPost2010Prop44ColorIndex
 90
        5
102
RTVSPost2010Prop44ColorRGB
 90
      255
102
RTVSPost2010PropOp44
 70
     0
102
RTVSPost2010Prop45
280
     0
102
RTVSPost2010PropOp45
 70
     1
102
RTVSPost2010Prop46
 90
       50
102
RTVSPost2010PropOp46
 70
     0
102
RTVSPost2010Prop47
 90
       50
102
RTVSPost2010PropOp47
 70
     0
102
RTVSPost2010Prop48
 90
       50
102
RTVSPost2010PropOp48
 70
     0
102
RTVSPost2010Prop49
280
     0
102
RTVSPost2010PropOp49
 70
     1
102
RTVSPost2010Prop50
 90
       50
102
RTVSPost2010PropOp50
 70
     0
102
RTVSPost2010Prop51ColorIndex
 90
      256
102
RTVSPost2010Prop51ColorRGB
 90
-16777216
102
RTVSPost2010PropOp51
 70
     0
102
RTVSPost2010Prop52
140
1.0
102
RTVSPost2010PropOp52
 70
     0
102
RTVSPost2010Prop53
 90
        2
102
RTVSPost2010PropOp53
 70
     0
102
RTVSPost2010Prop54
  1
strokes_ogs.tif
102
RTVSPost2010PropOp54
 70
     0
102
RTVSPost2010Prop55
280
     0
102
RTVSPost2010PropOp55
 70
     1
102
RTVSPost2010Prop56
140
1.0
102
RTVSPost2010PropOp56
 70
     0
102
RTVSPost2010Prop57
140
1.0
102
RTVSPost2010PropOp57
 70
     0
102
RTVSPropertyOp0
 70
     0
102
RTVSPropertyOp1
 70
     0
102
RTVSPropertyOp2
 70
     0
102
RTVSPropertyOp3
 70
     0
102
RTVSPropertyOp4
 70
     0
102
RTVSPropertyOp5
 70
     0
102
RTVSPropertyOp6
 70
     0
102
RTVSPropertyOp7
 70
     0
102
RTVSPropertyOp8
 70
     0
102
RTVSPropertyOp9
 70
     0
102
RTVSPropertyOp10
 70
     0
102
RTVSPropertyOp11
 70
     0
102
RTVSPropertyOp12
 70
     0
102
RTVSPropertyOp13
 70
     0
102
RTVSPropertyOp14
 70
     2
102
RTVSPropertyOp15
 70
     0
102
RTVSPropertyOp16
 70
     0
102
RTVSPropertyOp17
 70
     0
102
RTVSPropertyOp18
 70
     0
102
RTVSPropertyOp19
 70
     0
102
RTVSPropertyOp20
 70
     0
102
RTVSPropertyOp21
 70
     0
102
RTVSPropertyOp22
 70
     0
102
RTVSPropertyOp23
 70
     0
102
RTVSPropertyOp24
 70
     0
102
RTVSPropertyOp25
 70
     0
102
RTVSPropertyOp26
 70
     0
102
RTVSPropertyOp27
 70
     0
102
RTVSPropertyOp28
 70
     1
102
RTVSPropertyOp29
 70
     1
102
RTVSPropertyOp30
 70
     1
102
RTVSPropertyOp31
 70
     1
102
RTVSPropertyOp32
 70
     1
102
RTVSPropertyOp33
 70
     1
102
RTVSPropertyOp34
 70
     1
102
RTVSPropertyOp35
 70
     1
102
RTVSPropertyOp36
 70
     1
102
RTVSPropertyOp37
 70
     0
102
RTVSPropertyOp38
 70
     0
102
RTVSPropertyOp39
 70
     0
102
RTVSPropertyOp40
 70
     0
102
RTVSPropertyOp41
 70
     0
102
RTVSPropertyOp42
 70
     0
102
RTVSPropertyOp43
 70
     0
102
RTVSPropertyOp44
 70
     0
102
RTVSPropertyOp45
 70
     1
102
RTVSPropertyOp46
 70
     0
102
RTVSPropertyOp47
 70
     0
102
RTVSPropertyOp48
 70
     0
102
RTVSPropertyOp49
 70
     1
102
RTVSPropertyOp50
 70
     0
102
RTVSPropertyOp51
 70
     0
102
RTVSPropertyOp52
 70
     0
102
RTVSPropertyOp53
 70
     0
102
RTVSPropertyOp54
 70
     0
102
RTVSPropertyOp55
 70
     1
102
RTVSPropertyOp56
 70
     0
102
RTVSPropertyOp57
 70
     0
102
RTVSPropertyOp58
 70
     0
102
RTVSPropertyOp59
 70
     0
102
RTVSPropertyOp60
 70
     0
102
RTVSPropertyOp61
 70
     0
102
RTVSPropertyOp62
 70
     0
  0
XRECORD
  5
C188
102
{ACAD_REACTORS
330
C187
102
}
330
C187
100
AcDbXrecord
280
     1
102
RTVSPost2010Prop28
280
     0
102
RTVSPost2010PropOp28
 70
     1
102
RTVSPost2010Prop29
280
     1
102
RTVSPost2010PropOp29
 70
     1
102
RTVSPost2010Prop30
280
     1
102
RTVSPost2010PropOp30
 70
     1
102
RTVSPost2010Prop31
280
     0
102
RTVSPost2010PropOp31
 70
     1
102
RTVSPost2010Prop32
280
     0
102
RTVSPost2010PropOp32
 70
     1
102
RTVSPost2010Prop33
280
     0
102
RTVSPost2010PropOp33
 70
     1
102
RTVSPost2010Prop34
280
     0
102
RTVSPost2010PropOp34
 70
     1
102
RTVSPost2010Prop35
280
     0
102
RTVSPost2010PropOp35
 70
     1
102
RTVSPost2010Prop36
280
     0
102
RTVSPost2010PropOp36
 70
     1
102
RTVSPost2010Prop37
 90
       50
102
RTVSPost2010PropOp37
 70
     1
102
RTVSPost2010Prop38
140
0.0
102
RTVSPost2010PropOp38
 70
     1
102
RTVSPost2010Prop39
140
1.0
102
RTVSPost2010PropOp39
 70
     1
102
RTVSPost2010Prop40
 90
        0
102
RTVSPost2010PropOp40
 70
     1
102
RTVSPost2010Prop41ColorIndex
 90
       18
102
RTVSPost2010Prop41ColorRGB
 90
        0
102
RTVSPost2010PropOp41
 70
     1
102
RTVSPost2010Prop42
 90
       50
102
RTVSPost2010PropOp42
 70
     1
102
RTVSPost2010Prop43
 90
        3
102
RTVSPost2010PropOp43
 70
     1
102
RTVSPost2010Prop44ColorIndex
 90
        5
102
RTVSPost2010Prop44ColorRGB
 90
      255
102
RTVSPost2010PropOp44
 70
     1
102
RTVSPost2010Prop45
280
     0
102
RTVSPost2010PropOp45
 70
     1
102
RTVSPost2010Prop46
 90
       50
102
RTVSPost2010PropOp46
 70
     1
102
RTVSPost2010Prop47
 90
       50
102
RTVSPost2010PropOp47
 70
     1
102
RTVSPost2010Prop48
 90
       50
102
RTVSPost2010PropOp48
 70
     1
102
RTVSPost2010Prop49
280
     0
102
RTVSPost2010PropOp49
 70
     1
102
RTVSPost2010Prop50
 90
       50
102
RTVSPost2010PropOp50
 70
     1
102
RTVSPost2010Prop51ColorIndex
 90
      256
102
RTVSPost2010Prop51ColorRGB
 90
-16777216
102
RTVSPost2010PropOp51
 70
     0
102
RTVSPost2010Prop52
140
1.0
102
RTVSPost2010PropOp52
 70
     0
102
RTVSPost2010Prop53
 90
        2
102
RTVSPost2010PropOp53
 70
     1
102
RTVSPost2010Prop54
  1
strokes_ogs.tif
102
RTVSPost2010PropOp54
 70
     1
102
RTVSPost2010Prop55
280
     0
102
RTVSPost2010PropOp55
 70
     1
102
RTVSPost2010Prop56
140
1.0
102
RTVSPost2010PropOp56
 70
     1
102
RTVSPost2010Prop57
140
1.0
102
RTVSPost2010PropOp57
 70
     1
102
RTVSPropertyOp0
 70
     1
102
RTVSPropertyOp1
 70
     1
102
RTVSPropertyOp2
 70
     1
102
RTVSPropertyOp3
 70
     1
102
RTVSPropertyOp4
 70
     1
102
RTVSPropertyOp5
 70
     1
102
RTVSPropertyOp6
 70
     1
102
RTVSPropertyOp7
 70
     1
102
RTVSPropertyOp8
 70
     1
102
RTVSPropertyOp9
 70
     1
102
RTVSPropertyOp10
 70
     1
102
RTVSPropertyOp11
 70
     1
102
RTVSPropertyOp12
 70
     1
102
RTVSPropertyOp13
 70
     1
102
RTVSPropertyOp14
 70
     1
102
RTVSPropertyOp15
 70
     1
102
RTVSPropertyOp16
 70
     1
102
RTVSPropertyOp17
 70
     1
102
RTVSPropertyOp18
 70
     1
102
RTVSPropertyOp19
 70
     1
102
RTVSPropertyOp20
 70
     1
102
RTVSPropertyOp21
 70
     1
102
RTVSPropertyOp22
 70
     1
102
RTVSPropertyOp23
 70
     1
102
RTVSPropertyOp24
 70
     1
102
RTVSPropertyOp25
 70
     1
102
RTVSPropertyOp26
 70
     1
102
RTVSPropertyOp27
 70
     1
102
RTVSPropertyOp28
 70
     1
102
RTVSPropertyOp29
 70
     1
102
RTVSPropertyOp30
 70
     1
102
RTVSPropertyOp31
 70
     1
102
RTVSPropertyOp32
 70
     1
102
RTVSPropertyOp33
 70
     1
102
RTVSPropertyOp34
 70
     1
102
RTVSPropertyOp35
 70
     1
102
RTVSPropertyOp36
 70
     1
102
RTVSPropertyOp37
 70
     1
102
RTVSPropertyOp38
 70
     1
102
RTVSPropertyOp39
 70
     1
102
RTVSPropertyOp40
 70
     1
102
RTVSPropertyOp41
 70
     1
102
RTVSPropertyOp42
 70
     1
102
RTVSPropertyOp43
 70
     1
102
RTVSPropertyOp44
 70
     1
102
RTVSPropertyOp45
 70
     1
102
RTVSPropertyOp46
 70
     1
102
RTVSPropertyOp47
 70
     1
102
RTVSPropertyOp48
 70
     1
102
RTVSPropertyOp49
 70
     1
102
RTVSPropertyOp50
 70
     1
102
RTVSPropertyOp51
 70
     0
102
RTVSPropertyOp52
 70
     0
102
RTVSPropertyOp53
 70
     1
102
RTVSPropertyOp54
 70
     1
102
RTVSPropertyOp55
 70
     1
102
RTVSPropertyOp56
 70
     1
102
RTVSPropertyOp57
 70
     1
102
RTVSPropertyOp58
 70
     1
102
RTVSPropertyOp59
 70
     1
102
RTVSPropertyOp60
 70
     1
102
RTVSPropertyOp61
 70
     1
102
RTVSPropertyOp62
 70
     1
  0
XRECORD
  5
C19E
102
{ACAD_REACTORS
330
C19D
102
}
330
C19D
100
AcDbXrecord
280
     1
102
RTVSPost2010Prop28
280
     0
102
RTVSPost2010PropOp28
 70
     1
102
RTVSPost2010Prop29
280
     1
102
RTVSPost2010PropOp29
 70
     1
102
RTVSPost2010Prop30
280
     1
102
RTVSPost2010PropOp30
 70
     1
102
RTVSPost2010Prop31
280
     0
102
RTVSPost2010PropOp31
 70
     1
102
RTVSPost2010Prop32
280
     0
102
RTVSPost2010PropOp32
 70
     1
102
RTVSPost2010Prop33
280
     0
102
RTVSPost2010PropOp33
 70
     1
102
RTVSPost2010Prop34
280
     0
102
RTVSPost2010PropOp34
 70
     1
102
RTVSPost2010Prop35
280
     0
102
RTVSPost2010PropOp35
 70
     1
102
RTVSPost2010Prop36
280
     0
102
RTVSPost2010PropOp36
 70
     1
102
RTVSPost2010Prop37
 90
       50
102
RTVSPost2010PropOp37
 70
     1
102
RTVSPost2010Prop38
140
0.0
102
RTVSPost2010PropOp38
 70
     1
102
RTVSPost2010Prop39
140
1.0
102
RTVSPost2010PropOp39
 70
     1
102
RTVSPost2010Prop40
 90
        0
102
RTVSPost2010PropOp40
 70
     1
102
RTVSPost2010Prop41ColorIndex
 90
       18
102
RTVSPost2010Prop41ColorRGB
 90
        0
102
RTVSPost2010PropOp41
 70
     1
102
RTVSPost2010Prop42
 90
       50
102
RTVSPost2010PropOp42
 70
     1
102
RTVSPost2010Prop43
 90
        3
102
RTVSPost2010PropOp43
 70
     1
102
RTVSPost2010Prop44ColorIndex
 90
        5
102
RTVSPost2010Prop44ColorRGB
 90
      255
102
RTVSPost2010PropOp44
 70
     1
102
RTVSPost2010Prop45
280
     0
102
RTVSPost2010PropOp45
 70
     1
102
RTVSPost2010Prop46
 90
       50
102
RTVSPost2010PropOp46
 70
     1
102
RTVSPost2010Prop47
 90
       50
102
RTVSPost2010PropOp47
 70
     1
102
RTVSPost2010Prop48
 90
       50
102
RTVSPost2010PropOp48
 70
     1
102
RTVSPost2010Prop49
280
     0
102
RTVSPost2010PropOp49
 70
     1
102
RTVSPost2010Prop50
 90
       50
102
RTVSPost2010PropOp50
 70
     1
102
RTVSPost2010Prop51ColorIndex
 90
      256
102
RTVSPost2010Prop51ColorRGB
 90
-16777216
102
RTVSPost2010PropOp51
 70
     0
102
RTVSPost2010Prop52
140
1.0
102
RTVSPost2010PropOp52
 70
     0
102
RTVSPost2010Prop53
 90
        2
102
RTVSPost2010PropOp53
 70
     1
102
RTVSPost2010Prop54
  1
strokes_ogs.tif
102
RTVSPost2010PropOp54
 70
     1
102
RTVSPost2010Prop55
280
     0
102
RTVSPost2010PropOp55
 70
     1
102
RTVSPost2010Prop56
140
1.0
102
RTVSPost2010PropOp56
 70
     1
102
RTVSPost2010Prop57
140
1.0
102
RTVSPost2010PropOp57
 70
     1
102
RTVSPropertyOp0
 70
     1
102
RTVSPropertyOp1
 70
     1
102
RTVSPropertyOp2
 70
     1
102
RTVSPropertyOp3
 70
     1
102
RTVSPropertyOp4
 70
     1
102
RTVSPropertyOp5
 70
     1
102
RTVSPropertyOp6
 70
     1
102
RTVSPropertyOp7
 70
     1
102
RTVSPropertyOp8
 70
     1
102
RTVSPropertyOp9
 70
     1
102
RTVSPropertyOp10
 70
     1
102
RTVSPropertyOp11
 70
     1
102
RTVSPropertyOp12
 70
     1
102
RTVSPropertyOp13
 70
     1
102
RTVSPropertyOp14
 70
     1
102
RTVSPropertyOp15
 70
     1
102
RTVSPropertyOp16
 70
     1
102
RTVSPropertyOp17
 70
     1
102
RTVSPropertyOp18
 70
     1
102
RTVSPropertyOp19
 70
     1
102
RTVSPropertyOp20
 70
     1
102
RTVSPropertyOp21
 70
     1
102
RTVSPropertyOp22
 70
     1
102
RTVSPropertyOp23
 70
     1
102
RTVSPropertyOp24
 70
     1
102
RTVSPropertyOp25
 70
     1
102
RTVSPropertyOp26
 70
     1
102
RTVSPropertyOp27
 70
     1
102
RTVSPropertyOp28
 70
     1
102
RTVSPropertyOp29
 70
     1
102
RTVSPropertyOp30
 70
     1
102
RTVSPropertyOp31
 70
     1
102
RTVSPropertyOp32
 70
     1
102
RTVSPropertyOp33
 70
     1
102
RTVSPropertyOp34
 70
     1
102
RTVSPropertyOp35
 70
     1
102
RTVSPropertyOp36
 70
     1
102
RTVSPropertyOp37
 70
     1
102
RTVSPropertyOp38
 70
     1
102
RTVSPropertyOp39
 70
     1
102
RTVSPropertyOp40
 70
     1
102
RTVSPropertyOp41
 70
     1
102
RTVSPropertyOp42
 70
     1
102
RTVSPropertyOp43
 70
     1
102
RTVSPropertyOp44
 70
     1
102
RTVSPropertyOp45
 70
     1
102
RTVSPropertyOp46
 70
     1
102
RTVSPropertyOp47
 70
     1
102
RTVSPropertyOp48
 70
     1
102
RTVSPropertyOp49
 70
     1
102
RTVSPropertyOp50
 70
     1
102
RTVSPropertyOp51
 70
     0
102
RTVSPropertyOp52
 70
     0
102
RTVSPropertyOp53
 70
     1
102
RTVSPropertyOp54
 70
     1
102
RTVSPropertyOp55
 70
     1
102
RTVSPropertyOp56
 70
     1
102
RTVSPropertyOp57
 70
     1
102
RTVSPropertyOp58
 70
     1
102
RTVSPropertyOp59
 70
     1
102
RTVSPropertyOp60
 70
     1
102
RTVSPropertyOp61
 70
     1
102
RTVSPropertyOp62
 70
     1
  0
XRECORD
  5
C19C
102
{ACAD_REACTORS
330
C19B
102
}
330
C19B
100
AcDbXrecord
280
     1
102
RTVSPost2010Prop28
280
     0
102
RTVSPost2010PropOp28
 70
     1
102
RTVSPost2010Prop29
280
     1
102
RTVSPost2010PropOp29
 70
     1
102
RTVSPost2010Prop30
280
     1
102
RTVSPost2010PropOp30
 70
     1
102
RTVSPost2010Prop31
280
     0
102
RTVSPost2010PropOp31
 70
     1
102
RTVSPost2010Prop32
280
     0
102
RTVSPost2010PropOp32
 70
     1
102
RTVSPost2010Prop33
280
     0
102
RTVSPost2010PropOp33
 70
     1
102
RTVSPost2010Prop34
280
     0
102
RTVSPost2010PropOp34
 70
     1
102
RTVSPost2010Prop35
280
     0
102
RTVSPost2010PropOp35
 70
     1
102
RTVSPost2010Prop36
280
     0
102
RTVSPost2010PropOp36
 70
     1
102
RTVSPost2010Prop37
 90
       50
102
RTVSPost2010PropOp37
 70
     1
102
RTVSPost2010Prop38
140
0.0
102
RTVSPost2010PropOp38
 70
     1
102
RTVSPost2010Prop39
140
1.0
102
RTVSPost2010PropOp39
 70
     1
102
RTVSPost2010Prop40
 90
        0
102
RTVSPost2010PropOp40
 70
     1
102
RTVSPost2010Prop41ColorIndex
 90
       18
102
RTVSPost2010Prop41ColorRGB
 90
        0
102
RTVSPost2010PropOp41
 70
     1
102
RTVSPost2010Prop42
 90
       50
102
RTVSPost2010PropOp42
 70
     1
102
RTVSPost2010Prop43
 90
        3
102
RTVSPost2010PropOp43
 70
     1
102
RTVSPost2010Prop44ColorIndex
 90
        5
102
RTVSPost2010Prop44ColorRGB
 90
      255
102
RTVSPost2010PropOp44
 70
     1
102
RTVSPost2010Prop45
280
     0
102
RTVSPost2010PropOp45
 70
     1
102
RTVSPost2010Prop46
 90
       50
102
RTVSPost2010PropOp46
 70
     1
102
RTVSPost2010Prop47
 90
       50
102
RTVSPost2010PropOp47
 70
     1
102
RTVSPost2010Prop48
 90
       50
102
RTVSPost2010PropOp48
 70
     1
102
RTVSPost2010Prop49
280
     0
102
RTVSPost2010PropOp49
 70
     1
102
RTVSPost2010Prop50
 90
       50
102
RTVSPost2010PropOp50
 70
     1
102
RTVSPost2010Prop51ColorIndex
 90
      256
102
RTVSPost2010Prop51ColorRGB
 90
-16777216
102
RTVSPost2010PropOp51
 70
     0
102
RTVSPost2010Prop52
140
1.0
102
RTVSPost2010PropOp52
 70
     0
102
RTVSPost2010Prop53
 90
        2
102
RTVSPost2010PropOp53
 70
     1
102
RTVSPost2010Prop54
  1
strokes_ogs.tif
102
RTVSPost2010PropOp54
 70
     1
102
RTVSPost2010Prop55
280
     0
102
RTVSPost2010PropOp55
 70
     1
102
RTVSPost2010Prop56
140
1.0
102
RTVSPost2010PropOp56
 70
     1
102
RTVSPost2010Prop57
140
1.0
102
RTVSPost2010PropOp57
 70
     1
102
RTVSPropertyOp0
 70
     1
102
RTVSPropertyOp1
 70
     1
102
RTVSPropertyOp2
 70
     1
102
RTVSPropertyOp3
 70
     1
102
RTVSPropertyOp4
 70
     1
102
RTVSPropertyOp5
 70
     1
102
RTVSPropertyOp6
 70
     1
102
RTVSPropertyOp7
 70
     1
102
RTVSPropertyOp8
 70
     1
102
RTVSPropertyOp9
 70
     1
102
RTVSPropertyOp10
 70
     1
102
RTVSPropertyOp11
 70
     1
102
RTVSPropertyOp12
 70
     1
102
RTVSPropertyOp13
 70
     1
102
RTVSPropertyOp14
 70
     1
102
RTVSPropertyOp15
 70
     1
102
RTVSPropertyOp16
 70
     1
102
RTVSPropertyOp17
 70
     1
102
RTVSPropertyOp18
 70
     1
102
RTVSPropertyOp19
 70
     1
102
RTVSPropertyOp20
 70
     1
102
RTVSPropertyOp21
 70
     1
102
RTVSPropertyOp22
 70
     1
102
RTVSPropertyOp23
 70
     1
102
RTVSPropertyOp24
 70
     1
102
RTVSPropertyOp25
 70
     1
102
RTVSPropertyOp26
 70
     1
102
RTVSPropertyOp27
 70
     1
102
RTVSPropertyOp28
 70
     1
102
RTVSPropertyOp29
 70
     1
102
RTVSPropertyOp30
 70
     1
102
RTVSPropertyOp31
 70
     1
102
RTVSPropertyOp32
 70
     1
102
RTVSPropertyOp33
 70
     1
102
RTVSPropertyOp34
 70
     1
102
RTVSPropertyOp35
 70
     1
102
RTVSPropertyOp36
 70
     1
102
RTVSPropertyOp37
 70
     1
102
RTVSPropertyOp38
 70
     1
102
RTVSPropertyOp39
 70
     1
102
RTVSPropertyOp40
 70
     1
102
RTVSPropertyOp41
 70
     1
102
RTVSPropertyOp42
 70
     1
102
RTVSPropertyOp43
 70
     1
102
RTVSPropertyOp44
 70
     1
102
RTVSPropertyOp45
 70
     1
102
RTVSPropertyOp46
 70
     1
102
RTVSPropertyOp47
 70
     1
102
RTVSPropertyOp48
 70
     1
102
RTVSPropertyOp49
 70
     1
102
RTVSPropertyOp50
 70
     1
102
RTVSPropertyOp51
 70
     0
102
RTVSPropertyOp52
 70
     0
102
RTVSPropertyOp53
 70
     1
102
RTVSPropertyOp54
 70
     1
102
RTVSPropertyOp55
 70
     1
102
RTVSPropertyOp56
 70
     1
102
RTVSPropertyOp57
 70
     1
102
RTVSPropertyOp58
 70
     1
102
RTVSPropertyOp59
 70
     1
102
RTVSPropertyOp60
 70
     1
102
RTVSPropertyOp61
 70
     1
102
RTVSPropertyOp62
 70
     1
  0
XRECORD
  5
C196
102
{ACAD_REACTORS
330
C195
102
}
330
C195
100
AcDbXrecord
280
     1
102
RTVSPost2010Prop28
280
     0
102
RTVSPost2010PropOp28
 70
     1
102
RTVSPost2010Prop29
280
     1
102
RTVSPost2010PropOp29
 70
     1
102
RTVSPost2010Prop30
280
     1
102
RTVSPost2010PropOp30
 70
     1
102
RTVSPost2010Prop31
280
     0
102
RTVSPost2010PropOp31
 70
     1
102
RTVSPost2010Prop32
280
     0
102
RTVSPost2010PropOp32
 70
     1
102
RTVSPost2010Prop33
280
     0
102
RTVSPost2010PropOp33
 70
     1
102
RTVSPost2010Prop34
280
     0
102
RTVSPost2010PropOp34
 70
     1
102
RTVSPost2010Prop35
280
     0
102
RTVSPost2010PropOp35
 70
     1
102
RTVSPost2010Prop36
280
     0
102
RTVSPost2010PropOp36
 70
     1
102
RTVSPost2010Prop37
 90
       50
102
RTVSPost2010PropOp37
 70
     1
102
RTVSPost2010Prop38
140
0.0
102
RTVSPost2010PropOp38
 70
     1
102
RTVSPost2010Prop39
140
1.0
102
RTVSPost2010PropOp39
 70
     1
102
RTVSPost2010Prop40
 90
        0
102
RTVSPost2010PropOp40
 70
     1
102
RTVSPost2010Prop41ColorIndex
 90
       18
102
RTVSPost2010Prop41ColorRGB
 90
        0
102
RTVSPost2010PropOp41
 70
     1
102
RTVSPost2010Prop42
 90
       50
102
RTVSPost2010PropOp42
 70
     1
102
RTVSPost2010Prop43
 90
        3
102
RTVSPost2010PropOp43
 70
     1
102
RTVSPost2010Prop44ColorIndex
 90
        5
102
RTVSPost2010Prop44ColorRGB
 90
      255
102
RTVSPost2010PropOp44
 70
     1
102
RTVSPost2010Prop45
280
     0
102
RTVSPost2010PropOp45
 70
     1
102
RTVSPost2010Prop46
 90
       50
102
RTVSPost2010PropOp46
 70
     1
102
RTVSPost2010Prop47
 90
       50
102
RTVSPost2010PropOp47
 70
     1
102
RTVSPost2010Prop48
 90
       50
102
RTVSPost2010PropOp48
 70
     1
102
RTVSPost2010Prop49
280
     0
102
RTVSPost2010PropOp49
 70
     1
102
RTVSPost2010Prop50
 90
       50
102
RTVSPost2010PropOp50
 70
     1
102
RTVSPost2010Prop51ColorIndex
 90
      256
102
RTVSPost2010Prop51ColorRGB
 90
-16777216
102
RTVSPost2010PropOp51
 70
     0
102
RTVSPost2010Prop52
140
1.0
102
RTVSPost2010PropOp52
 70
     0
102
RTVSPost2010Prop53
 90
        2
102
RTVSPost2010PropOp53
 70
     1
102
RTVSPost2010Prop54
  1
strokes_ogs.tif
102
RTVSPost2010PropOp54
 70
     1
102
RTVSPost2010Prop55
280
     0
102
RTVSPost2010PropOp55
 70
     1
102
RTVSPost2010Prop56
140
1.0
102
RTVSPost2010PropOp56
 70
     1
102
RTVSPost2010Prop57
140
1.0
102
RTVSPost2010PropOp57
 70
     1
102
RTVSPropertyOp0
 70
     1
102
RTVSPropertyOp1
 70
     1
102
RTVSPropertyOp2
 70
     1
102
RTVSPropertyOp3
 70
     1
102
RTVSPropertyOp4
 70
     1
102
RTVSPropertyOp5
 70
     1
102
RTVSPropertyOp6
 70
     1
102
RTVSPropertyOp7
 70
     1
102
RTVSPropertyOp8
 70
     1
102
RTVSPropertyOp9
 70
     1
102
RTVSPropertyOp10
 70
     1
102
RTVSPropertyOp11
 70
     1
102
RTVSPropertyOp12
 70
     1
102
RTVSPropertyOp13
 70
     1
102
RTVSPropertyOp14
 70
     1
102
RTVSPropertyOp15
 70
     1
102
RTVSPropertyOp16
 70
     1
102
RTVSPropertyOp17
 70
     1
102
RTVSPropertyOp18
 70
     1
102
RTVSPropertyOp19
 70
     1
102
RTVSPropertyOp20
 70
     1
102
RTVSPropertyOp21
 70
     1
102
RTVSPropertyOp22
 70
     1
102
RTVSPropertyOp23
 70
     1
102
RTVSPropertyOp24
 70
     1
102
RTVSPropertyOp25
 70
     1
102
RTVSPropertyOp26
 70
     1
102
RTVSPropertyOp27
 70
     1
102
RTVSPropertyOp28
 70
     1
102
RTVSPropertyOp29
 70
     1
102
RTVSPropertyOp30
 70
     1
102
RTVSPropertyOp31
 70
     1
102
RTVSPropertyOp32
 70
     1
102
RTVSPropertyOp33
 70
     1
102
RTVSPropertyOp34
 70
     1
102
RTVSPropertyOp35
 70
     1
102
RTVSPropertyOp36
 70
     1
102
RTVSPropertyOp37
 70
     1
102
RTVSPropertyOp38
 70
     1
102
RTVSPropertyOp39
 70
     1
102
RTVSPropertyOp40
 70
     1
102
RTVSPropertyOp41
 70
     1
102
RTVSPropertyOp42
 70
     1
102
RTVSPropertyOp43
 70
     1
102
RTVSPropertyOp44
 70
     1
102
RTVSPropertyOp45
 70
     1
102
RTVSPropertyOp46
 70
     1
102
RTVSPropertyOp47
 70
     1
102
RTVSPropertyOp48
 70
     1
102
RTVSPropertyOp49
 70
     1
102
RTVSPropertyOp50
 70
     1
102
RTVSPropertyOp51
 70
     0
102
RTVSPropertyOp52
 70
     0
102
RTVSPropertyOp53
 70
     1
102
RTVSPropertyOp54
 70
     1
102
RTVSPropertyOp55
 70
     1
102
RTVSPropertyOp56
 70
     1
102
RTVSPropertyOp57
 70
     1
102
RTVSPropertyOp58
 70
     1
102
RTVSPropertyOp59
 70
     1
102
RTVSPropertyOp60
 70
     1
102
RTVSPropertyOp61
 70
     1
102
RTVSPropertyOp62
 70
     1
  0
XRECORD
  5
C198
102
{ACAD_REACTORS
330
C197
102
}
330
C197
100
AcDbXrecord
280
     1
102
RTVSPost2010Prop28
280
     0
102
RTVSPost2010PropOp28
 70
     1
102
RTVSPost2010Prop29
280
     1
102
RTVSPost2010PropOp29
 70
     1
102
RTVSPost2010Prop30
280
     1
102
RTVSPost2010PropOp30
 70
     1
102
RTVSPost2010Prop31
280
     0
102
RTVSPost2010PropOp31
 70
     1
102
RTVSPost2010Prop32
280
     0
102
RTVSPost2010PropOp32
 70
     1
102
RTVSPost2010Prop33
280
     0
102
RTVSPost2010PropOp33
 70
     1
102
RTVSPost2010Prop34
280
     0
102
RTVSPost2010PropOp34
 70
     1
102
RTVSPost2010Prop35
280
     0
102
RTVSPost2010PropOp35
 70
     1
102
RTVSPost2010Prop36
280
     0
102
RTVSPost2010PropOp36
 70
     1
102
RTVSPost2010Prop37
 90
       50
102
RTVSPost2010PropOp37
 70
     1
102
RTVSPost2010Prop38
140
0.0
102
RTVSPost2010PropOp38
 70
     1
102
RTVSPost2010Prop39
140
1.0
102
RTVSPost2010PropOp39
 70
     1
102
RTVSPost2010Prop40
 90
        0
102
RTVSPost2010PropOp40
 70
     1
102
RTVSPost2010Prop41ColorIndex
 90
       18
102
RTVSPost2010Prop41ColorRGB
 90
        0
102
RTVSPost2010PropOp41
 70
     1
102
RTVSPost2010Prop42
 90
       50
102
RTVSPost2010PropOp42
 70
     1
102
RTVSPost2010Prop43
 90
        3
102
RTVSPost2010PropOp43
 70
     1
102
RTVSPost2010Prop44ColorIndex
 90
        5
102
RTVSPost2010Prop44ColorRGB
 90
      255
102
RTVSPost2010PropOp44
 70
     1
102
RTVSPost2010Prop45
280
     0
102
RTVSPost2010PropOp45
 70
     1
102
RTVSPost2010Prop46
 90
       50
102
RTVSPost2010PropOp46
 70
     1
102
RTVSPost2010Prop47
 90
       50
102
RTVSPost2010PropOp47
 70
     1
102
RTVSPost2010Prop48
 90
       50
102
RTVSPost2010PropOp48
 70
     1
102
RTVSPost2010Prop49
280
     0
102
RTVSPost2010PropOp49
 70
     1
102
RTVSPost2010Prop50
 90
       50
102
RTVSPost2010PropOp50
 70
     1
102
RTVSPost2010Prop51ColorIndex
 90
      256
102
RTVSPost2010Prop51ColorRGB
 90
-16777216
102
RTVSPost2010PropOp51
 70
     0
102
RTVSPost2010Prop52
140
1.0
102
RTVSPost2010PropOp52
 70
     0
102
RTVSPost2010Prop53
 90
        2
102
RTVSPost2010PropOp53
 70
     1
102
RTVSPost2010Prop54
  1
strokes_ogs.tif
102
RTVSPost2010PropOp54
 70
     1
102
RTVSPost2010Prop55
280
     0
102
RTVSPost2010PropOp55
 70
     1
102
RTVSPost2010Prop56
140
1.0
102
RTVSPost2010PropOp56
 70
     1
102
RTVSPost2010Prop57
140
1.0
102
RTVSPost2010PropOp57
 70
     1
102
RTVSPropertyOp0
 70
     1
102
RTVSPropertyOp1
 70
     1
102
RTVSPropertyOp2
 70
     1
102
RTVSPropertyOp3
 70
     1
102
RTVSPropertyOp4
 70
     1
102
RTVSPropertyOp5
 70
     1
102
RTVSPropertyOp6
 70
     1
102
RTVSPropertyOp7
 70
     1
102
RTVSPropertyOp8
 70
     1
102
RTVSPropertyOp9
 70
     1
102
RTVSPropertyOp10
 70
     1
102
RTVSPropertyOp11
 70
     1
102
RTVSPropertyOp12
 70
     1
102
RTVSPropertyOp13
 70
     1
102
RTVSPropertyOp14
 70
     1
102
RTVSPropertyOp15
 70
     1
102
RTVSPropertyOp16
 70
     1
102
RTVSPropertyOp17
 70
     1
102
RTVSPropertyOp18
 70
     1
102
RTVSPropertyOp19
 70
     1
102
RTVSPropertyOp20
 70
     1
102
RTVSPropertyOp21
 70
     1
102
RTVSPropertyOp22
 70
     1
102
RTVSPropertyOp23
 70
     1
102
RTVSPropertyOp24
 70
     1
102
RTVSPropertyOp25
 70
     1
102
RTVSPropertyOp26
 70
     1
102
RTVSPropertyOp27
 70
     1
102
RTVSPropertyOp28
 70
     1
102
RTVSPropertyOp29
 70
     1
102
RTVSPropertyOp30
 70
     1
102
RTVSPropertyOp31
 70
     1
102
RTVSPropertyOp32
 70
     1
102
RTVSPropertyOp33
 70
     1
102
RTVSPropertyOp34
 70
     1
102
RTVSPropertyOp35
 70
     1
102
RTVSPropertyOp36
 70
     1
102
RTVSPropertyOp37
 70
     1
102
RTVSPropertyOp38
 70
     1
102
RTVSPropertyOp39
 70
     1
102
RTVSPropertyOp40
 70
     1
102
RTVSPropertyOp41
 70
     1
102
RTVSPropertyOp42
 70
     1
102
RTVSPropertyOp43
 70
     1
102
RTVSPropertyOp44
 70
     1
102
RTVSPropertyOp45
 70
     1
102
RTVSPropertyOp46
 70
     1
102
RTVSPropertyOp47
 70
     1
102
RTVSPropertyOp48
 70
     1
102
RTVSPropertyOp49
 70
     1
102
RTVSPropertyOp50
 70
     1
102
RTVSPropertyOp51
 70
     0
102
RTVSPropertyOp52
 70
     0
102
RTVSPropertyOp53
 70
     1
102
RTVSPropertyOp54
 70
     1
102
RTVSPropertyOp55
 70
     1
102
RTVSPropertyOp56
 70
     1
102
RTVSPropertyOp57
 70
     1
102
RTVSPropertyOp58
 70
     1
102
RTVSPropertyOp59
 70
     1
102
RTVSPropertyOp60
 70
     1
102
RTVSPropertyOp61
 70
     1
102
RTVSPropertyOp62
 70
     1
  0
XRECORD
  5
C18E
102
{ACAD_REACTORS
330
C18D
102
}
330
C18D
100
AcDbXrecord
280
     1
102
RTVSPost2010Prop28
280
     0
102
RTVSPost2010PropOp28
 70
     1
102
RTVSPost2010Prop29
280
     1
102
RTVSPost2010PropOp29
 70
     1
102
RTVSPost2010Prop30
280
     1
102
RTVSPost2010PropOp30
 70
     1
102
RTVSPost2010Prop31
280
     0
102
RTVSPost2010PropOp31
 70
     1
102
RTVSPost2010Prop32
280
     0
102
RTVSPost2010PropOp32
 70
     1
102
RTVSPost2010Prop33
280
     0
102
RTVSPost2010PropOp33
 70
     1
102
RTVSPost2010Prop34
280
     0
102
RTVSPost2010PropOp34
 70
     1
102
RTVSPost2010Prop35
280
     0
102
RTVSPost2010PropOp35
 70
     1
102
RTVSPost2010Prop36
280
     0
102
RTVSPost2010PropOp36
 70
     1
102
RTVSPost2010Prop37
 90
       50
102
RTVSPost2010PropOp37
 70
     1
102
RTVSPost2010Prop38
140
0.0
102
RTVSPost2010PropOp38
 70
     1
102
RTVSPost2010Prop39
140
1.0
102
RTVSPost2010PropOp39
 70
     1
102
RTVSPost2010Prop40
 90
        0
102
RTVSPost2010PropOp40
 70
     1
102
RTVSPost2010Prop41ColorIndex
 90
       18
102
RTVSPost2010Prop41ColorRGB
 90
        0
102
RTVSPost2010PropOp41
 70
     1
102
RTVSPost2010Prop42
 90
       50
102
RTVSPost2010PropOp42
 70
     1
102
RTVSPost2010Prop43
 90
        3
102
RTVSPost2010PropOp43
 70
     1
102
RTVSPost2010Prop44ColorIndex
 90
        5
102
RTVSPost2010Prop44ColorRGB
 90
      255
102
RTVSPost2010PropOp44
 70
     1
102
RTVSPost2010Prop45
280
     0
102
RTVSPost2010PropOp45
 70
     1
102
RTVSPost2010Prop46
 90
       50
102
RTVSPost2010PropOp46
 70
     1
102
RTVSPost2010Prop47
 90
       50
102
RTVSPost2010PropOp47
 70
     1
102
RTVSPost2010Prop48
 90
       50
102
RTVSPost2010PropOp48
 70
     1
102
RTVSPost2010Prop49
280
     0
102
RTVSPost2010PropOp49
 70
     1
102
RTVSPost2010Prop50
 90
       50
102
RTVSPost2010PropOp50
 70
     1
102
RTVSPost2010Prop51ColorIndex
 90
      256
102
RTVSPost2010Prop51ColorRGB
 90
-16777216
102
RTVSPost2010PropOp51
 70
     0
102
RTVSPost2010Prop52
140
1.0
102
RTVSPost2010PropOp52
 70
     0
102
RTVSPost2010Prop53
 90
        2
102
RTVSPost2010PropOp53
 70
     1
102
RTVSPost2010Prop54
  1
strokes_ogs.tif
102
RTVSPost2010PropOp54
 70
     1
102
RTVSPost2010Prop55
280
     0
102
RTVSPost2010PropOp55
 70
     1
102
RTVSPost2010Prop56
140
1.0
102
RTVSPost2010PropOp56
 70
     1
102
RTVSPost2010Prop57
140
1.0
102
RTVSPost2010PropOp57
 70
     1
102
RTVSPropertyOp0
 70
     1
102
RTVSPropertyOp1
 70
     1
102
RTVSPropertyOp2
 70
     1
102
RTVSPropertyOp3
 70
     1
102
RTVSPropertyOp4
 70
     1
102
RTVSPropertyOp5
 70
     1
102
RTVSPropertyOp6
 70
     1
102
RTVSPropertyOp7
 70
     1
102
RTVSPropertyOp8
 70
     1
102
RTVSPropertyOp9
 70
     1
102
RTVSPropertyOp10
 70
     1
102
RTVSPropertyOp11
 70
     1
102
RTVSPropertyOp12
 70
     1
102
RTVSPropertyOp13
 70
     1
102
RTVSPropertyOp14
 70
     1
102
RTVSPropertyOp15
 70
     1
102
RTVSPropertyOp16
 70
     1
102
RTVSPropertyOp17
 70
     1
102
RTVSPropertyOp18
 70
     1
102
RTVSPropertyOp19
 70
     1
102
RTVSPropertyOp20
 70
     1
102
RTVSPropertyOp21
 70
     1
102
RTVSPropertyOp22
 70
     1
102
RTVSPropertyOp23
 70
     1
102
RTVSPropertyOp24
 70
     1
102
RTVSPropertyOp25
 70
     1
102
RTVSPropertyOp26
 70
     1
102
RTVSPropertyOp27
 70
     1
102
RTVSPropertyOp28
 70
     1
102
RTVSPropertyOp29
 70
     1
102
RTVSPropertyOp30
 70
     1
102
RTVSPropertyOp31
 70
     1
102
RTVSPropertyOp32
 70
     1
102
RTVSPropertyOp33
 70
     1
102
RTVSPropertyOp34
 70
     1
102
RTVSPropertyOp35
 70
     1
102
RTVSPropertyOp36
 70
     1
102
RTVSPropertyOp37
 70
     1
102
RTVSPropertyOp38
 70
     1
102
RTVSPropertyOp39
 70
     1
102
RTVSPropertyOp40
 70
     1
102
RTVSPropertyOp41
 70
     1
102
RTVSPropertyOp42
 70
     1
102
RTVSPropertyOp43
 70
     1
102
RTVSPropertyOp44
 70
     1
102
RTVSPropertyOp45
 70
     1
102
RTVSPropertyOp46
 70
     1
102
RTVSPropertyOp47
 70
     1
102
RTVSPropertyOp48
 70
     1
102
RTVSPropertyOp49
 70
     1
102
RTVSPropertyOp50
 70
     1
102
RTVSPropertyOp51
 70
     0
102
RTVSPropertyOp52
 70
     0
102
RTVSPropertyOp53
 70
     1
102
RTVSPropertyOp54
 70
     1
102
RTVSPropertyOp55
 70
     1
102
RTVSPropertyOp56
 70
     1
102
RTVSPropertyOp57
 70
     1
102
RTVSPropertyOp58
 70
     1
102
RTVSPropertyOp59
 70
     1
102
RTVSPropertyOp60
 70
     1
102
RTVSPropertyOp61
 70
     1
102
RTVSPropertyOp62
 70
     1
  0
XRECORD
  5
C182
102
{ACAD_REACTORS
330
C181
102
}
330
C181
100
AcDbXrecord
280
     1
102
RTVSPost2010Prop28
280
     0
102
RTVSPost2010PropOp28
 70
     1
102
RTVSPost2010Prop29
280
     1
102
RTVSPost2010PropOp29
 70
     1
102
RTVSPost2010Prop30
280
     1
102
RTVSPost2010PropOp30
 70
     1
102
RTVSPost2010Prop31
280
     0
102
RTVSPost2010PropOp31
 70
     1
102
RTVSPost2010Prop32
280
     0
102
RTVSPost2010PropOp32
 70
     1
102
RTVSPost2010Prop33
280
     0
102
RTVSPost2010PropOp33
 70
     1
102
RTVSPost2010Prop34
280
     0
102
RTVSPost2010PropOp34
 70
     1
102
RTVSPost2010Prop35
280
     0
102
RTVSPost2010PropOp35
 70
     1
102
RTVSPost2010Prop36
280
     0
102
RTVSPost2010PropOp36
 70
     1
102
RTVSPost2010Prop37
 90
       50
102
RTVSPost2010PropOp37
 70
     1
102
RTVSPost2010Prop38
140
0.0
102
RTVSPost2010PropOp38
 70
     1
102
RTVSPost2010Prop39
140
1.0
102
RTVSPost2010PropOp39
 70
     1
102
RTVSPost2010Prop40
 90
        0
102
RTVSPost2010PropOp40
 70
     1
102
RTVSPost2010Prop41ColorIndex
 90
       18
102
RTVSPost2010Prop41ColorRGB
 90
        0
102
RTVSPost2010PropOp41
 70
     1
102
RTVSPost2010Prop42
 90
       50
102
RTVSPost2010PropOp42
 70
     1
102
RTVSPost2010Prop43
 90
        3
102
RTVSPost2010PropOp43
 70
     1
102
RTVSPost2010Prop44ColorIndex
 90
        5
102
RTVSPost2010Prop44ColorRGB
 90
      255
102
RTVSPost2010PropOp44
 70
     1
102
RTVSPost2010Prop45
280
     0
102
RTVSPost2010PropOp45
 70
     1
102
RTVSPost2010Prop46
 90
       50
102
RTVSPost2010PropOp46
 70
     1
102
RTVSPost2010Prop47
 90
       50
102
RTVSPost2010PropOp47
 70
     1
102
RTVSPost2010Prop48
 90
       50
102
RTVSPost2010PropOp48
 70
     1
102
RTVSPost2010Prop49
280
     0
102
RTVSPost2010PropOp49
 70
     1
102
RTVSPost2010Prop50
 90
       50
102
RTVSPost2010PropOp50
 70
     1
102
RTVSPost2010Prop51ColorIndex
 90
      256
102
RTVSPost2010Prop51ColorRGB
 90
-16777216
102
RTVSPost2010PropOp51
 70
     0
102
RTVSPost2010Prop52
140
1.0
102
RTVSPost2010PropOp52
 70
     0
102
RTVSPost2010Prop53
 90
        2
102
RTVSPost2010PropOp53
 70
     1
102
RTVSPost2010Prop54
  1
strokes_ogs.tif
102
RTVSPost2010PropOp54
 70
     1
102
RTVSPost2010Prop55
280
     0
102
RTVSPost2010PropOp55
 70
     1
102
RTVSPost2010Prop56
140
1.0
102
RTVSPost2010PropOp56
 70
     1
102
RTVSPost2010Prop57
140
1.0
102
RTVSPost2010PropOp57
 70
     1
102
RTVSPropertyOp0
 70
     1
102
RTVSPropertyOp1
 70
     1
102
RTVSPropertyOp2
 70
     1
102
RTVSPropertyOp3
 70
     1
102
RTVSPropertyOp4
 70
     1
102
RTVSPropertyOp5
 70
     1
102
RTVSPropertyOp6
 70
     1
102
RTVSPropertyOp7
 70
     1
102
RTVSPropertyOp8
 70
     1
102
RTVSPropertyOp9
 70
     1
102
RTVSPropertyOp10
 70
     1
102
RTVSPropertyOp11
 70
     1
102
RTVSPropertyOp12
 70
     1
102
RTVSPropertyOp13
 70
     1
102
RTVSPropertyOp14
 70
     1
102
RTVSPropertyOp15
 70
     1
102
RTVSPropertyOp16
 70
     1
102
RTVSPropertyOp17
 70
     1
102
RTVSPropertyOp18
 70
     1
102
RTVSPropertyOp19
 70
     1
102
RTVSPropertyOp20
 70
     1
102
RTVSPropertyOp21
 70
     1
102
RTVSPropertyOp22
 70
     1
102
RTVSPropertyOp23
 70
     1
102
RTVSPropertyOp24
 70
     1
102
RTVSPropertyOp25
 70
     1
102
RTVSPropertyOp26
 70
     1
102
RTVSPropertyOp27
 70
     1
102
RTVSPropertyOp28
 70
     1
102
RTVSPropertyOp29
 70
     1
102
RTVSPropertyOp30
 70
     1
102
RTVSPropertyOp31
 70
     1
102
RTVSPropertyOp32
 70
     1
102
RTVSPropertyOp33
 70
     1
102
RTVSPropertyOp34
 70
     1
102
RTVSPropertyOp35
 70
     1
102
RTVSPropertyOp36
 70
     1
102
RTVSPropertyOp37
 70
     1
102
RTVSPropertyOp38
 70
     1
102
RTVSPropertyOp39
 70
     1
102
RTVSPropertyOp40
 70
     1
102
RTVSPropertyOp41
 70
     1
102
RTVSPropertyOp42
 70
     1
102
RTVSPropertyOp43
 70
     1
102
RTVSPropertyOp44
 70
     1
102
RTVSPropertyOp45
 70
     1
102
RTVSPropertyOp46
 70
     1
102
RTVSPropertyOp47
 70
     1
102
RTVSPropertyOp48
 70
     1
102
RTVSPropertyOp49
 70
     1
102
RTVSPropertyOp50
 70
     1
102
RTVSPropertyOp51
 70
     0
102
RTVSPropertyOp52
 70
     0
102
RTVSPropertyOp53
 70
     1
102
RTVSPropertyOp54
 70
     1
102
RTVSPropertyOp55
 70
     1
102
RTVSPropertyOp56
 70
     1
102
RTVSPropertyOp57
 70
     1
102
RTVSPropertyOp58
 70
     1
102
RTVSPropertyOp59
 70
     1
102
RTVSPropertyOp60
 70
     1
102
RTVSPropertyOp61
 70
     1
102
RTVSPropertyOp62
 70
     1
  0
XRECORD
  5
C19A
102
{ACAD_REACTORS
330
C199
102
}
330
C199
100
AcDbXrecord
280
     1
102
RTVSPost2010Prop28
280
     0
102
RTVSPost2010PropOp28
 70
     1
102
RTVSPost2010Prop29
280
     1
102
RTVSPost2010PropOp29
 70
     1
102
RTVSPost2010Prop30
280
     1
102
RTVSPost2010PropOp30
 70
     1
102
RTVSPost2010Prop31
280
     0
102
RTVSPost2010PropOp31
 70
     1
102
RTVSPost2010Prop32
280
     0
102
RTVSPost2010PropOp32
 70
     1
102
RTVSPost2010Prop33
280
     0
102
RTVSPost2010PropOp33
 70
     1
102
RTVSPost2010Prop34
280
     0
102
RTVSPost2010PropOp34
 70
     1
102
RTVSPost2010Prop35
280
     0
102
RTVSPost2010PropOp35
 70
     1
102
RTVSPost2010Prop36
280
     0
102
RTVSPost2010PropOp36
 70
     1
102
RTVSPost2010Prop37
 90
       50
102
RTVSPost2010PropOp37
 70
     1
102
RTVSPost2010Prop38
140
0.0
102
RTVSPost2010PropOp38
 70
     1
102
RTVSPost2010Prop39
140
1.0
102
RTVSPost2010PropOp39
 70
     1
102
RTVSPost2010Prop40
 90
        0
102
RTVSPost2010PropOp40
 70
     1
102
RTVSPost2010Prop41ColorIndex
 90
       18
102
RTVSPost2010Prop41ColorRGB
 90
        0
102
RTVSPost2010PropOp41
 70
     1
102
RTVSPost2010Prop42
 90
       50
102
RTVSPost2010PropOp42
 70
     1
102
RTVSPost2010Prop43
 90
        3
102
RTVSPost2010PropOp43
 70
     1
102
RTVSPost2010Prop44ColorIndex
 90
        5
102
RTVSPost2010Prop44ColorRGB
 90
      255
102
RTVSPost2010PropOp44
 70
     1
102
RTVSPost2010Prop45
280
     0
102
RTVSPost2010PropOp45
 70
     1
102
RTVSPost2010Prop46
 90
       50
102
RTVSPost2010PropOp46
 70
     1
102
RTVSPost2010Prop47
 90
       50
102
RTVSPost2010PropOp47
 70
     1
102
RTVSPost2010Prop48
 90
       50
102
RTVSPost2010PropOp48
 70
     1
102
RTVSPost2010Prop49
280
     0
102
RTVSPost2010PropOp49
 70
     1
102
RTVSPost2010Prop50
 90
       50
102
RTVSPost2010PropOp50
 70
     1
102
RTVSPost2010Prop51ColorIndex
 90
      256
102
RTVSPost2010Prop51ColorRGB
 90
-16777216
102
RTVSPost2010PropOp51
 70
     0
102
RTVSPost2010Prop52
140
1.0
102
RTVSPost2010PropOp52
 70
     0
102
RTVSPost2010Prop53
 90
        2
102
RTVSPost2010PropOp53
 70
     1
102
RTVSPost2010Prop54
  1
strokes_ogs.tif
102
RTVSPost2010PropOp54
 70
     1
102
RTVSPost2010Prop55
280
     0
102
RTVSPost2010PropOp55
 70
     1
102
RTVSPost2010Prop56
140
1.0
102
RTVSPost2010PropOp56
 70
     1
102
RTVSPost2010Prop57
140
1.0
102
RTVSPost2010PropOp57
 70
     1
102
RTVSPropertyOp0
 70
     1
102
RTVSPropertyOp1
 70
     1
102
RTVSPropertyOp2
 70
     1
102
RTVSPropertyOp3
 70
     1
102
RTVSPropertyOp4
 70
     1
102
RTVSPropertyOp5
 70
     1
102
RTVSPropertyOp6
 70
     1
102
RTVSPropertyOp7
 70
     1
102
RTVSPropertyOp8
 70
     1
102
RTVSPropertyOp9
 70
     1
102
RTVSPropertyOp10
 70
     1
102
RTVSPropertyOp11
 70
     1
102
RTVSPropertyOp12
 70
     1
102
RTVSPropertyOp13
 70
     1
102
RTVSPropertyOp14
 70
     1
102
RTVSPropertyOp15
 70
     1
102
RTVSPropertyOp16
 70
     1
102
RTVSPropertyOp17
 70
     1
102
RTVSPropertyOp18
 70
     1
102
RTVSPropertyOp19
 70
     1
102
RTVSPropertyOp20
 70
     1
102
RTVSPropertyOp21
 70
     1
102
RTVSPropertyOp22
 70
     1
102
RTVSPropertyOp23
 70
     1
102
RTVSPropertyOp24
 70
     1
102
RTVSPropertyOp25
 70
     1
102
RTVSPropertyOp26
 70
     1
102
RTVSPropertyOp27
 70
     1
102
RTVSPropertyOp28
 70
     1
102
RTVSPropertyOp29
 70
     1
102
RTVSPropertyOp30
 70
     1
102
RTVSPropertyOp31
 70
     1
102
RTVSPropertyOp32
 70
     1
102
RTVSPropertyOp33
 70
     1
102
RTVSPropertyOp34
 70
     1
102
RTVSPropertyOp35
 70
     1
102
RTVSPropertyOp36
 70
     1
102
RTVSPropertyOp37
 70
     1
102
RTVSPropertyOp38
 70
     1
102
RTVSPropertyOp39
 70
     1
102
RTVSPropertyOp40
 70
     1
102
RTVSPropertyOp41
 70
     1
102
RTVSPropertyOp42
 70
     1
102
RTVSPropertyOp43
 70
     1
102
RTVSPropertyOp44
 70
     1
102
RTVSPropertyOp45
 70
     1
102
RTVSPropertyOp46
 70
     1
102
RTVSPropertyOp47
 70
     1
102
RTVSPropertyOp48
 70
     1
102
RTVSPropertyOp49
 70
     1
102
RTVSPropertyOp50
 70
     1
102
RTVSPropertyOp51
 70
     0
102
RTVSPropertyOp52
 70
     0
102
RTVSPropertyOp53
 70
     1
102
RTVSPropertyOp54
 70
     1
102
RTVSPropertyOp55
 70
     1
102
RTVSPropertyOp56
 70
     1
102
RTVSPropertyOp57
 70
     1
102
RTVSPropertyOp58
 70
     1
102
RTVSPropertyOp59
 70
     1
102
RTVSPropertyOp60
 70
     1
102
RTVSPropertyOp61
 70
     1
102
RTVSPropertyOp62
 70
     1
  0
ENDSEC
  0
EOF
