  0
SECTION
  2
HEADER
  9
$ACADVER
  1
AC1015
  9
$ACADMAINTVER
 70
    20
  9
$DWGCODEPAGE
  3
ANSI_932
  9
$INSBASE
 10
0.0
 20
0.0
 30
0.0
  9
$EXTMIN
 10
10.0
 20
9.999999999999998
 30
0.0
  9
$EXTMAX
 10
230.949885
 20
215.717288
 30
0.0
  9
$LIMMIN
 10
0.0
 20
0.0
  9
$LIMMAX
 10
396.0
 20
273.0
  9
$ORTHOMODE
 70
     1
  9
$REGENMODE
 70
     1
  9
$FILLMODE
 70
     1
  9
$QTEXTMODE
 70
     0
  9
$MIRRTEXT
 70
     1
  9
$LTSCALE
 40
20.0
  9
$ATTMODE
 70
     1
  9
$TEXTSIZE
 40
5.0
  9
$TRACEWID
 40
1.0
  9
$TEXTSTYLE
  7
STANDARD
  9
$CLAYER
  8
0
  9
$CELTYPE
  6
BYLAYER
  9
$CECOLOR
 62
   256
  9
$CELTSCALE
 40
1.0
  9
$DISPSILH
 70
     0
  9
$DIMSCALE
 40
1.0
  9
$DIMASZ
 40
2.5
  9
$DIMEXO
 40
1.0
  9
$DIMDLI
 40
10.0
  9
$DIMRND
 40
0.0
  9
$DIMDLE
 40
0.0
  9
$DIMEXE
 40
1.0
  9
$DIMTP
 40
0.0
  9
$DIMTM
 40
0.0
  9
$DIMTXT
 40
3.2
  9
$DIMCEN
 40
0.0
  9
$DIMTSZ
 40
0.0
  9
$DIMTOL
 70
     0
  9
$DIMLIM
 70
     0
  9
$DIMTIH
 70
     0
  9
$DIMTOH
 70
     0
  9
$DIMSE1
 70
     0
  9
$DIMSE2
 70
     0
  9
$DIMTAD
 70
     3
  9
$DIMZIN
 70
     8
  9
$DIMBLK
  1

  9
$DIMASO
 70
     1
  9
$DIMSHO
 70
     1
  9
$DIMPOST
  1

  9
$DIMAPOST
  1

  9
$DIMALT
 70
     0
  9
$DIMALTD
 70
     2
  9
$DIMALTF
 40
25.4
  9
$DIMLFAC
 40
1.0
  9
$DIMTOFL
 70
     1
  9
$DIMTVP
 40
0.0
  9
$DIMTIX
 70
     0
  9
$DIMSOXD
 70
     0
  9
$DIMSAH
 70
     1
  9
$DIMBLK1
  1

  9
$DIMBLK2
  1

  9
$DIMSTYLE
  2
STANDARD
  9
$DIMCLRD
 70
     0
  9
$DIMCLRE
 70
     0
  9
$DIMCLRT
 70
     0
  9
$DIMTFAC
 40
1.0
  9
$DIMGAP
 40
1.0
  9
$DIMJUST
 70
     0
  9
$DIMSD1
 70
     0
  9
$DIMSD2
 70
     0
  9
$DIMTOLJ
 70
     1
  9
$DIMTZIN
 70
     0
  9
$DIMALTZ
 70
     0
  9
$DIMALTTZ
 70
     0
  9
$DIMUPT
 70
     0
  9
$DIMDEC
 70
     4
  9
$DIMTDEC
 70
     4
  9
$DIMALTU
 70
     2
  9
$DIMALTTD
 70
     2
  9
$DIMTXSTY
  7
STANDARD
  9
$DIMAUNIT
 70
     0
  9
$DIMADEC
 70
     0
  9
$DIMALTRND
 40
0.0
  9
$DIMAZIN
 70
     0
  9
$DIMDSEP
 70
    46
  9
$DIMATFIT
 70
     3
  9
$DIMFRAC
 70
     0
  9
$DIMLDRBLK
  1

  9
$DIMLUNIT
 70
     2
  9
$DIMLWD
 70
    -2
  9
$DIMLWE
 70
    -2
  9
$DIMTMOVE
 70
     0
  9
$LUNITS
 70
     2
  9
$LUPREC
 70
     4
  9
$SKETCHINC
 40
1.0
  9
$FILLETRAD
 40
1.0
  9
$AUNITS
 70
     0
  9
$AUPREC
 70
     2
  9
$MENU
  1
.
  9
$ELEVATION
 40
0.0
  9
$PELEVATION
 40
0.0
  9
$THICKNESS
 40
0.0
  9
$LIMCHECK
 70
     0
  9
$CHAMFERA
 40
10.0
  9
$CHAMFERB
 40
10.0
  9
$CHAMFERC
 40
0.0
  9
$CHAMFERD
 40
0.0
  9
$SKPOLY
 70
     0
  9
$TDCREATE
 40
2451296.796595718
  9
$TDUCREATE
 40
2451296.421595718
  9
$TDUPDATE
 40
2457192.658379606
  9
$TDUUPDATE
 40
2457192.283379606
  9
$TDINDWG
 40
0.0000115741
  9
$TDUSRTIMER
 40
0.0000112731
  9
$USRTIMER
 70
     1
  9
$ANGBASE
 50
0.0
  9
$ANGDIR
 70
     0
  9
$PDMODE
 70
     0
  9
$PDSIZE
 40
0.0
  9
$PLINEWID
 40
0.0
  9
$SPLFRAME
 70
     0
  9
$SPLINETYPE
 70
     6
  9
$SPLINESEGS
 70
     8
  9
$HANDSEED
  5
BD4B
  9
$SURFTAB1
 70
     6
  9
$SURFTAB2
 70
     6
  9
$SURFTYPE
 70
     6
  9
$SURFU
 70
     6
  9
$SURFV
 70
     6
  9
$UCSBASE
  2

  9
$UCSNAME
  2

  9
$UCSORG
 10
0.0
 20
0.0
 30
0.0
  9
$UCSXDIR
 10
1.0
 20
0.0
 30
0.0
  9
$UCSYDIR
 10
0.0
 20
1.0
 30
0.0
  9
$UCSORTHOREF
  2

  9
$UCSORTHOVIEW
 70
     0
  9
$UCSORGTOP
 10
0.0
 20
0.0
 30
0.0
  9
$UCSORGBOTTOM
 10
0.0
 20
0.0
 30
0.0
  9
$UCSORGLEFT
 10
0.0
 20
0.0
 30
0.0
  9
$UCSORGRIGHT
 10
0.0
 20
0.0
 30
0.0
  9
$UCSORGFRONT
 10
0.0
 20
0.0
 30
0.0
  9
$UCSORGBACK
 10
0.0
 20
0.0
 30
0.0
  9
$PUCSBASE
  2

  9
$PUCSNAME
  2

  9
$PUCSORG
 10
0.0
 20
0.0
 30
0.0
  9
$PUCSXDIR
 10
1.0
 20
0.0
 30
0.0
  9
$PUCSYDIR
 10
0.0
 20
1.0
 30
0.0
  9
$PUCSORTHOREF
  2

  9
$PUCSORTHOVIEW
 70
     0
  9
$PUCSORGTOP
 10
0.0
 20
0.0
 30
0.0
  9
$PUCSORGBOTTOM
 10
0.0
 20
0.0
 30
0.0
  9
$PUCSORGLEFT
 10
0.0
 20
0.0
 30
0.0
  9
$PUCSORGRIGHT
 10
0.0
 20
0.0
 30
0.0
  9
$PUCSORGFRONT
 10
0.0
 20
0.0
 30
0.0
  9
$PUCSORGBACK
 10
0.0
 20
0.0
 30
0.0
  9
$USERI1
 70
     0
  9
$USERI2
 70
     0
  9
$USERI3
 70
     0
  9
$USERI4
 70
     0
  9
$USERI5
 70
     0
  9
$USERR1
 40
0.0
  9
$USERR2
 40
0.0
  9
$USERR3
 40
0.0
  9
$USERR4
 40
0.0
  9
$USERR5
 40
0.0
  9
$WORLDVIEW
 70
     1
  9
$SHADEDGE
 70
     3
  9
$SHADEDIF
 70
    70
  9
$TILEMODE
 70
     1
  9
$MAXACTVP
 70
    16
  9
$PINSBASE
 10
0.0
 20
0.0
 30
0.0
  9
$PLIMCHECK
 70
     0
  9
$PEXTMIN
 10
1.000000000000000E+20
 20
1.000000000000000E+20
 30
1.000000000000000E+20
  9
$PEXTMAX
 10
-1.000000000000000E+20
 20
-1.000000000000000E+20
 30
-1.000000000000000E+20
  9
$PLIMMIN
 10
0.0
 20
0.0
  9
$PLIMMAX
 10
420.0
 20
297.0
  9
$UNITMODE
 70
     0
  9
$VISRETAIN
 70
     0
  9
$PLINEGEN
 70
     0
  9
$PSLTSCALE
 70
     0
  9
$TREEDEPTH
 70
  3020
  9
$CMLSTYLE
  2
STANDARD
  9
$CMLJUST
 70
     0
  9
$CMLSCALE
 40
1.0
  9
$PROXYGRAPHICS
 70
     1
  9
$MEASUREMENT
 70
     0
  9
$CELWEIGHT
370
    -1
  9
$ENDCAPS
280
     0
  9
$JOINSTYLE
280
     0
  9
$LWDISPLAY
290
     0
  9
$INSUNITS
 70
     0
  9
$HYPERLINKBASE
  1

  9
$STYLESHEET
  1

  9
$XEDIT
290
     1
  9
$CEPSNTYPE
380
     0
  9
$PSTYLEMODE
290
     1
  9
$FINGERPRINTGUID
  2
{F03DA465-85CA-49CD-9F89-4BB530D16535}
  9
$VERSIONGUID
  2
{000D7544-C4D5-47D5-9C88-7A1D035F7BC3}
  9
$EXTNAMES
290
     1
  9
$PSVPSCALE
 40
0.0
  9
$OLESTARTUP
290
     0
  0
ENDSEC
  0
SECTION
  2
CLASSES
  0
CLASS
  1
ACDBDICTIONARYWDFLT
  2
AcDbDictionaryWithDefault
  3
ObjectDBX Classes
 90
        0
280
     0
281
     0
  0
CLASS
  1
ACDBPLACEHOLDER
  2
AcDbPlaceHolder
  3
ObjectDBX Classes
 90
        0
280
     0
281
     0
  0
CLASS
  1
LAYOUT
  2
AcDbLayout
  3
ObjectDBX Classes
 90
        0
280
     0
281
     0
  0
CLASS
  1
DICTIONARYVAR
  2
AcDbDictionaryVar
  3
ObjectDBX Classes
 90
        0
280
     0
281
     0
  0
CLASS
  1
MATERIAL
  2
AcDbMaterial
  3
ObjectDBX Classes
 90
     1153
280
     0
281
     0
  0
CLASS
  1
VISUALSTYLE
  2
AcDbVisualStyle
  3
ObjectDBX Classes
 90
     4095
280
     0
281
     0
  0
CLASS
  1
TABLESTYLE
  2
AcDbTableStyle
  3
ObjectDBX Classes
 90
     4095
280
     0
281
     0
  0
CLASS
  1
SCALE
  2
AcDbScale
  3
ObjectDBX Classes
 90
     1153
280
     0
281
     0
  0
CLASS
  1
MLEADERSTYLE
  2
AcDbMLeaderStyle
  3
ACDB_MLEADERSTYLE_CLASS
 90
     4095
280
     0
281
     0
  0
CLASS
  1
ACDBSECTIONVIEWSTYLE
  2
AcDbSectionViewStyle
  3
ObjectDBX Classes
 90
     1025
280
     0
281
     0
  0
CLASS
  1
ACDBDETAILVIEWSTYLE
  2
AcDbDetailViewStyle
  3
ObjectDBX Classes
 90
     1025
280
     0
281
     0
  0
CLASS
  1
CELLSTYLEMAP
  2
AcDbCellStyleMap
  3
ObjectDBX Classes
 90
     1152
280
     0
281
     0
  0
ENDSEC
  0
SECTION
  2
TABLES
  0
TABLE
  2
VPORT
  5
BA69
330
0
100
AcDbSymbolTable
 70
     1
  0
VPORT
  5
BC94
330
BA69
100
AcDbSymbolTableRecord
100
AcDbViewportTableRecord
  2
*ACTIVE
 70
     0
 10
0.0
 20
0.0
 11
1.0
 21
1.0
 12
182.7903414530872
 22
112.8599401833022
 13
0.0
 23
0.0
 14
10.0
 24
10.0
 15
10.0
 25
10.0
 16
0.0
 26
0.0
 36
1.0
 17
0.0
 27
0.0
 37
0.0
 40
208.0425225079355
 41
1.899603698811096
 42
50.0
 43
0.0
 44
0.0
 50
0.0
 51
0.0
 71
     0
 72
   100
 73
     1
 74
     0
 75
     0
 76
     0
 77
     0
 78
     0
281
     0
 65
     1
110
0.0
120
0.0
130
0.0
111
1.0
121
0.0
131
0.0
112
0.0
122
1.0
132
0.0
 79
     0
146
0.0
1001
ACAD_NAV_VCDISPLAY
1070
     3
  0
ENDTAB
  0
TABLE
  2
LTYPE
  5
BA66
330
0
100
AcDbSymbolTable
 70
     4
  0
LTYPE
  5
BA74
330
BA66
100
AcDbSymbolTableRecord
100
AcDbLinetypeTableRecord
  2
BYBLOCK
 70
     0
  3

 72
    65
 73
     0
 40
0.0
  0
LTYPE
  5
BA75
330
BA66
100
AcDbSymbolTableRecord
100
AcDbLinetypeTableRecord
  2
BYLAYER
 70
     0
  3

 72
    65
 73
     0
 40
0.0
  0
LTYPE
  5
BA76
330
BA66
100
AcDbSymbolTableRecord
100
AcDbLinetypeTableRecord
  2
CONTINUOUS
 70
     0
  3
Solid line
 72
    65
 73
     0
 40
0.0
  0
LTYPE
  5
BA84
330
BA66
100
AcDbSymbolTableRecord
100
AcDbLinetypeTableRecord
  2
DASHED
 70
     0
  3
__ __ __ __ __ __ __ __ __ __ __ __ __ __ __ __
 72
    65
 73
     2
 40
0.75
 49
0.5
 74
     0
 49
-0.25
 74
     0
  0
LTYPE
  5
BA85
330
BA66
100
AcDbSymbolTableRecord
100
AcDbLinetypeTableRecord
  2
CENTER
 70
     0
  3
____ _ ____ _ ____ _ ____ _ ____ _ ____ _ ____ 
 72
    65
 73
     4
 40
2.0
 49
1.25
 74
     0
 49
-0.25
 74
     0
 49
0.25
 74
     0
 49
-0.25
 74
     0
  0
LTYPE
  5
BA86
330
BA66
100
AcDbSymbolTableRecord
100
AcDbLinetypeTableRecord
  2
PHANTOM
 70
     0
  3
______  __  __  ______  __  __  ______  __  __ 
 72
    65
 73
     6
 40
2.5
 49
1.25
 74
     0
 49
-0.25
 74
     0
 49
0.25
 74
     0
 49
-0.25
 74
     0
 49
0.25
 74
     0
 49
-0.25
 74
     0
  0
ENDTAB
  0
TABLE
  2
LAYER
  5
BA63
330
0
100
AcDbSymbolTable
 70
     8
  0
LAYER
  5
BA71
102
{ACAD_XDICTIONARY
360
BCEF
102
}
330
BA63
100
AcDbSymbolTableRecord
100
AcDbLayerTableRecord
  2
0
 70
     0
 62
     7
  6
CONTINUOUS
370
    -3
390
BC9D
  0
LAYER
  5
BA87
102
{ACAD_XDICTIONARY
360
BCF1
102
}
330
BA63
100
AcDbSymbolTableRecord
100
AcDbLayerTableRecord
  2
4
 70
     0
 62
     1
  6
CENTER
370
    -3
390
BC9D
  0
LAYER
  5
BA88
102
{ACAD_XDICTIONARY
360
BCF3
102
}
330
BA63
100
AcDbSymbolTableRecord
100
AcDbLayerTableRecord
  2
5
 70
     0
 62
     6
  6
PHANTOM
370
    -3
390
BC9D
  0
LAYER
  5
BA89
102
{ACAD_XDICTIONARY
360
BCF5
102
}
330
BA63
100
AcDbSymbolTableRecord
100
AcDbLayerTableRecord
  2
1
 70
     0
 62
     7
  6
CONTINUOUS
370
    -3
390
BC9D
  0
LAYER
  5
BA8A
102
{ACAD_XDICTIONARY
360
BCF7
102
}
330
BA63
100
AcDbSymbolTableRecord
100
AcDbLayerTableRecord
  2
2
 70
     0
 62
     4
  6
CONTINUOUS
370
    -3
390
BC9D
  0
LAYER
  5
BA8B
102
{ACAD_XDICTIONARY
360
BCF9
102
}
330
BA63
100
AcDbSymbolTableRecord
100
AcDbLayerTableRecord
  2
3
 70
     0
 62
     2
  6
DASHED
370
    -3
390
BC9D
  0
LAYER
  5
BA8C
102
{ACAD_XDICTIONARY
360
BCFB
102
}
330
BA63
100
AcDbSymbolTableRecord
100
AcDbLayerTableRecord
  2
6
 70
     0
 62
     5
  6
CONTINUOUS
370
    -3
390
BC9D
  0
LAYER
  5
BA8D
102
{ACAD_XDICTIONARY
360
BCFD
102
}
330
BA63
100
AcDbSymbolTableRecord
100
AcDbLayerTableRecord
  2
7
 70
     0
 62
     3
  6
CONTINUOUS
370
    -3
390
BC9D
  0
ENDTAB
  0
TABLE
  2
STYLE
  5
BA64
330
0
100
AcDbSymbolTable
 70
     1
  0
STYLE
  5
BA72
330
BA64
100
AcDbSymbolTableRecord
100
AcDbTextStyleTableRecord
  2
STANDARD
 70
     0
 40
0.0
 41
1.0
 50
0.0
 71
     0
 42
5.0
  3
txt
  4

  0
ENDTAB
  0
TABLE
  2
VIEW
  5
BA67
330
0
100
AcDbSymbolTable
 70
     0
  0
ENDTAB
  0
TABLE
  2
UCS
  5
BA68
330
0
100
AcDbSymbolTable
 70
     0
  0
ENDTAB
  0
TABLE
  2
APPID
  5
BA6A
330
0
100
AcDbSymbolTable
 70
     3
  0
APPID
  5
BA73
330
BA6A
100
AcDbSymbolTableRecord
100
AcDbRegAppTableRecord
  2
ACAD
 70
     0
  0
APPID
  5
BD09
330
BA6A
100
AcDbSymbolTableRecord
100
AcDbRegAppTableRecord
  2
ACAD_NAV_VCDISPLAY
 70
     0
  0
APPID
  5
BD42
330
BA6A
100
AcDbSymbolTableRecord
100
AcDbRegAppTableRecord
  2
ACAD_MLEADERVER
 70
     0
  0
ENDTAB
  0
TABLE
  2
DIMSTYLE
  5
BA6B
330
0
100
AcDbSymbolTable
 70
     1
100
AcDbDimStyleTable
 71
     0
  0
DIMSTYLE
105
BA8F
330
BA6B
100
AcDbSymbolTableRecord
100
AcDbDimStyleTableRecord
  2
STANDARD
 70
     0
 41
2.5
 42
1.0
 43
10.0
 44
1.0
 73
     0
 74
     0
 77
     3
 78
     8
140
3.2
141
0.0
147
1.0
172
     1
173
     1
284
     8
285
     8
286
     8
340
BA72
  0
ENDTAB
  0
TABLE
  2
BLOCK_RECORD
  5
BA62
330
0
100
AcDbSymbolTable
 70
     0
  0
BLOCK_RECORD
  5
BA7F
102
{ACAD_XDICTIONARY
360
BC97
102
}
330
BA62
100
AcDbSymbolTableRecord
100
AcDbBlockTableRecord
  2
*MODEL_SPACE
340
BCEB
  0
BLOCK_RECORD
  5
BA7B
102
{ACAD_XDICTIONARY
360
BC95
102
}
330
BA62
100
AcDbSymbolTableRecord
100
AcDbBlockTableRecord
  2
*PAPER_SPACE
340
BCEC
  0
ENDTAB
  0
ENDSEC
  0
SECTION
  2
BLOCKS
  0
BLOCK
  5
BA80
330
BA7F
100
AcDbEntity
  8
0
100
AcDbBlockBegin
  2
*MODEL_SPACE
 70
     0
 10
0.0
 20
0.0
 30
0.0
  3
*MODEL_SPACE
  1

  0
ENDBLK
  5
BA81
330
BA7F
100
AcDbEntity
  8
0
100
AcDbBlockEnd
  0
BLOCK
  5
BA7C
330
BA7B
100
AcDbEntity
 67
     1
  8
0
100
AcDbBlockBegin
  2
*PAPER_SPACE
 70
     0
 10
0.0
 20
0.0
 30
0.0
  3
*PAPER_SPACE
  1

  0
ENDBLK
  5
BA7D
330
BA7B
100
AcDbEntity
 67
     1
  8
0
100
AcDbBlockEnd
  0
ENDSEC
  0
SECTION
  2
ENTITIES
  0
TEXT
  5
BA97
330
BA7F
100
AcDbEntity
  8
7
  6
Continuous
100
AcDbText
 10
10.0
 20
18.0
 30
0.0
 40
3.0
  1
TYPE No.TM-144SUS-50
100
AcDbText
  0
TEXT
  5
BA98
330
BA7F
100
AcDbEntity
  8
7
  6
Continuous
100
AcDbText
 10
10.0
 20
26.0
 30
0.0
 40
3.0
  1
CODE No.5716
100
AcDbText
  0
TEXT
  5
BA99
330
BA7F
100
AcDbEntity
  8
1
  6
Continuous
100
AcDbText
 10
10.0
 20
10.0
 30
0.0
 40
1.399999999999999
  1
LAYER
100
AcDbText
  0
TEXT
  5
BA9A
330
BA7F
100
AcDbEntity
  8
1
  6
Continuous
100
AcDbText
 10
17.97951099999998
 20
10.04873699999998
 30
0.0
 40
1.399999999999999
  1
1
100
AcDbText
  0
TEXT
  5
BA9B
330
BA7F
100
AcDbEntity
  8
7
  6
Continuous
100
AcDbText
 10
29.97951099999999
 20
10.04873699999998
 30
0.0
 40
1.399999999999999
  1
7
100
AcDbText
  0
TEXT
  5
BA9C
330
BA7F
100
AcDbEntity
  8
4
  6
CENTER
100
AcDbText
 10
23.97951099999999
 20
10.04873699999998
 30
0.0
 40
1.399999999999999
  1
4
100
AcDbText
  0
TEXT
  5
BA9D
330
BA7F
100
AcDbEntity
  8
3
  6
DASHED
100
AcDbText
 10
21.979511
 20
10.04873699999998
 30
0.0
 40
1.399999999999999
  1
3
100
AcDbText
  0
TEXT
  5
BA9E
330
BA7F
100
AcDbEntity
  8
2
  6
Continuous
100
AcDbText
 10
19.97951099999999
 20
10.04873699999998
 30
0.0
 40
1.399999999999999
  1
2
100
AcDbText
  0
TEXT
  5
BA9F
330
BA7F
100
AcDbEntity
  8
6
  6
Continuous
100
AcDbText
 10
27.979511
 20
10.04873699999998
 30
0.0
 40
1.399999999999999
  1
6
100
AcDbText
  0
TEXT
  5
BAA0
330
BA7F
100
AcDbEntity
  8
5
  6
PHANTOM
100
AcDbText
 10
25.97951099999999
 20
10.04873699999998
 30
0.0
 40
1.399999999999999
  1
5
100
AcDbText
  0
LINE
  5
BAA1
330
BA7F
100
AcDbEntity
  8
1
  6
Continuous
100
AcDbLine
 10
120.7651889999999
 20
145.2168879999998
 30
0.0
 11
131.765189
 21
145.2168879999998
 31
0.0
  0
LINE
  5
BAA2
330
BA7F
100
AcDbEntity
  8
1
  6
Continuous
100
AcDbLine
 10
143.515189
 20
146.1933879999999
 30
0.0
 11
143.515189
 21
150.1668879999998
 31
0.0
  0
LINE
  5
BAA3
330
BA7F
100
AcDbEntity
  8
1
  6
Continuous
100
AcDbLine
 10
135.5151889999999
 20
146.4668879999998
 30
0.0
 11
135.5151889999999
 21
155.7168879999998
 31
0.0
  0
LINE
  5
BAA4
330
BA7F
100
AcDbEntity
  8
1
  6
Continuous
100
AcDbLine
 10
117.0151889999999
 20
148.2168879999998
 30
0.0
 11
117.0151889999999
 21
155.7168879999998
 31
0.0
  0
LINE
  5
BAA5
330
BA7F
100
AcDbEntity
  8
4
  6
CENTER
100
AcDbLine
 10
126.2651889999999
 20
91.49946699999999
 30
0.0
 11
126.2651889999999
 21
160.2168879999998
 31
0.0
  0
LINE
  5
BAA6
330
BA7F
100
AcDbEntity
  8
1
  6
Continuous
100
AcDbLine
 10
118.5151889999999
 20
157.2168879999999
 30
0.0
 11
134.015189
 21
157.2168879999999
 31
0.0
  0
LINE
  5
BAA7
330
BA7F
100
AcDbEntity
  8
1
  6
Continuous
100
AcDbLine
 10
120.465189
 20
197.217288
 30
0.0
 11
132.065189
 21
197.217288
 31
0.0
  0
LINE
  5
BAA8
330
BA7F
100
AcDbEntity
  8
1
  6
Continuous
100
AcDbLine
 10
120.465189
 20
212.7172879999998
 30
0.0
 11
132.065189
 21
212.7172879999998
 31
0.0
  0
LINE
  5
BAA9
330
BA7F
100
AcDbEntity
  8
4
  6
CENTER
100
AcDbLine
 10
95.5
 20
204.967288
 30
0.0
 11
156.699885
 21
204.967288
 31
0.0
  0
LINE
  5
BAAA
330
BA7F
100
AcDbEntity
  8
4
  6
CENTER
100
AcDbLine
 10
219.449885
 20
91.49946699999999
 30
0.0
 11
219.449885
 21
160.216926
 31
0.0
  0
LINE
  5
BAAB
330
BA7F
100
AcDbEntity
  8
1
  6
Continuous
100
AcDbLine
 10
135.5151889999999
 20
200.2172879999998
 30
0.0
 11
135.5151889999999
 21
209.717288
 31
0.0
  0
LINE
  5
BAAC
330
BA7F
100
AcDbEntity
  8
4
  6
CENTER
100
AcDbLine
 10
126.2651889999999
 20
194.217288
 30
0.0
 11
126.2651889999999
 21
215.717288
 31
0.0
  0
LINE
  5
BAAD
330
BA7F
100
AcDbEntity
  8
1
  6
Continuous
100
AcDbLine
 10
117.0151889999999
 20
200.2172879999998
 30
0.0
 11
117.0151889999999
 21
209.717288
 31
0.0
  0
LINE
  5
BAAE
330
BA7F
100
AcDbEntity
  8
1
  6
Continuous
100
AcDbLine
 10
116.994356
 20
148.2168879999998
 30
0.0
 11
120.465189
 21
148.2168879999998
 31
0.0
  0
ARC
  5
BAAF
330
BA7F
100
AcDbEntity
  8
1
  6
Continuous
100
AcDbCircle
 10
118.5151889999999
 20
155.7168879999998
 30
0.0
 40
1.5
100
AcDbArc
 50
90.0
 51
180.0
  0
ARC
  5
BAB0
330
BA7F
100
AcDbEntity
  8
1
  6
Continuous
100
AcDbCircle
 10
134.015189
 20
155.7168879999998
 30
0.0
 40
1.5
100
AcDbArc
 50
0.0
 51
90.0
  0
LINE
  5
BAB1
330
BA7F
100
AcDbEntity
  8
1
  6
Continuous
100
AcDbLine
 10
132.065189
 20
148.2168879999998
 30
0.0
 11
135.5151889999999
 21
148.2168879999998
 31
0.0
  0
LINE
  5
BAB2
330
BA7F
100
AcDbEntity
  8
4
  6
CENTER
100
AcDbLine
 10
110.015189
 20
150.9668879999999
 30
0.0
 11
146.515189
 21
150.9668879999999
 31
0.0
  0
LINE
  5
BAB3
330
BA7F
100
AcDbEntity
  8
1
  6
Continuous
100
AcDbLine
 10
140.5151889999999
 20
151.7668879999999
 30
0.0
 11
143.515189
 21
151.7668879999999
 31
0.0
  0
LINE
  5
BAB4
330
BA7F
100
AcDbEntity
  8
1
  6
Continuous
100
AcDbLine
 10
140.5151889999999
 20
150.1668879999998
 30
0.0
 11
143.515189
 21
150.1668879999998
 31
0.0
  0
LINE
  5
BAB5
330
BA7F
100
AcDbEntity
  8
1
  6
Continuous
100
AcDbLine
 10
140.5151889999999
 20
150.1668879999998
 30
0.0
 11
140.5151889999999
 21
151.7668879999999
 31
0.0
  0
LINE
  5
BAB6
330
BA7F
100
AcDbEntity
  8
1
  6
Continuous
100
AcDbLine
 10
143.515189
 20
151.7668879999999
 30
0.0
 11
143.515189
 21
155.740388
 31
0.0
  0
LINE
  5
BAB7
330
BA7F
100
AcDbEntity
  8
4
  6
CENTER
100
AcDbLine
 10
208.699885
 20
150.966926
 30
0.0
 11
230.1998849999999
 21
150.966926
 31
0.0
  0
LINE
  5
BAB8
330
BA7F
100
AcDbEntity
  8
1
  6
Continuous
100
AcDbLine
 10
214.449885
 20
151.766926
 30
0.0
 11
224.4498849999999
 21
151.766926
 31
0.0
  0
LINE
  5
BAB9
330
BA7F
100
AcDbEntity
  8
1
  6
Continuous
100
AcDbLine
 10
214.449885
 20
150.1669259999999
 30
0.0
 11
224.4498849999999
 21
150.1669259999999
 31
0.0
  0
LINE
  5
BABA
330
BA7F
100
AcDbEntity
  8
1
  6
Continuous
100
AcDbLine
 10
225.699885
 20
148.216926
 30
0.0
 11
225.699885
 21
152.3486139999999
 31
0.0
  0
LINE
  5
BABB
330
BA7F
100
AcDbEntity
  8
1
  6
Continuous
100
AcDbLine
 10
213.199885
 20
148.216926
 30
0.0
 11
213.199885
 21
152.3486139999999
 31
0.0
  0
LINE
  5
BABC
330
BA7F
100
AcDbEntity
  8
1
  6
Continuous
100
AcDbLine
 10
212.782462
 20
148.216926
 30
0.0
 11
214.5521809999999
 21
148.216926
 31
0.0
  0
LINE
  5
BABD
330
BA7F
100
AcDbEntity
  8
1
  6
Continuous
100
AcDbLine
 10
224.347589
 20
148.216926
 30
0.0
 11
226.117308
 21
148.216926
 31
0.0
  0
ARC
  5
BABE
330
BA7F
100
AcDbEntity
  8
1
  6
Continuous
100
AcDbCircle
 10
213.199885
 20
146.716926
 30
0.0
 40
1.5
100
AcDbArc
 50
180.0
 51
260.405932
  0
ARC
  5
BABF
330
BA7F
100
AcDbEntity
  8
1
  6
Continuous
100
AcDbCircle
 10
225.699885
 20
146.716926
 30
0.0
 40
1.5
100
AcDbArc
 50
279.594068
 51
0.0
  0
LINE
  5
BAC0
330
BA7F
100
AcDbEntity
  8
1
  6
Continuous
100
AcDbLine
 10
118.5151889999999
 20
211.217288
 30
0.0
 11
119.265189
 21
211.217288
 31
0.0
  0
LINE
  5
BAC1
330
BA7F
100
AcDbEntity
  8
1
  6
Continuous
100
AcDbLine
 10
118.5151889999999
 20
198.7172879999999
 30
0.0
 11
119.265189
 21
198.7172879999999
 31
0.0
  0
LINE
  5
BAC2
330
BA7F
100
AcDbEntity
  8
1
  6
Continuous
100
AcDbLine
 10
133.2651889999999
 20
211.217288
 30
0.0
 11
134.015189
 21
211.217288
 31
0.0
  0
LINE
  5
BAC3
330
BA7F
100
AcDbEntity
  8
1
  6
Continuous
100
AcDbLine
 10
133.2651889999999
 20
198.7172879999999
 30
0.0
 11
134.015189
 21
198.7172879999999
 31
0.0
  0
LINE
  5
BAC4
330
BA7F
100
AcDbEntity
  8
1
  6
Continuous
100
AcDbLine
 10
226.362189
 20
146.1354419999999
 30
0.0
 11
225.9498849999999
 21
146.1168879999999
 31
0.0
  0
LINE
  5
BAC5
330
BA7F
100
AcDbEntity
  8
1
  6
Continuous
100
AcDbLine
 10
212.5375819999999
 20
146.1354419999999
 30
0.0
 11
212.949885
 21
146.1168879999999
 31
0.0
  0
ARC
  5
BAC6
330
BA7F
100
AcDbEntity
  8
1
  6
Continuous
100
AcDbCircle
 10
134.015189
 20
209.717288
 30
0.0
 40
1.5
100
AcDbArc
 50
0.0
 51
90.0
  0
ARC
  5
BAC7
330
BA7F
100
AcDbEntity
  8
1
  6
Continuous
100
AcDbCircle
 10
118.5151889999999
 20
209.717288
 30
0.0
 40
1.5
100
AcDbArc
 50
90.0
 51
180.0
  0
ARC
  5
BAC8
330
BA7F
100
AcDbEntity
  8
1
  6
Continuous
100
AcDbCircle
 10
118.5151889999999
 20
200.2172879999998
 30
0.0
 40
1.5
100
AcDbArc
 50
180.0
 51
270.0
  0
ARC
  5
BAC9
330
BA7F
100
AcDbEntity
  8
1
  6
Continuous
100
AcDbCircle
 10
134.015189
 20
200.2172879999998
 30
0.0
 40
1.5
100
AcDbArc
 50
270.0
 51
0.0
  0
ARC
  5
BACA
330
BA7F
100
AcDbEntity
  8
1
  6
Continuous
100
AcDbCircle
 10
117.0151889999999
 20
204.967288
 30
0.0
 40
3.0
100
AcDbArc
 50
90.0
 51
270.0
  0
ARC
  5
BACB
330
BA7F
100
AcDbEntity
  8
1
  6
Continuous
100
AcDbCircle
 10
117.004773
 20
151.2168879999999
 30
0.0
 40
3.000017999999998
100
AcDbArc
 50
89.80105700000001
 51
270.1989429999999
  0
LINE
  5
BACC
330
BA7F
100
AcDbEntity
  8
1
  6
Continuous
100
AcDbLine
 10
131.765189
 20
145.2168879999998
 30
0.0
 11
132.065189
 21
148.2168879999998
 31
0.0
  0
LINE
  5
BACD
330
BA7F
100
AcDbEntity
  8
1
  6
Continuous
100
AcDbLine
 10
120.465189
 20
148.2168879999998
 30
0.0
 11
120.7651889999999
 21
145.2168879999998
 31
0.0
  0
ARC
  5
BACE
330
BA7F
100
AcDbEntity
  8
1
  6
Continuous
100
AcDbCircle
 10
126.2651889999999
 20
144.1102209999999
 30
0.0
 40
7.106666999999997
100
AcDbArc
 50
35.30024799999999
 51
144.6997519999999
  0
LINE
  5
BACF
330
BA7F
100
AcDbEntity
  8
1
  6
Continuous
100
AcDbLine
 10
137.5151889999999
 20
145.7168879999999
 30
0.0
 11
137.5151889999999
 21
156.2168879999999
 31
0.0
  0
ARC
  5
BAD0
330
BA7F
100
AcDbEntity
  8
1
  6
Continuous
100
AcDbCircle
 10
142.5151889999999
 20
155.740388
 30
0.0
 40
1.0
100
AcDbArc
 50
0.0
 51
28.45706
  0
ARC
  5
BAD1
330
BA7F
100
AcDbEntity
  8
1
  6
Continuous
100
AcDbCircle
 10
142.5151889999999
 20
146.1933879999999
 30
0.0
 40
1.0
100
AcDbArc
 50
331.5429399999998
 51
0.0
  0
LINE
  5
BAD2
330
BA7F
100
AcDbEntity
  8
1
  6
Continuous
100
AcDbLine
 10
139.488535
 20
153.2168879999999
 30
0.0
 11
141.7151889999999
 21
153.2168879999999
 31
0.0
  0
LINE
  5
BAD3
330
BA7F
100
AcDbEntity
  8
1
  6
Continuous
100
AcDbLine
 10
139.488535
 20
148.7168879999998
 30
0.0
 11
141.7151889999999
 21
148.7168879999998
 31
0.0
  0
ARC
  5
BAD4
330
BA7F
100
AcDbEntity
  8
1
  6
Continuous
100
AcDbCircle
 10
140.601862
 20
154.617256
 30
0.0
 40
6.004484999999997
100
AcDbArc
 50
239.065273
 51
259.3146159999998
  0
ARC
  5
BAD5
330
BA7F
100
AcDbEntity
  8
1
  6
Continuous
100
AcDbCircle
 10
140.601862
 20
147.3165199999999
 30
0.0
 40
6.004484999999997
100
AcDbArc
 50
60.974955
 51
79.314616
  0
ARC
  5
BAD6
330
BA7F
100
AcDbEntity
  8
1
  6
Continuous
100
AcDbCircle
 10
140.601862
 20
147.3165199999999
 30
0.0
 40
6.004484999999997
100
AcDbArc
 50
100.6853839999999
 51
120.934727
  0
ARC
  5
BAD7
330
BA7F
100
AcDbEntity
  8
1
  6
Continuous
100
AcDbCircle
 10
140.601862
 20
154.617256
 30
0.0
 40
6.004484999999997
100
AcDbArc
 50
280.685384
 51
299.0250449999999
  0
LINE
  5
BAD8
330
BA7F
100
AcDbEntity
  8
1
  6
Continuous
100
AcDbLine
 10
139.488535
 20
154.516888
 30
0.0
 11
141.7151889999999
 21
154.516888
 31
0.0
  0
LINE
  5
BAD9
330
BA7F
100
AcDbEntity
  8
1
  6
Continuous
100
AcDbLine
 10
139.488535
 20
147.416888
 30
0.0
 11
141.7151889999999
 21
147.416888
 31
0.0
  0
ARC
  5
BADA
330
BA7F
100
AcDbEntity
  8
1
  6
Continuous
100
AcDbCircle
 10
140.601862
 20
160.417256
 30
0.0
 40
6.004484999999997
100
AcDbArc
 50
239.065273
 51
259.3146159999998
  0
ARC
  5
BADB
330
BA7F
100
AcDbEntity
  8
1
  6
Continuous
100
AcDbCircle
 10
140.601862
 20
141.5165199999998
 30
0.0
 40
6.004484999999997
100
AcDbArc
 50
60.974955
 51
79.314616
  0
ARC
  5
BADC
330
BA7F
100
AcDbEntity
  8
1
  6
Continuous
100
AcDbCircle
 10
140.601862
 20
141.5165199999998
 30
0.0
 40
6.004484999999997
100
AcDbArc
 50
100.6853839999999
 51
120.934727
  0
ARC
  5
BADD
330
BA7F
100
AcDbEntity
  8
1
  6
Continuous
100
AcDbCircle
 10
140.601862
 20
160.417256
 30
0.0
 40
6.004484999999997
100
AcDbArc
 50
280.685384
 51
299.0250449999999
  0
LINE
  5
BADE
330
BA7F
100
AcDbEntity
  8
1
  6
Continuous
100
AcDbLine
 10
135.5151889999999
 20
155.4668879999999
 30
0.0
 11
137.5151889999999
 21
155.4668879999999
 31
0.0
  0
LINE
  5
BADF
330
BA7F
100
AcDbEntity
  8
1
  6
Continuous
100
AcDbLine
 10
135.5151889999999
 20
146.4668879999998
 30
0.0
 11
137.5151889999999
 21
146.4668879999998
 31
0.0
  0
ARC
  5
BAE0
330
BA7F
100
AcDbEntity
  8
1
  6
Continuous
100
AcDbCircle
 10
140.454777
 20
152.191081
 30
0.0
 40
7.110299
100
AcDbArc
 50
245.5797249999998
 51
254.238518
  0
ARC
  5
BAE1
330
BA7F
100
AcDbEntity
  8
1
  6
Continuous
100
AcDbCircle
 10
140.454777
 20
149.7426949999999
 30
0.0
 40
7.110299
100
AcDbArc
 50
65.57972499999999
 51
74.24076499999998
  0
ARC
  5
BAE2
330
BA7F
100
AcDbEntity
  8
1
  6
Continuous
100
AcDbCircle
 10
140.454777
 20
149.7426949999999
 30
0.0
 40
7.110299
100
AcDbArc
 50
105.7592349999999
 51
114.420275
  0
ARC
  5
BAE3
330
BA7F
100
AcDbEntity
  8
1
  6
Continuous
100
AcDbCircle
 10
140.454777
 20
152.191081
 30
0.0
 40
7.110299
100
AcDbArc
 50
285.761482
 51
294.420275
  0
LINE
  5
BAE4
330
BA7F
100
AcDbEntity
  8
1
  6
Continuous
100
AcDbLine
 10
135.5151889999999
 20
209.467288
 30
0.0
 11
137.5151889999999
 21
209.467288
 31
0.0
  0
LINE
  5
BAE5
330
BA7F
100
AcDbEntity
  8
1
  6
Continuous
100
AcDbLine
 10
135.5151889999999
 20
200.467288
 30
0.0
 11
137.5151889999999
 21
200.467288
 31
0.0
  0
LINE
  5
BAE6
330
BA7F
100
AcDbEntity
  8
1
  6
Continuous
100
AcDbLine
 10
137.5151889999999
 20
199.967288
 30
0.0
 11
137.5151889999999
 21
209.9672879999999
 31
0.0
  0
LINE
  5
BAE7
330
BA7F
100
AcDbEntity
  8
1
  6
Continuous
100
AcDbLine
 10
137.5151889999999
 20
209.9672879999999
 30
0.0
 11
142.5151889999999
 21
209.9672879999999
 31
0.0
  0
LINE
  5
BAE8
330
BA7F
100
AcDbEntity
  8
1
  6
Continuous
100
AcDbLine
 10
137.5151889999999
 20
199.967288
 30
0.0
 11
142.5151889999999
 21
199.967288
 31
0.0
  0
LINE
  5
BAE9
330
BA7F
100
AcDbEntity
  8
1
  6
Continuous
100
AcDbLine
 10
143.515189
 20
200.967288
 30
0.0
 11
143.515189
 21
208.967288
 31
0.0
  0
LINE
  5
BAEA
330
BA7F
100
AcDbEntity
  8
1
  6
Continuous
100
AcDbLine
 10
139.75432
 20
205.467288
 30
0.0
 11
141.7151889999999
 21
205.467288
 31
0.0
  0
LINE
  5
BAEB
330
BA7F
100
AcDbEntity
  8
1
  6
Continuous
100
AcDbLine
 10
139.75432
 20
204.4672879999999
 30
0.0
 11
141.7151889999999
 21
204.4672879999999
 31
0.0
  0
ARC
  5
BAEC
330
BA7F
100
AcDbEntity
  8
1
  6
Continuous
100
AcDbCircle
 10
140.734755
 20
209.3520709999999
 30
0.0
 40
4.006592999999998
100
AcDbArc
 50
216.5279299999999
 51
255.8355779999999
  0
ARC
  5
BAED
330
BA7F
100
AcDbEntity
  8
1
  6
Continuous
100
AcDbCircle
 10
140.734755
 20
200.5825049999998
 30
0.0
 40
4.006592999999998
100
AcDbArc
 50
46.05521399999997
 51
75.835578
  0
ARC
  5
BAEE
330
BA7F
100
AcDbEntity
  8
1
  6
Continuous
100
AcDbCircle
 10
140.734755
 20
209.3520709999999
 30
0.0
 40
4.006592999999998
100
AcDbArc
 50
284.164422
 51
313.9447859999999
  0
ARC
  5
BAEF
330
BA7F
100
AcDbEntity
  8
1
  6
Continuous
100
AcDbCircle
 10
140.734755
 20
200.5825049999998
 30
0.0
 40
4.006592999999998
100
AcDbArc
 50
104.164422
 51
143.4720699999998
  0
ARC
  5
BAF0
330
BA7F
100
AcDbEntity
  8
1
  6
Continuous
100
AcDbCircle
 10
142.5151889999999
 20
208.967288
 30
0.0
 40
1.0
100
AcDbArc
 50
0.0
 51
90.0
  0
ARC
  5
BAF1
330
BA7F
100
AcDbEntity
  8
1
  6
Continuous
100
AcDbCircle
 10
142.5151889999999
 20
200.967288
 30
0.0
 40
1.0
100
AcDbArc
 50
270.0
 51
0.0
  0
ARC
  5
BAF2
330
BA7F
100
AcDbEntity
  8
1
  6
Continuous
100
AcDbCircle
 10
140.879513
 20
204.15713
 30
0.0
 40
5.869947999999999
100
AcDbArc
 50
64.77410899999999
 51
81.81526300000001
  0
ARC
  5
BAF3
330
BA7F
100
AcDbEntity
  8
1
  6
Continuous
100
AcDbCircle
 10
140.879513
 20
205.777446
 30
0.0
 40
5.869947999999999
100
AcDbArc
 50
235.030267
 51
261.815263
  0
ARC
  5
BAF4
330
BA7F
100
AcDbEntity
  8
1
  6
Continuous
100
AcDbCircle
 10
140.879513
 20
204.15713
 30
0.0
 40
5.869947999999999
100
AcDbArc
 50
98.184737
 51
124.969733
  0
ARC
  5
BAF5
330
BA7F
100
AcDbEntity
  8
1
  6
Continuous
100
AcDbCircle
 10
140.879513
 20
205.777446
 30
0.0
 40
5.869947999999999
100
AcDbArc
 50
278.1847369999999
 51
295.225891
  0
ARC
  5
BAF6
330
BA7F
100
AcDbEntity
  8
1
  6
Continuous
100
AcDbCircle
 10
219.449885
 20
150.966926
 30
0.0
 40
4.5
100
AcDbArc
 50
190.240348
 51
349.759652
  0
ARC
  5
BAF7
330
BA7F
100
AcDbEntity
  8
1
  6
Continuous
100
AcDbCircle
 10
219.449885
 20
150.966926
 30
0.0
 40
4.5
100
AcDbArc
 50
10.24034799999999
 51
169.7596519999999
  0
LINE
  5
BAF8
330
BA7F
100
AcDbEntity
  8
1
  6
Continuous
100
AcDbLine
 10
227.199885
 20
146.716926
 30
0.0
 11
226.5910349999999
 21
151.8921499999999
 31
0.0
  0
LINE
  5
BAF9
330
BA7F
100
AcDbEntity
  8
1
  6
Continuous
100
AcDbLine
 10
211.6998849999999
 20
146.716926
 30
0.0
 11
212.308735
 21
151.8921499999999
 31
0.0
  0
LINE
  5
BAFA
330
BA7F
100
AcDbEntity
  8
1
  6
Continuous
100
AcDbLine
 10
212.5375819999999
 20
146.1354419999999
 30
0.0
 11
212.782462
 21
148.216926
 31
0.0
  0
LINE
  5
BAFB
330
BA7F
100
AcDbEntity
  8
1
  6
Continuous
100
AcDbLine
 10
226.362189
 20
146.1354419999999
 30
0.0
 11
226.117308
 21
148.216926
 31
0.0
  0
LINE
  5
BAFC
330
BA7F
100
AcDbEntity
  8
1
  6
Continuous
100
AcDbLine
 10
142.3859019999999
 20
156.5857279999999
 30
0.0
 11
138.523651
 21
156.5857279999999
 31
0.0
  0
LINE
  5
BAFD
330
BA7F
100
AcDbEntity
  8
1
  6
Continuous
100
AcDbLine
 10
142.3861709999999
 20
145.348124
 30
0.0
 11
138.523382
 21
145.348124
 31
0.0
  0
ARC
  5
BAFE
330
BA7F
100
AcDbEntity
  8
1
  6
Continuous
100
AcDbCircle
 10
219.449885
 20
150.7708049999999
 30
0.0
 40
6.446082999999998
100
AcDbArc
 50
14.168254
 51
165.831746
  0
ARC
  5
BAFF
330
BA7F
100
AcDbEntity
  8
1
  6
Continuous
100
AcDbCircle
 10
213.7984609999998
 20
151.7168879999998
 30
0.0
 40
1.5
100
AcDbArc
 50
102.599855
 51
173.2901629999998
  0
ARC
  5
BB00
330
BA7F
100
AcDbEntity
  8
1
  6
Continuous
100
AcDbCircle
 10
225.1013089999999
 20
151.7168879999998
 30
0.0
 40
1.5
100
AcDbArc
 50
6.709836999999998
 51
77.40014499999998
  0
LINE
  5
BB01
330
BA7F
100
AcDbEntity
  8
1
  6
Continuous
100
AcDbLine
 10
212.949885
 20
147.361926
 30
0.0
 11
215.6939279999999
 21
147.361926
 31
0.0
  0
LINE
  5
BB02
330
BA7F
100
AcDbEntity
  8
1
  6
Continuous
100
AcDbLine
 10
225.9498849999999
 20
96.499467
 30
0.0
 11
225.9498849999999
 21
147.361926
 31
0.0
  0
LINE
  5
BB03
330
BA7F
100
AcDbEntity
  8
1
  6
Continuous
100
AcDbLine
 10
212.949885
 20
96.499467
 30
0.0
 11
212.949885
 21
147.361926
 31
0.0
  0
LINE
  5
BB04
330
BA7F
100
AcDbEntity
  8
1
  6
Continuous
100
AcDbLine
 10
223.2058419999999
 20
147.361926
 30
0.0
 11
225.9498849999999
 21
147.361926
 31
0.0
  0
LINE
  5
BB05
330
BA7F
100
AcDbEntity
  8
1
  6
Continuous
100
AcDbLine
 10
100.5
 20
211.467288
 30
0.0
 11
119.465189
 21
211.467288
 31
0.0
  0
LINE
  5
BB06
330
BA7F
100
AcDbEntity
  8
1
  6
Continuous
100
AcDbLine
 10
100.5
 20
198.4672879999999
 30
0.0
 11
119.465189
 21
198.4672879999999
 31
0.0
  0
ARC
  5
BB07
330
BA7F
100
AcDbEntity
  8
1
  6
Continuous
100
AcDbCircle
 10
222.2998849999999
 20
142.861926
 30
0.0
 40
0.3
100
AcDbArc
 50
257.981988
 51
90.0
  0
LINE
  5
BB08
330
BA7F
100
AcDbEntity
  8
1
  6
Continuous
100
AcDbLine
 10
219.449885
 20
143.7619259999999
 30
0.0
 11
222.2998849999999
 21
143.1619259999999
 31
0.0
  0
LINE
  5
BB09
330
BA7F
100
AcDbEntity
  8
1
  6
Continuous
100
AcDbLine
 10
222.237419
 20
142.568501
 30
0.0
 11
216.599885
 21
143.1619259999999
 31
0.0
  0
ARC
  5
BB0A
330
BA7F
100
AcDbEntity
  8
1
  6
Continuous
100
AcDbCircle
 10
216.599885
 20
143.461926
 30
0.0
 40
0.3
100
AcDbArc
 50
90.0
 51
270.0
  0
LINE
  5
BB0B
330
BA7F
100
AcDbEntity
  8
1
  6
Continuous
100
AcDbLine
 10
216.599885
 20
143.7619259999999
 30
0.0
 11
219.449885
 21
143.7619259999999
 31
0.0
  0
LINE
  5
BB0C
330
BA7F
100
AcDbEntity
  8
1
  6
Continuous
100
AcDbLine
 10
222.237419
 20
144.968501
 30
0.0
 11
216.599885
 21
145.5619259999998
 31
0.0
  0
ARC
  5
BB0D
330
BA7F
100
AcDbEntity
  8
1
  6
Continuous
100
AcDbCircle
 10
222.2998849999999
 20
145.2619259999998
 30
0.0
 40
0.3
100
AcDbArc
 50
257.981988
 51
90.0
  0
LINE
  5
BB0E
330
BA7F
100
AcDbEntity
  8
1
  6
Continuous
100
AcDbLine
 10
220.679142
 20
145.9031349999999
 30
0.0
 11
222.2998849999999
 21
145.5619259999998
 31
0.0
  0
LINE
  5
BB0F
330
BA7F
100
AcDbEntity
  8
1
  6
Continuous
100
AcDbLine
 10
216.599885
 20
146.1619259999999
 30
0.0
 11
217.772389
 21
146.1619259999999
 31
0.0
  0
ARC
  5
BB10
330
BA7F
100
AcDbEntity
  8
1
  6
Continuous
100
AcDbCircle
 10
216.599885
 20
145.861926
 30
0.0
 40
0.3
100
AcDbArc
 50
90.0
 51
270.0
  0
LINE
  5
BB11
330
BA7F
100
AcDbEntity
  8
1
  6
Continuous
100
AcDbLine
 10
133.065189
 20
211.467288
 30
0.0
 11
151.699885
 21
211.467288
 31
0.0
  0
LINE
  5
BB12
330
BA7F
100
AcDbEntity
  8
1
  6
Continuous
100
AcDbLine
 10
133.065189
 20
198.4672879999999
 30
0.0
 11
151.699885
 21
198.4672879999999
 31
0.0
  0
LINE
  5
BB13
330
BA7F
100
AcDbEntity
  8
4
  6
CENTER
100
AcDbLine
 10
22.0
 20
150.966926
 30
0.0
 11
43.5
 21
150.966926
 31
0.0
  0
LINE
  5
BB14
330
BA7F
100
AcDbEntity
  8
4
  6
CENTER
100
AcDbLine
 10
32.75
 20
91.49946699999999
 30
0.0
 11
32.75
 21
160.216926
 31
0.0
  0
ARC
  5
BB15
330
BA7F
100
AcDbEntity
  8
1
  6
Continuous
100
AcDbCircle
 10
32.75
 20
150.7708049999999
 30
0.0
 40
6.446082999999998
100
AcDbArc
 50
14.168254
 51
165.831746
  0
LINE
  5
BB16
330
BA7F
100
AcDbEntity
  8
1
  6
Continuous
100
AcDbLine
 10
39.25
 20
96.499467
 30
0.0
 11
39.25
 21
147.361926
 31
0.0
  0
LINE
  5
BB17
330
BA7F
100
AcDbEntity
  8
1
  6
Continuous
100
AcDbLine
 10
26.25
 20
96.499467
 30
0.0
 11
26.25
 21
147.361926
 31
0.0
  0
ARC
  5
BB18
330
BA7F
100
AcDbEntity
  8
1
  6
Continuous
100
AcDbCircle
 10
26.5
 20
146.716926
 30
0.0
 40
1.5
100
AcDbArc
 50
180.0
 51
260.405932
  0
LINE
  5
BB19
330
BA7F
100
AcDbEntity
  8
1
  6
Continuous
100
AcDbLine
 10
25.0
 20
146.716926
 30
0.0
 11
25.60885
 21
151.8921499999999
 31
0.0
  0
ARC
  5
BB1A
330
BA7F
100
AcDbEntity
  8
1
  6
Continuous
100
AcDbCircle
 10
27.098576
 20
151.7168879999998
 30
0.0
 40
1.5
100
AcDbArc
 50
102.599855
 51
173.2901629999998
  0
LINE
  5
BB1B
330
BA7F
100
AcDbEntity
  8
1
  6
Continuous
100
AcDbLine
 10
39.0
 20
148.216926
 30
0.0
 11
39.0
 21
152.3486139999999
 31
0.0
  0
LINE
  5
BB1C
330
BA7F
100
AcDbEntity
  8
1
  6
Continuous
100
AcDbLine
 10
37.68761400000001
 20
148.216926
 30
0.0
 11
39.41742299999999
 21
148.216926
 31
0.0
  0
ARC
  5
BB1D
330
BA7F
100
AcDbEntity
  8
1
  6
Continuous
100
AcDbCircle
 10
39.0
 20
146.716926
 30
0.0
 40
1.5
100
AcDbArc
 50
279.594068
 51
0.0
  0
LINE
  5
BB1E
330
BA7F
100
AcDbEntity
  8
1
  6
Continuous
100
AcDbLine
 10
39.662304
 20
146.1354419999999
 30
0.0
 11
39.25
 21
146.1168879999999
 31
0.0
  0
LINE
  5
BB1F
330
BA7F
100
AcDbEntity
  8
1
  6
Continuous
100
AcDbLine
 10
40.49999999999999
 20
146.716926
 30
0.0
 11
39.89115
 21
151.8921499999999
 31
0.0
  0
LINE
  5
BB20
330
BA7F
100
AcDbEntity
  8
1
  6
Continuous
100
AcDbLine
 10
39.662304
 20
146.1354419999999
 30
0.0
 11
39.41742299999999
 21
148.216926
 31
0.0
  0
ARC
  5
BB21
330
BA7F
100
AcDbEntity
  8
1
  6
Continuous
100
AcDbCircle
 10
38.40142399999999
 20
151.7168879999998
 30
0.0
 40
1.5
100
AcDbArc
 50
6.709836999999998
 51
77.40014499999998
  0
LINE
  5
BB22
330
BA7F
100
AcDbEntity
  8
1
  6
Continuous
100
AcDbLine
 10
26.5
 20
148.216926
 30
0.0
 11
26.5
 21
152.3486139999999
 31
0.0
  0
LINE
  5
BB23
330
BA7F
100
AcDbEntity
  8
1
  6
Continuous
100
AcDbLine
 10
25.837696
 20
146.1354419999999
 30
0.0
 11
26.25
 21
146.1168879999999
 31
0.0
  0
LINE
  5
BB24
330
BA7F
100
AcDbEntity
  8
1
  6
Continuous
100
AcDbLine
 10
25.837696
 20
146.1354419999999
 30
0.0
 11
26.082577
 21
148.216926
 31
0.0
  0
LINE
  5
BB25
330
BA7F
100
AcDbEntity
  8
1
  6
Continuous
100
AcDbLine
 10
26.082577
 20
148.216926
 30
0.0
 11
27.812386
 21
148.216926
 31
0.0
  0
LINE
  5
BB26
330
BA7F
100
AcDbEntity
  8
1
  6
Continuous
100
AcDbLine
 10
26.25
 20
147.361926
 30
0.0
 11
39.25
 21
147.361926
 31
0.0
  0
CIRCLE
  5
BB27
330
BA7F
100
AcDbEntity
  8
1
  6
Continuous
100
AcDbCircle
 10
32.75
 20
151.2168879999999
 30
0.0
 40
3.0
  0
LINE
  5
BB28
330
BA7F
100
AcDbEntity
  8
1
  6
Continuous
100
AcDbLine
 10
29.76504099999999
 20
151.516926
 30
0.0
 11
28.74612899999998
 21
148.8589799999998
 31
0.0
  0
LINE
  5
BB29
330
BA7F
100
AcDbEntity
  8
1
  6
Continuous
100
AcDbLine
 10
35.73495900000001
 20
151.516926
 30
0.0
 11
36.753871
 21
148.8589799999998
 31
0.0
  0
ARC
  5
BB2A
330
BA7F
100
AcDbEntity
  8
1
  6
Continuous
100
AcDbCircle
 10
37.68761400000001
 20
149.216926
 30
0.0
 40
1.0
100
AcDbArc
 50
200.9741219999999
 51
270.0
  0
ARC
  5
BB2B
330
BA7F
100
AcDbEntity
  8
1
  6
Continuous
100
AcDbCircle
 10
27.812386
 20
149.216926
 30
0.0
 40
1.0
100
AcDbArc
 50
270.0
 51
339.0258779999999
  0
LINE
  5
BB2C
330
BA7F
100
AcDbEntity
  8
4
  6
CENTER
100
AcDbLine
 10
126.2651889999999
 20
38.0
 30
0.0
 11
126.2651889999999
 21
59.5
 31
0.0
  0
LINE
  5
BB2D
330
BA7F
100
AcDbEntity
  8
1
  6
Continuous
100
AcDbLine
 10
100.4997039999999
 20
42.25
 30
0.0
 11
151.699589
 21
42.25
 31
0.0
  0
LINE
  5
BB2E
330
BA7F
100
AcDbEntity
  8
1
  6
Continuous
100
AcDbLine
 10
120.465189
 20
41.0
 30
0.0
 11
132.065189
 21
41.0
 31
0.0
  0
LINE
  5
BB2F
330
BA7F
100
AcDbEntity
  8
1
  6
Continuous
100
AcDbLine
 10
100.4997039999999
 20
55.25
 30
0.0
 11
151.699589
 21
55.25
 31
0.0
  0
LINE
  5
BB30
330
BA7F
100
AcDbEntity
  8
4
  6
CENTER
100
AcDbLine
 10
95.49970399999999
 20
48.75
 30
0.0
 11
156.699589
 21
48.75
 31
0.0
  0
LINE
  5
BB31
330
BA7F
100
AcDbEntity
  8
1
  6
Continuous
100
AcDbLine
 10
120.465189
 20
56.5
 30
0.0
 11
132.065189
 21
56.5
 31
0.0
  0
LINE
  5
BB32
330
BA7F
100
AcDbEntity
  8
1
  6
Continuous
100
AcDbLine
 10
116.126037
 20
48.90618299999999
 30
0.0
 11
116.126037
 21
51.6
 31
0.0
  0
ARC
  5
BB33
330
BA7F
100
AcDbEntity
  8
1
  6
Continuous
100
AcDbCircle
 10
115.826037
 20
51.6
 30
0.0
 40
0.3
100
AcDbArc
 50
0.0
 51
180.0
  0
ARC
  5
BB34
330
BA7F
100
AcDbEntity
  8
1
  6
Continuous
100
AcDbCircle
 10
115.226037
 20
45.89999999999998
 30
0.0
 40
0.3
100
AcDbArc
 50
180.0
 51
0.0
  0
LINE
  5
BB35
330
BA7F
100
AcDbEntity
  8
1
  6
Continuous
100
AcDbLine
 10
116.093862
 20
48.59716699999999
 30
0.0
 11
115.526037
 21
45.89999999999998
 31
0.0
  0
LINE
  5
BB36
330
BA7F
100
AcDbEntity
  8
1
  6
Continuous
100
AcDbLine
 10
115.526037
 20
51.6
 30
0.0
 11
114.9260369999999
 21
45.89999999999998
 31
0.0
  0
ARC
  5
BB37
330
BA7F
100
AcDbEntity
  8
1
  6
Continuous
100
AcDbCircle
 10
114.626037
 20
48.90618299999999
 30
0.0
 40
1.5
100
AcDbArc
 50
348.1113419999999
 51
0.0
  0
LINE
  5
BB38
330
BA7F
100
AcDbEntity
  8
1
  6
Continuous
100
AcDbLine
 10
118.526037
 20
48.90618299999999
 30
0.0
 11
118.526037
 21
51.6
 31
0.0
  0
LINE
  5
BB39
330
BA7F
100
AcDbEntity
  8
1
  6
Continuous
100
AcDbLine
 10
117.9260369999999
 20
51.6
 30
0.0
 11
117.326037
 21
45.89999999999998
 31
0.0
  0
ARC
  5
BB3A
330
BA7F
100
AcDbEntity
  8
1
  6
Continuous
100
AcDbCircle
 10
118.226037
 20
51.6
 30
0.0
 40
0.3
100
AcDbArc
 50
0.0
 51
180.0
  0
LINE
  5
BB3B
330
BA7F
100
AcDbEntity
  8
1
  6
Continuous
100
AcDbLine
 10
118.493862
 20
48.59716699999999
 30
0.0
 11
117.9260369999999
 21
45.89999999999998
 31
0.0
  0
ARC
  5
BB3C
330
BA7F
100
AcDbEntity
  8
1
  6
Continuous
100
AcDbCircle
 10
117.026037
 20
48.90618299999999
 30
0.0
 40
1.5
100
AcDbArc
 50
348.1113419999999
 51
0.0
  0
ARC
  5
BB3D
330
BA7F
100
AcDbEntity
  8
1
  6
Continuous
100
AcDbCircle
 10
117.626037
 20
45.89999999999998
 30
0.0
 40
0.3
100
AcDbArc
 50
180.0
 51
0.0
  0
ARC
  5
BB3E
330
BA7F
100
AcDbEntity
  8
1
  6
Continuous
100
AcDbCircle
 10
120.026037
 20
45.89999999999998
 30
0.0
 40
0.3
100
AcDbArc
 50
180.0
 51
0.0
  0
ARC
  5
BB3F
330
BA7F
100
AcDbEntity
  8
1
  6
Continuous
100
AcDbCircle
 10
119.426037
 20
48.90618299999999
 30
0.0
 40
1.5
100
AcDbArc
 50
348.1113419999999
 51
0.0
  0
LINE
  5
BB40
330
BA7F
100
AcDbEntity
  8
1
  6
Continuous
100
AcDbLine
 10
120.893862
 20
48.59716699999999
 30
0.0
 11
120.326037
 21
45.89999999999998
 31
0.0
  0
LINE
  5
BB41
330
BA7F
100
AcDbEntity
  8
1
  6
Continuous
100
AcDbLine
 10
120.326037
 20
51.6
 30
0.0
 11
119.726037
 21
45.89999999999998
 31
0.0
  0
ARC
  5
BB42
330
BA7F
100
AcDbEntity
  8
1
  6
Continuous
100
AcDbCircle
 10
120.626037
 20
51.6
 30
0.0
 40
0.3
100
AcDbArc
 50
0.0
 51
180.0
  0
LINE
  5
BB43
330
BA7F
100
AcDbEntity
  8
1
  6
Continuous
100
AcDbLine
 10
120.9260369999999
 20
48.90618299999999
 30
0.0
 11
120.9260369999999
 21
51.6
 31
0.0
  0
ARC
  5
BB44
330
BA7F
100
AcDbEntity
  8
1
  6
Continuous
100
AcDbCircle
 10
122.4260369999999
 20
45.89999999999998
 30
0.0
 40
0.3
100
AcDbArc
 50
180.0
 51
0.0
  0
ARC
  5
BB45
330
BA7F
100
AcDbEntity
  8
1
  6
Continuous
100
AcDbCircle
 10
121.826037
 20
48.90618299999999
 30
0.0
 40
1.5
100
AcDbArc
 50
348.1113419999999
 51
0.0
  0
LINE
  5
BB46
330
BA7F
100
AcDbEntity
  8
1
  6
Continuous
100
AcDbLine
 10
123.293862
 20
48.59716699999999
 30
0.0
 11
122.7260369999999
 21
45.89999999999998
 31
0.0
  0
LINE
  5
BB47
330
BA7F
100
AcDbEntity
  8
1
  6
Continuous
100
AcDbLine
 10
122.7260369999999
 20
51.6
 30
0.0
 11
122.126037
 21
45.89999999999998
 31
0.0
  0
ARC
  5
BB48
330
BA7F
100
AcDbEntity
  8
1
  6
Continuous
100
AcDbCircle
 10
123.026037
 20
51.6
 30
0.0
 40
0.3
100
AcDbArc
 50
0.0
 51
180.0
  0
LINE
  5
BB49
330
BA7F
100
AcDbEntity
  8
1
  6
Continuous
100
AcDbLine
 10
123.326037
 20
48.90618299999999
 30
0.0
 11
123.326037
 21
51.6
 31
0.0
  0
LINE
  5
BB4A
330
BA7F
100
AcDbEntity
  8
1
  6
Continuous
100
AcDbLine
 10
125.126037
 20
51.6
 30
0.0
 11
124.526037
 21
45.89999999999998
 31
0.0
  0
LINE
  5
BB4B
330
BA7F
100
AcDbEntity
  8
1
  6
Continuous
100
AcDbLine
 10
125.693862
 20
48.59716699999999
 30
0.0
 11
125.126037
 21
45.89999999999998
 31
0.0
  0
ARC
  5
BB4C
330
BA7F
100
AcDbEntity
  8
1
  6
Continuous
100
AcDbCircle
 10
124.226037
 20
48.90618299999999
 30
0.0
 40
1.5
100
AcDbArc
 50
348.1113419999999
 51
0.0
  0
ARC
  5
BB4D
330
BA7F
100
AcDbEntity
  8
1
  6
Continuous
100
AcDbCircle
 10
124.826037
 20
45.89999999999998
 30
0.0
 40
0.3
100
AcDbArc
 50
180.0
 51
0.0
  0
LINE
  5
BB4E
330
BA7F
100
AcDbEntity
  8
1
  6
Continuous
100
AcDbLine
 10
125.726037
 20
48.90618299999999
 30
0.0
 11
125.726037
 21
51.6
 31
0.0
  0
ARC
  5
BB4F
330
BA7F
100
AcDbEntity
  8
1
  6
Continuous
100
AcDbCircle
 10
125.4260369999999
 20
51.6
 30
0.0
 40
0.3
100
AcDbArc
 50
0.0
 51
180.0
  0
LINE
  5
BB50
330
BA7F
100
AcDbEntity
  8
1
  6
Continuous
100
AcDbLine
 10
33.040523
 20
123.36361
 30
0.0
 11
35.6
 21
123.36361
 31
0.0
  0
ARC
  5
BB51
330
BA7F
100
AcDbEntity
  8
1
  6
Continuous
100
AcDbCircle
 10
35.6
 20
123.66361
 30
0.0
 40
0.3
100
AcDbArc
 50
270.0
 51
90.0
  0
ARC
  5
BB52
330
BA7F
100
AcDbEntity
  8
1
  6
Continuous
100
AcDbCircle
 10
29.9
 20
124.26361
 30
0.0
 40
0.3
100
AcDbArc
 50
90.0
 51
270.0
  0
LINE
  5
BB53
330
BA7F
100
AcDbEntity
  8
1
  6
Continuous
100
AcDbLine
 10
29.9
 20
123.96361
 30
0.0
 11
32.745554
 21
123.392899
 31
0.0
  0
LINE
  5
BB54
330
BA7F
100
AcDbEntity
  8
1
  6
Continuous
100
AcDbLine
 10
35.6
 20
123.96361
 30
0.0
 11
29.9
 21
124.56361
 31
0.0
  0
ARC
  5
BB55
330
BA7F
100
AcDbEntity
  8
1
  6
Continuous
100
AcDbCircle
 10
33.040523
 20
124.8636099999999
 30
0.0
 40
1.5
100
AcDbArc
 50
258.6590749999999
 51
270.0
  0
LINE
  5
BB56
330
BA7F
100
AcDbEntity
  8
1
  6
Continuous
100
AcDbLine
 10
35.6
 20
126.36361
 30
0.0
 11
29.9
 21
126.96361
 31
0.0
  0
ARC
  5
BB57
330
BA7F
100
AcDbEntity
  8
1
  6
Continuous
100
AcDbCircle
 10
35.6
 20
126.06361
 30
0.0
 40
0.3
100
AcDbArc
 50
270.0
 51
90.0
  0
LINE
  5
BB58
330
BA7F
100
AcDbEntity
  8
1
  6
Continuous
100
AcDbLine
 10
33.040523
 20
125.76361
 30
0.0
 11
35.6
 21
125.76361
 31
0.0
  0
ARC
  5
BB59
330
BA7F
100
AcDbEntity
  8
1
  6
Continuous
100
AcDbCircle
 10
33.040523
 20
127.26361
 30
0.0
 40
1.5
100
AcDbArc
 50
258.6590749999999
 51
270.0
  0
LINE
  5
BB5A
330
BA7F
100
AcDbEntity
  8
1
  6
Continuous
100
AcDbLine
 10
29.9
 20
126.36361
 30
0.0
 11
32.745554
 21
125.792899
 31
0.0
  0
ARC
  5
BB5B
330
BA7F
100
AcDbEntity
  8
1
  6
Continuous
100
AcDbCircle
 10
29.9
 20
126.66361
 30
0.0
 40
0.3
100
AcDbArc
 50
90.0
 51
270.0
  0
LINE
  5
BB5C
330
BA7F
100
AcDbEntity
  8
1
  6
Continuous
100
AcDbLine
 10
33.040523
 20
128.16361
 30
0.0
 11
35.6
 21
128.16361
 31
0.0
  0
ARC
  5
BB5D
330
BA7F
100
AcDbEntity
  8
1
  6
Continuous
100
AcDbCircle
 10
35.6
 20
128.4636099999999
 30
0.0
 40
0.3
100
AcDbArc
 50
270.0
 51
90.0
  0
LINE
  5
BB5E
330
BA7F
100
AcDbEntity
  8
1
  6
Continuous
100
AcDbLine
 10
35.6
 20
128.76361
 30
0.0
 11
29.9
 21
129.36361
 31
0.0
  0
LINE
  5
BB5F
330
BA7F
100
AcDbEntity
  8
1
  6
Continuous
100
AcDbLine
 10
29.9
 20
128.76361
 30
0.0
 11
32.745554
 21
128.192899
 31
0.0
  0
ARC
  5
BB60
330
BA7F
100
AcDbEntity
  8
1
  6
Continuous
100
AcDbCircle
 10
33.040523
 20
129.66361
 30
0.0
 40
1.5
100
AcDbArc
 50
258.6590749999999
 51
270.0
  0
ARC
  5
BB61
330
BA7F
100
AcDbEntity
  8
1
  6
Continuous
100
AcDbCircle
 10
29.9
 20
129.06361
 30
0.0
 40
0.3
100
AcDbArc
 50
90.0
 51
270.0
  0
ARC
  5
BB62
330
BA7F
100
AcDbEntity
  8
1
  6
Continuous
100
AcDbCircle
 10
33.040523
 20
132.06361
 30
0.0
 40
1.5
100
AcDbArc
 50
258.6590749999999
 51
270.0
  0
LINE
  5
BB63
330
BA7F
100
AcDbEntity
  8
1
  6
Continuous
100
AcDbLine
 10
35.6
 20
131.16361
 30
0.0
 11
29.9
 21
131.76361
 31
0.0
  0
ARC
  5
BB64
330
BA7F
100
AcDbEntity
  8
1
  6
Continuous
100
AcDbCircle
 10
35.6
 20
130.8636099999999
 30
0.0
 40
0.3
100
AcDbArc
 50
270.0
 51
90.0
  0
LINE
  5
BB65
330
BA7F
100
AcDbEntity
  8
1
  6
Continuous
100
AcDbLine
 10
33.040523
 20
130.56361
 30
0.0
 11
35.6
 21
130.56361
 31
0.0
  0
ARC
  5
BB66
330
BA7F
100
AcDbEntity
  8
1
  6
Continuous
100
AcDbCircle
 10
29.9
 20
131.4636099999999
 30
0.0
 40
0.3
100
AcDbArc
 50
90.0
 51
270.0
  0
LINE
  5
BB67
330
BA7F
100
AcDbEntity
  8
1
  6
Continuous
100
AcDbLine
 10
29.9
 20
131.16361
 30
0.0
 11
32.745554
 21
130.5928989999999
 31
0.0
  0
LINE
  5
BB68
330
BA7F
100
AcDbEntity
  8
1
  6
Continuous
100
AcDbLine
 10
33.040523
 20
132.9636099999999
 30
0.0
 11
35.6
 21
132.9636099999999
 31
0.0
  0
ARC
  5
BB69
330
BA7F
100
AcDbEntity
  8
1
  6
Continuous
100
AcDbCircle
 10
35.6
 20
133.2636099999998
 30
0.0
 40
0.3
100
AcDbArc
 50
270.0
 51
90.0
  0
LINE
  5
BB6A
330
BA7F
100
AcDbEntity
  8
1
  6
Continuous
100
AcDbLine
 10
35.6
 20
133.56361
 30
0.0
 11
29.9
 21
134.16361
 31
0.0
  0
ARC
  5
BB6B
330
BA7F
100
AcDbEntity
  8
1
  6
Continuous
100
AcDbCircle
 10
33.040523
 20
134.46361
 30
0.0
 40
1.5
100
AcDbArc
 50
258.6590749999999
 51
270.0
  0
LINE
  5
BB6C
330
BA7F
100
AcDbEntity
  8
1
  6
Continuous
100
AcDbLine
 10
29.9
 20
133.56361
 30
0.0
 11
32.745554
 21
132.9928989999999
 31
0.0
  0
ARC
  5
BB6D
330
BA7F
100
AcDbEntity
  8
1
  6
Continuous
100
AcDbCircle
 10
29.9
 20
133.8636099999999
 30
0.0
 40
0.3
100
AcDbArc
 50
90.0
 51
270.0
  0
LINE
  5
BB6E
330
BA7F
100
AcDbEntity
  8
1
  6
Continuous
100
AcDbLine
 10
35.6
 20
135.9636099999999
 30
0.0
 11
29.9
 21
136.56361
 31
0.0
  0
ARC
  5
BB6F
330
BA7F
100
AcDbEntity
  8
1
  6
Continuous
100
AcDbCircle
 10
35.6
 20
135.66361
 30
0.0
 40
0.3
100
AcDbArc
 50
270.0
 51
90.0
  0
LINE
  5
BB70
330
BA7F
100
AcDbEntity
  8
1
  6
Continuous
100
AcDbLine
 10
33.040523
 20
135.3636099999999
 30
0.0
 11
35.6
 21
135.3636099999999
 31
0.0
  0
LINE
  5
BB71
330
BA7F
100
AcDbEntity
  8
1
  6
Continuous
100
AcDbLine
 10
29.9
 20
135.9636099999999
 30
0.0
 11
32.745554
 21
135.3928989999998
 31
0.0
  0
ARC
  5
BB72
330
BA7F
100
AcDbEntity
  8
1
  6
Continuous
100
AcDbCircle
 10
33.040523
 20
136.86361
 30
0.0
 40
1.5
100
AcDbArc
 50
258.6590749999999
 51
270.0
  0
ARC
  5
BB73
330
BA7F
100
AcDbEntity
  8
1
  6
Continuous
100
AcDbCircle
 10
29.9
 20
136.26361
 30
0.0
 40
0.3
100
AcDbArc
 50
90.0
 51
270.0
  0
LINE
  5
BB74
330
BA7F
100
AcDbEntity
  8
1
  6
Continuous
100
AcDbLine
 10
35.6
 20
138.3636099999999
 30
0.0
 11
29.9
 21
138.9636099999999
 31
0.0
  0
ARC
  5
BB75
330
BA7F
100
AcDbEntity
  8
1
  6
Continuous
100
AcDbCircle
 10
35.6
 20
138.06361
 30
0.0
 40
0.3
100
AcDbArc
 50
270.0
 51
90.0
  0
LINE
  5
BB76
330
BA7F
100
AcDbEntity
  8
1
  6
Continuous
100
AcDbLine
 10
33.040523
 20
137.7636099999998
 30
0.0
 11
35.6
 21
137.7636099999998
 31
0.0
  0
LINE
  5
BB77
330
BA7F
100
AcDbEntity
  8
1
  6
Continuous
100
AcDbLine
 10
29.9
 20
138.3636099999999
 30
0.0
 11
32.745554
 21
137.792899
 31
0.0
  0
ARC
  5
BB78
330
BA7F
100
AcDbEntity
  8
1
  6
Continuous
100
AcDbCircle
 10
33.040523
 20
139.26361
 30
0.0
 40
1.5
100
AcDbArc
 50
258.6590749999999
 51
270.0
  0
ARC
  5
BB79
330
BA7F
100
AcDbEntity
  8
1
  6
Continuous
100
AcDbCircle
 10
29.9
 20
138.66361
 30
0.0
 40
0.3
100
AcDbArc
 50
90.0
 51
270.0
  0
LINE
  5
BB7A
330
BA7F
100
AcDbEntity
  8
1
  6
Continuous
100
AcDbLine
 10
35.6
 20
139.9429889999999
 30
0.0
 11
29.9
 21
140.5429889999997
 31
0.0
  0
ARC
  5
BB7B
330
BA7F
100
AcDbEntity
  8
1
  6
Continuous
100
AcDbCircle
 10
35.6
 20
139.642989
 30
0.0
 40
0.3
100
AcDbArc
 50
318.189685
 51
90.0
  0
ARC
  5
BB7C
330
BA7F
100
AcDbEntity
  8
1
  6
Continuous
100
AcDbCircle
 10
29.9
 20
140.242989
 30
0.0
 40
0.3
100
AcDbArc
 50
90.0
 51
208.985474
  0
LINE
  5
BB7D
330
BA7F
100
AcDbEntity
  8
1
  6
Continuous
100
AcDbLine
 10
35.6
 20
145.56361
 30
0.0
 11
29.9
 21
146.1636099999998
 31
0.0
  0
ARC
  5
BB7E
330
BA7F
100
AcDbEntity
  8
1
  6
Continuous
100
AcDbCircle
 10
35.6
 20
145.26361
 30
0.0
 40
0.3
100
AcDbArc
 50
0.0
 51
90.0
  0
ARC
  5
BB7F
330
BA7F
100
AcDbEntity
  8
1
  6
Continuous
100
AcDbCircle
 10
29.9
 20
145.8636099999999
 30
0.0
 40
0.3
100
AcDbArc
 50
90.0
 51
167.5402719999999
  0
LINE
  5
BB80
330
BA7F
100
AcDbEntity
  8
1
  6
Continuous
100
AcDbLine
 10
120.637294
 20
146.4958399999999
 30
0.0
 11
115.607085
 21
143.437374
 31
0.0
  0
LINE
  5
BB81
330
BA7F
100
AcDbEntity
  8
1
  6
Continuous
100
AcDbLine
 10
120.7034889999999
 20
145.833886
 30
0.0
 11
115.9188
 21
142.924701
 31
0.0
  0
LINE
  5
BB82
330
BA7F
100
AcDbEntity
  8
1
  6
Continuous
100
AcDbLine
 10
115.607085
 20
143.437374
 30
0.0
 11
115.9188
 21
142.924701
 31
0.0
  0
LINE
  5
BB83
330
BA7F
100
AcDbEntity
  8
1
  6
Continuous
100
AcDbLine
 10
116.8887669999999
 20
144.216662
 30
0.0
 11
117.2004819999999
 21
143.7039889999998
 31
0.0
  0
LINE
  5
BB84
330
BA7F
100
AcDbEntity
  8
1
  6
Continuous
100
AcDbLine
 10
35.6
 20
121.56361
 30
0.0
 11
29.9
 21
122.16361
 31
0.0
  0
LINE
  5
BB85
330
BA7F
100
AcDbEntity
  8
1
  6
Continuous
100
AcDbLine
 10
33.040523
 20
120.9636099999999
 30
0.0
 11
35.6
 21
120.9636099999999
 31
0.0
  0
ARC
  5
BB86
330
BA7F
100
AcDbEntity
  8
1
  6
Continuous
100
AcDbCircle
 10
35.6
 20
121.26361
 30
0.0
 40
0.3
100
AcDbArc
 50
270.0
 51
90.0
  0
ARC
  5
BB87
330
BA7F
100
AcDbEntity
  8
1
  6
Continuous
100
AcDbCircle
 10
33.040523
 20
122.46361
 30
0.0
 40
1.5
100
AcDbArc
 50
258.6590749999999
 51
270.0
  0
LINE
  5
BB88
330
BA7F
100
AcDbEntity
  8
1
  6
Continuous
100
AcDbLine
 10
29.9
 20
121.56361
 30
0.0
 11
32.745554
 21
120.9928989999998
 31
0.0
  0
ARC
  5
BB89
330
BA7F
100
AcDbEntity
  8
1
  6
Continuous
100
AcDbCircle
 10
29.9
 20
121.8636099999999
 30
0.0
 40
0.3
100
AcDbArc
 50
90.0
 51
270.0
  0
ARC
  5
BB8A
330
BA7F
100
AcDbEntity
  8
1
  6
Continuous
100
AcDbCircle
 10
35.6
 20
118.8636099999999
 30
0.0
 40
0.3
100
AcDbArc
 50
270.0
 51
90.0
  0
LINE
  5
BB8B
330
BA7F
100
AcDbEntity
  8
1
  6
Continuous
100
AcDbLine
 10
33.040523
 20
118.56361
 30
0.0
 11
35.6
 21
118.56361
 31
0.0
  0
LINE
  5
BB8C
330
BA7F
100
AcDbEntity
  8
1
  6
Continuous
100
AcDbLine
 10
35.6
 20
119.1636099999999
 30
0.0
 11
29.9
 21
119.76361
 31
0.0
  0
ARC
  5
BB8D
330
BA7F
100
AcDbEntity
  8
1
  6
Continuous
100
AcDbCircle
 10
33.040523
 20
120.06361
 30
0.0
 40
1.5
100
AcDbArc
 50
258.6590749999999
 51
270.0
  0
LINE
  5
BB8E
330
BA7F
100
AcDbEntity
  8
1
  6
Continuous
100
AcDbLine
 10
29.9
 20
119.1636099999999
 30
0.0
 11
32.745554
 21
118.592899
 31
0.0
  0
ARC
  5
BB8F
330
BA7F
100
AcDbEntity
  8
1
  6
Continuous
100
AcDbCircle
 10
29.9
 20
119.46361
 30
0.0
 40
0.3
100
AcDbArc
 50
90.0
 51
270.0
  0
LINE
  5
BB90
330
BA7F
100
AcDbEntity
  8
1
  6
Continuous
100
AcDbLine
 10
35.6
 20
116.76361
 30
0.0
 11
29.9
 21
117.3636099999999
 31
0.0
  0
LINE
  5
BB91
330
BA7F
100
AcDbEntity
  8
1
  6
Continuous
100
AcDbLine
 10
33.040523
 20
116.16361
 30
0.0
 11
35.6
 21
116.16361
 31
0.0
  0
ARC
  5
BB92
330
BA7F
100
AcDbEntity
  8
1
  6
Continuous
100
AcDbCircle
 10
35.6
 20
116.46361
 30
0.0
 40
0.3
100
AcDbArc
 50
270.0
 51
90.0
  0
ARC
  5
BB93
330
BA7F
100
AcDbEntity
  8
1
  6
Continuous
100
AcDbCircle
 10
33.040523
 20
117.66361
 30
0.0
 40
1.5
100
AcDbArc
 50
258.6590749999999
 51
270.0
  0
LINE
  5
BB94
330
BA7F
100
AcDbEntity
  8
1
  6
Continuous
100
AcDbLine
 10
29.9
 20
116.76361
 30
0.0
 11
32.745554
 21
116.192899
 31
0.0
  0
ARC
  5
BB95
330
BA7F
100
AcDbEntity
  8
1
  6
Continuous
100
AcDbCircle
 10
29.9
 20
117.06361
 30
0.0
 40
0.3
100
AcDbArc
 50
90.0
 51
270.0
  0
LINE
  5
BB96
330
BA7F
100
AcDbEntity
  8
1
  6
Continuous
100
AcDbLine
 10
113.126037
 20
51.6
 30
0.0
 11
112.526037
 21
45.89999999999998
 31
0.0
  0
LINE
  5
BB97
330
BA7F
100
AcDbEntity
  8
1
  6
Continuous
100
AcDbLine
 10
113.726037
 20
48.90618299999999
 30
0.0
 11
113.726037
 21
51.6
 31
0.0
  0
ARC
  5
BB98
330
BA7F
100
AcDbEntity
  8
1
  6
Continuous
100
AcDbCircle
 10
113.426037
 20
51.6
 30
0.0
 40
0.3
100
AcDbArc
 50
0.0
 51
180.0
  0
LINE
  5
BB99
330
BA7F
100
AcDbEntity
  8
1
  6
Continuous
100
AcDbLine
 10
113.693862
 20
48.59716699999999
 30
0.0
 11
113.126037
 21
45.89999999999998
 31
0.0
  0
ARC
  5
BB9A
330
BA7F
100
AcDbEntity
  8
1
  6
Continuous
100
AcDbCircle
 10
112.226037
 20
48.90618299999999
 30
0.0
 40
1.5
100
AcDbArc
 50
348.1113419999999
 51
0.0
  0
ARC
  5
BB9B
330
BA7F
100
AcDbEntity
  8
1
  6
Continuous
100
AcDbCircle
 10
112.826037
 20
45.89999999999998
 30
0.0
 40
0.3
100
AcDbArc
 50
180.0
 51
0.0
  0
ARC
  5
BB9C
330
BA7F
100
AcDbEntity
  8
1
  6
Continuous
100
AcDbCircle
 10
111.026037
 20
51.6
 30
0.0
 40
0.3
100
AcDbArc
 50
0.0
 51
180.0
  0
LINE
  5
BB9D
330
BA7F
100
AcDbEntity
  8
1
  6
Continuous
100
AcDbLine
 10
111.326037
 20
48.90618299999999
 30
0.0
 11
111.326037
 21
51.6
 31
0.0
  0
LINE
  5
BB9E
330
BA7F
100
AcDbEntity
  8
1
  6
Continuous
100
AcDbLine
 10
110.726037
 20
51.6
 30
0.0
 11
110.126037
 21
45.89999999999998
 31
0.0
  0
ARC
  5
BB9F
330
BA7F
100
AcDbEntity
  8
1
  6
Continuous
100
AcDbCircle
 10
109.826037
 20
48.90618299999999
 30
0.0
 40
1.5
100
AcDbArc
 50
348.1113419999999
 51
0.0
  0
LINE
  5
BBA0
330
BA7F
100
AcDbEntity
  8
1
  6
Continuous
100
AcDbLine
 10
111.2938619999999
 20
48.59716699999999
 30
0.0
 11
110.726037
 21
45.89999999999998
 31
0.0
  0
ARC
  5
BBA1
330
BA7F
100
AcDbEntity
  8
1
  6
Continuous
100
AcDbCircle
 10
110.4260369999999
 20
45.89999999999998
 30
0.0
 40
0.3
100
AcDbArc
 50
180.0
 51
0.0
  0
LINE
  5
BBA2
330
BA7F
100
AcDbEntity
  8
1
  6
Continuous
100
AcDbLine
 10
35.6
 20
114.3636099999999
 30
0.0
 11
29.9
 21
114.96361
 31
0.0
  0
LINE
  5
BBA3
330
BA7F
100
AcDbEntity
  8
1
  6
Continuous
100
AcDbLine
 10
29.9
 20
114.3636099999999
 30
0.0
 11
32.745554
 21
113.792899
 31
0.0
  0
LINE
  5
BBA4
330
BA7F
100
AcDbEntity
  8
1
  6
Continuous
100
AcDbLine
 10
33.040523
 20
113.76361
 30
0.0
 11
35.6
 21
113.76361
 31
0.0
  0
ARC
  5
BBA5
330
BA7F
100
AcDbEntity
  8
1
  6
Continuous
100
AcDbCircle
 10
35.6
 20
114.06361
 30
0.0
 40
0.3
100
AcDbArc
 50
270.0
 51
90.0
  0
ARC
  5
BBA6
330
BA7F
100
AcDbEntity
  8
1
  6
Continuous
100
AcDbCircle
 10
33.040523
 20
115.26361
 30
0.0
 40
1.5
100
AcDbArc
 50
258.6590749999999
 51
270.0
  0
ARC
  5
BBA7
330
BA7F
100
AcDbEntity
  8
1
  6
Continuous
100
AcDbCircle
 10
29.9
 20
114.66361
 30
0.0
 40
0.3
100
AcDbArc
 50
90.0
 51
270.0
  0
LINE
  5
BBA8
330
BA7F
100
AcDbEntity
  8
1
  6
Continuous
100
AcDbLine
 10
132.065189
 20
56.5
 30
0.0
 11
132.065189
 21
55.25
 31
0.0
  0
LINE
  5
BBA9
330
BA7F
100
AcDbEntity
  8
1
  6
Continuous
100
AcDbLine
 10
120.465189
 20
56.5
 30
0.0
 11
120.465189
 21
55.25
 31
0.0
  0
LINE
  5
BBAA
330
BA7F
100
AcDbEntity
  8
1
  6
Continuous
100
AcDbLine
 10
132.065189
 20
42.25
 30
0.0
 11
132.065189
 21
41.0
 31
0.0
  0
LINE
  5
BBAB
330
BA7F
100
AcDbEntity
  8
1
  6
Continuous
100
AcDbLine
 10
120.465189
 20
42.25
 30
0.0
 11
120.465189
 21
41.0
 31
0.0
  0
ARC
  5
BBAC
330
BA7F
100
AcDbEntity
  8
5
  6
PHANTOM
100
AcDbCircle
 10
126.3304429999999
 20
126.217705
 30
0.0
 40
21.000239
100
AcDbArc
 50
105.711955
 51
74.647615
  0
ARC
  5
BBAD
330
BA7F
100
AcDbEntity
  8
1
  6
Continuous
100
AcDbCircle
 10
126.099943
 20
122.099705
 30
0.0
 40
25.000239
100
AcDbArc
 50
102.621172
 51
43.966658
  0
ARC
  5
BBAE
330
BA7F
100
AcDbEntity
  8
5
  6
PHANTOM
100
AcDbCircle
 10
126.3304429999999
 20
126.217705
 30
0.0
 40
21.600239
100
AcDbArc
 50
105.431406
 51
74.917889
  0
ARC
  5
BBAF
330
BA7F
100
AcDbEntity
  8
5
  6
PHANTOM
100
AcDbCircle
 10
126.3304429999999
 20
126.217705
 30
0.0
 40
22.200239
100
AcDbArc
 50
329.030436
 51
75.173361
  0
ARC
  5
BBB0
330
BA7F
100
AcDbEntity
  8
1
  6
Continuous
100
AcDbCircle
 10
126.099943
 20
122.099705
 30
0.0
 40
25.600239
100
AcDbArc
 50
102.4584449999998
 51
44.005971
  0
LINE
  5
BBB1
330
BA7F
100
AcDbEntity
  8
4
  6
CENTER
100
AcDbLine
 10
21.25
 20
122.222838
 30
0.0
 11
44.24999999999999
 21
122.222838
 31
0.0
  0
LINE
  5
BBB2
330
BA7F
100
AcDbEntity
  8
1
  6
Continuous
100
AcDbLine
 10
225.9498849999999
 20
96.499467
 30
0.0
 11
212.949885
 21
96.499467
 31
0.0
  0
LINE
  5
BBB3
330
BA7F
100
AcDbEntity
  8
1
  6
Continuous
100
AcDbLine
 10
100.4997039999999
 20
42.25
 30
0.0
 11
100.4997039999999
 21
55.25
 31
0.0
  0
LINE
  5
BBB4
330
BA7F
100
AcDbEntity
  8
1
  6
Continuous
100
AcDbLine
 10
151.699589
 20
42.25
 30
0.0
 11
151.699589
 21
55.25
 31
0.0
  0
LINE
  5
BBB5
330
BA7F
100
AcDbEntity
  8
4
  6
CENTER
100
AcDbLine
 10
95.49995199999999
 20
122.222838
 30
0.0
 11
156.6999329999999
 21
122.222838
 31
0.0
  0
LINE
  5
BBB6
330
BA7F
100
AcDbEntity
  8
4
  6
CENTER
100
AcDbLine
 10
207.9498849999999
 20
122.222838
 30
0.0
 11
230.949885
 21
122.222838
 31
0.0
  0
LINE
  5
BBB7
330
BA7F
100
AcDbEntity
  8
1
  6
Continuous
100
AcDbLine
 10
39.25
 20
96.499467
 30
0.0
 11
26.25
 21
96.499467
 31
0.0
  0
LINE
  5
BBB8
330
BA7F
100
AcDbEntity
  8
1
  6
Continuous
100
AcDbLine
 10
100.5
 20
198.4672879999999
 30
0.0
 11
100.5
 21
211.467288
 31
0.0
  0
LINE
  5
BBB9
330
BA7F
100
AcDbEntity
  8
1
  6
Continuous
100
AcDbLine
 10
151.699885
 20
198.4672879999999
 30
0.0
 11
151.699885
 21
211.467288
 31
0.0
  0
LINE
  5
BBBA
330
BA7F
100
AcDbEntity
  8
1
  6
Continuous
100
AcDbLine
 10
115.893157
 20
202.1172879999999
 30
0.0
 11
115.893157
 21
202.185015
 31
0.0
  0
ARC
  5
BBBB
330
BA7F
100
AcDbEntity
  8
1
  6
Continuous
100
AcDbCircle
 10
116.7931569999999
 20
207.8172879999999
 30
0.0
 40
0.3
100
AcDbArc
 50
42.259504
 51
158.9621919999999
  0
ARC
  5
BBBC
330
BA7F
100
AcDbEntity
  8
1
  6
Continuous
100
AcDbCircle
 10
116.193157
 20
202.1172879999999
 30
0.0
 40
0.3
100
AcDbArc
 50
180.0
 51
340.310262
  0
ARC
  5
BBBD
330
BA7F
100
AcDbEntity
  8
1
  6
Continuous
100
AcDbCircle
 10
114.393157
 20
207.8172879999999
 30
0.0
 40
0.3
100
AcDbArc
 50
0.0
 51
180.0
  0
LINE
  5
BBBE
330
BA7F
100
AcDbEntity
  8
1
  6
Continuous
100
AcDbLine
 10
113.525333
 20
205.1201209999999
 30
0.0
 11
114.093157
 21
207.8172879999999
 31
0.0
  0
LINE
  5
BBBF
330
BA7F
100
AcDbEntity
  8
1
  6
Continuous
100
AcDbLine
 10
114.693157
 20
207.8172879999999
 30
0.0
 11
114.5771749999999
 21
206.7154539999999
 31
0.0
  0
LINE
  5
BBC0
330
BA7F
100
AcDbEntity
  8
1
  6
Continuous
100
AcDbLine
 10
113.493157
 20
202.1172879999999
 30
0.0
 11
113.493157
 21
204.811105
 31
0.0
  0
ARC
  5
BBC1
330
BA7F
100
AcDbEntity
  8
1
  6
Continuous
100
AcDbCircle
 10
114.993157
 20
204.811105
 30
0.0
 40
1.5
100
AcDbArc
 50
168.1113419999998
 51
180.0
  0
ARC
  5
BBC2
330
BA7F
100
AcDbEntity
  8
1
  6
Continuous
100
AcDbCircle
 10
113.7931569999999
 20
202.1172879999999
 30
0.0
 40
0.3
100
AcDbArc
 50
180.0
 51
0.0
  0
LINE
  5
BBC3
330
BA7F
100
AcDbEntity
  8
1
  6
Continuous
100
AcDbLine
 10
113.018229
 20
207.8172879999999
 30
0.0
 11
112.418229
 21
202.1172879999999
 31
0.0
  0
LINE
  5
BBC4
330
BA7F
100
AcDbEntity
  8
1
  6
Continuous
100
AcDbLine
 10
111.8504039999999
 20
205.1201209999999
 30
0.0
 11
112.418229
 21
207.8172879999999
 31
0.0
  0
ARC
  5
BBC5
330
BA7F
100
AcDbEntity
  8
1
  6
Continuous
100
AcDbCircle
 10
112.7182289999999
 20
207.8172879999999
 30
0.0
 40
0.3
100
AcDbArc
 50
0.0
 51
180.0
  0
ARC
  5
BBC6
330
BA7F
100
AcDbEntity
  8
1
  6
Continuous
100
AcDbCircle
 10
112.1182289999999
 20
202.1172879999999
 30
0.0
 40
0.3
100
AcDbArc
 50
180.0
 51
0.0
  0
LINE
  5
BBC7
330
BA7F
100
AcDbEntity
  8
1
  6
Continuous
100
AcDbLine
 10
111.818229
 20
202.1172879999999
 30
0.0
 11
111.818229
 21
204.811105
 31
0.0
  0
ARC
  5
BBC8
330
BA7F
100
AcDbEntity
  8
1
  6
Continuous
100
AcDbCircle
 10
113.318229
 20
204.811105
 30
0.0
 40
1.5
100
AcDbArc
 50
168.1113419999998
 51
180.0
  0
ARC
  5
BBC9
330
BA7F
100
AcDbEntity
  8
1
  6
Continuous
100
AcDbCircle
 10
110.704937
 20
207.8172879999999
 30
0.0
 40
0.3
100
AcDbArc
 50
0.0
 51
180.0
  0
LINE
  5
BBCA
330
BA7F
100
AcDbEntity
  8
1
  6
Continuous
100
AcDbLine
 10
111.004937
 20
207.8172879999999
 30
0.0
 11
110.404937
 21
202.1172879999999
 31
0.0
  0
LINE
  5
BBCB
330
BA7F
100
AcDbEntity
  8
1
  6
Continuous
100
AcDbLine
 10
109.8371129999998
 20
205.1201209999999
 30
0.0
 11
110.404937
 21
207.8172879999999
 31
0.0
  0
ARC
  5
BBCC
330
BA7F
100
AcDbEntity
  8
1
  6
Continuous
100
AcDbCircle
 10
111.304937
 20
204.811105
 30
0.0
 40
1.5
100
AcDbArc
 50
168.1113419999998
 51
180.0
  0
LINE
  5
BBCD
330
BA7F
100
AcDbEntity
  8
1
  6
Continuous
100
AcDbLine
 10
109.804937
 20
202.1172879999999
 30
0.0
 11
109.804937
 21
204.811105
 31
0.0
  0
ARC
  5
BBCE
330
BA7F
100
AcDbEntity
  8
1
  6
Continuous
100
AcDbCircle
 10
110.104937
 20
202.1172879999999
 30
0.0
 40
0.3
100
AcDbArc
 50
180.0
 51
0.0
  0
LINE
  5
BBCF
330
BA7F
100
AcDbEntity
  8
1
  6
Continuous
100
AcDbLine
 10
107.702973
 20
205.1201209999999
 30
0.0
 11
108.2707969999999
 21
207.8172879999999
 31
0.0
  0
LINE
  5
BBD0
330
BA7F
100
AcDbEntity
  8
1
  6
Continuous
100
AcDbLine
 10
108.8707969999999
 20
207.8172879999999
 30
0.0
 11
108.2707969999999
 21
202.1172879999999
 31
0.0
  0
ARC
  5
BBD1
330
BA7F
100
AcDbEntity
  8
1
  6
Continuous
100
AcDbCircle
 10
108.570797
 20
207.8172879999999
 30
0.0
 40
0.3
100
AcDbArc
 50
0.0
 51
180.0
  0
ARC
  5
BBD2
330
BA7F
100
AcDbEntity
  8
1
  6
Continuous
100
AcDbCircle
 10
107.9707969999999
 20
202.1172879999999
 30
0.0
 40
0.3
100
AcDbArc
 50
180.0
 51
0.0
  0
LINE
  5
BBD3
330
BA7F
100
AcDbEntity
  8
1
  6
Continuous
100
AcDbLine
 10
107.6707969999998
 20
202.1172879999999
 30
0.0
 11
107.6707969999998
 21
204.811105
 31
0.0
  0
ARC
  5
BBD4
330
BA7F
100
AcDbEntity
  8
1
  6
Continuous
100
AcDbCircle
 10
109.1707969999998
 20
204.811105
 30
0.0
 40
1.5
100
AcDbArc
 50
168.1113419999998
 51
180.0
  0
ARC
  5
BBD5
330
BA7F
100
AcDbEntity
  8
1
  6
Continuous
100
AcDbCircle
 10
106.678348
 20
207.8172879999999
 30
0.0
 40
0.3
100
AcDbArc
 50
0.0
 51
180.0
  0
LINE
  5
BBD6
330
BA7F
100
AcDbEntity
  8
1
  6
Continuous
100
AcDbLine
 10
106.9783479999999
 20
207.8172879999999
 30
0.0
 11
106.378348
 21
202.1172879999999
 31
0.0
  0
LINE
  5
BBD7
330
BA7F
100
AcDbEntity
  8
1
  6
Continuous
100
AcDbLine
 10
105.810523
 20
205.1201209999999
 30
0.0
 11
106.378348
 21
207.8172879999999
 31
0.0
  0
ARC
  5
BBD8
330
BA7F
100
AcDbEntity
  8
1
  6
Continuous
100
AcDbCircle
 10
107.278348
 20
204.811105
 30
0.0
 40
1.5
100
AcDbArc
 50
168.1113419999998
 51
180.0
  0
LINE
  5
BBD9
330
BA7F
100
AcDbEntity
  8
1
  6
Continuous
100
AcDbLine
 10
105.7783479999998
 20
202.1172879999999
 30
0.0
 11
105.7783479999998
 21
204.811105
 31
0.0
  0
ARC
  5
BBDA
330
BA7F
100
AcDbEntity
  8
1
  6
Continuous
100
AcDbCircle
 10
106.078348
 20
202.1172879999999
 30
0.0
 40
0.3
100
AcDbArc
 50
180.0
 51
0.0
  0
LINE
  5
BBDB
330
BA7F
100
AcDbEntity
  8
1
  6
Continuous
100
AcDbLine
 10
104.038922
 20
205.1201209999999
 30
0.0
 11
104.606747
 21
207.8172879999999
 31
0.0
  0
LINE
  5
BBDC
330
BA7F
100
AcDbEntity
  8
1
  6
Continuous
100
AcDbLine
 10
105.2067469999998
 20
207.8172879999999
 30
0.0
 11
104.606747
 21
202.1172879999999
 31
0.0
  0
ARC
  5
BBDD
330
BA7F
100
AcDbEntity
  8
1
  6
Continuous
100
AcDbCircle
 10
104.906747
 20
207.8172879999999
 30
0.0
 40
0.3
100
AcDbArc
 50
0.0
 51
180.0
  0
ARC
  5
BBDE
330
BA7F
100
AcDbEntity
  8
1
  6
Continuous
100
AcDbCircle
 10
104.3067469999999
 20
202.1172879999999
 30
0.0
 40
0.3
100
AcDbArc
 50
180.0
 51
0.0
  0
LINE
  5
BBDF
330
BA7F
100
AcDbEntity
  8
1
  6
Continuous
100
AcDbLine
 10
104.006747
 20
202.1172879999999
 30
0.0
 11
104.006747
 21
204.811105
 31
0.0
  0
ARC
  5
BBE0
330
BA7F
100
AcDbEntity
  8
1
  6
Continuous
100
AcDbCircle
 10
105.506747
 20
204.811105
 30
0.0
 40
1.5
100
AcDbArc
 50
168.1113419999998
 51
180.0
  0
LINE
  5
BBE1
330
BA7F
100
AcDbEntity
  8
1
  6
Continuous
100
AcDbLine
 10
144.932972
 20
140.3142469999999
 30
0.0
 11
144.501443
 21
139.8960409999999
 31
0.0
  0
LINE
  5
BBE2
330
BA7F
100
AcDbEntity
  8
5
  6
PHANTOM
100
AcDbLine
 10
144.8513679999998
 20
115.102597
 30
0.0
 11
145.365832
 21
114.7938469999999
 31
0.0
  0
LINE
  5
BBE3
330
BA7F
100
AcDbEntity
  8
1
  6
Continuous
100
AcDbLine
 10
223.525245
 20
140.352484
 30
0.0
 11
219.707548
 21
141.370537
 31
0.0
  0
LINE
  5
BBE4
330
BA7F
100
AcDbEntity
  8
1
  6
Continuous
100
AcDbLine
 10
219.1922219999999
 20
141.370537
 30
0.0
 11
215.374525
 21
140.352484
 31
0.0
  0
LINE
  5
BBE5
330
BA7F
100
AcDbEntity
  8
1
  6
Continuous
100
AcDbLine
 10
215.3589849999999
 20
139.93078
 30
0.0
 11
219.1922219999999
 21
140.952976
 31
0.0
  0
LINE
  5
BBE6
330
BA7F
100
AcDbEntity
  8
1
  6
Continuous
100
AcDbLine
 10
219.707548
 20
140.952976
 30
0.0
 11
223.540785
 21
139.93078
 31
0.0
  0
ARC
  5
BBE7
330
BA7F
100
AcDbEntity
  8
1
  6
Continuous
100
AcDbCircle
 10
223.798448
 20
140.8970139999999
 30
0.0
 40
1.0
100
AcDbArc
 50
255.0685829999999
 51
300.9637569999998
  0
ARC
  5
BBE8
330
BA7F
100
AcDbEntity
  8
1
  6
Continuous
100
AcDbCircle
 10
215.101322
 20
140.8970139999999
 30
0.0
 40
1.0
100
AcDbArc
 50
239.036243
 51
284.9314169999999
  0
LINE
  5
BBE9
330
BA7F
100
AcDbEntity
  8
1
  6
Continuous
100
AcDbLine
 10
214.5868259999998
 20
140.039522
 30
0.0
 11
212.949885
 21
141.096686
 31
0.0
  0
LINE
  5
BBEA
330
BA7F
100
AcDbEntity
  8
1
  6
Continuous
100
AcDbLine
 10
224.312944
 20
140.039522
 30
0.0
 11
225.9498849999999
 21
141.096686
 31
0.0
  0
LINE
  5
BBEB
330
BA7F
100
AcDbEntity
  8
1
  6
Continuous
100
AcDbLine
 10
224.320465
 20
140.475492
 30
0.0
 11
225.9498849999999
 21
141.5142469999999
 31
0.0
  0
LINE
  5
BBEC
330
BA7F
100
AcDbEntity
  8
1
  6
Continuous
100
AcDbLine
 10
214.5793049999999
 20
140.475492
 30
0.0
 11
212.949885
 21
141.5142469999999
 31
0.0
  0
ARC
  5
BBED
330
BA7F
100
AcDbEntity
  8
1
  6
Continuous
100
AcDbCircle
 10
215.1168619999999
 20
141.3187189999999
 30
0.0
 40
1.0
100
AcDbArc
 50
237.4824889999999
 51
284.9314169999999
  0
ARC
  5
BBEE
330
BA7F
100
AcDbEntity
  8
1
  6
Continuous
100
AcDbCircle
 10
223.782908
 20
141.3187189999999
 30
0.0
 40
1.0
100
AcDbArc
 50
255.0685829999999
 51
302.517511
  0
LINE
  5
BBEF
330
BA7F
100
AcDbEntity
  8
1
  6
Continuous
100
AcDbLine
 10
144.8861759999998
 20
200.205218
 30
0.0
 11
143.85797
 21
204.7464619999999
 31
0.0
  0
LINE
  5
BBF0
330
BA7F
100
AcDbEntity
  8
1
  6
Continuous
100
AcDbLine
 10
143.85797
 20
205.1881139999999
 30
0.0
 11
144.8861759999998
 21
209.729358
 31
0.0
  0
ARC
  5
BBF1
330
BA7F
100
AcDbEntity
  8
1
  6
Continuous
100
AcDbCircle
 10
143.9108629999998
 20
209.950183
 30
0.0
 40
1.0
100
AcDbArc
 50
347.2424679999999
 51
45.0
  0
ARC
  5
BBF2
330
BA7F
100
AcDbEntity
  8
1
  6
Continuous
100
AcDbCircle
 10
143.9108629999998
 20
199.9843929999999
 30
0.0
 40
1.0
100
AcDbArc
 50
315.0
 51
12.757532
  0
ARC
  5
BBF3
330
BA7F
100
AcDbEntity
  8
1
  6
Continuous
100
AcDbCircle
 10
219.449885
 20
139.9867409999999
 30
0.0
 40
1.0
100
AcDbArc
 50
75.06858299999997
 51
104.9314169999999
  0
ARC
  5
BBF4
330
BA7F
100
AcDbEntity
  8
1
  6
Continuous
100
AcDbCircle
 10
219.449885
 20
140.404302
 30
0.0
 40
1.0
100
AcDbArc
 50
75.06858299999997
 51
104.9314169999999
  0
LINE
  5
BBF5
330
BA7F
100
AcDbEntity
  8
1
  6
Continuous
100
AcDbLine
 10
144.6179689999999
 20
199.277286
 30
0.0
 11
143.7329719999999
 21
198.4672879999999
 31
0.0
  0
LINE
  5
BBF6
330
BA7F
100
AcDbEntity
  8
1
  6
Continuous
100
AcDbLine
 10
144.6179689999999
 20
210.6572899999999
 30
0.0
 11
143.7329719999999
 21
211.467288
 31
0.0
  0
LINE
  5
BBF7
330
BA7F
100
AcDbEntity
  8
1
  6
Continuous
100
AcDbLine
 10
33.040523
 20
145.26361
 30
0.0
 11
35.89999999999999
 21
145.26361
 31
0.0
  0
LINE
  5
BBF8
330
BA7F
100
AcDbEntity
  8
1
  6
Continuous
100
AcDbLine
 10
29.60706599999999
 20
145.928336
 30
0.0
 11
32.80454699999999
 21
145.2870409999998
 31
0.0
  0
LINE
  5
BBF9
330
BA7F
100
AcDbEntity
  8
1
  6
Continuous
100
AcDbLine
 10
32.75
 20
145.2979809999999
 30
0.0
 11
33.040523
 21
145.26361
 31
0.0
  0
ARC
  5
BBFA
330
BA7F
100
AcDbEntity
  8
1
  6
Continuous
100
AcDbCircle
 10
35.6
 20
146.132504
 30
0.0
 40
0.3
100
AcDbArc
 50
0.0
 51
90.0
  0
LINE
  5
BBFB
330
BA7F
100
AcDbEntity
  8
1
  6
Continuous
100
AcDbLine
 10
33.040523
 20
146.132504
 30
0.0
 11
35.89999999999999
 21
146.132504
 31
0.0
  0
LINE
  5
BBFC
330
BA7F
100
AcDbEntity
  8
1
  6
Continuous
100
AcDbLine
 10
35.6
 20
146.432504
 30
0.0
 11
29.9
 21
147.0325039999999
 31
0.0
  0
ARC
  5
BBFD
330
BA7F
100
AcDbEntity
  8
1
  6
Continuous
100
AcDbCircle
 10
29.9
 20
146.732504
 30
0.0
 40
0.3
100
AcDbArc
 50
90.0
 51
167.5402719999999
  0
LINE
  5
BBFE
330
BA7F
100
AcDbEntity
  8
1
  6
Continuous
100
AcDbLine
 10
29.60706599999999
 20
146.79723
 30
0.0
 11
32.80454699999999
 21
146.1559349999998
 31
0.0
  0
LINE
  5
BBFF
330
BA7F
100
AcDbEntity
  8
1
  6
Continuous
100
AcDbLine
 10
32.75
 20
146.166875
 30
0.0
 11
33.040523
 21
146.132504
 31
0.0
  0
LINE
  5
BC00
330
BA7F
100
AcDbEntity
  8
1
  6
Continuous
100
AcDbLine
 10
35.6
 20
144.3568119999999
 30
0.0
 11
29.9
 21
144.956812
 31
0.0
  0
LINE
  5
BC01
330
BA7F
100
AcDbEntity
  8
1
  6
Continuous
100
AcDbLine
 10
33.040523
 20
144.056812
 30
0.0
 11
35.89999999999999
 21
144.056812
 31
0.0
  0
ARC
  5
BC02
330
BA7F
100
AcDbEntity
  8
1
  6
Continuous
100
AcDbCircle
 10
35.6
 20
144.056812
 30
0.0
 40
0.3
100
AcDbArc
 50
0.0
 51
90.0
  0
LINE
  5
BC03
330
BA7F
100
AcDbEntity
  8
1
  6
Continuous
100
AcDbLine
 10
29.60706599999999
 20
144.7215379999998
 30
0.0
 11
32.80454699999999
 21
144.0802429999999
 31
0.0
  0
LINE
  5
BC04
330
BA7F
100
AcDbEntity
  8
1
  6
Continuous
100
AcDbLine
 10
32.75
 20
144.091183
 30
0.0
 11
33.040523
 21
144.056812
 31
0.0
  0
LINE
  5
BC05
330
BA7F
100
AcDbEntity
  8
1
  6
Continuous
100
AcDbLine
 10
29.9
 20
144.956812
 30
0.0
 11
29.60706599999999
 21
144.7215379999998
 31
0.0
  0
LINE
  5
BC06
330
BA7F
100
AcDbEntity
  8
1
  6
Continuous
100
AcDbLine
 10
33.040523
 20
139.4429889999998
 30
0.0
 11
35.82360700000001
 21
139.4429889999998
 31
0.0
  0
LINE
  5
BC07
330
BA7F
100
AcDbEntity
  8
1
  6
Continuous
100
AcDbLine
 10
29.637577
 20
140.0976119999999
 30
0.0
 11
32.76521799999999
 21
139.470324
 31
0.0
  0
LINE
  5
BC08
330
BA7F
100
AcDbEntity
  8
1
  6
Continuous
100
AcDbLine
 10
32.75
 20
139.4733769999999
 30
0.0
 11
33.040523
 21
139.4429889999998
 31
0.0
  0
ARC
  5
BC09
330
BA7F
100
AcDbEntity
  8
1
  6
Continuous
100
AcDbCircle
 10
35.6
 20
142.780662
 30
0.0
 40
0.3
100
AcDbArc
 50
318.189685
 51
90.0
  0
LINE
  5
BC0A
330
BA7F
100
AcDbEntity
  8
1
  6
Continuous
100
AcDbLine
 10
32.75
 20
142.61105
 30
0.0
 11
33.040523
 21
142.5806619999999
 31
0.0
  0
LINE
  5
BC0B
330
BA7F
100
AcDbEntity
  8
1
  6
Continuous
100
AcDbLine
 10
33.040523
 20
142.5806619999999
 30
0.0
 11
35.82360700000001
 21
142.5806619999999
 31
0.0
  0
LINE
  5
BC0C
330
BA7F
100
AcDbEntity
  8
1
  6
Continuous
100
AcDbLine
 10
35.6
 20
143.080662
 30
0.0
 11
29.9
 21
143.680662
 31
0.0
  0
ARC
  5
BC0D
330
BA7F
100
AcDbEntity
  8
1
  6
Continuous
100
AcDbCircle
 10
29.9
 20
143.380662
 30
0.0
 40
0.3
100
AcDbArc
 50
90.0
 51
208.985474
  0
LINE
  5
BC0E
330
BA7F
100
AcDbEntity
  8
1
  6
Continuous
100
AcDbLine
 10
29.637577
 20
143.2352859999998
 30
0.0
 11
32.76521799999999
 21
142.607998
 31
0.0
  0
ARC
  5
BC0F
330
BA7F
100
AcDbEntity
  8
1
  6
Continuous
100
AcDbCircle
 10
35.6
 20
141.1876909999998
 30
0.0
 40
0.3
100
AcDbArc
 50
318.189685
 51
90.0
  0
LINE
  5
BC10
330
BA7F
100
AcDbEntity
  8
1
  6
Continuous
100
AcDbLine
 10
33.040523
 20
140.9876909999999
 30
0.0
 11
35.82360700000001
 21
140.9876909999999
 31
0.0
  0
LINE
  5
BC11
330
BA7F
100
AcDbEntity
  8
1
  6
Continuous
100
AcDbLine
 10
35.6
 20
141.4876909999998
 30
0.0
 11
29.9
 21
142.0876909999998
 31
0.0
  0
ARC
  5
BC12
330
BA7F
100
AcDbEntity
  8
1
  6
Continuous
100
AcDbCircle
 10
29.9
 20
141.7876909999999
 30
0.0
 40
0.3
100
AcDbArc
 50
90.0
 51
208.985474
  0
LINE
  5
BC13
330
BA7F
100
AcDbEntity
  8
1
  6
Continuous
100
AcDbLine
 10
29.637577
 20
141.642314
 30
0.0
 11
32.76521799999999
 21
141.0150259999998
 31
0.0
  0
LINE
  5
BC14
330
BA7F
100
AcDbEntity
  8
1
  6
Continuous
100
AcDbLine
 10
32.75
 20
141.018079
 30
0.0
 11
33.040523
 21
140.9876909999999
 31
0.0
  0
LINE
  5
BC15
330
BA7F
100
AcDbEntity
  8
1
  6
Continuous
100
AcDbLine
 10
32.508064
 20
110.775704
 30
0.0
 11
32.798588
 21
110.7453159999999
 31
0.0
  0
LINE
  5
BC16
330
BA7F
100
AcDbEntity
  8
1
  6
Continuous
100
AcDbLine
 10
35.358064
 20
111.2453159999999
 30
0.0
 11
29.658064
 21
111.845316
 31
0.0
  0
LINE
  5
BC17
330
BA7F
100
AcDbEntity
  8
1
  6
Continuous
100
AcDbLine
 10
32.798588
 20
110.7453159999999
 30
0.0
 11
35.581671
 21
110.7453159999999
 31
0.0
  0
ARC
  5
BC18
330
BA7F
100
AcDbEntity
  8
1
  6
Continuous
100
AcDbCircle
 10
35.358064
 20
110.9453159999999
 30
0.0
 40
0.3
100
AcDbArc
 50
318.189685
 51
90.0
  0
LINE
  5
BC19
330
BA7F
100
AcDbEntity
  8
1
  6
Continuous
100
AcDbLine
 10
32.508064
 20
112.320406
 30
0.0
 11
32.798588
 21
112.290018
 31
0.0
  0
LINE
  5
BC1A
330
BA7F
100
AcDbEntity
  8
1
  6
Continuous
100
AcDbLine
 10
35.358064
 20
112.7900179999999
 30
0.0
 11
29.658064
 21
113.3900179999999
 31
0.0
  0
LINE
  5
BC1B
330
BA7F
100
AcDbEntity
  8
1
  6
Continuous
100
AcDbLine
 10
32.798588
 20
112.290018
 30
0.0
 11
35.581671
 21
112.290018
 31
0.0
  0
ARC
  5
BC1C
330
BA7F
100
AcDbEntity
  8
1
  6
Continuous
100
AcDbCircle
 10
35.358064
 20
112.490018
 30
0.0
 40
0.3
100
AcDbArc
 50
318.189685
 51
90.0
  0
LINE
  5
BC1D
330
BA7F
100
AcDbEntity
  8
1
  6
Continuous
100
AcDbLine
 10
35.358064
 20
109.785091
 30
0.0
 11
29.658064
 21
110.385091
 31
0.0
  0
LINE
  5
BC1E
330
BA7F
100
AcDbEntity
  8
1
  6
Continuous
100
AcDbLine
 10
32.798588
 20
109.2850909999998
 30
0.0
 11
35.581671
 21
109.2850909999998
 31
0.0
  0
LINE
  5
BC1F
330
BA7F
100
AcDbEntity
  8
1
  6
Continuous
100
AcDbLine
 10
32.508064
 20
109.315479
 30
0.0
 11
32.798588
 21
109.2850909999998
 31
0.0
  0
ARC
  5
BC20
330
BA7F
100
AcDbEntity
  8
1
  6
Continuous
100
AcDbCircle
 10
35.358064
 20
109.4850909999999
 30
0.0
 40
0.3
100
AcDbArc
 50
318.189685
 51
90.0
  0
ARC
  5
BC21
330
BA7F
100
AcDbEntity
  8
1
  6
Continuous
100
AcDbCircle
 10
29.658064
 20
111.5453159999999
 30
0.0
 40
0.3
100
AcDbArc
 50
90.0
 51
208.985474
  0
LINE
  5
BC22
330
BA7F
100
AcDbEntity
  8
1
  6
Continuous
100
AcDbLine
 10
29.39564199999999
 20
111.3999399999999
 30
0.0
 11
32.523282
 21
110.7726519999999
 31
0.0
  0
LINE
  5
BC23
330
BA7F
100
AcDbEntity
  8
1
  6
Continuous
100
AcDbLine
 10
29.39564199999999
 20
112.9446419999998
 30
0.0
 11
32.523282
 21
112.317354
 31
0.0
  0
ARC
  5
BC24
330
BA7F
100
AcDbEntity
  8
1
  6
Continuous
100
AcDbCircle
 10
29.658064
 20
113.0900179999999
 30
0.0
 40
0.3
100
AcDbArc
 50
90.0
 51
208.985474
  0
LINE
  5
BC25
330
BA7F
100
AcDbEntity
  8
1
  6
Continuous
100
AcDbLine
 10
29.39564199999999
 20
109.9397139999999
 30
0.0
 11
32.523282
 21
109.3124259999999
 31
0.0
  0
ARC
  5
BC26
330
BA7F
100
AcDbEntity
  8
1
  6
Continuous
100
AcDbCircle
 10
29.658064
 20
110.0850909999999
 30
0.0
 40
0.3
100
AcDbArc
 50
90.0
 51
208.985474
  0
LINE
  5
BC27
330
BA7F
100
AcDbEntity
  8
1
  6
Continuous
100
AcDbLine
 10
35.358064
 20
104.7648139999999
 30
0.0
 11
29.658064
 21
105.3648139999999
 31
0.0
  0
LINE
  5
BC28
330
BA7F
100
AcDbEntity
  8
1
  6
Continuous
100
AcDbLine
 10
32.798588
 20
104.264814
 30
0.0
 11
35.581671
 21
104.264814
 31
0.0
  0
ARC
  5
BC29
330
BA7F
100
AcDbEntity
  8
1
  6
Continuous
100
AcDbCircle
 10
35.358064
 20
104.464814
 30
0.0
 40
0.3
100
AcDbArc
 50
318.189685
 51
90.0
  0
ARC
  5
BC2A
330
BA7F
100
AcDbEntity
  8
1
  6
Continuous
100
AcDbCircle
 10
35.358064
 20
107.4697409999999
 30
0.0
 40
0.3
100
AcDbArc
 50
318.189685
 51
90.0
  0
LINE
  5
BC2B
330
BA7F
100
AcDbEntity
  8
1
  6
Continuous
100
AcDbLine
 10
32.798588
 20
107.2697409999999
 30
0.0
 11
35.581671
 21
107.2697409999999
 31
0.0
  0
LINE
  5
BC2C
330
BA7F
100
AcDbEntity
  8
1
  6
Continuous
100
AcDbLine
 10
35.358064
 20
107.769741
 30
0.0
 11
29.658064
 21
108.3697409999999
 31
0.0
  0
ARC
  5
BC2D
330
BA7F
100
AcDbEntity
  8
1
  6
Continuous
100
AcDbCircle
 10
35.358064
 20
105.9250389999998
 30
0.0
 40
0.3
100
AcDbArc
 50
318.189685
 51
90.0
  0
LINE
  5
BC2E
330
BA7F
100
AcDbEntity
  8
1
  6
Continuous
100
AcDbLine
 10
32.798588
 20
105.7250389999999
 30
0.0
 11
35.581671
 21
105.7250389999999
 31
0.0
  0
LINE
  5
BC2F
330
BA7F
100
AcDbEntity
  8
1
  6
Continuous
100
AcDbLine
 10
35.358064
 20
106.2250389999999
 30
0.0
 11
29.658064
 21
106.8250389999999
 31
0.0
  0
ARC
  5
BC30
330
BA7F
100
AcDbEntity
  8
1
  6
Continuous
100
AcDbCircle
 10
29.658064
 20
105.0648139999998
 30
0.0
 40
0.3
100
AcDbArc
 50
90.0
 51
208.985474
  0
LINE
  5
BC31
330
BA7F
100
AcDbEntity
  8
1
  6
Continuous
100
AcDbLine
 10
29.39564199999999
 20
104.919437
 30
0.0
 11
32.523282
 21
104.2921489999999
 31
0.0
  0
ARC
  5
BC32
330
BA7F
100
AcDbEntity
  8
1
  6
Continuous
100
AcDbCircle
 10
29.658064
 20
108.0697409999998
 30
0.0
 40
0.3
100
AcDbArc
 50
90.0
 51
208.985474
  0
LINE
  5
BC33
330
BA7F
100
AcDbEntity
  8
1
  6
Continuous
100
AcDbLine
 10
29.39564199999999
 20
107.9243649999999
 30
0.0
 11
32.523282
 21
107.2970769999999
 31
0.0
  0
LINE
  5
BC34
330
BA7F
100
AcDbEntity
  8
1
  6
Continuous
100
AcDbLine
 10
29.39564199999999
 20
106.3796629999998
 30
0.0
 11
32.523282
 21
105.752375
 31
0.0
  0
ARC
  5
BC35
330
BA7F
100
AcDbEntity
  8
1
  6
Continuous
100
AcDbCircle
 10
29.658064
 20
106.5250389999998
 30
0.0
 40
0.3
100
AcDbArc
 50
90.0
 51
208.985474
  0
LINE
  5
BC36
330
BA7F
100
AcDbEntity
  8
1
  6
Continuous
100
AcDbLine
 10
32.508064
 20
104.2952019999999
 30
0.0
 11
32.798588
 21
104.264814
 31
0.0
  0
LINE
  5
BC37
330
BA7F
100
AcDbEntity
  8
1
  6
Continuous
100
AcDbLine
 10
32.508064
 20
107.300129
 30
0.0
 11
32.798588
 21
107.2697409999999
 31
0.0
  0
LINE
  5
BC38
330
BA7F
100
AcDbEntity
  8
1
  6
Continuous
100
AcDbLine
 10
32.508064
 20
105.755427
 30
0.0
 11
32.798588
 21
105.7250389999999
 31
0.0
  0
LINE
  5
BC39
330
BA7F
100
AcDbEntity
  8
1
  6
Continuous
100
AcDbLine
 10
109.0530189999999
 20
51.40240699999999
 30
0.0
 11
108.4530189999999
 21
45.702407
 31
0.0
  0
LINE
  5
BC3A
330
BA7F
100
AcDbEntity
  8
1
  6
Continuous
100
AcDbLine
 10
109.5530189999999
 20
48.84292999999999
 30
0.0
 11
109.5530189999999
 21
51.62601399999999
 31
0.0
  0
ARC
  5
BC3B
330
BA7F
100
AcDbEntity
  8
1
  6
Continuous
100
AcDbCircle
 10
109.3530189999998
 20
51.40240699999999
 30
0.0
 40
0.3
100
AcDbArc
 50
48.189685
 51
180.0
  0
LINE
  5
BC3C
330
BA7F
100
AcDbEntity
  8
1
  6
Continuous
100
AcDbLine
 10
107.5083169999999
 20
51.40240699999999
 30
0.0
 11
106.908317
 21
45.702407
 31
0.0
  0
LINE
  5
BC3D
330
BA7F
100
AcDbEntity
  8
1
  6
Continuous
100
AcDbLine
 10
108.0083169999999
 20
48.84292999999999
 30
0.0
 11
108.0083169999999
 21
51.62601399999999
 31
0.0
  0
ARC
  5
BC3E
330
BA7F
100
AcDbEntity
  8
1
  6
Continuous
100
AcDbCircle
 10
107.8083169999999
 20
51.40240699999999
 30
0.0
 40
0.3
100
AcDbArc
 50
48.189685
 51
180.0
  0
LINE
  5
BC3F
330
BA7F
100
AcDbEntity
  8
1
  6
Continuous
100
AcDbLine
 10
105.9153449999999
 20
51.40240699999999
 30
0.0
 11
105.3153449999998
 21
45.702407
 31
0.0
  0
LINE
  5
BC40
330
BA7F
100
AcDbEntity
  8
1
  6
Continuous
100
AcDbLine
 10
106.415345
 20
48.84292999999999
 30
0.0
 11
106.415345
 21
51.62601399999999
 31
0.0
  0
ARC
  5
BC41
330
BA7F
100
AcDbEntity
  8
1
  6
Continuous
100
AcDbCircle
 10
106.215345
 20
51.40240699999999
 30
0.0
 40
0.3
100
AcDbArc
 50
48.189685
 51
180.0
  0
ARC
  5
BC42
330
BA7F
100
AcDbEntity
  8
1
  6
Continuous
100
AcDbCircle
 10
104.9391949999999
 20
51.40240699999999
 30
0.0
 40
0.3
100
AcDbArc
 50
90.0
 51
180.0
  0
LINE
  5
BC43
330
BA7F
100
AcDbEntity
  8
1
  6
Continuous
100
AcDbLine
 10
104.9391949999999
 20
48.84292999999999
 30
0.0
 11
104.9391949999999
 21
51.702407
 31
0.0
  0
LINE
  5
BC44
330
BA7F
100
AcDbEntity
  8
1
  6
Continuous
100
AcDbLine
 10
104.639195
 20
51.40240699999999
 30
0.0
 11
104.0391949999999
 21
45.702407
 31
0.0
  0
LINE
  5
BC45
330
BA7F
100
AcDbEntity
  8
1
  6
Continuous
100
AcDbLine
 10
102.5635029999999
 20
51.40240699999999
 30
0.0
 11
101.963503
 21
45.702407
 31
0.0
  0
LINE
  5
BC46
330
BA7F
100
AcDbEntity
  8
1
  6
Continuous
100
AcDbLine
 10
102.863503
 20
48.84292999999999
 30
0.0
 11
102.863503
 21
51.702407
 31
0.0
  0
ARC
  5
BC47
330
BA7F
100
AcDbEntity
  8
1
  6
Continuous
100
AcDbCircle
 10
102.863503
 20
51.40240699999999
 30
0.0
 40
0.3
100
AcDbArc
 50
90.0
 51
180.0
  0
ARC
  5
BC48
330
BA7F
100
AcDbEntity
  8
1
  6
Continuous
100
AcDbCircle
 10
103.7323969999999
 20
51.40240699999999
 30
0.0
 40
0.3
100
AcDbArc
 50
90.0
 51
180.0
  0
LINE
  5
BC49
330
BA7F
100
AcDbEntity
  8
1
  6
Continuous
100
AcDbLine
 10
103.7323969999999
 20
48.84292999999999
 30
0.0
 11
103.7323969999999
 21
51.702407
 31
0.0
  0
LINE
  5
BC4A
330
BA7F
100
AcDbEntity
  8
1
  6
Continuous
100
AcDbLine
 10
103.4323969999999
 20
51.40240699999999
 30
0.0
 11
102.8323969999999
 21
45.702407
 31
0.0
  0
ARC
  5
BC4B
330
BA7F
100
AcDbEntity
  8
1
  6
Continuous
100
AcDbCircle
 10
108.753019
 20
45.702407
 30
0.0
 40
0.3
100
AcDbArc
 50
180.0
 51
298.985474
  0
LINE
  5
BC4C
330
BA7F
100
AcDbEntity
  8
1
  6
Continuous
100
AcDbLine
 10
108.898395
 20
45.439984
 30
0.0
 11
109.525683
 21
48.567625
 31
0.0
  0
LINE
  5
BC4D
330
BA7F
100
AcDbEntity
  8
1
  6
Continuous
100
AcDbLine
 10
107.3536929999998
 20
45.439984
 30
0.0
 11
107.9809809999999
 21
48.567625
 31
0.0
  0
ARC
  5
BC4E
330
BA7F
100
AcDbEntity
  8
1
  6
Continuous
100
AcDbCircle
 10
107.2083169999998
 20
45.702407
 30
0.0
 40
0.3
100
AcDbArc
 50
180.0
 51
298.985474
  0
LINE
  5
BC4F
330
BA7F
100
AcDbEntity
  8
1
  6
Continuous
100
AcDbLine
 10
105.760721
 20
45.439984
 30
0.0
 11
106.388009
 21
48.567625
 31
0.0
  0
ARC
  5
BC50
330
BA7F
100
AcDbEntity
  8
1
  6
Continuous
100
AcDbCircle
 10
105.6153449999999
 20
45.702407
 30
0.0
 40
0.3
100
AcDbArc
 50
180.0
 51
298.985474
  0
LINE
  5
BC51
330
BA7F
100
AcDbEntity
  8
1
  6
Continuous
100
AcDbLine
 10
104.0391949999999
 20
45.702407
 30
0.0
 11
104.2744689999999
 21
45.40947199999999
 31
0.0
  0
LINE
  5
BC52
330
BA7F
100
AcDbEntity
  8
1
  6
Continuous
100
AcDbLine
 10
104.2744689999999
 20
45.40947199999999
 30
0.0
 11
104.915764
 21
48.60695399999999
 31
0.0
  0
LINE
  5
BC53
330
BA7F
100
AcDbEntity
  8
1
  6
Continuous
100
AcDbLine
 10
102.198777
 20
45.40947199999999
 30
0.0
 11
102.840072
 21
48.60695399999999
 31
0.0
  0
ARC
  5
BC54
330
BA7F
100
AcDbEntity
  8
1
  6
Continuous
100
AcDbCircle
 10
102.263503
 20
45.702407
 30
0.0
 40
0.3
100
AcDbArc
 50
180.0
 51
257.540272
  0
ARC
  5
BC55
330
BA7F
100
AcDbEntity
  8
1
  6
Continuous
100
AcDbCircle
 10
103.132397
 20
45.702407
 30
0.0
 40
0.3
100
AcDbArc
 50
180.0
 51
257.540272
  0
LINE
  5
BC56
330
BA7F
100
AcDbEntity
  8
1
  6
Continuous
100
AcDbLine
 10
103.0676709999999
 20
45.40947199999999
 30
0.0
 11
103.708966
 21
48.60695399999999
 31
0.0
  0
LINE
  5
BC57
330
BA7F
100
AcDbEntity
  8
1
  6
Continuous
100
AcDbLine
 10
109.522631
 20
48.552407
 30
0.0
 11
109.5530189999999
 21
48.84292999999999
 31
0.0
  0
LINE
  5
BC58
330
BA7F
100
AcDbEntity
  8
1
  6
Continuous
100
AcDbLine
 10
107.977929
 20
48.552407
 30
0.0
 11
108.0083169999999
 21
48.84292999999999
 31
0.0
  0
LINE
  5
BC59
330
BA7F
100
AcDbEntity
  8
1
  6
Continuous
100
AcDbLine
 10
106.3849569999999
 20
48.552407
 30
0.0
 11
106.415345
 21
48.84292999999999
 31
0.0
  0
LINE
  5
BC5A
330
BA7F
100
AcDbEntity
  8
1
  6
Continuous
100
AcDbLine
 10
104.904824
 20
48.552407
 30
0.0
 11
104.9391949999999
 21
48.84292999999999
 31
0.0
  0
LINE
  5
BC5B
330
BA7F
100
AcDbEntity
  8
1
  6
Continuous
100
AcDbLine
 10
102.829132
 20
48.552407
 30
0.0
 11
102.863503
 21
48.84292999999999
 31
0.0
  0
LINE
  5
BC5C
330
BA7F
100
AcDbEntity
  8
1
  6
Continuous
100
AcDbLine
 10
103.6980259999999
 20
48.552407
 30
0.0
 11
103.7323969999999
 21
48.84292999999999
 31
0.0
  0
LINE
  5
BC5D
330
BA7F
100
AcDbEntity
  8
1
  6
Continuous
100
AcDbLine
 10
101.5000619999999
 20
51.40240699999999
 30
0.0
 11
100.900062
 21
45.702407
 31
0.0
  0
LINE
  5
BC5E
330
BA7F
100
AcDbEntity
  8
1
  6
Continuous
100
AcDbLine
 10
101.800062
 20
48.84292999999999
 30
0.0
 11
101.800062
 21
51.702407
 31
0.0
  0
ARC
  5
BC5F
330
BA7F
100
AcDbEntity
  8
1
  6
Continuous
100
AcDbCircle
 10
101.800062
 20
51.40240699999999
 30
0.0
 40
0.3
100
AcDbArc
 50
90.0
 51
180.0
  0
LINE
  5
BC60
330
BA7F
100
AcDbEntity
  8
1
  6
Continuous
100
AcDbLine
 10
101.1353359999999
 20
45.40947199999999
 30
0.0
 11
101.776632
 21
48.60695399999999
 31
0.0
  0
ARC
  5
BC61
330
BA7F
100
AcDbEntity
  8
1
  6
Continuous
100
AcDbCircle
 10
101.200062
 20
45.702407
 30
0.0
 40
0.3
100
AcDbArc
 50
180.0
 51
257.540272
  0
LINE
  5
BC62
330
BA7F
100
AcDbEntity
  8
1
  6
Continuous
100
AcDbLine
 10
101.800062
 20
48.84292999999999
 30
0.0
 11
101.776632
 21
48.60695399999999
 31
0.0
  0
LINE
  5
BC63
330
BA7F
100
AcDbEntity
  8
1
  6
Continuous
100
AcDbLine
 10
103.151356
 20
202.1026299999999
 30
0.0
 11
103.751356
 21
207.8026299999999
 31
0.0
  0
LINE
  5
BC64
330
BA7F
100
AcDbEntity
  8
1
  6
Continuous
100
AcDbLine
 10
102.651356
 20
204.662106
 30
0.0
 11
102.651356
 21
201.879023
 31
0.0
  0
ARC
  5
BC65
330
BA7F
100
AcDbEntity
  8
1
  6
Continuous
100
AcDbCircle
 10
102.851356
 20
202.1026299999999
 30
0.0
 40
0.3
100
AcDbArc
 50
228.1896849999998
 51
0.0
  0
LINE
  5
BC66
330
BA7F
100
AcDbEntity
  8
1
  6
Continuous
100
AcDbLine
 10
103.3059799999999
 20
208.065052
 30
0.0
 11
102.6786919999999
 21
204.937411
 31
0.0
  0
ARC
  5
BC67
330
BA7F
100
AcDbEntity
  8
1
  6
Continuous
100
AcDbCircle
 10
103.451356
 20
207.8026299999999
 30
0.0
 40
0.3
100
AcDbArc
 50
0.0
 51
118.9854739999999
  0
LINE
  5
BC68
330
BA7F
100
AcDbEntity
  8
1
  6
Continuous
100
AcDbLine
 10
101.614006
 20
205.039452
 30
0.0
 11
101.5796359999998
 21
204.748929
 31
0.0
  0
LINE
  5
BC69
330
BA7F
100
AcDbEntity
  8
1
  6
Continuous
100
AcDbLine
 10
101.5796359999998
 20
204.748929
 30
0.0
 11
101.5796359999998
 21
201.8894519999999
 31
0.0
  0
LINE
  5
BC6A
330
BA7F
100
AcDbEntity
  8
1
  6
Continuous
100
AcDbLine
 10
101.879636
 20
202.189452
 30
0.0
 11
102.479636
 21
207.8894519999999
 31
0.0
  0
ARC
  5
BC6B
330
BA7F
100
AcDbEntity
  8
1
  6
Continuous
100
AcDbCircle
 10
101.5796359999998
 20
202.189452
 30
0.0
 40
0.3
100
AcDbArc
 50
270.0
 51
0.0
  0
LINE
  5
BC6C
330
BA7F
100
AcDbEntity
  8
1
  6
Continuous
100
AcDbLine
 10
102.479636
 20
207.8894519999999
 30
0.0
 11
102.2443619999999
 21
208.182386
 31
0.0
  0
LINE
  5
BC6D
330
BA7F
100
AcDbEntity
  8
1
  6
Continuous
100
AcDbLine
 10
102.2443619999999
 20
208.182386
 30
0.0
 11
101.6030659999999
 21
204.984904
 31
0.0
  0
LINE
  5
BC6E
330
BA7F
100
AcDbEntity
  8
1
  6
Continuous
100
AcDbLine
 10
120.7651889999999
 20
56.5
 30
0.0
 11
120.7651889999999
 21
55.25
 31
0.0
  0
LINE
  5
BC6F
330
BA7F
100
AcDbEntity
  8
1
  6
Continuous
100
AcDbLine
 10
131.765189
 20
56.5
 30
0.0
 11
131.765189
 21
55.25
 31
0.0
  0
LINE
  5
BC70
330
BA7F
100
AcDbEntity
  8
1
  6
Continuous
100
AcDbLine
 10
120.7651889999999
 20
42.25
 30
0.0
 11
120.7651889999999
 21
41.0
 31
0.0
  0
LINE
  5
BC71
330
BA7F
100
AcDbEntity
  8
1
  6
Continuous
100
AcDbLine
 10
131.765189
 20
42.25
 30
0.0
 11
131.765189
 21
41.0
 31
0.0
  0
ARC
  5
BC72
330
BA7F
100
AcDbEntity
  8
1
  6
Continuous
100
AcDbCircle
 10
126.2651889999999
 20
145.8168879999998
 30
0.0
 40
7.4
100
AcDbArc
 50
18.924644
 51
161.075356
  0
ARC
  5
BC73
330
BA7F
100
AcDbEntity
  8
1
  6
Continuous
100
AcDbCircle
 10
126.2651889999999
 20
235.2172879999999
 30
0.0
 40
25.0
100
AcDbArc
 50
253.7397949999999
 51
286.2602049999999
  0
ARC
  5
BC74
330
BA7F
100
AcDbEntity
  8
1
  6
Continuous
100
AcDbCircle
 10
126.2651889999999
 20
174.7172879999999
 30
0.0
 40
25.0
100
AcDbArc
 50
73.739795
 51
106.2602049999999
  0
LINE
  5
BC75
330
BA7F
100
AcDbEntity
  8
1
  6
Continuous
100
AcDbLine
 10
132.065189
 20
212.7172879999998
 30
0.0
 11
133.2651889999999
 21
211.217288
 31
0.0
  0
LINE
  5
BC76
330
BA7F
100
AcDbEntity
  8
1
  6
Continuous
100
AcDbLine
 10
120.465189
 20
212.7172879999998
 30
0.0
 11
119.265189
 21
211.217288
 31
0.0
  0
LINE
  5
BC77
330
BA7F
100
AcDbEntity
  8
1
  6
Continuous
100
AcDbLine
 10
119.265189
 20
198.7172879999999
 30
0.0
 11
120.465189
 21
197.217288
 31
0.0
  0
LINE
  5
BC78
330
BA7F
100
AcDbEntity
  8
1
  6
Continuous
100
AcDbLine
 10
133.2651889999999
 20
198.7172879999999
 30
0.0
 11
132.065189
 21
197.217288
 31
0.0
  0
LINE
  5
BC79
330
BA7F
100
AcDbEntity
  8
1
  6
Continuous
100
AcDbLine
 10
120.465189
 20
56.5
 30
0.0
 11
119.465189
 21
55.25
 31
0.0
  0
LINE
  5
BC7A
330
BA7F
100
AcDbEntity
  8
1
  6
Continuous
100
AcDbLine
 10
132.065189
 20
56.5
 30
0.0
 11
133.065189
 21
55.25
 31
0.0
  0
LINE
  5
BC7B
330
BA7F
100
AcDbEntity
  8
1
  6
Continuous
100
AcDbLine
 10
133.065189
 20
42.25
 30
0.0
 11
132.065189
 21
41.0
 31
0.0
  0
LINE
  5
BC7C
330
BA7F
100
AcDbEntity
  8
1
  6
Continuous
100
AcDbLine
 10
119.465189
 20
42.25
 30
0.0
 11
120.465189
 21
41.0
 31
0.0
  0
LINE
  5
BC7D
330
BA7F
100
AcDbEntity
  8
1
  6
Continuous
100
AcDbLine
 10
102.6786919999999
 20
204.937411
 30
0.0
 11
102.651356
 21
204.662106
 31
0.0
  0
LINE
  5
BC7E
330
BA7F
100
AcDbEntity
  8
1
  6
Continuous
100
AcDbLine
 10
114.266609
 20
203.7650789999999
 30
0.0
 11
114.093157
 21
202.1172879999999
 31
0.0
  0
ARC
  5
BC7F
330
BA7F
100
AcDbEntity
  8
1
  6
Continuous
100
AcDbCircle
 10
144.833283
 20
204.967288
 30
0.0
 40
1.0
100
AcDbArc
 50
167.242468
 51
192.757532
  0
ARC
  5
BC80
330
BA7F
100
AcDbEntity
  8
1
  6
Continuous
100
AcDbCircle
 10
122.9483969999999
 20
116.5275679999999
 30
0.0
 40
32.390239
100
AcDbArc
 50
47.25468299999999
 51
73.761179
  0
ARC
  5
BC81
330
BA7F
100
AcDbEntity
  8
1
  6
Continuous
100
AcDbCircle
 10
122.9483969999999
 20
116.5275679999999
 30
0.0
 40
31.790239
100
AcDbArc
 50
47.28502800000001
 51
73.560139
  0
ARC
  5
BC82
330
BA7F
100
AcDbEntity
  8
1
  6
Continuous
100
AcDbCircle
 10
122.9483969999999
 20
116.5275679999999
 30
0.0
 40
31.190239
100
AcDbArc
 50
47.31661299999998
 51
73.351223
  0
LINE
  5
BC83
330
BA7F
100
AcDbEntity
  8
1
  6
Continuous
100
AcDbLine
 10
214.949885
 20
147.7914989999999
 30
0.0
 11
218.949885
 21
145.482098
 31
0.0
  0
ARC
  5
BC84
330
BA7F
100
AcDbEntity
  8
1
  6
Continuous
100
AcDbCircle
 10
219.449885
 20
146.348124
 30
0.0
 40
1.0
100
AcDbArc
 50
239.9999999999999
 51
300.0
  0
LINE
  5
BC85
330
BA7F
100
AcDbEntity
  8
1
  6
Continuous
100
AcDbLine
 10
219.9498849999999
 20
145.482098
 30
0.0
 11
223.9498849999999
 21
147.7914989999999
 31
0.0
  0
ARC
  5
BC86
330
BA7F
100
AcDbEntity
  8
1
  6
Continuous
100
AcDbCircle
 10
223.449885
 20
148.657525
 30
0.0
 40
1.0
100
AcDbArc
 50
300.0
 51
0.0
  0
LINE
  5
BC87
330
BA7F
100
AcDbEntity
  8
1
  6
Continuous
100
AcDbLine
 10
224.4498849999999
 20
148.657525
 30
0.0
 11
224.4498849999999
 21
153.276327
 31
0.0
  0
ARC
  5
BC88
330
BA7F
100
AcDbEntity
  8
1
  6
Continuous
100
AcDbCircle
 10
223.449885
 20
153.276327
 30
0.0
 40
1.0
100
AcDbArc
 50
0.0
 51
60.0
  0
LINE
  5
BC89
330
BA7F
100
AcDbEntity
  8
1
  6
Continuous
100
AcDbLine
 10
223.9498849999999
 20
154.1423519999999
 30
0.0
 11
219.9498849999999
 21
156.451753
 31
0.0
  0
ARC
  5
BC8A
330
BA7F
100
AcDbEntity
  8
1
  6
Continuous
100
AcDbCircle
 10
219.449885
 20
155.5857279999998
 30
0.0
 40
1.0
100
AcDbArc
 50
60.0
 51
119.9999999999999
  0
LINE
  5
BC8B
330
BA7F
100
AcDbEntity
  8
1
  6
Continuous
100
AcDbLine
 10
218.949885
 20
156.451753
 30
0.0
 11
214.949885
 21
154.1423519999999
 31
0.0
  0
ARC
  5
BC8C
330
BA7F
100
AcDbEntity
  8
1
  6
Continuous
100
AcDbCircle
 10
215.4498849999999
 20
153.276327
 30
0.0
 40
1.0
100
AcDbArc
 50
119.9999999999999
 51
180.0
  0
LINE
  5
BC8D
330
BA7F
100
AcDbEntity
  8
1
  6
Continuous
100
AcDbLine
 10
214.449885
 20
153.276327
 30
0.0
 11
214.449885
 21
148.657525
 31
0.0
  0
ARC
  5
BC8E
330
BA7F
100
AcDbEntity
  8
1
  6
Continuous
100
AcDbCircle
 10
215.4498849999999
 20
148.657525
 30
0.0
 40
1.0
100
AcDbArc
 50
180.0
 51
239.9999999999999
  0
ENDSEC
  0
SECTION
  2
OBJECTS
  0
DICTIONARY
  5
BA6D
330
0
100
AcDbDictionary
281
     1
  3
ACAD_CIP_PREVIOUS_PRODUCT_INFO
350
BCEE
  3
ACAD_COLOR
350
BCD0
  3
ACAD_DETAILVIEWSTYLE
350
BCE9
  3
ACAD_GROUP
350
BA6E
  3
ACAD_LAYOUT
350
BA7A
  3
ACAD_MATERIAL
350
BC9E
  3
ACAD_MLEADERSTYLE
350
BCE5
  3
ACAD_MLINESTYLE
350
BA77
  3
ACAD_PLOTSETTINGS
350
BA79
  3
ACAD_PLOTSTYLENAME
350
BC9C
  3
ACAD_SCALELIST
350
BCD3
  3
ACAD_SECTIONVIEWSTYLE
350
BCE7
  3
ACAD_TABLESTYLE
350
BCD1
  3
ACAD_VISUALSTYLE
350
BCB7
  3
ACDB_RECOMPOSE_DATA
350
BD0C
  3
AcDbVariableDictionary
350
BCFF
  3
DWGPROPS
350
BD0D
  0
DICTIONARY
  5
BCEF
330
BA71
100
AcDbDictionary
280
     1
281
     1
  3
ADSK_XREC_LAYER_RECONCILED
360
BCF0
  0
DICTIONARY
  5
BCF1
330
BA87
100
AcDbDictionary
280
     1
281
     1
  3
ADSK_XREC_LAYER_RECONCILED
360
BCF2
  0
DICTIONARY
  5
BCF3
330
BA88
100
AcDbDictionary
280
     1
281
     1
  3
ADSK_XREC_LAYER_RECONCILED
360
BCF4
  0
DICTIONARY
  5
BCF5
330
BA89
100
AcDbDictionary
280
     1
281
     1
  3
ADSK_XREC_LAYER_RECONCILED
360
BCF6
  0
DICTIONARY
  5
BCF7
330
BA8A
100
AcDbDictionary
280
     1
281
     1
  3
ADSK_XREC_LAYER_RECONCILED
360
BCF8
  0
DICTIONARY
  5
BCF9
330
BA8B
100
AcDbDictionary
280
     1
281
     1
  3
ADSK_XREC_LAYER_RECONCILED
360
BCFA
  0
DICTIONARY
  5
BCFB
330
BA8C
100
AcDbDictionary
280
     1
281
     1
  3
ADSK_XREC_LAYER_RECONCILED
360
BCFC
  0
DICTIONARY
  5
BCFD
330
BA8D
100
AcDbDictionary
280
     1
281
     1
  3
ADSK_XREC_LAYER_RECONCILED
360
BCFE
  0
DICTIONARY
  5
BC97
330
BA7F
100
AcDbDictionary
281
     1
  3
ACAD_LAYOUTSELFREF
350
BC98
  0
DICTIONARY
  5
BC95
330
BA7B
100
AcDbDictionary
281
     1
  3
ACAD_LAYOUTSELFREF
350
BC96
  0
XRECORD
  5
BCEE
102
{ACAD_REACTORS
330
BA6D
102
}
330
BA6D
100
AcDbXrecord
280
     1
300
ACDLT
300
2014
300
ACDLT_F_S
  0
DICTIONARY
  5
BCD0
102
{ACAD_REACTORS
330
BA6D
102
}
330
BA6D
100
AcDbDictionary
281
     1
  0
DICTIONARY
  5
BCE9
102
{ACAD_REACTORS
330
BA6D
102
}
330
BA6D
100
AcDbDictionary
281
     1
  3
Imperial24
350
BCEA
  0
DICTIONARY
  5
BA6E
102
{ACAD_REACTORS
330
BA6D
102
}
330
BA6D
100
AcDbDictionary
281
     1
  0
DICTIONARY
  5
BA7A
102
{ACAD_REACTORS
330
BA6D
102
}
330
BA6D
100
AcDbDictionary
281
     1
  3
Model
350
BCEB
  3
レイアウト1
350
BCEC
  0
DICTIONARY
  5
BC9E
102
{ACAD_REACTORS
330
BA6D
102
}
330
BA6D
100
AcDbDictionary
281
     1
  3
ByBlock
350
BCA7
  3
ByLayer
350
BC9F
  3
Global
350
BCAF
  0
DICTIONARY
  5
BCE5
102
{ACAD_REACTORS
330
BA6D
102
}
330
BA6D
100
AcDbDictionary
281
     1
  3
Standard
350
BCE6
  0
DICTIONARY
  5
BA77
102
{ACAD_REACTORS
330
BA6D
102
}
330
BA6D
100
AcDbDictionary
281
     1
  3
STANDARD
350
BA78
  0
DICTIONARY
  5
BA79
102
{ACAD_REACTORS
330
BA6D
102
}
330
BA6D
100
AcDbDictionary
281
     1
  0
ACDBDICTIONARYWDFLT
  5
BC9C
102
{ACAD_REACTORS
330
BA6D
102
}
330
BA6D
100
AcDbDictionary
281
     1
  3
Normal
350
BC9D
100
AcDbDictionaryWithDefault
340
BC9D
  0
DICTIONARY
  5
BCD3
102
{ACAD_REACTORS
330
BA6D
102
}
330
BA6D
100
AcDbDictionary
281
     1
  3
A0
350
BCD4
  3
A1
350
BCD5
  3
A2
350
BCD6
  3
A3
350
BCD7
  3
A4
350
BCD8
  3
A5
350
BCD9
  3
A6
350
BCDA
  3
A7
350
BCDB
  3
A8
350
BCDC
  3
A9
350
BCDD
  3
B0
350
BCDE
  3
B1
350
BCDF
  3
B2
350
BCE0
  3
B3
350
BCE1
  3
B4
350
BCE2
  3
B5
350
BCE3
  3
B6
350
BCE4
  0
DICTIONARY
  5
BCE7
102
{ACAD_REACTORS
330
BA6D
102
}
330
BA6D
100
AcDbDictionary
281
     1
  3
Imperial24
350
BCE8
  0
DICTIONARY
  5
BCD1
102
{ACAD_REACTORS
330
BA6D
102
}
330
BA6D
100
AcDbDictionary
281
     1
  3
Standard
350
BCD2
  0
DICTIONARY
  5
BCB7
102
{ACAD_REACTORS
330
BA6D
102
}
330
BA6D
100
AcDbDictionary
281
     1
  3
2dWireframe
350
BCBD
  3
Basic
350
BCBC
  3
Brighten
350
BCC3
  3
ColorChange
350
BCC7
  3
Conceptual
350
BCC0
  3
Dim
350
BCC2
  3
EdgeColorOff
350
BCCF
  3
Facepattern
350
BCC6
  3
Flat
350
BCB8
  3
FlatWithEdges
350
BCB9
  3
Gouraud
350
BCBA
  3
GouraudWithEdges
350
BCBB
  3
Hidden
350
BCBF
  3
JitterOff
350
BCCD
  3
Linepattern
350
BCC5
  3
OverhangOff
350
BCCE
  3
Realistic
350
BCC1
  3
Shaded
350
BCCC
  3
Shaded with edges
350
BCCB
  3
Shades of Gray
350
BCC8
  3
Sketchy
350
BCC9
  3
Thicken
350
BCC4
  3
Wireframe
350
BCBE
  3
X-Ray
350
BCCA
  0
XRECORD
  5
BD0C
102
{ACAD_REACTORS
330
BA6D
102
}
330
BA6D
100
AcDbXrecord
280
     1
 90
        1
330
BCD2
  0
DICTIONARY
  5
BCFF
102
{ACAD_REACTORS
330
BA6D
102
}
330
BA6D
100
AcDbDictionary
281
     1
  3
CANNOSCALE
350
BD04
  3
CMLEADERSTYLE
350
BD01
  3
CTABLESTYLE
350
BD00
  3
CVIEWDETAILSTYLE
350
BD02
  3
CVIEWSECTIONSTYLE
350
BD03
  3
DIMASSOC
350
BD07
  3
INDEXCTL
350
BD06
  3
SORTENTS
350
BD05
  3
XCLIPFRAME
350
BD08
  0
XRECORD
  5
BD0D
102
{ACAD_REACTORS
330
BA6D
102
}
330
BA6D
100
AcDbXrecord
280
     1
  1
DWGPROPS COOKIE
  2

  3

  4

  6

  7

  8
Yoshitsune
  9

300
=
301
=
302
=
303
=
304
=
305
=
306
=
307
=
308
=
309
=
 40
0.0000111111111111
 41
2451296.796595718
 42
2457192.658379606
  1

 90
        0
  0
XRECORD
  5
BCF0
102
{ACAD_REACTORS
330
BCEF
102
}
330
BCEF
100
AcDbXrecord
280
     1
290
     1
  0
XRECORD
  5
BCF2
102
{ACAD_REACTORS
330
BCF1
102
}
330
BCF1
100
AcDbXrecord
280
     1
290
     1
  0
XRECORD
  5
BCF4
102
{ACAD_REACTORS
330
BCF3
102
}
330
BCF3
100
AcDbXrecord
280
     1
290
     1
  0
XRECORD
  5
BCF6
102
{ACAD_REACTORS
330
BCF5
102
}
330
BCF5
100
AcDbXrecord
280
     1
290
     1
  0
XRECORD
  5
BCF8
102
{ACAD_REACTORS
330
BCF7
102
}
330
BCF7
100
AcDbXrecord
280
     1
290
     1
  0
XRECORD
  5
BCFA
102
{ACAD_REACTORS
330
BCF9
102
}
330
BCF9
100
AcDbXrecord
280
     1
290
     1
  0
XRECORD
  5
BCFC
102
{ACAD_REACTORS
330
BCFB
102
}
330
BCFB
100
AcDbXrecord
280
     1
290
     1
  0
XRECORD
  5
BCFE
102
{ACAD_REACTORS
330
BCFD
102
}
330
BCFD
100
AcDbXrecord
280
     1
290
     1
  0
XRECORD
  5
BC98
102
{ACAD_REACTORS
330
BC97
102
}
330
BC97
100
AcDbXrecord
280
     1
340
BA7F
  0
XRECORD
  5
BC96
102
{ACAD_REACTORS
330
BC95
102
}
330
BC95
100
AcDbXrecord
280
     1
340
BA7B
  0
ACDBDETAILVIEWSTYLE
  5
BCEA
102
{ACAD_XDICTIONARY
360
BD45
102
}
102
{ACAD_REACTORS
330
BCE9
102
}
330
BCE9
100
AcDbModelDocViewStyle
 70
     0
  3
Imperial24
290
     0
100
AcDbDetailViewStyle
 70
     0
 71
     0
 90
        3
 71
     1
340
BA72
 40
0.24
340
0
 40
0.24
300

 40
0.36
280
     3
 71
     2
340
BA76
 90
       25
 71
     3
340
BA72
 40
0.24
 90
        1
 40
0.75
 90
        1
300
%<\AcVar ViewType \f "%tc1">% %<\AcVar ViewDetailId>%\PSCALE %<\AcVar ViewScale \f "%sn">%
 71
     4
340
BA76
 90
       25
340
BA76
 90
       25
280
     0
  0
LAYOUT
  5
BCEB
102
{ACAD_XDICTIONARY
360
BD47
102
}
102
{ACAD_REACTORS
330
BA7A
102
}
330
BA7A
100
AcDbPlotSettings
  1

  2
Canon LBP9100C
  4

  6

 40
0.0
 41
0.0
 42
0.0
 43
0.0
 44
0.0
 45
0.0
 46
0.0
 47
0.0
 48
0.0
 49
0.0
140
0.0
141
0.0
142
1.0
143
1.0
 70
  1712
 72
     0
 73
     0
 74
     0
  7

 75
     0
147
1.0
148
0.0
149
0.0
100
AcDbLayout
  1
Model
 70
     1
 71
     0
 10
0.0
 20
0.0
 11
12.0
 21
9.0
 12
0.0
 22
0.0
 32
0.0
 14
0.0
 24
0.0
 34
0.0
 15
0.0
 25
0.0
 35
0.0
146
0.0
 13
0.0
 23
0.0
 33
0.0
 16
1.0
 26
0.0
 36
0.0
 17
0.0
 27
1.0
 37
0.0
 76
     0
330
BA7F
331
BC94
  0
LAYOUT
  5
BCEC
102
{ACAD_XDICTIONARY
360
BD49
102
}
102
{ACAD_REACTORS
330
BA7A
102
}
330
BA7A
100
AcDbPlotSettings
  1

  2
Canon LBP9100C
  4

  6

 40
0.0
 41
0.0
 42
0.0
 43
0.0
 44
0.0
 45
0.0
 46
0.0
 47
0.0
 48
0.0
 49
0.0
140
0.0
141
0.0
142
1.0
143
1.0
 70
   688
 72
     0
 73
     0
 74
     5
  7

 75
    16
147
1.0
148
0.0
149
0.0
100
AcDbLayout
  1
レイアウト1
 70
     0
 71
     1
 10
0.0
 20
0.0
 11
420.0
 21
297.0
 12
0.0
 22
0.0
 32
0.0
 14
1.000000000000000E+20
 24
1.000000000000000E+20
 34
1.000000000000000E+20
 15
-1.000000000000000E+20
 25
-1.000000000000000E+20
 35
-1.000000000000000E+20
146
0.0
 13
0.0
 23
0.0
 33
0.0
 16
1.0
 26
0.0
 36
0.0
 17
0.0
 27
1.0
 37
0.0
 76
     0
330
BA7B
  0
MATERIAL
  5
BCA7
102
{ACAD_XDICTIONARY
360
BCA8
102
}
102
{ACAD_REACTORS
330
BC9E
102
}
330
BC9E
100
AcDbMaterial
  1
ByBlock
 72
     0
 43
0.0208333333333333
 43
0.0
 43
0.0
 43
0.0
 43
0.0
 43
0.0208333333333333
 43
0.0
 43
0.0
 43
0.0
 43
0.0
 43
1.0
 43
0.0
 43
0.0
 43
0.0
 43
0.0
 43
1.0
 77
     0
 47
0.0208333333333333
 47
0.0
 47
0.0
 47
0.0
 47
0.0
 47
0.0208333333333333
 47
0.0
 47
0.0
 47
0.0
 47
0.0
 47
1.0
 47
0.0
 47
0.0
 47
0.0
 47
0.0
 47
1.0
171
     0
 49
0.0208333333333333
 49
0.0
 49
0.0
 49
0.0
 49
0.0
 49
0.0208333333333333
 49
0.0
 49
0.0
 49
0.0
 49
0.0
 49
1.0
 49
0.0
 49
0.0
 49
0.0
 49
0.0
 49
1.0
175
     0
142
0.0208333333333333
142
0.0
142
0.0
142
0.0
142
0.0
142
0.0208333333333333
142
0.0
142
0.0
142
0.0
142
0.0
142
1.0
142
0.0
142
0.0
142
0.0
142
0.0
142
1.0
179
     0
144
0.0208333333333333
144
0.0
144
0.0
144
0.0
144
0.0
144
0.0208333333333333
144
0.0
144
0.0
144
0.0
144
0.0
144
1.0
144
0.0
144
0.0
144
0.0
144
0.0
144
1.0
147
0.0208333333333333
147
0.0
147
0.0
147
0.0
147
0.0
147
0.0208333333333333
147
0.0
147
0.0
147
0.0
147
0.0
147
1.0
147
0.0
147
0.0
147
0.0
147
0.0
147
1.0
  0
MATERIAL
  5
BC9F
102
{ACAD_XDICTIONARY
360
BCA0
102
}
102
{ACAD_REACTORS
330
BC9E
102
}
330
BC9E
100
AcDbMaterial
  1
ByLayer
 72
     0
 43
0.0208333333333333
 43
0.0
 43
0.0
 43
0.0
 43
0.0
 43
0.0208333333333333
 43
0.0
 43
0.0
 43
0.0
 43
0.0
 43
1.0
 43
0.0
 43
0.0
 43
0.0
 43
0.0
 43
1.0
 77
     0
 47
0.0208333333333333
 47
0.0
 47
0.0
 47
0.0
 47
0.0
 47
0.0208333333333333
 47
0.0
 47
0.0
 47
0.0
 47
0.0
 47
1.0
 47
0.0
 47
0.0
 47
0.0
 47
0.0
 47
1.0
171
     0
 49
0.0208333333333333
 49
0.0
 49
0.0
 49
0.0
 49
0.0
 49
0.0208333333333333
 49
0.0
 49
0.0
 49
0.0
 49
0.0
 49
1.0
 49
0.0
 49
0.0
 49
0.0
 49
0.0
 49
1.0
175
     0
142
0.0208333333333333
142
0.0
142
0.0
142
0.0
142
0.0
142
0.0208333333333333
142
0.0
142
0.0
142
0.0
142
0.0
142
1.0
142
0.0
142
0.0
142
0.0
142
0.0
142
1.0
179
     0
144
0.0208333333333333
144
0.0
144
0.0
144
0.0
144
0.0
144
0.0208333333333333
144
0.0
144
0.0
144
0.0
144
0.0
144
1.0
144
0.0
144
0.0
144
0.0
144
0.0
144
1.0
147
0.0208333333333333
147
0.0
147
0.0
147
0.0
147
0.0
147
0.0208333333333333
147
0.0
147
0.0
147
0.0
147
0.0
147
1.0
147
0.0
147
0.0
147
0.0
147
0.0
147
1.0
  0
MATERIAL
  5
BCAF
102
{ACAD_XDICTIONARY
360
BCB0
102
}
102
{ACAD_REACTORS
330
BC9E
102
}
330
BC9E
100
AcDbMaterial
  1
Global
 72
     0
 43
0.0208333333333333
 43
0.0
 43
0.0
 43
0.0
 43
0.0
 43
0.0208333333333333
 43
0.0
 43
0.0
 43
0.0
 43
0.0
 43
1.0
 43
0.0
 43
0.0
 43
0.0
 43
0.0
 43
1.0
 77
     0
 47
0.0208333333333333
 47
0.0
 47
0.0
 47
0.0
 47
0.0
 47
0.0208333333333333
 47
0.0
 47
0.0
 47
0.0
 47
0.0
 47
1.0
 47
0.0
 47
0.0
 47
0.0
 47
0.0
 47
1.0
171
     0
 49
0.0208333333333333
 49
0.0
 49
0.0
 49
0.0
 49
0.0
 49
0.0208333333333333
 49
0.0
 49
0.0
 49
0.0
 49
0.0
 49
1.0
 49
0.0
 49
0.0
 49
0.0
 49
0.0
 49
1.0
175
     0
142
0.0208333333333333
142
0.0
142
0.0
142
0.0
142
0.0
142
0.0208333333333333
142
0.0
142
0.0
142
0.0
142
0.0
142
1.0
142
0.0
142
0.0
142
0.0
142
0.0
142
1.0
179
     0
144
0.0208333333333333
144
0.0
144
0.0
144
0.0
144
0.0
144
0.0208333333333333
144
0.0
144
0.0
144
0.0
144
0.0
144
1.0
144
0.0
144
0.0
144
0.0
144
0.0
144
1.0
147
0.0208333333333333
147
0.0
147
0.0
147
0.0
147
0.0
147
0.0208333333333333
147
0.0
147
0.0
147
0.0
147
0.0
147
1.0
147
0.0
147
0.0
147
0.0
147
0.0
147
1.0
  0
MLEADERSTYLE
  5
BCE6
102
{ACAD_REACTORS
330
BCE5
102
}
330
BCE5
100
AcDbMLeaderStyle
170
     2
171
     1
172
     0
 90
        2
 40
0.0
 41
0.0
173
     1
 91
-1056964608
340
BA74
 92
       -2
290
     1
 42
0.09
291
     1
 43
0.36
  3
Standard
 44
0.18
300

342
BA72
174
     1
178
     6
175
     1
176
     0
 93
-1056964608
 45
0.18
292
     0
297
     0
 46
0.18
 94
-1056964608
 47
1.0
 49
1.0
140
1.0
293
     1
141
0.0
294
     1
177
     0
142
1.0
295
     0
296
     0
143
0.125
1001
ACAD_MLEADERVER
1070
     2
  0
MLINESTYLE
  5
BA78
102
{ACAD_REACTORS
330
BA77
102
}
330
BA77
100
AcDbMlineStyle
  2
STANDARD
 70
     0
  3

 62
   256
 51
90.0
 52
90.0
 71
     2
 49
0.5
 62
   256
  6
BYLAYER
 49
-0.5
 62
   256
  6
BYLAYER
  0
ACDBPLACEHOLDER
  5
BC9D
102
{ACAD_REACTORS
330
BC9C
102
}
330
BC9C
  0
SCALE
  5
BCD4
102
{ACAD_REACTORS
330
BCD3
102
}
330
BCD3
100
AcDbScale
 70
     0
300
1:1
140
1.0
141
1.0
290
     1
  0
SCALE
  5
BCD5
102
{ACAD_REACTORS
330
BCD3
102
}
330
BCD3
100
AcDbScale
 70
     0
300
1/128" = 1'-0"
140
0.0078125
141
12.0
290
     0
  0
SCALE
  5
BCD6
102
{ACAD_REACTORS
330
BCD3
102
}
330
BCD3
100
AcDbScale
 70
     0
300
1/64" = 1'-0"
140
0.015625
141
12.0
290
     0
  0
SCALE
  5
BCD7
102
{ACAD_REACTORS
330
BCD3
102
}
330
BCD3
100
AcDbScale
 70
     0
300
1/32" = 1'-0"
140
0.03125
141
12.0
290
     0
  0
SCALE
  5
BCD8
102
{ACAD_REACTORS
330
BCD3
102
}
330
BCD3
100
AcDbScale
 70
     0
300
1/16" = 1'-0"
140
0.0625
141
12.0
290
     0
  0
SCALE
  5
BCD9
102
{ACAD_REACTORS
330
BCD3
102
}
330
BCD3
100
AcDbScale
 70
     0
300
3/32" = 1'-0"
140
0.09375
141
12.0
290
     0
  0
SCALE
  5
BCDA
102
{ACAD_REACTORS
330
BCD3
102
}
330
BCD3
100
AcDbScale
 70
     0
300
1/8" = 1'-0"
140
0.125
141
12.0
290
     0
  0
SCALE
  5
BCDB
102
{ACAD_REACTORS
330
BCD3
102
}
330
BCD3
100
AcDbScale
 70
     0
300
3/16" = 1'-0"
140
0.1875
141
12.0
290
     0
  0
SCALE
  5
BCDC
102
{ACAD_REACTORS
330
BCD3
102
}
330
BCD3
100
AcDbScale
 70
     0
300
1/4" = 1'-0"
140
0.25
141
12.0
290
     0
  0
SCALE
  5
BCDD
102
{ACAD_REACTORS
330
BCD3
102
}
330
BCD3
100
AcDbScale
 70
     0
300
3/8" = 1'-0"
140
0.375
141
12.0
290
     0
  0
SCALE
  5
BCDE
102
{ACAD_REACTORS
330
BCD3
102
}
330
BCD3
100
AcDbScale
 70
     0
300
1/2" = 1'-0"
140
0.5
141
12.0
290
     0
  0
SCALE
  5
BCDF
102
{ACAD_REACTORS
330
BCD3
102
}
330
BCD3
100
AcDbScale
 70
     0
300
3/4" = 1'-0"
140
0.75
141
12.0
290
     0
  0
SCALE
  5
BCE0
102
{ACAD_REACTORS
330
BCD3
102
}
330
BCD3
100
AcDbScale
 70
     0
300
1" = 1'-0"
140
1.0
141
12.0
290
     0
  0
SCALE
  5
BCE1
102
{ACAD_REACTORS
330
BCD3
102
}
330
BCD3
100
AcDbScale
 70
     0
300
1-1/2" = 1'-0"
140
1.5
141
12.0
290
     0
  0
SCALE
  5
BCE2
102
{ACAD_REACTORS
330
BCD3
102
}
330
BCD3
100
AcDbScale
 70
     0
300
3" = 1'-0"
140
3.0
141
12.0
290
     0
  0
SCALE
  5
BCE3
102
{ACAD_REACTORS
330
BCD3
102
}
330
BCD3
100
AcDbScale
 70
     0
300
6" = 1'-0"
140
6.0
141
12.0
290
     0
  0
SCALE
  5
BCE4
102
{ACAD_REACTORS
330
BCD3
102
}
330
BCD3
100
AcDbScale
 70
     0
300
1'-0" = 1'-0"
140
12.0
141
12.0
290
     0
  0
ACDBSECTIONVIEWSTYLE
  5
BCE8
102
{ACAD_XDICTIONARY
360
BD43
102
}
102
{ACAD_REACTORS
330
BCE7
102
}
330
BCE7
100
AcDbModelDocViewStyle
 70
     0
  3
Imperial24
290
     0
100
AcDbSectionViewStyle
 70
     0
 71
     0
 90
       78
 71
     1
340
BA72
 40
0.24
340
0
340
0
 40
0.24
300
I, O, Q, S, X, Z
 40
0.48
 90
        3
 40
0.18
 90
        1
 71
     2
340
BA76
 90
       25
340
BA76
 90
       50
 40
0.24
 40
0.0
 40
0.24
 71
     3
340
BA72
 40
0.24
 90
        1
 40
0.75
 90
        1
300
%<\AcVar ViewType \f "%tc1">% %<\AcVar ViewSectionStartId>%-%<\AcVar ViewSectionEndId>%\PSCALE %<\AcVar ViewScale \f "%sn">%
 71
     4
300
ANSI31
 40
1.0
 90
        0
290
     0
290
     0
 90
        6
 40
0.0
 40
1.570796326794896
 40
0.2617993877991494
 40
1.308996938995747
 40
-0.2617993877991494
 40
1.832595714594046
  0
TABLESTYLE
  5
BCD2
102
{ACAD_XDICTIONARY
360
BD0A
102
}
102
{ACAD_REACTORS
330
BCD1
102
}
330
BCD1
100
AcDbTableStyle
  3
Standard
 70
     0
 71
     0
 40
0.06
 41
0.06
280
     0
281
     0
  7
STANDARD
140
0.18
170
     2
 62
     0
 63
     7
283
     0
274
    -2
284
     1
 64
     0
275
    -2
285
     1
 65
     0
276
    -2
286
     1
 66
     0
277
    -2
287
     1
 67
     0
278
    -2
288
     1
 68
     0
279
    -2
289
     1
 69
     0
  7
STANDARD
140
0.25
170
     5
 62
     0
 63
     7
283
     0
274
    -2
284
     1
 64
     0
275
    -2
285
     1
 65
     0
276
    -2
286
     1
 66
     0
277
    -2
287
     1
 67
     0
278
    -2
288
     1
 68
     0
279
    -2
289
     1
 69
     0
  7
STANDARD
140
0.18
170
     5
 62
     0
 63
     7
283
     0
274
    -2
284
     1
 64
     0
275
    -2
285
     1
 65
     0
276
    -2
286
     1
 66
     0
277
    -2
287
     1
 67
     0
278
    -2
288
     1
 68
     0
279
    -2
289
     1
 69
     0
  0
VISUALSTYLE
  5
BCBD
102
{ACAD_XDICTIONARY
360
BD1B
102
}
102
{ACAD_REACTORS
330
BCB7
102
}
330
BCB7
100
AcDbVisualStyle
  2
2dWireframe
 70
     4
 71
     0
 72
     2
 73
     0
 90
        0
 40
-0.6
 41
-30.0
 62
     5
 63
     7
 74
     1
 91
        4
 64
     7
 65
   257
 75
     1
175
     1
 42
1.0
 92
        0
 66
   257
 43
1.0
 76
     1
 77
     6
 78
     2
 67
     7
 79
     5
170
     0
171
     0
290
     0
174
     0
 93
        1
 44
0.0
173
     0
291
     0
 45
0.0
1001
ACAD
1000
AcDbSavedByObjectVersion
1070
     0
  0
VISUALSTYLE
  5
BCBC
102
{ACAD_XDICTIONARY
360
BD19
102
}
102
{ACAD_REACTORS
330
BCB7
102
}
330
BCB7
100
AcDbVisualStyle
  2
Basic
 70
     7
 71
     1
 72
     0
 73
     1
 90
        0
 40
-0.6
 41
-30.0
 62
     5
 63
     7
 74
     0
 91
        4
 64
     7
 65
   257
 75
     1
175
     1
 42
1.0
 92
        8
 66
     7
 43
1.0
 76
     1
 77
     6
 78
     2
 67
     7
 79
     5
170
     0
171
     0
290
     0
174
     0
 93
        1
 44
0.0
173
     0
291
     1
 45
0.0
1001
ACAD
1000
AcDbSavedByObjectVersion
1070
     0
  0
VISUALSTYLE
  5
BCC3
102
{ACAD_XDICTIONARY
360
BD27
102
}
102
{ACAD_REACTORS
330
BCB7
102
}
330
BCB7
100
AcDbVisualStyle
  2
Brighten
 70
    12
 71
     2
 72
     2
 73
     0
 90
        0
 40
-0.6
 41
-30.0
 62
     5
 63
     7
 74
     1
 91
        4
 64
     7
 65
   257
 75
     1
175
     1
 42
1.0
 92
        8
 66
     7
 43
1.0
 76
     1
 77
     6
 78
     2
 67
     7
 79
     5
170
     0
171
     0
290
     0
174
     0
 93
        1
 44
50.0
173
     0
291
     1
 45
0.0
1001
ACAD
1000
AcDbSavedByObjectVersion
1070
     0
  0
VISUALSTYLE
  5
BCC7
102
{ACAD_XDICTIONARY
360
BD2F
102
}
102
{ACAD_REACTORS
330
BCB7
102
}
330
BCB7
100
AcDbVisualStyle
  2
ColorChange
 70
    16
 71
     2
 72
     2
 73
     3
 90
        0
 40
-0.6
 41
-30.0
 62
     5
 63
     8
 74
     1
 91
        4
 64
     7
 65
   257
 75
     1
175
     1
 42
1.0
 92
        8
 66
     8
 43
1.0
 76
     1
 77
     6
 78
     2
 67
     7
 79
     5
170
     0
171
     0
290
     0
174
     0
 93
        1
 44
0.0
173
     0
291
     1
 45
0.0
1001
ACAD
1000
AcDbSavedByObjectVersion
1070
     0
  0
VISUALSTYLE
  5
BCC0
102
{ACAD_XDICTIONARY
360
BD21
102
}
102
{ACAD_REACTORS
330
BCB7
102
}
330
BCB7
100
AcDbVisualStyle
  2
Conceptual
 70
     9
 71
     3
 72
     2
 73
     0
 90
        0
 40
-0.6
 41
-30.0
 62
     5
 63
     7
 74
     2
 91
        2
 64
     7
 65
   257
 75
     1
175
     1
 42
179.0
 92
        8
 66
     7
 43
1.0
 76
     1
 77
     6
 78
     2
 67
     7
 79
     3
170
     0
171
     0
290
     0
174
     0
 93
        1
 44
0.0
173
     0
291
     0
 45
0.0
1001
ACAD
1000
AcDbSavedByObjectVersion
1070
     0
  0
VISUALSTYLE
  5
BCC2
102
{ACAD_XDICTIONARY
360
BD25
102
}
102
{ACAD_REACTORS
330
BCB7
102
}
330
BCB7
100
AcDbVisualStyle
  2
Dim
 70
    11
 71
     2
 72
     2
 73
     0
 90
        0
 40
-0.6
 41
-30.0
 62
     5
 63
     7
 74
     1
 91
        4
 64
     7
 65
   257
 75
     1
175
     1
 42
1.0
 92
        8
 66
     7
 43
1.0
 76
     1
 77
     6
 78
     2
 67
     7
 79
     5
170
     0
171
     0
290
     0
174
     0
 93
        1
 44
-50.0
173
     0
291
     1
 45
0.0
1001
ACAD
1000
AcDbSavedByObjectVersion
1070
     0
  0
VISUALSTYLE
  5
BCCF
102
{ACAD_XDICTIONARY
360
BD3F
102
}
102
{ACAD_REACTORS
330
BCB7
102
}
330
BCB7
100
AcDbVisualStyle
  2
EdgeColorOff
 70
    22
 71
     2
 72
     2
 73
     0
 90
        0
 40
-0.6
 41
-30.0
 62
     5
 63
     7
 74
     1
 91
        4
 64
     7
 65
   257
 75
     1
175
     1
 42
1.0
 92
        8
 66
     7
 43
1.0
 76
     1
 77
     6
 78
     2
 67
     7
 79
     5
170
     0
171
     0
290
     0
174
     0
 93
        1
 44
0.0
173
     0
291
     1
 45
0.0
1001
ACAD
1000
AcDbSavedByObjectVersion
1070
     0
  0
VISUALSTYLE
  5
BCC6
102
{ACAD_XDICTIONARY
360
BD2D
102
}
102
{ACAD_REACTORS
330
BCB7
102
}
330
BCB7
100
AcDbVisualStyle
  2
Facepattern
 70
    15
 71
     2
 72
     2
 73
     0
 90
        0
 40
-0.6
 41
-30.0
 62
     5
 63
     7
 74
     1
 91
        4
 64
     7
 65
   257
 75
     1
175
     1
 42
1.0
 92
        8
 66
     7
 43
1.0
 76
     1
 77
     6
 78
     2
 67
     7
 79
     5
170
     0
171
     0
290
     0
174
     0
 93
        1
 44
0.0
173
     0
291
     1
 45
0.0
1001
ACAD
1000
AcDbSavedByObjectVersion
1070
     0
  0
VISUALSTYLE
  5
BCB8
102
{ACAD_XDICTIONARY
360
BD11
102
}
102
{ACAD_REACTORS
330
BCB7
102
}
330
BCB7
100
AcDbVisualStyle
  2
Flat
 70
     0
 71
     2
 72
     1
 73
     1
 90
        2
 40
-0.6
 41
30.0
 62
     5
 63
     7
 74
     0
 91
        0
 64
     7
 65
   257
 75
     1
175
     1
 42
1.0
 92
        8
 66
     7
 43
1.0
 76
     1
 77
     6
 78
     2
 67
     7
 79
     5
170
     0
171
     0
290
     0
174
     0
 93
       13
 44
0.0
173
     0
291
     1
 45
0.0
1001
ACAD
1000
AcDbSavedByObjectVersion
1070
     0
  0
VISUALSTYLE
  5
BCB9
102
{ACAD_XDICTIONARY
360
BD13
102
}
102
{ACAD_REACTORS
330
BCB7
102
}
330
BCB7
100
AcDbVisualStyle
  2
FlatWithEdges
 70
     1
 71
     2
 72
     1
 73
     1
 90
        2
 40
-0.6
 41
30.0
 62
     5
 63
     7
 74
     1
 91
        0
 64
     7
 65
   257
 75
     1
175
     1
 42
1.0
 92
        0
 66
   257
 43
1.0
 76
     1
 77
     6
 78
     2
 67
     7
 79
     5
170
     0
171
     0
290
     0
174
     0
 93
       13
 44
0.0
173
     0
291
     1
 45
0.0
1001
ACAD
1000
AcDbSavedByObjectVersion
1070
     0
  0
VISUALSTYLE
  5
BCBA
102
{ACAD_XDICTIONARY
360
BD15
102
}
102
{ACAD_REACTORS
330
BCB7
102
}
330
BCB7
100
AcDbVisualStyle
  2
Gouraud
 70
     2
 71
     2
 72
     2
 73
     1
 90
        2
 40
-0.6
 41
30.0
 62
     5
 63
     7
 74
     0
 91
        0
 64
     7
 65
   257
 75
     1
175
     1
 42
1.0
 92
        0
 66
     7
 43
1.0
 76
     1
 77
     6
 78
     2
 67
     7
 79
     5
170
     0
171
     0
290
     0
174
     0
 93
       13
 44
0.0
173
     0
291
     1
 45
0.0
1001
ACAD
1000
AcDbSavedByObjectVersion
1070
     0
  0
VISUALSTYLE
  5
BCBB
102
{ACAD_XDICTIONARY
360
BD17
102
}
102
{ACAD_REACTORS
330
BCB7
102
}
330
BCB7
100
AcDbVisualStyle
  2
GouraudWithEdges
 70
     3
 71
     2
 72
     2
 73
     1
 90
        2
 40
-0.6
 41
30.0
 62
     5
 63
     7
 74
     1
 91
        0
 64
     7
 65
   257
 75
     1
175
     1
 42
1.0
 92
        0
 66
   257
 43
1.0
 76
     1
 77
     6
 78
     2
 67
     7
 79
     5
170
     0
171
     0
290
     0
174
     0
 93
       13
 44
0.0
173
     0
291
     1
 45
0.0
1001
ACAD
1000
AcDbSavedByObjectVersion
1070
     0
  0
VISUALSTYLE
  5
BCBF
102
{ACAD_XDICTIONARY
360
BD1F
102
}
102
{ACAD_REACTORS
330
BCB7
102
}
330
BCB7
100
AcDbVisualStyle
  2
Hidden
 70
     6
 71
     1
 72
     2
 73
     2
 90
        0
 40
-0.6
 41
-30.0
 62
     5
 63
     7
 74
     2
 91
        2
 64
     7
 65
   257
 75
     2
175
     1
 42
40.0
 92
        0
 66
   257
 43
1.0
 76
     1
 77
     6
 78
     2
 67
     7
 79
     3
170
     0
171
     0
290
     0
174
     0
 93
        1
 44
0.0
173
     0
291
     0
 45
0.0
1001
ACAD
1000
AcDbSavedByObjectVersion
1070
     0
  0
VISUALSTYLE
  5
BCCD
102
{ACAD_XDICTIONARY
360
BD3B
102
}
102
{ACAD_REACTORS
330
BCB7
102
}
330
BCB7
100
AcDbVisualStyle
  2
JitterOff
 70
    20
 71
     2
 72
     2
 73
     0
 90
        0
 40
-0.6
 41
-30.0
 62
     5
 63
     7
 74
     1
 91
        4
 64
     7
 65
   257
 75
     1
175
     1
 42
1.0
 92
       10
 66
     7
 43
1.0
 76
     1
 77
     6
 78
     2
 67
     7
 79
     5
170
     0
171
     0
290
     0
174
     0
 93
        1
 44
0.0
173
     0
291
     1
 45
0.0
1001
ACAD
1000
AcDbSavedByObjectVersion
1070
     0
  0
VISUALSTYLE
  5
BCC5
102
{ACAD_XDICTIONARY
360
BD2B
102
}
102
{ACAD_REACTORS
330
BCB7
102
}
330
BCB7
100
AcDbVisualStyle
  2
Linepattern
 70
    14
 71
     2
 72
     2
 73
     0
 90
        0
 40
-0.6
 41
-30.0
 62
     5
 63
     7
 74
     1
 91
        4
 64
     7
 65
   257
 75
     7
175
     7
 42
1.0
 92
        8
 66
     7
 43
1.0
 76
     1
 77
     6
 78
     2
 67
     7
 79
     5
170
     0
171
     0
290
     0
174
     0
 93
        1
 44
0.0
173
     0
291
     1
 45
0.0
1001
ACAD
1000
AcDbSavedByObjectVersion
1070
     0
  0
VISUALSTYLE
  5
BCCE
102
{ACAD_XDICTIONARY
360
BD3D
102
}
102
{ACAD_REACTORS
330
BCB7
102
}
330
BCB7
100
AcDbVisualStyle
  2
OverhangOff
 70
    21
 71
     2
 72
     2
 73
     0
 90
        0
 40
-0.6
 41
-30.0
 62
     5
 63
     7
 74
     1
 91
        4
 64
     7
 65
   257
 75
     1
175
     1
 42
1.0
 92
        9
 66
     7
 43
1.0
 76
     1
 77
     6
 78
     2
 67
     7
 79
     5
170
     0
171
     0
290
     0
174
     0
 93
        1
 44
0.0
173
     0
291
     1
 45
0.0
1001
ACAD
1000
AcDbSavedByObjectVersion
1070
     0
  0
VISUALSTYLE
  5
BCC1
102
{ACAD_XDICTIONARY
360
BD23
102
}
102
{ACAD_REACTORS
330
BCB7
102
}
330
BCB7
100
AcDbVisualStyle
  2
Realistic
 70
     8
 71
     2
 72
     3
 73
     0
 90
        2
 40
-0.6
 41
30.0
 62
     5
 63
     7
 74
     0
 91
        0
 64
     7
 65
   257
 75
     1
175
     1
 42
1.0
 92
        8
 66
   257
 43
1.0
 76
     1
 77
     6
 78
     2
 67
     7
 79
     3
170
     0
171
     0
290
     0
174
     0
 93
       13
 44
0.0
173
     0
291
     0
 45
0.0
1001
ACAD
1000
AcDbSavedByObjectVersion
1070
     0
  0
VISUALSTYLE
  5
BCCC
102
{ACAD_XDICTIONARY
360
BD39
102
}
102
{ACAD_REACTORS
330
BCB7
102
}
330
BCB7
100
AcDbVisualStyle
  2
Shaded
 70
    27
 71
     2
 72
     2
 73
     1
 90
        2
 40
-0.6
 41
30.0
 62
     5
 63
     7
 74
     0
 91
        4
 64
     7
 65
   257
 75
     1
175
     1
 42
1.0
 92
        8
 66
   257
 43
1.0
 76
     1
 77
     6
 78
     2
 67
     8
 79
     3
170
     0
171
     0
290
     0
174
     0
 93
        5
 44
0.0
173
     0
291
     0
 45
0.0
1001
ACAD
1000
AcDbSavedByObjectVersion
1070
     0
  0
VISUALSTYLE
  5
BCCB
102
{ACAD_XDICTIONARY
360
BD37
102
}
102
{ACAD_REACTORS
330
BCB7
102
}
330
BCB7
100
AcDbVisualStyle
  2
Shaded with edges
 70
    26
 71
     2
 72
     2
 73
     1
 90
        2
 40
-0.6
 41
30.0
 62
     5
 63
     7
 74
     1
 91
       10
 64
     7
 65
   257
 75
     2
175
     1
 42
1.0
 92
        8
 66
   257
 43
1.0
 76
     1
 77
     6
 78
     2
 67
     7
 79
     3
170
     0
171
     0
290
     0
174
     0
 93
        5
 44
0.0
173
     0
291
     0
 45
0.0
1001
ACAD
1000
AcDbSavedByObjectVersion
1070
     0
  0
VISUALSTYLE
  5
BCC8
102
{ACAD_XDICTIONARY
360
BD31
102
}
102
{ACAD_REACTORS
330
BCB7
102
}
330
BCB7
100
AcDbVisualStyle
  2
Shades of Gray
 70
    23
 71
     2
 72
     2
 73
     3
 90
        0
 40
-0.6
 41
-30.0
 62
     5
 63
     7
 74
     2
 91
        2
 64
     7
 65
     7
 75
     1
175
     1
 42
40.0
 92
        8
 66
     7
 43
1.0
 76
     1
 77
     6
 78
     2
 67
     7
 79
     3
170
     0
171
     0
290
     0
174
     0
 93
        1
 44
0.0
173
     0
291
     0
 45
0.0
1001
ACAD
1000
AcDbSavedByObjectVersion
1070
     0
  0
VISUALSTYLE
  5
BCC9
102
{ACAD_XDICTIONARY
360
BD33
102
}
102
{ACAD_REACTORS
330
BCB7
102
}
330
BCB7
100
AcDbVisualStyle
  2
Sketchy
 70
    24
 71
     1
 72
     2
 73
     2
 90
        0
 40
-0.6
 41
-30.0
 62
     5
 63
     7
 74
     2
 91
        2
 64
     7
 65
     7
 75
     1
175
     1
 42
40.0
 92
       11
 66
     7
 43
1.0
 76
     1
 77
     6
 78
     2
 67
     7
 79
     6
170
     0
171
     0
290
     0
174
     0
 93
        1
 44
0.0
173
     0
291
     0
 45
0.0
1001
ACAD
1000
AcDbSavedByObjectVersion
1070
     0
  0
VISUALSTYLE
  5
BCC4
102
{ACAD_XDICTIONARY
360
BD29
102
}
102
{ACAD_REACTORS
330
BCB7
102
}
330
BCB7
100
AcDbVisualStyle
  2
Thicken
 70
    13
 71
     2
 72
     2
 73
     0
 90
        0
 40
-0.6
 41
-30.0
 62
     5
 63
     7
 74
     1
 91
        4
 64
     7
 65
   257
 75
     1
175
     1
 42
1.0
 92
       12
 66
     7
 43
1.0
 76
     1
 77
     6
 78
     2
 67
     7
 79
     5
170
     0
171
     0
290
     0
174
     0
 93
        1
 44
0.0
173
     0
291
     1
 45
0.0
1001
ACAD
1000
AcDbSavedByObjectVersion
1070
     0
  0
VISUALSTYLE
  5
BCBE
102
{ACAD_XDICTIONARY
360
BD1D
102
}
102
{ACAD_REACTORS
330
BCB7
102
}
330
BCB7
100
AcDbVisualStyle
  2
Wireframe
 70
     5
 71
     0
 72
     2
 73
     0
 90
        0
 40
-0.6
 41
-30.0
 62
     5
 63
     7
 74
     1
 91
        4
 64
     7
 65
   257
 75
     1
175
     1
 42
1.0
 92
        0
 66
   257
 43
1.0
 76
     1
 77
     6
 78
     2
 67
     7
 79
     3
170
     0
171
     0
290
     0
174
     0
 93
        1
 44
0.0
173
     0
291
     0
 45
0.0
1001
ACAD
1000
AcDbSavedByObjectVersion
1070
     0
  0
VISUALSTYLE
  5
BCCA
102
{ACAD_XDICTIONARY
360
BD35
102
}
102
{ACAD_REACTORS
330
BCB7
102
}
330
BCB7
100
AcDbVisualStyle
  2
X-Ray
 70
    25
 71
     2
 72
     2
 73
     1
 90
        1
 40
0.5
 41
-30.0
 62
     5
 63
     7
 74
     1
 91
        0
 64
     7
 65
   257
 75
     1
175
     1
 42
1.0
 92
        8
 66
     7
 43
1.0
 76
     1
 77
     6
 78
     2
 67
     7
 79
     3
170
     0
171
     0
290
     0
174
     0
 93
       13
 44
0.0
173
     0
291
     0
 45
0.0
1001
ACAD
1000
AcDbSavedByObjectVersion
1070
     0
  0
DICTIONARYVAR
  5
BD04
102
{ACAD_REACTORS
330
BCFF
102
}
330
BCFF
100
DictionaryVariables
280
     0
  1
1:1
  0
DICTIONARYVAR
  5
BD01
102
{ACAD_REACTORS
330
BCFF
102
}
330
BCFF
100
DictionaryVariables
280
     0
  1
STANDARD
  0
DICTIONARYVAR
  5
BD00
102
{ACAD_REACTORS
330
BCFF
102
}
330
BCFF
100
DictionaryVariables
280
     0
  1
STANDARD
  0
DICTIONARYVAR
  5
BD02
102
{ACAD_REACTORS
330
BCFF
102
}
330
BCFF
100
DictionaryVariables
280
     0
  1
Imperial24
  0
DICTIONARYVAR
  5
BD03
102
{ACAD_REACTORS
330
BCFF
102
}
330
BCFF
100
DictionaryVariables
280
     0
  1
Imperial24
  0
DICTIONARYVAR
  5
BD07
102
{ACAD_REACTORS
330
BCFF
102
}
330
BCFF
100
DictionaryVariables
280
     0
  1
1
  0
DICTIONARYVAR
  5
BD06
102
{ACAD_REACTORS
330
BCFF
102
}
330
BCFF
100
DictionaryVariables
280
     0
  1
0
  0
DICTIONARYVAR
  5
BD05
102
{ACAD_REACTORS
330
BCFF
102
}
330
BCFF
100
DictionaryVariables
280
     0
  1
127
  0
DICTIONARYVAR
  5
BD08
102
{ACAD_REACTORS
330
BCFF
102
}
330
BCFF
100
DictionaryVariables
280
     0
  1
2
  0
DICTIONARY
  5
BD45
330
BCEA
100
AcDbDictionary
280
     1
281
     1
  3
ACAD_XREC_ROUNDTRIP
360
BD46
  0
DICTIONARY
  5
BD47
330
BCEB
100
AcDbDictionary
280
     1
281
     1
  3
ACAD_XREC_ROUNDTRIP
360
BD48
  0
DICTIONARY
  5
BD49
330
BCEC
100
AcDbDictionary
280
     1
281
     1
  3
ACAD_XREC_ROUNDTRIP
360
BD4A
  0
DICTIONARY
  5
BCA8
330
BCA7
100
AcDbDictionary
280
     1
281
     1
  3
ACAD_XREC_ROUNDTRIP
360
BD0F
  3
BUMPTILE
360
BCAA
  3
DIFFUSETILE
360
BCA9
  3
OPACITYTILE
360
BCAD
  3
REFLECTIONTILE
360
BCAC
  3
REFRACTIONTILE
360
BCAE
  3
SPECULARTILE
360
BCAB
  0
DICTIONARY
  5
BCA0
330
BC9F
100
AcDbDictionary
280
     1
281
     1
  3
ACAD_XREC_ROUNDTRIP
360
BD0E
  3
BUMPTILE
360
BCA2
  3
DIFFUSETILE
360
BCA1
  3
OPACITYTILE
360
BCA5
  3
REFLECTIONTILE
360
BCA4
  3
REFRACTIONTILE
360
BCA6
  3
SPECULARTILE
360
BCA3
  0
DICTIONARY
  5
BCB0
330
BCAF
100
AcDbDictionary
280
     1
281
     1
  3
ACAD_XREC_ROUNDTRIP
360
BD10
  3
BUMPTILE
360
BCB2
  3
DIFFUSETILE
360
BCB1
  3
OPACITYTILE
360
BCB5
  3
REFLECTIONTILE
360
BCB4
  3
REFRACTIONTILE
360
BCB6
  3
SPECULARTILE
360
BCB3
  0
DICTIONARY
  5
BD43
330
BCE8
100
AcDbDictionary
280
     1
281
     1
  3
ACAD_XREC_ROUNDTRIP
360
BD44
  0
DICTIONARY
  5
BD0A
330
BCD2
100
AcDbDictionary
280
     1
281
     1
  3
ACAD_ROUNDTRIP_2008_TABLESTYLE_CELLSTYLEMAP
360
BD0B
  3
ACAD_XREC_ROUNDTRIP
360
BD41
  0
DICTIONARY
  5
BD1B
330
BCBD
100
AcDbDictionary
280
     1
281
     1
  3
ACAD_XREC_ROUNDTRIP
360
BD1C
  0
DICTIONARY
  5
BD19
330
BCBC
100
AcDbDictionary
280
     1
281
     1
  3
ACAD_XREC_ROUNDTRIP
360
BD1A
  0
DICTIONARY
  5
BD27
330
BCC3
100
AcDbDictionary
280
     1
281
     1
  3
ACAD_XREC_ROUNDTRIP
360
BD28
  0
DICTIONARY
  5
BD2F
330
BCC7
100
AcDbDictionary
280
     1
281
     1
  3
ACAD_XREC_ROUNDTRIP
360
BD30
  0
DICTIONARY
  5
BD21
330
BCC0
100
AcDbDictionary
280
     1
281
     1
  3
ACAD_XREC_ROUNDTRIP
360
BD22
  0
DICTIONARY
  5
BD25
330
BCC2
100
AcDbDictionary
280
     1
281
     1
  3
ACAD_XREC_ROUNDTRIP
360
BD26
  0
DICTIONARY
  5
BD3F
330
BCCF
100
AcDbDictionary
280
     1
281
     1
  3
ACAD_XREC_ROUNDTRIP
360
BD40
  0
DICTIONARY
  5
BD2D
330
BCC6
100
AcDbDictionary
280
     1
281
     1
  3
ACAD_XREC_ROUNDTRIP
360
BD2E
  0
DICTIONARY
  5
BD11
330
BCB8
100
AcDbDictionary
280
     1
281
     1
  3
ACAD_XREC_ROUNDTRIP
360
BD12
  0
DICTIONARY
  5
BD13
330
BCB9
100
AcDbDictionary
280
     1
281
     1
  3
ACAD_XREC_ROUNDTRIP
360
BD14
  0
DICTIONARY
  5
BD15
330
BCBA
100
AcDbDictionary
280
     1
281
     1
  3
ACAD_XREC_ROUNDTRIP
360
BD16
  0
DICTIONARY
  5
BD17
330
BCBB
100
AcDbDictionary
280
     1
281
     1
  3
ACAD_XREC_ROUNDTRIP
360
BD18
  0
DICTIONARY
  5
BD1F
330
BCBF
100
AcDbDictionary
280
     1
281
     1
  3
ACAD_XREC_ROUNDTRIP
360
BD20
  0
DICTIONARY
  5
BD3B
330
BCCD
100
AcDbDictionary
280
     1
281
     1
  3
ACAD_XREC_ROUNDTRIP
360
BD3C
  0
DICTIONARY
  5
BD2B
330
BCC5
100
AcDbDictionary
280
     1
281
     1
  3
ACAD_XREC_ROUNDTRIP
360
BD2C
  0
DICTIONARY
  5
BD3D
330
BCCE
100
AcDbDictionary
280
     1
281
     1
  3
ACAD_XREC_ROUNDTRIP
360
BD3E
  0
DICTIONARY
  5
BD23
330
BCC1
100
AcDbDictionary
280
     1
281
     1
  3
ACAD_XREC_ROUNDTRIP
360
BD24
  0
DICTIONARY
  5
BD39
330
BCCC
100
AcDbDictionary
280
     1
281
     1
  3
ACAD_XREC_ROUNDTRIP
360
BD3A
  0
DICTIONARY
  5
BD37
330
BCCB
100
AcDbDictionary
280
     1
281
     1
  3
ACAD_XREC_ROUNDTRIP
360
BD38
  0
DICTIONARY
  5
BD31
330
BCC8
100
AcDbDictionary
280
     1
281
     1
  3
ACAD_XREC_ROUNDTRIP
360
BD32
  0
DICTIONARY
  5
BD33
330
BCC9
100
AcDbDictionary
280
     1
281
     1
  3
ACAD_XREC_ROUNDTRIP
360
BD34
  0
DICTIONARY
  5
BD29
330
BCC4
100
AcDbDictionary
280
     1
281
     1
  3
ACAD_XREC_ROUNDTRIP
360
BD2A
  0
DICTIONARY
  5
BD1D
330
BCBE
100
AcDbDictionary
280
     1
281
     1
  3
ACAD_XREC_ROUNDTRIP
360
BD1E
  0
DICTIONARY
  5
BD35
330
BCCA
100
AcDbDictionary
280
     1
281
     1
  3
ACAD_XREC_ROUNDTRIP
360
BD36
  0
XRECORD
  5
BD46
102
{ACAD_REACTORS
330
BD45
102
}
330
BD45
100
AcDbXrecord
280
     1
102
DISPLAYNAME
  1
Imperial24
102
FLAGS
 90
        0
  0
XRECORD
  5
BD48
102
{ACAD_REACTORS
330
BD47
102
}
330
BD47
100
AcDbXrecord
280
     1
102
SHADEPLOT
 70
     0
102
SHADEPLOTRESLEVEL
 70
     2
102
SHADEPLOTCUSTOMDPI
 70
   300
  0
XRECORD
  5
BD4A
102
{ACAD_REACTORS
330
BD49
102
}
330
BD49
100
AcDbXrecord
280
     1
102
SHADEPLOT
 70
     0
102
SHADEPLOTRESLEVEL
 70
     2
102
SHADEPLOTCUSTOMDPI
 70
   300
  0
XRECORD
  5
BD0F
102
{ACAD_REACTORS
330
BCA8
102
}
330
BCA8
100
AcDbXrecord
280
     1
102
MATERIAL
148
0.0
149
0.0
149
0.0
 93
        0
 94
      127
282
     0
 72
     0
 77
     0
171
     0
175
     0
179
     0
273
     0
  0
XRECORD
  5
BCAA
102
{ACAD_REACTORS
330
BCA8
102
}
330
BCA8
100
AcDbXrecord
280
     1
270
     1
271
     1
  0
XRECORD
  5
BCA9
102
{ACAD_REACTORS
330
BCA8
102
}
330
BCA8
100
AcDbXrecord
280
     1
270
     1
271
     1
  0
XRECORD
  5
BCAD
102
{ACAD_REACTORS
330
BCA8
102
}
330
BCA8
100
AcDbXrecord
280
     1
270
     1
271
     1
  0
XRECORD
  5
BCAC
102
{ACAD_REACTORS
330
BCA8
102
}
330
BCA8
100
AcDbXrecord
280
     1
270
     1
271
     1
  0
XRECORD
  5
BCAE
102
{ACAD_REACTORS
330
BCA8
102
}
330
BCA8
100
AcDbXrecord
280
     1
270
     1
271
     1
  0
XRECORD
  5
BCAB
102
{ACAD_REACTORS
330
BCA8
102
}
330
BCA8
100
AcDbXrecord
280
     1
270
     1
271
     1
  0
XRECORD
  5
BD0E
102
{ACAD_REACTORS
330
BCA0
102
}
330
BCA0
100
AcDbXrecord
280
     1
102
MATERIAL
148
0.0
149
0.0
149
0.0
 93
        0
 94
      127
282
     0
 72
     0
 77
     0
171
     0
175
     0
179
     0
273
     0
  0
XRECORD
  5
BCA2
102
{ACAD_REACTORS
330
BCA0
102
}
330
BCA0
100
AcDbXrecord
280
     1
270
     1
271
     1
  0
XRECORD
  5
BCA1
102
{ACAD_REACTORS
330
BCA0
102
}
330
BCA0
100
AcDbXrecord
280
     1
270
     1
271
     1
  0
XRECORD
  5
BCA5
102
{ACAD_REACTORS
330
BCA0
102
}
330
BCA0
100
AcDbXrecord
280
     1
270
     1
271
     1
  0
XRECORD
  5
BCA4
102
{ACAD_REACTORS
330
BCA0
102
}
330
BCA0
100
AcDbXrecord
280
     1
270
     1
271
     1
  0
XRECORD
  5
BCA6
102
{ACAD_REACTORS
330
BCA0
102
}
330
BCA0
100
AcDbXrecord
280
     1
270
     1
271
     1
  0
XRECORD
  5
BCA3
102
{ACAD_REACTORS
330
BCA0
102
}
330
BCA0
100
AcDbXrecord
280
     1
270
     1
271
     1
  0
XRECORD
  5
BD10
102
{ACAD_REACTORS
330
BCB0
102
}
330
BCB0
100
AcDbXrecord
280
     1
102
MATERIAL
148
0.0
149
0.0
149
0.0
 93
        0
 94
      127
282
     0
 72
     0
 77
     0
171
     0
175
     0
179
     0
273
     0
  0
XRECORD
  5
BCB2
102
{ACAD_REACTORS
330
BCB0
102
}
330
BCB0
100
AcDbXrecord
280
     1
270
     1
271
     1
  0
XRECORD
  5
BCB1
102
{ACAD_REACTORS
330
BCB0
102
}
330
BCB0
100
AcDbXrecord
280
     1
270
     1
271
     1
  0
XRECORD
  5
BCB5
102
{ACAD_REACTORS
330
BCB0
102
}
330
BCB0
100
AcDbXrecord
280
     1
270
     1
271
     1
  0
XRECORD
  5
BCB4
102
{ACAD_REACTORS
330
BCB0
102
}
330
BCB0
100
AcDbXrecord
280
     1
270
     1
271
     1
  0
XRECORD
  5
BCB6
102
{ACAD_REACTORS
330
BCB0
102
}
330
BCB0
100
AcDbXrecord
280
     1
270
     1
271
     1
  0
XRECORD
  5
BCB3
102
{ACAD_REACTORS
330
BCB0
102
}
330
BCB0
100
AcDbXrecord
280
     1
270
     1
271
     1
  0
XRECORD
  5
BD44
102
{ACAD_REACTORS
330
BD43
102
}
330
BD43
100
AcDbXrecord
280
     1
102
DISPLAYNAME
  1
Imperial24
102
FLAGS
 90
        0
  0
CELLSTYLEMAP
  5
BD0B
102
{ACAD_REACTORS
330
BD0A
102
}
330
BD0A
100
AcDbCellStyleMap
 90
        3
300
CELLSTYLE
  1
TABLEFORMAT_BEGIN
 90
        5
170
     1
 91
        0
 92
    32768
 62
   257
 93
        1
300
CONTENTFORMAT
  1
CONTENTFORMAT_BEGIN
 90
        0
 91
        0
 92
      512
 93
        0
300

 40
0.0
140
1.0
 94
        5
 62
     0
340
BA72
144
0.25
309
CONTENTFORMAT_END
171
     0
 94
        0
309
TABLEFORMAT_END
  1
CELLSTYLE_BEGIN
 90
        1
 91
        1
300
_TITLE
309
CELLSTYLE_END
300
CELLSTYLE
  1
TABLEFORMAT_BEGIN
 90
        5
170
     1
 91
        0
 92
        0
 62
   257
 93
        1
300
CONTENTFORMAT
  1
CONTENTFORMAT_BEGIN
 90
        0
 91
        0
 92
      512
 93
        0
300

 40
0.0
140
1.0
 94
        5
 62
     0
340
BA72
144
0.18
309
CONTENTFORMAT_END
171
     0
 94
        0
309
TABLEFORMAT_END
  1
CELLSTYLE_BEGIN
 90
        2
 91
        1
300
_HEADER
309
CELLSTYLE_END
300
CELLSTYLE
  1
TABLEFORMAT_BEGIN
 90
        5
170
     1
 91
        0
 92
        0
 62
   257
 93
        1
300
CONTENTFORMAT
  1
CONTENTFORMAT_BEGIN
 90
        0
 91
        0
 92
      512
 93
        0
300

 40
0.0
140
1.0
 94
        2
 62
     0
340
BA72
144
0.18
309
CONTENTFORMAT_END
171
     0
 94
        0
309
TABLEFORMAT_END
  1
CELLSTYLE_BEGIN
 90
        3
 91
        2
300
_DATA
309
CELLSTYLE_END
  0
XRECORD
  5
BD41
102
{ACAD_REACTORS
330
BD0A
102
}
330
BD0A
100
AcDbXrecord
280
     1
102
ACAD_ROUNDTRIP_PRE2007_TABLESTYLE
 90
      512
 91
        0
  1

 92
      512
 93
        0
  2

 94
      512
 95
        0
  3

  0
XRECORD
  5
BD1C
102
{ACAD_REACTORS
330
BD1B
102
}
330
BD1B
100
AcDbXrecord
280
     1
102
RTVSPost2010Prop28
280
     1
102
RTVSPost2010PropOp28
 70
     1
102
RTVSPost2010Prop29
280
     1
102
RTVSPost2010PropOp29
 70
     1
102
RTVSPost2010Prop30
280
     0
102
RTVSPost2010PropOp30
 70
     1
102
RTVSPost2010Prop31
280
     0
102
RTVSPost2010PropOp31
 70
     1
102
RTVSPost2010Prop32
280
     0
102
RTVSPost2010PropOp32
 70
     1
102
RTVSPost2010Prop33
280
     0
102
RTVSPost2010PropOp33
 70
     1
102
RTVSPost2010Prop34
280
     0
102
RTVSPost2010PropOp34
 70
     1
102
RTVSPost2010Prop35
280
     0
102
RTVSPost2010PropOp35
 70
     1
102
RTVSPost2010Prop36
280
     0
102
RTVSPost2010PropOp36
 70
     1
102
RTVSPost2010Prop37
 90
       50
102
RTVSPost2010PropOp37
 70
     1
102
RTVSPost2010Prop38
140
0.0
102
RTVSPost2010PropOp38
 70
     1
102
RTVSPost2010Prop39
140
1.0
102
RTVSPost2010PropOp39
 70
     1
102
RTVSPost2010Prop40
 90
        0
102
RTVSPost2010PropOp40
 70
     1
102
RTVSPost2010Prop41ColorIndex
 90
       18
102
RTVSPost2010Prop41ColorRGB
 90
        0
102
RTVSPost2010PropOp41
 70
     1
102
RTVSPost2010Prop42
 90
       50
102
RTVSPost2010PropOp42
 70
     1
102
RTVSPost2010Prop43
 90
        3
102
RTVSPost2010PropOp43
 70
     1
102
RTVSPost2010Prop44ColorIndex
 90
        5
102
RTVSPost2010Prop44ColorRGB
 90
      255
102
RTVSPost2010PropOp44
 70
     1
102
RTVSPost2010Prop45
280
     0
102
RTVSPost2010PropOp45
 70
     1
102
RTVSPost2010Prop46
 90
       50
102
RTVSPost2010PropOp46
 70
     1
102
RTVSPost2010Prop47
 90
       50
102
RTVSPost2010PropOp47
 70
     1
102
RTVSPost2010Prop48
 90
       50
102
RTVSPost2010PropOp48
 70
     1
102
RTVSPost2010Prop49
280
     0
102
RTVSPost2010PropOp49
 70
     1
102
RTVSPost2010Prop50
 90
       50
102
RTVSPost2010PropOp50
 70
     1
102
RTVSPost2010Prop51ColorIndex
 90
      256
102
RTVSPost2010Prop51ColorRGB
 90
-16777216
102
RTVSPost2010PropOp51
 70
     0
102
RTVSPost2010Prop52
140
1.0
102
RTVSPost2010PropOp52
 70
     0
102
RTVSPost2010Prop53
 90
        2
102
RTVSPost2010PropOp53
 70
     1
102
RTVSPost2010Prop54
  1
strokes_ogs.tif
102
RTVSPost2010PropOp54
 70
     1
102
RTVSPost2010Prop55
280
     0
102
RTVSPost2010PropOp55
 70
     1
102
RTVSPost2010Prop56
140
1.0
102
RTVSPost2010PropOp56
 70
     1
102
RTVSPost2010Prop57
140
1.0
102
RTVSPost2010PropOp57
 70
     1
102
RTVSPropertyOp0
 70
     1
102
RTVSPropertyOp1
 70
     1
102
RTVSPropertyOp2
 70
     1
102
RTVSPropertyOp3
 70
     1
102
RTVSPropertyOp4
 70
     1
102
RTVSPropertyOp5
 70
     1
102
RTVSPropertyOp6
 70
     1
102
RTVSPropertyOp7
 70
     1
102
RTVSPropertyOp8
 70
     1
102
RTVSPropertyOp9
 70
     1
102
RTVSPropertyOp10
 70
     1
102
RTVSPropertyOp11
 70
     1
102
RTVSPropertyOp12
 70
     1
102
RTVSPropertyOp13
 70
     1
102
RTVSPropertyOp14
 70
     1
102
RTVSPropertyOp15
 70
     1
102
RTVSPropertyOp16
 70
     1
102
RTVSPropertyOp17
 70
     1
102
RTVSPropertyOp18
 70
     1
102
RTVSPropertyOp19
 70
     1
102
RTVSPropertyOp20
 70
     1
102
RTVSPropertyOp21
 70
     1
102
RTVSPropertyOp22
 70
     1
102
RTVSPropertyOp23
 70
     1
102
RTVSPropertyOp24
 70
     1
102
RTVSPropertyOp25
 70
     1
102
RTVSPropertyOp26
 70
     1
102
RTVSPropertyOp27
 70
     1
102
RTVSPropertyOp28
 70
     1
102
RTVSPropertyOp29
 70
     1
102
RTVSPropertyOp30
 70
     1
102
RTVSPropertyOp31
 70
     1
102
RTVSPropertyOp32
 70
     1
102
RTVSPropertyOp33
 70
     1
102
RTVSPropertyOp34
 70
     1
102
RTVSPropertyOp35
 70
     1
102
RTVSPropertyOp36
 70
     1
102
RTVSPropertyOp37
 70
     1
102
RTVSPropertyOp38
 70
     1
102
RTVSPropertyOp39
 70
     1
102
RTVSPropertyOp40
 70
     1
102
RTVSPropertyOp41
 70
     1
102
RTVSPropertyOp42
 70
     1
102
RTVSPropertyOp43
 70
     1
102
RTVSPropertyOp44
 70
     1
102
RTVSPropertyOp45
 70
     1
102
RTVSPropertyOp46
 70
     1
102
RTVSPropertyOp47
 70
     1
102
RTVSPropertyOp48
 70
     1
102
RTVSPropertyOp49
 70
     1
102
RTVSPropertyOp50
 70
     1
102
RTVSPropertyOp51
 70
     0
102
RTVSPropertyOp52
 70
     0
102
RTVSPropertyOp53
 70
     1
102
RTVSPropertyOp54
 70
     1
102
RTVSPropertyOp55
 70
     1
102
RTVSPropertyOp56
 70
     1
102
RTVSPropertyOp57
 70
     1
102
RTVSPropertyOp58
 70
     1
102
RTVSPropertyOp59
 70
     1
102
RTVSPropertyOp60
 70
     1
102
RTVSPropertyOp61
 70
     1
102
RTVSPropertyOp62
 70
     1
  0
XRECORD
  5
BD1A
102
{ACAD_REACTORS
330
BD19
102
}
330
BD19
100
AcDbXrecord
280
     1
102
RTVSPost2010Prop28
280
     0
102
RTVSPost2010PropOp28
 70
     1
102
RTVSPost2010Prop29
280
     1
102
RTVSPost2010PropOp29
 70
     1
102
RTVSPost2010Prop30
280
     1
102
RTVSPost2010PropOp30
 70
     1
102
RTVSPost2010Prop31
280
     0
102
RTVSPost2010PropOp31
 70
     1
102
RTVSPost2010Prop32
280
     0
102
RTVSPost2010PropOp32
 70
     1
102
RTVSPost2010Prop33
280
     0
102
RTVSPost2010PropOp33
 70
     1
102
RTVSPost2010Prop34
280
     0
102
RTVSPost2010PropOp34
 70
     1
102
RTVSPost2010Prop35
280
     0
102
RTVSPost2010PropOp35
 70
     1
102
RTVSPost2010Prop36
280
     0
102
RTVSPost2010PropOp36
 70
     1
102
RTVSPost2010Prop37
 90
       50
102
RTVSPost2010PropOp37
 70
     1
102
RTVSPost2010Prop38
140
0.0
102
RTVSPost2010PropOp38
 70
     1
102
RTVSPost2010Prop39
140
1.0
102
RTVSPost2010PropOp39
 70
     1
102
RTVSPost2010Prop40
 90
        0
102
RTVSPost2010PropOp40
 70
     1
102
RTVSPost2010Prop41ColorIndex
 90
       18
102
RTVSPost2010Prop41ColorRGB
 90
        0
102
RTVSPost2010PropOp41
 70
     1
102
RTVSPost2010Prop42
 90
       50
102
RTVSPost2010PropOp42
 70
     1
102
RTVSPost2010Prop43
 90
        3
102
RTVSPost2010PropOp43
 70
     1
102
RTVSPost2010Prop44ColorIndex
 90
        5
102
RTVSPost2010Prop44ColorRGB
 90
      255
102
RTVSPost2010PropOp44
 70
     1
102
RTVSPost2010Prop45
280
     0
102
RTVSPost2010PropOp45
 70
     1
102
RTVSPost2010Prop46
 90
       50
102
RTVSPost2010PropOp46
 70
     1
102
RTVSPost2010Prop47
 90
       50
102
RTVSPost2010PropOp47
 70
     1
102
RTVSPost2010Prop48
 90
       50
102
RTVSPost2010PropOp48
 70
     1
102
RTVSPost2010Prop49
280
     0
102
RTVSPost2010PropOp49
 70
     1
102
RTVSPost2010Prop50
 90
       50
102
RTVSPost2010PropOp50
 70
     1
102
RTVSPost2010Prop51ColorIndex
 90
      256
102
RTVSPost2010Prop51ColorRGB
 90
-16777216
102
RTVSPost2010PropOp51
 70
     0
102
RTVSPost2010Prop52
140
1.0
102
RTVSPost2010PropOp52
 70
     0
102
RTVSPost2010Prop53
 90
        2
102
RTVSPost2010PropOp53
 70
     1
102
RTVSPost2010Prop54
  1
strokes_ogs.tif
102
RTVSPost2010PropOp54
 70
     1
102
RTVSPost2010Prop55
280
     0
102
RTVSPost2010PropOp55
 70
     1
102
RTVSPost2010Prop56
140
1.0
102
RTVSPost2010PropOp56
 70
     1
102
RTVSPost2010Prop57
140
1.0
102
RTVSPost2010PropOp57
 70
     1
102
RTVSPropertyOp0
 70
     1
102
RTVSPropertyOp1
 70
     1
102
RTVSPropertyOp2
 70
     1
102
RTVSPropertyOp3
 70
     1
102
RTVSPropertyOp4
 70
     1
102
RTVSPropertyOp5
 70
     1
102
RTVSPropertyOp6
 70
     1
102
RTVSPropertyOp7
 70
     1
102
RTVSPropertyOp8
 70
     1
102
RTVSPropertyOp9
 70
     1
102
RTVSPropertyOp10
 70
     1
102
RTVSPropertyOp11
 70
     1
102
RTVSPropertyOp12
 70
     1
102
RTVSPropertyOp13
 70
     1
102
RTVSPropertyOp14
 70
     1
102
RTVSPropertyOp15
 70
     1
102
RTVSPropertyOp16
 70
     1
102
RTVSPropertyOp17
 70
     1
102
RTVSPropertyOp18
 70
     1
102
RTVSPropertyOp19
 70
     1
102
RTVSPropertyOp20
 70
     1
102
RTVSPropertyOp21
 70
     1
102
RTVSPropertyOp22
 70
     1
102
RTVSPropertyOp23
 70
     1
102
RTVSPropertyOp24
 70
     1
102
RTVSPropertyOp25
 70
     1
102
RTVSPropertyOp26
 70
     1
102
RTVSPropertyOp27
 70
     1
102
RTVSPropertyOp28
 70
     1
102
RTVSPropertyOp29
 70
     1
102
RTVSPropertyOp30
 70
     1
102
RTVSPropertyOp31
 70
     1
102
RTVSPropertyOp32
 70
     1
102
RTVSPropertyOp33
 70
     1
102
RTVSPropertyOp34
 70
     1
102
RTVSPropertyOp35
 70
     1
102
RTVSPropertyOp36
 70
     1
102
RTVSPropertyOp37
 70
     1
102
RTVSPropertyOp38
 70
     1
102
RTVSPropertyOp39
 70
     1
102
RTVSPropertyOp40
 70
     1
102
RTVSPropertyOp41
 70
     1
102
RTVSPropertyOp42
 70
     1
102
RTVSPropertyOp43
 70
     1
102
RTVSPropertyOp44
 70
     1
102
RTVSPropertyOp45
 70
     1
102
RTVSPropertyOp46
 70
     1
102
RTVSPropertyOp47
 70
     1
102
RTVSPropertyOp48
 70
     1
102
RTVSPropertyOp49
 70
     1
102
RTVSPropertyOp50
 70
     1
102
RTVSPropertyOp51
 70
     0
102
RTVSPropertyOp52
 70
     0
102
RTVSPropertyOp53
 70
     1
102
RTVSPropertyOp54
 70
     1
102
RTVSPropertyOp55
 70
     1
102
RTVSPropertyOp56
 70
     1
102
RTVSPropertyOp57
 70
     1
102
RTVSPropertyOp58
 70
     1
102
RTVSPropertyOp59
 70
     1
102
RTVSPropertyOp60
 70
     1
102
RTVSPropertyOp61
 70
     1
102
RTVSPropertyOp62
 70
     1
  0
XRECORD
  5
BD28
102
{ACAD_REACTORS
330
BD27
102
}
330
BD27
100
AcDbXrecord
280
     1
102
RTVSPost2010Prop28
280
     0
102
RTVSPost2010PropOp28
 70
     1
102
RTVSPost2010Prop29
280
     1
102
RTVSPost2010PropOp29
 70
     1
102
RTVSPost2010Prop30
280
     1
102
RTVSPost2010PropOp30
 70
     1
102
RTVSPost2010Prop31
280
     0
102
RTVSPost2010PropOp31
 70
     1
102
RTVSPost2010Prop32
280
     0
102
RTVSPost2010PropOp32
 70
     1
102
RTVSPost2010Prop33
280
     0
102
RTVSPost2010PropOp33
 70
     1
102
RTVSPost2010Prop34
280
     0
102
RTVSPost2010PropOp34
 70
     1
102
RTVSPost2010Prop35
280
     0
102
RTVSPost2010PropOp35
 70
     1
102
RTVSPost2010Prop36
280
     0
102
RTVSPost2010PropOp36
 70
     1
102
RTVSPost2010Prop37
 90
       50
102
RTVSPost2010PropOp37
 70
     1
102
RTVSPost2010Prop38
140
0.0
102
RTVSPost2010PropOp38
 70
     1
102
RTVSPost2010Prop39
140
1.0
102
RTVSPost2010PropOp39
 70
     1
102
RTVSPost2010Prop40
 90
        0
102
RTVSPost2010PropOp40
 70
     1
102
RTVSPost2010Prop41ColorIndex
 90
       18
102
RTVSPost2010Prop41ColorRGB
 90
        0
102
RTVSPost2010PropOp41
 70
     1
102
RTVSPost2010Prop42
 90
       50
102
RTVSPost2010PropOp42
 70
     1
102
RTVSPost2010Prop43
 90
        3
102
RTVSPost2010PropOp43
 70
     1
102
RTVSPost2010Prop44ColorIndex
 90
        5
102
RTVSPost2010Prop44ColorRGB
 90
      255
102
RTVSPost2010PropOp44
 70
     1
102
RTVSPost2010Prop45
280
     0
102
RTVSPost2010PropOp45
 70
     1
102
RTVSPost2010Prop46
 90
       50
102
RTVSPost2010PropOp46
 70
     1
102
RTVSPost2010Prop47
 90
       50
102
RTVSPost2010PropOp47
 70
     1
102
RTVSPost2010Prop48
 90
       50
102
RTVSPost2010PropOp48
 70
     1
102
RTVSPost2010Prop49
280
     0
102
RTVSPost2010PropOp49
 70
     1
102
RTVSPost2010Prop50
 90
       50
102
RTVSPost2010PropOp50
 70
     1
102
RTVSPost2010Prop51ColorIndex
 90
      256
102
RTVSPost2010Prop51ColorRGB
 90
-16777216
102
RTVSPost2010PropOp51
 70
     0
102
RTVSPost2010Prop52
140
1.0
102
RTVSPost2010PropOp52
 70
     0
102
RTVSPost2010Prop53
 90
        2
102
RTVSPost2010PropOp53
 70
     1
102
RTVSPost2010Prop54
  1
strokes_ogs.tif
102
RTVSPost2010PropOp54
 70
     1
102
RTVSPost2010Prop55
280
     0
102
RTVSPost2010PropOp55
 70
     1
102
RTVSPost2010Prop56
140
1.0
102
RTVSPost2010PropOp56
 70
     1
102
RTVSPost2010Prop57
140
1.0
102
RTVSPost2010PropOp57
 70
     1
102
RTVSPropertyOp0
 70
     1
102
RTVSPropertyOp1
 70
     1
102
RTVSPropertyOp2
 70
     1
102
RTVSPropertyOp3
 70
     1
102
RTVSPropertyOp4
 70
     1
102
RTVSPropertyOp5
 70
     1
102
RTVSPropertyOp6
 70
     1
102
RTVSPropertyOp7
 70
     1
102
RTVSPropertyOp8
 70
     1
102
RTVSPropertyOp9
 70
     1
102
RTVSPropertyOp10
 70
     1
102
RTVSPropertyOp11
 70
     1
102
RTVSPropertyOp12
 70
     1
102
RTVSPropertyOp13
 70
     1
102
RTVSPropertyOp14
 70
     1
102
RTVSPropertyOp15
 70
     1
102
RTVSPropertyOp16
 70
     1
102
RTVSPropertyOp17
 70
     1
102
RTVSPropertyOp18
 70
     1
102
RTVSPropertyOp19
 70
     1
102
RTVSPropertyOp20
 70
     1
102
RTVSPropertyOp21
 70
     1
102
RTVSPropertyOp22
 70
     1
102
RTVSPropertyOp23
 70
     1
102
RTVSPropertyOp24
 70
     1
102
RTVSPropertyOp25
 70
     1
102
RTVSPropertyOp26
 70
     1
102
RTVSPropertyOp27
 70
     1
102
RTVSPropertyOp28
 70
     1
102
RTVSPropertyOp29
 70
     1
102
RTVSPropertyOp30
 70
     1
102
RTVSPropertyOp31
 70
     1
102
RTVSPropertyOp32
 70
     1
102
RTVSPropertyOp33
 70
     1
102
RTVSPropertyOp34
 70
     1
102
RTVSPropertyOp35
 70
     1
102
RTVSPropertyOp36
 70
     1
102
RTVSPropertyOp37
 70
     1
102
RTVSPropertyOp38
 70
     1
102
RTVSPropertyOp39
 70
     1
102
RTVSPropertyOp40
 70
     1
102
RTVSPropertyOp41
 70
     1
102
RTVSPropertyOp42
 70
     1
102
RTVSPropertyOp43
 70
     1
102
RTVSPropertyOp44
 70
     1
102
RTVSPropertyOp45
 70
     1
102
RTVSPropertyOp46
 70
     1
102
RTVSPropertyOp47
 70
     1
102
RTVSPropertyOp48
 70
     1
102
RTVSPropertyOp49
 70
     1
102
RTVSPropertyOp50
 70
     1
102
RTVSPropertyOp51
 70
     0
102
RTVSPropertyOp52
 70
     0
102
RTVSPropertyOp53
 70
     1
102
RTVSPropertyOp54
 70
     1
102
RTVSPropertyOp55
 70
     1
102
RTVSPropertyOp56
 70
     1
102
RTVSPropertyOp57
 70
     1
102
RTVSPropertyOp58
 70
     1
102
RTVSPropertyOp59
 70
     1
102
RTVSPropertyOp60
 70
     1
102
RTVSPropertyOp61
 70
     1
102
RTVSPropertyOp62
 70
     1
  0
XRECORD
  5
BD30
102
{ACAD_REACTORS
330
BD2F
102
}
330
BD2F
100
AcDbXrecord
280
     1
102
RTVSPost2010Prop28
280
     0
102
RTVSPost2010PropOp28
 70
     1
102
RTVSPost2010Prop29
280
     1
102
RTVSPost2010PropOp29
 70
     1
102
RTVSPost2010Prop30
280
     1
102
RTVSPost2010PropOp30
 70
     1
102
RTVSPost2010Prop31
280
     0
102
RTVSPost2010PropOp31
 70
     1
102
RTVSPost2010Prop32
280
     0
102
RTVSPost2010PropOp32
 70
     1
102
RTVSPost2010Prop33
280
     0
102
RTVSPost2010PropOp33
 70
     1
102
RTVSPost2010Prop34
280
     0
102
RTVSPost2010PropOp34
 70
     1
102
RTVSPost2010Prop35
280
     0
102
RTVSPost2010PropOp35
 70
     1
102
RTVSPost2010Prop36
280
     0
102
RTVSPost2010PropOp36
 70
     1
102
RTVSPost2010Prop37
 90
       50
102
RTVSPost2010PropOp37
 70
     1
102
RTVSPost2010Prop38
140
0.0
102
RTVSPost2010PropOp38
 70
     1
102
RTVSPost2010Prop39
140
1.0
102
RTVSPost2010PropOp39
 70
     1
102
RTVSPost2010Prop40
 90
        0
102
RTVSPost2010PropOp40
 70
     1
102
RTVSPost2010Prop41ColorIndex
 90
       18
102
RTVSPost2010Prop41ColorRGB
 90
        0
102
RTVSPost2010PropOp41
 70
     1
102
RTVSPost2010Prop42
 90
       50
102
RTVSPost2010PropOp42
 70
     1
102
RTVSPost2010Prop43
 90
        3
102
RTVSPost2010PropOp43
 70
     1
102
RTVSPost2010Prop44ColorIndex
 90
        5
102
RTVSPost2010Prop44ColorRGB
 90
      255
102
RTVSPost2010PropOp44
 70
     1
102
RTVSPost2010Prop45
280
     0
102
RTVSPost2010PropOp45
 70
     1
102
RTVSPost2010Prop46
 90
       50
102
RTVSPost2010PropOp46
 70
     1
102
RTVSPost2010Prop47
 90
       50
102
RTVSPost2010PropOp47
 70
     1
102
RTVSPost2010Prop48
 90
       50
102
RTVSPost2010PropOp48
 70
     1
102
RTVSPost2010Prop49
280
     0
102
RTVSPost2010PropOp49
 70
     1
102
RTVSPost2010Prop50
 90
       50
102
RTVSPost2010PropOp50
 70
     1
102
RTVSPost2010Prop51ColorIndex
 90
      256
102
RTVSPost2010Prop51ColorRGB
 90
-16777216
102
RTVSPost2010PropOp51
 70
     0
102
RTVSPost2010Prop52
140
1.0
102
RTVSPost2010PropOp52
 70
     0
102
RTVSPost2010Prop53
 90
        2
102
RTVSPost2010PropOp53
 70
     1
102
RTVSPost2010Prop54
  1
strokes_ogs.tif
102
RTVSPost2010PropOp54
 70
     1
102
RTVSPost2010Prop55
280
     0
102
RTVSPost2010PropOp55
 70
     1
102
RTVSPost2010Prop56
140
1.0
102
RTVSPost2010PropOp56
 70
     1
102
RTVSPost2010Prop57
140
1.0
102
RTVSPost2010PropOp57
 70
     1
102
RTVSPropertyOp0
 70
     1
102
RTVSPropertyOp1
 70
     1
102
RTVSPropertyOp2
 70
     1
102
RTVSPropertyOp3
 70
     1
102
RTVSPropertyOp4
 70
     1
102
RTVSPropertyOp5
 70
     1
102
RTVSPropertyOp6
 70
     1
102
RTVSPropertyOp7
 70
     1
102
RTVSPropertyOp8
 70
     1
102
RTVSPropertyOp9
 70
     1
102
RTVSPropertyOp10
 70
     1
102
RTVSPropertyOp11
 70
     1
102
RTVSPropertyOp12
 70
     1
102
RTVSPropertyOp13
 70
     1
102
RTVSPropertyOp14
 70
     1
102
RTVSPropertyOp15
 70
     1
102
RTVSPropertyOp16
 70
     1
102
RTVSPropertyOp17
 70
     1
102
RTVSPropertyOp18
 70
     1
102
RTVSPropertyOp19
 70
     1
102
RTVSPropertyOp20
 70
     1
102
RTVSPropertyOp21
 70
     1
102
RTVSPropertyOp22
 70
     1
102
RTVSPropertyOp23
 70
     1
102
RTVSPropertyOp24
 70
     1
102
RTVSPropertyOp25
 70
     1
102
RTVSPropertyOp26
 70
     1
102
RTVSPropertyOp27
 70
     1
102
RTVSPropertyOp28
 70
     1
102
RTVSPropertyOp29
 70
     1
102
RTVSPropertyOp30
 70
     1
102
RTVSPropertyOp31
 70
     1
102
RTVSPropertyOp32
 70
     1
102
RTVSPropertyOp33
 70
     1
102
RTVSPropertyOp34
 70
     1
102
RTVSPropertyOp35
 70
     1
102
RTVSPropertyOp36
 70
     1
102
RTVSPropertyOp37
 70
     1
102
RTVSPropertyOp38
 70
     1
102
RTVSPropertyOp39
 70
     1
102
RTVSPropertyOp40
 70
     1
102
RTVSPropertyOp41
 70
     1
102
RTVSPropertyOp42
 70
     1
102
RTVSPropertyOp43
 70
     1
102
RTVSPropertyOp44
 70
     1
102
RTVSPropertyOp45
 70
     1
102
RTVSPropertyOp46
 70
     1
102
RTVSPropertyOp47
 70
     1
102
RTVSPropertyOp48
 70
     1
102
RTVSPropertyOp49
 70
     1
102
RTVSPropertyOp50
 70
     1
102
RTVSPropertyOp51
 70
     0
102
RTVSPropertyOp52
 70
     0
102
RTVSPropertyOp53
 70
     1
102
RTVSPropertyOp54
 70
     1
102
RTVSPropertyOp55
 70
     1
102
RTVSPropertyOp56
 70
     1
102
RTVSPropertyOp57
 70
     1
102
RTVSPropertyOp58
 70
     1
102
RTVSPropertyOp59
 70
     1
102
RTVSPropertyOp60
 70
     1
102
RTVSPropertyOp61
 70
     1
102
RTVSPropertyOp62
 70
     1
  0
XRECORD
  5
BD22
102
{ACAD_REACTORS
330
BD21
102
}
330
BD21
100
AcDbXrecord
280
     1
102
RTVSPost2010Prop28
280
     0
102
RTVSPost2010PropOp28
 70
     1
102
RTVSPost2010Prop29
280
     1
102
RTVSPost2010PropOp29
 70
     1
102
RTVSPost2010Prop30
280
     1
102
RTVSPost2010PropOp30
 70
     1
102
RTVSPost2010Prop31
280
     0
102
RTVSPost2010PropOp31
 70
     1
102
RTVSPost2010Prop32
280
     0
102
RTVSPost2010PropOp32
 70
     1
102
RTVSPost2010Prop33
280
     0
102
RTVSPost2010PropOp33
 70
     1
102
RTVSPost2010Prop34
280
     0
102
RTVSPost2010PropOp34
 70
     1
102
RTVSPost2010Prop35
280
     0
102
RTVSPost2010PropOp35
 70
     1
102
RTVSPost2010Prop36
280
     0
102
RTVSPost2010PropOp36
 70
     1
102
RTVSPost2010Prop37
 90
       50
102
RTVSPost2010PropOp37
 70
     1
102
RTVSPost2010Prop38
140
0.0
102
RTVSPost2010PropOp38
 70
     1
102
RTVSPost2010Prop39
140
1.0
102
RTVSPost2010PropOp39
 70
     1
102
RTVSPost2010Prop40
 90
        0
102
RTVSPost2010PropOp40
 70
     1
102
RTVSPost2010Prop41ColorIndex
 90
       18
102
RTVSPost2010Prop41ColorRGB
 90
        0
102
RTVSPost2010PropOp41
 70
     1
102
RTVSPost2010Prop42
 90
       50
102
RTVSPost2010PropOp42
 70
     1
102
RTVSPost2010Prop43
 90
        3
102
RTVSPost2010PropOp43
 70
     1
102
RTVSPost2010Prop44ColorIndex
 90
        5
102
RTVSPost2010Prop44ColorRGB
 90
      255
102
RTVSPost2010PropOp44
 70
     1
102
RTVSPost2010Prop45
280
     0
102
RTVSPost2010PropOp45
 70
     1
102
RTVSPost2010Prop46
 90
       50
102
RTVSPost2010PropOp46
 70
     1
102
RTVSPost2010Prop47
 90
       50
102
RTVSPost2010PropOp47
 70
     1
102
RTVSPost2010Prop48
 90
       50
102
RTVSPost2010PropOp48
 70
     1
102
RTVSPost2010Prop49
280
     0
102
RTVSPost2010PropOp49
 70
     1
102
RTVSPost2010Prop50
 90
       50
102
RTVSPost2010PropOp50
 70
     1
102
RTVSPost2010Prop51ColorIndex
 90
      256
102
RTVSPost2010Prop51ColorRGB
 90
-16777216
102
RTVSPost2010PropOp51
 70
     0
102
RTVSPost2010Prop52
140
1.0
102
RTVSPost2010PropOp52
 70
     0
102
RTVSPost2010Prop53
 90
        2
102
RTVSPost2010PropOp53
 70
     1
102
RTVSPost2010Prop54
  1
strokes_ogs.tif
102
RTVSPost2010PropOp54
 70
     1
102
RTVSPost2010Prop55
280
     0
102
RTVSPost2010PropOp55
 70
     1
102
RTVSPost2010Prop56
140
1.0
102
RTVSPost2010PropOp56
 70
     1
102
RTVSPost2010Prop57
140
1.0
102
RTVSPost2010PropOp57
 70
     1
102
RTVSPropertyOp0
 70
     1
102
RTVSPropertyOp1
 70
     1
102
RTVSPropertyOp2
 70
     1
102
RTVSPropertyOp3
 70
     1
102
RTVSPropertyOp4
 70
     1
102
RTVSPropertyOp5
 70
     1
102
RTVSPropertyOp6
 70
     1
102
RTVSPropertyOp7
 70
     1
102
RTVSPropertyOp8
 70
     1
102
RTVSPropertyOp9
 70
     1
102
RTVSPropertyOp10
 70
     1
102
RTVSPropertyOp11
 70
     1
102
RTVSPropertyOp12
 70
     1
102
RTVSPropertyOp13
 70
     1
102
RTVSPropertyOp14
 70
     1
102
RTVSPropertyOp15
 70
     1
102
RTVSPropertyOp16
 70
     1
102
RTVSPropertyOp17
 70
     1
102
RTVSPropertyOp18
 70
     1
102
RTVSPropertyOp19
 70
     1
102
RTVSPropertyOp20
 70
     1
102
RTVSPropertyOp21
 70
     1
102
RTVSPropertyOp22
 70
     1
102
RTVSPropertyOp23
 70
     1
102
RTVSPropertyOp24
 70
     1
102
RTVSPropertyOp25
 70
     1
102
RTVSPropertyOp26
 70
     1
102
RTVSPropertyOp27
 70
     1
102
RTVSPropertyOp28
 70
     1
102
RTVSPropertyOp29
 70
     1
102
RTVSPropertyOp30
 70
     1
102
RTVSPropertyOp31
 70
     1
102
RTVSPropertyOp32
 70
     1
102
RTVSPropertyOp33
 70
     1
102
RTVSPropertyOp34
 70
     1
102
RTVSPropertyOp35
 70
     1
102
RTVSPropertyOp36
 70
     1
102
RTVSPropertyOp37
 70
     1
102
RTVSPropertyOp38
 70
     1
102
RTVSPropertyOp39
 70
     1
102
RTVSPropertyOp40
 70
     1
102
RTVSPropertyOp41
 70
     1
102
RTVSPropertyOp42
 70
     1
102
RTVSPropertyOp43
 70
     1
102
RTVSPropertyOp44
 70
     1
102
RTVSPropertyOp45
 70
     1
102
RTVSPropertyOp46
 70
     1
102
RTVSPropertyOp47
 70
     1
102
RTVSPropertyOp48
 70
     1
102
RTVSPropertyOp49
 70
     1
102
RTVSPropertyOp50
 70
     1
102
RTVSPropertyOp51
 70
     0
102
RTVSPropertyOp52
 70
     0
102
RTVSPropertyOp53
 70
     1
102
RTVSPropertyOp54
 70
     1
102
RTVSPropertyOp55
 70
     1
102
RTVSPropertyOp56
 70
     1
102
RTVSPropertyOp57
 70
     1
102
RTVSPropertyOp58
 70
     1
102
RTVSPropertyOp59
 70
     1
102
RTVSPropertyOp60
 70
     1
102
RTVSPropertyOp61
 70
     1
102
RTVSPropertyOp62
 70
     1
  0
XRECORD
  5
BD26
102
{ACAD_REACTORS
330
BD25
102
}
330
BD25
100
AcDbXrecord
280
     1
102
RTVSPost2010Prop28
280
     0
102
RTVSPost2010PropOp28
 70
     1
102
RTVSPost2010Prop29
280
     1
102
RTVSPost2010PropOp29
 70
     1
102
RTVSPost2010Prop30
280
     1
102
RTVSPost2010PropOp30
 70
     1
102
RTVSPost2010Prop31
280
     0
102
RTVSPost2010PropOp31
 70
     1
102
RTVSPost2010Prop32
280
     0
102
RTVSPost2010PropOp32
 70
     1
102
RTVSPost2010Prop33
280
     0
102
RTVSPost2010PropOp33
 70
     1
102
RTVSPost2010Prop34
280
     0
102
RTVSPost2010PropOp34
 70
     1
102
RTVSPost2010Prop35
280
     0
102
RTVSPost2010PropOp35
 70
     1
102
RTVSPost2010Prop36
280
     0
102
RTVSPost2010PropOp36
 70
     1
102
RTVSPost2010Prop37
 90
       50
102
RTVSPost2010PropOp37
 70
     1
102
RTVSPost2010Prop38
140
0.0
102
RTVSPost2010PropOp38
 70
     1
102
RTVSPost2010Prop39
140
1.0
102
RTVSPost2010PropOp39
 70
     1
102
RTVSPost2010Prop40
 90
        0
102
RTVSPost2010PropOp40
 70
     1
102
RTVSPost2010Prop41ColorIndex
 90
       18
102
RTVSPost2010Prop41ColorRGB
 90
        0
102
RTVSPost2010PropOp41
 70
     1
102
RTVSPost2010Prop42
 90
       50
102
RTVSPost2010PropOp42
 70
     1
102
RTVSPost2010Prop43
 90
        3
102
RTVSPost2010PropOp43
 70
     1
102
RTVSPost2010Prop44ColorIndex
 90
        5
102
RTVSPost2010Prop44ColorRGB
 90
      255
102
RTVSPost2010PropOp44
 70
     1
102
RTVSPost2010Prop45
280
     0
102
RTVSPost2010PropOp45
 70
     1
102
RTVSPost2010Prop46
 90
       50
102
RTVSPost2010PropOp46
 70
     1
102
RTVSPost2010Prop47
 90
       50
102
RTVSPost2010PropOp47
 70
     1
102
RTVSPost2010Prop48
 90
       50
102
RTVSPost2010PropOp48
 70
     1
102
RTVSPost2010Prop49
280
     0
102
RTVSPost2010PropOp49
 70
     1
102
RTVSPost2010Prop50
 90
       50
102
RTVSPost2010PropOp50
 70
     1
102
RTVSPost2010Prop51ColorIndex
 90
      256
102
RTVSPost2010Prop51ColorRGB
 90
-16777216
102
RTVSPost2010PropOp51
 70
     0
102
RTVSPost2010Prop52
140
1.0
102
RTVSPost2010PropOp52
 70
     0
102
RTVSPost2010Prop53
 90
        2
102
RTVSPost2010PropOp53
 70
     1
102
RTVSPost2010Prop54
  1
strokes_ogs.tif
102
RTVSPost2010PropOp54
 70
     1
102
RTVSPost2010Prop55
280
     0
102
RTVSPost2010PropOp55
 70
     1
102
RTVSPost2010Prop56
140
1.0
102
RTVSPost2010PropOp56
 70
     1
102
RTVSPost2010Prop57
140
1.0
102
RTVSPost2010PropOp57
 70
     1
102
RTVSPropertyOp0
 70
     1
102
RTVSPropertyOp1
 70
     1
102
RTVSPropertyOp2
 70
     1
102
RTVSPropertyOp3
 70
     1
102
RTVSPropertyOp4
 70
     1
102
RTVSPropertyOp5
 70
     1
102
RTVSPropertyOp6
 70
     1
102
RTVSPropertyOp7
 70
     1
102
RTVSPropertyOp8
 70
     1
102
RTVSPropertyOp9
 70
     1
102
RTVSPropertyOp10
 70
     1
102
RTVSPropertyOp11
 70
     1
102
RTVSPropertyOp12
 70
     1
102
RTVSPropertyOp13
 70
     1
102
RTVSPropertyOp14
 70
     1
102
RTVSPropertyOp15
 70
     1
102
RTVSPropertyOp16
 70
     1
102
RTVSPropertyOp17
 70
     1
102
RTVSPropertyOp18
 70
     1
102
RTVSPropertyOp19
 70
     1
102
RTVSPropertyOp20
 70
     1
102
RTVSPropertyOp21
 70
     1
102
RTVSPropertyOp22
 70
     1
102
RTVSPropertyOp23
 70
     1
102
RTVSPropertyOp24
 70
     1
102
RTVSPropertyOp25
 70
     1
102
RTVSPropertyOp26
 70
     1
102
RTVSPropertyOp27
 70
     1
102
RTVSPropertyOp28
 70
     1
102
RTVSPropertyOp29
 70
     1
102
RTVSPropertyOp30
 70
     1
102
RTVSPropertyOp31
 70
     1
102
RTVSPropertyOp32
 70
     1
102
RTVSPropertyOp33
 70
     1
102
RTVSPropertyOp34
 70
     1
102
RTVSPropertyOp35
 70
     1
102
RTVSPropertyOp36
 70
     1
102
RTVSPropertyOp37
 70
     1
102
RTVSPropertyOp38
 70
     1
102
RTVSPropertyOp39
 70
     1
102
RTVSPropertyOp40
 70
     1
102
RTVSPropertyOp41
 70
     1
102
RTVSPropertyOp42
 70
     1
102
RTVSPropertyOp43
 70
     1
102
RTVSPropertyOp44
 70
     1
102
RTVSPropertyOp45
 70
     1
102
RTVSPropertyOp46
 70
     1
102
RTVSPropertyOp47
 70
     1
102
RTVSPropertyOp48
 70
     1
102
RTVSPropertyOp49
 70
     1
102
RTVSPropertyOp50
 70
     1
102
RTVSPropertyOp51
 70
     0
102
RTVSPropertyOp52
 70
     0
102
RTVSPropertyOp53
 70
     1
102
RTVSPropertyOp54
 70
     1
102
RTVSPropertyOp55
 70
     1
102
RTVSPropertyOp56
 70
     1
102
RTVSPropertyOp57
 70
     1
102
RTVSPropertyOp58
 70
     1
102
RTVSPropertyOp59
 70
     1
102
RTVSPropertyOp60
 70
     1
102
RTVSPropertyOp61
 70
     1
102
RTVSPropertyOp62
 70
     1
  0
XRECORD
  5
BD40
102
{ACAD_REACTORS
330
BD3F
102
}
330
BD3F
100
AcDbXrecord
280
     1
102
RTVSPost2010Prop28
280
     0
102
RTVSPost2010PropOp28
 70
     1
102
RTVSPost2010Prop29
280
     1
102
RTVSPost2010PropOp29
 70
     1
102
RTVSPost2010Prop30
280
     1
102
RTVSPost2010PropOp30
 70
     1
102
RTVSPost2010Prop31
280
     0
102
RTVSPost2010PropOp31
 70
     1
102
RTVSPost2010Prop32
280
     0
102
RTVSPost2010PropOp32
 70
     1
102
RTVSPost2010Prop33
280
     0
102
RTVSPost2010PropOp33
 70
     1
102
RTVSPost2010Prop34
280
     0
102
RTVSPost2010PropOp34
 70
     1
102
RTVSPost2010Prop35
280
     0
102
RTVSPost2010PropOp35
 70
     1
102
RTVSPost2010Prop36
280
     0
102
RTVSPost2010PropOp36
 70
     1
102
RTVSPost2010Prop37
 90
       50
102
RTVSPost2010PropOp37
 70
     0
102
RTVSPost2010Prop38
140
0.0
102
RTVSPost2010PropOp38
 70
     0
102
RTVSPost2010Prop39
140
1.0
102
RTVSPost2010PropOp39
 70
     0
102
RTVSPost2010Prop40
 90
        0
102
RTVSPost2010PropOp40
 70
     0
102
RTVSPost2010Prop41ColorIndex
 90
       18
102
RTVSPost2010Prop41ColorRGB
 90
        0
102
RTVSPost2010PropOp41
 70
     0
102
RTVSPost2010Prop42
 90
       50
102
RTVSPost2010PropOp42
 70
     0
102
RTVSPost2010Prop43
 90
        3
102
RTVSPost2010PropOp43
 70
     0
102
RTVSPost2010Prop44ColorIndex
 90
        5
102
RTVSPost2010Prop44ColorRGB
 90
      255
102
RTVSPost2010PropOp44
 70
     0
102
RTVSPost2010Prop45
280
     0
102
RTVSPost2010PropOp45
 70
     1
102
RTVSPost2010Prop46
 90
       50
102
RTVSPost2010PropOp46
 70
     0
102
RTVSPost2010Prop47
 90
       50
102
RTVSPost2010PropOp47
 70
     0
102
RTVSPost2010Prop48
 90
       50
102
RTVSPost2010PropOp48
 70
     0
102
RTVSPost2010Prop49
280
     0
102
RTVSPost2010PropOp49
 70
     1
102
RTVSPost2010Prop50
 90
       50
102
RTVSPost2010PropOp50
 70
     0
102
RTVSPost2010Prop51ColorIndex
 90
      256
102
RTVSPost2010Prop51ColorRGB
 90
-16777216
102
RTVSPost2010PropOp51
 70
     0
102
RTVSPost2010Prop52
140
1.0
102
RTVSPost2010PropOp52
 70
     0
102
RTVSPost2010Prop53
 90
        2
102
RTVSPost2010PropOp53
 70
     0
102
RTVSPost2010Prop54
  1
strokes_ogs.tif
102
RTVSPost2010PropOp54
 70
     0
102
RTVSPost2010Prop55
280
     0
102
RTVSPost2010PropOp55
 70
     1
102
RTVSPost2010Prop56
140
1.0
102
RTVSPost2010PropOp56
 70
     0
102
RTVSPost2010Prop57
140
1.0
102
RTVSPost2010PropOp57
 70
     0
102
RTVSPropertyOp0
 70
     0
102
RTVSPropertyOp1
 70
     0
102
RTVSPropertyOp2
 70
     0
102
RTVSPropertyOp3
 70
     0
102
RTVSPropertyOp4
 70
     0
102
RTVSPropertyOp5
 70
     0
102
RTVSPropertyOp6
 70
     0
102
RTVSPropertyOp7
 70
     0
102
RTVSPropertyOp8
 70
     0
102
RTVSPropertyOp9
 70
     0
102
RTVSPropertyOp10
 70
     0
102
RTVSPropertyOp11
 70
     0
102
RTVSPropertyOp12
 70
     0
102
RTVSPropertyOp13
 70
     0
102
RTVSPropertyOp14
 70
     2
102
RTVSPropertyOp15
 70
     0
102
RTVSPropertyOp16
 70
     0
102
RTVSPropertyOp17
 70
     0
102
RTVSPropertyOp18
 70
     0
102
RTVSPropertyOp19
 70
     0
102
RTVSPropertyOp20
 70
     0
102
RTVSPropertyOp21
 70
     0
102
RTVSPropertyOp22
 70
     0
102
RTVSPropertyOp23
 70
     0
102
RTVSPropertyOp24
 70
     0
102
RTVSPropertyOp25
 70
     0
102
RTVSPropertyOp26
 70
     0
102
RTVSPropertyOp27
 70
     0
102
RTVSPropertyOp28
 70
     1
102
RTVSPropertyOp29
 70
     1
102
RTVSPropertyOp30
 70
     1
102
RTVSPropertyOp31
 70
     1
102
RTVSPropertyOp32
 70
     1
102
RTVSPropertyOp33
 70
     1
102
RTVSPropertyOp34
 70
     1
102
RTVSPropertyOp35
 70
     1
102
RTVSPropertyOp36
 70
     1
102
RTVSPropertyOp37
 70
     0
102
RTVSPropertyOp38
 70
     0
102
RTVSPropertyOp39
 70
     0
102
RTVSPropertyOp40
 70
     0
102
RTVSPropertyOp41
 70
     0
102
RTVSPropertyOp42
 70
     0
102
RTVSPropertyOp43
 70
     0
102
RTVSPropertyOp44
 70
     0
102
RTVSPropertyOp45
 70
     1
102
RTVSPropertyOp46
 70
     0
102
RTVSPropertyOp47
 70
     0
102
RTVSPropertyOp48
 70
     0
102
RTVSPropertyOp49
 70
     1
102
RTVSPropertyOp50
 70
     0
102
RTVSPropertyOp51
 70
     0
102
RTVSPropertyOp52
 70
     0
102
RTVSPropertyOp53
 70
     0
102
RTVSPropertyOp54
 70
     0
102
RTVSPropertyOp55
 70
     1
102
RTVSPropertyOp56
 70
     0
102
RTVSPropertyOp57
 70
     0
102
RTVSPropertyOp58
 70
     0
102
RTVSPropertyOp59
 70
     0
102
RTVSPropertyOp60
 70
     0
102
RTVSPropertyOp61
 70
     0
102
RTVSPropertyOp62
 70
     0
  0
XRECORD
  5
BD2E
102
{ACAD_REACTORS
330
BD2D
102
}
330
BD2D
100
AcDbXrecord
280
     1
102
RTVSPost2010Prop28
280
     0
102
RTVSPost2010PropOp28
 70
     1
102
RTVSPost2010Prop29
280
     1
102
RTVSPost2010PropOp29
 70
     1
102
RTVSPost2010Prop30
280
     1
102
RTVSPost2010PropOp30
 70
     1
102
RTVSPost2010Prop31
280
     0
102
RTVSPost2010PropOp31
 70
     1
102
RTVSPost2010Prop32
280
     0
102
RTVSPost2010PropOp32
 70
     1
102
RTVSPost2010Prop33
280
     0
102
RTVSPost2010PropOp33
 70
     1
102
RTVSPost2010Prop34
280
     0
102
RTVSPost2010PropOp34
 70
     1
102
RTVSPost2010Prop35
280
     0
102
RTVSPost2010PropOp35
 70
     1
102
RTVSPost2010Prop36
280
     0
102
RTVSPost2010PropOp36
 70
     1
102
RTVSPost2010Prop37
 90
       50
102
RTVSPost2010PropOp37
 70
     1
102
RTVSPost2010Prop38
140
0.0
102
RTVSPost2010PropOp38
 70
     1
102
RTVSPost2010Prop39
140
1.0
102
RTVSPost2010PropOp39
 70
     1
102
RTVSPost2010Prop40
 90
        0
102
RTVSPost2010PropOp40
 70
     1
102
RTVSPost2010Prop41ColorIndex
 90
       18
102
RTVSPost2010Prop41ColorRGB
 90
        0
102
RTVSPost2010PropOp41
 70
     1
102
RTVSPost2010Prop42
 90
       50
102
RTVSPost2010PropOp42
 70
     1
102
RTVSPost2010Prop43
 90
        3
102
RTVSPost2010PropOp43
 70
     1
102
RTVSPost2010Prop44ColorIndex
 90
        5
102
RTVSPost2010Prop44ColorRGB
 90
      255
102
RTVSPost2010PropOp44
 70
     1
102
RTVSPost2010Prop45
280
     0
102
RTVSPost2010PropOp45
 70
     1
102
RTVSPost2010Prop46
 90
       50
102
RTVSPost2010PropOp46
 70
     1
102
RTVSPost2010Prop47
 90
       50
102
RTVSPost2010PropOp47
 70
     1
102
RTVSPost2010Prop48
 90
       50
102
RTVSPost2010PropOp48
 70
     1
102
RTVSPost2010Prop49
280
     0
102
RTVSPost2010PropOp49
 70
     1
102
RTVSPost2010Prop50
 90
       50
102
RTVSPost2010PropOp50
 70
     1
102
RTVSPost2010Prop51ColorIndex
 90
      256
102
RTVSPost2010Prop51ColorRGB
 90
-16777216
102
RTVSPost2010PropOp51
 70
     0
102
RTVSPost2010Prop52
140
1.0
102
RTVSPost2010PropOp52
 70
     0
102
RTVSPost2010Prop53
 90
        2
102
RTVSPost2010PropOp53
 70
     1
102
RTVSPost2010Prop54
  1
strokes_ogs.tif
102
RTVSPost2010PropOp54
 70
     1
102
RTVSPost2010Prop55
280
     0
102
RTVSPost2010PropOp55
 70
     1
102
RTVSPost2010Prop56
140
1.0
102
RTVSPost2010PropOp56
 70
     1
102
RTVSPost2010Prop57
140
1.0
102
RTVSPost2010PropOp57
 70
     1
102
RTVSPropertyOp0
 70
     1
102
RTVSPropertyOp1
 70
     1
102
RTVSPropertyOp2
 70
     1
102
RTVSPropertyOp3
 70
     1
102
RTVSPropertyOp4
 70
     1
102
RTVSPropertyOp5
 70
     1
102
RTVSPropertyOp6
 70
     1
102
RTVSPropertyOp7
 70
     1
102
RTVSPropertyOp8
 70
     1
102
RTVSPropertyOp9
 70
     1
102
RTVSPropertyOp10
 70
     1
102
RTVSPropertyOp11
 70
     1
102
RTVSPropertyOp12
 70
     1
102
RTVSPropertyOp13
 70
     1
102
RTVSPropertyOp14
 70
     1
102
RTVSPropertyOp15
 70
     1
102
RTVSPropertyOp16
 70
     1
102
RTVSPropertyOp17
 70
     1
102
RTVSPropertyOp18
 70
     1
102
RTVSPropertyOp19
 70
     1
102
RTVSPropertyOp20
 70
     1
102
RTVSPropertyOp21
 70
     1
102
RTVSPropertyOp22
 70
     1
102
RTVSPropertyOp23
 70
     1
102
RTVSPropertyOp24
 70
     1
102
RTVSPropertyOp25
 70
     1
102
RTVSPropertyOp26
 70
     1
102
RTVSPropertyOp27
 70
     1
102
RTVSPropertyOp28
 70
     1
102
RTVSPropertyOp29
 70
     1
102
RTVSPropertyOp30
 70
     1
102
RTVSPropertyOp31
 70
     1
102
RTVSPropertyOp32
 70
     1
102
RTVSPropertyOp33
 70
     1
102
RTVSPropertyOp34
 70
     1
102
RTVSPropertyOp35
 70
     1
102
RTVSPropertyOp36
 70
     1
102
RTVSPropertyOp37
 70
     1
102
RTVSPropertyOp38
 70
     1
102
RTVSPropertyOp39
 70
     1
102
RTVSPropertyOp40
 70
     1
102
RTVSPropertyOp41
 70
     1
102
RTVSPropertyOp42
 70
     1
102
RTVSPropertyOp43
 70
     1
102
RTVSPropertyOp44
 70
     1
102
RTVSPropertyOp45
 70
     1
102
RTVSPropertyOp46
 70
     1
102
RTVSPropertyOp47
 70
     1
102
RTVSPropertyOp48
 70
     1
102
RTVSPropertyOp49
 70
     1
102
RTVSPropertyOp50
 70
     1
102
RTVSPropertyOp51
 70
     0
102
RTVSPropertyOp52
 70
     0
102
RTVSPropertyOp53
 70
     1
102
RTVSPropertyOp54
 70
     1
102
RTVSPropertyOp55
 70
     1
102
RTVSPropertyOp56
 70
     1
102
RTVSPropertyOp57
 70
     1
102
RTVSPropertyOp58
 70
     1
102
RTVSPropertyOp59
 70
     1
102
RTVSPropertyOp60
 70
     1
102
RTVSPropertyOp61
 70
     1
102
RTVSPropertyOp62
 70
     1
  0
XRECORD
  5
BD12
102
{ACAD_REACTORS
330
BD11
102
}
330
BD11
100
AcDbXrecord
280
     1
102
RTVSPost2010Prop28
280
     0
102
RTVSPost2010PropOp28
 70
     1
102
RTVSPost2010Prop29
280
     1
102
RTVSPost2010PropOp29
 70
     1
102
RTVSPost2010Prop30
280
     1
102
RTVSPost2010PropOp30
 70
     1
102
RTVSPost2010Prop31
280
     0
102
RTVSPost2010PropOp31
 70
     1
102
RTVSPost2010Prop32
280
     0
102
RTVSPost2010PropOp32
 70
     1
102
RTVSPost2010Prop33
280
     0
102
RTVSPost2010PropOp33
 70
     1
102
RTVSPost2010Prop34
280
     0
102
RTVSPost2010PropOp34
 70
     1
102
RTVSPost2010Prop35
280
     0
102
RTVSPost2010PropOp35
 70
     1
102
RTVSPost2010Prop36
280
     0
102
RTVSPost2010PropOp36
 70
     1
102
RTVSPost2010Prop37
 90
       50
102
RTVSPost2010PropOp37
 70
     1
102
RTVSPost2010Prop38
140
0.0
102
RTVSPost2010PropOp38
 70
     1
102
RTVSPost2010Prop39
140
1.0
102
RTVSPost2010PropOp39
 70
     1
102
RTVSPost2010Prop40
 90
        0
102
RTVSPost2010PropOp40
 70
     1
102
RTVSPost2010Prop41ColorIndex
 90
       18
102
RTVSPost2010Prop41ColorRGB
 90
        0
102
RTVSPost2010PropOp41
 70
     1
102
RTVSPost2010Prop42
 90
       50
102
RTVSPost2010PropOp42
 70
     1
102
RTVSPost2010Prop43
 90
        3
102
RTVSPost2010PropOp43
 70
     1
102
RTVSPost2010Prop44ColorIndex
 90
        5
102
RTVSPost2010Prop44ColorRGB
 90
      255
102
RTVSPost2010PropOp44
 70
     1
102
RTVSPost2010Prop45
280
     0
102
RTVSPost2010PropOp45
 70
     1
102
RTVSPost2010Prop46
 90
       50
102
RTVSPost2010PropOp46
 70
     1
102
RTVSPost2010Prop47
 90
       50
102
RTVSPost2010PropOp47
 70
     1
102
RTVSPost2010Prop48
 90
       50
102
RTVSPost2010PropOp48
 70
     1
102
RTVSPost2010Prop49
280
     0
102
RTVSPost2010PropOp49
 70
     1
102
RTVSPost2010Prop50
 90
       50
102
RTVSPost2010PropOp50
 70
     1
102
RTVSPost2010Prop51ColorIndex
 90
      256
102
RTVSPost2010Prop51ColorRGB
 90
-16777216
102
RTVSPost2010PropOp51
 70
     0
102
RTVSPost2010Prop52
140
1.0
102
RTVSPost2010PropOp52
 70
     0
102
RTVSPost2010Prop53
 90
        2
102
RTVSPost2010PropOp53
 70
     1
102
RTVSPost2010Prop54
  1
strokes_ogs.tif
102
RTVSPost2010PropOp54
 70
     1
102
RTVSPost2010Prop55
280
     0
102
RTVSPost2010PropOp55
 70
     1
102
RTVSPost2010Prop56
140
1.0
102
RTVSPost2010PropOp56
 70
     1
102
RTVSPost2010Prop57
140
1.0
102
RTVSPost2010PropOp57
 70
     1
102
RTVSPropertyOp0
 70
     1
102
RTVSPropertyOp1
 70
     1
102
RTVSPropertyOp2
 70
     1
102
RTVSPropertyOp3
 70
     1
102
RTVSPropertyOp4
 70
     1
102
RTVSPropertyOp5
 70
     1
102
RTVSPropertyOp6
 70
     1
102
RTVSPropertyOp7
 70
     1
102
RTVSPropertyOp8
 70
     1
102
RTVSPropertyOp9
 70
     1
102
RTVSPropertyOp10
 70
     1
102
RTVSPropertyOp11
 70
     1
102
RTVSPropertyOp12
 70
     1
102
RTVSPropertyOp13
 70
     1
102
RTVSPropertyOp14
 70
     1
102
RTVSPropertyOp15
 70
     1
102
RTVSPropertyOp16
 70
     1
102
RTVSPropertyOp17
 70
     1
102
RTVSPropertyOp18
 70
     1
102
RTVSPropertyOp19
 70
     1
102
RTVSPropertyOp20
 70
     1
102
RTVSPropertyOp21
 70
     1
102
RTVSPropertyOp22
 70
     1
102
RTVSPropertyOp23
 70
     1
102
RTVSPropertyOp24
 70
     1
102
RTVSPropertyOp25
 70
     1
102
RTVSPropertyOp26
 70
     1
102
RTVSPropertyOp27
 70
     1
102
RTVSPropertyOp28
 70
     1
102
RTVSPropertyOp29
 70
     1
102
RTVSPropertyOp30
 70
     1
102
RTVSPropertyOp31
 70
     1
102
RTVSPropertyOp32
 70
     1
102
RTVSPropertyOp33
 70
     1
102
RTVSPropertyOp34
 70
     1
102
RTVSPropertyOp35
 70
     1
102
RTVSPropertyOp36
 70
     1
102
RTVSPropertyOp37
 70
     1
102
RTVSPropertyOp38
 70
     1
102
RTVSPropertyOp39
 70
     1
102
RTVSPropertyOp40
 70
     1
102
RTVSPropertyOp41
 70
     1
102
RTVSPropertyOp42
 70
     1
102
RTVSPropertyOp43
 70
     1
102
RTVSPropertyOp44
 70
     1
102
RTVSPropertyOp45
 70
     1
102
RTVSPropertyOp46
 70
     1
102
RTVSPropertyOp47
 70
     1
102
RTVSPropertyOp48
 70
     1
102
RTVSPropertyOp49
 70
     1
102
RTVSPropertyOp50
 70
     1
102
RTVSPropertyOp51
 70
     0
102
RTVSPropertyOp52
 70
     0
102
RTVSPropertyOp53
 70
     1
102
RTVSPropertyOp54
 70
     1
102
RTVSPropertyOp55
 70
     1
102
RTVSPropertyOp56
 70
     1
102
RTVSPropertyOp57
 70
     1
102
RTVSPropertyOp58
 70
     1
102
RTVSPropertyOp59
 70
     1
102
RTVSPropertyOp60
 70
     1
102
RTVSPropertyOp61
 70
     1
102
RTVSPropertyOp62
 70
     1
  0
XRECORD
  5
BD14
102
{ACAD_REACTORS
330
BD13
102
}
330
BD13
100
AcDbXrecord
280
     1
102
RTVSPost2010Prop28
280
     0
102
RTVSPost2010PropOp28
 70
     1
102
RTVSPost2010Prop29
280
     1
102
RTVSPost2010PropOp29
 70
     1
102
RTVSPost2010Prop30
280
     1
102
RTVSPost2010PropOp30
 70
     1
102
RTVSPost2010Prop31
280
     0
102
RTVSPost2010PropOp31
 70
     1
102
RTVSPost2010Prop32
280
     0
102
RTVSPost2010PropOp32
 70
     1
102
RTVSPost2010Prop33
280
     0
102
RTVSPost2010PropOp33
 70
     1
102
RTVSPost2010Prop34
280
     0
102
RTVSPost2010PropOp34
 70
     1
102
RTVSPost2010Prop35
280
     0
102
RTVSPost2010PropOp35
 70
     1
102
RTVSPost2010Prop36
280
     0
102
RTVSPost2010PropOp36
 70
     1
102
RTVSPost2010Prop37
 90
       50
102
RTVSPost2010PropOp37
 70
     1
102
RTVSPost2010Prop38
140
0.0
102
RTVSPost2010PropOp38
 70
     1
102
RTVSPost2010Prop39
140
1.0
102
RTVSPost2010PropOp39
 70
     1
102
RTVSPost2010Prop40
 90
        0
102
RTVSPost2010PropOp40
 70
     1
102
RTVSPost2010Prop41ColorIndex
 90
       18
102
RTVSPost2010Prop41ColorRGB
 90
        0
102
RTVSPost2010PropOp41
 70
     1
102
RTVSPost2010Prop42
 90
       50
102
RTVSPost2010PropOp42
 70
     1
102
RTVSPost2010Prop43
 90
        3
102
RTVSPost2010PropOp43
 70
     1
102
RTVSPost2010Prop44ColorIndex
 90
        5
102
RTVSPost2010Prop44ColorRGB
 90
      255
102
RTVSPost2010PropOp44
 70
     1
102
RTVSPost2010Prop45
280
     0
102
RTVSPost2010PropOp45
 70
     1
102
RTVSPost2010Prop46
 90
       50
102
RTVSPost2010PropOp46
 70
     1
102
RTVSPost2010Prop47
 90
       50
102
RTVSPost2010PropOp47
 70
     1
102
RTVSPost2010Prop48
 90
       50
102
RTVSPost2010PropOp48
 70
     1
102
RTVSPost2010Prop49
280
     0
102
RTVSPost2010PropOp49
 70
     1
102
RTVSPost2010Prop50
 90
       50
102
RTVSPost2010PropOp50
 70
     1
102
RTVSPost2010Prop51ColorIndex
 90
      256
102
RTVSPost2010Prop51ColorRGB
 90
-16777216
102
RTVSPost2010PropOp51
 70
     0
102
RTVSPost2010Prop52
140
1.0
102
RTVSPost2010PropOp52
 70
     0
102
RTVSPost2010Prop53
 90
        2
102
RTVSPost2010PropOp53
 70
     1
102
RTVSPost2010Prop54
  1
strokes_ogs.tif
102
RTVSPost2010PropOp54
 70
     1
102
RTVSPost2010Prop55
280
     0
102
RTVSPost2010PropOp55
 70
     1
102
RTVSPost2010Prop56
140
1.0
102
RTVSPost2010PropOp56
 70
     1
102
RTVSPost2010Prop57
140
1.0
102
RTVSPost2010PropOp57
 70
     1
102
RTVSPropertyOp0
 70
     1
102
RTVSPropertyOp1
 70
     1
102
RTVSPropertyOp2
 70
     1
102
RTVSPropertyOp3
 70
     1
102
RTVSPropertyOp4
 70
     1
102
RTVSPropertyOp5
 70
     1
102
RTVSPropertyOp6
 70
     1
102
RTVSPropertyOp7
 70
     1
102
RTVSPropertyOp8
 70
     1
102
RTVSPropertyOp9
 70
     1
102
RTVSPropertyOp10
 70
     1
102
RTVSPropertyOp11
 70
     1
102
RTVSPropertyOp12
 70
     1
102
RTVSPropertyOp13
 70
     1
102
RTVSPropertyOp14
 70
     1
102
RTVSPropertyOp15
 70
     1
102
RTVSPropertyOp16
 70
     1
102
RTVSPropertyOp17
 70
     1
102
RTVSPropertyOp18
 70
     1
102
RTVSPropertyOp19
 70
     1
102
RTVSPropertyOp20
 70
     1
102
RTVSPropertyOp21
 70
     1
102
RTVSPropertyOp22
 70
     1
102
RTVSPropertyOp23
 70
     1
102
RTVSPropertyOp24
 70
     1
102
RTVSPropertyOp25
 70
     1
102
RTVSPropertyOp26
 70
     1
102
RTVSPropertyOp27
 70
     1
102
RTVSPropertyOp28
 70
     1
102
RTVSPropertyOp29
 70
     1
102
RTVSPropertyOp30
 70
     1
102
RTVSPropertyOp31
 70
     1
102
RTVSPropertyOp32
 70
     1
102
RTVSPropertyOp33
 70
     1
102
RTVSPropertyOp34
 70
     1
102
RTVSPropertyOp35
 70
     1
102
RTVSPropertyOp36
 70
     1
102
RTVSPropertyOp37
 70
     1
102
RTVSPropertyOp38
 70
     1
102
RTVSPropertyOp39
 70
     1
102
RTVSPropertyOp40
 70
     1
102
RTVSPropertyOp41
 70
     1
102
RTVSPropertyOp42
 70
     1
102
RTVSPropertyOp43
 70
     1
102
RTVSPropertyOp44
 70
     1
102
RTVSPropertyOp45
 70
     1
102
RTVSPropertyOp46
 70
     1
102
RTVSPropertyOp47
 70
     1
102
RTVSPropertyOp48
 70
     1
102
RTVSPropertyOp49
 70
     1
102
RTVSPropertyOp50
 70
     1
102
RTVSPropertyOp51
 70
     0
102
RTVSPropertyOp52
 70
     0
102
RTVSPropertyOp53
 70
     1
102
RTVSPropertyOp54
 70
     1
102
RTVSPropertyOp55
 70
     1
102
RTVSPropertyOp56
 70
     1
102
RTVSPropertyOp57
 70
     1
102
RTVSPropertyOp58
 70
     1
102
RTVSPropertyOp59
 70
     1
102
RTVSPropertyOp60
 70
     1
102
RTVSPropertyOp61
 70
     1
102
RTVSPropertyOp62
 70
     1
  0
XRECORD
  5
BD16
102
{ACAD_REACTORS
330
BD15
102
}
330
BD15
100
AcDbXrecord
280
     1
102
RTVSPost2010Prop28
280
     0
102
RTVSPost2010PropOp28
 70
     1
102
RTVSPost2010Prop29
280
     1
102
RTVSPost2010PropOp29
 70
     1
102
RTVSPost2010Prop30
280
     1
102
RTVSPost2010PropOp30
 70
     1
102
RTVSPost2010Prop31
280
     0
102
RTVSPost2010PropOp31
 70
     1
102
RTVSPost2010Prop32
280
     0
102
RTVSPost2010PropOp32
 70
     1
102
RTVSPost2010Prop33
280
     0
102
RTVSPost2010PropOp33
 70
     1
102
RTVSPost2010Prop34
280
     0
102
RTVSPost2010PropOp34
 70
     1
102
RTVSPost2010Prop35
280
     0
102
RTVSPost2010PropOp35
 70
     1
102
RTVSPost2010Prop36
280
     0
102
RTVSPost2010PropOp36
 70
     1
102
RTVSPost2010Prop37
 90
       50
102
RTVSPost2010PropOp37
 70
     1
102
RTVSPost2010Prop38
140
0.0
102
RTVSPost2010PropOp38
 70
     1
102
RTVSPost2010Prop39
140
1.0
102
RTVSPost2010PropOp39
 70
     1
102
RTVSPost2010Prop40
 90
        0
102
RTVSPost2010PropOp40
 70
     1
102
RTVSPost2010Prop41ColorIndex
 90
       18
102
RTVSPost2010Prop41ColorRGB
 90
        0
102
RTVSPost2010PropOp41
 70
     1
102
RTVSPost2010Prop42
 90
       50
102
RTVSPost2010PropOp42
 70
     1
102
RTVSPost2010Prop43
 90
        3
102
RTVSPost2010PropOp43
 70
     1
102
RTVSPost2010Prop44ColorIndex
 90
        5
102
RTVSPost2010Prop44ColorRGB
 90
      255
102
RTVSPost2010PropOp44
 70
     1
102
RTVSPost2010Prop45
280
     0
102
RTVSPost2010PropOp45
 70
     1
102
RTVSPost2010Prop46
 90
       50
102
RTVSPost2010PropOp46
 70
     1
102
RTVSPost2010Prop47
 90
       50
102
RTVSPost2010PropOp47
 70
     1
102
RTVSPost2010Prop48
 90
       50
102
RTVSPost2010PropOp48
 70
     1
102
RTVSPost2010Prop49
280
     0
102
RTVSPost2010PropOp49
 70
     1
102
RTVSPost2010Prop50
 90
       50
102
RTVSPost2010PropOp50
 70
     1
102
RTVSPost2010Prop51ColorIndex
 90
      256
102
RTVSPost2010Prop51ColorRGB
 90
-16777216
102
RTVSPost2010PropOp51
 70
     0
102
RTVSPost2010Prop52
140
1.0
102
RTVSPost2010PropOp52
 70
     0
102
RTVSPost2010Prop53
 90
        2
102
RTVSPost2010PropOp53
 70
     1
102
RTVSPost2010Prop54
  1
strokes_ogs.tif
102
RTVSPost2010PropOp54
 70
     1
102
RTVSPost2010Prop55
280
     0
102
RTVSPost2010PropOp55
 70
     1
102
RTVSPost2010Prop56
140
1.0
102
RTVSPost2010PropOp56
 70
     1
102
RTVSPost2010Prop57
140
1.0
102
RTVSPost2010PropOp57
 70
     1
102
RTVSPropertyOp0
 70
     1
102
RTVSPropertyOp1
 70
     1
102
RTVSPropertyOp2
 70
     1
102
RTVSPropertyOp3
 70
     1
102
RTVSPropertyOp4
 70
     1
102
RTVSPropertyOp5
 70
     1
102
RTVSPropertyOp6
 70
     1
102
RTVSPropertyOp7
 70
     1
102
RTVSPropertyOp8
 70
     1
102
RTVSPropertyOp9
 70
     1
102
RTVSPropertyOp10
 70
     1
102
RTVSPropertyOp11
 70
     1
102
RTVSPropertyOp12
 70
     1
102
RTVSPropertyOp13
 70
     1
102
RTVSPropertyOp14
 70
     1
102
RTVSPropertyOp15
 70
     1
102
RTVSPropertyOp16
 70
     1
102
RTVSPropertyOp17
 70
     1
102
RTVSPropertyOp18
 70
     1
102
RTVSPropertyOp19
 70
     1
102
RTVSPropertyOp20
 70
     1
102
RTVSPropertyOp21
 70
     1
102
RTVSPropertyOp22
 70
     1
102
RTVSPropertyOp23
 70
     1
102
RTVSPropertyOp24
 70
     1
102
RTVSPropertyOp25
 70
     1
102
RTVSPropertyOp26
 70
     1
102
RTVSPropertyOp27
 70
     1
102
RTVSPropertyOp28
 70
     1
102
RTVSPropertyOp29
 70
     1
102
RTVSPropertyOp30
 70
     1
102
RTVSPropertyOp31
 70
     1
102
RTVSPropertyOp32
 70
     1
102
RTVSPropertyOp33
 70
     1
102
RTVSPropertyOp34
 70
     1
102
RTVSPropertyOp35
 70
     1
102
RTVSPropertyOp36
 70
     1
102
RTVSPropertyOp37
 70
     1
102
RTVSPropertyOp38
 70
     1
102
RTVSPropertyOp39
 70
     1
102
RTVSPropertyOp40
 70
     1
102
RTVSPropertyOp41
 70
     1
102
RTVSPropertyOp42
 70
     1
102
RTVSPropertyOp43
 70
     1
102
RTVSPropertyOp44
 70
     1
102
RTVSPropertyOp45
 70
     1
102
RTVSPropertyOp46
 70
     1
102
RTVSPropertyOp47
 70
     1
102
RTVSPropertyOp48
 70
     1
102
RTVSPropertyOp49
 70
     1
102
RTVSPropertyOp50
 70
     1
102
RTVSPropertyOp51
 70
     0
102
RTVSPropertyOp52
 70
     0
102
RTVSPropertyOp53
 70
     1
102
RTVSPropertyOp54
 70
     1
102
RTVSPropertyOp55
 70
     1
102
RTVSPropertyOp56
 70
     1
102
RTVSPropertyOp57
 70
     1
102
RTVSPropertyOp58
 70
     1
102
RTVSPropertyOp59
 70
     1
102
RTVSPropertyOp60
 70
     1
102
RTVSPropertyOp61
 70
     1
102
RTVSPropertyOp62
 70
     1
  0
XRECORD
  5
BD18
102
{ACAD_REACTORS
330
BD17
102
}
330
BD17
100
AcDbXrecord
280
     1
102
RTVSPost2010Prop28
280
     0
102
RTVSPost2010PropOp28
 70
     1
102
RTVSPost2010Prop29
280
     1
102
RTVSPost2010PropOp29
 70
     1
102
RTVSPost2010Prop30
280
     1
102
RTVSPost2010PropOp30
 70
     1
102
RTVSPost2010Prop31
280
     0
102
RTVSPost2010PropOp31
 70
     1
102
RTVSPost2010Prop32
280
     0
102
RTVSPost2010PropOp32
 70
     1
102
RTVSPost2010Prop33
280
     0
102
RTVSPost2010PropOp33
 70
     1
102
RTVSPost2010Prop34
280
     0
102
RTVSPost2010PropOp34
 70
     1
102
RTVSPost2010Prop35
280
     0
102
RTVSPost2010PropOp35
 70
     1
102
RTVSPost2010Prop36
280
     0
102
RTVSPost2010PropOp36
 70
     1
102
RTVSPost2010Prop37
 90
       50
102
RTVSPost2010PropOp37
 70
     1
102
RTVSPost2010Prop38
140
0.0
102
RTVSPost2010PropOp38
 70
     1
102
RTVSPost2010Prop39
140
1.0
102
RTVSPost2010PropOp39
 70
     1
102
RTVSPost2010Prop40
 90
        0
102
RTVSPost2010PropOp40
 70
     1
102
RTVSPost2010Prop41ColorIndex
 90
       18
102
RTVSPost2010Prop41ColorRGB
 90
        0
102
RTVSPost2010PropOp41
 70
     1
102
RTVSPost2010Prop42
 90
       50
102
RTVSPost2010PropOp42
 70
     1
102
RTVSPost2010Prop43
 90
        3
102
RTVSPost2010PropOp43
 70
     1
102
RTVSPost2010Prop44ColorIndex
 90
        5
102
RTVSPost2010Prop44ColorRGB
 90
      255
102
RTVSPost2010PropOp44
 70
     1
102
RTVSPost2010Prop45
280
     0
102
RTVSPost2010PropOp45
 70
     1
102
RTVSPost2010Prop46
 90
       50
102
RTVSPost2010PropOp46
 70
     1
102
RTVSPost2010Prop47
 90
       50
102
RTVSPost2010PropOp47
 70
     1
102
RTVSPost2010Prop48
 90
       50
102
RTVSPost2010PropOp48
 70
     1
102
RTVSPost2010Prop49
280
     0
102
RTVSPost2010PropOp49
 70
     1
102
RTVSPost2010Prop50
 90
       50
102
RTVSPost2010PropOp50
 70
     1
102
RTVSPost2010Prop51ColorIndex
 90
      256
102
RTVSPost2010Prop51ColorRGB
 90
-16777216
102
RTVSPost2010PropOp51
 70
     0
102
RTVSPost2010Prop52
140
1.0
102
RTVSPost2010PropOp52
 70
     0
102
RTVSPost2010Prop53
 90
        2
102
RTVSPost2010PropOp53
 70
     1
102
RTVSPost2010Prop54
  1
strokes_ogs.tif
102
RTVSPost2010PropOp54
 70
     1
102
RTVSPost2010Prop55
280
     0
102
RTVSPost2010PropOp55
 70
     1
102
RTVSPost2010Prop56
140
1.0
102
RTVSPost2010PropOp56
 70
     1
102
RTVSPost2010Prop57
140
1.0
102
RTVSPost2010PropOp57
 70
     1
102
RTVSPropertyOp0
 70
     1
102
RTVSPropertyOp1
 70
     1
102
RTVSPropertyOp2
 70
     1
102
RTVSPropertyOp3
 70
     1
102
RTVSPropertyOp4
 70
     1
102
RTVSPropertyOp5
 70
     1
102
RTVSPropertyOp6
 70
     1
102
RTVSPropertyOp7
 70
     1
102
RTVSPropertyOp8
 70
     1
102
RTVSPropertyOp9
 70
     1
102
RTVSPropertyOp10
 70
     1
102
RTVSPropertyOp11
 70
     1
102
RTVSPropertyOp12
 70
     1
102
RTVSPropertyOp13
 70
     1
102
RTVSPropertyOp14
 70
     1
102
RTVSPropertyOp15
 70
     1
102
RTVSPropertyOp16
 70
     1
102
RTVSPropertyOp17
 70
     1
102
RTVSPropertyOp18
 70
     1
102
RTVSPropertyOp19
 70
     1
102
RTVSPropertyOp20
 70
     1
102
RTVSPropertyOp21
 70
     1
102
RTVSPropertyOp22
 70
     1
102
RTVSPropertyOp23
 70
     1
102
RTVSPropertyOp24
 70
     1
102
RTVSPropertyOp25
 70
     1
102
RTVSPropertyOp26
 70
     1
102
RTVSPropertyOp27
 70
     1
102
RTVSPropertyOp28
 70
     1
102
RTVSPropertyOp29
 70
     1
102
RTVSPropertyOp30
 70
     1
102
RTVSPropertyOp31
 70
     1
102
RTVSPropertyOp32
 70
     1
102
RTVSPropertyOp33
 70
     1
102
RTVSPropertyOp34
 70
     1
102
RTVSPropertyOp35
 70
     1
102
RTVSPropertyOp36
 70
     1
102
RTVSPropertyOp37
 70
     1
102
RTVSPropertyOp38
 70
     1
102
RTVSPropertyOp39
 70
     1
102
RTVSPropertyOp40
 70
     1
102
RTVSPropertyOp41
 70
     1
102
RTVSPropertyOp42
 70
     1
102
RTVSPropertyOp43
 70
     1
102
RTVSPropertyOp44
 70
     1
102
RTVSPropertyOp45
 70
     1
102
RTVSPropertyOp46
 70
     1
102
RTVSPropertyOp47
 70
     1
102
RTVSPropertyOp48
 70
     1
102
RTVSPropertyOp49
 70
     1
102
RTVSPropertyOp50
 70
     1
102
RTVSPropertyOp51
 70
     0
102
RTVSPropertyOp52
 70
     0
102
RTVSPropertyOp53
 70
     1
102
RTVSPropertyOp54
 70
     1
102
RTVSPropertyOp55
 70
     1
102
RTVSPropertyOp56
 70
     1
102
RTVSPropertyOp57
 70
     1
102
RTVSPropertyOp58
 70
     1
102
RTVSPropertyOp59
 70
     1
102
RTVSPropertyOp60
 70
     1
102
RTVSPropertyOp61
 70
     1
102
RTVSPropertyOp62
 70
     1
  0
XRECORD
  5
BD20
102
{ACAD_REACTORS
330
BD1F
102
}
330
BD1F
100
AcDbXrecord
280
     1
102
RTVSPost2010Prop28
280
     0
102
RTVSPost2010PropOp28
 70
     1
102
RTVSPost2010Prop29
280
     1
102
RTVSPost2010PropOp29
 70
     1
102
RTVSPost2010Prop30
280
     1
102
RTVSPost2010PropOp30
 70
     1
102
RTVSPost2010Prop31
280
     0
102
RTVSPost2010PropOp31
 70
     1
102
RTVSPost2010Prop32
280
     0
102
RTVSPost2010PropOp32
 70
     1
102
RTVSPost2010Prop33
280
     0
102
RTVSPost2010PropOp33
 70
     1
102
RTVSPost2010Prop34
280
     0
102
RTVSPost2010PropOp34
 70
     1
102
RTVSPost2010Prop35
280
     0
102
RTVSPost2010PropOp35
 70
     1
102
RTVSPost2010Prop36
280
     0
102
RTVSPost2010PropOp36
 70
     1
102
RTVSPost2010Prop37
 90
       50
102
RTVSPost2010PropOp37
 70
     1
102
RTVSPost2010Prop38
140
0.0
102
RTVSPost2010PropOp38
 70
     1
102
RTVSPost2010Prop39
140
1.0
102
RTVSPost2010PropOp39
 70
     1
102
RTVSPost2010Prop40
 90
        0
102
RTVSPost2010PropOp40
 70
     1
102
RTVSPost2010Prop41ColorIndex
 90
       18
102
RTVSPost2010Prop41ColorRGB
 90
        0
102
RTVSPost2010PropOp41
 70
     1
102
RTVSPost2010Prop42
 90
       50
102
RTVSPost2010PropOp42
 70
     1
102
RTVSPost2010Prop43
 90
        3
102
RTVSPost2010PropOp43
 70
     1
102
RTVSPost2010Prop44ColorIndex
 90
        5
102
RTVSPost2010Prop44ColorRGB
 90
      255
102
RTVSPost2010PropOp44
 70
     1
102
RTVSPost2010Prop45
280
     0
102
RTVSPost2010PropOp45
 70
     1
102
RTVSPost2010Prop46
 90
       50
102
RTVSPost2010PropOp46
 70
     1
102
RTVSPost2010Prop47
 90
       50
102
RTVSPost2010PropOp47
 70
     1
102
RTVSPost2010Prop48
 90
       50
102
RTVSPost2010PropOp48
 70
     1
102
RTVSPost2010Prop49
280
     0
102
RTVSPost2010PropOp49
 70
     1
102
RTVSPost2010Prop50
 90
       50
102
RTVSPost2010PropOp50
 70
     1
102
RTVSPost2010Prop51ColorIndex
 90
      256
102
RTVSPost2010Prop51ColorRGB
 90
-16777216
102
RTVSPost2010PropOp51
 70
     0
102
RTVSPost2010Prop52
140
1.0
102
RTVSPost2010PropOp52
 70
     0
102
RTVSPost2010Prop53
 90
        2
102
RTVSPost2010PropOp53
 70
     1
102
RTVSPost2010Prop54
  1
strokes_ogs.tif
102
RTVSPost2010PropOp54
 70
     1
102
RTVSPost2010Prop55
280
     0
102
RTVSPost2010PropOp55
 70
     1
102
RTVSPost2010Prop56
140
1.0
102
RTVSPost2010PropOp56
 70
     1
102
RTVSPost2010Prop57
140
1.0
102
RTVSPost2010PropOp57
 70
     1
102
RTVSPropertyOp0
 70
     1
102
RTVSPropertyOp1
 70
     1
102
RTVSPropertyOp2
 70
     1
102
RTVSPropertyOp3
 70
     1
102
RTVSPropertyOp4
 70
     1
102
RTVSPropertyOp5
 70
     1
102
RTVSPropertyOp6
 70
     1
102
RTVSPropertyOp7
 70
     1
102
RTVSPropertyOp8
 70
     1
102
RTVSPropertyOp9
 70
     1
102
RTVSPropertyOp10
 70
     1
102
RTVSPropertyOp11
 70
     1
102
RTVSPropertyOp12
 70
     1
102
RTVSPropertyOp13
 70
     1
102
RTVSPropertyOp14
 70
     1
102
RTVSPropertyOp15
 70
     1
102
RTVSPropertyOp16
 70
     1
102
RTVSPropertyOp17
 70
     1
102
RTVSPropertyOp18
 70
     1
102
RTVSPropertyOp19
 70
     1
102
RTVSPropertyOp20
 70
     1
102
RTVSPropertyOp21
 70
     1
102
RTVSPropertyOp22
 70
     1
102
RTVSPropertyOp23
 70
     1
102
RTVSPropertyOp24
 70
     1
102
RTVSPropertyOp25
 70
     1
102
RTVSPropertyOp26
 70
     1
102
RTVSPropertyOp27
 70
     1
102
RTVSPropertyOp28
 70
     1
102
RTVSPropertyOp29
 70
     1
102
RTVSPropertyOp30
 70
     1
102
RTVSPropertyOp31
 70
     1
102
RTVSPropertyOp32
 70
     1
102
RTVSPropertyOp33
 70
     1
102
RTVSPropertyOp34
 70
     1
102
RTVSPropertyOp35
 70
     1
102
RTVSPropertyOp36
 70
     1
102
RTVSPropertyOp37
 70
     1
102
RTVSPropertyOp38
 70
     1
102
RTVSPropertyOp39
 70
     1
102
RTVSPropertyOp40
 70
     1
102
RTVSPropertyOp41
 70
     1
102
RTVSPropertyOp42
 70
     1
102
RTVSPropertyOp43
 70
     1
102
RTVSPropertyOp44
 70
     1
102
RTVSPropertyOp45
 70
     1
102
RTVSPropertyOp46
 70
     1
102
RTVSPropertyOp47
 70
     1
102
RTVSPropertyOp48
 70
     1
102
RTVSPropertyOp49
 70
     1
102
RTVSPropertyOp50
 70
     1
102
RTVSPropertyOp51
 70
     0
102
RTVSPropertyOp52
 70
     0
102
RTVSPropertyOp53
 70
     1
102
RTVSPropertyOp54
 70
     1
102
RTVSPropertyOp55
 70
     1
102
RTVSPropertyOp56
 70
     1
102
RTVSPropertyOp57
 70
     1
102
RTVSPropertyOp58
 70
     1
102
RTVSPropertyOp59
 70
     1
102
RTVSPropertyOp60
 70
     1
102
RTVSPropertyOp61
 70
     1
102
RTVSPropertyOp62
 70
     1
  0
XRECORD
  5
BD3C
102
{ACAD_REACTORS
330
BD3B
102
}
330
BD3B
100
AcDbXrecord
280
     1
102
RTVSPost2010Prop28
280
     0
102
RTVSPost2010PropOp28
 70
     1
102
RTVSPost2010Prop29
280
     1
102
RTVSPost2010PropOp29
 70
     1
102
RTVSPost2010Prop30
280
     1
102
RTVSPost2010PropOp30
 70
     1
102
RTVSPost2010Prop31
280
     0
102
RTVSPost2010PropOp31
 70
     1
102
RTVSPost2010Prop32
280
     0
102
RTVSPost2010PropOp32
 70
     1
102
RTVSPost2010Prop33
280
     0
102
RTVSPost2010PropOp33
 70
     1
102
RTVSPost2010Prop34
280
     0
102
RTVSPost2010PropOp34
 70
     1
102
RTVSPost2010Prop35
280
     0
102
RTVSPost2010PropOp35
 70
     1
102
RTVSPost2010Prop36
280
     0
102
RTVSPost2010PropOp36
 70
     1
102
RTVSPost2010Prop37
 90
       50
102
RTVSPost2010PropOp37
 70
     0
102
RTVSPost2010Prop38
140
0.0
102
RTVSPost2010PropOp38
 70
     0
102
RTVSPost2010Prop39
140
1.0
102
RTVSPost2010PropOp39
 70
     0
102
RTVSPost2010Prop40
 90
        0
102
RTVSPost2010PropOp40
 70
     0
102
RTVSPost2010Prop41ColorIndex
 90
       18
102
RTVSPost2010Prop41ColorRGB
 90
        0
102
RTVSPost2010PropOp41
 70
     0
102
RTVSPost2010Prop42
 90
       50
102
RTVSPost2010PropOp42
 70
     0
102
RTVSPost2010Prop43
 90
        3
102
RTVSPost2010PropOp43
 70
     0
102
RTVSPost2010Prop44ColorIndex
 90
        5
102
RTVSPost2010Prop44ColorRGB
 90
      255
102
RTVSPost2010PropOp44
 70
     0
102
RTVSPost2010Prop45
280
     0
102
RTVSPost2010PropOp45
 70
     1
102
RTVSPost2010Prop46
 90
       50
102
RTVSPost2010PropOp46
 70
     0
102
RTVSPost2010Prop47
 90
       50
102
RTVSPost2010PropOp47
 70
     0
102
RTVSPost2010Prop48
 90
       50
102
RTVSPost2010PropOp48
 70
     0
102
RTVSPost2010Prop49
280
     0
102
RTVSPost2010PropOp49
 70
     1
102
RTVSPost2010Prop50
 90
       50
102
RTVSPost2010PropOp50
 70
     0
102
RTVSPost2010Prop51ColorIndex
 90
      256
102
RTVSPost2010Prop51ColorRGB
 90
-16777216
102
RTVSPost2010PropOp51
 70
     0
102
RTVSPost2010Prop52
140
1.0
102
RTVSPost2010PropOp52
 70
     0
102
RTVSPost2010Prop53
 90
        2
102
RTVSPost2010PropOp53
 70
     0
102
RTVSPost2010Prop54
  1
strokes_ogs.tif
102
RTVSPost2010PropOp54
 70
     0
102
RTVSPost2010Prop55
280
     0
102
RTVSPost2010PropOp55
 70
     1
102
RTVSPost2010Prop56
140
1.0
102
RTVSPost2010PropOp56
 70
     0
102
RTVSPost2010Prop57
140
1.0
102
RTVSPost2010PropOp57
 70
     0
102
RTVSPropertyOp0
 70
     0
102
RTVSPropertyOp1
 70
     0
102
RTVSPropertyOp2
 70
     0
102
RTVSPropertyOp3
 70
     0
102
RTVSPropertyOp4
 70
     0
102
RTVSPropertyOp5
 70
     0
102
RTVSPropertyOp6
 70
     0
102
RTVSPropertyOp7
 70
     0
102
RTVSPropertyOp8
 70
     0
102
RTVSPropertyOp9
 70
     0
102
RTVSPropertyOp10
 70
     0
102
RTVSPropertyOp11
 70
     0
102
RTVSPropertyOp12
 70
     0
102
RTVSPropertyOp13
 70
     0
102
RTVSPropertyOp14
 70
     2
102
RTVSPropertyOp15
 70
     0
102
RTVSPropertyOp16
 70
     0
102
RTVSPropertyOp17
 70
     0
102
RTVSPropertyOp18
 70
     0
102
RTVSPropertyOp19
 70
     0
102
RTVSPropertyOp20
 70
     0
102
RTVSPropertyOp21
 70
     0
102
RTVSPropertyOp22
 70
     0
102
RTVSPropertyOp23
 70
     0
102
RTVSPropertyOp24
 70
     0
102
RTVSPropertyOp25
 70
     0
102
RTVSPropertyOp26
 70
     0
102
RTVSPropertyOp27
 70
     0
102
RTVSPropertyOp28
 70
     1
102
RTVSPropertyOp29
 70
     1
102
RTVSPropertyOp30
 70
     1
102
RTVSPropertyOp31
 70
     1
102
RTVSPropertyOp32
 70
     1
102
RTVSPropertyOp33
 70
     1
102
RTVSPropertyOp34
 70
     1
102
RTVSPropertyOp35
 70
     1
102
RTVSPropertyOp36
 70
     1
102
RTVSPropertyOp37
 70
     0
102
RTVSPropertyOp38
 70
     0
102
RTVSPropertyOp39
 70
     0
102
RTVSPropertyOp40
 70
     0
102
RTVSPropertyOp41
 70
     0
102
RTVSPropertyOp42
 70
     0
102
RTVSPropertyOp43
 70
     0
102
RTVSPropertyOp44
 70
     0
102
RTVSPropertyOp45
 70
     1
102
RTVSPropertyOp46
 70
     0
102
RTVSPropertyOp47
 70
     0
102
RTVSPropertyOp48
 70
     0
102
RTVSPropertyOp49
 70
     1
102
RTVSPropertyOp50
 70
     0
102
RTVSPropertyOp51
 70
     0
102
RTVSPropertyOp52
 70
     0
102
RTVSPropertyOp53
 70
     0
102
RTVSPropertyOp54
 70
     0
102
RTVSPropertyOp55
 70
     1
102
RTVSPropertyOp56
 70
     0
102
RTVSPropertyOp57
 70
     0
102
RTVSPropertyOp58
 70
     0
102
RTVSPropertyOp59
 70
     0
102
RTVSPropertyOp60
 70
     0
102
RTVSPropertyOp61
 70
     0
102
RTVSPropertyOp62
 70
     0
  0
XRECORD
  5
BD2C
102
{ACAD_REACTORS
330
BD2B
102
}
330
BD2B
100
AcDbXrecord
280
     1
102
RTVSPost2010Prop28
280
     0
102
RTVSPost2010PropOp28
 70
     1
102
RTVSPost2010Prop29
280
     1
102
RTVSPost2010PropOp29
 70
     1
102
RTVSPost2010Prop30
280
     1
102
RTVSPost2010PropOp30
 70
     1
102
RTVSPost2010Prop31
280
     0
102
RTVSPost2010PropOp31
 70
     1
102
RTVSPost2010Prop32
280
     0
102
RTVSPost2010PropOp32
 70
     1
102
RTVSPost2010Prop33
280
     0
102
RTVSPost2010PropOp33
 70
     1
102
RTVSPost2010Prop34
280
     0
102
RTVSPost2010PropOp34
 70
     1
102
RTVSPost2010Prop35
280
     0
102
RTVSPost2010PropOp35
 70
     1
102
RTVSPost2010Prop36
280
     0
102
RTVSPost2010PropOp36
 70
     1
102
RTVSPost2010Prop37
 90
       50
102
RTVSPost2010PropOp37
 70
     1
102
RTVSPost2010Prop38
140
0.0
102
RTVSPost2010PropOp38
 70
     1
102
RTVSPost2010Prop39
140
1.0
102
RTVSPost2010PropOp39
 70
     1
102
RTVSPost2010Prop40
 90
        0
102
RTVSPost2010PropOp40
 70
     1
102
RTVSPost2010Prop41ColorIndex
 90
       18
102
RTVSPost2010Prop41ColorRGB
 90
        0
102
RTVSPost2010PropOp41
 70
     1
102
RTVSPost2010Prop42
 90
       50
102
RTVSPost2010PropOp42
 70
     1
102
RTVSPost2010Prop43
 90
        3
102
RTVSPost2010PropOp43
 70
     1
102
RTVSPost2010Prop44ColorIndex
 90
        5
102
RTVSPost2010Prop44ColorRGB
 90
      255
102
RTVSPost2010PropOp44
 70
     1
102
RTVSPost2010Prop45
280
     0
102
RTVSPost2010PropOp45
 70
     1
102
RTVSPost2010Prop46
 90
       50
102
RTVSPost2010PropOp46
 70
     1
102
RTVSPost2010Prop47
 90
       50
102
RTVSPost2010PropOp47
 70
     1
102
RTVSPost2010Prop48
 90
       50
102
RTVSPost2010PropOp48
 70
     1
102
RTVSPost2010Prop49
280
     0
102
RTVSPost2010PropOp49
 70
     1
102
RTVSPost2010Prop50
 90
       50
102
RTVSPost2010PropOp50
 70
     1
102
RTVSPost2010Prop51ColorIndex
 90
      256
102
RTVSPost2010Prop51ColorRGB
 90
-16777216
102
RTVSPost2010PropOp51
 70
     0
102
RTVSPost2010Prop52
140
1.0
102
RTVSPost2010PropOp52
 70
     0
102
RTVSPost2010Prop53
 90
        2
102
RTVSPost2010PropOp53
 70
     1
102
RTVSPost2010Prop54
  1
strokes_ogs.tif
102
RTVSPost2010PropOp54
 70
     1
102
RTVSPost2010Prop55
280
     0
102
RTVSPost2010PropOp55
 70
     1
102
RTVSPost2010Prop56
140
1.0
102
RTVSPost2010PropOp56
 70
     1
102
RTVSPost2010Prop57
140
1.0
102
RTVSPost2010PropOp57
 70
     1
102
RTVSPropertyOp0
 70
     1
102
RTVSPropertyOp1
 70
     1
102
RTVSPropertyOp2
 70
     1
102
RTVSPropertyOp3
 70
     1
102
RTVSPropertyOp4
 70
     1
102
RTVSPropertyOp5
 70
     1
102
RTVSPropertyOp6
 70
     1
102
RTVSPropertyOp7
 70
     1
102
RTVSPropertyOp8
 70
     1
102
RTVSPropertyOp9
 70
     1
102
RTVSPropertyOp10
 70
     1
102
RTVSPropertyOp11
 70
     1
102
RTVSPropertyOp12
 70
     1
102
RTVSPropertyOp13
 70
     1
102
RTVSPropertyOp14
 70
     1
102
RTVSPropertyOp15
 70
     1
102
RTVSPropertyOp16
 70
     1
102
RTVSPropertyOp17
 70
     1
102
RTVSPropertyOp18
 70
     1
102
RTVSPropertyOp19
 70
     1
102
RTVSPropertyOp20
 70
     1
102
RTVSPropertyOp21
 70
     1
102
RTVSPropertyOp22
 70
     1
102
RTVSPropertyOp23
 70
     1
102
RTVSPropertyOp24
 70
     1
102
RTVSPropertyOp25
 70
     1
102
RTVSPropertyOp26
 70
     1
102
RTVSPropertyOp27
 70
     1
102
RTVSPropertyOp28
 70
     1
102
RTVSPropertyOp29
 70
     1
102
RTVSPropertyOp30
 70
     1
102
RTVSPropertyOp31
 70
     1
102
RTVSPropertyOp32
 70
     1
102
RTVSPropertyOp33
 70
     1
102
RTVSPropertyOp34
 70
     1
102
RTVSPropertyOp35
 70
     1
102
RTVSPropertyOp36
 70
     1
102
RTVSPropertyOp37
 70
     1
102
RTVSPropertyOp38
 70
     1
102
RTVSPropertyOp39
 70
     1
102
RTVSPropertyOp40
 70
     1
102
RTVSPropertyOp41
 70
     1
102
RTVSPropertyOp42
 70
     1
102
RTVSPropertyOp43
 70
     1
102
RTVSPropertyOp44
 70
     1
102
RTVSPropertyOp45
 70
     1
102
RTVSPropertyOp46
 70
     1
102
RTVSPropertyOp47
 70
     1
102
RTVSPropertyOp48
 70
     1
102
RTVSPropertyOp49
 70
     1
102
RTVSPropertyOp50
 70
     1
102
RTVSPropertyOp51
 70
     0
102
RTVSPropertyOp52
 70
     0
102
RTVSPropertyOp53
 70
     1
102
RTVSPropertyOp54
 70
     1
102
RTVSPropertyOp55
 70
     1
102
RTVSPropertyOp56
 70
     1
102
RTVSPropertyOp57
 70
     1
102
RTVSPropertyOp58
 70
     1
102
RTVSPropertyOp59
 70
     1
102
RTVSPropertyOp60
 70
     1
102
RTVSPropertyOp61
 70
     1
102
RTVSPropertyOp62
 70
     1
  0
XRECORD
  5
BD3E
102
{ACAD_REACTORS
330
BD3D
102
}
330
BD3D
100
AcDbXrecord
280
     1
102
RTVSPost2010Prop28
280
     0
102
RTVSPost2010PropOp28
 70
     1
102
RTVSPost2010Prop29
280
     1
102
RTVSPost2010PropOp29
 70
     1
102
RTVSPost2010Prop30
280
     1
102
RTVSPost2010PropOp30
 70
     1
102
RTVSPost2010Prop31
280
     0
102
RTVSPost2010PropOp31
 70
     1
102
RTVSPost2010Prop32
280
     0
102
RTVSPost2010PropOp32
 70
     1
102
RTVSPost2010Prop33
280
     0
102
RTVSPost2010PropOp33
 70
     1
102
RTVSPost2010Prop34
280
     0
102
RTVSPost2010PropOp34
 70
     1
102
RTVSPost2010Prop35
280
     0
102
RTVSPost2010PropOp35
 70
     1
102
RTVSPost2010Prop36
280
     0
102
RTVSPost2010PropOp36
 70
     1
102
RTVSPost2010Prop37
 90
       50
102
RTVSPost2010PropOp37
 70
     0
102
RTVSPost2010Prop38
140
0.0
102
RTVSPost2010PropOp38
 70
     0
102
RTVSPost2010Prop39
140
1.0
102
RTVSPost2010PropOp39
 70
     0
102
RTVSPost2010Prop40
 90
        0
102
RTVSPost2010PropOp40
 70
     0
102
RTVSPost2010Prop41ColorIndex
 90
       18
102
RTVSPost2010Prop41ColorRGB
 90
        0
102
RTVSPost2010PropOp41
 70
     0
102
RTVSPost2010Prop42
 90
       50
102
RTVSPost2010PropOp42
 70
     0
102
RTVSPost2010Prop43
 90
        3
102
RTVSPost2010PropOp43
 70
     0
102
RTVSPost2010Prop44ColorIndex
 90
        5
102
RTVSPost2010Prop44ColorRGB
 90
      255
102
RTVSPost2010PropOp44
 70
     0
102
RTVSPost2010Prop45
280
     0
102
RTVSPost2010PropOp45
 70
     1
102
RTVSPost2010Prop46
 90
       50
102
RTVSPost2010PropOp46
 70
     0
102
RTVSPost2010Prop47
 90
       50
102
RTVSPost2010PropOp47
 70
     0
102
RTVSPost2010Prop48
 90
       50
102
RTVSPost2010PropOp48
 70
     0
102
RTVSPost2010Prop49
280
     0
102
RTVSPost2010PropOp49
 70
     1
102
RTVSPost2010Prop50
 90
       50
102
RTVSPost2010PropOp50
 70
     0
102
RTVSPost2010Prop51ColorIndex
 90
      256
102
RTVSPost2010Prop51ColorRGB
 90
-16777216
102
RTVSPost2010PropOp51
 70
     0
102
RTVSPost2010Prop52
140
1.0
102
RTVSPost2010PropOp52
 70
     0
102
RTVSPost2010Prop53
 90
        2
102
RTVSPost2010PropOp53
 70
     0
102
RTVSPost2010Prop54
  1
strokes_ogs.tif
102
RTVSPost2010PropOp54
 70
     0
102
RTVSPost2010Prop55
280
     0
102
RTVSPost2010PropOp55
 70
     1
102
RTVSPost2010Prop56
140
1.0
102
RTVSPost2010PropOp56
 70
     0
102
RTVSPost2010Prop57
140
1.0
102
RTVSPost2010PropOp57
 70
     0
102
RTVSPropertyOp0
 70
     0
102
RTVSPropertyOp1
 70
     0
102
RTVSPropertyOp2
 70
     0
102
RTVSPropertyOp3
 70
     0
102
RTVSPropertyOp4
 70
     0
102
RTVSPropertyOp5
 70
     0
102
RTVSPropertyOp6
 70
     0
102
RTVSPropertyOp7
 70
     0
102
RTVSPropertyOp8
 70
     0
102
RTVSPropertyOp9
 70
     0
102
RTVSPropertyOp10
 70
     0
102
RTVSPropertyOp11
 70
     0
102
RTVSPropertyOp12
 70
     0
102
RTVSPropertyOp13
 70
     0
102
RTVSPropertyOp14
 70
     2
102
RTVSPropertyOp15
 70
     0
102
RTVSPropertyOp16
 70
     0
102
RTVSPropertyOp17
 70
     0
102
RTVSPropertyOp18
 70
     0
102
RTVSPropertyOp19
 70
     0
102
RTVSPropertyOp20
 70
     0
102
RTVSPropertyOp21
 70
     0
102
RTVSPropertyOp22
 70
     0
102
RTVSPropertyOp23
 70
     0
102
RTVSPropertyOp24
 70
     0
102
RTVSPropertyOp25
 70
     0
102
RTVSPropertyOp26
 70
     0
102
RTVSPropertyOp27
 70
     0
102
RTVSPropertyOp28
 70
     1
102
RTVSPropertyOp29
 70
     1
102
RTVSPropertyOp30
 70
     1
102
RTVSPropertyOp31
 70
     1
102
RTVSPropertyOp32
 70
     1
102
RTVSPropertyOp33
 70
     1
102
RTVSPropertyOp34
 70
     1
102
RTVSPropertyOp35
 70
     1
102
RTVSPropertyOp36
 70
     1
102
RTVSPropertyOp37
 70
     0
102
RTVSPropertyOp38
 70
     0
102
RTVSPropertyOp39
 70
     0
102
RTVSPropertyOp40
 70
     0
102
RTVSPropertyOp41
 70
     0
102
RTVSPropertyOp42
 70
     0
102
RTVSPropertyOp43
 70
     0
102
RTVSPropertyOp44
 70
     0
102
RTVSPropertyOp45
 70
     1
102
RTVSPropertyOp46
 70
     0
102
RTVSPropertyOp47
 70
     0
102
RTVSPropertyOp48
 70
     0
102
RTVSPropertyOp49
 70
     1
102
RTVSPropertyOp50
 70
     0
102
RTVSPropertyOp51
 70
     0
102
RTVSPropertyOp52
 70
     0
102
RTVSPropertyOp53
 70
     0
102
RTVSPropertyOp54
 70
     0
102
RTVSPropertyOp55
 70
     1
102
RTVSPropertyOp56
 70
     0
102
RTVSPropertyOp57
 70
     0
102
RTVSPropertyOp58
 70
     0
102
RTVSPropertyOp59
 70
     0
102
RTVSPropertyOp60
 70
     0
102
RTVSPropertyOp61
 70
     0
102
RTVSPropertyOp62
 70
     0
  0
XRECORD
  5
BD24
102
{ACAD_REACTORS
330
BD23
102
}
330
BD23
100
AcDbXrecord
280
     1
102
RTVSPost2010Prop28
280
     0
102
RTVSPost2010PropOp28
 70
     1
102
RTVSPost2010Prop29
280
     1
102
RTVSPost2010PropOp29
 70
     1
102
RTVSPost2010Prop30
280
     1
102
RTVSPost2010PropOp30
 70
     1
102
RTVSPost2010Prop31
280
     0
102
RTVSPost2010PropOp31
 70
     1
102
RTVSPost2010Prop32
280
     0
102
RTVSPost2010PropOp32
 70
     1
102
RTVSPost2010Prop33
280
     0
102
RTVSPost2010PropOp33
 70
     1
102
RTVSPost2010Prop34
280
     0
102
RTVSPost2010PropOp34
 70
     1
102
RTVSPost2010Prop35
280
     0
102
RTVSPost2010PropOp35
 70
     1
102
RTVSPost2010Prop36
280
     0
102
RTVSPost2010PropOp36
 70
     1
102
RTVSPost2010Prop37
 90
       50
102
RTVSPost2010PropOp37
 70
     1
102
RTVSPost2010Prop38
140
0.0
102
RTVSPost2010PropOp38
 70
     1
102
RTVSPost2010Prop39
140
1.0
102
RTVSPost2010PropOp39
 70
     1
102
RTVSPost2010Prop40
 90
        0
102
RTVSPost2010PropOp40
 70
     1
102
RTVSPost2010Prop41ColorIndex
 90
       18
102
RTVSPost2010Prop41ColorRGB
 90
        0
102
RTVSPost2010PropOp41
 70
     1
102
RTVSPost2010Prop42
 90
       50
102
RTVSPost2010PropOp42
 70
     1
102
RTVSPost2010Prop43
 90
        3
102
RTVSPost2010PropOp43
 70
     1
102
RTVSPost2010Prop44ColorIndex
 90
        5
102
RTVSPost2010Prop44ColorRGB
 90
      255
102
RTVSPost2010PropOp44
 70
     1
102
RTVSPost2010Prop45
280
     0
102
RTVSPost2010PropOp45
 70
     1
102
RTVSPost2010Prop46
 90
       50
102
RTVSPost2010PropOp46
 70
     1
102
RTVSPost2010Prop47
 90
       50
102
RTVSPost2010PropOp47
 70
     1
102
RTVSPost2010Prop48
 90
       50
102
RTVSPost2010PropOp48
 70
     1
102
RTVSPost2010Prop49
280
     0
102
RTVSPost2010PropOp49
 70
     1
102
RTVSPost2010Prop50
 90
       50
102
RTVSPost2010PropOp50
 70
     1
102
RTVSPost2010Prop51ColorIndex
 90
      256
102
RTVSPost2010Prop51ColorRGB
 90
-16777216
102
RTVSPost2010PropOp51
 70
     0
102
RTVSPost2010Prop52
140
1.0
102
RTVSPost2010PropOp52
 70
     0
102
RTVSPost2010Prop53
 90
        2
102
RTVSPost2010PropOp53
 70
     1
102
RTVSPost2010Prop54
  1
strokes_ogs.tif
102
RTVSPost2010PropOp54
 70
     1
102
RTVSPost2010Prop55
280
     0
102
RTVSPost2010PropOp55
 70
     1
102
RTVSPost2010Prop56
140
1.0
102
RTVSPost2010PropOp56
 70
     1
102
RTVSPost2010Prop57
140
1.0
102
RTVSPost2010PropOp57
 70
     1
102
RTVSPropertyOp0
 70
     1
102
RTVSPropertyOp1
 70
     1
102
RTVSPropertyOp2
 70
     1
102
RTVSPropertyOp3
 70
     1
102
RTVSPropertyOp4
 70
     1
102
RTVSPropertyOp5
 70
     1
102
RTVSPropertyOp6
 70
     1
102
RTVSPropertyOp7
 70
     1
102
RTVSPropertyOp8
 70
     1
102
RTVSPropertyOp9
 70
     1
102
RTVSPropertyOp10
 70
     1
102
RTVSPropertyOp11
 70
     1
102
RTVSPropertyOp12
 70
     1
102
RTVSPropertyOp13
 70
     1
102
RTVSPropertyOp14
 70
     1
102
RTVSPropertyOp15
 70
     1
102
RTVSPropertyOp16
 70
     1
102
RTVSPropertyOp17
 70
     1
102
RTVSPropertyOp18
 70
     1
102
RTVSPropertyOp19
 70
     1
102
RTVSPropertyOp20
 70
     1
102
RTVSPropertyOp21
 70
     1
102
RTVSPropertyOp22
 70
     1
102
RTVSPropertyOp23
 70
     1
102
RTVSPropertyOp24
 70
     1
102
RTVSPropertyOp25
 70
     1
102
RTVSPropertyOp26
 70
     1
102
RTVSPropertyOp27
 70
     1
102
RTVSPropertyOp28
 70
     1
102
RTVSPropertyOp29
 70
     1
102
RTVSPropertyOp30
 70
     1
102
RTVSPropertyOp31
 70
     1
102
RTVSPropertyOp32
 70
     1
102
RTVSPropertyOp33
 70
     1
102
RTVSPropertyOp34
 70
     1
102
RTVSPropertyOp35
 70
     1
102
RTVSPropertyOp36
 70
     1
102
RTVSPropertyOp37
 70
     1
102
RTVSPropertyOp38
 70
     1
102
RTVSPropertyOp39
 70
     1
102
RTVSPropertyOp40
 70
     1
102
RTVSPropertyOp41
 70
     1
102
RTVSPropertyOp42
 70
     1
102
RTVSPropertyOp43
 70
     1
102
RTVSPropertyOp44
 70
     1
102
RTVSPropertyOp45
 70
     1
102
RTVSPropertyOp46
 70
     1
102
RTVSPropertyOp47
 70
     1
102
RTVSPropertyOp48
 70
     1
102
RTVSPropertyOp49
 70
     1
102
RTVSPropertyOp50
 70
     1
102
RTVSPropertyOp51
 70
     0
102
RTVSPropertyOp52
 70
     0
102
RTVSPropertyOp53
 70
     1
102
RTVSPropertyOp54
 70
     1
102
RTVSPropertyOp55
 70
     1
102
RTVSPropertyOp56
 70
     1
102
RTVSPropertyOp57
 70
     1
102
RTVSPropertyOp58
 70
     1
102
RTVSPropertyOp59
 70
     1
102
RTVSPropertyOp60
 70
     1
102
RTVSPropertyOp61
 70
     1
102
RTVSPropertyOp62
 70
     1
  0
XRECORD
  5
BD3A
102
{ACAD_REACTORS
330
BD39
102
}
330
BD39
100
AcDbXrecord
280
     1
102
RTVSPost2010Prop28
280
     0
102
RTVSPost2010PropOp28
 70
     1
102
RTVSPost2010Prop29
280
     1
102
RTVSPost2010PropOp29
 70
     1
102
RTVSPost2010Prop30
280
     1
102
RTVSPost2010PropOp30
 70
     1
102
RTVSPost2010Prop31
280
     0
102
RTVSPost2010PropOp31
 70
     1
102
RTVSPost2010Prop32
280
     0
102
RTVSPost2010PropOp32
 70
     1
102
RTVSPost2010Prop33
280
     0
102
RTVSPost2010PropOp33
 70
     1
102
RTVSPost2010Prop34
280
     0
102
RTVSPost2010PropOp34
 70
     1
102
RTVSPost2010Prop35
280
     0
102
RTVSPost2010PropOp35
 70
     1
102
RTVSPost2010Prop36
280
     0
102
RTVSPost2010PropOp36
 70
     1
102
RTVSPost2010Prop37
 90
       50
102
RTVSPost2010PropOp37
 70
     1
102
RTVSPost2010Prop38
140
0.0
102
RTVSPost2010PropOp38
 70
     1
102
RTVSPost2010Prop39
140
1.0
102
RTVSPost2010PropOp39
 70
     1
102
RTVSPost2010Prop40
 90
        0
102
RTVSPost2010PropOp40
 70
     1
102
RTVSPost2010Prop41ColorIndex
 90
       18
102
RTVSPost2010Prop41ColorRGB
 90
        0
102
RTVSPost2010PropOp41
 70
     1
102
RTVSPost2010Prop42
 90
       50
102
RTVSPost2010PropOp42
 70
     1
102
RTVSPost2010Prop43
 90
        3
102
RTVSPost2010PropOp43
 70
     1
102
RTVSPost2010Prop44ColorIndex
 90
        5
102
RTVSPost2010Prop44ColorRGB
 90
      255
102
RTVSPost2010PropOp44
 70
     1
102
RTVSPost2010Prop45
280
     0
102
RTVSPost2010PropOp45
 70
     1
102
RTVSPost2010Prop46
 90
       50
102
RTVSPost2010PropOp46
 70
     1
102
RTVSPost2010Prop47
 90
       50
102
RTVSPost2010PropOp47
 70
     1
102
RTVSPost2010Prop48
 90
       50
102
RTVSPost2010PropOp48
 70
     1
102
RTVSPost2010Prop49
280
     0
102
RTVSPost2010PropOp49
 70
     1
102
RTVSPost2010Prop50
 90
       50
102
RTVSPost2010PropOp50
 70
     1
102
RTVSPost2010Prop51ColorIndex
 90
      256
102
RTVSPost2010Prop51ColorRGB
 90
-16777216
102
RTVSPost2010PropOp51
 70
     0
102
RTVSPost2010Prop52
140
1.0
102
RTVSPost2010PropOp52
 70
     0
102
RTVSPost2010Prop53
 90
        2
102
RTVSPost2010PropOp53
 70
     1
102
RTVSPost2010Prop54
  1
strokes_ogs.tif
102
RTVSPost2010PropOp54
 70
     1
102
RTVSPost2010Prop55
280
     0
102
RTVSPost2010PropOp55
 70
     1
102
RTVSPost2010Prop56
140
1.0
102
RTVSPost2010PropOp56
 70
     1
102
RTVSPost2010Prop57
140
1.0
102
RTVSPost2010PropOp57
 70
     1
102
RTVSPropertyOp0
 70
     1
102
RTVSPropertyOp1
 70
     1
102
RTVSPropertyOp2
 70
     1
102
RTVSPropertyOp3
 70
     1
102
RTVSPropertyOp4
 70
     1
102
RTVSPropertyOp5
 70
     1
102
RTVSPropertyOp6
 70
     1
102
RTVSPropertyOp7
 70
     1
102
RTVSPropertyOp8
 70
     1
102
RTVSPropertyOp9
 70
     1
102
RTVSPropertyOp10
 70
     1
102
RTVSPropertyOp11
 70
     1
102
RTVSPropertyOp12
 70
     1
102
RTVSPropertyOp13
 70
     1
102
RTVSPropertyOp14
 70
     1
102
RTVSPropertyOp15
 70
     1
102
RTVSPropertyOp16
 70
     1
102
RTVSPropertyOp17
 70
     1
102
RTVSPropertyOp18
 70
     1
102
RTVSPropertyOp19
 70
     1
102
RTVSPropertyOp20
 70
     1
102
RTVSPropertyOp21
 70
     1
102
RTVSPropertyOp22
 70
     1
102
RTVSPropertyOp23
 70
     1
102
RTVSPropertyOp24
 70
     1
102
RTVSPropertyOp25
 70
     1
102
RTVSPropertyOp26
 70
     1
102
RTVSPropertyOp27
 70
     1
102
RTVSPropertyOp28
 70
     1
102
RTVSPropertyOp29
 70
     1
102
RTVSPropertyOp30
 70
     1
102
RTVSPropertyOp31
 70
     1
102
RTVSPropertyOp32
 70
     1
102
RTVSPropertyOp33
 70
     1
102
RTVSPropertyOp34
 70
     1
102
RTVSPropertyOp35
 70
     1
102
RTVSPropertyOp36
 70
     1
102
RTVSPropertyOp37
 70
     1
102
RTVSPropertyOp38
 70
     1
102
RTVSPropertyOp39
 70
     1
102
RTVSPropertyOp40
 70
     1
102
RTVSPropertyOp41
 70
     1
102
RTVSPropertyOp42
 70
     1
102
RTVSPropertyOp43
 70
     1
102
RTVSPropertyOp44
 70
     1
102
RTVSPropertyOp45
 70
     1
102
RTVSPropertyOp46
 70
     1
102
RTVSPropertyOp47
 70
     1
102
RTVSPropertyOp48
 70
     1
102
RTVSPropertyOp49
 70
     1
102
RTVSPropertyOp50
 70
     1
102
RTVSPropertyOp51
 70
     0
102
RTVSPropertyOp52
 70
     0
102
RTVSPropertyOp53
 70
     1
102
RTVSPropertyOp54
 70
     1
102
RTVSPropertyOp55
 70
     1
102
RTVSPropertyOp56
 70
     1
102
RTVSPropertyOp57
 70
     1
102
RTVSPropertyOp58
 70
     1
102
RTVSPropertyOp59
 70
     1
102
RTVSPropertyOp60
 70
     1
102
RTVSPropertyOp61
 70
     1
102
RTVSPropertyOp62
 70
     1
  0
XRECORD
  5
BD38
102
{ACAD_REACTORS
330
BD37
102
}
330
BD37
100
AcDbXrecord
280
     1
102
RTVSPost2010Prop28
280
     0
102
RTVSPost2010PropOp28
 70
     1
102
RTVSPost2010Prop29
280
     1
102
RTVSPost2010PropOp29
 70
     1
102
RTVSPost2010Prop30
280
     1
102
RTVSPost2010PropOp30
 70
     1
102
RTVSPost2010Prop31
280
     0
102
RTVSPost2010PropOp31
 70
     1
102
RTVSPost2010Prop32
280
     0
102
RTVSPost2010PropOp32
 70
     1
102
RTVSPost2010Prop33
280
     0
102
RTVSPost2010PropOp33
 70
     1
102
RTVSPost2010Prop34
280
     0
102
RTVSPost2010PropOp34
 70
     1
102
RTVSPost2010Prop35
280
     0
102
RTVSPost2010PropOp35
 70
     1
102
RTVSPost2010Prop36
280
     0
102
RTVSPost2010PropOp36
 70
     1
102
RTVSPost2010Prop37
 90
       50
102
RTVSPost2010PropOp37
 70
     1
102
RTVSPost2010Prop38
140
0.0
102
RTVSPost2010PropOp38
 70
     1
102
RTVSPost2010Prop39
140
1.0
102
RTVSPost2010PropOp39
 70
     1
102
RTVSPost2010Prop40
 90
        0
102
RTVSPost2010PropOp40
 70
     1
102
RTVSPost2010Prop41ColorIndex
 90
       18
102
RTVSPost2010Prop41ColorRGB
 90
        0
102
RTVSPost2010PropOp41
 70
     1
102
RTVSPost2010Prop42
 90
       50
102
RTVSPost2010PropOp42
 70
     1
102
RTVSPost2010Prop43
 90
        3
102
RTVSPost2010PropOp43
 70
     1
102
RTVSPost2010Prop44ColorIndex
 90
        5
102
RTVSPost2010Prop44ColorRGB
 90
      255
102
RTVSPost2010PropOp44
 70
     1
102
RTVSPost2010Prop45
280
     0
102
RTVSPost2010PropOp45
 70
     1
102
RTVSPost2010Prop46
 90
       50
102
RTVSPost2010PropOp46
 70
     1
102
RTVSPost2010Prop47
 90
       50
102
RTVSPost2010PropOp47
 70
     1
102
RTVSPost2010Prop48
 90
       50
102
RTVSPost2010PropOp48
 70
     1
102
RTVSPost2010Prop49
280
     0
102
RTVSPost2010PropOp49
 70
     1
102
RTVSPost2010Prop50
 90
       50
102
RTVSPost2010PropOp50
 70
     1
102
RTVSPost2010Prop51ColorIndex
 90
      256
102
RTVSPost2010Prop51ColorRGB
 90
-16777216
102
RTVSPost2010PropOp51
 70
     0
102
RTVSPost2010Prop52
140
1.0
102
RTVSPost2010PropOp52
 70
     0
102
RTVSPost2010Prop53
 90
        2
102
RTVSPost2010PropOp53
 70
     1
102
RTVSPost2010Prop54
  1
strokes_ogs.tif
102
RTVSPost2010PropOp54
 70
     1
102
RTVSPost2010Prop55
280
     0
102
RTVSPost2010PropOp55
 70
     1
102
RTVSPost2010Prop56
140
1.0
102
RTVSPost2010PropOp56
 70
     1
102
RTVSPost2010Prop57
140
1.0
102
RTVSPost2010PropOp57
 70
     1
102
RTVSPropertyOp0
 70
     1
102
RTVSPropertyOp1
 70
     1
102
RTVSPropertyOp2
 70
     1
102
RTVSPropertyOp3
 70
     1
102
RTVSPropertyOp4
 70
     1
102
RTVSPropertyOp5
 70
     1
102
RTVSPropertyOp6
 70
     1
102
RTVSPropertyOp7
 70
     1
102
RTVSPropertyOp8
 70
     1
102
RTVSPropertyOp9
 70
     1
102
RTVSPropertyOp10
 70
     1
102
RTVSPropertyOp11
 70
     1
102
RTVSPropertyOp12
 70
     1
102
RTVSPropertyOp13
 70
     1
102
RTVSPropertyOp14
 70
     1
102
RTVSPropertyOp15
 70
     1
102
RTVSPropertyOp16
 70
     1
102
RTVSPropertyOp17
 70
     1
102
RTVSPropertyOp18
 70
     1
102
RTVSPropertyOp19
 70
     1
102
RTVSPropertyOp20
 70
     1
102
RTVSPropertyOp21
 70
     1
102
RTVSPropertyOp22
 70
     1
102
RTVSPropertyOp23
 70
     1
102
RTVSPropertyOp24
 70
     1
102
RTVSPropertyOp25
 70
     1
102
RTVSPropertyOp26
 70
     1
102
RTVSPropertyOp27
 70
     1
102
RTVSPropertyOp28
 70
     1
102
RTVSPropertyOp29
 70
     1
102
RTVSPropertyOp30
 70
     1
102
RTVSPropertyOp31
 70
     1
102
RTVSPropertyOp32
 70
     1
102
RTVSPropertyOp33
 70
     1
102
RTVSPropertyOp34
 70
     1
102
RTVSPropertyOp35
 70
     1
102
RTVSPropertyOp36
 70
     1
102
RTVSPropertyOp37
 70
     1
102
RTVSPropertyOp38
 70
     1
102
RTVSPropertyOp39
 70
     1
102
RTVSPropertyOp40
 70
     1
102
RTVSPropertyOp41
 70
     1
102
RTVSPropertyOp42
 70
     1
102
RTVSPropertyOp43
 70
     1
102
RTVSPropertyOp44
 70
     1
102
RTVSPropertyOp45
 70
     1
102
RTVSPropertyOp46
 70
     1
102
RTVSPropertyOp47
 70
     1
102
RTVSPropertyOp48
 70
     1
102
RTVSPropertyOp49
 70
     1
102
RTVSPropertyOp50
 70
     1
102
RTVSPropertyOp51
 70
     0
102
RTVSPropertyOp52
 70
     0
102
RTVSPropertyOp53
 70
     1
102
RTVSPropertyOp54
 70
     1
102
RTVSPropertyOp55
 70
     1
102
RTVSPropertyOp56
 70
     1
102
RTVSPropertyOp57
 70
     1
102
RTVSPropertyOp58
 70
     1
102
RTVSPropertyOp59
 70
     1
102
RTVSPropertyOp60
 70
     1
102
RTVSPropertyOp61
 70
     1
102
RTVSPropertyOp62
 70
     1
  0
XRECORD
  5
BD32
102
{ACAD_REACTORS
330
BD31
102
}
330
BD31
100
AcDbXrecord
280
     1
102
RTVSPost2010Prop28
280
     0
102
RTVSPost2010PropOp28
 70
     1
102
RTVSPost2010Prop29
280
     1
102
RTVSPost2010PropOp29
 70
     1
102
RTVSPost2010Prop30
280
     1
102
RTVSPost2010PropOp30
 70
     1
102
RTVSPost2010Prop31
280
     0
102
RTVSPost2010PropOp31
 70
     1
102
RTVSPost2010Prop32
280
     0
102
RTVSPost2010PropOp32
 70
     1
102
RTVSPost2010Prop33
280
     0
102
RTVSPost2010PropOp33
 70
     1
102
RTVSPost2010Prop34
280
     0
102
RTVSPost2010PropOp34
 70
     1
102
RTVSPost2010Prop35
280
     0
102
RTVSPost2010PropOp35
 70
     1
102
RTVSPost2010Prop36
280
     0
102
RTVSPost2010PropOp36
 70
     1
102
RTVSPost2010Prop37
 90
       50
102
RTVSPost2010PropOp37
 70
     1
102
RTVSPost2010Prop38
140
0.0
102
RTVSPost2010PropOp38
 70
     1
102
RTVSPost2010Prop39
140
1.0
102
RTVSPost2010PropOp39
 70
     1
102
RTVSPost2010Prop40
 90
        0
102
RTVSPost2010PropOp40
 70
     1
102
RTVSPost2010Prop41ColorIndex
 90
       18
102
RTVSPost2010Prop41ColorRGB
 90
        0
102
RTVSPost2010PropOp41
 70
     1
102
RTVSPost2010Prop42
 90
       50
102
RTVSPost2010PropOp42
 70
     1
102
RTVSPost2010Prop43
 90
        3
102
RTVSPost2010PropOp43
 70
     1
102
RTVSPost2010Prop44ColorIndex
 90
        5
102
RTVSPost2010Prop44ColorRGB
 90
      255
102
RTVSPost2010PropOp44
 70
     1
102
RTVSPost2010Prop45
280
     0
102
RTVSPost2010PropOp45
 70
     1
102
RTVSPost2010Prop46
 90
       50
102
RTVSPost2010PropOp46
 70
     1
102
RTVSPost2010Prop47
 90
       50
102
RTVSPost2010PropOp47
 70
     1
102
RTVSPost2010Prop48
 90
       50
102
RTVSPost2010PropOp48
 70
     1
102
RTVSPost2010Prop49
280
     0
102
RTVSPost2010PropOp49
 70
     1
102
RTVSPost2010Prop50
 90
       50
102
RTVSPost2010PropOp50
 70
     1
102
RTVSPost2010Prop51ColorIndex
 90
      256
102
RTVSPost2010Prop51ColorRGB
 90
-16777216
102
RTVSPost2010PropOp51
 70
     0
102
RTVSPost2010Prop52
140
1.0
102
RTVSPost2010PropOp52
 70
     0
102
RTVSPost2010Prop53
 90
        2
102
RTVSPost2010PropOp53
 70
     1
102
RTVSPost2010Prop54
  1
strokes_ogs.tif
102
RTVSPost2010PropOp54
 70
     1
102
RTVSPost2010Prop55
280
     0
102
RTVSPost2010PropOp55
 70
     1
102
RTVSPost2010Prop56
140
1.0
102
RTVSPost2010PropOp56
 70
     1
102
RTVSPost2010Prop57
140
1.0
102
RTVSPost2010PropOp57
 70
     1
102
RTVSPropertyOp0
 70
     1
102
RTVSPropertyOp1
 70
     1
102
RTVSPropertyOp2
 70
     1
102
RTVSPropertyOp3
 70
     1
102
RTVSPropertyOp4
 70
     1
102
RTVSPropertyOp5
 70
     1
102
RTVSPropertyOp6
 70
     1
102
RTVSPropertyOp7
 70
     1
102
RTVSPropertyOp8
 70
     1
102
RTVSPropertyOp9
 70
     1
102
RTVSPropertyOp10
 70
     1
102
RTVSPropertyOp11
 70
     1
102
RTVSPropertyOp12
 70
     1
102
RTVSPropertyOp13
 70
     1
102
RTVSPropertyOp14
 70
     1
102
RTVSPropertyOp15
 70
     1
102
RTVSPropertyOp16
 70
     1
102
RTVSPropertyOp17
 70
     1
102
RTVSPropertyOp18
 70
     1
102
RTVSPropertyOp19
 70
     1
102
RTVSPropertyOp20
 70
     1
102
RTVSPropertyOp21
 70
     1
102
RTVSPropertyOp22
 70
     1
102
RTVSPropertyOp23
 70
     1
102
RTVSPropertyOp24
 70
     1
102
RTVSPropertyOp25
 70
     1
102
RTVSPropertyOp26
 70
     1
102
RTVSPropertyOp27
 70
     1
102
RTVSPropertyOp28
 70
     1
102
RTVSPropertyOp29
 70
     1
102
RTVSPropertyOp30
 70
     1
102
RTVSPropertyOp31
 70
     1
102
RTVSPropertyOp32
 70
     1
102
RTVSPropertyOp33
 70
     1
102
RTVSPropertyOp34
 70
     1
102
RTVSPropertyOp35
 70
     1
102
RTVSPropertyOp36
 70
     1
102
RTVSPropertyOp37
 70
     1
102
RTVSPropertyOp38
 70
     1
102
RTVSPropertyOp39
 70
     1
102
RTVSPropertyOp40
 70
     1
102
RTVSPropertyOp41
 70
     1
102
RTVSPropertyOp42
 70
     1
102
RTVSPropertyOp43
 70
     1
102
RTVSPropertyOp44
 70
     1
102
RTVSPropertyOp45
 70
     1
102
RTVSPropertyOp46
 70
     1
102
RTVSPropertyOp47
 70
     1
102
RTVSPropertyOp48
 70
     1
102
RTVSPropertyOp49
 70
     1
102
RTVSPropertyOp50
 70
     1
102
RTVSPropertyOp51
 70
     0
102
RTVSPropertyOp52
 70
     0
102
RTVSPropertyOp53
 70
     1
102
RTVSPropertyOp54
 70
     1
102
RTVSPropertyOp55
 70
     1
102
RTVSPropertyOp56
 70
     1
102
RTVSPropertyOp57
 70
     1
102
RTVSPropertyOp58
 70
     1
102
RTVSPropertyOp59
 70
     1
102
RTVSPropertyOp60
 70
     1
102
RTVSPropertyOp61
 70
     1
102
RTVSPropertyOp62
 70
     1
  0
XRECORD
  5
BD34
102
{ACAD_REACTORS
330
BD33
102
}
330
BD33
100
AcDbXrecord
280
     1
102
RTVSPost2010Prop28
280
     0
102
RTVSPost2010PropOp28
 70
     1
102
RTVSPost2010Prop29
280
     1
102
RTVSPost2010PropOp29
 70
     1
102
RTVSPost2010Prop30
280
     1
102
RTVSPost2010PropOp30
 70
     1
102
RTVSPost2010Prop31
280
     0
102
RTVSPost2010PropOp31
 70
     1
102
RTVSPost2010Prop32
280
     0
102
RTVSPost2010PropOp32
 70
     1
102
RTVSPost2010Prop33
280
     0
102
RTVSPost2010PropOp33
 70
     1
102
RTVSPost2010Prop34
280
     0
102
RTVSPost2010PropOp34
 70
     1
102
RTVSPost2010Prop35
280
     0
102
RTVSPost2010PropOp35
 70
     1
102
RTVSPost2010Prop36
280
     0
102
RTVSPost2010PropOp36
 70
     1
102
RTVSPost2010Prop37
 90
       50
102
RTVSPost2010PropOp37
 70
     1
102
RTVSPost2010Prop38
140
0.0
102
RTVSPost2010PropOp38
 70
     1
102
RTVSPost2010Prop39
140
1.0
102
RTVSPost2010PropOp39
 70
     1
102
RTVSPost2010Prop40
 90
        0
102
RTVSPost2010PropOp40
 70
     1
102
RTVSPost2010Prop41ColorIndex
 90
       18
102
RTVSPost2010Prop41ColorRGB
 90
        0
102
RTVSPost2010PropOp41
 70
     1
102
RTVSPost2010Prop42
 90
       50
102
RTVSPost2010PropOp42
 70
     1
102
RTVSPost2010Prop43
 90
        3
102
RTVSPost2010PropOp43
 70
     1
102
RTVSPost2010Prop44ColorIndex
 90
        5
102
RTVSPost2010Prop44ColorRGB
 90
      255
102
RTVSPost2010PropOp44
 70
     1
102
RTVSPost2010Prop45
280
     0
102
RTVSPost2010PropOp45
 70
     1
102
RTVSPost2010Prop46
 90
       50
102
RTVSPost2010PropOp46
 70
     1
102
RTVSPost2010Prop47
 90
       50
102
RTVSPost2010PropOp47
 70
     1
102
RTVSPost2010Prop48
 90
       50
102
RTVSPost2010PropOp48
 70
     1
102
RTVSPost2010Prop49
280
     0
102
RTVSPost2010PropOp49
 70
     1
102
RTVSPost2010Prop50
 90
       50
102
RTVSPost2010PropOp50
 70
     1
102
RTVSPost2010Prop51ColorIndex
 90
      256
102
RTVSPost2010Prop51ColorRGB
 90
-16777216
102
RTVSPost2010PropOp51
 70
     0
102
RTVSPost2010Prop52
140
1.0
102
RTVSPost2010PropOp52
 70
     0
102
RTVSPost2010Prop53
 90
        2
102
RTVSPost2010PropOp53
 70
     1
102
RTVSPost2010Prop54
  1
strokes_ogs.tif
102
RTVSPost2010PropOp54
 70
     1
102
RTVSPost2010Prop55
280
     0
102
RTVSPost2010PropOp55
 70
     1
102
RTVSPost2010Prop56
140
1.0
102
RTVSPost2010PropOp56
 70
     1
102
RTVSPost2010Prop57
140
1.0
102
RTVSPost2010PropOp57
 70
     1
102
RTVSPropertyOp0
 70
     1
102
RTVSPropertyOp1
 70
     1
102
RTVSPropertyOp2
 70
     1
102
RTVSPropertyOp3
 70
     1
102
RTVSPropertyOp4
 70
     1
102
RTVSPropertyOp5
 70
     1
102
RTVSPropertyOp6
 70
     1
102
RTVSPropertyOp7
 70
     1
102
RTVSPropertyOp8
 70
     1
102
RTVSPropertyOp9
 70
     1
102
RTVSPropertyOp10
 70
     1
102
RTVSPropertyOp11
 70
     1
102
RTVSPropertyOp12
 70
     1
102
RTVSPropertyOp13
 70
     1
102
RTVSPropertyOp14
 70
     1
102
RTVSPropertyOp15
 70
     1
102
RTVSPropertyOp16
 70
     1
102
RTVSPropertyOp17
 70
     1
102
RTVSPropertyOp18
 70
     1
102
RTVSPropertyOp19
 70
     1
102
RTVSPropertyOp20
 70
     1
102
RTVSPropertyOp21
 70
     1
102
RTVSPropertyOp22
 70
     1
102
RTVSPropertyOp23
 70
     1
102
RTVSPropertyOp24
 70
     1
102
RTVSPropertyOp25
 70
     1
102
RTVSPropertyOp26
 70
     1
102
RTVSPropertyOp27
 70
     1
102
RTVSPropertyOp28
 70
     1
102
RTVSPropertyOp29
 70
     1
102
RTVSPropertyOp30
 70
     1
102
RTVSPropertyOp31
 70
     1
102
RTVSPropertyOp32
 70
     1
102
RTVSPropertyOp33
 70
     1
102
RTVSPropertyOp34
 70
     1
102
RTVSPropertyOp35
 70
     1
102
RTVSPropertyOp36
 70
     1
102
RTVSPropertyOp37
 70
     1
102
RTVSPropertyOp38
 70
     1
102
RTVSPropertyOp39
 70
     1
102
RTVSPropertyOp40
 70
     1
102
RTVSPropertyOp41
 70
     1
102
RTVSPropertyOp42
 70
     1
102
RTVSPropertyOp43
 70
     1
102
RTVSPropertyOp44
 70
     1
102
RTVSPropertyOp45
 70
     1
102
RTVSPropertyOp46
 70
     1
102
RTVSPropertyOp47
 70
     1
102
RTVSPropertyOp48
 70
     1
102
RTVSPropertyOp49
 70
     1
102
RTVSPropertyOp50
 70
     1
102
RTVSPropertyOp51
 70
     0
102
RTVSPropertyOp52
 70
     0
102
RTVSPropertyOp53
 70
     1
102
RTVSPropertyOp54
 70
     1
102
RTVSPropertyOp55
 70
     1
102
RTVSPropertyOp56
 70
     1
102
RTVSPropertyOp57
 70
     1
102
RTVSPropertyOp58
 70
     1
102
RTVSPropertyOp59
 70
     1
102
RTVSPropertyOp60
 70
     1
102
RTVSPropertyOp61
 70
     1
102
RTVSPropertyOp62
 70
     1
  0
XRECORD
  5
BD2A
102
{ACAD_REACTORS
330
BD29
102
}
330
BD29
100
AcDbXrecord
280
     1
102
RTVSPost2010Prop28
280
     0
102
RTVSPost2010PropOp28
 70
     1
102
RTVSPost2010Prop29
280
     1
102
RTVSPost2010PropOp29
 70
     1
102
RTVSPost2010Prop30
280
     1
102
RTVSPost2010PropOp30
 70
     1
102
RTVSPost2010Prop31
280
     0
102
RTVSPost2010PropOp31
 70
     1
102
RTVSPost2010Prop32
280
     0
102
RTVSPost2010PropOp32
 70
     1
102
RTVSPost2010Prop33
280
     0
102
RTVSPost2010PropOp33
 70
     1
102
RTVSPost2010Prop34
280
     0
102
RTVSPost2010PropOp34
 70
     1
102
RTVSPost2010Prop35
280
     0
102
RTVSPost2010PropOp35
 70
     1
102
RTVSPost2010Prop36
280
     0
102
RTVSPost2010PropOp36
 70
     1
102
RTVSPost2010Prop37
 90
       50
102
RTVSPost2010PropOp37
 70
     1
102
RTVSPost2010Prop38
140
0.0
102
RTVSPost2010PropOp38
 70
     1
102
RTVSPost2010Prop39
140
1.0
102
RTVSPost2010PropOp39
 70
     1
102
RTVSPost2010Prop40
 90
        0
102
RTVSPost2010PropOp40
 70
     1
102
RTVSPost2010Prop41ColorIndex
 90
       18
102
RTVSPost2010Prop41ColorRGB
 90
        0
102
RTVSPost2010PropOp41
 70
     1
102
RTVSPost2010Prop42
 90
       50
102
RTVSPost2010PropOp42
 70
     1
102
RTVSPost2010Prop43
 90
        3
102
RTVSPost2010PropOp43
 70
     1
102
RTVSPost2010Prop44ColorIndex
 90
        5
102
RTVSPost2010Prop44ColorRGB
 90
      255
102
RTVSPost2010PropOp44
 70
     1
102
RTVSPost2010Prop45
280
     0
102
RTVSPost2010PropOp45
 70
     1
102
RTVSPost2010Prop46
 90
       50
102
RTVSPost2010PropOp46
 70
     1
102
RTVSPost2010Prop47
 90
       50
102
RTVSPost2010PropOp47
 70
     1
102
RTVSPost2010Prop48
 90
       50
102
RTVSPost2010PropOp48
 70
     1
102
RTVSPost2010Prop49
280
     0
102
RTVSPost2010PropOp49
 70
     1
102
RTVSPost2010Prop50
 90
       50
102
RTVSPost2010PropOp50
 70
     1
102
RTVSPost2010Prop51ColorIndex
 90
      256
102
RTVSPost2010Prop51ColorRGB
 90
-16777216
102
RTVSPost2010PropOp51
 70
     0
102
RTVSPost2010Prop52
140
1.0
102
RTVSPost2010PropOp52
 70
     0
102
RTVSPost2010Prop53
 90
        2
102
RTVSPost2010PropOp53
 70
     1
102
RTVSPost2010Prop54
  1
strokes_ogs.tif
102
RTVSPost2010PropOp54
 70
     1
102
RTVSPost2010Prop55
280
     0
102
RTVSPost2010PropOp55
 70
     1
102
RTVSPost2010Prop56
140
1.0
102
RTVSPost2010PropOp56
 70
     1
102
RTVSPost2010Prop57
140
1.0
102
RTVSPost2010PropOp57
 70
     1
102
RTVSPropertyOp0
 70
     1
102
RTVSPropertyOp1
 70
     1
102
RTVSPropertyOp2
 70
     1
102
RTVSPropertyOp3
 70
     1
102
RTVSPropertyOp4
 70
     1
102
RTVSPropertyOp5
 70
     1
102
RTVSPropertyOp6
 70
     1
102
RTVSPropertyOp7
 70
     1
102
RTVSPropertyOp8
 70
     1
102
RTVSPropertyOp9
 70
     1
102
RTVSPropertyOp10
 70
     1
102
RTVSPropertyOp11
 70
     1
102
RTVSPropertyOp12
 70
     1
102
RTVSPropertyOp13
 70
     1
102
RTVSPropertyOp14
 70
     1
102
RTVSPropertyOp15
 70
     1
102
RTVSPropertyOp16
 70
     1
102
RTVSPropertyOp17
 70
     1
102
RTVSPropertyOp18
 70
     1
102
RTVSPropertyOp19
 70
     1
102
RTVSPropertyOp20
 70
     1
102
RTVSPropertyOp21
 70
     1
102
RTVSPropertyOp22
 70
     1
102
RTVSPropertyOp23
 70
     1
102
RTVSPropertyOp24
 70
     1
102
RTVSPropertyOp25
 70
     1
102
RTVSPropertyOp26
 70
     1
102
RTVSPropertyOp27
 70
     1
102
RTVSPropertyOp28
 70
     1
102
RTVSPropertyOp29
 70
     1
102
RTVSPropertyOp30
 70
     1
102
RTVSPropertyOp31
 70
     1
102
RTVSPropertyOp32
 70
     1
102
RTVSPropertyOp33
 70
     1
102
RTVSPropertyOp34
 70
     1
102
RTVSPropertyOp35
 70
     1
102
RTVSPropertyOp36
 70
     1
102
RTVSPropertyOp37
 70
     1
102
RTVSPropertyOp38
 70
     1
102
RTVSPropertyOp39
 70
     1
102
RTVSPropertyOp40
 70
     1
102
RTVSPropertyOp41
 70
     1
102
RTVSPropertyOp42
 70
     1
102
RTVSPropertyOp43
 70
     1
102
RTVSPropertyOp44
 70
     1
102
RTVSPropertyOp45
 70
     1
102
RTVSPropertyOp46
 70
     1
102
RTVSPropertyOp47
 70
     1
102
RTVSPropertyOp48
 70
     1
102
RTVSPropertyOp49
 70
     1
102
RTVSPropertyOp50
 70
     1
102
RTVSPropertyOp51
 70
     0
102
RTVSPropertyOp52
 70
     0
102
RTVSPropertyOp53
 70
     1
102
RTVSPropertyOp54
 70
     1
102
RTVSPropertyOp55
 70
     1
102
RTVSPropertyOp56
 70
     1
102
RTVSPropertyOp57
 70
     1
102
RTVSPropertyOp58
 70
     1
102
RTVSPropertyOp59
 70
     1
102
RTVSPropertyOp60
 70
     1
102
RTVSPropertyOp61
 70
     1
102
RTVSPropertyOp62
 70
     1
  0
XRECORD
  5
BD1E
102
{ACAD_REACTORS
330
BD1D
102
}
330
BD1D
100
AcDbXrecord
280
     1
102
RTVSPost2010Prop28
280
     0
102
RTVSPost2010PropOp28
 70
     1
102
RTVSPost2010Prop29
280
     1
102
RTVSPost2010PropOp29
 70
     1
102
RTVSPost2010Prop30
280
     1
102
RTVSPost2010PropOp30
 70
     1
102
RTVSPost2010Prop31
280
     0
102
RTVSPost2010PropOp31
 70
     1
102
RTVSPost2010Prop32
280
     0
102
RTVSPost2010PropOp32
 70
     1
102
RTVSPost2010Prop33
280
     0
102
RTVSPost2010PropOp33
 70
     1
102
RTVSPost2010Prop34
280
     0
102
RTVSPost2010PropOp34
 70
     1
102
RTVSPost2010Prop35
280
     0
102
RTVSPost2010PropOp35
 70
     1
102
RTVSPost2010Prop36
280
     0
102
RTVSPost2010PropOp36
 70
     1
102
RTVSPost2010Prop37
 90
       50
102
RTVSPost2010PropOp37
 70
     1
102
RTVSPost2010Prop38
140
0.0
102
RTVSPost2010PropOp38
 70
     1
102
RTVSPost2010Prop39
140
1.0
102
RTVSPost2010PropOp39
 70
     1
102
RTVSPost2010Prop40
 90
        0
102
RTVSPost2010PropOp40
 70
     1
102
RTVSPost2010Prop41ColorIndex
 90
       18
102
RTVSPost2010Prop41ColorRGB
 90
        0
102
RTVSPost2010PropOp41
 70
     1
102
RTVSPost2010Prop42
 90
       50
102
RTVSPost2010PropOp42
 70
     1
102
RTVSPost2010Prop43
 90
        3
102
RTVSPost2010PropOp43
 70
     1
102
RTVSPost2010Prop44ColorIndex
 90
        5
102
RTVSPost2010Prop44ColorRGB
 90
      255
102
RTVSPost2010PropOp44
 70
     1
102
RTVSPost2010Prop45
280
     0
102
RTVSPost2010PropOp45
 70
     1
102
RTVSPost2010Prop46
 90
       50
102
RTVSPost2010PropOp46
 70
     1
102
RTVSPost2010Prop47
 90
       50
102
RTVSPost2010PropOp47
 70
     1
102
RTVSPost2010Prop48
 90
       50
102
RTVSPost2010PropOp48
 70
     1
102
RTVSPost2010Prop49
280
     0
102
RTVSPost2010PropOp49
 70
     1
102
RTVSPost2010Prop50
 90
       50
102
RTVSPost2010PropOp50
 70
     1
102
RTVSPost2010Prop51ColorIndex
 90
      256
102
RTVSPost2010Prop51ColorRGB
 90
-16777216
102
RTVSPost2010PropOp51
 70
     0
102
RTVSPost2010Prop52
140
1.0
102
RTVSPost2010PropOp52
 70
     0
102
RTVSPost2010Prop53
 90
        2
102
RTVSPost2010PropOp53
 70
     1
102
RTVSPost2010Prop54
  1
strokes_ogs.tif
102
RTVSPost2010PropOp54
 70
     1
102
RTVSPost2010Prop55
280
     0
102
RTVSPost2010PropOp55
 70
     1
102
RTVSPost2010Prop56
140
1.0
102
RTVSPost2010PropOp56
 70
     1
102
RTVSPost2010Prop57
140
1.0
102
RTVSPost2010PropOp57
 70
     1
102
RTVSPropertyOp0
 70
     1
102
RTVSPropertyOp1
 70
     1
102
RTVSPropertyOp2
 70
     1
102
RTVSPropertyOp3
 70
     1
102
RTVSPropertyOp4
 70
     1
102
RTVSPropertyOp5
 70
     1
102
RTVSPropertyOp6
 70
     1
102
RTVSPropertyOp7
 70
     1
102
RTVSPropertyOp8
 70
     1
102
RTVSPropertyOp9
 70
     1
102
RTVSPropertyOp10
 70
     1
102
RTVSPropertyOp11
 70
     1
102
RTVSPropertyOp12
 70
     1
102
RTVSPropertyOp13
 70
     1
102
RTVSPropertyOp14
 70
     1
102
RTVSPropertyOp15
 70
     1
102
RTVSPropertyOp16
 70
     1
102
RTVSPropertyOp17
 70
     1
102
RTVSPropertyOp18
 70
     1
102
RTVSPropertyOp19
 70
     1
102
RTVSPropertyOp20
 70
     1
102
RTVSPropertyOp21
 70
     1
102
RTVSPropertyOp22
 70
     1
102
RTVSPropertyOp23
 70
     1
102
RTVSPropertyOp24
 70
     1
102
RTVSPropertyOp25
 70
     1
102
RTVSPropertyOp26
 70
     1
102
RTVSPropertyOp27
 70
     1
102
RTVSPropertyOp28
 70
     1
102
RTVSPropertyOp29
 70
     1
102
RTVSPropertyOp30
 70
     1
102
RTVSPropertyOp31
 70
     1
102
RTVSPropertyOp32
 70
     1
102
RTVSPropertyOp33
 70
     1
102
RTVSPropertyOp34
 70
     1
102
RTVSPropertyOp35
 70
     1
102
RTVSPropertyOp36
 70
     1
102
RTVSPropertyOp37
 70
     1
102
RTVSPropertyOp38
 70
     1
102
RTVSPropertyOp39
 70
     1
102
RTVSPropertyOp40
 70
     1
102
RTVSPropertyOp41
 70
     1
102
RTVSPropertyOp42
 70
     1
102
RTVSPropertyOp43
 70
     1
102
RTVSPropertyOp44
 70
     1
102
RTVSPropertyOp45
 70
     1
102
RTVSPropertyOp46
 70
     1
102
RTVSPropertyOp47
 70
     1
102
RTVSPropertyOp48
 70
     1
102
RTVSPropertyOp49
 70
     1
102
RTVSPropertyOp50
 70
     1
102
RTVSPropertyOp51
 70
     0
102
RTVSPropertyOp52
 70
     0
102
RTVSPropertyOp53
 70
     1
102
RTVSPropertyOp54
 70
     1
102
RTVSPropertyOp55
 70
     1
102
RTVSPropertyOp56
 70
     1
102
RTVSPropertyOp57
 70
     1
102
RTVSPropertyOp58
 70
     1
102
RTVSPropertyOp59
 70
     1
102
RTVSPropertyOp60
 70
     1
102
RTVSPropertyOp61
 70
     1
102
RTVSPropertyOp62
 70
     1
  0
XRECORD
  5
BD36
102
{ACAD_REACTORS
330
BD35
102
}
330
BD35
100
AcDbXrecord
280
     1
102
RTVSPost2010Prop28
280
     0
102
RTVSPost2010PropOp28
 70
     1
102
RTVSPost2010Prop29
280
     1
102
RTVSPost2010PropOp29
 70
     1
102
RTVSPost2010Prop30
280
     1
102
RTVSPost2010PropOp30
 70
     1
102
RTVSPost2010Prop31
280
     0
102
RTVSPost2010PropOp31
 70
     1
102
RTVSPost2010Prop32
280
     0
102
RTVSPost2010PropOp32
 70
     1
102
RTVSPost2010Prop33
280
     0
102
RTVSPost2010PropOp33
 70
     1
102
RTVSPost2010Prop34
280
     0
102
RTVSPost2010PropOp34
 70
     1
102
RTVSPost2010Prop35
280
     0
102
RTVSPost2010PropOp35
 70
     1
102
RTVSPost2010Prop36
280
     0
102
RTVSPost2010PropOp36
 70
     1
102
RTVSPost2010Prop37
 90
       50
102
RTVSPost2010PropOp37
 70
     1
102
RTVSPost2010Prop38
140
0.0
102
RTVSPost2010PropOp38
 70
     1
102
RTVSPost2010Prop39
140
1.0
102
RTVSPost2010PropOp39
 70
     1
102
RTVSPost2010Prop40
 90
        0
102
RTVSPost2010PropOp40
 70
     1
102
RTVSPost2010Prop41ColorIndex
 90
       18
102
RTVSPost2010Prop41ColorRGB
 90
        0
102
RTVSPost2010PropOp41
 70
     1
102
RTVSPost2010Prop42
 90
       50
102
RTVSPost2010PropOp42
 70
     1
102
RTVSPost2010Prop43
 90
        3
102
RTVSPost2010PropOp43
 70
     1
102
RTVSPost2010Prop44ColorIndex
 90
        5
102
RTVSPost2010Prop44ColorRGB
 90
      255
102
RTVSPost2010PropOp44
 70
     1
102
RTVSPost2010Prop45
280
     0
102
RTVSPost2010PropOp45
 70
     1
102
RTVSPost2010Prop46
 90
       50
102
RTVSPost2010PropOp46
 70
     1
102
RTVSPost2010Prop47
 90
       50
102
RTVSPost2010PropOp47
 70
     1
102
RTVSPost2010Prop48
 90
       50
102
RTVSPost2010PropOp48
 70
     1
102
RTVSPost2010Prop49
280
     0
102
RTVSPost2010PropOp49
 70
     1
102
RTVSPost2010Prop50
 90
       50
102
RTVSPost2010PropOp50
 70
     1
102
RTVSPost2010Prop51ColorIndex
 90
      256
102
RTVSPost2010Prop51ColorRGB
 90
-16777216
102
RTVSPost2010PropOp51
 70
     0
102
RTVSPost2010Prop52
140
1.0
102
RTVSPost2010PropOp52
 70
     0
102
RTVSPost2010Prop53
 90
        2
102
RTVSPost2010PropOp53
 70
     1
102
RTVSPost2010Prop54
  1
strokes_ogs.tif
102
RTVSPost2010PropOp54
 70
     1
102
RTVSPost2010Prop55
280
     0
102
RTVSPost2010PropOp55
 70
     1
102
RTVSPost2010Prop56
140
1.0
102
RTVSPost2010PropOp56
 70
     1
102
RTVSPost2010Prop57
140
1.0
102
RTVSPost2010PropOp57
 70
     1
102
RTVSPropertyOp0
 70
     1
102
RTVSPropertyOp1
 70
     1
102
RTVSPropertyOp2
 70
     1
102
RTVSPropertyOp3
 70
     1
102
RTVSPropertyOp4
 70
     1
102
RTVSPropertyOp5
 70
     1
102
RTVSPropertyOp6
 70
     1
102
RTVSPropertyOp7
 70
     1
102
RTVSPropertyOp8
 70
     1
102
RTVSPropertyOp9
 70
     1
102
RTVSPropertyOp10
 70
     1
102
RTVSPropertyOp11
 70
     1
102
RTVSPropertyOp12
 70
     1
102
RTVSPropertyOp13
 70
     1
102
RTVSPropertyOp14
 70
     1
102
RTVSPropertyOp15
 70
     1
102
RTVSPropertyOp16
 70
     1
102
RTVSPropertyOp17
 70
     1
102
RTVSPropertyOp18
 70
     1
102
RTVSPropertyOp19
 70
     1
102
RTVSPropertyOp20
 70
     1
102
RTVSPropertyOp21
 70
     1
102
RTVSPropertyOp22
 70
     1
102
RTVSPropertyOp23
 70
     1
102
RTVSPropertyOp24
 70
     1
102
RTVSPropertyOp25
 70
     1
102
RTVSPropertyOp26
 70
     1
102
RTVSPropertyOp27
 70
     1
102
RTVSPropertyOp28
 70
     1
102
RTVSPropertyOp29
 70
     1
102
RTVSPropertyOp30
 70
     1
102
RTVSPropertyOp31
 70
     1
102
RTVSPropertyOp32
 70
     1
102
RTVSPropertyOp33
 70
     1
102
RTVSPropertyOp34
 70
     1
102
RTVSPropertyOp35
 70
     1
102
RTVSPropertyOp36
 70
     1
102
RTVSPropertyOp37
 70
     1
102
RTVSPropertyOp38
 70
     1
102
RTVSPropertyOp39
 70
     1
102
RTVSPropertyOp40
 70
     1
102
RTVSPropertyOp41
 70
     1
102
RTVSPropertyOp42
 70
     1
102
RTVSPropertyOp43
 70
     1
102
RTVSPropertyOp44
 70
     1
102
RTVSPropertyOp45
 70
     1
102
RTVSPropertyOp46
 70
     1
102
RTVSPropertyOp47
 70
     1
102
RTVSPropertyOp48
 70
     1
102
RTVSPropertyOp49
 70
     1
102
RTVSPropertyOp50
 70
     1
102
RTVSPropertyOp51
 70
     0
102
RTVSPropertyOp52
 70
     0
102
RTVSPropertyOp53
 70
     1
102
RTVSPropertyOp54
 70
     1
102
RTVSPropertyOp55
 70
     1
102
RTVSPropertyOp56
 70
     1
102
RTVSPropertyOp57
 70
     1
102
RTVSPropertyOp58
 70
     1
102
RTVSPropertyOp59
 70
     1
102
RTVSPropertyOp60
 70
     1
102
RTVSPropertyOp61
 70
     1
102
RTVSPropertyOp62
 70
     1
  0
ENDSEC
  0
EOF
