  0
SECTION
  2
HEADER
  9
$ACADVER
  1
AC1015
  9
$ACADMAINTVER
 70
    20
  9
$DWGCODEPAGE
  3
ANSI_932
  9
$INSBASE
 10
0.0
 20
0.0
 30
0.0
  9
$EXTMIN
 10
10.0
 20
9.999999999999998
 30
0.0
  9
$EXTMAX
 10
249.950474
 20
229.8637509999998
 30
0.0
  9
$LIMMIN
 10
0.0
 20
0.0
  9
$LIMMAX
 10
396.0
 20
273.0
  9
$ORTHOMODE
 70
     1
  9
$REGENMODE
 70
     1
  9
$FILLMODE
 70
     1
  9
$QTEXTMODE
 70
     0
  9
$MIRRTEXT
 70
     1
  9
$LTSCALE
 40
20.0
  9
$ATTMODE
 70
     1
  9
$TEXTSIZE
 40
5.0
  9
$TRACEWID
 40
1.0
  9
$TEXTSTYLE
  7
STANDARD
  9
$CLAYER
  8
0
  9
$CELTYPE
  6
BYLAYER
  9
$CECOLOR
 62
   256
  9
$CELTSCALE
 40
1.0
  9
$DISPSILH
 70
     0
  9
$DIMSCALE
 40
1.0
  9
$DIMASZ
 40
2.5
  9
$DIMEXO
 40
1.0
  9
$DIMDLI
 40
10.0
  9
$DIMRND
 40
0.0
  9
$DIMDLE
 40
0.0
  9
$DIMEXE
 40
1.0
  9
$DIMTP
 40
0.0
  9
$DIMTM
 40
0.0
  9
$DIMTXT
 40
3.2
  9
$DIMCEN
 40
0.0
  9
$DIMTSZ
 40
0.0
  9
$DIMTOL
 70
     0
  9
$DIMLIM
 70
     0
  9
$DIMTIH
 70
     0
  9
$DIMTOH
 70
     0
  9
$DIMSE1
 70
     0
  9
$DIMSE2
 70
     0
  9
$DIMTAD
 70
     3
  9
$DIMZIN
 70
     8
  9
$DIMBLK
  1

  9
$DIMASO
 70
     1
  9
$DIMSHO
 70
     1
  9
$DIMPOST
  1

  9
$DIMAPOST
  1

  9
$DIMALT
 70
     0
  9
$DIMALTD
 70
     2
  9
$DIMALTF
 40
25.4
  9
$DIMLFAC
 40
1.0
  9
$DIMTOFL
 70
     1
  9
$DIMTVP
 40
0.0
  9
$DIMTIX
 70
     0
  9
$DIMSOXD
 70
     0
  9
$DIMSAH
 70
     1
  9
$DIMBLK1
  1

  9
$DIMBLK2
  1

  9
$DIMSTYLE
  2
STANDARD
  9
$DIMCLRD
 70
     0
  9
$DIMCLRE
 70
     0
  9
$DIMCLRT
 70
     0
  9
$DIMTFAC
 40
1.0
  9
$DIMGAP
 40
1.0
  9
$DIMJUST
 70
     0
  9
$DIMSD1
 70
     0
  9
$DIMSD2
 70
     0
  9
$DIMTOLJ
 70
     1
  9
$DIMTZIN
 70
     0
  9
$DIMALTZ
 70
     0
  9
$DIMALTTZ
 70
     0
  9
$DIMUPT
 70
     0
  9
$DIMDEC
 70
     4
  9
$DIMTDEC
 70
     4
  9
$DIMALTU
 70
     2
  9
$DIMALTTD
 70
     2
  9
$DIMTXSTY
  7
STANDARD
  9
$DIMAUNIT
 70
     0
  9
$DIMADEC
 70
     0
  9
$DIMALTRND
 40
0.0
  9
$DIMAZIN
 70
     0
  9
$DIMDSEP
 70
    46
  9
$DIMATFIT
 70
     3
  9
$DIMFRAC
 70
     0
  9
$DIMLDRBLK
  1

  9
$DIMLUNIT
 70
     2
  9
$DIMLWD
 70
    -2
  9
$DIMLWE
 70
    -2
  9
$DIMTMOVE
 70
     0
  9
$LUNITS
 70
     2
  9
$LUPREC
 70
     4
  9
$SKETCHINC
 40
1.0
  9
$FILLETRAD
 40
1.6
  9
$AUNITS
 70
     0
  9
$AUPREC
 70
     2
  9
$MENU
  1
.
  9
$ELEVATION
 40
0.0
  9
$PELEVATION
 40
0.0
  9
$THICKNESS
 40
0.0
  9
$LIMCHECK
 70
     0
  9
$CHAMFERA
 40
10.0
  9
$CHAMFERB
 40
10.0
  9
$CHAMFERC
 40
0.0
  9
$CHAMFERD
 40
0.0
  9
$SKPOLY
 70
     0
  9
$TDCREATE
 40
2451296.796745718
  9
$TDUCREATE
 40
2451296.421745718
  9
$TDUPDATE
 40
2457192.658390104
  9
$TDUUPDATE
 40
2457192.283390104
  9
$TDINDWG
 40
0.0000108333
  9
$TDUSRTIMER
 40
0.0000103472
  9
$USRTIMER
 70
     1
  9
$ANGBASE
 50
0.0
  9
$ANGDIR
 70
     0
  9
$PDMODE
 70
     0
  9
$PDSIZE
 40
0.0
  9
$PLINEWID
 40
0.0
  9
$SPLFRAME
 70
     0
  9
$SPLINETYPE
 70
     6
  9
$SPLINESEGS
 70
     8
  9
$HANDSEED
  5
BED3
  9
$SURFTAB1
 70
     6
  9
$SURFTAB2
 70
     6
  9
$SURFTYPE
 70
     6
  9
$SURFU
 70
     6
  9
$SURFV
 70
     6
  9
$UCSBASE
  2

  9
$UCSNAME
  2

  9
$UCSORG
 10
0.0
 20
0.0
 30
0.0
  9
$UCSXDIR
 10
1.0
 20
0.0
 30
0.0
  9
$UCSYDIR
 10
0.0
 20
1.0
 30
0.0
  9
$UCSORTHOREF
  2

  9
$UCSORTHOVIEW
 70
     0
  9
$UCSORGTOP
 10
0.0
 20
0.0
 30
0.0
  9
$UCSORGBOTTOM
 10
0.0
 20
0.0
 30
0.0
  9
$UCSORGLEFT
 10
0.0
 20
0.0
 30
0.0
  9
$UCSORGRIGHT
 10
0.0
 20
0.0
 30
0.0
  9
$UCSORGFRONT
 10
0.0
 20
0.0
 30
0.0
  9
$UCSORGBACK
 10
0.0
 20
0.0
 30
0.0
  9
$PUCSBASE
  2

  9
$PUCSNAME
  2

  9
$PUCSORG
 10
0.0
 20
0.0
 30
0.0
  9
$PUCSXDIR
 10
1.0
 20
0.0
 30
0.0
  9
$PUCSYDIR
 10
0.0
 20
1.0
 30
0.0
  9
$PUCSORTHOREF
  2

  9
$PUCSORTHOVIEW
 70
     0
  9
$PUCSORGTOP
 10
0.0
 20
0.0
 30
0.0
  9
$PUCSORGBOTTOM
 10
0.0
 20
0.0
 30
0.0
  9
$PUCSORGLEFT
 10
0.0
 20
0.0
 30
0.0
  9
$PUCSORGRIGHT
 10
0.0
 20
0.0
 30
0.0
  9
$PUCSORGFRONT
 10
0.0
 20
0.0
 30
0.0
  9
$PUCSORGBACK
 10
0.0
 20
0.0
 30
0.0
  9
$USERI1
 70
     0
  9
$USERI2
 70
     0
  9
$USERI3
 70
     0
  9
$USERI4
 70
     0
  9
$USERI5
 70
     0
  9
$USERR1
 40
0.0
  9
$USERR2
 40
0.0
  9
$USERR3
 40
0.0
  9
$USERR4
 40
0.0
  9
$USERR5
 40
0.0
  9
$WORLDVIEW
 70
     1
  9
$SHADEDGE
 70
     3
  9
$SHADEDIF
 70
    70
  9
$TILEMODE
 70
     1
  9
$MAXACTVP
 70
    16
  9
$PINSBASE
 10
0.0
 20
0.0
 30
0.0
  9
$PLIMCHECK
 70
     0
  9
$PEXTMIN
 10
1.000000000000000E+20
 20
1.000000000000000E+20
 30
1.000000000000000E+20
  9
$PEXTMAX
 10
-1.000000000000000E+20
 20
-1.000000000000000E+20
 30
-1.000000000000000E+20
  9
$PLIMMIN
 10
0.0
 20
0.0
  9
$PLIMMAX
 10
420.0
 20
297.0
  9
$UNITMODE
 70
     0
  9
$VISRETAIN
 70
     0
  9
$PLINEGEN
 70
     0
  9
$PSLTSCALE
 70
     0
  9
$TREEDEPTH
 70
  3020
  9
$CMLSTYLE
  2
STANDARD
  9
$CMLJUST
 70
     0
  9
$CMLSCALE
 40
1.0
  9
$PROXYGRAPHICS
 70
     1
  9
$MEASUREMENT
 70
     0
  9
$CELWEIGHT
370
    -1
  9
$ENDCAPS
280
     0
  9
$JOINSTYLE
280
     0
  9
$LWDISPLAY
290
     0
  9
$INSUNITS
 70
     0
  9
$HYPERLINKBASE
  1

  9
$STYLESHEET
  1

  9
$XEDIT
290
     1
  9
$CEPSNTYPE
380
     0
  9
$PSTYLEMODE
290
     1
  9
$FINGERPRINTGUID
  2
{28316316-3DDA-47AD-AE7F-AA0CCBE1A5C1}
  9
$VERSIONGUID
  2
{4CDDC895-D946-49B3-99B0-1DCE782F0E0B}
  9
$EXTNAMES
290
     1
  9
$PSVPSCALE
 40
0.0
  9
$OLESTARTUP
290
     0
  0
ENDSEC
  0
SECTION
  2
CLASSES
  0
CLASS
  1
ACDBDICTIONARYWDFLT
  2
AcDbDictionaryWithDefault
  3
ObjectDBX Classes
 90
        0
280
     0
281
     0
  0
CLASS
  1
ACDBPLACEHOLDER
  2
AcDbPlaceHolder
  3
ObjectDBX Classes
 90
        0
280
     0
281
     0
  0
CLASS
  1
LAYOUT
  2
AcDbLayout
  3
ObjectDBX Classes
 90
        0
280
     0
281
     0
  0
CLASS
  1
DICTIONARYVAR
  2
AcDbDictionaryVar
  3
ObjectDBX Classes
 90
        0
280
     0
281
     0
  0
CLASS
  1
MATERIAL
  2
AcDbMaterial
  3
ObjectDBX Classes
 90
     1153
280
     0
281
     0
  0
CLASS
  1
VISUALSTYLE
  2
AcDbVisualStyle
  3
ObjectDBX Classes
 90
     4095
280
     0
281
     0
  0
CLASS
  1
TABLESTYLE
  2
AcDbTableStyle
  3
ObjectDBX Classes
 90
     4095
280
     0
281
     0
  0
CLASS
  1
SCALE
  2
AcDbScale
  3
ObjectDBX Classes
 90
     1153
280
     0
281
     0
  0
CLASS
  1
MLEADERSTYLE
  2
AcDbMLeaderStyle
  3
ACDB_MLEADERSTYLE_CLASS
 90
     4095
280
     0
281
     0
  0
CLASS
  1
ACDBSECTIONVIEWSTYLE
  2
AcDbSectionViewStyle
  3
ObjectDBX Classes
 90
     1025
280
     0
281
     0
  0
CLASS
  1
ACDBDETAILVIEWSTYLE
  2
AcDbDetailViewStyle
  3
ObjectDBX Classes
 90
     1025
280
     0
281
     0
  0
CLASS
  1
CELLSTYLEMAP
  2
AcDbCellStyleMap
  3
ObjectDBX Classes
 90
     1152
280
     0
281
     0
  0
ENDSEC
  0
SECTION
  2
TABLES
  0
TABLE
  2
VPORT
  5
BC1C
330
0
100
AcDbSymbolTable
 70
     1
  0
VPORT
  5
BE1C
330
BC1C
100
AcDbSymbolTableRecord
100
AcDbViewportTableRecord
  2
*ACTIVE
 70
     0
 10
0.0
 20
0.0
 11
1.0
 21
1.0
 12
196.575613647785
 22
119.9311300719052
 13
0.0
 23
0.0
 14
10.0
 24
10.0
 15
10.0
 25
10.0
 16
0.0
 26
0.0
 36
1.0
 17
0.0
 27
0.0
 37
0.0
 40
222.3430765675729
 41
1.899603698811096
 42
50.0
 43
0.0
 44
0.0
 50
0.0
 51
0.0
 71
     0
 72
   100
 73
     1
 74
     0
 75
     0
 76
     0
 77
     0
 78
     0
281
     0
 65
     1
110
0.0
120
0.0
130
0.0
111
1.0
121
0.0
131
0.0
112
0.0
122
1.0
132
0.0
 79
     0
146
0.0
1001
ACAD_NAV_VCDISPLAY
1070
     3
  0
ENDTAB
  0
TABLE
  2
LTYPE
  5
BC19
330
0
100
AcDbSymbolTable
 70
     4
  0
LTYPE
  5
BC27
330
BC19
100
AcDbSymbolTableRecord
100
AcDbLinetypeTableRecord
  2
BYBLOCK
 70
     0
  3

 72
    65
 73
     0
 40
0.0
  0
LTYPE
  5
BC28
330
BC19
100
AcDbSymbolTableRecord
100
AcDbLinetypeTableRecord
  2
BYLAYER
 70
     0
  3

 72
    65
 73
     0
 40
0.0
  0
LTYPE
  5
BC29
330
BC19
100
AcDbSymbolTableRecord
100
AcDbLinetypeTableRecord
  2
CONTINUOUS
 70
     0
  3
Solid line
 72
    65
 73
     0
 40
0.0
  0
LTYPE
  5
BC37
330
BC19
100
AcDbSymbolTableRecord
100
AcDbLinetypeTableRecord
  2
DASHED
 70
     0
  3
__ __ __ __ __ __ __ __ __ __ __ __ __ __ __ __
 72
    65
 73
     2
 40
0.75
 49
0.5
 74
     0
 49
-0.25
 74
     0
  0
LTYPE
  5
BC38
330
BC19
100
AcDbSymbolTableRecord
100
AcDbLinetypeTableRecord
  2
CENTER
 70
     0
  3
____ _ ____ _ ____ _ ____ _ ____ _ ____ _ ____ 
 72
    65
 73
     4
 40
2.0
 49
1.25
 74
     0
 49
-0.25
 74
     0
 49
0.25
 74
     0
 49
-0.25
 74
     0
  0
LTYPE
  5
BC39
330
BC19
100
AcDbSymbolTableRecord
100
AcDbLinetypeTableRecord
  2
PHANTOM
 70
     0
  3
______  __  __  ______  __  __  ______  __  __ 
 72
    65
 73
     6
 40
2.5
 49
1.25
 74
     0
 49
-0.25
 74
     0
 49
0.25
 74
     0
 49
-0.25
 74
     0
 49
0.25
 74
     0
 49
-0.25
 74
     0
  0
ENDTAB
  0
TABLE
  2
LAYER
  5
BC16
330
0
100
AcDbSymbolTable
 70
     8
  0
LAYER
  5
BC24
102
{ACAD_XDICTIONARY
360
BE77
102
}
330
BC16
100
AcDbSymbolTableRecord
100
AcDbLayerTableRecord
  2
0
 70
     0
 62
     7
  6
CONTINUOUS
370
    -3
390
BE25
  0
LAYER
  5
BC3A
102
{ACAD_XDICTIONARY
360
BE79
102
}
330
BC16
100
AcDbSymbolTableRecord
100
AcDbLayerTableRecord
  2
4
 70
     0
 62
     1
  6
CENTER
370
    -3
390
BE25
  0
LAYER
  5
BC3B
102
{ACAD_XDICTIONARY
360
BE7B
102
}
330
BC16
100
AcDbSymbolTableRecord
100
AcDbLayerTableRecord
  2
5
 70
     0
 62
     6
  6
PHANTOM
370
    -3
390
BE25
  0
LAYER
  5
BC3C
102
{ACAD_XDICTIONARY
360
BE7D
102
}
330
BC16
100
AcDbSymbolTableRecord
100
AcDbLayerTableRecord
  2
1
 70
     0
 62
     7
  6
CONTINUOUS
370
    -3
390
BE25
  0
LAYER
  5
BC3D
102
{ACAD_XDICTIONARY
360
BE7F
102
}
330
BC16
100
AcDbSymbolTableRecord
100
AcDbLayerTableRecord
  2
2
 70
     0
 62
     4
  6
CONTINUOUS
370
    -3
390
BE25
  0
LAYER
  5
BC3E
102
{ACAD_XDICTIONARY
360
BE81
102
}
330
BC16
100
AcDbSymbolTableRecord
100
AcDbLayerTableRecord
  2
3
 70
     0
 62
     2
  6
DASHED
370
    -3
390
BE25
  0
LAYER
  5
BC3F
102
{ACAD_XDICTIONARY
360
BE83
102
}
330
BC16
100
AcDbSymbolTableRecord
100
AcDbLayerTableRecord
  2
6
 70
     0
 62
     5
  6
CONTINUOUS
370
    -3
390
BE25
  0
LAYER
  5
BC40
102
{ACAD_XDICTIONARY
360
BE85
102
}
330
BC16
100
AcDbSymbolTableRecord
100
AcDbLayerTableRecord
  2
7
 70
     0
 62
     3
  6
CONTINUOUS
370
    -3
390
BE25
  0
ENDTAB
  0
TABLE
  2
STYLE
  5
BC17
330
0
100
AcDbSymbolTable
 70
     1
  0
STYLE
  5
BC25
330
BC17
100
AcDbSymbolTableRecord
100
AcDbTextStyleTableRecord
  2
STANDARD
 70
     0
 40
0.0
 41
1.0
 50
0.0
 71
     0
 42
5.0
  3
txt
  4

  0
ENDTAB
  0
TABLE
  2
VIEW
  5
BC1A
330
0
100
AcDbSymbolTable
 70
     0
  0
ENDTAB
  0
TABLE
  2
UCS
  5
BC1B
330
0
100
AcDbSymbolTable
 70
     0
  0
ENDTAB
  0
TABLE
  2
APPID
  5
BC1D
330
0
100
AcDbSymbolTable
 70
     3
  0
APPID
  5
BC26
330
BC1D
100
AcDbSymbolTableRecord
100
AcDbRegAppTableRecord
  2
ACAD
 70
     0
  0
APPID
  5
BE91
330
BC1D
100
AcDbSymbolTableRecord
100
AcDbRegAppTableRecord
  2
ACAD_NAV_VCDISPLAY
 70
     0
  0
APPID
  5
BECA
330
BC1D
100
AcDbSymbolTableRecord
100
AcDbRegAppTableRecord
  2
ACAD_MLEADERVER
 70
     0
  0
ENDTAB
  0
TABLE
  2
DIMSTYLE
  5
BC1E
330
0
100
AcDbSymbolTable
 70
     1
100
AcDbDimStyleTable
 71
     0
  0
DIMSTYLE
105
BC42
330
BC1E
100
AcDbSymbolTableRecord
100
AcDbDimStyleTableRecord
  2
STANDARD
 70
     0
 41
2.5
 42
1.0
 43
10.0
 44
1.0
 73
     0
 74
     0
 77
     3
 78
     8
140
3.2
141
0.0
147
1.0
172
     1
173
     1
284
     8
285
     8
286
     8
340
BC25
  0
ENDTAB
  0
TABLE
  2
BLOCK_RECORD
  5
BC15
330
0
100
AcDbSymbolTable
 70
     0
  0
BLOCK_RECORD
  5
BC32
102
{ACAD_XDICTIONARY
360
BE1F
102
}
330
BC15
100
AcDbSymbolTableRecord
100
AcDbBlockTableRecord
  2
*MODEL_SPACE
340
BE73
  0
BLOCK_RECORD
  5
BC2E
102
{ACAD_XDICTIONARY
360
BE1D
102
}
330
BC15
100
AcDbSymbolTableRecord
100
AcDbBlockTableRecord
  2
*PAPER_SPACE
340
BE74
  0
ENDTAB
  0
ENDSEC
  0
SECTION
  2
BLOCKS
  0
BLOCK
  5
BC33
330
BC32
100
AcDbEntity
  8
0
100
AcDbBlockBegin
  2
*MODEL_SPACE
 70
     0
 10
0.0
 20
0.0
 30
0.0
  3
*MODEL_SPACE
  1

  0
ENDBLK
  5
BC34
330
BC32
100
AcDbEntity
  8
0
100
AcDbBlockEnd
  0
BLOCK
  5
BC2F
330
BC2E
100
AcDbEntity
 67
     1
  8
0
100
AcDbBlockBegin
  2
*PAPER_SPACE
 70
     0
 10
0.0
 20
0.0
 30
0.0
  3
*PAPER_SPACE
  1

  0
ENDBLK
  5
BC30
330
BC2E
100
AcDbEntity
 67
     1
  8
0
100
AcDbBlockEnd
  0
ENDSEC
  0
SECTION
  2
ENTITIES
  0
TEXT
  5
BC4A
330
BC32
100
AcDbEntity
  8
7
  6
Continuous
100
AcDbText
 10
10.0
 20
18.0
 30
0.0
 40
3.0
  1
TYPE No.TM-144SUS-64
100
AcDbText
  0
TEXT
  5
BC4B
330
BC32
100
AcDbEntity
  8
7
  6
Continuous
100
AcDbText
 10
10.0
 20
26.0
 30
0.0
 40
3.0
  1
CODE No.5717
100
AcDbText
  0
TEXT
  5
BC4C
330
BC32
100
AcDbEntity
  8
1
  6
Continuous
100
AcDbText
 10
10.0
 20
10.0
 30
0.0
 40
1.399999999999999
  1
LAYER
100
AcDbText
  0
TEXT
  5
BC4D
330
BC32
100
AcDbEntity
  8
1
  6
Continuous
100
AcDbText
 10
17.97951099999998
 20
10.04873699999998
 30
0.0
 40
1.399999999999999
  1
1
100
AcDbText
  0
TEXT
  5
BC4E
330
BC32
100
AcDbEntity
  8
7
  6
Continuous
100
AcDbText
 10
29.97951099999999
 20
10.04873699999998
 30
0.0
 40
1.399999999999999
  1
7
100
AcDbText
  0
TEXT
  5
BC4F
330
BC32
100
AcDbEntity
  8
4
  6
CENTER
100
AcDbText
 10
23.97951099999999
 20
10.04873699999998
 30
0.0
 40
1.399999999999999
  1
4
100
AcDbText
  0
TEXT
  5
BC50
330
BC32
100
AcDbEntity
  8
3
  6
DASHED
100
AcDbText
 10
21.979511
 20
10.04873699999998
 30
0.0
 40
1.399999999999999
  1
3
100
AcDbText
  0
TEXT
  5
BC51
330
BC32
100
AcDbEntity
  8
2
  6
Continuous
100
AcDbText
 10
19.97951099999999
 20
10.04873699999998
 30
0.0
 40
1.399999999999999
  1
2
100
AcDbText
  0
TEXT
  5
BC52
330
BC32
100
AcDbEntity
  8
6
  6
Continuous
100
AcDbText
 10
27.979511
 20
10.04873699999998
 30
0.0
 40
1.399999999999999
  1
6
100
AcDbText
  0
TEXT
  5
BC53
330
BC32
100
AcDbEntity
  8
5
  6
PHANTOM
100
AcDbText
 10
25.97951099999999
 20
10.04873699999998
 30
0.0
 40
1.399999999999999
  1
5
100
AcDbText
  0
LINE
  5
BC54
330
BC32
100
AcDbEntity
  8
1
  6
Continuous
100
AcDbLine
 10
127.6217979999999
 20
159.363351
 30
0.0
 11
138.6217979999998
 21
159.363351
 31
0.0
  0
LINE
  5
BC55
330
BC32
100
AcDbEntity
  8
1
  6
Continuous
100
AcDbLine
 10
150.3717979999999
 20
160.339851
 30
0.0
 11
150.3717979999999
 21
164.313351
 31
0.0
  0
LINE
  5
BC56
330
BC32
100
AcDbEntity
  8
1
  6
Continuous
100
AcDbLine
 10
142.3717979999999
 20
160.613351
 30
0.0
 11
142.3717979999999
 21
169.863351
 31
0.0
  0
LINE
  5
BC57
330
BC32
100
AcDbEntity
  8
1
  6
Continuous
100
AcDbLine
 10
123.871798
 20
162.3633509999999
 30
0.0
 11
123.871798
 21
169.863351
 31
0.0
  0
LINE
  5
BC58
330
BC32
100
AcDbEntity
  8
4
  6
CENTER
100
AcDbLine
 10
133.1217979999999
 20
86.51493
 30
0.0
 11
133.1217979999999
 21
174.3633509999999
 31
0.0
  0
LINE
  5
BC59
330
BC32
100
AcDbEntity
  8
1
  6
Continuous
100
AcDbLine
 10
125.371798
 20
171.363351
 30
0.0
 11
140.8717979999998
 21
171.363351
 31
0.0
  0
LINE
  5
BC5A
330
BC32
100
AcDbEntity
  8
1
  6
Continuous
100
AcDbLine
 10
127.321798
 20
211.3637509999998
 30
0.0
 11
138.9217979999999
 21
211.3637509999998
 31
0.0
  0
LINE
  5
BC5B
330
BC32
100
AcDbEntity
  8
1
  6
Continuous
100
AcDbLine
 10
127.321798
 20
226.863751
 30
0.0
 11
138.9217979999999
 21
226.863751
 31
0.0
  0
LINE
  5
BC5C
330
BC32
100
AcDbEntity
  8
4
  6
CENTER
100
AcDbLine
 10
90.5
 20
219.1137509999999
 30
0.0
 11
175.7004709999999
 21
219.1137509999999
 31
0.0
  0
LINE
  5
BC5D
330
BC32
100
AcDbEntity
  8
4
  6
CENTER
100
AcDbLine
 10
233.450474
 20
86.51493
 30
0.0
 11
233.450474
 21
174.3633889999999
 31
0.0
  0
LINE
  5
BC5E
330
BC32
100
AcDbEntity
  8
1
  6
Continuous
100
AcDbLine
 10
142.3717979999999
 20
214.363751
 30
0.0
 11
142.3717979999999
 21
223.8637509999998
 31
0.0
  0
LINE
  5
BC5F
330
BC32
100
AcDbEntity
  8
4
  6
CENTER
100
AcDbLine
 10
133.1217979999999
 20
208.3637509999999
 30
0.0
 11
133.1217979999999
 21
229.8637509999998
 31
0.0
  0
LINE
  5
BC60
330
BC32
100
AcDbEntity
  8
1
  6
Continuous
100
AcDbLine
 10
123.871798
 20
214.363751
 30
0.0
 11
123.871798
 21
223.8637509999998
 31
0.0
  0
LINE
  5
BC61
330
BC32
100
AcDbEntity
  8
1
  6
Continuous
100
AcDbLine
 10
123.8509639999999
 20
162.3633509999999
 30
0.0
 11
127.321798
 21
162.3633509999999
 31
0.0
  0
ARC
  5
BC62
330
BC32
100
AcDbEntity
  8
1
  6
Continuous
100
AcDbCircle
 10
125.371798
 20
169.863351
 30
0.0
 40
1.5
100
AcDbArc
 50
90.0
 51
180.0
  0
ARC
  5
BC63
330
BC32
100
AcDbEntity
  8
1
  6
Continuous
100
AcDbCircle
 10
140.8717979999998
 20
169.863351
 30
0.0
 40
1.5
100
AcDbArc
 50
0.0
 51
90.0
  0
LINE
  5
BC64
330
BC32
100
AcDbEntity
  8
1
  6
Continuous
100
AcDbLine
 10
138.9217979999999
 20
162.3633509999999
 30
0.0
 11
142.3717979999999
 21
162.3633509999999
 31
0.0
  0
LINE
  5
BC65
330
BC32
100
AcDbEntity
  8
4
  6
CENTER
100
AcDbLine
 10
116.871798
 20
165.113351
 30
0.0
 11
153.3717979999998
 21
165.113351
 31
0.0
  0
LINE
  5
BC66
330
BC32
100
AcDbEntity
  8
1
  6
Continuous
100
AcDbLine
 10
147.3717979999999
 20
165.913351
 30
0.0
 11
150.3717979999999
 21
165.913351
 31
0.0
  0
LINE
  5
BC67
330
BC32
100
AcDbEntity
  8
1
  6
Continuous
100
AcDbLine
 10
147.3717979999999
 20
164.313351
 30
0.0
 11
150.3717979999999
 21
164.313351
 31
0.0
  0
LINE
  5
BC68
330
BC32
100
AcDbEntity
  8
1
  6
Continuous
100
AcDbLine
 10
147.3717979999999
 20
164.313351
 30
0.0
 11
147.3717979999999
 21
165.913351
 31
0.0
  0
LINE
  5
BC69
330
BC32
100
AcDbEntity
  8
1
  6
Continuous
100
AcDbLine
 10
150.3717979999999
 20
165.913351
 30
0.0
 11
150.3717979999999
 21
169.886851
 31
0.0
  0
LINE
  5
BC6A
330
BC32
100
AcDbEntity
  8
4
  6
CENTER
100
AcDbLine
 10
222.700474
 20
165.1133889999998
 30
0.0
 11
244.200474
 21
165.1133889999998
 31
0.0
  0
LINE
  5
BC6B
330
BC32
100
AcDbEntity
  8
1
  6
Continuous
100
AcDbLine
 10
228.450474
 20
165.9133889999999
 30
0.0
 11
238.450474
 21
165.9133889999999
 31
0.0
  0
LINE
  5
BC6C
330
BC32
100
AcDbEntity
  8
1
  6
Continuous
100
AcDbLine
 10
228.450474
 20
164.313389
 30
0.0
 11
238.450474
 21
164.313389
 31
0.0
  0
LINE
  5
BC6D
330
BC32
100
AcDbEntity
  8
1
  6
Continuous
100
AcDbLine
 10
239.700474
 20
162.3633889999998
 30
0.0
 11
239.700474
 21
166.495078
 31
0.0
  0
LINE
  5
BC6E
330
BC32
100
AcDbEntity
  8
1
  6
Continuous
100
AcDbLine
 10
227.200474
 20
162.3633889999998
 30
0.0
 11
227.200474
 21
166.495078
 31
0.0
  0
LINE
  5
BC6F
330
BC32
100
AcDbEntity
  8
1
  6
Continuous
100
AcDbLine
 10
226.7830509999999
 20
162.3633889999998
 30
0.0
 11
228.55277
 21
162.3633889999998
 31
0.0
  0
LINE
  5
BC70
330
BC32
100
AcDbEntity
  8
1
  6
Continuous
100
AcDbLine
 10
238.3481779999999
 20
162.3633889999998
 30
0.0
 11
240.117897
 21
162.3633889999998
 31
0.0
  0
ARC
  5
BC71
330
BC32
100
AcDbEntity
  8
1
  6
Continuous
100
AcDbCircle
 10
227.200474
 20
160.8633889999999
 30
0.0
 40
1.5
100
AcDbArc
 50
180.0
 51
260.405932
  0
ARC
  5
BC72
330
BC32
100
AcDbEntity
  8
1
  6
Continuous
100
AcDbCircle
 10
239.700474
 20
160.8633889999999
 30
0.0
 40
1.5
100
AcDbArc
 50
279.594068
 51
0.0
  0
LINE
  5
BC73
330
BC32
100
AcDbEntity
  8
1
  6
Continuous
100
AcDbLine
 10
125.371798
 20
225.3637509999999
 30
0.0
 11
126.121798
 21
225.3637509999999
 31
0.0
  0
LINE
  5
BC74
330
BC32
100
AcDbEntity
  8
1
  6
Continuous
100
AcDbLine
 10
125.371798
 20
212.8637509999999
 30
0.0
 11
126.121798
 21
212.8637509999999
 31
0.0
  0
LINE
  5
BC75
330
BC32
100
AcDbEntity
  8
1
  6
Continuous
100
AcDbLine
 10
140.121798
 20
225.3637509999999
 30
0.0
 11
140.8717979999998
 21
225.3637509999999
 31
0.0
  0
LINE
  5
BC76
330
BC32
100
AcDbEntity
  8
1
  6
Continuous
100
AcDbLine
 10
140.121798
 20
212.8637509999999
 30
0.0
 11
140.8717979999998
 21
212.8637509999999
 31
0.0
  0
LINE
  5
BC77
330
BC32
100
AcDbEntity
  8
1
  6
Continuous
100
AcDbLine
 10
240.3627779999999
 20
160.2819049999999
 30
0.0
 11
239.950474
 21
160.2633509999998
 31
0.0
  0
LINE
  5
BC78
330
BC32
100
AcDbEntity
  8
1
  6
Continuous
100
AcDbLine
 10
226.538171
 20
160.2819049999999
 30
0.0
 11
226.950474
 21
160.2633509999998
 31
0.0
  0
ARC
  5
BC79
330
BC32
100
AcDbEntity
  8
1
  6
Continuous
100
AcDbCircle
 10
140.8717979999998
 20
223.8637509999998
 30
0.0
 40
1.5
100
AcDbArc
 50
0.0
 51
90.0
  0
ARC
  5
BC7A
330
BC32
100
AcDbEntity
  8
1
  6
Continuous
100
AcDbCircle
 10
125.371798
 20
223.8637509999998
 30
0.0
 40
1.5
100
AcDbArc
 50
90.0
 51
180.0
  0
ARC
  5
BC7B
330
BC32
100
AcDbEntity
  8
1
  6
Continuous
100
AcDbCircle
 10
125.371798
 20
214.363751
 30
0.0
 40
1.5
100
AcDbArc
 50
180.0
 51
270.0
  0
ARC
  5
BC7C
330
BC32
100
AcDbEntity
  8
1
  6
Continuous
100
AcDbCircle
 10
140.8717979999998
 20
214.363751
 30
0.0
 40
1.5
100
AcDbArc
 50
270.0
 51
0.0
  0
ARC
  5
BC7D
330
BC32
100
AcDbEntity
  8
1
  6
Continuous
100
AcDbCircle
 10
123.871798
 20
219.1137509999999
 30
0.0
 40
3.0
100
AcDbArc
 50
90.0
 51
270.0
  0
ARC
  5
BC7E
330
BC32
100
AcDbEntity
  8
1
  6
Continuous
100
AcDbCircle
 10
123.8613809999999
 20
165.3633509999998
 30
0.0
 40
3.000017999999998
100
AcDbArc
 50
89.80105700000001
 51
270.1989429999999
  0
LINE
  5
BC7F
330
BC32
100
AcDbEntity
  8
1
  6
Continuous
100
AcDbLine
 10
138.6217979999998
 20
159.363351
 30
0.0
 11
138.9217979999999
 21
162.3633509999999
 31
0.0
  0
LINE
  5
BC80
330
BC32
100
AcDbEntity
  8
1
  6
Continuous
100
AcDbLine
 10
127.321798
 20
162.3633509999999
 30
0.0
 11
127.6217979999999
 21
159.363351
 31
0.0
  0
ARC
  5
BC81
330
BC32
100
AcDbEntity
  8
1
  6
Continuous
100
AcDbCircle
 10
133.1217979999999
 20
158.256685
 30
0.0
 40
7.106666999999997
100
AcDbArc
 50
35.30024799999999
 51
144.6997519999999
  0
LINE
  5
BC82
330
BC32
100
AcDbEntity
  8
1
  6
Continuous
100
AcDbLine
 10
144.3717979999999
 20
159.8633509999999
 30
0.0
 11
144.3717979999999
 21
170.3633509999999
 31
0.0
  0
ARC
  5
BC83
330
BC32
100
AcDbEntity
  8
1
  6
Continuous
100
AcDbCircle
 10
149.3717979999999
 20
169.886851
 30
0.0
 40
1.0
100
AcDbArc
 50
0.0
 51
28.45706
  0
ARC
  5
BC84
330
BC32
100
AcDbEntity
  8
1
  6
Continuous
100
AcDbCircle
 10
149.3717979999999
 20
160.339851
 30
0.0
 40
1.0
100
AcDbArc
 50
331.5429399999998
 51
0.0
  0
LINE
  5
BC85
330
BC32
100
AcDbEntity
  8
1
  6
Continuous
100
AcDbLine
 10
146.345143
 20
167.3633509999999
 30
0.0
 11
148.5717979999998
 21
167.3633509999999
 31
0.0
  0
LINE
  5
BC86
330
BC32
100
AcDbEntity
  8
1
  6
Continuous
100
AcDbLine
 10
146.345143
 20
162.863351
 30
0.0
 11
148.5717979999998
 21
162.863351
 31
0.0
  0
ARC
  5
BC87
330
BC32
100
AcDbEntity
  8
1
  6
Continuous
100
AcDbCircle
 10
147.45847
 20
168.7637189999998
 30
0.0
 40
6.004484999999997
100
AcDbArc
 50
239.065273
 51
259.3146159999998
  0
ARC
  5
BC88
330
BC32
100
AcDbEntity
  8
1
  6
Continuous
100
AcDbCircle
 10
147.45847
 20
161.462984
 30
0.0
 40
6.004484999999997
100
AcDbArc
 50
60.974955
 51
79.314616
  0
ARC
  5
BC89
330
BC32
100
AcDbEntity
  8
1
  6
Continuous
100
AcDbCircle
 10
147.45847
 20
161.462984
 30
0.0
 40
6.004484999999997
100
AcDbArc
 50
100.6853839999999
 51
120.934727
  0
ARC
  5
BC8A
330
BC32
100
AcDbEntity
  8
1
  6
Continuous
100
AcDbCircle
 10
147.45847
 20
168.7637189999998
 30
0.0
 40
6.004484999999997
100
AcDbArc
 50
280.685384
 51
299.0250449999999
  0
LINE
  5
BC8B
330
BC32
100
AcDbEntity
  8
1
  6
Continuous
100
AcDbLine
 10
146.345143
 20
168.663351
 30
0.0
 11
148.5717979999998
 21
168.663351
 31
0.0
  0
LINE
  5
BC8C
330
BC32
100
AcDbEntity
  8
1
  6
Continuous
100
AcDbLine
 10
146.345143
 20
161.563351
 30
0.0
 11
148.5717979999998
 21
161.563351
 31
0.0
  0
ARC
  5
BC8D
330
BC32
100
AcDbEntity
  8
1
  6
Continuous
100
AcDbCircle
 10
147.45847
 20
174.563719
 30
0.0
 40
6.004484999999997
100
AcDbArc
 50
239.065273
 51
259.3146159999998
  0
ARC
  5
BC8E
330
BC32
100
AcDbEntity
  8
1
  6
Continuous
100
AcDbCircle
 10
147.45847
 20
155.662984
 30
0.0
 40
6.004484999999997
100
AcDbArc
 50
60.974955
 51
79.314616
  0
ARC
  5
BC8F
330
BC32
100
AcDbEntity
  8
1
  6
Continuous
100
AcDbCircle
 10
147.45847
 20
155.662984
 30
0.0
 40
6.004484999999997
100
AcDbArc
 50
100.6853839999999
 51
120.934727
  0
ARC
  5
BC90
330
BC32
100
AcDbEntity
  8
1
  6
Continuous
100
AcDbCircle
 10
147.45847
 20
174.563719
 30
0.0
 40
6.004484999999997
100
AcDbArc
 50
280.685384
 51
299.0250449999999
  0
LINE
  5
BC91
330
BC32
100
AcDbEntity
  8
1
  6
Continuous
100
AcDbLine
 10
142.3717979999999
 20
169.6133509999999
 30
0.0
 11
144.3717979999999
 21
169.6133509999999
 31
0.0
  0
LINE
  5
BC92
330
BC32
100
AcDbEntity
  8
1
  6
Continuous
100
AcDbLine
 10
142.3717979999999
 20
160.613351
 30
0.0
 11
144.3717979999999
 21
160.613351
 31
0.0
  0
ARC
  5
BC93
330
BC32
100
AcDbEntity
  8
1
  6
Continuous
100
AcDbCircle
 10
147.311385
 20
166.337545
 30
0.0
 40
7.110299
100
AcDbArc
 50
245.5797249999998
 51
254.238518
  0
ARC
  5
BC94
330
BC32
100
AcDbEntity
  8
1
  6
Continuous
100
AcDbCircle
 10
147.311385
 20
163.889158
 30
0.0
 40
7.110299
100
AcDbArc
 50
65.57972499999999
 51
74.24076499999998
  0
ARC
  5
BC95
330
BC32
100
AcDbEntity
  8
1
  6
Continuous
100
AcDbCircle
 10
147.311385
 20
163.889158
 30
0.0
 40
7.110299
100
AcDbArc
 50
105.7592349999999
 51
114.420275
  0
ARC
  5
BC96
330
BC32
100
AcDbEntity
  8
1
  6
Continuous
100
AcDbCircle
 10
147.311385
 20
166.337545
 30
0.0
 40
7.110299
100
AcDbArc
 50
285.761482
 51
294.420275
  0
LINE
  5
BC97
330
BC32
100
AcDbEntity
  8
1
  6
Continuous
100
AcDbLine
 10
142.3717979999999
 20
223.6137509999998
 30
0.0
 11
144.3717979999999
 21
223.6137509999998
 31
0.0
  0
LINE
  5
BC98
330
BC32
100
AcDbEntity
  8
1
  6
Continuous
100
AcDbLine
 10
142.3717979999999
 20
214.6137509999999
 30
0.0
 11
144.3717979999999
 21
214.6137509999999
 31
0.0
  0
LINE
  5
BC99
330
BC32
100
AcDbEntity
  8
1
  6
Continuous
100
AcDbLine
 10
144.3717979999999
 20
214.1137509999999
 30
0.0
 11
144.3717979999999
 21
224.1137509999998
 31
0.0
  0
LINE
  5
BC9A
330
BC32
100
AcDbEntity
  8
1
  6
Continuous
100
AcDbLine
 10
144.3717979999999
 20
224.1137509999998
 30
0.0
 11
149.3717979999999
 21
224.1137509999998
 31
0.0
  0
LINE
  5
BC9B
330
BC32
100
AcDbEntity
  8
1
  6
Continuous
100
AcDbLine
 10
144.3717979999999
 20
214.1137509999999
 30
0.0
 11
149.3717979999999
 21
214.1137509999999
 31
0.0
  0
LINE
  5
BC9C
330
BC32
100
AcDbEntity
  8
1
  6
Continuous
100
AcDbLine
 10
150.3717979999999
 20
215.1137509999998
 30
0.0
 11
150.3717979999999
 21
223.1137509999999
 31
0.0
  0
LINE
  5
BC9D
330
BC32
100
AcDbEntity
  8
1
  6
Continuous
100
AcDbLine
 10
146.6109279999998
 20
219.6137509999998
 30
0.0
 11
148.5717979999998
 21
219.6137509999998
 31
0.0
  0
LINE
  5
BC9E
330
BC32
100
AcDbEntity
  8
1
  6
Continuous
100
AcDbLine
 10
146.6109279999998
 20
218.613751
 30
0.0
 11
148.5717979999998
 21
218.613751
 31
0.0
  0
ARC
  5
BC9F
330
BC32
100
AcDbEntity
  8
1
  6
Continuous
100
AcDbCircle
 10
147.5913629999998
 20
223.4985339999998
 30
0.0
 40
4.006592999999998
100
AcDbArc
 50
216.5279299999999
 51
255.8355779999999
  0
ARC
  5
BCA0
330
BC32
100
AcDbEntity
  8
1
  6
Continuous
100
AcDbCircle
 10
147.5913629999998
 20
214.728969
 30
0.0
 40
4.006592999999998
100
AcDbArc
 50
46.05521399999997
 51
75.835578
  0
ARC
  5
BCA1
330
BC32
100
AcDbEntity
  8
1
  6
Continuous
100
AcDbCircle
 10
147.5913629999998
 20
223.4985339999998
 30
0.0
 40
4.006592999999998
100
AcDbArc
 50
284.164422
 51
313.9447859999999
  0
ARC
  5
BCA2
330
BC32
100
AcDbEntity
  8
1
  6
Continuous
100
AcDbCircle
 10
147.5913629999998
 20
214.728969
 30
0.0
 40
4.006592999999998
100
AcDbArc
 50
104.164422
 51
143.4720699999998
  0
ARC
  5
BCA3
330
BC32
100
AcDbEntity
  8
1
  6
Continuous
100
AcDbCircle
 10
149.3717979999999
 20
223.1137509999999
 30
0.0
 40
1.0
100
AcDbArc
 50
0.0
 51
90.0
  0
ARC
  5
BCA4
330
BC32
100
AcDbEntity
  8
1
  6
Continuous
100
AcDbCircle
 10
149.3717979999999
 20
215.1137509999998
 30
0.0
 40
1.0
100
AcDbArc
 50
270.0
 51
0.0
  0
ARC
  5
BCA5
330
BC32
100
AcDbEntity
  8
1
  6
Continuous
100
AcDbCircle
 10
147.7361209999999
 20
218.3035939999999
 30
0.0
 40
5.869947999999999
100
AcDbArc
 50
64.77410899999999
 51
81.81526300000001
  0
ARC
  5
BCA6
330
BC32
100
AcDbEntity
  8
1
  6
Continuous
100
AcDbCircle
 10
147.7361209999999
 20
219.9239089999999
 30
0.0
 40
5.869947999999999
100
AcDbArc
 50
235.030267
 51
261.815263
  0
ARC
  5
BCA7
330
BC32
100
AcDbEntity
  8
1
  6
Continuous
100
AcDbCircle
 10
147.7361209999999
 20
218.3035939999999
 30
0.0
 40
5.869947999999999
100
AcDbArc
 50
98.184737
 51
124.969733
  0
ARC
  5
BCA8
330
BC32
100
AcDbEntity
  8
1
  6
Continuous
100
AcDbCircle
 10
147.7361209999999
 20
219.9239089999999
 30
0.0
 40
5.869947999999999
100
AcDbArc
 50
278.1847369999999
 51
295.225891
  0
ARC
  5
BCA9
330
BC32
100
AcDbEntity
  8
1
  6
Continuous
100
AcDbCircle
 10
233.450474
 20
165.1133889999998
 30
0.0
 40
4.5
100
AcDbArc
 50
190.240348
 51
349.759652
  0
ARC
  5
BCAA
330
BC32
100
AcDbEntity
  8
1
  6
Continuous
100
AcDbCircle
 10
233.450474
 20
165.1133889999998
 30
0.0
 40
4.5
100
AcDbArc
 50
10.24034799999999
 51
169.7596519999999
  0
LINE
  5
BCAB
330
BC32
100
AcDbEntity
  8
1
  6
Continuous
100
AcDbLine
 10
241.2004739999999
 20
160.8633889999999
 30
0.0
 11
240.591624
 21
166.038613
 31
0.0
  0
LINE
  5
BCAC
330
BC32
100
AcDbEntity
  8
1
  6
Continuous
100
AcDbLine
 10
225.700474
 20
160.8633889999999
 30
0.0
 11
226.309324
 21
166.038613
 31
0.0
  0
LINE
  5
BCAD
330
BC32
100
AcDbEntity
  8
1
  6
Continuous
100
AcDbLine
 10
226.538171
 20
160.2819049999999
 30
0.0
 11
226.7830509999999
 21
162.3633889999998
 31
0.0
  0
LINE
  5
BCAE
330
BC32
100
AcDbEntity
  8
1
  6
Continuous
100
AcDbLine
 10
240.3627779999999
 20
160.2819049999999
 30
0.0
 11
240.117897
 21
162.3633889999998
 31
0.0
  0
LINE
  5
BCAF
330
BC32
100
AcDbEntity
  8
1
  6
Continuous
100
AcDbLine
 10
149.242511
 20
170.732192
 30
0.0
 11
145.380259
 21
170.732192
 31
0.0
  0
LINE
  5
BCB0
330
BC32
100
AcDbEntity
  8
1
  6
Continuous
100
AcDbLine
 10
149.242779
 20
159.494587
 30
0.0
 11
145.3799909999998
 21
159.494587
 31
0.0
  0
ARC
  5
BCB1
330
BC32
100
AcDbEntity
  8
1
  6
Continuous
100
AcDbCircle
 10
233.450474
 20
164.917269
 30
0.0
 40
6.446082999999998
100
AcDbArc
 50
14.168254
 51
165.831746
  0
ARC
  5
BCB2
330
BC32
100
AcDbEntity
  8
1
  6
Continuous
100
AcDbCircle
 10
227.79905
 20
165.863351
 30
0.0
 40
1.5
100
AcDbArc
 50
102.599855
 51
173.2901629999998
  0
ARC
  5
BCB3
330
BC32
100
AcDbEntity
  8
1
  6
Continuous
100
AcDbCircle
 10
239.101898
 20
165.863351
 30
0.0
 40
1.5
100
AcDbArc
 50
6.709836999999998
 51
77.40014499999998
  0
LINE
  5
BCB4
330
BC32
100
AcDbEntity
  8
1
  6
Continuous
100
AcDbLine
 10
226.950474
 20
161.508389
 30
0.0
 11
229.6945169999999
 21
161.508389
 31
0.0
  0
LINE
  5
BCB5
330
BC32
100
AcDbEntity
  8
1
  6
Continuous
100
AcDbLine
 10
239.950474
 20
96.51493000000002
 30
0.0
 11
239.950474
 21
161.508389
 31
0.0
  0
LINE
  5
BCB6
330
BC32
100
AcDbEntity
  8
1
  6
Continuous
100
AcDbLine
 10
226.950474
 20
96.51493000000002
 30
0.0
 11
226.950474
 21
161.508389
 31
0.0
  0
LINE
  5
BCB7
330
BC32
100
AcDbEntity
  8
1
  6
Continuous
100
AcDbLine
 10
237.206431
 20
161.508389
 30
0.0
 11
239.950474
 21
161.508389
 31
0.0
  0
LINE
  5
BCB8
330
BC32
100
AcDbEntity
  8
1
  6
Continuous
100
AcDbLine
 10
100.5
 20
225.6137509999998
 30
0.0
 11
126.321798
 21
225.6137509999998
 31
0.0
  0
LINE
  5
BCB9
330
BC32
100
AcDbEntity
  8
1
  6
Continuous
100
AcDbLine
 10
100.5
 20
212.6137509999999
 30
0.0
 11
126.321798
 21
212.6137509999999
 31
0.0
  0
LINE
  5
BCBA
330
BC32
100
AcDbEntity
  8
1
  6
Continuous
100
AcDbLine
 10
139.9217979999999
 20
225.6137509999998
 30
0.0
 11
165.700471
 21
225.6137509999998
 31
0.0
  0
LINE
  5
BCBB
330
BC32
100
AcDbEntity
  8
1
  6
Continuous
100
AcDbLine
 10
139.9217979999999
 20
212.6137509999999
 30
0.0
 11
165.700471
 21
212.6137509999999
 31
0.0
  0
LINE
  5
BCBC
330
BC32
100
AcDbEntity
  8
4
  6
CENTER
100
AcDbLine
 10
22.0
 20
165.098838
 30
0.0
 11
43.5
 21
165.098838
 31
0.0
  0
LINE
  5
BCBD
330
BC32
100
AcDbEntity
  8
4
  6
CENTER
100
AcDbLine
 10
32.75
 20
86.50037899999999
 30
0.0
 11
32.75
 21
174.348838
 31
0.0
  0
ARC
  5
BCBE
330
BC32
100
AcDbEntity
  8
1
  6
Continuous
100
AcDbCircle
 10
32.75
 20
164.902717
 30
0.0
 40
6.446082999999998
100
AcDbArc
 50
14.168254
 51
165.831746
  0
LINE
  5
BCBF
330
BC32
100
AcDbEntity
  8
1
  6
Continuous
100
AcDbLine
 10
39.25
 20
96.500379
 30
0.0
 11
39.25
 21
161.4938379999999
 31
0.0
  0
LINE
  5
BCC0
330
BC32
100
AcDbEntity
  8
1
  6
Continuous
100
AcDbLine
 10
26.25
 20
96.500379
 30
0.0
 11
26.25
 21
161.4938379999999
 31
0.0
  0
ARC
  5
BCC1
330
BC32
100
AcDbEntity
  8
1
  6
Continuous
100
AcDbCircle
 10
26.5
 20
160.848838
 30
0.0
 40
1.5
100
AcDbArc
 50
180.0
 51
260.405932
  0
LINE
  5
BCC2
330
BC32
100
AcDbEntity
  8
1
  6
Continuous
100
AcDbLine
 10
25.0
 20
160.848838
 30
0.0
 11
25.60885
 21
166.0240619999999
 31
0.0
  0
ARC
  5
BCC3
330
BC32
100
AcDbEntity
  8
1
  6
Continuous
100
AcDbCircle
 10
27.098576
 20
165.8488
 30
0.0
 40
1.5
100
AcDbArc
 50
102.599855
 51
173.2901629999998
  0
LINE
  5
BCC4
330
BC32
100
AcDbEntity
  8
1
  6
Continuous
100
AcDbLine
 10
39.0
 20
162.3488379999998
 30
0.0
 11
39.0
 21
166.480526
 31
0.0
  0
LINE
  5
BCC5
330
BC32
100
AcDbEntity
  8
1
  6
Continuous
100
AcDbLine
 10
37.68761400000001
 20
162.3488379999998
 30
0.0
 11
39.41742299999999
 21
162.3488379999998
 31
0.0
  0
ARC
  5
BCC6
330
BC32
100
AcDbEntity
  8
1
  6
Continuous
100
AcDbCircle
 10
39.0
 20
160.848838
 30
0.0
 40
1.5
100
AcDbArc
 50
279.594068
 51
0.0
  0
LINE
  5
BCC7
330
BC32
100
AcDbEntity
  8
1
  6
Continuous
100
AcDbLine
 10
39.662304
 20
160.267354
 30
0.0
 11
39.25
 21
160.2487999999999
 31
0.0
  0
LINE
  5
BCC8
330
BC32
100
AcDbEntity
  8
1
  6
Continuous
100
AcDbLine
 10
40.49999999999999
 20
160.848838
 30
0.0
 11
39.89115
 21
166.0240619999999
 31
0.0
  0
LINE
  5
BCC9
330
BC32
100
AcDbEntity
  8
1
  6
Continuous
100
AcDbLine
 10
39.662304
 20
160.267354
 30
0.0
 11
39.41742299999999
 21
162.3488379999998
 31
0.0
  0
ARC
  5
BCCA
330
BC32
100
AcDbEntity
  8
1
  6
Continuous
100
AcDbCircle
 10
38.40142399999999
 20
165.8488
 30
0.0
 40
1.5
100
AcDbArc
 50
6.709836999999998
 51
77.40014499999998
  0
LINE
  5
BCCB
330
BC32
100
AcDbEntity
  8
1
  6
Continuous
100
AcDbLine
 10
26.5
 20
162.3488379999998
 30
0.0
 11
26.5
 21
166.480526
 31
0.0
  0
LINE
  5
BCCC
330
BC32
100
AcDbEntity
  8
1
  6
Continuous
100
AcDbLine
 10
25.837696
 20
160.267354
 30
0.0
 11
26.25
 21
160.2487999999999
 31
0.0
  0
LINE
  5
BCCD
330
BC32
100
AcDbEntity
  8
1
  6
Continuous
100
AcDbLine
 10
25.837696
 20
160.267354
 30
0.0
 11
26.082577
 21
162.3488379999998
 31
0.0
  0
LINE
  5
BCCE
330
BC32
100
AcDbEntity
  8
1
  6
Continuous
100
AcDbLine
 10
26.082577
 20
162.3488379999998
 30
0.0
 11
27.812386
 21
162.3488379999998
 31
0.0
  0
LINE
  5
BCCF
330
BC32
100
AcDbEntity
  8
1
  6
Continuous
100
AcDbLine
 10
26.25
 20
161.4938379999999
 30
0.0
 11
39.25
 21
161.4938379999999
 31
0.0
  0
CIRCLE
  5
BCD0
330
BC32
100
AcDbEntity
  8
1
  6
Continuous
100
AcDbCircle
 10
32.75
 20
165.3488
 30
0.0
 40
3.0
  0
LINE
  5
BCD1
330
BC32
100
AcDbEntity
  8
1
  6
Continuous
100
AcDbLine
 10
29.76504099999999
 20
165.6488379999998
 30
0.0
 11
28.74612899999998
 21
162.990892
 31
0.0
  0
LINE
  5
BCD2
330
BC32
100
AcDbEntity
  8
1
  6
Continuous
100
AcDbLine
 10
35.73495900000001
 20
165.6488379999998
 30
0.0
 11
36.753871
 21
162.990892
 31
0.0
  0
ARC
  5
BCD3
330
BC32
100
AcDbEntity
  8
1
  6
Continuous
100
AcDbCircle
 10
37.68761400000001
 20
163.348838
 30
0.0
 40
1.0
100
AcDbArc
 50
200.9741219999999
 51
270.0
  0
ARC
  5
BCD4
330
BC32
100
AcDbEntity
  8
1
  6
Continuous
100
AcDbCircle
 10
27.812386
 20
163.348838
 30
0.0
 40
1.0
100
AcDbArc
 50
270.0
 51
339.0258779999999
  0
LINE
  5
BCD5
330
BC32
100
AcDbEntity
  8
4
  6
CENTER
100
AcDbLine
 10
133.1217979999999
 20
38.014551
 30
0.0
 11
133.1217979999999
 21
59.514551
 31
0.0
  0
LINE
  5
BCD6
330
BC32
100
AcDbEntity
  8
1
  6
Continuous
100
AcDbLine
 10
100.5000059999999
 20
42.26455099999999
 30
0.0
 11
165.700477
 21
42.26455099999999
 31
0.0
  0
LINE
  5
BCD7
330
BC32
100
AcDbEntity
  8
1
  6
Continuous
100
AcDbLine
 10
100.5000059999999
 20
55.26455099999999
 30
0.0
 11
165.700477
 21
55.26455099999999
 31
0.0
  0
LINE
  5
BCD8
330
BC32
100
AcDbEntity
  8
4
  6
CENTER
100
AcDbLine
 10
90.50000600000002
 20
48.76455100000001
 30
0.0
 11
175.7004769999998
 21
48.76455100000001
 31
0.0
  0
LINE
  5
BCD9
330
BC32
100
AcDbEntity
  8
1
  6
Continuous
100
AcDbLine
 10
127.321798
 20
56.51455099999999
 30
0.0
 11
138.9217979999999
 21
56.51455099999999
 31
0.0
  0
LINE
  5
BCDA
330
BC32
100
AcDbEntity
  8
1
  6
Continuous
100
AcDbLine
 10
33.040523
 20
137.4955219999999
 30
0.0
 11
35.6
 21
137.4955219999999
 31
0.0
  0
ARC
  5
BCDB
330
BC32
100
AcDbEntity
  8
1
  6
Continuous
100
AcDbCircle
 10
35.6
 20
137.795522
 30
0.0
 40
0.3
100
AcDbArc
 50
270.0
 51
90.0
  0
ARC
  5
BCDC
330
BC32
100
AcDbEntity
  8
1
  6
Continuous
100
AcDbCircle
 10
29.9
 20
138.395522
 30
0.0
 40
0.3
100
AcDbArc
 50
90.0
 51
270.0
  0
LINE
  5
BCDD
330
BC32
100
AcDbEntity
  8
1
  6
Continuous
100
AcDbLine
 10
29.9
 20
138.0955219999999
 30
0.0
 11
32.745554
 21
137.524811
 31
0.0
  0
LINE
  5
BCDE
330
BC32
100
AcDbEntity
  8
1
  6
Continuous
100
AcDbLine
 10
35.6
 20
138.0955219999999
 30
0.0
 11
29.9
 21
138.695522
 31
0.0
  0
ARC
  5
BCDF
330
BC32
100
AcDbEntity
  8
1
  6
Continuous
100
AcDbCircle
 10
33.040523
 20
138.995522
 30
0.0
 40
1.5
100
AcDbArc
 50
258.6590749999999
 51
270.0
  0
LINE
  5
BCE0
330
BC32
100
AcDbEntity
  8
1
  6
Continuous
100
AcDbLine
 10
35.6
 20
140.4955219999999
 30
0.0
 11
29.9
 21
141.0955219999999
 31
0.0
  0
ARC
  5
BCE1
330
BC32
100
AcDbEntity
  8
1
  6
Continuous
100
AcDbCircle
 10
35.6
 20
140.195522
 30
0.0
 40
0.3
100
AcDbArc
 50
270.0
 51
90.0
  0
LINE
  5
BCE2
330
BC32
100
AcDbEntity
  8
1
  6
Continuous
100
AcDbLine
 10
33.040523
 20
139.8955219999998
 30
0.0
 11
35.6
 21
139.8955219999998
 31
0.0
  0
ARC
  5
BCE3
330
BC32
100
AcDbEntity
  8
1
  6
Continuous
100
AcDbCircle
 10
33.040523
 20
141.395522
 30
0.0
 40
1.5
100
AcDbArc
 50
258.6590749999999
 51
270.0
  0
LINE
  5
BCE4
330
BC32
100
AcDbEntity
  8
1
  6
Continuous
100
AcDbLine
 10
29.9
 20
140.4955219999999
 30
0.0
 11
32.745554
 21
139.924811
 31
0.0
  0
ARC
  5
BCE5
330
BC32
100
AcDbEntity
  8
1
  6
Continuous
100
AcDbCircle
 10
29.9
 20
140.795522
 30
0.0
 40
0.3
100
AcDbArc
 50
90.0
 51
270.0
  0
LINE
  5
BCE6
330
BC32
100
AcDbEntity
  8
1
  6
Continuous
100
AcDbLine
 10
35.6
 20
159.695522
 30
0.0
 11
29.9
 21
160.295522
 31
0.0
  0
ARC
  5
BCE7
330
BC32
100
AcDbEntity
  8
1
  6
Continuous
100
AcDbCircle
 10
35.6
 20
159.3955219999998
 30
0.0
 40
0.3
100
AcDbArc
 50
318.189685
 51
90.0
  0
ARC
  5
BCE8
330
BC32
100
AcDbEntity
  8
1
  6
Continuous
100
AcDbCircle
 10
29.9
 20
159.995522
 30
0.0
 40
0.3
100
AcDbArc
 50
90.0
 51
208.985474
  0
LINE
  5
BCE9
330
BC32
100
AcDbEntity
  8
1
  6
Continuous
100
AcDbLine
 10
127.4960469999999
 20
160.6208559999998
 30
0.0
 11
122.4658379999999
 21
157.5623889999999
 31
0.0
  0
LINE
  5
BCEA
330
BC32
100
AcDbEntity
  8
1
  6
Continuous
100
AcDbLine
 10
127.562243
 20
159.9589019999999
 30
0.0
 11
122.7775529999999
 21
157.0497159999999
 31
0.0
  0
LINE
  5
BCEB
330
BC32
100
AcDbEntity
  8
1
  6
Continuous
100
AcDbLine
 10
122.4658379999999
 20
157.5623889999999
 30
0.0
 11
122.7775529999999
 21
157.0497159999999
 31
0.0
  0
LINE
  5
BCEC
330
BC32
100
AcDbEntity
  8
1
  6
Continuous
100
AcDbLine
 10
123.7475199999998
 20
158.341677
 30
0.0
 11
124.059235
 21
157.8290039999999
 31
0.0
  0
LINE
  5
BCED
330
BC32
100
AcDbEntity
  8
1
  6
Continuous
100
AcDbLine
 10
35.6
 20
135.695522
 30
0.0
 11
29.9
 21
136.295522
 31
0.0
  0
LINE
  5
BCEE
330
BC32
100
AcDbEntity
  8
1
  6
Continuous
100
AcDbLine
 10
33.040523
 20
135.0955219999999
 30
0.0
 11
35.6
 21
135.0955219999999
 31
0.0
  0
ARC
  5
BCEF
330
BC32
100
AcDbEntity
  8
1
  6
Continuous
100
AcDbCircle
 10
35.6
 20
135.395522
 30
0.0
 40
0.3
100
AcDbArc
 50
270.0
 51
90.0
  0
ARC
  5
BCF0
330
BC32
100
AcDbEntity
  8
1
  6
Continuous
100
AcDbCircle
 10
33.040523
 20
136.5955219999999
 30
0.0
 40
1.5
100
AcDbArc
 50
258.6590749999999
 51
270.0
  0
LINE
  5
BCF1
330
BC32
100
AcDbEntity
  8
1
  6
Continuous
100
AcDbLine
 10
29.9
 20
135.695522
 30
0.0
 11
32.745554
 21
135.124811
 31
0.0
  0
ARC
  5
BCF2
330
BC32
100
AcDbEntity
  8
1
  6
Continuous
100
AcDbCircle
 10
29.9
 20
135.995522
 30
0.0
 40
0.3
100
AcDbArc
 50
90.0
 51
270.0
  0
ARC
  5
BCF3
330
BC32
100
AcDbEntity
  8
1
  6
Continuous
100
AcDbCircle
 10
35.6
 20
132.9955219999999
 30
0.0
 40
0.3
100
AcDbArc
 50
270.0
 51
90.0
  0
LINE
  5
BCF4
330
BC32
100
AcDbEntity
  8
1
  6
Continuous
100
AcDbLine
 10
33.040523
 20
132.695522
 30
0.0
 11
35.6
 21
132.695522
 31
0.0
  0
LINE
  5
BCF5
330
BC32
100
AcDbEntity
  8
1
  6
Continuous
100
AcDbLine
 10
35.6
 20
133.295522
 30
0.0
 11
29.9
 21
133.895522
 31
0.0
  0
ARC
  5
BCF6
330
BC32
100
AcDbEntity
  8
1
  6
Continuous
100
AcDbCircle
 10
33.040523
 20
134.195522
 30
0.0
 40
1.5
100
AcDbArc
 50
258.6590749999999
 51
270.0
  0
LINE
  5
BCF7
330
BC32
100
AcDbEntity
  8
1
  6
Continuous
100
AcDbLine
 10
29.9
 20
133.295522
 30
0.0
 11
32.745554
 21
132.7248109999999
 31
0.0
  0
ARC
  5
BCF8
330
BC32
100
AcDbEntity
  8
1
  6
Continuous
100
AcDbCircle
 10
29.9
 20
133.5955219999999
 30
0.0
 40
0.3
100
AcDbArc
 50
90.0
 51
270.0
  0
LINE
  5
BCF9
330
BC32
100
AcDbEntity
  8
1
  6
Continuous
100
AcDbLine
 10
35.6
 20
130.895522
 30
0.0
 11
29.9
 21
131.4955219999999
 31
0.0
  0
LINE
  5
BCFA
330
BC32
100
AcDbEntity
  8
1
  6
Continuous
100
AcDbLine
 10
33.040523
 20
130.295522
 30
0.0
 11
35.6
 21
130.295522
 31
0.0
  0
ARC
  5
BCFB
330
BC32
100
AcDbEntity
  8
1
  6
Continuous
100
AcDbCircle
 10
35.6
 20
130.5955219999999
 30
0.0
 40
0.3
100
AcDbArc
 50
270.0
 51
90.0
  0
ARC
  5
BCFC
330
BC32
100
AcDbEntity
  8
1
  6
Continuous
100
AcDbCircle
 10
33.040523
 20
131.7955219999997
 30
0.0
 40
1.5
100
AcDbArc
 50
258.6590749999999
 51
270.0
  0
LINE
  5
BCFD
330
BC32
100
AcDbEntity
  8
1
  6
Continuous
100
AcDbLine
 10
29.9
 20
130.895522
 30
0.0
 11
32.745554
 21
130.324811
 31
0.0
  0
ARC
  5
BCFE
330
BC32
100
AcDbEntity
  8
1
  6
Continuous
100
AcDbCircle
 10
29.9
 20
131.195522
 30
0.0
 40
0.3
100
AcDbArc
 50
90.0
 51
270.0
  0
LINE
  5
BCFF
330
BC32
100
AcDbEntity
  8
1
  6
Continuous
100
AcDbLine
 10
35.6
 20
128.495522
 30
0.0
 11
29.9
 21
129.0955219999998
 31
0.0
  0
LINE
  5
BD00
330
BC32
100
AcDbEntity
  8
1
  6
Continuous
100
AcDbLine
 10
29.9
 20
128.495522
 30
0.0
 11
32.745554
 21
127.924811
 31
0.0
  0
LINE
  5
BD01
330
BC32
100
AcDbEntity
  8
1
  6
Continuous
100
AcDbLine
 10
33.040523
 20
127.895522
 30
0.0
 11
35.6
 21
127.895522
 31
0.0
  0
ARC
  5
BD02
330
BC32
100
AcDbEntity
  8
1
  6
Continuous
100
AcDbCircle
 10
35.6
 20
128.195522
 30
0.0
 40
0.3
100
AcDbArc
 50
270.0
 51
90.0
  0
ARC
  5
BD03
330
BC32
100
AcDbEntity
  8
1
  6
Continuous
100
AcDbCircle
 10
33.040523
 20
129.3955219999998
 30
0.0
 40
1.5
100
AcDbArc
 50
258.6590749999999
 51
270.0
  0
ARC
  5
BD04
330
BC32
100
AcDbEntity
  8
1
  6
Continuous
100
AcDbCircle
 10
29.9
 20
128.795522
 30
0.0
 40
0.3
100
AcDbArc
 50
90.0
 51
270.0
  0
ARC
  5
BD05
330
BC32
100
AcDbEntity
  8
1
  6
Continuous
100
AcDbCircle
 10
33.040523
 20
126.9955219999998
 30
0.0
 40
1.5
100
AcDbArc
 50
258.6590749999999
 51
270.0
  0
ARC
  5
BD06
330
BC32
100
AcDbEntity
  8
1
  6
Continuous
100
AcDbCircle
 10
35.6
 20
125.7955219999999
 30
0.0
 40
0.3
100
AcDbArc
 50
270.0
 51
90.0
  0
LINE
  5
BD07
330
BC32
100
AcDbEntity
  8
1
  6
Continuous
100
AcDbLine
 10
33.040523
 20
125.495522
 30
0.0
 11
35.6
 21
125.495522
 31
0.0
  0
LINE
  5
BD08
330
BC32
100
AcDbEntity
  8
1
  6
Continuous
100
AcDbLine
 10
35.6
 20
126.095522
 30
0.0
 11
29.9
 21
126.695522
 31
0.0
  0
LINE
  5
BD09
330
BC32
100
AcDbEntity
  8
1
  6
Continuous
100
AcDbLine
 10
29.9
 20
126.095522
 30
0.0
 11
32.745554
 21
125.524811
 31
0.0
  0
ARC
  5
BD0A
330
BC32
100
AcDbEntity
  8
1
  6
Continuous
100
AcDbCircle
 10
29.9
 20
126.3955219999999
 30
0.0
 40
0.3
100
AcDbArc
 50
90.0
 51
270.0
  0
LINE
  5
BD0B
330
BC32
100
AcDbEntity
  8
1
  6
Continuous
100
AcDbLine
 10
35.6
 20
123.695522
 30
0.0
 11
29.9
 21
124.295522
 31
0.0
  0
LINE
  5
BD0C
330
BC32
100
AcDbEntity
  8
1
  6
Continuous
100
AcDbLine
 10
33.040523
 20
123.095522
 30
0.0
 11
35.6
 21
123.095522
 31
0.0
  0
ARC
  5
BD0D
330
BC32
100
AcDbEntity
  8
1
  6
Continuous
100
AcDbCircle
 10
35.6
 20
123.395522
 30
0.0
 40
0.3
100
AcDbArc
 50
270.0
 51
90.0
  0
ARC
  5
BD0E
330
BC32
100
AcDbEntity
  8
1
  6
Continuous
100
AcDbCircle
 10
33.040523
 20
124.595522
 30
0.0
 40
1.5
100
AcDbArc
 50
258.6590749999999
 51
270.0
  0
LINE
  5
BD0F
330
BC32
100
AcDbEntity
  8
1
  6
Continuous
100
AcDbLine
 10
29.9
 20
123.695522
 30
0.0
 11
32.745554
 21
123.1248109999999
 31
0.0
  0
ARC
  5
BD10
330
BC32
100
AcDbEntity
  8
1
  6
Continuous
100
AcDbCircle
 10
29.9
 20
123.9955219999998
 30
0.0
 40
0.3
100
AcDbArc
 50
90.0
 51
270.0
  0
LINE
  5
BD11
330
BC32
100
AcDbEntity
  8
1
  6
Continuous
100
AcDbLine
 10
138.9217979999999
 20
56.51455099999999
 30
0.0
 11
138.9217979999999
 21
55.26455099999999
 31
0.0
  0
LINE
  5
BD12
330
BC32
100
AcDbEntity
  8
1
  6
Continuous
100
AcDbLine
 10
127.321798
 20
56.51455099999999
 30
0.0
 11
127.321798
 21
55.26455099999999
 31
0.0
  0
LINE
  5
BD13
330
BC32
100
AcDbEntity
  8
1
  6
Continuous
100
AcDbLine
 10
138.9217979999999
 20
42.26455099999999
 30
0.0
 11
138.9217979999999
 21
41.01455099999999
 31
0.0
  0
LINE
  5
BD14
330
BC32
100
AcDbEntity
  8
1
  6
Continuous
100
AcDbLine
 10
127.321798
 20
42.26455099999999
 30
0.0
 11
127.321798
 21
41.01455099999999
 31
0.0
  0
ARC
  5
BD15
330
BC32
100
AcDbEntity
  8
5
  6
PHANTOM
100
AcDbCircle
 10
133.323239
 20
133.1791689999998
 30
0.0
 40
28.000239
100
AcDbArc
 50
102.000579
 51
40.600307
  0
ARC
  5
BD16
330
BC32
100
AcDbEntity
  8
1
  6
Continuous
100
AcDbCircle
 10
133.1002389999998
 20
129.1151689999999
 30
0.0
 40
32.000239
100
AcDbArc
 50
100.086205
 51
48.70978800000001
  0
ARC
  5
BD17
330
BC32
100
AcDbEntity
  8
5
  6
PHANTOM
100
AcDbCircle
 10
133.323239
 20
133.1791689999998
 30
0.0
 40
28.60023899999999
100
AcDbArc
 50
101.868106
 51
40.639053
  0
ARC
  5
BD18
330
BC32
100
AcDbEntity
  8
5
  6
PHANTOM
100
AcDbCircle
 10
133.323239
 20
133.1791689999998
 30
0.0
 40
29.200239
100
AcDbArc
 50
354.4185909999998
 51
40.67625999999999
  0
ARC
  5
BD19
330
BC32
100
AcDbEntity
  8
1
  6
Continuous
100
AcDbCircle
 10
133.1002389999998
 20
129.1151689999999
 30
0.0
 40
32.600239
100
AcDbArc
 50
100.0055199999999
 51
48.74379000000002
  0
LINE
  5
BD1A
330
BC32
100
AcDbEntity
  8
4
  6
CENTER
100
AcDbLine
 10
16.25
 20
129.1151689999999
 30
0.0
 11
49.25
 21
129.1151689999999
 31
0.0
  0
LINE
  5
BD1B
330
BC32
100
AcDbEntity
  8
1
  6
Continuous
100
AcDbLine
 10
239.950474
 20
96.51493000000002
 30
0.0
 11
226.950474
 21
96.51493000000002
 31
0.0
  0
LINE
  5
BD1C
330
BC32
100
AcDbEntity
  8
1
  6
Continuous
100
AcDbLine
 10
100.5000059999999
 20
42.26455099999999
 30
0.0
 11
100.5000059999999
 21
55.26455099999999
 31
0.0
  0
LINE
  5
BD1D
330
BC32
100
AcDbEntity
  8
1
  6
Continuous
100
AcDbLine
 10
165.700477
 20
42.26455099999999
 30
0.0
 11
165.700477
 21
55.26455099999999
 31
0.0
  0
LINE
  5
BD1E
330
BC32
100
AcDbEntity
  8
4
  6
CENTER
100
AcDbLine
 10
90.50000199999999
 20
129.12972
 30
0.0
 11
175.700475
 21
129.12972
 31
0.0
  0
LINE
  5
BD1F
330
BC32
100
AcDbEntity
  8
4
  6
CENTER
100
AcDbLine
 10
216.950474
 20
129.12972
 30
0.0
 11
249.950474
 21
129.12972
 31
0.0
  0
LINE
  5
BD20
330
BC32
100
AcDbEntity
  8
1
  6
Continuous
100
AcDbLine
 10
39.25
 20
96.500379
 30
0.0
 11
26.25
 21
96.500379
 31
0.0
  0
LINE
  5
BD21
330
BC32
100
AcDbEntity
  8
1
  6
Continuous
100
AcDbLine
 10
165.700471
 20
225.6137509999998
 30
0.0
 11
165.700471
 21
212.6137509999999
 31
0.0
  0
LINE
  5
BD22
330
BC32
100
AcDbEntity
  8
1
  6
Continuous
100
AcDbLine
 10
100.5
 20
225.6137509999998
 30
0.0
 11
100.5
 21
212.6137509999999
 31
0.0
  0
ARC
  5
BD23
330
BC32
100
AcDbEntity
  8
1
  6
Continuous
100
AcDbCircle
 10
101.6211319999999
 20
51.614551
 30
0.0
 40
0.3
100
AcDbArc
 50
70.528779
 51
180.0
  0
LINE
  5
BD24
330
BC32
100
AcDbEntity
  8
1
  6
Continuous
100
AcDbLine
 10
101.3211319999999
 20
51.614551
 30
0.0
 11
100.7211319999999
 21
45.914551
 31
0.0
  0
ARC
  5
BD25
330
BC32
100
AcDbEntity
  8
1
  6
Continuous
100
AcDbCircle
 10
101.021132
 20
45.914551
 30
0.0
 40
0.3
100
AcDbArc
 50
180.0
 51
276.2840949999999
  0
ARC
  5
BD26
330
BC32
100
AcDbEntity
  8
1
  6
Continuous
100
AcDbCircle
 10
117.0
 20
221.9637509999998
 30
0.0
 40
0.3
100
AcDbArc
 50
347.9819879999998
 51
180.0
  0
LINE
  5
BD27
330
BC32
100
AcDbEntity
  8
1
  6
Continuous
100
AcDbLine
 10
117.2934249999999
 20
221.9012859999998
 30
0.0
 11
116.7
 21
216.2637509999999
 31
0.0
  0
LINE
  5
BD28
330
BC32
100
AcDbEntity
  8
1
  6
Continuous
100
AcDbLine
 10
116.7
 20
221.9637509999998
 30
0.0
 11
116.132175
 21
219.266584
 31
0.0
  0
LINE
  5
BD29
330
BC32
100
AcDbEntity
  8
1
  6
Continuous
100
AcDbLine
 10
116.1
 20
218.957569
 30
0.0
 11
116.1
 21
216.2637509999999
 31
0.0
  0
ARC
  5
BD2A
330
BC32
100
AcDbEntity
  8
1
  6
Continuous
100
AcDbCircle
 10
116.4
 20
216.2637509999999
 30
0.0
 40
0.3
100
AcDbArc
 50
180.0
 51
0.0
  0
ARC
  5
BD2B
330
BC32
100
AcDbEntity
  8
1
  6
Continuous
100
AcDbCircle
 10
117.5999999999998
 20
218.957569
 30
0.0
 40
1.5
100
AcDbArc
 50
168.1113419999998
 51
180.0
  0
ARC
  5
BD2C
330
BC32
100
AcDbEntity
  8
1
  6
Continuous
100
AcDbCircle
 10
119.4
 20
221.9637509999998
 30
0.0
 40
0.3
100
AcDbArc
 50
347.9819879999998
 51
180.0
  0
LINE
  5
BD2D
330
BC32
100
AcDbEntity
  8
1
  6
Continuous
100
AcDbLine
 10
119.6934249999999
 20
221.9012859999998
 30
0.0
 11
119.1
 21
216.2637509999999
 31
0.0
  0
LINE
  5
BD2E
330
BC32
100
AcDbEntity
  8
1
  6
Continuous
100
AcDbLine
 10
119.1
 20
221.9637509999998
 30
0.0
 11
118.5321749999999
 21
219.266584
 31
0.0
  0
LINE
  5
BD2F
330
BC32
100
AcDbEntity
  8
1
  6
Continuous
100
AcDbLine
 10
118.5
 20
218.957569
 30
0.0
 11
118.5
 21
216.2637509999999
 31
0.0
  0
ARC
  5
BD30
330
BC32
100
AcDbEntity
  8
1
  6
Continuous
100
AcDbCircle
 10
118.7999999999999
 20
216.2637509999999
 30
0.0
 40
0.3
100
AcDbArc
 50
180.0
 51
0.0
  0
ARC
  5
BD31
330
BC32
100
AcDbEntity
  8
1
  6
Continuous
100
AcDbCircle
 10
120.0
 20
218.957569
 30
0.0
 40
1.5
100
AcDbArc
 50
168.1113419999998
 51
180.0
  0
ARC
  5
BD32
330
BC32
100
AcDbEntity
  8
1
  6
Continuous
100
AcDbCircle
 10
121.7999999999999
 20
221.9637509999998
 30
0.0
 40
0.3
100
AcDbArc
 50
347.9819879999998
 51
180.0
  0
LINE
  5
BD33
330
BC32
100
AcDbEntity
  8
1
  6
Continuous
100
AcDbLine
 10
122.0934249999999
 20
221.9012859999998
 30
0.0
 11
122.050973
 21
221.497991
 31
0.0
  0
LINE
  5
BD34
330
BC32
100
AcDbEntity
  8
1
  6
Continuous
100
AcDbLine
 10
121.5
 20
221.9637509999998
 30
0.0
 11
121.1779629999999
 21
220.434075
 31
0.0
  0
LINE
  5
BD35
330
BC32
100
AcDbEntity
  8
1
  6
Continuous
100
AcDbLine
 10
120.9
 20
218.703362
 30
0.0
 11
120.9
 21
216.2637509999999
 31
0.0
  0
ARC
  5
BD36
330
BC32
100
AcDbEntity
  8
1
  6
Continuous
100
AcDbCircle
 10
121.1999999999999
 20
216.2637509999999
 30
0.0
 40
0.3
100
AcDbArc
 50
180.0
 51
0.0
  0
ARC
  5
BD37
330
BC32
100
AcDbEntity
  8
1
  6
Continuous
100
AcDbCircle
 10
123.5999999999998
 20
216.2637509999999
 30
0.0
 40
0.3
100
AcDbArc
 50
199.0993609999999
 51
330.005272
  0
LINE
  5
BD38
330
BC32
100
AcDbEntity
  8
5
  6
PHANTOM
100
AcDbLine
 10
161.7878839999999
 20
130.39751
 30
0.0
 11
162.3850389999998
 21
130.339154
 31
0.0
  0
LINE
  5
BD39
330
BC32
100
AcDbEntity
  8
1
  6
Continuous
100
AcDbLine
 10
154.9790959999999
 20
154.086582
 30
0.0
 11
154.582919
 21
153.6344049999999
 31
0.0
  0
LINE
  5
BD3A
330
BC32
100
AcDbEntity
  8
1
  6
Continuous
100
AcDbLine
 10
33.040523
 20
159.195522
 30
0.0
 11
35.82360700000001
 21
159.195522
 31
0.0
  0
LINE
  5
BD3B
330
BC32
100
AcDbEntity
  8
1
  6
Continuous
100
AcDbLine
 10
29.637577
 20
159.850146
 30
0.0
 11
32.76521799999999
 21
159.222858
 31
0.0
  0
LINE
  5
BD3C
330
BC32
100
AcDbEntity
  8
1
  6
Continuous
100
AcDbLine
 10
32.75
 20
159.2259099999999
 30
0.0
 11
33.040523
 21
159.195522
 31
0.0
  0
ARC
  5
BD3D
330
BC32
100
AcDbEntity
  8
1
  6
Continuous
100
AcDbCircle
 10
35.6
 20
157.825366
 30
0.0
 40
0.3
100
AcDbArc
 50
318.189685
 51
90.0
  0
LINE
  5
BD3E
330
BC32
100
AcDbEntity
  8
1
  6
Continuous
100
AcDbLine
 10
32.75
 20
157.655754
 30
0.0
 11
33.040523
 21
157.6253659999999
 31
0.0
  0
LINE
  5
BD3F
330
BC32
100
AcDbEntity
  8
1
  6
Continuous
100
AcDbLine
 10
33.040523
 20
157.6253659999999
 30
0.0
 11
35.82360700000001
 21
157.6253659999999
 31
0.0
  0
LINE
  5
BD40
330
BC32
100
AcDbEntity
  8
1
  6
Continuous
100
AcDbLine
 10
35.6
 20
158.1253659999999
 30
0.0
 11
29.9
 21
158.7253659999998
 31
0.0
  0
ARC
  5
BD41
330
BC32
100
AcDbEntity
  8
1
  6
Continuous
100
AcDbCircle
 10
29.9
 20
158.4253659999999
 30
0.0
 40
0.3
100
AcDbArc
 50
90.0
 51
208.985474
  0
LINE
  5
BD42
330
BC32
100
AcDbEntity
  8
1
  6
Continuous
100
AcDbLine
 10
29.637577
 20
158.2799899999999
 30
0.0
 11
32.76521799999999
 21
157.652702
 31
0.0
  0
LINE
  5
BD43
330
BC32
100
AcDbEntity
  8
1
  6
Continuous
100
AcDbLine
 10
35.6
 20
156.506144
 30
0.0
 11
29.9
 21
157.106144
 31
0.0
  0
LINE
  5
BD44
330
BC32
100
AcDbEntity
  8
1
  6
Continuous
100
AcDbLine
 10
33.040523
 20
156.006144
 30
0.0
 11
35.82360700000001
 21
156.006144
 31
0.0
  0
LINE
  5
BD45
330
BC32
100
AcDbEntity
  8
1
  6
Continuous
100
AcDbLine
 10
32.75
 20
156.036532
 30
0.0
 11
33.040523
 21
156.006144
 31
0.0
  0
ARC
  5
BD46
330
BC32
100
AcDbEntity
  8
1
  6
Continuous
100
AcDbCircle
 10
35.6
 20
156.2061439999999
 30
0.0
 40
0.3
100
AcDbArc
 50
318.189685
 51
90.0
  0
LINE
  5
BD47
330
BC32
100
AcDbEntity
  8
1
  6
Continuous
100
AcDbLine
 10
29.637577
 20
156.6607669999999
 30
0.0
 11
32.76521799999999
 21
156.0334789999998
 31
0.0
  0
ARC
  5
BD48
330
BC32
100
AcDbEntity
  8
1
  6
Continuous
100
AcDbCircle
 10
29.9
 20
156.8061439999999
 30
0.0
 40
0.3
100
AcDbArc
 50
90.0
 51
208.985474
  0
ARC
  5
BD49
330
BC32
100
AcDbEntity
  8
1
  6
Continuous
100
AcDbCircle
 10
35.6
 20
154.2925149999998
 30
0.0
 40
0.3
100
AcDbArc
 50
318.189685
 51
90.0
  0
LINE
  5
BD4A
330
BC32
100
AcDbEntity
  8
1
  6
Continuous
100
AcDbLine
 10
33.040523
 20
154.0925149999999
 30
0.0
 11
35.82360700000001
 21
154.0925149999999
 31
0.0
  0
LINE
  5
BD4B
330
BC32
100
AcDbEntity
  8
1
  6
Continuous
100
AcDbLine
 10
35.6
 20
154.5925149999999
 30
0.0
 11
29.9
 21
155.1925149999999
 31
0.0
  0
ARC
  5
BD4C
330
BC32
100
AcDbEntity
  8
1
  6
Continuous
100
AcDbCircle
 10
29.9
 20
154.892515
 30
0.0
 40
0.3
100
AcDbArc
 50
90.0
 51
208.985474
  0
LINE
  5
BD4D
330
BC32
100
AcDbEntity
  8
1
  6
Continuous
100
AcDbLine
 10
29.637577
 20
154.7471389999998
 30
0.0
 11
32.76521799999999
 21
154.119851
 31
0.0
  0
LINE
  5
BD4E
330
BC32
100
AcDbEntity
  8
1
  6
Continuous
100
AcDbLine
 10
32.75
 20
154.122903
 30
0.0
 11
33.040523
 21
154.0925149999999
 31
0.0
  0
ARC
  5
BD4F
330
BC32
100
AcDbEntity
  8
1
  6
Continuous
100
AcDbCircle
 10
35.6
 20
160.573139
 30
0.0
 40
0.3
100
AcDbArc
 50
318.189685
 51
90.0
  0
LINE
  5
BD50
330
BC32
100
AcDbEntity
  8
1
  6
Continuous
100
AcDbLine
 10
32.75
 20
160.4035269999999
 30
0.0
 11
33.040523
 21
160.3731389999999
 31
0.0
  0
LINE
  5
BD51
330
BC32
100
AcDbEntity
  8
1
  6
Continuous
100
AcDbLine
 10
33.040523
 20
160.3731389999999
 30
0.0
 11
35.82360700000001
 21
160.3731389999999
 31
0.0
  0
LINE
  5
BD52
330
BC32
100
AcDbEntity
  8
1
  6
Continuous
100
AcDbLine
 10
35.6
 20
160.8731389999999
 30
0.0
 11
29.9
 21
161.473139
 31
0.0
  0
ARC
  5
BD53
330
BC32
100
AcDbEntity
  8
1
  6
Continuous
100
AcDbCircle
 10
29.9
 20
161.1731389999999
 30
0.0
 40
0.3
100
AcDbArc
 50
90.0
 51
208.985474
  0
LINE
  5
BD54
330
BC32
100
AcDbEntity
  8
1
  6
Continuous
100
AcDbLine
 10
29.637577
 20
161.0277629999998
 30
0.0
 11
32.76521799999999
 21
160.400475
 31
0.0
  0
LINE
  5
BD55
330
BC32
100
AcDbEntity
  8
1
  6
Continuous
100
AcDbLine
 10
35.6
 20
152.433551
 30
0.0
 11
29.9
 21
153.033551
 31
0.0
  0
LINE
  5
BD56
330
BC32
100
AcDbEntity
  8
1
  6
Continuous
100
AcDbLine
 10
33.040523
 20
151.9335509999999
 30
0.0
 11
35.82360700000001
 21
151.9335509999999
 31
0.0
  0
ARC
  5
BD57
330
BC32
100
AcDbEntity
  8
1
  6
Continuous
100
AcDbCircle
 10
35.6
 20
152.133551
 30
0.0
 40
0.3
100
AcDbArc
 50
318.189685
 51
90.0
  0
LINE
  5
BD58
330
BC32
100
AcDbEntity
  8
1
  6
Continuous
100
AcDbLine
 10
29.637577
 20
152.588175
 30
0.0
 11
32.76521799999999
 21
151.960887
 31
0.0
  0
LINE
  5
BD59
330
BC32
100
AcDbEntity
  8
1
  6
Continuous
100
AcDbLine
 10
32.75
 20
151.9639389999998
 30
0.0
 11
33.040523
 21
151.9335509999999
 31
0.0
  0
ARC
  5
BD5A
330
BC32
100
AcDbEntity
  8
1
  6
Continuous
100
AcDbCircle
 10
29.9
 20
152.733551
 30
0.0
 40
0.3
100
AcDbArc
 50
90.0
 51
208.985474
  0
LINE
  5
BD5B
330
BC32
100
AcDbEntity
  8
1
  6
Continuous
100
AcDbLine
 10
32.75
 20
150.1975139999998
 30
0.0
 11
33.040523
 21
150.1671259999999
 31
0.0
  0
ARC
  5
BD5C
330
BC32
100
AcDbEntity
  8
1
  6
Continuous
100
AcDbCircle
 10
35.6
 20
150.367126
 30
0.0
 40
0.3
100
AcDbArc
 50
318.189685
 51
90.0
  0
LINE
  5
BD5D
330
BC32
100
AcDbEntity
  8
1
  6
Continuous
100
AcDbLine
 10
33.040523
 20
150.1671259999999
 30
0.0
 11
35.82360700000001
 21
150.1671259999999
 31
0.0
  0
LINE
  5
BD5E
330
BC32
100
AcDbEntity
  8
1
  6
Continuous
100
AcDbLine
 10
35.6
 20
150.667126
 30
0.0
 11
29.9
 21
151.2671259999999
 31
0.0
  0
ARC
  5
BD5F
330
BC32
100
AcDbEntity
  8
1
  6
Continuous
100
AcDbCircle
 10
29.9
 20
150.967126
 30
0.0
 40
0.3
100
AcDbArc
 50
90.0
 51
208.985474
  0
LINE
  5
BD60
330
BC32
100
AcDbEntity
  8
1
  6
Continuous
100
AcDbLine
 10
29.637577
 20
150.821749
 30
0.0
 11
32.76521799999999
 21
150.1944609999999
 31
0.0
  0
LINE
  5
BD61
330
BC32
100
AcDbEntity
  8
1
  6
Continuous
100
AcDbLine
 10
33.040523
 20
141.661948
 30
0.0
 11
35.6
 21
141.661948
 31
0.0
  0
ARC
  5
BD62
330
BC32
100
AcDbEntity
  8
1
  6
Continuous
100
AcDbCircle
 10
35.6
 20
141.961948
 30
0.0
 40
0.3
100
AcDbArc
 50
270.0
 51
90.0
  0
LINE
  5
BD63
330
BC32
100
AcDbEntity
  8
1
  6
Continuous
100
AcDbLine
 10
35.6
 20
142.2619479999999
 30
0.0
 11
29.9
 21
142.8619479999998
 31
0.0
  0
ARC
  5
BD64
330
BC32
100
AcDbEntity
  8
1
  6
Continuous
100
AcDbCircle
 10
29.9
 20
142.5619479999998
 30
0.0
 40
0.3
100
AcDbArc
 50
90.0
 51
270.0
  0
LINE
  5
BD65
330
BC32
100
AcDbEntity
  8
1
  6
Continuous
100
AcDbLine
 10
29.9
 20
142.2619479999999
 30
0.0
 11
32.745554
 21
141.6912359999998
 31
0.0
  0
ARC
  5
BD66
330
BC32
100
AcDbEntity
  8
1
  6
Continuous
100
AcDbCircle
 10
33.040523
 20
143.1619479999999
 30
0.0
 40
1.5
100
AcDbArc
 50
258.6590749999999
 51
270.0
  0
ARC
  5
BD67
330
BC32
100
AcDbEntity
  8
1
  6
Continuous
100
AcDbCircle
 10
33.040523
 20
144.97744
 30
0.0
 40
1.5
100
AcDbArc
 50
258.6590749999999
 51
270.0
  0
LINE
  5
BD68
330
BC32
100
AcDbEntity
  8
1
  6
Continuous
100
AcDbLine
 10
35.6
 20
144.07744
 30
0.0
 11
29.9
 21
144.6774399999999
 31
0.0
  0
ARC
  5
BD69
330
BC32
100
AcDbEntity
  8
1
  6
Continuous
100
AcDbCircle
 10
35.6
 20
143.7774399999999
 30
0.0
 40
0.3
100
AcDbArc
 50
270.0
 51
90.0
  0
LINE
  5
BD6A
330
BC32
100
AcDbEntity
  8
1
  6
Continuous
100
AcDbLine
 10
33.040523
 20
143.47744
 30
0.0
 11
35.6
 21
143.47744
 31
0.0
  0
LINE
  5
BD6B
330
BC32
100
AcDbEntity
  8
1
  6
Continuous
100
AcDbLine
 10
29.9
 20
144.07744
 30
0.0
 11
32.745554
 21
143.506728
 31
0.0
  0
ARC
  5
BD6C
330
BC32
100
AcDbEntity
  8
1
  6
Continuous
100
AcDbCircle
 10
29.9
 20
144.3774399999998
 30
0.0
 40
0.3
100
AcDbArc
 50
90.0
 51
270.0
  0
LINE
  5
BD6D
330
BC32
100
AcDbEntity
  8
1
  6
Continuous
100
AcDbLine
 10
33.040523
 20
145.3910679999999
 30
0.0
 11
35.6
 21
145.3910679999999
 31
0.0
  0
ARC
  5
BD6E
330
BC32
100
AcDbEntity
  8
1
  6
Continuous
100
AcDbCircle
 10
35.6
 20
145.691068
 30
0.0
 40
0.3
100
AcDbArc
 50
270.0
 51
90.0
  0
LINE
  5
BD6F
330
BC32
100
AcDbEntity
  8
1
  6
Continuous
100
AcDbLine
 10
35.6
 20
145.9910679999999
 30
0.0
 11
29.9
 21
146.591068
 31
0.0
  0
ARC
  5
BD70
330
BC32
100
AcDbEntity
  8
1
  6
Continuous
100
AcDbCircle
 10
33.040523
 20
146.891068
 30
0.0
 40
1.5
100
AcDbArc
 50
258.6590749999999
 51
270.0
  0
ARC
  5
BD71
330
BC32
100
AcDbEntity
  8
1
  6
Continuous
100
AcDbCircle
 10
29.9
 20
146.291068
 30
0.0
 40
0.3
100
AcDbArc
 50
90.0
 51
270.0
  0
LINE
  5
BD72
330
BC32
100
AcDbEntity
  8
1
  6
Continuous
100
AcDbLine
 10
29.9
 20
145.9910679999999
 30
0.0
 11
32.745554
 21
145.4203569999999
 31
0.0
  0
LINE
  5
BD73
330
BC32
100
AcDbEntity
  8
1
  6
Continuous
100
AcDbLine
 10
35.6
 20
149.0479029999999
 30
0.0
 11
29.9
 21
149.647903
 31
0.0
  0
LINE
  5
BD74
330
BC32
100
AcDbEntity
  8
1
  6
Continuous
100
AcDbLine
 10
33.040523
 20
148.547903
 30
0.0
 11
35.82360700000001
 21
148.547903
 31
0.0
  0
ARC
  5
BD75
330
BC32
100
AcDbEntity
  8
1
  6
Continuous
100
AcDbCircle
 10
35.6
 20
148.747903
 30
0.0
 40
0.3
100
AcDbArc
 50
318.189685
 51
90.0
  0
LINE
  5
BD76
330
BC32
100
AcDbEntity
  8
1
  6
Continuous
100
AcDbLine
 10
32.75
 20
148.5782909999998
 30
0.0
 11
33.040523
 21
148.547903
 31
0.0
  0
LINE
  5
BD77
330
BC32
100
AcDbEntity
  8
1
  6
Continuous
100
AcDbLine
 10
29.637577
 20
149.202526
 30
0.0
 11
32.76521799999999
 21
148.5752389999998
 31
0.0
  0
ARC
  5
BD78
330
BC32
100
AcDbEntity
  8
1
  6
Continuous
100
AcDbCircle
 10
29.9
 20
149.347903
 30
0.0
 40
0.3
100
AcDbArc
 50
90.0
 51
208.985474
  0
LINE
  5
BD79
330
BC32
100
AcDbEntity
  8
1
  6
Continuous
100
AcDbLine
 10
32.75
 20
147.3025379999999
 30
0.0
 11
33.040523
 21
147.27215
 31
0.0
  0
ARC
  5
BD7A
330
BC32
100
AcDbEntity
  8
1
  6
Continuous
100
AcDbCircle
 10
35.6
 20
147.47215
 30
0.0
 40
0.3
100
AcDbArc
 50
318.189685
 51
90.0
  0
LINE
  5
BD7B
330
BC32
100
AcDbEntity
  8
1
  6
Continuous
100
AcDbLine
 10
33.040523
 20
147.27215
 30
0.0
 11
35.82360700000001
 21
147.27215
 31
0.0
  0
LINE
  5
BD7C
330
BC32
100
AcDbEntity
  8
1
  6
Continuous
100
AcDbLine
 10
35.6
 20
147.77215
 30
0.0
 11
29.9
 21
148.37215
 31
0.0
  0
ARC
  5
BD7D
330
BC32
100
AcDbEntity
  8
1
  6
Continuous
100
AcDbCircle
 10
29.9
 20
148.07215
 30
0.0
 40
0.3
100
AcDbArc
 50
90.0
 51
208.985474
  0
LINE
  5
BD7E
330
BC32
100
AcDbEntity
  8
1
  6
Continuous
100
AcDbLine
 10
29.637577
 20
147.9267729999999
 30
0.0
 11
32.76521799999999
 21
147.299486
 31
0.0
  0
LINE
  5
BD7F
330
BC32
100
AcDbEntity
  8
1
  6
Continuous
100
AcDbLine
 10
101.7211319999999
 20
48.92073400000001
 30
0.0
 11
101.7211319999999
 21
51.897394
 31
0.0
  0
LINE
  5
BD80
330
BC32
100
AcDbEntity
  8
1
  6
Continuous
100
AcDbLine
 10
101.6932469999999
 20
48.652921
 30
0.0
 11
101.05397
 21
45.616354
 31
0.0
  0
LINE
  5
BD81
330
BC32
100
AcDbEntity
  8
1
  6
Continuous
100
AcDbLine
 10
101.7211319999999
 20
48.92073400000001
 30
0.0
 11
101.6932469999999
 21
48.652921
 31
0.0
  0
ARC
  5
BD82
330
BC32
100
AcDbEntity
  8
1
  6
Continuous
100
AcDbCircle
 10
102.8003659999999
 20
51.614551
 30
0.0
 40
0.3
100
AcDbArc
 50
70.528779
 51
180.0
  0
LINE
  5
BD83
330
BC32
100
AcDbEntity
  8
1
  6
Continuous
100
AcDbLine
 10
102.900366
 20
48.92073400000001
 30
0.0
 11
102.900366
 21
51.897394
 31
0.0
  0
LINE
  5
BD84
330
BC32
100
AcDbEntity
  8
1
  6
Continuous
100
AcDbLine
 10
102.500366
 20
51.614551
 30
0.0
 11
101.900366
 21
45.914551
 31
0.0
  0
ARC
  5
BD85
330
BC32
100
AcDbEntity
  8
1
  6
Continuous
100
AcDbCircle
 10
102.2003659999999
 20
45.914551
 30
0.0
 40
0.3
100
AcDbArc
 50
180.0
 51
276.2840949999999
  0
LINE
  5
BD86
330
BC32
100
AcDbEntity
  8
1
  6
Continuous
100
AcDbLine
 10
102.8724809999999
 20
48.652921
 30
0.0
 11
102.233203
 21
45.616354
 31
0.0
  0
LINE
  5
BD87
330
BC32
100
AcDbEntity
  8
1
  6
Continuous
100
AcDbLine
 10
102.900366
 20
48.92073400000001
 30
0.0
 11
102.8724809999999
 21
48.652921
 31
0.0
  0
LINE
  5
BD88
330
BC32
100
AcDbEntity
  8
1
  6
Continuous
100
AcDbLine
 10
103.556763
 20
51.614551
 30
0.0
 11
102.956763
 21
45.914551
 31
0.0
  0
LINE
  5
BD89
330
BC32
100
AcDbEntity
  8
1
  6
Continuous
100
AcDbLine
 10
103.956763
 20
48.92073400000001
 30
0.0
 11
103.956763
 21
51.897394
 31
0.0
  0
ARC
  5
BD8A
330
BC32
100
AcDbEntity
  8
1
  6
Continuous
100
AcDbCircle
 10
103.8567629999999
 20
51.614551
 30
0.0
 40
0.3
100
AcDbArc
 50
70.528779
 51
180.0
  0
LINE
  5
BD8B
330
BC32
100
AcDbEntity
  8
1
  6
Continuous
100
AcDbLine
 10
103.956763
 20
48.92073400000001
 30
0.0
 11
103.9288779999999
 21
48.652921
 31
0.0
  0
LINE
  5
BD8C
330
BC32
100
AcDbEntity
  8
1
  6
Continuous
100
AcDbLine
 10
103.9288779999999
 20
48.652921
 30
0.0
 11
103.2896009999999
 21
45.616354
 31
0.0
  0
ARC
  5
BD8D
330
BC32
100
AcDbEntity
  8
1
  6
Continuous
100
AcDbCircle
 10
103.256763
 20
45.914551
 30
0.0
 40
0.3
100
AcDbArc
 50
180.0
 51
276.2840949999999
  0
LINE
  5
BD8E
330
BC32
100
AcDbEntity
  8
1
  6
Continuous
100
AcDbLine
 10
239.950474
 20
155.286582
 30
0.0
 11
237.950474
 21
154.086582
 31
0.0
  0
LINE
  5
BD8F
330
BC32
100
AcDbEntity
  8
1
  6
Continuous
100
AcDbLine
 10
237.950474
 20
154.086582
 30
0.0
 11
233.450474
 21
155.286582
 31
0.0
  0
LINE
  5
BD90
330
BC32
100
AcDbEntity
  8
1
  6
Continuous
100
AcDbLine
 10
233.450474
 20
155.286582
 30
0.0
 11
228.950474
 21
154.086582
 31
0.0
  0
LINE
  5
BD91
330
BC32
100
AcDbEntity
  8
1
  6
Continuous
100
AcDbLine
 10
228.950474
 20
154.086582
 30
0.0
 11
226.950474
 21
155.286582
 31
0.0
  0
LINE
  5
BD92
330
BC32
100
AcDbEntity
  8
1
  6
Continuous
100
AcDbLine
 10
226.950474
 20
154.835294
 30
0.0
 11
228.587415
 21
153.8531289999999
 31
0.0
  0
LINE
  5
BD93
330
BC32
100
AcDbEntity
  8
1
  6
Continuous
100
AcDbLine
 10
229.359574
 20
153.7443869999999
 30
0.0
 11
233.450474
 21
154.835294
 31
0.0
  0
LINE
  5
BD94
330
BC32
100
AcDbEntity
  8
1
  6
Continuous
100
AcDbLine
 10
233.450474
 20
154.835294
 30
0.0
 11
237.5413739999999
 21
153.7443869999999
 31
0.0
  0
LINE
  5
BD95
330
BC32
100
AcDbEntity
  8
1
  6
Continuous
100
AcDbLine
 10
238.3135329999999
 20
153.8531289999999
 30
0.0
 11
239.950474
 21
154.835294
 31
0.0
  0
ARC
  5
BD96
330
BC32
100
AcDbEntity
  8
1
  6
Continuous
100
AcDbCircle
 10
237.799037
 20
154.710622
 30
0.0
 40
1.0
100
AcDbArc
 50
255.0685829999999
 51
300.9637569999998
  0
ARC
  5
BD97
330
BC32
100
AcDbEntity
  8
1
  6
Continuous
100
AcDbCircle
 10
229.1019109999998
 20
154.710622
 30
0.0
 40
1.0
100
AcDbArc
 50
239.036243
 51
284.9314169999999
  0
LINE
  5
BD98
330
BC32
100
AcDbEntity
  8
1
  6
Continuous
100
AcDbLine
 10
230.5721909999999
 20
156.0968789999998
 30
0.0
 11
236.2721909999999
 21
155.496879
 31
0.0
  0
LINE
  5
BD99
330
BC32
100
AcDbEntity
  8
1
  6
Continuous
100
AcDbLine
 10
233.131668
 20
156.596879
 30
0.0
 11
230.348585
 21
156.596879
 31
0.0
  0
ARC
  5
BD9A
330
BC32
100
AcDbEntity
  8
1
  6
Continuous
100
AcDbCircle
 10
230.5721909999999
 20
156.396879
 30
0.0
 40
0.3
100
AcDbArc
 50
138.1896849999999
 51
270.0
  0
ARC
  5
BD9B
330
BC32
100
AcDbEntity
  8
1
  6
Continuous
100
AcDbCircle
 10
230.5721909999999
 20
160.763875
 30
0.0
 40
0.3
100
AcDbArc
 50
138.1896849999999
 51
270.0
  0
LINE
  5
BD9C
330
BC32
100
AcDbEntity
  8
1
  6
Continuous
100
AcDbLine
 10
230.637645
 20
160.963875
 30
0.0
 11
230.348585
 21
160.963875
 31
0.0
  0
LINE
  5
BD9D
330
BC32
100
AcDbEntity
  8
1
  6
Continuous
100
AcDbLine
 10
230.5721909999999
 20
160.463875
 30
0.0
 11
231.711365
 21
160.343961
 31
0.0
  0
LINE
  5
BD9E
330
BC32
100
AcDbEntity
  8
1
  6
Continuous
100
AcDbLine
 10
230.5721909999999
 20
158.8446519999999
 30
0.0
 11
236.2721909999999
 21
158.2446519999998
 31
0.0
  0
LINE
  5
BD9F
330
BC32
100
AcDbEntity
  8
1
  6
Continuous
100
AcDbLine
 10
233.131668
 20
159.344652
 30
0.0
 11
230.348585
 21
159.344652
 31
0.0
  0
ARC
  5
BDA0
330
BC32
100
AcDbEntity
  8
1
  6
Continuous
100
AcDbCircle
 10
230.5721909999999
 20
159.144652
 30
0.0
 40
0.3
100
AcDbArc
 50
138.1896849999999
 51
270.0
  0
ARC
  5
BDA1
330
BC32
100
AcDbEntity
  8
1
  6
Continuous
100
AcDbCircle
 10
230.5721909999999
 20
157.5744959999999
 30
0.0
 40
0.3
100
AcDbArc
 50
138.1896849999999
 51
270.0
  0
LINE
  5
BDA2
330
BC32
100
AcDbEntity
  8
1
  6
Continuous
100
AcDbLine
 10
233.131668
 20
157.7744959999999
 30
0.0
 11
230.348585
 21
157.7744959999999
 31
0.0
  0
LINE
  5
BDA3
330
BC32
100
AcDbEntity
  8
1
  6
Continuous
100
AcDbLine
 10
230.5721909999999
 20
157.274496
 30
0.0
 11
236.2721909999999
 21
156.674496
 31
0.0
  0
LINE
  5
BDA4
330
BC32
100
AcDbEntity
  8
1
  6
Continuous
100
AcDbLine
 10
236.534614
 20
155.9422549999999
 30
0.0
 11
233.4069729999999
 21
156.5695429999998
 31
0.0
  0
ARC
  5
BDA5
330
BC32
100
AcDbEntity
  8
1
  6
Continuous
100
AcDbCircle
 10
236.2721909999999
 20
155.7968789999998
 30
0.0
 40
0.3
100
AcDbArc
 50
270.0
 51
28.98547399999999
  0
ARC
  5
BDA6
330
BC32
100
AcDbEntity
  8
1
  6
Continuous
100
AcDbCircle
 10
236.2721909999999
 20
160.163875
 30
0.0
 40
0.3
100
AcDbArc
 50
270.0
 51
28.98547399999999
  0
LINE
  5
BDA7
330
BC32
100
AcDbEntity
  8
1
  6
Continuous
100
AcDbLine
 10
236.534614
 20
160.3092509999999
 30
0.0
 11
235.491741
 21
160.518412
 31
0.0
  0
LINE
  5
BDA8
330
BC32
100
AcDbEntity
  8
1
  6
Continuous
100
AcDbLine
 10
236.534614
 20
158.690028
 30
0.0
 11
233.4069729999999
 21
159.317316
 31
0.0
  0
ARC
  5
BDA9
330
BC32
100
AcDbEntity
  8
1
  6
Continuous
100
AcDbCircle
 10
236.2721909999999
 20
158.544652
 30
0.0
 40
0.3
100
AcDbArc
 50
270.0
 51
28.98547399999999
  0
ARC
  5
BDAA
330
BC32
100
AcDbEntity
  8
1
  6
Continuous
100
AcDbCircle
 10
236.2721909999999
 20
156.9744959999999
 30
0.0
 40
0.3
100
AcDbArc
 50
270.0
 51
28.98547399999999
  0
LINE
  5
BDAB
330
BC32
100
AcDbEntity
  8
1
  6
Continuous
100
AcDbLine
 10
236.534614
 20
157.1198719999999
 30
0.0
 11
233.4069729999999
 21
157.74716
 31
0.0
  0
LINE
  5
BDAC
330
BC32
100
AcDbEntity
  8
1
  6
Continuous
100
AcDbLine
 10
233.422191
 20
156.5664909999999
 30
0.0
 11
233.131668
 21
156.596879
 31
0.0
  0
LINE
  5
BDAD
330
BC32
100
AcDbEntity
  8
1
  6
Continuous
100
AcDbLine
 10
233.422191
 20
159.3142639999998
 30
0.0
 11
233.131668
 21
159.344652
 31
0.0
  0
LINE
  5
BDAE
330
BC32
100
AcDbEntity
  8
1
  6
Continuous
100
AcDbLine
 10
233.422191
 20
157.744108
 30
0.0
 11
233.131668
 21
157.7744959999999
 31
0.0
  0
LINE
  5
BDAF
330
BC32
100
AcDbEntity
  8
1
  6
Continuous
100
AcDbLine
 10
234.6532199999999
 20
160.034293
 30
0.0
 11
236.2721909999999
 21
159.863875
 31
0.0
  0
LINE
  5
BDB0
330
BC32
100
AcDbEntity
  8
1
  6
Continuous
100
AcDbLine
 10
106.372328
 20
216.3458149999999
 30
0.0
 11
106.972328
 21
222.045815
 31
0.0
  0
ARC
  5
BDB1
330
BC32
100
AcDbEntity
  8
1
  6
Continuous
100
AcDbCircle
 10
107.742906
 20
216.2476789999999
 30
0.0
 40
0.3
100
AcDbArc
 50
250.5287789999999
 51
0.0
  0
LINE
  5
BDB2
330
BC32
100
AcDbEntity
  8
1
  6
Continuous
100
AcDbLine
 10
107.642906
 20
218.941496
 30
0.0
 11
107.642906
 21
215.9648369999999
 31
0.0
  0
LINE
  5
BDB3
330
BC32
100
AcDbEntity
  8
1
  6
Continuous
100
AcDbLine
 10
108.0429059999999
 20
216.2476789999999
 30
0.0
 11
108.642906
 21
221.9476789999999
 31
0.0
  0
ARC
  5
BDB4
330
BC32
100
AcDbEntity
  8
1
  6
Continuous
100
AcDbCircle
 10
104.721118
 20
216.3458149999999
 30
0.0
 40
0.3
100
AcDbArc
 50
250.5287789999999
 51
0.0
  0
LINE
  5
BDB5
330
BC32
100
AcDbEntity
  8
1
  6
Continuous
100
AcDbLine
 10
104.621118
 20
219.039633
 30
0.0
 11
104.621118
 21
216.062973
 31
0.0
  0
LINE
  5
BDB6
330
BC32
100
AcDbEntity
  8
1
  6
Continuous
100
AcDbLine
 10
105.0211179999999
 20
216.3458149999999
 30
0.0
 11
105.621118
 21
222.045815
 31
0.0
  0
LINE
  5
BDB7
330
BC32
100
AcDbEntity
  8
1
  6
Continuous
100
AcDbLine
 10
105.972328
 20
219.039633
 30
0.0
 11
105.972328
 21
216.062973
 31
0.0
  0
ARC
  5
BDB8
330
BC32
100
AcDbEntity
  8
1
  6
Continuous
100
AcDbCircle
 10
106.0723279999999
 20
216.3458149999999
 30
0.0
 40
0.3
100
AcDbArc
 50
250.5287789999999
 51
0.0
  0
ARC
  5
BDB9
330
BC32
100
AcDbEntity
  8
1
  6
Continuous
100
AcDbCircle
 10
106.6723279999999
 20
222.045815
 30
0.0
 40
0.3
100
AcDbArc
 50
0.0
 51
96.284095
  0
ARC
  5
BDBA
330
BC32
100
AcDbEntity
  8
1
  6
Continuous
100
AcDbCircle
 10
108.342906
 20
221.9476789999999
 30
0.0
 40
0.3
100
AcDbArc
 50
0.0
 51
96.284095
  0
LINE
  5
BDBB
330
BC32
100
AcDbEntity
  8
1
  6
Continuous
100
AcDbLine
 10
107.670792
 20
219.20931
 30
0.0
 11
108.3100689999999
 21
222.245877
 31
0.0
  0
ARC
  5
BDBC
330
BC32
100
AcDbEntity
  8
1
  6
Continuous
100
AcDbCircle
 10
105.3211179999999
 20
222.045815
 30
0.0
 40
0.3
100
AcDbArc
 50
0.0
 51
96.284095
  0
LINE
  5
BDBD
330
BC32
100
AcDbEntity
  8
1
  6
Continuous
100
AcDbLine
 10
104.6490029999999
 20
219.307446
 30
0.0
 11
105.28828
 21
222.3440129999999
 31
0.0
  0
LINE
  5
BDBE
330
BC32
100
AcDbEntity
  8
1
  6
Continuous
100
AcDbLine
 10
106.0002129999999
 20
219.307446
 30
0.0
 11
106.6394899999999
 21
222.3440129999999
 31
0.0
  0
LINE
  5
BDBF
330
BC32
100
AcDbEntity
  8
1
  6
Continuous
100
AcDbLine
 10
107.642906
 20
218.941496
 30
0.0
 11
107.670792
 21
219.20931
 31
0.0
  0
LINE
  5
BDC0
330
BC32
100
AcDbEntity
  8
1
  6
Continuous
100
AcDbLine
 10
104.621118
 20
219.039633
 30
0.0
 11
104.6490029999999
 21
219.307446
 31
0.0
  0
LINE
  5
BDC1
330
BC32
100
AcDbEntity
  8
1
  6
Continuous
100
AcDbLine
 10
105.972328
 20
219.039633
 30
0.0
 11
106.0002129999999
 21
219.307446
 31
0.0
  0
ARC
  5
BDC2
330
BC32
100
AcDbEntity
  8
1
  6
Continuous
100
AcDbCircle
 10
102.6997259999999
 20
221.929924
 30
0.0
 40
0.3
100
AcDbArc
 50
0.0
 51
96.284095
  0
LINE
  5
BDC3
330
BC32
100
AcDbEntity
  8
1
  6
Continuous
100
AcDbLine
 10
101.999726
 20
218.923741
 30
0.0
 11
102.0276109999998
 21
219.191555
 31
0.0
  0
LINE
  5
BDC4
330
BC32
100
AcDbEntity
  8
1
  6
Continuous
100
AcDbLine
 10
100.9433279999999
 20
218.923741
 30
0.0
 11
100.9712139999999
 21
219.191555
 31
0.0
  0
LINE
  5
BDC5
330
BC32
100
AcDbEntity
  8
1
  6
Continuous
100
AcDbLine
 10
102.0276109999998
 20
219.191555
 30
0.0
 11
102.666888
 21
222.228122
 31
0.0
  0
LINE
  5
BDC6
330
BC32
100
AcDbEntity
  8
1
  6
Continuous
100
AcDbLine
 10
100.9712139999999
 20
219.191555
 30
0.0
 11
101.610491
 21
222.228122
 31
0.0
  0
ARC
  5
BDC7
330
BC32
100
AcDbEntity
  8
1
  6
Continuous
100
AcDbCircle
 10
101.6433279999999
 20
221.929924
 30
0.0
 40
0.3
100
AcDbArc
 50
0.0
 51
96.284095
  0
LINE
  5
BDC8
330
BC32
100
AcDbEntity
  8
1
  6
Continuous
100
AcDbLine
 10
101.999726
 20
218.923741
 30
0.0
 11
101.999726
 21
215.947081
 31
0.0
  0
LINE
  5
BDC9
330
BC32
100
AcDbEntity
  8
1
  6
Continuous
100
AcDbLine
 10
101.343328
 20
216.229924
 30
0.0
 11
101.9433279999999
 21
221.929924
 31
0.0
  0
LINE
  5
BDCA
330
BC32
100
AcDbEntity
  8
1
  6
Continuous
100
AcDbLine
 10
100.9433279999999
 20
218.923741
 30
0.0
 11
100.9433279999999
 21
215.947081
 31
0.0
  0
LINE
  5
BDCB
330
BC32
100
AcDbEntity
  8
1
  6
Continuous
100
AcDbLine
 10
102.399726
 20
216.229924
 30
0.0
 11
102.999726
 21
221.929924
 31
0.0
  0
ARC
  5
BDCC
330
BC32
100
AcDbEntity
  8
1
  6
Continuous
100
AcDbCircle
 10
102.099726
 20
216.229924
 30
0.0
 40
0.3
100
AcDbArc
 50
250.5287789999999
 51
0.0
  0
ARC
  5
BDCD
330
BC32
100
AcDbEntity
  8
1
  6
Continuous
100
AcDbCircle
 10
101.0433279999999
 20
216.229924
 30
0.0
 40
0.3
100
AcDbArc
 50
250.5287789999999
 51
0.0
  0
LINE
  5
BDCE
330
BC32
100
AcDbEntity
  8
1
  6
Continuous
100
AcDbLine
 10
103.178959
 20
218.923741
 30
0.0
 11
103.206845
 21
219.191555
 31
0.0
  0
LINE
  5
BDCF
330
BC32
100
AcDbEntity
  8
1
  6
Continuous
100
AcDbLine
 10
103.206845
 20
219.191555
 30
0.0
 11
103.8461219999998
 21
222.228122
 31
0.0
  0
ARC
  5
BDD0
330
BC32
100
AcDbEntity
  8
1
  6
Continuous
100
AcDbCircle
 10
103.8789589999999
 20
221.929924
 30
0.0
 40
0.3
100
AcDbArc
 50
0.0
 51
96.284095
  0
LINE
  5
BDD1
330
BC32
100
AcDbEntity
  8
1
  6
Continuous
100
AcDbLine
 10
103.578959
 20
216.229924
 30
0.0
 11
104.178959
 21
221.929924
 31
0.0
  0
LINE
  5
BDD2
330
BC32
100
AcDbEntity
  8
1
  6
Continuous
100
AcDbLine
 10
103.178959
 20
218.923741
 30
0.0
 11
103.178959
 21
215.947081
 31
0.0
  0
ARC
  5
BDD3
330
BC32
100
AcDbEntity
  8
1
  6
Continuous
100
AcDbCircle
 10
103.2789589999999
 20
216.229924
 30
0.0
 40
0.3
100
AcDbArc
 50
250.5287789999999
 51
0.0
  0
LINE
  5
BDD4
330
BC32
100
AcDbEntity
  8
1
  6
Continuous
100
AcDbLine
 10
112.769212
 20
221.9146819999999
 30
0.0
 11
112.2013879999998
 21
219.217515
 31
0.0
  0
LINE
  5
BDD5
330
BC32
100
AcDbEntity
  8
1
  6
Continuous
100
AcDbLine
 10
113.3626369999999
 20
221.852216
 30
0.0
 11
112.769212
 21
216.2146819999999
 31
0.0
  0
ARC
  5
BDD6
330
BC32
100
AcDbEntity
  8
1
  6
Continuous
100
AcDbCircle
 10
113.0692119999999
 20
221.9146819999999
 30
0.0
 40
0.3
100
AcDbArc
 50
347.9819879999998
 51
180.0
  0
LINE
  5
BDD7
330
BC32
100
AcDbEntity
  8
1
  6
Continuous
100
AcDbLine
 10
114.628733
 20
221.9146819999999
 30
0.0
 11
114.060908
 21
219.217515
 31
0.0
  0
LINE
  5
BDD8
330
BC32
100
AcDbEntity
  8
1
  6
Continuous
100
AcDbLine
 10
115.222157
 20
221.852216
 30
0.0
 11
114.628733
 21
216.2146819999999
 31
0.0
  0
ARC
  5
BDD9
330
BC32
100
AcDbEntity
  8
1
  6
Continuous
100
AcDbCircle
 10
114.9287329999999
 20
221.9146819999999
 30
0.0
 40
0.3
100
AcDbArc
 50
347.9819879999998
 51
180.0
  0
ARC
  5
BDDA
330
BC32
100
AcDbEntity
  8
1
  6
Continuous
100
AcDbCircle
 10
112.469212
 20
216.2146819999999
 30
0.0
 40
0.3
100
AcDbArc
 50
180.0
 51
0.0
  0
LINE
  5
BDDB
330
BC32
100
AcDbEntity
  8
1
  6
Continuous
100
AcDbLine
 10
112.169212
 20
218.908499
 30
0.0
 11
112.169212
 21
216.2146819999999
 31
0.0
  0
ARC
  5
BDDC
330
BC32
100
AcDbEntity
  8
1
  6
Continuous
100
AcDbCircle
 10
114.328733
 20
216.2146819999999
 30
0.0
 40
0.3
100
AcDbArc
 50
180.0
 51
0.0
  0
LINE
  5
BDDD
330
BC32
100
AcDbEntity
  8
1
  6
Continuous
100
AcDbLine
 10
114.028733
 20
218.908499
 30
0.0
 11
114.028733
 21
216.2146819999999
 31
0.0
  0
ARC
  5
BDDE
330
BC32
100
AcDbEntity
  8
1
  6
Continuous
100
AcDbCircle
 10
113.669212
 20
218.908499
 30
0.0
 40
1.5
100
AcDbArc
 50
168.1113419999998
 51
180.0
  0
ARC
  5
BDDF
330
BC32
100
AcDbEntity
  8
1
  6
Continuous
100
AcDbCircle
 10
115.5287329999999
 20
218.908499
 30
0.0
 40
1.5
100
AcDbArc
 50
168.1113419999998
 51
180.0
  0
LINE
  5
BDE0
330
BC32
100
AcDbEntity
  8
1
  6
Continuous
100
AcDbLine
 10
110.3048739999999
 20
221.9146819999999
 30
0.0
 11
109.73705
 21
219.217515
 31
0.0
  0
LINE
  5
BDE1
330
BC32
100
AcDbEntity
  8
1
  6
Continuous
100
AcDbLine
 10
110.8982989999998
 20
221.852216
 30
0.0
 11
110.3048739999999
 21
216.2146819999999
 31
0.0
  0
ARC
  5
BDE2
330
BC32
100
AcDbEntity
  8
1
  6
Continuous
100
AcDbCircle
 10
110.604874
 20
221.9146819999999
 30
0.0
 40
0.3
100
AcDbArc
 50
347.9819879999998
 51
180.0
  0
ARC
  5
BDE3
330
BC32
100
AcDbEntity
  8
1
  6
Continuous
100
AcDbCircle
 10
110.004874
 20
216.2146819999999
 30
0.0
 40
0.3
100
AcDbArc
 50
180.0
 51
0.0
  0
LINE
  5
BDE4
330
BC32
100
AcDbEntity
  8
1
  6
Continuous
100
AcDbLine
 10
109.7048739999999
 20
218.908499
 30
0.0
 11
109.7048739999999
 21
216.2146819999999
 31
0.0
  0
LINE
  5
BDE5
330
BC32
100
AcDbEntity
  8
1
  6
Continuous
100
AcDbLine
 10
109.73705
 20
219.217515
 30
0.0
 11
109.7048739999999
 21
218.908499
 31
0.0
  0
LINE
  5
BDE6
330
BC32
100
AcDbEntity
  8
1
  6
Continuous
100
AcDbLine
 10
153.7790929999999
 20
225.6137509999998
 30
0.0
 11
154.761257
 21
223.97681
 31
0.0
  0
LINE
  5
BDE7
330
BC32
100
AcDbEntity
  8
1
  6
Continuous
100
AcDbLine
 10
154.869999
 20
223.204652
 30
0.0
 11
153.7790929999999
 21
219.1137509999999
 31
0.0
  0
LINE
  5
BDE8
330
BC32
100
AcDbEntity
  8
1
  6
Continuous
100
AcDbLine
 10
153.7790929999999
 20
219.1137509999999
 30
0.0
 11
154.869999
 21
215.0228509999998
 31
0.0
  0
LINE
  5
BDE9
330
BC32
100
AcDbEntity
  8
1
  6
Continuous
100
AcDbLine
 10
154.761257
 20
214.250693
 30
0.0
 11
153.7790929999999
 21
212.6137509999999
 31
0.0
  0
ARC
  5
BDEA
330
BC32
100
AcDbEntity
  8
1
  6
Continuous
100
AcDbCircle
 10
153.903765
 20
214.765188
 30
0.0
 40
1.0
100
AcDbArc
 50
329.036243
 51
14.931417
  0
ARC
  5
BDEB
330
BC32
100
AcDbEntity
  8
1
  6
Continuous
100
AcDbCircle
 10
153.903765
 20
223.462314
 30
0.0
 40
1.0
100
AcDbArc
 50
345.0685829999998
 51
30.96375700000001
  0
LINE
  5
BDEC
330
BC32
100
AcDbEntity
  8
1
  6
Continuous
100
AcDbLine
 10
138.6217979999998
 20
56.51455099999999
 30
0.0
 11
138.6217979999998
 21
55.26455099999999
 31
0.0
  0
LINE
  5
BDED
330
BC32
100
AcDbEntity
  8
1
  6
Continuous
100
AcDbLine
 10
127.6217979999999
 20
56.51455099999999
 30
0.0
 11
127.6217979999999
 21
55.26455099999999
 31
0.0
  0
LINE
  5
BDEE
330
BC32
100
AcDbEntity
  8
1
  6
Continuous
100
AcDbLine
 10
127.6217979999999
 20
42.26455099999999
 30
0.0
 11
127.6217979999999
 21
41.01455099999999
 31
0.0
  0
LINE
  5
BDEF
330
BC32
100
AcDbEntity
  8
1
  6
Continuous
100
AcDbLine
 10
138.6217979999998
 20
42.26455099999999
 30
0.0
 11
138.6217979999998
 21
41.01455099999999
 31
0.0
  0
LINE
  5
BDF0
330
BC32
100
AcDbEntity
  8
1
  6
Continuous
100
AcDbLine
 10
127.321798
 20
41.01455099999999
 30
0.0
 11
138.9217979999999
 21
41.01455099999999
 31
0.0
  0
LINE
  5
BDF1
330
BC32
100
AcDbEntity
  8
1
  6
Continuous
100
AcDbLine
 10
127.321798
 20
56.51455099999999
 30
0.0
 11
126.321798
 21
55.26455099999999
 31
0.0
  0
LINE
  5
BDF2
330
BC32
100
AcDbEntity
  8
1
  6
Continuous
100
AcDbLine
 10
138.9217979999999
 20
56.51455099999999
 30
0.0
 11
139.9217979999999
 21
55.26455099999999
 31
0.0
  0
LINE
  5
BDF3
330
BC32
100
AcDbEntity
  8
1
  6
Continuous
100
AcDbLine
 10
139.9217979999999
 20
42.26455099999999
 30
0.0
 11
138.9217979999999
 21
41.01455099999999
 31
0.0
  0
LINE
  5
BDF4
330
BC32
100
AcDbEntity
  8
1
  6
Continuous
100
AcDbLine
 10
126.321798
 20
42.26455099999999
 30
0.0
 11
127.321798
 21
41.01455099999999
 31
0.0
  0
ARC
  5
BDF5
330
BC32
100
AcDbEntity
  8
1
  6
Continuous
100
AcDbCircle
 10
133.1217979999999
 20
159.9633509999998
 30
0.0
 40
7.4
100
AcDbArc
 50
18.924644
 51
161.075356
  0
LINE
  5
BDF6
330
BC32
100
AcDbEntity
  8
1
  6
Continuous
100
AcDbLine
 10
127.321798
 20
226.863751
 30
0.0
 11
126.121798
 21
225.3637509999999
 31
0.0
  0
LINE
  5
BDF7
330
BC32
100
AcDbEntity
  8
1
  6
Continuous
100
AcDbLine
 10
138.9217979999999
 20
226.863751
 30
0.0
 11
140.121798
 21
225.3637509999999
 31
0.0
  0
LINE
  5
BDF8
330
BC32
100
AcDbEntity
  8
1
  6
Continuous
100
AcDbLine
 10
140.121798
 20
212.8637509999999
 30
0.0
 11
138.9217979999999
 21
211.3637509999998
 31
0.0
  0
LINE
  5
BDF9
330
BC32
100
AcDbEntity
  8
1
  6
Continuous
100
AcDbLine
 10
126.121798
 20
212.8637509999999
 30
0.0
 11
127.321798
 21
211.3637509999998
 31
0.0
  0
ARC
  5
BDFA
330
BC32
100
AcDbEntity
  8
1
  6
Continuous
100
AcDbCircle
 10
133.1217979999999
 20
188.863751
 30
0.0
 40
25.0
100
AcDbArc
 50
73.739795
 51
106.2602049999999
  0
ARC
  5
BDFB
330
BC32
100
AcDbEntity
  8
1
  6
Continuous
100
AcDbCircle
 10
133.1217979999999
 20
249.3637509999998
 30
0.0
 40
25.0
100
AcDbArc
 50
253.7397949999999
 51
286.2602049999999
  0
LINE
  5
BDFC
330
BC32
100
AcDbEntity
  8
1
  6
Continuous
100
AcDbLine
 10
121.594437
 20
217.1609
 30
0.0
 11
121.5
 21
216.2637509999999
 31
0.0
  0
ARC
  5
BDFD
330
BC32
100
AcDbEntity
  8
1
  6
Continuous
100
AcDbCircle
 10
127.517857
 20
123.031897
 30
0.0
 40
40.40541499999998
100
AcDbArc
 50
64.47813
 51
73.687836
  0
ARC
  5
BDFE
330
BC32
100
AcDbEntity
  8
1
  6
Continuous
100
AcDbCircle
 10
133.5860419999999
 20
126.368005
 30
0.0
 40
35.014029
100
AcDbArc
 50
52.339227
 51
71.10162699999998
  0
ARC
  5
BDFF
330
BC32
100
AcDbEntity
  8
1
  6
Continuous
100
AcDbCircle
 10
127.517857
 20
123.031897
 30
0.0
 40
39.80541500000001
100
AcDbArc
 50
64.51061700000001
 51
73.526143
  0
ARC
  5
BE00
330
BC32
100
AcDbEntity
  8
1
  6
Continuous
100
AcDbCircle
 10
127.517857
 20
123.031897
 30
0.0
 40
39.205415
100
AcDbArc
 50
64.51061700000001
 51
73.35941099999998
  0
ARC
  5
BE01
330
BC32
100
AcDbEntity
  8
1
  6
Continuous
100
AcDbCircle
 10
133.5860419999999
 20
126.368005
 30
0.0
 40
34.41402899999999
100
AcDbArc
 50
52.37030099999999
 51
71.064166
  0
ARC
  5
BE02
330
BC32
100
AcDbEntity
  8
1
  6
Continuous
100
AcDbCircle
 10
133.5860419999999
 20
126.368005
 30
0.0
 40
33.81402899999999
100
AcDbArc
 50
52.402495
 51
71.064166
  0
ARC
  5
BE03
330
BC32
100
AcDbEntity
  8
1
  6
Continuous
100
AcDbCircle
 10
145.0782159999999
 20
159.8655179999998
 30
0.0
 40
1.0
100
AcDbArc
 50
244.5106169999999
 51
251.064166
  0
ARC
  5
BE04
330
BC32
100
AcDbEntity
  8
1
  6
Continuous
100
AcDbCircle
 10
145.0782159999999
 20
159.8655179999998
 30
0.0
 40
1.6
100
AcDbArc
 50
244.5106169999999
 51
251.064166
  0
ARC
  5
BE05
330
BC32
100
AcDbEntity
  8
5
  6
PHANTOM
100
AcDbCircle
 10
131.1905389999998
 20
128.5813589999999
 30
0.0
 40
32.67942399999999
100
AcDbArc
 50
44.29007399999998
 51
66.16779699999999
  0
ARC
  5
BE06
330
BC32
100
AcDbEntity
  8
5
  6
PHANTOM
100
AcDbCircle
 10
131.1905389999998
 20
128.5813589999999
 30
0.0
 40
33.27942399999999
100
AcDbArc
 50
44.256826
 51
66.16779699999999
  0
ARC
  5
BE07
330
BC32
100
AcDbEntity
  8
5
  6
PHANTOM
100
AcDbCircle
 10
131.1905389999998
 20
128.5813589999999
 30
0.0
 40
33.879424
100
AcDbArc
 50
44.224803
 51
67.02681099999999
  0
ARC
  5
BE08
330
BC32
100
AcDbEntity
  8
5
  6
PHANTOM
100
AcDbCircle
 10
111.0102509999999
 20
78.936356
 30
0.0
 40
87.46696400000002
100
AcDbArc
 50
67.548715
 51
71.42655300000001
  0
ARC
  5
BE09
330
BC32
100
AcDbEntity
  8
5
  6
PHANTOM
100
AcDbCircle
 10
112.577543
 20
83.335226
 30
0.0
 40
82.19790000000001
100
AcDbArc
 50
67.04347099999999
 51
71.38995699999998
  0
ARC
  5
BE0A
330
BC32
100
AcDbEntity
  8
5
  6
PHANTOM
100
AcDbCircle
 10
112.6328739999999
 20
83.47329399999997
 30
0.0
 40
81.449256
100
AcDbArc
 50
67.04787900000001
 51
71.299148
  0
LINE
  5
BE0B
330
BC32
100
AcDbEntity
  8
1
  6
Continuous
100
AcDbLine
 10
228.950474
 20
161.937963
 30
0.0
 11
232.950474
 21
159.6285619999999
 31
0.0
  0
ARC
  5
BE0C
330
BC32
100
AcDbEntity
  8
1
  6
Continuous
100
AcDbCircle
 10
233.450474
 20
160.494587
 30
0.0
 40
1.0
100
AcDbArc
 50
239.9999999999999
 51
300.0
  0
LINE
  5
BE0D
330
BC32
100
AcDbEntity
  8
1
  6
Continuous
100
AcDbLine
 10
233.950474
 20
159.6285619999999
 30
0.0
 11
237.950474
 21
161.937963
 31
0.0
  0
ARC
  5
BE0E
330
BC32
100
AcDbEntity
  8
1
  6
Continuous
100
AcDbCircle
 10
237.450474
 20
162.8039879999998
 30
0.0
 40
1.0
100
AcDbArc
 50
300.0
 51
0.0
  0
LINE
  5
BE0F
330
BC32
100
AcDbEntity
  8
1
  6
Continuous
100
AcDbLine
 10
238.450474
 20
162.8039879999998
 30
0.0
 11
238.450474
 21
167.4227899999999
 31
0.0
  0
ARC
  5
BE10
330
BC32
100
AcDbEntity
  8
1
  6
Continuous
100
AcDbCircle
 10
237.450474
 20
167.4227899999999
 30
0.0
 40
1.0
100
AcDbArc
 50
0.0
 51
60.0
  0
LINE
  5
BE11
330
BC32
100
AcDbEntity
  8
1
  6
Continuous
100
AcDbLine
 10
237.950474
 20
168.288816
 30
0.0
 11
233.950474
 21
170.598217
 31
0.0
  0
ARC
  5
BE12
330
BC32
100
AcDbEntity
  8
1
  6
Continuous
100
AcDbCircle
 10
233.450474
 20
169.732192
 30
0.0
 40
1.0
100
AcDbArc
 50
60.0
 51
119.9999999999999
  0
LINE
  5
BE13
330
BC32
100
AcDbEntity
  8
1
  6
Continuous
100
AcDbLine
 10
232.950474
 20
170.598217
 30
0.0
 11
228.950474
 21
168.288816
 31
0.0
  0
ARC
  5
BE14
330
BC32
100
AcDbEntity
  8
1
  6
Continuous
100
AcDbCircle
 10
229.450474
 20
167.4227899999999
 30
0.0
 40
1.0
100
AcDbArc
 50
119.9999999999999
 51
180.0
  0
LINE
  5
BE15
330
BC32
100
AcDbEntity
  8
1
  6
Continuous
100
AcDbLine
 10
228.450474
 20
167.4227899999999
 30
0.0
 11
228.450474
 21
162.8039879999998
 31
0.0
  0
ARC
  5
BE16
330
BC32
100
AcDbEntity
  8
1
  6
Continuous
100
AcDbCircle
 10
229.450474
 20
162.8039879999998
 30
0.0
 40
1.0
100
AcDbArc
 50
180.0
 51
239.9999999999999
  0
ENDSEC
  0
SECTION
  2
OBJECTS
  0
DICTIONARY
  5
BC20
330
0
100
AcDbDictionary
281
     1
  3
ACAD_CIP_PREVIOUS_PRODUCT_INFO
350
BE76
  3
ACAD_COLOR
350
BE58
  3
ACAD_DETAILVIEWSTYLE
350
BE71
  3
ACAD_GROUP
350
BC21
  3
ACAD_LAYOUT
350
BC2D
  3
ACAD_MATERIAL
350
BE26
  3
ACAD_MLEADERSTYLE
350
BE6D
  3
ACAD_MLINESTYLE
350
BC2A
  3
ACAD_PLOTSETTINGS
350
BC2C
  3
ACAD_PLOTSTYLENAME
350
BE24
  3
ACAD_SCALELIST
350
BE5B
  3
ACAD_SECTIONVIEWSTYLE
350
BE6F
  3
ACAD_TABLESTYLE
350
BE59
  3
ACAD_VISUALSTYLE
350
BE3F
  3
ACDB_RECOMPOSE_DATA
350
BE94
  3
AcDbVariableDictionary
350
BE87
  3
DWGPROPS
350
BE95
  0
DICTIONARY
  5
BE77
330
BC24
100
AcDbDictionary
280
     1
281
     1
  3
ADSK_XREC_LAYER_RECONCILED
360
BE78
  0
DICTIONARY
  5
BE79
330
BC3A
100
AcDbDictionary
280
     1
281
     1
  3
ADSK_XREC_LAYER_RECONCILED
360
BE7A
  0
DICTIONARY
  5
BE7B
330
BC3B
100
AcDbDictionary
280
     1
281
     1
  3
ADSK_XREC_LAYER_RECONCILED
360
BE7C
  0
DICTIONARY
  5
BE7D
330
BC3C
100
AcDbDictionary
280
     1
281
     1
  3
ADSK_XREC_LAYER_RECONCILED
360
BE7E
  0
DICTIONARY
  5
BE7F
330
BC3D
100
AcDbDictionary
280
     1
281
     1
  3
ADSK_XREC_LAYER_RECONCILED
360
BE80
  0
DICTIONARY
  5
BE81
330
BC3E
100
AcDbDictionary
280
     1
281
     1
  3
ADSK_XREC_LAYER_RECONCILED
360
BE82
  0
DICTIONARY
  5
BE83
330
BC3F
100
AcDbDictionary
280
     1
281
     1
  3
ADSK_XREC_LAYER_RECONCILED
360
BE84
  0
DICTIONARY
  5
BE85
330
BC40
100
AcDbDictionary
280
     1
281
     1
  3
ADSK_XREC_LAYER_RECONCILED
360
BE86
  0
DICTIONARY
  5
BE1F
330
BC32
100
AcDbDictionary
281
     1
  3
ACAD_LAYOUTSELFREF
350
BE20
  0
DICTIONARY
  5
BE1D
330
BC2E
100
AcDbDictionary
281
     1
  3
ACAD_LAYOUTSELFREF
350
BE1E
  0
XRECORD
  5
BE76
102
{ACAD_REACTORS
330
BC20
102
}
330
BC20
100
AcDbXrecord
280
     1
300
ACDLT
300
2014
300
ACDLT_F_S
  0
DICTIONARY
  5
BE58
102
{ACAD_REACTORS
330
BC20
102
}
330
BC20
100
AcDbDictionary
281
     1
  0
DICTIONARY
  5
BE71
102
{ACAD_REACTORS
330
BC20
102
}
330
BC20
100
AcDbDictionary
281
     1
  3
Imperial24
350
BE72
  0
DICTIONARY
  5
BC21
102
{ACAD_REACTORS
330
BC20
102
}
330
BC20
100
AcDbDictionary
281
     1
  0
DICTIONARY
  5
BC2D
102
{ACAD_REACTORS
330
BC20
102
}
330
BC20
100
AcDbDictionary
281
     1
  3
Model
350
BE73
  3
レイアウト1
350
BE74
  0
DICTIONARY
  5
BE26
102
{ACAD_REACTORS
330
BC20
102
}
330
BC20
100
AcDbDictionary
281
     1
  3
ByBlock
350
BE2F
  3
ByLayer
350
BE27
  3
Global
350
BE37
  0
DICTIONARY
  5
BE6D
102
{ACAD_REACTORS
330
BC20
102
}
330
BC20
100
AcDbDictionary
281
     1
  3
Standard
350
BE6E
  0
DICTIONARY
  5
BC2A
102
{ACAD_REACTORS
330
BC20
102
}
330
BC20
100
AcDbDictionary
281
     1
  3
STANDARD
350
BC2B
  0
DICTIONARY
  5
BC2C
102
{ACAD_REACTORS
330
BC20
102
}
330
BC20
100
AcDbDictionary
281
     1
  0
ACDBDICTIONARYWDFLT
  5
BE24
102
{ACAD_REACTORS
330
BC20
102
}
330
BC20
100
AcDbDictionary
281
     1
  3
Normal
350
BE25
100
AcDbDictionaryWithDefault
340
BE25
  0
DICTIONARY
  5
BE5B
102
{ACAD_REACTORS
330
BC20
102
}
330
BC20
100
AcDbDictionary
281
     1
  3
A0
350
BE5C
  3
A1
350
BE5D
  3
A2
350
BE5E
  3
A3
350
BE5F
  3
A4
350
BE60
  3
A5
350
BE61
  3
A6
350
BE62
  3
A7
350
BE63
  3
A8
350
BE64
  3
A9
350
BE65
  3
B0
350
BE66
  3
B1
350
BE67
  3
B2
350
BE68
  3
B3
350
BE69
  3
B4
350
BE6A
  3
B5
350
BE6B
  3
B6
350
BE6C
  0
DICTIONARY
  5
BE6F
102
{ACAD_REACTORS
330
BC20
102
}
330
BC20
100
AcDbDictionary
281
     1
  3
Imperial24
350
BE70
  0
DICTIONARY
  5
BE59
102
{ACAD_REACTORS
330
BC20
102
}
330
BC20
100
AcDbDictionary
281
     1
  3
Standard
350
BE5A
  0
DICTIONARY
  5
BE3F
102
{ACAD_REACTORS
330
BC20
102
}
330
BC20
100
AcDbDictionary
281
     1
  3
2dWireframe
350
BE45
  3
Basic
350
BE44
  3
Brighten
350
BE4B
  3
ColorChange
350
BE4F
  3
Conceptual
350
BE48
  3
Dim
350
BE4A
  3
EdgeColorOff
350
BE57
  3
Facepattern
350
BE4E
  3
Flat
350
BE40
  3
FlatWithEdges
350
BE41
  3
Gouraud
350
BE42
  3
GouraudWithEdges
350
BE43
  3
Hidden
350
BE47
  3
JitterOff
350
BE55
  3
Linepattern
350
BE4D
  3
OverhangOff
350
BE56
  3
Realistic
350
BE49
  3
Shaded
350
BE54
  3
Shaded with edges
350
BE53
  3
Shades of Gray
350
BE50
  3
Sketchy
350
BE51
  3
Thicken
350
BE4C
  3
Wireframe
350
BE46
  3
X-Ray
350
BE52
  0
XRECORD
  5
BE94
102
{ACAD_REACTORS
330
BC20
102
}
330
BC20
100
AcDbXrecord
280
     1
 90
        1
330
BE5A
  0
DICTIONARY
  5
BE87
102
{ACAD_REACTORS
330
BC20
102
}
330
BC20
100
AcDbDictionary
281
     1
  3
CANNOSCALE
350
BE8C
  3
CMLEADERSTYLE
350
BE89
  3
CTABLESTYLE
350
BE88
  3
CVIEWDETAILSTYLE
350
BE8A
  3
CVIEWSECTIONSTYLE
350
BE8B
  3
DIMASSOC
350
BE8F
  3
INDEXCTL
350
BE8E
  3
SORTENTS
350
BE8D
  3
XCLIPFRAME
350
BE90
  0
XRECORD
  5
BE95
102
{ACAD_REACTORS
330
BC20
102
}
330
BC20
100
AcDbXrecord
280
     1
  1
DWGPROPS COOKIE
  2

  3

  4

  6

  7

  8
Yoshitsune
  9

300
=
301
=
302
=
303
=
304
=
305
=
306
=
307
=
308
=
309
=
 40
0.0000101736111111
 41
2451296.796745718
 42
2457192.658390104
  1

 90
        0
  0
XRECORD
  5
BE78
102
{ACAD_REACTORS
330
BE77
102
}
330
BE77
100
AcDbXrecord
280
     1
290
     1
  0
XRECORD
  5
BE7A
102
{ACAD_REACTORS
330
BE79
102
}
330
BE79
100
AcDbXrecord
280
     1
290
     1
  0
XRECORD
  5
BE7C
102
{ACAD_REACTORS
330
BE7B
102
}
330
BE7B
100
AcDbXrecord
280
     1
290
     1
  0
XRECORD
  5
BE7E
102
{ACAD_REACTORS
330
BE7D
102
}
330
BE7D
100
AcDbXrecord
280
     1
290
     1
  0
XRECORD
  5
BE80
102
{ACAD_REACTORS
330
BE7F
102
}
330
BE7F
100
AcDbXrecord
280
     1
290
     1
  0
XRECORD
  5
BE82
102
{ACAD_REACTORS
330
BE81
102
}
330
BE81
100
AcDbXrecord
280
     1
290
     1
  0
XRECORD
  5
BE84
102
{ACAD_REACTORS
330
BE83
102
}
330
BE83
100
AcDbXrecord
280
     1
290
     1
  0
XRECORD
  5
BE86
102
{ACAD_REACTORS
330
BE85
102
}
330
BE85
100
AcDbXrecord
280
     1
290
     1
  0
XRECORD
  5
BE20
102
{ACAD_REACTORS
330
BE1F
102
}
330
BE1F
100
AcDbXrecord
280
     1
340
BC32
  0
XRECORD
  5
BE1E
102
{ACAD_REACTORS
330
BE1D
102
}
330
BE1D
100
AcDbXrecord
280
     1
340
BC2E
  0
ACDBDETAILVIEWSTYLE
  5
BE72
102
{ACAD_XDICTIONARY
360
BECD
102
}
102
{ACAD_REACTORS
330
BE71
102
}
330
BE71
100
AcDbModelDocViewStyle
 70
     0
  3
Imperial24
290
     0
100
AcDbDetailViewStyle
 70
     0
 71
     0
 90
        3
 71
     1
340
BC25
 40
0.24
340
0
 40
0.24
300

 40
0.36
280
     3
 71
     2
340
BC29
 90
       25
 71
     3
340
BC25
 40
0.24
 90
        1
 40
0.75
 90
        1
300
%<\AcVar ViewType \f "%tc1">% %<\AcVar ViewDetailId>%\PSCALE %<\AcVar ViewScale \f "%sn">%
 71
     4
340
BC29
 90
       25
340
BC29
 90
       25
280
     0
  0
LAYOUT
  5
BE73
102
{ACAD_XDICTIONARY
360
BECF
102
}
102
{ACAD_REACTORS
330
BC2D
102
}
330
BC2D
100
AcDbPlotSettings
  1

  2
Canon LBP9100C
  4

  6

 40
0.0
 41
0.0
 42
0.0
 43
0.0
 44
0.0
 45
0.0
 46
0.0
 47
0.0
 48
0.0
 49
0.0
140
0.0
141
0.0
142
1.0
143
1.0
 70
  1712
 72
     0
 73
     0
 74
     0
  7

 75
     0
147
1.0
148
0.0
149
0.0
100
AcDbLayout
  1
Model
 70
     1
 71
     0
 10
0.0
 20
0.0
 11
12.0
 21
9.0
 12
0.0
 22
0.0
 32
0.0
 14
0.0
 24
0.0
 34
0.0
 15
0.0
 25
0.0
 35
0.0
146
0.0
 13
0.0
 23
0.0
 33
0.0
 16
1.0
 26
0.0
 36
0.0
 17
0.0
 27
1.0
 37
0.0
 76
     0
330
BC32
331
BE1C
  0
LAYOUT
  5
BE74
102
{ACAD_XDICTIONARY
360
BED1
102
}
102
{ACAD_REACTORS
330
BC2D
102
}
330
BC2D
100
AcDbPlotSettings
  1

  2
Canon LBP9100C
  4

  6

 40
0.0
 41
0.0
 42
0.0
 43
0.0
 44
0.0
 45
0.0
 46
0.0
 47
0.0
 48
0.0
 49
0.0
140
0.0
141
0.0
142
1.0
143
1.0
 70
   688
 72
     0
 73
     0
 74
     5
  7

 75
    16
147
1.0
148
0.0
149
0.0
100
AcDbLayout
  1
レイアウト1
 70
     0
 71
     1
 10
0.0
 20
0.0
 11
420.0
 21
297.0
 12
0.0
 22
0.0
 32
0.0
 14
1.000000000000000E+20
 24
1.000000000000000E+20
 34
1.000000000000000E+20
 15
-1.000000000000000E+20
 25
-1.000000000000000E+20
 35
-1.000000000000000E+20
146
0.0
 13
0.0
 23
0.0
 33
0.0
 16
1.0
 26
0.0
 36
0.0
 17
0.0
 27
1.0
 37
0.0
 76
     0
330
BC2E
  0
MATERIAL
  5
BE2F
102
{ACAD_XDICTIONARY
360
BE30
102
}
102
{ACAD_REACTORS
330
BE26
102
}
330
BE26
100
AcDbMaterial
  1
ByBlock
 72
     0
 43
0.0208333333333333
 43
0.0
 43
0.0
 43
0.0
 43
0.0
 43
0.0208333333333333
 43
0.0
 43
0.0
 43
0.0
 43
0.0
 43
1.0
 43
0.0
 43
0.0
 43
0.0
 43
0.0
 43
1.0
 77
     0
 47
0.0208333333333333
 47
0.0
 47
0.0
 47
0.0
 47
0.0
 47
0.0208333333333333
 47
0.0
 47
0.0
 47
0.0
 47
0.0
 47
1.0
 47
0.0
 47
0.0
 47
0.0
 47
0.0
 47
1.0
171
     0
 49
0.0208333333333333
 49
0.0
 49
0.0
 49
0.0
 49
0.0
 49
0.0208333333333333
 49
0.0
 49
0.0
 49
0.0
 49
0.0
 49
1.0
 49
0.0
 49
0.0
 49
0.0
 49
0.0
 49
1.0
175
     0
142
0.0208333333333333
142
0.0
142
0.0
142
0.0
142
0.0
142
0.0208333333333333
142
0.0
142
0.0
142
0.0
142
0.0
142
1.0
142
0.0
142
0.0
142
0.0
142
0.0
142
1.0
179
     0
144
0.0208333333333333
144
0.0
144
0.0
144
0.0
144
0.0
144
0.0208333333333333
144
0.0
144
0.0
144
0.0
144
0.0
144
1.0
144
0.0
144
0.0
144
0.0
144
0.0
144
1.0
147
0.0208333333333333
147
0.0
147
0.0
147
0.0
147
0.0
147
0.0208333333333333
147
0.0
147
0.0
147
0.0
147
0.0
147
1.0
147
0.0
147
0.0
147
0.0
147
0.0
147
1.0
  0
MATERIAL
  5
BE27
102
{ACAD_XDICTIONARY
360
BE28
102
}
102
{ACAD_REACTORS
330
BE26
102
}
330
BE26
100
AcDbMaterial
  1
ByLayer
 72
     0
 43
0.0208333333333333
 43
0.0
 43
0.0
 43
0.0
 43
0.0
 43
0.0208333333333333
 43
0.0
 43
0.0
 43
0.0
 43
0.0
 43
1.0
 43
0.0
 43
0.0
 43
0.0
 43
0.0
 43
1.0
 77
     0
 47
0.0208333333333333
 47
0.0
 47
0.0
 47
0.0
 47
0.0
 47
0.0208333333333333
 47
0.0
 47
0.0
 47
0.0
 47
0.0
 47
1.0
 47
0.0
 47
0.0
 47
0.0
 47
0.0
 47
1.0
171
     0
 49
0.0208333333333333
 49
0.0
 49
0.0
 49
0.0
 49
0.0
 49
0.0208333333333333
 49
0.0
 49
0.0
 49
0.0
 49
0.0
 49
1.0
 49
0.0
 49
0.0
 49
0.0
 49
0.0
 49
1.0
175
     0
142
0.0208333333333333
142
0.0
142
0.0
142
0.0
142
0.0
142
0.0208333333333333
142
0.0
142
0.0
142
0.0
142
0.0
142
1.0
142
0.0
142
0.0
142
0.0
142
0.0
142
1.0
179
     0
144
0.0208333333333333
144
0.0
144
0.0
144
0.0
144
0.0
144
0.0208333333333333
144
0.0
144
0.0
144
0.0
144
0.0
144
1.0
144
0.0
144
0.0
144
0.0
144
0.0
144
1.0
147
0.0208333333333333
147
0.0
147
0.0
147
0.0
147
0.0
147
0.0208333333333333
147
0.0
147
0.0
147
0.0
147
0.0
147
1.0
147
0.0
147
0.0
147
0.0
147
0.0
147
1.0
  0
MATERIAL
  5
BE37
102
{ACAD_XDICTIONARY
360
BE38
102
}
102
{ACAD_REACTORS
330
BE26
102
}
330
BE26
100
AcDbMaterial
  1
Global
 72
     0
 43
0.0208333333333333
 43
0.0
 43
0.0
 43
0.0
 43
0.0
 43
0.0208333333333333
 43
0.0
 43
0.0
 43
0.0
 43
0.0
 43
1.0
 43
0.0
 43
0.0
 43
0.0
 43
0.0
 43
1.0
 77
     0
 47
0.0208333333333333
 47
0.0
 47
0.0
 47
0.0
 47
0.0
 47
0.0208333333333333
 47
0.0
 47
0.0
 47
0.0
 47
0.0
 47
1.0
 47
0.0
 47
0.0
 47
0.0
 47
0.0
 47
1.0
171
     0
 49
0.0208333333333333
 49
0.0
 49
0.0
 49
0.0
 49
0.0
 49
0.0208333333333333
 49
0.0
 49
0.0
 49
0.0
 49
0.0
 49
1.0
 49
0.0
 49
0.0
 49
0.0
 49
0.0
 49
1.0
175
     0
142
0.0208333333333333
142
0.0
142
0.0
142
0.0
142
0.0
142
0.0208333333333333
142
0.0
142
0.0
142
0.0
142
0.0
142
1.0
142
0.0
142
0.0
142
0.0
142
0.0
142
1.0
179
     0
144
0.0208333333333333
144
0.0
144
0.0
144
0.0
144
0.0
144
0.0208333333333333
144
0.0
144
0.0
144
0.0
144
0.0
144
1.0
144
0.0
144
0.0
144
0.0
144
0.0
144
1.0
147
0.0208333333333333
147
0.0
147
0.0
147
0.0
147
0.0
147
0.0208333333333333
147
0.0
147
0.0
147
0.0
147
0.0
147
1.0
147
0.0
147
0.0
147
0.0
147
0.0
147
1.0
  0
MLEADERSTYLE
  5
BE6E
102
{ACAD_REACTORS
330
BE6D
102
}
330
BE6D
100
AcDbMLeaderStyle
170
     2
171
     1
172
     0
 90
        2
 40
0.0
 41
0.0
173
     1
 91
-1056964608
340
BC27
 92
       -2
290
     1
 42
0.09
291
     1
 43
0.36
  3
Standard
 44
0.18
300

342
BC25
174
     1
178
     6
175
     1
176
     0
 93
-1056964608
 45
0.18
292
     0
297
     0
 46
0.18
 94
-1056964608
 47
1.0
 49
1.0
140
1.0
293
     1
141
0.0
294
     1
177
     0
142
1.0
295
     0
296
     0
143
0.125
1001
ACAD_MLEADERVER
1070
     2
  0
MLINESTYLE
  5
BC2B
102
{ACAD_REACTORS
330
BC2A
102
}
330
BC2A
100
AcDbMlineStyle
  2
STANDARD
 70
     0
  3

 62
   256
 51
90.0
 52
90.0
 71
     2
 49
0.5
 62
   256
  6
BYLAYER
 49
-0.5
 62
   256
  6
BYLAYER
  0
ACDBPLACEHOLDER
  5
BE25
102
{ACAD_REACTORS
330
BE24
102
}
330
BE24
  0
SCALE
  5
BE5C
102
{ACAD_REACTORS
330
BE5B
102
}
330
BE5B
100
AcDbScale
 70
     0
300
1:1
140
1.0
141
1.0
290
     1
  0
SCALE
  5
BE5D
102
{ACAD_REACTORS
330
BE5B
102
}
330
BE5B
100
AcDbScale
 70
     0
300
1/128" = 1'-0"
140
0.0078125
141
12.0
290
     0
  0
SCALE
  5
BE5E
102
{ACAD_REACTORS
330
BE5B
102
}
330
BE5B
100
AcDbScale
 70
     0
300
1/64" = 1'-0"
140
0.015625
141
12.0
290
     0
  0
SCALE
  5
BE5F
102
{ACAD_REACTORS
330
BE5B
102
}
330
BE5B
100
AcDbScale
 70
     0
300
1/32" = 1'-0"
140
0.03125
141
12.0
290
     0
  0
SCALE
  5
BE60
102
{ACAD_REACTORS
330
BE5B
102
}
330
BE5B
100
AcDbScale
 70
     0
300
1/16" = 1'-0"
140
0.0625
141
12.0
290
     0
  0
SCALE
  5
BE61
102
{ACAD_REACTORS
330
BE5B
102
}
330
BE5B
100
AcDbScale
 70
     0
300
3/32" = 1'-0"
140
0.09375
141
12.0
290
     0
  0
SCALE
  5
BE62
102
{ACAD_REACTORS
330
BE5B
102
}
330
BE5B
100
AcDbScale
 70
     0
300
1/8" = 1'-0"
140
0.125
141
12.0
290
     0
  0
SCALE
  5
BE63
102
{ACAD_REACTORS
330
BE5B
102
}
330
BE5B
100
AcDbScale
 70
     0
300
3/16" = 1'-0"
140
0.1875
141
12.0
290
     0
  0
SCALE
  5
BE64
102
{ACAD_REACTORS
330
BE5B
102
}
330
BE5B
100
AcDbScale
 70
     0
300
1/4" = 1'-0"
140
0.25
141
12.0
290
     0
  0
SCALE
  5
BE65
102
{ACAD_REACTORS
330
BE5B
102
}
330
BE5B
100
AcDbScale
 70
     0
300
3/8" = 1'-0"
140
0.375
141
12.0
290
     0
  0
SCALE
  5
BE66
102
{ACAD_REACTORS
330
BE5B
102
}
330
BE5B
100
AcDbScale
 70
     0
300
1/2" = 1'-0"
140
0.5
141
12.0
290
     0
  0
SCALE
  5
BE67
102
{ACAD_REACTORS
330
BE5B
102
}
330
BE5B
100
AcDbScale
 70
     0
300
3/4" = 1'-0"
140
0.75
141
12.0
290
     0
  0
SCALE
  5
BE68
102
{ACAD_REACTORS
330
BE5B
102
}
330
BE5B
100
AcDbScale
 70
     0
300
1" = 1'-0"
140
1.0
141
12.0
290
     0
  0
SCALE
  5
BE69
102
{ACAD_REACTORS
330
BE5B
102
}
330
BE5B
100
AcDbScale
 70
     0
300
1-1/2" = 1'-0"
140
1.5
141
12.0
290
     0
  0
SCALE
  5
BE6A
102
{ACAD_REACTORS
330
BE5B
102
}
330
BE5B
100
AcDbScale
 70
     0
300
3" = 1'-0"
140
3.0
141
12.0
290
     0
  0
SCALE
  5
BE6B
102
{ACAD_REACTORS
330
BE5B
102
}
330
BE5B
100
AcDbScale
 70
     0
300
6" = 1'-0"
140
6.0
141
12.0
290
     0
  0
SCALE
  5
BE6C
102
{ACAD_REACTORS
330
BE5B
102
}
330
BE5B
100
AcDbScale
 70
     0
300
1'-0" = 1'-0"
140
12.0
141
12.0
290
     0
  0
ACDBSECTIONVIEWSTYLE
  5
BE70
102
{ACAD_XDICTIONARY
360
BECB
102
}
102
{ACAD_REACTORS
330
BE6F
102
}
330
BE6F
100
AcDbModelDocViewStyle
 70
     0
  3
Imperial24
290
     0
100
AcDbSectionViewStyle
 70
     0
 71
     0
 90
       78
 71
     1
340
BC25
 40
0.24
340
0
340
0
 40
0.24
300
I, O, Q, S, X, Z
 40
0.48
 90
        3
 40
0.18
 90
        1
 71
     2
340
BC29
 90
       25
340
BC29
 90
       50
 40
0.24
 40
0.0
 40
0.24
 71
     3
340
BC25
 40
0.24
 90
        1
 40
0.75
 90
        1
300
%<\AcVar ViewType \f "%tc1">% %<\AcVar ViewSectionStartId>%-%<\AcVar ViewSectionEndId>%\PSCALE %<\AcVar ViewScale \f "%sn">%
 71
     4
300
ANSI31
 40
1.0
 90
        0
290
     0
290
     0
 90
        6
 40
0.0
 40
1.570796326794896
 40
0.2617993877991494
 40
1.308996938995747
 40
-0.2617993877991494
 40
1.832595714594046
  0
TABLESTYLE
  5
BE5A
102
{ACAD_XDICTIONARY
360
BE92
102
}
102
{ACAD_REACTORS
330
BE59
102
}
330
BE59
100
AcDbTableStyle
  3
Standard
 70
     0
 71
     0
 40
0.06
 41
0.06
280
     0
281
     0
  7
STANDARD
140
0.18
170
     2
 62
     0
 63
     7
283
     0
274
    -2
284
     1
 64
     0
275
    -2
285
     1
 65
     0
276
    -2
286
     1
 66
     0
277
    -2
287
     1
 67
     0
278
    -2
288
     1
 68
     0
279
    -2
289
     1
 69
     0
  7
STANDARD
140
0.25
170
     5
 62
     0
 63
     7
283
     0
274
    -2
284
     1
 64
     0
275
    -2
285
     1
 65
     0
276
    -2
286
     1
 66
     0
277
    -2
287
     1
 67
     0
278
    -2
288
     1
 68
     0
279
    -2
289
     1
 69
     0
  7
STANDARD
140
0.18
170
     5
 62
     0
 63
     7
283
     0
274
    -2
284
     1
 64
     0
275
    -2
285
     1
 65
     0
276
    -2
286
     1
 66
     0
277
    -2
287
     1
 67
     0
278
    -2
288
     1
 68
     0
279
    -2
289
     1
 69
     0
  0
VISUALSTYLE
  5
BE45
102
{ACAD_XDICTIONARY
360
BEA3
102
}
102
{ACAD_REACTORS
330
BE3F
102
}
330
BE3F
100
AcDbVisualStyle
  2
2dWireframe
 70
     4
 71
     0
 72
     2
 73
     0
 90
        0
 40
-0.6
 41
-30.0
 62
     5
 63
     7
 74
     1
 91
        4
 64
     7
 65
   257
 75
     1
175
     1
 42
1.0
 92
        0
 66
   257
 43
1.0
 76
     1
 77
     6
 78
     2
 67
     7
 79
     5
170
     0
171
     0
290
     0
174
     0
 93
        1
 44
0.0
173
     0
291
     0
 45
0.0
1001
ACAD
1000
AcDbSavedByObjectVersion
1070
     0
  0
VISUALSTYLE
  5
BE44
102
{ACAD_XDICTIONARY
360
BEA1
102
}
102
{ACAD_REACTORS
330
BE3F
102
}
330
BE3F
100
AcDbVisualStyle
  2
Basic
 70
     7
 71
     1
 72
     0
 73
     1
 90
        0
 40
-0.6
 41
-30.0
 62
     5
 63
     7
 74
     0
 91
        4
 64
     7
 65
   257
 75
     1
175
     1
 42
1.0
 92
        8
 66
     7
 43
1.0
 76
     1
 77
     6
 78
     2
 67
     7
 79
     5
170
     0
171
     0
290
     0
174
     0
 93
        1
 44
0.0
173
     0
291
     1
 45
0.0
1001
ACAD
1000
AcDbSavedByObjectVersion
1070
     0
  0
VISUALSTYLE
  5
BE4B
102
{ACAD_XDICTIONARY
360
BEAF
102
}
102
{ACAD_REACTORS
330
BE3F
102
}
330
BE3F
100
AcDbVisualStyle
  2
Brighten
 70
    12
 71
     2
 72
     2
 73
     0
 90
        0
 40
-0.6
 41
-30.0
 62
     5
 63
     7
 74
     1
 91
        4
 64
     7
 65
   257
 75
     1
175
     1
 42
1.0
 92
        8
 66
     7
 43
1.0
 76
     1
 77
     6
 78
     2
 67
     7
 79
     5
170
     0
171
     0
290
     0
174
     0
 93
        1
 44
50.0
173
     0
291
     1
 45
0.0
1001
ACAD
1000
AcDbSavedByObjectVersion
1070
     0
  0
VISUALSTYLE
  5
BE4F
102
{ACAD_XDICTIONARY
360
BEB7
102
}
102
{ACAD_REACTORS
330
BE3F
102
}
330
BE3F
100
AcDbVisualStyle
  2
ColorChange
 70
    16
 71
     2
 72
     2
 73
     3
 90
        0
 40
-0.6
 41
-30.0
 62
     5
 63
     8
 74
     1
 91
        4
 64
     7
 65
   257
 75
     1
175
     1
 42
1.0
 92
        8
 66
     8
 43
1.0
 76
     1
 77
     6
 78
     2
 67
     7
 79
     5
170
     0
171
     0
290
     0
174
     0
 93
        1
 44
0.0
173
     0
291
     1
 45
0.0
1001
ACAD
1000
AcDbSavedByObjectVersion
1070
     0
  0
VISUALSTYLE
  5
BE48
102
{ACAD_XDICTIONARY
360
BEA9
102
}
102
{ACAD_REACTORS
330
BE3F
102
}
330
BE3F
100
AcDbVisualStyle
  2
Conceptual
 70
     9
 71
     3
 72
     2
 73
     0
 90
        0
 40
-0.6
 41
-30.0
 62
     5
 63
     7
 74
     2
 91
        2
 64
     7
 65
   257
 75
     1
175
     1
 42
179.0
 92
        8
 66
     7
 43
1.0
 76
     1
 77
     6
 78
     2
 67
     7
 79
     3
170
     0
171
     0
290
     0
174
     0
 93
        1
 44
0.0
173
     0
291
     0
 45
0.0
1001
ACAD
1000
AcDbSavedByObjectVersion
1070
     0
  0
VISUALSTYLE
  5
BE4A
102
{ACAD_XDICTIONARY
360
BEAD
102
}
102
{ACAD_REACTORS
330
BE3F
102
}
330
BE3F
100
AcDbVisualStyle
  2
Dim
 70
    11
 71
     2
 72
     2
 73
     0
 90
        0
 40
-0.6
 41
-30.0
 62
     5
 63
     7
 74
     1
 91
        4
 64
     7
 65
   257
 75
     1
175
     1
 42
1.0
 92
        8
 66
     7
 43
1.0
 76
     1
 77
     6
 78
     2
 67
     7
 79
     5
170
     0
171
     0
290
     0
174
     0
 93
        1
 44
-50.0
173
     0
291
     1
 45
0.0
1001
ACAD
1000
AcDbSavedByObjectVersion
1070
     0
  0
VISUALSTYLE
  5
BE57
102
{ACAD_XDICTIONARY
360
BEC7
102
}
102
{ACAD_REACTORS
330
BE3F
102
}
330
BE3F
100
AcDbVisualStyle
  2
EdgeColorOff
 70
    22
 71
     2
 72
     2
 73
     0
 90
        0
 40
-0.6
 41
-30.0
 62
     5
 63
     7
 74
     1
 91
        4
 64
     7
 65
   257
 75
     1
175
     1
 42
1.0
 92
        8
 66
     7
 43
1.0
 76
     1
 77
     6
 78
     2
 67
     7
 79
     5
170
     0
171
     0
290
     0
174
     0
 93
        1
 44
0.0
173
     0
291
     1
 45
0.0
1001
ACAD
1000
AcDbSavedByObjectVersion
1070
     0
  0
VISUALSTYLE
  5
BE4E
102
{ACAD_XDICTIONARY
360
BEB5
102
}
102
{ACAD_REACTORS
330
BE3F
102
}
330
BE3F
100
AcDbVisualStyle
  2
Facepattern
 70
    15
 71
     2
 72
     2
 73
     0
 90
        0
 40
-0.6
 41
-30.0
 62
     5
 63
     7
 74
     1
 91
        4
 64
     7
 65
   257
 75
     1
175
     1
 42
1.0
 92
        8
 66
     7
 43
1.0
 76
     1
 77
     6
 78
     2
 67
     7
 79
     5
170
     0
171
     0
290
     0
174
     0
 93
        1
 44
0.0
173
     0
291
     1
 45
0.0
1001
ACAD
1000
AcDbSavedByObjectVersion
1070
     0
  0
VISUALSTYLE
  5
BE40
102
{ACAD_XDICTIONARY
360
BE99
102
}
102
{ACAD_REACTORS
330
BE3F
102
}
330
BE3F
100
AcDbVisualStyle
  2
Flat
 70
     0
 71
     2
 72
     1
 73
     1
 90
        2
 40
-0.6
 41
30.0
 62
     5
 63
     7
 74
     0
 91
        0
 64
     7
 65
   257
 75
     1
175
     1
 42
1.0
 92
        8
 66
     7
 43
1.0
 76
     1
 77
     6
 78
     2
 67
     7
 79
     5
170
     0
171
     0
290
     0
174
     0
 93
       13
 44
0.0
173
     0
291
     1
 45
0.0
1001
ACAD
1000
AcDbSavedByObjectVersion
1070
     0
  0
VISUALSTYLE
  5
BE41
102
{ACAD_XDICTIONARY
360
BE9B
102
}
102
{ACAD_REACTORS
330
BE3F
102
}
330
BE3F
100
AcDbVisualStyle
  2
FlatWithEdges
 70
     1
 71
     2
 72
     1
 73
     1
 90
        2
 40
-0.6
 41
30.0
 62
     5
 63
     7
 74
     1
 91
        0
 64
     7
 65
   257
 75
     1
175
     1
 42
1.0
 92
        0
 66
   257
 43
1.0
 76
     1
 77
     6
 78
     2
 67
     7
 79
     5
170
     0
171
     0
290
     0
174
     0
 93
       13
 44
0.0
173
     0
291
     1
 45
0.0
1001
ACAD
1000
AcDbSavedByObjectVersion
1070
     0
  0
VISUALSTYLE
  5
BE42
102
{ACAD_XDICTIONARY
360
BE9D
102
}
102
{ACAD_REACTORS
330
BE3F
102
}
330
BE3F
100
AcDbVisualStyle
  2
Gouraud
 70
     2
 71
     2
 72
     2
 73
     1
 90
        2
 40
-0.6
 41
30.0
 62
     5
 63
     7
 74
     0
 91
        0
 64
     7
 65
   257
 75
     1
175
     1
 42
1.0
 92
        0
 66
     7
 43
1.0
 76
     1
 77
     6
 78
     2
 67
     7
 79
     5
170
     0
171
     0
290
     0
174
     0
 93
       13
 44
0.0
173
     0
291
     1
 45
0.0
1001
ACAD
1000
AcDbSavedByObjectVersion
1070
     0
  0
VISUALSTYLE
  5
BE43
102
{ACAD_XDICTIONARY
360
BE9F
102
}
102
{ACAD_REACTORS
330
BE3F
102
}
330
BE3F
100
AcDbVisualStyle
  2
GouraudWithEdges
 70
     3
 71
     2
 72
     2
 73
     1
 90
        2
 40
-0.6
 41
30.0
 62
     5
 63
     7
 74
     1
 91
        0
 64
     7
 65
   257
 75
     1
175
     1
 42
1.0
 92
        0
 66
   257
 43
1.0
 76
     1
 77
     6
 78
     2
 67
     7
 79
     5
170
     0
171
     0
290
     0
174
     0
 93
       13
 44
0.0
173
     0
291
     1
 45
0.0
1001
ACAD
1000
AcDbSavedByObjectVersion
1070
     0
  0
VISUALSTYLE
  5
BE47
102
{ACAD_XDICTIONARY
360
BEA7
102
}
102
{ACAD_REACTORS
330
BE3F
102
}
330
BE3F
100
AcDbVisualStyle
  2
Hidden
 70
     6
 71
     1
 72
     2
 73
     2
 90
        0
 40
-0.6
 41
-30.0
 62
     5
 63
     7
 74
     2
 91
        2
 64
     7
 65
   257
 75
     2
175
     1
 42
40.0
 92
        0
 66
   257
 43
1.0
 76
     1
 77
     6
 78
     2
 67
     7
 79
     3
170
     0
171
     0
290
     0
174
     0
 93
        1
 44
0.0
173
     0
291
     0
 45
0.0
1001
ACAD
1000
AcDbSavedByObjectVersion
1070
     0
  0
VISUALSTYLE
  5
BE55
102
{ACAD_XDICTIONARY
360
BEC3
102
}
102
{ACAD_REACTORS
330
BE3F
102
}
330
BE3F
100
AcDbVisualStyle
  2
JitterOff
 70
    20
 71
     2
 72
     2
 73
     0
 90
        0
 40
-0.6
 41
-30.0
 62
     5
 63
     7
 74
     1
 91
        4
 64
     7
 65
   257
 75
     1
175
     1
 42
1.0
 92
       10
 66
     7
 43
1.0
 76
     1
 77
     6
 78
     2
 67
     7
 79
     5
170
     0
171
     0
290
     0
174
     0
 93
        1
 44
0.0
173
     0
291
     1
 45
0.0
1001
ACAD
1000
AcDbSavedByObjectVersion
1070
     0
  0
VISUALSTYLE
  5
BE4D
102
{ACAD_XDICTIONARY
360
BEB3
102
}
102
{ACAD_REACTORS
330
BE3F
102
}
330
BE3F
100
AcDbVisualStyle
  2
Linepattern
 70
    14
 71
     2
 72
     2
 73
     0
 90
        0
 40
-0.6
 41
-30.0
 62
     5
 63
     7
 74
     1
 91
        4
 64
     7
 65
   257
 75
     7
175
     7
 42
1.0
 92
        8
 66
     7
 43
1.0
 76
     1
 77
     6
 78
     2
 67
     7
 79
     5
170
     0
171
     0
290
     0
174
     0
 93
        1
 44
0.0
173
     0
291
     1
 45
0.0
1001
ACAD
1000
AcDbSavedByObjectVersion
1070
     0
  0
VISUALSTYLE
  5
BE56
102
{ACAD_XDICTIONARY
360
BEC5
102
}
102
{ACAD_REACTORS
330
BE3F
102
}
330
BE3F
100
AcDbVisualStyle
  2
OverhangOff
 70
    21
 71
     2
 72
     2
 73
     0
 90
        0
 40
-0.6
 41
-30.0
 62
     5
 63
     7
 74
     1
 91
        4
 64
     7
 65
   257
 75
     1
175
     1
 42
1.0
 92
        9
 66
     7
 43
1.0
 76
     1
 77
     6
 78
     2
 67
     7
 79
     5
170
     0
171
     0
290
     0
174
     0
 93
        1
 44
0.0
173
     0
291
     1
 45
0.0
1001
ACAD
1000
AcDbSavedByObjectVersion
1070
     0
  0
VISUALSTYLE
  5
BE49
102
{ACAD_XDICTIONARY
360
BEAB
102
}
102
{ACAD_REACTORS
330
BE3F
102
}
330
BE3F
100
AcDbVisualStyle
  2
Realistic
 70
     8
 71
     2
 72
     3
 73
     0
 90
        2
 40
-0.6
 41
30.0
 62
     5
 63
     7
 74
     0
 91
        0
 64
     7
 65
   257
 75
     1
175
     1
 42
1.0
 92
        8
 66
   257
 43
1.0
 76
     1
 77
     6
 78
     2
 67
     7
 79
     3
170
     0
171
     0
290
     0
174
     0
 93
       13
 44
0.0
173
     0
291
     0
 45
0.0
1001
ACAD
1000
AcDbSavedByObjectVersion
1070
     0
  0
VISUALSTYLE
  5
BE54
102
{ACAD_XDICTIONARY
360
BEC1
102
}
102
{ACAD_REACTORS
330
BE3F
102
}
330
BE3F
100
AcDbVisualStyle
  2
Shaded
 70
    27
 71
     2
 72
     2
 73
     1
 90
        2
 40
-0.6
 41
30.0
 62
     5
 63
     7
 74
     0
 91
        4
 64
     7
 65
   257
 75
     1
175
     1
 42
1.0
 92
        8
 66
   257
 43
1.0
 76
     1
 77
     6
 78
     2
 67
     8
 79
     3
170
     0
171
     0
290
     0
174
     0
 93
        5
 44
0.0
173
     0
291
     0
 45
0.0
1001
ACAD
1000
AcDbSavedByObjectVersion
1070
     0
  0
VISUALSTYLE
  5
BE53
102
{ACAD_XDICTIONARY
360
BEBF
102
}
102
{ACAD_REACTORS
330
BE3F
102
}
330
BE3F
100
AcDbVisualStyle
  2
Shaded with edges
 70
    26
 71
     2
 72
     2
 73
     1
 90
        2
 40
-0.6
 41
30.0
 62
     5
 63
     7
 74
     1
 91
       10
 64
     7
 65
   257
 75
     2
175
     1
 42
1.0
 92
        8
 66
   257
 43
1.0
 76
     1
 77
     6
 78
     2
 67
     7
 79
     3
170
     0
171
     0
290
     0
174
     0
 93
        5
 44
0.0
173
     0
291
     0
 45
0.0
1001
ACAD
1000
AcDbSavedByObjectVersion
1070
     0
  0
VISUALSTYLE
  5
BE50
102
{ACAD_XDICTIONARY
360
BEB9
102
}
102
{ACAD_REACTORS
330
BE3F
102
}
330
BE3F
100
AcDbVisualStyle
  2
Shades of Gray
 70
    23
 71
     2
 72
     2
 73
     3
 90
        0
 40
-0.6
 41
-30.0
 62
     5
 63
     7
 74
     2
 91
        2
 64
     7
 65
     7
 75
     1
175
     1
 42
40.0
 92
        8
 66
     7
 43
1.0
 76
     1
 77
     6
 78
     2
 67
     7
 79
     3
170
     0
171
     0
290
     0
174
     0
 93
        1
 44
0.0
173
     0
291
     0
 45
0.0
1001
ACAD
1000
AcDbSavedByObjectVersion
1070
     0
  0
VISUALSTYLE
  5
BE51
102
{ACAD_XDICTIONARY
360
BEBB
102
}
102
{ACAD_REACTORS
330
BE3F
102
}
330
BE3F
100
AcDbVisualStyle
  2
Sketchy
 70
    24
 71
     1
 72
     2
 73
     2
 90
        0
 40
-0.6
 41
-30.0
 62
     5
 63
     7
 74
     2
 91
        2
 64
     7
 65
     7
 75
     1
175
     1
 42
40.0
 92
       11
 66
     7
 43
1.0
 76
     1
 77
     6
 78
     2
 67
     7
 79
     6
170
     0
171
     0
290
     0
174
     0
 93
        1
 44
0.0
173
     0
291
     0
 45
0.0
1001
ACAD
1000
AcDbSavedByObjectVersion
1070
     0
  0
VISUALSTYLE
  5
BE4C
102
{ACAD_XDICTIONARY
360
BEB1
102
}
102
{ACAD_REACTORS
330
BE3F
102
}
330
BE3F
100
AcDbVisualStyle
  2
Thicken
 70
    13
 71
     2
 72
     2
 73
     0
 90
        0
 40
-0.6
 41
-30.0
 62
     5
 63
     7
 74
     1
 91
        4
 64
     7
 65
   257
 75
     1
175
     1
 42
1.0
 92
       12
 66
     7
 43
1.0
 76
     1
 77
     6
 78
     2
 67
     7
 79
     5
170
     0
171
     0
290
     0
174
     0
 93
        1
 44
0.0
173
     0
291
     1
 45
0.0
1001
ACAD
1000
AcDbSavedByObjectVersion
1070
     0
  0
VISUALSTYLE
  5
BE46
102
{ACAD_XDICTIONARY
360
BEA5
102
}
102
{ACAD_REACTORS
330
BE3F
102
}
330
BE3F
100
AcDbVisualStyle
  2
Wireframe
 70
     5
 71
     0
 72
     2
 73
     0
 90
        0
 40
-0.6
 41
-30.0
 62
     5
 63
     7
 74
     1
 91
        4
 64
     7
 65
   257
 75
     1
175
     1
 42
1.0
 92
        0
 66
   257
 43
1.0
 76
     1
 77
     6
 78
     2
 67
     7
 79
     3
170
     0
171
     0
290
     0
174
     0
 93
        1
 44
0.0
173
     0
291
     0
 45
0.0
1001
ACAD
1000
AcDbSavedByObjectVersion
1070
     0
  0
VISUALSTYLE
  5
BE52
102
{ACAD_XDICTIONARY
360
BEBD
102
}
102
{ACAD_REACTORS
330
BE3F
102
}
330
BE3F
100
AcDbVisualStyle
  2
X-Ray
 70
    25
 71
     2
 72
     2
 73
     1
 90
        1
 40
0.5
 41
-30.0
 62
     5
 63
     7
 74
     1
 91
        0
 64
     7
 65
   257
 75
     1
175
     1
 42
1.0
 92
        8
 66
     7
 43
1.0
 76
     1
 77
     6
 78
     2
 67
     7
 79
     3
170
     0
171
     0
290
     0
174
     0
 93
       13
 44
0.0
173
     0
291
     0
 45
0.0
1001
ACAD
1000
AcDbSavedByObjectVersion
1070
     0
  0
DICTIONARYVAR
  5
BE8C
102
{ACAD_REACTORS
330
BE87
102
}
330
BE87
100
DictionaryVariables
280
     0
  1
1:1
  0
DICTIONARYVAR
  5
BE89
102
{ACAD_REACTORS
330
BE87
102
}
330
BE87
100
DictionaryVariables
280
     0
  1
STANDARD
  0
DICTIONARYVAR
  5
BE88
102
{ACAD_REACTORS
330
BE87
102
}
330
BE87
100
DictionaryVariables
280
     0
  1
STANDARD
  0
DICTIONARYVAR
  5
BE8A
102
{ACAD_REACTORS
330
BE87
102
}
330
BE87
100
DictionaryVariables
280
     0
  1
Imperial24
  0
DICTIONARYVAR
  5
BE8B
102
{ACAD_REACTORS
330
BE87
102
}
330
BE87
100
DictionaryVariables
280
     0
  1
Imperial24
  0
DICTIONARYVAR
  5
BE8F
102
{ACAD_REACTORS
330
BE87
102
}
330
BE87
100
DictionaryVariables
280
     0
  1
1
  0
DICTIONARYVAR
  5
BE8E
102
{ACAD_REACTORS
330
BE87
102
}
330
BE87
100
DictionaryVariables
280
     0
  1
0
  0
DICTIONARYVAR
  5
BE8D
102
{ACAD_REACTORS
330
BE87
102
}
330
BE87
100
DictionaryVariables
280
     0
  1
127
  0
DICTIONARYVAR
  5
BE90
102
{ACAD_REACTORS
330
BE87
102
}
330
BE87
100
DictionaryVariables
280
     0
  1
2
  0
DICTIONARY
  5
BECD
330
BE72
100
AcDbDictionary
280
     1
281
     1
  3
ACAD_XREC_ROUNDTRIP
360
BECE
  0
DICTIONARY
  5
BECF
330
BE73
100
AcDbDictionary
280
     1
281
     1
  3
ACAD_XREC_ROUNDTRIP
360
BED0
  0
DICTIONARY
  5
BED1
330
BE74
100
AcDbDictionary
280
     1
281
     1
  3
ACAD_XREC_ROUNDTRIP
360
BED2
  0
DICTIONARY
  5
BE30
330
BE2F
100
AcDbDictionary
280
     1
281
     1
  3
ACAD_XREC_ROUNDTRIP
360
BE97
  3
BUMPTILE
360
BE32
  3
DIFFUSETILE
360
BE31
  3
OPACITYTILE
360
BE35
  3
REFLECTIONTILE
360
BE34
  3
REFRACTIONTILE
360
BE36
  3
SPECULARTILE
360
BE33
  0
DICTIONARY
  5
BE28
330
BE27
100
AcDbDictionary
280
     1
281
     1
  3
ACAD_XREC_ROUNDTRIP
360
BE96
  3
BUMPTILE
360
BE2A
  3
DIFFUSETILE
360
BE29
  3
OPACITYTILE
360
BE2D
  3
REFLECTIONTILE
360
BE2C
  3
REFRACTIONTILE
360
BE2E
  3
SPECULARTILE
360
BE2B
  0
DICTIONARY
  5
BE38
330
BE37
100
AcDbDictionary
280
     1
281
     1
  3
ACAD_XREC_ROUNDTRIP
360
BE98
  3
BUMPTILE
360
BE3A
  3
DIFFUSETILE
360
BE39
  3
OPACITYTILE
360
BE3D
  3
REFLECTIONTILE
360
BE3C
  3
REFRACTIONTILE
360
BE3E
  3
SPECULARTILE
360
BE3B
  0
DICTIONARY
  5
BECB
330
BE70
100
AcDbDictionary
280
     1
281
     1
  3
ACAD_XREC_ROUNDTRIP
360
BECC
  0
DICTIONARY
  5
BE92
330
BE5A
100
AcDbDictionary
280
     1
281
     1
  3
ACAD_ROUNDTRIP_2008_TABLESTYLE_CELLSTYLEMAP
360
BE93
  3
ACAD_XREC_ROUNDTRIP
360
BEC9
  0
DICTIONARY
  5
BEA3
330
BE45
100
AcDbDictionary
280
     1
281
     1
  3
ACAD_XREC_ROUNDTRIP
360
BEA4
  0
DICTIONARY
  5
BEA1
330
BE44
100
AcDbDictionary
280
     1
281
     1
  3
ACAD_XREC_ROUNDTRIP
360
BEA2
  0
DICTIONARY
  5
BEAF
330
BE4B
100
AcDbDictionary
280
     1
281
     1
  3
ACAD_XREC_ROUNDTRIP
360
BEB0
  0
DICTIONARY
  5
BEB7
330
BE4F
100
AcDbDictionary
280
     1
281
     1
  3
ACAD_XREC_ROUNDTRIP
360
BEB8
  0
DICTIONARY
  5
BEA9
330
BE48
100
AcDbDictionary
280
     1
281
     1
  3
ACAD_XREC_ROUNDTRIP
360
BEAA
  0
DICTIONARY
  5
BEAD
330
BE4A
100
AcDbDictionary
280
     1
281
     1
  3
ACAD_XREC_ROUNDTRIP
360
BEAE
  0
DICTIONARY
  5
BEC7
330
BE57
100
AcDbDictionary
280
     1
281
     1
  3
ACAD_XREC_ROUNDTRIP
360
BEC8
  0
DICTIONARY
  5
BEB5
330
BE4E
100
AcDbDictionary
280
     1
281
     1
  3
ACAD_XREC_ROUNDTRIP
360
BEB6
  0
DICTIONARY
  5
BE99
330
BE40
100
AcDbDictionary
280
     1
281
     1
  3
ACAD_XREC_ROUNDTRIP
360
BE9A
  0
DICTIONARY
  5
BE9B
330
BE41
100
AcDbDictionary
280
     1
281
     1
  3
ACAD_XREC_ROUNDTRIP
360
BE9C
  0
DICTIONARY
  5
BE9D
330
BE42
100
AcDbDictionary
280
     1
281
     1
  3
ACAD_XREC_ROUNDTRIP
360
BE9E
  0
DICTIONARY
  5
BE9F
330
BE43
100
AcDbDictionary
280
     1
281
     1
  3
ACAD_XREC_ROUNDTRIP
360
BEA0
  0
DICTIONARY
  5
BEA7
330
BE47
100
AcDbDictionary
280
     1
281
     1
  3
ACAD_XREC_ROUNDTRIP
360
BEA8
  0
DICTIONARY
  5
BEC3
330
BE55
100
AcDbDictionary
280
     1
281
     1
  3
ACAD_XREC_ROUNDTRIP
360
BEC4
  0
DICTIONARY
  5
BEB3
330
BE4D
100
AcDbDictionary
280
     1
281
     1
  3
ACAD_XREC_ROUNDTRIP
360
BEB4
  0
DICTIONARY
  5
BEC5
330
BE56
100
AcDbDictionary
280
     1
281
     1
  3
ACAD_XREC_ROUNDTRIP
360
BEC6
  0
DICTIONARY
  5
BEAB
330
BE49
100
AcDbDictionary
280
     1
281
     1
  3
ACAD_XREC_ROUNDTRIP
360
BEAC
  0
DICTIONARY
  5
BEC1
330
BE54
100
AcDbDictionary
280
     1
281
     1
  3
ACAD_XREC_ROUNDTRIP
360
BEC2
  0
DICTIONARY
  5
BEBF
330
BE53
100
AcDbDictionary
280
     1
281
     1
  3
ACAD_XREC_ROUNDTRIP
360
BEC0
  0
DICTIONARY
  5
BEB9
330
BE50
100
AcDbDictionary
280
     1
281
     1
  3
ACAD_XREC_ROUNDTRIP
360
BEBA
  0
DICTIONARY
  5
BEBB
330
BE51
100
AcDbDictionary
280
     1
281
     1
  3
ACAD_XREC_ROUNDTRIP
360
BEBC
  0
DICTIONARY
  5
BEB1
330
BE4C
100
AcDbDictionary
280
     1
281
     1
  3
ACAD_XREC_ROUNDTRIP
360
BEB2
  0
DICTIONARY
  5
BEA5
330
BE46
100
AcDbDictionary
280
     1
281
     1
  3
ACAD_XREC_ROUNDTRIP
360
BEA6
  0
DICTIONARY
  5
BEBD
330
BE52
100
AcDbDictionary
280
     1
281
     1
  3
ACAD_XREC_ROUNDTRIP
360
BEBE
  0
XRECORD
  5
BECE
102
{ACAD_REACTORS
330
BECD
102
}
330
BECD
100
AcDbXrecord
280
     1
102
DISPLAYNAME
  1
Imperial24
102
FLAGS
 90
        0
  0
XRECORD
  5
BED0
102
{ACAD_REACTORS
330
BECF
102
}
330
BECF
100
AcDbXrecord
280
     1
102
SHADEPLOT
 70
     0
102
SHADEPLOTRESLEVEL
 70
     2
102
SHADEPLOTCUSTOMDPI
 70
   300
  0
XRECORD
  5
BED2
102
{ACAD_REACTORS
330
BED1
102
}
330
BED1
100
AcDbXrecord
280
     1
102
SHADEPLOT
 70
     0
102
SHADEPLOTRESLEVEL
 70
     2
102
SHADEPLOTCUSTOMDPI
 70
   300
  0
XRECORD
  5
BE97
102
{ACAD_REACTORS
330
BE30
102
}
330
BE30
100
AcDbXrecord
280
     1
102
MATERIAL
148
0.0
149
0.0
149
0.0
 93
        0
 94
      127
282
     0
 72
     0
 77
     0
171
     0
175
     0
179
     0
273
     0
  0
XRECORD
  5
BE32
102
{ACAD_REACTORS
330
BE30
102
}
330
BE30
100
AcDbXrecord
280
     1
270
     1
271
     1
  0
XRECORD
  5
BE31
102
{ACAD_REACTORS
330
BE30
102
}
330
BE30
100
AcDbXrecord
280
     1
270
     1
271
     1
  0
XRECORD
  5
BE35
102
{ACAD_REACTORS
330
BE30
102
}
330
BE30
100
AcDbXrecord
280
     1
270
     1
271
     1
  0
XRECORD
  5
BE34
102
{ACAD_REACTORS
330
BE30
102
}
330
BE30
100
AcDbXrecord
280
     1
270
     1
271
     1
  0
XRECORD
  5
BE36
102
{ACAD_REACTORS
330
BE30
102
}
330
BE30
100
AcDbXrecord
280
     1
270
     1
271
     1
  0
XRECORD
  5
BE33
102
{ACAD_REACTORS
330
BE30
102
}
330
BE30
100
AcDbXrecord
280
     1
270
     1
271
     1
  0
XRECORD
  5
BE96
102
{ACAD_REACTORS
330
BE28
102
}
330
BE28
100
AcDbXrecord
280
     1
102
MATERIAL
148
0.0
149
0.0
149
0.0
 93
        0
 94
      127
282
     0
 72
     0
 77
     0
171
     0
175
     0
179
     0
273
     0
  0
XRECORD
  5
BE2A
102
{ACAD_REACTORS
330
BE28
102
}
330
BE28
100
AcDbXrecord
280
     1
270
     1
271
     1
  0
XRECORD
  5
BE29
102
{ACAD_REACTORS
330
BE28
102
}
330
BE28
100
AcDbXrecord
280
     1
270
     1
271
     1
  0
XRECORD
  5
BE2D
102
{ACAD_REACTORS
330
BE28
102
}
330
BE28
100
AcDbXrecord
280
     1
270
     1
271
     1
  0
XRECORD
  5
BE2C
102
{ACAD_REACTORS
330
BE28
102
}
330
BE28
100
AcDbXrecord
280
     1
270
     1
271
     1
  0
XRECORD
  5
BE2E
102
{ACAD_REACTORS
330
BE28
102
}
330
BE28
100
AcDbXrecord
280
     1
270
     1
271
     1
  0
XRECORD
  5
BE2B
102
{ACAD_REACTORS
330
BE28
102
}
330
BE28
100
AcDbXrecord
280
     1
270
     1
271
     1
  0
XRECORD
  5
BE98
102
{ACAD_REACTORS
330
BE38
102
}
330
BE38
100
AcDbXrecord
280
     1
102
MATERIAL
148
0.0
149
0.0
149
0.0
 93
        0
 94
      127
282
     0
 72
     0
 77
     0
171
     0
175
     0
179
     0
273
     0
  0
XRECORD
  5
BE3A
102
{ACAD_REACTORS
330
BE38
102
}
330
BE38
100
AcDbXrecord
280
     1
270
     1
271
     1
  0
XRECORD
  5
BE39
102
{ACAD_REACTORS
330
BE38
102
}
330
BE38
100
AcDbXrecord
280
     1
270
     1
271
     1
  0
XRECORD
  5
BE3D
102
{ACAD_REACTORS
330
BE38
102
}
330
BE38
100
AcDbXrecord
280
     1
270
     1
271
     1
  0
XRECORD
  5
BE3C
102
{ACAD_REACTORS
330
BE38
102
}
330
BE38
100
AcDbXrecord
280
     1
270
     1
271
     1
  0
XRECORD
  5
BE3E
102
{ACAD_REACTORS
330
BE38
102
}
330
BE38
100
AcDbXrecord
280
     1
270
     1
271
     1
  0
XRECORD
  5
BE3B
102
{ACAD_REACTORS
330
BE38
102
}
330
BE38
100
AcDbXrecord
280
     1
270
     1
271
     1
  0
XRECORD
  5
BECC
102
{ACAD_REACTORS
330
BECB
102
}
330
BECB
100
AcDbXrecord
280
     1
102
DISPLAYNAME
  1
Imperial24
102
FLAGS
 90
        0
  0
CELLSTYLEMAP
  5
BE93
102
{ACAD_REACTORS
330
BE92
102
}
330
BE92
100
AcDbCellStyleMap
 90
        3
300
CELLSTYLE
  1
TABLEFORMAT_BEGIN
 90
        5
170
     1
 91
        0
 92
    32768
 62
   257
 93
        1
300
CONTENTFORMAT
  1
CONTENTFORMAT_BEGIN
 90
        0
 91
        0
 92
      512
 93
        0
300

 40
0.0
140
1.0
 94
        5
 62
     0
340
BC25
144
0.25
309
CONTENTFORMAT_END
171
     0
 94
        0
309
TABLEFORMAT_END
  1
CELLSTYLE_BEGIN
 90
        1
 91
        1
300
_TITLE
309
CELLSTYLE_END
300
CELLSTYLE
  1
TABLEFORMAT_BEGIN
 90
        5
170
     1
 91
        0
 92
        0
 62
   257
 93
        1
300
CONTENTFORMAT
  1
CONTENTFORMAT_BEGIN
 90
        0
 91
        0
 92
      512
 93
        0
300

 40
0.0
140
1.0
 94
        5
 62
     0
340
BC25
144
0.18
309
CONTENTFORMAT_END
171
     0
 94
        0
309
TABLEFORMAT_END
  1
CELLSTYLE_BEGIN
 90
        2
 91
        1
300
_HEADER
309
CELLSTYLE_END
300
CELLSTYLE
  1
TABLEFORMAT_BEGIN
 90
        5
170
     1
 91
        0
 92
        0
 62
   257
 93
        1
300
CONTENTFORMAT
  1
CONTENTFORMAT_BEGIN
 90
        0
 91
        0
 92
      512
 93
        0
300

 40
0.0
140
1.0
 94
        2
 62
     0
340
BC25
144
0.18
309
CONTENTFORMAT_END
171
     0
 94
        0
309
TABLEFORMAT_END
  1
CELLSTYLE_BEGIN
 90
        3
 91
        2
300
_DATA
309
CELLSTYLE_END
  0
XRECORD
  5
BEC9
102
{ACAD_REACTORS
330
BE92
102
}
330
BE92
100
AcDbXrecord
280
     1
102
ACAD_ROUNDTRIP_PRE2007_TABLESTYLE
 90
      512
 91
        0
  1

 92
      512
 93
        0
  2

 94
      512
 95
        0
  3

  0
XRECORD
  5
BEA4
102
{ACAD_REACTORS
330
BEA3
102
}
330
BEA3
100
AcDbXrecord
280
     1
102
RTVSPost2010Prop28
280
     1
102
RTVSPost2010PropOp28
 70
     1
102
RTVSPost2010Prop29
280
     1
102
RTVSPost2010PropOp29
 70
     1
102
RTVSPost2010Prop30
280
     0
102
RTVSPost2010PropOp30
 70
     1
102
RTVSPost2010Prop31
280
     0
102
RTVSPost2010PropOp31
 70
     1
102
RTVSPost2010Prop32
280
     0
102
RTVSPost2010PropOp32
 70
     1
102
RTVSPost2010Prop33
280
     0
102
RTVSPost2010PropOp33
 70
     1
102
RTVSPost2010Prop34
280
     0
102
RTVSPost2010PropOp34
 70
     1
102
RTVSPost2010Prop35
280
     0
102
RTVSPost2010PropOp35
 70
     1
102
RTVSPost2010Prop36
280
     0
102
RTVSPost2010PropOp36
 70
     1
102
RTVSPost2010Prop37
 90
       50
102
RTVSPost2010PropOp37
 70
     1
102
RTVSPost2010Prop38
140
0.0
102
RTVSPost2010PropOp38
 70
     1
102
RTVSPost2010Prop39
140
1.0
102
RTVSPost2010PropOp39
 70
     1
102
RTVSPost2010Prop40
 90
        0
102
RTVSPost2010PropOp40
 70
     1
102
RTVSPost2010Prop41ColorIndex
 90
       18
102
RTVSPost2010Prop41ColorRGB
 90
        0
102
RTVSPost2010PropOp41
 70
     1
102
RTVSPost2010Prop42
 90
       50
102
RTVSPost2010PropOp42
 70
     1
102
RTVSPost2010Prop43
 90
        3
102
RTVSPost2010PropOp43
 70
     1
102
RTVSPost2010Prop44ColorIndex
 90
        5
102
RTVSPost2010Prop44ColorRGB
 90
      255
102
RTVSPost2010PropOp44
 70
     1
102
RTVSPost2010Prop45
280
     0
102
RTVSPost2010PropOp45
 70
     1
102
RTVSPost2010Prop46
 90
       50
102
RTVSPost2010PropOp46
 70
     1
102
RTVSPost2010Prop47
 90
       50
102
RTVSPost2010PropOp47
 70
     1
102
RTVSPost2010Prop48
 90
       50
102
RTVSPost2010PropOp48
 70
     1
102
RTVSPost2010Prop49
280
     0
102
RTVSPost2010PropOp49
 70
     1
102
RTVSPost2010Prop50
 90
       50
102
RTVSPost2010PropOp50
 70
     1
102
RTVSPost2010Prop51ColorIndex
 90
      256
102
RTVSPost2010Prop51ColorRGB
 90
-16777216
102
RTVSPost2010PropOp51
 70
     0
102
RTVSPost2010Prop52
140
1.0
102
RTVSPost2010PropOp52
 70
     0
102
RTVSPost2010Prop53
 90
        2
102
RTVSPost2010PropOp53
 70
     1
102
RTVSPost2010Prop54
  1
strokes_ogs.tif
102
RTVSPost2010PropOp54
 70
     1
102
RTVSPost2010Prop55
280
     0
102
RTVSPost2010PropOp55
 70
     1
102
RTVSPost2010Prop56
140
1.0
102
RTVSPost2010PropOp56
 70
     1
102
RTVSPost2010Prop57
140
1.0
102
RTVSPost2010PropOp57
 70
     1
102
RTVSPropertyOp0
 70
     1
102
RTVSPropertyOp1
 70
     1
102
RTVSPropertyOp2
 70
     1
102
RTVSPropertyOp3
 70
     1
102
RTVSPropertyOp4
 70
     1
102
RTVSPropertyOp5
 70
     1
102
RTVSPropertyOp6
 70
     1
102
RTVSPropertyOp7
 70
     1
102
RTVSPropertyOp8
 70
     1
102
RTVSPropertyOp9
 70
     1
102
RTVSPropertyOp10
 70
     1
102
RTVSPropertyOp11
 70
     1
102
RTVSPropertyOp12
 70
     1
102
RTVSPropertyOp13
 70
     1
102
RTVSPropertyOp14
 70
     1
102
RTVSPropertyOp15
 70
     1
102
RTVSPropertyOp16
 70
     1
102
RTVSPropertyOp17
 70
     1
102
RTVSPropertyOp18
 70
     1
102
RTVSPropertyOp19
 70
     1
102
RTVSPropertyOp20
 70
     1
102
RTVSPropertyOp21
 70
     1
102
RTVSPropertyOp22
 70
     1
102
RTVSPropertyOp23
 70
     1
102
RTVSPropertyOp24
 70
     1
102
RTVSPropertyOp25
 70
     1
102
RTVSPropertyOp26
 70
     1
102
RTVSPropertyOp27
 70
     1
102
RTVSPropertyOp28
 70
     1
102
RTVSPropertyOp29
 70
     1
102
RTVSPropertyOp30
 70
     1
102
RTVSPropertyOp31
 70
     1
102
RTVSPropertyOp32
 70
     1
102
RTVSPropertyOp33
 70
     1
102
RTVSPropertyOp34
 70
     1
102
RTVSPropertyOp35
 70
     1
102
RTVSPropertyOp36
 70
     1
102
RTVSPropertyOp37
 70
     1
102
RTVSPropertyOp38
 70
     1
102
RTVSPropertyOp39
 70
     1
102
RTVSPropertyOp40
 70
     1
102
RTVSPropertyOp41
 70
     1
102
RTVSPropertyOp42
 70
     1
102
RTVSPropertyOp43
 70
     1
102
RTVSPropertyOp44
 70
     1
102
RTVSPropertyOp45
 70
     1
102
RTVSPropertyOp46
 70
     1
102
RTVSPropertyOp47
 70
     1
102
RTVSPropertyOp48
 70
     1
102
RTVSPropertyOp49
 70
     1
102
RTVSPropertyOp50
 70
     1
102
RTVSPropertyOp51
 70
     0
102
RTVSPropertyOp52
 70
     0
102
RTVSPropertyOp53
 70
     1
102
RTVSPropertyOp54
 70
     1
102
RTVSPropertyOp55
 70
     1
102
RTVSPropertyOp56
 70
     1
102
RTVSPropertyOp57
 70
     1
102
RTVSPropertyOp58
 70
     1
102
RTVSPropertyOp59
 70
     1
102
RTVSPropertyOp60
 70
     1
102
RTVSPropertyOp61
 70
     1
102
RTVSPropertyOp62
 70
     1
  0
XRECORD
  5
BEA2
102
{ACAD_REACTORS
330
BEA1
102
}
330
BEA1
100
AcDbXrecord
280
     1
102
RTVSPost2010Prop28
280
     0
102
RTVSPost2010PropOp28
 70
     1
102
RTVSPost2010Prop29
280
     1
102
RTVSPost2010PropOp29
 70
     1
102
RTVSPost2010Prop30
280
     1
102
RTVSPost2010PropOp30
 70
     1
102
RTVSPost2010Prop31
280
     0
102
RTVSPost2010PropOp31
 70
     1
102
RTVSPost2010Prop32
280
     0
102
RTVSPost2010PropOp32
 70
     1
102
RTVSPost2010Prop33
280
     0
102
RTVSPost2010PropOp33
 70
     1
102
RTVSPost2010Prop34
280
     0
102
RTVSPost2010PropOp34
 70
     1
102
RTVSPost2010Prop35
280
     0
102
RTVSPost2010PropOp35
 70
     1
102
RTVSPost2010Prop36
280
     0
102
RTVSPost2010PropOp36
 70
     1
102
RTVSPost2010Prop37
 90
       50
102
RTVSPost2010PropOp37
 70
     1
102
RTVSPost2010Prop38
140
0.0
102
RTVSPost2010PropOp38
 70
     1
102
RTVSPost2010Prop39
140
1.0
102
RTVSPost2010PropOp39
 70
     1
102
RTVSPost2010Prop40
 90
        0
102
RTVSPost2010PropOp40
 70
     1
102
RTVSPost2010Prop41ColorIndex
 90
       18
102
RTVSPost2010Prop41ColorRGB
 90
        0
102
RTVSPost2010PropOp41
 70
     1
102
RTVSPost2010Prop42
 90
       50
102
RTVSPost2010PropOp42
 70
     1
102
RTVSPost2010Prop43
 90
        3
102
RTVSPost2010PropOp43
 70
     1
102
RTVSPost2010Prop44ColorIndex
 90
        5
102
RTVSPost2010Prop44ColorRGB
 90
      255
102
RTVSPost2010PropOp44
 70
     1
102
RTVSPost2010Prop45
280
     0
102
RTVSPost2010PropOp45
 70
     1
102
RTVSPost2010Prop46
 90
       50
102
RTVSPost2010PropOp46
 70
     1
102
RTVSPost2010Prop47
 90
       50
102
RTVSPost2010PropOp47
 70
     1
102
RTVSPost2010Prop48
 90
       50
102
RTVSPost2010PropOp48
 70
     1
102
RTVSPost2010Prop49
280
     0
102
RTVSPost2010PropOp49
 70
     1
102
RTVSPost2010Prop50
 90
       50
102
RTVSPost2010PropOp50
 70
     1
102
RTVSPost2010Prop51ColorIndex
 90
      256
102
RTVSPost2010Prop51ColorRGB
 90
-16777216
102
RTVSPost2010PropOp51
 70
     0
102
RTVSPost2010Prop52
140
1.0
102
RTVSPost2010PropOp52
 70
     0
102
RTVSPost2010Prop53
 90
        2
102
RTVSPost2010PropOp53
 70
     1
102
RTVSPost2010Prop54
  1
strokes_ogs.tif
102
RTVSPost2010PropOp54
 70
     1
102
RTVSPost2010Prop55
280
     0
102
RTVSPost2010PropOp55
 70
     1
102
RTVSPost2010Prop56
140
1.0
102
RTVSPost2010PropOp56
 70
     1
102
RTVSPost2010Prop57
140
1.0
102
RTVSPost2010PropOp57
 70
     1
102
RTVSPropertyOp0
 70
     1
102
RTVSPropertyOp1
 70
     1
102
RTVSPropertyOp2
 70
     1
102
RTVSPropertyOp3
 70
     1
102
RTVSPropertyOp4
 70
     1
102
RTVSPropertyOp5
 70
     1
102
RTVSPropertyOp6
 70
     1
102
RTVSPropertyOp7
 70
     1
102
RTVSPropertyOp8
 70
     1
102
RTVSPropertyOp9
 70
     1
102
RTVSPropertyOp10
 70
     1
102
RTVSPropertyOp11
 70
     1
102
RTVSPropertyOp12
 70
     1
102
RTVSPropertyOp13
 70
     1
102
RTVSPropertyOp14
 70
     1
102
RTVSPropertyOp15
 70
     1
102
RTVSPropertyOp16
 70
     1
102
RTVSPropertyOp17
 70
     1
102
RTVSPropertyOp18
 70
     1
102
RTVSPropertyOp19
 70
     1
102
RTVSPropertyOp20
 70
     1
102
RTVSPropertyOp21
 70
     1
102
RTVSPropertyOp22
 70
     1
102
RTVSPropertyOp23
 70
     1
102
RTVSPropertyOp24
 70
     1
102
RTVSPropertyOp25
 70
     1
102
RTVSPropertyOp26
 70
     1
102
RTVSPropertyOp27
 70
     1
102
RTVSPropertyOp28
 70
     1
102
RTVSPropertyOp29
 70
     1
102
RTVSPropertyOp30
 70
     1
102
RTVSPropertyOp31
 70
     1
102
RTVSPropertyOp32
 70
     1
102
RTVSPropertyOp33
 70
     1
102
RTVSPropertyOp34
 70
     1
102
RTVSPropertyOp35
 70
     1
102
RTVSPropertyOp36
 70
     1
102
RTVSPropertyOp37
 70
     1
102
RTVSPropertyOp38
 70
     1
102
RTVSPropertyOp39
 70
     1
102
RTVSPropertyOp40
 70
     1
102
RTVSPropertyOp41
 70
     1
102
RTVSPropertyOp42
 70
     1
102
RTVSPropertyOp43
 70
     1
102
RTVSPropertyOp44
 70
     1
102
RTVSPropertyOp45
 70
     1
102
RTVSPropertyOp46
 70
     1
102
RTVSPropertyOp47
 70
     1
102
RTVSPropertyOp48
 70
     1
102
RTVSPropertyOp49
 70
     1
102
RTVSPropertyOp50
 70
     1
102
RTVSPropertyOp51
 70
     0
102
RTVSPropertyOp52
 70
     0
102
RTVSPropertyOp53
 70
     1
102
RTVSPropertyOp54
 70
     1
102
RTVSPropertyOp55
 70
     1
102
RTVSPropertyOp56
 70
     1
102
RTVSPropertyOp57
 70
     1
102
RTVSPropertyOp58
 70
     1
102
RTVSPropertyOp59
 70
     1
102
RTVSPropertyOp60
 70
     1
102
RTVSPropertyOp61
 70
     1
102
RTVSPropertyOp62
 70
     1
  0
XRECORD
  5
BEB0
102
{ACAD_REACTORS
330
BEAF
102
}
330
BEAF
100
AcDbXrecord
280
     1
102
RTVSPost2010Prop28
280
     0
102
RTVSPost2010PropOp28
 70
     1
102
RTVSPost2010Prop29
280
     1
102
RTVSPost2010PropOp29
 70
     1
102
RTVSPost2010Prop30
280
     1
102
RTVSPost2010PropOp30
 70
     1
102
RTVSPost2010Prop31
280
     0
102
RTVSPost2010PropOp31
 70
     1
102
RTVSPost2010Prop32
280
     0
102
RTVSPost2010PropOp32
 70
     1
102
RTVSPost2010Prop33
280
     0
102
RTVSPost2010PropOp33
 70
     1
102
RTVSPost2010Prop34
280
     0
102
RTVSPost2010PropOp34
 70
     1
102
RTVSPost2010Prop35
280
     0
102
RTVSPost2010PropOp35
 70
     1
102
RTVSPost2010Prop36
280
     0
102
RTVSPost2010PropOp36
 70
     1
102
RTVSPost2010Prop37
 90
       50
102
RTVSPost2010PropOp37
 70
     1
102
RTVSPost2010Prop38
140
0.0
102
RTVSPost2010PropOp38
 70
     1
102
RTVSPost2010Prop39
140
1.0
102
RTVSPost2010PropOp39
 70
     1
102
RTVSPost2010Prop40
 90
        0
102
RTVSPost2010PropOp40
 70
     1
102
RTVSPost2010Prop41ColorIndex
 90
       18
102
RTVSPost2010Prop41ColorRGB
 90
        0
102
RTVSPost2010PropOp41
 70
     1
102
RTVSPost2010Prop42
 90
       50
102
RTVSPost2010PropOp42
 70
     1
102
RTVSPost2010Prop43
 90
        3
102
RTVSPost2010PropOp43
 70
     1
102
RTVSPost2010Prop44ColorIndex
 90
        5
102
RTVSPost2010Prop44ColorRGB
 90
      255
102
RTVSPost2010PropOp44
 70
     1
102
RTVSPost2010Prop45
280
     0
102
RTVSPost2010PropOp45
 70
     1
102
RTVSPost2010Prop46
 90
       50
102
RTVSPost2010PropOp46
 70
     1
102
RTVSPost2010Prop47
 90
       50
102
RTVSPost2010PropOp47
 70
     1
102
RTVSPost2010Prop48
 90
       50
102
RTVSPost2010PropOp48
 70
     1
102
RTVSPost2010Prop49
280
     0
102
RTVSPost2010PropOp49
 70
     1
102
RTVSPost2010Prop50
 90
       50
102
RTVSPost2010PropOp50
 70
     1
102
RTVSPost2010Prop51ColorIndex
 90
      256
102
RTVSPost2010Prop51ColorRGB
 90
-16777216
102
RTVSPost2010PropOp51
 70
     0
102
RTVSPost2010Prop52
140
1.0
102
RTVSPost2010PropOp52
 70
     0
102
RTVSPost2010Prop53
 90
        2
102
RTVSPost2010PropOp53
 70
     1
102
RTVSPost2010Prop54
  1
strokes_ogs.tif
102
RTVSPost2010PropOp54
 70
     1
102
RTVSPost2010Prop55
280
     0
102
RTVSPost2010PropOp55
 70
     1
102
RTVSPost2010Prop56
140
1.0
102
RTVSPost2010PropOp56
 70
     1
102
RTVSPost2010Prop57
140
1.0
102
RTVSPost2010PropOp57
 70
     1
102
RTVSPropertyOp0
 70
     1
102
RTVSPropertyOp1
 70
     1
102
RTVSPropertyOp2
 70
     1
102
RTVSPropertyOp3
 70
     1
102
RTVSPropertyOp4
 70
     1
102
RTVSPropertyOp5
 70
     1
102
RTVSPropertyOp6
 70
     1
102
RTVSPropertyOp7
 70
     1
102
RTVSPropertyOp8
 70
     1
102
RTVSPropertyOp9
 70
     1
102
RTVSPropertyOp10
 70
     1
102
RTVSPropertyOp11
 70
     1
102
RTVSPropertyOp12
 70
     1
102
RTVSPropertyOp13
 70
     1
102
RTVSPropertyOp14
 70
     1
102
RTVSPropertyOp15
 70
     1
102
RTVSPropertyOp16
 70
     1
102
RTVSPropertyOp17
 70
     1
102
RTVSPropertyOp18
 70
     1
102
RTVSPropertyOp19
 70
     1
102
RTVSPropertyOp20
 70
     1
102
RTVSPropertyOp21
 70
     1
102
RTVSPropertyOp22
 70
     1
102
RTVSPropertyOp23
 70
     1
102
RTVSPropertyOp24
 70
     1
102
RTVSPropertyOp25
 70
     1
102
RTVSPropertyOp26
 70
     1
102
RTVSPropertyOp27
 70
     1
102
RTVSPropertyOp28
 70
     1
102
RTVSPropertyOp29
 70
     1
102
RTVSPropertyOp30
 70
     1
102
RTVSPropertyOp31
 70
     1
102
RTVSPropertyOp32
 70
     1
102
RTVSPropertyOp33
 70
     1
102
RTVSPropertyOp34
 70
     1
102
RTVSPropertyOp35
 70
     1
102
RTVSPropertyOp36
 70
     1
102
RTVSPropertyOp37
 70
     1
102
RTVSPropertyOp38
 70
     1
102
RTVSPropertyOp39
 70
     1
102
RTVSPropertyOp40
 70
     1
102
RTVSPropertyOp41
 70
     1
102
RTVSPropertyOp42
 70
     1
102
RTVSPropertyOp43
 70
     1
102
RTVSPropertyOp44
 70
     1
102
RTVSPropertyOp45
 70
     1
102
RTVSPropertyOp46
 70
     1
102
RTVSPropertyOp47
 70
     1
102
RTVSPropertyOp48
 70
     1
102
RTVSPropertyOp49
 70
     1
102
RTVSPropertyOp50
 70
     1
102
RTVSPropertyOp51
 70
     0
102
RTVSPropertyOp52
 70
     0
102
RTVSPropertyOp53
 70
     1
102
RTVSPropertyOp54
 70
     1
102
RTVSPropertyOp55
 70
     1
102
RTVSPropertyOp56
 70
     1
102
RTVSPropertyOp57
 70
     1
102
RTVSPropertyOp58
 70
     1
102
RTVSPropertyOp59
 70
     1
102
RTVSPropertyOp60
 70
     1
102
RTVSPropertyOp61
 70
     1
102
RTVSPropertyOp62
 70
     1
  0
XRECORD
  5
BEB8
102
{ACAD_REACTORS
330
BEB7
102
}
330
BEB7
100
AcDbXrecord
280
     1
102
RTVSPost2010Prop28
280
     0
102
RTVSPost2010PropOp28
 70
     1
102
RTVSPost2010Prop29
280
     1
102
RTVSPost2010PropOp29
 70
     1
102
RTVSPost2010Prop30
280
     1
102
RTVSPost2010PropOp30
 70
     1
102
RTVSPost2010Prop31
280
     0
102
RTVSPost2010PropOp31
 70
     1
102
RTVSPost2010Prop32
280
     0
102
RTVSPost2010PropOp32
 70
     1
102
RTVSPost2010Prop33
280
     0
102
RTVSPost2010PropOp33
 70
     1
102
RTVSPost2010Prop34
280
     0
102
RTVSPost2010PropOp34
 70
     1
102
RTVSPost2010Prop35
280
     0
102
RTVSPost2010PropOp35
 70
     1
102
RTVSPost2010Prop36
280
     0
102
RTVSPost2010PropOp36
 70
     1
102
RTVSPost2010Prop37
 90
       50
102
RTVSPost2010PropOp37
 70
     1
102
RTVSPost2010Prop38
140
0.0
102
RTVSPost2010PropOp38
 70
     1
102
RTVSPost2010Prop39
140
1.0
102
RTVSPost2010PropOp39
 70
     1
102
RTVSPost2010Prop40
 90
        0
102
RTVSPost2010PropOp40
 70
     1
102
RTVSPost2010Prop41ColorIndex
 90
       18
102
RTVSPost2010Prop41ColorRGB
 90
        0
102
RTVSPost2010PropOp41
 70
     1
102
RTVSPost2010Prop42
 90
       50
102
RTVSPost2010PropOp42
 70
     1
102
RTVSPost2010Prop43
 90
        3
102
RTVSPost2010PropOp43
 70
     1
102
RTVSPost2010Prop44ColorIndex
 90
        5
102
RTVSPost2010Prop44ColorRGB
 90
      255
102
RTVSPost2010PropOp44
 70
     1
102
RTVSPost2010Prop45
280
     0
102
RTVSPost2010PropOp45
 70
     1
102
RTVSPost2010Prop46
 90
       50
102
RTVSPost2010PropOp46
 70
     1
102
RTVSPost2010Prop47
 90
       50
102
RTVSPost2010PropOp47
 70
     1
102
RTVSPost2010Prop48
 90
       50
102
RTVSPost2010PropOp48
 70
     1
102
RTVSPost2010Prop49
280
     0
102
RTVSPost2010PropOp49
 70
     1
102
RTVSPost2010Prop50
 90
       50
102
RTVSPost2010PropOp50
 70
     1
102
RTVSPost2010Prop51ColorIndex
 90
      256
102
RTVSPost2010Prop51ColorRGB
 90
-16777216
102
RTVSPost2010PropOp51
 70
     0
102
RTVSPost2010Prop52
140
1.0
102
RTVSPost2010PropOp52
 70
     0
102
RTVSPost2010Prop53
 90
        2
102
RTVSPost2010PropOp53
 70
     1
102
RTVSPost2010Prop54
  1
strokes_ogs.tif
102
RTVSPost2010PropOp54
 70
     1
102
RTVSPost2010Prop55
280
     0
102
RTVSPost2010PropOp55
 70
     1
102
RTVSPost2010Prop56
140
1.0
102
RTVSPost2010PropOp56
 70
     1
102
RTVSPost2010Prop57
140
1.0
102
RTVSPost2010PropOp57
 70
     1
102
RTVSPropertyOp0
 70
     1
102
RTVSPropertyOp1
 70
     1
102
RTVSPropertyOp2
 70
     1
102
RTVSPropertyOp3
 70
     1
102
RTVSPropertyOp4
 70
     1
102
RTVSPropertyOp5
 70
     1
102
RTVSPropertyOp6
 70
     1
102
RTVSPropertyOp7
 70
     1
102
RTVSPropertyOp8
 70
     1
102
RTVSPropertyOp9
 70
     1
102
RTVSPropertyOp10
 70
     1
102
RTVSPropertyOp11
 70
     1
102
RTVSPropertyOp12
 70
     1
102
RTVSPropertyOp13
 70
     1
102
RTVSPropertyOp14
 70
     1
102
RTVSPropertyOp15
 70
     1
102
RTVSPropertyOp16
 70
     1
102
RTVSPropertyOp17
 70
     1
102
RTVSPropertyOp18
 70
     1
102
RTVSPropertyOp19
 70
     1
102
RTVSPropertyOp20
 70
     1
102
RTVSPropertyOp21
 70
     1
102
RTVSPropertyOp22
 70
     1
102
RTVSPropertyOp23
 70
     1
102
RTVSPropertyOp24
 70
     1
102
RTVSPropertyOp25
 70
     1
102
RTVSPropertyOp26
 70
     1
102
RTVSPropertyOp27
 70
     1
102
RTVSPropertyOp28
 70
     1
102
RTVSPropertyOp29
 70
     1
102
RTVSPropertyOp30
 70
     1
102
RTVSPropertyOp31
 70
     1
102
RTVSPropertyOp32
 70
     1
102
RTVSPropertyOp33
 70
     1
102
RTVSPropertyOp34
 70
     1
102
RTVSPropertyOp35
 70
     1
102
RTVSPropertyOp36
 70
     1
102
RTVSPropertyOp37
 70
     1
102
RTVSPropertyOp38
 70
     1
102
RTVSPropertyOp39
 70
     1
102
RTVSPropertyOp40
 70
     1
102
RTVSPropertyOp41
 70
     1
102
RTVSPropertyOp42
 70
     1
102
RTVSPropertyOp43
 70
     1
102
RTVSPropertyOp44
 70
     1
102
RTVSPropertyOp45
 70
     1
102
RTVSPropertyOp46
 70
     1
102
RTVSPropertyOp47
 70
     1
102
RTVSPropertyOp48
 70
     1
102
RTVSPropertyOp49
 70
     1
102
RTVSPropertyOp50
 70
     1
102
RTVSPropertyOp51
 70
     0
102
RTVSPropertyOp52
 70
     0
102
RTVSPropertyOp53
 70
     1
102
RTVSPropertyOp54
 70
     1
102
RTVSPropertyOp55
 70
     1
102
RTVSPropertyOp56
 70
     1
102
RTVSPropertyOp57
 70
     1
102
RTVSPropertyOp58
 70
     1
102
RTVSPropertyOp59
 70
     1
102
RTVSPropertyOp60
 70
     1
102
RTVSPropertyOp61
 70
     1
102
RTVSPropertyOp62
 70
     1
  0
XRECORD
  5
BEAA
102
{ACAD_REACTORS
330
BEA9
102
}
330
BEA9
100
AcDbXrecord
280
     1
102
RTVSPost2010Prop28
280
     0
102
RTVSPost2010PropOp28
 70
     1
102
RTVSPost2010Prop29
280
     1
102
RTVSPost2010PropOp29
 70
     1
102
RTVSPost2010Prop30
280
     1
102
RTVSPost2010PropOp30
 70
     1
102
RTVSPost2010Prop31
280
     0
102
RTVSPost2010PropOp31
 70
     1
102
RTVSPost2010Prop32
280
     0
102
RTVSPost2010PropOp32
 70
     1
102
RTVSPost2010Prop33
280
     0
102
RTVSPost2010PropOp33
 70
     1
102
RTVSPost2010Prop34
280
     0
102
RTVSPost2010PropOp34
 70
     1
102
RTVSPost2010Prop35
280
     0
102
RTVSPost2010PropOp35
 70
     1
102
RTVSPost2010Prop36
280
     0
102
RTVSPost2010PropOp36
 70
     1
102
RTVSPost2010Prop37
 90
       50
102
RTVSPost2010PropOp37
 70
     1
102
RTVSPost2010Prop38
140
0.0
102
RTVSPost2010PropOp38
 70
     1
102
RTVSPost2010Prop39
140
1.0
102
RTVSPost2010PropOp39
 70
     1
102
RTVSPost2010Prop40
 90
        0
102
RTVSPost2010PropOp40
 70
     1
102
RTVSPost2010Prop41ColorIndex
 90
       18
102
RTVSPost2010Prop41ColorRGB
 90
        0
102
RTVSPost2010PropOp41
 70
     1
102
RTVSPost2010Prop42
 90
       50
102
RTVSPost2010PropOp42
 70
     1
102
RTVSPost2010Prop43
 90
        3
102
RTVSPost2010PropOp43
 70
     1
102
RTVSPost2010Prop44ColorIndex
 90
        5
102
RTVSPost2010Prop44ColorRGB
 90
      255
102
RTVSPost2010PropOp44
 70
     1
102
RTVSPost2010Prop45
280
     0
102
RTVSPost2010PropOp45
 70
     1
102
RTVSPost2010Prop46
 90
       50
102
RTVSPost2010PropOp46
 70
     1
102
RTVSPost2010Prop47
 90
       50
102
RTVSPost2010PropOp47
 70
     1
102
RTVSPost2010Prop48
 90
       50
102
RTVSPost2010PropOp48
 70
     1
102
RTVSPost2010Prop49
280
     0
102
RTVSPost2010PropOp49
 70
     1
102
RTVSPost2010Prop50
 90
       50
102
RTVSPost2010PropOp50
 70
     1
102
RTVSPost2010Prop51ColorIndex
 90
      256
102
RTVSPost2010Prop51ColorRGB
 90
-16777216
102
RTVSPost2010PropOp51
 70
     0
102
RTVSPost2010Prop52
140
1.0
102
RTVSPost2010PropOp52
 70
     0
102
RTVSPost2010Prop53
 90
        2
102
RTVSPost2010PropOp53
 70
     1
102
RTVSPost2010Prop54
  1
strokes_ogs.tif
102
RTVSPost2010PropOp54
 70
     1
102
RTVSPost2010Prop55
280
     0
102
RTVSPost2010PropOp55
 70
     1
102
RTVSPost2010Prop56
140
1.0
102
RTVSPost2010PropOp56
 70
     1
102
RTVSPost2010Prop57
140
1.0
102
RTVSPost2010PropOp57
 70
     1
102
RTVSPropertyOp0
 70
     1
102
RTVSPropertyOp1
 70
     1
102
RTVSPropertyOp2
 70
     1
102
RTVSPropertyOp3
 70
     1
102
RTVSPropertyOp4
 70
     1
102
RTVSPropertyOp5
 70
     1
102
RTVSPropertyOp6
 70
     1
102
RTVSPropertyOp7
 70
     1
102
RTVSPropertyOp8
 70
     1
102
RTVSPropertyOp9
 70
     1
102
RTVSPropertyOp10
 70
     1
102
RTVSPropertyOp11
 70
     1
102
RTVSPropertyOp12
 70
     1
102
RTVSPropertyOp13
 70
     1
102
RTVSPropertyOp14
 70
     1
102
RTVSPropertyOp15
 70
     1
102
RTVSPropertyOp16
 70
     1
102
RTVSPropertyOp17
 70
     1
102
RTVSPropertyOp18
 70
     1
102
RTVSPropertyOp19
 70
     1
102
RTVSPropertyOp20
 70
     1
102
RTVSPropertyOp21
 70
     1
102
RTVSPropertyOp22
 70
     1
102
RTVSPropertyOp23
 70
     1
102
RTVSPropertyOp24
 70
     1
102
RTVSPropertyOp25
 70
     1
102
RTVSPropertyOp26
 70
     1
102
RTVSPropertyOp27
 70
     1
102
RTVSPropertyOp28
 70
     1
102
RTVSPropertyOp29
 70
     1
102
RTVSPropertyOp30
 70
     1
102
RTVSPropertyOp31
 70
     1
102
RTVSPropertyOp32
 70
     1
102
RTVSPropertyOp33
 70
     1
102
RTVSPropertyOp34
 70
     1
102
RTVSPropertyOp35
 70
     1
102
RTVSPropertyOp36
 70
     1
102
RTVSPropertyOp37
 70
     1
102
RTVSPropertyOp38
 70
     1
102
RTVSPropertyOp39
 70
     1
102
RTVSPropertyOp40
 70
     1
102
RTVSPropertyOp41
 70
     1
102
RTVSPropertyOp42
 70
     1
102
RTVSPropertyOp43
 70
     1
102
RTVSPropertyOp44
 70
     1
102
RTVSPropertyOp45
 70
     1
102
RTVSPropertyOp46
 70
     1
102
RTVSPropertyOp47
 70
     1
102
RTVSPropertyOp48
 70
     1
102
RTVSPropertyOp49
 70
     1
102
RTVSPropertyOp50
 70
     1
102
RTVSPropertyOp51
 70
     0
102
RTVSPropertyOp52
 70
     0
102
RTVSPropertyOp53
 70
     1
102
RTVSPropertyOp54
 70
     1
102
RTVSPropertyOp55
 70
     1
102
RTVSPropertyOp56
 70
     1
102
RTVSPropertyOp57
 70
     1
102
RTVSPropertyOp58
 70
     1
102
RTVSPropertyOp59
 70
     1
102
RTVSPropertyOp60
 70
     1
102
RTVSPropertyOp61
 70
     1
102
RTVSPropertyOp62
 70
     1
  0
XRECORD
  5
BEAE
102
{ACAD_REACTORS
330
BEAD
102
}
330
BEAD
100
AcDbXrecord
280
     1
102
RTVSPost2010Prop28
280
     0
102
RTVSPost2010PropOp28
 70
     1
102
RTVSPost2010Prop29
280
     1
102
RTVSPost2010PropOp29
 70
     1
102
RTVSPost2010Prop30
280
     1
102
RTVSPost2010PropOp30
 70
     1
102
RTVSPost2010Prop31
280
     0
102
RTVSPost2010PropOp31
 70
     1
102
RTVSPost2010Prop32
280
     0
102
RTVSPost2010PropOp32
 70
     1
102
RTVSPost2010Prop33
280
     0
102
RTVSPost2010PropOp33
 70
     1
102
RTVSPost2010Prop34
280
     0
102
RTVSPost2010PropOp34
 70
     1
102
RTVSPost2010Prop35
280
     0
102
RTVSPost2010PropOp35
 70
     1
102
RTVSPost2010Prop36
280
     0
102
RTVSPost2010PropOp36
 70
     1
102
RTVSPost2010Prop37
 90
       50
102
RTVSPost2010PropOp37
 70
     1
102
RTVSPost2010Prop38
140
0.0
102
RTVSPost2010PropOp38
 70
     1
102
RTVSPost2010Prop39
140
1.0
102
RTVSPost2010PropOp39
 70
     1
102
RTVSPost2010Prop40
 90
        0
102
RTVSPost2010PropOp40
 70
     1
102
RTVSPost2010Prop41ColorIndex
 90
       18
102
RTVSPost2010Prop41ColorRGB
 90
        0
102
RTVSPost2010PropOp41
 70
     1
102
RTVSPost2010Prop42
 90
       50
102
RTVSPost2010PropOp42
 70
     1
102
RTVSPost2010Prop43
 90
        3
102
RTVSPost2010PropOp43
 70
     1
102
RTVSPost2010Prop44ColorIndex
 90
        5
102
RTVSPost2010Prop44ColorRGB
 90
      255
102
RTVSPost2010PropOp44
 70
     1
102
RTVSPost2010Prop45
280
     0
102
RTVSPost2010PropOp45
 70
     1
102
RTVSPost2010Prop46
 90
       50
102
RTVSPost2010PropOp46
 70
     1
102
RTVSPost2010Prop47
 90
       50
102
RTVSPost2010PropOp47
 70
     1
102
RTVSPost2010Prop48
 90
       50
102
RTVSPost2010PropOp48
 70
     1
102
RTVSPost2010Prop49
280
     0
102
RTVSPost2010PropOp49
 70
     1
102
RTVSPost2010Prop50
 90
       50
102
RTVSPost2010PropOp50
 70
     1
102
RTVSPost2010Prop51ColorIndex
 90
      256
102
RTVSPost2010Prop51ColorRGB
 90
-16777216
102
RTVSPost2010PropOp51
 70
     0
102
RTVSPost2010Prop52
140
1.0
102
RTVSPost2010PropOp52
 70
     0
102
RTVSPost2010Prop53
 90
        2
102
RTVSPost2010PropOp53
 70
     1
102
RTVSPost2010Prop54
  1
strokes_ogs.tif
102
RTVSPost2010PropOp54
 70
     1
102
RTVSPost2010Prop55
280
     0
102
RTVSPost2010PropOp55
 70
     1
102
RTVSPost2010Prop56
140
1.0
102
RTVSPost2010PropOp56
 70
     1
102
RTVSPost2010Prop57
140
1.0
102
RTVSPost2010PropOp57
 70
     1
102
RTVSPropertyOp0
 70
     1
102
RTVSPropertyOp1
 70
     1
102
RTVSPropertyOp2
 70
     1
102
RTVSPropertyOp3
 70
     1
102
RTVSPropertyOp4
 70
     1
102
RTVSPropertyOp5
 70
     1
102
RTVSPropertyOp6
 70
     1
102
RTVSPropertyOp7
 70
     1
102
RTVSPropertyOp8
 70
     1
102
RTVSPropertyOp9
 70
     1
102
RTVSPropertyOp10
 70
     1
102
RTVSPropertyOp11
 70
     1
102
RTVSPropertyOp12
 70
     1
102
RTVSPropertyOp13
 70
     1
102
RTVSPropertyOp14
 70
     1
102
RTVSPropertyOp15
 70
     1
102
RTVSPropertyOp16
 70
     1
102
RTVSPropertyOp17
 70
     1
102
RTVSPropertyOp18
 70
     1
102
RTVSPropertyOp19
 70
     1
102
RTVSPropertyOp20
 70
     1
102
RTVSPropertyOp21
 70
     1
102
RTVSPropertyOp22
 70
     1
102
RTVSPropertyOp23
 70
     1
102
RTVSPropertyOp24
 70
     1
102
RTVSPropertyOp25
 70
     1
102
RTVSPropertyOp26
 70
     1
102
RTVSPropertyOp27
 70
     1
102
RTVSPropertyOp28
 70
     1
102
RTVSPropertyOp29
 70
     1
102
RTVSPropertyOp30
 70
     1
102
RTVSPropertyOp31
 70
     1
102
RTVSPropertyOp32
 70
     1
102
RTVSPropertyOp33
 70
     1
102
RTVSPropertyOp34
 70
     1
102
RTVSPropertyOp35
 70
     1
102
RTVSPropertyOp36
 70
     1
102
RTVSPropertyOp37
 70
     1
102
RTVSPropertyOp38
 70
     1
102
RTVSPropertyOp39
 70
     1
102
RTVSPropertyOp40
 70
     1
102
RTVSPropertyOp41
 70
     1
102
RTVSPropertyOp42
 70
     1
102
RTVSPropertyOp43
 70
     1
102
RTVSPropertyOp44
 70
     1
102
RTVSPropertyOp45
 70
     1
102
RTVSPropertyOp46
 70
     1
102
RTVSPropertyOp47
 70
     1
102
RTVSPropertyOp48
 70
     1
102
RTVSPropertyOp49
 70
     1
102
RTVSPropertyOp50
 70
     1
102
RTVSPropertyOp51
 70
     0
102
RTVSPropertyOp52
 70
     0
102
RTVSPropertyOp53
 70
     1
102
RTVSPropertyOp54
 70
     1
102
RTVSPropertyOp55
 70
     1
102
RTVSPropertyOp56
 70
     1
102
RTVSPropertyOp57
 70
     1
102
RTVSPropertyOp58
 70
     1
102
RTVSPropertyOp59
 70
     1
102
RTVSPropertyOp60
 70
     1
102
RTVSPropertyOp61
 70
     1
102
RTVSPropertyOp62
 70
     1
  0
XRECORD
  5
BEC8
102
{ACAD_REACTORS
330
BEC7
102
}
330
BEC7
100
AcDbXrecord
280
     1
102
RTVSPost2010Prop28
280
     0
102
RTVSPost2010PropOp28
 70
     1
102
RTVSPost2010Prop29
280
     1
102
RTVSPost2010PropOp29
 70
     1
102
RTVSPost2010Prop30
280
     1
102
RTVSPost2010PropOp30
 70
     1
102
RTVSPost2010Prop31
280
     0
102
RTVSPost2010PropOp31
 70
     1
102
RTVSPost2010Prop32
280
     0
102
RTVSPost2010PropOp32
 70
     1
102
RTVSPost2010Prop33
280
     0
102
RTVSPost2010PropOp33
 70
     1
102
RTVSPost2010Prop34
280
     0
102
RTVSPost2010PropOp34
 70
     1
102
RTVSPost2010Prop35
280
     0
102
RTVSPost2010PropOp35
 70
     1
102
RTVSPost2010Prop36
280
     0
102
RTVSPost2010PropOp36
 70
     1
102
RTVSPost2010Prop37
 90
       50
102
RTVSPost2010PropOp37
 70
     0
102
RTVSPost2010Prop38
140
0.0
102
RTVSPost2010PropOp38
 70
     0
102
RTVSPost2010Prop39
140
1.0
102
RTVSPost2010PropOp39
 70
     0
102
RTVSPost2010Prop40
 90
        0
102
RTVSPost2010PropOp40
 70
     0
102
RTVSPost2010Prop41ColorIndex
 90
       18
102
RTVSPost2010Prop41ColorRGB
 90
        0
102
RTVSPost2010PropOp41
 70
     0
102
RTVSPost2010Prop42
 90
       50
102
RTVSPost2010PropOp42
 70
     0
102
RTVSPost2010Prop43
 90
        3
102
RTVSPost2010PropOp43
 70
     0
102
RTVSPost2010Prop44ColorIndex
 90
        5
102
RTVSPost2010Prop44ColorRGB
 90
      255
102
RTVSPost2010PropOp44
 70
     0
102
RTVSPost2010Prop45
280
     0
102
RTVSPost2010PropOp45
 70
     1
102
RTVSPost2010Prop46
 90
       50
102
RTVSPost2010PropOp46
 70
     0
102
RTVSPost2010Prop47
 90
       50
102
RTVSPost2010PropOp47
 70
     0
102
RTVSPost2010Prop48
 90
       50
102
RTVSPost2010PropOp48
 70
     0
102
RTVSPost2010Prop49
280
     0
102
RTVSPost2010PropOp49
 70
     1
102
RTVSPost2010Prop50
 90
       50
102
RTVSPost2010PropOp50
 70
     0
102
RTVSPost2010Prop51ColorIndex
 90
      256
102
RTVSPost2010Prop51ColorRGB
 90
-16777216
102
RTVSPost2010PropOp51
 70
     0
102
RTVSPost2010Prop52
140
1.0
102
RTVSPost2010PropOp52
 70
     0
102
RTVSPost2010Prop53
 90
        2
102
RTVSPost2010PropOp53
 70
     0
102
RTVSPost2010Prop54
  1
strokes_ogs.tif
102
RTVSPost2010PropOp54
 70
     0
102
RTVSPost2010Prop55
280
     0
102
RTVSPost2010PropOp55
 70
     1
102
RTVSPost2010Prop56
140
1.0
102
RTVSPost2010PropOp56
 70
     0
102
RTVSPost2010Prop57
140
1.0
102
RTVSPost2010PropOp57
 70
     0
102
RTVSPropertyOp0
 70
     0
102
RTVSPropertyOp1
 70
     0
102
RTVSPropertyOp2
 70
     0
102
RTVSPropertyOp3
 70
     0
102
RTVSPropertyOp4
 70
     0
102
RTVSPropertyOp5
 70
     0
102
RTVSPropertyOp6
 70
     0
102
RTVSPropertyOp7
 70
     0
102
RTVSPropertyOp8
 70
     0
102
RTVSPropertyOp9
 70
     0
102
RTVSPropertyOp10
 70
     0
102
RTVSPropertyOp11
 70
     0
102
RTVSPropertyOp12
 70
     0
102
RTVSPropertyOp13
 70
     0
102
RTVSPropertyOp14
 70
     2
102
RTVSPropertyOp15
 70
     0
102
RTVSPropertyOp16
 70
     0
102
RTVSPropertyOp17
 70
     0
102
RTVSPropertyOp18
 70
     0
102
RTVSPropertyOp19
 70
     0
102
RTVSPropertyOp20
 70
     0
102
RTVSPropertyOp21
 70
     0
102
RTVSPropertyOp22
 70
     0
102
RTVSPropertyOp23
 70
     0
102
RTVSPropertyOp24
 70
     0
102
RTVSPropertyOp25
 70
     0
102
RTVSPropertyOp26
 70
     0
102
RTVSPropertyOp27
 70
     0
102
RTVSPropertyOp28
 70
     1
102
RTVSPropertyOp29
 70
     1
102
RTVSPropertyOp30
 70
     1
102
RTVSPropertyOp31
 70
     1
102
RTVSPropertyOp32
 70
     1
102
RTVSPropertyOp33
 70
     1
102
RTVSPropertyOp34
 70
     1
102
RTVSPropertyOp35
 70
     1
102
RTVSPropertyOp36
 70
     1
102
RTVSPropertyOp37
 70
     0
102
RTVSPropertyOp38
 70
     0
102
RTVSPropertyOp39
 70
     0
102
RTVSPropertyOp40
 70
     0
102
RTVSPropertyOp41
 70
     0
102
RTVSPropertyOp42
 70
     0
102
RTVSPropertyOp43
 70
     0
102
RTVSPropertyOp44
 70
     0
102
RTVSPropertyOp45
 70
     1
102
RTVSPropertyOp46
 70
     0
102
RTVSPropertyOp47
 70
     0
102
RTVSPropertyOp48
 70
     0
102
RTVSPropertyOp49
 70
     1
102
RTVSPropertyOp50
 70
     0
102
RTVSPropertyOp51
 70
     0
102
RTVSPropertyOp52
 70
     0
102
RTVSPropertyOp53
 70
     0
102
RTVSPropertyOp54
 70
     0
102
RTVSPropertyOp55
 70
     1
102
RTVSPropertyOp56
 70
     0
102
RTVSPropertyOp57
 70
     0
102
RTVSPropertyOp58
 70
     0
102
RTVSPropertyOp59
 70
     0
102
RTVSPropertyOp60
 70
     0
102
RTVSPropertyOp61
 70
     0
102
RTVSPropertyOp62
 70
     0
  0
XRECORD
  5
BEB6
102
{ACAD_REACTORS
330
BEB5
102
}
330
BEB5
100
AcDbXrecord
280
     1
102
RTVSPost2010Prop28
280
     0
102
RTVSPost2010PropOp28
 70
     1
102
RTVSPost2010Prop29
280
     1
102
RTVSPost2010PropOp29
 70
     1
102
RTVSPost2010Prop30
280
     1
102
RTVSPost2010PropOp30
 70
     1
102
RTVSPost2010Prop31
280
     0
102
RTVSPost2010PropOp31
 70
     1
102
RTVSPost2010Prop32
280
     0
102
RTVSPost2010PropOp32
 70
     1
102
RTVSPost2010Prop33
280
     0
102
RTVSPost2010PropOp33
 70
     1
102
RTVSPost2010Prop34
280
     0
102
RTVSPost2010PropOp34
 70
     1
102
RTVSPost2010Prop35
280
     0
102
RTVSPost2010PropOp35
 70
     1
102
RTVSPost2010Prop36
280
     0
102
RTVSPost2010PropOp36
 70
     1
102
RTVSPost2010Prop37
 90
       50
102
RTVSPost2010PropOp37
 70
     1
102
RTVSPost2010Prop38
140
0.0
102
RTVSPost2010PropOp38
 70
     1
102
RTVSPost2010Prop39
140
1.0
102
RTVSPost2010PropOp39
 70
     1
102
RTVSPost2010Prop40
 90
        0
102
RTVSPost2010PropOp40
 70
     1
102
RTVSPost2010Prop41ColorIndex
 90
       18
102
RTVSPost2010Prop41ColorRGB
 90
        0
102
RTVSPost2010PropOp41
 70
     1
102
RTVSPost2010Prop42
 90
       50
102
RTVSPost2010PropOp42
 70
     1
102
RTVSPost2010Prop43
 90
        3
102
RTVSPost2010PropOp43
 70
     1
102
RTVSPost2010Prop44ColorIndex
 90
        5
102
RTVSPost2010Prop44ColorRGB
 90
      255
102
RTVSPost2010PropOp44
 70
     1
102
RTVSPost2010Prop45
280
     0
102
RTVSPost2010PropOp45
 70
     1
102
RTVSPost2010Prop46
 90
       50
102
RTVSPost2010PropOp46
 70
     1
102
RTVSPost2010Prop47
 90
       50
102
RTVSPost2010PropOp47
 70
     1
102
RTVSPost2010Prop48
 90
       50
102
RTVSPost2010PropOp48
 70
     1
102
RTVSPost2010Prop49
280
     0
102
RTVSPost2010PropOp49
 70
     1
102
RTVSPost2010Prop50
 90
       50
102
RTVSPost2010PropOp50
 70
     1
102
RTVSPost2010Prop51ColorIndex
 90
      256
102
RTVSPost2010Prop51ColorRGB
 90
-16777216
102
RTVSPost2010PropOp51
 70
     0
102
RTVSPost2010Prop52
140
1.0
102
RTVSPost2010PropOp52
 70
     0
102
RTVSPost2010Prop53
 90
        2
102
RTVSPost2010PropOp53
 70
     1
102
RTVSPost2010Prop54
  1
strokes_ogs.tif
102
RTVSPost2010PropOp54
 70
     1
102
RTVSPost2010Prop55
280
     0
102
RTVSPost2010PropOp55
 70
     1
102
RTVSPost2010Prop56
140
1.0
102
RTVSPost2010PropOp56
 70
     1
102
RTVSPost2010Prop57
140
1.0
102
RTVSPost2010PropOp57
 70
     1
102
RTVSPropertyOp0
 70
     1
102
RTVSPropertyOp1
 70
     1
102
RTVSPropertyOp2
 70
     1
102
RTVSPropertyOp3
 70
     1
102
RTVSPropertyOp4
 70
     1
102
RTVSPropertyOp5
 70
     1
102
RTVSPropertyOp6
 70
     1
102
RTVSPropertyOp7
 70
     1
102
RTVSPropertyOp8
 70
     1
102
RTVSPropertyOp9
 70
     1
102
RTVSPropertyOp10
 70
     1
102
RTVSPropertyOp11
 70
     1
102
RTVSPropertyOp12
 70
     1
102
RTVSPropertyOp13
 70
     1
102
RTVSPropertyOp14
 70
     1
102
RTVSPropertyOp15
 70
     1
102
RTVSPropertyOp16
 70
     1
102
RTVSPropertyOp17
 70
     1
102
RTVSPropertyOp18
 70
     1
102
RTVSPropertyOp19
 70
     1
102
RTVSPropertyOp20
 70
     1
102
RTVSPropertyOp21
 70
     1
102
RTVSPropertyOp22
 70
     1
102
RTVSPropertyOp23
 70
     1
102
RTVSPropertyOp24
 70
     1
102
RTVSPropertyOp25
 70
     1
102
RTVSPropertyOp26
 70
     1
102
RTVSPropertyOp27
 70
     1
102
RTVSPropertyOp28
 70
     1
102
RTVSPropertyOp29
 70
     1
102
RTVSPropertyOp30
 70
     1
102
RTVSPropertyOp31
 70
     1
102
RTVSPropertyOp32
 70
     1
102
RTVSPropertyOp33
 70
     1
102
RTVSPropertyOp34
 70
     1
102
RTVSPropertyOp35
 70
     1
102
RTVSPropertyOp36
 70
     1
102
RTVSPropertyOp37
 70
     1
102
RTVSPropertyOp38
 70
     1
102
RTVSPropertyOp39
 70
     1
102
RTVSPropertyOp40
 70
     1
102
RTVSPropertyOp41
 70
     1
102
RTVSPropertyOp42
 70
     1
102
RTVSPropertyOp43
 70
     1
102
RTVSPropertyOp44
 70
     1
102
RTVSPropertyOp45
 70
     1
102
RTVSPropertyOp46
 70
     1
102
RTVSPropertyOp47
 70
     1
102
RTVSPropertyOp48
 70
     1
102
RTVSPropertyOp49
 70
     1
102
RTVSPropertyOp50
 70
     1
102
RTVSPropertyOp51
 70
     0
102
RTVSPropertyOp52
 70
     0
102
RTVSPropertyOp53
 70
     1
102
RTVSPropertyOp54
 70
     1
102
RTVSPropertyOp55
 70
     1
102
RTVSPropertyOp56
 70
     1
102
RTVSPropertyOp57
 70
     1
102
RTVSPropertyOp58
 70
     1
102
RTVSPropertyOp59
 70
     1
102
RTVSPropertyOp60
 70
     1
102
RTVSPropertyOp61
 70
     1
102
RTVSPropertyOp62
 70
     1
  0
XRECORD
  5
BE9A
102
{ACAD_REACTORS
330
BE99
102
}
330
BE99
100
AcDbXrecord
280
     1
102
RTVSPost2010Prop28
280
     0
102
RTVSPost2010PropOp28
 70
     1
102
RTVSPost2010Prop29
280
     1
102
RTVSPost2010PropOp29
 70
     1
102
RTVSPost2010Prop30
280
     1
102
RTVSPost2010PropOp30
 70
     1
102
RTVSPost2010Prop31
280
     0
102
RTVSPost2010PropOp31
 70
     1
102
RTVSPost2010Prop32
280
     0
102
RTVSPost2010PropOp32
 70
     1
102
RTVSPost2010Prop33
280
     0
102
RTVSPost2010PropOp33
 70
     1
102
RTVSPost2010Prop34
280
     0
102
RTVSPost2010PropOp34
 70
     1
102
RTVSPost2010Prop35
280
     0
102
RTVSPost2010PropOp35
 70
     1
102
RTVSPost2010Prop36
280
     0
102
RTVSPost2010PropOp36
 70
     1
102
RTVSPost2010Prop37
 90
       50
102
RTVSPost2010PropOp37
 70
     1
102
RTVSPost2010Prop38
140
0.0
102
RTVSPost2010PropOp38
 70
     1
102
RTVSPost2010Prop39
140
1.0
102
RTVSPost2010PropOp39
 70
     1
102
RTVSPost2010Prop40
 90
        0
102
RTVSPost2010PropOp40
 70
     1
102
RTVSPost2010Prop41ColorIndex
 90
       18
102
RTVSPost2010Prop41ColorRGB
 90
        0
102
RTVSPost2010PropOp41
 70
     1
102
RTVSPost2010Prop42
 90
       50
102
RTVSPost2010PropOp42
 70
     1
102
RTVSPost2010Prop43
 90
        3
102
RTVSPost2010PropOp43
 70
     1
102
RTVSPost2010Prop44ColorIndex
 90
        5
102
RTVSPost2010Prop44ColorRGB
 90
      255
102
RTVSPost2010PropOp44
 70
     1
102
RTVSPost2010Prop45
280
     0
102
RTVSPost2010PropOp45
 70
     1
102
RTVSPost2010Prop46
 90
       50
102
RTVSPost2010PropOp46
 70
     1
102
RTVSPost2010Prop47
 90
       50
102
RTVSPost2010PropOp47
 70
     1
102
RTVSPost2010Prop48
 90
       50
102
RTVSPost2010PropOp48
 70
     1
102
RTVSPost2010Prop49
280
     0
102
RTVSPost2010PropOp49
 70
     1
102
RTVSPost2010Prop50
 90
       50
102
RTVSPost2010PropOp50
 70
     1
102
RTVSPost2010Prop51ColorIndex
 90
      256
102
RTVSPost2010Prop51ColorRGB
 90
-16777216
102
RTVSPost2010PropOp51
 70
     0
102
RTVSPost2010Prop52
140
1.0
102
RTVSPost2010PropOp52
 70
     0
102
RTVSPost2010Prop53
 90
        2
102
RTVSPost2010PropOp53
 70
     1
102
RTVSPost2010Prop54
  1
strokes_ogs.tif
102
RTVSPost2010PropOp54
 70
     1
102
RTVSPost2010Prop55
280
     0
102
RTVSPost2010PropOp55
 70
     1
102
RTVSPost2010Prop56
140
1.0
102
RTVSPost2010PropOp56
 70
     1
102
RTVSPost2010Prop57
140
1.0
102
RTVSPost2010PropOp57
 70
     1
102
RTVSPropertyOp0
 70
     1
102
RTVSPropertyOp1
 70
     1
102
RTVSPropertyOp2
 70
     1
102
RTVSPropertyOp3
 70
     1
102
RTVSPropertyOp4
 70
     1
102
RTVSPropertyOp5
 70
     1
102
RTVSPropertyOp6
 70
     1
102
RTVSPropertyOp7
 70
     1
102
RTVSPropertyOp8
 70
     1
102
RTVSPropertyOp9
 70
     1
102
RTVSPropertyOp10
 70
     1
102
RTVSPropertyOp11
 70
     1
102
RTVSPropertyOp12
 70
     1
102
RTVSPropertyOp13
 70
     1
102
RTVSPropertyOp14
 70
     1
102
RTVSPropertyOp15
 70
     1
102
RTVSPropertyOp16
 70
     1
102
RTVSPropertyOp17
 70
     1
102
RTVSPropertyOp18
 70
     1
102
RTVSPropertyOp19
 70
     1
102
RTVSPropertyOp20
 70
     1
102
RTVSPropertyOp21
 70
     1
102
RTVSPropertyOp22
 70
     1
102
RTVSPropertyOp23
 70
     1
102
RTVSPropertyOp24
 70
     1
102
RTVSPropertyOp25
 70
     1
102
RTVSPropertyOp26
 70
     1
102
RTVSPropertyOp27
 70
     1
102
RTVSPropertyOp28
 70
     1
102
RTVSPropertyOp29
 70
     1
102
RTVSPropertyOp30
 70
     1
102
RTVSPropertyOp31
 70
     1
102
RTVSPropertyOp32
 70
     1
102
RTVSPropertyOp33
 70
     1
102
RTVSPropertyOp34
 70
     1
102
RTVSPropertyOp35
 70
     1
102
RTVSPropertyOp36
 70
     1
102
RTVSPropertyOp37
 70
     1
102
RTVSPropertyOp38
 70
     1
102
RTVSPropertyOp39
 70
     1
102
RTVSPropertyOp40
 70
     1
102
RTVSPropertyOp41
 70
     1
102
RTVSPropertyOp42
 70
     1
102
RTVSPropertyOp43
 70
     1
102
RTVSPropertyOp44
 70
     1
102
RTVSPropertyOp45
 70
     1
102
RTVSPropertyOp46
 70
     1
102
RTVSPropertyOp47
 70
     1
102
RTVSPropertyOp48
 70
     1
102
RTVSPropertyOp49
 70
     1
102
RTVSPropertyOp50
 70
     1
102
RTVSPropertyOp51
 70
     0
102
RTVSPropertyOp52
 70
     0
102
RTVSPropertyOp53
 70
     1
102
RTVSPropertyOp54
 70
     1
102
RTVSPropertyOp55
 70
     1
102
RTVSPropertyOp56
 70
     1
102
RTVSPropertyOp57
 70
     1
102
RTVSPropertyOp58
 70
     1
102
RTVSPropertyOp59
 70
     1
102
RTVSPropertyOp60
 70
     1
102
RTVSPropertyOp61
 70
     1
102
RTVSPropertyOp62
 70
     1
  0
XRECORD
  5
BE9C
102
{ACAD_REACTORS
330
BE9B
102
}
330
BE9B
100
AcDbXrecord
280
     1
102
RTVSPost2010Prop28
280
     0
102
RTVSPost2010PropOp28
 70
     1
102
RTVSPost2010Prop29
280
     1
102
RTVSPost2010PropOp29
 70
     1
102
RTVSPost2010Prop30
280
     1
102
RTVSPost2010PropOp30
 70
     1
102
RTVSPost2010Prop31
280
     0
102
RTVSPost2010PropOp31
 70
     1
102
RTVSPost2010Prop32
280
     0
102
RTVSPost2010PropOp32
 70
     1
102
RTVSPost2010Prop33
280
     0
102
RTVSPost2010PropOp33
 70
     1
102
RTVSPost2010Prop34
280
     0
102
RTVSPost2010PropOp34
 70
     1
102
RTVSPost2010Prop35
280
     0
102
RTVSPost2010PropOp35
 70
     1
102
RTVSPost2010Prop36
280
     0
102
RTVSPost2010PropOp36
 70
     1
102
RTVSPost2010Prop37
 90
       50
102
RTVSPost2010PropOp37
 70
     1
102
RTVSPost2010Prop38
140
0.0
102
RTVSPost2010PropOp38
 70
     1
102
RTVSPost2010Prop39
140
1.0
102
RTVSPost2010PropOp39
 70
     1
102
RTVSPost2010Prop40
 90
        0
102
RTVSPost2010PropOp40
 70
     1
102
RTVSPost2010Prop41ColorIndex
 90
       18
102
RTVSPost2010Prop41ColorRGB
 90
        0
102
RTVSPost2010PropOp41
 70
     1
102
RTVSPost2010Prop42
 90
       50
102
RTVSPost2010PropOp42
 70
     1
102
RTVSPost2010Prop43
 90
        3
102
RTVSPost2010PropOp43
 70
     1
102
RTVSPost2010Prop44ColorIndex
 90
        5
102
RTVSPost2010Prop44ColorRGB
 90
      255
102
RTVSPost2010PropOp44
 70
     1
102
RTVSPost2010Prop45
280
     0
102
RTVSPost2010PropOp45
 70
     1
102
RTVSPost2010Prop46
 90
       50
102
RTVSPost2010PropOp46
 70
     1
102
RTVSPost2010Prop47
 90
       50
102
RTVSPost2010PropOp47
 70
     1
102
RTVSPost2010Prop48
 90
       50
102
RTVSPost2010PropOp48
 70
     1
102
RTVSPost2010Prop49
280
     0
102
RTVSPost2010PropOp49
 70
     1
102
RTVSPost2010Prop50
 90
       50
102
RTVSPost2010PropOp50
 70
     1
102
RTVSPost2010Prop51ColorIndex
 90
      256
102
RTVSPost2010Prop51ColorRGB
 90
-16777216
102
RTVSPost2010PropOp51
 70
     0
102
RTVSPost2010Prop52
140
1.0
102
RTVSPost2010PropOp52
 70
     0
102
RTVSPost2010Prop53
 90
        2
102
RTVSPost2010PropOp53
 70
     1
102
RTVSPost2010Prop54
  1
strokes_ogs.tif
102
RTVSPost2010PropOp54
 70
     1
102
RTVSPost2010Prop55
280
     0
102
RTVSPost2010PropOp55
 70
     1
102
RTVSPost2010Prop56
140
1.0
102
RTVSPost2010PropOp56
 70
     1
102
RTVSPost2010Prop57
140
1.0
102
RTVSPost2010PropOp57
 70
     1
102
RTVSPropertyOp0
 70
     1
102
RTVSPropertyOp1
 70
     1
102
RTVSPropertyOp2
 70
     1
102
RTVSPropertyOp3
 70
     1
102
RTVSPropertyOp4
 70
     1
102
RTVSPropertyOp5
 70
     1
102
RTVSPropertyOp6
 70
     1
102
RTVSPropertyOp7
 70
     1
102
RTVSPropertyOp8
 70
     1
102
RTVSPropertyOp9
 70
     1
102
RTVSPropertyOp10
 70
     1
102
RTVSPropertyOp11
 70
     1
102
RTVSPropertyOp12
 70
     1
102
RTVSPropertyOp13
 70
     1
102
RTVSPropertyOp14
 70
     1
102
RTVSPropertyOp15
 70
     1
102
RTVSPropertyOp16
 70
     1
102
RTVSPropertyOp17
 70
     1
102
RTVSPropertyOp18
 70
     1
102
RTVSPropertyOp19
 70
     1
102
RTVSPropertyOp20
 70
     1
102
RTVSPropertyOp21
 70
     1
102
RTVSPropertyOp22
 70
     1
102
RTVSPropertyOp23
 70
     1
102
RTVSPropertyOp24
 70
     1
102
RTVSPropertyOp25
 70
     1
102
RTVSPropertyOp26
 70
     1
102
RTVSPropertyOp27
 70
     1
102
RTVSPropertyOp28
 70
     1
102
RTVSPropertyOp29
 70
     1
102
RTVSPropertyOp30
 70
     1
102
RTVSPropertyOp31
 70
     1
102
RTVSPropertyOp32
 70
     1
102
RTVSPropertyOp33
 70
     1
102
RTVSPropertyOp34
 70
     1
102
RTVSPropertyOp35
 70
     1
102
RTVSPropertyOp36
 70
     1
102
RTVSPropertyOp37
 70
     1
102
RTVSPropertyOp38
 70
     1
102
RTVSPropertyOp39
 70
     1
102
RTVSPropertyOp40
 70
     1
102
RTVSPropertyOp41
 70
     1
102
RTVSPropertyOp42
 70
     1
102
RTVSPropertyOp43
 70
     1
102
RTVSPropertyOp44
 70
     1
102
RTVSPropertyOp45
 70
     1
102
RTVSPropertyOp46
 70
     1
102
RTVSPropertyOp47
 70
     1
102
RTVSPropertyOp48
 70
     1
102
RTVSPropertyOp49
 70
     1
102
RTVSPropertyOp50
 70
     1
102
RTVSPropertyOp51
 70
     0
102
RTVSPropertyOp52
 70
     0
102
RTVSPropertyOp53
 70
     1
102
RTVSPropertyOp54
 70
     1
102
RTVSPropertyOp55
 70
     1
102
RTVSPropertyOp56
 70
     1
102
RTVSPropertyOp57
 70
     1
102
RTVSPropertyOp58
 70
     1
102
RTVSPropertyOp59
 70
     1
102
RTVSPropertyOp60
 70
     1
102
RTVSPropertyOp61
 70
     1
102
RTVSPropertyOp62
 70
     1
  0
XRECORD
  5
BE9E
102
{ACAD_REACTORS
330
BE9D
102
}
330
BE9D
100
AcDbXrecord
280
     1
102
RTVSPost2010Prop28
280
     0
102
RTVSPost2010PropOp28
 70
     1
102
RTVSPost2010Prop29
280
     1
102
RTVSPost2010PropOp29
 70
     1
102
RTVSPost2010Prop30
280
     1
102
RTVSPost2010PropOp30
 70
     1
102
RTVSPost2010Prop31
280
     0
102
RTVSPost2010PropOp31
 70
     1
102
RTVSPost2010Prop32
280
     0
102
RTVSPost2010PropOp32
 70
     1
102
RTVSPost2010Prop33
280
     0
102
RTVSPost2010PropOp33
 70
     1
102
RTVSPost2010Prop34
280
     0
102
RTVSPost2010PropOp34
 70
     1
102
RTVSPost2010Prop35
280
     0
102
RTVSPost2010PropOp35
 70
     1
102
RTVSPost2010Prop36
280
     0
102
RTVSPost2010PropOp36
 70
     1
102
RTVSPost2010Prop37
 90
       50
102
RTVSPost2010PropOp37
 70
     1
102
RTVSPost2010Prop38
140
0.0
102
RTVSPost2010PropOp38
 70
     1
102
RTVSPost2010Prop39
140
1.0
102
RTVSPost2010PropOp39
 70
     1
102
RTVSPost2010Prop40
 90
        0
102
RTVSPost2010PropOp40
 70
     1
102
RTVSPost2010Prop41ColorIndex
 90
       18
102
RTVSPost2010Prop41ColorRGB
 90
        0
102
RTVSPost2010PropOp41
 70
     1
102
RTVSPost2010Prop42
 90
       50
102
RTVSPost2010PropOp42
 70
     1
102
RTVSPost2010Prop43
 90
        3
102
RTVSPost2010PropOp43
 70
     1
102
RTVSPost2010Prop44ColorIndex
 90
        5
102
RTVSPost2010Prop44ColorRGB
 90
      255
102
RTVSPost2010PropOp44
 70
     1
102
RTVSPost2010Prop45
280
     0
102
RTVSPost2010PropOp45
 70
     1
102
RTVSPost2010Prop46
 90
       50
102
RTVSPost2010PropOp46
 70
     1
102
RTVSPost2010Prop47
 90
       50
102
RTVSPost2010PropOp47
 70
     1
102
RTVSPost2010Prop48
 90
       50
102
RTVSPost2010PropOp48
 70
     1
102
RTVSPost2010Prop49
280
     0
102
RTVSPost2010PropOp49
 70
     1
102
RTVSPost2010Prop50
 90
       50
102
RTVSPost2010PropOp50
 70
     1
102
RTVSPost2010Prop51ColorIndex
 90
      256
102
RTVSPost2010Prop51ColorRGB
 90
-16777216
102
RTVSPost2010PropOp51
 70
     0
102
RTVSPost2010Prop52
140
1.0
102
RTVSPost2010PropOp52
 70
     0
102
RTVSPost2010Prop53
 90
        2
102
RTVSPost2010PropOp53
 70
     1
102
RTVSPost2010Prop54
  1
strokes_ogs.tif
102
RTVSPost2010PropOp54
 70
     1
102
RTVSPost2010Prop55
280
     0
102
RTVSPost2010PropOp55
 70
     1
102
RTVSPost2010Prop56
140
1.0
102
RTVSPost2010PropOp56
 70
     1
102
RTVSPost2010Prop57
140
1.0
102
RTVSPost2010PropOp57
 70
     1
102
RTVSPropertyOp0
 70
     1
102
RTVSPropertyOp1
 70
     1
102
RTVSPropertyOp2
 70
     1
102
RTVSPropertyOp3
 70
     1
102
RTVSPropertyOp4
 70
     1
102
RTVSPropertyOp5
 70
     1
102
RTVSPropertyOp6
 70
     1
102
RTVSPropertyOp7
 70
     1
102
RTVSPropertyOp8
 70
     1
102
RTVSPropertyOp9
 70
     1
102
RTVSPropertyOp10
 70
     1
102
RTVSPropertyOp11
 70
     1
102
RTVSPropertyOp12
 70
     1
102
RTVSPropertyOp13
 70
     1
102
RTVSPropertyOp14
 70
     1
102
RTVSPropertyOp15
 70
     1
102
RTVSPropertyOp16
 70
     1
102
RTVSPropertyOp17
 70
     1
102
RTVSPropertyOp18
 70
     1
102
RTVSPropertyOp19
 70
     1
102
RTVSPropertyOp20
 70
     1
102
RTVSPropertyOp21
 70
     1
102
RTVSPropertyOp22
 70
     1
102
RTVSPropertyOp23
 70
     1
102
RTVSPropertyOp24
 70
     1
102
RTVSPropertyOp25
 70
     1
102
RTVSPropertyOp26
 70
     1
102
RTVSPropertyOp27
 70
     1
102
RTVSPropertyOp28
 70
     1
102
RTVSPropertyOp29
 70
     1
102
RTVSPropertyOp30
 70
     1
102
RTVSPropertyOp31
 70
     1
102
RTVSPropertyOp32
 70
     1
102
RTVSPropertyOp33
 70
     1
102
RTVSPropertyOp34
 70
     1
102
RTVSPropertyOp35
 70
     1
102
RTVSPropertyOp36
 70
     1
102
RTVSPropertyOp37
 70
     1
102
RTVSPropertyOp38
 70
     1
102
RTVSPropertyOp39
 70
     1
102
RTVSPropertyOp40
 70
     1
102
RTVSPropertyOp41
 70
     1
102
RTVSPropertyOp42
 70
     1
102
RTVSPropertyOp43
 70
     1
102
RTVSPropertyOp44
 70
     1
102
RTVSPropertyOp45
 70
     1
102
RTVSPropertyOp46
 70
     1
102
RTVSPropertyOp47
 70
     1
102
RTVSPropertyOp48
 70
     1
102
RTVSPropertyOp49
 70
     1
102
RTVSPropertyOp50
 70
     1
102
RTVSPropertyOp51
 70
     0
102
RTVSPropertyOp52
 70
     0
102
RTVSPropertyOp53
 70
     1
102
RTVSPropertyOp54
 70
     1
102
RTVSPropertyOp55
 70
     1
102
RTVSPropertyOp56
 70
     1
102
RTVSPropertyOp57
 70
     1
102
RTVSPropertyOp58
 70
     1
102
RTVSPropertyOp59
 70
     1
102
RTVSPropertyOp60
 70
     1
102
RTVSPropertyOp61
 70
     1
102
RTVSPropertyOp62
 70
     1
  0
XRECORD
  5
BEA0
102
{ACAD_REACTORS
330
BE9F
102
}
330
BE9F
100
AcDbXrecord
280
     1
102
RTVSPost2010Prop28
280
     0
102
RTVSPost2010PropOp28
 70
     1
102
RTVSPost2010Prop29
280
     1
102
RTVSPost2010PropOp29
 70
     1
102
RTVSPost2010Prop30
280
     1
102
RTVSPost2010PropOp30
 70
     1
102
RTVSPost2010Prop31
280
     0
102
RTVSPost2010PropOp31
 70
     1
102
RTVSPost2010Prop32
280
     0
102
RTVSPost2010PropOp32
 70
     1
102
RTVSPost2010Prop33
280
     0
102
RTVSPost2010PropOp33
 70
     1
102
RTVSPost2010Prop34
280
     0
102
RTVSPost2010PropOp34
 70
     1
102
RTVSPost2010Prop35
280
     0
102
RTVSPost2010PropOp35
 70
     1
102
RTVSPost2010Prop36
280
     0
102
RTVSPost2010PropOp36
 70
     1
102
RTVSPost2010Prop37
 90
       50
102
RTVSPost2010PropOp37
 70
     1
102
RTVSPost2010Prop38
140
0.0
102
RTVSPost2010PropOp38
 70
     1
102
RTVSPost2010Prop39
140
1.0
102
RTVSPost2010PropOp39
 70
     1
102
RTVSPost2010Prop40
 90
        0
102
RTVSPost2010PropOp40
 70
     1
102
RTVSPost2010Prop41ColorIndex
 90
       18
102
RTVSPost2010Prop41ColorRGB
 90
        0
102
RTVSPost2010PropOp41
 70
     1
102
RTVSPost2010Prop42
 90
       50
102
RTVSPost2010PropOp42
 70
     1
102
RTVSPost2010Prop43
 90
        3
102
RTVSPost2010PropOp43
 70
     1
102
RTVSPost2010Prop44ColorIndex
 90
        5
102
RTVSPost2010Prop44ColorRGB
 90
      255
102
RTVSPost2010PropOp44
 70
     1
102
RTVSPost2010Prop45
280
     0
102
RTVSPost2010PropOp45
 70
     1
102
RTVSPost2010Prop46
 90
       50
102
RTVSPost2010PropOp46
 70
     1
102
RTVSPost2010Prop47
 90
       50
102
RTVSPost2010PropOp47
 70
     1
102
RTVSPost2010Prop48
 90
       50
102
RTVSPost2010PropOp48
 70
     1
102
RTVSPost2010Prop49
280
     0
102
RTVSPost2010PropOp49
 70
     1
102
RTVSPost2010Prop50
 90
       50
102
RTVSPost2010PropOp50
 70
     1
102
RTVSPost2010Prop51ColorIndex
 90
      256
102
RTVSPost2010Prop51ColorRGB
 90
-16777216
102
RTVSPost2010PropOp51
 70
     0
102
RTVSPost2010Prop52
140
1.0
102
RTVSPost2010PropOp52
 70
     0
102
RTVSPost2010Prop53
 90
        2
102
RTVSPost2010PropOp53
 70
     1
102
RTVSPost2010Prop54
  1
strokes_ogs.tif
102
RTVSPost2010PropOp54
 70
     1
102
RTVSPost2010Prop55
280
     0
102
RTVSPost2010PropOp55
 70
     1
102
RTVSPost2010Prop56
140
1.0
102
RTVSPost2010PropOp56
 70
     1
102
RTVSPost2010Prop57
140
1.0
102
RTVSPost2010PropOp57
 70
     1
102
RTVSPropertyOp0
 70
     1
102
RTVSPropertyOp1
 70
     1
102
RTVSPropertyOp2
 70
     1
102
RTVSPropertyOp3
 70
     1
102
RTVSPropertyOp4
 70
     1
102
RTVSPropertyOp5
 70
     1
102
RTVSPropertyOp6
 70
     1
102
RTVSPropertyOp7
 70
     1
102
RTVSPropertyOp8
 70
     1
102
RTVSPropertyOp9
 70
     1
102
RTVSPropertyOp10
 70
     1
102
RTVSPropertyOp11
 70
     1
102
RTVSPropertyOp12
 70
     1
102
RTVSPropertyOp13
 70
     1
102
RTVSPropertyOp14
 70
     1
102
RTVSPropertyOp15
 70
     1
102
RTVSPropertyOp16
 70
     1
102
RTVSPropertyOp17
 70
     1
102
RTVSPropertyOp18
 70
     1
102
RTVSPropertyOp19
 70
     1
102
RTVSPropertyOp20
 70
     1
102
RTVSPropertyOp21
 70
     1
102
RTVSPropertyOp22
 70
     1
102
RTVSPropertyOp23
 70
     1
102
RTVSPropertyOp24
 70
     1
102
RTVSPropertyOp25
 70
     1
102
RTVSPropertyOp26
 70
     1
102
RTVSPropertyOp27
 70
     1
102
RTVSPropertyOp28
 70
     1
102
RTVSPropertyOp29
 70
     1
102
RTVSPropertyOp30
 70
     1
102
RTVSPropertyOp31
 70
     1
102
RTVSPropertyOp32
 70
     1
102
RTVSPropertyOp33
 70
     1
102
RTVSPropertyOp34
 70
     1
102
RTVSPropertyOp35
 70
     1
102
RTVSPropertyOp36
 70
     1
102
RTVSPropertyOp37
 70
     1
102
RTVSPropertyOp38
 70
     1
102
RTVSPropertyOp39
 70
     1
102
RTVSPropertyOp40
 70
     1
102
RTVSPropertyOp41
 70
     1
102
RTVSPropertyOp42
 70
     1
102
RTVSPropertyOp43
 70
     1
102
RTVSPropertyOp44
 70
     1
102
RTVSPropertyOp45
 70
     1
102
RTVSPropertyOp46
 70
     1
102
RTVSPropertyOp47
 70
     1
102
RTVSPropertyOp48
 70
     1
102
RTVSPropertyOp49
 70
     1
102
RTVSPropertyOp50
 70
     1
102
RTVSPropertyOp51
 70
     0
102
RTVSPropertyOp52
 70
     0
102
RTVSPropertyOp53
 70
     1
102
RTVSPropertyOp54
 70
     1
102
RTVSPropertyOp55
 70
     1
102
RTVSPropertyOp56
 70
     1
102
RTVSPropertyOp57
 70
     1
102
RTVSPropertyOp58
 70
     1
102
RTVSPropertyOp59
 70
     1
102
RTVSPropertyOp60
 70
     1
102
RTVSPropertyOp61
 70
     1
102
RTVSPropertyOp62
 70
     1
  0
XRECORD
  5
BEA8
102
{ACAD_REACTORS
330
BEA7
102
}
330
BEA7
100
AcDbXrecord
280
     1
102
RTVSPost2010Prop28
280
     0
102
RTVSPost2010PropOp28
 70
     1
102
RTVSPost2010Prop29
280
     1
102
RTVSPost2010PropOp29
 70
     1
102
RTVSPost2010Prop30
280
     1
102
RTVSPost2010PropOp30
 70
     1
102
RTVSPost2010Prop31
280
     0
102
RTVSPost2010PropOp31
 70
     1
102
RTVSPost2010Prop32
280
     0
102
RTVSPost2010PropOp32
 70
     1
102
RTVSPost2010Prop33
280
     0
102
RTVSPost2010PropOp33
 70
     1
102
RTVSPost2010Prop34
280
     0
102
RTVSPost2010PropOp34
 70
     1
102
RTVSPost2010Prop35
280
     0
102
RTVSPost2010PropOp35
 70
     1
102
RTVSPost2010Prop36
280
     0
102
RTVSPost2010PropOp36
 70
     1
102
RTVSPost2010Prop37
 90
       50
102
RTVSPost2010PropOp37
 70
     1
102
RTVSPost2010Prop38
140
0.0
102
RTVSPost2010PropOp38
 70
     1
102
RTVSPost2010Prop39
140
1.0
102
RTVSPost2010PropOp39
 70
     1
102
RTVSPost2010Prop40
 90
        0
102
RTVSPost2010PropOp40
 70
     1
102
RTVSPost2010Prop41ColorIndex
 90
       18
102
RTVSPost2010Prop41ColorRGB
 90
        0
102
RTVSPost2010PropOp41
 70
     1
102
RTVSPost2010Prop42
 90
       50
102
RTVSPost2010PropOp42
 70
     1
102
RTVSPost2010Prop43
 90
        3
102
RTVSPost2010PropOp43
 70
     1
102
RTVSPost2010Prop44ColorIndex
 90
        5
102
RTVSPost2010Prop44ColorRGB
 90
      255
102
RTVSPost2010PropOp44
 70
     1
102
RTVSPost2010Prop45
280
     0
102
RTVSPost2010PropOp45
 70
     1
102
RTVSPost2010Prop46
 90
       50
102
RTVSPost2010PropOp46
 70
     1
102
RTVSPost2010Prop47
 90
       50
102
RTVSPost2010PropOp47
 70
     1
102
RTVSPost2010Prop48
 90
       50
102
RTVSPost2010PropOp48
 70
     1
102
RTVSPost2010Prop49
280
     0
102
RTVSPost2010PropOp49
 70
     1
102
RTVSPost2010Prop50
 90
       50
102
RTVSPost2010PropOp50
 70
     1
102
RTVSPost2010Prop51ColorIndex
 90
      256
102
RTVSPost2010Prop51ColorRGB
 90
-16777216
102
RTVSPost2010PropOp51
 70
     0
102
RTVSPost2010Prop52
140
1.0
102
RTVSPost2010PropOp52
 70
     0
102
RTVSPost2010Prop53
 90
        2
102
RTVSPost2010PropOp53
 70
     1
102
RTVSPost2010Prop54
  1
strokes_ogs.tif
102
RTVSPost2010PropOp54
 70
     1
102
RTVSPost2010Prop55
280
     0
102
RTVSPost2010PropOp55
 70
     1
102
RTVSPost2010Prop56
140
1.0
102
RTVSPost2010PropOp56
 70
     1
102
RTVSPost2010Prop57
140
1.0
102
RTVSPost2010PropOp57
 70
     1
102
RTVSPropertyOp0
 70
     1
102
RTVSPropertyOp1
 70
     1
102
RTVSPropertyOp2
 70
     1
102
RTVSPropertyOp3
 70
     1
102
RTVSPropertyOp4
 70
     1
102
RTVSPropertyOp5
 70
     1
102
RTVSPropertyOp6
 70
     1
102
RTVSPropertyOp7
 70
     1
102
RTVSPropertyOp8
 70
     1
102
RTVSPropertyOp9
 70
     1
102
RTVSPropertyOp10
 70
     1
102
RTVSPropertyOp11
 70
     1
102
RTVSPropertyOp12
 70
     1
102
RTVSPropertyOp13
 70
     1
102
RTVSPropertyOp14
 70
     1
102
RTVSPropertyOp15
 70
     1
102
RTVSPropertyOp16
 70
     1
102
RTVSPropertyOp17
 70
     1
102
RTVSPropertyOp18
 70
     1
102
RTVSPropertyOp19
 70
     1
102
RTVSPropertyOp20
 70
     1
102
RTVSPropertyOp21
 70
     1
102
RTVSPropertyOp22
 70
     1
102
RTVSPropertyOp23
 70
     1
102
RTVSPropertyOp24
 70
     1
102
RTVSPropertyOp25
 70
     1
102
RTVSPropertyOp26
 70
     1
102
RTVSPropertyOp27
 70
     1
102
RTVSPropertyOp28
 70
     1
102
RTVSPropertyOp29
 70
     1
102
RTVSPropertyOp30
 70
     1
102
RTVSPropertyOp31
 70
     1
102
RTVSPropertyOp32
 70
     1
102
RTVSPropertyOp33
 70
     1
102
RTVSPropertyOp34
 70
     1
102
RTVSPropertyOp35
 70
     1
102
RTVSPropertyOp36
 70
     1
102
RTVSPropertyOp37
 70
     1
102
RTVSPropertyOp38
 70
     1
102
RTVSPropertyOp39
 70
     1
102
RTVSPropertyOp40
 70
     1
102
RTVSPropertyOp41
 70
     1
102
RTVSPropertyOp42
 70
     1
102
RTVSPropertyOp43
 70
     1
102
RTVSPropertyOp44
 70
     1
102
RTVSPropertyOp45
 70
     1
102
RTVSPropertyOp46
 70
     1
102
RTVSPropertyOp47
 70
     1
102
RTVSPropertyOp48
 70
     1
102
RTVSPropertyOp49
 70
     1
102
RTVSPropertyOp50
 70
     1
102
RTVSPropertyOp51
 70
     0
102
RTVSPropertyOp52
 70
     0
102
RTVSPropertyOp53
 70
     1
102
RTVSPropertyOp54
 70
     1
102
RTVSPropertyOp55
 70
     1
102
RTVSPropertyOp56
 70
     1
102
RTVSPropertyOp57
 70
     1
102
RTVSPropertyOp58
 70
     1
102
RTVSPropertyOp59
 70
     1
102
RTVSPropertyOp60
 70
     1
102
RTVSPropertyOp61
 70
     1
102
RTVSPropertyOp62
 70
     1
  0
XRECORD
  5
BEC4
102
{ACAD_REACTORS
330
BEC3
102
}
330
BEC3
100
AcDbXrecord
280
     1
102
RTVSPost2010Prop28
280
     0
102
RTVSPost2010PropOp28
 70
     1
102
RTVSPost2010Prop29
280
     1
102
RTVSPost2010PropOp29
 70
     1
102
RTVSPost2010Prop30
280
     1
102
RTVSPost2010PropOp30
 70
     1
102
RTVSPost2010Prop31
280
     0
102
RTVSPost2010PropOp31
 70
     1
102
RTVSPost2010Prop32
280
     0
102
RTVSPost2010PropOp32
 70
     1
102
RTVSPost2010Prop33
280
     0
102
RTVSPost2010PropOp33
 70
     1
102
RTVSPost2010Prop34
280
     0
102
RTVSPost2010PropOp34
 70
     1
102
RTVSPost2010Prop35
280
     0
102
RTVSPost2010PropOp35
 70
     1
102
RTVSPost2010Prop36
280
     0
102
RTVSPost2010PropOp36
 70
     1
102
RTVSPost2010Prop37
 90
       50
102
RTVSPost2010PropOp37
 70
     0
102
RTVSPost2010Prop38
140
0.0
102
RTVSPost2010PropOp38
 70
     0
102
RTVSPost2010Prop39
140
1.0
102
RTVSPost2010PropOp39
 70
     0
102
RTVSPost2010Prop40
 90
        0
102
RTVSPost2010PropOp40
 70
     0
102
RTVSPost2010Prop41ColorIndex
 90
       18
102
RTVSPost2010Prop41ColorRGB
 90
        0
102
RTVSPost2010PropOp41
 70
     0
102
RTVSPost2010Prop42
 90
       50
102
RTVSPost2010PropOp42
 70
     0
102
RTVSPost2010Prop43
 90
        3
102
RTVSPost2010PropOp43
 70
     0
102
RTVSPost2010Prop44ColorIndex
 90
        5
102
RTVSPost2010Prop44ColorRGB
 90
      255
102
RTVSPost2010PropOp44
 70
     0
102
RTVSPost2010Prop45
280
     0
102
RTVSPost2010PropOp45
 70
     1
102
RTVSPost2010Prop46
 90
       50
102
RTVSPost2010PropOp46
 70
     0
102
RTVSPost2010Prop47
 90
       50
102
RTVSPost2010PropOp47
 70
     0
102
RTVSPost2010Prop48
 90
       50
102
RTVSPost2010PropOp48
 70
     0
102
RTVSPost2010Prop49
280
     0
102
RTVSPost2010PropOp49
 70
     1
102
RTVSPost2010Prop50
 90
       50
102
RTVSPost2010PropOp50
 70
     0
102
RTVSPost2010Prop51ColorIndex
 90
      256
102
RTVSPost2010Prop51ColorRGB
 90
-16777216
102
RTVSPost2010PropOp51
 70
     0
102
RTVSPost2010Prop52
140
1.0
102
RTVSPost2010PropOp52
 70
     0
102
RTVSPost2010Prop53
 90
        2
102
RTVSPost2010PropOp53
 70
     0
102
RTVSPost2010Prop54
  1
strokes_ogs.tif
102
RTVSPost2010PropOp54
 70
     0
102
RTVSPost2010Prop55
280
     0
102
RTVSPost2010PropOp55
 70
     1
102
RTVSPost2010Prop56
140
1.0
102
RTVSPost2010PropOp56
 70
     0
102
RTVSPost2010Prop57
140
1.0
102
RTVSPost2010PropOp57
 70
     0
102
RTVSPropertyOp0
 70
     0
102
RTVSPropertyOp1
 70
     0
102
RTVSPropertyOp2
 70
     0
102
RTVSPropertyOp3
 70
     0
102
RTVSPropertyOp4
 70
     0
102
RTVSPropertyOp5
 70
     0
102
RTVSPropertyOp6
 70
     0
102
RTVSPropertyOp7
 70
     0
102
RTVSPropertyOp8
 70
     0
102
RTVSPropertyOp9
 70
     0
102
RTVSPropertyOp10
 70
     0
102
RTVSPropertyOp11
 70
     0
102
RTVSPropertyOp12
 70
     0
102
RTVSPropertyOp13
 70
     0
102
RTVSPropertyOp14
 70
     2
102
RTVSPropertyOp15
 70
     0
102
RTVSPropertyOp16
 70
     0
102
RTVSPropertyOp17
 70
     0
102
RTVSPropertyOp18
 70
     0
102
RTVSPropertyOp19
 70
     0
102
RTVSPropertyOp20
 70
     0
102
RTVSPropertyOp21
 70
     0
102
RTVSPropertyOp22
 70
     0
102
RTVSPropertyOp23
 70
     0
102
RTVSPropertyOp24
 70
     0
102
RTVSPropertyOp25
 70
     0
102
RTVSPropertyOp26
 70
     0
102
RTVSPropertyOp27
 70
     0
102
RTVSPropertyOp28
 70
     1
102
RTVSPropertyOp29
 70
     1
102
RTVSPropertyOp30
 70
     1
102
RTVSPropertyOp31
 70
     1
102
RTVSPropertyOp32
 70
     1
102
RTVSPropertyOp33
 70
     1
102
RTVSPropertyOp34
 70
     1
102
RTVSPropertyOp35
 70
     1
102
RTVSPropertyOp36
 70
     1
102
RTVSPropertyOp37
 70
     0
102
RTVSPropertyOp38
 70
     0
102
RTVSPropertyOp39
 70
     0
102
RTVSPropertyOp40
 70
     0
102
RTVSPropertyOp41
 70
     0
102
RTVSPropertyOp42
 70
     0
102
RTVSPropertyOp43
 70
     0
102
RTVSPropertyOp44
 70
     0
102
RTVSPropertyOp45
 70
     1
102
RTVSPropertyOp46
 70
     0
102
RTVSPropertyOp47
 70
     0
102
RTVSPropertyOp48
 70
     0
102
RTVSPropertyOp49
 70
     1
102
RTVSPropertyOp50
 70
     0
102
RTVSPropertyOp51
 70
     0
102
RTVSPropertyOp52
 70
     0
102
RTVSPropertyOp53
 70
     0
102
RTVSPropertyOp54
 70
     0
102
RTVSPropertyOp55
 70
     1
102
RTVSPropertyOp56
 70
     0
102
RTVSPropertyOp57
 70
     0
102
RTVSPropertyOp58
 70
     0
102
RTVSPropertyOp59
 70
     0
102
RTVSPropertyOp60
 70
     0
102
RTVSPropertyOp61
 70
     0
102
RTVSPropertyOp62
 70
     0
  0
XRECORD
  5
BEB4
102
{ACAD_REACTORS
330
BEB3
102
}
330
BEB3
100
AcDbXrecord
280
     1
102
RTVSPost2010Prop28
280
     0
102
RTVSPost2010PropOp28
 70
     1
102
RTVSPost2010Prop29
280
     1
102
RTVSPost2010PropOp29
 70
     1
102
RTVSPost2010Prop30
280
     1
102
RTVSPost2010PropOp30
 70
     1
102
RTVSPost2010Prop31
280
     0
102
RTVSPost2010PropOp31
 70
     1
102
RTVSPost2010Prop32
280
     0
102
RTVSPost2010PropOp32
 70
     1
102
RTVSPost2010Prop33
280
     0
102
RTVSPost2010PropOp33
 70
     1
102
RTVSPost2010Prop34
280
     0
102
RTVSPost2010PropOp34
 70
     1
102
RTVSPost2010Prop35
280
     0
102
RTVSPost2010PropOp35
 70
     1
102
RTVSPost2010Prop36
280
     0
102
RTVSPost2010PropOp36
 70
     1
102
RTVSPost2010Prop37
 90
       50
102
RTVSPost2010PropOp37
 70
     1
102
RTVSPost2010Prop38
140
0.0
102
RTVSPost2010PropOp38
 70
     1
102
RTVSPost2010Prop39
140
1.0
102
RTVSPost2010PropOp39
 70
     1
102
RTVSPost2010Prop40
 90
        0
102
RTVSPost2010PropOp40
 70
     1
102
RTVSPost2010Prop41ColorIndex
 90
       18
102
RTVSPost2010Prop41ColorRGB
 90
        0
102
RTVSPost2010PropOp41
 70
     1
102
RTVSPost2010Prop42
 90
       50
102
RTVSPost2010PropOp42
 70
     1
102
RTVSPost2010Prop43
 90
        3
102
RTVSPost2010PropOp43
 70
     1
102
RTVSPost2010Prop44ColorIndex
 90
        5
102
RTVSPost2010Prop44ColorRGB
 90
      255
102
RTVSPost2010PropOp44
 70
     1
102
RTVSPost2010Prop45
280
     0
102
RTVSPost2010PropOp45
 70
     1
102
RTVSPost2010Prop46
 90
       50
102
RTVSPost2010PropOp46
 70
     1
102
RTVSPost2010Prop47
 90
       50
102
RTVSPost2010PropOp47
 70
     1
102
RTVSPost2010Prop48
 90
       50
102
RTVSPost2010PropOp48
 70
     1
102
RTVSPost2010Prop49
280
     0
102
RTVSPost2010PropOp49
 70
     1
102
RTVSPost2010Prop50
 90
       50
102
RTVSPost2010PropOp50
 70
     1
102
RTVSPost2010Prop51ColorIndex
 90
      256
102
RTVSPost2010Prop51ColorRGB
 90
-16777216
102
RTVSPost2010PropOp51
 70
     0
102
RTVSPost2010Prop52
140
1.0
102
RTVSPost2010PropOp52
 70
     0
102
RTVSPost2010Prop53
 90
        2
102
RTVSPost2010PropOp53
 70
     1
102
RTVSPost2010Prop54
  1
strokes_ogs.tif
102
RTVSPost2010PropOp54
 70
     1
102
RTVSPost2010Prop55
280
     0
102
RTVSPost2010PropOp55
 70
     1
102
RTVSPost2010Prop56
140
1.0
102
RTVSPost2010PropOp56
 70
     1
102
RTVSPost2010Prop57
140
1.0
102
RTVSPost2010PropOp57
 70
     1
102
RTVSPropertyOp0
 70
     1
102
RTVSPropertyOp1
 70
     1
102
RTVSPropertyOp2
 70
     1
102
RTVSPropertyOp3
 70
     1
102
RTVSPropertyOp4
 70
     1
102
RTVSPropertyOp5
 70
     1
102
RTVSPropertyOp6
 70
     1
102
RTVSPropertyOp7
 70
     1
102
RTVSPropertyOp8
 70
     1
102
RTVSPropertyOp9
 70
     1
102
RTVSPropertyOp10
 70
     1
102
RTVSPropertyOp11
 70
     1
102
RTVSPropertyOp12
 70
     1
102
RTVSPropertyOp13
 70
     1
102
RTVSPropertyOp14
 70
     1
102
RTVSPropertyOp15
 70
     1
102
RTVSPropertyOp16
 70
     1
102
RTVSPropertyOp17
 70
     1
102
RTVSPropertyOp18
 70
     1
102
RTVSPropertyOp19
 70
     1
102
RTVSPropertyOp20
 70
     1
102
RTVSPropertyOp21
 70
     1
102
RTVSPropertyOp22
 70
     1
102
RTVSPropertyOp23
 70
     1
102
RTVSPropertyOp24
 70
     1
102
RTVSPropertyOp25
 70
     1
102
RTVSPropertyOp26
 70
     1
102
RTVSPropertyOp27
 70
     1
102
RTVSPropertyOp28
 70
     1
102
RTVSPropertyOp29
 70
     1
102
RTVSPropertyOp30
 70
     1
102
RTVSPropertyOp31
 70
     1
102
RTVSPropertyOp32
 70
     1
102
RTVSPropertyOp33
 70
     1
102
RTVSPropertyOp34
 70
     1
102
RTVSPropertyOp35
 70
     1
102
RTVSPropertyOp36
 70
     1
102
RTVSPropertyOp37
 70
     1
102
RTVSPropertyOp38
 70
     1
102
RTVSPropertyOp39
 70
     1
102
RTVSPropertyOp40
 70
     1
102
RTVSPropertyOp41
 70
     1
102
RTVSPropertyOp42
 70
     1
102
RTVSPropertyOp43
 70
     1
102
RTVSPropertyOp44
 70
     1
102
RTVSPropertyOp45
 70
     1
102
RTVSPropertyOp46
 70
     1
102
RTVSPropertyOp47
 70
     1
102
RTVSPropertyOp48
 70
     1
102
RTVSPropertyOp49
 70
     1
102
RTVSPropertyOp50
 70
     1
102
RTVSPropertyOp51
 70
     0
102
RTVSPropertyOp52
 70
     0
102
RTVSPropertyOp53
 70
     1
102
RTVSPropertyOp54
 70
     1
102
RTVSPropertyOp55
 70
     1
102
RTVSPropertyOp56
 70
     1
102
RTVSPropertyOp57
 70
     1
102
RTVSPropertyOp58
 70
     1
102
RTVSPropertyOp59
 70
     1
102
RTVSPropertyOp60
 70
     1
102
RTVSPropertyOp61
 70
     1
102
RTVSPropertyOp62
 70
     1
  0
XRECORD
  5
BEC6
102
{ACAD_REACTORS
330
BEC5
102
}
330
BEC5
100
AcDbXrecord
280
     1
102
RTVSPost2010Prop28
280
     0
102
RTVSPost2010PropOp28
 70
     1
102
RTVSPost2010Prop29
280
     1
102
RTVSPost2010PropOp29
 70
     1
102
RTVSPost2010Prop30
280
     1
102
RTVSPost2010PropOp30
 70
     1
102
RTVSPost2010Prop31
280
     0
102
RTVSPost2010PropOp31
 70
     1
102
RTVSPost2010Prop32
280
     0
102
RTVSPost2010PropOp32
 70
     1
102
RTVSPost2010Prop33
280
     0
102
RTVSPost2010PropOp33
 70
     1
102
RTVSPost2010Prop34
280
     0
102
RTVSPost2010PropOp34
 70
     1
102
RTVSPost2010Prop35
280
     0
102
RTVSPost2010PropOp35
 70
     1
102
RTVSPost2010Prop36
280
     0
102
RTVSPost2010PropOp36
 70
     1
102
RTVSPost2010Prop37
 90
       50
102
RTVSPost2010PropOp37
 70
     0
102
RTVSPost2010Prop38
140
0.0
102
RTVSPost2010PropOp38
 70
     0
102
RTVSPost2010Prop39
140
1.0
102
RTVSPost2010PropOp39
 70
     0
102
RTVSPost2010Prop40
 90
        0
102
RTVSPost2010PropOp40
 70
     0
102
RTVSPost2010Prop41ColorIndex
 90
       18
102
RTVSPost2010Prop41ColorRGB
 90
        0
102
RTVSPost2010PropOp41
 70
     0
102
RTVSPost2010Prop42
 90
       50
102
RTVSPost2010PropOp42
 70
     0
102
RTVSPost2010Prop43
 90
        3
102
RTVSPost2010PropOp43
 70
     0
102
RTVSPost2010Prop44ColorIndex
 90
        5
102
RTVSPost2010Prop44ColorRGB
 90
      255
102
RTVSPost2010PropOp44
 70
     0
102
RTVSPost2010Prop45
280
     0
102
RTVSPost2010PropOp45
 70
     1
102
RTVSPost2010Prop46
 90
       50
102
RTVSPost2010PropOp46
 70
     0
102
RTVSPost2010Prop47
 90
       50
102
RTVSPost2010PropOp47
 70
     0
102
RTVSPost2010Prop48
 90
       50
102
RTVSPost2010PropOp48
 70
     0
102
RTVSPost2010Prop49
280
     0
102
RTVSPost2010PropOp49
 70
     1
102
RTVSPost2010Prop50
 90
       50
102
RTVSPost2010PropOp50
 70
     0
102
RTVSPost2010Prop51ColorIndex
 90
      256
102
RTVSPost2010Prop51ColorRGB
 90
-16777216
102
RTVSPost2010PropOp51
 70
     0
102
RTVSPost2010Prop52
140
1.0
102
RTVSPost2010PropOp52
 70
     0
102
RTVSPost2010Prop53
 90
        2
102
RTVSPost2010PropOp53
 70
     0
102
RTVSPost2010Prop54
  1
strokes_ogs.tif
102
RTVSPost2010PropOp54
 70
     0
102
RTVSPost2010Prop55
280
     0
102
RTVSPost2010PropOp55
 70
     1
102
RTVSPost2010Prop56
140
1.0
102
RTVSPost2010PropOp56
 70
     0
102
RTVSPost2010Prop57
140
1.0
102
RTVSPost2010PropOp57
 70
     0
102
RTVSPropertyOp0
 70
     0
102
RTVSPropertyOp1
 70
     0
102
RTVSPropertyOp2
 70
     0
102
RTVSPropertyOp3
 70
     0
102
RTVSPropertyOp4
 70
     0
102
RTVSPropertyOp5
 70
     0
102
RTVSPropertyOp6
 70
     0
102
RTVSPropertyOp7
 70
     0
102
RTVSPropertyOp8
 70
     0
102
RTVSPropertyOp9
 70
     0
102
RTVSPropertyOp10
 70
     0
102
RTVSPropertyOp11
 70
     0
102
RTVSPropertyOp12
 70
     0
102
RTVSPropertyOp13
 70
     0
102
RTVSPropertyOp14
 70
     2
102
RTVSPropertyOp15
 70
     0
102
RTVSPropertyOp16
 70
     0
102
RTVSPropertyOp17
 70
     0
102
RTVSPropertyOp18
 70
     0
102
RTVSPropertyOp19
 70
     0
102
RTVSPropertyOp20
 70
     0
102
RTVSPropertyOp21
 70
     0
102
RTVSPropertyOp22
 70
     0
102
RTVSPropertyOp23
 70
     0
102
RTVSPropertyOp24
 70
     0
102
RTVSPropertyOp25
 70
     0
102
RTVSPropertyOp26
 70
     0
102
RTVSPropertyOp27
 70
     0
102
RTVSPropertyOp28
 70
     1
102
RTVSPropertyOp29
 70
     1
102
RTVSPropertyOp30
 70
     1
102
RTVSPropertyOp31
 70
     1
102
RTVSPropertyOp32
 70
     1
102
RTVSPropertyOp33
 70
     1
102
RTVSPropertyOp34
 70
     1
102
RTVSPropertyOp35
 70
     1
102
RTVSPropertyOp36
 70
     1
102
RTVSPropertyOp37
 70
     0
102
RTVSPropertyOp38
 70
     0
102
RTVSPropertyOp39
 70
     0
102
RTVSPropertyOp40
 70
     0
102
RTVSPropertyOp41
 70
     0
102
RTVSPropertyOp42
 70
     0
102
RTVSPropertyOp43
 70
     0
102
RTVSPropertyOp44
 70
     0
102
RTVSPropertyOp45
 70
     1
102
RTVSPropertyOp46
 70
     0
102
RTVSPropertyOp47
 70
     0
102
RTVSPropertyOp48
 70
     0
102
RTVSPropertyOp49
 70
     1
102
RTVSPropertyOp50
 70
     0
102
RTVSPropertyOp51
 70
     0
102
RTVSPropertyOp52
 70
     0
102
RTVSPropertyOp53
 70
     0
102
RTVSPropertyOp54
 70
     0
102
RTVSPropertyOp55
 70
     1
102
RTVSPropertyOp56
 70
     0
102
RTVSPropertyOp57
 70
     0
102
RTVSPropertyOp58
 70
     0
102
RTVSPropertyOp59
 70
     0
102
RTVSPropertyOp60
 70
     0
102
RTVSPropertyOp61
 70
     0
102
RTVSPropertyOp62
 70
     0
  0
XRECORD
  5
BEAC
102
{ACAD_REACTORS
330
BEAB
102
}
330
BEAB
100
AcDbXrecord
280
     1
102
RTVSPost2010Prop28
280
     0
102
RTVSPost2010PropOp28
 70
     1
102
RTVSPost2010Prop29
280
     1
102
RTVSPost2010PropOp29
 70
     1
102
RTVSPost2010Prop30
280
     1
102
RTVSPost2010PropOp30
 70
     1
102
RTVSPost2010Prop31
280
     0
102
RTVSPost2010PropOp31
 70
     1
102
RTVSPost2010Prop32
280
     0
102
RTVSPost2010PropOp32
 70
     1
102
RTVSPost2010Prop33
280
     0
102
RTVSPost2010PropOp33
 70
     1
102
RTVSPost2010Prop34
280
     0
102
RTVSPost2010PropOp34
 70
     1
102
RTVSPost2010Prop35
280
     0
102
RTVSPost2010PropOp35
 70
     1
102
RTVSPost2010Prop36
280
     0
102
RTVSPost2010PropOp36
 70
     1
102
RTVSPost2010Prop37
 90
       50
102
RTVSPost2010PropOp37
 70
     1
102
RTVSPost2010Prop38
140
0.0
102
RTVSPost2010PropOp38
 70
     1
102
RTVSPost2010Prop39
140
1.0
102
RTVSPost2010PropOp39
 70
     1
102
RTVSPost2010Prop40
 90
        0
102
RTVSPost2010PropOp40
 70
     1
102
RTVSPost2010Prop41ColorIndex
 90
       18
102
RTVSPost2010Prop41ColorRGB
 90
        0
102
RTVSPost2010PropOp41
 70
     1
102
RTVSPost2010Prop42
 90
       50
102
RTVSPost2010PropOp42
 70
     1
102
RTVSPost2010Prop43
 90
        3
102
RTVSPost2010PropOp43
 70
     1
102
RTVSPost2010Prop44ColorIndex
 90
        5
102
RTVSPost2010Prop44ColorRGB
 90
      255
102
RTVSPost2010PropOp44
 70
     1
102
RTVSPost2010Prop45
280
     0
102
RTVSPost2010PropOp45
 70
     1
102
RTVSPost2010Prop46
 90
       50
102
RTVSPost2010PropOp46
 70
     1
102
RTVSPost2010Prop47
 90
       50
102
RTVSPost2010PropOp47
 70
     1
102
RTVSPost2010Prop48
 90
       50
102
RTVSPost2010PropOp48
 70
     1
102
RTVSPost2010Prop49
280
     0
102
RTVSPost2010PropOp49
 70
     1
102
RTVSPost2010Prop50
 90
       50
102
RTVSPost2010PropOp50
 70
     1
102
RTVSPost2010Prop51ColorIndex
 90
      256
102
RTVSPost2010Prop51ColorRGB
 90
-16777216
102
RTVSPost2010PropOp51
 70
     0
102
RTVSPost2010Prop52
140
1.0
102
RTVSPost2010PropOp52
 70
     0
102
RTVSPost2010Prop53
 90
        2
102
RTVSPost2010PropOp53
 70
     1
102
RTVSPost2010Prop54
  1
strokes_ogs.tif
102
RTVSPost2010PropOp54
 70
     1
102
RTVSPost2010Prop55
280
     0
102
RTVSPost2010PropOp55
 70
     1
102
RTVSPost2010Prop56
140
1.0
102
RTVSPost2010PropOp56
 70
     1
102
RTVSPost2010Prop57
140
1.0
102
RTVSPost2010PropOp57
 70
     1
102
RTVSPropertyOp0
 70
     1
102
RTVSPropertyOp1
 70
     1
102
RTVSPropertyOp2
 70
     1
102
RTVSPropertyOp3
 70
     1
102
RTVSPropertyOp4
 70
     1
102
RTVSPropertyOp5
 70
     1
102
RTVSPropertyOp6
 70
     1
102
RTVSPropertyOp7
 70
     1
102
RTVSPropertyOp8
 70
     1
102
RTVSPropertyOp9
 70
     1
102
RTVSPropertyOp10
 70
     1
102
RTVSPropertyOp11
 70
     1
102
RTVSPropertyOp12
 70
     1
102
RTVSPropertyOp13
 70
     1
102
RTVSPropertyOp14
 70
     1
102
RTVSPropertyOp15
 70
     1
102
RTVSPropertyOp16
 70
     1
102
RTVSPropertyOp17
 70
     1
102
RTVSPropertyOp18
 70
     1
102
RTVSPropertyOp19
 70
     1
102
RTVSPropertyOp20
 70
     1
102
RTVSPropertyOp21
 70
     1
102
RTVSPropertyOp22
 70
     1
102
RTVSPropertyOp23
 70
     1
102
RTVSPropertyOp24
 70
     1
102
RTVSPropertyOp25
 70
     1
102
RTVSPropertyOp26
 70
     1
102
RTVSPropertyOp27
 70
     1
102
RTVSPropertyOp28
 70
     1
102
RTVSPropertyOp29
 70
     1
102
RTVSPropertyOp30
 70
     1
102
RTVSPropertyOp31
 70
     1
102
RTVSPropertyOp32
 70
     1
102
RTVSPropertyOp33
 70
     1
102
RTVSPropertyOp34
 70
     1
102
RTVSPropertyOp35
 70
     1
102
RTVSPropertyOp36
 70
     1
102
RTVSPropertyOp37
 70
     1
102
RTVSPropertyOp38
 70
     1
102
RTVSPropertyOp39
 70
     1
102
RTVSPropertyOp40
 70
     1
102
RTVSPropertyOp41
 70
     1
102
RTVSPropertyOp42
 70
     1
102
RTVSPropertyOp43
 70
     1
102
RTVSPropertyOp44
 70
     1
102
RTVSPropertyOp45
 70
     1
102
RTVSPropertyOp46
 70
     1
102
RTVSPropertyOp47
 70
     1
102
RTVSPropertyOp48
 70
     1
102
RTVSPropertyOp49
 70
     1
102
RTVSPropertyOp50
 70
     1
102
RTVSPropertyOp51
 70
     0
102
RTVSPropertyOp52
 70
     0
102
RTVSPropertyOp53
 70
     1
102
RTVSPropertyOp54
 70
     1
102
RTVSPropertyOp55
 70
     1
102
RTVSPropertyOp56
 70
     1
102
RTVSPropertyOp57
 70
     1
102
RTVSPropertyOp58
 70
     1
102
RTVSPropertyOp59
 70
     1
102
RTVSPropertyOp60
 70
     1
102
RTVSPropertyOp61
 70
     1
102
RTVSPropertyOp62
 70
     1
  0
XRECORD
  5
BEC2
102
{ACAD_REACTORS
330
BEC1
102
}
330
BEC1
100
AcDbXrecord
280
     1
102
RTVSPost2010Prop28
280
     0
102
RTVSPost2010PropOp28
 70
     1
102
RTVSPost2010Prop29
280
     1
102
RTVSPost2010PropOp29
 70
     1
102
RTVSPost2010Prop30
280
     1
102
RTVSPost2010PropOp30
 70
     1
102
RTVSPost2010Prop31
280
     0
102
RTVSPost2010PropOp31
 70
     1
102
RTVSPost2010Prop32
280
     0
102
RTVSPost2010PropOp32
 70
     1
102
RTVSPost2010Prop33
280
     0
102
RTVSPost2010PropOp33
 70
     1
102
RTVSPost2010Prop34
280
     0
102
RTVSPost2010PropOp34
 70
     1
102
RTVSPost2010Prop35
280
     0
102
RTVSPost2010PropOp35
 70
     1
102
RTVSPost2010Prop36
280
     0
102
RTVSPost2010PropOp36
 70
     1
102
RTVSPost2010Prop37
 90
       50
102
RTVSPost2010PropOp37
 70
     1
102
RTVSPost2010Prop38
140
0.0
102
RTVSPost2010PropOp38
 70
     1
102
RTVSPost2010Prop39
140
1.0
102
RTVSPost2010PropOp39
 70
     1
102
RTVSPost2010Prop40
 90
        0
102
RTVSPost2010PropOp40
 70
     1
102
RTVSPost2010Prop41ColorIndex
 90
       18
102
RTVSPost2010Prop41ColorRGB
 90
        0
102
RTVSPost2010PropOp41
 70
     1
102
RTVSPost2010Prop42
 90
       50
102
RTVSPost2010PropOp42
 70
     1
102
RTVSPost2010Prop43
 90
        3
102
RTVSPost2010PropOp43
 70
     1
102
RTVSPost2010Prop44ColorIndex
 90
        5
102
RTVSPost2010Prop44ColorRGB
 90
      255
102
RTVSPost2010PropOp44
 70
     1
102
RTVSPost2010Prop45
280
     0
102
RTVSPost2010PropOp45
 70
     1
102
RTVSPost2010Prop46
 90
       50
102
RTVSPost2010PropOp46
 70
     1
102
RTVSPost2010Prop47
 90
       50
102
RTVSPost2010PropOp47
 70
     1
102
RTVSPost2010Prop48
 90
       50
102
RTVSPost2010PropOp48
 70
     1
102
RTVSPost2010Prop49
280
     0
102
RTVSPost2010PropOp49
 70
     1
102
RTVSPost2010Prop50
 90
       50
102
RTVSPost2010PropOp50
 70
     1
102
RTVSPost2010Prop51ColorIndex
 90
      256
102
RTVSPost2010Prop51ColorRGB
 90
-16777216
102
RTVSPost2010PropOp51
 70
     0
102
RTVSPost2010Prop52
140
1.0
102
RTVSPost2010PropOp52
 70
     0
102
RTVSPost2010Prop53
 90
        2
102
RTVSPost2010PropOp53
 70
     1
102
RTVSPost2010Prop54
  1
strokes_ogs.tif
102
RTVSPost2010PropOp54
 70
     1
102
RTVSPost2010Prop55
280
     0
102
RTVSPost2010PropOp55
 70
     1
102
RTVSPost2010Prop56
140
1.0
102
RTVSPost2010PropOp56
 70
     1
102
RTVSPost2010Prop57
140
1.0
102
RTVSPost2010PropOp57
 70
     1
102
RTVSPropertyOp0
 70
     1
102
RTVSPropertyOp1
 70
     1
102
RTVSPropertyOp2
 70
     1
102
RTVSPropertyOp3
 70
     1
102
RTVSPropertyOp4
 70
     1
102
RTVSPropertyOp5
 70
     1
102
RTVSPropertyOp6
 70
     1
102
RTVSPropertyOp7
 70
     1
102
RTVSPropertyOp8
 70
     1
102
RTVSPropertyOp9
 70
     1
102
RTVSPropertyOp10
 70
     1
102
RTVSPropertyOp11
 70
     1
102
RTVSPropertyOp12
 70
     1
102
RTVSPropertyOp13
 70
     1
102
RTVSPropertyOp14
 70
     1
102
RTVSPropertyOp15
 70
     1
102
RTVSPropertyOp16
 70
     1
102
RTVSPropertyOp17
 70
     1
102
RTVSPropertyOp18
 70
     1
102
RTVSPropertyOp19
 70
     1
102
RTVSPropertyOp20
 70
     1
102
RTVSPropertyOp21
 70
     1
102
RTVSPropertyOp22
 70
     1
102
RTVSPropertyOp23
 70
     1
102
RTVSPropertyOp24
 70
     1
102
RTVSPropertyOp25
 70
     1
102
RTVSPropertyOp26
 70
     1
102
RTVSPropertyOp27
 70
     1
102
RTVSPropertyOp28
 70
     1
102
RTVSPropertyOp29
 70
     1
102
RTVSPropertyOp30
 70
     1
102
RTVSPropertyOp31
 70
     1
102
RTVSPropertyOp32
 70
     1
102
RTVSPropertyOp33
 70
     1
102
RTVSPropertyOp34
 70
     1
102
RTVSPropertyOp35
 70
     1
102
RTVSPropertyOp36
 70
     1
102
RTVSPropertyOp37
 70
     1
102
RTVSPropertyOp38
 70
     1
102
RTVSPropertyOp39
 70
     1
102
RTVSPropertyOp40
 70
     1
102
RTVSPropertyOp41
 70
     1
102
RTVSPropertyOp42
 70
     1
102
RTVSPropertyOp43
 70
     1
102
RTVSPropertyOp44
 70
     1
102
RTVSPropertyOp45
 70
     1
102
RTVSPropertyOp46
 70
     1
102
RTVSPropertyOp47
 70
     1
102
RTVSPropertyOp48
 70
     1
102
RTVSPropertyOp49
 70
     1
102
RTVSPropertyOp50
 70
     1
102
RTVSPropertyOp51
 70
     0
102
RTVSPropertyOp52
 70
     0
102
RTVSPropertyOp53
 70
     1
102
RTVSPropertyOp54
 70
     1
102
RTVSPropertyOp55
 70
     1
102
RTVSPropertyOp56
 70
     1
102
RTVSPropertyOp57
 70
     1
102
RTVSPropertyOp58
 70
     1
102
RTVSPropertyOp59
 70
     1
102
RTVSPropertyOp60
 70
     1
102
RTVSPropertyOp61
 70
     1
102
RTVSPropertyOp62
 70
     1
  0
XRECORD
  5
BEC0
102
{ACAD_REACTORS
330
BEBF
102
}
330
BEBF
100
AcDbXrecord
280
     1
102
RTVSPost2010Prop28
280
     0
102
RTVSPost2010PropOp28
 70
     1
102
RTVSPost2010Prop29
280
     1
102
RTVSPost2010PropOp29
 70
     1
102
RTVSPost2010Prop30
280
     1
102
RTVSPost2010PropOp30
 70
     1
102
RTVSPost2010Prop31
280
     0
102
RTVSPost2010PropOp31
 70
     1
102
RTVSPost2010Prop32
280
     0
102
RTVSPost2010PropOp32
 70
     1
102
RTVSPost2010Prop33
280
     0
102
RTVSPost2010PropOp33
 70
     1
102
RTVSPost2010Prop34
280
     0
102
RTVSPost2010PropOp34
 70
     1
102
RTVSPost2010Prop35
280
     0
102
RTVSPost2010PropOp35
 70
     1
102
RTVSPost2010Prop36
280
     0
102
RTVSPost2010PropOp36
 70
     1
102
RTVSPost2010Prop37
 90
       50
102
RTVSPost2010PropOp37
 70
     1
102
RTVSPost2010Prop38
140
0.0
102
RTVSPost2010PropOp38
 70
     1
102
RTVSPost2010Prop39
140
1.0
102
RTVSPost2010PropOp39
 70
     1
102
RTVSPost2010Prop40
 90
        0
102
RTVSPost2010PropOp40
 70
     1
102
RTVSPost2010Prop41ColorIndex
 90
       18
102
RTVSPost2010Prop41ColorRGB
 90
        0
102
RTVSPost2010PropOp41
 70
     1
102
RTVSPost2010Prop42
 90
       50
102
RTVSPost2010PropOp42
 70
     1
102
RTVSPost2010Prop43
 90
        3
102
RTVSPost2010PropOp43
 70
     1
102
RTVSPost2010Prop44ColorIndex
 90
        5
102
RTVSPost2010Prop44ColorRGB
 90
      255
102
RTVSPost2010PropOp44
 70
     1
102
RTVSPost2010Prop45
280
     0
102
RTVSPost2010PropOp45
 70
     1
102
RTVSPost2010Prop46
 90
       50
102
RTVSPost2010PropOp46
 70
     1
102
RTVSPost2010Prop47
 90
       50
102
RTVSPost2010PropOp47
 70
     1
102
RTVSPost2010Prop48
 90
       50
102
RTVSPost2010PropOp48
 70
     1
102
RTVSPost2010Prop49
280
     0
102
RTVSPost2010PropOp49
 70
     1
102
RTVSPost2010Prop50
 90
       50
102
RTVSPost2010PropOp50
 70
     1
102
RTVSPost2010Prop51ColorIndex
 90
      256
102
RTVSPost2010Prop51ColorRGB
 90
-16777216
102
RTVSPost2010PropOp51
 70
     0
102
RTVSPost2010Prop52
140
1.0
102
RTVSPost2010PropOp52
 70
     0
102
RTVSPost2010Prop53
 90
        2
102
RTVSPost2010PropOp53
 70
     1
102
RTVSPost2010Prop54
  1
strokes_ogs.tif
102
RTVSPost2010PropOp54
 70
     1
102
RTVSPost2010Prop55
280
     0
102
RTVSPost2010PropOp55
 70
     1
102
RTVSPost2010Prop56
140
1.0
102
RTVSPost2010PropOp56
 70
     1
102
RTVSPost2010Prop57
140
1.0
102
RTVSPost2010PropOp57
 70
     1
102
RTVSPropertyOp0
 70
     1
102
RTVSPropertyOp1
 70
     1
102
RTVSPropertyOp2
 70
     1
102
RTVSPropertyOp3
 70
     1
102
RTVSPropertyOp4
 70
     1
102
RTVSPropertyOp5
 70
     1
102
RTVSPropertyOp6
 70
     1
102
RTVSPropertyOp7
 70
     1
102
RTVSPropertyOp8
 70
     1
102
RTVSPropertyOp9
 70
     1
102
RTVSPropertyOp10
 70
     1
102
RTVSPropertyOp11
 70
     1
102
RTVSPropertyOp12
 70
     1
102
RTVSPropertyOp13
 70
     1
102
RTVSPropertyOp14
 70
     1
102
RTVSPropertyOp15
 70
     1
102
RTVSPropertyOp16
 70
     1
102
RTVSPropertyOp17
 70
     1
102
RTVSPropertyOp18
 70
     1
102
RTVSPropertyOp19
 70
     1
102
RTVSPropertyOp20
 70
     1
102
RTVSPropertyOp21
 70
     1
102
RTVSPropertyOp22
 70
     1
102
RTVSPropertyOp23
 70
     1
102
RTVSPropertyOp24
 70
     1
102
RTVSPropertyOp25
 70
     1
102
RTVSPropertyOp26
 70
     1
102
RTVSPropertyOp27
 70
     1
102
RTVSPropertyOp28
 70
     1
102
RTVSPropertyOp29
 70
     1
102
RTVSPropertyOp30
 70
     1
102
RTVSPropertyOp31
 70
     1
102
RTVSPropertyOp32
 70
     1
102
RTVSPropertyOp33
 70
     1
102
RTVSPropertyOp34
 70
     1
102
RTVSPropertyOp35
 70
     1
102
RTVSPropertyOp36
 70
     1
102
RTVSPropertyOp37
 70
     1
102
RTVSPropertyOp38
 70
     1
102
RTVSPropertyOp39
 70
     1
102
RTVSPropertyOp40
 70
     1
102
RTVSPropertyOp41
 70
     1
102
RTVSPropertyOp42
 70
     1
102
RTVSPropertyOp43
 70
     1
102
RTVSPropertyOp44
 70
     1
102
RTVSPropertyOp45
 70
     1
102
RTVSPropertyOp46
 70
     1
102
RTVSPropertyOp47
 70
     1
102
RTVSPropertyOp48
 70
     1
102
RTVSPropertyOp49
 70
     1
102
RTVSPropertyOp50
 70
     1
102
RTVSPropertyOp51
 70
     0
102
RTVSPropertyOp52
 70
     0
102
RTVSPropertyOp53
 70
     1
102
RTVSPropertyOp54
 70
     1
102
RTVSPropertyOp55
 70
     1
102
RTVSPropertyOp56
 70
     1
102
RTVSPropertyOp57
 70
     1
102
RTVSPropertyOp58
 70
     1
102
RTVSPropertyOp59
 70
     1
102
RTVSPropertyOp60
 70
     1
102
RTVSPropertyOp61
 70
     1
102
RTVSPropertyOp62
 70
     1
  0
XRECORD
  5
BEBA
102
{ACAD_REACTORS
330
BEB9
102
}
330
BEB9
100
AcDbXrecord
280
     1
102
RTVSPost2010Prop28
280
     0
102
RTVSPost2010PropOp28
 70
     1
102
RTVSPost2010Prop29
280
     1
102
RTVSPost2010PropOp29
 70
     1
102
RTVSPost2010Prop30
280
     1
102
RTVSPost2010PropOp30
 70
     1
102
RTVSPost2010Prop31
280
     0
102
RTVSPost2010PropOp31
 70
     1
102
RTVSPost2010Prop32
280
     0
102
RTVSPost2010PropOp32
 70
     1
102
RTVSPost2010Prop33
280
     0
102
RTVSPost2010PropOp33
 70
     1
102
RTVSPost2010Prop34
280
     0
102
RTVSPost2010PropOp34
 70
     1
102
RTVSPost2010Prop35
280
     0
102
RTVSPost2010PropOp35
 70
     1
102
RTVSPost2010Prop36
280
     0
102
RTVSPost2010PropOp36
 70
     1
102
RTVSPost2010Prop37
 90
       50
102
RTVSPost2010PropOp37
 70
     1
102
RTVSPost2010Prop38
140
0.0
102
RTVSPost2010PropOp38
 70
     1
102
RTVSPost2010Prop39
140
1.0
102
RTVSPost2010PropOp39
 70
     1
102
RTVSPost2010Prop40
 90
        0
102
RTVSPost2010PropOp40
 70
     1
102
RTVSPost2010Prop41ColorIndex
 90
       18
102
RTVSPost2010Prop41ColorRGB
 90
        0
102
RTVSPost2010PropOp41
 70
     1
102
RTVSPost2010Prop42
 90
       50
102
RTVSPost2010PropOp42
 70
     1
102
RTVSPost2010Prop43
 90
        3
102
RTVSPost2010PropOp43
 70
     1
102
RTVSPost2010Prop44ColorIndex
 90
        5
102
RTVSPost2010Prop44ColorRGB
 90
      255
102
RTVSPost2010PropOp44
 70
     1
102
RTVSPost2010Prop45
280
     0
102
RTVSPost2010PropOp45
 70
     1
102
RTVSPost2010Prop46
 90
       50
102
RTVSPost2010PropOp46
 70
     1
102
RTVSPost2010Prop47
 90
       50
102
RTVSPost2010PropOp47
 70
     1
102
RTVSPost2010Prop48
 90
       50
102
RTVSPost2010PropOp48
 70
     1
102
RTVSPost2010Prop49
280
     0
102
RTVSPost2010PropOp49
 70
     1
102
RTVSPost2010Prop50
 90
       50
102
RTVSPost2010PropOp50
 70
     1
102
RTVSPost2010Prop51ColorIndex
 90
      256
102
RTVSPost2010Prop51ColorRGB
 90
-16777216
102
RTVSPost2010PropOp51
 70
     0
102
RTVSPost2010Prop52
140
1.0
102
RTVSPost2010PropOp52
 70
     0
102
RTVSPost2010Prop53
 90
        2
102
RTVSPost2010PropOp53
 70
     1
102
RTVSPost2010Prop54
  1
strokes_ogs.tif
102
RTVSPost2010PropOp54
 70
     1
102
RTVSPost2010Prop55
280
     0
102
RTVSPost2010PropOp55
 70
     1
102
RTVSPost2010Prop56
140
1.0
102
RTVSPost2010PropOp56
 70
     1
102
RTVSPost2010Prop57
140
1.0
102
RTVSPost2010PropOp57
 70
     1
102
RTVSPropertyOp0
 70
     1
102
RTVSPropertyOp1
 70
     1
102
RTVSPropertyOp2
 70
     1
102
RTVSPropertyOp3
 70
     1
102
RTVSPropertyOp4
 70
     1
102
RTVSPropertyOp5
 70
     1
102
RTVSPropertyOp6
 70
     1
102
RTVSPropertyOp7
 70
     1
102
RTVSPropertyOp8
 70
     1
102
RTVSPropertyOp9
 70
     1
102
RTVSPropertyOp10
 70
     1
102
RTVSPropertyOp11
 70
     1
102
RTVSPropertyOp12
 70
     1
102
RTVSPropertyOp13
 70
     1
102
RTVSPropertyOp14
 70
     1
102
RTVSPropertyOp15
 70
     1
102
RTVSPropertyOp16
 70
     1
102
RTVSPropertyOp17
 70
     1
102
RTVSPropertyOp18
 70
     1
102
RTVSPropertyOp19
 70
     1
102
RTVSPropertyOp20
 70
     1
102
RTVSPropertyOp21
 70
     1
102
RTVSPropertyOp22
 70
     1
102
RTVSPropertyOp23
 70
     1
102
RTVSPropertyOp24
 70
     1
102
RTVSPropertyOp25
 70
     1
102
RTVSPropertyOp26
 70
     1
102
RTVSPropertyOp27
 70
     1
102
RTVSPropertyOp28
 70
     1
102
RTVSPropertyOp29
 70
     1
102
RTVSPropertyOp30
 70
     1
102
RTVSPropertyOp31
 70
     1
102
RTVSPropertyOp32
 70
     1
102
RTVSPropertyOp33
 70
     1
102
RTVSPropertyOp34
 70
     1
102
RTVSPropertyOp35
 70
     1
102
RTVSPropertyOp36
 70
     1
102
RTVSPropertyOp37
 70
     1
102
RTVSPropertyOp38
 70
     1
102
RTVSPropertyOp39
 70
     1
102
RTVSPropertyOp40
 70
     1
102
RTVSPropertyOp41
 70
     1
102
RTVSPropertyOp42
 70
     1
102
RTVSPropertyOp43
 70
     1
102
RTVSPropertyOp44
 70
     1
102
RTVSPropertyOp45
 70
     1
102
RTVSPropertyOp46
 70
     1
102
RTVSPropertyOp47
 70
     1
102
RTVSPropertyOp48
 70
     1
102
RTVSPropertyOp49
 70
     1
102
RTVSPropertyOp50
 70
     1
102
RTVSPropertyOp51
 70
     0
102
RTVSPropertyOp52
 70
     0
102
RTVSPropertyOp53
 70
     1
102
RTVSPropertyOp54
 70
     1
102
RTVSPropertyOp55
 70
     1
102
RTVSPropertyOp56
 70
     1
102
RTVSPropertyOp57
 70
     1
102
RTVSPropertyOp58
 70
     1
102
RTVSPropertyOp59
 70
     1
102
RTVSPropertyOp60
 70
     1
102
RTVSPropertyOp61
 70
     1
102
RTVSPropertyOp62
 70
     1
  0
XRECORD
  5
BEBC
102
{ACAD_REACTORS
330
BEBB
102
}
330
BEBB
100
AcDbXrecord
280
     1
102
RTVSPost2010Prop28
280
     0
102
RTVSPost2010PropOp28
 70
     1
102
RTVSPost2010Prop29
280
     1
102
RTVSPost2010PropOp29
 70
     1
102
RTVSPost2010Prop30
280
     1
102
RTVSPost2010PropOp30
 70
     1
102
RTVSPost2010Prop31
280
     0
102
RTVSPost2010PropOp31
 70
     1
102
RTVSPost2010Prop32
280
     0
102
RTVSPost2010PropOp32
 70
     1
102
RTVSPost2010Prop33
280
     0
102
RTVSPost2010PropOp33
 70
     1
102
RTVSPost2010Prop34
280
     0
102
RTVSPost2010PropOp34
 70
     1
102
RTVSPost2010Prop35
280
     0
102
RTVSPost2010PropOp35
 70
     1
102
RTVSPost2010Prop36
280
     0
102
RTVSPost2010PropOp36
 70
     1
102
RTVSPost2010Prop37
 90
       50
102
RTVSPost2010PropOp37
 70
     1
102
RTVSPost2010Prop38
140
0.0
102
RTVSPost2010PropOp38
 70
     1
102
RTVSPost2010Prop39
140
1.0
102
RTVSPost2010PropOp39
 70
     1
102
RTVSPost2010Prop40
 90
        0
102
RTVSPost2010PropOp40
 70
     1
102
RTVSPost2010Prop41ColorIndex
 90
       18
102
RTVSPost2010Prop41ColorRGB
 90
        0
102
RTVSPost2010PropOp41
 70
     1
102
RTVSPost2010Prop42
 90
       50
102
RTVSPost2010PropOp42
 70
     1
102
RTVSPost2010Prop43
 90
        3
102
RTVSPost2010PropOp43
 70
     1
102
RTVSPost2010Prop44ColorIndex
 90
        5
102
RTVSPost2010Prop44ColorRGB
 90
      255
102
RTVSPost2010PropOp44
 70
     1
102
RTVSPost2010Prop45
280
     0
102
RTVSPost2010PropOp45
 70
     1
102
RTVSPost2010Prop46
 90
       50
102
RTVSPost2010PropOp46
 70
     1
102
RTVSPost2010Prop47
 90
       50
102
RTVSPost2010PropOp47
 70
     1
102
RTVSPost2010Prop48
 90
       50
102
RTVSPost2010PropOp48
 70
     1
102
RTVSPost2010Prop49
280
     0
102
RTVSPost2010PropOp49
 70
     1
102
RTVSPost2010Prop50
 90
       50
102
RTVSPost2010PropOp50
 70
     1
102
RTVSPost2010Prop51ColorIndex
 90
      256
102
RTVSPost2010Prop51ColorRGB
 90
-16777216
102
RTVSPost2010PropOp51
 70
     0
102
RTVSPost2010Prop52
140
1.0
102
RTVSPost2010PropOp52
 70
     0
102
RTVSPost2010Prop53
 90
        2
102
RTVSPost2010PropOp53
 70
     1
102
RTVSPost2010Prop54
  1
strokes_ogs.tif
102
RTVSPost2010PropOp54
 70
     1
102
RTVSPost2010Prop55
280
     0
102
RTVSPost2010PropOp55
 70
     1
102
RTVSPost2010Prop56
140
1.0
102
RTVSPost2010PropOp56
 70
     1
102
RTVSPost2010Prop57
140
1.0
102
RTVSPost2010PropOp57
 70
     1
102
RTVSPropertyOp0
 70
     1
102
RTVSPropertyOp1
 70
     1
102
RTVSPropertyOp2
 70
     1
102
RTVSPropertyOp3
 70
     1
102
RTVSPropertyOp4
 70
     1
102
RTVSPropertyOp5
 70
     1
102
RTVSPropertyOp6
 70
     1
102
RTVSPropertyOp7
 70
     1
102
RTVSPropertyOp8
 70
     1
102
RTVSPropertyOp9
 70
     1
102
RTVSPropertyOp10
 70
     1
102
RTVSPropertyOp11
 70
     1
102
RTVSPropertyOp12
 70
     1
102
RTVSPropertyOp13
 70
     1
102
RTVSPropertyOp14
 70
     1
102
RTVSPropertyOp15
 70
     1
102
RTVSPropertyOp16
 70
     1
102
RTVSPropertyOp17
 70
     1
102
RTVSPropertyOp18
 70
     1
102
RTVSPropertyOp19
 70
     1
102
RTVSPropertyOp20
 70
     1
102
RTVSPropertyOp21
 70
     1
102
RTVSPropertyOp22
 70
     1
102
RTVSPropertyOp23
 70
     1
102
RTVSPropertyOp24
 70
     1
102
RTVSPropertyOp25
 70
     1
102
RTVSPropertyOp26
 70
     1
102
RTVSPropertyOp27
 70
     1
102
RTVSPropertyOp28
 70
     1
102
RTVSPropertyOp29
 70
     1
102
RTVSPropertyOp30
 70
     1
102
RTVSPropertyOp31
 70
     1
102
RTVSPropertyOp32
 70
     1
102
RTVSPropertyOp33
 70
     1
102
RTVSPropertyOp34
 70
     1
102
RTVSPropertyOp35
 70
     1
102
RTVSPropertyOp36
 70
     1
102
RTVSPropertyOp37
 70
     1
102
RTVSPropertyOp38
 70
     1
102
RTVSPropertyOp39
 70
     1
102
RTVSPropertyOp40
 70
     1
102
RTVSPropertyOp41
 70
     1
102
RTVSPropertyOp42
 70
     1
102
RTVSPropertyOp43
 70
     1
102
RTVSPropertyOp44
 70
     1
102
RTVSPropertyOp45
 70
     1
102
RTVSPropertyOp46
 70
     1
102
RTVSPropertyOp47
 70
     1
102
RTVSPropertyOp48
 70
     1
102
RTVSPropertyOp49
 70
     1
102
RTVSPropertyOp50
 70
     1
102
RTVSPropertyOp51
 70
     0
102
RTVSPropertyOp52
 70
     0
102
RTVSPropertyOp53
 70
     1
102
RTVSPropertyOp54
 70
     1
102
RTVSPropertyOp55
 70
     1
102
RTVSPropertyOp56
 70
     1
102
RTVSPropertyOp57
 70
     1
102
RTVSPropertyOp58
 70
     1
102
RTVSPropertyOp59
 70
     1
102
RTVSPropertyOp60
 70
     1
102
RTVSPropertyOp61
 70
     1
102
RTVSPropertyOp62
 70
     1
  0
XRECORD
  5
BEB2
102
{ACAD_REACTORS
330
BEB1
102
}
330
BEB1
100
AcDbXrecord
280
     1
102
RTVSPost2010Prop28
280
     0
102
RTVSPost2010PropOp28
 70
     1
102
RTVSPost2010Prop29
280
     1
102
RTVSPost2010PropOp29
 70
     1
102
RTVSPost2010Prop30
280
     1
102
RTVSPost2010PropOp30
 70
     1
102
RTVSPost2010Prop31
280
     0
102
RTVSPost2010PropOp31
 70
     1
102
RTVSPost2010Prop32
280
     0
102
RTVSPost2010PropOp32
 70
     1
102
RTVSPost2010Prop33
280
     0
102
RTVSPost2010PropOp33
 70
     1
102
RTVSPost2010Prop34
280
     0
102
RTVSPost2010PropOp34
 70
     1
102
RTVSPost2010Prop35
280
     0
102
RTVSPost2010PropOp35
 70
     1
102
RTVSPost2010Prop36
280
     0
102
RTVSPost2010PropOp36
 70
     1
102
RTVSPost2010Prop37
 90
       50
102
RTVSPost2010PropOp37
 70
     1
102
RTVSPost2010Prop38
140
0.0
102
RTVSPost2010PropOp38
 70
     1
102
RTVSPost2010Prop39
140
1.0
102
RTVSPost2010PropOp39
 70
     1
102
RTVSPost2010Prop40
 90
        0
102
RTVSPost2010PropOp40
 70
     1
102
RTVSPost2010Prop41ColorIndex
 90
       18
102
RTVSPost2010Prop41ColorRGB
 90
        0
102
RTVSPost2010PropOp41
 70
     1
102
RTVSPost2010Prop42
 90
       50
102
RTVSPost2010PropOp42
 70
     1
102
RTVSPost2010Prop43
 90
        3
102
RTVSPost2010PropOp43
 70
     1
102
RTVSPost2010Prop44ColorIndex
 90
        5
102
RTVSPost2010Prop44ColorRGB
 90
      255
102
RTVSPost2010PropOp44
 70
     1
102
RTVSPost2010Prop45
280
     0
102
RTVSPost2010PropOp45
 70
     1
102
RTVSPost2010Prop46
 90
       50
102
RTVSPost2010PropOp46
 70
     1
102
RTVSPost2010Prop47
 90
       50
102
RTVSPost2010PropOp47
 70
     1
102
RTVSPost2010Prop48
 90
       50
102
RTVSPost2010PropOp48
 70
     1
102
RTVSPost2010Prop49
280
     0
102
RTVSPost2010PropOp49
 70
     1
102
RTVSPost2010Prop50
 90
       50
102
RTVSPost2010PropOp50
 70
     1
102
RTVSPost2010Prop51ColorIndex
 90
      256
102
RTVSPost2010Prop51ColorRGB
 90
-16777216
102
RTVSPost2010PropOp51
 70
     0
102
RTVSPost2010Prop52
140
1.0
102
RTVSPost2010PropOp52
 70
     0
102
RTVSPost2010Prop53
 90
        2
102
RTVSPost2010PropOp53
 70
     1
102
RTVSPost2010Prop54
  1
strokes_ogs.tif
102
RTVSPost2010PropOp54
 70
     1
102
RTVSPost2010Prop55
280
     0
102
RTVSPost2010PropOp55
 70
     1
102
RTVSPost2010Prop56
140
1.0
102
RTVSPost2010PropOp56
 70
     1
102
RTVSPost2010Prop57
140
1.0
102
RTVSPost2010PropOp57
 70
     1
102
RTVSPropertyOp0
 70
     1
102
RTVSPropertyOp1
 70
     1
102
RTVSPropertyOp2
 70
     1
102
RTVSPropertyOp3
 70
     1
102
RTVSPropertyOp4
 70
     1
102
RTVSPropertyOp5
 70
     1
102
RTVSPropertyOp6
 70
     1
102
RTVSPropertyOp7
 70
     1
102
RTVSPropertyOp8
 70
     1
102
RTVSPropertyOp9
 70
     1
102
RTVSPropertyOp10
 70
     1
102
RTVSPropertyOp11
 70
     1
102
RTVSPropertyOp12
 70
     1
102
RTVSPropertyOp13
 70
     1
102
RTVSPropertyOp14
 70
     1
102
RTVSPropertyOp15
 70
     1
102
RTVSPropertyOp16
 70
     1
102
RTVSPropertyOp17
 70
     1
102
RTVSPropertyOp18
 70
     1
102
RTVSPropertyOp19
 70
     1
102
RTVSPropertyOp20
 70
     1
102
RTVSPropertyOp21
 70
     1
102
RTVSPropertyOp22
 70
     1
102
RTVSPropertyOp23
 70
     1
102
RTVSPropertyOp24
 70
     1
102
RTVSPropertyOp25
 70
     1
102
RTVSPropertyOp26
 70
     1
102
RTVSPropertyOp27
 70
     1
102
RTVSPropertyOp28
 70
     1
102
RTVSPropertyOp29
 70
     1
102
RTVSPropertyOp30
 70
     1
102
RTVSPropertyOp31
 70
     1
102
RTVSPropertyOp32
 70
     1
102
RTVSPropertyOp33
 70
     1
102
RTVSPropertyOp34
 70
     1
102
RTVSPropertyOp35
 70
     1
102
RTVSPropertyOp36
 70
     1
102
RTVSPropertyOp37
 70
     1
102
RTVSPropertyOp38
 70
     1
102
RTVSPropertyOp39
 70
     1
102
RTVSPropertyOp40
 70
     1
102
RTVSPropertyOp41
 70
     1
102
RTVSPropertyOp42
 70
     1
102
RTVSPropertyOp43
 70
     1
102
RTVSPropertyOp44
 70
     1
102
RTVSPropertyOp45
 70
     1
102
RTVSPropertyOp46
 70
     1
102
RTVSPropertyOp47
 70
     1
102
RTVSPropertyOp48
 70
     1
102
RTVSPropertyOp49
 70
     1
102
RTVSPropertyOp50
 70
     1
102
RTVSPropertyOp51
 70
     0
102
RTVSPropertyOp52
 70
     0
102
RTVSPropertyOp53
 70
     1
102
RTVSPropertyOp54
 70
     1
102
RTVSPropertyOp55
 70
     1
102
RTVSPropertyOp56
 70
     1
102
RTVSPropertyOp57
 70
     1
102
RTVSPropertyOp58
 70
     1
102
RTVSPropertyOp59
 70
     1
102
RTVSPropertyOp60
 70
     1
102
RTVSPropertyOp61
 70
     1
102
RTVSPropertyOp62
 70
     1
  0
XRECORD
  5
BEA6
102
{ACAD_REACTORS
330
BEA5
102
}
330
BEA5
100
AcDbXrecord
280
     1
102
RTVSPost2010Prop28
280
     0
102
RTVSPost2010PropOp28
 70
     1
102
RTVSPost2010Prop29
280
     1
102
RTVSPost2010PropOp29
 70
     1
102
RTVSPost2010Prop30
280
     1
102
RTVSPost2010PropOp30
 70
     1
102
RTVSPost2010Prop31
280
     0
102
RTVSPost2010PropOp31
 70
     1
102
RTVSPost2010Prop32
280
     0
102
RTVSPost2010PropOp32
 70
     1
102
RTVSPost2010Prop33
280
     0
102
RTVSPost2010PropOp33
 70
     1
102
RTVSPost2010Prop34
280
     0
102
RTVSPost2010PropOp34
 70
     1
102
RTVSPost2010Prop35
280
     0
102
RTVSPost2010PropOp35
 70
     1
102
RTVSPost2010Prop36
280
     0
102
RTVSPost2010PropOp36
 70
     1
102
RTVSPost2010Prop37
 90
       50
102
RTVSPost2010PropOp37
 70
     1
102
RTVSPost2010Prop38
140
0.0
102
RTVSPost2010PropOp38
 70
     1
102
RTVSPost2010Prop39
140
1.0
102
RTVSPost2010PropOp39
 70
     1
102
RTVSPost2010Prop40
 90
        0
102
RTVSPost2010PropOp40
 70
     1
102
RTVSPost2010Prop41ColorIndex
 90
       18
102
RTVSPost2010Prop41ColorRGB
 90
        0
102
RTVSPost2010PropOp41
 70
     1
102
RTVSPost2010Prop42
 90
       50
102
RTVSPost2010PropOp42
 70
     1
102
RTVSPost2010Prop43
 90
        3
102
RTVSPost2010PropOp43
 70
     1
102
RTVSPost2010Prop44ColorIndex
 90
        5
102
RTVSPost2010Prop44ColorRGB
 90
      255
102
RTVSPost2010PropOp44
 70
     1
102
RTVSPost2010Prop45
280
     0
102
RTVSPost2010PropOp45
 70
     1
102
RTVSPost2010Prop46
 90
       50
102
RTVSPost2010PropOp46
 70
     1
102
RTVSPost2010Prop47
 90
       50
102
RTVSPost2010PropOp47
 70
     1
102
RTVSPost2010Prop48
 90
       50
102
RTVSPost2010PropOp48
 70
     1
102
RTVSPost2010Prop49
280
     0
102
RTVSPost2010PropOp49
 70
     1
102
RTVSPost2010Prop50
 90
       50
102
RTVSPost2010PropOp50
 70
     1
102
RTVSPost2010Prop51ColorIndex
 90
      256
102
RTVSPost2010Prop51ColorRGB
 90
-16777216
102
RTVSPost2010PropOp51
 70
     0
102
RTVSPost2010Prop52
140
1.0
102
RTVSPost2010PropOp52
 70
     0
102
RTVSPost2010Prop53
 90
        2
102
RTVSPost2010PropOp53
 70
     1
102
RTVSPost2010Prop54
  1
strokes_ogs.tif
102
RTVSPost2010PropOp54
 70
     1
102
RTVSPost2010Prop55
280
     0
102
RTVSPost2010PropOp55
 70
     1
102
RTVSPost2010Prop56
140
1.0
102
RTVSPost2010PropOp56
 70
     1
102
RTVSPost2010Prop57
140
1.0
102
RTVSPost2010PropOp57
 70
     1
102
RTVSPropertyOp0
 70
     1
102
RTVSPropertyOp1
 70
     1
102
RTVSPropertyOp2
 70
     1
102
RTVSPropertyOp3
 70
     1
102
RTVSPropertyOp4
 70
     1
102
RTVSPropertyOp5
 70
     1
102
RTVSPropertyOp6
 70
     1
102
RTVSPropertyOp7
 70
     1
102
RTVSPropertyOp8
 70
     1
102
RTVSPropertyOp9
 70
     1
102
RTVSPropertyOp10
 70
     1
102
RTVSPropertyOp11
 70
     1
102
RTVSPropertyOp12
 70
     1
102
RTVSPropertyOp13
 70
     1
102
RTVSPropertyOp14
 70
     1
102
RTVSPropertyOp15
 70
     1
102
RTVSPropertyOp16
 70
     1
102
RTVSPropertyOp17
 70
     1
102
RTVSPropertyOp18
 70
     1
102
RTVSPropertyOp19
 70
     1
102
RTVSPropertyOp20
 70
     1
102
RTVSPropertyOp21
 70
     1
102
RTVSPropertyOp22
 70
     1
102
RTVSPropertyOp23
 70
     1
102
RTVSPropertyOp24
 70
     1
102
RTVSPropertyOp25
 70
     1
102
RTVSPropertyOp26
 70
     1
102
RTVSPropertyOp27
 70
     1
102
RTVSPropertyOp28
 70
     1
102
RTVSPropertyOp29
 70
     1
102
RTVSPropertyOp30
 70
     1
102
RTVSPropertyOp31
 70
     1
102
RTVSPropertyOp32
 70
     1
102
RTVSPropertyOp33
 70
     1
102
RTVSPropertyOp34
 70
     1
102
RTVSPropertyOp35
 70
     1
102
RTVSPropertyOp36
 70
     1
102
RTVSPropertyOp37
 70
     1
102
RTVSPropertyOp38
 70
     1
102
RTVSPropertyOp39
 70
     1
102
RTVSPropertyOp40
 70
     1
102
RTVSPropertyOp41
 70
     1
102
RTVSPropertyOp42
 70
     1
102
RTVSPropertyOp43
 70
     1
102
RTVSPropertyOp44
 70
     1
102
RTVSPropertyOp45
 70
     1
102
RTVSPropertyOp46
 70
     1
102
RTVSPropertyOp47
 70
     1
102
RTVSPropertyOp48
 70
     1
102
RTVSPropertyOp49
 70
     1
102
RTVSPropertyOp50
 70
     1
102
RTVSPropertyOp51
 70
     0
102
RTVSPropertyOp52
 70
     0
102
RTVSPropertyOp53
 70
     1
102
RTVSPropertyOp54
 70
     1
102
RTVSPropertyOp55
 70
     1
102
RTVSPropertyOp56
 70
     1
102
RTVSPropertyOp57
 70
     1
102
RTVSPropertyOp58
 70
     1
102
RTVSPropertyOp59
 70
     1
102
RTVSPropertyOp60
 70
     1
102
RTVSPropertyOp61
 70
     1
102
RTVSPropertyOp62
 70
     1
  0
XRECORD
  5
BEBE
102
{ACAD_REACTORS
330
BEBD
102
}
330
BEBD
100
AcDbXrecord
280
     1
102
RTVSPost2010Prop28
280
     0
102
RTVSPost2010PropOp28
 70
     1
102
RTVSPost2010Prop29
280
     1
102
RTVSPost2010PropOp29
 70
     1
102
RTVSPost2010Prop30
280
     1
102
RTVSPost2010PropOp30
 70
     1
102
RTVSPost2010Prop31
280
     0
102
RTVSPost2010PropOp31
 70
     1
102
RTVSPost2010Prop32
280
     0
102
RTVSPost2010PropOp32
 70
     1
102
RTVSPost2010Prop33
280
     0
102
RTVSPost2010PropOp33
 70
     1
102
RTVSPost2010Prop34
280
     0
102
RTVSPost2010PropOp34
 70
     1
102
RTVSPost2010Prop35
280
     0
102
RTVSPost2010PropOp35
 70
     1
102
RTVSPost2010Prop36
280
     0
102
RTVSPost2010PropOp36
 70
     1
102
RTVSPost2010Prop37
 90
       50
102
RTVSPost2010PropOp37
 70
     1
102
RTVSPost2010Prop38
140
0.0
102
RTVSPost2010PropOp38
 70
     1
102
RTVSPost2010Prop39
140
1.0
102
RTVSPost2010PropOp39
 70
     1
102
RTVSPost2010Prop40
 90
        0
102
RTVSPost2010PropOp40
 70
     1
102
RTVSPost2010Prop41ColorIndex
 90
       18
102
RTVSPost2010Prop41ColorRGB
 90
        0
102
RTVSPost2010PropOp41
 70
     1
102
RTVSPost2010Prop42
 90
       50
102
RTVSPost2010PropOp42
 70
     1
102
RTVSPost2010Prop43
 90
        3
102
RTVSPost2010PropOp43
 70
     1
102
RTVSPost2010Prop44ColorIndex
 90
        5
102
RTVSPost2010Prop44ColorRGB
 90
      255
102
RTVSPost2010PropOp44
 70
     1
102
RTVSPost2010Prop45
280
     0
102
RTVSPost2010PropOp45
 70
     1
102
RTVSPost2010Prop46
 90
       50
102
RTVSPost2010PropOp46
 70
     1
102
RTVSPost2010Prop47
 90
       50
102
RTVSPost2010PropOp47
 70
     1
102
RTVSPost2010Prop48
 90
       50
102
RTVSPost2010PropOp48
 70
     1
102
RTVSPost2010Prop49
280
     0
102
RTVSPost2010PropOp49
 70
     1
102
RTVSPost2010Prop50
 90
       50
102
RTVSPost2010PropOp50
 70
     1
102
RTVSPost2010Prop51ColorIndex
 90
      256
102
RTVSPost2010Prop51ColorRGB
 90
-16777216
102
RTVSPost2010PropOp51
 70
     0
102
RTVSPost2010Prop52
140
1.0
102
RTVSPost2010PropOp52
 70
     0
102
RTVSPost2010Prop53
 90
        2
102
RTVSPost2010PropOp53
 70
     1
102
RTVSPost2010Prop54
  1
strokes_ogs.tif
102
RTVSPost2010PropOp54
 70
     1
102
RTVSPost2010Prop55
280
     0
102
RTVSPost2010PropOp55
 70
     1
102
RTVSPost2010Prop56
140
1.0
102
RTVSPost2010PropOp56
 70
     1
102
RTVSPost2010Prop57
140
1.0
102
RTVSPost2010PropOp57
 70
     1
102
RTVSPropertyOp0
 70
     1
102
RTVSPropertyOp1
 70
     1
102
RTVSPropertyOp2
 70
     1
102
RTVSPropertyOp3
 70
     1
102
RTVSPropertyOp4
 70
     1
102
RTVSPropertyOp5
 70
     1
102
RTVSPropertyOp6
 70
     1
102
RTVSPropertyOp7
 70
     1
102
RTVSPropertyOp8
 70
     1
102
RTVSPropertyOp9
 70
     1
102
RTVSPropertyOp10
 70
     1
102
RTVSPropertyOp11
 70
     1
102
RTVSPropertyOp12
 70
     1
102
RTVSPropertyOp13
 70
     1
102
RTVSPropertyOp14
 70
     1
102
RTVSPropertyOp15
 70
     1
102
RTVSPropertyOp16
 70
     1
102
RTVSPropertyOp17
 70
     1
102
RTVSPropertyOp18
 70
     1
102
RTVSPropertyOp19
 70
     1
102
RTVSPropertyOp20
 70
     1
102
RTVSPropertyOp21
 70
     1
102
RTVSPropertyOp22
 70
     1
102
RTVSPropertyOp23
 70
     1
102
RTVSPropertyOp24
 70
     1
102
RTVSPropertyOp25
 70
     1
102
RTVSPropertyOp26
 70
     1
102
RTVSPropertyOp27
 70
     1
102
RTVSPropertyOp28
 70
     1
102
RTVSPropertyOp29
 70
     1
102
RTVSPropertyOp30
 70
     1
102
RTVSPropertyOp31
 70
     1
102
RTVSPropertyOp32
 70
     1
102
RTVSPropertyOp33
 70
     1
102
RTVSPropertyOp34
 70
     1
102
RTVSPropertyOp35
 70
     1
102
RTVSPropertyOp36
 70
     1
102
RTVSPropertyOp37
 70
     1
102
RTVSPropertyOp38
 70
     1
102
RTVSPropertyOp39
 70
     1
102
RTVSPropertyOp40
 70
     1
102
RTVSPropertyOp41
 70
     1
102
RTVSPropertyOp42
 70
     1
102
RTVSPropertyOp43
 70
     1
102
RTVSPropertyOp44
 70
     1
102
RTVSPropertyOp45
 70
     1
102
RTVSPropertyOp46
 70
     1
102
RTVSPropertyOp47
 70
     1
102
RTVSPropertyOp48
 70
     1
102
RTVSPropertyOp49
 70
     1
102
RTVSPropertyOp50
 70
     1
102
RTVSPropertyOp51
 70
     0
102
RTVSPropertyOp52
 70
     0
102
RTVSPropertyOp53
 70
     1
102
RTVSPropertyOp54
 70
     1
102
RTVSPropertyOp55
 70
     1
102
RTVSPropertyOp56
 70
     1
102
RTVSPropertyOp57
 70
     1
102
RTVSPropertyOp58
 70
     1
102
RTVSPropertyOp59
 70
     1
102
RTVSPropertyOp60
 70
     1
102
RTVSPropertyOp61
 70
     1
102
RTVSPropertyOp62
 70
     1
  0
ENDSEC
  0
EOF
