  0
SECTION
  2
HEADER
  9
$ACADVER
  1
AC1015
  9
$ACADMAINTVER
 70
    20
  9
$DWGCODEPAGE
  3
ANSI_932
  9
$INSBASE
 10
0.0
 20
0.0
 30
0.0
  9
$EXTMIN
 10
10.0
 20
9.999999999999998
 30
0.0
  9
$EXTMAX
 10
275.9504769999999
 20
256.9411999999999
 30
0.0
  9
$LIMMIN
 10
0.0
 20
0.0
  9
$LIMMAX
 10
495.0
 20
341.25
  9
$ORTHOMODE
 70
     1
  9
$REGENMODE
 70
     1
  9
$FILLMODE
 70
     1
  9
$QTEXTMODE
 70
     0
  9
$MIRRTEXT
 70
     1
  9
$LTSCALE
 40
20.0
  9
$ATTMODE
 70
     1
  9
$TEXTSIZE
 40
5.0
  9
$TRACEWID
 40
1.0
  9
$TEXTSTYLE
  7
STANDARD
  9
$CLAYER
  8
0
  9
$CELTYPE
  6
BYLAYER
  9
$CECOLOR
 62
   256
  9
$CELTSCALE
 40
1.0
  9
$DISPSILH
 70
     0
  9
$DIMSCALE
 40
1.0
  9
$DIMASZ
 40
2.5
  9
$DIMEXO
 40
1.0
  9
$DIMDLI
 40
10.0
  9
$DIMRND
 40
0.0
  9
$DIMDLE
 40
0.0
  9
$DIMEXE
 40
1.0
  9
$DIMTP
 40
0.0
  9
$DIMTM
 40
0.0
  9
$DIMTXT
 40
3.2
  9
$DIMCEN
 40
0.0
  9
$DIMTSZ
 40
0.0
  9
$DIMTOL
 70
     0
  9
$DIMLIM
 70
     0
  9
$DIMTIH
 70
     0
  9
$DIMTOH
 70
     0
  9
$DIMSE1
 70
     0
  9
$DIMSE2
 70
     0
  9
$DIMTAD
 70
     3
  9
$DIMZIN
 70
     8
  9
$DIMBLK
  1

  9
$DIMASO
 70
     1
  9
$DIMSHO
 70
     1
  9
$DIMPOST
  1

  9
$DIMAPOST
  1

  9
$DIMALT
 70
     0
  9
$DIMALTD
 70
     2
  9
$DIMALTF
 40
25.4
  9
$DIMLFAC
 40
1.0
  9
$DIMTOFL
 70
     1
  9
$DIMTVP
 40
0.0
  9
$DIMTIX
 70
     0
  9
$DIMSOXD
 70
     0
  9
$DIMSAH
 70
     1
  9
$DIMBLK1
  1

  9
$DIMBLK2
  1

  9
$DIMSTYLE
  2
STANDARD
  9
$DIMCLRD
 70
     0
  9
$DIMCLRE
 70
     0
  9
$DIMCLRT
 70
     0
  9
$DIMTFAC
 40
1.0
  9
$DIMGAP
 40
1.0
  9
$DIMJUST
 70
     0
  9
$DIMSD1
 70
     0
  9
$DIMSD2
 70
     0
  9
$DIMTOLJ
 70
     1
  9
$DIMTZIN
 70
     0
  9
$DIMALTZ
 70
     0
  9
$DIMALTTZ
 70
     0
  9
$DIMUPT
 70
     0
  9
$DIMDEC
 70
     4
  9
$DIMTDEC
 70
     4
  9
$DIMALTU
 70
     2
  9
$DIMALTTD
 70
     2
  9
$DIMTXSTY
  7
STANDARD
  9
$DIMAUNIT
 70
     0
  9
$DIMADEC
 70
     0
  9
$DIMALTRND
 40
0.0
  9
$DIMAZIN
 70
     0
  9
$DIMDSEP
 70
    46
  9
$DIMATFIT
 70
     3
  9
$DIMFRAC
 70
     0
  9
$DIMLDRBLK
  1

  9
$DIMLUNIT
 70
     2
  9
$DIMLWD
 70
    -2
  9
$DIMLWE
 70
    -2
  9
$DIMTMOVE
 70
     0
  9
$LUNITS
 70
     2
  9
$LUPREC
 70
     4
  9
$SKETCHINC
 40
1.0
  9
$FILLETRAD
 40
1.6
  9
$AUNITS
 70
     0
  9
$AUPREC
 70
     2
  9
$MENU
  1
.
  9
$ELEVATION
 40
0.0
  9
$PELEVATION
 40
0.0
  9
$THICKNESS
 40
0.0
  9
$LIMCHECK
 70
     0
  9
$CHAMFERA
 40
10.0
  9
$CHAMFERB
 40
10.0
  9
$CHAMFERC
 40
0.0
  9
$CHAMFERD
 40
0.0
  9
$SKPOLY
 70
     0
  9
$TDCREATE
 40
2451296.797055324
  9
$TDUCREATE
 40
2451296.422055324
  9
$TDUPDATE
 40
2457192.658411331
  9
$TDUUPDATE
 40
2457192.283411331
  9
$TDINDWG
 40
0.0000105093
  9
$TDUSRTIMER
 40
0.0000101852
  9
$USRTIMER
 70
     1
  9
$ANGBASE
 50
0.0
  9
$ANGDIR
 70
     0
  9
$PDMODE
 70
     0
  9
$PDSIZE
 40
0.0
  9
$PLINEWID
 40
0.0
  9
$SPLFRAME
 70
     0
  9
$SPLINETYPE
 70
     6
  9
$SPLINESEGS
 70
     8
  9
$HANDSEED
  5
C0F5
  9
$SURFTAB1
 70
     6
  9
$SURFTAB2
 70
     6
  9
$SURFTYPE
 70
     6
  9
$SURFU
 70
     6
  9
$SURFV
 70
     6
  9
$UCSBASE
  2

  9
$UCSNAME
  2

  9
$UCSORG
 10
0.0
 20
0.0
 30
0.0
  9
$UCSXDIR
 10
1.0
 20
0.0
 30
0.0
  9
$UCSYDIR
 10
0.0
 20
1.0
 30
0.0
  9
$UCSORTHOREF
  2

  9
$UCSORTHOVIEW
 70
     0
  9
$UCSORGTOP
 10
0.0
 20
0.0
 30
0.0
  9
$UCSORGBOTTOM
 10
0.0
 20
0.0
 30
0.0
  9
$UCSORGLEFT
 10
0.0
 20
0.0
 30
0.0
  9
$UCSORGRIGHT
 10
0.0
 20
0.0
 30
0.0
  9
$UCSORGFRONT
 10
0.0
 20
0.0
 30
0.0
  9
$UCSORGBACK
 10
0.0
 20
0.0
 30
0.0
  9
$PUCSBASE
  2

  9
$PUCSNAME
  2

  9
$PUCSORG
 10
0.0
 20
0.0
 30
0.0
  9
$PUCSXDIR
 10
1.0
 20
0.0
 30
0.0
  9
$PUCSYDIR
 10
0.0
 20
1.0
 30
0.0
  9
$PUCSORTHOREF
  2

  9
$PUCSORTHOVIEW
 70
     0
  9
$PUCSORGTOP
 10
0.0
 20
0.0
 30
0.0
  9
$PUCSORGBOTTOM
 10
0.0
 20
0.0
 30
0.0
  9
$PUCSORGLEFT
 10
0.0
 20
0.0
 30
0.0
  9
$PUCSORGRIGHT
 10
0.0
 20
0.0
 30
0.0
  9
$PUCSORGFRONT
 10
0.0
 20
0.0
 30
0.0
  9
$PUCSORGBACK
 10
0.0
 20
0.0
 30
0.0
  9
$USERI1
 70
     0
  9
$USERI2
 70
     0
  9
$USERI3
 70
     0
  9
$USERI4
 70
     0
  9
$USERI5
 70
     0
  9
$USERR1
 40
0.0
  9
$USERR2
 40
0.0
  9
$USERR3
 40
0.0
  9
$USERR4
 40
0.0
  9
$USERR5
 40
0.0
  9
$WORLDVIEW
 70
     1
  9
$SHADEDGE
 70
     3
  9
$SHADEDIF
 70
    70
  9
$TILEMODE
 70
     1
  9
$MAXACTVP
 70
    16
  9
$PINSBASE
 10
0.0
 20
0.0
 30
0.0
  9
$PLIMCHECK
 70
     0
  9
$PEXTMIN
 10
1.000000000000000E+20
 20
1.000000000000000E+20
 30
1.000000000000000E+20
  9
$PEXTMAX
 10
-1.000000000000000E+20
 20
-1.000000000000000E+20
 30
-1.000000000000000E+20
  9
$PLIMMIN
 10
0.0
 20
0.0
  9
$PLIMMAX
 10
420.0
 20
297.0
  9
$UNITMODE
 70
     0
  9
$VISRETAIN
 70
     0
  9
$PLINEGEN
 70
     0
  9
$PSLTSCALE
 70
     0
  9
$TREEDEPTH
 70
  3020
  9
$CMLSTYLE
  2
STANDARD
  9
$CMLJUST
 70
     0
  9
$CMLSCALE
 40
1.0
  9
$PROXYGRAPHICS
 70
     1
  9
$MEASUREMENT
 70
     0
  9
$CELWEIGHT
370
    -1
  9
$ENDCAPS
280
     0
  9
$JOINSTYLE
280
     0
  9
$LWDISPLAY
290
     0
  9
$INSUNITS
 70
     0
  9
$HYPERLINKBASE
  1

  9
$STYLESHEET
  1

  9
$XEDIT
290
     1
  9
$CEPSNTYPE
380
     0
  9
$PSTYLEMODE
290
     1
  9
$FINGERPRINTGUID
  2
{0D1519BA-6312-45A8-A63E-4419A32E84A1}
  9
$VERSIONGUID
  2
{8AA0B588-EE34-4FEE-B1B4-665383FB1D53}
  9
$EXTNAMES
290
     1
  9
$PSVPSCALE
 40
0.0
  9
$OLESTARTUP
290
     0
  0
ENDSEC
  0
SECTION
  2
CLASSES
  0
CLASS
  1
ACDBDICTIONARYWDFLT
  2
AcDbDictionaryWithDefault
  3
ObjectDBX Classes
 90
        0
280
     0
281
     0
  0
CLASS
  1
ACDBPLACEHOLDER
  2
AcDbPlaceHolder
  3
ObjectDBX Classes
 90
        0
280
     0
281
     0
  0
CLASS
  1
LAYOUT
  2
AcDbLayout
  3
ObjectDBX Classes
 90
        0
280
     0
281
     0
  0
CLASS
  1
DICTIONARYVAR
  2
AcDbDictionaryVar
  3
ObjectDBX Classes
 90
        0
280
     0
281
     0
  0
CLASS
  1
MATERIAL
  2
AcDbMaterial
  3
ObjectDBX Classes
 90
     1153
280
     0
281
     0
  0
CLASS
  1
VISUALSTYLE
  2
AcDbVisualStyle
  3
ObjectDBX Classes
 90
     4095
280
     0
281
     0
  0
CLASS
  1
TABLESTYLE
  2
AcDbTableStyle
  3
ObjectDBX Classes
 90
     4095
280
     0
281
     0
  0
CLASS
  1
SCALE
  2
AcDbScale
  3
ObjectDBX Classes
 90
     1153
280
     0
281
     0
  0
CLASS
  1
MLEADERSTYLE
  2
AcDbMLeaderStyle
  3
ACDB_MLEADERSTYLE_CLASS
 90
     4095
280
     0
281
     0
  0
CLASS
  1
ACDBSECTIONVIEWSTYLE
  2
AcDbSectionViewStyle
  3
ObjectDBX Classes
 90
     1025
280
     0
281
     0
  0
CLASS
  1
ACDBDETAILVIEWSTYLE
  2
AcDbDetailViewStyle
  3
ObjectDBX Classes
 90
     1025
280
     0
281
     0
  0
CLASS
  1
CELLSTYLEMAP
  2
AcDbCellStyleMap
  3
ObjectDBX Classes
 90
     1152
280
     0
281
     0
  0
ENDSEC
  0
SECTION
  2
TABLES
  0
TABLE
  2
VPORT
  5
BE37
330
0
100
AcDbSymbolTable
 70
     1
  0
VPORT
  5
C03E
330
BE37
100
AcDbSymbolTableRecord
100
AcDbViewportTableRecord
  2
*ACTIVE
 70
     0
 10
0.0
 20
0.0
 11
1.0
 21
1.0
 12
217.7870128614271
 22
133.4726150396135
 13
0.0
 23
0.0
 14
10.0
 24
10.0
 15
10.0
 25
10.0
 16
0.0
 26
0.0
 36
1.0
 17
0.0
 27
0.0
 37
0.0
 40
249.7331656692017
 41
1.899603698811096
 42
50.0
 43
0.0
 44
0.0
 50
0.0
 51
0.0
 71
     0
 72
   100
 73
     1
 74
     0
 75
     0
 76
     0
 77
     0
 78
     0
281
     0
 65
     1
110
0.0
120
0.0
130
0.0
111
1.0
121
0.0
131
0.0
112
0.0
122
1.0
132
0.0
 79
     0
146
0.0
1001
ACAD_NAV_VCDISPLAY
1070
     3
  0
ENDTAB
  0
TABLE
  2
LTYPE
  5
BE34
330
0
100
AcDbSymbolTable
 70
     4
  0
LTYPE
  5
BE42
330
BE34
100
AcDbSymbolTableRecord
100
AcDbLinetypeTableRecord
  2
BYBLOCK
 70
     0
  3

 72
    65
 73
     0
 40
0.0
  0
LTYPE
  5
BE43
330
BE34
100
AcDbSymbolTableRecord
100
AcDbLinetypeTableRecord
  2
BYLAYER
 70
     0
  3

 72
    65
 73
     0
 40
0.0
  0
LTYPE
  5
BE44
330
BE34
100
AcDbSymbolTableRecord
100
AcDbLinetypeTableRecord
  2
CONTINUOUS
 70
     0
  3
Solid line
 72
    65
 73
     0
 40
0.0
  0
LTYPE
  5
BE52
330
BE34
100
AcDbSymbolTableRecord
100
AcDbLinetypeTableRecord
  2
DASHED
 70
     0
  3
__ __ __ __ __ __ __ __ __ __ __ __ __ __ __ __
 72
    65
 73
     2
 40
0.75
 49
0.5
 74
     0
 49
-0.25
 74
     0
  0
LTYPE
  5
BE53
330
BE34
100
AcDbSymbolTableRecord
100
AcDbLinetypeTableRecord
  2
CENTER
 70
     0
  3
____ _ ____ _ ____ _ ____ _ ____ _ ____ _ ____ 
 72
    65
 73
     4
 40
2.0
 49
1.25
 74
     0
 49
-0.25
 74
     0
 49
0.25
 74
     0
 49
-0.25
 74
     0
  0
LTYPE
  5
BE54
330
BE34
100
AcDbSymbolTableRecord
100
AcDbLinetypeTableRecord
  2
PHANTOM
 70
     0
  3
______  __  __  ______  __  __  ______  __  __ 
 72
    65
 73
     6
 40
2.5
 49
1.25
 74
     0
 49
-0.25
 74
     0
 49
0.25
 74
     0
 49
-0.25
 74
     0
 49
0.25
 74
     0
 49
-0.25
 74
     0
  0
ENDTAB
  0
TABLE
  2
LAYER
  5
BE31
330
0
100
AcDbSymbolTable
 70
     8
  0
LAYER
  5
BE3F
102
{ACAD_XDICTIONARY
360
C099
102
}
330
BE31
100
AcDbSymbolTableRecord
100
AcDbLayerTableRecord
  2
0
 70
     0
 62
     7
  6
CONTINUOUS
370
    -3
390
C047
  0
LAYER
  5
BE55
102
{ACAD_XDICTIONARY
360
C09B
102
}
330
BE31
100
AcDbSymbolTableRecord
100
AcDbLayerTableRecord
  2
4
 70
     0
 62
     1
  6
CENTER
370
    -3
390
C047
  0
LAYER
  5
BE56
102
{ACAD_XDICTIONARY
360
C09D
102
}
330
BE31
100
AcDbSymbolTableRecord
100
AcDbLayerTableRecord
  2
5
 70
     0
 62
     6
  6
PHANTOM
370
    -3
390
C047
  0
LAYER
  5
BE57
102
{ACAD_XDICTIONARY
360
C09F
102
}
330
BE31
100
AcDbSymbolTableRecord
100
AcDbLayerTableRecord
  2
1
 70
     0
 62
     7
  6
CONTINUOUS
370
    -3
390
C047
  0
LAYER
  5
BE58
102
{ACAD_XDICTIONARY
360
C0A1
102
}
330
BE31
100
AcDbSymbolTableRecord
100
AcDbLayerTableRecord
  2
2
 70
     0
 62
     4
  6
CONTINUOUS
370
    -3
390
C047
  0
LAYER
  5
BE59
102
{ACAD_XDICTIONARY
360
C0A3
102
}
330
BE31
100
AcDbSymbolTableRecord
100
AcDbLayerTableRecord
  2
3
 70
     0
 62
     2
  6
DASHED
370
    -3
390
C047
  0
LAYER
  5
BE5A
102
{ACAD_XDICTIONARY
360
C0A5
102
}
330
BE31
100
AcDbSymbolTableRecord
100
AcDbLayerTableRecord
  2
6
 70
     0
 62
     5
  6
CONTINUOUS
370
    -3
390
C047
  0
LAYER
  5
BE5B
102
{ACAD_XDICTIONARY
360
C0A7
102
}
330
BE31
100
AcDbSymbolTableRecord
100
AcDbLayerTableRecord
  2
7
 70
     0
 62
     3
  6
CONTINUOUS
370
    -3
390
C047
  0
ENDTAB
  0
TABLE
  2
STYLE
  5
BE32
330
0
100
AcDbSymbolTable
 70
     1
  0
STYLE
  5
BE40
330
BE32
100
AcDbSymbolTableRecord
100
AcDbTextStyleTableRecord
  2
STANDARD
 70
     0
 40
0.0
 41
1.0
 50
0.0
 71
     0
 42
5.0
  3
txt
  4

  0
ENDTAB
  0
TABLE
  2
VIEW
  5
BE35
330
0
100
AcDbSymbolTable
 70
     0
  0
ENDTAB
  0
TABLE
  2
UCS
  5
BE36
330
0
100
AcDbSymbolTable
 70
     0
  0
ENDTAB
  0
TABLE
  2
APPID
  5
BE38
330
0
100
AcDbSymbolTable
 70
     3
  0
APPID
  5
BE41
330
BE38
100
AcDbSymbolTableRecord
100
AcDbRegAppTableRecord
  2
ACAD
 70
     0
  0
APPID
  5
C0B3
330
BE38
100
AcDbSymbolTableRecord
100
AcDbRegAppTableRecord
  2
ACAD_NAV_VCDISPLAY
 70
     0
  0
APPID
  5
C0EC
330
BE38
100
AcDbSymbolTableRecord
100
AcDbRegAppTableRecord
  2
ACAD_MLEADERVER
 70
     0
  0
ENDTAB
  0
TABLE
  2
DIMSTYLE
  5
BE39
330
0
100
AcDbSymbolTable
 70
     1
100
AcDbDimStyleTable
 71
     0
  0
DIMSTYLE
105
BE5D
330
BE39
100
AcDbSymbolTableRecord
100
AcDbDimStyleTableRecord
  2
STANDARD
 70
     0
 41
2.5
 42
1.0
 43
10.0
 44
1.0
 73
     0
 74
     0
 77
     3
 78
     8
140
3.2
141
0.0
147
1.0
172
     1
173
     1
284
     8
285
     8
286
     8
340
BE40
  0
ENDTAB
  0
TABLE
  2
BLOCK_RECORD
  5
BE30
330
0
100
AcDbSymbolTable
 70
     0
  0
BLOCK_RECORD
  5
BE4D
102
{ACAD_XDICTIONARY
360
C041
102
}
330
BE30
100
AcDbSymbolTableRecord
100
AcDbBlockTableRecord
  2
*MODEL_SPACE
340
C095
  0
BLOCK_RECORD
  5
BE49
102
{ACAD_XDICTIONARY
360
C03F
102
}
330
BE30
100
AcDbSymbolTableRecord
100
AcDbBlockTableRecord
  2
*PAPER_SPACE
340
C096
  0
ENDTAB
  0
ENDSEC
  0
SECTION
  2
BLOCKS
  0
BLOCK
  5
BE4E
330
BE4D
100
AcDbEntity
  8
0
100
AcDbBlockBegin
  2
*MODEL_SPACE
 70
     0
 10
0.0
 20
0.0
 30
0.0
  3
*MODEL_SPACE
  1

  0
ENDBLK
  5
BE4F
330
BE4D
100
AcDbEntity
  8
0
100
AcDbBlockEnd
  0
BLOCK
  5
BE4A
330
BE49
100
AcDbEntity
 67
     1
  8
0
100
AcDbBlockBegin
  2
*PAPER_SPACE
 70
     0
 10
0.0
 20
0.0
 30
0.0
  3
*PAPER_SPACE
  1

  0
ENDBLK
  5
BE4B
330
BE49
100
AcDbEntity
 67
     1
  8
0
100
AcDbBlockEnd
  0
ENDSEC
  0
SECTION
  2
ENTITIES
  0
TEXT
  5
BE65
330
BE4D
100
AcDbEntity
  8
7
  6
Continuous
100
AcDbText
 10
10.0
 20
18.0
 30
0.0
 40
3.0
  1
TYPE No.TM-144SUS-90
100
AcDbText
  0
TEXT
  5
BE66
330
BE4D
100
AcDbEntity
  8
7
  6
Continuous
100
AcDbText
 10
10.0
 20
26.0
 30
0.0
 40
3.0
  1
CODE No.5719
100
AcDbText
  0
TEXT
  5
BE67
330
BE4D
100
AcDbEntity
  8
1
  6
Continuous
100
AcDbText
 10
10.0
 20
10.0
 30
0.0
 40
1.399999999999999
  1
LAYER
100
AcDbText
  0
TEXT
  5
BE68
330
BE4D
100
AcDbEntity
  8
1
  6
Continuous
100
AcDbText
 10
17.97951099999998
 20
10.04873699999998
 30
0.0
 40
1.399999999999999
  1
1
100
AcDbText
  0
TEXT
  5
BE69
330
BE4D
100
AcDbEntity
  8
7
  6
Continuous
100
AcDbText
 10
29.97951099999999
 20
10.04873699999998
 30
0.0
 40
1.399999999999999
  1
7
100
AcDbText
  0
TEXT
  5
BE6A
330
BE4D
100
AcDbEntity
  8
4
  6
CENTER
100
AcDbText
 10
23.97951099999999
 20
10.04873699999998
 30
0.0
 40
1.399999999999999
  1
4
100
AcDbText
  0
TEXT
  5
BE6B
330
BE4D
100
AcDbEntity
  8
3
  6
DASHED
100
AcDbText
 10
21.979511
 20
10.04873699999998
 30
0.0
 40
1.399999999999999
  1
3
100
AcDbText
  0
TEXT
  5
BE6C
330
BE4D
100
AcDbEntity
  8
2
  6
Continuous
100
AcDbText
 10
19.97951099999999
 20
10.04873699999998
 30
0.0
 40
1.399999999999999
  1
2
100
AcDbText
  0
TEXT
  5
BE6D
330
BE4D
100
AcDbEntity
  8
6
  6
Continuous
100
AcDbText
 10
27.979511
 20
10.04873699999998
 30
0.0
 40
1.399999999999999
  1
6
100
AcDbText
  0
TEXT
  5
BE6E
330
BE4D
100
AcDbEntity
  8
5
  6
PHANTOM
100
AcDbText
 10
25.97951099999999
 20
10.04873699999998
 30
0.0
 40
1.399999999999999
  1
5
100
AcDbText
  0
LINE
  5
BE6F
330
BE4D
100
AcDbEntity
  8
1
  6
Continuous
100
AcDbLine
 10
140.6002389999999
 20
185.4408
 30
0.0
 11
151.6002389999998
 21
185.4408
 31
0.0
  0
LINE
  5
BE70
330
BE4D
100
AcDbEntity
  8
1
  6
Continuous
100
AcDbLine
 10
163.3502389999998
 20
186.4173
 30
0.0
 11
163.3502389999998
 21
190.3908
 31
0.0
  0
LINE
  5
BE71
330
BE4D
100
AcDbEntity
  8
1
  6
Continuous
100
AcDbLine
 10
155.350239
 20
186.6908
 30
0.0
 11
155.350239
 21
195.9407999999999
 31
0.0
  0
LINE
  5
BE72
330
BE4D
100
AcDbEntity
  8
1
  6
Continuous
100
AcDbLine
 10
136.8502389999999
 20
188.4408
 30
0.0
 11
136.8502389999999
 21
195.9407999999999
 31
0.0
  0
LINE
  5
BE73
330
BE4D
100
AcDbEntity
  8
4
  6
CENTER
100
AcDbLine
 10
146.1002389999999
 20
86.49978
 30
0.0
 11
146.1002389999999
 21
200.4408
 31
0.0
  0
LINE
  5
BE74
330
BE4D
100
AcDbEntity
  8
1
  6
Continuous
100
AcDbLine
 10
138.3502389999998
 20
197.4408
 30
0.0
 11
153.8502389999998
 21
197.4408
 31
0.0
  0
LINE
  5
BE75
330
BE4D
100
AcDbEntity
  8
1
  6
Continuous
100
AcDbLine
 10
140.3002389999997
 20
237.4411999999999
 30
0.0
 11
151.9002389999999
 21
237.4411999999999
 31
0.0
  0
LINE
  5
BE76
330
BE4D
100
AcDbEntity
  8
1
  6
Continuous
100
AcDbLine
 10
140.3002389999997
 20
252.9412
 30
0.0
 11
151.9002389999999
 21
252.9412
 31
0.0
  0
LINE
  5
BE77
330
BE4D
100
AcDbEntity
  8
4
  6
CENTER
100
AcDbLine
 10
90.5
 20
245.1912
 30
0.0
 11
201.700477
 21
245.1912
 31
0.0
  0
LINE
  5
BE78
330
BE4D
100
AcDbEntity
  8
4
  6
CENTER
100
AcDbLine
 10
259.4504769999999
 20
86.49978
 30
0.0
 11
259.4504769999999
 21
200.440838
 31
0.0
  0
LINE
  5
BE79
330
BE4D
100
AcDbEntity
  8
1
  6
Continuous
100
AcDbLine
 10
155.350239
 20
240.4412
 30
0.0
 11
155.350239
 21
249.9411999999999
 31
0.0
  0
LINE
  5
BE7A
330
BE4D
100
AcDbEntity
  8
4
  6
CENTER
100
AcDbLine
 10
146.1002389999999
 20
233.4411999999999
 30
0.0
 11
146.1002389999999
 21
256.9411999999999
 31
0.0
  0
LINE
  5
BE7B
330
BE4D
100
AcDbEntity
  8
1
  6
Continuous
100
AcDbLine
 10
136.8502389999999
 20
240.4412
 30
0.0
 11
136.8502389999999
 21
249.9411999999999
 31
0.0
  0
LINE
  5
BE7C
330
BE4D
100
AcDbEntity
  8
1
  6
Continuous
100
AcDbLine
 10
136.829405
 20
188.4408
 30
0.0
 11
140.3002389999997
 21
188.4408
 31
0.0
  0
ARC
  5
BE7D
330
BE4D
100
AcDbEntity
  8
1
  6
Continuous
100
AcDbCircle
 10
138.3502389999998
 20
195.9407999999999
 30
0.0
 40
1.5
100
AcDbArc
 50
90.0
 51
180.0
  0
ARC
  5
BE7E
330
BE4D
100
AcDbEntity
  8
1
  6
Continuous
100
AcDbCircle
 10
153.8502389999998
 20
195.9407999999999
 30
0.0
 40
1.5
100
AcDbArc
 50
0.0
 51
90.0
  0
LINE
  5
BE7F
330
BE4D
100
AcDbEntity
  8
1
  6
Continuous
100
AcDbLine
 10
151.9002389999999
 20
188.4408
 30
0.0
 11
155.350239
 21
188.4408
 31
0.0
  0
LINE
  5
BE80
330
BE4D
100
AcDbEntity
  8
4
  6
CENTER
100
AcDbLine
 10
129.8502389999999
 20
191.1908
 30
0.0
 11
166.3502389999998
 21
191.1908
 31
0.0
  0
LINE
  5
BE81
330
BE4D
100
AcDbEntity
  8
1
  6
Continuous
100
AcDbLine
 10
160.3502389999999
 20
191.9908
 30
0.0
 11
163.3502389999998
 21
191.9908
 31
0.0
  0
LINE
  5
BE82
330
BE4D
100
AcDbEntity
  8
1
  6
Continuous
100
AcDbLine
 10
160.3502389999999
 20
190.3908
 30
0.0
 11
163.3502389999998
 21
190.3908
 31
0.0
  0
LINE
  5
BE83
330
BE4D
100
AcDbEntity
  8
1
  6
Continuous
100
AcDbLine
 10
160.3502389999999
 20
190.3908
 30
0.0
 11
160.3502389999999
 21
191.9908
 31
0.0
  0
LINE
  5
BE84
330
BE4D
100
AcDbEntity
  8
1
  6
Continuous
100
AcDbLine
 10
163.3502389999998
 20
191.9908
 30
0.0
 11
163.3502389999998
 21
195.9642999999998
 31
0.0
  0
LINE
  5
BE85
330
BE4D
100
AcDbEntity
  8
4
  6
CENTER
100
AcDbLine
 10
248.7004769999999
 20
191.1908379999999
 30
0.0
 11
270.2004769999999
 21
191.1908379999999
 31
0.0
  0
LINE
  5
BE86
330
BE4D
100
AcDbEntity
  8
1
  6
Continuous
100
AcDbLine
 10
254.450477
 20
191.990838
 30
0.0
 11
264.4504769999999
 21
191.990838
 31
0.0
  0
LINE
  5
BE87
330
BE4D
100
AcDbEntity
  8
1
  6
Continuous
100
AcDbLine
 10
254.450477
 20
190.390838
 30
0.0
 11
264.4504769999999
 21
190.390838
 31
0.0
  0
LINE
  5
BE88
330
BE4D
100
AcDbEntity
  8
1
  6
Continuous
100
AcDbLine
 10
265.7004769999999
 20
188.4408379999999
 30
0.0
 11
265.7004769999999
 21
192.572526
 31
0.0
  0
LINE
  5
BE89
330
BE4D
100
AcDbEntity
  8
1
  6
Continuous
100
AcDbLine
 10
253.2004769999999
 20
188.4408379999999
 30
0.0
 11
253.2004769999999
 21
192.572526
 31
0.0
  0
LINE
  5
BE8A
330
BE4D
100
AcDbEntity
  8
1
  6
Continuous
100
AcDbLine
 10
252.783054
 20
188.4408379999999
 30
0.0
 11
254.5527729999998
 21
188.4408379999999
 31
0.0
  0
LINE
  5
BE8B
330
BE4D
100
AcDbEntity
  8
1
  6
Continuous
100
AcDbLine
 10
264.348181
 20
188.4408379999999
 30
0.0
 11
266.1179
 21
188.4408379999999
 31
0.0
  0
ARC
  5
BE8C
330
BE4D
100
AcDbEntity
  8
1
  6
Continuous
100
AcDbCircle
 10
253.2004769999999
 20
186.9408379999999
 30
0.0
 40
1.5
100
AcDbArc
 50
180.0
 51
260.405932
  0
ARC
  5
BE8D
330
BE4D
100
AcDbEntity
  8
1
  6
Continuous
100
AcDbCircle
 10
265.7004769999999
 20
186.9408379999999
 30
0.0
 40
1.5
100
AcDbArc
 50
279.594068
 51
0.0
  0
LINE
  5
BE8E
330
BE4D
100
AcDbEntity
  8
1
  6
Continuous
100
AcDbLine
 10
138.3502389999998
 20
251.4412
 30
0.0
 11
139.1002389999999
 21
251.4412
 31
0.0
  0
LINE
  5
BE8F
330
BE4D
100
AcDbEntity
  8
1
  6
Continuous
100
AcDbLine
 10
138.3502389999998
 20
238.9412
 30
0.0
 11
139.1002389999999
 21
238.9412
 31
0.0
  0
LINE
  5
BE90
330
BE4D
100
AcDbEntity
  8
1
  6
Continuous
100
AcDbLine
 10
153.1002389999999
 20
251.4412
 30
0.0
 11
153.8502389999998
 21
251.4412
 31
0.0
  0
LINE
  5
BE91
330
BE4D
100
AcDbEntity
  8
1
  6
Continuous
100
AcDbLine
 10
153.1002389999999
 20
238.9412
 30
0.0
 11
153.8502389999998
 21
238.9412
 31
0.0
  0
LINE
  5
BE92
330
BE4D
100
AcDbEntity
  8
1
  6
Continuous
100
AcDbLine
 10
266.3627809999999
 20
186.359354
 30
0.0
 11
265.9504769999999
 21
186.3407999999998
 31
0.0
  0
LINE
  5
BE93
330
BE4D
100
AcDbEntity
  8
1
  6
Continuous
100
AcDbLine
 10
252.538174
 20
186.359354
 30
0.0
 11
252.9504769999999
 21
186.3407999999998
 31
0.0
  0
ARC
  5
BE94
330
BE4D
100
AcDbEntity
  8
1
  6
Continuous
100
AcDbCircle
 10
153.8502389999998
 20
249.9411999999999
 30
0.0
 40
1.5
100
AcDbArc
 50
0.0
 51
90.0
  0
ARC
  5
BE95
330
BE4D
100
AcDbEntity
  8
1
  6
Continuous
100
AcDbCircle
 10
138.3502389999998
 20
249.9411999999999
 30
0.0
 40
1.5
100
AcDbArc
 50
90.0
 51
180.0
  0
ARC
  5
BE96
330
BE4D
100
AcDbEntity
  8
1
  6
Continuous
100
AcDbCircle
 10
138.3502389999998
 20
240.4412
 30
0.0
 40
1.5
100
AcDbArc
 50
180.0
 51
270.0
  0
ARC
  5
BE97
330
BE4D
100
AcDbEntity
  8
1
  6
Continuous
100
AcDbCircle
 10
153.8502389999998
 20
240.4412
 30
0.0
 40
1.5
100
AcDbArc
 50
270.0
 51
0.0
  0
ARC
  5
BE98
330
BE4D
100
AcDbEntity
  8
1
  6
Continuous
100
AcDbCircle
 10
136.8502389999999
 20
245.1912
 30
0.0
 40
3.0
100
AcDbArc
 50
90.0
 51
270.0
  0
ARC
  5
BE99
330
BE4D
100
AcDbEntity
  8
1
  6
Continuous
100
AcDbCircle
 10
136.8398219999999
 20
191.4407999999999
 30
0.0
 40
3.000017999999998
100
AcDbArc
 50
89.80105700000001
 51
270.1989429999999
  0
LINE
  5
BE9A
330
BE4D
100
AcDbEntity
  8
1
  6
Continuous
100
AcDbLine
 10
151.6002389999998
 20
185.4408
 30
0.0
 11
151.9002389999999
 21
188.4408
 31
0.0
  0
LINE
  5
BE9B
330
BE4D
100
AcDbEntity
  8
1
  6
Continuous
100
AcDbLine
 10
140.3002389999997
 20
188.4408
 30
0.0
 11
140.6002389999999
 21
185.4408
 31
0.0
  0
ARC
  5
BE9C
330
BE4D
100
AcDbEntity
  8
1
  6
Continuous
100
AcDbCircle
 10
146.1002389999999
 20
184.334133
 30
0.0
 40
7.106666999999997
100
AcDbArc
 50
35.30024799999999
 51
144.6997519999999
  0
LINE
  5
BE9D
330
BE4D
100
AcDbEntity
  8
1
  6
Continuous
100
AcDbLine
 10
157.3502389999999
 20
185.9407999999999
 30
0.0
 11
157.3502389999999
 21
196.4407999999998
 31
0.0
  0
ARC
  5
BE9E
330
BE4D
100
AcDbEntity
  8
1
  6
Continuous
100
AcDbCircle
 10
162.3502389999998
 20
195.9642999999998
 30
0.0
 40
1.0
100
AcDbArc
 50
0.0
 51
28.45706
  0
ARC
  5
BE9F
330
BE4D
100
AcDbEntity
  8
1
  6
Continuous
100
AcDbCircle
 10
162.3502389999998
 20
186.4173
 30
0.0
 40
1.0
100
AcDbArc
 50
331.5429399999998
 51
0.0
  0
LINE
  5
BEA0
330
BE4D
100
AcDbEntity
  8
1
  6
Continuous
100
AcDbLine
 10
159.323584
 20
193.4407999999999
 30
0.0
 11
161.5502389999998
 21
193.4407999999999
 31
0.0
  0
LINE
  5
BEA1
330
BE4D
100
AcDbEntity
  8
1
  6
Continuous
100
AcDbLine
 10
159.323584
 20
188.9407999999999
 30
0.0
 11
161.5502389999998
 21
188.9407999999999
 31
0.0
  0
ARC
  5
BEA2
330
BE4D
100
AcDbEntity
  8
1
  6
Continuous
100
AcDbCircle
 10
160.436911
 20
194.8411679999999
 30
0.0
 40
6.004484999999997
100
AcDbArc
 50
239.065273
 51
259.3146159999998
  0
ARC
  5
BEA3
330
BE4D
100
AcDbEntity
  8
1
  6
Continuous
100
AcDbCircle
 10
160.436911
 20
187.540432
 30
0.0
 40
6.004484999999997
100
AcDbArc
 50
60.974955
 51
79.314616
  0
ARC
  5
BEA4
330
BE4D
100
AcDbEntity
  8
1
  6
Continuous
100
AcDbCircle
 10
160.436911
 20
187.540432
 30
0.0
 40
6.004484999999997
100
AcDbArc
 50
100.6853839999999
 51
120.934727
  0
ARC
  5
BEA5
330
BE4D
100
AcDbEntity
  8
1
  6
Continuous
100
AcDbCircle
 10
160.436911
 20
194.8411679999999
 30
0.0
 40
6.004484999999997
100
AcDbArc
 50
280.685384
 51
299.0250449999999
  0
LINE
  5
BEA6
330
BE4D
100
AcDbEntity
  8
1
  6
Continuous
100
AcDbLine
 10
159.323584
 20
194.7408
 30
0.0
 11
161.5502389999998
 21
194.7408
 31
0.0
  0
LINE
  5
BEA7
330
BE4D
100
AcDbEntity
  8
1
  6
Continuous
100
AcDbLine
 10
159.323584
 20
187.6407999999999
 30
0.0
 11
161.5502389999998
 21
187.6407999999999
 31
0.0
  0
ARC
  5
BEA8
330
BE4D
100
AcDbEntity
  8
1
  6
Continuous
100
AcDbCircle
 10
160.436911
 20
200.6411679999999
 30
0.0
 40
6.004484999999997
100
AcDbArc
 50
239.065273
 51
259.3146159999998
  0
ARC
  5
BEA9
330
BE4D
100
AcDbEntity
  8
1
  6
Continuous
100
AcDbCircle
 10
160.436911
 20
181.7404319999999
 30
0.0
 40
6.004484999999997
100
AcDbArc
 50
60.974955
 51
79.314616
  0
ARC
  5
BEAA
330
BE4D
100
AcDbEntity
  8
1
  6
Continuous
100
AcDbCircle
 10
160.436911
 20
181.7404319999999
 30
0.0
 40
6.004484999999997
100
AcDbArc
 50
100.6853839999999
 51
120.934727
  0
ARC
  5
BEAB
330
BE4D
100
AcDbEntity
  8
1
  6
Continuous
100
AcDbCircle
 10
160.436911
 20
200.6411679999999
 30
0.0
 40
6.004484999999997
100
AcDbArc
 50
280.685384
 51
299.0250449999999
  0
LINE
  5
BEAC
330
BE4D
100
AcDbEntity
  8
1
  6
Continuous
100
AcDbLine
 10
155.350239
 20
195.6908
 30
0.0
 11
157.3502389999999
 21
195.6908
 31
0.0
  0
LINE
  5
BEAD
330
BE4D
100
AcDbEntity
  8
1
  6
Continuous
100
AcDbLine
 10
155.350239
 20
186.6908
 30
0.0
 11
157.3502389999999
 21
186.6908
 31
0.0
  0
ARC
  5
BEAE
330
BE4D
100
AcDbEntity
  8
1
  6
Continuous
100
AcDbCircle
 10
160.289826
 20
192.4149929999999
 30
0.0
 40
7.110299
100
AcDbArc
 50
245.5797249999998
 51
254.238518
  0
ARC
  5
BEAF
330
BE4D
100
AcDbEntity
  8
1
  6
Continuous
100
AcDbCircle
 10
160.289826
 20
189.966607
 30
0.0
 40
7.110299
100
AcDbArc
 50
65.57972499999999
 51
74.24076499999998
  0
ARC
  5
BEB0
330
BE4D
100
AcDbEntity
  8
1
  6
Continuous
100
AcDbCircle
 10
160.289826
 20
189.966607
 30
0.0
 40
7.110299
100
AcDbArc
 50
105.7592349999999
 51
114.420275
  0
ARC
  5
BEB1
330
BE4D
100
AcDbEntity
  8
1
  6
Continuous
100
AcDbCircle
 10
160.289826
 20
192.4149929999999
 30
0.0
 40
7.110299
100
AcDbArc
 50
285.761482
 51
294.420275
  0
LINE
  5
BEB2
330
BE4D
100
AcDbEntity
  8
1
  6
Continuous
100
AcDbLine
 10
155.350239
 20
249.6912
 30
0.0
 11
157.3502389999999
 21
249.6912
 31
0.0
  0
LINE
  5
BEB3
330
BE4D
100
AcDbEntity
  8
1
  6
Continuous
100
AcDbLine
 10
155.350239
 20
240.6912
 30
0.0
 11
157.3502389999999
 21
240.6912
 31
0.0
  0
LINE
  5
BEB4
330
BE4D
100
AcDbEntity
  8
1
  6
Continuous
100
AcDbLine
 10
157.3502389999999
 20
240.1912
 30
0.0
 11
157.3502389999999
 21
250.1912
 31
0.0
  0
LINE
  5
BEB5
330
BE4D
100
AcDbEntity
  8
1
  6
Continuous
100
AcDbLine
 10
157.3502389999999
 20
250.1912
 30
0.0
 11
162.3502389999998
 21
250.1912
 31
0.0
  0
LINE
  5
BEB6
330
BE4D
100
AcDbEntity
  8
1
  6
Continuous
100
AcDbLine
 10
157.3502389999999
 20
240.1912
 30
0.0
 11
162.3502389999998
 21
240.1912
 31
0.0
  0
LINE
  5
BEB7
330
BE4D
100
AcDbEntity
  8
1
  6
Continuous
100
AcDbLine
 10
163.3502389999998
 20
241.1912
 30
0.0
 11
163.3502389999998
 21
249.1912
 31
0.0
  0
LINE
  5
BEB8
330
BE4D
100
AcDbEntity
  8
1
  6
Continuous
100
AcDbLine
 10
159.589369
 20
245.6911999999999
 30
0.0
 11
161.5502389999998
 21
245.6911999999999
 31
0.0
  0
LINE
  5
BEB9
330
BE4D
100
AcDbEntity
  8
1
  6
Continuous
100
AcDbLine
 10
159.589369
 20
244.6912
 30
0.0
 11
161.5502389999998
 21
244.6912
 31
0.0
  0
ARC
  5
BEBA
330
BE4D
100
AcDbEntity
  8
1
  6
Continuous
100
AcDbCircle
 10
160.569804
 20
249.575983
 30
0.0
 40
4.006592999999998
100
AcDbArc
 50
216.5279299999999
 51
255.8355779999999
  0
ARC
  5
BEBB
330
BE4D
100
AcDbEntity
  8
1
  6
Continuous
100
AcDbCircle
 10
160.569804
 20
240.8064169999999
 30
0.0
 40
4.006592999999998
100
AcDbArc
 50
46.05521399999997
 51
75.835578
  0
ARC
  5
BEBC
330
BE4D
100
AcDbEntity
  8
1
  6
Continuous
100
AcDbCircle
 10
160.569804
 20
249.575983
 30
0.0
 40
4.006592999999998
100
AcDbArc
 50
284.164422
 51
313.9447859999999
  0
ARC
  5
BEBD
330
BE4D
100
AcDbEntity
  8
1
  6
Continuous
100
AcDbCircle
 10
160.569804
 20
240.8064169999999
 30
0.0
 40
4.006592999999998
100
AcDbArc
 50
104.164422
 51
143.4720699999998
  0
ARC
  5
BEBE
330
BE4D
100
AcDbEntity
  8
1
  6
Continuous
100
AcDbCircle
 10
162.3502389999998
 20
249.1912
 30
0.0
 40
1.0
100
AcDbArc
 50
0.0
 51
90.0
  0
ARC
  5
BEBF
330
BE4D
100
AcDbEntity
  8
1
  6
Continuous
100
AcDbCircle
 10
162.3502389999998
 20
241.1912
 30
0.0
 40
1.0
100
AcDbArc
 50
270.0
 51
0.0
  0
ARC
  5
BEC0
330
BE4D
100
AcDbEntity
  8
1
  6
Continuous
100
AcDbCircle
 10
160.714562
 20
244.3810419999998
 30
0.0
 40
5.869947999999999
100
AcDbArc
 50
64.77410899999999
 51
81.81526300000001
  0
ARC
  5
BEC1
330
BE4D
100
AcDbEntity
  8
1
  6
Continuous
100
AcDbCircle
 10
160.714562
 20
246.001358
 30
0.0
 40
5.869947999999999
100
AcDbArc
 50
235.030267
 51
261.815263
  0
ARC
  5
BEC2
330
BE4D
100
AcDbEntity
  8
1
  6
Continuous
100
AcDbCircle
 10
160.714562
 20
244.3810419999998
 30
0.0
 40
5.869947999999999
100
AcDbArc
 50
98.184737
 51
124.969733
  0
ARC
  5
BEC3
330
BE4D
100
AcDbEntity
  8
1
  6
Continuous
100
AcDbCircle
 10
160.714562
 20
246.001358
 30
0.0
 40
5.869947999999999
100
AcDbArc
 50
278.1847369999999
 51
295.225891
  0
ARC
  5
BEC4
330
BE4D
100
AcDbEntity
  8
1
  6
Continuous
100
AcDbCircle
 10
259.4504769999999
 20
191.1908379999999
 30
0.0
 40
4.5
100
AcDbArc
 50
190.240348
 51
349.759652
  0
ARC
  5
BEC5
330
BE4D
100
AcDbEntity
  8
1
  6
Continuous
100
AcDbCircle
 10
259.4504769999999
 20
191.1908379999999
 30
0.0
 40
4.5
100
AcDbArc
 50
10.24034799999999
 51
169.7596519999999
  0
LINE
  5
BEC6
330
BE4D
100
AcDbEntity
  8
1
  6
Continuous
100
AcDbLine
 10
267.200477
 20
186.9408379999999
 30
0.0
 11
266.591627
 21
192.116062
 31
0.0
  0
LINE
  5
BEC7
330
BE4D
100
AcDbEntity
  8
1
  6
Continuous
100
AcDbLine
 10
251.700477
 20
186.9408379999999
 30
0.0
 11
252.3093269999999
 21
192.116062
 31
0.0
  0
LINE
  5
BEC8
330
BE4D
100
AcDbEntity
  8
1
  6
Continuous
100
AcDbLine
 10
252.538174
 20
186.359354
 30
0.0
 11
252.783054
 21
188.4408379999999
 31
0.0
  0
LINE
  5
BEC9
330
BE4D
100
AcDbEntity
  8
1
  6
Continuous
100
AcDbLine
 10
266.3627809999999
 20
186.359354
 30
0.0
 11
266.1179
 21
188.4408379999999
 31
0.0
  0
LINE
  5
BECA
330
BE4D
100
AcDbEntity
  8
1
  6
Continuous
100
AcDbLine
 10
162.220952
 20
196.80964
 30
0.0
 11
158.3587
 21
196.80964
 31
0.0
  0
LINE
  5
BECB
330
BE4D
100
AcDbEntity
  8
1
  6
Continuous
100
AcDbLine
 10
162.2212199999998
 20
185.572036
 30
0.0
 11
158.3584319999999
 21
185.572036
 31
0.0
  0
ARC
  5
BECC
330
BE4D
100
AcDbEntity
  8
1
  6
Continuous
100
AcDbCircle
 10
259.4504769999999
 20
190.9947169999998
 30
0.0
 40
6.446082999999998
100
AcDbArc
 50
14.168254
 51
165.831746
  0
ARC
  5
BECD
330
BE4D
100
AcDbEntity
  8
1
  6
Continuous
100
AcDbCircle
 10
253.799053
 20
191.9407999999999
 30
0.0
 40
1.5
100
AcDbArc
 50
102.599855
 51
173.2901629999998
  0
ARC
  5
BECE
330
BE4D
100
AcDbEntity
  8
1
  6
Continuous
100
AcDbCircle
 10
265.101902
 20
191.9407999999999
 30
0.0
 40
1.5
100
AcDbArc
 50
6.709836999999998
 51
77.40014499999998
  0
LINE
  5
BECF
330
BE4D
100
AcDbEntity
  8
1
  6
Continuous
100
AcDbLine
 10
252.9504769999999
 20
187.585838
 30
0.0
 11
255.694521
 21
187.585838
 31
0.0
  0
LINE
  5
BED0
330
BE4D
100
AcDbEntity
  8
1
  6
Continuous
100
AcDbLine
 10
265.9504769999999
 20
96.49978
 30
0.0
 11
265.9504769999999
 21
187.585838
 31
0.0
  0
LINE
  5
BED1
330
BE4D
100
AcDbEntity
  8
1
  6
Continuous
100
AcDbLine
 10
252.9504769999999
 20
96.49978
 30
0.0
 11
252.9504769999999
 21
187.585838
 31
0.0
  0
LINE
  5
BED2
330
BE4D
100
AcDbEntity
  8
1
  6
Continuous
100
AcDbLine
 10
263.2064339999999
 20
187.585838
 30
0.0
 11
265.9504769999999
 21
187.585838
 31
0.0
  0
LINE
  5
BED3
330
BE4D
100
AcDbEntity
  8
1
  6
Continuous
100
AcDbLine
 10
100.5
 20
251.6912
 30
0.0
 11
139.3002389999997
 21
251.6912
 31
0.0
  0
LINE
  5
BED4
330
BE4D
100
AcDbEntity
  8
1
  6
Continuous
100
AcDbLine
 10
100.5
 20
238.6912
 30
0.0
 11
139.3002389999997
 21
238.6912
 31
0.0
  0
LINE
  5
BED5
330
BE4D
100
AcDbEntity
  8
1
  6
Continuous
100
AcDbLine
 10
152.900239
 20
251.6912
 30
0.0
 11
191.700477
 21
251.6912
 31
0.0
  0
LINE
  5
BED6
330
BE4D
100
AcDbEntity
  8
1
  6
Continuous
100
AcDbLine
 10
152.900239
 20
238.6912
 30
0.0
 11
191.700477
 21
238.6912
 31
0.0
  0
LINE
  5
BED7
330
BE4D
100
AcDbEntity
  8
4
  6
CENTER
100
AcDbLine
 10
22.0
 20
191.1908379999999
 30
0.0
 11
43.5
 21
191.1908379999999
 31
0.0
  0
LINE
  5
BED8
330
BE4D
100
AcDbEntity
  8
4
  6
CENTER
100
AcDbLine
 10
32.75
 20
86.49978
 30
0.0
 11
32.75
 21
200.440838
 31
0.0
  0
ARC
  5
BED9
330
BE4D
100
AcDbEntity
  8
1
  6
Continuous
100
AcDbCircle
 10
32.75
 20
190.9947169999998
 30
0.0
 40
6.446082999999998
100
AcDbArc
 50
14.168254
 51
165.831746
  0
LINE
  5
BEDA
330
BE4D
100
AcDbEntity
  8
1
  6
Continuous
100
AcDbLine
 10
39.25
 20
96.49978
 30
0.0
 11
39.25
 21
187.585838
 31
0.0
  0
LINE
  5
BEDB
330
BE4D
100
AcDbEntity
  8
1
  6
Continuous
100
AcDbLine
 10
26.25
 20
96.49978
 30
0.0
 11
26.25
 21
187.585838
 31
0.0
  0
ARC
  5
BEDC
330
BE4D
100
AcDbEntity
  8
1
  6
Continuous
100
AcDbCircle
 10
26.5
 20
186.9408379999999
 30
0.0
 40
1.5
100
AcDbArc
 50
180.0
 51
260.405932
  0
LINE
  5
BEDD
330
BE4D
100
AcDbEntity
  8
1
  6
Continuous
100
AcDbLine
 10
25.0
 20
186.9408379999999
 30
0.0
 11
25.60885
 21
192.116062
 31
0.0
  0
ARC
  5
BEDE
330
BE4D
100
AcDbEntity
  8
1
  6
Continuous
100
AcDbCircle
 10
27.098576
 20
191.9407999999999
 30
0.0
 40
1.5
100
AcDbArc
 50
102.599855
 51
173.2901629999998
  0
LINE
  5
BEDF
330
BE4D
100
AcDbEntity
  8
1
  6
Continuous
100
AcDbLine
 10
39.0
 20
188.4408379999999
 30
0.0
 11
39.0
 21
192.572526
 31
0.0
  0
LINE
  5
BEE0
330
BE4D
100
AcDbEntity
  8
1
  6
Continuous
100
AcDbLine
 10
37.68761400000001
 20
188.4408379999999
 30
0.0
 11
39.41742299999999
 21
188.4408379999999
 31
0.0
  0
ARC
  5
BEE1
330
BE4D
100
AcDbEntity
  8
1
  6
Continuous
100
AcDbCircle
 10
39.0
 20
186.9408379999999
 30
0.0
 40
1.5
100
AcDbArc
 50
279.594068
 51
0.0
  0
LINE
  5
BEE2
330
BE4D
100
AcDbEntity
  8
1
  6
Continuous
100
AcDbLine
 10
39.662304
 20
186.359354
 30
0.0
 11
39.25
 21
186.3407999999998
 31
0.0
  0
LINE
  5
BEE3
330
BE4D
100
AcDbEntity
  8
1
  6
Continuous
100
AcDbLine
 10
40.49999999999999
 20
186.9408379999999
 30
0.0
 11
39.89115
 21
192.116062
 31
0.0
  0
LINE
  5
BEE4
330
BE4D
100
AcDbEntity
  8
1
  6
Continuous
100
AcDbLine
 10
39.662304
 20
186.359354
 30
0.0
 11
39.41742299999999
 21
188.4408379999999
 31
0.0
  0
ARC
  5
BEE5
330
BE4D
100
AcDbEntity
  8
1
  6
Continuous
100
AcDbCircle
 10
38.40142399999999
 20
191.9407999999999
 30
0.0
 40
1.5
100
AcDbArc
 50
6.709836999999998
 51
77.40014499999998
  0
LINE
  5
BEE6
330
BE4D
100
AcDbEntity
  8
1
  6
Continuous
100
AcDbLine
 10
26.5
 20
188.4408379999999
 30
0.0
 11
26.5
 21
192.572526
 31
0.0
  0
LINE
  5
BEE7
330
BE4D
100
AcDbEntity
  8
1
  6
Continuous
100
AcDbLine
 10
25.837696
 20
186.359354
 30
0.0
 11
26.25
 21
186.3407999999998
 31
0.0
  0
LINE
  5
BEE8
330
BE4D
100
AcDbEntity
  8
1
  6
Continuous
100
AcDbLine
 10
25.837696
 20
186.359354
 30
0.0
 11
26.082577
 21
188.4408379999999
 31
0.0
  0
LINE
  5
BEE9
330
BE4D
100
AcDbEntity
  8
1
  6
Continuous
100
AcDbLine
 10
26.082577
 20
188.4408379999999
 30
0.0
 11
27.812386
 21
188.4408379999999
 31
0.0
  0
LINE
  5
BEEA
330
BE4D
100
AcDbEntity
  8
1
  6
Continuous
100
AcDbLine
 10
26.25
 20
187.585838
 30
0.0
 11
39.25
 21
187.585838
 31
0.0
  0
CIRCLE
  5
BEEB
330
BE4D
100
AcDbEntity
  8
1
  6
Continuous
100
AcDbCircle
 10
32.75
 20
191.4407999999999
 30
0.0
 40
3.0
  0
LINE
  5
BEEC
330
BE4D
100
AcDbEntity
  8
1
  6
Continuous
100
AcDbLine
 10
29.76504099999999
 20
191.7408379999999
 30
0.0
 11
28.74612899999998
 21
189.0828919999999
 31
0.0
  0
LINE
  5
BEED
330
BE4D
100
AcDbEntity
  8
1
  6
Continuous
100
AcDbLine
 10
35.73495900000001
 20
191.7408379999999
 30
0.0
 11
36.753871
 21
189.0828919999999
 31
0.0
  0
ARC
  5
BEEE
330
BE4D
100
AcDbEntity
  8
1
  6
Continuous
100
AcDbCircle
 10
37.68761400000001
 20
189.4408379999999
 30
0.0
 40
1.0
100
AcDbArc
 50
200.9741219999999
 51
270.0
  0
ARC
  5
BEEF
330
BE4D
100
AcDbEntity
  8
1
  6
Continuous
100
AcDbCircle
 10
27.812386
 20
189.4408379999999
 30
0.0
 40
1.0
100
AcDbArc
 50
270.0
 51
339.0258779999999
  0
LINE
  5
BEF0
330
BE4D
100
AcDbEntity
  8
4
  6
CENTER
100
AcDbLine
 10
146.1002389999999
 20
37.0
 30
0.0
 11
146.1002389999999
 21
60.5
 31
0.0
  0
LINE
  5
BEF1
330
BE4D
100
AcDbEntity
  8
1
  6
Continuous
100
AcDbLine
 10
100.5
 20
42.25
 30
0.0
 11
191.700477
 21
42.25
 31
0.0
  0
LINE
  5
BEF2
330
BE4D
100
AcDbEntity
  8
1
  6
Continuous
100
AcDbLine
 10
140.3002389999997
 20
41.0
 30
0.0
 11
151.9002389999999
 21
41.0
 31
0.0
  0
LINE
  5
BEF3
330
BE4D
100
AcDbEntity
  8
1
  6
Continuous
100
AcDbLine
 10
100.5
 20
55.25
 30
0.0
 11
191.700477
 21
55.25
 31
0.0
  0
LINE
  5
BEF4
330
BE4D
100
AcDbEntity
  8
4
  6
CENTER
100
AcDbLine
 10
90.5
 20
48.75
 30
0.0
 11
201.700477
 21
48.75
 31
0.0
  0
LINE
  5
BEF5
330
BE4D
100
AcDbEntity
  8
1
  6
Continuous
100
AcDbLine
 10
140.3002389999997
 20
56.5
 30
0.0
 11
151.9002389999999
 21
56.5
 31
0.0
  0
LINE
  5
BEF6
330
BE4D
100
AcDbEntity
  8
1
  6
Continuous
100
AcDbLine
 10
33.040523
 20
166.576522
 30
0.0
 11
35.6
 21
166.576522
 31
0.0
  0
ARC
  5
BEF7
330
BE4D
100
AcDbEntity
  8
1
  6
Continuous
100
AcDbCircle
 10
35.6
 20
166.876522
 30
0.0
 40
0.3
100
AcDbArc
 50
270.0
 51
90.0
  0
ARC
  5
BEF8
330
BE4D
100
AcDbEntity
  8
1
  6
Continuous
100
AcDbCircle
 10
29.9
 20
167.4765219999999
 30
0.0
 40
0.3
100
AcDbArc
 50
90.0
 51
270.0
  0
LINE
  5
BEF9
330
BE4D
100
AcDbEntity
  8
1
  6
Continuous
100
AcDbLine
 10
29.9
 20
167.176522
 30
0.0
 11
32.745554
 21
166.6058099999999
 31
0.0
  0
LINE
  5
BEFA
330
BE4D
100
AcDbEntity
  8
1
  6
Continuous
100
AcDbLine
 10
35.6
 20
167.176522
 30
0.0
 11
29.9
 21
167.7765219999998
 31
0.0
  0
ARC
  5
BEFB
330
BE4D
100
AcDbEntity
  8
1
  6
Continuous
100
AcDbCircle
 10
33.040523
 20
168.076522
 30
0.0
 40
1.5
100
AcDbArc
 50
258.6590749999999
 51
270.0
  0
LINE
  5
BEFC
330
BE4D
100
AcDbEntity
  8
1
  6
Continuous
100
AcDbLine
 10
35.6
 20
170.0547599999999
 30
0.0
 11
29.9
 21
170.65476
 31
0.0
  0
ARC
  5
BEFD
330
BE4D
100
AcDbEntity
  8
1
  6
Continuous
100
AcDbCircle
 10
35.6
 20
169.75476
 30
0.0
 40
0.3
100
AcDbArc
 50
270.0
 51
90.0
  0
LINE
  5
BEFE
330
BE4D
100
AcDbEntity
  8
1
  6
Continuous
100
AcDbLine
 10
33.040523
 20
169.4547599999999
 30
0.0
 11
35.6
 21
169.4547599999999
 31
0.0
  0
ARC
  5
BEFF
330
BE4D
100
AcDbEntity
  8
1
  6
Continuous
100
AcDbCircle
 10
33.040523
 20
170.95476
 30
0.0
 40
1.5
100
AcDbArc
 50
258.6590749999999
 51
270.0
  0
LINE
  5
BF00
330
BE4D
100
AcDbEntity
  8
1
  6
Continuous
100
AcDbLine
 10
29.9
 20
170.0547599999999
 30
0.0
 11
32.745554
 21
169.484048
 31
0.0
  0
ARC
  5
BF01
330
BE4D
100
AcDbEntity
  8
1
  6
Continuous
100
AcDbCircle
 10
29.9
 20
170.35476
 30
0.0
 40
0.3
100
AcDbArc
 50
90.0
 51
270.0
  0
LINE
  5
BF02
330
BE4D
100
AcDbEntity
  8
1
  6
Continuous
100
AcDbLine
 10
33.040523
 20
171.5678159999999
 30
0.0
 11
35.6
 21
171.5678159999999
 31
0.0
  0
ARC
  5
BF03
330
BE4D
100
AcDbEntity
  8
1
  6
Continuous
100
AcDbCircle
 10
35.6
 20
171.867816
 30
0.0
 40
0.3
100
AcDbArc
 50
270.0
 51
90.0
  0
LINE
  5
BF04
330
BE4D
100
AcDbEntity
  8
1
  6
Continuous
100
AcDbLine
 10
35.6
 20
172.1678159999999
 30
0.0
 11
29.9
 21
172.7678159999999
 31
0.0
  0
LINE
  5
BF05
330
BE4D
100
AcDbEntity
  8
1
  6
Continuous
100
AcDbLine
 10
29.9
 20
172.1678159999999
 30
0.0
 11
32.745554
 21
171.597104
 31
0.0
  0
ARC
  5
BF06
330
BE4D
100
AcDbEntity
  8
1
  6
Continuous
100
AcDbCircle
 10
33.040523
 20
173.067816
 30
0.0
 40
1.5
100
AcDbArc
 50
258.6590749999999
 51
270.0
  0
ARC
  5
BF07
330
BE4D
100
AcDbEntity
  8
1
  6
Continuous
100
AcDbCircle
 10
29.9
 20
172.467816
 30
0.0
 40
0.3
100
AcDbArc
 50
90.0
 51
270.0
  0
ARC
  5
BF08
330
BE4D
100
AcDbEntity
  8
1
  6
Continuous
100
AcDbCircle
 10
33.040523
 20
175.6591129999999
 30
0.0
 40
1.5
100
AcDbArc
 50
258.6590749999999
 51
270.0
  0
LINE
  5
BF09
330
BE4D
100
AcDbEntity
  8
1
  6
Continuous
100
AcDbLine
 10
35.6
 20
174.7591129999999
 30
0.0
 11
29.9
 21
175.3591129999998
 31
0.0
  0
ARC
  5
BF0A
330
BE4D
100
AcDbEntity
  8
1
  6
Continuous
100
AcDbCircle
 10
35.6
 20
174.459113
 30
0.0
 40
0.3
100
AcDbArc
 50
270.0
 51
90.0
  0
LINE
  5
BF0B
330
BE4D
100
AcDbEntity
  8
1
  6
Continuous
100
AcDbLine
 10
33.040523
 20
174.1591129999999
 30
0.0
 11
35.6
 21
174.1591129999999
 31
0.0
  0
ARC
  5
BF0C
330
BE4D
100
AcDbEntity
  8
1
  6
Continuous
100
AcDbCircle
 10
29.9
 20
175.059113
 30
0.0
 40
0.3
100
AcDbArc
 50
90.0
 51
270.0
  0
LINE
  5
BF0D
330
BE4D
100
AcDbEntity
  8
1
  6
Continuous
100
AcDbLine
 10
29.9
 20
174.7591129999999
 30
0.0
 11
32.745554
 21
174.1884009999999
 31
0.0
  0
LINE
  5
BF0E
330
BE4D
100
AcDbEntity
  8
1
  6
Continuous
100
AcDbLine
 10
33.040523
 20
176.3199919999999
 30
0.0
 11
35.6
 21
176.3199919999999
 31
0.0
  0
ARC
  5
BF0F
330
BE4D
100
AcDbEntity
  8
1
  6
Continuous
100
AcDbCircle
 10
35.6
 20
176.619992
 30
0.0
 40
0.3
100
AcDbArc
 50
270.0
 51
90.0
  0
LINE
  5
BF10
330
BE4D
100
AcDbEntity
  8
1
  6
Continuous
100
AcDbLine
 10
35.6
 20
176.9199919999999
 30
0.0
 11
29.9
 21
177.519992
 31
0.0
  0
ARC
  5
BF11
330
BE4D
100
AcDbEntity
  8
1
  6
Continuous
100
AcDbCircle
 10
33.040523
 20
177.8199919999999
 30
0.0
 40
1.5
100
AcDbArc
 50
258.6590749999999
 51
270.0
  0
LINE
  5
BF12
330
BE4D
100
AcDbEntity
  8
1
  6
Continuous
100
AcDbLine
 10
29.9
 20
176.9199919999999
 30
0.0
 11
32.745554
 21
176.3492809999999
 31
0.0
  0
ARC
  5
BF13
330
BE4D
100
AcDbEntity
  8
1
  6
Continuous
100
AcDbCircle
 10
29.9
 20
177.219992
 30
0.0
 40
0.3
100
AcDbArc
 50
90.0
 51
270.0
  0
LINE
  5
BF14
330
BE4D
100
AcDbEntity
  8
1
  6
Continuous
100
AcDbLine
 10
35.6
 20
178.9374009999999
 30
0.0
 11
29.9
 21
179.5374009999999
 31
0.0
  0
ARC
  5
BF15
330
BE4D
100
AcDbEntity
  8
1
  6
Continuous
100
AcDbCircle
 10
35.6
 20
178.637401
 30
0.0
 40
0.3
100
AcDbArc
 50
270.0
 51
90.0
  0
LINE
  5
BF16
330
BE4D
100
AcDbEntity
  8
1
  6
Continuous
100
AcDbLine
 10
33.040523
 20
178.3374009999998
 30
0.0
 11
35.6
 21
178.3374009999998
 31
0.0
  0
LINE
  5
BF17
330
BE4D
100
AcDbEntity
  8
1
  6
Continuous
100
AcDbLine
 10
29.9
 20
178.9374009999999
 30
0.0
 11
32.745554
 21
178.3666899999998
 31
0.0
  0
ARC
  5
BF18
330
BE4D
100
AcDbEntity
  8
1
  6
Continuous
100
AcDbCircle
 10
33.040523
 20
179.837401
 30
0.0
 40
1.5
100
AcDbArc
 50
258.6590749999999
 51
270.0
  0
ARC
  5
BF19
330
BE4D
100
AcDbEntity
  8
1
  6
Continuous
100
AcDbCircle
 10
29.9
 20
179.237401
 30
0.0
 40
0.3
100
AcDbArc
 50
90.0
 51
270.0
  0
LINE
  5
BF1A
330
BE4D
100
AcDbEntity
  8
1
  6
Continuous
100
AcDbLine
 10
35.6
 20
180.811337
 30
0.0
 11
29.9
 21
181.411337
 31
0.0
  0
ARC
  5
BF1B
330
BE4D
100
AcDbEntity
  8
1
  6
Continuous
100
AcDbCircle
 10
35.6
 20
180.5113369999999
 30
0.0
 40
0.3
100
AcDbArc
 50
270.0
 51
90.0
  0
LINE
  5
BF1C
330
BE4D
100
AcDbEntity
  8
1
  6
Continuous
100
AcDbLine
 10
33.040523
 20
180.2113369999999
 30
0.0
 11
35.6
 21
180.2113369999999
 31
0.0
  0
LINE
  5
BF1D
330
BE4D
100
AcDbEntity
  8
1
  6
Continuous
100
AcDbLine
 10
29.9
 20
180.811337
 30
0.0
 11
32.745554
 21
180.2406259999999
 31
0.0
  0
ARC
  5
BF1E
330
BE4D
100
AcDbEntity
  8
1
  6
Continuous
100
AcDbCircle
 10
33.040523
 20
181.7113369999999
 30
0.0
 40
1.5
100
AcDbArc
 50
258.6590749999999
 51
270.0
  0
ARC
  5
BF1F
330
BE4D
100
AcDbEntity
  8
1
  6
Continuous
100
AcDbCircle
 10
29.9
 20
181.1113369999999
 30
0.0
 40
0.3
100
AcDbArc
 50
90.0
 51
270.0
  0
LINE
  5
BF20
330
BE4D
100
AcDbEntity
  8
1
  6
Continuous
100
AcDbLine
 10
35.6
 20
182.2070349999999
 30
0.0
 11
29.9
 21
182.807035
 31
0.0
  0
ARC
  5
BF21
330
BE4D
100
AcDbEntity
  8
1
  6
Continuous
100
AcDbCircle
 10
35.6
 20
181.907035
 30
0.0
 40
0.3
100
AcDbArc
 50
270.0
 51
90.0
  0
LINE
  5
BF22
330
BE4D
100
AcDbEntity
  8
1
  6
Continuous
100
AcDbLine
 10
33.040523
 20
181.607035
 30
0.0
 11
35.6
 21
181.607035
 31
0.0
  0
LINE
  5
BF23
330
BE4D
100
AcDbEntity
  8
1
  6
Continuous
100
AcDbLine
 10
29.9
 20
182.2070349999999
 30
0.0
 11
32.745554
 21
181.636324
 31
0.0
  0
ARC
  5
BF24
330
BE4D
100
AcDbEntity
  8
1
  6
Continuous
100
AcDbCircle
 10
33.040523
 20
183.107035
 30
0.0
 40
1.5
100
AcDbArc
 50
258.6590749999999
 51
270.0
  0
ARC
  5
BF25
330
BE4D
100
AcDbEntity
  8
1
  6
Continuous
100
AcDbCircle
 10
29.9
 20
182.507035
 30
0.0
 40
0.3
100
AcDbArc
 50
90.0
 51
270.0
  0
LINE
  5
BF26
330
BE4D
100
AcDbEntity
  8
1
  6
Continuous
100
AcDbLine
 10
35.6
 20
185.787522
 30
0.0
 11
29.9
 21
186.3875219999999
 31
0.0
  0
ARC
  5
BF27
330
BE4D
100
AcDbEntity
  8
1
  6
Continuous
100
AcDbCircle
 10
35.6
 20
185.4875219999999
 30
0.0
 40
0.3
100
AcDbArc
 50
340.528779
 51
90.0
  0
ARC
  5
BF28
330
BE4D
100
AcDbEntity
  8
1
  6
Continuous
100
AcDbCircle
 10
29.9
 20
186.087522
 30
0.0
 40
0.3
100
AcDbArc
 50
90.0
 51
186.947931
  0
LINE
  5
BF29
330
BE4D
100
AcDbEntity
  8
1
  6
Continuous
100
AcDbLine
 10
140.469658
 20
186.746609
 30
0.0
 11
135.439448
 21
183.688142
 31
0.0
  0
LINE
  5
BF2A
330
BE4D
100
AcDbEntity
  8
1
  6
Continuous
100
AcDbLine
 10
140.5358529999998
 20
186.0846549999999
 30
0.0
 11
135.751164
 21
183.1754689999999
 31
0.0
  0
LINE
  5
BF2B
330
BE4D
100
AcDbEntity
  8
1
  6
Continuous
100
AcDbLine
 10
135.439448
 20
183.688142
 30
0.0
 11
135.751164
 21
183.1754689999999
 31
0.0
  0
LINE
  5
BF2C
330
BE4D
100
AcDbEntity
  8
1
  6
Continuous
100
AcDbLine
 10
136.721131
 20
184.46743
 30
0.0
 11
137.032846
 21
183.954757
 31
0.0
  0
LINE
  5
BF2D
330
BE4D
100
AcDbEntity
  8
1
  6
Continuous
100
AcDbLine
 10
35.6
 20
164.4895779999998
 30
0.0
 11
29.9
 21
165.0895779999999
 31
0.0
  0
LINE
  5
BF2E
330
BE4D
100
AcDbEntity
  8
1
  6
Continuous
100
AcDbLine
 10
33.040523
 20
163.889578
 30
0.0
 11
35.6
 21
163.889578
 31
0.0
  0
ARC
  5
BF2F
330
BE4D
100
AcDbEntity
  8
1
  6
Continuous
100
AcDbCircle
 10
35.6
 20
164.189578
 30
0.0
 40
0.3
100
AcDbArc
 50
270.0
 51
90.0
  0
LINE
  5
BF30
330
BE4D
100
AcDbEntity
  8
1
  6
Continuous
100
AcDbLine
 10
29.9
 20
164.4895779999998
 30
0.0
 11
32.745554
 21
163.9188659999998
 31
0.0
  0
ARC
  5
BF31
330
BE4D
100
AcDbEntity
  8
1
  6
Continuous
100
AcDbCircle
 10
29.9
 20
164.7895779999998
 30
0.0
 40
0.3
100
AcDbArc
 50
90.0
 51
270.0
  0
ARC
  5
BF32
330
BE4D
100
AcDbEntity
  8
1
  6
Continuous
100
AcDbCircle
 10
35.6
 20
161.287426
 30
0.0
 40
0.3
100
AcDbArc
 50
270.0
 51
90.0
  0
LINE
  5
BF33
330
BE4D
100
AcDbEntity
  8
1
  6
Continuous
100
AcDbLine
 10
33.040523
 20
160.9874259999999
 30
0.0
 11
35.6
 21
160.9874259999999
 31
0.0
  0
LINE
  5
BF34
330
BE4D
100
AcDbEntity
  8
1
  6
Continuous
100
AcDbLine
 10
35.6
 20
161.587426
 30
0.0
 11
29.9
 21
162.187426
 31
0.0
  0
ARC
  5
BF35
330
BE4D
100
AcDbEntity
  8
1
  6
Continuous
100
AcDbCircle
 10
33.040523
 20
162.487426
 30
0.0
 40
1.5
100
AcDbArc
 50
258.6590749999999
 51
270.0
  0
LINE
  5
BF36
330
BE4D
100
AcDbEntity
  8
1
  6
Continuous
100
AcDbLine
 10
29.9
 20
161.587426
 30
0.0
 11
32.745554
 21
161.0167139999998
 31
0.0
  0
ARC
  5
BF37
330
BE4D
100
AcDbEntity
  8
1
  6
Continuous
100
AcDbCircle
 10
29.9
 20
161.887426
 30
0.0
 40
0.3
100
AcDbArc
 50
90.0
 51
270.0
  0
LINE
  5
BF38
330
BE4D
100
AcDbEntity
  8
1
  6
Continuous
100
AcDbLine
 10
35.6
 20
158.900482
 30
0.0
 11
29.9
 21
159.5004819999998
 31
0.0
  0
LINE
  5
BF39
330
BE4D
100
AcDbEntity
  8
1
  6
Continuous
100
AcDbLine
 10
33.040523
 20
158.300482
 30
0.0
 11
35.6
 21
158.300482
 31
0.0
  0
ARC
  5
BF3A
330
BE4D
100
AcDbEntity
  8
1
  6
Continuous
100
AcDbCircle
 10
35.6
 20
158.600482
 30
0.0
 40
0.3
100
AcDbArc
 50
270.0
 51
90.0
  0
ARC
  5
BF3B
330
BE4D
100
AcDbEntity
  8
1
  6
Continuous
100
AcDbCircle
 10
33.040523
 20
159.8004819999999
 30
0.0
 40
1.5
100
AcDbArc
 50
258.6590749999999
 51
270.0
  0
LINE
  5
BF3C
330
BE4D
100
AcDbEntity
  8
1
  6
Continuous
100
AcDbLine
 10
29.9
 20
158.900482
 30
0.0
 11
32.745554
 21
158.3297699999999
 31
0.0
  0
ARC
  5
BF3D
330
BE4D
100
AcDbEntity
  8
1
  6
Continuous
100
AcDbCircle
 10
29.9
 20
159.2004819999999
 30
0.0
 40
0.3
100
AcDbArc
 50
90.0
 51
270.0
  0
ARC
  5
BF3E
330
BE4D
100
AcDbEntity
  8
1
  6
Continuous
100
AcDbCircle
 10
132.9882429999998
 20
248.0412
 30
0.0
 40
0.3
100
AcDbArc
 50
0.0
 51
180.0
  0
ARC
  5
BF3F
330
BE4D
100
AcDbEntity
  8
1
  6
Continuous
100
AcDbCircle
 10
132.3882429999999
 20
242.3411999999999
 30
0.0
 40
0.3
100
AcDbArc
 50
180.0
 51
0.0
  0
ARC
  5
BF40
330
BE4D
100
AcDbEntity
  8
1
  6
Continuous
100
AcDbCircle
 10
134.788243
 20
242.3411999999999
 30
0.0
 40
0.3
100
AcDbArc
 50
180.0
 51
0.0
  0
ARC
  5
BF41
330
BE4D
100
AcDbEntity
  8
1
  6
Continuous
100
AcDbCircle
 10
135.3882429999998
 20
248.0412
 30
0.0
 40
0.3
100
AcDbArc
 50
0.0
 51
180.0
  0
LINE
  5
BF42
330
BE4D
100
AcDbEntity
  8
1
  6
Continuous
100
AcDbLine
 10
35.6
 20
156.2135379999998
 30
0.0
 11
29.9
 21
156.813538
 31
0.0
  0
LINE
  5
BF43
330
BE4D
100
AcDbEntity
  8
1
  6
Continuous
100
AcDbLine
 10
29.9
 20
156.2135379999998
 30
0.0
 11
32.891584
 21
155.6135379999998
 31
0.0
  0
LINE
  5
BF44
330
BE4D
100
AcDbEntity
  8
1
  6
Continuous
100
AcDbLine
 10
32.891584
 20
155.6135379999998
 30
0.0
 11
35.6
 21
155.6135379999998
 31
0.0
  0
ARC
  5
BF45
330
BE4D
100
AcDbEntity
  8
1
  6
Continuous
100
AcDbCircle
 10
35.6
 20
155.9135379999998
 30
0.0
 40
0.3
100
AcDbArc
 50
270.0
 51
90.0
  0
ARC
  5
BF46
330
BE4D
100
AcDbEntity
  8
1
  6
Continuous
100
AcDbCircle
 10
29.9
 20
156.5135379999999
 30
0.0
 40
0.3
100
AcDbArc
 50
90.0
 51
270.0
  0
ARC
  5
BF47
330
BE4D
100
AcDbEntity
  8
1
  6
Continuous
100
AcDbCircle
 10
35.6
 20
153.5135379999998
 30
0.0
 40
0.3
100
AcDbArc
 50
270.0
 51
90.0
  0
LINE
  5
BF48
330
BE4D
100
AcDbEntity
  8
1
  6
Continuous
100
AcDbLine
 10
32.891584
 20
153.2135379999998
 30
0.0
 11
35.6
 21
153.2135379999998
 31
0.0
  0
LINE
  5
BF49
330
BE4D
100
AcDbEntity
  8
1
  6
Continuous
100
AcDbLine
 10
35.6
 20
153.8135379999999
 30
0.0
 11
29.9
 21
154.4135379999999
 31
0.0
  0
LINE
  5
BF4A
330
BE4D
100
AcDbEntity
  8
1
  6
Continuous
100
AcDbLine
 10
29.9
 20
153.8135379999999
 30
0.0
 11
32.891584
 21
153.2135379999998
 31
0.0
  0
ARC
  5
BF4B
330
BE4D
100
AcDbEntity
  8
1
  6
Continuous
100
AcDbCircle
 10
29.9
 20
154.1135379999998
 30
0.0
 40
0.3
100
AcDbArc
 50
90.0
 51
270.0
  0
LINE
  5
BF4C
330
BE4D
100
AcDbEntity
  8
1
  6
Continuous
100
AcDbLine
 10
35.6
 20
151.4135379999999
 30
0.0
 11
29.9
 21
152.0135379999999
 31
0.0
  0
LINE
  5
BF4D
330
BE4D
100
AcDbEntity
  8
1
  6
Continuous
100
AcDbLine
 10
32.891584
 20
150.8135379999998
 30
0.0
 11
35.6
 21
150.8135379999998
 31
0.0
  0
ARC
  5
BF4E
330
BE4D
100
AcDbEntity
  8
1
  6
Continuous
100
AcDbCircle
 10
35.6
 20
151.1135379999998
 30
0.0
 40
0.3
100
AcDbArc
 50
270.0
 51
90.0
  0
LINE
  5
BF4F
330
BE4D
100
AcDbEntity
  8
1
  6
Continuous
100
AcDbLine
 10
29.9
 20
151.4135379999999
 30
0.0
 11
32.891584
 21
150.8135379999998
 31
0.0
  0
ARC
  5
BF50
330
BE4D
100
AcDbEntity
  8
1
  6
Continuous
100
AcDbCircle
 10
29.9
 20
151.713538
 30
0.0
 40
0.3
100
AcDbArc
 50
90.0
 51
270.0
  0
ARC
  5
BF51
330
BE4D
100
AcDbEntity
  8
1
  6
Continuous
100
AcDbCircle
 10
130.588243
 20
248.0412
 30
0.0
 40
0.3
100
AcDbArc
 50
0.0
 51
180.0
  0
ARC
  5
BF52
330
BE4D
100
AcDbEntity
  8
1
  6
Continuous
100
AcDbCircle
 10
129.9882429999998
 20
242.3411999999999
 30
0.0
 40
0.3
100
AcDbArc
 50
180.0
 51
0.0
  0
ARC
  5
BF53
330
BE4D
100
AcDbEntity
  8
1
  6
Continuous
100
AcDbCircle
 10
128.188243
 20
248.0412
 30
0.0
 40
0.3
100
AcDbArc
 50
0.0
 51
180.0
  0
ARC
  5
BF54
330
BE4D
100
AcDbEntity
  8
1
  6
Continuous
100
AcDbCircle
 10
127.588243
 20
242.3411999999999
 30
0.0
 40
0.3
100
AcDbArc
 50
180.0
 51
0.0
  0
ARC
  5
BF55
330
BE4D
100
AcDbEntity
  8
1
  6
Continuous
100
AcDbCircle
 10
125.7882429999998
 20
248.0412
 30
0.0
 40
0.3
100
AcDbArc
 50
0.0
 51
180.0
  0
ARC
  5
BF56
330
BE4D
100
AcDbEntity
  8
1
  6
Continuous
100
AcDbCircle
 10
125.1882429999999
 20
242.3411999999999
 30
0.0
 40
0.3
100
AcDbArc
 50
180.0
 51
0.0
  0
ARC
  5
BF57
330
BE4D
100
AcDbEntity
  8
1
  6
Continuous
100
AcDbCircle
 10
35.6
 20
148.7135379999998
 30
0.0
 40
0.3
100
AcDbArc
 50
270.0
 51
90.0
  0
LINE
  5
BF58
330
BE4D
100
AcDbEntity
  8
1
  6
Continuous
100
AcDbLine
 10
32.891584
 20
148.4135379999998
 30
0.0
 11
35.6
 21
148.4135379999998
 31
0.0
  0
LINE
  5
BF59
330
BE4D
100
AcDbEntity
  8
1
  6
Continuous
100
AcDbLine
 10
35.6
 20
149.0135379999999
 30
0.0
 11
29.9
 21
149.6135379999998
 31
0.0
  0
LINE
  5
BF5A
330
BE4D
100
AcDbEntity
  8
1
  6
Continuous
100
AcDbLine
 10
29.9
 20
149.0135379999999
 30
0.0
 11
32.891584
 21
148.4135379999998
 31
0.0
  0
ARC
  5
BF5B
330
BE4D
100
AcDbEntity
  8
1
  6
Continuous
100
AcDbCircle
 10
29.9
 20
149.313538
 30
0.0
 40
0.3
100
AcDbArc
 50
90.0
 51
270.0
  0
LINE
  5
BF5C
330
BE4D
100
AcDbEntity
  8
1
  6
Continuous
100
AcDbLine
 10
35.6
 20
146.6135379999998
 30
0.0
 11
29.9
 21
147.213538
 31
0.0
  0
LINE
  5
BF5D
330
BE4D
100
AcDbEntity
  8
1
  6
Continuous
100
AcDbLine
 10
32.891584
 20
146.0135379999998
 30
0.0
 11
35.6
 21
146.0135379999998
 31
0.0
  0
ARC
  5
BF5E
330
BE4D
100
AcDbEntity
  8
1
  6
Continuous
100
AcDbCircle
 10
35.6
 20
146.3135379999999
 30
0.0
 40
0.3
100
AcDbArc
 50
270.0
 51
90.0
  0
LINE
  5
BF5F
330
BE4D
100
AcDbEntity
  8
1
  6
Continuous
100
AcDbLine
 10
29.9
 20
146.6135379999998
 30
0.0
 11
32.891584
 21
146.0135379999998
 31
0.0
  0
ARC
  5
BF60
330
BE4D
100
AcDbEntity
  8
1
  6
Continuous
100
AcDbCircle
 10
29.9
 20
146.9135379999999
 30
0.0
 40
0.3
100
AcDbArc
 50
90.0
 51
270.0
  0
LINE
  5
BF61
330
BE4D
100
AcDbEntity
  8
1
  6
Continuous
100
AcDbLine
 10
151.9002389999999
 20
56.5
 30
0.0
 11
151.9002389999999
 21
55.25
 31
0.0
  0
LINE
  5
BF62
330
BE4D
100
AcDbEntity
  8
1
  6
Continuous
100
AcDbLine
 10
140.3002389999997
 20
56.5
 30
0.0
 11
140.3002389999997
 21
55.25
 31
0.0
  0
LINE
  5
BF63
330
BE4D
100
AcDbEntity
  8
1
  6
Continuous
100
AcDbLine
 10
151.9002389999999
 20
42.25
 30
0.0
 11
151.9002389999999
 21
41.0
 31
0.0
  0
LINE
  5
BF64
330
BE4D
100
AcDbEntity
  8
1
  6
Continuous
100
AcDbLine
 10
140.3002389999997
 20
42.25
 30
0.0
 11
140.3002389999997
 21
41.0
 31
0.0
  0
ARC
  5
BF65
330
BE4D
100
AcDbEntity
  8
1
  6
Continuous
100
AcDbCircle
 10
123.3882429999999
 20
248.0412
 30
0.0
 40
0.3
100
AcDbArc
 50
0.0
 51
180.0
  0
ARC
  5
BF66
330
BE4D
100
AcDbEntity
  8
1
  6
Continuous
100
AcDbCircle
 10
122.7882429999998
 20
242.3411999999999
 30
0.0
 40
0.3
100
AcDbArc
 50
180.0
 51
0.0
  0
ARC
  5
BF67
330
BE4D
100
AcDbEntity
  8
1
  6
Continuous
100
AcDbCircle
 10
120.9882429999999
 20
248.0412
 30
0.0
 40
0.3
100
AcDbArc
 50
0.0
 51
180.0
  0
ARC
  5
BF68
330
BE4D
100
AcDbEntity
  8
1
  6
Continuous
100
AcDbCircle
 10
120.3882429999999
 20
242.3411999999999
 30
0.0
 40
0.3
100
AcDbArc
 50
180.0
 51
0.0
  0
ARC
  5
BF69
330
BE4D
100
AcDbEntity
  8
1
  6
Continuous
100
AcDbCircle
 10
118.8755819999999
 20
248.0412
 30
0.0
 40
0.3
100
AcDbArc
 50
0.0
 51
180.0
  0
ARC
  5
BF6A
330
BE4D
100
AcDbEntity
  8
1
  6
Continuous
100
AcDbCircle
 10
118.275582
 20
242.3411999999999
 30
0.0
 40
0.3
100
AcDbArc
 50
180.0
 51
0.0
  0
ARC
  5
BF6B
330
BE4D
100
AcDbEntity
  8
1
  6
Continuous
100
AcDbCircle
 10
116.954475
 20
248.0412
 30
0.0
 40
0.3
100
AcDbArc
 50
0.0
 51
180.0
  0
ARC
  5
BF6C
330
BE4D
100
AcDbEntity
  8
1
  6
Continuous
100
AcDbCircle
 10
116.354475
 20
242.3411999999999
 30
0.0
 40
0.3
100
AcDbArc
 50
180.0
 51
0.0
  0
ARC
  5
BF6D
330
BE4D
100
AcDbEntity
  8
1
  6
Continuous
100
AcDbCircle
 10
115.129158
 20
248.0412
 30
0.0
 40
0.3
100
AcDbArc
 50
0.0
 51
180.0
  0
ARC
  5
BF6E
330
BE4D
100
AcDbEntity
  8
1
  6
Continuous
100
AcDbCircle
 10
114.529158
 20
242.3411999999999
 30
0.0
 40
0.3
100
AcDbArc
 50
180.0
 51
0.0
  0
ARC
  5
BF6F
330
BE4D
100
AcDbEntity
  8
1
  6
Continuous
100
AcDbCircle
 10
113.0164909999999
 20
248.0412
 30
0.0
 40
0.3
100
AcDbArc
 50
0.0
 51
180.0
  0
ARC
  5
BF70
330
BE4D
100
AcDbEntity
  8
1
  6
Continuous
100
AcDbCircle
 10
112.4164909999998
 20
242.3411999999999
 30
0.0
 40
0.3
100
AcDbArc
 50
180.0
 51
0.0
  0
ARC
  5
BF71
330
BE4D
100
AcDbEntity
  8
5
  6
PHANTOM
100
AcDbCircle
 10
146.1002389999999
 20
146.100018
 30
0.0
 40
41.000239
100
AcDbArc
 50
97.88855500000003
 51
51.46749699999999
  0
ARC
  5
BF72
330
BE4D
100
AcDbEntity
  8
1
  6
Continuous
100
AcDbCircle
 10
146.1002389999999
 20
142.100018
 30
0.0
 40
45.000239
100
AcDbArc
 50
97.18787900000004
 51
55.879904
  0
ARC
  5
BF73
330
BE4D
100
AcDbEntity
  8
5
  6
PHANTOM
100
AcDbCircle
 10
146.1002389999999
 20
146.100018
 30
0.0
 40
41.600239
100
AcDbArc
 50
97.85712700000001
 51
51.505067
  0
ARC
  5
BF74
330
BE4D
100
AcDbEntity
  8
1
  6
Continuous
100
AcDbCircle
 10
146.1002389999999
 20
142.100018
 30
0.0
 40
45.600239
100
AcDbArc
 50
97.168437
 51
55.90772199999999
  0
LINE
  5
BF75
330
BE4D
100
AcDbEntity
  8
4
  6
CENTER
100
AcDbLine
 10
16.25
 20
142.100018
 30
0.0
 11
49.25
 21
142.100018
 31
0.0
  0
LINE
  5
BF76
330
BE4D
100
AcDbEntity
  8
1
  6
Continuous
100
AcDbLine
 10
265.9504769999999
 20
96.49978
 30
0.0
 11
252.9504769999999
 21
96.49978
 31
0.0
  0
ARC
  5
BF77
330
BE4D
100
AcDbEntity
  8
1
  6
Continuous
100
AcDbCircle
 10
110.999604
 20
248.0412
 30
0.0
 40
0.3
100
AcDbArc
 50
0.0
 51
180.0
  0
ARC
  5
BF78
330
BE4D
100
AcDbEntity
  8
1
  6
Continuous
100
AcDbCircle
 10
110.399604
 20
242.3411999999999
 30
0.0
 40
0.3
100
AcDbArc
 50
180.0
 51
0.0
  0
ARC
  5
BF79
330
BE4D
100
AcDbEntity
  8
1
  6
Continuous
100
AcDbCircle
 10
108.478508
 20
242.3411999999999
 30
0.0
 40
0.3
100
AcDbArc
 50
180.0
 51
0.0
  0
ARC
  5
BF7A
330
BE4D
100
AcDbEntity
  8
1
  6
Continuous
100
AcDbCircle
 10
109.078508
 20
248.0412
 30
0.0
 40
0.3
100
AcDbArc
 50
0.0
 51
180.0
  0
LINE
  5
BF7B
330
BE4D
100
AcDbEntity
  8
4
  6
CENTER
100
AcDbLine
 10
90.5
 20
142.100018
 30
0.0
 11
201.700477
 21
142.100018
 31
0.0
  0
LINE
  5
BF7C
330
BE4D
100
AcDbEntity
  8
4
  6
CENTER
100
AcDbLine
 10
242.950477
 20
142.100018
 30
0.0
 11
275.9504769999999
 21
142.100018
 31
0.0
  0
LINE
  5
BF7D
330
BE4D
100
AcDbEntity
  8
1
  6
Continuous
100
AcDbLine
 10
39.25
 20
96.49978
 30
0.0
 11
26.25
 21
96.49978
 31
0.0
  0
LINE
  5
BF7E
330
BE4D
100
AcDbEntity
  8
1
  6
Continuous
100
AcDbLine
 10
100.5
 20
238.6912
 30
0.0
 11
100.5
 21
251.6912
 31
0.0
  0
LINE
  5
BF7F
330
BE4D
100
AcDbEntity
  8
1
  6
Continuous
100
AcDbLine
 10
191.700477
 20
238.6912
 30
0.0
 11
191.700477
 21
251.6912
 31
0.0
  0
LINE
  5
BF80
330
BE4D
100
AcDbEntity
  8
1
  6
Continuous
100
AcDbLine
 10
109.378508
 20
248.0412
 30
0.0
 11
108.7785079999999
 21
242.3411999999999
 31
0.0
  0
LINE
  5
BF81
330
BE4D
100
AcDbEntity
  8
1
  6
Continuous
100
AcDbLine
 10
111.299604
 20
248.0412
 30
0.0
 11
110.699604
 21
242.3411999999999
 31
0.0
  0
LINE
  5
BF82
330
BE4D
100
AcDbEntity
  8
1
  6
Continuous
100
AcDbLine
 10
113.3164909999998
 20
248.0412
 30
0.0
 11
112.7164909999999
 21
242.3411999999999
 31
0.0
  0
LINE
  5
BF83
330
BE4D
100
AcDbEntity
  8
1
  6
Continuous
100
AcDbLine
 10
115.4291579999999
 20
248.0412
 30
0.0
 11
114.829158
 21
242.3411999999999
 31
0.0
  0
LINE
  5
BF84
330
BE4D
100
AcDbEntity
  8
1
  6
Continuous
100
AcDbLine
 10
117.2544749999999
 20
248.0412
 30
0.0
 11
116.654475
 21
242.3411999999999
 31
0.0
  0
LINE
  5
BF85
330
BE4D
100
AcDbEntity
  8
1
  6
Continuous
100
AcDbLine
 10
119.175582
 20
248.0412
 30
0.0
 11
118.575582
 21
242.3411999999999
 31
0.0
  0
LINE
  5
BF86
330
BE4D
100
AcDbEntity
  8
1
  6
Continuous
100
AcDbLine
 10
121.288243
 20
248.0412
 30
0.0
 11
120.688243
 21
242.3411999999999
 31
0.0
  0
LINE
  5
BF87
330
BE4D
100
AcDbEntity
  8
1
  6
Continuous
100
AcDbLine
 10
123.688243
 20
248.0412
 30
0.0
 11
123.0882429999999
 21
242.3411999999999
 31
0.0
  0
LINE
  5
BF88
330
BE4D
100
AcDbEntity
  8
1
  6
Continuous
100
AcDbLine
 10
126.0882429999999
 20
248.0412
 30
0.0
 11
125.488243
 21
242.3411999999999
 31
0.0
  0
LINE
  5
BF89
330
BE4D
100
AcDbEntity
  8
1
  6
Continuous
100
AcDbLine
 10
128.4882429999999
 20
248.0412
 30
0.0
 11
127.8882429999999
 21
242.3411999999999
 31
0.0
  0
LINE
  5
BF8A
330
BE4D
100
AcDbEntity
  8
1
  6
Continuous
100
AcDbLine
 10
130.8882429999999
 20
248.0412
 30
0.0
 11
130.2882429999999
 21
242.3411999999999
 31
0.0
  0
LINE
  5
BF8B
330
BE4D
100
AcDbEntity
  8
1
  6
Continuous
100
AcDbLine
 10
133.2882429999999
 20
248.0412
 30
0.0
 11
132.6882429999998
 21
242.3411999999999
 31
0.0
  0
LINE
  5
BF8C
330
BE4D
100
AcDbEntity
  8
1
  6
Continuous
100
AcDbLine
 10
135.6882429999998
 20
248.0412
 30
0.0
 11
135.6789699999999
 21
247.9531069999999
 31
0.0
  0
LINE
  5
BF8D
330
BE4D
100
AcDbEntity
  8
1
  6
Continuous
100
AcDbLine
 10
108.1785079999999
 20
242.3411999999999
 30
0.0
 11
108.1785079999999
 21
245.1912
 31
0.0
  0
LINE
  5
BF8E
330
BE4D
100
AcDbEntity
  8
1
  6
Continuous
100
AcDbLine
 10
110.099604
 20
242.3411999999999
 30
0.0
 11
110.099604
 21
245.1912
 31
0.0
  0
LINE
  5
BF8F
330
BE4D
100
AcDbEntity
  8
1
  6
Continuous
100
AcDbLine
 10
112.116491
 20
242.3411999999999
 30
0.0
 11
112.116491
 21
245.1912
 31
0.0
  0
LINE
  5
BF90
330
BE4D
100
AcDbEntity
  8
1
  6
Continuous
100
AcDbLine
 10
114.229158
 20
242.3411999999999
 30
0.0
 11
114.229158
 21
245.1912
 31
0.0
  0
LINE
  5
BF91
330
BE4D
100
AcDbEntity
  8
1
  6
Continuous
100
AcDbLine
 10
116.0544749999999
 20
242.3411999999999
 30
0.0
 11
116.0544749999999
 21
245.1912
 31
0.0
  0
LINE
  5
BF92
330
BE4D
100
AcDbEntity
  8
1
  6
Continuous
100
AcDbLine
 10
117.975582
 20
242.3411999999999
 30
0.0
 11
117.975582
 21
245.1912
 31
0.0
  0
LINE
  5
BF93
330
BE4D
100
AcDbEntity
  8
1
  6
Continuous
100
AcDbLine
 10
108.7785079999999
 20
248.0412
 30
0.0
 11
108.1785079999999
 21
245.1912
 31
0.0
  0
LINE
  5
BF94
330
BE4D
100
AcDbEntity
  8
1
  6
Continuous
100
AcDbLine
 10
110.699604
 20
248.0412
 30
0.0
 11
110.099604
 21
245.1912
 31
0.0
  0
LINE
  5
BF95
330
BE4D
100
AcDbEntity
  8
1
  6
Continuous
100
AcDbLine
 10
112.7164909999999
 20
248.0412
 30
0.0
 11
112.116491
 21
245.1912
 31
0.0
  0
LINE
  5
BF96
330
BE4D
100
AcDbEntity
  8
1
  6
Continuous
100
AcDbLine
 10
114.829158
 20
248.0412
 30
0.0
 11
114.229158
 21
245.1912
 31
0.0
  0
LINE
  5
BF97
330
BE4D
100
AcDbEntity
  8
1
  6
Continuous
100
AcDbLine
 10
116.654475
 20
248.0412
 30
0.0
 11
116.0544749999999
 21
245.1912
 31
0.0
  0
LINE
  5
BF98
330
BE4D
100
AcDbEntity
  8
1
  6
Continuous
100
AcDbLine
 10
118.575582
 20
248.0412
 30
0.0
 11
117.975582
 21
245.1912
 31
0.0
  0
LINE
  5
BF99
330
BE4D
100
AcDbEntity
  8
1
  6
Continuous
100
AcDbLine
 10
120.0882429999999
 20
242.3411999999999
 30
0.0
 11
120.0882429999999
 21
245.1912
 31
0.0
  0
LINE
  5
BF9A
330
BE4D
100
AcDbEntity
  8
1
  6
Continuous
100
AcDbLine
 10
122.488243
 20
242.3411999999999
 30
0.0
 11
122.488243
 21
245.1912
 31
0.0
  0
LINE
  5
BF9B
330
BE4D
100
AcDbEntity
  8
1
  6
Continuous
100
AcDbLine
 10
124.8882429999998
 20
242.3411999999999
 30
0.0
 11
124.8882429999998
 21
245.1912
 31
0.0
  0
LINE
  5
BF9C
330
BE4D
100
AcDbEntity
  8
1
  6
Continuous
100
AcDbLine
 10
127.2882429999998
 20
242.3411999999999
 30
0.0
 11
127.2882429999998
 21
245.1912
 31
0.0
  0
LINE
  5
BF9D
330
BE4D
100
AcDbEntity
  8
1
  6
Continuous
100
AcDbLine
 10
129.6882429999998
 20
242.3411999999999
 30
0.0
 11
129.6882429999998
 21
245.1912
 31
0.0
  0
LINE
  5
BF9E
330
BE4D
100
AcDbEntity
  8
1
  6
Continuous
100
AcDbLine
 10
132.088243
 20
242.3411999999999
 30
0.0
 11
132.088243
 21
245.1912
 31
0.0
  0
LINE
  5
BF9F
330
BE4D
100
AcDbEntity
  8
1
  6
Continuous
100
AcDbLine
 10
134.4882429999999
 20
242.3411999999999
 30
0.0
 11
134.4882429999999
 21
243.341611
 31
0.0
  0
LINE
  5
BFA0
330
BE4D
100
AcDbEntity
  8
1
  6
Continuous
100
AcDbLine
 10
120.688243
 20
248.0412
 30
0.0
 11
120.0882429999999
 21
245.1912
 31
0.0
  0
LINE
  5
BFA1
330
BE4D
100
AcDbEntity
  8
1
  6
Continuous
100
AcDbLine
 10
123.0882429999999
 20
248.0412
 30
0.0
 11
122.488243
 21
245.1912
 31
0.0
  0
LINE
  5
BFA2
330
BE4D
100
AcDbEntity
  8
1
  6
Continuous
100
AcDbLine
 10
125.488243
 20
248.0412
 30
0.0
 11
124.8882429999998
 21
245.1912
 31
0.0
  0
LINE
  5
BFA3
330
BE4D
100
AcDbEntity
  8
1
  6
Continuous
100
AcDbLine
 10
127.8882429999999
 20
248.0412
 30
0.0
 11
127.2882429999998
 21
245.1912
 31
0.0
  0
LINE
  5
BFA4
330
BE4D
100
AcDbEntity
  8
1
  6
Continuous
100
AcDbLine
 10
130.2882429999999
 20
248.0412
 30
0.0
 11
129.6882429999998
 21
245.1912
 31
0.0
  0
LINE
  5
BFA5
330
BE4D
100
AcDbEntity
  8
1
  6
Continuous
100
AcDbLine
 10
132.6882429999998
 20
248.0412
 30
0.0
 11
132.088243
 21
245.1912
 31
0.0
  0
LINE
  5
BFA6
330
BE4D
100
AcDbEntity
  8
1
  6
Continuous
100
AcDbLine
 10
135.088243
 20
248.0412
 30
0.0
 11
134.9824869999999
 21
247.53886
 31
0.0
  0
LINE
  5
BFA7
330
BE4D
100
AcDbEntity
  8
5
  6
PHANTOM
100
AcDbLine
 10
185.380399
 20
159.7985159999998
 30
0.0
 11
185.950386
 21
159.986196
 31
0.0
  0
LINE
  5
BFA8
330
BE4D
100
AcDbEntity
  8
1
  6
Continuous
100
AcDbLine
 10
171.9786479999999
 20
180.3723319999998
 30
0.0
 11
171.6416859999999
 21
179.873989
 31
0.0
  0
ARC
  5
BFA9
330
BE4D
100
AcDbEntity
  8
1
  6
Continuous
100
AcDbCircle
 10
105.582555
 20
248.0412
 30
0.0
 40
0.3
100
AcDbArc
 50
0.0
 51
118.2932479999999
  0
LINE
  5
BFAA
330
BE4D
100
AcDbEntity
  8
1
  6
Continuous
100
AcDbLine
 10
105.882555
 20
248.0412
 30
0.0
 11
105.282555
 21
242.3411999999999
 31
0.0
  0
ARC
  5
BFAB
330
BE4D
100
AcDbEntity
  8
1
  6
Continuous
100
AcDbCircle
 10
104.9825549999999
 20
242.3411999999999
 30
0.0
 40
0.3
100
AcDbArc
 50
228.1896849999998
 51
0.0
  0
LINE
  5
BFAC
330
BE4D
100
AcDbEntity
  8
1
  6
Continuous
100
AcDbLine
 10
252.9504769999999
 20
181.572332
 30
0.0
 11
254.5874189999999
 21
180.5901669999999
 31
0.0
  0
LINE
  5
BFAD
330
BE4D
100
AcDbEntity
  8
1
  6
Continuous
100
AcDbLine
 10
255.359577
 20
180.4814249999998
 30
0.0
 11
259.192815
 21
181.503622
 31
0.0
  0
LINE
  5
BFAE
330
BE4D
100
AcDbEntity
  8
1
  6
Continuous
100
AcDbLine
 10
259.7081399999999
 20
181.503622
 30
0.0
 11
263.5413779999999
 21
180.4814249999998
 31
0.0
  0
LINE
  5
BFAF
330
BE4D
100
AcDbEntity
  8
1
  6
Continuous
100
AcDbLine
 10
264.313536
 20
180.5901669999999
 30
0.0
 11
265.9504769999999
 21
181.572332
 31
0.0
  0
LINE
  5
BFB0
330
BE4D
100
AcDbEntity
  8
1
  6
Continuous
100
AcDbLine
 10
265.9504769999999
 20
181.0752919999999
 30
0.0
 11
264.313536
 21
180.093127
 31
0.0
  0
LINE
  5
BFB1
330
BE4D
100
AcDbEntity
  8
1
  6
Continuous
100
AcDbLine
 10
263.5413779999999
 20
179.984385
 30
0.0
 11
259.7081399999999
 21
181.006582
 31
0.0
  0
LINE
  5
BFB2
330
BE4D
100
AcDbEntity
  8
1
  6
Continuous
100
AcDbLine
 10
259.192815
 20
181.006582
 30
0.0
 11
255.359577
 21
179.984385
 31
0.0
  0
LINE
  5
BFB3
330
BE4D
100
AcDbEntity
  8
1
  6
Continuous
100
AcDbLine
 10
254.5874189999999
 20
180.093127
 30
0.0
 11
252.9504769999999
 21
181.0752919999999
 31
0.0
  0
ARC
  5
BFB4
330
BE4D
100
AcDbEntity
  8
1
  6
Continuous
100
AcDbCircle
 10
263.79904
 20
180.9506199999999
 30
0.0
 40
1.0
100
AcDbArc
 50
255.0685829999999
 51
300.9637569999998
  0
ARC
  5
BFB5
330
BE4D
100
AcDbEntity
  8
1
  6
Continuous
100
AcDbCircle
 10
255.101914
 20
180.9506199999999
 30
0.0
 40
1.0
100
AcDbArc
 50
239.036243
 51
284.9314169999999
  0
ARC
  5
BFB6
330
BE4D
100
AcDbEntity
  8
1
  6
Continuous
100
AcDbCircle
 10
255.101914
 20
181.44766
 30
0.0
 40
1.0
100
AcDbArc
 50
239.036243
 51
284.9314169999999
  0
ARC
  5
BFB7
330
BE4D
100
AcDbEntity
  8
1
  6
Continuous
100
AcDbCircle
 10
263.79904
 20
181.44766
 30
0.0
 40
1.0
100
AcDbArc
 50
255.0685829999999
 51
300.9637569999998
  0
ARC
  5
BFB8
330
BE4D
100
AcDbEntity
  8
1
  6
Continuous
100
AcDbCircle
 10
259.4504769999999
 20
180.537387
 30
0.0
 40
1.0
100
AcDbArc
 50
75.06858299999997
 51
104.9314169999999
  0
ARC
  5
BFB9
330
BE4D
100
AcDbEntity
  8
1
  6
Continuous
100
AcDbCircle
 10
259.4504769999999
 20
180.040347
 30
0.0
 40
1.0
100
AcDbArc
 50
75.06858299999997
 51
104.9314169999999
  0
LINE
  5
BFBA
330
BE4D
100
AcDbEntity
  8
1
  6
Continuous
100
AcDbLine
 10
33.040523
 20
185.3875219999999
 30
0.0
 11
35.882843
 21
185.3875219999999
 31
0.0
  0
LINE
  5
BFBB
330
BE4D
100
AcDbEntity
  8
1
  6
Continuous
100
AcDbLine
 10
29.60220299999999
 20
186.0512319999999
 30
0.0
 11
32.784883
 21
185.4129059999999
 31
0.0
  0
LINE
  5
BFBC
330
BE4D
100
AcDbEntity
  8
1
  6
Continuous
100
AcDbLine
 10
32.75
 20
185.419902
 30
0.0
 11
33.040523
 21
185.3875219999999
 31
0.0
  0
ARC
  5
BFBD
330
BE4D
100
AcDbEntity
  8
1
  6
Continuous
100
AcDbCircle
 10
35.6
 20
186.491827
 30
0.0
 40
0.3
100
AcDbArc
 50
340.528779
 51
90.0
  0
LINE
  5
BFBE
330
BE4D
100
AcDbEntity
  8
1
  6
Continuous
100
AcDbLine
 10
32.75
 20
186.424206
 30
0.0
 11
33.040523
 21
186.391827
 31
0.0
  0
LINE
  5
BFBF
330
BE4D
100
AcDbEntity
  8
1
  6
Continuous
100
AcDbLine
 10
33.040523
 20
186.391827
 30
0.0
 11
35.882843
 21
186.391827
 31
0.0
  0
LINE
  5
BFC0
330
BE4D
100
AcDbEntity
  8
1
  6
Continuous
100
AcDbLine
 10
35.6
 20
186.791827
 30
0.0
 11
29.9
 21
187.391827
 31
0.0
  0
ARC
  5
BFC1
330
BE4D
100
AcDbEntity
  8
1
  6
Continuous
100
AcDbCircle
 10
29.9
 20
187.0918269999999
 30
0.0
 40
0.3
100
AcDbArc
 50
90.0
 51
186.947931
  0
LINE
  5
BFC2
330
BE4D
100
AcDbEntity
  8
1
  6
Continuous
100
AcDbLine
 10
29.60220299999999
 20
187.0555369999999
 30
0.0
 11
32.784883
 21
186.41721
 31
0.0
  0
LINE
  5
BFC3
330
BE4D
100
AcDbEntity
  8
1
  6
Continuous
100
AcDbLine
 10
35.6
 20
184.578923
 30
0.0
 11
29.9
 21
185.1789229999999
 31
0.0
  0
LINE
  5
BFC4
330
BE4D
100
AcDbEntity
  8
1
  6
Continuous
100
AcDbLine
 10
33.040523
 20
184.178923
 30
0.0
 11
35.882843
 21
184.178923
 31
0.0
  0
LINE
  5
BFC5
330
BE4D
100
AcDbEntity
  8
1
  6
Continuous
100
AcDbLine
 10
32.75
 20
184.211302
 30
0.0
 11
33.040523
 21
184.178923
 31
0.0
  0
ARC
  5
BFC6
330
BE4D
100
AcDbEntity
  8
1
  6
Continuous
100
AcDbCircle
 10
35.6
 20
184.2789229999999
 30
0.0
 40
0.3
100
AcDbArc
 50
340.528779
 51
90.0
  0
ARC
  5
BFC7
330
BE4D
100
AcDbEntity
  8
1
  6
Continuous
100
AcDbCircle
 10
35.6
 20
183.274618
 30
0.0
 40
0.3
100
AcDbArc
 50
340.528779
 51
90.0
  0
LINE
  5
BFC8
330
BE4D
100
AcDbEntity
  8
1
  6
Continuous
100
AcDbLine
 10
32.75
 20
183.2069979999999
 30
0.0
 11
33.040523
 21
183.1746179999999
 31
0.0
  0
LINE
  5
BFC9
330
BE4D
100
AcDbEntity
  8
1
  6
Continuous
100
AcDbLine
 10
33.040523
 20
183.1746179999999
 30
0.0
 11
35.882843
 21
183.1746179999999
 31
0.0
  0
LINE
  5
BFCA
330
BE4D
100
AcDbEntity
  8
1
  6
Continuous
100
AcDbLine
 10
35.6
 20
183.5746179999999
 30
0.0
 11
29.9
 21
184.1746179999999
 31
0.0
  0
LINE
  5
BFCB
330
BE4D
100
AcDbEntity
  8
1
  6
Continuous
100
AcDbLine
 10
29.60220299999999
 20
184.842632
 30
0.0
 11
32.784883
 21
184.2043059999998
 31
0.0
  0
ARC
  5
BFCC
330
BE4D
100
AcDbEntity
  8
1
  6
Continuous
100
AcDbCircle
 10
29.9
 20
184.8789229999999
 30
0.0
 40
0.3
100
AcDbArc
 50
90.0
 51
186.947931
  0
ARC
  5
BFCD
330
BE4D
100
AcDbEntity
  8
1
  6
Continuous
100
AcDbCircle
 10
29.9
 20
183.874618
 30
0.0
 40
0.3
100
AcDbArc
 50
90.0
 51
186.947931
  0
LINE
  5
BFCE
330
BE4D
100
AcDbEntity
  8
1
  6
Continuous
100
AcDbLine
 10
29.60220299999999
 20
183.838328
 30
0.0
 11
32.75
 21
183.2069979999999
 31
0.0
  0
LINE
  5
BFCF
330
BE4D
100
AcDbEntity
  8
1
  6
Continuous
100
AcDbLine
 10
32.745554
 20
163.9188659999998
 30
0.0
 11
33.040523
 21
163.889578
 31
0.0
  0
LINE
  5
BFD0
330
BE4D
100
AcDbEntity
  8
1
  6
Continuous
100
AcDbLine
 10
104.7825549999999
 20
242.117593
 30
0.0
 11
104.7825549999999
 21
245.1912
 31
0.0
  0
LINE
  5
BFD1
330
BE4D
100
AcDbEntity
  8
1
  6
Continuous
100
AcDbLine
 10
105.440359
 20
248.30536
 30
0.0
 11
104.78041
 21
245.170599
 31
0.0
  0
ARC
  5
BFD2
330
BE4D
100
AcDbEntity
  8
1
  6
Continuous
100
AcDbCircle
 10
107.1150229999998
 20
248.0412
 30
0.0
 40
0.3
100
AcDbArc
 50
0.0
 51
118.2932479999999
  0
LINE
  5
BFD3
330
BE4D
100
AcDbEntity
  8
1
  6
Continuous
100
AcDbLine
 10
106.972828
 20
248.30536
 30
0.0
 11
106.3128779999999
 21
245.170599
 31
0.0
  0
LINE
  5
BFD4
330
BE4D
100
AcDbEntity
  8
1
  6
Continuous
100
AcDbLine
 10
107.415023
 20
248.0412
 30
0.0
 11
106.815023
 21
242.3411999999999
 31
0.0
  0
ARC
  5
BFD5
330
BE4D
100
AcDbEntity
  8
1
  6
Continuous
100
AcDbCircle
 10
106.5150229999999
 20
242.3411999999999
 30
0.0
 40
0.3
100
AcDbArc
 50
228.1896849999998
 51
0.0
  0
LINE
  5
BFD6
330
BE4D
100
AcDbEntity
  8
1
  6
Continuous
100
AcDbLine
 10
106.3150229999999
 20
242.117593
 30
0.0
 11
106.3150229999999
 21
245.1912
 31
0.0
  0
ARC
  5
BFD7
330
BE4D
100
AcDbEntity
  8
1
  6
Continuous
100
AcDbCircle
 10
104.050081
 20
248.0412
 30
0.0
 40
0.3
100
AcDbArc
 50
0.0
 51
118.2932479999999
  0
LINE
  5
BFD8
330
BE4D
100
AcDbEntity
  8
1
  6
Continuous
100
AcDbLine
 10
103.907886
 20
248.30536
 30
0.0
 11
103.2479359999999
 21
245.170599
 31
0.0
  0
LINE
  5
BFD9
330
BE4D
100
AcDbEntity
  8
1
  6
Continuous
100
AcDbLine
 10
104.350081
 20
248.0412
 30
0.0
 11
103.750081
 21
242.3411999999999
 31
0.0
  0
ARC
  5
BFDA
330
BE4D
100
AcDbEntity
  8
1
  6
Continuous
100
AcDbCircle
 10
103.450081
 20
242.3411999999999
 30
0.0
 40
0.3
100
AcDbArc
 50
228.1896849999998
 51
0.0
  0
LINE
  5
BFDB
330
BE4D
100
AcDbEntity
  8
1
  6
Continuous
100
AcDbLine
 10
103.2500809999999
 20
242.117593
 30
0.0
 11
103.2500809999999
 21
245.1912
 31
0.0
  0
LINE
  5
BFDC
330
BE4D
100
AcDbEntity
  8
1
  6
Continuous
100
AcDbLine
 10
259.1071949999999
 20
183.039145
 30
0.0
 11
256.5477179999999
 21
183.039145
 31
0.0
  0
ARC
  5
BFDD
330
BE4D
100
AcDbEntity
  8
1
  6
Continuous
100
AcDbCircle
 10
256.5477179999999
 20
182.739145
 30
0.0
 40
0.3
100
AcDbArc
 50
90.0
 51
270.0
  0
LINE
  5
BFDE
330
BE4D
100
AcDbEntity
  8
1
  6
Continuous
100
AcDbLine
 10
256.5477179999999
 20
182.439145
 30
0.0
 11
262.247718
 21
181.839145
 31
0.0
  0
LINE
  5
BFDF
330
BE4D
100
AcDbEntity
  8
1
  6
Continuous
100
AcDbLine
 10
259.1071949999999
 20
184.434843
 30
0.0
 11
256.5477179999999
 21
184.434843
 31
0.0
  0
ARC
  5
BFE0
330
BE4D
100
AcDbEntity
  8
1
  6
Continuous
100
AcDbCircle
 10
256.5477179999999
 20
184.134843
 30
0.0
 40
0.3
100
AcDbArc
 50
90.0
 51
270.0
  0
LINE
  5
BFE1
330
BE4D
100
AcDbEntity
  8
1
  6
Continuous
100
AcDbLine
 10
256.5477179999999
 20
183.834843
 30
0.0
 11
262.247718
 21
183.2348429999999
 31
0.0
  0
LINE
  5
BFE2
330
BE4D
100
AcDbEntity
  8
1
  6
Continuous
100
AcDbLine
 10
256.4758799999999
 20
186.2365529999999
 30
0.0
 11
258.3784249999999
 21
186.0362849999999
 31
0.0
  0
LINE
  5
BFE3
330
BE4D
100
AcDbEntity
  8
1
  6
Continuous
100
AcDbLine
 10
257.3387299999998
 20
186.6365529999999
 30
0.0
 11
256.193037
 21
186.6365529999999
 31
0.0
  0
ARC
  5
BFE4
330
BE4D
100
AcDbEntity
  8
1
  6
Continuous
100
AcDbCircle
 10
256.4758799999999
 20
186.536553
 30
0.0
 40
0.3
100
AcDbArc
 50
160.528779
 51
270.0
  0
ARC
  5
BFE5
330
BE4D
100
AcDbEntity
  8
1
  6
Continuous
100
AcDbCircle
 10
256.595605
 20
185.532248
 30
0.0
 40
0.3
100
AcDbArc
 50
160.528779
 51
270.0
  0
LINE
  5
BFE6
330
BE4D
100
AcDbEntity
  8
1
  6
Continuous
100
AcDbLine
 10
259.445605
 20
185.5998689999999
 30
0.0
 11
259.155082
 21
185.632248
 31
0.0
  0
LINE
  5
BFE7
330
BE4D
100
AcDbEntity
  8
1
  6
Continuous
100
AcDbLine
 10
259.155082
 20
185.632248
 30
0.0
 11
256.3127629999998
 21
185.632248
 31
0.0
  0
LINE
  5
BFE8
330
BE4D
100
AcDbEntity
  8
1
  6
Continuous
100
AcDbLine
 10
256.595605
 20
185.2322479999999
 30
0.0
 11
262.2956049999999
 21
184.6322479999998
 31
0.0
  0
LINE
  5
BFE9
330
BE4D
100
AcDbEntity
  8
1
  6
Continuous
100
AcDbLine
 10
261.5464089999999
 20
186.627422
 30
0.0
 11
262.223767
 21
186.5561209999999
 31
0.0
  0
ARC
  5
BFEA
330
BE4D
100
AcDbEntity
  8
1
  6
Continuous
100
AcDbCircle
 10
262.247718
 20
182.1391449999999
 30
0.0
 40
0.3
100
AcDbArc
 50
270.0
 51
90.0
  0
LINE
  5
BFEB
330
BE4D
100
AcDbEntity
  8
1
  6
Continuous
100
AcDbLine
 10
262.247718
 20
182.439145
 30
0.0
 11
259.4021649999999
 21
183.009857
 31
0.0
  0
ARC
  5
BFEC
330
BE4D
100
AcDbEntity
  8
1
  6
Continuous
100
AcDbCircle
 10
262.247718
 20
183.5348429999999
 30
0.0
 40
0.3
100
AcDbArc
 50
270.0
 51
90.0
  0
LINE
  5
BFED
330
BE4D
100
AcDbEntity
  8
1
  6
Continuous
100
AcDbLine
 10
262.247718
 20
183.834843
 30
0.0
 11
259.4021649999999
 21
184.405555
 31
0.0
  0
LINE
  5
BFEE
330
BE4D
100
AcDbEntity
  8
1
  6
Continuous
100
AcDbLine
 10
262.4736759999998
 20
185.9728429999999
 30
0.0
 11
260.944023
 21
186.2796339999999
 31
0.0
  0
ARC
  5
BFEF
330
BE4D
100
AcDbEntity
  8
1
  6
Continuous
100
AcDbCircle
 10
262.17588
 20
185.9365529999998
 30
0.0
 40
0.3
100
AcDbArc
 50
270.0
 51
6.947930999999997
  0
ARC
  5
BFF0
330
BE4D
100
AcDbEntity
  8
1
  6
Continuous
100
AcDbCircle
 10
262.2956049999999
 20
184.9322479999999
 30
0.0
 40
0.3
100
AcDbArc
 50
270.0
 51
6.947930999999997
  0
LINE
  5
BFF1
330
BE4D
100
AcDbEntity
  8
1
  6
Continuous
100
AcDbLine
 10
262.593402
 20
184.9685389999999
 30
0.0
 11
259.410723
 21
185.606865
 31
0.0
  0
ARC
  5
BFF2
330
BE4D
100
AcDbEntity
  8
1
  6
Continuous
100
AcDbCircle
 10
262.223767
 20
186.856121
 30
0.0
 40
0.3
100
AcDbArc
 50
270.0
 51
6.947930999999997
  0
LINE
  5
BFF3
330
BE4D
100
AcDbEntity
  8
1
  6
Continuous
100
AcDbLine
 10
262.5215639999999
 20
186.892411
 30
0.0
 11
262.1384659999999
 21
186.9692459999999
 31
0.0
  0
LINE
  5
BFF4
330
BE4D
100
AcDbEntity
  8
1
  6
Continuous
100
AcDbLine
 10
259.1071949999999
 20
184.434843
 30
0.0
 11
259.4021649999999
 21
184.405555
 31
0.0
  0
LINE
  5
BFF5
330
BE4D
100
AcDbEntity
  8
1
  6
Continuous
100
AcDbLine
 10
259.1071949999999
 20
183.039145
 30
0.0
 11
259.4504769999999
 21
183.000167
 31
0.0
  0
LINE
  5
BFF6
330
BE4D
100
AcDbEntity
  8
1
  6
Continuous
100
AcDbLine
 10
260.1918959999998
 20
185.8453929999998
 30
0.0
 11
262.17588
 21
185.6365529999999
 31
0.0
  0
LINE
  5
BFF7
330
BE4D
100
AcDbEntity
  8
1
  6
Continuous
100
AcDbLine
 10
170.778648
 20
251.6912
 30
0.0
 11
171.7608129999999
 21
250.0542589999998
 31
0.0
  0
LINE
  5
BFF8
330
BE4D
100
AcDbEntity
  8
1
  6
Continuous
100
AcDbLine
 10
171.8695549999999
 20
249.2821
 30
0.0
 11
170.778648
 21
245.1912
 31
0.0
  0
LINE
  5
BFF9
330
BE4D
100
AcDbEntity
  8
1
  6
Continuous
100
AcDbLine
 10
170.778648
 20
245.1912
 30
0.0
 11
171.8695549999999
 21
241.1003
 31
0.0
  0
LINE
  5
BFFA
330
BE4D
100
AcDbEntity
  8
1
  6
Continuous
100
AcDbLine
 10
171.7608129999999
 20
240.3281409999999
 30
0.0
 11
170.778648
 21
238.6912
 31
0.0
  0
ARC
  5
BFFB
330
BE4D
100
AcDbEntity
  8
1
  6
Continuous
100
AcDbCircle
 10
170.90332
 20
249.5397629999999
 30
0.0
 40
1.0
100
AcDbArc
 50
345.0685829999998
 51
30.96375700000001
  0
ARC
  5
BFFC
330
BE4D
100
AcDbEntity
  8
1
  6
Continuous
100
AcDbCircle
 10
170.90332
 20
240.842637
 30
0.0
 40
1.0
100
AcDbArc
 50
329.036243
 51
14.931417
  0
LINE
  5
BFFD
330
BE4D
100
AcDbEntity
  8
1
  6
Continuous
100
AcDbLine
 10
168.4618249999998
 20
248.0412
 30
0.0
 11
167.861825
 21
245.1912
 31
0.0
  0
LINE
  5
BFFE
330
BE4D
100
AcDbEntity
  8
1
  6
Continuous
100
AcDbLine
 10
169.0618249999999
 20
248.0412
 30
0.0
 11
168.4618249999998
 21
242.3411999999999
 31
0.0
  0
ARC
  5
BFFF
330
BE4D
100
AcDbEntity
  8
1
  6
Continuous
100
AcDbCircle
 10
168.7618249999998
 20
248.0412
 30
0.0
 40
0.3
100
AcDbArc
 50
0.0
 51
180.0
  0
LINE
  5
C000
330
BE4D
100
AcDbEntity
  8
1
  6
Continuous
100
AcDbLine
 10
167.861825
 20
242.3411999999999
 30
0.0
 11
167.861825
 21
245.1912
 31
0.0
  0
ARC
  5
C001
330
BE4D
100
AcDbEntity
  8
1
  6
Continuous
100
AcDbCircle
 10
168.1618249999999
 20
242.3411999999999
 30
0.0
 40
0.3
100
AcDbArc
 50
180.0
 51
0.0
  0
LINE
  5
C002
330
BE4D
100
AcDbEntity
  8
1
  6
Continuous
100
AcDbLine
 10
140.6002389999999
 20
56.5
 30
0.0
 11
140.6002389999999
 21
55.25
 31
0.0
  0
LINE
  5
C003
330
BE4D
100
AcDbEntity
  8
1
  6
Continuous
100
AcDbLine
 10
151.6002389999998
 20
56.5
 30
0.0
 11
151.6002389999998
 21
55.25
 31
0.0
  0
LINE
  5
C004
330
BE4D
100
AcDbEntity
  8
1
  6
Continuous
100
AcDbLine
 10
140.6002389999999
 20
42.25
 30
0.0
 11
140.6002389999999
 21
41.0
 31
0.0
  0
LINE
  5
C005
330
BE4D
100
AcDbEntity
  8
1
  6
Continuous
100
AcDbLine
 10
151.6002389999998
 20
42.25
 30
0.0
 11
151.6002389999998
 21
41.0
 31
0.0
  0
LINE
  5
C006
330
BE4D
100
AcDbEntity
  8
1
  6
Continuous
100
AcDbLine
 10
140.3002389999997
 20
56.5
 30
0.0
 11
139.3002389999997
 21
55.25
 31
0.0
  0
LINE
  5
C007
330
BE4D
100
AcDbEntity
  8
1
  6
Continuous
100
AcDbLine
 10
139.3002389999997
 20
42.25
 30
0.0
 11
140.3002389999997
 21
41.0
 31
0.0
  0
LINE
  5
C008
330
BE4D
100
AcDbEntity
  8
1
  6
Continuous
100
AcDbLine
 10
152.900239
 20
42.25
 30
0.0
 11
151.9002389999999
 21
41.0
 31
0.0
  0
LINE
  5
C009
330
BE4D
100
AcDbEntity
  8
1
  6
Continuous
100
AcDbLine
 10
151.9002389999999
 20
56.5
 30
0.0
 11
152.900239
 21
55.25
 31
0.0
  0
ARC
  5
C00A
330
BE4D
100
AcDbEntity
  8
1
  6
Continuous
100
AcDbCircle
 10
146.1002389999999
 20
186.0407999999999
 30
0.0
 40
7.4
100
AcDbArc
 50
18.924644
 51
161.075356
  0
ARC
  5
C00B
330
BE4D
100
AcDbEntity
  8
1
  6
Continuous
100
AcDbCircle
 10
146.1002389999999
 20
275.4411999999999
 30
0.0
 40
25.0
100
AcDbArc
 50
253.7397949999999
 51
286.2602049999999
  0
ARC
  5
C00C
330
BE4D
100
AcDbEntity
  8
1
  6
Continuous
100
AcDbCircle
 10
146.1002389999999
 20
214.9412
 30
0.0
 40
25.0
100
AcDbArc
 50
73.739795
 51
106.2602049999999
  0
LINE
  5
C00D
330
BE4D
100
AcDbEntity
  8
1
  6
Continuous
100
AcDbLine
 10
140.3002389999997
 20
252.9412
 30
0.0
 11
139.1002389999999
 21
251.4412
 31
0.0
  0
LINE
  5
C00E
330
BE4D
100
AcDbEntity
  8
1
  6
Continuous
100
AcDbLine
 10
151.9002389999999
 20
252.9412
 30
0.0
 11
153.1002389999999
 21
251.4412
 31
0.0
  0
LINE
  5
C00F
330
BE4D
100
AcDbEntity
  8
1
  6
Continuous
100
AcDbLine
 10
139.1002389999999
 20
238.9412
 30
0.0
 11
140.3002389999997
 21
237.4411999999999
 31
0.0
  0
LINE
  5
C010
330
BE4D
100
AcDbEntity
  8
1
  6
Continuous
100
AcDbLine
 10
153.1002389999999
 20
238.9412
 30
0.0
 11
151.9002389999999
 21
237.4411999999999
 31
0.0
  0
ARC
  5
C011
330
BE4D
100
AcDbEntity
  8
5
  6
PHANTOM
100
AcDbCircle
 10
146.1002389999999
 20
146.100018
 30
0.0
 40
42.200239
100
AcDbArc
 50
19.211396
 51
51.541601
  0
ARC
  5
C012
330
BE4D
100
AcDbEntity
  8
1
  6
Continuous
100
AcDbCircle
 10
133.2481249999998
 20
133.3109849999999
 30
0.0
 40
57.71033199999999
100
AcDbArc
 50
64.90087599999999
 51
71.195724
  0
ARC
  5
C013
330
BE4D
100
AcDbEntity
  8
1
  6
Continuous
100
AcDbCircle
 10
149.964168
 20
142.166012
 30
0.0
 40
44.0949
100
AcDbArc
 50
60.049456
 51
79.85899100000001
  0
ARC
  5
C014
330
BE4D
100
AcDbEntity
  8
1
  6
Continuous
100
AcDbCircle
 10
133.2481249999998
 20
133.3109849999999
 30
0.0
 40
57.11033199999999
100
AcDbArc
 50
64.95262099999999
 51
71.05567600000002
  0
ARC
  5
C015
330
BE4D
100
AcDbEntity
  8
1
  6
Continuous
100
AcDbCircle
 10
149.964168
 20
142.166012
 30
0.0
 40
43.4949
100
AcDbArc
 50
60.07784399999999
 51
79.79134000000001
  0
ARC
  5
C016
330
BE4D
100
AcDbEntity
  8
1
  6
Continuous
100
AcDbCircle
 10
133.2481249999998
 20
133.3109849999999
 30
0.0
 40
56.510332
100
AcDbArc
 50
64.95262099999999
 51
70.91257099999999
  0
ARC
  5
C017
330
BE4D
100
AcDbEntity
  8
1
  6
Continuous
100
AcDbCircle
 10
149.964168
 20
142.166012
 30
0.0
 40
42.89489999999999
100
AcDbArc
 50
60.10701700000002
 51
79.79134000000001
  0
ARC
  5
C018
330
BE4D
100
AcDbEntity
  8
1
  6
Continuous
100
AcDbCircle
 10
157.8501539999998
 20
185.9565059999999
 30
0.0
 40
1.0
100
AcDbArc
 50
244.952621
 51
259.7913399999999
  0
ARC
  5
C019
330
BE4D
100
AcDbEntity
  8
1
  6
Continuous
100
AcDbCircle
 10
157.8501539999998
 20
185.9565059999999
 30
0.0
 40
1.6
100
AcDbArc
 50
244.952621
 51
259.7913399999999
  0
ARC
  5
C01A
330
BE4D
100
AcDbEntity
  8
5
  6
PHANTOM
100
AcDbCircle
 10
133.24791
 20
133.3088349999999
 30
0.0
 40
56.510332
100
AcDbArc
 50
65.105738
 51
70.91257099999999
  0
ARC
  5
C01B
330
BE4D
100
AcDbEntity
  8
5
  6
PHANTOM
100
AcDbCircle
 10
133.246306
 20
133.2927929999998
 30
0.0
 40
57.11033199999999
100
AcDbArc
 50
64.95262099999999
 51
71.05567600000002
  0
ARC
  5
C01C
330
BE4D
100
AcDbEntity
  8
5
  6
PHANTOM
100
AcDbCircle
 10
133.2447359999999
 20
133.2770959999998
 30
0.0
 40
57.71033199999999
100
AcDbArc
 50
64.90087599999999
 51
71.195724
  0
ARC
  5
C01D
330
BE4D
100
AcDbEntity
  8
5
  6
PHANTOM
100
AcDbCircle
 10
145.8707949999999
 20
138.982853
 30
0.0
 40
46.903939
100
AcDbArc
 50
56.67140999999999
 51
75.87310699999997
  0
ARC
  5
C01E
330
BE4D
100
AcDbEntity
  8
5
  6
PHANTOM
100
AcDbCircle
 10
157.709162
 20
186.0199139999998
 30
0.0
 40
1.6
100
AcDbArc
 50
245.1057379999999
 51
255.8731069999999
  0
ARC
  5
C01F
330
BE4D
100
AcDbEntity
  8
5
  6
PHANTOM
100
AcDbCircle
 10
145.8707949999999
 20
138.982853
 30
0.0
 40
48.10393900000001
100
AcDbArc
 50
56.60651699999998
 51
75.87310699999997
  0
ARC
  5
C020
330
BE4D
100
AcDbEntity
  8
5
  6
PHANTOM
100
AcDbCircle
 10
145.8707949999999
 20
138.982853
 30
0.0
 40
47.503939
100
AcDbArc
 50
56.63853899999999
 51
75.87310699999997
  0
LINE
  5
C021
330
BE4D
100
AcDbEntity
  8
1
  6
Continuous
100
AcDbLine
 10
191.700477
 20
55.25
 30
0.0
 11
191.700477
 21
42.25
 31
0.0
  0
LINE
  5
C022
330
BE4D
100
AcDbEntity
  8
1
  6
Continuous
100
AcDbLine
 10
100.5
 20
55.25
 30
0.0
 11
100.5
 21
42.25
 31
0.0
  0
LINE
  5
C023
330
BE4D
100
AcDbEntity
  8
1
  6
Continuous
100
AcDbLine
 10
163.6618249999999
 20
248.0412
 30
0.0
 11
163.3502389999998
 21
246.561165
 31
0.0
  0
LINE
  5
C024
330
BE4D
100
AcDbEntity
  8
1
  6
Continuous
100
AcDbLine
 10
164.2618249999999
 20
248.0412
 30
0.0
 11
163.6618249999999
 21
242.3411999999999
 31
0.0
  0
ARC
  5
C025
330
BE4D
100
AcDbEntity
  8
1
  6
Continuous
100
AcDbCircle
 10
163.961825
 20
248.0412
 30
0.0
 40
0.3
100
AcDbArc
 50
0.0
 51
180.0
  0
ARC
  5
C026
330
BE4D
100
AcDbEntity
  8
1
  6
Continuous
100
AcDbCircle
 10
163.361825
 20
242.3411999999999
 30
0.0
 40
0.3
100
AcDbArc
 50
267.7866419999999
 51
0.0
  0
LINE
  5
C027
330
BE4D
100
AcDbEntity
  8
1
  6
Continuous
100
AcDbLine
 10
166.0618249999999
 20
248.0412
 30
0.0
 11
165.461825
 21
245.1912
 31
0.0
  0
LINE
  5
C028
330
BE4D
100
AcDbEntity
  8
1
  6
Continuous
100
AcDbLine
 10
166.6618249999999
 20
248.0412
 30
0.0
 11
166.0618249999999
 21
242.3411999999999
 31
0.0
  0
ARC
  5
C029
330
BE4D
100
AcDbEntity
  8
1
  6
Continuous
100
AcDbCircle
 10
166.361825
 20
248.0412
 30
0.0
 40
0.3
100
AcDbArc
 50
0.0
 51
180.0
  0
LINE
  5
C02A
330
BE4D
100
AcDbEntity
  8
1
  6
Continuous
100
AcDbLine
 10
165.461825
 20
242.3411999999999
 30
0.0
 11
165.461825
 21
245.1912
 31
0.0
  0
ARC
  5
C02B
330
BE4D
100
AcDbEntity
  8
1
  6
Continuous
100
AcDbCircle
 10
165.7618249999998
 20
242.3411999999999
 30
0.0
 40
0.3
100
AcDbArc
 50
180.0
 51
0.0
  0
LINE
  5
C02C
330
BE4D
100
AcDbEntity
  8
1
  6
Continuous
100
AcDbLine
 10
135.12956
 20
242.733708
 30
0.0
 11
135.088243
 21
242.3411999999999
 31
0.0
  0
LINE
  5
C02D
330
BE4D
100
AcDbEntity
  8
1
  6
Continuous
100
AcDbLine
 10
254.9504769999999
 20
188.015411
 30
0.0
 11
258.950477
 21
185.7060099999999
 31
0.0
  0
ARC
  5
C02E
330
BE4D
100
AcDbEntity
  8
1
  6
Continuous
100
AcDbCircle
 10
259.4504769999999
 20
186.572036
 30
0.0
 40
1.0
100
AcDbArc
 50
239.9999999999999
 51
300.0
  0
LINE
  5
C02F
330
BE4D
100
AcDbEntity
  8
1
  6
Continuous
100
AcDbLine
 10
259.9504769999999
 20
185.7060099999999
 30
0.0
 11
263.9504769999999
 21
188.015411
 31
0.0
  0
ARC
  5
C030
330
BE4D
100
AcDbEntity
  8
1
  6
Continuous
100
AcDbCircle
 10
263.4504769999999
 20
188.881437
 30
0.0
 40
1.0
100
AcDbArc
 50
300.0
 51
0.0
  0
LINE
  5
C031
330
BE4D
100
AcDbEntity
  8
1
  6
Continuous
100
AcDbLine
 10
264.4504769999999
 20
188.881437
 30
0.0
 11
264.4504769999999
 21
193.500239
 31
0.0
  0
ARC
  5
C032
330
BE4D
100
AcDbEntity
  8
1
  6
Continuous
100
AcDbCircle
 10
263.4504769999999
 20
193.500239
 30
0.0
 40
1.0
100
AcDbArc
 50
0.0
 51
60.0
  0
LINE
  5
C033
330
BE4D
100
AcDbEntity
  8
1
  6
Continuous
100
AcDbLine
 10
263.9504769999999
 20
194.366264
 30
0.0
 11
259.9504769999999
 21
196.6756649999999
 31
0.0
  0
ARC
  5
C034
330
BE4D
100
AcDbEntity
  8
1
  6
Continuous
100
AcDbCircle
 10
259.4504769999999
 20
195.80964
 30
0.0
 40
1.0
100
AcDbArc
 50
60.0
 51
119.9999999999999
  0
LINE
  5
C035
330
BE4D
100
AcDbEntity
  8
1
  6
Continuous
100
AcDbLine
 10
258.950477
 20
196.6756649999999
 30
0.0
 11
254.9504769999999
 21
194.366264
 31
0.0
  0
ARC
  5
C036
330
BE4D
100
AcDbEntity
  8
1
  6
Continuous
100
AcDbCircle
 10
255.450477
 20
193.500239
 30
0.0
 40
1.0
100
AcDbArc
 50
119.9999999999999
 51
180.0
  0
LINE
  5
C037
330
BE4D
100
AcDbEntity
  8
1
  6
Continuous
100
AcDbLine
 10
254.450477
 20
193.500239
 30
0.0
 11
254.450477
 21
188.881437
 31
0.0
  0
ARC
  5
C038
330
BE4D
100
AcDbEntity
  8
1
  6
Continuous
100
AcDbCircle
 10
255.450477
 20
188.881437
 30
0.0
 40
1.0
100
AcDbArc
 50
180.0
 51
239.9999999999999
  0
ENDSEC
  0
SECTION
  2
OBJECTS
  0
DICTIONARY
  5
BE3B
330
0
100
AcDbDictionary
281
     1
  3
ACAD_CIP_PREVIOUS_PRODUCT_INFO
350
C098
  3
ACAD_COLOR
350
C07A
  3
ACAD_DETAILVIEWSTYLE
350
C093
  3
ACAD_GROUP
350
BE3C
  3
ACAD_LAYOUT
350
BE48
  3
ACAD_MATERIAL
350
C048
  3
ACAD_MLEADERSTYLE
350
C08F
  3
ACAD_MLINESTYLE
350
BE45
  3
ACAD_PLOTSETTINGS
350
BE47
  3
ACAD_PLOTSTYLENAME
350
C046
  3
ACAD_SCALELIST
350
C07D
  3
ACAD_SECTIONVIEWSTYLE
350
C091
  3
ACAD_TABLESTYLE
350
C07B
  3
ACAD_VISUALSTYLE
350
C061
  3
ACDB_RECOMPOSE_DATA
350
C0B6
  3
AcDbVariableDictionary
350
C0A9
  3
DWGPROPS
350
C0B7
  0
DICTIONARY
  5
C099
330
BE3F
100
AcDbDictionary
280
     1
281
     1
  3
ADSK_XREC_LAYER_RECONCILED
360
C09A
  0
DICTIONARY
  5
C09B
330
BE55
100
AcDbDictionary
280
     1
281
     1
  3
ADSK_XREC_LAYER_RECONCILED
360
C09C
  0
DICTIONARY
  5
C09D
330
BE56
100
AcDbDictionary
280
     1
281
     1
  3
ADSK_XREC_LAYER_RECONCILED
360
C09E
  0
DICTIONARY
  5
C09F
330
BE57
100
AcDbDictionary
280
     1
281
     1
  3
ADSK_XREC_LAYER_RECONCILED
360
C0A0
  0
DICTIONARY
  5
C0A1
330
BE58
100
AcDbDictionary
280
     1
281
     1
  3
ADSK_XREC_LAYER_RECONCILED
360
C0A2
  0
DICTIONARY
  5
C0A3
330
BE59
100
AcDbDictionary
280
     1
281
     1
  3
ADSK_XREC_LAYER_RECONCILED
360
C0A4
  0
DICTIONARY
  5
C0A5
330
BE5A
100
AcDbDictionary
280
     1
281
     1
  3
ADSK_XREC_LAYER_RECONCILED
360
C0A6
  0
DICTIONARY
  5
C0A7
330
BE5B
100
AcDbDictionary
280
     1
281
     1
  3
ADSK_XREC_LAYER_RECONCILED
360
C0A8
  0
DICTIONARY
  5
C041
330
BE4D
100
AcDbDictionary
281
     1
  3
ACAD_LAYOUTSELFREF
350
C042
  0
DICTIONARY
  5
C03F
330
BE49
100
AcDbDictionary
281
     1
  3
ACAD_LAYOUTSELFREF
350
C040
  0
XRECORD
  5
C098
102
{ACAD_REACTORS
330
BE3B
102
}
330
BE3B
100
AcDbXrecord
280
     1
300
ACDLT
300
2014
300
ACDLT_F_S
  0
DICTIONARY
  5
C07A
102
{ACAD_REACTORS
330
BE3B
102
}
330
BE3B
100
AcDbDictionary
281
     1
  0
DICTIONARY
  5
C093
102
{ACAD_REACTORS
330
BE3B
102
}
330
BE3B
100
AcDbDictionary
281
     1
  3
Imperial24
350
C094
  0
DICTIONARY
  5
BE3C
102
{ACAD_REACTORS
330
BE3B
102
}
330
BE3B
100
AcDbDictionary
281
     1
  0
DICTIONARY
  5
BE48
102
{ACAD_REACTORS
330
BE3B
102
}
330
BE3B
100
AcDbDictionary
281
     1
  3
Model
350
C095
  3
レイアウト1
350
C096
  0
DICTIONARY
  5
C048
102
{ACAD_REACTORS
330
BE3B
102
}
330
BE3B
100
AcDbDictionary
281
     1
  3
ByBlock
350
C051
  3
ByLayer
350
C049
  3
Global
350
C059
  0
DICTIONARY
  5
C08F
102
{ACAD_REACTORS
330
BE3B
102
}
330
BE3B
100
AcDbDictionary
281
     1
  3
Standard
350
C090
  0
DICTIONARY
  5
BE45
102
{ACAD_REACTORS
330
BE3B
102
}
330
BE3B
100
AcDbDictionary
281
     1
  3
STANDARD
350
BE46
  0
DICTIONARY
  5
BE47
102
{ACAD_REACTORS
330
BE3B
102
}
330
BE3B
100
AcDbDictionary
281
     1
  0
ACDBDICTIONARYWDFLT
  5
C046
102
{ACAD_REACTORS
330
BE3B
102
}
330
BE3B
100
AcDbDictionary
281
     1
  3
Normal
350
C047
100
AcDbDictionaryWithDefault
340
C047
  0
DICTIONARY
  5
C07D
102
{ACAD_REACTORS
330
BE3B
102
}
330
BE3B
100
AcDbDictionary
281
     1
  3
A0
350
C07E
  3
A1
350
C07F
  3
A2
350
C080
  3
A3
350
C081
  3
A4
350
C082
  3
A5
350
C083
  3
A6
350
C084
  3
A7
350
C085
  3
A8
350
C086
  3
A9
350
C087
  3
B0
350
C088
  3
B1
350
C089
  3
B2
350
C08A
  3
B3
350
C08B
  3
B4
350
C08C
  3
B5
350
C08D
  3
B6
350
C08E
  0
DICTIONARY
  5
C091
102
{ACAD_REACTORS
330
BE3B
102
}
330
BE3B
100
AcDbDictionary
281
     1
  3
Imperial24
350
C092
  0
DICTIONARY
  5
C07B
102
{ACAD_REACTORS
330
BE3B
102
}
330
BE3B
100
AcDbDictionary
281
     1
  3
Standard
350
C07C
  0
DICTIONARY
  5
C061
102
{ACAD_REACTORS
330
BE3B
102
}
330
BE3B
100
AcDbDictionary
281
     1
  3
2dWireframe
350
C067
  3
Basic
350
C066
  3
Brighten
350
C06D
  3
ColorChange
350
C071
  3
Conceptual
350
C06A
  3
Dim
350
C06C
  3
EdgeColorOff
350
C079
  3
Facepattern
350
C070
  3
Flat
350
C062
  3
FlatWithEdges
350
C063
  3
Gouraud
350
C064
  3
GouraudWithEdges
350
C065
  3
Hidden
350
C069
  3
JitterOff
350
C077
  3
Linepattern
350
C06F
  3
OverhangOff
350
C078
  3
Realistic
350
C06B
  3
Shaded
350
C076
  3
Shaded with edges
350
C075
  3
Shades of Gray
350
C072
  3
Sketchy
350
C073
  3
Thicken
350
C06E
  3
Wireframe
350
C068
  3
X-Ray
350
C074
  0
XRECORD
  5
C0B6
102
{ACAD_REACTORS
330
BE3B
102
}
330
BE3B
100
AcDbXrecord
280
     1
 90
        1
330
C07C
  0
DICTIONARY
  5
C0A9
102
{ACAD_REACTORS
330
BE3B
102
}
330
BE3B
100
AcDbDictionary
281
     1
  3
CANNOSCALE
350
C0AE
  3
CMLEADERSTYLE
350
C0AB
  3
CTABLESTYLE
350
C0AA
  3
CVIEWDETAILSTYLE
350
C0AC
  3
CVIEWSECTIONSTYLE
350
C0AD
  3
DIMASSOC
350
C0B1
  3
INDEXCTL
350
C0B0
  3
SORTENTS
350
C0AF
  3
XCLIPFRAME
350
C0B2
  0
XRECORD
  5
C0B7
102
{ACAD_REACTORS
330
BE3B
102
}
330
BE3B
100
AcDbXrecord
280
     1
  1
DWGPROPS COOKIE
  2

  3

  4

  6

  7

  8
Yoshitsune
  9

300
=
301
=
302
=
303
=
304
=
305
=
306
=
307
=
308
=
309
=
 40
0.000009837962963
 41
2451296.797055324
 42
2457192.658411331
  1

 90
        0
  0
XRECORD
  5
C09A
102
{ACAD_REACTORS
330
C099
102
}
330
C099
100
AcDbXrecord
280
     1
290
     1
  0
XRECORD
  5
C09C
102
{ACAD_REACTORS
330
C09B
102
}
330
C09B
100
AcDbXrecord
280
     1
290
     1
  0
XRECORD
  5
C09E
102
{ACAD_REACTORS
330
C09D
102
}
330
C09D
100
AcDbXrecord
280
     1
290
     1
  0
XRECORD
  5
C0A0
102
{ACAD_REACTORS
330
C09F
102
}
330
C09F
100
AcDbXrecord
280
     1
290
     1
  0
XRECORD
  5
C0A2
102
{ACAD_REACTORS
330
C0A1
102
}
330
C0A1
100
AcDbXrecord
280
     1
290
     1
  0
XRECORD
  5
C0A4
102
{ACAD_REACTORS
330
C0A3
102
}
330
C0A3
100
AcDbXrecord
280
     1
290
     1
  0
XRECORD
  5
C0A6
102
{ACAD_REACTORS
330
C0A5
102
}
330
C0A5
100
AcDbXrecord
280
     1
290
     1
  0
XRECORD
  5
C0A8
102
{ACAD_REACTORS
330
C0A7
102
}
330
C0A7
100
AcDbXrecord
280
     1
290
     1
  0
XRECORD
  5
C042
102
{ACAD_REACTORS
330
C041
102
}
330
C041
100
AcDbXrecord
280
     1
340
BE4D
  0
XRECORD
  5
C040
102
{ACAD_REACTORS
330
C03F
102
}
330
C03F
100
AcDbXrecord
280
     1
340
BE49
  0
ACDBDETAILVIEWSTYLE
  5
C094
102
{ACAD_XDICTIONARY
360
C0EF
102
}
102
{ACAD_REACTORS
330
C093
102
}
330
C093
100
AcDbModelDocViewStyle
 70
     0
  3
Imperial24
290
     0
100
AcDbDetailViewStyle
 70
     0
 71
     0
 90
        3
 71
     1
340
BE40
 40
0.24
340
0
 40
0.24
300

 40
0.36
280
     3
 71
     2
340
BE44
 90
       25
 71
     3
340
BE40
 40
0.24
 90
        1
 40
0.75
 90
        1
300
%<\AcVar ViewType \f "%tc1">% %<\AcVar ViewDetailId>%\PSCALE %<\AcVar ViewScale \f "%sn">%
 71
     4
340
BE44
 90
       25
340
BE44
 90
       25
280
     0
  0
LAYOUT
  5
C095
102
{ACAD_XDICTIONARY
360
C0F1
102
}
102
{ACAD_REACTORS
330
BE48
102
}
330
BE48
100
AcDbPlotSettings
  1

  2
Canon LBP9100C
  4

  6

 40
0.0
 41
0.0
 42
0.0
 43
0.0
 44
0.0
 45
0.0
 46
0.0
 47
0.0
 48
0.0
 49
0.0
140
0.0
141
0.0
142
1.0
143
1.0
 70
  1712
 72
     0
 73
     0
 74
     0
  7

 75
     0
147
1.0
148
0.0
149
0.0
100
AcDbLayout
  1
Model
 70
     1
 71
     0
 10
0.0
 20
0.0
 11
12.0
 21
9.0
 12
0.0
 22
0.0
 32
0.0
 14
0.0
 24
0.0
 34
0.0
 15
0.0
 25
0.0
 35
0.0
146
0.0
 13
0.0
 23
0.0
 33
0.0
 16
1.0
 26
0.0
 36
0.0
 17
0.0
 27
1.0
 37
0.0
 76
     0
330
BE4D
331
C03E
  0
LAYOUT
  5
C096
102
{ACAD_XDICTIONARY
360
C0F3
102
}
102
{ACAD_REACTORS
330
BE48
102
}
330
BE48
100
AcDbPlotSettings
  1

  2
Canon LBP9100C
  4

  6

 40
0.0
 41
0.0
 42
0.0
 43
0.0
 44
0.0
 45
0.0
 46
0.0
 47
0.0
 48
0.0
 49
0.0
140
0.0
141
0.0
142
1.0
143
1.0
 70
   688
 72
     0
 73
     0
 74
     5
  7

 75
    16
147
1.0
148
0.0
149
0.0
100
AcDbLayout
  1
レイアウト1
 70
     0
 71
     1
 10
0.0
 20
0.0
 11
420.0
 21
297.0
 12
0.0
 22
0.0
 32
0.0
 14
1.000000000000000E+20
 24
1.000000000000000E+20
 34
1.000000000000000E+20
 15
-1.000000000000000E+20
 25
-1.000000000000000E+20
 35
-1.000000000000000E+20
146
0.0
 13
0.0
 23
0.0
 33
0.0
 16
1.0
 26
0.0
 36
0.0
 17
0.0
 27
1.0
 37
0.0
 76
     0
330
BE49
  0
MATERIAL
  5
C051
102
{ACAD_XDICTIONARY
360
C052
102
}
102
{ACAD_REACTORS
330
C048
102
}
330
C048
100
AcDbMaterial
  1
ByBlock
 72
     0
 43
0.0208333333333333
 43
0.0
 43
0.0
 43
0.0
 43
0.0
 43
0.0208333333333333
 43
0.0
 43
0.0
 43
0.0
 43
0.0
 43
1.0
 43
0.0
 43
0.0
 43
0.0
 43
0.0
 43
1.0
 77
     0
 47
0.0208333333333333
 47
0.0
 47
0.0
 47
0.0
 47
0.0
 47
0.0208333333333333
 47
0.0
 47
0.0
 47
0.0
 47
0.0
 47
1.0
 47
0.0
 47
0.0
 47
0.0
 47
0.0
 47
1.0
171
     0
 49
0.0208333333333333
 49
0.0
 49
0.0
 49
0.0
 49
0.0
 49
0.0208333333333333
 49
0.0
 49
0.0
 49
0.0
 49
0.0
 49
1.0
 49
0.0
 49
0.0
 49
0.0
 49
0.0
 49
1.0
175
     0
142
0.0208333333333333
142
0.0
142
0.0
142
0.0
142
0.0
142
0.0208333333333333
142
0.0
142
0.0
142
0.0
142
0.0
142
1.0
142
0.0
142
0.0
142
0.0
142
0.0
142
1.0
179
     0
144
0.0208333333333333
144
0.0
144
0.0
144
0.0
144
0.0
144
0.0208333333333333
144
0.0
144
0.0
144
0.0
144
0.0
144
1.0
144
0.0
144
0.0
144
0.0
144
0.0
144
1.0
147
0.0208333333333333
147
0.0
147
0.0
147
0.0
147
0.0
147
0.0208333333333333
147
0.0
147
0.0
147
0.0
147
0.0
147
1.0
147
0.0
147
0.0
147
0.0
147
0.0
147
1.0
  0
MATERIAL
  5
C049
102
{ACAD_XDICTIONARY
360
C04A
102
}
102
{ACAD_REACTORS
330
C048
102
}
330
C048
100
AcDbMaterial
  1
ByLayer
 72
     0
 43
0.0208333333333333
 43
0.0
 43
0.0
 43
0.0
 43
0.0
 43
0.0208333333333333
 43
0.0
 43
0.0
 43
0.0
 43
0.0
 43
1.0
 43
0.0
 43
0.0
 43
0.0
 43
0.0
 43
1.0
 77
     0
 47
0.0208333333333333
 47
0.0
 47
0.0
 47
0.0
 47
0.0
 47
0.0208333333333333
 47
0.0
 47
0.0
 47
0.0
 47
0.0
 47
1.0
 47
0.0
 47
0.0
 47
0.0
 47
0.0
 47
1.0
171
     0
 49
0.0208333333333333
 49
0.0
 49
0.0
 49
0.0
 49
0.0
 49
0.0208333333333333
 49
0.0
 49
0.0
 49
0.0
 49
0.0
 49
1.0
 49
0.0
 49
0.0
 49
0.0
 49
0.0
 49
1.0
175
     0
142
0.0208333333333333
142
0.0
142
0.0
142
0.0
142
0.0
142
0.0208333333333333
142
0.0
142
0.0
142
0.0
142
0.0
142
1.0
142
0.0
142
0.0
142
0.0
142
0.0
142
1.0
179
     0
144
0.0208333333333333
144
0.0
144
0.0
144
0.0
144
0.0
144
0.0208333333333333
144
0.0
144
0.0
144
0.0
144
0.0
144
1.0
144
0.0
144
0.0
144
0.0
144
0.0
144
1.0
147
0.0208333333333333
147
0.0
147
0.0
147
0.0
147
0.0
147
0.0208333333333333
147
0.0
147
0.0
147
0.0
147
0.0
147
1.0
147
0.0
147
0.0
147
0.0
147
0.0
147
1.0
  0
MATERIAL
  5
C059
102
{ACAD_XDICTIONARY
360
C05A
102
}
102
{ACAD_REACTORS
330
C048
102
}
330
C048
100
AcDbMaterial
  1
Global
 72
     0
 43
0.0208333333333333
 43
0.0
 43
0.0
 43
0.0
 43
0.0
 43
0.0208333333333333
 43
0.0
 43
0.0
 43
0.0
 43
0.0
 43
1.0
 43
0.0
 43
0.0
 43
0.0
 43
0.0
 43
1.0
 77
     0
 47
0.0208333333333333
 47
0.0
 47
0.0
 47
0.0
 47
0.0
 47
0.0208333333333333
 47
0.0
 47
0.0
 47
0.0
 47
0.0
 47
1.0
 47
0.0
 47
0.0
 47
0.0
 47
0.0
 47
1.0
171
     0
 49
0.0208333333333333
 49
0.0
 49
0.0
 49
0.0
 49
0.0
 49
0.0208333333333333
 49
0.0
 49
0.0
 49
0.0
 49
0.0
 49
1.0
 49
0.0
 49
0.0
 49
0.0
 49
0.0
 49
1.0
175
     0
142
0.0208333333333333
142
0.0
142
0.0
142
0.0
142
0.0
142
0.0208333333333333
142
0.0
142
0.0
142
0.0
142
0.0
142
1.0
142
0.0
142
0.0
142
0.0
142
0.0
142
1.0
179
     0
144
0.0208333333333333
144
0.0
144
0.0
144
0.0
144
0.0
144
0.0208333333333333
144
0.0
144
0.0
144
0.0
144
0.0
144
1.0
144
0.0
144
0.0
144
0.0
144
0.0
144
1.0
147
0.0208333333333333
147
0.0
147
0.0
147
0.0
147
0.0
147
0.0208333333333333
147
0.0
147
0.0
147
0.0
147
0.0
147
1.0
147
0.0
147
0.0
147
0.0
147
0.0
147
1.0
  0
MLEADERSTYLE
  5
C090
102
{ACAD_REACTORS
330
C08F
102
}
330
C08F
100
AcDbMLeaderStyle
170
     2
171
     1
172
     0
 90
        2
 40
0.0
 41
0.0
173
     1
 91
-1056964608
340
BE42
 92
       -2
290
     1
 42
0.09
291
     1
 43
0.36
  3
Standard
 44
0.18
300

342
BE40
174
     1
178
     6
175
     1
176
     0
 93
-1056964608
 45
0.18
292
     0
297
     0
 46
0.18
 94
-1056964608
 47
1.0
 49
1.0
140
1.0
293
     1
141
0.0
294
     1
177
     0
142
1.0
295
     0
296
     0
143
0.125
1001
ACAD_MLEADERVER
1070
     2
  0
MLINESTYLE
  5
BE46
102
{ACAD_REACTORS
330
BE45
102
}
330
BE45
100
AcDbMlineStyle
  2
STANDARD
 70
     0
  3

 62
   256
 51
90.0
 52
90.0
 71
     2
 49
0.5
 62
   256
  6
BYLAYER
 49
-0.5
 62
   256
  6
BYLAYER
  0
ACDBPLACEHOLDER
  5
C047
102
{ACAD_REACTORS
330
C046
102
}
330
C046
  0
SCALE
  5
C07E
102
{ACAD_REACTORS
330
C07D
102
}
330
C07D
100
AcDbScale
 70
     0
300
1:1
140
1.0
141
1.0
290
     1
  0
SCALE
  5
C07F
102
{ACAD_REACTORS
330
C07D
102
}
330
C07D
100
AcDbScale
 70
     0
300
1/128" = 1'-0"
140
0.0078125
141
12.0
290
     0
  0
SCALE
  5
C080
102
{ACAD_REACTORS
330
C07D
102
}
330
C07D
100
AcDbScale
 70
     0
300
1/64" = 1'-0"
140
0.015625
141
12.0
290
     0
  0
SCALE
  5
C081
102
{ACAD_REACTORS
330
C07D
102
}
330
C07D
100
AcDbScale
 70
     0
300
1/32" = 1'-0"
140
0.03125
141
12.0
290
     0
  0
SCALE
  5
C082
102
{ACAD_REACTORS
330
C07D
102
}
330
C07D
100
AcDbScale
 70
     0
300
1/16" = 1'-0"
140
0.0625
141
12.0
290
     0
  0
SCALE
  5
C083
102
{ACAD_REACTORS
330
C07D
102
}
330
C07D
100
AcDbScale
 70
     0
300
3/32" = 1'-0"
140
0.09375
141
12.0
290
     0
  0
SCALE
  5
C084
102
{ACAD_REACTORS
330
C07D
102
}
330
C07D
100
AcDbScale
 70
     0
300
1/8" = 1'-0"
140
0.125
141
12.0
290
     0
  0
SCALE
  5
C085
102
{ACAD_REACTORS
330
C07D
102
}
330
C07D
100
AcDbScale
 70
     0
300
3/16" = 1'-0"
140
0.1875
141
12.0
290
     0
  0
SCALE
  5
C086
102
{ACAD_REACTORS
330
C07D
102
}
330
C07D
100
AcDbScale
 70
     0
300
1/4" = 1'-0"
140
0.25
141
12.0
290
     0
  0
SCALE
  5
C087
102
{ACAD_REACTORS
330
C07D
102
}
330
C07D
100
AcDbScale
 70
     0
300
3/8" = 1'-0"
140
0.375
141
12.0
290
     0
  0
SCALE
  5
C088
102
{ACAD_REACTORS
330
C07D
102
}
330
C07D
100
AcDbScale
 70
     0
300
1/2" = 1'-0"
140
0.5
141
12.0
290
     0
  0
SCALE
  5
C089
102
{ACAD_REACTORS
330
C07D
102
}
330
C07D
100
AcDbScale
 70
     0
300
3/4" = 1'-0"
140
0.75
141
12.0
290
     0
  0
SCALE
  5
C08A
102
{ACAD_REACTORS
330
C07D
102
}
330
C07D
100
AcDbScale
 70
     0
300
1" = 1'-0"
140
1.0
141
12.0
290
     0
  0
SCALE
  5
C08B
102
{ACAD_REACTORS
330
C07D
102
}
330
C07D
100
AcDbScale
 70
     0
300
1-1/2" = 1'-0"
140
1.5
141
12.0
290
     0
  0
SCALE
  5
C08C
102
{ACAD_REACTORS
330
C07D
102
}
330
C07D
100
AcDbScale
 70
     0
300
3" = 1'-0"
140
3.0
141
12.0
290
     0
  0
SCALE
  5
C08D
102
{ACAD_REACTORS
330
C07D
102
}
330
C07D
100
AcDbScale
 70
     0
300
6" = 1'-0"
140
6.0
141
12.0
290
     0
  0
SCALE
  5
C08E
102
{ACAD_REACTORS
330
C07D
102
}
330
C07D
100
AcDbScale
 70
     0
300
1'-0" = 1'-0"
140
12.0
141
12.0
290
     0
  0
ACDBSECTIONVIEWSTYLE
  5
C092
102
{ACAD_XDICTIONARY
360
C0ED
102
}
102
{ACAD_REACTORS
330
C091
102
}
330
C091
100
AcDbModelDocViewStyle
 70
     0
  3
Imperial24
290
     0
100
AcDbSectionViewStyle
 70
     0
 71
     0
 90
       78
 71
     1
340
BE40
 40
0.24
340
0
340
0
 40
0.24
300
I, O, Q, S, X, Z
 40
0.48
 90
        3
 40
0.18
 90
        1
 71
     2
340
BE44
 90
       25
340
BE44
 90
       50
 40
0.24
 40
0.0
 40
0.24
 71
     3
340
BE40
 40
0.24
 90
        1
 40
0.75
 90
        1
300
%<\AcVar ViewType \f "%tc1">% %<\AcVar ViewSectionStartId>%-%<\AcVar ViewSectionEndId>%\PSCALE %<\AcVar ViewScale \f "%sn">%
 71
     4
300
ANSI31
 40
1.0
 90
        0
290
     0
290
     0
 90
        6
 40
0.0
 40
1.570796326794896
 40
0.2617993877991494
 40
1.308996938995747
 40
-0.2617993877991494
 40
1.832595714594046
  0
TABLESTYLE
  5
C07C
102
{ACAD_XDICTIONARY
360
C0B4
102
}
102
{ACAD_REACTORS
330
C07B
102
}
330
C07B
100
AcDbTableStyle
  3
Standard
 70
     0
 71
     0
 40
0.06
 41
0.06
280
     0
281
     0
  7
STANDARD
140
0.18
170
     2
 62
     0
 63
     7
283
     0
274
    -2
284
     1
 64
     0
275
    -2
285
     1
 65
     0
276
    -2
286
     1
 66
     0
277
    -2
287
     1
 67
     0
278
    -2
288
     1
 68
     0
279
    -2
289
     1
 69
     0
  7
STANDARD
140
0.25
170
     5
 62
     0
 63
     7
283
     0
274
    -2
284
     1
 64
     0
275
    -2
285
     1
 65
     0
276
    -2
286
     1
 66
     0
277
    -2
287
     1
 67
     0
278
    -2
288
     1
 68
     0
279
    -2
289
     1
 69
     0
  7
STANDARD
140
0.18
170
     5
 62
     0
 63
     7
283
     0
274
    -2
284
     1
 64
     0
275
    -2
285
     1
 65
     0
276
    -2
286
     1
 66
     0
277
    -2
287
     1
 67
     0
278
    -2
288
     1
 68
     0
279
    -2
289
     1
 69
     0
  0
VISUALSTYLE
  5
C067
102
{ACAD_XDICTIONARY
360
C0C5
102
}
102
{ACAD_REACTORS
330
C061
102
}
330
C061
100
AcDbVisualStyle
  2
2dWireframe
 70
     4
 71
     0
 72
     2
 73
     0
 90
        0
 40
-0.6
 41
-30.0
 62
     5
 63
     7
 74
     1
 91
        4
 64
     7
 65
   257
 75
     1
175
     1
 42
1.0
 92
        0
 66
   257
 43
1.0
 76
     1
 77
     6
 78
     2
 67
     7
 79
     5
170
     0
171
     0
290
     0
174
     0
 93
        1
 44
0.0
173
     0
291
     0
 45
0.0
1001
ACAD
1000
AcDbSavedByObjectVersion
1070
     0
  0
VISUALSTYLE
  5
C066
102
{ACAD_XDICTIONARY
360
C0C3
102
}
102
{ACAD_REACTORS
330
C061
102
}
330
C061
100
AcDbVisualStyle
  2
Basic
 70
     7
 71
     1
 72
     0
 73
     1
 90
        0
 40
-0.6
 41
-30.0
 62
     5
 63
     7
 74
     0
 91
        4
 64
     7
 65
   257
 75
     1
175
     1
 42
1.0
 92
        8
 66
     7
 43
1.0
 76
     1
 77
     6
 78
     2
 67
     7
 79
     5
170
     0
171
     0
290
     0
174
     0
 93
        1
 44
0.0
173
     0
291
     1
 45
0.0
1001
ACAD
1000
AcDbSavedByObjectVersion
1070
     0
  0
VISUALSTYLE
  5
C06D
102
{ACAD_XDICTIONARY
360
C0D1
102
}
102
{ACAD_REACTORS
330
C061
102
}
330
C061
100
AcDbVisualStyle
  2
Brighten
 70
    12
 71
     2
 72
     2
 73
     0
 90
        0
 40
-0.6
 41
-30.0
 62
     5
 63
     7
 74
     1
 91
        4
 64
     7
 65
   257
 75
     1
175
     1
 42
1.0
 92
        8
 66
     7
 43
1.0
 76
     1
 77
     6
 78
     2
 67
     7
 79
     5
170
     0
171
     0
290
     0
174
     0
 93
        1
 44
50.0
173
     0
291
     1
 45
0.0
1001
ACAD
1000
AcDbSavedByObjectVersion
1070
     0
  0
VISUALSTYLE
  5
C071
102
{ACAD_XDICTIONARY
360
C0D9
102
}
102
{ACAD_REACTORS
330
C061
102
}
330
C061
100
AcDbVisualStyle
  2
ColorChange
 70
    16
 71
     2
 72
     2
 73
     3
 90
        0
 40
-0.6
 41
-30.0
 62
     5
 63
     8
 74
     1
 91
        4
 64
     7
 65
   257
 75
     1
175
     1
 42
1.0
 92
        8
 66
     8
 43
1.0
 76
     1
 77
     6
 78
     2
 67
     7
 79
     5
170
     0
171
     0
290
     0
174
     0
 93
        1
 44
0.0
173
     0
291
     1
 45
0.0
1001
ACAD
1000
AcDbSavedByObjectVersion
1070
     0
  0
VISUALSTYLE
  5
C06A
102
{ACAD_XDICTIONARY
360
C0CB
102
}
102
{ACAD_REACTORS
330
C061
102
}
330
C061
100
AcDbVisualStyle
  2
Conceptual
 70
     9
 71
     3
 72
     2
 73
     0
 90
        0
 40
-0.6
 41
-30.0
 62
     5
 63
     7
 74
     2
 91
        2
 64
     7
 65
   257
 75
     1
175
     1
 42
179.0
 92
        8
 66
     7
 43
1.0
 76
     1
 77
     6
 78
     2
 67
     7
 79
     3
170
     0
171
     0
290
     0
174
     0
 93
        1
 44
0.0
173
     0
291
     0
 45
0.0
1001
ACAD
1000
AcDbSavedByObjectVersion
1070
     0
  0
VISUALSTYLE
  5
C06C
102
{ACAD_XDICTIONARY
360
C0CF
102
}
102
{ACAD_REACTORS
330
C061
102
}
330
C061
100
AcDbVisualStyle
  2
Dim
 70
    11
 71
     2
 72
     2
 73
     0
 90
        0
 40
-0.6
 41
-30.0
 62
     5
 63
     7
 74
     1
 91
        4
 64
     7
 65
   257
 75
     1
175
     1
 42
1.0
 92
        8
 66
     7
 43
1.0
 76
     1
 77
     6
 78
     2
 67
     7
 79
     5
170
     0
171
     0
290
     0
174
     0
 93
        1
 44
-50.0
173
     0
291
     1
 45
0.0
1001
ACAD
1000
AcDbSavedByObjectVersion
1070
     0
  0
VISUALSTYLE
  5
C079
102
{ACAD_XDICTIONARY
360
C0E9
102
}
102
{ACAD_REACTORS
330
C061
102
}
330
C061
100
AcDbVisualStyle
  2
EdgeColorOff
 70
    22
 71
     2
 72
     2
 73
     0
 90
        0
 40
-0.6
 41
-30.0
 62
     5
 63
     7
 74
     1
 91
        4
 64
     7
 65
   257
 75
     1
175
     1
 42
1.0
 92
        8
 66
     7
 43
1.0
 76
     1
 77
     6
 78
     2
 67
     7
 79
     5
170
     0
171
     0
290
     0
174
     0
 93
        1
 44
0.0
173
     0
291
     1
 45
0.0
1001
ACAD
1000
AcDbSavedByObjectVersion
1070
     0
  0
VISUALSTYLE
  5
C070
102
{ACAD_XDICTIONARY
360
C0D7
102
}
102
{ACAD_REACTORS
330
C061
102
}
330
C061
100
AcDbVisualStyle
  2
Facepattern
 70
    15
 71
     2
 72
     2
 73
     0
 90
        0
 40
-0.6
 41
-30.0
 62
     5
 63
     7
 74
     1
 91
        4
 64
     7
 65
   257
 75
     1
175
     1
 42
1.0
 92
        8
 66
     7
 43
1.0
 76
     1
 77
     6
 78
     2
 67
     7
 79
     5
170
     0
171
     0
290
     0
174
     0
 93
        1
 44
0.0
173
     0
291
     1
 45
0.0
1001
ACAD
1000
AcDbSavedByObjectVersion
1070
     0
  0
VISUALSTYLE
  5
C062
102
{ACAD_XDICTIONARY
360
C0BB
102
}
102
{ACAD_REACTORS
330
C061
102
}
330
C061
100
AcDbVisualStyle
  2
Flat
 70
     0
 71
     2
 72
     1
 73
     1
 90
        2
 40
-0.6
 41
30.0
 62
     5
 63
     7
 74
     0
 91
        0
 64
     7
 65
   257
 75
     1
175
     1
 42
1.0
 92
        8
 66
     7
 43
1.0
 76
     1
 77
     6
 78
     2
 67
     7
 79
     5
170
     0
171
     0
290
     0
174
     0
 93
       13
 44
0.0
173
     0
291
     1
 45
0.0
1001
ACAD
1000
AcDbSavedByObjectVersion
1070
     0
  0
VISUALSTYLE
  5
C063
102
{ACAD_XDICTIONARY
360
C0BD
102
}
102
{ACAD_REACTORS
330
C061
102
}
330
C061
100
AcDbVisualStyle
  2
FlatWithEdges
 70
     1
 71
     2
 72
     1
 73
     1
 90
        2
 40
-0.6
 41
30.0
 62
     5
 63
     7
 74
     1
 91
        0
 64
     7
 65
   257
 75
     1
175
     1
 42
1.0
 92
        0
 66
   257
 43
1.0
 76
     1
 77
     6
 78
     2
 67
     7
 79
     5
170
     0
171
     0
290
     0
174
     0
 93
       13
 44
0.0
173
     0
291
     1
 45
0.0
1001
ACAD
1000
AcDbSavedByObjectVersion
1070
     0
  0
VISUALSTYLE
  5
C064
102
{ACAD_XDICTIONARY
360
C0BF
102
}
102
{ACAD_REACTORS
330
C061
102
}
330
C061
100
AcDbVisualStyle
  2
Gouraud
 70
     2
 71
     2
 72
     2
 73
     1
 90
        2
 40
-0.6
 41
30.0
 62
     5
 63
     7
 74
     0
 91
        0
 64
     7
 65
   257
 75
     1
175
     1
 42
1.0
 92
        0
 66
     7
 43
1.0
 76
     1
 77
     6
 78
     2
 67
     7
 79
     5
170
     0
171
     0
290
     0
174
     0
 93
       13
 44
0.0
173
     0
291
     1
 45
0.0
1001
ACAD
1000
AcDbSavedByObjectVersion
1070
     0
  0
VISUALSTYLE
  5
C065
102
{ACAD_XDICTIONARY
360
C0C1
102
}
102
{ACAD_REACTORS
330
C061
102
}
330
C061
100
AcDbVisualStyle
  2
GouraudWithEdges
 70
     3
 71
     2
 72
     2
 73
     1
 90
        2
 40
-0.6
 41
30.0
 62
     5
 63
     7
 74
     1
 91
        0
 64
     7
 65
   257
 75
     1
175
     1
 42
1.0
 92
        0
 66
   257
 43
1.0
 76
     1
 77
     6
 78
     2
 67
     7
 79
     5
170
     0
171
     0
290
     0
174
     0
 93
       13
 44
0.0
173
     0
291
     1
 45
0.0
1001
ACAD
1000
AcDbSavedByObjectVersion
1070
     0
  0
VISUALSTYLE
  5
C069
102
{ACAD_XDICTIONARY
360
C0C9
102
}
102
{ACAD_REACTORS
330
C061
102
}
330
C061
100
AcDbVisualStyle
  2
Hidden
 70
     6
 71
     1
 72
     2
 73
     2
 90
        0
 40
-0.6
 41
-30.0
 62
     5
 63
     7
 74
     2
 91
        2
 64
     7
 65
   257
 75
     2
175
     1
 42
40.0
 92
        0
 66
   257
 43
1.0
 76
     1
 77
     6
 78
     2
 67
     7
 79
     3
170
     0
171
     0
290
     0
174
     0
 93
        1
 44
0.0
173
     0
291
     0
 45
0.0
1001
ACAD
1000
AcDbSavedByObjectVersion
1070
     0
  0
VISUALSTYLE
  5
C077
102
{ACAD_XDICTIONARY
360
C0E5
102
}
102
{ACAD_REACTORS
330
C061
102
}
330
C061
100
AcDbVisualStyle
  2
JitterOff
 70
    20
 71
     2
 72
     2
 73
     0
 90
        0
 40
-0.6
 41
-30.0
 62
     5
 63
     7
 74
     1
 91
        4
 64
     7
 65
   257
 75
     1
175
     1
 42
1.0
 92
       10
 66
     7
 43
1.0
 76
     1
 77
     6
 78
     2
 67
     7
 79
     5
170
     0
171
     0
290
     0
174
     0
 93
        1
 44
0.0
173
     0
291
     1
 45
0.0
1001
ACAD
1000
AcDbSavedByObjectVersion
1070
     0
  0
VISUALSTYLE
  5
C06F
102
{ACAD_XDICTIONARY
360
C0D5
102
}
102
{ACAD_REACTORS
330
C061
102
}
330
C061
100
AcDbVisualStyle
  2
Linepattern
 70
    14
 71
     2
 72
     2
 73
     0
 90
        0
 40
-0.6
 41
-30.0
 62
     5
 63
     7
 74
     1
 91
        4
 64
     7
 65
   257
 75
     7
175
     7
 42
1.0
 92
        8
 66
     7
 43
1.0
 76
     1
 77
     6
 78
     2
 67
     7
 79
     5
170
     0
171
     0
290
     0
174
     0
 93
        1
 44
0.0
173
     0
291
     1
 45
0.0
1001
ACAD
1000
AcDbSavedByObjectVersion
1070
     0
  0
VISUALSTYLE
  5
C078
102
{ACAD_XDICTIONARY
360
C0E7
102
}
102
{ACAD_REACTORS
330
C061
102
}
330
C061
100
AcDbVisualStyle
  2
OverhangOff
 70
    21
 71
     2
 72
     2
 73
     0
 90
        0
 40
-0.6
 41
-30.0
 62
     5
 63
     7
 74
     1
 91
        4
 64
     7
 65
   257
 75
     1
175
     1
 42
1.0
 92
        9
 66
     7
 43
1.0
 76
     1
 77
     6
 78
     2
 67
     7
 79
     5
170
     0
171
     0
290
     0
174
     0
 93
        1
 44
0.0
173
     0
291
     1
 45
0.0
1001
ACAD
1000
AcDbSavedByObjectVersion
1070
     0
  0
VISUALSTYLE
  5
C06B
102
{ACAD_XDICTIONARY
360
C0CD
102
}
102
{ACAD_REACTORS
330
C061
102
}
330
C061
100
AcDbVisualStyle
  2
Realistic
 70
     8
 71
     2
 72
     3
 73
     0
 90
        2
 40
-0.6
 41
30.0
 62
     5
 63
     7
 74
     0
 91
        0
 64
     7
 65
   257
 75
     1
175
     1
 42
1.0
 92
        8
 66
   257
 43
1.0
 76
     1
 77
     6
 78
     2
 67
     7
 79
     3
170
     0
171
     0
290
     0
174
     0
 93
       13
 44
0.0
173
     0
291
     0
 45
0.0
1001
ACAD
1000
AcDbSavedByObjectVersion
1070
     0
  0
VISUALSTYLE
  5
C076
102
{ACAD_XDICTIONARY
360
C0E3
102
}
102
{ACAD_REACTORS
330
C061
102
}
330
C061
100
AcDbVisualStyle
  2
Shaded
 70
    27
 71
     2
 72
     2
 73
     1
 90
        2
 40
-0.6
 41
30.0
 62
     5
 63
     7
 74
     0
 91
        4
 64
     7
 65
   257
 75
     1
175
     1
 42
1.0
 92
        8
 66
   257
 43
1.0
 76
     1
 77
     6
 78
     2
 67
     8
 79
     3
170
     0
171
     0
290
     0
174
     0
 93
        5
 44
0.0
173
     0
291
     0
 45
0.0
1001
ACAD
1000
AcDbSavedByObjectVersion
1070
     0
  0
VISUALSTYLE
  5
C075
102
{ACAD_XDICTIONARY
360
C0E1
102
}
102
{ACAD_REACTORS
330
C061
102
}
330
C061
100
AcDbVisualStyle
  2
Shaded with edges
 70
    26
 71
     2
 72
     2
 73
     1
 90
        2
 40
-0.6
 41
30.0
 62
     5
 63
     7
 74
     1
 91
       10
 64
     7
 65
   257
 75
     2
175
     1
 42
1.0
 92
        8
 66
   257
 43
1.0
 76
     1
 77
     6
 78
     2
 67
     7
 79
     3
170
     0
171
     0
290
     0
174
     0
 93
        5
 44
0.0
173
     0
291
     0
 45
0.0
1001
ACAD
1000
AcDbSavedByObjectVersion
1070
     0
  0
VISUALSTYLE
  5
C072
102
{ACAD_XDICTIONARY
360
C0DB
102
}
102
{ACAD_REACTORS
330
C061
102
}
330
C061
100
AcDbVisualStyle
  2
Shades of Gray
 70
    23
 71
     2
 72
     2
 73
     3
 90
        0
 40
-0.6
 41
-30.0
 62
     5
 63
     7
 74
     2
 91
        2
 64
     7
 65
     7
 75
     1
175
     1
 42
40.0
 92
        8
 66
     7
 43
1.0
 76
     1
 77
     6
 78
     2
 67
     7
 79
     3
170
     0
171
     0
290
     0
174
     0
 93
        1
 44
0.0
173
     0
291
     0
 45
0.0
1001
ACAD
1000
AcDbSavedByObjectVersion
1070
     0
  0
VISUALSTYLE
  5
C073
102
{ACAD_XDICTIONARY
360
C0DD
102
}
102
{ACAD_REACTORS
330
C061
102
}
330
C061
100
AcDbVisualStyle
  2
Sketchy
 70
    24
 71
     1
 72
     2
 73
     2
 90
        0
 40
-0.6
 41
-30.0
 62
     5
 63
     7
 74
     2
 91
        2
 64
     7
 65
     7
 75
     1
175
     1
 42
40.0
 92
       11
 66
     7
 43
1.0
 76
     1
 77
     6
 78
     2
 67
     7
 79
     6
170
     0
171
     0
290
     0
174
     0
 93
        1
 44
0.0
173
     0
291
     0
 45
0.0
1001
ACAD
1000
AcDbSavedByObjectVersion
1070
     0
  0
VISUALSTYLE
  5
C06E
102
{ACAD_XDICTIONARY
360
C0D3
102
}
102
{ACAD_REACTORS
330
C061
102
}
330
C061
100
AcDbVisualStyle
  2
Thicken
 70
    13
 71
     2
 72
     2
 73
     0
 90
        0
 40
-0.6
 41
-30.0
 62
     5
 63
     7
 74
     1
 91
        4
 64
     7
 65
   257
 75
     1
175
     1
 42
1.0
 92
       12
 66
     7
 43
1.0
 76
     1
 77
     6
 78
     2
 67
     7
 79
     5
170
     0
171
     0
290
     0
174
     0
 93
        1
 44
0.0
173
     0
291
     1
 45
0.0
1001
ACAD
1000
AcDbSavedByObjectVersion
1070
     0
  0
VISUALSTYLE
  5
C068
102
{ACAD_XDICTIONARY
360
C0C7
102
}
102
{ACAD_REACTORS
330
C061
102
}
330
C061
100
AcDbVisualStyle
  2
Wireframe
 70
     5
 71
     0
 72
     2
 73
     0
 90
        0
 40
-0.6
 41
-30.0
 62
     5
 63
     7
 74
     1
 91
        4
 64
     7
 65
   257
 75
     1
175
     1
 42
1.0
 92
        0
 66
   257
 43
1.0
 76
     1
 77
     6
 78
     2
 67
     7
 79
     3
170
     0
171
     0
290
     0
174
     0
 93
        1
 44
0.0
173
     0
291
     0
 45
0.0
1001
ACAD
1000
AcDbSavedByObjectVersion
1070
     0
  0
VISUALSTYLE
  5
C074
102
{ACAD_XDICTIONARY
360
C0DF
102
}
102
{ACAD_REACTORS
330
C061
102
}
330
C061
100
AcDbVisualStyle
  2
X-Ray
 70
    25
 71
     2
 72
     2
 73
     1
 90
        1
 40
0.5
 41
-30.0
 62
     5
 63
     7
 74
     1
 91
        0
 64
     7
 65
   257
 75
     1
175
     1
 42
1.0
 92
        8
 66
     7
 43
1.0
 76
     1
 77
     6
 78
     2
 67
     7
 79
     3
170
     0
171
     0
290
     0
174
     0
 93
       13
 44
0.0
173
     0
291
     0
 45
0.0
1001
ACAD
1000
AcDbSavedByObjectVersion
1070
     0
  0
DICTIONARYVAR
  5
C0AE
102
{ACAD_REACTORS
330
C0A9
102
}
330
C0A9
100
DictionaryVariables
280
     0
  1
1:1
  0
DICTIONARYVAR
  5
C0AB
102
{ACAD_REACTORS
330
C0A9
102
}
330
C0A9
100
DictionaryVariables
280
     0
  1
STANDARD
  0
DICTIONARYVAR
  5
C0AA
102
{ACAD_REACTORS
330
C0A9
102
}
330
C0A9
100
DictionaryVariables
280
     0
  1
STANDARD
  0
DICTIONARYVAR
  5
C0AC
102
{ACAD_REACTORS
330
C0A9
102
}
330
C0A9
100
DictionaryVariables
280
     0
  1
Imperial24
  0
DICTIONARYVAR
  5
C0AD
102
{ACAD_REACTORS
330
C0A9
102
}
330
C0A9
100
DictionaryVariables
280
     0
  1
Imperial24
  0
DICTIONARYVAR
  5
C0B1
102
{ACAD_REACTORS
330
C0A9
102
}
330
C0A9
100
DictionaryVariables
280
     0
  1
1
  0
DICTIONARYVAR
  5
C0B0
102
{ACAD_REACTORS
330
C0A9
102
}
330
C0A9
100
DictionaryVariables
280
     0
  1
0
  0
DICTIONARYVAR
  5
C0AF
102
{ACAD_REACTORS
330
C0A9
102
}
330
C0A9
100
DictionaryVariables
280
     0
  1
127
  0
DICTIONARYVAR
  5
C0B2
102
{ACAD_REACTORS
330
C0A9
102
}
330
C0A9
100
DictionaryVariables
280
     0
  1
2
  0
DICTIONARY
  5
C0EF
330
C094
100
AcDbDictionary
280
     1
281
     1
  3
ACAD_XREC_ROUNDTRIP
360
C0F0
  0
DICTIONARY
  5
C0F1
330
C095
100
AcDbDictionary
280
     1
281
     1
  3
ACAD_XREC_ROUNDTRIP
360
C0F2
  0
DICTIONARY
  5
C0F3
330
C096
100
AcDbDictionary
280
     1
281
     1
  3
ACAD_XREC_ROUNDTRIP
360
C0F4
  0
DICTIONARY
  5
C052
330
C051
100
AcDbDictionary
280
     1
281
     1
  3
ACAD_XREC_ROUNDTRIP
360
C0B9
  3
BUMPTILE
360
C054
  3
DIFFUSETILE
360
C053
  3
OPACITYTILE
360
C057
  3
REFLECTIONTILE
360
C056
  3
REFRACTIONTILE
360
C058
  3
SPECULARTILE
360
C055
  0
DICTIONARY
  5
C04A
330
C049
100
AcDbDictionary
280
     1
281
     1
  3
ACAD_XREC_ROUNDTRIP
360
C0B8
  3
BUMPTILE
360
C04C
  3
DIFFUSETILE
360
C04B
  3
OPACITYTILE
360
C04F
  3
REFLECTIONTILE
360
C04E
  3
REFRACTIONTILE
360
C050
  3
SPECULARTILE
360
C04D
  0
DICTIONARY
  5
C05A
330
C059
100
AcDbDictionary
280
     1
281
     1
  3
ACAD_XREC_ROUNDTRIP
360
C0BA
  3
BUMPTILE
360
C05C
  3
DIFFUSETILE
360
C05B
  3
OPACITYTILE
360
C05F
  3
REFLECTIONTILE
360
C05E
  3
REFRACTIONTILE
360
C060
  3
SPECULARTILE
360
C05D
  0
DICTIONARY
  5
C0ED
330
C092
100
AcDbDictionary
280
     1
281
     1
  3
ACAD_XREC_ROUNDTRIP
360
C0EE
  0
DICTIONARY
  5
C0B4
330
C07C
100
AcDbDictionary
280
     1
281
     1
  3
ACAD_ROUNDTRIP_2008_TABLESTYLE_CELLSTYLEMAP
360
C0B5
  3
ACAD_XREC_ROUNDTRIP
360
C0EB
  0
DICTIONARY
  5
C0C5
330
C067
100
AcDbDictionary
280
     1
281
     1
  3
ACAD_XREC_ROUNDTRIP
360
C0C6
  0
DICTIONARY
  5
C0C3
330
C066
100
AcDbDictionary
280
     1
281
     1
  3
ACAD_XREC_ROUNDTRIP
360
C0C4
  0
DICTIONARY
  5
C0D1
330
C06D
100
AcDbDictionary
280
     1
281
     1
  3
ACAD_XREC_ROUNDTRIP
360
C0D2
  0
DICTIONARY
  5
C0D9
330
C071
100
AcDbDictionary
280
     1
281
     1
  3
ACAD_XREC_ROUNDTRIP
360
C0DA
  0
DICTIONARY
  5
C0CB
330
C06A
100
AcDbDictionary
280
     1
281
     1
  3
ACAD_XREC_ROUNDTRIP
360
C0CC
  0
DICTIONARY
  5
C0CF
330
C06C
100
AcDbDictionary
280
     1
281
     1
  3
ACAD_XREC_ROUNDTRIP
360
C0D0
  0
DICTIONARY
  5
C0E9
330
C079
100
AcDbDictionary
280
     1
281
     1
  3
ACAD_XREC_ROUNDTRIP
360
C0EA
  0
DICTIONARY
  5
C0D7
330
C070
100
AcDbDictionary
280
     1
281
     1
  3
ACAD_XREC_ROUNDTRIP
360
C0D8
  0
DICTIONARY
  5
C0BB
330
C062
100
AcDbDictionary
280
     1
281
     1
  3
ACAD_XREC_ROUNDTRIP
360
C0BC
  0
DICTIONARY
  5
C0BD
330
C063
100
AcDbDictionary
280
     1
281
     1
  3
ACAD_XREC_ROUNDTRIP
360
C0BE
  0
DICTIONARY
  5
C0BF
330
C064
100
AcDbDictionary
280
     1
281
     1
  3
ACAD_XREC_ROUNDTRIP
360
C0C0
  0
DICTIONARY
  5
C0C1
330
C065
100
AcDbDictionary
280
     1
281
     1
  3
ACAD_XREC_ROUNDTRIP
360
C0C2
  0
DICTIONARY
  5
C0C9
330
C069
100
AcDbDictionary
280
     1
281
     1
  3
ACAD_XREC_ROUNDTRIP
360
C0CA
  0
DICTIONARY
  5
C0E5
330
C077
100
AcDbDictionary
280
     1
281
     1
  3
ACAD_XREC_ROUNDTRIP
360
C0E6
  0
DICTIONARY
  5
C0D5
330
C06F
100
AcDbDictionary
280
     1
281
     1
  3
ACAD_XREC_ROUNDTRIP
360
C0D6
  0
DICTIONARY
  5
C0E7
330
C078
100
AcDbDictionary
280
     1
281
     1
  3
ACAD_XREC_ROUNDTRIP
360
C0E8
  0
DICTIONARY
  5
C0CD
330
C06B
100
AcDbDictionary
280
     1
281
     1
  3
ACAD_XREC_ROUNDTRIP
360
C0CE
  0
DICTIONARY
  5
C0E3
330
C076
100
AcDbDictionary
280
     1
281
     1
  3
ACAD_XREC_ROUNDTRIP
360
C0E4
  0
DICTIONARY
  5
C0E1
330
C075
100
AcDbDictionary
280
     1
281
     1
  3
ACAD_XREC_ROUNDTRIP
360
C0E2
  0
DICTIONARY
  5
C0DB
330
C072
100
AcDbDictionary
280
     1
281
     1
  3
ACAD_XREC_ROUNDTRIP
360
C0DC
  0
DICTIONARY
  5
C0DD
330
C073
100
AcDbDictionary
280
     1
281
     1
  3
ACAD_XREC_ROUNDTRIP
360
C0DE
  0
DICTIONARY
  5
C0D3
330
C06E
100
AcDbDictionary
280
     1
281
     1
  3
ACAD_XREC_ROUNDTRIP
360
C0D4
  0
DICTIONARY
  5
C0C7
330
C068
100
AcDbDictionary
280
     1
281
     1
  3
ACAD_XREC_ROUNDTRIP
360
C0C8
  0
DICTIONARY
  5
C0DF
330
C074
100
AcDbDictionary
280
     1
281
     1
  3
ACAD_XREC_ROUNDTRIP
360
C0E0
  0
XRECORD
  5
C0F0
102
{ACAD_REACTORS
330
C0EF
102
}
330
C0EF
100
AcDbXrecord
280
     1
102
DISPLAYNAME
  1
Imperial24
102
FLAGS
 90
        0
  0
XRECORD
  5
C0F2
102
{ACAD_REACTORS
330
C0F1
102
}
330
C0F1
100
AcDbXrecord
280
     1
102
SHADEPLOT
 70
     0
102
SHADEPLOTRESLEVEL
 70
     2
102
SHADEPLOTCUSTOMDPI
 70
   300
  0
XRECORD
  5
C0F4
102
{ACAD_REACTORS
330
C0F3
102
}
330
C0F3
100
AcDbXrecord
280
     1
102
SHADEPLOT
 70
     0
102
SHADEPLOTRESLEVEL
 70
     2
102
SHADEPLOTCUSTOMDPI
 70
   300
  0
XRECORD
  5
C0B9
102
{ACAD_REACTORS
330
C052
102
}
330
C052
100
AcDbXrecord
280
     1
102
MATERIAL
148
0.0
149
0.0
149
0.0
 93
        0
 94
      127
282
     0
 72
     0
 77
     0
171
     0
175
     0
179
     0
273
     0
  0
XRECORD
  5
C054
102
{ACAD_REACTORS
330
C052
102
}
330
C052
100
AcDbXrecord
280
     1
270
     1
271
     1
  0
XRECORD
  5
C053
102
{ACAD_REACTORS
330
C052
102
}
330
C052
100
AcDbXrecord
280
     1
270
     1
271
     1
  0
XRECORD
  5
C057
102
{ACAD_REACTORS
330
C052
102
}
330
C052
100
AcDbXrecord
280
     1
270
     1
271
     1
  0
XRECORD
  5
C056
102
{ACAD_REACTORS
330
C052
102
}
330
C052
100
AcDbXrecord
280
     1
270
     1
271
     1
  0
XRECORD
  5
C058
102
{ACAD_REACTORS
330
C052
102
}
330
C052
100
AcDbXrecord
280
     1
270
     1
271
     1
  0
XRECORD
  5
C055
102
{ACAD_REACTORS
330
C052
102
}
330
C052
100
AcDbXrecord
280
     1
270
     1
271
     1
  0
XRECORD
  5
C0B8
102
{ACAD_REACTORS
330
C04A
102
}
330
C04A
100
AcDbXrecord
280
     1
102
MATERIAL
148
0.0
149
0.0
149
0.0
 93
        0
 94
      127
282
     0
 72
     0
 77
     0
171
     0
175
     0
179
     0
273
     0
  0
XRECORD
  5
C04C
102
{ACAD_REACTORS
330
C04A
102
}
330
C04A
100
AcDbXrecord
280
     1
270
     1
271
     1
  0
XRECORD
  5
C04B
102
{ACAD_REACTORS
330
C04A
102
}
330
C04A
100
AcDbXrecord
280
     1
270
     1
271
     1
  0
XRECORD
  5
C04F
102
{ACAD_REACTORS
330
C04A
102
}
330
C04A
100
AcDbXrecord
280
     1
270
     1
271
     1
  0
XRECORD
  5
C04E
102
{ACAD_REACTORS
330
C04A
102
}
330
C04A
100
AcDbXrecord
280
     1
270
     1
271
     1
  0
XRECORD
  5
C050
102
{ACAD_REACTORS
330
C04A
102
}
330
C04A
100
AcDbXrecord
280
     1
270
     1
271
     1
  0
XRECORD
  5
C04D
102
{ACAD_REACTORS
330
C04A
102
}
330
C04A
100
AcDbXrecord
280
     1
270
     1
271
     1
  0
XRECORD
  5
C0BA
102
{ACAD_REACTORS
330
C05A
102
}
330
C05A
100
AcDbXrecord
280
     1
102
MATERIAL
148
0.0
149
0.0
149
0.0
 93
        0
 94
      127
282
     0
 72
     0
 77
     0
171
     0
175
     0
179
     0
273
     0
  0
XRECORD
  5
C05C
102
{ACAD_REACTORS
330
C05A
102
}
330
C05A
100
AcDbXrecord
280
     1
270
     1
271
     1
  0
XRECORD
  5
C05B
102
{ACAD_REACTORS
330
C05A
102
}
330
C05A
100
AcDbXrecord
280
     1
270
     1
271
     1
  0
XRECORD
  5
C05F
102
{ACAD_REACTORS
330
C05A
102
}
330
C05A
100
AcDbXrecord
280
     1
270
     1
271
     1
  0
XRECORD
  5
C05E
102
{ACAD_REACTORS
330
C05A
102
}
330
C05A
100
AcDbXrecord
280
     1
270
     1
271
     1
  0
XRECORD
  5
C060
102
{ACAD_REACTORS
330
C05A
102
}
330
C05A
100
AcDbXrecord
280
     1
270
     1
271
     1
  0
XRECORD
  5
C05D
102
{ACAD_REACTORS
330
C05A
102
}
330
C05A
100
AcDbXrecord
280
     1
270
     1
271
     1
  0
XRECORD
  5
C0EE
102
{ACAD_REACTORS
330
C0ED
102
}
330
C0ED
100
AcDbXrecord
280
     1
102
DISPLAYNAME
  1
Imperial24
102
FLAGS
 90
        0
  0
CELLSTYLEMAP
  5
C0B5
102
{ACAD_REACTORS
330
C0B4
102
}
330
C0B4
100
AcDbCellStyleMap
 90
        3
300
CELLSTYLE
  1
TABLEFORMAT_BEGIN
 90
        5
170
     1
 91
        0
 92
    32768
 62
   257
 93
        1
300
CONTENTFORMAT
  1
CONTENTFORMAT_BEGIN
 90
        0
 91
        0
 92
      512
 93
        0
300

 40
0.0
140
1.0
 94
        5
 62
     0
340
BE40
144
0.25
309
CONTENTFORMAT_END
171
     0
 94
        0
309
TABLEFORMAT_END
  1
CELLSTYLE_BEGIN
 90
        1
 91
        1
300
_TITLE
309
CELLSTYLE_END
300
CELLSTYLE
  1
TABLEFORMAT_BEGIN
 90
        5
170
     1
 91
        0
 92
        0
 62
   257
 93
        1
300
CONTENTFORMAT
  1
CONTENTFORMAT_BEGIN
 90
        0
 91
        0
 92
      512
 93
        0
300

 40
0.0
140
1.0
 94
        5
 62
     0
340
BE40
144
0.18
309
CONTENTFORMAT_END
171
     0
 94
        0
309
TABLEFORMAT_END
  1
CELLSTYLE_BEGIN
 90
        2
 91
        1
300
_HEADER
309
CELLSTYLE_END
300
CELLSTYLE
  1
TABLEFORMAT_BEGIN
 90
        5
170
     1
 91
        0
 92
        0
 62
   257
 93
        1
300
CONTENTFORMAT
  1
CONTENTFORMAT_BEGIN
 90
        0
 91
        0
 92
      512
 93
        0
300

 40
0.0
140
1.0
 94
        2
 62
     0
340
BE40
144
0.18
309
CONTENTFORMAT_END
171
     0
 94
        0
309
TABLEFORMAT_END
  1
CELLSTYLE_BEGIN
 90
        3
 91
        2
300
_DATA
309
CELLSTYLE_END
  0
XRECORD
  5
C0EB
102
{ACAD_REACTORS
330
C0B4
102
}
330
C0B4
100
AcDbXrecord
280
     1
102
ACAD_ROUNDTRIP_PRE2007_TABLESTYLE
 90
      512
 91
        0
  1

 92
      512
 93
        0
  2

 94
      512
 95
        0
  3

  0
XRECORD
  5
C0C6
102
{ACAD_REACTORS
330
C0C5
102
}
330
C0C5
100
AcDbXrecord
280
     1
102
RTVSPost2010Prop28
280
     1
102
RTVSPost2010PropOp28
 70
     1
102
RTVSPost2010Prop29
280
     1
102
RTVSPost2010PropOp29
 70
     1
102
RTVSPost2010Prop30
280
     0
102
RTVSPost2010PropOp30
 70
     1
102
RTVSPost2010Prop31
280
     0
102
RTVSPost2010PropOp31
 70
     1
102
RTVSPost2010Prop32
280
     0
102
RTVSPost2010PropOp32
 70
     1
102
RTVSPost2010Prop33
280
     0
102
RTVSPost2010PropOp33
 70
     1
102
RTVSPost2010Prop34
280
     0
102
RTVSPost2010PropOp34
 70
     1
102
RTVSPost2010Prop35
280
     0
102
RTVSPost2010PropOp35
 70
     1
102
RTVSPost2010Prop36
280
     0
102
RTVSPost2010PropOp36
 70
     1
102
RTVSPost2010Prop37
 90
       50
102
RTVSPost2010PropOp37
 70
     1
102
RTVSPost2010Prop38
140
0.0
102
RTVSPost2010PropOp38
 70
     1
102
RTVSPost2010Prop39
140
1.0
102
RTVSPost2010PropOp39
 70
     1
102
RTVSPost2010Prop40
 90
        0
102
RTVSPost2010PropOp40
 70
     1
102
RTVSPost2010Prop41ColorIndex
 90
       18
102
RTVSPost2010Prop41ColorRGB
 90
        0
102
RTVSPost2010PropOp41
 70
     1
102
RTVSPost2010Prop42
 90
       50
102
RTVSPost2010PropOp42
 70
     1
102
RTVSPost2010Prop43
 90
        3
102
RTVSPost2010PropOp43
 70
     1
102
RTVSPost2010Prop44ColorIndex
 90
        5
102
RTVSPost2010Prop44ColorRGB
 90
      255
102
RTVSPost2010PropOp44
 70
     1
102
RTVSPost2010Prop45
280
     0
102
RTVSPost2010PropOp45
 70
     1
102
RTVSPost2010Prop46
 90
       50
102
RTVSPost2010PropOp46
 70
     1
102
RTVSPost2010Prop47
 90
       50
102
RTVSPost2010PropOp47
 70
     1
102
RTVSPost2010Prop48
 90
       50
102
RTVSPost2010PropOp48
 70
     1
102
RTVSPost2010Prop49
280
     0
102
RTVSPost2010PropOp49
 70
     1
102
RTVSPost2010Prop50
 90
       50
102
RTVSPost2010PropOp50
 70
     1
102
RTVSPost2010Prop51ColorIndex
 90
      256
102
RTVSPost2010Prop51ColorRGB
 90
-16777216
102
RTVSPost2010PropOp51
 70
     0
102
RTVSPost2010Prop52
140
1.0
102
RTVSPost2010PropOp52
 70
     0
102
RTVSPost2010Prop53
 90
        2
102
RTVSPost2010PropOp53
 70
     1
102
RTVSPost2010Prop54
  1
strokes_ogs.tif
102
RTVSPost2010PropOp54
 70
     1
102
RTVSPost2010Prop55
280
     0
102
RTVSPost2010PropOp55
 70
     1
102
RTVSPost2010Prop56
140
1.0
102
RTVSPost2010PropOp56
 70
     1
102
RTVSPost2010Prop57
140
1.0
102
RTVSPost2010PropOp57
 70
     1
102
RTVSPropertyOp0
 70
     1
102
RTVSPropertyOp1
 70
     1
102
RTVSPropertyOp2
 70
     1
102
RTVSPropertyOp3
 70
     1
102
RTVSPropertyOp4
 70
     1
102
RTVSPropertyOp5
 70
     1
102
RTVSPropertyOp6
 70
     1
102
RTVSPropertyOp7
 70
     1
102
RTVSPropertyOp8
 70
     1
102
RTVSPropertyOp9
 70
     1
102
RTVSPropertyOp10
 70
     1
102
RTVSPropertyOp11
 70
     1
102
RTVSPropertyOp12
 70
     1
102
RTVSPropertyOp13
 70
     1
102
RTVSPropertyOp14
 70
     1
102
RTVSPropertyOp15
 70
     1
102
RTVSPropertyOp16
 70
     1
102
RTVSPropertyOp17
 70
     1
102
RTVSPropertyOp18
 70
     1
102
RTVSPropertyOp19
 70
     1
102
RTVSPropertyOp20
 70
     1
102
RTVSPropertyOp21
 70
     1
102
RTVSPropertyOp22
 70
     1
102
RTVSPropertyOp23
 70
     1
102
RTVSPropertyOp24
 70
     1
102
RTVSPropertyOp25
 70
     1
102
RTVSPropertyOp26
 70
     1
102
RTVSPropertyOp27
 70
     1
102
RTVSPropertyOp28
 70
     1
102
RTVSPropertyOp29
 70
     1
102
RTVSPropertyOp30
 70
     1
102
RTVSPropertyOp31
 70
     1
102
RTVSPropertyOp32
 70
     1
102
RTVSPropertyOp33
 70
     1
102
RTVSPropertyOp34
 70
     1
102
RTVSPropertyOp35
 70
     1
102
RTVSPropertyOp36
 70
     1
102
RTVSPropertyOp37
 70
     1
102
RTVSPropertyOp38
 70
     1
102
RTVSPropertyOp39
 70
     1
102
RTVSPropertyOp40
 70
     1
102
RTVSPropertyOp41
 70
     1
102
RTVSPropertyOp42
 70
     1
102
RTVSPropertyOp43
 70
     1
102
RTVSPropertyOp44
 70
     1
102
RTVSPropertyOp45
 70
     1
102
RTVSPropertyOp46
 70
     1
102
RTVSPropertyOp47
 70
     1
102
RTVSPropertyOp48
 70
     1
102
RTVSPropertyOp49
 70
     1
102
RTVSPropertyOp50
 70
     1
102
RTVSPropertyOp51
 70
     0
102
RTVSPropertyOp52
 70
     0
102
RTVSPropertyOp53
 70
     1
102
RTVSPropertyOp54
 70
     1
102
RTVSPropertyOp55
 70
     1
102
RTVSPropertyOp56
 70
     1
102
RTVSPropertyOp57
 70
     1
102
RTVSPropertyOp58
 70
     1
102
RTVSPropertyOp59
 70
     1
102
RTVSPropertyOp60
 70
     1
102
RTVSPropertyOp61
 70
     1
102
RTVSPropertyOp62
 70
     1
  0
XRECORD
  5
C0C4
102
{ACAD_REACTORS
330
C0C3
102
}
330
C0C3
100
AcDbXrecord
280
     1
102
RTVSPost2010Prop28
280
     0
102
RTVSPost2010PropOp28
 70
     1
102
RTVSPost2010Prop29
280
     1
102
RTVSPost2010PropOp29
 70
     1
102
RTVSPost2010Prop30
280
     1
102
RTVSPost2010PropOp30
 70
     1
102
RTVSPost2010Prop31
280
     0
102
RTVSPost2010PropOp31
 70
     1
102
RTVSPost2010Prop32
280
     0
102
RTVSPost2010PropOp32
 70
     1
102
RTVSPost2010Prop33
280
     0
102
RTVSPost2010PropOp33
 70
     1
102
RTVSPost2010Prop34
280
     0
102
RTVSPost2010PropOp34
 70
     1
102
RTVSPost2010Prop35
280
     0
102
RTVSPost2010PropOp35
 70
     1
102
RTVSPost2010Prop36
280
     0
102
RTVSPost2010PropOp36
 70
     1
102
RTVSPost2010Prop37
 90
       50
102
RTVSPost2010PropOp37
 70
     1
102
RTVSPost2010Prop38
140
0.0
102
RTVSPost2010PropOp38
 70
     1
102
RTVSPost2010Prop39
140
1.0
102
RTVSPost2010PropOp39
 70
     1
102
RTVSPost2010Prop40
 90
        0
102
RTVSPost2010PropOp40
 70
     1
102
RTVSPost2010Prop41ColorIndex
 90
       18
102
RTVSPost2010Prop41ColorRGB
 90
        0
102
RTVSPost2010PropOp41
 70
     1
102
RTVSPost2010Prop42
 90
       50
102
RTVSPost2010PropOp42
 70
     1
102
RTVSPost2010Prop43
 90
        3
102
RTVSPost2010PropOp43
 70
     1
102
RTVSPost2010Prop44ColorIndex
 90
        5
102
RTVSPost2010Prop44ColorRGB
 90
      255
102
RTVSPost2010PropOp44
 70
     1
102
RTVSPost2010Prop45
280
     0
102
RTVSPost2010PropOp45
 70
     1
102
RTVSPost2010Prop46
 90
       50
102
RTVSPost2010PropOp46
 70
     1
102
RTVSPost2010Prop47
 90
       50
102
RTVSPost2010PropOp47
 70
     1
102
RTVSPost2010Prop48
 90
       50
102
RTVSPost2010PropOp48
 70
     1
102
RTVSPost2010Prop49
280
     0
102
RTVSPost2010PropOp49
 70
     1
102
RTVSPost2010Prop50
 90
       50
102
RTVSPost2010PropOp50
 70
     1
102
RTVSPost2010Prop51ColorIndex
 90
      256
102
RTVSPost2010Prop51ColorRGB
 90
-16777216
102
RTVSPost2010PropOp51
 70
     0
102
RTVSPost2010Prop52
140
1.0
102
RTVSPost2010PropOp52
 70
     0
102
RTVSPost2010Prop53
 90
        2
102
RTVSPost2010PropOp53
 70
     1
102
RTVSPost2010Prop54
  1
strokes_ogs.tif
102
RTVSPost2010PropOp54
 70
     1
102
RTVSPost2010Prop55
280
     0
102
RTVSPost2010PropOp55
 70
     1
102
RTVSPost2010Prop56
140
1.0
102
RTVSPost2010PropOp56
 70
     1
102
RTVSPost2010Prop57
140
1.0
102
RTVSPost2010PropOp57
 70
     1
102
RTVSPropertyOp0
 70
     1
102
RTVSPropertyOp1
 70
     1
102
RTVSPropertyOp2
 70
     1
102
RTVSPropertyOp3
 70
     1
102
RTVSPropertyOp4
 70
     1
102
RTVSPropertyOp5
 70
     1
102
RTVSPropertyOp6
 70
     1
102
RTVSPropertyOp7
 70
     1
102
RTVSPropertyOp8
 70
     1
102
RTVSPropertyOp9
 70
     1
102
RTVSPropertyOp10
 70
     1
102
RTVSPropertyOp11
 70
     1
102
RTVSPropertyOp12
 70
     1
102
RTVSPropertyOp13
 70
     1
102
RTVSPropertyOp14
 70
     1
102
RTVSPropertyOp15
 70
     1
102
RTVSPropertyOp16
 70
     1
102
RTVSPropertyOp17
 70
     1
102
RTVSPropertyOp18
 70
     1
102
RTVSPropertyOp19
 70
     1
102
RTVSPropertyOp20
 70
     1
102
RTVSPropertyOp21
 70
     1
102
RTVSPropertyOp22
 70
     1
102
RTVSPropertyOp23
 70
     1
102
RTVSPropertyOp24
 70
     1
102
RTVSPropertyOp25
 70
     1
102
RTVSPropertyOp26
 70
     1
102
RTVSPropertyOp27
 70
     1
102
RTVSPropertyOp28
 70
     1
102
RTVSPropertyOp29
 70
     1
102
RTVSPropertyOp30
 70
     1
102
RTVSPropertyOp31
 70
     1
102
RTVSPropertyOp32
 70
     1
102
RTVSPropertyOp33
 70
     1
102
RTVSPropertyOp34
 70
     1
102
RTVSPropertyOp35
 70
     1
102
RTVSPropertyOp36
 70
     1
102
RTVSPropertyOp37
 70
     1
102
RTVSPropertyOp38
 70
     1
102
RTVSPropertyOp39
 70
     1
102
RTVSPropertyOp40
 70
     1
102
RTVSPropertyOp41
 70
     1
102
RTVSPropertyOp42
 70
     1
102
RTVSPropertyOp43
 70
     1
102
RTVSPropertyOp44
 70
     1
102
RTVSPropertyOp45
 70
     1
102
RTVSPropertyOp46
 70
     1
102
RTVSPropertyOp47
 70
     1
102
RTVSPropertyOp48
 70
     1
102
RTVSPropertyOp49
 70
     1
102
RTVSPropertyOp50
 70
     1
102
RTVSPropertyOp51
 70
     0
102
RTVSPropertyOp52
 70
     0
102
RTVSPropertyOp53
 70
     1
102
RTVSPropertyOp54
 70
     1
102
RTVSPropertyOp55
 70
     1
102
RTVSPropertyOp56
 70
     1
102
RTVSPropertyOp57
 70
     1
102
RTVSPropertyOp58
 70
     1
102
RTVSPropertyOp59
 70
     1
102
RTVSPropertyOp60
 70
     1
102
RTVSPropertyOp61
 70
     1
102
RTVSPropertyOp62
 70
     1
  0
XRECORD
  5
C0D2
102
{ACAD_REACTORS
330
C0D1
102
}
330
C0D1
100
AcDbXrecord
280
     1
102
RTVSPost2010Prop28
280
     0
102
RTVSPost2010PropOp28
 70
     1
102
RTVSPost2010Prop29
280
     1
102
RTVSPost2010PropOp29
 70
     1
102
RTVSPost2010Prop30
280
     1
102
RTVSPost2010PropOp30
 70
     1
102
RTVSPost2010Prop31
280
     0
102
RTVSPost2010PropOp31
 70
     1
102
RTVSPost2010Prop32
280
     0
102
RTVSPost2010PropOp32
 70
     1
102
RTVSPost2010Prop33
280
     0
102
RTVSPost2010PropOp33
 70
     1
102
RTVSPost2010Prop34
280
     0
102
RTVSPost2010PropOp34
 70
     1
102
RTVSPost2010Prop35
280
     0
102
RTVSPost2010PropOp35
 70
     1
102
RTVSPost2010Prop36
280
     0
102
RTVSPost2010PropOp36
 70
     1
102
RTVSPost2010Prop37
 90
       50
102
RTVSPost2010PropOp37
 70
     1
102
RTVSPost2010Prop38
140
0.0
102
RTVSPost2010PropOp38
 70
     1
102
RTVSPost2010Prop39
140
1.0
102
RTVSPost2010PropOp39
 70
     1
102
RTVSPost2010Prop40
 90
        0
102
RTVSPost2010PropOp40
 70
     1
102
RTVSPost2010Prop41ColorIndex
 90
       18
102
RTVSPost2010Prop41ColorRGB
 90
        0
102
RTVSPost2010PropOp41
 70
     1
102
RTVSPost2010Prop42
 90
       50
102
RTVSPost2010PropOp42
 70
     1
102
RTVSPost2010Prop43
 90
        3
102
RTVSPost2010PropOp43
 70
     1
102
RTVSPost2010Prop44ColorIndex
 90
        5
102
RTVSPost2010Prop44ColorRGB
 90
      255
102
RTVSPost2010PropOp44
 70
     1
102
RTVSPost2010Prop45
280
     0
102
RTVSPost2010PropOp45
 70
     1
102
RTVSPost2010Prop46
 90
       50
102
RTVSPost2010PropOp46
 70
     1
102
RTVSPost2010Prop47
 90
       50
102
RTVSPost2010PropOp47
 70
     1
102
RTVSPost2010Prop48
 90
       50
102
RTVSPost2010PropOp48
 70
     1
102
RTVSPost2010Prop49
280
     0
102
RTVSPost2010PropOp49
 70
     1
102
RTVSPost2010Prop50
 90
       50
102
RTVSPost2010PropOp50
 70
     1
102
RTVSPost2010Prop51ColorIndex
 90
      256
102
RTVSPost2010Prop51ColorRGB
 90
-16777216
102
RTVSPost2010PropOp51
 70
     0
102
RTVSPost2010Prop52
140
1.0
102
RTVSPost2010PropOp52
 70
     0
102
RTVSPost2010Prop53
 90
        2
102
RTVSPost2010PropOp53
 70
     1
102
RTVSPost2010Prop54
  1
strokes_ogs.tif
102
RTVSPost2010PropOp54
 70
     1
102
RTVSPost2010Prop55
280
     0
102
RTVSPost2010PropOp55
 70
     1
102
RTVSPost2010Prop56
140
1.0
102
RTVSPost2010PropOp56
 70
     1
102
RTVSPost2010Prop57
140
1.0
102
RTVSPost2010PropOp57
 70
     1
102
RTVSPropertyOp0
 70
     1
102
RTVSPropertyOp1
 70
     1
102
RTVSPropertyOp2
 70
     1
102
RTVSPropertyOp3
 70
     1
102
RTVSPropertyOp4
 70
     1
102
RTVSPropertyOp5
 70
     1
102
RTVSPropertyOp6
 70
     1
102
RTVSPropertyOp7
 70
     1
102
RTVSPropertyOp8
 70
     1
102
RTVSPropertyOp9
 70
     1
102
RTVSPropertyOp10
 70
     1
102
RTVSPropertyOp11
 70
     1
102
RTVSPropertyOp12
 70
     1
102
RTVSPropertyOp13
 70
     1
102
RTVSPropertyOp14
 70
     1
102
RTVSPropertyOp15
 70
     1
102
RTVSPropertyOp16
 70
     1
102
RTVSPropertyOp17
 70
     1
102
RTVSPropertyOp18
 70
     1
102
RTVSPropertyOp19
 70
     1
102
RTVSPropertyOp20
 70
     1
102
RTVSPropertyOp21
 70
     1
102
RTVSPropertyOp22
 70
     1
102
RTVSPropertyOp23
 70
     1
102
RTVSPropertyOp24
 70
     1
102
RTVSPropertyOp25
 70
     1
102
RTVSPropertyOp26
 70
     1
102
RTVSPropertyOp27
 70
     1
102
RTVSPropertyOp28
 70
     1
102
RTVSPropertyOp29
 70
     1
102
RTVSPropertyOp30
 70
     1
102
RTVSPropertyOp31
 70
     1
102
RTVSPropertyOp32
 70
     1
102
RTVSPropertyOp33
 70
     1
102
RTVSPropertyOp34
 70
     1
102
RTVSPropertyOp35
 70
     1
102
RTVSPropertyOp36
 70
     1
102
RTVSPropertyOp37
 70
     1
102
RTVSPropertyOp38
 70
     1
102
RTVSPropertyOp39
 70
     1
102
RTVSPropertyOp40
 70
     1
102
RTVSPropertyOp41
 70
     1
102
RTVSPropertyOp42
 70
     1
102
RTVSPropertyOp43
 70
     1
102
RTVSPropertyOp44
 70
     1
102
RTVSPropertyOp45
 70
     1
102
RTVSPropertyOp46
 70
     1
102
RTVSPropertyOp47
 70
     1
102
RTVSPropertyOp48
 70
     1
102
RTVSPropertyOp49
 70
     1
102
RTVSPropertyOp50
 70
     1
102
RTVSPropertyOp51
 70
     0
102
RTVSPropertyOp52
 70
     0
102
RTVSPropertyOp53
 70
     1
102
RTVSPropertyOp54
 70
     1
102
RTVSPropertyOp55
 70
     1
102
RTVSPropertyOp56
 70
     1
102
RTVSPropertyOp57
 70
     1
102
RTVSPropertyOp58
 70
     1
102
RTVSPropertyOp59
 70
     1
102
RTVSPropertyOp60
 70
     1
102
RTVSPropertyOp61
 70
     1
102
RTVSPropertyOp62
 70
     1
  0
XRECORD
  5
C0DA
102
{ACAD_REACTORS
330
C0D9
102
}
330
C0D9
100
AcDbXrecord
280
     1
102
RTVSPost2010Prop28
280
     0
102
RTVSPost2010PropOp28
 70
     1
102
RTVSPost2010Prop29
280
     1
102
RTVSPost2010PropOp29
 70
     1
102
RTVSPost2010Prop30
280
     1
102
RTVSPost2010PropOp30
 70
     1
102
RTVSPost2010Prop31
280
     0
102
RTVSPost2010PropOp31
 70
     1
102
RTVSPost2010Prop32
280
     0
102
RTVSPost2010PropOp32
 70
     1
102
RTVSPost2010Prop33
280
     0
102
RTVSPost2010PropOp33
 70
     1
102
RTVSPost2010Prop34
280
     0
102
RTVSPost2010PropOp34
 70
     1
102
RTVSPost2010Prop35
280
     0
102
RTVSPost2010PropOp35
 70
     1
102
RTVSPost2010Prop36
280
     0
102
RTVSPost2010PropOp36
 70
     1
102
RTVSPost2010Prop37
 90
       50
102
RTVSPost2010PropOp37
 70
     1
102
RTVSPost2010Prop38
140
0.0
102
RTVSPost2010PropOp38
 70
     1
102
RTVSPost2010Prop39
140
1.0
102
RTVSPost2010PropOp39
 70
     1
102
RTVSPost2010Prop40
 90
        0
102
RTVSPost2010PropOp40
 70
     1
102
RTVSPost2010Prop41ColorIndex
 90
       18
102
RTVSPost2010Prop41ColorRGB
 90
        0
102
RTVSPost2010PropOp41
 70
     1
102
RTVSPost2010Prop42
 90
       50
102
RTVSPost2010PropOp42
 70
     1
102
RTVSPost2010Prop43
 90
        3
102
RTVSPost2010PropOp43
 70
     1
102
RTVSPost2010Prop44ColorIndex
 90
        5
102
RTVSPost2010Prop44ColorRGB
 90
      255
102
RTVSPost2010PropOp44
 70
     1
102
RTVSPost2010Prop45
280
     0
102
RTVSPost2010PropOp45
 70
     1
102
RTVSPost2010Prop46
 90
       50
102
RTVSPost2010PropOp46
 70
     1
102
RTVSPost2010Prop47
 90
       50
102
RTVSPost2010PropOp47
 70
     1
102
RTVSPost2010Prop48
 90
       50
102
RTVSPost2010PropOp48
 70
     1
102
RTVSPost2010Prop49
280
     0
102
RTVSPost2010PropOp49
 70
     1
102
RTVSPost2010Prop50
 90
       50
102
RTVSPost2010PropOp50
 70
     1
102
RTVSPost2010Prop51ColorIndex
 90
      256
102
RTVSPost2010Prop51ColorRGB
 90
-16777216
102
RTVSPost2010PropOp51
 70
     0
102
RTVSPost2010Prop52
140
1.0
102
RTVSPost2010PropOp52
 70
     0
102
RTVSPost2010Prop53
 90
        2
102
RTVSPost2010PropOp53
 70
     1
102
RTVSPost2010Prop54
  1
strokes_ogs.tif
102
RTVSPost2010PropOp54
 70
     1
102
RTVSPost2010Prop55
280
     0
102
RTVSPost2010PropOp55
 70
     1
102
RTVSPost2010Prop56
140
1.0
102
RTVSPost2010PropOp56
 70
     1
102
RTVSPost2010Prop57
140
1.0
102
RTVSPost2010PropOp57
 70
     1
102
RTVSPropertyOp0
 70
     1
102
RTVSPropertyOp1
 70
     1
102
RTVSPropertyOp2
 70
     1
102
RTVSPropertyOp3
 70
     1
102
RTVSPropertyOp4
 70
     1
102
RTVSPropertyOp5
 70
     1
102
RTVSPropertyOp6
 70
     1
102
RTVSPropertyOp7
 70
     1
102
RTVSPropertyOp8
 70
     1
102
RTVSPropertyOp9
 70
     1
102
RTVSPropertyOp10
 70
     1
102
RTVSPropertyOp11
 70
     1
102
RTVSPropertyOp12
 70
     1
102
RTVSPropertyOp13
 70
     1
102
RTVSPropertyOp14
 70
     1
102
RTVSPropertyOp15
 70
     1
102
RTVSPropertyOp16
 70
     1
102
RTVSPropertyOp17
 70
     1
102
RTVSPropertyOp18
 70
     1
102
RTVSPropertyOp19
 70
     1
102
RTVSPropertyOp20
 70
     1
102
RTVSPropertyOp21
 70
     1
102
RTVSPropertyOp22
 70
     1
102
RTVSPropertyOp23
 70
     1
102
RTVSPropertyOp24
 70
     1
102
RTVSPropertyOp25
 70
     1
102
RTVSPropertyOp26
 70
     1
102
RTVSPropertyOp27
 70
     1
102
RTVSPropertyOp28
 70
     1
102
RTVSPropertyOp29
 70
     1
102
RTVSPropertyOp30
 70
     1
102
RTVSPropertyOp31
 70
     1
102
RTVSPropertyOp32
 70
     1
102
RTVSPropertyOp33
 70
     1
102
RTVSPropertyOp34
 70
     1
102
RTVSPropertyOp35
 70
     1
102
RTVSPropertyOp36
 70
     1
102
RTVSPropertyOp37
 70
     1
102
RTVSPropertyOp38
 70
     1
102
RTVSPropertyOp39
 70
     1
102
RTVSPropertyOp40
 70
     1
102
RTVSPropertyOp41
 70
     1
102
RTVSPropertyOp42
 70
     1
102
RTVSPropertyOp43
 70
     1
102
RTVSPropertyOp44
 70
     1
102
RTVSPropertyOp45
 70
     1
102
RTVSPropertyOp46
 70
     1
102
RTVSPropertyOp47
 70
     1
102
RTVSPropertyOp48
 70
     1
102
RTVSPropertyOp49
 70
     1
102
RTVSPropertyOp50
 70
     1
102
RTVSPropertyOp51
 70
     0
102
RTVSPropertyOp52
 70
     0
102
RTVSPropertyOp53
 70
     1
102
RTVSPropertyOp54
 70
     1
102
RTVSPropertyOp55
 70
     1
102
RTVSPropertyOp56
 70
     1
102
RTVSPropertyOp57
 70
     1
102
RTVSPropertyOp58
 70
     1
102
RTVSPropertyOp59
 70
     1
102
RTVSPropertyOp60
 70
     1
102
RTVSPropertyOp61
 70
     1
102
RTVSPropertyOp62
 70
     1
  0
XRECORD
  5
C0CC
102
{ACAD_REACTORS
330
C0CB
102
}
330
C0CB
100
AcDbXrecord
280
     1
102
RTVSPost2010Prop28
280
     0
102
RTVSPost2010PropOp28
 70
     1
102
RTVSPost2010Prop29
280
     1
102
RTVSPost2010PropOp29
 70
     1
102
RTVSPost2010Prop30
280
     1
102
RTVSPost2010PropOp30
 70
     1
102
RTVSPost2010Prop31
280
     0
102
RTVSPost2010PropOp31
 70
     1
102
RTVSPost2010Prop32
280
     0
102
RTVSPost2010PropOp32
 70
     1
102
RTVSPost2010Prop33
280
     0
102
RTVSPost2010PropOp33
 70
     1
102
RTVSPost2010Prop34
280
     0
102
RTVSPost2010PropOp34
 70
     1
102
RTVSPost2010Prop35
280
     0
102
RTVSPost2010PropOp35
 70
     1
102
RTVSPost2010Prop36
280
     0
102
RTVSPost2010PropOp36
 70
     1
102
RTVSPost2010Prop37
 90
       50
102
RTVSPost2010PropOp37
 70
     1
102
RTVSPost2010Prop38
140
0.0
102
RTVSPost2010PropOp38
 70
     1
102
RTVSPost2010Prop39
140
1.0
102
RTVSPost2010PropOp39
 70
     1
102
RTVSPost2010Prop40
 90
        0
102
RTVSPost2010PropOp40
 70
     1
102
RTVSPost2010Prop41ColorIndex
 90
       18
102
RTVSPost2010Prop41ColorRGB
 90
        0
102
RTVSPost2010PropOp41
 70
     1
102
RTVSPost2010Prop42
 90
       50
102
RTVSPost2010PropOp42
 70
     1
102
RTVSPost2010Prop43
 90
        3
102
RTVSPost2010PropOp43
 70
     1
102
RTVSPost2010Prop44ColorIndex
 90
        5
102
RTVSPost2010Prop44ColorRGB
 90
      255
102
RTVSPost2010PropOp44
 70
     1
102
RTVSPost2010Prop45
280
     0
102
RTVSPost2010PropOp45
 70
     1
102
RTVSPost2010Prop46
 90
       50
102
RTVSPost2010PropOp46
 70
     1
102
RTVSPost2010Prop47
 90
       50
102
RTVSPost2010PropOp47
 70
     1
102
RTVSPost2010Prop48
 90
       50
102
RTVSPost2010PropOp48
 70
     1
102
RTVSPost2010Prop49
280
     0
102
RTVSPost2010PropOp49
 70
     1
102
RTVSPost2010Prop50
 90
       50
102
RTVSPost2010PropOp50
 70
     1
102
RTVSPost2010Prop51ColorIndex
 90
      256
102
RTVSPost2010Prop51ColorRGB
 90
-16777216
102
RTVSPost2010PropOp51
 70
     0
102
RTVSPost2010Prop52
140
1.0
102
RTVSPost2010PropOp52
 70
     0
102
RTVSPost2010Prop53
 90
        2
102
RTVSPost2010PropOp53
 70
     1
102
RTVSPost2010Prop54
  1
strokes_ogs.tif
102
RTVSPost2010PropOp54
 70
     1
102
RTVSPost2010Prop55
280
     0
102
RTVSPost2010PropOp55
 70
     1
102
RTVSPost2010Prop56
140
1.0
102
RTVSPost2010PropOp56
 70
     1
102
RTVSPost2010Prop57
140
1.0
102
RTVSPost2010PropOp57
 70
     1
102
RTVSPropertyOp0
 70
     1
102
RTVSPropertyOp1
 70
     1
102
RTVSPropertyOp2
 70
     1
102
RTVSPropertyOp3
 70
     1
102
RTVSPropertyOp4
 70
     1
102
RTVSPropertyOp5
 70
     1
102
RTVSPropertyOp6
 70
     1
102
RTVSPropertyOp7
 70
     1
102
RTVSPropertyOp8
 70
     1
102
RTVSPropertyOp9
 70
     1
102
RTVSPropertyOp10
 70
     1
102
RTVSPropertyOp11
 70
     1
102
RTVSPropertyOp12
 70
     1
102
RTVSPropertyOp13
 70
     1
102
RTVSPropertyOp14
 70
     1
102
RTVSPropertyOp15
 70
     1
102
RTVSPropertyOp16
 70
     1
102
RTVSPropertyOp17
 70
     1
102
RTVSPropertyOp18
 70
     1
102
RTVSPropertyOp19
 70
     1
102
RTVSPropertyOp20
 70
     1
102
RTVSPropertyOp21
 70
     1
102
RTVSPropertyOp22
 70
     1
102
RTVSPropertyOp23
 70
     1
102
RTVSPropertyOp24
 70
     1
102
RTVSPropertyOp25
 70
     1
102
RTVSPropertyOp26
 70
     1
102
RTVSPropertyOp27
 70
     1
102
RTVSPropertyOp28
 70
     1
102
RTVSPropertyOp29
 70
     1
102
RTVSPropertyOp30
 70
     1
102
RTVSPropertyOp31
 70
     1
102
RTVSPropertyOp32
 70
     1
102
RTVSPropertyOp33
 70
     1
102
RTVSPropertyOp34
 70
     1
102
RTVSPropertyOp35
 70
     1
102
RTVSPropertyOp36
 70
     1
102
RTVSPropertyOp37
 70
     1
102
RTVSPropertyOp38
 70
     1
102
RTVSPropertyOp39
 70
     1
102
RTVSPropertyOp40
 70
     1
102
RTVSPropertyOp41
 70
     1
102
RTVSPropertyOp42
 70
     1
102
RTVSPropertyOp43
 70
     1
102
RTVSPropertyOp44
 70
     1
102
RTVSPropertyOp45
 70
     1
102
RTVSPropertyOp46
 70
     1
102
RTVSPropertyOp47
 70
     1
102
RTVSPropertyOp48
 70
     1
102
RTVSPropertyOp49
 70
     1
102
RTVSPropertyOp50
 70
     1
102
RTVSPropertyOp51
 70
     0
102
RTVSPropertyOp52
 70
     0
102
RTVSPropertyOp53
 70
     1
102
RTVSPropertyOp54
 70
     1
102
RTVSPropertyOp55
 70
     1
102
RTVSPropertyOp56
 70
     1
102
RTVSPropertyOp57
 70
     1
102
RTVSPropertyOp58
 70
     1
102
RTVSPropertyOp59
 70
     1
102
RTVSPropertyOp60
 70
     1
102
RTVSPropertyOp61
 70
     1
102
RTVSPropertyOp62
 70
     1
  0
XRECORD
  5
C0D0
102
{ACAD_REACTORS
330
C0CF
102
}
330
C0CF
100
AcDbXrecord
280
     1
102
RTVSPost2010Prop28
280
     0
102
RTVSPost2010PropOp28
 70
     1
102
RTVSPost2010Prop29
280
     1
102
RTVSPost2010PropOp29
 70
     1
102
RTVSPost2010Prop30
280
     1
102
RTVSPost2010PropOp30
 70
     1
102
RTVSPost2010Prop31
280
     0
102
RTVSPost2010PropOp31
 70
     1
102
RTVSPost2010Prop32
280
     0
102
RTVSPost2010PropOp32
 70
     1
102
RTVSPost2010Prop33
280
     0
102
RTVSPost2010PropOp33
 70
     1
102
RTVSPost2010Prop34
280
     0
102
RTVSPost2010PropOp34
 70
     1
102
RTVSPost2010Prop35
280
     0
102
RTVSPost2010PropOp35
 70
     1
102
RTVSPost2010Prop36
280
     0
102
RTVSPost2010PropOp36
 70
     1
102
RTVSPost2010Prop37
 90
       50
102
RTVSPost2010PropOp37
 70
     1
102
RTVSPost2010Prop38
140
0.0
102
RTVSPost2010PropOp38
 70
     1
102
RTVSPost2010Prop39
140
1.0
102
RTVSPost2010PropOp39
 70
     1
102
RTVSPost2010Prop40
 90
        0
102
RTVSPost2010PropOp40
 70
     1
102
RTVSPost2010Prop41ColorIndex
 90
       18
102
RTVSPost2010Prop41ColorRGB
 90
        0
102
RTVSPost2010PropOp41
 70
     1
102
RTVSPost2010Prop42
 90
       50
102
RTVSPost2010PropOp42
 70
     1
102
RTVSPost2010Prop43
 90
        3
102
RTVSPost2010PropOp43
 70
     1
102
RTVSPost2010Prop44ColorIndex
 90
        5
102
RTVSPost2010Prop44ColorRGB
 90
      255
102
RTVSPost2010PropOp44
 70
     1
102
RTVSPost2010Prop45
280
     0
102
RTVSPost2010PropOp45
 70
     1
102
RTVSPost2010Prop46
 90
       50
102
RTVSPost2010PropOp46
 70
     1
102
RTVSPost2010Prop47
 90
       50
102
RTVSPost2010PropOp47
 70
     1
102
RTVSPost2010Prop48
 90
       50
102
RTVSPost2010PropOp48
 70
     1
102
RTVSPost2010Prop49
280
     0
102
RTVSPost2010PropOp49
 70
     1
102
RTVSPost2010Prop50
 90
       50
102
RTVSPost2010PropOp50
 70
     1
102
RTVSPost2010Prop51ColorIndex
 90
      256
102
RTVSPost2010Prop51ColorRGB
 90
-16777216
102
RTVSPost2010PropOp51
 70
     0
102
RTVSPost2010Prop52
140
1.0
102
RTVSPost2010PropOp52
 70
     0
102
RTVSPost2010Prop53
 90
        2
102
RTVSPost2010PropOp53
 70
     1
102
RTVSPost2010Prop54
  1
strokes_ogs.tif
102
RTVSPost2010PropOp54
 70
     1
102
RTVSPost2010Prop55
280
     0
102
RTVSPost2010PropOp55
 70
     1
102
RTVSPost2010Prop56
140
1.0
102
RTVSPost2010PropOp56
 70
     1
102
RTVSPost2010Prop57
140
1.0
102
RTVSPost2010PropOp57
 70
     1
102
RTVSPropertyOp0
 70
     1
102
RTVSPropertyOp1
 70
     1
102
RTVSPropertyOp2
 70
     1
102
RTVSPropertyOp3
 70
     1
102
RTVSPropertyOp4
 70
     1
102
RTVSPropertyOp5
 70
     1
102
RTVSPropertyOp6
 70
     1
102
RTVSPropertyOp7
 70
     1
102
RTVSPropertyOp8
 70
     1
102
RTVSPropertyOp9
 70
     1
102
RTVSPropertyOp10
 70
     1
102
RTVSPropertyOp11
 70
     1
102
RTVSPropertyOp12
 70
     1
102
RTVSPropertyOp13
 70
     1
102
RTVSPropertyOp14
 70
     1
102
RTVSPropertyOp15
 70
     1
102
RTVSPropertyOp16
 70
     1
102
RTVSPropertyOp17
 70
     1
102
RTVSPropertyOp18
 70
     1
102
RTVSPropertyOp19
 70
     1
102
RTVSPropertyOp20
 70
     1
102
RTVSPropertyOp21
 70
     1
102
RTVSPropertyOp22
 70
     1
102
RTVSPropertyOp23
 70
     1
102
RTVSPropertyOp24
 70
     1
102
RTVSPropertyOp25
 70
     1
102
RTVSPropertyOp26
 70
     1
102
RTVSPropertyOp27
 70
     1
102
RTVSPropertyOp28
 70
     1
102
RTVSPropertyOp29
 70
     1
102
RTVSPropertyOp30
 70
     1
102
RTVSPropertyOp31
 70
     1
102
RTVSPropertyOp32
 70
     1
102
RTVSPropertyOp33
 70
     1
102
RTVSPropertyOp34
 70
     1
102
RTVSPropertyOp35
 70
     1
102
RTVSPropertyOp36
 70
     1
102
RTVSPropertyOp37
 70
     1
102
RTVSPropertyOp38
 70
     1
102
RTVSPropertyOp39
 70
     1
102
RTVSPropertyOp40
 70
     1
102
RTVSPropertyOp41
 70
     1
102
RTVSPropertyOp42
 70
     1
102
RTVSPropertyOp43
 70
     1
102
RTVSPropertyOp44
 70
     1
102
RTVSPropertyOp45
 70
     1
102
RTVSPropertyOp46
 70
     1
102
RTVSPropertyOp47
 70
     1
102
RTVSPropertyOp48
 70
     1
102
RTVSPropertyOp49
 70
     1
102
RTVSPropertyOp50
 70
     1
102
RTVSPropertyOp51
 70
     0
102
RTVSPropertyOp52
 70
     0
102
RTVSPropertyOp53
 70
     1
102
RTVSPropertyOp54
 70
     1
102
RTVSPropertyOp55
 70
     1
102
RTVSPropertyOp56
 70
     1
102
RTVSPropertyOp57
 70
     1
102
RTVSPropertyOp58
 70
     1
102
RTVSPropertyOp59
 70
     1
102
RTVSPropertyOp60
 70
     1
102
RTVSPropertyOp61
 70
     1
102
RTVSPropertyOp62
 70
     1
  0
XRECORD
  5
C0EA
102
{ACAD_REACTORS
330
C0E9
102
}
330
C0E9
100
AcDbXrecord
280
     1
102
RTVSPost2010Prop28
280
     0
102
RTVSPost2010PropOp28
 70
     1
102
RTVSPost2010Prop29
280
     1
102
RTVSPost2010PropOp29
 70
     1
102
RTVSPost2010Prop30
280
     1
102
RTVSPost2010PropOp30
 70
     1
102
RTVSPost2010Prop31
280
     0
102
RTVSPost2010PropOp31
 70
     1
102
RTVSPost2010Prop32
280
     0
102
RTVSPost2010PropOp32
 70
     1
102
RTVSPost2010Prop33
280
     0
102
RTVSPost2010PropOp33
 70
     1
102
RTVSPost2010Prop34
280
     0
102
RTVSPost2010PropOp34
 70
     1
102
RTVSPost2010Prop35
280
     0
102
RTVSPost2010PropOp35
 70
     1
102
RTVSPost2010Prop36
280
     0
102
RTVSPost2010PropOp36
 70
     1
102
RTVSPost2010Prop37
 90
       50
102
RTVSPost2010PropOp37
 70
     0
102
RTVSPost2010Prop38
140
0.0
102
RTVSPost2010PropOp38
 70
     0
102
RTVSPost2010Prop39
140
1.0
102
RTVSPost2010PropOp39
 70
     0
102
RTVSPost2010Prop40
 90
        0
102
RTVSPost2010PropOp40
 70
     0
102
RTVSPost2010Prop41ColorIndex
 90
       18
102
RTVSPost2010Prop41ColorRGB
 90
        0
102
RTVSPost2010PropOp41
 70
     0
102
RTVSPost2010Prop42
 90
       50
102
RTVSPost2010PropOp42
 70
     0
102
RTVSPost2010Prop43
 90
        3
102
RTVSPost2010PropOp43
 70
     0
102
RTVSPost2010Prop44ColorIndex
 90
        5
102
RTVSPost2010Prop44ColorRGB
 90
      255
102
RTVSPost2010PropOp44
 70
     0
102
RTVSPost2010Prop45
280
     0
102
RTVSPost2010PropOp45
 70
     1
102
RTVSPost2010Prop46
 90
       50
102
RTVSPost2010PropOp46
 70
     0
102
RTVSPost2010Prop47
 90
       50
102
RTVSPost2010PropOp47
 70
     0
102
RTVSPost2010Prop48
 90
       50
102
RTVSPost2010PropOp48
 70
     0
102
RTVSPost2010Prop49
280
     0
102
RTVSPost2010PropOp49
 70
     1
102
RTVSPost2010Prop50
 90
       50
102
RTVSPost2010PropOp50
 70
     0
102
RTVSPost2010Prop51ColorIndex
 90
      256
102
RTVSPost2010Prop51ColorRGB
 90
-16777216
102
RTVSPost2010PropOp51
 70
     0
102
RTVSPost2010Prop52
140
1.0
102
RTVSPost2010PropOp52
 70
     0
102
RTVSPost2010Prop53
 90
        2
102
RTVSPost2010PropOp53
 70
     0
102
RTVSPost2010Prop54
  1
strokes_ogs.tif
102
RTVSPost2010PropOp54
 70
     0
102
RTVSPost2010Prop55
280
     0
102
RTVSPost2010PropOp55
 70
     1
102
RTVSPost2010Prop56
140
1.0
102
RTVSPost2010PropOp56
 70
     0
102
RTVSPost2010Prop57
140
1.0
102
RTVSPost2010PropOp57
 70
     0
102
RTVSPropertyOp0
 70
     0
102
RTVSPropertyOp1
 70
     0
102
RTVSPropertyOp2
 70
     0
102
RTVSPropertyOp3
 70
     0
102
RTVSPropertyOp4
 70
     0
102
RTVSPropertyOp5
 70
     0
102
RTVSPropertyOp6
 70
     0
102
RTVSPropertyOp7
 70
     0
102
RTVSPropertyOp8
 70
     0
102
RTVSPropertyOp9
 70
     0
102
RTVSPropertyOp10
 70
     0
102
RTVSPropertyOp11
 70
     0
102
RTVSPropertyOp12
 70
     0
102
RTVSPropertyOp13
 70
     0
102
RTVSPropertyOp14
 70
     2
102
RTVSPropertyOp15
 70
     0
102
RTVSPropertyOp16
 70
     0
102
RTVSPropertyOp17
 70
     0
102
RTVSPropertyOp18
 70
     0
102
RTVSPropertyOp19
 70
     0
102
RTVSPropertyOp20
 70
     0
102
RTVSPropertyOp21
 70
     0
102
RTVSPropertyOp22
 70
     0
102
RTVSPropertyOp23
 70
     0
102
RTVSPropertyOp24
 70
     0
102
RTVSPropertyOp25
 70
     0
102
RTVSPropertyOp26
 70
     0
102
RTVSPropertyOp27
 70
     0
102
RTVSPropertyOp28
 70
     1
102
RTVSPropertyOp29
 70
     1
102
RTVSPropertyOp30
 70
     1
102
RTVSPropertyOp31
 70
     1
102
RTVSPropertyOp32
 70
     1
102
RTVSPropertyOp33
 70
     1
102
RTVSPropertyOp34
 70
     1
102
RTVSPropertyOp35
 70
     1
102
RTVSPropertyOp36
 70
     1
102
RTVSPropertyOp37
 70
     0
102
RTVSPropertyOp38
 70
     0
102
RTVSPropertyOp39
 70
     0
102
RTVSPropertyOp40
 70
     0
102
RTVSPropertyOp41
 70
     0
102
RTVSPropertyOp42
 70
     0
102
RTVSPropertyOp43
 70
     0
102
RTVSPropertyOp44
 70
     0
102
RTVSPropertyOp45
 70
     1
102
RTVSPropertyOp46
 70
     0
102
RTVSPropertyOp47
 70
     0
102
RTVSPropertyOp48
 70
     0
102
RTVSPropertyOp49
 70
     1
102
RTVSPropertyOp50
 70
     0
102
RTVSPropertyOp51
 70
     0
102
RTVSPropertyOp52
 70
     0
102
RTVSPropertyOp53
 70
     0
102
RTVSPropertyOp54
 70
     0
102
RTVSPropertyOp55
 70
     1
102
RTVSPropertyOp56
 70
     0
102
RTVSPropertyOp57
 70
     0
102
RTVSPropertyOp58
 70
     0
102
RTVSPropertyOp59
 70
     0
102
RTVSPropertyOp60
 70
     0
102
RTVSPropertyOp61
 70
     0
102
RTVSPropertyOp62
 70
     0
  0
XRECORD
  5
C0D8
102
{ACAD_REACTORS
330
C0D7
102
}
330
C0D7
100
AcDbXrecord
280
     1
102
RTVSPost2010Prop28
280
     0
102
RTVSPost2010PropOp28
 70
     1
102
RTVSPost2010Prop29
280
     1
102
RTVSPost2010PropOp29
 70
     1
102
RTVSPost2010Prop30
280
     1
102
RTVSPost2010PropOp30
 70
     1
102
RTVSPost2010Prop31
280
     0
102
RTVSPost2010PropOp31
 70
     1
102
RTVSPost2010Prop32
280
     0
102
RTVSPost2010PropOp32
 70
     1
102
RTVSPost2010Prop33
280
     0
102
RTVSPost2010PropOp33
 70
     1
102
RTVSPost2010Prop34
280
     0
102
RTVSPost2010PropOp34
 70
     1
102
RTVSPost2010Prop35
280
     0
102
RTVSPost2010PropOp35
 70
     1
102
RTVSPost2010Prop36
280
     0
102
RTVSPost2010PropOp36
 70
     1
102
RTVSPost2010Prop37
 90
       50
102
RTVSPost2010PropOp37
 70
     1
102
RTVSPost2010Prop38
140
0.0
102
RTVSPost2010PropOp38
 70
     1
102
RTVSPost2010Prop39
140
1.0
102
RTVSPost2010PropOp39
 70
     1
102
RTVSPost2010Prop40
 90
        0
102
RTVSPost2010PropOp40
 70
     1
102
RTVSPost2010Prop41ColorIndex
 90
       18
102
RTVSPost2010Prop41ColorRGB
 90
        0
102
RTVSPost2010PropOp41
 70
     1
102
RTVSPost2010Prop42
 90
       50
102
RTVSPost2010PropOp42
 70
     1
102
RTVSPost2010Prop43
 90
        3
102
RTVSPost2010PropOp43
 70
     1
102
RTVSPost2010Prop44ColorIndex
 90
        5
102
RTVSPost2010Prop44ColorRGB
 90
      255
102
RTVSPost2010PropOp44
 70
     1
102
RTVSPost2010Prop45
280
     0
102
RTVSPost2010PropOp45
 70
     1
102
RTVSPost2010Prop46
 90
       50
102
RTVSPost2010PropOp46
 70
     1
102
RTVSPost2010Prop47
 90
       50
102
RTVSPost2010PropOp47
 70
     1
102
RTVSPost2010Prop48
 90
       50
102
RTVSPost2010PropOp48
 70
     1
102
RTVSPost2010Prop49
280
     0
102
RTVSPost2010PropOp49
 70
     1
102
RTVSPost2010Prop50
 90
       50
102
RTVSPost2010PropOp50
 70
     1
102
RTVSPost2010Prop51ColorIndex
 90
      256
102
RTVSPost2010Prop51ColorRGB
 90
-16777216
102
RTVSPost2010PropOp51
 70
     0
102
RTVSPost2010Prop52
140
1.0
102
RTVSPost2010PropOp52
 70
     0
102
RTVSPost2010Prop53
 90
        2
102
RTVSPost2010PropOp53
 70
     1
102
RTVSPost2010Prop54
  1
strokes_ogs.tif
102
RTVSPost2010PropOp54
 70
     1
102
RTVSPost2010Prop55
280
     0
102
RTVSPost2010PropOp55
 70
     1
102
RTVSPost2010Prop56
140
1.0
102
RTVSPost2010PropOp56
 70
     1
102
RTVSPost2010Prop57
140
1.0
102
RTVSPost2010PropOp57
 70
     1
102
RTVSPropertyOp0
 70
     1
102
RTVSPropertyOp1
 70
     1
102
RTVSPropertyOp2
 70
     1
102
RTVSPropertyOp3
 70
     1
102
RTVSPropertyOp4
 70
     1
102
RTVSPropertyOp5
 70
     1
102
RTVSPropertyOp6
 70
     1
102
RTVSPropertyOp7
 70
     1
102
RTVSPropertyOp8
 70
     1
102
RTVSPropertyOp9
 70
     1
102
RTVSPropertyOp10
 70
     1
102
RTVSPropertyOp11
 70
     1
102
RTVSPropertyOp12
 70
     1
102
RTVSPropertyOp13
 70
     1
102
RTVSPropertyOp14
 70
     1
102
RTVSPropertyOp15
 70
     1
102
RTVSPropertyOp16
 70
     1
102
RTVSPropertyOp17
 70
     1
102
RTVSPropertyOp18
 70
     1
102
RTVSPropertyOp19
 70
     1
102
RTVSPropertyOp20
 70
     1
102
RTVSPropertyOp21
 70
     1
102
RTVSPropertyOp22
 70
     1
102
RTVSPropertyOp23
 70
     1
102
RTVSPropertyOp24
 70
     1
102
RTVSPropertyOp25
 70
     1
102
RTVSPropertyOp26
 70
     1
102
RTVSPropertyOp27
 70
     1
102
RTVSPropertyOp28
 70
     1
102
RTVSPropertyOp29
 70
     1
102
RTVSPropertyOp30
 70
     1
102
RTVSPropertyOp31
 70
     1
102
RTVSPropertyOp32
 70
     1
102
RTVSPropertyOp33
 70
     1
102
RTVSPropertyOp34
 70
     1
102
RTVSPropertyOp35
 70
     1
102
RTVSPropertyOp36
 70
     1
102
RTVSPropertyOp37
 70
     1
102
RTVSPropertyOp38
 70
     1
102
RTVSPropertyOp39
 70
     1
102
RTVSPropertyOp40
 70
     1
102
RTVSPropertyOp41
 70
     1
102
RTVSPropertyOp42
 70
     1
102
RTVSPropertyOp43
 70
     1
102
RTVSPropertyOp44
 70
     1
102
RTVSPropertyOp45
 70
     1
102
RTVSPropertyOp46
 70
     1
102
RTVSPropertyOp47
 70
     1
102
RTVSPropertyOp48
 70
     1
102
RTVSPropertyOp49
 70
     1
102
RTVSPropertyOp50
 70
     1
102
RTVSPropertyOp51
 70
     0
102
RTVSPropertyOp52
 70
     0
102
RTVSPropertyOp53
 70
     1
102
RTVSPropertyOp54
 70
     1
102
RTVSPropertyOp55
 70
     1
102
RTVSPropertyOp56
 70
     1
102
RTVSPropertyOp57
 70
     1
102
RTVSPropertyOp58
 70
     1
102
RTVSPropertyOp59
 70
     1
102
RTVSPropertyOp60
 70
     1
102
RTVSPropertyOp61
 70
     1
102
RTVSPropertyOp62
 70
     1
  0
XRECORD
  5
C0BC
102
{ACAD_REACTORS
330
C0BB
102
}
330
C0BB
100
AcDbXrecord
280
     1
102
RTVSPost2010Prop28
280
     0
102
RTVSPost2010PropOp28
 70
     1
102
RTVSPost2010Prop29
280
     1
102
RTVSPost2010PropOp29
 70
     1
102
RTVSPost2010Prop30
280
     1
102
RTVSPost2010PropOp30
 70
     1
102
RTVSPost2010Prop31
280
     0
102
RTVSPost2010PropOp31
 70
     1
102
RTVSPost2010Prop32
280
     0
102
RTVSPost2010PropOp32
 70
     1
102
RTVSPost2010Prop33
280
     0
102
RTVSPost2010PropOp33
 70
     1
102
RTVSPost2010Prop34
280
     0
102
RTVSPost2010PropOp34
 70
     1
102
RTVSPost2010Prop35
280
     0
102
RTVSPost2010PropOp35
 70
     1
102
RTVSPost2010Prop36
280
     0
102
RTVSPost2010PropOp36
 70
     1
102
RTVSPost2010Prop37
 90
       50
102
RTVSPost2010PropOp37
 70
     1
102
RTVSPost2010Prop38
140
0.0
102
RTVSPost2010PropOp38
 70
     1
102
RTVSPost2010Prop39
140
1.0
102
RTVSPost2010PropOp39
 70
     1
102
RTVSPost2010Prop40
 90
        0
102
RTVSPost2010PropOp40
 70
     1
102
RTVSPost2010Prop41ColorIndex
 90
       18
102
RTVSPost2010Prop41ColorRGB
 90
        0
102
RTVSPost2010PropOp41
 70
     1
102
RTVSPost2010Prop42
 90
       50
102
RTVSPost2010PropOp42
 70
     1
102
RTVSPost2010Prop43
 90
        3
102
RTVSPost2010PropOp43
 70
     1
102
RTVSPost2010Prop44ColorIndex
 90
        5
102
RTVSPost2010Prop44ColorRGB
 90
      255
102
RTVSPost2010PropOp44
 70
     1
102
RTVSPost2010Prop45
280
     0
102
RTVSPost2010PropOp45
 70
     1
102
RTVSPost2010Prop46
 90
       50
102
RTVSPost2010PropOp46
 70
     1
102
RTVSPost2010Prop47
 90
       50
102
RTVSPost2010PropOp47
 70
     1
102
RTVSPost2010Prop48
 90
       50
102
RTVSPost2010PropOp48
 70
     1
102
RTVSPost2010Prop49
280
     0
102
RTVSPost2010PropOp49
 70
     1
102
RTVSPost2010Prop50
 90
       50
102
RTVSPost2010PropOp50
 70
     1
102
RTVSPost2010Prop51ColorIndex
 90
      256
102
RTVSPost2010Prop51ColorRGB
 90
-16777216
102
RTVSPost2010PropOp51
 70
     0
102
RTVSPost2010Prop52
140
1.0
102
RTVSPost2010PropOp52
 70
     0
102
RTVSPost2010Prop53
 90
        2
102
RTVSPost2010PropOp53
 70
     1
102
RTVSPost2010Prop54
  1
strokes_ogs.tif
102
RTVSPost2010PropOp54
 70
     1
102
RTVSPost2010Prop55
280
     0
102
RTVSPost2010PropOp55
 70
     1
102
RTVSPost2010Prop56
140
1.0
102
RTVSPost2010PropOp56
 70
     1
102
RTVSPost2010Prop57
140
1.0
102
RTVSPost2010PropOp57
 70
     1
102
RTVSPropertyOp0
 70
     1
102
RTVSPropertyOp1
 70
     1
102
RTVSPropertyOp2
 70
     1
102
RTVSPropertyOp3
 70
     1
102
RTVSPropertyOp4
 70
     1
102
RTVSPropertyOp5
 70
     1
102
RTVSPropertyOp6
 70
     1
102
RTVSPropertyOp7
 70
     1
102
RTVSPropertyOp8
 70
     1
102
RTVSPropertyOp9
 70
     1
102
RTVSPropertyOp10
 70
     1
102
RTVSPropertyOp11
 70
     1
102
RTVSPropertyOp12
 70
     1
102
RTVSPropertyOp13
 70
     1
102
RTVSPropertyOp14
 70
     1
102
RTVSPropertyOp15
 70
     1
102
RTVSPropertyOp16
 70
     1
102
RTVSPropertyOp17
 70
     1
102
RTVSPropertyOp18
 70
     1
102
RTVSPropertyOp19
 70
     1
102
RTVSPropertyOp20
 70
     1
102
RTVSPropertyOp21
 70
     1
102
RTVSPropertyOp22
 70
     1
102
RTVSPropertyOp23
 70
     1
102
RTVSPropertyOp24
 70
     1
102
RTVSPropertyOp25
 70
     1
102
RTVSPropertyOp26
 70
     1
102
RTVSPropertyOp27
 70
     1
102
RTVSPropertyOp28
 70
     1
102
RTVSPropertyOp29
 70
     1
102
RTVSPropertyOp30
 70
     1
102
RTVSPropertyOp31
 70
     1
102
RTVSPropertyOp32
 70
     1
102
RTVSPropertyOp33
 70
     1
102
RTVSPropertyOp34
 70
     1
102
RTVSPropertyOp35
 70
     1
102
RTVSPropertyOp36
 70
     1
102
RTVSPropertyOp37
 70
     1
102
RTVSPropertyOp38
 70
     1
102
RTVSPropertyOp39
 70
     1
102
RTVSPropertyOp40
 70
     1
102
RTVSPropertyOp41
 70
     1
102
RTVSPropertyOp42
 70
     1
102
RTVSPropertyOp43
 70
     1
102
RTVSPropertyOp44
 70
     1
102
RTVSPropertyOp45
 70
     1
102
RTVSPropertyOp46
 70
     1
102
RTVSPropertyOp47
 70
     1
102
RTVSPropertyOp48
 70
     1
102
RTVSPropertyOp49
 70
     1
102
RTVSPropertyOp50
 70
     1
102
RTVSPropertyOp51
 70
     0
102
RTVSPropertyOp52
 70
     0
102
RTVSPropertyOp53
 70
     1
102
RTVSPropertyOp54
 70
     1
102
RTVSPropertyOp55
 70
     1
102
RTVSPropertyOp56
 70
     1
102
RTVSPropertyOp57
 70
     1
102
RTVSPropertyOp58
 70
     1
102
RTVSPropertyOp59
 70
     1
102
RTVSPropertyOp60
 70
     1
102
RTVSPropertyOp61
 70
     1
102
RTVSPropertyOp62
 70
     1
  0
XRECORD
  5
C0BE
102
{ACAD_REACTORS
330
C0BD
102
}
330
C0BD
100
AcDbXrecord
280
     1
102
RTVSPost2010Prop28
280
     0
102
RTVSPost2010PropOp28
 70
     1
102
RTVSPost2010Prop29
280
     1
102
RTVSPost2010PropOp29
 70
     1
102
RTVSPost2010Prop30
280
     1
102
RTVSPost2010PropOp30
 70
     1
102
RTVSPost2010Prop31
280
     0
102
RTVSPost2010PropOp31
 70
     1
102
RTVSPost2010Prop32
280
     0
102
RTVSPost2010PropOp32
 70
     1
102
RTVSPost2010Prop33
280
     0
102
RTVSPost2010PropOp33
 70
     1
102
RTVSPost2010Prop34
280
     0
102
RTVSPost2010PropOp34
 70
     1
102
RTVSPost2010Prop35
280
     0
102
RTVSPost2010PropOp35
 70
     1
102
RTVSPost2010Prop36
280
     0
102
RTVSPost2010PropOp36
 70
     1
102
RTVSPost2010Prop37
 90
       50
102
RTVSPost2010PropOp37
 70
     1
102
RTVSPost2010Prop38
140
0.0
102
RTVSPost2010PropOp38
 70
     1
102
RTVSPost2010Prop39
140
1.0
102
RTVSPost2010PropOp39
 70
     1
102
RTVSPost2010Prop40
 90
        0
102
RTVSPost2010PropOp40
 70
     1
102
RTVSPost2010Prop41ColorIndex
 90
       18
102
RTVSPost2010Prop41ColorRGB
 90
        0
102
RTVSPost2010PropOp41
 70
     1
102
RTVSPost2010Prop42
 90
       50
102
RTVSPost2010PropOp42
 70
     1
102
RTVSPost2010Prop43
 90
        3
102
RTVSPost2010PropOp43
 70
     1
102
RTVSPost2010Prop44ColorIndex
 90
        5
102
RTVSPost2010Prop44ColorRGB
 90
      255
102
RTVSPost2010PropOp44
 70
     1
102
RTVSPost2010Prop45
280
     0
102
RTVSPost2010PropOp45
 70
     1
102
RTVSPost2010Prop46
 90
       50
102
RTVSPost2010PropOp46
 70
     1
102
RTVSPost2010Prop47
 90
       50
102
RTVSPost2010PropOp47
 70
     1
102
RTVSPost2010Prop48
 90
       50
102
RTVSPost2010PropOp48
 70
     1
102
RTVSPost2010Prop49
280
     0
102
RTVSPost2010PropOp49
 70
     1
102
RTVSPost2010Prop50
 90
       50
102
RTVSPost2010PropOp50
 70
     1
102
RTVSPost2010Prop51ColorIndex
 90
      256
102
RTVSPost2010Prop51ColorRGB
 90
-16777216
102
RTVSPost2010PropOp51
 70
     0
102
RTVSPost2010Prop52
140
1.0
102
RTVSPost2010PropOp52
 70
     0
102
RTVSPost2010Prop53
 90
        2
102
RTVSPost2010PropOp53
 70
     1
102
RTVSPost2010Prop54
  1
strokes_ogs.tif
102
RTVSPost2010PropOp54
 70
     1
102
RTVSPost2010Prop55
280
     0
102
RTVSPost2010PropOp55
 70
     1
102
RTVSPost2010Prop56
140
1.0
102
RTVSPost2010PropOp56
 70
     1
102
RTVSPost2010Prop57
140
1.0
102
RTVSPost2010PropOp57
 70
     1
102
RTVSPropertyOp0
 70
     1
102
RTVSPropertyOp1
 70
     1
102
RTVSPropertyOp2
 70
     1
102
RTVSPropertyOp3
 70
     1
102
RTVSPropertyOp4
 70
     1
102
RTVSPropertyOp5
 70
     1
102
RTVSPropertyOp6
 70
     1
102
RTVSPropertyOp7
 70
     1
102
RTVSPropertyOp8
 70
     1
102
RTVSPropertyOp9
 70
     1
102
RTVSPropertyOp10
 70
     1
102
RTVSPropertyOp11
 70
     1
102
RTVSPropertyOp12
 70
     1
102
RTVSPropertyOp13
 70
     1
102
RTVSPropertyOp14
 70
     1
102
RTVSPropertyOp15
 70
     1
102
RTVSPropertyOp16
 70
     1
102
RTVSPropertyOp17
 70
     1
102
RTVSPropertyOp18
 70
     1
102
RTVSPropertyOp19
 70
     1
102
RTVSPropertyOp20
 70
     1
102
RTVSPropertyOp21
 70
     1
102
RTVSPropertyOp22
 70
     1
102
RTVSPropertyOp23
 70
     1
102
RTVSPropertyOp24
 70
     1
102
RTVSPropertyOp25
 70
     1
102
RTVSPropertyOp26
 70
     1
102
RTVSPropertyOp27
 70
     1
102
RTVSPropertyOp28
 70
     1
102
RTVSPropertyOp29
 70
     1
102
RTVSPropertyOp30
 70
     1
102
RTVSPropertyOp31
 70
     1
102
RTVSPropertyOp32
 70
     1
102
RTVSPropertyOp33
 70
     1
102
RTVSPropertyOp34
 70
     1
102
RTVSPropertyOp35
 70
     1
102
RTVSPropertyOp36
 70
     1
102
RTVSPropertyOp37
 70
     1
102
RTVSPropertyOp38
 70
     1
102
RTVSPropertyOp39
 70
     1
102
RTVSPropertyOp40
 70
     1
102
RTVSPropertyOp41
 70
     1
102
RTVSPropertyOp42
 70
     1
102
RTVSPropertyOp43
 70
     1
102
RTVSPropertyOp44
 70
     1
102
RTVSPropertyOp45
 70
     1
102
RTVSPropertyOp46
 70
     1
102
RTVSPropertyOp47
 70
     1
102
RTVSPropertyOp48
 70
     1
102
RTVSPropertyOp49
 70
     1
102
RTVSPropertyOp50
 70
     1
102
RTVSPropertyOp51
 70
     0
102
RTVSPropertyOp52
 70
     0
102
RTVSPropertyOp53
 70
     1
102
RTVSPropertyOp54
 70
     1
102
RTVSPropertyOp55
 70
     1
102
RTVSPropertyOp56
 70
     1
102
RTVSPropertyOp57
 70
     1
102
RTVSPropertyOp58
 70
     1
102
RTVSPropertyOp59
 70
     1
102
RTVSPropertyOp60
 70
     1
102
RTVSPropertyOp61
 70
     1
102
RTVSPropertyOp62
 70
     1
  0
XRECORD
  5
C0C0
102
{ACAD_REACTORS
330
C0BF
102
}
330
C0BF
100
AcDbXrecord
280
     1
102
RTVSPost2010Prop28
280
     0
102
RTVSPost2010PropOp28
 70
     1
102
RTVSPost2010Prop29
280
     1
102
RTVSPost2010PropOp29
 70
     1
102
RTVSPost2010Prop30
280
     1
102
RTVSPost2010PropOp30
 70
     1
102
RTVSPost2010Prop31
280
     0
102
RTVSPost2010PropOp31
 70
     1
102
RTVSPost2010Prop32
280
     0
102
RTVSPost2010PropOp32
 70
     1
102
RTVSPost2010Prop33
280
     0
102
RTVSPost2010PropOp33
 70
     1
102
RTVSPost2010Prop34
280
     0
102
RTVSPost2010PropOp34
 70
     1
102
RTVSPost2010Prop35
280
     0
102
RTVSPost2010PropOp35
 70
     1
102
RTVSPost2010Prop36
280
     0
102
RTVSPost2010PropOp36
 70
     1
102
RTVSPost2010Prop37
 90
       50
102
RTVSPost2010PropOp37
 70
     1
102
RTVSPost2010Prop38
140
0.0
102
RTVSPost2010PropOp38
 70
     1
102
RTVSPost2010Prop39
140
1.0
102
RTVSPost2010PropOp39
 70
     1
102
RTVSPost2010Prop40
 90
        0
102
RTVSPost2010PropOp40
 70
     1
102
RTVSPost2010Prop41ColorIndex
 90
       18
102
RTVSPost2010Prop41ColorRGB
 90
        0
102
RTVSPost2010PropOp41
 70
     1
102
RTVSPost2010Prop42
 90
       50
102
RTVSPost2010PropOp42
 70
     1
102
RTVSPost2010Prop43
 90
        3
102
RTVSPost2010PropOp43
 70
     1
102
RTVSPost2010Prop44ColorIndex
 90
        5
102
RTVSPost2010Prop44ColorRGB
 90
      255
102
RTVSPost2010PropOp44
 70
     1
102
RTVSPost2010Prop45
280
     0
102
RTVSPost2010PropOp45
 70
     1
102
RTVSPost2010Prop46
 90
       50
102
RTVSPost2010PropOp46
 70
     1
102
RTVSPost2010Prop47
 90
       50
102
RTVSPost2010PropOp47
 70
     1
102
RTVSPost2010Prop48
 90
       50
102
RTVSPost2010PropOp48
 70
     1
102
RTVSPost2010Prop49
280
     0
102
RTVSPost2010PropOp49
 70
     1
102
RTVSPost2010Prop50
 90
       50
102
RTVSPost2010PropOp50
 70
     1
102
RTVSPost2010Prop51ColorIndex
 90
      256
102
RTVSPost2010Prop51ColorRGB
 90
-16777216
102
RTVSPost2010PropOp51
 70
     0
102
RTVSPost2010Prop52
140
1.0
102
RTVSPost2010PropOp52
 70
     0
102
RTVSPost2010Prop53
 90
        2
102
RTVSPost2010PropOp53
 70
     1
102
RTVSPost2010Prop54
  1
strokes_ogs.tif
102
RTVSPost2010PropOp54
 70
     1
102
RTVSPost2010Prop55
280
     0
102
RTVSPost2010PropOp55
 70
     1
102
RTVSPost2010Prop56
140
1.0
102
RTVSPost2010PropOp56
 70
     1
102
RTVSPost2010Prop57
140
1.0
102
RTVSPost2010PropOp57
 70
     1
102
RTVSPropertyOp0
 70
     1
102
RTVSPropertyOp1
 70
     1
102
RTVSPropertyOp2
 70
     1
102
RTVSPropertyOp3
 70
     1
102
RTVSPropertyOp4
 70
     1
102
RTVSPropertyOp5
 70
     1
102
RTVSPropertyOp6
 70
     1
102
RTVSPropertyOp7
 70
     1
102
RTVSPropertyOp8
 70
     1
102
RTVSPropertyOp9
 70
     1
102
RTVSPropertyOp10
 70
     1
102
RTVSPropertyOp11
 70
     1
102
RTVSPropertyOp12
 70
     1
102
RTVSPropertyOp13
 70
     1
102
RTVSPropertyOp14
 70
     1
102
RTVSPropertyOp15
 70
     1
102
RTVSPropertyOp16
 70
     1
102
RTVSPropertyOp17
 70
     1
102
RTVSPropertyOp18
 70
     1
102
RTVSPropertyOp19
 70
     1
102
RTVSPropertyOp20
 70
     1
102
RTVSPropertyOp21
 70
     1
102
RTVSPropertyOp22
 70
     1
102
RTVSPropertyOp23
 70
     1
102
RTVSPropertyOp24
 70
     1
102
RTVSPropertyOp25
 70
     1
102
RTVSPropertyOp26
 70
     1
102
RTVSPropertyOp27
 70
     1
102
RTVSPropertyOp28
 70
     1
102
RTVSPropertyOp29
 70
     1
102
RTVSPropertyOp30
 70
     1
102
RTVSPropertyOp31
 70
     1
102
RTVSPropertyOp32
 70
     1
102
RTVSPropertyOp33
 70
     1
102
RTVSPropertyOp34
 70
     1
102
RTVSPropertyOp35
 70
     1
102
RTVSPropertyOp36
 70
     1
102
RTVSPropertyOp37
 70
     1
102
RTVSPropertyOp38
 70
     1
102
RTVSPropertyOp39
 70
     1
102
RTVSPropertyOp40
 70
     1
102
RTVSPropertyOp41
 70
     1
102
RTVSPropertyOp42
 70
     1
102
RTVSPropertyOp43
 70
     1
102
RTVSPropertyOp44
 70
     1
102
RTVSPropertyOp45
 70
     1
102
RTVSPropertyOp46
 70
     1
102
RTVSPropertyOp47
 70
     1
102
RTVSPropertyOp48
 70
     1
102
RTVSPropertyOp49
 70
     1
102
RTVSPropertyOp50
 70
     1
102
RTVSPropertyOp51
 70
     0
102
RTVSPropertyOp52
 70
     0
102
RTVSPropertyOp53
 70
     1
102
RTVSPropertyOp54
 70
     1
102
RTVSPropertyOp55
 70
     1
102
RTVSPropertyOp56
 70
     1
102
RTVSPropertyOp57
 70
     1
102
RTVSPropertyOp58
 70
     1
102
RTVSPropertyOp59
 70
     1
102
RTVSPropertyOp60
 70
     1
102
RTVSPropertyOp61
 70
     1
102
RTVSPropertyOp62
 70
     1
  0
XRECORD
  5
C0C2
102
{ACAD_REACTORS
330
C0C1
102
}
330
C0C1
100
AcDbXrecord
280
     1
102
RTVSPost2010Prop28
280
     0
102
RTVSPost2010PropOp28
 70
     1
102
RTVSPost2010Prop29
280
     1
102
RTVSPost2010PropOp29
 70
     1
102
RTVSPost2010Prop30
280
     1
102
RTVSPost2010PropOp30
 70
     1
102
RTVSPost2010Prop31
280
     0
102
RTVSPost2010PropOp31
 70
     1
102
RTVSPost2010Prop32
280
     0
102
RTVSPost2010PropOp32
 70
     1
102
RTVSPost2010Prop33
280
     0
102
RTVSPost2010PropOp33
 70
     1
102
RTVSPost2010Prop34
280
     0
102
RTVSPost2010PropOp34
 70
     1
102
RTVSPost2010Prop35
280
     0
102
RTVSPost2010PropOp35
 70
     1
102
RTVSPost2010Prop36
280
     0
102
RTVSPost2010PropOp36
 70
     1
102
RTVSPost2010Prop37
 90
       50
102
RTVSPost2010PropOp37
 70
     1
102
RTVSPost2010Prop38
140
0.0
102
RTVSPost2010PropOp38
 70
     1
102
RTVSPost2010Prop39
140
1.0
102
RTVSPost2010PropOp39
 70
     1
102
RTVSPost2010Prop40
 90
        0
102
RTVSPost2010PropOp40
 70
     1
102
RTVSPost2010Prop41ColorIndex
 90
       18
102
RTVSPost2010Prop41ColorRGB
 90
        0
102
RTVSPost2010PropOp41
 70
     1
102
RTVSPost2010Prop42
 90
       50
102
RTVSPost2010PropOp42
 70
     1
102
RTVSPost2010Prop43
 90
        3
102
RTVSPost2010PropOp43
 70
     1
102
RTVSPost2010Prop44ColorIndex
 90
        5
102
RTVSPost2010Prop44ColorRGB
 90
      255
102
RTVSPost2010PropOp44
 70
     1
102
RTVSPost2010Prop45
280
     0
102
RTVSPost2010PropOp45
 70
     1
102
RTVSPost2010Prop46
 90
       50
102
RTVSPost2010PropOp46
 70
     1
102
RTVSPost2010Prop47
 90
       50
102
RTVSPost2010PropOp47
 70
     1
102
RTVSPost2010Prop48
 90
       50
102
RTVSPost2010PropOp48
 70
     1
102
RTVSPost2010Prop49
280
     0
102
RTVSPost2010PropOp49
 70
     1
102
RTVSPost2010Prop50
 90
       50
102
RTVSPost2010PropOp50
 70
     1
102
RTVSPost2010Prop51ColorIndex
 90
      256
102
RTVSPost2010Prop51ColorRGB
 90
-16777216
102
RTVSPost2010PropOp51
 70
     0
102
RTVSPost2010Prop52
140
1.0
102
RTVSPost2010PropOp52
 70
     0
102
RTVSPost2010Prop53
 90
        2
102
RTVSPost2010PropOp53
 70
     1
102
RTVSPost2010Prop54
  1
strokes_ogs.tif
102
RTVSPost2010PropOp54
 70
     1
102
RTVSPost2010Prop55
280
     0
102
RTVSPost2010PropOp55
 70
     1
102
RTVSPost2010Prop56
140
1.0
102
RTVSPost2010PropOp56
 70
     1
102
RTVSPost2010Prop57
140
1.0
102
RTVSPost2010PropOp57
 70
     1
102
RTVSPropertyOp0
 70
     1
102
RTVSPropertyOp1
 70
     1
102
RTVSPropertyOp2
 70
     1
102
RTVSPropertyOp3
 70
     1
102
RTVSPropertyOp4
 70
     1
102
RTVSPropertyOp5
 70
     1
102
RTVSPropertyOp6
 70
     1
102
RTVSPropertyOp7
 70
     1
102
RTVSPropertyOp8
 70
     1
102
RTVSPropertyOp9
 70
     1
102
RTVSPropertyOp10
 70
     1
102
RTVSPropertyOp11
 70
     1
102
RTVSPropertyOp12
 70
     1
102
RTVSPropertyOp13
 70
     1
102
RTVSPropertyOp14
 70
     1
102
RTVSPropertyOp15
 70
     1
102
RTVSPropertyOp16
 70
     1
102
RTVSPropertyOp17
 70
     1
102
RTVSPropertyOp18
 70
     1
102
RTVSPropertyOp19
 70
     1
102
RTVSPropertyOp20
 70
     1
102
RTVSPropertyOp21
 70
     1
102
RTVSPropertyOp22
 70
     1
102
RTVSPropertyOp23
 70
     1
102
RTVSPropertyOp24
 70
     1
102
RTVSPropertyOp25
 70
     1
102
RTVSPropertyOp26
 70
     1
102
RTVSPropertyOp27
 70
     1
102
RTVSPropertyOp28
 70
     1
102
RTVSPropertyOp29
 70
     1
102
RTVSPropertyOp30
 70
     1
102
RTVSPropertyOp31
 70
     1
102
RTVSPropertyOp32
 70
     1
102
RTVSPropertyOp33
 70
     1
102
RTVSPropertyOp34
 70
     1
102
RTVSPropertyOp35
 70
     1
102
RTVSPropertyOp36
 70
     1
102
RTVSPropertyOp37
 70
     1
102
RTVSPropertyOp38
 70
     1
102
RTVSPropertyOp39
 70
     1
102
RTVSPropertyOp40
 70
     1
102
RTVSPropertyOp41
 70
     1
102
RTVSPropertyOp42
 70
     1
102
RTVSPropertyOp43
 70
     1
102
RTVSPropertyOp44
 70
     1
102
RTVSPropertyOp45
 70
     1
102
RTVSPropertyOp46
 70
     1
102
RTVSPropertyOp47
 70
     1
102
RTVSPropertyOp48
 70
     1
102
RTVSPropertyOp49
 70
     1
102
RTVSPropertyOp50
 70
     1
102
RTVSPropertyOp51
 70
     0
102
RTVSPropertyOp52
 70
     0
102
RTVSPropertyOp53
 70
     1
102
RTVSPropertyOp54
 70
     1
102
RTVSPropertyOp55
 70
     1
102
RTVSPropertyOp56
 70
     1
102
RTVSPropertyOp57
 70
     1
102
RTVSPropertyOp58
 70
     1
102
RTVSPropertyOp59
 70
     1
102
RTVSPropertyOp60
 70
     1
102
RTVSPropertyOp61
 70
     1
102
RTVSPropertyOp62
 70
     1
  0
XRECORD
  5
C0CA
102
{ACAD_REACTORS
330
C0C9
102
}
330
C0C9
100
AcDbXrecord
280
     1
102
RTVSPost2010Prop28
280
     0
102
RTVSPost2010PropOp28
 70
     1
102
RTVSPost2010Prop29
280
     1
102
RTVSPost2010PropOp29
 70
     1
102
RTVSPost2010Prop30
280
     1
102
RTVSPost2010PropOp30
 70
     1
102
RTVSPost2010Prop31
280
     0
102
RTVSPost2010PropOp31
 70
     1
102
RTVSPost2010Prop32
280
     0
102
RTVSPost2010PropOp32
 70
     1
102
RTVSPost2010Prop33
280
     0
102
RTVSPost2010PropOp33
 70
     1
102
RTVSPost2010Prop34
280
     0
102
RTVSPost2010PropOp34
 70
     1
102
RTVSPost2010Prop35
280
     0
102
RTVSPost2010PropOp35
 70
     1
102
RTVSPost2010Prop36
280
     0
102
RTVSPost2010PropOp36
 70
     1
102
RTVSPost2010Prop37
 90
       50
102
RTVSPost2010PropOp37
 70
     1
102
RTVSPost2010Prop38
140
0.0
102
RTVSPost2010PropOp38
 70
     1
102
RTVSPost2010Prop39
140
1.0
102
RTVSPost2010PropOp39
 70
     1
102
RTVSPost2010Prop40
 90
        0
102
RTVSPost2010PropOp40
 70
     1
102
RTVSPost2010Prop41ColorIndex
 90
       18
102
RTVSPost2010Prop41ColorRGB
 90
        0
102
RTVSPost2010PropOp41
 70
     1
102
RTVSPost2010Prop42
 90
       50
102
RTVSPost2010PropOp42
 70
     1
102
RTVSPost2010Prop43
 90
        3
102
RTVSPost2010PropOp43
 70
     1
102
RTVSPost2010Prop44ColorIndex
 90
        5
102
RTVSPost2010Prop44ColorRGB
 90
      255
102
RTVSPost2010PropOp44
 70
     1
102
RTVSPost2010Prop45
280
     0
102
RTVSPost2010PropOp45
 70
     1
102
RTVSPost2010Prop46
 90
       50
102
RTVSPost2010PropOp46
 70
     1
102
RTVSPost2010Prop47
 90
       50
102
RTVSPost2010PropOp47
 70
     1
102
RTVSPost2010Prop48
 90
       50
102
RTVSPost2010PropOp48
 70
     1
102
RTVSPost2010Prop49
280
     0
102
RTVSPost2010PropOp49
 70
     1
102
RTVSPost2010Prop50
 90
       50
102
RTVSPost2010PropOp50
 70
     1
102
RTVSPost2010Prop51ColorIndex
 90
      256
102
RTVSPost2010Prop51ColorRGB
 90
-16777216
102
RTVSPost2010PropOp51
 70
     0
102
RTVSPost2010Prop52
140
1.0
102
RTVSPost2010PropOp52
 70
     0
102
RTVSPost2010Prop53
 90
        2
102
RTVSPost2010PropOp53
 70
     1
102
RTVSPost2010Prop54
  1
strokes_ogs.tif
102
RTVSPost2010PropOp54
 70
     1
102
RTVSPost2010Prop55
280
     0
102
RTVSPost2010PropOp55
 70
     1
102
RTVSPost2010Prop56
140
1.0
102
RTVSPost2010PropOp56
 70
     1
102
RTVSPost2010Prop57
140
1.0
102
RTVSPost2010PropOp57
 70
     1
102
RTVSPropertyOp0
 70
     1
102
RTVSPropertyOp1
 70
     1
102
RTVSPropertyOp2
 70
     1
102
RTVSPropertyOp3
 70
     1
102
RTVSPropertyOp4
 70
     1
102
RTVSPropertyOp5
 70
     1
102
RTVSPropertyOp6
 70
     1
102
RTVSPropertyOp7
 70
     1
102
RTVSPropertyOp8
 70
     1
102
RTVSPropertyOp9
 70
     1
102
RTVSPropertyOp10
 70
     1
102
RTVSPropertyOp11
 70
     1
102
RTVSPropertyOp12
 70
     1
102
RTVSPropertyOp13
 70
     1
102
RTVSPropertyOp14
 70
     1
102
RTVSPropertyOp15
 70
     1
102
RTVSPropertyOp16
 70
     1
102
RTVSPropertyOp17
 70
     1
102
RTVSPropertyOp18
 70
     1
102
RTVSPropertyOp19
 70
     1
102
RTVSPropertyOp20
 70
     1
102
RTVSPropertyOp21
 70
     1
102
RTVSPropertyOp22
 70
     1
102
RTVSPropertyOp23
 70
     1
102
RTVSPropertyOp24
 70
     1
102
RTVSPropertyOp25
 70
     1
102
RTVSPropertyOp26
 70
     1
102
RTVSPropertyOp27
 70
     1
102
RTVSPropertyOp28
 70
     1
102
RTVSPropertyOp29
 70
     1
102
RTVSPropertyOp30
 70
     1
102
RTVSPropertyOp31
 70
     1
102
RTVSPropertyOp32
 70
     1
102
RTVSPropertyOp33
 70
     1
102
RTVSPropertyOp34
 70
     1
102
RTVSPropertyOp35
 70
     1
102
RTVSPropertyOp36
 70
     1
102
RTVSPropertyOp37
 70
     1
102
RTVSPropertyOp38
 70
     1
102
RTVSPropertyOp39
 70
     1
102
RTVSPropertyOp40
 70
     1
102
RTVSPropertyOp41
 70
     1
102
RTVSPropertyOp42
 70
     1
102
RTVSPropertyOp43
 70
     1
102
RTVSPropertyOp44
 70
     1
102
RTVSPropertyOp45
 70
     1
102
RTVSPropertyOp46
 70
     1
102
RTVSPropertyOp47
 70
     1
102
RTVSPropertyOp48
 70
     1
102
RTVSPropertyOp49
 70
     1
102
RTVSPropertyOp50
 70
     1
102
RTVSPropertyOp51
 70
     0
102
RTVSPropertyOp52
 70
     0
102
RTVSPropertyOp53
 70
     1
102
RTVSPropertyOp54
 70
     1
102
RTVSPropertyOp55
 70
     1
102
RTVSPropertyOp56
 70
     1
102
RTVSPropertyOp57
 70
     1
102
RTVSPropertyOp58
 70
     1
102
RTVSPropertyOp59
 70
     1
102
RTVSPropertyOp60
 70
     1
102
RTVSPropertyOp61
 70
     1
102
RTVSPropertyOp62
 70
     1
  0
XRECORD
  5
C0E6
102
{ACAD_REACTORS
330
C0E5
102
}
330
C0E5
100
AcDbXrecord
280
     1
102
RTVSPost2010Prop28
280
     0
102
RTVSPost2010PropOp28
 70
     1
102
RTVSPost2010Prop29
280
     1
102
RTVSPost2010PropOp29
 70
     1
102
RTVSPost2010Prop30
280
     1
102
RTVSPost2010PropOp30
 70
     1
102
RTVSPost2010Prop31
280
     0
102
RTVSPost2010PropOp31
 70
     1
102
RTVSPost2010Prop32
280
     0
102
RTVSPost2010PropOp32
 70
     1
102
RTVSPost2010Prop33
280
     0
102
RTVSPost2010PropOp33
 70
     1
102
RTVSPost2010Prop34
280
     0
102
RTVSPost2010PropOp34
 70
     1
102
RTVSPost2010Prop35
280
     0
102
RTVSPost2010PropOp35
 70
     1
102
RTVSPost2010Prop36
280
     0
102
RTVSPost2010PropOp36
 70
     1
102
RTVSPost2010Prop37
 90
       50
102
RTVSPost2010PropOp37
 70
     0
102
RTVSPost2010Prop38
140
0.0
102
RTVSPost2010PropOp38
 70
     0
102
RTVSPost2010Prop39
140
1.0
102
RTVSPost2010PropOp39
 70
     0
102
RTVSPost2010Prop40
 90
        0
102
RTVSPost2010PropOp40
 70
     0
102
RTVSPost2010Prop41ColorIndex
 90
       18
102
RTVSPost2010Prop41ColorRGB
 90
        0
102
RTVSPost2010PropOp41
 70
     0
102
RTVSPost2010Prop42
 90
       50
102
RTVSPost2010PropOp42
 70
     0
102
RTVSPost2010Prop43
 90
        3
102
RTVSPost2010PropOp43
 70
     0
102
RTVSPost2010Prop44ColorIndex
 90
        5
102
RTVSPost2010Prop44ColorRGB
 90
      255
102
RTVSPost2010PropOp44
 70
     0
102
RTVSPost2010Prop45
280
     0
102
RTVSPost2010PropOp45
 70
     1
102
RTVSPost2010Prop46
 90
       50
102
RTVSPost2010PropOp46
 70
     0
102
RTVSPost2010Prop47
 90
       50
102
RTVSPost2010PropOp47
 70
     0
102
RTVSPost2010Prop48
 90
       50
102
RTVSPost2010PropOp48
 70
     0
102
RTVSPost2010Prop49
280
     0
102
RTVSPost2010PropOp49
 70
     1
102
RTVSPost2010Prop50
 90
       50
102
RTVSPost2010PropOp50
 70
     0
102
RTVSPost2010Prop51ColorIndex
 90
      256
102
RTVSPost2010Prop51ColorRGB
 90
-16777216
102
RTVSPost2010PropOp51
 70
     0
102
RTVSPost2010Prop52
140
1.0
102
RTVSPost2010PropOp52
 70
     0
102
RTVSPost2010Prop53
 90
        2
102
RTVSPost2010PropOp53
 70
     0
102
RTVSPost2010Prop54
  1
strokes_ogs.tif
102
RTVSPost2010PropOp54
 70
     0
102
RTVSPost2010Prop55
280
     0
102
RTVSPost2010PropOp55
 70
     1
102
RTVSPost2010Prop56
140
1.0
102
RTVSPost2010PropOp56
 70
     0
102
RTVSPost2010Prop57
140
1.0
102
RTVSPost2010PropOp57
 70
     0
102
RTVSPropertyOp0
 70
     0
102
RTVSPropertyOp1
 70
     0
102
RTVSPropertyOp2
 70
     0
102
RTVSPropertyOp3
 70
     0
102
RTVSPropertyOp4
 70
     0
102
RTVSPropertyOp5
 70
     0
102
RTVSPropertyOp6
 70
     0
102
RTVSPropertyOp7
 70
     0
102
RTVSPropertyOp8
 70
     0
102
RTVSPropertyOp9
 70
     0
102
RTVSPropertyOp10
 70
     0
102
RTVSPropertyOp11
 70
     0
102
RTVSPropertyOp12
 70
     0
102
RTVSPropertyOp13
 70
     0
102
RTVSPropertyOp14
 70
     2
102
RTVSPropertyOp15
 70
     0
102
RTVSPropertyOp16
 70
     0
102
RTVSPropertyOp17
 70
     0
102
RTVSPropertyOp18
 70
     0
102
RTVSPropertyOp19
 70
     0
102
RTVSPropertyOp20
 70
     0
102
RTVSPropertyOp21
 70
     0
102
RTVSPropertyOp22
 70
     0
102
RTVSPropertyOp23
 70
     0
102
RTVSPropertyOp24
 70
     0
102
RTVSPropertyOp25
 70
     0
102
RTVSPropertyOp26
 70
     0
102
RTVSPropertyOp27
 70
     0
102
RTVSPropertyOp28
 70
     1
102
RTVSPropertyOp29
 70
     1
102
RTVSPropertyOp30
 70
     1
102
RTVSPropertyOp31
 70
     1
102
RTVSPropertyOp32
 70
     1
102
RTVSPropertyOp33
 70
     1
102
RTVSPropertyOp34
 70
     1
102
RTVSPropertyOp35
 70
     1
102
RTVSPropertyOp36
 70
     1
102
RTVSPropertyOp37
 70
     0
102
RTVSPropertyOp38
 70
     0
102
RTVSPropertyOp39
 70
     0
102
RTVSPropertyOp40
 70
     0
102
RTVSPropertyOp41
 70
     0
102
RTVSPropertyOp42
 70
     0
102
RTVSPropertyOp43
 70
     0
102
RTVSPropertyOp44
 70
     0
102
RTVSPropertyOp45
 70
     1
102
RTVSPropertyOp46
 70
     0
102
RTVSPropertyOp47
 70
     0
102
RTVSPropertyOp48
 70
     0
102
RTVSPropertyOp49
 70
     1
102
RTVSPropertyOp50
 70
     0
102
RTVSPropertyOp51
 70
     0
102
RTVSPropertyOp52
 70
     0
102
RTVSPropertyOp53
 70
     0
102
RTVSPropertyOp54
 70
     0
102
RTVSPropertyOp55
 70
     1
102
RTVSPropertyOp56
 70
     0
102
RTVSPropertyOp57
 70
     0
102
RTVSPropertyOp58
 70
     0
102
RTVSPropertyOp59
 70
     0
102
RTVSPropertyOp60
 70
     0
102
RTVSPropertyOp61
 70
     0
102
RTVSPropertyOp62
 70
     0
  0
XRECORD
  5
C0D6
102
{ACAD_REACTORS
330
C0D5
102
}
330
C0D5
100
AcDbXrecord
280
     1
102
RTVSPost2010Prop28
280
     0
102
RTVSPost2010PropOp28
 70
     1
102
RTVSPost2010Prop29
280
     1
102
RTVSPost2010PropOp29
 70
     1
102
RTVSPost2010Prop30
280
     1
102
RTVSPost2010PropOp30
 70
     1
102
RTVSPost2010Prop31
280
     0
102
RTVSPost2010PropOp31
 70
     1
102
RTVSPost2010Prop32
280
     0
102
RTVSPost2010PropOp32
 70
     1
102
RTVSPost2010Prop33
280
     0
102
RTVSPost2010PropOp33
 70
     1
102
RTVSPost2010Prop34
280
     0
102
RTVSPost2010PropOp34
 70
     1
102
RTVSPost2010Prop35
280
     0
102
RTVSPost2010PropOp35
 70
     1
102
RTVSPost2010Prop36
280
     0
102
RTVSPost2010PropOp36
 70
     1
102
RTVSPost2010Prop37
 90
       50
102
RTVSPost2010PropOp37
 70
     1
102
RTVSPost2010Prop38
140
0.0
102
RTVSPost2010PropOp38
 70
     1
102
RTVSPost2010Prop39
140
1.0
102
RTVSPost2010PropOp39
 70
     1
102
RTVSPost2010Prop40
 90
        0
102
RTVSPost2010PropOp40
 70
     1
102
RTVSPost2010Prop41ColorIndex
 90
       18
102
RTVSPost2010Prop41ColorRGB
 90
        0
102
RTVSPost2010PropOp41
 70
     1
102
RTVSPost2010Prop42
 90
       50
102
RTVSPost2010PropOp42
 70
     1
102
RTVSPost2010Prop43
 90
        3
102
RTVSPost2010PropOp43
 70
     1
102
RTVSPost2010Prop44ColorIndex
 90
        5
102
RTVSPost2010Prop44ColorRGB
 90
      255
102
RTVSPost2010PropOp44
 70
     1
102
RTVSPost2010Prop45
280
     0
102
RTVSPost2010PropOp45
 70
     1
102
RTVSPost2010Prop46
 90
       50
102
RTVSPost2010PropOp46
 70
     1
102
RTVSPost2010Prop47
 90
       50
102
RTVSPost2010PropOp47
 70
     1
102
RTVSPost2010Prop48
 90
       50
102
RTVSPost2010PropOp48
 70
     1
102
RTVSPost2010Prop49
280
     0
102
RTVSPost2010PropOp49
 70
     1
102
RTVSPost2010Prop50
 90
       50
102
RTVSPost2010PropOp50
 70
     1
102
RTVSPost2010Prop51ColorIndex
 90
      256
102
RTVSPost2010Prop51ColorRGB
 90
-16777216
102
RTVSPost2010PropOp51
 70
     0
102
RTVSPost2010Prop52
140
1.0
102
RTVSPost2010PropOp52
 70
     0
102
RTVSPost2010Prop53
 90
        2
102
RTVSPost2010PropOp53
 70
     1
102
RTVSPost2010Prop54
  1
strokes_ogs.tif
102
RTVSPost2010PropOp54
 70
     1
102
RTVSPost2010Prop55
280
     0
102
RTVSPost2010PropOp55
 70
     1
102
RTVSPost2010Prop56
140
1.0
102
RTVSPost2010PropOp56
 70
     1
102
RTVSPost2010Prop57
140
1.0
102
RTVSPost2010PropOp57
 70
     1
102
RTVSPropertyOp0
 70
     1
102
RTVSPropertyOp1
 70
     1
102
RTVSPropertyOp2
 70
     1
102
RTVSPropertyOp3
 70
     1
102
RTVSPropertyOp4
 70
     1
102
RTVSPropertyOp5
 70
     1
102
RTVSPropertyOp6
 70
     1
102
RTVSPropertyOp7
 70
     1
102
RTVSPropertyOp8
 70
     1
102
RTVSPropertyOp9
 70
     1
102
RTVSPropertyOp10
 70
     1
102
RTVSPropertyOp11
 70
     1
102
RTVSPropertyOp12
 70
     1
102
RTVSPropertyOp13
 70
     1
102
RTVSPropertyOp14
 70
     1
102
RTVSPropertyOp15
 70
     1
102
RTVSPropertyOp16
 70
     1
102
RTVSPropertyOp17
 70
     1
102
RTVSPropertyOp18
 70
     1
102
RTVSPropertyOp19
 70
     1
102
RTVSPropertyOp20
 70
     1
102
RTVSPropertyOp21
 70
     1
102
RTVSPropertyOp22
 70
     1
102
RTVSPropertyOp23
 70
     1
102
RTVSPropertyOp24
 70
     1
102
RTVSPropertyOp25
 70
     1
102
RTVSPropertyOp26
 70
     1
102
RTVSPropertyOp27
 70
     1
102
RTVSPropertyOp28
 70
     1
102
RTVSPropertyOp29
 70
     1
102
RTVSPropertyOp30
 70
     1
102
RTVSPropertyOp31
 70
     1
102
RTVSPropertyOp32
 70
     1
102
RTVSPropertyOp33
 70
     1
102
RTVSPropertyOp34
 70
     1
102
RTVSPropertyOp35
 70
     1
102
RTVSPropertyOp36
 70
     1
102
RTVSPropertyOp37
 70
     1
102
RTVSPropertyOp38
 70
     1
102
RTVSPropertyOp39
 70
     1
102
RTVSPropertyOp40
 70
     1
102
RTVSPropertyOp41
 70
     1
102
RTVSPropertyOp42
 70
     1
102
RTVSPropertyOp43
 70
     1
102
RTVSPropertyOp44
 70
     1
102
RTVSPropertyOp45
 70
     1
102
RTVSPropertyOp46
 70
     1
102
RTVSPropertyOp47
 70
     1
102
RTVSPropertyOp48
 70
     1
102
RTVSPropertyOp49
 70
     1
102
RTVSPropertyOp50
 70
     1
102
RTVSPropertyOp51
 70
     0
102
RTVSPropertyOp52
 70
     0
102
RTVSPropertyOp53
 70
     1
102
RTVSPropertyOp54
 70
     1
102
RTVSPropertyOp55
 70
     1
102
RTVSPropertyOp56
 70
     1
102
RTVSPropertyOp57
 70
     1
102
RTVSPropertyOp58
 70
     1
102
RTVSPropertyOp59
 70
     1
102
RTVSPropertyOp60
 70
     1
102
RTVSPropertyOp61
 70
     1
102
RTVSPropertyOp62
 70
     1
  0
XRECORD
  5
C0E8
102
{ACAD_REACTORS
330
C0E7
102
}
330
C0E7
100
AcDbXrecord
280
     1
102
RTVSPost2010Prop28
280
     0
102
RTVSPost2010PropOp28
 70
     1
102
RTVSPost2010Prop29
280
     1
102
RTVSPost2010PropOp29
 70
     1
102
RTVSPost2010Prop30
280
     1
102
RTVSPost2010PropOp30
 70
     1
102
RTVSPost2010Prop31
280
     0
102
RTVSPost2010PropOp31
 70
     1
102
RTVSPost2010Prop32
280
     0
102
RTVSPost2010PropOp32
 70
     1
102
RTVSPost2010Prop33
280
     0
102
RTVSPost2010PropOp33
 70
     1
102
RTVSPost2010Prop34
280
     0
102
RTVSPost2010PropOp34
 70
     1
102
RTVSPost2010Prop35
280
     0
102
RTVSPost2010PropOp35
 70
     1
102
RTVSPost2010Prop36
280
     0
102
RTVSPost2010PropOp36
 70
     1
102
RTVSPost2010Prop37
 90
       50
102
RTVSPost2010PropOp37
 70
     0
102
RTVSPost2010Prop38
140
0.0
102
RTVSPost2010PropOp38
 70
     0
102
RTVSPost2010Prop39
140
1.0
102
RTVSPost2010PropOp39
 70
     0
102
RTVSPost2010Prop40
 90
        0
102
RTVSPost2010PropOp40
 70
     0
102
RTVSPost2010Prop41ColorIndex
 90
       18
102
RTVSPost2010Prop41ColorRGB
 90
        0
102
RTVSPost2010PropOp41
 70
     0
102
RTVSPost2010Prop42
 90
       50
102
RTVSPost2010PropOp42
 70
     0
102
RTVSPost2010Prop43
 90
        3
102
RTVSPost2010PropOp43
 70
     0
102
RTVSPost2010Prop44ColorIndex
 90
        5
102
RTVSPost2010Prop44ColorRGB
 90
      255
102
RTVSPost2010PropOp44
 70
     0
102
RTVSPost2010Prop45
280
     0
102
RTVSPost2010PropOp45
 70
     1
102
RTVSPost2010Prop46
 90
       50
102
RTVSPost2010PropOp46
 70
     0
102
RTVSPost2010Prop47
 90
       50
102
RTVSPost2010PropOp47
 70
     0
102
RTVSPost2010Prop48
 90
       50
102
RTVSPost2010PropOp48
 70
     0
102
RTVSPost2010Prop49
280
     0
102
RTVSPost2010PropOp49
 70
     1
102
RTVSPost2010Prop50
 90
       50
102
RTVSPost2010PropOp50
 70
     0
102
RTVSPost2010Prop51ColorIndex
 90
      256
102
RTVSPost2010Prop51ColorRGB
 90
-16777216
102
RTVSPost2010PropOp51
 70
     0
102
RTVSPost2010Prop52
140
1.0
102
RTVSPost2010PropOp52
 70
     0
102
RTVSPost2010Prop53
 90
        2
102
RTVSPost2010PropOp53
 70
     0
102
RTVSPost2010Prop54
  1
strokes_ogs.tif
102
RTVSPost2010PropOp54
 70
     0
102
RTVSPost2010Prop55
280
     0
102
RTVSPost2010PropOp55
 70
     1
102
RTVSPost2010Prop56
140
1.0
102
RTVSPost2010PropOp56
 70
     0
102
RTVSPost2010Prop57
140
1.0
102
RTVSPost2010PropOp57
 70
     0
102
RTVSPropertyOp0
 70
     0
102
RTVSPropertyOp1
 70
     0
102
RTVSPropertyOp2
 70
     0
102
RTVSPropertyOp3
 70
     0
102
RTVSPropertyOp4
 70
     0
102
RTVSPropertyOp5
 70
     0
102
RTVSPropertyOp6
 70
     0
102
RTVSPropertyOp7
 70
     0
102
RTVSPropertyOp8
 70
     0
102
RTVSPropertyOp9
 70
     0
102
RTVSPropertyOp10
 70
     0
102
RTVSPropertyOp11
 70
     0
102
RTVSPropertyOp12
 70
     0
102
RTVSPropertyOp13
 70
     0
102
RTVSPropertyOp14
 70
     2
102
RTVSPropertyOp15
 70
     0
102
RTVSPropertyOp16
 70
     0
102
RTVSPropertyOp17
 70
     0
102
RTVSPropertyOp18
 70
     0
102
RTVSPropertyOp19
 70
     0
102
RTVSPropertyOp20
 70
     0
102
RTVSPropertyOp21
 70
     0
102
RTVSPropertyOp22
 70
     0
102
RTVSPropertyOp23
 70
     0
102
RTVSPropertyOp24
 70
     0
102
RTVSPropertyOp25
 70
     0
102
RTVSPropertyOp26
 70
     0
102
RTVSPropertyOp27
 70
     0
102
RTVSPropertyOp28
 70
     1
102
RTVSPropertyOp29
 70
     1
102
RTVSPropertyOp30
 70
     1
102
RTVSPropertyOp31
 70
     1
102
RTVSPropertyOp32
 70
     1
102
RTVSPropertyOp33
 70
     1
102
RTVSPropertyOp34
 70
     1
102
RTVSPropertyOp35
 70
     1
102
RTVSPropertyOp36
 70
     1
102
RTVSPropertyOp37
 70
     0
102
RTVSPropertyOp38
 70
     0
102
RTVSPropertyOp39
 70
     0
102
RTVSPropertyOp40
 70
     0
102
RTVSPropertyOp41
 70
     0
102
RTVSPropertyOp42
 70
     0
102
RTVSPropertyOp43
 70
     0
102
RTVSPropertyOp44
 70
     0
102
RTVSPropertyOp45
 70
     1
102
RTVSPropertyOp46
 70
     0
102
RTVSPropertyOp47
 70
     0
102
RTVSPropertyOp48
 70
     0
102
RTVSPropertyOp49
 70
     1
102
RTVSPropertyOp50
 70
     0
102
RTVSPropertyOp51
 70
     0
102
RTVSPropertyOp52
 70
     0
102
RTVSPropertyOp53
 70
     0
102
RTVSPropertyOp54
 70
     0
102
RTVSPropertyOp55
 70
     1
102
RTVSPropertyOp56
 70
     0
102
RTVSPropertyOp57
 70
     0
102
RTVSPropertyOp58
 70
     0
102
RTVSPropertyOp59
 70
     0
102
RTVSPropertyOp60
 70
     0
102
RTVSPropertyOp61
 70
     0
102
RTVSPropertyOp62
 70
     0
  0
XRECORD
  5
C0CE
102
{ACAD_REACTORS
330
C0CD
102
}
330
C0CD
100
AcDbXrecord
280
     1
102
RTVSPost2010Prop28
280
     0
102
RTVSPost2010PropOp28
 70
     1
102
RTVSPost2010Prop29
280
     1
102
RTVSPost2010PropOp29
 70
     1
102
RTVSPost2010Prop30
280
     1
102
RTVSPost2010PropOp30
 70
     1
102
RTVSPost2010Prop31
280
     0
102
RTVSPost2010PropOp31
 70
     1
102
RTVSPost2010Prop32
280
     0
102
RTVSPost2010PropOp32
 70
     1
102
RTVSPost2010Prop33
280
     0
102
RTVSPost2010PropOp33
 70
     1
102
RTVSPost2010Prop34
280
     0
102
RTVSPost2010PropOp34
 70
     1
102
RTVSPost2010Prop35
280
     0
102
RTVSPost2010PropOp35
 70
     1
102
RTVSPost2010Prop36
280
     0
102
RTVSPost2010PropOp36
 70
     1
102
RTVSPost2010Prop37
 90
       50
102
RTVSPost2010PropOp37
 70
     1
102
RTVSPost2010Prop38
140
0.0
102
RTVSPost2010PropOp38
 70
     1
102
RTVSPost2010Prop39
140
1.0
102
RTVSPost2010PropOp39
 70
     1
102
RTVSPost2010Prop40
 90
        0
102
RTVSPost2010PropOp40
 70
     1
102
RTVSPost2010Prop41ColorIndex
 90
       18
102
RTVSPost2010Prop41ColorRGB
 90
        0
102
RTVSPost2010PropOp41
 70
     1
102
RTVSPost2010Prop42
 90
       50
102
RTVSPost2010PropOp42
 70
     1
102
RTVSPost2010Prop43
 90
        3
102
RTVSPost2010PropOp43
 70
     1
102
RTVSPost2010Prop44ColorIndex
 90
        5
102
RTVSPost2010Prop44ColorRGB
 90
      255
102
RTVSPost2010PropOp44
 70
     1
102
RTVSPost2010Prop45
280
     0
102
RTVSPost2010PropOp45
 70
     1
102
RTVSPost2010Prop46
 90
       50
102
RTVSPost2010PropOp46
 70
     1
102
RTVSPost2010Prop47
 90
       50
102
RTVSPost2010PropOp47
 70
     1
102
RTVSPost2010Prop48
 90
       50
102
RTVSPost2010PropOp48
 70
     1
102
RTVSPost2010Prop49
280
     0
102
RTVSPost2010PropOp49
 70
     1
102
RTVSPost2010Prop50
 90
       50
102
RTVSPost2010PropOp50
 70
     1
102
RTVSPost2010Prop51ColorIndex
 90
      256
102
RTVSPost2010Prop51ColorRGB
 90
-16777216
102
RTVSPost2010PropOp51
 70
     0
102
RTVSPost2010Prop52
140
1.0
102
RTVSPost2010PropOp52
 70
     0
102
RTVSPost2010Prop53
 90
        2
102
RTVSPost2010PropOp53
 70
     1
102
RTVSPost2010Prop54
  1
strokes_ogs.tif
102
RTVSPost2010PropOp54
 70
     1
102
RTVSPost2010Prop55
280
     0
102
RTVSPost2010PropOp55
 70
     1
102
RTVSPost2010Prop56
140
1.0
102
RTVSPost2010PropOp56
 70
     1
102
RTVSPost2010Prop57
140
1.0
102
RTVSPost2010PropOp57
 70
     1
102
RTVSPropertyOp0
 70
     1
102
RTVSPropertyOp1
 70
     1
102
RTVSPropertyOp2
 70
     1
102
RTVSPropertyOp3
 70
     1
102
RTVSPropertyOp4
 70
     1
102
RTVSPropertyOp5
 70
     1
102
RTVSPropertyOp6
 70
     1
102
RTVSPropertyOp7
 70
     1
102
RTVSPropertyOp8
 70
     1
102
RTVSPropertyOp9
 70
     1
102
RTVSPropertyOp10
 70
     1
102
RTVSPropertyOp11
 70
     1
102
RTVSPropertyOp12
 70
     1
102
RTVSPropertyOp13
 70
     1
102
RTVSPropertyOp14
 70
     1
102
RTVSPropertyOp15
 70
     1
102
RTVSPropertyOp16
 70
     1
102
RTVSPropertyOp17
 70
     1
102
RTVSPropertyOp18
 70
     1
102
RTVSPropertyOp19
 70
     1
102
RTVSPropertyOp20
 70
     1
102
RTVSPropertyOp21
 70
     1
102
RTVSPropertyOp22
 70
     1
102
RTVSPropertyOp23
 70
     1
102
RTVSPropertyOp24
 70
     1
102
RTVSPropertyOp25
 70
     1
102
RTVSPropertyOp26
 70
     1
102
RTVSPropertyOp27
 70
     1
102
RTVSPropertyOp28
 70
     1
102
RTVSPropertyOp29
 70
     1
102
RTVSPropertyOp30
 70
     1
102
RTVSPropertyOp31
 70
     1
102
RTVSPropertyOp32
 70
     1
102
RTVSPropertyOp33
 70
     1
102
RTVSPropertyOp34
 70
     1
102
RTVSPropertyOp35
 70
     1
102
RTVSPropertyOp36
 70
     1
102
RTVSPropertyOp37
 70
     1
102
RTVSPropertyOp38
 70
     1
102
RTVSPropertyOp39
 70
     1
102
RTVSPropertyOp40
 70
     1
102
RTVSPropertyOp41
 70
     1
102
RTVSPropertyOp42
 70
     1
102
RTVSPropertyOp43
 70
     1
102
RTVSPropertyOp44
 70
     1
102
RTVSPropertyOp45
 70
     1
102
RTVSPropertyOp46
 70
     1
102
RTVSPropertyOp47
 70
     1
102
RTVSPropertyOp48
 70
     1
102
RTVSPropertyOp49
 70
     1
102
RTVSPropertyOp50
 70
     1
102
RTVSPropertyOp51
 70
     0
102
RTVSPropertyOp52
 70
     0
102
RTVSPropertyOp53
 70
     1
102
RTVSPropertyOp54
 70
     1
102
RTVSPropertyOp55
 70
     1
102
RTVSPropertyOp56
 70
     1
102
RTVSPropertyOp57
 70
     1
102
RTVSPropertyOp58
 70
     1
102
RTVSPropertyOp59
 70
     1
102
RTVSPropertyOp60
 70
     1
102
RTVSPropertyOp61
 70
     1
102
RTVSPropertyOp62
 70
     1
  0
XRECORD
  5
C0E4
102
{ACAD_REACTORS
330
C0E3
102
}
330
C0E3
100
AcDbXrecord
280
     1
102
RTVSPost2010Prop28
280
     0
102
RTVSPost2010PropOp28
 70
     1
102
RTVSPost2010Prop29
280
     1
102
RTVSPost2010PropOp29
 70
     1
102
RTVSPost2010Prop30
280
     1
102
RTVSPost2010PropOp30
 70
     1
102
RTVSPost2010Prop31
280
     0
102
RTVSPost2010PropOp31
 70
     1
102
RTVSPost2010Prop32
280
     0
102
RTVSPost2010PropOp32
 70
     1
102
RTVSPost2010Prop33
280
     0
102
RTVSPost2010PropOp33
 70
     1
102
RTVSPost2010Prop34
280
     0
102
RTVSPost2010PropOp34
 70
     1
102
RTVSPost2010Prop35
280
     0
102
RTVSPost2010PropOp35
 70
     1
102
RTVSPost2010Prop36
280
     0
102
RTVSPost2010PropOp36
 70
     1
102
RTVSPost2010Prop37
 90
       50
102
RTVSPost2010PropOp37
 70
     1
102
RTVSPost2010Prop38
140
0.0
102
RTVSPost2010PropOp38
 70
     1
102
RTVSPost2010Prop39
140
1.0
102
RTVSPost2010PropOp39
 70
     1
102
RTVSPost2010Prop40
 90
        0
102
RTVSPost2010PropOp40
 70
     1
102
RTVSPost2010Prop41ColorIndex
 90
       18
102
RTVSPost2010Prop41ColorRGB
 90
        0
102
RTVSPost2010PropOp41
 70
     1
102
RTVSPost2010Prop42
 90
       50
102
RTVSPost2010PropOp42
 70
     1
102
RTVSPost2010Prop43
 90
        3
102
RTVSPost2010PropOp43
 70
     1
102
RTVSPost2010Prop44ColorIndex
 90
        5
102
RTVSPost2010Prop44ColorRGB
 90
      255
102
RTVSPost2010PropOp44
 70
     1
102
RTVSPost2010Prop45
280
     0
102
RTVSPost2010PropOp45
 70
     1
102
RTVSPost2010Prop46
 90
       50
102
RTVSPost2010PropOp46
 70
     1
102
RTVSPost2010Prop47
 90
       50
102
RTVSPost2010PropOp47
 70
     1
102
RTVSPost2010Prop48
 90
       50
102
RTVSPost2010PropOp48
 70
     1
102
RTVSPost2010Prop49
280
     0
102
RTVSPost2010PropOp49
 70
     1
102
RTVSPost2010Prop50
 90
       50
102
RTVSPost2010PropOp50
 70
     1
102
RTVSPost2010Prop51ColorIndex
 90
      256
102
RTVSPost2010Prop51ColorRGB
 90
-16777216
102
RTVSPost2010PropOp51
 70
     0
102
RTVSPost2010Prop52
140
1.0
102
RTVSPost2010PropOp52
 70
     0
102
RTVSPost2010Prop53
 90
        2
102
RTVSPost2010PropOp53
 70
     1
102
RTVSPost2010Prop54
  1
strokes_ogs.tif
102
RTVSPost2010PropOp54
 70
     1
102
RTVSPost2010Prop55
280
     0
102
RTVSPost2010PropOp55
 70
     1
102
RTVSPost2010Prop56
140
1.0
102
RTVSPost2010PropOp56
 70
     1
102
RTVSPost2010Prop57
140
1.0
102
RTVSPost2010PropOp57
 70
     1
102
RTVSPropertyOp0
 70
     1
102
RTVSPropertyOp1
 70
     1
102
RTVSPropertyOp2
 70
     1
102
RTVSPropertyOp3
 70
     1
102
RTVSPropertyOp4
 70
     1
102
RTVSPropertyOp5
 70
     1
102
RTVSPropertyOp6
 70
     1
102
RTVSPropertyOp7
 70
     1
102
RTVSPropertyOp8
 70
     1
102
RTVSPropertyOp9
 70
     1
102
RTVSPropertyOp10
 70
     1
102
RTVSPropertyOp11
 70
     1
102
RTVSPropertyOp12
 70
     1
102
RTVSPropertyOp13
 70
     1
102
RTVSPropertyOp14
 70
     1
102
RTVSPropertyOp15
 70
     1
102
RTVSPropertyOp16
 70
     1
102
RTVSPropertyOp17
 70
     1
102
RTVSPropertyOp18
 70
     1
102
RTVSPropertyOp19
 70
     1
102
RTVSPropertyOp20
 70
     1
102
RTVSPropertyOp21
 70
     1
102
RTVSPropertyOp22
 70
     1
102
RTVSPropertyOp23
 70
     1
102
RTVSPropertyOp24
 70
     1
102
RTVSPropertyOp25
 70
     1
102
RTVSPropertyOp26
 70
     1
102
RTVSPropertyOp27
 70
     1
102
RTVSPropertyOp28
 70
     1
102
RTVSPropertyOp29
 70
     1
102
RTVSPropertyOp30
 70
     1
102
RTVSPropertyOp31
 70
     1
102
RTVSPropertyOp32
 70
     1
102
RTVSPropertyOp33
 70
     1
102
RTVSPropertyOp34
 70
     1
102
RTVSPropertyOp35
 70
     1
102
RTVSPropertyOp36
 70
     1
102
RTVSPropertyOp37
 70
     1
102
RTVSPropertyOp38
 70
     1
102
RTVSPropertyOp39
 70
     1
102
RTVSPropertyOp40
 70
     1
102
RTVSPropertyOp41
 70
     1
102
RTVSPropertyOp42
 70
     1
102
RTVSPropertyOp43
 70
     1
102
RTVSPropertyOp44
 70
     1
102
RTVSPropertyOp45
 70
     1
102
RTVSPropertyOp46
 70
     1
102
RTVSPropertyOp47
 70
     1
102
RTVSPropertyOp48
 70
     1
102
RTVSPropertyOp49
 70
     1
102
RTVSPropertyOp50
 70
     1
102
RTVSPropertyOp51
 70
     0
102
RTVSPropertyOp52
 70
     0
102
RTVSPropertyOp53
 70
     1
102
RTVSPropertyOp54
 70
     1
102
RTVSPropertyOp55
 70
     1
102
RTVSPropertyOp56
 70
     1
102
RTVSPropertyOp57
 70
     1
102
RTVSPropertyOp58
 70
     1
102
RTVSPropertyOp59
 70
     1
102
RTVSPropertyOp60
 70
     1
102
RTVSPropertyOp61
 70
     1
102
RTVSPropertyOp62
 70
     1
  0
XRECORD
  5
C0E2
102
{ACAD_REACTORS
330
C0E1
102
}
330
C0E1
100
AcDbXrecord
280
     1
102
RTVSPost2010Prop28
280
     0
102
RTVSPost2010PropOp28
 70
     1
102
RTVSPost2010Prop29
280
     1
102
RTVSPost2010PropOp29
 70
     1
102
RTVSPost2010Prop30
280
     1
102
RTVSPost2010PropOp30
 70
     1
102
RTVSPost2010Prop31
280
     0
102
RTVSPost2010PropOp31
 70
     1
102
RTVSPost2010Prop32
280
     0
102
RTVSPost2010PropOp32
 70
     1
102
RTVSPost2010Prop33
280
     0
102
RTVSPost2010PropOp33
 70
     1
102
RTVSPost2010Prop34
280
     0
102
RTVSPost2010PropOp34
 70
     1
102
RTVSPost2010Prop35
280
     0
102
RTVSPost2010PropOp35
 70
     1
102
RTVSPost2010Prop36
280
     0
102
RTVSPost2010PropOp36
 70
     1
102
RTVSPost2010Prop37
 90
       50
102
RTVSPost2010PropOp37
 70
     1
102
RTVSPost2010Prop38
140
0.0
102
RTVSPost2010PropOp38
 70
     1
102
RTVSPost2010Prop39
140
1.0
102
RTVSPost2010PropOp39
 70
     1
102
RTVSPost2010Prop40
 90
        0
102
RTVSPost2010PropOp40
 70
     1
102
RTVSPost2010Prop41ColorIndex
 90
       18
102
RTVSPost2010Prop41ColorRGB
 90
        0
102
RTVSPost2010PropOp41
 70
     1
102
RTVSPost2010Prop42
 90
       50
102
RTVSPost2010PropOp42
 70
     1
102
RTVSPost2010Prop43
 90
        3
102
RTVSPost2010PropOp43
 70
     1
102
RTVSPost2010Prop44ColorIndex
 90
        5
102
RTVSPost2010Prop44ColorRGB
 90
      255
102
RTVSPost2010PropOp44
 70
     1
102
RTVSPost2010Prop45
280
     0
102
RTVSPost2010PropOp45
 70
     1
102
RTVSPost2010Prop46
 90
       50
102
RTVSPost2010PropOp46
 70
     1
102
RTVSPost2010Prop47
 90
       50
102
RTVSPost2010PropOp47
 70
     1
102
RTVSPost2010Prop48
 90
       50
102
RTVSPost2010PropOp48
 70
     1
102
RTVSPost2010Prop49
280
     0
102
RTVSPost2010PropOp49
 70
     1
102
RTVSPost2010Prop50
 90
       50
102
RTVSPost2010PropOp50
 70
     1
102
RTVSPost2010Prop51ColorIndex
 90
      256
102
RTVSPost2010Prop51ColorRGB
 90
-16777216
102
RTVSPost2010PropOp51
 70
     0
102
RTVSPost2010Prop52
140
1.0
102
RTVSPost2010PropOp52
 70
     0
102
RTVSPost2010Prop53
 90
        2
102
RTVSPost2010PropOp53
 70
     1
102
RTVSPost2010Prop54
  1
strokes_ogs.tif
102
RTVSPost2010PropOp54
 70
     1
102
RTVSPost2010Prop55
280
     0
102
RTVSPost2010PropOp55
 70
     1
102
RTVSPost2010Prop56
140
1.0
102
RTVSPost2010PropOp56
 70
     1
102
RTVSPost2010Prop57
140
1.0
102
RTVSPost2010PropOp57
 70
     1
102
RTVSPropertyOp0
 70
     1
102
RTVSPropertyOp1
 70
     1
102
RTVSPropertyOp2
 70
     1
102
RTVSPropertyOp3
 70
     1
102
RTVSPropertyOp4
 70
     1
102
RTVSPropertyOp5
 70
     1
102
RTVSPropertyOp6
 70
     1
102
RTVSPropertyOp7
 70
     1
102
RTVSPropertyOp8
 70
     1
102
RTVSPropertyOp9
 70
     1
102
RTVSPropertyOp10
 70
     1
102
RTVSPropertyOp11
 70
     1
102
RTVSPropertyOp12
 70
     1
102
RTVSPropertyOp13
 70
     1
102
RTVSPropertyOp14
 70
     1
102
RTVSPropertyOp15
 70
     1
102
RTVSPropertyOp16
 70
     1
102
RTVSPropertyOp17
 70
     1
102
RTVSPropertyOp18
 70
     1
102
RTVSPropertyOp19
 70
     1
102
RTVSPropertyOp20
 70
     1
102
RTVSPropertyOp21
 70
     1
102
RTVSPropertyOp22
 70
     1
102
RTVSPropertyOp23
 70
     1
102
RTVSPropertyOp24
 70
     1
102
RTVSPropertyOp25
 70
     1
102
RTVSPropertyOp26
 70
     1
102
RTVSPropertyOp27
 70
     1
102
RTVSPropertyOp28
 70
     1
102
RTVSPropertyOp29
 70
     1
102
RTVSPropertyOp30
 70
     1
102
RTVSPropertyOp31
 70
     1
102
RTVSPropertyOp32
 70
     1
102
RTVSPropertyOp33
 70
     1
102
RTVSPropertyOp34
 70
     1
102
RTVSPropertyOp35
 70
     1
102
RTVSPropertyOp36
 70
     1
102
RTVSPropertyOp37
 70
     1
102
RTVSPropertyOp38
 70
     1
102
RTVSPropertyOp39
 70
     1
102
RTVSPropertyOp40
 70
     1
102
RTVSPropertyOp41
 70
     1
102
RTVSPropertyOp42
 70
     1
102
RTVSPropertyOp43
 70
     1
102
RTVSPropertyOp44
 70
     1
102
RTVSPropertyOp45
 70
     1
102
RTVSPropertyOp46
 70
     1
102
RTVSPropertyOp47
 70
     1
102
RTVSPropertyOp48
 70
     1
102
RTVSPropertyOp49
 70
     1
102
RTVSPropertyOp50
 70
     1
102
RTVSPropertyOp51
 70
     0
102
RTVSPropertyOp52
 70
     0
102
RTVSPropertyOp53
 70
     1
102
RTVSPropertyOp54
 70
     1
102
RTVSPropertyOp55
 70
     1
102
RTVSPropertyOp56
 70
     1
102
RTVSPropertyOp57
 70
     1
102
RTVSPropertyOp58
 70
     1
102
RTVSPropertyOp59
 70
     1
102
RTVSPropertyOp60
 70
     1
102
RTVSPropertyOp61
 70
     1
102
RTVSPropertyOp62
 70
     1
  0
XRECORD
  5
C0DC
102
{ACAD_REACTORS
330
C0DB
102
}
330
C0DB
100
AcDbXrecord
280
     1
102
RTVSPost2010Prop28
280
     0
102
RTVSPost2010PropOp28
 70
     1
102
RTVSPost2010Prop29
280
     1
102
RTVSPost2010PropOp29
 70
     1
102
RTVSPost2010Prop30
280
     1
102
RTVSPost2010PropOp30
 70
     1
102
RTVSPost2010Prop31
280
     0
102
RTVSPost2010PropOp31
 70
     1
102
RTVSPost2010Prop32
280
     0
102
RTVSPost2010PropOp32
 70
     1
102
RTVSPost2010Prop33
280
     0
102
RTVSPost2010PropOp33
 70
     1
102
RTVSPost2010Prop34
280
     0
102
RTVSPost2010PropOp34
 70
     1
102
RTVSPost2010Prop35
280
     0
102
RTVSPost2010PropOp35
 70
     1
102
RTVSPost2010Prop36
280
     0
102
RTVSPost2010PropOp36
 70
     1
102
RTVSPost2010Prop37
 90
       50
102
RTVSPost2010PropOp37
 70
     1
102
RTVSPost2010Prop38
140
0.0
102
RTVSPost2010PropOp38
 70
     1
102
RTVSPost2010Prop39
140
1.0
102
RTVSPost2010PropOp39
 70
     1
102
RTVSPost2010Prop40
 90
        0
102
RTVSPost2010PropOp40
 70
     1
102
RTVSPost2010Prop41ColorIndex
 90
       18
102
RTVSPost2010Prop41ColorRGB
 90
        0
102
RTVSPost2010PropOp41
 70
     1
102
RTVSPost2010Prop42
 90
       50
102
RTVSPost2010PropOp42
 70
     1
102
RTVSPost2010Prop43
 90
        3
102
RTVSPost2010PropOp43
 70
     1
102
RTVSPost2010Prop44ColorIndex
 90
        5
102
RTVSPost2010Prop44ColorRGB
 90
      255
102
RTVSPost2010PropOp44
 70
     1
102
RTVSPost2010Prop45
280
     0
102
RTVSPost2010PropOp45
 70
     1
102
RTVSPost2010Prop46
 90
       50
102
RTVSPost2010PropOp46
 70
     1
102
RTVSPost2010Prop47
 90
       50
102
RTVSPost2010PropOp47
 70
     1
102
RTVSPost2010Prop48
 90
       50
102
RTVSPost2010PropOp48
 70
     1
102
RTVSPost2010Prop49
280
     0
102
RTVSPost2010PropOp49
 70
     1
102
RTVSPost2010Prop50
 90
       50
102
RTVSPost2010PropOp50
 70
     1
102
RTVSPost2010Prop51ColorIndex
 90
      256
102
RTVSPost2010Prop51ColorRGB
 90
-16777216
102
RTVSPost2010PropOp51
 70
     0
102
RTVSPost2010Prop52
140
1.0
102
RTVSPost2010PropOp52
 70
     0
102
RTVSPost2010Prop53
 90
        2
102
RTVSPost2010PropOp53
 70
     1
102
RTVSPost2010Prop54
  1
strokes_ogs.tif
102
RTVSPost2010PropOp54
 70
     1
102
RTVSPost2010Prop55
280
     0
102
RTVSPost2010PropOp55
 70
     1
102
RTVSPost2010Prop56
140
1.0
102
RTVSPost2010PropOp56
 70
     1
102
RTVSPost2010Prop57
140
1.0
102
RTVSPost2010PropOp57
 70
     1
102
RTVSPropertyOp0
 70
     1
102
RTVSPropertyOp1
 70
     1
102
RTVSPropertyOp2
 70
     1
102
RTVSPropertyOp3
 70
     1
102
RTVSPropertyOp4
 70
     1
102
RTVSPropertyOp5
 70
     1
102
RTVSPropertyOp6
 70
     1
102
RTVSPropertyOp7
 70
     1
102
RTVSPropertyOp8
 70
     1
102
RTVSPropertyOp9
 70
     1
102
RTVSPropertyOp10
 70
     1
102
RTVSPropertyOp11
 70
     1
102
RTVSPropertyOp12
 70
     1
102
RTVSPropertyOp13
 70
     1
102
RTVSPropertyOp14
 70
     1
102
RTVSPropertyOp15
 70
     1
102
RTVSPropertyOp16
 70
     1
102
RTVSPropertyOp17
 70
     1
102
RTVSPropertyOp18
 70
     1
102
RTVSPropertyOp19
 70
     1
102
RTVSPropertyOp20
 70
     1
102
RTVSPropertyOp21
 70
     1
102
RTVSPropertyOp22
 70
     1
102
RTVSPropertyOp23
 70
     1
102
RTVSPropertyOp24
 70
     1
102
RTVSPropertyOp25
 70
     1
102
RTVSPropertyOp26
 70
     1
102
RTVSPropertyOp27
 70
     1
102
RTVSPropertyOp28
 70
     1
102
RTVSPropertyOp29
 70
     1
102
RTVSPropertyOp30
 70
     1
102
RTVSPropertyOp31
 70
     1
102
RTVSPropertyOp32
 70
     1
102
RTVSPropertyOp33
 70
     1
102
RTVSPropertyOp34
 70
     1
102
RTVSPropertyOp35
 70
     1
102
RTVSPropertyOp36
 70
     1
102
RTVSPropertyOp37
 70
     1
102
RTVSPropertyOp38
 70
     1
102
RTVSPropertyOp39
 70
     1
102
RTVSPropertyOp40
 70
     1
102
RTVSPropertyOp41
 70
     1
102
RTVSPropertyOp42
 70
     1
102
RTVSPropertyOp43
 70
     1
102
RTVSPropertyOp44
 70
     1
102
RTVSPropertyOp45
 70
     1
102
RTVSPropertyOp46
 70
     1
102
RTVSPropertyOp47
 70
     1
102
RTVSPropertyOp48
 70
     1
102
RTVSPropertyOp49
 70
     1
102
RTVSPropertyOp50
 70
     1
102
RTVSPropertyOp51
 70
     0
102
RTVSPropertyOp52
 70
     0
102
RTVSPropertyOp53
 70
     1
102
RTVSPropertyOp54
 70
     1
102
RTVSPropertyOp55
 70
     1
102
RTVSPropertyOp56
 70
     1
102
RTVSPropertyOp57
 70
     1
102
RTVSPropertyOp58
 70
     1
102
RTVSPropertyOp59
 70
     1
102
RTVSPropertyOp60
 70
     1
102
RTVSPropertyOp61
 70
     1
102
RTVSPropertyOp62
 70
     1
  0
XRECORD
  5
C0DE
102
{ACAD_REACTORS
330
C0DD
102
}
330
C0DD
100
AcDbXrecord
280
     1
102
RTVSPost2010Prop28
280
     0
102
RTVSPost2010PropOp28
 70
     1
102
RTVSPost2010Prop29
280
     1
102
RTVSPost2010PropOp29
 70
     1
102
RTVSPost2010Prop30
280
     1
102
RTVSPost2010PropOp30
 70
     1
102
RTVSPost2010Prop31
280
     0
102
RTVSPost2010PropOp31
 70
     1
102
RTVSPost2010Prop32
280
     0
102
RTVSPost2010PropOp32
 70
     1
102
RTVSPost2010Prop33
280
     0
102
RTVSPost2010PropOp33
 70
     1
102
RTVSPost2010Prop34
280
     0
102
RTVSPost2010PropOp34
 70
     1
102
RTVSPost2010Prop35
280
     0
102
RTVSPost2010PropOp35
 70
     1
102
RTVSPost2010Prop36
280
     0
102
RTVSPost2010PropOp36
 70
     1
102
RTVSPost2010Prop37
 90
       50
102
RTVSPost2010PropOp37
 70
     1
102
RTVSPost2010Prop38
140
0.0
102
RTVSPost2010PropOp38
 70
     1
102
RTVSPost2010Prop39
140
1.0
102
RTVSPost2010PropOp39
 70
     1
102
RTVSPost2010Prop40
 90
        0
102
RTVSPost2010PropOp40
 70
     1
102
RTVSPost2010Prop41ColorIndex
 90
       18
102
RTVSPost2010Prop41ColorRGB
 90
        0
102
RTVSPost2010PropOp41
 70
     1
102
RTVSPost2010Prop42
 90
       50
102
RTVSPost2010PropOp42
 70
     1
102
RTVSPost2010Prop43
 90
        3
102
RTVSPost2010PropOp43
 70
     1
102
RTVSPost2010Prop44ColorIndex
 90
        5
102
RTVSPost2010Prop44ColorRGB
 90
      255
102
RTVSPost2010PropOp44
 70
     1
102
RTVSPost2010Prop45
280
     0
102
RTVSPost2010PropOp45
 70
     1
102
RTVSPost2010Prop46
 90
       50
102
RTVSPost2010PropOp46
 70
     1
102
RTVSPost2010Prop47
 90
       50
102
RTVSPost2010PropOp47
 70
     1
102
RTVSPost2010Prop48
 90
       50
102
RTVSPost2010PropOp48
 70
     1
102
RTVSPost2010Prop49
280
     0
102
RTVSPost2010PropOp49
 70
     1
102
RTVSPost2010Prop50
 90
       50
102
RTVSPost2010PropOp50
 70
     1
102
RTVSPost2010Prop51ColorIndex
 90
      256
102
RTVSPost2010Prop51ColorRGB
 90
-16777216
102
RTVSPost2010PropOp51
 70
     0
102
RTVSPost2010Prop52
140
1.0
102
RTVSPost2010PropOp52
 70
     0
102
RTVSPost2010Prop53
 90
        2
102
RTVSPost2010PropOp53
 70
     1
102
RTVSPost2010Prop54
  1
strokes_ogs.tif
102
RTVSPost2010PropOp54
 70
     1
102
RTVSPost2010Prop55
280
     0
102
RTVSPost2010PropOp55
 70
     1
102
RTVSPost2010Prop56
140
1.0
102
RTVSPost2010PropOp56
 70
     1
102
RTVSPost2010Prop57
140
1.0
102
RTVSPost2010PropOp57
 70
     1
102
RTVSPropertyOp0
 70
     1
102
RTVSPropertyOp1
 70
     1
102
RTVSPropertyOp2
 70
     1
102
RTVSPropertyOp3
 70
     1
102
RTVSPropertyOp4
 70
     1
102
RTVSPropertyOp5
 70
     1
102
RTVSPropertyOp6
 70
     1
102
RTVSPropertyOp7
 70
     1
102
RTVSPropertyOp8
 70
     1
102
RTVSPropertyOp9
 70
     1
102
RTVSPropertyOp10
 70
     1
102
RTVSPropertyOp11
 70
     1
102
RTVSPropertyOp12
 70
     1
102
RTVSPropertyOp13
 70
     1
102
RTVSPropertyOp14
 70
     1
102
RTVSPropertyOp15
 70
     1
102
RTVSPropertyOp16
 70
     1
102
RTVSPropertyOp17
 70
     1
102
RTVSPropertyOp18
 70
     1
102
RTVSPropertyOp19
 70
     1
102
RTVSPropertyOp20
 70
     1
102
RTVSPropertyOp21
 70
     1
102
RTVSPropertyOp22
 70
     1
102
RTVSPropertyOp23
 70
     1
102
RTVSPropertyOp24
 70
     1
102
RTVSPropertyOp25
 70
     1
102
RTVSPropertyOp26
 70
     1
102
RTVSPropertyOp27
 70
     1
102
RTVSPropertyOp28
 70
     1
102
RTVSPropertyOp29
 70
     1
102
RTVSPropertyOp30
 70
     1
102
RTVSPropertyOp31
 70
     1
102
RTVSPropertyOp32
 70
     1
102
RTVSPropertyOp33
 70
     1
102
RTVSPropertyOp34
 70
     1
102
RTVSPropertyOp35
 70
     1
102
RTVSPropertyOp36
 70
     1
102
RTVSPropertyOp37
 70
     1
102
RTVSPropertyOp38
 70
     1
102
RTVSPropertyOp39
 70
     1
102
RTVSPropertyOp40
 70
     1
102
RTVSPropertyOp41
 70
     1
102
RTVSPropertyOp42
 70
     1
102
RTVSPropertyOp43
 70
     1
102
RTVSPropertyOp44
 70
     1
102
RTVSPropertyOp45
 70
     1
102
RTVSPropertyOp46
 70
     1
102
RTVSPropertyOp47
 70
     1
102
RTVSPropertyOp48
 70
     1
102
RTVSPropertyOp49
 70
     1
102
RTVSPropertyOp50
 70
     1
102
RTVSPropertyOp51
 70
     0
102
RTVSPropertyOp52
 70
     0
102
RTVSPropertyOp53
 70
     1
102
RTVSPropertyOp54
 70
     1
102
RTVSPropertyOp55
 70
     1
102
RTVSPropertyOp56
 70
     1
102
RTVSPropertyOp57
 70
     1
102
RTVSPropertyOp58
 70
     1
102
RTVSPropertyOp59
 70
     1
102
RTVSPropertyOp60
 70
     1
102
RTVSPropertyOp61
 70
     1
102
RTVSPropertyOp62
 70
     1
  0
XRECORD
  5
C0D4
102
{ACAD_REACTORS
330
C0D3
102
}
330
C0D3
100
AcDbXrecord
280
     1
102
RTVSPost2010Prop28
280
     0
102
RTVSPost2010PropOp28
 70
     1
102
RTVSPost2010Prop29
280
     1
102
RTVSPost2010PropOp29
 70
     1
102
RTVSPost2010Prop30
280
     1
102
RTVSPost2010PropOp30
 70
     1
102
RTVSPost2010Prop31
280
     0
102
RTVSPost2010PropOp31
 70
     1
102
RTVSPost2010Prop32
280
     0
102
RTVSPost2010PropOp32
 70
     1
102
RTVSPost2010Prop33
280
     0
102
RTVSPost2010PropOp33
 70
     1
102
RTVSPost2010Prop34
280
     0
102
RTVSPost2010PropOp34
 70
     1
102
RTVSPost2010Prop35
280
     0
102
RTVSPost2010PropOp35
 70
     1
102
RTVSPost2010Prop36
280
     0
102
RTVSPost2010PropOp36
 70
     1
102
RTVSPost2010Prop37
 90
       50
102
RTVSPost2010PropOp37
 70
     1
102
RTVSPost2010Prop38
140
0.0
102
RTVSPost2010PropOp38
 70
     1
102
RTVSPost2010Prop39
140
1.0
102
RTVSPost2010PropOp39
 70
     1
102
RTVSPost2010Prop40
 90
        0
102
RTVSPost2010PropOp40
 70
     1
102
RTVSPost2010Prop41ColorIndex
 90
       18
102
RTVSPost2010Prop41ColorRGB
 90
        0
102
RTVSPost2010PropOp41
 70
     1
102
RTVSPost2010Prop42
 90
       50
102
RTVSPost2010PropOp42
 70
     1
102
RTVSPost2010Prop43
 90
        3
102
RTVSPost2010PropOp43
 70
     1
102
RTVSPost2010Prop44ColorIndex
 90
        5
102
RTVSPost2010Prop44ColorRGB
 90
      255
102
RTVSPost2010PropOp44
 70
     1
102
RTVSPost2010Prop45
280
     0
102
RTVSPost2010PropOp45
 70
     1
102
RTVSPost2010Prop46
 90
       50
102
RTVSPost2010PropOp46
 70
     1
102
RTVSPost2010Prop47
 90
       50
102
RTVSPost2010PropOp47
 70
     1
102
RTVSPost2010Prop48
 90
       50
102
RTVSPost2010PropOp48
 70
     1
102
RTVSPost2010Prop49
280
     0
102
RTVSPost2010PropOp49
 70
     1
102
RTVSPost2010Prop50
 90
       50
102
RTVSPost2010PropOp50
 70
     1
102
RTVSPost2010Prop51ColorIndex
 90
      256
102
RTVSPost2010Prop51ColorRGB
 90
-16777216
102
RTVSPost2010PropOp51
 70
     0
102
RTVSPost2010Prop52
140
1.0
102
RTVSPost2010PropOp52
 70
     0
102
RTVSPost2010Prop53
 90
        2
102
RTVSPost2010PropOp53
 70
     1
102
RTVSPost2010Prop54
  1
strokes_ogs.tif
102
RTVSPost2010PropOp54
 70
     1
102
RTVSPost2010Prop55
280
     0
102
RTVSPost2010PropOp55
 70
     1
102
RTVSPost2010Prop56
140
1.0
102
RTVSPost2010PropOp56
 70
     1
102
RTVSPost2010Prop57
140
1.0
102
RTVSPost2010PropOp57
 70
     1
102
RTVSPropertyOp0
 70
     1
102
RTVSPropertyOp1
 70
     1
102
RTVSPropertyOp2
 70
     1
102
RTVSPropertyOp3
 70
     1
102
RTVSPropertyOp4
 70
     1
102
RTVSPropertyOp5
 70
     1
102
RTVSPropertyOp6
 70
     1
102
RTVSPropertyOp7
 70
     1
102
RTVSPropertyOp8
 70
     1
102
RTVSPropertyOp9
 70
     1
102
RTVSPropertyOp10
 70
     1
102
RTVSPropertyOp11
 70
     1
102
RTVSPropertyOp12
 70
     1
102
RTVSPropertyOp13
 70
     1
102
RTVSPropertyOp14
 70
     1
102
RTVSPropertyOp15
 70
     1
102
RTVSPropertyOp16
 70
     1
102
RTVSPropertyOp17
 70
     1
102
RTVSPropertyOp18
 70
     1
102
RTVSPropertyOp19
 70
     1
102
RTVSPropertyOp20
 70
     1
102
RTVSPropertyOp21
 70
     1
102
RTVSPropertyOp22
 70
     1
102
RTVSPropertyOp23
 70
     1
102
RTVSPropertyOp24
 70
     1
102
RTVSPropertyOp25
 70
     1
102
RTVSPropertyOp26
 70
     1
102
RTVSPropertyOp27
 70
     1
102
RTVSPropertyOp28
 70
     1
102
RTVSPropertyOp29
 70
     1
102
RTVSPropertyOp30
 70
     1
102
RTVSPropertyOp31
 70
     1
102
RTVSPropertyOp32
 70
     1
102
RTVSPropertyOp33
 70
     1
102
RTVSPropertyOp34
 70
     1
102
RTVSPropertyOp35
 70
     1
102
RTVSPropertyOp36
 70
     1
102
RTVSPropertyOp37
 70
     1
102
RTVSPropertyOp38
 70
     1
102
RTVSPropertyOp39
 70
     1
102
RTVSPropertyOp40
 70
     1
102
RTVSPropertyOp41
 70
     1
102
RTVSPropertyOp42
 70
     1
102
RTVSPropertyOp43
 70
     1
102
RTVSPropertyOp44
 70
     1
102
RTVSPropertyOp45
 70
     1
102
RTVSPropertyOp46
 70
     1
102
RTVSPropertyOp47
 70
     1
102
RTVSPropertyOp48
 70
     1
102
RTVSPropertyOp49
 70
     1
102
RTVSPropertyOp50
 70
     1
102
RTVSPropertyOp51
 70
     0
102
RTVSPropertyOp52
 70
     0
102
RTVSPropertyOp53
 70
     1
102
RTVSPropertyOp54
 70
     1
102
RTVSPropertyOp55
 70
     1
102
RTVSPropertyOp56
 70
     1
102
RTVSPropertyOp57
 70
     1
102
RTVSPropertyOp58
 70
     1
102
RTVSPropertyOp59
 70
     1
102
RTVSPropertyOp60
 70
     1
102
RTVSPropertyOp61
 70
     1
102
RTVSPropertyOp62
 70
     1
  0
XRECORD
  5
C0C8
102
{ACAD_REACTORS
330
C0C7
102
}
330
C0C7
100
AcDbXrecord
280
     1
102
RTVSPost2010Prop28
280
     0
102
RTVSPost2010PropOp28
 70
     1
102
RTVSPost2010Prop29
280
     1
102
RTVSPost2010PropOp29
 70
     1
102
RTVSPost2010Prop30
280
     1
102
RTVSPost2010PropOp30
 70
     1
102
RTVSPost2010Prop31
280
     0
102
RTVSPost2010PropOp31
 70
     1
102
RTVSPost2010Prop32
280
     0
102
RTVSPost2010PropOp32
 70
     1
102
RTVSPost2010Prop33
280
     0
102
RTVSPost2010PropOp33
 70
     1
102
RTVSPost2010Prop34
280
     0
102
RTVSPost2010PropOp34
 70
     1
102
RTVSPost2010Prop35
280
     0
102
RTVSPost2010PropOp35
 70
     1
102
RTVSPost2010Prop36
280
     0
102
RTVSPost2010PropOp36
 70
     1
102
RTVSPost2010Prop37
 90
       50
102
RTVSPost2010PropOp37
 70
     1
102
RTVSPost2010Prop38
140
0.0
102
RTVSPost2010PropOp38
 70
     1
102
RTVSPost2010Prop39
140
1.0
102
RTVSPost2010PropOp39
 70
     1
102
RTVSPost2010Prop40
 90
        0
102
RTVSPost2010PropOp40
 70
     1
102
RTVSPost2010Prop41ColorIndex
 90
       18
102
RTVSPost2010Prop41ColorRGB
 90
        0
102
RTVSPost2010PropOp41
 70
     1
102
RTVSPost2010Prop42
 90
       50
102
RTVSPost2010PropOp42
 70
     1
102
RTVSPost2010Prop43
 90
        3
102
RTVSPost2010PropOp43
 70
     1
102
RTVSPost2010Prop44ColorIndex
 90
        5
102
RTVSPost2010Prop44ColorRGB
 90
      255
102
RTVSPost2010PropOp44
 70
     1
102
RTVSPost2010Prop45
280
     0
102
RTVSPost2010PropOp45
 70
     1
102
RTVSPost2010Prop46
 90
       50
102
RTVSPost2010PropOp46
 70
     1
102
RTVSPost2010Prop47
 90
       50
102
RTVSPost2010PropOp47
 70
     1
102
RTVSPost2010Prop48
 90
       50
102
RTVSPost2010PropOp48
 70
     1
102
RTVSPost2010Prop49
280
     0
102
RTVSPost2010PropOp49
 70
     1
102
RTVSPost2010Prop50
 90
       50
102
RTVSPost2010PropOp50
 70
     1
102
RTVSPost2010Prop51ColorIndex
 90
      256
102
RTVSPost2010Prop51ColorRGB
 90
-16777216
102
RTVSPost2010PropOp51
 70
     0
102
RTVSPost2010Prop52
140
1.0
102
RTVSPost2010PropOp52
 70
     0
102
RTVSPost2010Prop53
 90
        2
102
RTVSPost2010PropOp53
 70
     1
102
RTVSPost2010Prop54
  1
strokes_ogs.tif
102
RTVSPost2010PropOp54
 70
     1
102
RTVSPost2010Prop55
280
     0
102
RTVSPost2010PropOp55
 70
     1
102
RTVSPost2010Prop56
140
1.0
102
RTVSPost2010PropOp56
 70
     1
102
RTVSPost2010Prop57
140
1.0
102
RTVSPost2010PropOp57
 70
     1
102
RTVSPropertyOp0
 70
     1
102
RTVSPropertyOp1
 70
     1
102
RTVSPropertyOp2
 70
     1
102
RTVSPropertyOp3
 70
     1
102
RTVSPropertyOp4
 70
     1
102
RTVSPropertyOp5
 70
     1
102
RTVSPropertyOp6
 70
     1
102
RTVSPropertyOp7
 70
     1
102
RTVSPropertyOp8
 70
     1
102
RTVSPropertyOp9
 70
     1
102
RTVSPropertyOp10
 70
     1
102
RTVSPropertyOp11
 70
     1
102
RTVSPropertyOp12
 70
     1
102
RTVSPropertyOp13
 70
     1
102
RTVSPropertyOp14
 70
     1
102
RTVSPropertyOp15
 70
     1
102
RTVSPropertyOp16
 70
     1
102
RTVSPropertyOp17
 70
     1
102
RTVSPropertyOp18
 70
     1
102
RTVSPropertyOp19
 70
     1
102
RTVSPropertyOp20
 70
     1
102
RTVSPropertyOp21
 70
     1
102
RTVSPropertyOp22
 70
     1
102
RTVSPropertyOp23
 70
     1
102
RTVSPropertyOp24
 70
     1
102
RTVSPropertyOp25
 70
     1
102
RTVSPropertyOp26
 70
     1
102
RTVSPropertyOp27
 70
     1
102
RTVSPropertyOp28
 70
     1
102
RTVSPropertyOp29
 70
     1
102
RTVSPropertyOp30
 70
     1
102
RTVSPropertyOp31
 70
     1
102
RTVSPropertyOp32
 70
     1
102
RTVSPropertyOp33
 70
     1
102
RTVSPropertyOp34
 70
     1
102
RTVSPropertyOp35
 70
     1
102
RTVSPropertyOp36
 70
     1
102
RTVSPropertyOp37
 70
     1
102
RTVSPropertyOp38
 70
     1
102
RTVSPropertyOp39
 70
     1
102
RTVSPropertyOp40
 70
     1
102
RTVSPropertyOp41
 70
     1
102
RTVSPropertyOp42
 70
     1
102
RTVSPropertyOp43
 70
     1
102
RTVSPropertyOp44
 70
     1
102
RTVSPropertyOp45
 70
     1
102
RTVSPropertyOp46
 70
     1
102
RTVSPropertyOp47
 70
     1
102
RTVSPropertyOp48
 70
     1
102
RTVSPropertyOp49
 70
     1
102
RTVSPropertyOp50
 70
     1
102
RTVSPropertyOp51
 70
     0
102
RTVSPropertyOp52
 70
     0
102
RTVSPropertyOp53
 70
     1
102
RTVSPropertyOp54
 70
     1
102
RTVSPropertyOp55
 70
     1
102
RTVSPropertyOp56
 70
     1
102
RTVSPropertyOp57
 70
     1
102
RTVSPropertyOp58
 70
     1
102
RTVSPropertyOp59
 70
     1
102
RTVSPropertyOp60
 70
     1
102
RTVSPropertyOp61
 70
     1
102
RTVSPropertyOp62
 70
     1
  0
XRECORD
  5
C0E0
102
{ACAD_REACTORS
330
C0DF
102
}
330
C0DF
100
AcDbXrecord
280
     1
102
RTVSPost2010Prop28
280
     0
102
RTVSPost2010PropOp28
 70
     1
102
RTVSPost2010Prop29
280
     1
102
RTVSPost2010PropOp29
 70
     1
102
RTVSPost2010Prop30
280
     1
102
RTVSPost2010PropOp30
 70
     1
102
RTVSPost2010Prop31
280
     0
102
RTVSPost2010PropOp31
 70
     1
102
RTVSPost2010Prop32
280
     0
102
RTVSPost2010PropOp32
 70
     1
102
RTVSPost2010Prop33
280
     0
102
RTVSPost2010PropOp33
 70
     1
102
RTVSPost2010Prop34
280
     0
102
RTVSPost2010PropOp34
 70
     1
102
RTVSPost2010Prop35
280
     0
102
RTVSPost2010PropOp35
 70
     1
102
RTVSPost2010Prop36
280
     0
102
RTVSPost2010PropOp36
 70
     1
102
RTVSPost2010Prop37
 90
       50
102
RTVSPost2010PropOp37
 70
     1
102
RTVSPost2010Prop38
140
0.0
102
RTVSPost2010PropOp38
 70
     1
102
RTVSPost2010Prop39
140
1.0
102
RTVSPost2010PropOp39
 70
     1
102
RTVSPost2010Prop40
 90
        0
102
RTVSPost2010PropOp40
 70
     1
102
RTVSPost2010Prop41ColorIndex
 90
       18
102
RTVSPost2010Prop41ColorRGB
 90
        0
102
RTVSPost2010PropOp41
 70
     1
102
RTVSPost2010Prop42
 90
       50
102
RTVSPost2010PropOp42
 70
     1
102
RTVSPost2010Prop43
 90
        3
102
RTVSPost2010PropOp43
 70
     1
102
RTVSPost2010Prop44ColorIndex
 90
        5
102
RTVSPost2010Prop44ColorRGB
 90
      255
102
RTVSPost2010PropOp44
 70
     1
102
RTVSPost2010Prop45
280
     0
102
RTVSPost2010PropOp45
 70
     1
102
RTVSPost2010Prop46
 90
       50
102
RTVSPost2010PropOp46
 70
     1
102
RTVSPost2010Prop47
 90
       50
102
RTVSPost2010PropOp47
 70
     1
102
RTVSPost2010Prop48
 90
       50
102
RTVSPost2010PropOp48
 70
     1
102
RTVSPost2010Prop49
280
     0
102
RTVSPost2010PropOp49
 70
     1
102
RTVSPost2010Prop50
 90
       50
102
RTVSPost2010PropOp50
 70
     1
102
RTVSPost2010Prop51ColorIndex
 90
      256
102
RTVSPost2010Prop51ColorRGB
 90
-16777216
102
RTVSPost2010PropOp51
 70
     0
102
RTVSPost2010Prop52
140
1.0
102
RTVSPost2010PropOp52
 70
     0
102
RTVSPost2010Prop53
 90
        2
102
RTVSPost2010PropOp53
 70
     1
102
RTVSPost2010Prop54
  1
strokes_ogs.tif
102
RTVSPost2010PropOp54
 70
     1
102
RTVSPost2010Prop55
280
     0
102
RTVSPost2010PropOp55
 70
     1
102
RTVSPost2010Prop56
140
1.0
102
RTVSPost2010PropOp56
 70
     1
102
RTVSPost2010Prop57
140
1.0
102
RTVSPost2010PropOp57
 70
     1
102
RTVSPropertyOp0
 70
     1
102
RTVSPropertyOp1
 70
     1
102
RTVSPropertyOp2
 70
     1
102
RTVSPropertyOp3
 70
     1
102
RTVSPropertyOp4
 70
     1
102
RTVSPropertyOp5
 70
     1
102
RTVSPropertyOp6
 70
     1
102
RTVSPropertyOp7
 70
     1
102
RTVSPropertyOp8
 70
     1
102
RTVSPropertyOp9
 70
     1
102
RTVSPropertyOp10
 70
     1
102
RTVSPropertyOp11
 70
     1
102
RTVSPropertyOp12
 70
     1
102
RTVSPropertyOp13
 70
     1
102
RTVSPropertyOp14
 70
     1
102
RTVSPropertyOp15
 70
     1
102
RTVSPropertyOp16
 70
     1
102
RTVSPropertyOp17
 70
     1
102
RTVSPropertyOp18
 70
     1
102
RTVSPropertyOp19
 70
     1
102
RTVSPropertyOp20
 70
     1
102
RTVSPropertyOp21
 70
     1
102
RTVSPropertyOp22
 70
     1
102
RTVSPropertyOp23
 70
     1
102
RTVSPropertyOp24
 70
     1
102
RTVSPropertyOp25
 70
     1
102
RTVSPropertyOp26
 70
     1
102
RTVSPropertyOp27
 70
     1
102
RTVSPropertyOp28
 70
     1
102
RTVSPropertyOp29
 70
     1
102
RTVSPropertyOp30
 70
     1
102
RTVSPropertyOp31
 70
     1
102
RTVSPropertyOp32
 70
     1
102
RTVSPropertyOp33
 70
     1
102
RTVSPropertyOp34
 70
     1
102
RTVSPropertyOp35
 70
     1
102
RTVSPropertyOp36
 70
     1
102
RTVSPropertyOp37
 70
     1
102
RTVSPropertyOp38
 70
     1
102
RTVSPropertyOp39
 70
     1
102
RTVSPropertyOp40
 70
     1
102
RTVSPropertyOp41
 70
     1
102
RTVSPropertyOp42
 70
     1
102
RTVSPropertyOp43
 70
     1
102
RTVSPropertyOp44
 70
     1
102
RTVSPropertyOp45
 70
     1
102
RTVSPropertyOp46
 70
     1
102
RTVSPropertyOp47
 70
     1
102
RTVSPropertyOp48
 70
     1
102
RTVSPropertyOp49
 70
     1
102
RTVSPropertyOp50
 70
     1
102
RTVSPropertyOp51
 70
     0
102
RTVSPropertyOp52
 70
     0
102
RTVSPropertyOp53
 70
     1
102
RTVSPropertyOp54
 70
     1
102
RTVSPropertyOp55
 70
     1
102
RTVSPropertyOp56
 70
     1
102
RTVSPropertyOp57
 70
     1
102
RTVSPropertyOp58
 70
     1
102
RTVSPropertyOp59
 70
     1
102
RTVSPropertyOp60
 70
     1
102
RTVSPropertyOp61
 70
     1
102
RTVSPropertyOp62
 70
     1
  0
ENDSEC
  0
EOF
