  0
SECTION
  2
HEADER
  9
$ACADVER
  1
AC1015
  9
$ACADMAINTVER
 70
    20
  9
$DWGCODEPAGE
  3
ANSI_932
  9
$INSBASE
 10
0.0
 20
0.0
 30
0.0
  9
$EXTMIN
 10
9.99995
 20
9.999999999999998
 30
0.0
  9
$EXTMAX
 10
290.0
 20
232.600006
 30
0.0
  9
$LIMMIN
 10
0.0
 20
0.0
  9
$LIMMAX
 10
396.0
 20
273.0
  9
$ORTHOMODE
 70
     1
  9
$REGENMODE
 70
     1
  9
$FILLMODE
 70
     1
  9
$QTEXTMODE
 70
     0
  9
$MIRRTEXT
 70
     1
  9
$LTSCALE
 40
20.0
  9
$ATTMODE
 70
     1
  9
$TEXTSIZE
 40
5.0
  9
$TRACEWID
 40
1.0
  9
$TEXTSTYLE
  7
STANDARD
  9
$CLAYER
  8
0
  9
$CELTYPE
  6
BYLAYER
  9
$CECOLOR
 62
   256
  9
$CELTSCALE
 40
1.0
  9
$DISPSILH
 70
     0
  9
$DIMSCALE
 40
1.0
  9
$DIMASZ
 40
3.0
  9
$DIMEXO
 40
1.0
  9
$DIMDLI
 40
10.0
  9
$DIMRND
 40
0.0
  9
$DIMDLE
 40
0.0
  9
$DIMEXE
 40
1.0
  9
$DIMTP
 40
0.0
  9
$DIMTM
 40
0.0
  9
$DIMTXT
 40
3.2
  9
$DIMCEN
 40
0.0
  9
$DIMTSZ
 40
0.0
  9
$DIMTOL
 70
     0
  9
$DIMLIM
 70
     0
  9
$DIMTIH
 70
     0
  9
$DIMTOH
 70
     0
  9
$DIMSE1
 70
     0
  9
$DIMSE2
 70
     0
  9
$DIMTAD
 70
     3
  9
$DIMZIN
 70
     8
  9
$DIMBLK
  1

  9
$DIMASO
 70
     1
  9
$DIMSHO
 70
     1
  9
$DIMPOST
  1

  9
$DIMAPOST
  1

  9
$DIMALT
 70
     0
  9
$DIMALTD
 70
     2
  9
$DIMALTF
 40
25.4
  9
$DIMLFAC
 40
1.0
  9
$DIMTOFL
 70
     1
  9
$DIMTVP
 40
0.0
  9
$DIMTIX
 70
     0
  9
$DIMSOXD
 70
     0
  9
$DIMSAH
 70
     1
  9
$DIMBLK1
  1

  9
$DIMBLK2
  1

  9
$DIMSTYLE
  2
STANDARD
  9
$DIMCLRD
 70
     0
  9
$DIMCLRE
 70
     0
  9
$DIMCLRT
 70
     0
  9
$DIMTFAC
 40
1.0
  9
$DIMGAP
 40
1.0
  9
$DIMJUST
 70
     0
  9
$DIMSD1
 70
     0
  9
$DIMSD2
 70
     0
  9
$DIMTOLJ
 70
     1
  9
$DIMTZIN
 70
     0
  9
$DIMALTZ
 70
     0
  9
$DIMALTTZ
 70
     0
  9
$DIMUPT
 70
     0
  9
$DIMDEC
 70
     4
  9
$DIMTDEC
 70
     4
  9
$DIMALTU
 70
     2
  9
$DIMALTTD
 70
     2
  9
$DIMTXSTY
  7
STANDARD
  9
$DIMAUNIT
 70
     0
  9
$DIMADEC
 70
     0
  9
$DIMALTRND
 40
0.0
  9
$DIMAZIN
 70
     0
  9
$DIMDSEP
 70
    46
  9
$DIMATFIT
 70
     3
  9
$DIMFRAC
 70
     0
  9
$DIMLDRBLK
  1

  9
$DIMLUNIT
 70
     2
  9
$DIMLWD
 70
    -2
  9
$DIMLWE
 70
    -2
  9
$DIMTMOVE
 70
     0
  9
$LUNITS
 70
     2
  9
$LUPREC
 70
     4
  9
$SKETCHINC
 40
1.0
  9
$FILLETRAD
 40
0.0
  9
$AUNITS
 70
     0
  9
$AUPREC
 70
     2
  9
$MENU
  1
.
  9
$ELEVATION
 40
0.0
  9
$PELEVATION
 40
0.0
  9
$THICKNESS
 40
0.0
  9
$LIMCHECK
 70
     0
  9
$CHAMFERA
 40
10.0
  9
$CHAMFERB
 40
10.0
  9
$CHAMFERC
 40
0.0
  9
$CHAMFERD
 40
0.0
  9
$SKPOLY
 70
     0
  9
$TDCREATE
 40
2451290.586091204
  9
$TDUCREATE
 40
2451290.211091204
  9
$TDUPDATE
 40
2457192.659184642
  9
$TDUUPDATE
 40
2457192.284184641
  9
$TDINDWG
 40
0.0000102894
  9
$TDUSRTIMER
 40
0.0000099769
  9
$USRTIMER
 70
     1
  9
$ANGBASE
 50
0.0
  9
$ANGDIR
 70
     0
  9
$PDMODE
 70
    34
  9
$PDSIZE
 40
0.0
  9
$PLINEWID
 40
0.0
  9
$SPLFRAME
 70
     0
  9
$SPLINETYPE
 70
     6
  9
$SPLINESEGS
 70
     8
  9
$HANDSEED
  5
19711
  9
$SURFTAB1
 70
     6
  9
$SURFTAB2
 70
     6
  9
$SURFTYPE
 70
     6
  9
$SURFU
 70
     6
  9
$SURFV
 70
     6
  9
$UCSBASE
  2

  9
$UCSNAME
  2

  9
$UCSORG
 10
0.0
 20
0.0
 30
0.0
  9
$UCSXDIR
 10
1.0
 20
0.0
 30
0.0
  9
$UCSYDIR
 10
0.0
 20
1.0
 30
0.0
  9
$UCSORTHOREF
  2

  9
$UCSORTHOVIEW
 70
     0
  9
$UCSORGTOP
 10
0.0
 20
0.0
 30
0.0
  9
$UCSORGBOTTOM
 10
0.0
 20
0.0
 30
0.0
  9
$UCSORGLEFT
 10
0.0
 20
0.0
 30
0.0
  9
$UCSORGRIGHT
 10
0.0
 20
0.0
 30
0.0
  9
$UCSORGFRONT
 10
0.0
 20
0.0
 30
0.0
  9
$UCSORGBACK
 10
0.0
 20
0.0
 30
0.0
  9
$PUCSBASE
  2

  9
$PUCSNAME
  2

  9
$PUCSORG
 10
0.0
 20
0.0
 30
0.0
  9
$PUCSXDIR
 10
1.0
 20
0.0
 30
0.0
  9
$PUCSYDIR
 10
0.0
 20
1.0
 30
0.0
  9
$PUCSORTHOREF
  2

  9
$PUCSORTHOVIEW
 70
     0
  9
$PUCSORGTOP
 10
0.0
 20
0.0
 30
0.0
  9
$PUCSORGBOTTOM
 10
0.0
 20
0.0
 30
0.0
  9
$PUCSORGLEFT
 10
0.0
 20
0.0
 30
0.0
  9
$PUCSORGRIGHT
 10
0.0
 20
0.0
 30
0.0
  9
$PUCSORGFRONT
 10
0.0
 20
0.0
 30
0.0
  9
$PUCSORGBACK
 10
0.0
 20
0.0
 30
0.0
  9
$USERI1
 70
     0
  9
$USERI2
 70
     0
  9
$USERI3
 70
     0
  9
$USERI4
 70
     0
  9
$USERI5
 70
     0
  9
$USERR1
 40
0.0
  9
$USERR2
 40
0.0
  9
$USERR3
 40
0.0
  9
$USERR4
 40
0.0
  9
$USERR5
 40
0.0
  9
$WORLDVIEW
 70
     1
  9
$SHADEDGE
 70
     3
  9
$SHADEDIF
 70
    70
  9
$TILEMODE
 70
     1
  9
$MAXACTVP
 70
    16
  9
$PINSBASE
 10
0.0
 20
0.0
 30
0.0
  9
$PLIMCHECK
 70
     0
  9
$PEXTMIN
 10
1.000000000000000E+20
 20
1.000000000000000E+20
 30
1.000000000000000E+20
  9
$PEXTMAX
 10
-1.000000000000000E+20
 20
-1.000000000000000E+20
 30
-1.000000000000000E+20
  9
$PLIMMIN
 10
0.0
 20
0.0
  9
$PLIMMAX
 10
420.0
 20
297.0
  9
$UNITMODE
 70
     0
  9
$VISRETAIN
 70
     0
  9
$PLINEGEN
 70
     0
  9
$PSLTSCALE
 70
     0
  9
$TREEDEPTH
 70
  3020
  9
$CMLSTYLE
  2
STANDARD
  9
$CMLJUST
 70
     0
  9
$CMLSCALE
 40
1.0
  9
$PROXYGRAPHICS
 70
     1
  9
$MEASUREMENT
 70
     0
  9
$CELWEIGHT
370
    -1
  9
$ENDCAPS
280
     0
  9
$JOINSTYLE
280
     0
  9
$LWDISPLAY
290
     0
  9
$INSUNITS
 70
     0
  9
$HYPERLINKBASE
  1

  9
$STYLESHEET
  1

  9
$XEDIT
290
     1
  9
$CEPSNTYPE
380
     0
  9
$PSTYLEMODE
290
     1
  9
$FINGERPRINTGUID
  2
{53ACEB59-F181-4267-88F4-C54DB96F6F51}
  9
$VERSIONGUID
  2
{7A319FBF-2286-4513-B07B-EC9846801805}
  9
$EXTNAMES
290
     1
  9
$PSVPSCALE
 40
0.0
  9
$OLESTARTUP
290
     0
  0
ENDSEC
  0
SECTION
  2
CLASSES
  0
CLASS
  1
ACDBDICTIONARYWDFLT
  2
AcDbDictionaryWithDefault
  3
ObjectDBX Classes
 90
        0
280
     0
281
     0
  0
CLASS
  1
ACDBPLACEHOLDER
  2
AcDbPlaceHolder
  3
ObjectDBX Classes
 90
        0
280
     0
281
     0
  0
CLASS
  1
LAYOUT
  2
AcDbLayout
  3
ObjectDBX Classes
 90
        0
280
     0
281
     0
  0
CLASS
  1
DICTIONARYVAR
  2
AcDbDictionaryVar
  3
ObjectDBX Classes
 90
        0
280
     0
281
     0
  0
CLASS
  1
MATERIAL
  2
AcDbMaterial
  3
ObjectDBX Classes
 90
     1153
280
     0
281
     0
  0
CLASS
  1
VISUALSTYLE
  2
AcDbVisualStyle
  3
ObjectDBX Classes
 90
     4095
280
     0
281
     0
  0
CLASS
  1
TABLESTYLE
  2
AcDbTableStyle
  3
ObjectDBX Classes
 90
     4095
280
     0
281
     0
  0
CLASS
  1
SCALE
  2
AcDbScale
  3
ObjectDBX Classes
 90
     1153
280
     0
281
     0
  0
CLASS
  1
MLEADERSTYLE
  2
AcDbMLeaderStyle
  3
ACDB_MLEADERSTYLE_CLASS
 90
     4095
280
     0
281
     0
  0
CLASS
  1
ACDBSECTIONVIEWSTYLE
  2
AcDbSectionViewStyle
  3
ObjectDBX Classes
 90
     1025
280
     0
281
     0
  0
CLASS
  1
ACDBDETAILVIEWSTYLE
  2
AcDbDetailViewStyle
  3
ObjectDBX Classes
 90
     1025
280
     0
281
     0
  0
CLASS
  1
CELLSTYLEMAP
  2
AcDbCellStyleMap
  3
ObjectDBX Classes
 90
     1152
280
     0
281
     0
  0
ENDSEC
  0
SECTION
  2
TABLES
  0
TABLE
  2
VPORT
  5
1944B
330
0
100
AcDbSymbolTable
 70
     1
  0
VPORT
  5
1965A
330
1944B
100
AcDbSymbolTableRecord
100
AcDbViewportTableRecord
  2
*ACTIVE
 70
     0
 10
0.0
 20
0.0
 11
1.0
 21
1.0
 12
217.4328499532797
 22
121.2953802565989
 13
0.0
 23
0.0
 14
10.0
 24
10.0
 15
10.0
 25
10.0
 16
0.0
 26
0.0
 36
1.0
 17
0.0
 27
0.0
 37
0.0
 40
225.1020936247341
 41
1.899603698811096
 42
50.0
 43
0.0
 44
0.0
 50
0.0
 51
0.0
 71
     0
 72
   100
 73
     1
 74
     0
 75
     0
 76
     0
 77
     0
 78
     1
281
     0
 65
     1
110
0.0
120
0.0
130
0.0
111
1.0
121
0.0
131
0.0
112
0.0
122
1.0
132
0.0
 79
     0
146
0.0
1001
ACAD_NAV_VCDISPLAY
1070
     3
  0
ENDTAB
  0
TABLE
  2
LTYPE
  5
19448
330
0
100
AcDbSymbolTable
 70
     4
  0
LTYPE
  5
19456
330
19448
100
AcDbSymbolTableRecord
100
AcDbLinetypeTableRecord
  2
BYBLOCK
 70
     0
  3

 72
    65
 73
     0
 40
0.0
  0
LTYPE
  5
19457
330
19448
100
AcDbSymbolTableRecord
100
AcDbLinetypeTableRecord
  2
BYLAYER
 70
     0
  3

 72
    65
 73
     0
 40
0.0
  0
LTYPE
  5
19458
330
19448
100
AcDbSymbolTableRecord
100
AcDbLinetypeTableRecord
  2
CONTINUOUS
 70
     0
  3
Solid line
 72
    65
 73
     0
 40
0.0
  0
LTYPE
  5
19466
330
19448
100
AcDbSymbolTableRecord
100
AcDbLinetypeTableRecord
  2
DASHED
 70
     0
  3
__ __ __ __ __ __ __ __ __ __ __ __ __ __ __ __
 72
    65
 73
     2
 40
0.75
 49
0.5
 74
     0
 49
-0.25
 74
     0
  0
LTYPE
  5
19467
330
19448
100
AcDbSymbolTableRecord
100
AcDbLinetypeTableRecord
  2
CENTER
 70
     0
  3
____ _ ____ _ ____ _ ____ _ ____ _ ____ _ ____ 
 72
    65
 73
     4
 40
2.0
 49
1.25
 74
     0
 49
-0.25
 74
     0
 49
0.25
 74
     0
 49
-0.25
 74
     0
  0
LTYPE
  5
19468
330
19448
100
AcDbSymbolTableRecord
100
AcDbLinetypeTableRecord
  2
PHANTOM
 70
     0
  3
______  __  __  ______  __  __  ______  __  __ 
 72
    65
 73
     6
 40
2.5
 49
1.25
 74
     0
 49
-0.25
 74
     0
 49
0.25
 74
     0
 49
-0.25
 74
     0
 49
0.25
 74
     0
 49
-0.25
 74
     0
  0
ENDTAB
  0
TABLE
  2
LAYER
  5
19445
330
0
100
AcDbSymbolTable
 70
     8
  0
LAYER
  5
19453
102
{ACAD_XDICTIONARY
360
196B5
102
}
330
19445
100
AcDbSymbolTableRecord
100
AcDbLayerTableRecord
  2
0
 70
     0
 62
     7
  6
CONTINUOUS
370
    -3
390
19663
  0
LAYER
  5
19469
102
{ACAD_XDICTIONARY
360
196B7
102
}
330
19445
100
AcDbSymbolTableRecord
100
AcDbLayerTableRecord
  2
4
 70
     0
 62
     1
  6
CENTER
370
    -3
390
19663
  0
LAYER
  5
1946A
102
{ACAD_XDICTIONARY
360
196B9
102
}
330
19445
100
AcDbSymbolTableRecord
100
AcDbLayerTableRecord
  2
5
 70
     0
 62
     6
  6
PHANTOM
370
    -3
390
19663
  0
LAYER
  5
1946B
102
{ACAD_XDICTIONARY
360
196BB
102
}
330
19445
100
AcDbSymbolTableRecord
100
AcDbLayerTableRecord
  2
1
 70
     0
 62
     7
  6
CONTINUOUS
370
    -3
390
19663
  0
LAYER
  5
1946C
102
{ACAD_XDICTIONARY
360
196BD
102
}
330
19445
100
AcDbSymbolTableRecord
100
AcDbLayerTableRecord
  2
2
 70
     0
 62
     4
  6
CONTINUOUS
370
    -3
390
19663
  0
LAYER
  5
1946D
102
{ACAD_XDICTIONARY
360
196BF
102
}
330
19445
100
AcDbSymbolTableRecord
100
AcDbLayerTableRecord
  2
3
 70
     0
 62
     2
  6
DASHED
370
    -3
390
19663
  0
LAYER
  5
1946E
102
{ACAD_XDICTIONARY
360
196C1
102
}
330
19445
100
AcDbSymbolTableRecord
100
AcDbLayerTableRecord
  2
6
 70
     0
 62
     5
  6
CONTINUOUS
370
    -3
390
19663
  0
LAYER
  5
1946F
102
{ACAD_XDICTIONARY
360
196C3
102
}
330
19445
100
AcDbSymbolTableRecord
100
AcDbLayerTableRecord
  2
7
 70
     0
 62
     3
  6
CONTINUOUS
370
    -3
390
19663
  0
ENDTAB
  0
TABLE
  2
STYLE
  5
19446
330
0
100
AcDbSymbolTable
 70
     1
  0
STYLE
  5
19454
330
19446
100
AcDbSymbolTableRecord
100
AcDbTextStyleTableRecord
  2
STANDARD
 70
     0
 40
0.0
 41
1.0
 50
0.0
 71
     0
 42
5.0
  3
txt
  4

  0
ENDTAB
  0
TABLE
  2
VIEW
  5
19449
330
0
100
AcDbSymbolTable
 70
     2
  0
VIEW
  5
19470
330
19449
100
AcDbSymbolTableRecord
100
AcDbViewTableRecord
  2
7
 70
     0
 40
251.14806
 10
241.9251089999999
 20
125.57403
 41
483.8502169999999
 11
0.0
 21
0.0
 31
1.0
 12
0.0
 22
0.0
 32
0.0
 42
50.0
 43
0.0
 44
0.0
 50
0.0
 71
     0
281
     0
 72
     0
  0
VIEW
  5
19471
330
19449
100
AcDbSymbolTableRecord
100
AcDbViewTableRecord
  2
1
 70
     0
 40
249.466496
 10
136.846708
 20
233.977284
 41
487.485198
 11
0.0
 21
0.0
 31
1.0
 12
0.0
 22
0.0
 32
0.0
 42
50.0
 43
0.0
 44
0.0
 50
0.0
 71
     0
281
     0
 72
     0
  0
ENDTAB
  0
TABLE
  2
UCS
  5
1944A
330
0
100
AcDbSymbolTable
 70
     0
  0
ENDTAB
  0
TABLE
  2
APPID
  5
1944C
330
0
100
AcDbSymbolTable
 70
     3
  0
APPID
  5
19455
330
1944C
100
AcDbSymbolTableRecord
100
AcDbRegAppTableRecord
  2
ACAD
 70
     0
  0
APPID
  5
196CF
330
1944C
100
AcDbSymbolTableRecord
100
AcDbRegAppTableRecord
  2
ACAD_NAV_VCDISPLAY
 70
     0
  0
APPID
  5
19708
330
1944C
100
AcDbSymbolTableRecord
100
AcDbRegAppTableRecord
  2
ACAD_MLEADERVER
 70
     0
  0
ENDTAB
  0
TABLE
  2
DIMSTYLE
  5
1944D
330
0
100
AcDbSymbolTable
 70
     1
100
AcDbDimStyleTable
 71
     0
  0
DIMSTYLE
105
19473
330
1944D
100
AcDbSymbolTableRecord
100
AcDbDimStyleTableRecord
  2
STANDARD
 70
     0
 41
3.0
 42
1.0
 43
10.0
 44
1.0
 73
     0
 74
     0
 77
     3
 78
     8
140
3.2
141
0.0
147
1.0
172
     1
173
     1
284
     8
285
     8
286
     8
340
19454
  0
ENDTAB
  0
TABLE
  2
BLOCK_RECORD
  5
19444
330
0
100
AcDbSymbolTable
 70
     0
  0
BLOCK_RECORD
  5
19461
102
{ACAD_XDICTIONARY
360
1965D
102
}
330
19444
100
AcDbSymbolTableRecord
100
AcDbBlockTableRecord
  2
*MODEL_SPACE
340
196B1
  0
BLOCK_RECORD
  5
1945D
102
{ACAD_XDICTIONARY
360
1965B
102
}
330
19444
100
AcDbSymbolTableRecord
100
AcDbBlockTableRecord
  2
*PAPER_SPACE
340
196B2
  0
ENDTAB
  0
ENDSEC
  0
SECTION
  2
BLOCKS
  0
BLOCK
  5
19462
330
19461
100
AcDbEntity
  8
0
100
AcDbBlockBegin
  2
*MODEL_SPACE
 70
     0
 10
0.0
 20
0.0
 30
0.0
  3
*MODEL_SPACE
  1

  0
ENDBLK
  5
19463
330
19461
100
AcDbEntity
  8
0
100
AcDbBlockEnd
  0
BLOCK
  5
1945E
330
1945D
100
AcDbEntity
 67
     1
  8
0
100
AcDbBlockBegin
  2
*PAPER_SPACE
 70
     0
 10
0.0
 20
0.0
 30
0.0
  3
*PAPER_SPACE
  1

  0
ENDBLK
  5
1945F
330
1945D
100
AcDbEntity
 67
     1
  8
0
100
AcDbBlockEnd
  0
ENDSEC
  0
SECTION
  2
ENTITIES
  0
TEXT
  5
1947B
330
19461
100
AcDbEntity
  8
6
  6
Continuous
100
AcDbText
 10
27.97945
 20
10.0487
 30
0.0
 40
1.399999999999999
  1
6
 41
1.069393
100
AcDbText
  0
TEXT
  5
1947C
330
19461
100
AcDbEntity
  8
1
  6
Continuous
100
AcDbText
 10
17.97945
 20
10.0487
 30
0.0
 40
1.399999999999999
  1
1
 41
1.069393
100
AcDbText
  0
TEXT
  5
1947D
330
19461
100
AcDbEntity
  8
1
  6
Continuous
100
AcDbText
 10
9.99995
 20
10.0
 30
0.0
 40
1.399999999999999
  1
LAYER
 41
1.009912999999997
100
AcDbText
  0
TEXT
  5
1947E
330
19461
100
AcDbEntity
  8
2
  6
Continuous
100
AcDbText
 10
19.97944999999998
 20
10.0487
 30
0.0
 40
1.399999999999999
  1
2
 41
1.069393
100
AcDbText
  0
TEXT
  5
1947F
330
19461
100
AcDbEntity
  8
3
  6
DASHED
100
AcDbText
 10
21.97945
 20
10.0487
 30
0.0
 40
1.399999999999999
  1
3
 41
1.069393
100
AcDbText
  0
TEXT
  5
19480
330
19461
100
AcDbEntity
  8
4
  6
CENTER
100
AcDbText
 10
23.97944999999999
 20
10.0487
 30
0.0
 40
1.399999999999999
  1
4
 41
1.069393
100
AcDbText
  0
TEXT
  5
19481
330
19461
100
AcDbEntity
  8
5
  6
PHANTOM
100
AcDbText
 10
25.97945
 20
10.0487
 30
0.0
 40
1.399999999999999
  1
5
 41
1.069393
100
AcDbText
  0
TEXT
  5
19482
330
19461
100
AcDbEntity
  8
7
  6
Continuous
100
AcDbText
 10
10.00005
 20
26.0
 30
0.0
 40
3.0
  1
CODE No.5034
 41
1.003962999999999
100
AcDbText
  0
TEXT
  5
19483
330
19461
100
AcDbEntity
  8
7
  6
Continuous
100
AcDbText
 10
10.00005
 20
18.0
 30
0.0
 40
3.0
  1
TYPE No.TM-146
 41
1.002350999999998
100
AcDbText
  0
TEXT
  5
19484
330
19461
100
AcDbEntity
  8
7
  6
Continuous
100
AcDbText
 10
29.97944999999999
 20
10.0487
 30
0.0
 40
1.399999999999999
  1
7
 41
1.069393
100
AcDbText
  0
LINE
  5
19485
330
19461
100
AcDbEntity
  8
4
  6
CENTER
100
AcDbLine
 10
130.0
 20
108.0
 30
0.0
 11
94.0
 21
108.0
 31
0.0
  0
LINE
  5
19486
330
19461
100
AcDbEntity
  8
4
  6
CENTER
100
AcDbLine
 10
32.0
 20
182.100006
 30
0.0
 11
32.0
 21
164.0
 31
0.0
  0
LINE
  5
19487
330
19461
100
AcDbEntity
  8
1
  6
Continuous
100
AcDbLine
 10
37.0
 20
172.100006
 30
0.0
 11
37.0
 21
177.100006
 31
0.0
  0
LINE
  5
19488
330
19461
100
AcDbEntity
  8
1
  6
Continuous
100
AcDbLine
 10
27.0
 20
172.100006
 30
0.0
 11
27.0
 21
177.100006
 31
0.0
  0
LINE
  5
19489
330
19461
100
AcDbEntity
  8
1
  6
Continuous
100
AcDbLine
 10
32.0
 20
172.100006
 30
0.0
 11
32.0
 21
176.653427
 31
0.0
  0
LINE
  5
1948A
330
19461
100
AcDbEntity
  8
4
  6
CENTER
100
AcDbLine
 10
192.0
 20
182.100006
 30
0.0
 11
192.0
 21
164.0
 31
0.0
  0
LINE
  5
1948B
330
19461
100
AcDbEntity
  8
1
  6
Continuous
100
AcDbLine
 10
192.0
 20
172.100006
 30
0.0
 11
192.0
 21
176.653427
 31
0.0
  0
LINE
  5
1948C
330
19461
100
AcDbEntity
  8
1
  6
Continuous
100
AcDbLine
 10
187.0
 20
172.100006
 30
0.0
 11
187.0
 21
177.100006
 31
0.0
  0
LINE
  5
1948D
330
19461
100
AcDbEntity
  8
1
  6
Continuous
100
AcDbLine
 10
197.0
 20
172.100006
 30
0.0
 11
197.0
 21
177.100006
 31
0.0
  0
LINE
  5
1948E
330
19461
100
AcDbEntity
  8
4
  6
CENTER
100
AcDbLine
 10
272.0
 20
182.100006
 30
0.0
 11
272.0
 21
164.0
 31
0.0
  0
LINE
  5
1948F
330
19461
100
AcDbEntity
  8
1
  6
Continuous
100
AcDbLine
 10
266.2264859999999
 20
176.653427
 30
0.0
 11
266.2264859999999
 21
172.100006
 31
0.0
  0
LINE
  5
19490
330
19461
100
AcDbEntity
  8
1
  6
Continuous
100
AcDbLine
 10
269.113251
 20
176.653427
 30
0.0
 11
269.113251
 21
172.100006
 31
0.0
  0
LINE
  5
19491
330
19461
100
AcDbEntity
  8
1
  6
Continuous
100
AcDbLine
 10
274.886749
 20
176.653427
 30
0.0
 11
274.886749
 21
172.100006
 31
0.0
  0
LINE
  5
19492
330
19461
100
AcDbEntity
  8
1
  6
Continuous
100
AcDbLine
 10
277.773499
 20
176.653427
 30
0.0
 11
277.773499
 21
172.100006
 31
0.0
  0
LINE
  5
19493
330
19461
100
AcDbEntity
  8
4
  6
CENTER
100
AcDbLine
 10
254.0
 20
108.0
 30
0.0
 11
290.0
 21
108.0
 31
0.0
  0
LINE
  5
19494
330
19461
100
AcDbEntity
  8
1
  6
Continuous
100
AcDbLine
 10
189.0
 20
139.4584959999999
 30
0.0
 11
189.0
 21
127.0
 31
0.0
  0
LINE
  5
19495
330
19461
100
AcDbEntity
  8
2
  6
Continuous
100
AcDbLine
 10
189.5415
 20
140.0
 30
0.0
 11
189.5415
 21
127.0
 31
0.0
  0
LINE
  5
19496
330
19461
100
AcDbEntity
  8
2
  6
Continuous
100
AcDbLine
 10
194.4585
 20
140.0
 30
0.0
 11
194.4585
 21
127.0
 31
0.0
  0
LINE
  5
19497
330
19461
100
AcDbEntity
  8
1
  6
Continuous
100
AcDbLine
 10
195.0
 20
139.4584959999999
 30
0.0
 11
195.0
 21
127.0
 31
0.0
  0
LINE
  5
19498
330
19461
100
AcDbEntity
  8
4
  6
CENTER
100
AcDbLine
 10
201.150002
 20
108.0
 30
0.0
 11
182.85
 21
108.0
 31
0.0
  0
ARC
  5
19499
330
19461
100
AcDbEntity
  8
1
  6
Continuous
100
AcDbCircle
 10
192.0
 20
98.0
 30
0.0
 40
3.0
100
AcDbArc
 50
179.9999909999999
 51
0.00001
  0
LINE
  5
1949A
330
19461
100
AcDbEntity
  8
4
  6
CENTER
100
AcDbLine
 10
200.1500019999999
 20
122.0
 30
0.0
 11
184.15
 21
122.0
 31
0.0
  0
LINE
  5
1949B
330
19461
100
AcDbEntity
  8
1
  6
Continuous
100
AcDbLine
 10
195.0
 20
127.0
 30
0.0
 11
189.0
 21
127.0
 31
0.0
  0
LINE
  5
1949C
330
19461
100
AcDbEntity
  8
1
  6
Continuous
100
AcDbLine
 10
195.5
 20
125.0
 30
0.0
 11
188.4999999999998
 21
125.0
 31
0.0
  0
LINE
  5
1949D
330
19461
100
AcDbEntity
  8
1
  6
Continuous
100
AcDbLine
 10
187.85
 20
112.088669
 30
0.0
 11
187.85
 21
108.0
 31
0.0
  0
LINE
  5
1949E
330
19461
100
AcDbEntity
  8
1
  6
Continuous
100
AcDbLine
 10
188.3499999999999
 20
124.5
 30
0.0
 11
188.3499999999999
 21
108.0
 31
0.0
  0
LINE
  5
1949F
330
19461
100
AcDbEntity
  8
1
  6
Continuous
100
AcDbLine
 10
189.0
 20
113.463577
 30
0.0
 11
189.0
 21
98.0
 31
0.0
  0
LINE
  5
194A0
330
19461
100
AcDbEntity
  8
1
  6
Continuous
100
AcDbLine
 10
189.0
 20
108.0
 30
0.0
 11
187.85
 21
108.0
 31
0.0
  0
ARC
  5
194A1
330
19461
100
AcDbEntity
  8
1
  6
Continuous
100
AcDbCircle
 10
188.85
 20
117.5
 30
0.0
 40
0.5
100
AcDbArc
 50
179.9999909999999
 51
255.814353
  0
ARC
  5
194A2
330
19461
100
AcDbEntity
  8
1
  6
Continuous
100
AcDbCircle
 10
186.0
 20
115.8134159999999
 30
0.0
 40
1.0
100
AcDbArc
 50
90.00000300000001
 51
180.000005
  0
ARC
  5
194A3
330
19461
100
AcDbEntity
  8
1
  6
Continuous
100
AcDbCircle
 10
186.0
 20
115.97702
 30
0.0
 40
1.0
100
AcDbArc
 50
90.00000300000001
 51
180.000005
  0
ARC
  5
194A4
330
19461
100
AcDbEntity
  8
1
  6
Continuous
100
AcDbCircle
 10
186.0
 20
113.088669
 30
0.0
 40
1.0
100
AcDbArc
 50
179.9999909999999
 51
270.000001
  0
ARC
  5
194A5
330
19461
100
AcDbEntity
  8
1
  6
Continuous
100
AcDbCircle
 10
189.4999999999998
 20
124.0
 30
0.0
 40
1.0
100
AcDbArc
 50
90.00000300000001
 51
180.000005
  0
ARC
  5
194A6
330
19461
100
AcDbEntity
  8
1
  6
Continuous
100
AcDbCircle
 10
179.0
 20
113.463577
 30
0.0
 40
10.0
100
AcDbArc
 50
0.0
 51
5.0
  0
ARC
  5
194A7
330
19461
100
AcDbEntity
  8
1
  6
Continuous
100
AcDbCircle
 10
188.25
 20
126.0
 30
0.0
 40
1.25
100
AcDbArc
 50
306.8698979999999
 51
53.130102
  0
LINE
  5
194A8
330
19461
100
AcDbEntity
  8
1
  6
Continuous
100
AcDbLine
 10
186.85
 20
123.5
 30
0.0
 11
186.85
 21
120.5
 31
0.0
  0
LINE
  5
194A9
330
19461
100
AcDbEntity
  8
1
  6
Continuous
100
AcDbLine
 10
187.85
 20
120.5
 30
0.0
 11
186.85
 21
120.5
 31
0.0
  0
LINE
  5
194AA
330
19461
100
AcDbEntity
  8
1
  6
Continuous
100
AcDbLine
 10
187.85
 20
123.5
 30
0.0
 11
186.85
 21
123.5
 31
0.0
  0
LINE
  5
194AB
330
19461
100
AcDbEntity
  8
1
  6
Continuous
100
AcDbLine
 10
188.3499999999999
 20
121.0
 30
0.0
 11
188.4999999999998
 21
121.0
 31
0.0
  0
LINE
  5
194AC
330
19461
100
AcDbEntity
  8
1
  6
Continuous
100
AcDbLine
 10
188.3499999999999
 20
123.0
 30
0.0
 11
188.4999999999998
 21
123.0
 31
0.0
  0
LINE
  5
194AD
330
19461
100
AcDbEntity
  8
1
  6
Continuous
100
AcDbLine
 10
188.3499999999999
 20
112.088669
 30
0.0
 11
186.0
 21
112.088669
 31
0.0
  0
LINE
  5
194AE
330
19461
100
AcDbEntity
  8
1
  6
Continuous
100
AcDbLine
 10
188.3499999999999
 20
116.8134159999999
 30
0.0
 11
186.0
 21
116.8134159999999
 31
0.0
  0
LINE
  5
194AF
330
19461
100
AcDbEntity
  8
1
  6
Continuous
100
AcDbLine
 10
188.3499999999999
 20
116.97702
 30
0.0
 11
186.0
 21
116.97702
 31
0.0
  0
LINE
  5
194B0
330
19461
100
AcDbEntity
  8
1
  6
Continuous
100
AcDbLine
 10
188.3499999999999
 20
124.5
 30
0.0
 11
187.85
 21
124.5
 31
0.0
  0
LINE
  5
194B1
330
19461
100
AcDbEntity
  8
1
  6
Continuous
100
AcDbLine
 10
187.85
 20
124.5
 30
0.0
 11
187.85
 21
116.97702
 31
0.0
  0
LINE
  5
194B2
330
19461
100
AcDbEntity
  8
1
  6
Continuous
100
AcDbLine
 10
185.0
 20
115.8134159999999
 30
0.0
 11
185.0
 21
113.088669
 31
0.0
  0
LINE
  5
194B3
330
19461
100
AcDbEntity
  8
1
  6
Continuous
100
AcDbLine
 10
188.4999999999998
 20
119.615219
 30
0.0
 11
188.9619459999999
 21
114.3351439999999
 31
0.0
  0
LINE
  5
194B4
330
19461
100
AcDbEntity
  8
1
  6
Continuous
100
AcDbLine
 10
188.4999999999998
 20
125.0
 30
0.0
 11
188.4999999999998
 21
119.615219
 31
0.0
  0
LINE
  5
194B5
330
19461
100
AcDbEntity
  8
1
  6
Continuous
100
AcDbLine
 10
196.150002
 20
112.088669
 30
0.0
 11
196.150002
 21
108.0
 31
0.0
  0
LINE
  5
194B6
330
19461
100
AcDbEntity
  8
1
  6
Continuous
100
AcDbLine
 10
195.650002
 20
124.5
 30
0.0
 11
195.650002
 21
108.0
 31
0.0
  0
LINE
  5
194B7
330
19461
100
AcDbEntity
  8
1
  6
Continuous
100
AcDbLine
 10
195.0
 20
113.463577
 30
0.0
 11
195.0
 21
98.0
 31
0.0
  0
LINE
  5
194B8
330
19461
100
AcDbEntity
  8
1
  6
Continuous
100
AcDbLine
 10
196.150002
 20
108.0
 30
0.0
 11
195.0
 21
108.0
 31
0.0
  0
ARC
  5
194B9
330
19461
100
AcDbEntity
  8
1
  6
Continuous
100
AcDbCircle
 10
195.150002
 20
117.5
 30
0.0
 40
0.5
100
AcDbArc
 50
284.1856379999999
 51
0.0
  0
ARC
  5
194BA
330
19461
100
AcDbEntity
  8
1
  6
Continuous
100
AcDbCircle
 10
198.0
 20
115.8134159999999
 30
0.0
 40
1.0
100
AcDbArc
 50
0.0
 51
90.00000300000001
  0
ARC
  5
194BB
330
19461
100
AcDbEntity
  8
1
  6
Continuous
100
AcDbCircle
 10
198.0
 20
113.088669
 30
0.0
 40
1.0
100
AcDbArc
 50
269.9999969999999
 51
0.0
  0
ARC
  5
194BC
330
19461
100
AcDbEntity
  8
1
  6
Continuous
100
AcDbCircle
 10
198.0
 20
115.97702
 30
0.0
 40
1.0
100
AcDbArc
 50
0.0
 51
90.00000300000001
  0
ARC
  5
194BD
330
19461
100
AcDbEntity
  8
1
  6
Continuous
100
AcDbCircle
 10
194.5
 20
124.0
 30
0.0
 40
1.0
100
AcDbArc
 50
0.0
 51
90.00000300000001
  0
ARC
  5
194BE
330
19461
100
AcDbEntity
  8
1
  6
Continuous
100
AcDbCircle
 10
205.0
 20
113.463577
 30
0.0
 40
10.0
100
AcDbArc
 50
175.000006
 51
180.000005
  0
ARC
  5
194BF
330
19461
100
AcDbEntity
  8
1
  6
Continuous
100
AcDbCircle
 10
195.7499999999998
 20
126.0
 30
0.0
 40
1.25
100
AcDbArc
 50
126.869903
 51
233.1300929999999
  0
LINE
  5
194C0
330
19461
100
AcDbEntity
  8
1
  6
Continuous
100
AcDbLine
 10
195.5
 20
121.0
 30
0.0
 11
195.650002
 21
121.0
 31
0.0
  0
LINE
  5
194C1
330
19461
100
AcDbEntity
  8
1
  6
Continuous
100
AcDbLine
 10
195.5
 20
123.0
 30
0.0
 11
195.650002
 21
123.0
 31
0.0
  0
LINE
  5
194C2
330
19461
100
AcDbEntity
  8
1
  6
Continuous
100
AcDbLine
 10
196.150002
 20
121.0
 30
0.0
 11
196.8499979999999
 21
120.849991
 31
0.0
  0
LINE
  5
194C3
330
19461
100
AcDbEntity
  8
1
  6
Continuous
100
AcDbLine
 10
196.8499979999999
 20
123.1499939999998
 30
0.0
 11
196.150002
 21
123.0
 31
0.0
  0
LINE
  5
194C4
330
19461
100
AcDbEntity
  8
1
  6
Continuous
100
AcDbLine
 10
196.8499979999999
 20
123.1499939999998
 30
0.0
 11
196.8499979999999
 21
120.8500059999999
 31
0.0
  0
LINE
  5
194C5
330
19461
100
AcDbEntity
  8
1
  6
Continuous
100
AcDbLine
 10
198.0
 20
116.8134159999999
 30
0.0
 11
195.650002
 21
116.8134159999999
 31
0.0
  0
LINE
  5
194C6
330
19461
100
AcDbEntity
  8
1
  6
Continuous
100
AcDbLine
 10
198.0
 20
116.97702
 30
0.0
 11
195.650002
 21
116.97702
 31
0.0
  0
LINE
  5
194C7
330
19461
100
AcDbEntity
  8
1
  6
Continuous
100
AcDbLine
 10
198.0
 20
112.088669
 30
0.0
 11
195.650002
 21
112.088669
 31
0.0
  0
LINE
  5
194C8
330
19461
100
AcDbEntity
  8
1
  6
Continuous
100
AcDbLine
 10
196.150002
 20
124.5
 30
0.0
 11
196.150002
 21
116.97702
 31
0.0
  0
LINE
  5
194C9
330
19461
100
AcDbEntity
  8
1
  6
Continuous
100
AcDbLine
 10
199.0
 20
115.8134159999999
 30
0.0
 11
199.0
 21
113.088669
 31
0.0
  0
LINE
  5
194CA
330
19461
100
AcDbEntity
  8
1
  6
Continuous
100
AcDbLine
 10
196.150002
 20
124.5
 30
0.0
 11
195.650002
 21
124.5
 31
0.0
  0
LINE
  5
194CB
330
19461
100
AcDbEntity
  8
1
  6
Continuous
100
AcDbLine
 10
195.5
 20
119.615219
 30
0.0
 11
195.038055
 21
114.3351439999999
 31
0.0
  0
LINE
  5
194CC
330
19461
100
AcDbEntity
  8
1
  6
Continuous
100
AcDbLine
 10
195.5
 20
125.0
 30
0.0
 11
195.5
 21
119.615219
 31
0.0
  0
LINE
  5
194CD
330
19461
100
AcDbEntity
  8
1
  6
Continuous
100
AcDbLine
 10
190.5
 20
172.100006
 30
0.0
 11
192.0
 21
170.600006
 31
0.0
  0
LINE
  5
194CE
330
19461
100
AcDbEntity
  8
1
  6
Continuous
100
AcDbLine
 10
185.7499999999998
 20
170.600006
 30
0.0
 11
198.25
 21
170.600006
 31
0.0
  0
LINE
  5
194CF
330
19461
100
AcDbEntity
  8
1
  6
Continuous
100
AcDbLine
 10
198.25
 20
169.0
 30
0.0
 11
185.7499999999998
 21
169.0
 31
0.0
  0
LINE
  5
194D0
330
19461
100
AcDbEntity
  8
1
  6
Continuous
100
AcDbLine
 10
185.8999939999999
 20
172.100006
 30
0.0
 11
198.0999909999999
 21
172.100006
 31
0.0
  0
LINE
  5
194D1
330
19461
100
AcDbEntity
  8
1
  6
Continuous
100
AcDbLine
 10
194.4585
 20
140.0
 30
0.0
 11
189.5415
 21
140.0
 31
0.0
  0
LINE
  5
194D2
330
19461
100
AcDbEntity
  8
1
  6
Continuous
100
AcDbLine
 10
195.0
 20
139.4584959999999
 30
0.0
 11
189.0
 21
139.4584959999999
 31
0.0
  0
LINE
  5
194D3
330
19461
100
AcDbEntity
  8
1
  6
Continuous
100
AcDbLine
 10
194.4585
 20
140.0
 30
0.0
 11
189.5415
 21
140.0
 31
0.0
  0
LINE
  5
194D4
330
19461
100
AcDbEntity
  8
1
  6
Continuous
100
AcDbLine
 10
189.541502
 20
140.0
 30
0.0
 11
188.9999939999999
 21
139.4584959999999
 31
0.0
  0
LINE
  5
194D5
330
19461
100
AcDbEntity
  8
1
  6
Continuous
100
AcDbLine
 10
185.8999939999999
 20
172.100006
 30
0.0
 11
185.8999939999999
 21
170.600006
 31
0.0
  0
LINE
  5
194D6
330
19461
100
AcDbEntity
  8
1
  6
Continuous
100
AcDbLine
 10
185.7499999999998
 20
169.0
 30
0.0
 11
185.7499999999998
 21
170.600006
 31
0.0
  0
LINE
  5
194D7
330
19461
100
AcDbEntity
  8
1
  6
Continuous
100
AcDbLine
 10
195.0
 20
139.4584959999999
 30
0.0
 11
194.458496
 21
140.0
 31
0.0
  0
LINE
  5
194D8
330
19461
100
AcDbEntity
  8
1
  6
Continuous
100
AcDbLine
 10
192.0
 20
172.100006
 30
0.0
 11
193.5
 21
170.600006
 31
0.0
  0
LINE
  5
194D9
330
19461
100
AcDbEntity
  8
1
  6
Continuous
100
AcDbLine
 10
198.0999909999999
 20
172.100006
 30
0.0
 11
198.0999909999999
 21
170.600006
 31
0.0
  0
LINE
  5
194DA
330
19461
100
AcDbEntity
  8
1
  6
Continuous
100
AcDbLine
 10
198.25
 20
169.0
 30
0.0
 11
198.25
 21
170.600006
 31
0.0
  0
LINE
  5
194DB
330
19461
100
AcDbEntity
  8
2
  6
Continuous
100
AcDbLine
 10
274.4584959999999
 20
140.0
 30
0.0
 11
274.4584959999999
 21
127.0
 31
0.0
  0
LINE
  5
194DC
330
19461
100
AcDbEntity
  8
2
  6
Continuous
100
AcDbLine
 10
269.5415039999999
 20
140.0
 30
0.0
 11
269.5415039999999
 21
127.0
 31
0.0
  0
LINE
  5
194DD
330
19461
100
AcDbEntity
  8
1
  6
Continuous
100
AcDbLine
 10
275.0
 20
139.4584959999999
 30
0.0
 11
275.0
 21
127.0
 31
0.0
  0
LINE
  5
194DE
330
19461
100
AcDbEntity
  8
1
  6
Continuous
100
AcDbLine
 10
269.0
 20
139.4584959999999
 30
0.0
 11
269.0
 21
127.0
 31
0.0
  0
LINE
  5
194DF
330
19461
100
AcDbEntity
  8
4
  6
CENTER
100
AcDbLine
 10
272.0
 20
145.0
 30
0.0
 11
272.0
 21
90.0
 31
0.0
  0
ARC
  5
194E0
330
19461
100
AcDbEntity
  8
1
  6
Continuous
100
AcDbCircle
 10
272.0
 20
108.0
 30
0.0
 40
13.0
100
AcDbArc
 50
160.226976
 51
0.00001
  0
ARC
  5
194E1
330
19461
100
AcDbEntity
  8
1
  6
Continuous
100
AcDbCircle
 10
272.0
 20
108.0
 30
0.0
 40
7.0
100
AcDbArc
 50
149.999997
 51
337.975683
  0
LINE
  5
194E2
330
19461
100
AcDbEntity
  8
1
  6
Continuous
100
AcDbLine
 10
280.5
 20
108.0
 30
0.0
 11
276.1651459999999
 21
120.5183409999998
 31
0.0
  0
LINE
  5
194E3
330
19461
100
AcDbEntity
  8
1
  6
Continuous
100
AcDbLine
 10
282.0
 20
121.5
 30
0.0
 11
282.0
 21
108.0
 31
0.0
  0
ARC
  5
194E4
330
19461
100
AcDbEntity
  8
1
  6
Continuous
100
AcDbCircle
 10
279.416199
 20
105.0
 30
0.0
 40
1.0
100
AcDbArc
 50
116.043698
 51
157.9756909999999
  0
ARC
  5
194E5
330
19461
100
AcDbEntity
  8
1
  6
Continuous
100
AcDbCircle
 10
284.0
 20
108.0
 30
0.0
 40
1.0
100
AcDbArc
 50
0.0
 51
90.00000300000001
  0
ARC
  5
194E6
330
19461
100
AcDbEntity
  8
1
  6
Continuous
100
AcDbCircle
 10
283.0
 20
108.0
 30
0.0
 40
1.0
100
AcDbArc
 50
90.00000300000001
 51
180.000005
  0
ARC
  5
194E7
330
19461
100
AcDbEntity
  8
1
  6
Continuous
100
AcDbCircle
 10
281.0
 20
108.0
 30
0.0
 40
1.0
100
AcDbArc
 50
296.0437
 51
0.0
  0
LINE
  5
194E8
330
19461
100
AcDbEntity
  8
1
  6
Continuous
100
AcDbLine
 10
281.439056
 20
107.101532
 30
0.0
 11
278.977142
 21
105.898453
 31
0.0
  0
LINE
  5
194E9
330
19461
100
AcDbEntity
  8
1
  6
Continuous
100
AcDbLine
 10
282.0
 20
108.0
 30
0.0
 11
280.5
 21
108.0
 31
0.0
  0
LINE
  5
194EA
330
19461
100
AcDbEntity
  8
1
  6
Continuous
100
AcDbLine
 10
283.0
 20
109.0
 30
0.0
 11
284.0
 21
109.0
 31
0.0
  0
ARC
  5
194EB
330
19461
100
AcDbEntity
  8
1
  6
Continuous
100
AcDbCircle
 10
277.196152
 20
105.0
 30
0.0
 40
13.0
100
AcDbArc
 50
90.699079
 51
149.999997
  0
LINE
  5
194EC
330
19461
100
AcDbEntity
  8
1
  6
Continuous
100
AcDbLine
 10
269.0
 20
127.0
 30
0.0
 11
275.0
 21
127.0
 31
0.0
  0
LINE
  5
194ED
330
19461
100
AcDbEntity
  8
1
  6
Continuous
100
AcDbLine
 10
265.0
 20
125.0
 30
0.0
 11
279.0
 21
125.0
 31
0.0
  0
ARC
  5
194EE
330
19461
100
AcDbEntity
  8
1
  6
Continuous
100
AcDbCircle
 10
265.0
 20
124.0
 30
0.0
 40
1.0
100
AcDbArc
 50
90.00000300000001
 51
160.226976
  0
ARC
  5
194EF
330
19461
100
AcDbEntity
  8
1
  6
Continuous
100
AcDbCircle
 10
268.25
 20
126.0
 30
0.0
 40
1.25
100
AcDbArc
 50
306.8698979999999
 51
53.130102
  0
LINE
  5
194F0
330
19461
100
AcDbEntity
  8
1
  6
Continuous
100
AcDbLine
 10
264.05896
 20
124.338287
 30
0.0
 11
259.766479
 21
112.397842
 31
0.0
  0
CIRCLE
  5
194F1
330
19461
100
AcDbEntity
  8
1
  6
Continuous
100
AcDbCircle
 10
279.0
 20
122.0
 30
0.0
 40
1.149999999999999
  0
ARC
  5
194F2
330
19461
100
AcDbEntity
  8
1
  6
Continuous
100
AcDbCircle
 10
279.0
 20
121.5
 30
0.0
 40
3.0
100
AcDbArc
 50
0.0
 51
199.099919
  0
ARC
  5
194F3
330
19461
100
AcDbEntity
  8
1
  6
Continuous
100
AcDbCircle
 10
279.0
 20
122.0
 30
0.0
 40
3.0
100
AcDbArc
 50
0.0
 51
90.00000300000001
  0
ARC
  5
194F4
330
19461
100
AcDbEntity
  8
1
  6
Continuous
100
AcDbCircle
 10
275.7499999999998
 20
126.0
 30
0.0
 40
1.25
100
AcDbArc
 50
126.869903
 51
233.1300929999999
  0
LINE
  5
194F5
330
19461
100
AcDbEntity
  8
4
  6
CENTER
100
AcDbLine
 10
276.0
 20
122.0
 30
0.0
 11
282.0
 21
122.0
 31
0.0
  0
LINE
  5
194F6
330
19461
100
AcDbEntity
  8
4
  6
CENTER
100
AcDbLine
 10
279.0
 20
125.0
 30
0.0
 11
279.0
 21
119.0
 31
0.0
  0
LINE
  5
194F7
330
19461
100
AcDbEntity
  8
1
  6
Continuous
100
AcDbLine
 10
278.555054
 20
112.088654
 30
0.0
 11
276.9189759999998
 21
116.8134
 31
0.0
  0
LINE
  5
194F8
330
19461
100
AcDbEntity
  8
1
  6
Continuous
100
AcDbLine
 10
276.9189759999998
 20
116.8134
 30
0.0
 11
277.391449
 21
116.97702
 31
0.0
  0
LINE
  5
194F9
330
19461
100
AcDbEntity
  8
1
  6
Continuous
100
AcDbLine
 10
278.555054
 20
112.088654
 30
0.0
 11
279.027527
 21
112.2522739999999
 31
0.0
  0
LINE
  5
194FA
330
19461
100
AcDbEntity
  8
1
  6
Continuous
100
AcDbLine
 10
282.0
 20
122.0
 30
0.0
 11
282.0
 21
120.0
 31
0.0
  0
LINE
  5
194FB
330
19461
100
AcDbEntity
  8
1
  6
Continuous
100
AcDbLine
 10
269.5415039999999
 20
140.0
 30
0.0
 11
274.4584959999999
 21
140.0
 31
0.0
  0
LINE
  5
194FC
330
19461
100
AcDbEntity
  8
1
  6
Continuous
100
AcDbLine
 10
269.0
 20
139.4584959999999
 30
0.0
 11
275.0
 21
139.4584959999999
 31
0.0
  0
LINE
  5
194FD
330
19461
100
AcDbEntity
  8
1
  6
Continuous
100
AcDbLine
 10
269.5415039999999
 20
140.0
 30
0.0
 11
274.4584959999999
 21
140.0
 31
0.0
  0
LINE
  5
194FE
330
19461
100
AcDbEntity
  8
1
  6
Continuous
100
AcDbLine
 10
269.0
 20
139.4584959999999
 30
0.0
 11
269.5415039999999
 21
140.0
 31
0.0
  0
LINE
  5
194FF
330
19461
100
AcDbEntity
  8
1
  6
Continuous
100
AcDbLine
 10
274.458511
 20
140.0
 30
0.0
 11
275.0
 21
139.4585109999999
 31
0.0
  0
LINE
  5
19500
330
19461
100
AcDbEntity
  8
1
  6
Continuous
100
AcDbLine
 10
270.5
 20
172.100006
 30
0.0
 11
272.0
 21
170.600006
 31
0.0
  0
LINE
  5
19501
330
19461
100
AcDbEntity
  8
1
  6
Continuous
100
AcDbLine
 10
265.75
 20
169.0
 30
0.0
 11
278.25
 21
169.0
 31
0.0
  0
LINE
  5
19502
330
19461
100
AcDbEntity
  8
1
  6
Continuous
100
AcDbLine
 10
278.25
 20
170.600006
 30
0.0
 11
265.75
 21
170.600006
 31
0.0
  0
LINE
  5
19503
330
19461
100
AcDbEntity
  8
1
  6
Continuous
100
AcDbLine
 10
278.100006
 20
172.100006
 30
0.0
 11
265.900009
 21
172.100006
 31
0.0
  0
LINE
  5
19504
330
19461
100
AcDbEntity
  8
1
  6
Continuous
100
AcDbLine
 10
265.75
 20
169.0
 30
0.0
 11
265.75
 21
170.600006
 31
0.0
  0
LINE
  5
19505
330
19461
100
AcDbEntity
  8
1
  6
Continuous
100
AcDbLine
 10
265.900009
 20
172.100006
 30
0.0
 11
265.900009
 21
170.600006
 31
0.0
  0
LINE
  5
19506
330
19461
100
AcDbEntity
  8
1
  6
Continuous
100
AcDbLine
 10
272.0
 20
172.100006
 30
0.0
 11
273.4999999999998
 21
170.600006
 31
0.0
  0
LINE
  5
19507
330
19461
100
AcDbEntity
  8
1
  6
Continuous
100
AcDbLine
 10
278.25
 20
169.0
 30
0.0
 11
278.25
 21
170.600006
 31
0.0
  0
LINE
  5
19508
330
19461
100
AcDbEntity
  8
1
  6
Continuous
100
AcDbLine
 10
278.100006
 20
172.100006
 30
0.0
 11
278.100006
 21
170.600006
 31
0.0
  0
LINE
  5
19509
330
19461
100
AcDbEntity
  8
1
  6
Continuous
100
AcDbLine
 10
30.5
 20
172.100006
 30
0.0
 11
32.0
 21
170.600006
 31
0.0
  0
LINE
  5
1950A
330
19461
100
AcDbEntity
  8
4
  6
CENTER
100
AcDbLine
 10
41.15000199999999
 20
108.0
 30
0.0
 11
22.85
 21
108.0
 31
0.0
  0
ARC
  5
1950B
330
19461
100
AcDbEntity
  8
1
  6
Continuous
100
AcDbCircle
 10
31.408722
 20
120.5
 30
0.0
 40
0.25
100
AcDbArc
 50
175.000006
 51
355.0000109999999
  0
ARC
  5
1950C
330
19461
100
AcDbEntity
  8
1
  6
Continuous
100
AcDbCircle
 10
31.671173
 20
123.5
 30
0.0
 40
0.25
100
AcDbArc
 50
355.0
 51
175.000006
  0
ARC
  5
1950D
330
19461
100
AcDbEntity
  8
1
  6
Continuous
100
AcDbCircle
 10
32.0
 20
98.0
 30
0.0
 40
3.0
100
AcDbArc
 50
179.9999909999999
 51
0.00001
  0
LINE
  5
1950E
330
19461
100
AcDbEntity
  8
1
  6
Continuous
100
AcDbLine
 10
25.75
 20
170.600006
 30
0.0
 11
38.25
 21
170.600006
 31
0.0
  0
LINE
  5
1950F
330
19461
100
AcDbEntity
  8
1
  6
Continuous
100
AcDbLine
 10
38.25
 20
169.0
 30
0.0
 11
25.75
 21
169.0
 31
0.0
  0
LINE
  5
19510
330
19461
100
AcDbEntity
  8
1
  6
Continuous
100
AcDbLine
 10
25.89999399999999
 20
172.100006
 30
0.0
 11
38.09997599999999
 21
172.100006
 31
0.0
  0
LINE
  5
19511
330
19461
100
AcDbEntity
  8
1
  6
Continuous
100
AcDbLine
 10
31.0
 20
118.087494
 30
0.0
 11
32.0
 21
118.0
 31
0.0
  0
LINE
  5
19512
330
19461
100
AcDbEntity
  8
1
  6
Continuous
100
AcDbLine
 10
28.350006
 20
117.0
 30
0.0
 11
35.649994
 21
117.0
 31
0.0
  0
LINE
  5
19513
330
19461
100
AcDbEntity
  8
4
  6
CENTER
100
AcDbLine
 10
23.850006
 20
122.0
 30
0.0
 11
39.850006
 21
122.0
 31
0.0
  0
LINE
  5
19514
330
19461
100
AcDbEntity
  8
1
  6
Continuous
100
AcDbLine
 10
29.91284199999999
 20
108.817398
 30
0.0
 11
32.0
 21
109.0
 31
0.0
  0
LINE
  5
19515
330
19461
100
AcDbEntity
  8
1
  6
Continuous
100
AcDbLine
 10
28.5
 20
125.0
 30
0.0
 11
35.5
 21
125.0
 31
0.0
  0
LINE
  5
19516
330
19461
100
AcDbEntity
  8
1
  6
Continuous
100
AcDbLine
 10
29.54150399999999
 20
140.0
 30
0.0
 11
34.45849599999999
 21
140.0
 31
0.0
  0
LINE
  5
19517
330
19461
100
AcDbEntity
  8
1
  6
Continuous
100
AcDbLine
 10
29.0
 20
139.4584959999999
 30
0.0
 11
35.0
 21
139.4584959999999
 31
0.0
  0
LINE
  5
19518
330
19461
100
AcDbEntity
  8
1
  6
Continuous
100
AcDbLine
 10
29.54150399999999
 20
140.0
 30
0.0
 11
34.45849599999999
 21
140.0
 31
0.0
  0
LINE
  5
19519
330
19461
100
AcDbEntity
  8
1
  6
Continuous
100
AcDbLine
 10
29.0
 20
127.0
 30
0.0
 11
35.0
 21
127.0
 31
0.0
  0
LINE
  5
1951A
330
19461
100
AcDbEntity
  8
1
  6
Continuous
100
AcDbLine
 10
29.0
 20
139.4584959999999
 30
0.0
 11
29.0
 21
127.0
 31
0.0
  0
LINE
  5
1951B
330
19461
100
AcDbEntity
  8
2
  6
Continuous
100
AcDbLine
 10
29.54150399999999
 20
140.0
 30
0.0
 11
29.54150399999999
 21
127.0
 31
0.0
  0
LINE
  5
1951C
330
19461
100
AcDbEntity
  8
1
  6
Continuous
100
AcDbLine
 10
27.850006
 20
124.5
 30
0.0
 11
27.850006
 21
108.0
 31
0.0
  0
ARC
  5
1951D
330
19461
100
AcDbEntity
  8
1
  6
Continuous
100
AcDbCircle
 10
30.0
 20
107.821198
 30
0.0
 40
1.0
100
AcDbArc
 50
95.000002
 51
180.000005
  0
LINE
  5
1951E
330
19461
100
AcDbEntity
  8
1
  6
Continuous
100
AcDbLine
 10
27.850006
 20
108.0
 30
0.0
 11
29.016113
 21
108.0
 31
0.0
  0
LINE
  5
1951F
330
19461
100
AcDbEntity
  8
1
  6
Continuous
100
AcDbLine
 10
29.0
 20
107.821198
 30
0.0
 11
29.0
 21
98.0
 31
0.0
  0
ARC
  5
19520
330
19461
100
AcDbEntity
  8
1
  6
Continuous
100
AcDbCircle
 10
28.350006
 20
117.5
 30
0.0
 40
0.5
100
AcDbArc
 50
179.9999909999999
 51
270.000001
  0
ARC
  5
19521
330
19461
100
AcDbEntity
  8
1
  6
Continuous
100
AcDbCircle
 10
28.850006
 20
117.5
 30
0.0
 40
0.5
100
AcDbArc
 50
179.9999909999999
 51
270.000001
  0
ARC
  5
19522
330
19461
100
AcDbEntity
  8
1
  6
Continuous
100
AcDbCircle
 10
30.75
 20
123.5
 30
0.0
 40
0.25
100
AcDbArc
 50
0.0
 51
180.000005
  0
ARC
  5
19523
330
19461
100
AcDbEntity
  8
1
  6
Continuous
100
AcDbCircle
 10
26.0
 20
113.2522739999999
 30
0.0
 40
1.0
100
AcDbArc
 50
180.000005
 51
270.000001
  0
ARC
  5
19524
330
19461
100
AcDbEntity
  8
1
  6
Continuous
100
AcDbCircle
 10
26.0
 20
115.97702
 30
0.0
 40
1.0
100
AcDbArc
 50
90.00000300000001
 51
180.000005
  0
ARC
  5
19525
330
19461
100
AcDbEntity
  8
1
  6
Continuous
100
AcDbCircle
 10
26.0
 20
113.088669
 30
0.0
 40
1.0
100
AcDbArc
 50
180.000005
 51
270.000001
  0
ARC
  5
19526
330
19461
100
AcDbEntity
  8
1
  6
Continuous
100
AcDbCircle
 10
30.0
 20
119.68071
 30
0.0
 40
1.5
100
AcDbArc
 50
179.9999909999999
 51
265.0000019999999
  0
ARC
  5
19527
330
19461
100
AcDbEntity
  8
1
  6
Continuous
100
AcDbCircle
 10
30.0
 20
123.5
 30
0.0
 40
1.5
100
AcDbArc
 50
90.00000300000001
 51
180.000005
  0
ARC
  5
19528
330
19461
100
AcDbEntity
  8
1
  6
Continuous
100
AcDbCircle
 10
28.25
 20
126.0
 30
0.0
 40
1.25
100
AcDbArc
 50
306.8698979999999
 51
53.130102
  0
LINE
  5
19529
330
19461
100
AcDbEntity
  8
1
  6
Continuous
100
AcDbLine
 10
30.994171
 20
123.5536189999999
 30
0.0
 11
31.115753
 21
123.0
 31
0.0
  0
LINE
  5
1952A
330
19461
100
AcDbEntity
  8
1
  6
Continuous
100
AcDbLine
 10
31.042969
 20
121.0
 30
0.0
 11
31.16452
 21
120.446381
 31
0.0
  0
LINE
  5
1952B
330
19461
100
AcDbEntity
  8
1
  6
Continuous
100
AcDbLine
 10
31.201508
 20
121.0
 30
0.0
 11
31.0
 21
121.0
 31
0.0
  0
LINE
  5
1952C
330
19461
100
AcDbEntity
  8
1
  6
Continuous
100
AcDbLine
 10
31.376495
 20
123.0
 30
0.0
 11
31.0
 21
123.0
 31
0.0
  0
LINE
  5
1952D
330
19461
100
AcDbEntity
  8
1
  6
Continuous
100
AcDbLine
 10
28.5
 20
121.0
 30
0.0
 11
28.350006
 21
121.0
 31
0.0
  0
LINE
  5
1952E
330
19461
100
AcDbEntity
  8
1
  6
Continuous
100
AcDbLine
 10
28.5
 20
123.0
 30
0.0
 11
28.350006
 21
123.0
 31
0.0
  0
LINE
  5
1952F
330
19461
100
AcDbEntity
  8
1
  6
Continuous
100
AcDbLine
 10
31.42211899999999
 20
123.52179
 30
0.0
 11
31.159668
 21
120.52179
 31
0.0
  0
LINE
  5
19530
330
19461
100
AcDbEntity
  8
1
  6
Continuous
100
AcDbLine
 10
31.0
 20
123.5
 30
0.0
 11
31.0
 21
117.0
 31
0.0
  0
LINE
  5
19531
330
19461
100
AcDbEntity
  8
1
  6
Continuous
100
AcDbLine
 10
27.14999399999999
 20
123.1499939999998
 30
0.0
 11
27.14999399999999
 21
120.8500059999999
 31
0.0
  0
LINE
  5
19532
330
19461
100
AcDbEntity
  8
1
  6
Continuous
100
AcDbLine
 10
27.14999399999999
 20
123.1499939999998
 30
0.0
 11
27.850006
 21
123.0
 31
0.0
  0
LINE
  5
19533
330
19461
100
AcDbEntity
  8
1
  6
Continuous
100
AcDbLine
 10
27.850006
 20
121.0
 30
0.0
 11
27.15002399999999
 21
120.8500059999999
 31
0.0
  0
LINE
  5
19534
330
19461
100
AcDbEntity
  8
1
  6
Continuous
100
AcDbLine
 10
26.0
 20
112.2522739999999
 30
0.0
 11
27.850006
 21
112.2522739999999
 31
0.0
  0
LINE
  5
19535
330
19461
100
AcDbEntity
  8
1
  6
Continuous
100
AcDbLine
 10
26.0
 20
112.088669
 30
0.0
 11
27.850006
 21
112.088669
 31
0.0
  0
LINE
  5
19536
330
19461
100
AcDbEntity
  8
1
  6
Continuous
100
AcDbLine
 10
26.0
 20
116.97702
 30
0.0
 11
27.850006
 21
116.97702
 31
0.0
  0
LINE
  5
19537
330
19461
100
AcDbEntity
  8
1
  6
Continuous
100
AcDbLine
 10
28.350006
 20
124.5
 30
0.0
 11
28.350006
 21
117.5
 31
0.0
  0
LINE
  5
19538
330
19461
100
AcDbEntity
  8
1
  6
Continuous
100
AcDbLine
 10
25.0
 20
113.088669
 30
0.0
 11
25.0
 21
115.97702
 31
0.0
  0
LINE
  5
19539
330
19461
100
AcDbEntity
  8
1
  6
Continuous
100
AcDbLine
 10
27.850006
 20
124.5
 30
0.0
 11
28.350006
 21
124.5
 31
0.0
  0
LINE
  5
1953A
330
19461
100
AcDbEntity
  8
1
  6
Continuous
100
AcDbLine
 10
28.5
 20
119.615219
 30
0.0
 11
28.728821
 21
117.0
 31
0.0
  0
LINE
  5
1953B
330
19461
100
AcDbEntity
  8
1
  6
Continuous
100
AcDbLine
 10
29.869263
 20
118.1864169999999
 30
0.0
 11
30.5
 21
118.1312409999998
 31
0.0
  0
LINE
  5
1953C
330
19461
100
AcDbEntity
  8
1
  6
Continuous
100
AcDbLine
 10
30.5
 20
125.0
 30
0.0
 11
30.5
 21
117.0
 31
0.0
  0
LINE
  5
1953D
330
19461
100
AcDbEntity
  8
1
  6
Continuous
100
AcDbLine
 10
28.5
 20
125.0
 30
0.0
 11
28.5
 21
119.68071
 31
0.0
  0
LINE
  5
1953E
330
19461
100
AcDbEntity
  8
1
  6
Continuous
100
AcDbLine
 10
29.0
 20
139.4584959999999
 30
0.0
 11
29.54150399999999
 21
140.0
 31
0.0
  0
LINE
  5
1953F
330
19461
100
AcDbEntity
  8
1
  6
Continuous
100
AcDbLine
 10
25.89999399999999
 20
172.100006
 30
0.0
 11
25.89999399999999
 21
170.600006
 31
0.0
  0
LINE
  5
19540
330
19461
100
AcDbEntity
  8
1
  6
Continuous
100
AcDbLine
 10
25.75
 20
169.0
 30
0.0
 11
25.75
 21
170.600006
 31
0.0
  0
LINE
  5
19541
330
19461
100
AcDbEntity
  8
1
  6
Continuous
100
AcDbLine
 10
35.0
 20
139.4584959999999
 30
0.0
 11
35.0
 21
127.0
 31
0.0
  0
LINE
  5
19542
330
19461
100
AcDbEntity
  8
2
  6
Continuous
100
AcDbLine
 10
34.45849599999999
 20
140.0
 30
0.0
 11
34.45849599999999
 21
127.0
 31
0.0
  0
LINE
  5
19543
330
19461
100
AcDbEntity
  8
4
  6
CENTER
100
AcDbLine
 10
32.0
 20
145.0
 30
0.0
 11
32.0
 21
90.0
 31
0.0
  0
LINE
  5
19544
330
19461
100
AcDbEntity
  8
1
  6
Continuous
100
AcDbLine
 10
36.149994
 20
124.5
 30
0.0
 11
36.149994
 21
108.0
 31
0.0
  0
ARC
  5
19545
330
19461
100
AcDbEntity
  8
1
  6
Continuous
100
AcDbCircle
 10
34.0
 20
107.821198
 30
0.0
 40
1.0
100
AcDbArc
 50
0.0
 51
84.99999699999998
  0
LINE
  5
19546
330
19461
100
AcDbEntity
  8
1
  6
Continuous
100
AcDbLine
 10
34.983887
 20
108.0
 30
0.0
 11
36.149994
 21
108.0
 31
0.0
  0
LINE
  5
19547
330
19461
100
AcDbEntity
  8
1
  6
Continuous
100
AcDbLine
 10
32.0
 20
109.0
 30
0.0
 11
34.087158
 21
108.817398
 31
0.0
  0
LINE
  5
19548
330
19461
100
AcDbEntity
  8
1
  6
Continuous
100
AcDbLine
 10
35.0
 20
107.821198
 30
0.0
 11
35.0
 21
98.0
 31
0.0
  0
ARC
  5
19549
330
19461
100
AcDbEntity
  8
1
  6
Continuous
100
AcDbCircle
 10
34.0
 20
123.5
 30
0.0
 40
1.5
100
AcDbArc
 50
0.0
 51
90.00000300000001
  0
ARC
  5
1954A
330
19461
100
AcDbEntity
  8
1
  6
Continuous
100
AcDbCircle
 10
35.149994
 20
117.5
 30
0.0
 40
0.5
100
AcDbArc
 50
269.9999969999999
 51
0.0
  0
ARC
  5
1954B
330
19461
100
AcDbEntity
  8
1
  6
Continuous
100
AcDbCircle
 10
35.649994
 20
117.5
 30
0.0
 40
0.5
100
AcDbArc
 50
269.9999969999999
 51
0.0
  0
ARC
  5
1954C
330
19461
100
AcDbEntity
  8
1
  6
Continuous
100
AcDbCircle
 10
32.98611499999999
 20
120.5
 30
0.0
 40
0.25
100
AcDbArc
 50
175.000006
 51
355.0000109999999
  0
ARC
  5
1954D
330
19461
100
AcDbEntity
  8
1
  6
Continuous
100
AcDbCircle
 10
32.199646
 20
120.5
 30
0.0
 40
0.25
100
AcDbArc
 50
175.000006
 51
355.0000109999999
  0
ARC
  5
1954E
330
19461
100
AcDbEntity
  8
1
  6
Continuous
100
AcDbCircle
 10
33.24859599999999
 20
123.5
 30
0.0
 40
0.25
100
AcDbArc
 50
355.0
 51
175.000006
  0
ARC
  5
1954F
330
19461
100
AcDbEntity
  8
1
  6
Continuous
100
AcDbCircle
 10
32.462097
 20
123.5
 30
0.0
 40
0.25
100
AcDbArc
 50
355.0
 51
175.000006
  0
ARC
  5
19550
330
19461
100
AcDbEntity
  8
1
  6
Continuous
100
AcDbCircle
 10
38.0
 20
113.2522739999999
 30
0.0
 40
1.0
100
AcDbArc
 50
269.9999969999999
 51
0.0
  0
ARC
  5
19551
330
19461
100
AcDbEntity
  8
1
  6
Continuous
100
AcDbCircle
 10
38.0
 20
113.088669
 30
0.0
 40
1.0
100
AcDbArc
 50
269.9999969999999
 51
0.0
  0
ARC
  5
19552
330
19461
100
AcDbEntity
  8
1
  6
Continuous
100
AcDbCircle
 10
38.0
 20
115.97702
 30
0.0
 40
1.0
100
AcDbArc
 50
0.0
 51
90.00000300000001
  0
ARC
  5
19553
330
19461
100
AcDbEntity
  8
1
  6
Continuous
100
AcDbCircle
 10
34.0
 20
119.68071
 30
0.0
 40
1.5
100
AcDbArc
 50
275.0000029999998
 51
0.0
  0
ARC
  5
19554
330
19461
100
AcDbEntity
  8
1
  6
Continuous
100
AcDbCircle
 10
35.75
 20
126.0
 30
0.0
 40
1.25
100
AcDbArc
 50
126.869903
 51
233.1300929999999
  0
LINE
  5
19555
330
19461
100
AcDbEntity
  8
1
  6
Continuous
100
AcDbLine
 10
32.708374
 20
123.5430299999999
 30
0.0
 11
32.80322299999999
 21
123.0
 31
0.0
  0
LINE
  5
19556
330
19461
100
AcDbEntity
  8
1
  6
Continuous
100
AcDbLine
 10
32.64502
 20
121.0
 30
0.0
 11
32.739868
 21
120.456985
 31
0.0
  0
LINE
  5
19557
330
19461
100
AcDbEntity
  8
1
  6
Continuous
100
AcDbLine
 10
31.917389
 20
123.543365
 30
0.0
 11
32.013092
 21
123.0
 31
0.0
  0
LINE
  5
19558
330
19461
100
AcDbEntity
  8
1
  6
Continuous
100
AcDbLine
 10
31.85769699999999
 20
121.0
 30
0.0
 11
31.95339999999999
 21
120.456635
 31
0.0
  0
LINE
  5
19559
330
19461
100
AcDbEntity
  8
1
  6
Continuous
100
AcDbLine
 10
33.5
 20
121.0
 30
0.0
 11
33.280823
 21
121.0
 31
0.0
  0
LINE
  5
1955A
330
19461
100
AcDbEntity
  8
1
  6
Continuous
100
AcDbLine
 10
33.5
 20
123.0
 30
0.0
 11
33.45581099999999
 21
123.0
 31
0.0
  0
LINE
  5
1955B
330
19461
100
AcDbEntity
  8
1
  6
Continuous
100
AcDbLine
 10
32.778931
 20
121.0
 30
0.0
 11
32.49432399999999
 21
121.0
 31
0.0
  0
LINE
  5
1955C
330
19461
100
AcDbEntity
  8
1
  6
Continuous
100
AcDbLine
 10
32.953888
 20
123.0
 30
0.0
 11
32.669312
 21
123.0
 31
0.0
  0
LINE
  5
1955D
330
19461
100
AcDbEntity
  8
1
  6
Continuous
100
AcDbLine
 10
31.992432
 20
121.0
 30
0.0
 11
31.70342999999999
 21
121.0
 31
0.0
  0
LINE
  5
1955E
330
19461
100
AcDbEntity
  8
1
  6
Continuous
100
AcDbLine
 10
32.167389
 20
123.0
 30
0.0
 11
31.878387
 21
123.0
 31
0.0
  0
LINE
  5
1955F
330
19461
100
AcDbEntity
  8
1
  6
Continuous
100
AcDbLine
 10
32.99618499999999
 20
120.250198
 30
0.0
 11
32.99618499999999
 21
119.5
 31
0.0
  0
LINE
  5
19560
330
19461
100
AcDbEntity
  8
1
  6
Continuous
100
AcDbLine
 10
33.5
 20
119.5
 30
0.0
 11
32.99618499999999
 21
119.5
 31
0.0
  0
LINE
  5
19561
330
19461
100
AcDbEntity
  8
1
  6
Continuous
100
AcDbLine
 10
32.711151
 20
123.47821
 30
0.0
 11
32.448669
 21
120.47821
 31
0.0
  0
LINE
  5
19562
330
19461
100
AcDbEntity
  8
1
  6
Continuous
100
AcDbLine
 10
31.920227
 20
123.47821
 30
0.0
 11
31.657776
 21
120.47821
 31
0.0
  0
LINE
  5
19563
330
19461
100
AcDbEntity
  8
1
  6
Continuous
100
AcDbLine
 10
33.49765
 20
123.47821
 30
0.0
 11
33.235168
 21
120.47821
 31
0.0
  0
LINE
  5
19564
330
19461
100
AcDbEntity
  8
1
  6
Continuous
100
AcDbLine
 10
32.999542
 20
123.52179
 30
0.0
 11
32.737091
 21
120.52179
 31
0.0
  0
LINE
  5
19565
330
19461
100
AcDbEntity
  8
1
  6
Continuous
100
AcDbLine
 10
32.21304299999999
 20
123.52179
 30
0.0
 11
31.95059199999999
 21
120.52179
 31
0.0
  0
LINE
  5
19566
330
19461
100
AcDbEntity
  8
1
  6
Continuous
100
AcDbLine
 10
36.149994
 20
123.5
 30
0.0
 11
37.14999399999999
 21
123.5
 31
0.0
  0
LINE
  5
19567
330
19461
100
AcDbEntity
  8
1
  6
Continuous
100
AcDbLine
 10
35.649994
 20
121.0
 30
0.0
 11
35.5
 21
121.0
 31
0.0
  0
LINE
  5
19568
330
19461
100
AcDbEntity
  8
1
  6
Continuous
100
AcDbLine
 10
35.649994
 20
123.0
 30
0.0
 11
35.5
 21
123.0
 31
0.0
  0
LINE
  5
19569
330
19461
100
AcDbEntity
  8
1
  6
Continuous
100
AcDbLine
 10
36.149994
 20
120.5
 30
0.0
 11
37.14999399999999
 21
120.5
 31
0.0
  0
LINE
  5
1956A
330
19461
100
AcDbEntity
  8
1
  6
Continuous
100
AcDbLine
 10
37.14999399999999
 20
123.5
 30
0.0
 11
37.14999399999999
 21
120.5
 31
0.0
  0
LINE
  5
1956B
330
19461
100
AcDbEntity
  8
1
  6
Continuous
100
AcDbLine
 10
36.149994
 20
116.97702
 30
0.0
 11
38.0
 21
116.97702
 31
0.0
  0
LINE
  5
1956C
330
19461
100
AcDbEntity
  8
1
  6
Continuous
100
AcDbLine
 10
36.149994
 20
112.2522739999999
 30
0.0
 11
38.0
 21
112.2522739999999
 31
0.0
  0
LINE
  5
1956D
330
19461
100
AcDbEntity
  8
1
  6
Continuous
100
AcDbLine
 10
36.149994
 20
112.088669
 30
0.0
 11
38.0
 21
112.088669
 31
0.0
  0
LINE
  5
1956E
330
19461
100
AcDbEntity
  8
1
  6
Continuous
100
AcDbLine
 10
35.649994
 20
124.5
 30
0.0
 11
36.149994
 21
124.5
 31
0.0
  0
LINE
  5
1956F
330
19461
100
AcDbEntity
  8
1
  6
Continuous
100
AcDbLine
 10
35.649994
 20
124.5
 30
0.0
 11
35.649994
 21
117.5
 31
0.0
  0
LINE
  5
19570
330
19461
100
AcDbEntity
  8
1
  6
Continuous
100
AcDbLine
 10
39.0
 20
113.088669
 30
0.0
 11
39.0
 21
115.97702
 31
0.0
  0
LINE
  5
19571
330
19461
100
AcDbEntity
  8
1
  6
Continuous
100
AcDbLine
 10
35.5
 20
119.615219
 30
0.0
 11
35.27120999999999
 21
117.0
 31
0.0
  0
LINE
  5
19572
330
19461
100
AcDbEntity
  8
1
  6
Continuous
100
AcDbLine
 10
32.0
 20
118.0
 30
0.0
 11
34.13073699999999
 21
118.1864169999999
 31
0.0
  0
LINE
  5
19573
330
19461
100
AcDbEntity
  8
1
  6
Continuous
100
AcDbLine
 10
33.5
 20
125.0
 30
0.0
 11
33.5
 21
118.131226
 31
0.0
  0
LINE
  5
19574
330
19461
100
AcDbEntity
  8
1
  6
Continuous
100
AcDbLine
 10
35.5
 20
125.0
 30
0.0
 11
35.5
 21
119.68071
 31
0.0
  0
LINE
  5
19575
330
19461
100
AcDbEntity
  8
1
  6
Continuous
100
AcDbLine
 10
34.45849599999999
 20
140.0
 30
0.0
 11
35.0
 21
139.4584959999999
 31
0.0
  0
LINE
  5
19576
330
19461
100
AcDbEntity
  8
1
  6
Continuous
100
AcDbLine
 10
32.0
 20
172.100006
 30
0.0
 11
33.5
 21
170.600006
 31
0.0
  0
LINE
  5
19577
330
19461
100
AcDbEntity
  8
1
  6
Continuous
100
AcDbLine
 10
38.09997599999999
 20
172.100006
 30
0.0
 11
38.09997599999999
 21
170.600006
 31
0.0
  0
LINE
  5
19578
330
19461
100
AcDbEntity
  8
1
  6
Continuous
100
AcDbLine
 10
38.25
 20
169.0
 30
0.0
 11
38.25
 21
170.600006
 31
0.0
  0
LINE
  5
19579
330
19461
100
AcDbEntity
  8
4
  6
CENTER
100
AcDbLine
 10
130.0
 20
224.100006
 30
0.0
 11
94.0
 21
224.100006
 31
0.0
  0
ARC
  5
1957A
330
19461
100
AcDbEntity
  8
1
  6
Continuous
100
AcDbCircle
 10
189.4999999999998
 20
169.879135
 30
0.0
 40
7.220869999999998
100
AcDbArc
 50
69.74379899999999
 51
110.256206
  0
LINE
  5
1957B
330
19461
100
AcDbEntity
  8
1
  6
Continuous
100
AcDbLine
 10
187.0
 20
177.100006
 30
0.0
 11
197.0
 21
177.100006
 31
0.0
  0
ARC
  5
1957C
330
19461
100
AcDbEntity
  8
1
  6
Continuous
100
AcDbCircle
 10
194.5
 20
169.879135
 30
0.0
 40
7.220869999999998
100
AcDbArc
 50
69.74379899999999
 51
110.256206
  0
CIRCLE
  5
1957D
330
19461
100
AcDbEntity
  8
1
  6
Continuous
100
AcDbCircle
 10
112.0
 20
224.100006
 30
0.0
 40
6.25
  0
CIRCLE
  5
1957E
330
19461
100
AcDbEntity
  8
1
  6
Continuous
100
AcDbCircle
 10
112.0
 20
224.100006
 30
0.0
 40
6.099998
  0
CIRCLE
  5
1957F
330
19461
100
AcDbEntity
  8
1
  6
Continuous
100
AcDbCircle
 10
112.0
 20
224.100006
 30
0.0
 40
5.0
  0
ARC
  5
19580
330
19461
100
AcDbEntity
  8
1
  6
Continuous
100
AcDbCircle
 10
102.4999999999999
 20
220.450012
 30
0.0
 40
0.5
100
AcDbArc
 50
180.0
 51
270.0000029999998
  0
LINE
  5
19581
330
19461
100
AcDbEntity
  8
4
  6
CENTER
100
AcDbLine
 10
105.0
 20
232.25
 30
0.0
 11
105.0
 21
216.25
 31
0.0
  0
LINE
  5
19582
330
19461
100
AcDbEntity
  8
1
  6
Continuous
100
AcDbLine
 10
109.113235
 20
219.0999759999999
 30
0.0
 11
106.2264859999999
 21
224.0999759999999
 31
0.0
  0
LINE
  5
19583
330
19461
100
AcDbEntity
  8
1
  6
Continuous
100
AcDbLine
 10
117.773499
 20
224.100006
 30
0.0
 11
114.8867489999999
 21
219.1000059999999
 31
0.0
  0
LINE
  5
19584
330
19461
100
AcDbEntity
  8
4
  6
CENTER
100
AcDbLine
 10
112.0
 20
232.600006
 30
0.0
 11
112.0
 21
215.600006
 31
0.0
  0
ARC
  5
19585
330
19461
100
AcDbEntity
  8
1
  6
Continuous
100
AcDbCircle
 10
272.0
 20
167.546616
 30
0.0
 40
9.553395999999999
100
AcDbArc
 50
72.412006
 51
107.587986
  0
LINE
  5
19586
330
19461
100
AcDbEntity
  8
1
  6
Continuous
100
AcDbLine
 10
277.0
 20
177.100006
 30
0.0
 11
267.0
 21
177.100006
 31
0.0
  0
ARC
  5
19587
330
19461
100
AcDbEntity
  8
1
  6
Continuous
100
AcDbCircle
 10
267.6698759999998
 20
174.5441889999999
 30
0.0
 40
2.55582
100
AcDbArc
 50
55.61568600000001
 51
124.384329
  0
LINE
  5
19588
330
19461
100
AcDbEntity
  8
1
  6
Continuous
100
AcDbLine
 10
267.0
 20
177.100006
 30
0.0
 11
266.2264859999999
 21
176.653412
 31
0.0
  0
ARC
  5
19589
330
19461
100
AcDbEntity
  8
1
  6
Continuous
100
AcDbCircle
 10
276.330124
 20
174.5441889999999
 30
0.0
 40
2.55582
100
AcDbArc
 50
55.61568600000001
 51
124.3843149999999
  0
LINE
  5
1958A
330
19461
100
AcDbEntity
  8
1
  6
Continuous
100
AcDbLine
 10
276.999985
 20
177.100006
 30
0.0
 11
277.773499
 21
176.653412
 31
0.0
  0
LINE
  5
1958B
330
19461
100
AcDbEntity
  8
1
  6
Continuous
100
AcDbLine
 10
109.1132509999999
 20
219.1000059999999
 30
0.0
 11
114.8867489999999
 21
219.1000059999999
 31
0.0
  0
ARC
  5
1958C
330
19461
100
AcDbEntity
  8
1
  6
Continuous
100
AcDbCircle
 10
105.272476
 20
230.800018
 30
0.0
 40
0.3
100
AcDbArc
 50
89.99999700000001
 51
180.0
  0
ARC
  5
1958D
330
19461
100
AcDbEntity
  8
1
  6
Continuous
100
AcDbCircle
 10
106.5810389999999
 20
217.600006
 30
0.0
 40
0.5
100
AcDbArc
 50
269.999999
 51
0.000009
  0
ARC
  5
1958E
330
19461
100
AcDbEntity
  8
1
  6
Continuous
100
AcDbCircle
 10
106.108551
 20
217.600006
 30
0.0
 40
0.5
100
AcDbArc
 50
269.999999
 51
0.000009
  0
LINE
  5
1958F
330
19461
100
AcDbEntity
  8
1
  6
Continuous
100
AcDbLine
 10
104.9724729999998
 20
228.950012
 30
0.0
 11
104.9724729999998
 21
230.800018
 31
0.0
  0
LINE
  5
19590
330
19461
100
AcDbEntity
  8
1
  6
Continuous
100
AcDbLine
 10
103.850006
 20
228.950012
 30
0.0
 11
106.149994
 21
228.950012
 31
0.0
  0
LINE
  5
19591
330
19461
100
AcDbEntity
  8
1
  6
Continuous
100
AcDbLine
 10
103.850006
 20
228.950012
 30
0.0
 11
104.0
 21
228.25
 31
0.0
  0
LINE
  5
19592
330
19461
100
AcDbEntity
  8
1
  6
Continuous
100
AcDbLine
 10
106.0
 20
228.25
 30
0.0
 11
106.149994
 21
228.950012
 31
0.0
  0
LINE
  5
19593
330
19461
100
AcDbEntity
  8
1
  6
Continuous
100
AcDbLine
 10
107.3266749999999
 20
219.9500119999999
 30
0.0
 11
102.4999999999999
 21
219.9500119999999
 31
0.0
  0
LINE
  5
19594
330
19461
100
AcDbEntity
  8
1
  6
Continuous
100
AcDbLine
 10
105.272476
 20
217.100006
 30
0.0
 11
106.5810389999999
 21
217.100006
 31
0.0
  0
LINE
  5
19595
330
19461
100
AcDbEntity
  8
1
  6
Continuous
100
AcDbLine
 10
107.0810389999999
 20
217.600006
 30
0.0
 11
107.0810389999999
 21
219.9500119999999
 31
0.0
  0
LINE
  5
19596
330
19461
100
AcDbEntity
  8
1
  6
Continuous
100
AcDbLine
 10
106.608551
 20
217.600006
 30
0.0
 11
106.608551
 21
219.9500119999999
 31
0.0
  0
CIRCLE
  5
19597
330
19461
100
AcDbEntity
  8
2
  6
Continuous
100
AcDbCircle
 10
112.0
 20
224.100006
 30
0.0
 40
2.458499999999999
  0
CIRCLE
  5
19598
330
19461
100
AcDbEntity
  8
1
  6
Continuous
100
AcDbCircle
 10
112.0
 20
224.100006
 30
0.0
 40
3.0
  0
LINE
  5
19599
330
19461
100
AcDbEntity
  8
1
  6
Continuous
100
AcDbLine
 10
109.1132509999999
 20
229.100006
 30
0.0
 11
114.886734
 21
229.100006
 31
0.0
  0
ARC
  5
1959A
330
19461
100
AcDbEntity
  8
1
  6
Continuous
100
AcDbCircle
 10
118.7774659999998
 20
221.600006
 30
0.0
 40
1.0
100
AcDbArc
 50
329.999997
 51
355.0000059999999
  0
ARC
  5
1959B
330
19461
100
AcDbEntity
  8
1
  6
Continuous
100
AcDbCircle
 10
118.7774659999998
 20
226.600006
 30
0.0
 40
1.0
100
AcDbArc
 50
4.999994
 51
30.000003
  0
ARC
  5
1959C
330
19461
100
AcDbEntity
  8
1
  6
Continuous
100
AcDbCircle
 10
122.0
 20
224.100006
 30
0.0
 40
3.0
100
AcDbArc
 50
278.439053
 51
81.56095
  0
LINE
  5
1959D
330
19461
100
AcDbEntity
  8
1
  6
Continuous
100
AcDbLine
 10
117.773499
 20
224.100006
 30
0.0
 11
114.886734
 21
229.100006
 31
0.0
  0
LINE
  5
1959E
330
19461
100
AcDbEntity
  8
1
  6
Continuous
100
AcDbLine
 10
118.851242
 20
227.600006
 30
0.0
 11
122.4402619999999
 21
227.0675049999999
 31
0.0
  0
LINE
  5
1959F
330
19461
100
AcDbEntity
  8
1
  6
Continuous
100
AcDbLine
 10
118.8512269999999
 20
220.600006
 30
0.0
 11
122.4402619999999
 21
221.132477
 31
0.0
  0
LINE
  5
195A0
330
19461
100
AcDbEntity
  8
1
  6
Continuous
100
AcDbLine
 10
118.851242
 20
220.600006
 30
0.0
 11
117.178085
 21
220.600006
 31
0.0
  0
LINE
  5
195A1
330
19461
100
AcDbEntity
  8
1
  6
Continuous
100
AcDbLine
 10
118.851242
 20
227.600006
 30
0.0
 11
117.178085
 21
227.600006
 31
0.0
  0
LINE
  5
195A2
330
19461
100
AcDbEntity
  8
1
  6
Continuous
100
AcDbLine
 10
120.0
 20
224.100006
 30
0.0
 11
119.773651
 21
221.512848
 31
0.0
  0
LINE
  5
195A3
330
19461
100
AcDbEntity
  8
1
  6
Continuous
100
AcDbLine
 10
120.0
 20
224.100006
 30
0.0
 11
119.773651
 21
226.687164
 31
0.0
  0
ARC
  5
195A4
330
19461
100
AcDbEntity
  8
1
  6
Continuous
100
AcDbCircle
 10
103.4999999999999
 20
224.587555
 30
0.0
 40
0.25
100
AcDbArc
 50
94.999976
 51
275.000029
  0
ARC
  5
195A5
330
19461
100
AcDbEntity
  8
1
  6
Continuous
100
AcDbCircle
 10
103.4999999999999
 20
222.850006
 30
0.0
 40
0.25
100
AcDbArc
 50
95.00000300000001
 51
275.0000019999998
  0
ARC
  5
195A6
330
19461
100
AcDbEntity
  8
1
  6
Continuous
100
AcDbCircle
 10
103.4999999999999
 20
223.7178339999999
 30
0.0
 40
0.25
100
AcDbArc
 50
95.00000300000001
 51
275.0000019999998
  0
ARC
  5
195A7
330
19461
100
AcDbEntity
  8
1
  6
Continuous
100
AcDbCircle
 10
103.4999999999999
 20
225.3500059999999
 30
0.0
 40
0.25
100
AcDbArc
 50
89.99999700000001
 51
270.0000029999998
  0
ARC
  5
195A8
330
19461
100
AcDbEntity
  8
1
  6
Continuous
100
AcDbCircle
 10
106.5810389999999
 20
230.600006
 30
0.0
 40
0.5
100
AcDbArc
 50
359.999995
 51
89.99999700000001
  0
ARC
  5
195A9
330
19461
100
AcDbEntity
  8
1
  6
Continuous
100
AcDbCircle
 10
106.108551
 20
230.600006
 30
0.0
 40
0.5
100
AcDbArc
 50
359.999995
 51
89.99999700000001
  0
ARC
  5
195AA
330
19461
100
AcDbEntity
  8
1
  6
Continuous
100
AcDbCircle
 10
105.272476
 20
217.3999939999999
 30
0.0
 40
0.3
100
AcDbArc
 50
180.0
 51
270.0000029999998
  0
ARC
  5
195AB
330
19461
100
AcDbEntity
  8
1
  6
Continuous
100
AcDbCircle
 10
102.4999999999999
 20
227.7499999999998
 30
0.0
 40
0.5
100
AcDbArc
 50
89.99999700000001
 51
180.0
  0
ARC
  5
195AC
330
19461
100
AcDbEntity
  8
1
  6
Continuous
100
AcDbCircle
 10
101.0
 20
222.100006
 30
0.0
 40
1.0
100
AcDbArc
 50
269.999999
 51
0.000009
  0
ARC
  5
195AD
330
19461
100
AcDbEntity
  8
1
  6
Continuous
100
AcDbCircle
 10
101.0
 20
226.100006
 30
0.0
 40
1.0
100
AcDbArc
 50
359.999995
 51
89.99999700000001
  0
ARC
  5
195AE
330
19461
100
AcDbEntity
  8
1
  6
Continuous
100
AcDbCircle
 10
100.178802
 20
222.100006
 30
0.0
 40
1.0
100
AcDbArc
 50
185.0
 51
270.0000029999998
  0
ARC
  5
195AF
330
19461
100
AcDbEntity
  8
1
  6
Continuous
100
AcDbCircle
 10
100.178802
 20
226.100006
 30
0.0
 40
1.0
100
AcDbArc
 50
89.99999700000001
 51
175.0
  0
ARC
  5
195B0
330
19461
100
AcDbEntity
  8
1
  6
Continuous
100
AcDbCircle
 10
103.0
 20
221.600006
 30
0.0
 40
1.0
100
AcDbArc
 50
180.0
 51
270.0000029999998
  0
ARC
  5
195B1
330
19461
100
AcDbEntity
  8
1
  6
Continuous
100
AcDbCircle
 10
103.0
 20
226.600006
 30
0.0
 40
1.0
100
AcDbArc
 50
89.99999700000001
 51
180.0
  0
LINE
  5
195B2
330
19461
100
AcDbEntity
  8
1
  6
Continuous
100
AcDbLine
 10
106.821915
 20
220.600006
 30
0.0
 11
103.0
 21
220.600006
 31
0.0
  0
LINE
  5
195B3
330
19461
100
AcDbEntity
  8
1
  6
Continuous
100
AcDbLine
 10
106.821915
 20
227.600006
 30
0.0
 11
103.0
 21
227.600006
 31
0.0
  0
LINE
  5
195B4
330
19461
100
AcDbEntity
  8
1
  6
Continuous
100
AcDbLine
 10
103.450546
 20
223.4727779999999
 30
0.0
 11
104.0
 21
223.3619079999999
 31
0.0
  0
LINE
  5
195B5
330
19461
100
AcDbEntity
  8
1
  6
Continuous
100
AcDbLine
 10
104.0
 20
224.233154
 30
0.0
 11
103.4512019999999
 21
224.3423459999999
 31
0.0
  0
LINE
  5
195B6
330
19461
100
AcDbEntity
  8
1
  6
Continuous
100
AcDbLine
 10
103.4589079999998
 20
225.103424
 30
0.0
 11
104.0
 21
225.013245
 31
0.0
  0
LINE
  5
195B7
330
19461
100
AcDbEntity
  8
1
  6
Continuous
100
AcDbLine
 10
104.9724729999998
 20
217.3999939999999
 30
0.0
 11
104.9724729999998
 21
218.9500119999999
 31
0.0
  0
LINE
  5
195B8
330
19461
100
AcDbEntity
  8
1
  6
Continuous
100
AcDbLine
 10
109.1132509999999
 20
229.100006
 30
0.0
 11
106.2265009999999
 21
224.100006
 31
0.0
  0
LINE
  5
195B9
330
19461
100
AcDbEntity
  8
1
  6
Continuous
100
AcDbLine
 10
102.4999999999999
 20
227.466034
 30
0.0
 11
102.4999999999999
 21
227.7499999999998
 31
0.0
  0
LINE
  5
195BA
330
19461
100
AcDbEntity
  8
1
  6
Continuous
100
AcDbLine
 10
104.0
 20
220.600006
 30
0.0
 11
104.0
 21
220.450012
 31
0.0
  0
LINE
  5
195BB
330
19461
100
AcDbEntity
  8
1
  6
Continuous
100
AcDbLine
 10
106.0
 20
220.600006
 30
0.0
 11
106.0
 21
220.450012
 31
0.0
  0
LINE
  5
195BC
330
19461
100
AcDbEntity
  8
1
  6
Continuous
100
AcDbLine
 10
104.0
 20
222.6427919999999
 30
0.0
 11
104.0
 21
222.600006
 31
0.0
  0
LINE
  5
195BD
330
19461
100
AcDbEntity
  8
1
  6
Continuous
100
AcDbLine
 10
104.0
 20
223.51062
 30
0.0
 11
104.0
 21
223.1447139999999
 31
0.0
  0
LINE
  5
195BE
330
19461
100
AcDbEntity
  8
1
  6
Continuous
100
AcDbLine
 10
104.0
 20
224.3803409999999
 30
0.0
 11
104.0
 21
224.012512
 31
0.0
  0
LINE
  5
195BF
330
19461
100
AcDbEntity
  8
1
  6
Continuous
100
AcDbLine
 10
104.0
 20
225.1000059999999
 30
0.0
 11
104.0
 21
224.882233
 31
0.0
  0
LINE
  5
195C0
330
19461
100
AcDbEntity
  8
1
  6
Continuous
100
AcDbLine
 10
105.821335
 20
225.041595
 30
0.0
 11
103.47821
 21
224.8366089999999
 31
0.0
  0
LINE
  5
195C1
330
19461
100
AcDbEntity
  8
1
  6
Continuous
100
AcDbLine
 10
105.7503509999999
 20
224.165649
 30
0.0
 11
103.47821
 21
223.966858
 31
0.0
  0
LINE
  5
195C2
330
19461
100
AcDbEntity
  8
1
  6
Continuous
100
AcDbLine
 10
105.8011169999999
 20
223.302277
 30
0.0
 11
103.47821
 21
223.09906
 31
0.0
  0
LINE
  5
195C3
330
19461
100
AcDbEntity
  8
1
  6
Continuous
100
AcDbLine
 10
105.765137
 20
224.53476
 30
0.0
 11
103.5217899999999
 21
224.3385009999999
 31
0.0
  0
LINE
  5
195C4
330
19461
100
AcDbEntity
  8
1
  6
Continuous
100
AcDbLine
 10
105.765152
 20
223.665039
 30
0.0
 11
103.5217899999999
 21
223.468781
 31
0.0
  0
LINE
  5
195C5
330
19461
100
AcDbEntity
  8
1
  6
Continuous
100
AcDbLine
 10
105.8850559999999
 20
222.8077089999999
 30
0.0
 11
103.5217899999999
 21
222.600952
 31
0.0
  0
LINE
  5
195C6
330
19461
100
AcDbEntity
  8
1
  6
Continuous
100
AcDbLine
 10
105.8305209999999
 20
225.1000059999999
 30
0.0
 11
103.4999999999999
 21
225.1000059999999
 31
0.0
  0
LINE
  5
195C7
330
19461
100
AcDbEntity
  8
1
  6
Continuous
100
AcDbLine
 10
103.4999999999999
 20
219.9500119999999
 30
0.0
 11
103.4999999999999
 21
218.9500119999999
 31
0.0
  0
LINE
  5
195C8
330
19461
100
AcDbEntity
  8
1
  6
Continuous
100
AcDbLine
 10
106.0
 20
227.7499999999998
 30
0.0
 11
106.0
 21
227.600006
 31
0.0
  0
LINE
  5
195C9
330
19461
100
AcDbEntity
  8
1
  6
Continuous
100
AcDbLine
 10
104.0
 20
227.7499999999998
 30
0.0
 11
104.0
 21
227.600006
 31
0.0
  0
LINE
  5
195CA
330
19461
100
AcDbEntity
  8
1
  6
Continuous
100
AcDbLine
 10
106.4999999999999
 20
219.9500119999999
 30
0.0
 11
106.4999999999999
 21
218.9500119999999
 31
0.0
  0
LINE
  5
195CB
330
19461
100
AcDbEntity
  8
1
  6
Continuous
100
AcDbLine
 10
103.4999999999999
 20
218.9500119999999
 30
0.0
 11
106.4999999999999
 21
218.9500119999999
 31
0.0
  0
LINE
  5
195CC
330
19461
100
AcDbEntity
  8
1
  6
Continuous
100
AcDbLine
 10
105.272476
 20
231.100006
 30
0.0
 11
106.5810389999999
 21
231.100006
 31
0.0
  0
LINE
  5
195CD
330
19461
100
AcDbEntity
  8
1
  6
Continuous
100
AcDbLine
 10
107.3266749999999
 20
228.25
 30
0.0
 11
102.4999999999999
 21
228.25
 31
0.0
  0
LINE
  5
195CE
330
19461
100
AcDbEntity
  8
1
  6
Continuous
100
AcDbLine
 10
106.9265439999998
 20
220.450012
 30
0.0
 11
102.0
 21
220.450012
 31
0.0
  0
LINE
  5
195CF
330
19461
100
AcDbEntity
  8
1
  6
Continuous
100
AcDbLine
 10
102.4999999999999
 20
220.450012
 30
0.0
 11
102.4999999999999
 21
220.7339779999998
 31
0.0
  0
LINE
  5
195D0
330
19461
100
AcDbEntity
  8
1
  6
Continuous
100
AcDbLine
 10
107.0810389999999
 20
228.25
 30
0.0
 11
107.0810389999999
 21
230.600006
 31
0.0
  0
LINE
  5
195D1
330
19461
100
AcDbEntity
  8
1
  6
Continuous
100
AcDbLine
 10
106.9265439999998
 20
227.7499999999998
 30
0.0
 11
102.0
 21
227.7499999999998
 31
0.0
  0
LINE
  5
195D2
330
19461
100
AcDbEntity
  8
1
  6
Continuous
100
AcDbLine
 10
106.608551
 20
228.25
 30
0.0
 11
106.608551
 21
230.600006
 31
0.0
  0
LINE
  5
195D3
330
19461
100
AcDbEntity
  8
1
  6
Continuous
100
AcDbLine
 10
102.0
 20
227.1000059999999
 30
0.0
 11
100.178802
 21
227.1000059999999
 31
0.0
  0
LINE
  5
195D4
330
19461
100
AcDbEntity
  8
1
  6
Continuous
100
AcDbLine
 10
102.0
 20
221.1000059999999
 30
0.0
 11
100.178802
 21
221.1000059999999
 31
0.0
  0
LINE
  5
195D5
330
19461
100
AcDbEntity
  8
1
  6
Continuous
100
AcDbLine
 10
99.182602
 20
226.187164
 30
0.0
 11
99.0
 21
224.100006
 31
0.0
  0
LINE
  5
195D6
330
19461
100
AcDbEntity
  8
1
  6
Continuous
100
AcDbLine
 10
99.182602
 20
222.012848
 30
0.0
 11
99.0
 21
224.100006
 31
0.0
  0
LINE
  5
195D7
330
19461
100
AcDbEntity
  8
1
  6
Continuous
100
AcDbLine
 10
102.0
 20
227.7499999999998
 30
0.0
 11
102.0
 21
220.450012
 31
0.0
  0
LINE
  5
195D8
330
19461
100
AcDbEntity
  8
1
  6
Continuous
100
AcDbLine
 10
102.0
 20
222.600006
 30
0.0
 11
102.0
 21
221.600006
 31
0.0
  0
LINE
  5
195D9
330
19461
100
AcDbEntity
  8
1
  6
Continuous
100
AcDbLine
 10
105.9326629999999
 20
222.600006
 30
0.0
 11
102.0
 21
222.600006
 31
0.0
  0
LINE
  5
195DA
330
19461
100
AcDbEntity
  8
1
  6
Continuous
100
AcDbLine
 10
105.9326629999999
 20
225.600006
 30
0.0
 11
102.0
 21
225.600006
 31
0.0
  0
LINE
  5
195DB
330
19461
100
AcDbEntity
  8
1
  6
Continuous
100
AcDbLine
 10
102.0
 20
226.600006
 30
0.0
 11
102.0
 21
225.600006
 31
0.0
  0
ARC
  5
195DC
330
19461
100
AcDbEntity
  8
1
  6
Continuous
100
AcDbCircle
 10
29.5
 20
169.879135
 30
0.0
 40
7.220869999999998
100
AcDbArc
 50
69.74379899999999
 51
110.256206
  0
LINE
  5
195DD
330
19461
100
AcDbEntity
  8
1
  6
Continuous
100
AcDbLine
 10
27.0
 20
177.100006
 30
0.0
 11
37.0
 21
177.100006
 31
0.0
  0
ARC
  5
195DE
330
19461
100
AcDbEntity
  8
1
  6
Continuous
100
AcDbCircle
 10
34.5
 20
169.879135
 30
0.0
 40
7.220869999999998
100
AcDbArc
 50
69.74379899999999
 51
110.256206
  0
LINE
  5
195DF
330
19461
100
AcDbEntity
  8
4
  6
CENTER
100
AcDbLine
 10
112.0
 20
182.100006
 30
0.0
 11
112.0
 21
164.0
 31
0.0
  0
LINE
  5
195E0
330
19461
100
AcDbEntity
  8
1
  6
Continuous
100
AcDbLine
 10
106.2265009999999
 20
176.653427
 30
0.0
 11
106.2265009999999
 21
172.100006
 31
0.0
  0
LINE
  5
195E1
330
19461
100
AcDbEntity
  8
1
  6
Continuous
100
AcDbLine
 10
109.1132509999999
 20
176.653427
 30
0.0
 11
109.1132509999999
 21
172.100006
 31
0.0
  0
LINE
  5
195E2
330
19461
100
AcDbEntity
  8
1
  6
Continuous
100
AcDbLine
 10
114.8867489999999
 20
176.653427
 30
0.0
 11
114.8867489999999
 21
172.100006
 31
0.0
  0
LINE
  5
195E3
330
19461
100
AcDbEntity
  8
1
  6
Continuous
100
AcDbLine
 10
117.773499
 20
176.653427
 30
0.0
 11
117.773499
 21
172.100006
 31
0.0
  0
LINE
  5
195E4
330
19461
100
AcDbEntity
  8
4
  6
CENTER
100
AcDbLine
 10
112.0
 20
145.0
 30
0.0
 11
112.0
 21
90.0
 31
0.0
  0
LINE
  5
195E5
330
19461
100
AcDbEntity
  8
1
  6
Continuous
100
AcDbLine
 10
109.0
 20
139.4584959999999
 30
0.0
 11
109.0
 21
127.0
 31
0.0
  0
LINE
  5
195E6
330
19461
100
AcDbEntity
  8
1
  6
Continuous
100
AcDbLine
 10
115.0
 20
139.4584959999999
 30
0.0
 11
115.0
 21
127.0
 31
0.0
  0
LINE
  5
195E7
330
19461
100
AcDbEntity
  8
2
  6
Continuous
100
AcDbLine
 10
114.4584959999999
 20
140.0
 30
0.0
 11
114.4584959999999
 21
127.0
 31
0.0
  0
LINE
  5
195E8
330
19461
100
AcDbEntity
  8
2
  6
Continuous
100
AcDbLine
 10
109.5415039999999
 20
140.0
 30
0.0
 11
109.5415039999999
 21
127.0
 31
0.0
  0
ARC
  5
195E9
330
19461
100
AcDbEntity
  8
1
  6
Continuous
100
AcDbCircle
 10
112.0
 20
108.0
 30
0.0
 40
7.0
100
AcDbArc
 50
200.144026
 51
30.000001
  0
ARC
  5
195EA
330
19461
100
AcDbEntity
  8
1
  6
Continuous
100
AcDbCircle
 10
112.0
 20
108.0
 30
0.0
 40
13.0
100
AcDbArc
 50
179.9999909999999
 51
19.773025
  0
LINE
  5
195EB
330
19461
100
AcDbEntity
  8
1
  6
Continuous
100
AcDbLine
 10
103.4999999999999
 20
108.0
 30
0.0
 11
107.834869
 21
120.518356
 31
0.0
  0
LINE
  5
195EC
330
19461
100
AcDbEntity
  8
1
  6
Continuous
100
AcDbLine
 10
102.0
 20
121.5
 30
0.0
 11
102.0
 21
108.0
 31
0.0
  0
ARC
  5
195ED
330
19461
100
AcDbEntity
  8
1
  6
Continuous
100
AcDbCircle
 10
100.0
 20
108.0
 30
0.0
 40
1.0
100
AcDbArc
 50
90.00000300000001
 51
180.000005
  0
ARC
  5
195EE
330
19461
100
AcDbEntity
  8
1
  6
Continuous
100
AcDbCircle
 10
101.0
 20
108.0
 30
0.0
 40
1.0
100
AcDbArc
 50
0.0
 51
90.00000300000001
  0
ARC
  5
195EF
330
19461
100
AcDbEntity
  8
1
  6
Continuous
100
AcDbCircle
 10
103.0
 20
108.0
 30
0.0
 40
1.0
100
AcDbArc
 50
179.9999909999999
 51
248.082853
  0
ARC
  5
195F0
330
19461
100
AcDbEntity
  8
1
  6
Continuous
100
AcDbCircle
 10
104.4893489999999
 20
105.244949
 30
0.0
 40
1.0
100
AcDbArc
 50
20.144031
 51
68.082841
  0
LINE
  5
195F1
330
19461
100
AcDbEntity
  8
1
  6
Continuous
100
AcDbLine
 10
104.8626399999998
 20
106.1726679999999
 30
0.0
 11
102.62674
 21
107.072281
 31
0.0
  0
LINE
  5
195F2
330
19461
100
AcDbEntity
  8
1
  6
Continuous
100
AcDbLine
 10
102.0
 20
108.0
 30
0.0
 11
103.4999999999999
 21
108.0
 31
0.0
  0
LINE
  5
195F3
330
19461
100
AcDbEntity
  8
1
  6
Continuous
100
AcDbLine
 10
101.0
 20
109.0
 30
0.0
 11
100.0
 21
109.0
 31
0.0
  0
ARC
  5
195F4
330
19461
100
AcDbEntity
  8
1
  6
Continuous
100
AcDbCircle
 10
106.803833
 20
105.0
 30
0.0
 40
13.0
100
AcDbArc
 50
30.000001
 51
89.30091899999998
  0
LINE
  5
195F5
330
19461
100
AcDbEntity
  8
1
  6
Continuous
100
AcDbLine
 10
119.0
 20
125.0
 30
0.0
 11
105.0
 21
125.0
 31
0.0
  0
LINE
  5
195F6
330
19461
100
AcDbEntity
  8
1
  6
Continuous
100
AcDbLine
 10
115.0
 20
127.0
 30
0.0
 11
109.0
 21
127.0
 31
0.0
  0
CIRCLE
  5
195F7
330
19461
100
AcDbEntity
  8
1
  6
Continuous
100
AcDbCircle
 10
105.0
 20
122.0
 30
0.0
 40
1.5
  0
ARC
  5
195F8
330
19461
100
AcDbEntity
  8
1
  6
Continuous
100
AcDbCircle
 10
105.0
 20
121.5
 30
0.0
 40
3.0
100
AcDbArc
 50
340.900079
 51
180.000005
  0
ARC
  5
195F9
330
19461
100
AcDbEntity
  8
1
  6
Continuous
100
AcDbCircle
 10
108.25
 20
126.0
 30
0.0
 40
1.25
100
AcDbArc
 50
306.8698979999999
 51
53.130102
  0
ARC
  5
195FA
330
19461
100
AcDbEntity
  8
1
  6
Continuous
100
AcDbCircle
 10
105.0
 20
122.0
 30
0.0
 40
3.0
100
AcDbArc
 50
90.00000300000001
 51
180.000005
  0
LINE
  5
195FB
330
19461
100
AcDbEntity
  8
1
  6
Continuous
100
AcDbLine
 10
105.444946
 20
112.088669
 30
0.0
 11
107.0810239999999
 21
116.8134159999999
 31
0.0
  0
LINE
  5
195FC
330
19461
100
AcDbEntity
  8
1
  6
Continuous
100
AcDbLine
 10
107.0810239999999
 20
116.8134159999999
 30
0.0
 11
106.608551
 21
116.97702
 31
0.0
  0
LINE
  5
195FD
330
19461
100
AcDbEntity
  8
1
  6
Continuous
100
AcDbLine
 10
105.444946
 20
112.088669
 30
0.0
 11
104.9724729999998
 21
112.2522739999999
 31
0.0
  0
LINE
  5
195FE
330
19461
100
AcDbEntity
  8
4
  6
CENTER
100
AcDbLine
 10
105.0
 20
125.0
 30
0.0
 11
105.0
 21
119.0
 31
0.0
  0
LINE
  5
195FF
330
19461
100
AcDbEntity
  8
4
  6
CENTER
100
AcDbLine
 10
108.0
 20
122.0
 30
0.0
 11
102.0
 21
122.0
 31
0.0
  0
LINE
  5
19600
330
19461
100
AcDbEntity
  8
1
  6
Continuous
100
AcDbLine
 10
102.0
 20
122.0
 30
0.0
 11
102.0
 21
120.0
 31
0.0
  0
ARC
  5
19601
330
19461
100
AcDbEntity
  8
1
  6
Continuous
100
AcDbCircle
 10
115.7499999999999
 20
126.0
 30
0.0
 40
1.25
100
AcDbArc
 50
126.869903
 51
233.1300929999999
  0
ARC
  5
19602
330
19461
100
AcDbEntity
  8
1
  6
Continuous
100
AcDbCircle
 10
119.0
 20
124.0
 30
0.0
 40
1.0
100
AcDbArc
 50
19.773027
 51
90.00000300000001
  0
LINE
  5
19603
330
19461
100
AcDbEntity
  8
1
  6
Continuous
100
AcDbLine
 10
119.9410399999998
 20
124.3383029999999
 30
0.0
 11
124.233521
 21
112.397842
 31
0.0
  0
LINE
  5
19604
330
19461
100
AcDbEntity
  8
1
  6
Continuous
100
AcDbLine
 10
114.4584959999999
 20
140.0
 30
0.0
 11
109.5415039999999
 21
140.0
 31
0.0
  0
LINE
  5
19605
330
19461
100
AcDbEntity
  8
1
  6
Continuous
100
AcDbLine
 10
115.0
 20
139.4584959999999
 30
0.0
 11
109.0
 21
139.4584959999999
 31
0.0
  0
LINE
  5
19606
330
19461
100
AcDbEntity
  8
1
  6
Continuous
100
AcDbLine
 10
114.4584959999999
 20
140.0
 30
0.0
 11
109.5415039999999
 21
140.0
 31
0.0
  0
LINE
  5
19607
330
19461
100
AcDbEntity
  8
1
  6
Continuous
100
AcDbLine
 10
109.5415039999999
 20
139.999985
 30
0.0
 11
109.0
 21
139.4584959999999
 31
0.0
  0
LINE
  5
19608
330
19461
100
AcDbEntity
  8
1
  6
Continuous
100
AcDbLine
 10
115.0
 20
139.4585109999999
 30
0.0
 11
114.4584959999999
 21
140.0000149999999
 31
0.0
  0
LINE
  5
19609
330
19461
100
AcDbEntity
  8
1
  6
Continuous
100
AcDbLine
 10
110.4999999999999
 20
172.100006
 30
0.0
 11
112.0
 21
170.600006
 31
0.0
  0
LINE
  5
1960A
330
19461
100
AcDbEntity
  8
1
  6
Continuous
100
AcDbLine
 10
118.25
 20
170.600006
 30
0.0
 11
105.75
 21
170.600006
 31
0.0
  0
LINE
  5
1960B
330
19461
100
AcDbEntity
  8
1
  6
Continuous
100
AcDbLine
 10
105.75
 20
169.0
 30
0.0
 11
118.25
 21
169.0
 31
0.0
  0
LINE
  5
1960C
330
19461
100
AcDbEntity
  8
1
  6
Continuous
100
AcDbLine
 10
118.1000059999999
 20
172.100006
 30
0.0
 11
105.900024
 21
172.100006
 31
0.0
  0
LINE
  5
1960D
330
19461
100
AcDbEntity
  8
1
  6
Continuous
100
AcDbLine
 10
105.900024
 20
172.100006
 30
0.0
 11
105.900024
 21
170.600006
 31
0.0
  0
LINE
  5
1960E
330
19461
100
AcDbEntity
  8
1
  6
Continuous
100
AcDbLine
 10
105.75
 20
169.0
 30
0.0
 11
105.75
 21
170.600006
 31
0.0
  0
LINE
  5
1960F
330
19461
100
AcDbEntity
  8
1
  6
Continuous
100
AcDbLine
 10
112.0
 20
172.100006
 30
0.0
 11
113.5
 21
170.600006
 31
0.0
  0
LINE
  5
19610
330
19461
100
AcDbEntity
  8
1
  6
Continuous
100
AcDbLine
 10
118.1000059999999
 20
172.100006
 30
0.0
 11
118.1000059999999
 21
170.600006
 31
0.0
  0
LINE
  5
19611
330
19461
100
AcDbEntity
  8
1
  6
Continuous
100
AcDbLine
 10
118.25
 20
169.0
 30
0.0
 11
118.25
 21
170.600006
 31
0.0
  0
ARC
  5
19612
330
19461
100
AcDbEntity
  8
1
  6
Continuous
100
AcDbCircle
 10
112.0
 20
167.546616
 30
0.0
 40
9.553395999999999
100
AcDbArc
 50
72.412006
 51
107.587986
  0
LINE
  5
19613
330
19461
100
AcDbEntity
  8
1
  6
Continuous
100
AcDbLine
 10
117.0
 20
177.100006
 30
0.0
 11
107.0
 21
177.100006
 31
0.0
  0
ARC
  5
19614
330
19461
100
AcDbEntity
  8
1
  6
Continuous
100
AcDbCircle
 10
107.669861
 20
174.5441889999999
 30
0.0
 40
2.55582
100
AcDbArc
 50
55.61568600000001
 51
124.384329
  0
LINE
  5
19615
330
19461
100
AcDbEntity
  8
1
  6
Continuous
100
AcDbLine
 10
107.0
 20
177.100006
 30
0.0
 11
106.2265009999999
 21
176.653427
 31
0.0
  0
ARC
  5
19616
330
19461
100
AcDbEntity
  8
1
  6
Continuous
100
AcDbCircle
 10
116.3301389999999
 20
174.5441889999999
 30
0.0
 40
2.55582
100
AcDbArc
 50
55.61568600000001
 51
124.3843149999999
  0
LINE
  5
19617
330
19461
100
AcDbEntity
  8
1
  6
Continuous
100
AcDbLine
 10
117.0
 20
177.100006
 30
0.0
 11
117.773499
 21
176.653427
 31
0.0
  0
LINE
  5
19618
330
19461
100
AcDbEntity
  8
4
  6
CENTER
100
AcDbLine
 10
130.0
 20
48.0
 30
0.0
 11
94.0
 21
48.0
 31
0.0
  0
ARC
  5
19619
330
19461
100
AcDbEntity
  8
1
  6
Continuous
100
AcDbCircle
 10
106.0810389999998
 20
43.349998
 30
0.0
 40
1.0
100
AcDbArc
 50
359.999995
 51
89.99999700000001
  0
ARC
  5
1961A
330
19461
100
AcDbEntity
  8
1
  6
Continuous
100
AcDbCircle
 10
104.444946
 20
43.349998
 30
0.0
 40
1.0
100
AcDbArc
 50
359.999995
 51
89.99999700000001
  0
ARC
  5
1961B
330
19461
100
AcDbEntity
  8
1
  6
Continuous
100
AcDbCircle
 10
102.4999999999999
 20
44.34999799999999
 30
0.0
 40
0.5
100
AcDbArc
 50
180.0
 51
270.0000029999998
  0
LINE
  5
1961C
330
19461
100
AcDbEntity
  8
4
  6
CENTER
100
AcDbLine
 10
112.0
 20
39.5
 30
0.0
 11
112.0
 21
56.5
 31
0.0
  0
LINE
  5
1961D
330
19461
100
AcDbEntity
  8
4
  6
CENTER
100
AcDbLine
 10
105.0
 20
56.150002
 30
0.0
 11
105.0
 21
40.150002
 31
0.0
  0
LINE
  5
1961E
330
19461
100
AcDbEntity
  8
1
  6
Continuous
100
AcDbLine
 10
108.0
 20
44.34999799999999
 30
0.0
 11
108.0
 21
43.849998
 31
0.0
  0
ARC
  5
1961F
330
19461
100
AcDbEntity
  8
1
  6
Continuous
100
AcDbCircle
 10
104.4724729999998
 20
43.349998
 30
0.0
 40
0.5
100
AcDbArc
 50
359.999995
 51
89.99999700000001
  0
ARC
  5
19620
330
19461
100
AcDbEntity
  8
1
  6
Continuous
100
AcDbCircle
 10
106.781036
 20
41.299999
 30
0.0
 40
0.3
100
AcDbArc
 50
269.999999
 51
0.000009
  0
ARC
  5
19621
330
19461
100
AcDbEntity
  8
1
  6
Continuous
100
AcDbCircle
 10
105.9449459999999
 20
41.5
 30
0.0
 40
0.5
100
AcDbArc
 50
180.0
 51
270.0000029999998
  0
ARC
  5
19622
330
19461
100
AcDbEntity
  8
1
  6
Continuous
100
AcDbCircle
 10
105.4724729999998
 20
41.5
 30
0.0
 40
0.5
100
AcDbArc
 50
180.0
 51
270.0000029999998
  0
LINE
  5
19623
330
19461
100
AcDbEntity
  8
1
  6
Continuous
100
AcDbLine
 10
103.4999999999999
 20
53.150002
 30
0.0
 11
104.9724729999998
 21
53.150002
 31
0.0
  0
LINE
  5
19624
330
19461
100
AcDbEntity
  8
1
  6
Continuous
100
AcDbLine
 10
103.4999999999999
 20
52.150002
 30
0.0
 11
103.4999999999999
 21
53.150002
 31
0.0
  0
LINE
  5
19625
330
19461
100
AcDbEntity
  8
1
  6
Continuous
100
AcDbLine
 10
104.4724729999998
 20
43.849998
 30
0.0
 11
102.4999999999999
 21
43.849998
 31
0.0
  0
LINE
  5
19626
330
19461
100
AcDbEntity
  8
1
  6
Continuous
100
AcDbLine
 10
104.9724729999998
 20
43.349998
 30
0.0
 11
104.9724729999998
 21
41.5
 31
0.0
  0
LINE
  5
19627
330
19461
100
AcDbEntity
  8
1
  6
Continuous
100
AcDbLine
 10
105.444946
 20
43.349998
 30
0.0
 11
105.444946
 21
41.5
 31
0.0
  0
LINE
  5
19628
330
19461
100
AcDbEntity
  8
1
  6
Continuous
100
AcDbLine
 10
107.0810389999999
 20
43.349998
 30
0.0
 11
107.0810389999999
 21
41.299999
 31
0.0
  0
LINE
  5
19629
330
19461
100
AcDbEntity
  8
1
  6
Continuous
100
AcDbLine
 10
108.0
 20
43.849998
 30
0.0
 11
106.947052
 21
43.849998
 31
0.0
  0
LINE
  5
1962A
330
19461
100
AcDbEntity
  8
1
  6
Continuous
100
AcDbLine
 10
106.781036
 20
41.0
 30
0.0
 11
105.4724729999998
 21
41.0
 31
0.0
  0
LINE
  5
1962B
330
19461
100
AcDbEntity
  8
1
  6
Continuous
100
AcDbLine
 10
122.0
 20
45.0
 30
0.0
 11
100.178802
 21
45.0
 31
0.0
  0
LINE
  5
1962C
330
19461
100
AcDbEntity
  8
1
  6
Continuous
100
AcDbLine
 10
122.0
 20
51.0
 30
0.0
 11
100.178802
 21
51.0
 31
0.0
  0
LINE
  5
1962D
330
19461
100
AcDbEntity
  8
1
  6
Continuous
100
AcDbLine
 10
118.851242
 20
51.5
 30
0.0
 11
103.0
 21
51.5
 31
0.0
  0
LINE
  5
1962E
330
19461
100
AcDbEntity
  8
1
  6
Continuous
100
AcDbLine
 10
118.851242
 20
44.5
 30
0.0
 11
103.0
 21
44.5
 31
0.0
  0
ARC
  5
1962F
330
19461
100
AcDbEntity
  8
1
  6
Continuous
100
AcDbCircle
 10
122.0
 20
48.0
 30
0.0
 40
3.0
100
AcDbArc
 50
278.439053
 51
81.56095699999999
  0
LINE
  5
19630
330
19461
100
AcDbEntity
  8
1
  6
Continuous
100
AcDbLine
 10
118.851242
 20
51.5
 30
0.0
 11
122.4402619999999
 21
50.96751799999999
 31
0.0
  0
LINE
  5
19631
330
19461
100
AcDbEntity
  8
1
  6
Continuous
100
AcDbLine
 10
118.851242
 20
44.499996
 30
0.0
 11
122.4402769999999
 21
45.03247799999999
 31
0.0
  0
ARC
  5
19632
330
19461
100
AcDbEntity
  8
1
  6
Continuous
100
AcDbCircle
 10
106.0810389999998
 20
52.650002
 30
0.0
 40
1.0
100
AcDbArc
 50
269.999999
 51
0.000009
  0
ARC
  5
19633
330
19461
100
AcDbEntity
  8
1
  6
Continuous
100
AcDbCircle
 10
104.444946
 20
52.650002
 30
0.0
 40
1.0
100
AcDbArc
 50
269.999999
 51
0.000009
  0
ARC
  5
19634
330
19461
100
AcDbEntity
  8
1
  6
Continuous
100
AcDbCircle
 10
104.4724729999998
 20
52.650002
 30
0.0
 40
0.5
100
AcDbArc
 50
269.999999
 51
0.000009
  0
ARC
  5
19635
330
19461
100
AcDbEntity
  8
1
  6
Continuous
100
AcDbCircle
 10
100.178802
 20
46.0
 30
0.0
 40
1.0
100
AcDbArc
 50
185.0
 51
270.0000029999998
  0
ARC
  5
19636
330
19461
100
AcDbEntity
  8
1
  6
Continuous
100
AcDbCircle
 10
100.178802
 20
50.0
 30
0.0
 40
1.0
100
AcDbArc
 50
89.99999700000001
 51
175.0
  0
ARC
  5
19637
330
19461
100
AcDbEntity
  8
1
  6
Continuous
100
AcDbCircle
 10
103.0
 20
45.49999999999999
 30
0.0
 40
1.0
100
AcDbArc
 50
240.0000019999999
 51
270.0000029999998
  0
ARC
  5
19638
330
19461
100
AcDbEntity
  8
1
  6
Continuous
100
AcDbCircle
 10
103.0
 20
50.5
 30
0.0
 40
1.0
100
AcDbArc
 50
89.99999700000001
 51
119.999998
  0
ARC
  5
19639
330
19461
100
AcDbEntity
  8
1
  6
Continuous
100
AcDbCircle
 10
106.781036
 20
54.700001
 30
0.0
 40
0.3
100
AcDbArc
 50
359.999995
 51
89.99999700000001
  0
ARC
  5
1963A
330
19461
100
AcDbEntity
  8
1
  6
Continuous
100
AcDbCircle
 10
105.4724729999998
 20
54.5
 30
0.0
 40
0.5
100
AcDbArc
 50
89.99999700000001
 51
180.0
  0
ARC
  5
1963B
330
19461
100
AcDbEntity
  8
1
  6
Continuous
100
AcDbCircle
 10
105.9449459999999
 20
54.5
 30
0.0
 40
0.5
100
AcDbArc
 50
89.99999700000001
 51
180.0
  0
ARC
  5
1963C
330
19461
100
AcDbEntity
  8
1
  6
Continuous
100
AcDbCircle
 10
102.4999999999999
 20
51.650002
 30
0.0
 40
0.5
100
AcDbArc
 50
89.99999700000001
 51
180.0
  0
LINE
  5
1963D
330
19461
100
AcDbEntity
  8
1
  6
Continuous
100
AcDbLine
 10
106.0
 20
44.34999799999999
 30
0.0
 11
106.0
 21
44.5
 31
0.0
  0
LINE
  5
1963E
330
19461
100
AcDbEntity
  8
1
  6
Continuous
100
AcDbLine
 10
106.0
 20
51.5
 30
0.0
 11
106.0
 21
51.650002
 31
0.0
  0
LINE
  5
1963F
330
19461
100
AcDbEntity
  8
1
  6
Continuous
100
AcDbLine
 10
102.0
 20
45.0
 30
0.0
 11
102.0
 21
44.34999799999999
 31
0.0
  0
LINE
  5
19640
330
19461
100
AcDbEntity
  8
1
  6
Continuous
100
AcDbLine
 10
102.4999999999999
 20
45.0
 30
0.0
 11
102.4999999999999
 21
44.34999799999999
 31
0.0
  0
LINE
  5
19641
330
19461
100
AcDbEntity
  8
1
  6
Continuous
100
AcDbLine
 10
104.0
 20
51.5
 30
0.0
 11
104.0
 21
51.650002
 31
0.0
  0
LINE
  5
19642
330
19461
100
AcDbEntity
  8
1
  6
Continuous
100
AcDbLine
 10
104.0
 20
44.34999799999999
 30
0.0
 11
104.0
 21
44.5
 31
0.0
  0
LINE
  5
19643
330
19461
100
AcDbEntity
  8
1
  6
Continuous
100
AcDbLine
 10
103.849991
 20
43.150002
 30
0.0
 11
104.0
 21
43.849998
 31
0.0
  0
LINE
  5
19644
330
19461
100
AcDbEntity
  8
1
  6
Continuous
100
AcDbLine
 10
103.850006
 20
43.150002
 30
0.0
 11
104.9724729999998
 21
43.150002
 31
0.0
  0
LINE
  5
19645
330
19461
100
AcDbEntity
  8
1
  6
Continuous
100
AcDbLine
 10
99.182602
 20
45.912846
 30
0.0
 11
99.0
 21
48.0
 31
0.0
  0
LINE
  5
19646
330
19461
100
AcDbEntity
  8
1
  6
Continuous
100
AcDbLine
 10
99.182602
 20
50.087158
 30
0.0
 11
99.0
 21
48.0
 31
0.0
  0
LINE
  5
19647
330
19461
100
AcDbEntity
  8
1
  6
Continuous
100
AcDbLine
 10
102.133972
 20
45.0
 30
0.0
 11
102.0
 21
45.0
 31
0.0
  0
LINE
  5
19648
330
19461
100
AcDbEntity
  8
1
  6
Continuous
100
AcDbLine
 10
102.133972
 20
51.0
 30
0.0
 11
102.0
 21
51.0
 31
0.0
  0
LINE
  5
19649
330
19461
100
AcDbEntity
  8
1
  6
Continuous
100
AcDbLine
 10
104.4724729999998
 20
52.150002
 30
0.0
 11
102.4999999999999
 21
52.150002
 31
0.0
  0
LINE
  5
1964A
330
19461
100
AcDbEntity
  8
1
  6
Continuous
100
AcDbLine
 10
108.0
 20
44.34999799999999
 30
0.0
 11
102.4999999999999
 21
44.34999799999999
 31
0.0
  0
LINE
  5
1964B
330
19461
100
AcDbEntity
  8
1
  6
Continuous
100
AcDbLine
 10
102.4999999999999
 20
51.650002
 30
0.0
 11
102.4999999999999
 21
51.0
 31
0.0
  0
LINE
  5
1964C
330
19461
100
AcDbEntity
  8
1
  6
Continuous
100
AcDbLine
 10
108.0
 20
51.650002
 30
0.0
 11
102.4999999999999
 21
51.650002
 31
0.0
  0
LINE
  5
1964D
330
19461
100
AcDbEntity
  8
1
  6
Continuous
100
AcDbLine
 10
104.9724729999998
 20
54.5
 30
0.0
 11
104.9724729999998
 21
52.650002
 31
0.0
  0
LINE
  5
1964E
330
19461
100
AcDbEntity
  8
1
  6
Continuous
100
AcDbLine
 10
107.0810389999999
 20
54.700001
 30
0.0
 11
107.0810389999999
 21
52.650002
 31
0.0
  0
LINE
  5
1964F
330
19461
100
AcDbEntity
  8
1
  6
Continuous
100
AcDbLine
 10
105.444946
 20
54.5
 30
0.0
 11
105.444946
 21
52.650002
 31
0.0
  0
LINE
  5
19650
330
19461
100
AcDbEntity
  8
1
  6
Continuous
100
AcDbLine
 10
108.0
 20
52.150002
 30
0.0
 11
106.947052
 21
52.150002
 31
0.0
  0
LINE
  5
19651
330
19461
100
AcDbEntity
  8
1
  6
Continuous
100
AcDbLine
 10
106.781036
 20
55.0
 30
0.0
 11
105.4724729999998
 21
55.0
 31
0.0
  0
LINE
  5
19652
330
19461
100
AcDbEntity
  8
1
  6
Continuous
100
AcDbLine
 10
102.0
 20
51.650002
 30
0.0
 11
102.0
 21
51.0
 31
0.0
  0
LINE
  5
19653
330
19461
100
AcDbEntity
  8
1
  6
Continuous
100
AcDbLine
 10
108.0
 20
52.150002
 30
0.0
 11
108.0
 21
51.650002
 31
0.0
  0
LINE
  5
19654
330
19461
100
AcDbEntity
  8
4
  6
CENTER
100
AcDbLine
 10
192.0
 20
145.0
 30
0.0
 11
192.0
 21
90.0
 31
0.0
  0
ENDSEC
  0
SECTION
  2
OBJECTS
  0
DICTIONARY
  5
1944F
330
0
100
AcDbDictionary
281
     1
  3
ACAD_CIP_PREVIOUS_PRODUCT_INFO
350
196B4
  3
ACAD_COLOR
350
19696
  3
ACAD_DETAILVIEWSTYLE
350
196AF
  3
ACAD_GROUP
350
19450
  3
ACAD_LAYOUT
350
1945C
  3
ACAD_MATERIAL
350
19664
  3
ACAD_MLEADERSTYLE
350
196AB
  3
ACAD_MLINESTYLE
350
19459
  3
ACAD_PLOTSETTINGS
350
1945B
  3
ACAD_PLOTSTYLENAME
350
19662
  3
ACAD_SCALELIST
350
19699
  3
ACAD_SECTIONVIEWSTYLE
350
196AD
  3
ACAD_TABLESTYLE
350
19697
  3
ACAD_VISUALSTYLE
350
1967D
  3
ACDB_RECOMPOSE_DATA
350
196D2
  3
AcDbVariableDictionary
350
196C5
  3
DWGPROPS
350
196D3
  0
DICTIONARY
  5
196B5
330
19453
100
AcDbDictionary
280
     1
281
     1
  3
ADSK_XREC_LAYER_RECONCILED
360
196B6
  0
DICTIONARY
  5
196B7
330
19469
100
AcDbDictionary
280
     1
281
     1
  3
ADSK_XREC_LAYER_RECONCILED
360
196B8
  0
DICTIONARY
  5
196B9
330
1946A
100
AcDbDictionary
280
     1
281
     1
  3
ADSK_XREC_LAYER_RECONCILED
360
196BA
  0
DICTIONARY
  5
196BB
330
1946B
100
AcDbDictionary
280
     1
281
     1
  3
ADSK_XREC_LAYER_RECONCILED
360
196BC
  0
DICTIONARY
  5
196BD
330
1946C
100
AcDbDictionary
280
     1
281
     1
  3
ADSK_XREC_LAYER_RECONCILED
360
196BE
  0
DICTIONARY
  5
196BF
330
1946D
100
AcDbDictionary
280
     1
281
     1
  3
ADSK_XREC_LAYER_RECONCILED
360
196C0
  0
DICTIONARY
  5
196C1
330
1946E
100
AcDbDictionary
280
     1
281
     1
  3
ADSK_XREC_LAYER_RECONCILED
360
196C2
  0
DICTIONARY
  5
196C3
330
1946F
100
AcDbDictionary
280
     1
281
     1
  3
ADSK_XREC_LAYER_RECONCILED
360
196C4
  0
DICTIONARY
  5
1965D
330
19461
100
AcDbDictionary
281
     1
  3
ACAD_LAYOUTSELFREF
350
1965E
  0
DICTIONARY
  5
1965B
330
1945D
100
AcDbDictionary
281
     1
  3
ACAD_LAYOUTSELFREF
350
1965C
  0
XRECORD
  5
196B4
102
{ACAD_REACTORS
330
1944F
102
}
330
1944F
100
AcDbXrecord
280
     1
300
ACDLT
300
2014
300
ACDLT_F_S
  0
DICTIONARY
  5
19696
102
{ACAD_REACTORS
330
1944F
102
}
330
1944F
100
AcDbDictionary
281
     1
  0
DICTIONARY
  5
196AF
102
{ACAD_REACTORS
330
1944F
102
}
330
1944F
100
AcDbDictionary
281
     1
  3
Imperial24
350
196B0
  0
DICTIONARY
  5
19450
102
{ACAD_REACTORS
330
1944F
102
}
330
1944F
100
AcDbDictionary
281
     1
  0
DICTIONARY
  5
1945C
102
{ACAD_REACTORS
330
1944F
102
}
330
1944F
100
AcDbDictionary
281
     1
  3
Model
350
196B1
  3
レイアウト1
350
196B2
  0
DICTIONARY
  5
19664
102
{ACAD_REACTORS
330
1944F
102
}
330
1944F
100
AcDbDictionary
281
     1
  3
ByBlock
350
1966D
  3
ByLayer
350
19665
  3
Global
350
19675
  0
DICTIONARY
  5
196AB
102
{ACAD_REACTORS
330
1944F
102
}
330
1944F
100
AcDbDictionary
281
     1
  3
Standard
350
196AC
  0
DICTIONARY
  5
19459
102
{ACAD_REACTORS
330
1944F
102
}
330
1944F
100
AcDbDictionary
281
     1
  3
STANDARD
350
1945A
  0
DICTIONARY
  5
1945B
102
{ACAD_REACTORS
330
1944F
102
}
330
1944F
100
AcDbDictionary
281
     1
  0
ACDBDICTIONARYWDFLT
  5
19662
102
{ACAD_REACTORS
330
1944F
102
}
330
1944F
100
AcDbDictionary
281
     1
  3
Normal
350
19663
100
AcDbDictionaryWithDefault
340
19663
  0
DICTIONARY
  5
19699
102
{ACAD_REACTORS
330
1944F
102
}
330
1944F
100
AcDbDictionary
281
     1
  3
A0
350
1969A
  3
A1
350
1969B
  3
A2
350
1969C
  3
A3
350
1969D
  3
A4
350
1969E
  3
A5
350
1969F
  3
A6
350
196A0
  3
A7
350
196A1
  3
A8
350
196A2
  3
A9
350
196A3
  3
B0
350
196A4
  3
B1
350
196A5
  3
B2
350
196A6
  3
B3
350
196A7
  3
B4
350
196A8
  3
B5
350
196A9
  3
B6
350
196AA
  0
DICTIONARY
  5
196AD
102
{ACAD_REACTORS
330
1944F
102
}
330
1944F
100
AcDbDictionary
281
     1
  3
Imperial24
350
196AE
  0
DICTIONARY
  5
19697
102
{ACAD_REACTORS
330
1944F
102
}
330
1944F
100
AcDbDictionary
281
     1
  3
Standard
350
19698
  0
DICTIONARY
  5
1967D
102
{ACAD_REACTORS
330
1944F
102
}
330
1944F
100
AcDbDictionary
281
     1
  3
2dWireframe
350
19683
  3
Basic
350
19682
  3
Brighten
350
19689
  3
ColorChange
350
1968D
  3
Conceptual
350
19686
  3
Dim
350
19688
  3
EdgeColorOff
350
19695
  3
Facepattern
350
1968C
  3
Flat
350
1967E
  3
FlatWithEdges
350
1967F
  3
Gouraud
350
19680
  3
GouraudWithEdges
350
19681
  3
Hidden
350
19685
  3
JitterOff
350
19693
  3
Linepattern
350
1968B
  3
OverhangOff
350
19694
  3
Realistic
350
19687
  3
Shaded
350
19692
  3
Shaded with edges
350
19691
  3
Shades of Gray
350
1968E
  3
Sketchy
350
1968F
  3
Thicken
350
1968A
  3
Wireframe
350
19684
  3
X-Ray
350
19690
  0
XRECORD
  5
196D2
102
{ACAD_REACTORS
330
1944F
102
}
330
1944F
100
AcDbXrecord
280
     1
 90
        1
330
19698
  0
DICTIONARY
  5
196C5
102
{ACAD_REACTORS
330
1944F
102
}
330
1944F
100
AcDbDictionary
281
     1
  3
CANNOSCALE
350
196CA
  3
CMLEADERSTYLE
350
196C7
  3
CTABLESTYLE
350
196C6
  3
CVIEWDETAILSTYLE
350
196C8
  3
CVIEWSECTIONSTYLE
350
196C9
  3
DIMASSOC
350
196CD
  3
INDEXCTL
350
196CC
  3
SORTENTS
350
196CB
  3
XCLIPFRAME
350
196CE
  0
XRECORD
  5
196D3
102
{ACAD_REACTORS
330
1944F
102
}
330
1944F
100
AcDbXrecord
280
     1
  1
DWGPROPS COOKIE
  2

  3

  4

  6

  7

  8
Yoshitsune
  9

300
=
301
=
302
=
303
=
304
=
305
=
306
=
307
=
308
=
309
=
 40
0.0000096412037037
 41
2451290.586091204
 42
2457192.659184642
  1

 90
        0
  0
XRECORD
  5
196B6
102
{ACAD_REACTORS
330
196B5
102
}
330
196B5
100
AcDbXrecord
280
     1
290
     1
  0
XRECORD
  5
196B8
102
{ACAD_REACTORS
330
196B7
102
}
330
196B7
100
AcDbXrecord
280
     1
290
     1
  0
XRECORD
  5
196BA
102
{ACAD_REACTORS
330
196B9
102
}
330
196B9
100
AcDbXrecord
280
     1
290
     1
  0
XRECORD
  5
196BC
102
{ACAD_REACTORS
330
196BB
102
}
330
196BB
100
AcDbXrecord
280
     1
290
     1
  0
XRECORD
  5
196BE
102
{ACAD_REACTORS
330
196BD
102
}
330
196BD
100
AcDbXrecord
280
     1
290
     1
  0
XRECORD
  5
196C0
102
{ACAD_REACTORS
330
196BF
102
}
330
196BF
100
AcDbXrecord
280
     1
290
     1
  0
XRECORD
  5
196C2
102
{ACAD_REACTORS
330
196C1
102
}
330
196C1
100
AcDbXrecord
280
     1
290
     1
  0
XRECORD
  5
196C4
102
{ACAD_REACTORS
330
196C3
102
}
330
196C3
100
AcDbXrecord
280
     1
290
     1
  0
XRECORD
  5
1965E
102
{ACAD_REACTORS
330
1965D
102
}
330
1965D
100
AcDbXrecord
280
     1
340
19461
  0
XRECORD
  5
1965C
102
{ACAD_REACTORS
330
1965B
102
}
330
1965B
100
AcDbXrecord
280
     1
340
1945D
  0
ACDBDETAILVIEWSTYLE
  5
196B0
102
{ACAD_XDICTIONARY
360
1970B
102
}
102
{ACAD_REACTORS
330
196AF
102
}
330
196AF
100
AcDbModelDocViewStyle
 70
     0
  3
Imperial24
290
     0
100
AcDbDetailViewStyle
 70
     0
 71
     0
 90
        3
 71
     1
340
19454
 40
0.24
340
0
 40
0.24
300

 40
0.36
280
     3
 71
     2
340
19458
 90
       25
 71
     3
340
19454
 40
0.24
 90
        1
 40
0.75
 90
        1
300
%<\AcVar ViewType \f "%tc1">% %<\AcVar ViewDetailId>%\PSCALE %<\AcVar ViewScale \f "%sn">%
 71
     4
340
19458
 90
       25
340
19458
 90
       25
280
     0
  0
LAYOUT
  5
196B1
102
{ACAD_XDICTIONARY
360
1970D
102
}
102
{ACAD_REACTORS
330
1945C
102
}
330
1945C
100
AcDbPlotSettings
  1

  2
Canon LBP9100C
  4

  6

 40
0.0
 41
0.0
 42
0.0
 43
0.0
 44
0.0
 45
0.0
 46
0.0
 47
0.0
 48
0.0
 49
0.0
140
0.0
141
0.0
142
1.0
143
1.0
 70
  1712
 72
     0
 73
     0
 74
     0
  7

 75
     0
147
1.0
148
0.0
149
0.0
100
AcDbLayout
  1
Model
 70
     1
 71
     0
 10
0.0
 20
0.0
 11
12.0
 21
9.0
 12
0.0
 22
0.0
 32
0.0
 14
0.0
 24
0.0
 34
0.0
 15
0.0
 25
0.0
 35
0.0
146
0.0
 13
0.0
 23
0.0
 33
0.0
 16
1.0
 26
0.0
 36
0.0
 17
0.0
 27
1.0
 37
0.0
 76
     0
330
19461
331
1965A
  0
LAYOUT
  5
196B2
102
{ACAD_XDICTIONARY
360
1970F
102
}
102
{ACAD_REACTORS
330
1945C
102
}
330
1945C
100
AcDbPlotSettings
  1

  2
Canon LBP9100C
  4

  6

 40
0.0
 41
0.0
 42
0.0
 43
0.0
 44
0.0
 45
0.0
 46
0.0
 47
0.0
 48
0.0
 49
0.0
140
0.0
141
0.0
142
1.0
143
1.0
 70
   688
 72
     0
 73
     0
 74
     5
  7

 75
    16
147
1.0
148
0.0
149
0.0
100
AcDbLayout
  1
レイアウト1
 70
     0
 71
     1
 10
0.0
 20
0.0
 11
420.0
 21
297.0
 12
0.0
 22
0.0
 32
0.0
 14
1.000000000000000E+20
 24
1.000000000000000E+20
 34
1.000000000000000E+20
 15
-1.000000000000000E+20
 25
-1.000000000000000E+20
 35
-1.000000000000000E+20
146
0.0
 13
0.0
 23
0.0
 33
0.0
 16
1.0
 26
0.0
 36
0.0
 17
0.0
 27
1.0
 37
0.0
 76
     0
330
1945D
  0
MATERIAL
  5
1966D
102
{ACAD_XDICTIONARY
360
1966E
102
}
102
{ACAD_REACTORS
330
19664
102
}
330
19664
100
AcDbMaterial
  1
ByBlock
 72
     0
 43
0.0208333333333333
 43
0.0
 43
0.0
 43
0.0
 43
0.0
 43
0.0208333333333333
 43
0.0
 43
0.0
 43
0.0
 43
0.0
 43
1.0
 43
0.0
 43
0.0
 43
0.0
 43
0.0
 43
1.0
 77
     0
 47
0.0208333333333333
 47
0.0
 47
0.0
 47
0.0
 47
0.0
 47
0.0208333333333333
 47
0.0
 47
0.0
 47
0.0
 47
0.0
 47
1.0
 47
0.0
 47
0.0
 47
0.0
 47
0.0
 47
1.0
171
     0
 49
0.0208333333333333
 49
0.0
 49
0.0
 49
0.0
 49
0.0
 49
0.0208333333333333
 49
0.0
 49
0.0
 49
0.0
 49
0.0
 49
1.0
 49
0.0
 49
0.0
 49
0.0
 49
0.0
 49
1.0
175
     0
142
0.0208333333333333
142
0.0
142
0.0
142
0.0
142
0.0
142
0.0208333333333333
142
0.0
142
0.0
142
0.0
142
0.0
142
1.0
142
0.0
142
0.0
142
0.0
142
0.0
142
1.0
179
     0
144
0.0208333333333333
144
0.0
144
0.0
144
0.0
144
0.0
144
0.0208333333333333
144
0.0
144
0.0
144
0.0
144
0.0
144
1.0
144
0.0
144
0.0
144
0.0
144
0.0
144
1.0
147
0.0208333333333333
147
0.0
147
0.0
147
0.0
147
0.0
147
0.0208333333333333
147
0.0
147
0.0
147
0.0
147
0.0
147
1.0
147
0.0
147
0.0
147
0.0
147
0.0
147
1.0
  0
MATERIAL
  5
19665
102
{ACAD_XDICTIONARY
360
19666
102
}
102
{ACAD_REACTORS
330
19664
102
}
330
19664
100
AcDbMaterial
  1
ByLayer
 72
     0
 43
0.0208333333333333
 43
0.0
 43
0.0
 43
0.0
 43
0.0
 43
0.0208333333333333
 43
0.0
 43
0.0
 43
0.0
 43
0.0
 43
1.0
 43
0.0
 43
0.0
 43
0.0
 43
0.0
 43
1.0
 77
     0
 47
0.0208333333333333
 47
0.0
 47
0.0
 47
0.0
 47
0.0
 47
0.0208333333333333
 47
0.0
 47
0.0
 47
0.0
 47
0.0
 47
1.0
 47
0.0
 47
0.0
 47
0.0
 47
0.0
 47
1.0
171
     0
 49
0.0208333333333333
 49
0.0
 49
0.0
 49
0.0
 49
0.0
 49
0.0208333333333333
 49
0.0
 49
0.0
 49
0.0
 49
0.0
 49
1.0
 49
0.0
 49
0.0
 49
0.0
 49
0.0
 49
1.0
175
     0
142
0.0208333333333333
142
0.0
142
0.0
142
0.0
142
0.0
142
0.0208333333333333
142
0.0
142
0.0
142
0.0
142
0.0
142
1.0
142
0.0
142
0.0
142
0.0
142
0.0
142
1.0
179
     0
144
0.0208333333333333
144
0.0
144
0.0
144
0.0
144
0.0
144
0.0208333333333333
144
0.0
144
0.0
144
0.0
144
0.0
144
1.0
144
0.0
144
0.0
144
0.0
144
0.0
144
1.0
147
0.0208333333333333
147
0.0
147
0.0
147
0.0
147
0.0
147
0.0208333333333333
147
0.0
147
0.0
147
0.0
147
0.0
147
1.0
147
0.0
147
0.0
147
0.0
147
0.0
147
1.0
  0
MATERIAL
  5
19675
102
{ACAD_XDICTIONARY
360
19676
102
}
102
{ACAD_REACTORS
330
19664
102
}
330
19664
100
AcDbMaterial
  1
Global
 72
     0
 43
0.0208333333333333
 43
0.0
 43
0.0
 43
0.0
 43
0.0
 43
0.0208333333333333
 43
0.0
 43
0.0
 43
0.0
 43
0.0
 43
1.0
 43
0.0
 43
0.0
 43
0.0
 43
0.0
 43
1.0
 77
     0
 47
0.0208333333333333
 47
0.0
 47
0.0
 47
0.0
 47
0.0
 47
0.0208333333333333
 47
0.0
 47
0.0
 47
0.0
 47
0.0
 47
1.0
 47
0.0
 47
0.0
 47
0.0
 47
0.0
 47
1.0
171
     0
 49
0.0208333333333333
 49
0.0
 49
0.0
 49
0.0
 49
0.0
 49
0.0208333333333333
 49
0.0
 49
0.0
 49
0.0
 49
0.0
 49
1.0
 49
0.0
 49
0.0
 49
0.0
 49
0.0
 49
1.0
175
     0
142
0.0208333333333333
142
0.0
142
0.0
142
0.0
142
0.0
142
0.0208333333333333
142
0.0
142
0.0
142
0.0
142
0.0
142
1.0
142
0.0
142
0.0
142
0.0
142
0.0
142
1.0
179
     0
144
0.0208333333333333
144
0.0
144
0.0
144
0.0
144
0.0
144
0.0208333333333333
144
0.0
144
0.0
144
0.0
144
0.0
144
1.0
144
0.0
144
0.0
144
0.0
144
0.0
144
1.0
147
0.0208333333333333
147
0.0
147
0.0
147
0.0
147
0.0
147
0.0208333333333333
147
0.0
147
0.0
147
0.0
147
0.0
147
1.0
147
0.0
147
0.0
147
0.0
147
0.0
147
1.0
  0
MLEADERSTYLE
  5
196AC
102
{ACAD_REACTORS
330
196AB
102
}
330
196AB
100
AcDbMLeaderStyle
170
     2
171
     1
172
     0
 90
        2
 40
0.0
 41
0.0
173
     1
 91
-1056964608
340
19456
 92
       -2
290
     1
 42
0.09
291
     1
 43
0.36
  3
Standard
 44
0.18
300

342
19454
174
     1
178
     6
175
     1
176
     0
 93
-1056964608
 45
0.18
292
     0
297
     0
 46
0.18
 94
-1056964608
 47
1.0
 49
1.0
140
1.0
293
     1
141
0.0
294
     1
177
     0
142
1.0
295
     0
296
     0
143
0.125
1001
ACAD_MLEADERVER
1070
     2
  0
MLINESTYLE
  5
1945A
102
{ACAD_REACTORS
330
19459
102
}
330
19459
100
AcDbMlineStyle
  2
STANDARD
 70
     0
  3

 62
   256
 51
90.0
 52
90.0
 71
     2
 49
0.5
 62
   256
  6
BYLAYER
 49
-0.5
 62
   256
  6
BYLAYER
  0
ACDBPLACEHOLDER
  5
19663
102
{ACAD_REACTORS
330
19662
102
}
330
19662
  0
SCALE
  5
1969A
102
{ACAD_REACTORS
330
19699
102
}
330
19699
100
AcDbScale
 70
     0
300
1:1
140
1.0
141
1.0
290
     1
  0
SCALE
  5
1969B
102
{ACAD_REACTORS
330
19699
102
}
330
19699
100
AcDbScale
 70
     0
300
1/128" = 1'-0"
140
0.0078125
141
12.0
290
     0
  0
SCALE
  5
1969C
102
{ACAD_REACTORS
330
19699
102
}
330
19699
100
AcDbScale
 70
     0
300
1/64" = 1'-0"
140
0.015625
141
12.0
290
     0
  0
SCALE
  5
1969D
102
{ACAD_REACTORS
330
19699
102
}
330
19699
100
AcDbScale
 70
     0
300
1/32" = 1'-0"
140
0.03125
141
12.0
290
     0
  0
SCALE
  5
1969E
102
{ACAD_REACTORS
330
19699
102
}
330
19699
100
AcDbScale
 70
     0
300
1/16" = 1'-0"
140
0.0625
141
12.0
290
     0
  0
SCALE
  5
1969F
102
{ACAD_REACTORS
330
19699
102
}
330
19699
100
AcDbScale
 70
     0
300
3/32" = 1'-0"
140
0.09375
141
12.0
290
     0
  0
SCALE
  5
196A0
102
{ACAD_REACTORS
330
19699
102
}
330
19699
100
AcDbScale
 70
     0
300
1/8" = 1'-0"
140
0.125
141
12.0
290
     0
  0
SCALE
  5
196A1
102
{ACAD_REACTORS
330
19699
102
}
330
19699
100
AcDbScale
 70
     0
300
3/16" = 1'-0"
140
0.1875
141
12.0
290
     0
  0
SCALE
  5
196A2
102
{ACAD_REACTORS
330
19699
102
}
330
19699
100
AcDbScale
 70
     0
300
1/4" = 1'-0"
140
0.25
141
12.0
290
     0
  0
SCALE
  5
196A3
102
{ACAD_REACTORS
330
19699
102
}
330
19699
100
AcDbScale
 70
     0
300
3/8" = 1'-0"
140
0.375
141
12.0
290
     0
  0
SCALE
  5
196A4
102
{ACAD_REACTORS
330
19699
102
}
330
19699
100
AcDbScale
 70
     0
300
1/2" = 1'-0"
140
0.5
141
12.0
290
     0
  0
SCALE
  5
196A5
102
{ACAD_REACTORS
330
19699
102
}
330
19699
100
AcDbScale
 70
     0
300
3/4" = 1'-0"
140
0.75
141
12.0
290
     0
  0
SCALE
  5
196A6
102
{ACAD_REACTORS
330
19699
102
}
330
19699
100
AcDbScale
 70
     0
300
1" = 1'-0"
140
1.0
141
12.0
290
     0
  0
SCALE
  5
196A7
102
{ACAD_REACTORS
330
19699
102
}
330
19699
100
AcDbScale
 70
     0
300
1-1/2" = 1'-0"
140
1.5
141
12.0
290
     0
  0
SCALE
  5
196A8
102
{ACAD_REACTORS
330
19699
102
}
330
19699
100
AcDbScale
 70
     0
300
3" = 1'-0"
140
3.0
141
12.0
290
     0
  0
SCALE
  5
196A9
102
{ACAD_REACTORS
330
19699
102
}
330
19699
100
AcDbScale
 70
     0
300
6" = 1'-0"
140
6.0
141
12.0
290
     0
  0
SCALE
  5
196AA
102
{ACAD_REACTORS
330
19699
102
}
330
19699
100
AcDbScale
 70
     0
300
1'-0" = 1'-0"
140
12.0
141
12.0
290
     0
  0
ACDBSECTIONVIEWSTYLE
  5
196AE
102
{ACAD_XDICTIONARY
360
19709
102
}
102
{ACAD_REACTORS
330
196AD
102
}
330
196AD
100
AcDbModelDocViewStyle
 70
     0
  3
Imperial24
290
     0
100
AcDbSectionViewStyle
 70
     0
 71
     0
 90
       78
 71
     1
340
19454
 40
0.24
340
0
340
0
 40
0.24
300
I, O, Q, S, X, Z
 40
0.48
 90
        3
 40
0.18
 90
        1
 71
     2
340
19458
 90
       25
340
19458
 90
       50
 40
0.24
 40
0.0
 40
0.24
 71
     3
340
19454
 40
0.24
 90
        1
 40
0.75
 90
        1
300
%<\AcVar ViewType \f "%tc1">% %<\AcVar ViewSectionStartId>%-%<\AcVar ViewSectionEndId>%\PSCALE %<\AcVar ViewScale \f "%sn">%
 71
     4
300
ANSI31
 40
1.0
 90
        0
290
     0
290
     0
 90
        6
 40
0.0
 40
1.570796326794896
 40
0.2617993877991494
 40
1.308996938995747
 40
-0.2617993877991494
 40
1.832595714594046
  0
TABLESTYLE
  5
19698
102
{ACAD_XDICTIONARY
360
196D0
102
}
102
{ACAD_REACTORS
330
19697
102
}
330
19697
100
AcDbTableStyle
  3
Standard
 70
     0
 71
     0
 40
0.06
 41
0.06
280
     0
281
     0
  7
STANDARD
140
0.18
170
     2
 62
     0
 63
     7
283
     0
274
    -2
284
     1
 64
     0
275
    -2
285
     1
 65
     0
276
    -2
286
     1
 66
     0
277
    -2
287
     1
 67
     0
278
    -2
288
     1
 68
     0
279
    -2
289
     1
 69
     0
  7
STANDARD
140
0.25
170
     5
 62
     0
 63
     7
283
     0
274
    -2
284
     1
 64
     0
275
    -2
285
     1
 65
     0
276
    -2
286
     1
 66
     0
277
    -2
287
     1
 67
     0
278
    -2
288
     1
 68
     0
279
    -2
289
     1
 69
     0
  7
STANDARD
140
0.18
170
     5
 62
     0
 63
     7
283
     0
274
    -2
284
     1
 64
     0
275
    -2
285
     1
 65
     0
276
    -2
286
     1
 66
     0
277
    -2
287
     1
 67
     0
278
    -2
288
     1
 68
     0
279
    -2
289
     1
 69
     0
  0
VISUALSTYLE
  5
19683
102
{ACAD_XDICTIONARY
360
196E1
102
}
102
{ACAD_REACTORS
330
1967D
102
}
330
1967D
100
AcDbVisualStyle
  2
2dWireframe
 70
     4
 71
     0
 72
     2
 73
     0
 90
        0
 40
-0.6
 41
-30.0
 62
     5
 63
     7
 74
     1
 91
        4
 64
     7
 65
   257
 75
     1
175
     1
 42
1.0
 92
        0
 66
   257
 43
1.0
 76
     1
 77
     6
 78
     2
 67
     7
 79
     5
170
     0
171
     0
290
     0
174
     0
 93
        1
 44
0.0
173
     0
291
     0
 45
0.0
1001
ACAD
1000
AcDbSavedByObjectVersion
1070
     0
  0
VISUALSTYLE
  5
19682
102
{ACAD_XDICTIONARY
360
196DF
102
}
102
{ACAD_REACTORS
330
1967D
102
}
330
1967D
100
AcDbVisualStyle
  2
Basic
 70
     7
 71
     1
 72
     0
 73
     1
 90
        0
 40
-0.6
 41
-30.0
 62
     5
 63
     7
 74
     0
 91
        4
 64
     7
 65
   257
 75
     1
175
     1
 42
1.0
 92
        8
 66
     7
 43
1.0
 76
     1
 77
     6
 78
     2
 67
     7
 79
     5
170
     0
171
     0
290
     0
174
     0
 93
        1
 44
0.0
173
     0
291
     1
 45
0.0
1001
ACAD
1000
AcDbSavedByObjectVersion
1070
     0
  0
VISUALSTYLE
  5
19689
102
{ACAD_XDICTIONARY
360
196ED
102
}
102
{ACAD_REACTORS
330
1967D
102
}
330
1967D
100
AcDbVisualStyle
  2
Brighten
 70
    12
 71
     2
 72
     2
 73
     0
 90
        0
 40
-0.6
 41
-30.0
 62
     5
 63
     7
 74
     1
 91
        4
 64
     7
 65
   257
 75
     1
175
     1
 42
1.0
 92
        8
 66
     7
 43
1.0
 76
     1
 77
     6
 78
     2
 67
     7
 79
     5
170
     0
171
     0
290
     0
174
     0
 93
        1
 44
50.0
173
     0
291
     1
 45
0.0
1001
ACAD
1000
AcDbSavedByObjectVersion
1070
     0
  0
VISUALSTYLE
  5
1968D
102
{ACAD_XDICTIONARY
360
196F5
102
}
102
{ACAD_REACTORS
330
1967D
102
}
330
1967D
100
AcDbVisualStyle
  2
ColorChange
 70
    16
 71
     2
 72
     2
 73
     3
 90
        0
 40
-0.6
 41
-30.0
 62
     5
 63
     8
 74
     1
 91
        4
 64
     7
 65
   257
 75
     1
175
     1
 42
1.0
 92
        8
 66
     8
 43
1.0
 76
     1
 77
     6
 78
     2
 67
     7
 79
     5
170
     0
171
     0
290
     0
174
     0
 93
        1
 44
0.0
173
     0
291
     1
 45
0.0
1001
ACAD
1000
AcDbSavedByObjectVersion
1070
     0
  0
VISUALSTYLE
  5
19686
102
{ACAD_XDICTIONARY
360
196E7
102
}
102
{ACAD_REACTORS
330
1967D
102
}
330
1967D
100
AcDbVisualStyle
  2
Conceptual
 70
     9
 71
     3
 72
     2
 73
     0
 90
        0
 40
-0.6
 41
-30.0
 62
     5
 63
     7
 74
     2
 91
        2
 64
     7
 65
   257
 75
     1
175
     1
 42
179.0
 92
        8
 66
     7
 43
1.0
 76
     1
 77
     6
 78
     2
 67
     7
 79
     3
170
     0
171
     0
290
     0
174
     0
 93
        1
 44
0.0
173
     0
291
     0
 45
0.0
1001
ACAD
1000
AcDbSavedByObjectVersion
1070
     0
  0
VISUALSTYLE
  5
19688
102
{ACAD_XDICTIONARY
360
196EB
102
}
102
{ACAD_REACTORS
330
1967D
102
}
330
1967D
100
AcDbVisualStyle
  2
Dim
 70
    11
 71
     2
 72
     2
 73
     0
 90
        0
 40
-0.6
 41
-30.0
 62
     5
 63
     7
 74
     1
 91
        4
 64
     7
 65
   257
 75
     1
175
     1
 42
1.0
 92
        8
 66
     7
 43
1.0
 76
     1
 77
     6
 78
     2
 67
     7
 79
     5
170
     0
171
     0
290
     0
174
     0
 93
        1
 44
-50.0
173
     0
291
     1
 45
0.0
1001
ACAD
1000
AcDbSavedByObjectVersion
1070
     0
  0
VISUALSTYLE
  5
19695
102
{ACAD_XDICTIONARY
360
19705
102
}
102
{ACAD_REACTORS
330
1967D
102
}
330
1967D
100
AcDbVisualStyle
  2
EdgeColorOff
 70
    22
 71
     2
 72
     2
 73
     0
 90
        0
 40
-0.6
 41
-30.0
 62
     5
 63
     7
 74
     1
 91
        4
 64
     7
 65
   257
 75
     1
175
     1
 42
1.0
 92
        8
 66
     7
 43
1.0
 76
     1
 77
     6
 78
     2
 67
     7
 79
     5
170
     0
171
     0
290
     0
174
     0
 93
        1
 44
0.0
173
     0
291
     1
 45
0.0
1001
ACAD
1000
AcDbSavedByObjectVersion
1070
     0
  0
VISUALSTYLE
  5
1968C
102
{ACAD_XDICTIONARY
360
196F3
102
}
102
{ACAD_REACTORS
330
1967D
102
}
330
1967D
100
AcDbVisualStyle
  2
Facepattern
 70
    15
 71
     2
 72
     2
 73
     0
 90
        0
 40
-0.6
 41
-30.0
 62
     5
 63
     7
 74
     1
 91
        4
 64
     7
 65
   257
 75
     1
175
     1
 42
1.0
 92
        8
 66
     7
 43
1.0
 76
     1
 77
     6
 78
     2
 67
     7
 79
     5
170
     0
171
     0
290
     0
174
     0
 93
        1
 44
0.0
173
     0
291
     1
 45
0.0
1001
ACAD
1000
AcDbSavedByObjectVersion
1070
     0
  0
VISUALSTYLE
  5
1967E
102
{ACAD_XDICTIONARY
360
196D7
102
}
102
{ACAD_REACTORS
330
1967D
102
}
330
1967D
100
AcDbVisualStyle
  2
Flat
 70
     0
 71
     2
 72
     1
 73
     1
 90
        2
 40
-0.6
 41
30.0
 62
     5
 63
     7
 74
     0
 91
        0
 64
     7
 65
   257
 75
     1
175
     1
 42
1.0
 92
        8
 66
     7
 43
1.0
 76
     1
 77
     6
 78
     2
 67
     7
 79
     5
170
     0
171
     0
290
     0
174
     0
 93
       13
 44
0.0
173
     0
291
     1
 45
0.0
1001
ACAD
1000
AcDbSavedByObjectVersion
1070
     0
  0
VISUALSTYLE
  5
1967F
102
{ACAD_XDICTIONARY
360
196D9
102
}
102
{ACAD_REACTORS
330
1967D
102
}
330
1967D
100
AcDbVisualStyle
  2
FlatWithEdges
 70
     1
 71
     2
 72
     1
 73
     1
 90
        2
 40
-0.6
 41
30.0
 62
     5
 63
     7
 74
     1
 91
        0
 64
     7
 65
   257
 75
     1
175
     1
 42
1.0
 92
        0
 66
   257
 43
1.0
 76
     1
 77
     6
 78
     2
 67
     7
 79
     5
170
     0
171
     0
290
     0
174
     0
 93
       13
 44
0.0
173
     0
291
     1
 45
0.0
1001
ACAD
1000
AcDbSavedByObjectVersion
1070
     0
  0
VISUALSTYLE
  5
19680
102
{ACAD_XDICTIONARY
360
196DB
102
}
102
{ACAD_REACTORS
330
1967D
102
}
330
1967D
100
AcDbVisualStyle
  2
Gouraud
 70
     2
 71
     2
 72
     2
 73
     1
 90
        2
 40
-0.6
 41
30.0
 62
     5
 63
     7
 74
     0
 91
        0
 64
     7
 65
   257
 75
     1
175
     1
 42
1.0
 92
        0
 66
     7
 43
1.0
 76
     1
 77
     6
 78
     2
 67
     7
 79
     5
170
     0
171
     0
290
     0
174
     0
 93
       13
 44
0.0
173
     0
291
     1
 45
0.0
1001
ACAD
1000
AcDbSavedByObjectVersion
1070
     0
  0
VISUALSTYLE
  5
19681
102
{ACAD_XDICTIONARY
360
196DD
102
}
102
{ACAD_REACTORS
330
1967D
102
}
330
1967D
100
AcDbVisualStyle
  2
GouraudWithEdges
 70
     3
 71
     2
 72
     2
 73
     1
 90
        2
 40
-0.6
 41
30.0
 62
     5
 63
     7
 74
     1
 91
        0
 64
     7
 65
   257
 75
     1
175
     1
 42
1.0
 92
        0
 66
   257
 43
1.0
 76
     1
 77
     6
 78
     2
 67
     7
 79
     5
170
     0
171
     0
290
     0
174
     0
 93
       13
 44
0.0
173
     0
291
     1
 45
0.0
1001
ACAD
1000
AcDbSavedByObjectVersion
1070
     0
  0
VISUALSTYLE
  5
19685
102
{ACAD_XDICTIONARY
360
196E5
102
}
102
{ACAD_REACTORS
330
1967D
102
}
330
1967D
100
AcDbVisualStyle
  2
Hidden
 70
     6
 71
     1
 72
     2
 73
     2
 90
        0
 40
-0.6
 41
-30.0
 62
     5
 63
     7
 74
     2
 91
        2
 64
     7
 65
   257
 75
     2
175
     1
 42
40.0
 92
        0
 66
   257
 43
1.0
 76
     1
 77
     6
 78
     2
 67
     7
 79
     3
170
     0
171
     0
290
     0
174
     0
 93
        1
 44
0.0
173
     0
291
     0
 45
0.0
1001
ACAD
1000
AcDbSavedByObjectVersion
1070
     0
  0
VISUALSTYLE
  5
19693
102
{ACAD_XDICTIONARY
360
19701
102
}
102
{ACAD_REACTORS
330
1967D
102
}
330
1967D
100
AcDbVisualStyle
  2
JitterOff
 70
    20
 71
     2
 72
     2
 73
     0
 90
        0
 40
-0.6
 41
-30.0
 62
     5
 63
     7
 74
     1
 91
        4
 64
     7
 65
   257
 75
     1
175
     1
 42
1.0
 92
       10
 66
     7
 43
1.0
 76
     1
 77
     6
 78
     2
 67
     7
 79
     5
170
     0
171
     0
290
     0
174
     0
 93
        1
 44
0.0
173
     0
291
     1
 45
0.0
1001
ACAD
1000
AcDbSavedByObjectVersion
1070
     0
  0
VISUALSTYLE
  5
1968B
102
{ACAD_XDICTIONARY
360
196F1
102
}
102
{ACAD_REACTORS
330
1967D
102
}
330
1967D
100
AcDbVisualStyle
  2
Linepattern
 70
    14
 71
     2
 72
     2
 73
     0
 90
        0
 40
-0.6
 41
-30.0
 62
     5
 63
     7
 74
     1
 91
        4
 64
     7
 65
   257
 75
     7
175
     7
 42
1.0
 92
        8
 66
     7
 43
1.0
 76
     1
 77
     6
 78
     2
 67
     7
 79
     5
170
     0
171
     0
290
     0
174
     0
 93
        1
 44
0.0
173
     0
291
     1
 45
0.0
1001
ACAD
1000
AcDbSavedByObjectVersion
1070
     0
  0
VISUALSTYLE
  5
19694
102
{ACAD_XDICTIONARY
360
19703
102
}
102
{ACAD_REACTORS
330
1967D
102
}
330
1967D
100
AcDbVisualStyle
  2
OverhangOff
 70
    21
 71
     2
 72
     2
 73
     0
 90
        0
 40
-0.6
 41
-30.0
 62
     5
 63
     7
 74
     1
 91
        4
 64
     7
 65
   257
 75
     1
175
     1
 42
1.0
 92
        9
 66
     7
 43
1.0
 76
     1
 77
     6
 78
     2
 67
     7
 79
     5
170
     0
171
     0
290
     0
174
     0
 93
        1
 44
0.0
173
     0
291
     1
 45
0.0
1001
ACAD
1000
AcDbSavedByObjectVersion
1070
     0
  0
VISUALSTYLE
  5
19687
102
{ACAD_XDICTIONARY
360
196E9
102
}
102
{ACAD_REACTORS
330
1967D
102
}
330
1967D
100
AcDbVisualStyle
  2
Realistic
 70
     8
 71
     2
 72
     3
 73
     0
 90
        2
 40
-0.6
 41
30.0
 62
     5
 63
     7
 74
     0
 91
        0
 64
     7
 65
   257
 75
     1
175
     1
 42
1.0
 92
        8
 66
   257
 43
1.0
 76
     1
 77
     6
 78
     2
 67
     7
 79
     3
170
     0
171
     0
290
     0
174
     0
 93
       13
 44
0.0
173
     0
291
     0
 45
0.0
1001
ACAD
1000
AcDbSavedByObjectVersion
1070
     0
  0
VISUALSTYLE
  5
19692
102
{ACAD_XDICTIONARY
360
196FF
102
}
102
{ACAD_REACTORS
330
1967D
102
}
330
1967D
100
AcDbVisualStyle
  2
Shaded
 70
    27
 71
     2
 72
     2
 73
     1
 90
        2
 40
-0.6
 41
30.0
 62
     5
 63
     7
 74
     0
 91
        4
 64
     7
 65
   257
 75
     1
175
     1
 42
1.0
 92
        8
 66
   257
 43
1.0
 76
     1
 77
     6
 78
     2
 67
     8
 79
     3
170
     0
171
     0
290
     0
174
     0
 93
        5
 44
0.0
173
     0
291
     0
 45
0.0
1001
ACAD
1000
AcDbSavedByObjectVersion
1070
     0
  0
VISUALSTYLE
  5
19691
102
{ACAD_XDICTIONARY
360
196FD
102
}
102
{ACAD_REACTORS
330
1967D
102
}
330
1967D
100
AcDbVisualStyle
  2
Shaded with edges
 70
    26
 71
     2
 72
     2
 73
     1
 90
        2
 40
-0.6
 41
30.0
 62
     5
 63
     7
 74
     1
 91
       10
 64
     7
 65
   257
 75
     2
175
     1
 42
1.0
 92
        8
 66
   257
 43
1.0
 76
     1
 77
     6
 78
     2
 67
     7
 79
     3
170
     0
171
     0
290
     0
174
     0
 93
        5
 44
0.0
173
     0
291
     0
 45
0.0
1001
ACAD
1000
AcDbSavedByObjectVersion
1070
     0
  0
VISUALSTYLE
  5
1968E
102
{ACAD_XDICTIONARY
360
196F7
102
}
102
{ACAD_REACTORS
330
1967D
102
}
330
1967D
100
AcDbVisualStyle
  2
Shades of Gray
 70
    23
 71
     2
 72
     2
 73
     3
 90
        0
 40
-0.6
 41
-30.0
 62
     5
 63
     7
 74
     2
 91
        2
 64
     7
 65
     7
 75
     1
175
     1
 42
40.0
 92
        8
 66
     7
 43
1.0
 76
     1
 77
     6
 78
     2
 67
     7
 79
     3
170
     0
171
     0
290
     0
174
     0
 93
        1
 44
0.0
173
     0
291
     0
 45
0.0
1001
ACAD
1000
AcDbSavedByObjectVersion
1070
     0
  0
VISUALSTYLE
  5
1968F
102
{ACAD_XDICTIONARY
360
196F9
102
}
102
{ACAD_REACTORS
330
1967D
102
}
330
1967D
100
AcDbVisualStyle
  2
Sketchy
 70
    24
 71
     1
 72
     2
 73
     2
 90
        0
 40
-0.6
 41
-30.0
 62
     5
 63
     7
 74
     2
 91
        2
 64
     7
 65
     7
 75
     1
175
     1
 42
40.0
 92
       11
 66
     7
 43
1.0
 76
     1
 77
     6
 78
     2
 67
     7
 79
     6
170
     0
171
     0
290
     0
174
     0
 93
        1
 44
0.0
173
     0
291
     0
 45
0.0
1001
ACAD
1000
AcDbSavedByObjectVersion
1070
     0
  0
VISUALSTYLE
  5
1968A
102
{ACAD_XDICTIONARY
360
196EF
102
}
102
{ACAD_REACTORS
330
1967D
102
}
330
1967D
100
AcDbVisualStyle
  2
Thicken
 70
    13
 71
     2
 72
     2
 73
     0
 90
        0
 40
-0.6
 41
-30.0
 62
     5
 63
     7
 74
     1
 91
        4
 64
     7
 65
   257
 75
     1
175
     1
 42
1.0
 92
       12
 66
     7
 43
1.0
 76
     1
 77
     6
 78
     2
 67
     7
 79
     5
170
     0
171
     0
290
     0
174
     0
 93
        1
 44
0.0
173
     0
291
     1
 45
0.0
1001
ACAD
1000
AcDbSavedByObjectVersion
1070
     0
  0
VISUALSTYLE
  5
19684
102
{ACAD_XDICTIONARY
360
196E3
102
}
102
{ACAD_REACTORS
330
1967D
102
}
330
1967D
100
AcDbVisualStyle
  2
Wireframe
 70
     5
 71
     0
 72
     2
 73
     0
 90
        0
 40
-0.6
 41
-30.0
 62
     5
 63
     7
 74
     1
 91
        4
 64
     7
 65
   257
 75
     1
175
     1
 42
1.0
 92
        0
 66
   257
 43
1.0
 76
     1
 77
     6
 78
     2
 67
     7
 79
     3
170
     0
171
     0
290
     0
174
     0
 93
        1
 44
0.0
173
     0
291
     0
 45
0.0
1001
ACAD
1000
AcDbSavedByObjectVersion
1070
     0
  0
VISUALSTYLE
  5
19690
102
{ACAD_XDICTIONARY
360
196FB
102
}
102
{ACAD_REACTORS
330
1967D
102
}
330
1967D
100
AcDbVisualStyle
  2
X-Ray
 70
    25
 71
     2
 72
     2
 73
     1
 90
        1
 40
0.5
 41
-30.0
 62
     5
 63
     7
 74
     1
 91
        0
 64
     7
 65
   257
 75
     1
175
     1
 42
1.0
 92
        8
 66
     7
 43
1.0
 76
     1
 77
     6
 78
     2
 67
     7
 79
     3
170
     0
171
     0
290
     0
174
     0
 93
       13
 44
0.0
173
     0
291
     0
 45
0.0
1001
ACAD
1000
AcDbSavedByObjectVersion
1070
     0
  0
DICTIONARYVAR
  5
196CA
102
{ACAD_REACTORS
330
196C5
102
}
330
196C5
100
DictionaryVariables
280
     0
  1
1:1
  0
DICTIONARYVAR
  5
196C7
102
{ACAD_REACTORS
330
196C5
102
}
330
196C5
100
DictionaryVariables
280
     0
  1
STANDARD
  0
DICTIONARYVAR
  5
196C6
102
{ACAD_REACTORS
330
196C5
102
}
330
196C5
100
DictionaryVariables
280
     0
  1
STANDARD
  0
DICTIONARYVAR
  5
196C8
102
{ACAD_REACTORS
330
196C5
102
}
330
196C5
100
DictionaryVariables
280
     0
  1
Imperial24
  0
DICTIONARYVAR
  5
196C9
102
{ACAD_REACTORS
330
196C5
102
}
330
196C5
100
DictionaryVariables
280
     0
  1
Imperial24
  0
DICTIONARYVAR
  5
196CD
102
{ACAD_REACTORS
330
196C5
102
}
330
196C5
100
DictionaryVariables
280
     0
  1
1
  0
DICTIONARYVAR
  5
196CC
102
{ACAD_REACTORS
330
196C5
102
}
330
196C5
100
DictionaryVariables
280
     0
  1
0
  0
DICTIONARYVAR
  5
196CB
102
{ACAD_REACTORS
330
196C5
102
}
330
196C5
100
DictionaryVariables
280
     0
  1
127
  0
DICTIONARYVAR
  5
196CE
102
{ACAD_REACTORS
330
196C5
102
}
330
196C5
100
DictionaryVariables
280
     0
  1
2
  0
DICTIONARY
  5
1970B
330
196B0
100
AcDbDictionary
280
     1
281
     1
  3
ACAD_XREC_ROUNDTRIP
360
1970C
  0
DICTIONARY
  5
1970D
330
196B1
100
AcDbDictionary
280
     1
281
     1
  3
ACAD_XREC_ROUNDTRIP
360
1970E
  0
DICTIONARY
  5
1970F
330
196B2
100
AcDbDictionary
280
     1
281
     1
  3
ACAD_XREC_ROUNDTRIP
360
19710
  0
DICTIONARY
  5
1966E
330
1966D
100
AcDbDictionary
280
     1
281
     1
  3
ACAD_XREC_ROUNDTRIP
360
196D5
  3
BUMPTILE
360
19670
  3
DIFFUSETILE
360
1966F
  3
OPACITYTILE
360
19673
  3
REFLECTIONTILE
360
19672
  3
REFRACTIONTILE
360
19674
  3
SPECULARTILE
360
19671
  0
DICTIONARY
  5
19666
330
19665
100
AcDbDictionary
280
     1
281
     1
  3
ACAD_XREC_ROUNDTRIP
360
196D4
  3
BUMPTILE
360
19668
  3
DIFFUSETILE
360
19667
  3
OPACITYTILE
360
1966B
  3
REFLECTIONTILE
360
1966A
  3
REFRACTIONTILE
360
1966C
  3
SPECULARTILE
360
19669
  0
DICTIONARY
  5
19676
330
19675
100
AcDbDictionary
280
     1
281
     1
  3
ACAD_XREC_ROUNDTRIP
360
196D6
  3
BUMPTILE
360
19678
  3
DIFFUSETILE
360
19677
  3
OPACITYTILE
360
1967B
  3
REFLECTIONTILE
360
1967A
  3
REFRACTIONTILE
360
1967C
  3
SPECULARTILE
360
19679
  0
DICTIONARY
  5
19709
330
196AE
100
AcDbDictionary
280
     1
281
     1
  3
ACAD_XREC_ROUNDTRIP
360
1970A
  0
DICTIONARY
  5
196D0
330
19698
100
AcDbDictionary
280
     1
281
     1
  3
ACAD_ROUNDTRIP_2008_TABLESTYLE_CELLSTYLEMAP
360
196D1
  3
ACAD_XREC_ROUNDTRIP
360
19707
  0
DICTIONARY
  5
196E1
330
19683
100
AcDbDictionary
280
     1
281
     1
  3
ACAD_XREC_ROUNDTRIP
360
196E2
  0
DICTIONARY
  5
196DF
330
19682
100
AcDbDictionary
280
     1
281
     1
  3
ACAD_XREC_ROUNDTRIP
360
196E0
  0
DICTIONARY
  5
196ED
330
19689
100
AcDbDictionary
280
     1
281
     1
  3
ACAD_XREC_ROUNDTRIP
360
196EE
  0
DICTIONARY
  5
196F5
330
1968D
100
AcDbDictionary
280
     1
281
     1
  3
ACAD_XREC_ROUNDTRIP
360
196F6
  0
DICTIONARY
  5
196E7
330
19686
100
AcDbDictionary
280
     1
281
     1
  3
ACAD_XREC_ROUNDTRIP
360
196E8
  0
DICTIONARY
  5
196EB
330
19688
100
AcDbDictionary
280
     1
281
     1
  3
ACAD_XREC_ROUNDTRIP
360
196EC
  0
DICTIONARY
  5
19705
330
19695
100
AcDbDictionary
280
     1
281
     1
  3
ACAD_XREC_ROUNDTRIP
360
19706
  0
DICTIONARY
  5
196F3
330
1968C
100
AcDbDictionary
280
     1
281
     1
  3
ACAD_XREC_ROUNDTRIP
360
196F4
  0
DICTIONARY
  5
196D7
330
1967E
100
AcDbDictionary
280
     1
281
     1
  3
ACAD_XREC_ROUNDTRIP
360
196D8
  0
DICTIONARY
  5
196D9
330
1967F
100
AcDbDictionary
280
     1
281
     1
  3
ACAD_XREC_ROUNDTRIP
360
196DA
  0
DICTIONARY
  5
196DB
330
19680
100
AcDbDictionary
280
     1
281
     1
  3
ACAD_XREC_ROUNDTRIP
360
196DC
  0
DICTIONARY
  5
196DD
330
19681
100
AcDbDictionary
280
     1
281
     1
  3
ACAD_XREC_ROUNDTRIP
360
196DE
  0
DICTIONARY
  5
196E5
330
19685
100
AcDbDictionary
280
     1
281
     1
  3
ACAD_XREC_ROUNDTRIP
360
196E6
  0
DICTIONARY
  5
19701
330
19693
100
AcDbDictionary
280
     1
281
     1
  3
ACAD_XREC_ROUNDTRIP
360
19702
  0
DICTIONARY
  5
196F1
330
1968B
100
AcDbDictionary
280
     1
281
     1
  3
ACAD_XREC_ROUNDTRIP
360
196F2
  0
DICTIONARY
  5
19703
330
19694
100
AcDbDictionary
280
     1
281
     1
  3
ACAD_XREC_ROUNDTRIP
360
19704
  0
DICTIONARY
  5
196E9
330
19687
100
AcDbDictionary
280
     1
281
     1
  3
ACAD_XREC_ROUNDTRIP
360
196EA
  0
DICTIONARY
  5
196FF
330
19692
100
AcDbDictionary
280
     1
281
     1
  3
ACAD_XREC_ROUNDTRIP
360
19700
  0
DICTIONARY
  5
196FD
330
19691
100
AcDbDictionary
280
     1
281
     1
  3
ACAD_XREC_ROUNDTRIP
360
196FE
  0
DICTIONARY
  5
196F7
330
1968E
100
AcDbDictionary
280
     1
281
     1
  3
ACAD_XREC_ROUNDTRIP
360
196F8
  0
DICTIONARY
  5
196F9
330
1968F
100
AcDbDictionary
280
     1
281
     1
  3
ACAD_XREC_ROUNDTRIP
360
196FA
  0
DICTIONARY
  5
196EF
330
1968A
100
AcDbDictionary
280
     1
281
     1
  3
ACAD_XREC_ROUNDTRIP
360
196F0
  0
DICTIONARY
  5
196E3
330
19684
100
AcDbDictionary
280
     1
281
     1
  3
ACAD_XREC_ROUNDTRIP
360
196E4
  0
DICTIONARY
  5
196FB
330
19690
100
AcDbDictionary
280
     1
281
     1
  3
ACAD_XREC_ROUNDTRIP
360
196FC
  0
XRECORD
  5
1970C
102
{ACAD_REACTORS
330
1970B
102
}
330
1970B
100
AcDbXrecord
280
     1
102
DISPLAYNAME
  1
Imperial24
102
FLAGS
 90
        0
  0
XRECORD
  5
1970E
102
{ACAD_REACTORS
330
1970D
102
}
330
1970D
100
AcDbXrecord
280
     1
102
SHADEPLOT
 70
     0
102
SHADEPLOTRESLEVEL
 70
     2
102
SHADEPLOTCUSTOMDPI
 70
   300
  0
XRECORD
  5
19710
102
{ACAD_REACTORS
330
1970F
102
}
330
1970F
100
AcDbXrecord
280
     1
102
SHADEPLOT
 70
     0
102
SHADEPLOTRESLEVEL
 70
     2
102
SHADEPLOTCUSTOMDPI
 70
   300
  0
XRECORD
  5
196D5
102
{ACAD_REACTORS
330
1966E
102
}
330
1966E
100
AcDbXrecord
280
     1
102
MATERIAL
148
0.0
149
0.0
149
0.0
 93
        0
 94
      127
282
     0
 72
     0
 77
     0
171
     0
175
     0
179
     0
273
     0
  0
XRECORD
  5
19670
102
{ACAD_REACTORS
330
1966E
102
}
330
1966E
100
AcDbXrecord
280
     1
270
     1
271
     1
  0
XRECORD
  5
1966F
102
{ACAD_REACTORS
330
1966E
102
}
330
1966E
100
AcDbXrecord
280
     1
270
     1
271
     1
  0
XRECORD
  5
19673
102
{ACAD_REACTORS
330
1966E
102
}
330
1966E
100
AcDbXrecord
280
     1
270
     1
271
     1
  0
XRECORD
  5
19672
102
{ACAD_REACTORS
330
1966E
102
}
330
1966E
100
AcDbXrecord
280
     1
270
     1
271
     1
  0
XRECORD
  5
19674
102
{ACAD_REACTORS
330
1966E
102
}
330
1966E
100
AcDbXrecord
280
     1
270
     1
271
     1
  0
XRECORD
  5
19671
102
{ACAD_REACTORS
330
1966E
102
}
330
1966E
100
AcDbXrecord
280
     1
270
     1
271
     1
  0
XRECORD
  5
196D4
102
{ACAD_REACTORS
330
19666
102
}
330
19666
100
AcDbXrecord
280
     1
102
MATERIAL
148
0.0
149
0.0
149
0.0
 93
        0
 94
      127
282
     0
 72
     0
 77
     0
171
     0
175
     0
179
     0
273
     0
  0
XRECORD
  5
19668
102
{ACAD_REACTORS
330
19666
102
}
330
19666
100
AcDbXrecord
280
     1
270
     1
271
     1
  0
XRECORD
  5
19667
102
{ACAD_REACTORS
330
19666
102
}
330
19666
100
AcDbXrecord
280
     1
270
     1
271
     1
  0
XRECORD
  5
1966B
102
{ACAD_REACTORS
330
19666
102
}
330
19666
100
AcDbXrecord
280
     1
270
     1
271
     1
  0
XRECORD
  5
1966A
102
{ACAD_REACTORS
330
19666
102
}
330
19666
100
AcDbXrecord
280
     1
270
     1
271
     1
  0
XRECORD
  5
1966C
102
{ACAD_REACTORS
330
19666
102
}
330
19666
100
AcDbXrecord
280
     1
270
     1
271
     1
  0
XRECORD
  5
19669
102
{ACAD_REACTORS
330
19666
102
}
330
19666
100
AcDbXrecord
280
     1
270
     1
271
     1
  0
XRECORD
  5
196D6
102
{ACAD_REACTORS
330
19676
102
}
330
19676
100
AcDbXrecord
280
     1
102
MATERIAL
148
0.0
149
0.0
149
0.0
 93
        0
 94
      127
282
     0
 72
     0
 77
     0
171
     0
175
     0
179
     0
273
     0
  0
XRECORD
  5
19678
102
{ACAD_REACTORS
330
19676
102
}
330
19676
100
AcDbXrecord
280
     1
270
     1
271
     1
  0
XRECORD
  5
19677
102
{ACAD_REACTORS
330
19676
102
}
330
19676
100
AcDbXrecord
280
     1
270
     1
271
     1
  0
XRECORD
  5
1967B
102
{ACAD_REACTORS
330
19676
102
}
330
19676
100
AcDbXrecord
280
     1
270
     1
271
     1
  0
XRECORD
  5
1967A
102
{ACAD_REACTORS
330
19676
102
}
330
19676
100
AcDbXrecord
280
     1
270
     1
271
     1
  0
XRECORD
  5
1967C
102
{ACAD_REACTORS
330
19676
102
}
330
19676
100
AcDbXrecord
280
     1
270
     1
271
     1
  0
XRECORD
  5
19679
102
{ACAD_REACTORS
330
19676
102
}
330
19676
100
AcDbXrecord
280
     1
270
     1
271
     1
  0
XRECORD
  5
1970A
102
{ACAD_REACTORS
330
19709
102
}
330
19709
100
AcDbXrecord
280
     1
102
DISPLAYNAME
  1
Imperial24
102
FLAGS
 90
        0
  0
CELLSTYLEMAP
  5
196D1
102
{ACAD_REACTORS
330
196D0
102
}
330
196D0
100
AcDbCellStyleMap
 90
        3
300
CELLSTYLE
  1
TABLEFORMAT_BEGIN
 90
        5
170
     1
 91
        0
 92
    32768
 62
   257
 93
        1
300
CONTENTFORMAT
  1
CONTENTFORMAT_BEGIN
 90
        0
 91
        0
 92
      512
 93
        0
300

 40
0.0
140
1.0
 94
        5
 62
     0
340
19454
144
0.25
309
CONTENTFORMAT_END
171
     0
 94
        0
309
TABLEFORMAT_END
  1
CELLSTYLE_BEGIN
 90
        1
 91
        1
300
_TITLE
309
CELLSTYLE_END
300
CELLSTYLE
  1
TABLEFORMAT_BEGIN
 90
        5
170
     1
 91
        0
 92
        0
 62
   257
 93
        1
300
CONTENTFORMAT
  1
CONTENTFORMAT_BEGIN
 90
        0
 91
        0
 92
      512
 93
        0
300

 40
0.0
140
1.0
 94
        5
 62
     0
340
19454
144
0.18
309
CONTENTFORMAT_END
171
     0
 94
        0
309
TABLEFORMAT_END
  1
CELLSTYLE_BEGIN
 90
        2
 91
        1
300
_HEADER
309
CELLSTYLE_END
300
CELLSTYLE
  1
TABLEFORMAT_BEGIN
 90
        5
170
     1
 91
        0
 92
        0
 62
   257
 93
        1
300
CONTENTFORMAT
  1
CONTENTFORMAT_BEGIN
 90
        0
 91
        0
 92
      512
 93
        0
300

 40
0.0
140
1.0
 94
        2
 62
     0
340
19454
144
0.18
309
CONTENTFORMAT_END
171
     0
 94
        0
309
TABLEFORMAT_END
  1
CELLSTYLE_BEGIN
 90
        3
 91
        2
300
_DATA
309
CELLSTYLE_END
  0
XRECORD
  5
19707
102
{ACAD_REACTORS
330
196D0
102
}
330
196D0
100
AcDbXrecord
280
     1
102
ACAD_ROUNDTRIP_PRE2007_TABLESTYLE
 90
      512
 91
        0
  1

 92
      512
 93
        0
  2

 94
      512
 95
        0
  3

  0
XRECORD
  5
196E2
102
{ACAD_REACTORS
330
196E1
102
}
330
196E1
100
AcDbXrecord
280
     1
102
RTVSPost2010Prop28
280
     1
102
RTVSPost2010PropOp28
 70
     1
102
RTVSPost2010Prop29
280
     1
102
RTVSPost2010PropOp29
 70
     1
102
RTVSPost2010Prop30
280
     0
102
RTVSPost2010PropOp30
 70
     1
102
RTVSPost2010Prop31
280
     0
102
RTVSPost2010PropOp31
 70
     1
102
RTVSPost2010Prop32
280
     0
102
RTVSPost2010PropOp32
 70
     1
102
RTVSPost2010Prop33
280
     0
102
RTVSPost2010PropOp33
 70
     1
102
RTVSPost2010Prop34
280
     0
102
RTVSPost2010PropOp34
 70
     1
102
RTVSPost2010Prop35
280
     0
102
RTVSPost2010PropOp35
 70
     1
102
RTVSPost2010Prop36
280
     0
102
RTVSPost2010PropOp36
 70
     1
102
RTVSPost2010Prop37
 90
       50
102
RTVSPost2010PropOp37
 70
     1
102
RTVSPost2010Prop38
140
0.0
102
RTVSPost2010PropOp38
 70
     1
102
RTVSPost2010Prop39
140
1.0
102
RTVSPost2010PropOp39
 70
     1
102
RTVSPost2010Prop40
 90
        0
102
RTVSPost2010PropOp40
 70
     1
102
RTVSPost2010Prop41ColorIndex
 90
       18
102
RTVSPost2010Prop41ColorRGB
 90
        0
102
RTVSPost2010PropOp41
 70
     1
102
RTVSPost2010Prop42
 90
       50
102
RTVSPost2010PropOp42
 70
     1
102
RTVSPost2010Prop43
 90
        3
102
RTVSPost2010PropOp43
 70
     1
102
RTVSPost2010Prop44ColorIndex
 90
        5
102
RTVSPost2010Prop44ColorRGB
 90
      255
102
RTVSPost2010PropOp44
 70
     1
102
RTVSPost2010Prop45
280
     0
102
RTVSPost2010PropOp45
 70
     1
102
RTVSPost2010Prop46
 90
       50
102
RTVSPost2010PropOp46
 70
     1
102
RTVSPost2010Prop47
 90
       50
102
RTVSPost2010PropOp47
 70
     1
102
RTVSPost2010Prop48
 90
       50
102
RTVSPost2010PropOp48
 70
     1
102
RTVSPost2010Prop49
280
     0
102
RTVSPost2010PropOp49
 70
     1
102
RTVSPost2010Prop50
 90
       50
102
RTVSPost2010PropOp50
 70
     1
102
RTVSPost2010Prop51ColorIndex
 90
      256
102
RTVSPost2010Prop51ColorRGB
 90
-16777216
102
RTVSPost2010PropOp51
 70
     0
102
RTVSPost2010Prop52
140
1.0
102
RTVSPost2010PropOp52
 70
     0
102
RTVSPost2010Prop53
 90
        2
102
RTVSPost2010PropOp53
 70
     1
102
RTVSPost2010Prop54
  1
strokes_ogs.tif
102
RTVSPost2010PropOp54
 70
     1
102
RTVSPost2010Prop55
280
     0
102
RTVSPost2010PropOp55
 70
     1
102
RTVSPost2010Prop56
140
1.0
102
RTVSPost2010PropOp56
 70
     1
102
RTVSPost2010Prop57
140
1.0
102
RTVSPost2010PropOp57
 70
     1
102
RTVSPropertyOp0
 70
     1
102
RTVSPropertyOp1
 70
     1
102
RTVSPropertyOp2
 70
     1
102
RTVSPropertyOp3
 70
     1
102
RTVSPropertyOp4
 70
     1
102
RTVSPropertyOp5
 70
     1
102
RTVSPropertyOp6
 70
     1
102
RTVSPropertyOp7
 70
     1
102
RTVSPropertyOp8
 70
     1
102
RTVSPropertyOp9
 70
     1
102
RTVSPropertyOp10
 70
     1
102
RTVSPropertyOp11
 70
     1
102
RTVSPropertyOp12
 70
     1
102
RTVSPropertyOp13
 70
     1
102
RTVSPropertyOp14
 70
     1
102
RTVSPropertyOp15
 70
     1
102
RTVSPropertyOp16
 70
     1
102
RTVSPropertyOp17
 70
     1
102
RTVSPropertyOp18
 70
     1
102
RTVSPropertyOp19
 70
     1
102
RTVSPropertyOp20
 70
     1
102
RTVSPropertyOp21
 70
     1
102
RTVSPropertyOp22
 70
     1
102
RTVSPropertyOp23
 70
     1
102
RTVSPropertyOp24
 70
     1
102
RTVSPropertyOp25
 70
     1
102
RTVSPropertyOp26
 70
     1
102
RTVSPropertyOp27
 70
     1
102
RTVSPropertyOp28
 70
     1
102
RTVSPropertyOp29
 70
     1
102
RTVSPropertyOp30
 70
     1
102
RTVSPropertyOp31
 70
     1
102
RTVSPropertyOp32
 70
     1
102
RTVSPropertyOp33
 70
     1
102
RTVSPropertyOp34
 70
     1
102
RTVSPropertyOp35
 70
     1
102
RTVSPropertyOp36
 70
     1
102
RTVSPropertyOp37
 70
     1
102
RTVSPropertyOp38
 70
     1
102
RTVSPropertyOp39
 70
     1
102
RTVSPropertyOp40
 70
     1
102
RTVSPropertyOp41
 70
     1
102
RTVSPropertyOp42
 70
     1
102
RTVSPropertyOp43
 70
     1
102
RTVSPropertyOp44
 70
     1
102
RTVSPropertyOp45
 70
     1
102
RTVSPropertyOp46
 70
     1
102
RTVSPropertyOp47
 70
     1
102
RTVSPropertyOp48
 70
     1
102
RTVSPropertyOp49
 70
     1
102
RTVSPropertyOp50
 70
     1
102
RTVSPropertyOp51
 70
     0
102
RTVSPropertyOp52
 70
     0
102
RTVSPropertyOp53
 70
     1
102
RTVSPropertyOp54
 70
     1
102
RTVSPropertyOp55
 70
     1
102
RTVSPropertyOp56
 70
     1
102
RTVSPropertyOp57
 70
     1
102
RTVSPropertyOp58
 70
     1
102
RTVSPropertyOp59
 70
     1
102
RTVSPropertyOp60
 70
     1
102
RTVSPropertyOp61
 70
     1
102
RTVSPropertyOp62
 70
     1
  0
XRECORD
  5
196E0
102
{ACAD_REACTORS
330
196DF
102
}
330
196DF
100
AcDbXrecord
280
     1
102
RTVSPost2010Prop28
280
     0
102
RTVSPost2010PropOp28
 70
     1
102
RTVSPost2010Prop29
280
     1
102
RTVSPost2010PropOp29
 70
     1
102
RTVSPost2010Prop30
280
     1
102
RTVSPost2010PropOp30
 70
     1
102
RTVSPost2010Prop31
280
     0
102
RTVSPost2010PropOp31
 70
     1
102
RTVSPost2010Prop32
280
     0
102
RTVSPost2010PropOp32
 70
     1
102
RTVSPost2010Prop33
280
     0
102
RTVSPost2010PropOp33
 70
     1
102
RTVSPost2010Prop34
280
     0
102
RTVSPost2010PropOp34
 70
     1
102
RTVSPost2010Prop35
280
     0
102
RTVSPost2010PropOp35
 70
     1
102
RTVSPost2010Prop36
280
     0
102
RTVSPost2010PropOp36
 70
     1
102
RTVSPost2010Prop37
 90
       50
102
RTVSPost2010PropOp37
 70
     1
102
RTVSPost2010Prop38
140
0.0
102
RTVSPost2010PropOp38
 70
     1
102
RTVSPost2010Prop39
140
1.0
102
RTVSPost2010PropOp39
 70
     1
102
RTVSPost2010Prop40
 90
        0
102
RTVSPost2010PropOp40
 70
     1
102
RTVSPost2010Prop41ColorIndex
 90
       18
102
RTVSPost2010Prop41ColorRGB
 90
        0
102
RTVSPost2010PropOp41
 70
     1
102
RTVSPost2010Prop42
 90
       50
102
RTVSPost2010PropOp42
 70
     1
102
RTVSPost2010Prop43
 90
        3
102
RTVSPost2010PropOp43
 70
     1
102
RTVSPost2010Prop44ColorIndex
 90
        5
102
RTVSPost2010Prop44ColorRGB
 90
      255
102
RTVSPost2010PropOp44
 70
     1
102
RTVSPost2010Prop45
280
     0
102
RTVSPost2010PropOp45
 70
     1
102
RTVSPost2010Prop46
 90
       50
102
RTVSPost2010PropOp46
 70
     1
102
RTVSPost2010Prop47
 90
       50
102
RTVSPost2010PropOp47
 70
     1
102
RTVSPost2010Prop48
 90
       50
102
RTVSPost2010PropOp48
 70
     1
102
RTVSPost2010Prop49
280
     0
102
RTVSPost2010PropOp49
 70
     1
102
RTVSPost2010Prop50
 90
       50
102
RTVSPost2010PropOp50
 70
     1
102
RTVSPost2010Prop51ColorIndex
 90
      256
102
RTVSPost2010Prop51ColorRGB
 90
-16777216
102
RTVSPost2010PropOp51
 70
     0
102
RTVSPost2010Prop52
140
1.0
102
RTVSPost2010PropOp52
 70
     0
102
RTVSPost2010Prop53
 90
        2
102
RTVSPost2010PropOp53
 70
     1
102
RTVSPost2010Prop54
  1
strokes_ogs.tif
102
RTVSPost2010PropOp54
 70
     1
102
RTVSPost2010Prop55
280
     0
102
RTVSPost2010PropOp55
 70
     1
102
RTVSPost2010Prop56
140
1.0
102
RTVSPost2010PropOp56
 70
     1
102
RTVSPost2010Prop57
140
1.0
102
RTVSPost2010PropOp57
 70
     1
102
RTVSPropertyOp0
 70
     1
102
RTVSPropertyOp1
 70
     1
102
RTVSPropertyOp2
 70
     1
102
RTVSPropertyOp3
 70
     1
102
RTVSPropertyOp4
 70
     1
102
RTVSPropertyOp5
 70
     1
102
RTVSPropertyOp6
 70
     1
102
RTVSPropertyOp7
 70
     1
102
RTVSPropertyOp8
 70
     1
102
RTVSPropertyOp9
 70
     1
102
RTVSPropertyOp10
 70
     1
102
RTVSPropertyOp11
 70
     1
102
RTVSPropertyOp12
 70
     1
102
RTVSPropertyOp13
 70
     1
102
RTVSPropertyOp14
 70
     1
102
RTVSPropertyOp15
 70
     1
102
RTVSPropertyOp16
 70
     1
102
RTVSPropertyOp17
 70
     1
102
RTVSPropertyOp18
 70
     1
102
RTVSPropertyOp19
 70
     1
102
RTVSPropertyOp20
 70
     1
102
RTVSPropertyOp21
 70
     1
102
RTVSPropertyOp22
 70
     1
102
RTVSPropertyOp23
 70
     1
102
RTVSPropertyOp24
 70
     1
102
RTVSPropertyOp25
 70
     1
102
RTVSPropertyOp26
 70
     1
102
RTVSPropertyOp27
 70
     1
102
RTVSPropertyOp28
 70
     1
102
RTVSPropertyOp29
 70
     1
102
RTVSPropertyOp30
 70
     1
102
RTVSPropertyOp31
 70
     1
102
RTVSPropertyOp32
 70
     1
102
RTVSPropertyOp33
 70
     1
102
RTVSPropertyOp34
 70
     1
102
RTVSPropertyOp35
 70
     1
102
RTVSPropertyOp36
 70
     1
102
RTVSPropertyOp37
 70
     1
102
RTVSPropertyOp38
 70
     1
102
RTVSPropertyOp39
 70
     1
102
RTVSPropertyOp40
 70
     1
102
RTVSPropertyOp41
 70
     1
102
RTVSPropertyOp42
 70
     1
102
RTVSPropertyOp43
 70
     1
102
RTVSPropertyOp44
 70
     1
102
RTVSPropertyOp45
 70
     1
102
RTVSPropertyOp46
 70
     1
102
RTVSPropertyOp47
 70
     1
102
RTVSPropertyOp48
 70
     1
102
RTVSPropertyOp49
 70
     1
102
RTVSPropertyOp50
 70
     1
102
RTVSPropertyOp51
 70
     0
102
RTVSPropertyOp52
 70
     0
102
RTVSPropertyOp53
 70
     1
102
RTVSPropertyOp54
 70
     1
102
RTVSPropertyOp55
 70
     1
102
RTVSPropertyOp56
 70
     1
102
RTVSPropertyOp57
 70
     1
102
RTVSPropertyOp58
 70
     1
102
RTVSPropertyOp59
 70
     1
102
RTVSPropertyOp60
 70
     1
102
RTVSPropertyOp61
 70
     1
102
RTVSPropertyOp62
 70
     1
  0
XRECORD
  5
196EE
102
{ACAD_REACTORS
330
196ED
102
}
330
196ED
100
AcDbXrecord
280
     1
102
RTVSPost2010Prop28
280
     0
102
RTVSPost2010PropOp28
 70
     1
102
RTVSPost2010Prop29
280
     1
102
RTVSPost2010PropOp29
 70
     1
102
RTVSPost2010Prop30
280
     1
102
RTVSPost2010PropOp30
 70
     1
102
RTVSPost2010Prop31
280
     0
102
RTVSPost2010PropOp31
 70
     1
102
RTVSPost2010Prop32
280
     0
102
RTVSPost2010PropOp32
 70
     1
102
RTVSPost2010Prop33
280
     0
102
RTVSPost2010PropOp33
 70
     1
102
RTVSPost2010Prop34
280
     0
102
RTVSPost2010PropOp34
 70
     1
102
RTVSPost2010Prop35
280
     0
102
RTVSPost2010PropOp35
 70
     1
102
RTVSPost2010Prop36
280
     0
102
RTVSPost2010PropOp36
 70
     1
102
RTVSPost2010Prop37
 90
       50
102
RTVSPost2010PropOp37
 70
     1
102
RTVSPost2010Prop38
140
0.0
102
RTVSPost2010PropOp38
 70
     1
102
RTVSPost2010Prop39
140
1.0
102
RTVSPost2010PropOp39
 70
     1
102
RTVSPost2010Prop40
 90
        0
102
RTVSPost2010PropOp40
 70
     1
102
RTVSPost2010Prop41ColorIndex
 90
       18
102
RTVSPost2010Prop41ColorRGB
 90
        0
102
RTVSPost2010PropOp41
 70
     1
102
RTVSPost2010Prop42
 90
       50
102
RTVSPost2010PropOp42
 70
     1
102
RTVSPost2010Prop43
 90
        3
102
RTVSPost2010PropOp43
 70
     1
102
RTVSPost2010Prop44ColorIndex
 90
        5
102
RTVSPost2010Prop44ColorRGB
 90
      255
102
RTVSPost2010PropOp44
 70
     1
102
RTVSPost2010Prop45
280
     0
102
RTVSPost2010PropOp45
 70
     1
102
RTVSPost2010Prop46
 90
       50
102
RTVSPost2010PropOp46
 70
     1
102
RTVSPost2010Prop47
 90
       50
102
RTVSPost2010PropOp47
 70
     1
102
RTVSPost2010Prop48
 90
       50
102
RTVSPost2010PropOp48
 70
     1
102
RTVSPost2010Prop49
280
     0
102
RTVSPost2010PropOp49
 70
     1
102
RTVSPost2010Prop50
 90
       50
102
RTVSPost2010PropOp50
 70
     1
102
RTVSPost2010Prop51ColorIndex
 90
      256
102
RTVSPost2010Prop51ColorRGB
 90
-16777216
102
RTVSPost2010PropOp51
 70
     0
102
RTVSPost2010Prop52
140
1.0
102
RTVSPost2010PropOp52
 70
     0
102
RTVSPost2010Prop53
 90
        2
102
RTVSPost2010PropOp53
 70
     1
102
RTVSPost2010Prop54
  1
strokes_ogs.tif
102
RTVSPost2010PropOp54
 70
     1
102
RTVSPost2010Prop55
280
     0
102
RTVSPost2010PropOp55
 70
     1
102
RTVSPost2010Prop56
140
1.0
102
RTVSPost2010PropOp56
 70
     1
102
RTVSPost2010Prop57
140
1.0
102
RTVSPost2010PropOp57
 70
     1
102
RTVSPropertyOp0
 70
     1
102
RTVSPropertyOp1
 70
     1
102
RTVSPropertyOp2
 70
     1
102
RTVSPropertyOp3
 70
     1
102
RTVSPropertyOp4
 70
     1
102
RTVSPropertyOp5
 70
     1
102
RTVSPropertyOp6
 70
     1
102
RTVSPropertyOp7
 70
     1
102
RTVSPropertyOp8
 70
     1
102
RTVSPropertyOp9
 70
     1
102
RTVSPropertyOp10
 70
     1
102
RTVSPropertyOp11
 70
     1
102
RTVSPropertyOp12
 70
     1
102
RTVSPropertyOp13
 70
     1
102
RTVSPropertyOp14
 70
     1
102
RTVSPropertyOp15
 70
     1
102
RTVSPropertyOp16
 70
     1
102
RTVSPropertyOp17
 70
     1
102
RTVSPropertyOp18
 70
     1
102
RTVSPropertyOp19
 70
     1
102
RTVSPropertyOp20
 70
     1
102
RTVSPropertyOp21
 70
     1
102
RTVSPropertyOp22
 70
     1
102
RTVSPropertyOp23
 70
     1
102
RTVSPropertyOp24
 70
     1
102
RTVSPropertyOp25
 70
     1
102
RTVSPropertyOp26
 70
     1
102
RTVSPropertyOp27
 70
     1
102
RTVSPropertyOp28
 70
     1
102
RTVSPropertyOp29
 70
     1
102
RTVSPropertyOp30
 70
     1
102
RTVSPropertyOp31
 70
     1
102
RTVSPropertyOp32
 70
     1
102
RTVSPropertyOp33
 70
     1
102
RTVSPropertyOp34
 70
     1
102
RTVSPropertyOp35
 70
     1
102
RTVSPropertyOp36
 70
     1
102
RTVSPropertyOp37
 70
     1
102
RTVSPropertyOp38
 70
     1
102
RTVSPropertyOp39
 70
     1
102
RTVSPropertyOp40
 70
     1
102
RTVSPropertyOp41
 70
     1
102
RTVSPropertyOp42
 70
     1
102
RTVSPropertyOp43
 70
     1
102
RTVSPropertyOp44
 70
     1
102
RTVSPropertyOp45
 70
     1
102
RTVSPropertyOp46
 70
     1
102
RTVSPropertyOp47
 70
     1
102
RTVSPropertyOp48
 70
     1
102
RTVSPropertyOp49
 70
     1
102
RTVSPropertyOp50
 70
     1
102
RTVSPropertyOp51
 70
     0
102
RTVSPropertyOp52
 70
     0
102
RTVSPropertyOp53
 70
     1
102
RTVSPropertyOp54
 70
     1
102
RTVSPropertyOp55
 70
     1
102
RTVSPropertyOp56
 70
     1
102
RTVSPropertyOp57
 70
     1
102
RTVSPropertyOp58
 70
     1
102
RTVSPropertyOp59
 70
     1
102
RTVSPropertyOp60
 70
     1
102
RTVSPropertyOp61
 70
     1
102
RTVSPropertyOp62
 70
     1
  0
XRECORD
  5
196F6
102
{ACAD_REACTORS
330
196F5
102
}
330
196F5
100
AcDbXrecord
280
     1
102
RTVSPost2010Prop28
280
     0
102
RTVSPost2010PropOp28
 70
     1
102
RTVSPost2010Prop29
280
     1
102
RTVSPost2010PropOp29
 70
     1
102
RTVSPost2010Prop30
280
     1
102
RTVSPost2010PropOp30
 70
     1
102
RTVSPost2010Prop31
280
     0
102
RTVSPost2010PropOp31
 70
     1
102
RTVSPost2010Prop32
280
     0
102
RTVSPost2010PropOp32
 70
     1
102
RTVSPost2010Prop33
280
     0
102
RTVSPost2010PropOp33
 70
     1
102
RTVSPost2010Prop34
280
     0
102
RTVSPost2010PropOp34
 70
     1
102
RTVSPost2010Prop35
280
     0
102
RTVSPost2010PropOp35
 70
     1
102
RTVSPost2010Prop36
280
     0
102
RTVSPost2010PropOp36
 70
     1
102
RTVSPost2010Prop37
 90
       50
102
RTVSPost2010PropOp37
 70
     1
102
RTVSPost2010Prop38
140
0.0
102
RTVSPost2010PropOp38
 70
     1
102
RTVSPost2010Prop39
140
1.0
102
RTVSPost2010PropOp39
 70
     1
102
RTVSPost2010Prop40
 90
        0
102
RTVSPost2010PropOp40
 70
     1
102
RTVSPost2010Prop41ColorIndex
 90
       18
102
RTVSPost2010Prop41ColorRGB
 90
        0
102
RTVSPost2010PropOp41
 70
     1
102
RTVSPost2010Prop42
 90
       50
102
RTVSPost2010PropOp42
 70
     1
102
RTVSPost2010Prop43
 90
        3
102
RTVSPost2010PropOp43
 70
     1
102
RTVSPost2010Prop44ColorIndex
 90
        5
102
RTVSPost2010Prop44ColorRGB
 90
      255
102
RTVSPost2010PropOp44
 70
     1
102
RTVSPost2010Prop45
280
     0
102
RTVSPost2010PropOp45
 70
     1
102
RTVSPost2010Prop46
 90
       50
102
RTVSPost2010PropOp46
 70
     1
102
RTVSPost2010Prop47
 90
       50
102
RTVSPost2010PropOp47
 70
     1
102
RTVSPost2010Prop48
 90
       50
102
RTVSPost2010PropOp48
 70
     1
102
RTVSPost2010Prop49
280
     0
102
RTVSPost2010PropOp49
 70
     1
102
RTVSPost2010Prop50
 90
       50
102
RTVSPost2010PropOp50
 70
     1
102
RTVSPost2010Prop51ColorIndex
 90
      256
102
RTVSPost2010Prop51ColorRGB
 90
-16777216
102
RTVSPost2010PropOp51
 70
     0
102
RTVSPost2010Prop52
140
1.0
102
RTVSPost2010PropOp52
 70
     0
102
RTVSPost2010Prop53
 90
        2
102
RTVSPost2010PropOp53
 70
     1
102
RTVSPost2010Prop54
  1
strokes_ogs.tif
102
RTVSPost2010PropOp54
 70
     1
102
RTVSPost2010Prop55
280
     0
102
RTVSPost2010PropOp55
 70
     1
102
RTVSPost2010Prop56
140
1.0
102
RTVSPost2010PropOp56
 70
     1
102
RTVSPost2010Prop57
140
1.0
102
RTVSPost2010PropOp57
 70
     1
102
RTVSPropertyOp0
 70
     1
102
RTVSPropertyOp1
 70
     1
102
RTVSPropertyOp2
 70
     1
102
RTVSPropertyOp3
 70
     1
102
RTVSPropertyOp4
 70
     1
102
RTVSPropertyOp5
 70
     1
102
RTVSPropertyOp6
 70
     1
102
RTVSPropertyOp7
 70
     1
102
RTVSPropertyOp8
 70
     1
102
RTVSPropertyOp9
 70
     1
102
RTVSPropertyOp10
 70
     1
102
RTVSPropertyOp11
 70
     1
102
RTVSPropertyOp12
 70
     1
102
RTVSPropertyOp13
 70
     1
102
RTVSPropertyOp14
 70
     1
102
RTVSPropertyOp15
 70
     1
102
RTVSPropertyOp16
 70
     1
102
RTVSPropertyOp17
 70
     1
102
RTVSPropertyOp18
 70
     1
102
RTVSPropertyOp19
 70
     1
102
RTVSPropertyOp20
 70
     1
102
RTVSPropertyOp21
 70
     1
102
RTVSPropertyOp22
 70
     1
102
RTVSPropertyOp23
 70
     1
102
RTVSPropertyOp24
 70
     1
102
RTVSPropertyOp25
 70
     1
102
RTVSPropertyOp26
 70
     1
102
RTVSPropertyOp27
 70
     1
102
RTVSPropertyOp28
 70
     1
102
RTVSPropertyOp29
 70
     1
102
RTVSPropertyOp30
 70
     1
102
RTVSPropertyOp31
 70
     1
102
RTVSPropertyOp32
 70
     1
102
RTVSPropertyOp33
 70
     1
102
RTVSPropertyOp34
 70
     1
102
RTVSPropertyOp35
 70
     1
102
RTVSPropertyOp36
 70
     1
102
RTVSPropertyOp37
 70
     1
102
RTVSPropertyOp38
 70
     1
102
RTVSPropertyOp39
 70
     1
102
RTVSPropertyOp40
 70
     1
102
RTVSPropertyOp41
 70
     1
102
RTVSPropertyOp42
 70
     1
102
RTVSPropertyOp43
 70
     1
102
RTVSPropertyOp44
 70
     1
102
RTVSPropertyOp45
 70
     1
102
RTVSPropertyOp46
 70
     1
102
RTVSPropertyOp47
 70
     1
102
RTVSPropertyOp48
 70
     1
102
RTVSPropertyOp49
 70
     1
102
RTVSPropertyOp50
 70
     1
102
RTVSPropertyOp51
 70
     0
102
RTVSPropertyOp52
 70
     0
102
RTVSPropertyOp53
 70
     1
102
RTVSPropertyOp54
 70
     1
102
RTVSPropertyOp55
 70
     1
102
RTVSPropertyOp56
 70
     1
102
RTVSPropertyOp57
 70
     1
102
RTVSPropertyOp58
 70
     1
102
RTVSPropertyOp59
 70
     1
102
RTVSPropertyOp60
 70
     1
102
RTVSPropertyOp61
 70
     1
102
RTVSPropertyOp62
 70
     1
  0
XRECORD
  5
196E8
102
{ACAD_REACTORS
330
196E7
102
}
330
196E7
100
AcDbXrecord
280
     1
102
RTVSPost2010Prop28
280
     0
102
RTVSPost2010PropOp28
 70
     1
102
RTVSPost2010Prop29
280
     1
102
RTVSPost2010PropOp29
 70
     1
102
RTVSPost2010Prop30
280
     1
102
RTVSPost2010PropOp30
 70
     1
102
RTVSPost2010Prop31
280
     0
102
RTVSPost2010PropOp31
 70
     1
102
RTVSPost2010Prop32
280
     0
102
RTVSPost2010PropOp32
 70
     1
102
RTVSPost2010Prop33
280
     0
102
RTVSPost2010PropOp33
 70
     1
102
RTVSPost2010Prop34
280
     0
102
RTVSPost2010PropOp34
 70
     1
102
RTVSPost2010Prop35
280
     0
102
RTVSPost2010PropOp35
 70
     1
102
RTVSPost2010Prop36
280
     0
102
RTVSPost2010PropOp36
 70
     1
102
RTVSPost2010Prop37
 90
       50
102
RTVSPost2010PropOp37
 70
     1
102
RTVSPost2010Prop38
140
0.0
102
RTVSPost2010PropOp38
 70
     1
102
RTVSPost2010Prop39
140
1.0
102
RTVSPost2010PropOp39
 70
     1
102
RTVSPost2010Prop40
 90
        0
102
RTVSPost2010PropOp40
 70
     1
102
RTVSPost2010Prop41ColorIndex
 90
       18
102
RTVSPost2010Prop41ColorRGB
 90
        0
102
RTVSPost2010PropOp41
 70
     1
102
RTVSPost2010Prop42
 90
       50
102
RTVSPost2010PropOp42
 70
     1
102
RTVSPost2010Prop43
 90
        3
102
RTVSPost2010PropOp43
 70
     1
102
RTVSPost2010Prop44ColorIndex
 90
        5
102
RTVSPost2010Prop44ColorRGB
 90
      255
102
RTVSPost2010PropOp44
 70
     1
102
RTVSPost2010Prop45
280
     0
102
RTVSPost2010PropOp45
 70
     1
102
RTVSPost2010Prop46
 90
       50
102
RTVSPost2010PropOp46
 70
     1
102
RTVSPost2010Prop47
 90
       50
102
RTVSPost2010PropOp47
 70
     1
102
RTVSPost2010Prop48
 90
       50
102
RTVSPost2010PropOp48
 70
     1
102
RTVSPost2010Prop49
280
     0
102
RTVSPost2010PropOp49
 70
     1
102
RTVSPost2010Prop50
 90
       50
102
RTVSPost2010PropOp50
 70
     1
102
RTVSPost2010Prop51ColorIndex
 90
      256
102
RTVSPost2010Prop51ColorRGB
 90
-16777216
102
RTVSPost2010PropOp51
 70
     0
102
RTVSPost2010Prop52
140
1.0
102
RTVSPost2010PropOp52
 70
     0
102
RTVSPost2010Prop53
 90
        2
102
RTVSPost2010PropOp53
 70
     1
102
RTVSPost2010Prop54
  1
strokes_ogs.tif
102
RTVSPost2010PropOp54
 70
     1
102
RTVSPost2010Prop55
280
     0
102
RTVSPost2010PropOp55
 70
     1
102
RTVSPost2010Prop56
140
1.0
102
RTVSPost2010PropOp56
 70
     1
102
RTVSPost2010Prop57
140
1.0
102
RTVSPost2010PropOp57
 70
     1
102
RTVSPropertyOp0
 70
     1
102
RTVSPropertyOp1
 70
     1
102
RTVSPropertyOp2
 70
     1
102
RTVSPropertyOp3
 70
     1
102
RTVSPropertyOp4
 70
     1
102
RTVSPropertyOp5
 70
     1
102
RTVSPropertyOp6
 70
     1
102
RTVSPropertyOp7
 70
     1
102
RTVSPropertyOp8
 70
     1
102
RTVSPropertyOp9
 70
     1
102
RTVSPropertyOp10
 70
     1
102
RTVSPropertyOp11
 70
     1
102
RTVSPropertyOp12
 70
     1
102
RTVSPropertyOp13
 70
     1
102
RTVSPropertyOp14
 70
     1
102
RTVSPropertyOp15
 70
     1
102
RTVSPropertyOp16
 70
     1
102
RTVSPropertyOp17
 70
     1
102
RTVSPropertyOp18
 70
     1
102
RTVSPropertyOp19
 70
     1
102
RTVSPropertyOp20
 70
     1
102
RTVSPropertyOp21
 70
     1
102
RTVSPropertyOp22
 70
     1
102
RTVSPropertyOp23
 70
     1
102
RTVSPropertyOp24
 70
     1
102
RTVSPropertyOp25
 70
     1
102
RTVSPropertyOp26
 70
     1
102
RTVSPropertyOp27
 70
     1
102
RTVSPropertyOp28
 70
     1
102
RTVSPropertyOp29
 70
     1
102
RTVSPropertyOp30
 70
     1
102
RTVSPropertyOp31
 70
     1
102
RTVSPropertyOp32
 70
     1
102
RTVSPropertyOp33
 70
     1
102
RTVSPropertyOp34
 70
     1
102
RTVSPropertyOp35
 70
     1
102
RTVSPropertyOp36
 70
     1
102
RTVSPropertyOp37
 70
     1
102
RTVSPropertyOp38
 70
     1
102
RTVSPropertyOp39
 70
     1
102
RTVSPropertyOp40
 70
     1
102
RTVSPropertyOp41
 70
     1
102
RTVSPropertyOp42
 70
     1
102
RTVSPropertyOp43
 70
     1
102
RTVSPropertyOp44
 70
     1
102
RTVSPropertyOp45
 70
     1
102
RTVSPropertyOp46
 70
     1
102
RTVSPropertyOp47
 70
     1
102
RTVSPropertyOp48
 70
     1
102
RTVSPropertyOp49
 70
     1
102
RTVSPropertyOp50
 70
     1
102
RTVSPropertyOp51
 70
     0
102
RTVSPropertyOp52
 70
     0
102
RTVSPropertyOp53
 70
     1
102
RTVSPropertyOp54
 70
     1
102
RTVSPropertyOp55
 70
     1
102
RTVSPropertyOp56
 70
     1
102
RTVSPropertyOp57
 70
     1
102
RTVSPropertyOp58
 70
     1
102
RTVSPropertyOp59
 70
     1
102
RTVSPropertyOp60
 70
     1
102
RTVSPropertyOp61
 70
     1
102
RTVSPropertyOp62
 70
     1
  0
XRECORD
  5
196EC
102
{ACAD_REACTORS
330
196EB
102
}
330
196EB
100
AcDbXrecord
280
     1
102
RTVSPost2010Prop28
280
     0
102
RTVSPost2010PropOp28
 70
     1
102
RTVSPost2010Prop29
280
     1
102
RTVSPost2010PropOp29
 70
     1
102
RTVSPost2010Prop30
280
     1
102
RTVSPost2010PropOp30
 70
     1
102
RTVSPost2010Prop31
280
     0
102
RTVSPost2010PropOp31
 70
     1
102
RTVSPost2010Prop32
280
     0
102
RTVSPost2010PropOp32
 70
     1
102
RTVSPost2010Prop33
280
     0
102
RTVSPost2010PropOp33
 70
     1
102
RTVSPost2010Prop34
280
     0
102
RTVSPost2010PropOp34
 70
     1
102
RTVSPost2010Prop35
280
     0
102
RTVSPost2010PropOp35
 70
     1
102
RTVSPost2010Prop36
280
     0
102
RTVSPost2010PropOp36
 70
     1
102
RTVSPost2010Prop37
 90
       50
102
RTVSPost2010PropOp37
 70
     1
102
RTVSPost2010Prop38
140
0.0
102
RTVSPost2010PropOp38
 70
     1
102
RTVSPost2010Prop39
140
1.0
102
RTVSPost2010PropOp39
 70
     1
102
RTVSPost2010Prop40
 90
        0
102
RTVSPost2010PropOp40
 70
     1
102
RTVSPost2010Prop41ColorIndex
 90
       18
102
RTVSPost2010Prop41ColorRGB
 90
        0
102
RTVSPost2010PropOp41
 70
     1
102
RTVSPost2010Prop42
 90
       50
102
RTVSPost2010PropOp42
 70
     1
102
RTVSPost2010Prop43
 90
        3
102
RTVSPost2010PropOp43
 70
     1
102
RTVSPost2010Prop44ColorIndex
 90
        5
102
RTVSPost2010Prop44ColorRGB
 90
      255
102
RTVSPost2010PropOp44
 70
     1
102
RTVSPost2010Prop45
280
     0
102
RTVSPost2010PropOp45
 70
     1
102
RTVSPost2010Prop46
 90
       50
102
RTVSPost2010PropOp46
 70
     1
102
RTVSPost2010Prop47
 90
       50
102
RTVSPost2010PropOp47
 70
     1
102
RTVSPost2010Prop48
 90
       50
102
RTVSPost2010PropOp48
 70
     1
102
RTVSPost2010Prop49
280
     0
102
RTVSPost2010PropOp49
 70
     1
102
RTVSPost2010Prop50
 90
       50
102
RTVSPost2010PropOp50
 70
     1
102
RTVSPost2010Prop51ColorIndex
 90
      256
102
RTVSPost2010Prop51ColorRGB
 90
-16777216
102
RTVSPost2010PropOp51
 70
     0
102
RTVSPost2010Prop52
140
1.0
102
RTVSPost2010PropOp52
 70
     0
102
RTVSPost2010Prop53
 90
        2
102
RTVSPost2010PropOp53
 70
     1
102
RTVSPost2010Prop54
  1
strokes_ogs.tif
102
RTVSPost2010PropOp54
 70
     1
102
RTVSPost2010Prop55
280
     0
102
RTVSPost2010PropOp55
 70
     1
102
RTVSPost2010Prop56
140
1.0
102
RTVSPost2010PropOp56
 70
     1
102
RTVSPost2010Prop57
140
1.0
102
RTVSPost2010PropOp57
 70
     1
102
RTVSPropertyOp0
 70
     1
102
RTVSPropertyOp1
 70
     1
102
RTVSPropertyOp2
 70
     1
102
RTVSPropertyOp3
 70
     1
102
RTVSPropertyOp4
 70
     1
102
RTVSPropertyOp5
 70
     1
102
RTVSPropertyOp6
 70
     1
102
RTVSPropertyOp7
 70
     1
102
RTVSPropertyOp8
 70
     1
102
RTVSPropertyOp9
 70
     1
102
RTVSPropertyOp10
 70
     1
102
RTVSPropertyOp11
 70
     1
102
RTVSPropertyOp12
 70
     1
102
RTVSPropertyOp13
 70
     1
102
RTVSPropertyOp14
 70
     1
102
RTVSPropertyOp15
 70
     1
102
RTVSPropertyOp16
 70
     1
102
RTVSPropertyOp17
 70
     1
102
RTVSPropertyOp18
 70
     1
102
RTVSPropertyOp19
 70
     1
102
RTVSPropertyOp20
 70
     1
102
RTVSPropertyOp21
 70
     1
102
RTVSPropertyOp22
 70
     1
102
RTVSPropertyOp23
 70
     1
102
RTVSPropertyOp24
 70
     1
102
RTVSPropertyOp25
 70
     1
102
RTVSPropertyOp26
 70
     1
102
RTVSPropertyOp27
 70
     1
102
RTVSPropertyOp28
 70
     1
102
RTVSPropertyOp29
 70
     1
102
RTVSPropertyOp30
 70
     1
102
RTVSPropertyOp31
 70
     1
102
RTVSPropertyOp32
 70
     1
102
RTVSPropertyOp33
 70
     1
102
RTVSPropertyOp34
 70
     1
102
RTVSPropertyOp35
 70
     1
102
RTVSPropertyOp36
 70
     1
102
RTVSPropertyOp37
 70
     1
102
RTVSPropertyOp38
 70
     1
102
RTVSPropertyOp39
 70
     1
102
RTVSPropertyOp40
 70
     1
102
RTVSPropertyOp41
 70
     1
102
RTVSPropertyOp42
 70
     1
102
RTVSPropertyOp43
 70
     1
102
RTVSPropertyOp44
 70
     1
102
RTVSPropertyOp45
 70
     1
102
RTVSPropertyOp46
 70
     1
102
RTVSPropertyOp47
 70
     1
102
RTVSPropertyOp48
 70
     1
102
RTVSPropertyOp49
 70
     1
102
RTVSPropertyOp50
 70
     1
102
RTVSPropertyOp51
 70
     0
102
RTVSPropertyOp52
 70
     0
102
RTVSPropertyOp53
 70
     1
102
RTVSPropertyOp54
 70
     1
102
RTVSPropertyOp55
 70
     1
102
RTVSPropertyOp56
 70
     1
102
RTVSPropertyOp57
 70
     1
102
RTVSPropertyOp58
 70
     1
102
RTVSPropertyOp59
 70
     1
102
RTVSPropertyOp60
 70
     1
102
RTVSPropertyOp61
 70
     1
102
RTVSPropertyOp62
 70
     1
  0
XRECORD
  5
19706
102
{ACAD_REACTORS
330
19705
102
}
330
19705
100
AcDbXrecord
280
     1
102
RTVSPost2010Prop28
280
     0
102
RTVSPost2010PropOp28
 70
     1
102
RTVSPost2010Prop29
280
     1
102
RTVSPost2010PropOp29
 70
     1
102
RTVSPost2010Prop30
280
     1
102
RTVSPost2010PropOp30
 70
     1
102
RTVSPost2010Prop31
280
     0
102
RTVSPost2010PropOp31
 70
     1
102
RTVSPost2010Prop32
280
     0
102
RTVSPost2010PropOp32
 70
     1
102
RTVSPost2010Prop33
280
     0
102
RTVSPost2010PropOp33
 70
     1
102
RTVSPost2010Prop34
280
     0
102
RTVSPost2010PropOp34
 70
     1
102
RTVSPost2010Prop35
280
     0
102
RTVSPost2010PropOp35
 70
     1
102
RTVSPost2010Prop36
280
     0
102
RTVSPost2010PropOp36
 70
     1
102
RTVSPost2010Prop37
 90
       50
102
RTVSPost2010PropOp37
 70
     0
102
RTVSPost2010Prop38
140
0.0
102
RTVSPost2010PropOp38
 70
     0
102
RTVSPost2010Prop39
140
1.0
102
RTVSPost2010PropOp39
 70
     0
102
RTVSPost2010Prop40
 90
        0
102
RTVSPost2010PropOp40
 70
     0
102
RTVSPost2010Prop41ColorIndex
 90
       18
102
RTVSPost2010Prop41ColorRGB
 90
        0
102
RTVSPost2010PropOp41
 70
     0
102
RTVSPost2010Prop42
 90
       50
102
RTVSPost2010PropOp42
 70
     0
102
RTVSPost2010Prop43
 90
        3
102
RTVSPost2010PropOp43
 70
     0
102
RTVSPost2010Prop44ColorIndex
 90
        5
102
RTVSPost2010Prop44ColorRGB
 90
      255
102
RTVSPost2010PropOp44
 70
     0
102
RTVSPost2010Prop45
280
     0
102
RTVSPost2010PropOp45
 70
     1
102
RTVSPost2010Prop46
 90
       50
102
RTVSPost2010PropOp46
 70
     0
102
RTVSPost2010Prop47
 90
       50
102
RTVSPost2010PropOp47
 70
     0
102
RTVSPost2010Prop48
 90
       50
102
RTVSPost2010PropOp48
 70
     0
102
RTVSPost2010Prop49
280
     0
102
RTVSPost2010PropOp49
 70
     1
102
RTVSPost2010Prop50
 90
       50
102
RTVSPost2010PropOp50
 70
     0
102
RTVSPost2010Prop51ColorIndex
 90
      256
102
RTVSPost2010Prop51ColorRGB
 90
-16777216
102
RTVSPost2010PropOp51
 70
     0
102
RTVSPost2010Prop52
140
1.0
102
RTVSPost2010PropOp52
 70
     0
102
RTVSPost2010Prop53
 90
        2
102
RTVSPost2010PropOp53
 70
     0
102
RTVSPost2010Prop54
  1
strokes_ogs.tif
102
RTVSPost2010PropOp54
 70
     0
102
RTVSPost2010Prop55
280
     0
102
RTVSPost2010PropOp55
 70
     1
102
RTVSPost2010Prop56
140
1.0
102
RTVSPost2010PropOp56
 70
     0
102
RTVSPost2010Prop57
140
1.0
102
RTVSPost2010PropOp57
 70
     0
102
RTVSPropertyOp0
 70
     0
102
RTVSPropertyOp1
 70
     0
102
RTVSPropertyOp2
 70
     0
102
RTVSPropertyOp3
 70
     0
102
RTVSPropertyOp4
 70
     0
102
RTVSPropertyOp5
 70
     0
102
RTVSPropertyOp6
 70
     0
102
RTVSPropertyOp7
 70
     0
102
RTVSPropertyOp8
 70
     0
102
RTVSPropertyOp9
 70
     0
102
RTVSPropertyOp10
 70
     0
102
RTVSPropertyOp11
 70
     0
102
RTVSPropertyOp12
 70
     0
102
RTVSPropertyOp13
 70
     0
102
RTVSPropertyOp14
 70
     2
102
RTVSPropertyOp15
 70
     0
102
RTVSPropertyOp16
 70
     0
102
RTVSPropertyOp17
 70
     0
102
RTVSPropertyOp18
 70
     0
102
RTVSPropertyOp19
 70
     0
102
RTVSPropertyOp20
 70
     0
102
RTVSPropertyOp21
 70
     0
102
RTVSPropertyOp22
 70
     0
102
RTVSPropertyOp23
 70
     0
102
RTVSPropertyOp24
 70
     0
102
RTVSPropertyOp25
 70
     0
102
RTVSPropertyOp26
 70
     0
102
RTVSPropertyOp27
 70
     0
102
RTVSPropertyOp28
 70
     1
102
RTVSPropertyOp29
 70
     1
102
RTVSPropertyOp30
 70
     1
102
RTVSPropertyOp31
 70
     1
102
RTVSPropertyOp32
 70
     1
102
RTVSPropertyOp33
 70
     1
102
RTVSPropertyOp34
 70
     1
102
RTVSPropertyOp35
 70
     1
102
RTVSPropertyOp36
 70
     1
102
RTVSPropertyOp37
 70
     0
102
RTVSPropertyOp38
 70
     0
102
RTVSPropertyOp39
 70
     0
102
RTVSPropertyOp40
 70
     0
102
RTVSPropertyOp41
 70
     0
102
RTVSPropertyOp42
 70
     0
102
RTVSPropertyOp43
 70
     0
102
RTVSPropertyOp44
 70
     0
102
RTVSPropertyOp45
 70
     1
102
RTVSPropertyOp46
 70
     0
102
RTVSPropertyOp47
 70
     0
102
RTVSPropertyOp48
 70
     0
102
RTVSPropertyOp49
 70
     1
102
RTVSPropertyOp50
 70
     0
102
RTVSPropertyOp51
 70
     0
102
RTVSPropertyOp52
 70
     0
102
RTVSPropertyOp53
 70
     0
102
RTVSPropertyOp54
 70
     0
102
RTVSPropertyOp55
 70
     1
102
RTVSPropertyOp56
 70
     0
102
RTVSPropertyOp57
 70
     0
102
RTVSPropertyOp58
 70
     0
102
RTVSPropertyOp59
 70
     0
102
RTVSPropertyOp60
 70
     0
102
RTVSPropertyOp61
 70
     0
102
RTVSPropertyOp62
 70
     0
  0
XRECORD
  5
196F4
102
{ACAD_REACTORS
330
196F3
102
}
330
196F3
100
AcDbXrecord
280
     1
102
RTVSPost2010Prop28
280
     0
102
RTVSPost2010PropOp28
 70
     1
102
RTVSPost2010Prop29
280
     1
102
RTVSPost2010PropOp29
 70
     1
102
RTVSPost2010Prop30
280
     1
102
RTVSPost2010PropOp30
 70
     1
102
RTVSPost2010Prop31
280
     0
102
RTVSPost2010PropOp31
 70
     1
102
RTVSPost2010Prop32
280
     0
102
RTVSPost2010PropOp32
 70
     1
102
RTVSPost2010Prop33
280
     0
102
RTVSPost2010PropOp33
 70
     1
102
RTVSPost2010Prop34
280
     0
102
RTVSPost2010PropOp34
 70
     1
102
RTVSPost2010Prop35
280
     0
102
RTVSPost2010PropOp35
 70
     1
102
RTVSPost2010Prop36
280
     0
102
RTVSPost2010PropOp36
 70
     1
102
RTVSPost2010Prop37
 90
       50
102
RTVSPost2010PropOp37
 70
     1
102
RTVSPost2010Prop38
140
0.0
102
RTVSPost2010PropOp38
 70
     1
102
RTVSPost2010Prop39
140
1.0
102
RTVSPost2010PropOp39
 70
     1
102
RTVSPost2010Prop40
 90
        0
102
RTVSPost2010PropOp40
 70
     1
102
RTVSPost2010Prop41ColorIndex
 90
       18
102
RTVSPost2010Prop41ColorRGB
 90
        0
102
RTVSPost2010PropOp41
 70
     1
102
RTVSPost2010Prop42
 90
       50
102
RTVSPost2010PropOp42
 70
     1
102
RTVSPost2010Prop43
 90
        3
102
RTVSPost2010PropOp43
 70
     1
102
RTVSPost2010Prop44ColorIndex
 90
        5
102
RTVSPost2010Prop44ColorRGB
 90
      255
102
RTVSPost2010PropOp44
 70
     1
102
RTVSPost2010Prop45
280
     0
102
RTVSPost2010PropOp45
 70
     1
102
RTVSPost2010Prop46
 90
       50
102
RTVSPost2010PropOp46
 70
     1
102
RTVSPost2010Prop47
 90
       50
102
RTVSPost2010PropOp47
 70
     1
102
RTVSPost2010Prop48
 90
       50
102
RTVSPost2010PropOp48
 70
     1
102
RTVSPost2010Prop49
280
     0
102
RTVSPost2010PropOp49
 70
     1
102
RTVSPost2010Prop50
 90
       50
102
RTVSPost2010PropOp50
 70
     1
102
RTVSPost2010Prop51ColorIndex
 90
      256
102
RTVSPost2010Prop51ColorRGB
 90
-16777216
102
RTVSPost2010PropOp51
 70
     0
102
RTVSPost2010Prop52
140
1.0
102
RTVSPost2010PropOp52
 70
     0
102
RTVSPost2010Prop53
 90
        2
102
RTVSPost2010PropOp53
 70
     1
102
RTVSPost2010Prop54
  1
strokes_ogs.tif
102
RTVSPost2010PropOp54
 70
     1
102
RTVSPost2010Prop55
280
     0
102
RTVSPost2010PropOp55
 70
     1
102
RTVSPost2010Prop56
140
1.0
102
RTVSPost2010PropOp56
 70
     1
102
RTVSPost2010Prop57
140
1.0
102
RTVSPost2010PropOp57
 70
     1
102
RTVSPropertyOp0
 70
     1
102
RTVSPropertyOp1
 70
     1
102
RTVSPropertyOp2
 70
     1
102
RTVSPropertyOp3
 70
     1
102
RTVSPropertyOp4
 70
     1
102
RTVSPropertyOp5
 70
     1
102
RTVSPropertyOp6
 70
     1
102
RTVSPropertyOp7
 70
     1
102
RTVSPropertyOp8
 70
     1
102
RTVSPropertyOp9
 70
     1
102
RTVSPropertyOp10
 70
     1
102
RTVSPropertyOp11
 70
     1
102
RTVSPropertyOp12
 70
     1
102
RTVSPropertyOp13
 70
     1
102
RTVSPropertyOp14
 70
     1
102
RTVSPropertyOp15
 70
     1
102
RTVSPropertyOp16
 70
     1
102
RTVSPropertyOp17
 70
     1
102
RTVSPropertyOp18
 70
     1
102
RTVSPropertyOp19
 70
     1
102
RTVSPropertyOp20
 70
     1
102
RTVSPropertyOp21
 70
     1
102
RTVSPropertyOp22
 70
     1
102
RTVSPropertyOp23
 70
     1
102
RTVSPropertyOp24
 70
     1
102
RTVSPropertyOp25
 70
     1
102
RTVSPropertyOp26
 70
     1
102
RTVSPropertyOp27
 70
     1
102
RTVSPropertyOp28
 70
     1
102
RTVSPropertyOp29
 70
     1
102
RTVSPropertyOp30
 70
     1
102
RTVSPropertyOp31
 70
     1
102
RTVSPropertyOp32
 70
     1
102
RTVSPropertyOp33
 70
     1
102
RTVSPropertyOp34
 70
     1
102
RTVSPropertyOp35
 70
     1
102
RTVSPropertyOp36
 70
     1
102
RTVSPropertyOp37
 70
     1
102
RTVSPropertyOp38
 70
     1
102
RTVSPropertyOp39
 70
     1
102
RTVSPropertyOp40
 70
     1
102
RTVSPropertyOp41
 70
     1
102
RTVSPropertyOp42
 70
     1
102
RTVSPropertyOp43
 70
     1
102
RTVSPropertyOp44
 70
     1
102
RTVSPropertyOp45
 70
     1
102
RTVSPropertyOp46
 70
     1
102
RTVSPropertyOp47
 70
     1
102
RTVSPropertyOp48
 70
     1
102
RTVSPropertyOp49
 70
     1
102
RTVSPropertyOp50
 70
     1
102
RTVSPropertyOp51
 70
     0
102
RTVSPropertyOp52
 70
     0
102
RTVSPropertyOp53
 70
     1
102
RTVSPropertyOp54
 70
     1
102
RTVSPropertyOp55
 70
     1
102
RTVSPropertyOp56
 70
     1
102
RTVSPropertyOp57
 70
     1
102
RTVSPropertyOp58
 70
     1
102
RTVSPropertyOp59
 70
     1
102
RTVSPropertyOp60
 70
     1
102
RTVSPropertyOp61
 70
     1
102
RTVSPropertyOp62
 70
     1
  0
XRECORD
  5
196D8
102
{ACAD_REACTORS
330
196D7
102
}
330
196D7
100
AcDbXrecord
280
     1
102
RTVSPost2010Prop28
280
     0
102
RTVSPost2010PropOp28
 70
     1
102
RTVSPost2010Prop29
280
     1
102
RTVSPost2010PropOp29
 70
     1
102
RTVSPost2010Prop30
280
     1
102
RTVSPost2010PropOp30
 70
     1
102
RTVSPost2010Prop31
280
     0
102
RTVSPost2010PropOp31
 70
     1
102
RTVSPost2010Prop32
280
     0
102
RTVSPost2010PropOp32
 70
     1
102
RTVSPost2010Prop33
280
     0
102
RTVSPost2010PropOp33
 70
     1
102
RTVSPost2010Prop34
280
     0
102
RTVSPost2010PropOp34
 70
     1
102
RTVSPost2010Prop35
280
     0
102
RTVSPost2010PropOp35
 70
     1
102
RTVSPost2010Prop36
280
     0
102
RTVSPost2010PropOp36
 70
     1
102
RTVSPost2010Prop37
 90
       50
102
RTVSPost2010PropOp37
 70
     1
102
RTVSPost2010Prop38
140
0.0
102
RTVSPost2010PropOp38
 70
     1
102
RTVSPost2010Prop39
140
1.0
102
RTVSPost2010PropOp39
 70
     1
102
RTVSPost2010Prop40
 90
        0
102
RTVSPost2010PropOp40
 70
     1
102
RTVSPost2010Prop41ColorIndex
 90
       18
102
RTVSPost2010Prop41ColorRGB
 90
        0
102
RTVSPost2010PropOp41
 70
     1
102
RTVSPost2010Prop42
 90
       50
102
RTVSPost2010PropOp42
 70
     1
102
RTVSPost2010Prop43
 90
        3
102
RTVSPost2010PropOp43
 70
     1
102
RTVSPost2010Prop44ColorIndex
 90
        5
102
RTVSPost2010Prop44ColorRGB
 90
      255
102
RTVSPost2010PropOp44
 70
     1
102
RTVSPost2010Prop45
280
     0
102
RTVSPost2010PropOp45
 70
     1
102
RTVSPost2010Prop46
 90
       50
102
RTVSPost2010PropOp46
 70
     1
102
RTVSPost2010Prop47
 90
       50
102
RTVSPost2010PropOp47
 70
     1
102
RTVSPost2010Prop48
 90
       50
102
RTVSPost2010PropOp48
 70
     1
102
RTVSPost2010Prop49
280
     0
102
RTVSPost2010PropOp49
 70
     1
102
RTVSPost2010Prop50
 90
       50
102
RTVSPost2010PropOp50
 70
     1
102
RTVSPost2010Prop51ColorIndex
 90
      256
102
RTVSPost2010Prop51ColorRGB
 90
-16777216
102
RTVSPost2010PropOp51
 70
     0
102
RTVSPost2010Prop52
140
1.0
102
RTVSPost2010PropOp52
 70
     0
102
RTVSPost2010Prop53
 90
        2
102
RTVSPost2010PropOp53
 70
     1
102
RTVSPost2010Prop54
  1
strokes_ogs.tif
102
RTVSPost2010PropOp54
 70
     1
102
RTVSPost2010Prop55
280
     0
102
RTVSPost2010PropOp55
 70
     1
102
RTVSPost2010Prop56
140
1.0
102
RTVSPost2010PropOp56
 70
     1
102
RTVSPost2010Prop57
140
1.0
102
RTVSPost2010PropOp57
 70
     1
102
RTVSPropertyOp0
 70
     1
102
RTVSPropertyOp1
 70
     1
102
RTVSPropertyOp2
 70
     1
102
RTVSPropertyOp3
 70
     1
102
RTVSPropertyOp4
 70
     1
102
RTVSPropertyOp5
 70
     1
102
RTVSPropertyOp6
 70
     1
102
RTVSPropertyOp7
 70
     1
102
RTVSPropertyOp8
 70
     1
102
RTVSPropertyOp9
 70
     1
102
RTVSPropertyOp10
 70
     1
102
RTVSPropertyOp11
 70
     1
102
RTVSPropertyOp12
 70
     1
102
RTVSPropertyOp13
 70
     1
102
RTVSPropertyOp14
 70
     1
102
RTVSPropertyOp15
 70
     1
102
RTVSPropertyOp16
 70
     1
102
RTVSPropertyOp17
 70
     1
102
RTVSPropertyOp18
 70
     1
102
RTVSPropertyOp19
 70
     1
102
RTVSPropertyOp20
 70
     1
102
RTVSPropertyOp21
 70
     1
102
RTVSPropertyOp22
 70
     1
102
RTVSPropertyOp23
 70
     1
102
RTVSPropertyOp24
 70
     1
102
RTVSPropertyOp25
 70
     1
102
RTVSPropertyOp26
 70
     1
102
RTVSPropertyOp27
 70
     1
102
RTVSPropertyOp28
 70
     1
102
RTVSPropertyOp29
 70
     1
102
RTVSPropertyOp30
 70
     1
102
RTVSPropertyOp31
 70
     1
102
RTVSPropertyOp32
 70
     1
102
RTVSPropertyOp33
 70
     1
102
RTVSPropertyOp34
 70
     1
102
RTVSPropertyOp35
 70
     1
102
RTVSPropertyOp36
 70
     1
102
RTVSPropertyOp37
 70
     1
102
RTVSPropertyOp38
 70
     1
102
RTVSPropertyOp39
 70
     1
102
RTVSPropertyOp40
 70
     1
102
RTVSPropertyOp41
 70
     1
102
RTVSPropertyOp42
 70
     1
102
RTVSPropertyOp43
 70
     1
102
RTVSPropertyOp44
 70
     1
102
RTVSPropertyOp45
 70
     1
102
RTVSPropertyOp46
 70
     1
102
RTVSPropertyOp47
 70
     1
102
RTVSPropertyOp48
 70
     1
102
RTVSPropertyOp49
 70
     1
102
RTVSPropertyOp50
 70
     1
102
RTVSPropertyOp51
 70
     0
102
RTVSPropertyOp52
 70
     0
102
RTVSPropertyOp53
 70
     1
102
RTVSPropertyOp54
 70
     1
102
RTVSPropertyOp55
 70
     1
102
RTVSPropertyOp56
 70
     1
102
RTVSPropertyOp57
 70
     1
102
RTVSPropertyOp58
 70
     1
102
RTVSPropertyOp59
 70
     1
102
RTVSPropertyOp60
 70
     1
102
RTVSPropertyOp61
 70
     1
102
RTVSPropertyOp62
 70
     1
  0
XRECORD
  5
196DA
102
{ACAD_REACTORS
330
196D9
102
}
330
196D9
100
AcDbXrecord
280
     1
102
RTVSPost2010Prop28
280
     0
102
RTVSPost2010PropOp28
 70
     1
102
RTVSPost2010Prop29
280
     1
102
RTVSPost2010PropOp29
 70
     1
102
RTVSPost2010Prop30
280
     1
102
RTVSPost2010PropOp30
 70
     1
102
RTVSPost2010Prop31
280
     0
102
RTVSPost2010PropOp31
 70
     1
102
RTVSPost2010Prop32
280
     0
102
RTVSPost2010PropOp32
 70
     1
102
RTVSPost2010Prop33
280
     0
102
RTVSPost2010PropOp33
 70
     1
102
RTVSPost2010Prop34
280
     0
102
RTVSPost2010PropOp34
 70
     1
102
RTVSPost2010Prop35
280
     0
102
RTVSPost2010PropOp35
 70
     1
102
RTVSPost2010Prop36
280
     0
102
RTVSPost2010PropOp36
 70
     1
102
RTVSPost2010Prop37
 90
       50
102
RTVSPost2010PropOp37
 70
     1
102
RTVSPost2010Prop38
140
0.0
102
RTVSPost2010PropOp38
 70
     1
102
RTVSPost2010Prop39
140
1.0
102
RTVSPost2010PropOp39
 70
     1
102
RTVSPost2010Prop40
 90
        0
102
RTVSPost2010PropOp40
 70
     1
102
RTVSPost2010Prop41ColorIndex
 90
       18
102
RTVSPost2010Prop41ColorRGB
 90
        0
102
RTVSPost2010PropOp41
 70
     1
102
RTVSPost2010Prop42
 90
       50
102
RTVSPost2010PropOp42
 70
     1
102
RTVSPost2010Prop43
 90
        3
102
RTVSPost2010PropOp43
 70
     1
102
RTVSPost2010Prop44ColorIndex
 90
        5
102
RTVSPost2010Prop44ColorRGB
 90
      255
102
RTVSPost2010PropOp44
 70
     1
102
RTVSPost2010Prop45
280
     0
102
RTVSPost2010PropOp45
 70
     1
102
RTVSPost2010Prop46
 90
       50
102
RTVSPost2010PropOp46
 70
     1
102
RTVSPost2010Prop47
 90
       50
102
RTVSPost2010PropOp47
 70
     1
102
RTVSPost2010Prop48
 90
       50
102
RTVSPost2010PropOp48
 70
     1
102
RTVSPost2010Prop49
280
     0
102
RTVSPost2010PropOp49
 70
     1
102
RTVSPost2010Prop50
 90
       50
102
RTVSPost2010PropOp50
 70
     1
102
RTVSPost2010Prop51ColorIndex
 90
      256
102
RTVSPost2010Prop51ColorRGB
 90
-16777216
102
RTVSPost2010PropOp51
 70
     0
102
RTVSPost2010Prop52
140
1.0
102
RTVSPost2010PropOp52
 70
     0
102
RTVSPost2010Prop53
 90
        2
102
RTVSPost2010PropOp53
 70
     1
102
RTVSPost2010Prop54
  1
strokes_ogs.tif
102
RTVSPost2010PropOp54
 70
     1
102
RTVSPost2010Prop55
280
     0
102
RTVSPost2010PropOp55
 70
     1
102
RTVSPost2010Prop56
140
1.0
102
RTVSPost2010PropOp56
 70
     1
102
RTVSPost2010Prop57
140
1.0
102
RTVSPost2010PropOp57
 70
     1
102
RTVSPropertyOp0
 70
     1
102
RTVSPropertyOp1
 70
     1
102
RTVSPropertyOp2
 70
     1
102
RTVSPropertyOp3
 70
     1
102
RTVSPropertyOp4
 70
     1
102
RTVSPropertyOp5
 70
     1
102
RTVSPropertyOp6
 70
     1
102
RTVSPropertyOp7
 70
     1
102
RTVSPropertyOp8
 70
     1
102
RTVSPropertyOp9
 70
     1
102
RTVSPropertyOp10
 70
     1
102
RTVSPropertyOp11
 70
     1
102
RTVSPropertyOp12
 70
     1
102
RTVSPropertyOp13
 70
     1
102
RTVSPropertyOp14
 70
     1
102
RTVSPropertyOp15
 70
     1
102
RTVSPropertyOp16
 70
     1
102
RTVSPropertyOp17
 70
     1
102
RTVSPropertyOp18
 70
     1
102
RTVSPropertyOp19
 70
     1
102
RTVSPropertyOp20
 70
     1
102
RTVSPropertyOp21
 70
     1
102
RTVSPropertyOp22
 70
     1
102
RTVSPropertyOp23
 70
     1
102
RTVSPropertyOp24
 70
     1
102
RTVSPropertyOp25
 70
     1
102
RTVSPropertyOp26
 70
     1
102
RTVSPropertyOp27
 70
     1
102
RTVSPropertyOp28
 70
     1
102
RTVSPropertyOp29
 70
     1
102
RTVSPropertyOp30
 70
     1
102
RTVSPropertyOp31
 70
     1
102
RTVSPropertyOp32
 70
     1
102
RTVSPropertyOp33
 70
     1
102
RTVSPropertyOp34
 70
     1
102
RTVSPropertyOp35
 70
     1
102
RTVSPropertyOp36
 70
     1
102
RTVSPropertyOp37
 70
     1
102
RTVSPropertyOp38
 70
     1
102
RTVSPropertyOp39
 70
     1
102
RTVSPropertyOp40
 70
     1
102
RTVSPropertyOp41
 70
     1
102
RTVSPropertyOp42
 70
     1
102
RTVSPropertyOp43
 70
     1
102
RTVSPropertyOp44
 70
     1
102
RTVSPropertyOp45
 70
     1
102
RTVSPropertyOp46
 70
     1
102
RTVSPropertyOp47
 70
     1
102
RTVSPropertyOp48
 70
     1
102
RTVSPropertyOp49
 70
     1
102
RTVSPropertyOp50
 70
     1
102
RTVSPropertyOp51
 70
     0
102
RTVSPropertyOp52
 70
     0
102
RTVSPropertyOp53
 70
     1
102
RTVSPropertyOp54
 70
     1
102
RTVSPropertyOp55
 70
     1
102
RTVSPropertyOp56
 70
     1
102
RTVSPropertyOp57
 70
     1
102
RTVSPropertyOp58
 70
     1
102
RTVSPropertyOp59
 70
     1
102
RTVSPropertyOp60
 70
     1
102
RTVSPropertyOp61
 70
     1
102
RTVSPropertyOp62
 70
     1
  0
XRECORD
  5
196DC
102
{ACAD_REACTORS
330
196DB
102
}
330
196DB
100
AcDbXrecord
280
     1
102
RTVSPost2010Prop28
280
     0
102
RTVSPost2010PropOp28
 70
     1
102
RTVSPost2010Prop29
280
     1
102
RTVSPost2010PropOp29
 70
     1
102
RTVSPost2010Prop30
280
     1
102
RTVSPost2010PropOp30
 70
     1
102
RTVSPost2010Prop31
280
     0
102
RTVSPost2010PropOp31
 70
     1
102
RTVSPost2010Prop32
280
     0
102
RTVSPost2010PropOp32
 70
     1
102
RTVSPost2010Prop33
280
     0
102
RTVSPost2010PropOp33
 70
     1
102
RTVSPost2010Prop34
280
     0
102
RTVSPost2010PropOp34
 70
     1
102
RTVSPost2010Prop35
280
     0
102
RTVSPost2010PropOp35
 70
     1
102
RTVSPost2010Prop36
280
     0
102
RTVSPost2010PropOp36
 70
     1
102
RTVSPost2010Prop37
 90
       50
102
RTVSPost2010PropOp37
 70
     1
102
RTVSPost2010Prop38
140
0.0
102
RTVSPost2010PropOp38
 70
     1
102
RTVSPost2010Prop39
140
1.0
102
RTVSPost2010PropOp39
 70
     1
102
RTVSPost2010Prop40
 90
        0
102
RTVSPost2010PropOp40
 70
     1
102
RTVSPost2010Prop41ColorIndex
 90
       18
102
RTVSPost2010Prop41ColorRGB
 90
        0
102
RTVSPost2010PropOp41
 70
     1
102
RTVSPost2010Prop42
 90
       50
102
RTVSPost2010PropOp42
 70
     1
102
RTVSPost2010Prop43
 90
        3
102
RTVSPost2010PropOp43
 70
     1
102
RTVSPost2010Prop44ColorIndex
 90
        5
102
RTVSPost2010Prop44ColorRGB
 90
      255
102
RTVSPost2010PropOp44
 70
     1
102
RTVSPost2010Prop45
280
     0
102
RTVSPost2010PropOp45
 70
     1
102
RTVSPost2010Prop46
 90
       50
102
RTVSPost2010PropOp46
 70
     1
102
RTVSPost2010Prop47
 90
       50
102
RTVSPost2010PropOp47
 70
     1
102
RTVSPost2010Prop48
 90
       50
102
RTVSPost2010PropOp48
 70
     1
102
RTVSPost2010Prop49
280
     0
102
RTVSPost2010PropOp49
 70
     1
102
RTVSPost2010Prop50
 90
       50
102
RTVSPost2010PropOp50
 70
     1
102
RTVSPost2010Prop51ColorIndex
 90
      256
102
RTVSPost2010Prop51ColorRGB
 90
-16777216
102
RTVSPost2010PropOp51
 70
     0
102
RTVSPost2010Prop52
140
1.0
102
RTVSPost2010PropOp52
 70
     0
102
RTVSPost2010Prop53
 90
        2
102
RTVSPost2010PropOp53
 70
     1
102
RTVSPost2010Prop54
  1
strokes_ogs.tif
102
RTVSPost2010PropOp54
 70
     1
102
RTVSPost2010Prop55
280
     0
102
RTVSPost2010PropOp55
 70
     1
102
RTVSPost2010Prop56
140
1.0
102
RTVSPost2010PropOp56
 70
     1
102
RTVSPost2010Prop57
140
1.0
102
RTVSPost2010PropOp57
 70
     1
102
RTVSPropertyOp0
 70
     1
102
RTVSPropertyOp1
 70
     1
102
RTVSPropertyOp2
 70
     1
102
RTVSPropertyOp3
 70
     1
102
RTVSPropertyOp4
 70
     1
102
RTVSPropertyOp5
 70
     1
102
RTVSPropertyOp6
 70
     1
102
RTVSPropertyOp7
 70
     1
102
RTVSPropertyOp8
 70
     1
102
RTVSPropertyOp9
 70
     1
102
RTVSPropertyOp10
 70
     1
102
RTVSPropertyOp11
 70
     1
102
RTVSPropertyOp12
 70
     1
102
RTVSPropertyOp13
 70
     1
102
RTVSPropertyOp14
 70
     1
102
RTVSPropertyOp15
 70
     1
102
RTVSPropertyOp16
 70
     1
102
RTVSPropertyOp17
 70
     1
102
RTVSPropertyOp18
 70
     1
102
RTVSPropertyOp19
 70
     1
102
RTVSPropertyOp20
 70
     1
102
RTVSPropertyOp21
 70
     1
102
RTVSPropertyOp22
 70
     1
102
RTVSPropertyOp23
 70
     1
102
RTVSPropertyOp24
 70
     1
102
RTVSPropertyOp25
 70
     1
102
RTVSPropertyOp26
 70
     1
102
RTVSPropertyOp27
 70
     1
102
RTVSPropertyOp28
 70
     1
102
RTVSPropertyOp29
 70
     1
102
RTVSPropertyOp30
 70
     1
102
RTVSPropertyOp31
 70
     1
102
RTVSPropertyOp32
 70
     1
102
RTVSPropertyOp33
 70
     1
102
RTVSPropertyOp34
 70
     1
102
RTVSPropertyOp35
 70
     1
102
RTVSPropertyOp36
 70
     1
102
RTVSPropertyOp37
 70
     1
102
RTVSPropertyOp38
 70
     1
102
RTVSPropertyOp39
 70
     1
102
RTVSPropertyOp40
 70
     1
102
RTVSPropertyOp41
 70
     1
102
RTVSPropertyOp42
 70
     1
102
RTVSPropertyOp43
 70
     1
102
RTVSPropertyOp44
 70
     1
102
RTVSPropertyOp45
 70
     1
102
RTVSPropertyOp46
 70
     1
102
RTVSPropertyOp47
 70
     1
102
RTVSPropertyOp48
 70
     1
102
RTVSPropertyOp49
 70
     1
102
RTVSPropertyOp50
 70
     1
102
RTVSPropertyOp51
 70
     0
102
RTVSPropertyOp52
 70
     0
102
RTVSPropertyOp53
 70
     1
102
RTVSPropertyOp54
 70
     1
102
RTVSPropertyOp55
 70
     1
102
RTVSPropertyOp56
 70
     1
102
RTVSPropertyOp57
 70
     1
102
RTVSPropertyOp58
 70
     1
102
RTVSPropertyOp59
 70
     1
102
RTVSPropertyOp60
 70
     1
102
RTVSPropertyOp61
 70
     1
102
RTVSPropertyOp62
 70
     1
  0
XRECORD
  5
196DE
102
{ACAD_REACTORS
330
196DD
102
}
330
196DD
100
AcDbXrecord
280
     1
102
RTVSPost2010Prop28
280
     0
102
RTVSPost2010PropOp28
 70
     1
102
RTVSPost2010Prop29
280
     1
102
RTVSPost2010PropOp29
 70
     1
102
RTVSPost2010Prop30
280
     1
102
RTVSPost2010PropOp30
 70
     1
102
RTVSPost2010Prop31
280
     0
102
RTVSPost2010PropOp31
 70
     1
102
RTVSPost2010Prop32
280
     0
102
RTVSPost2010PropOp32
 70
     1
102
RTVSPost2010Prop33
280
     0
102
RTVSPost2010PropOp33
 70
     1
102
RTVSPost2010Prop34
280
     0
102
RTVSPost2010PropOp34
 70
     1
102
RTVSPost2010Prop35
280
     0
102
RTVSPost2010PropOp35
 70
     1
102
RTVSPost2010Prop36
280
     0
102
RTVSPost2010PropOp36
 70
     1
102
RTVSPost2010Prop37
 90
       50
102
RTVSPost2010PropOp37
 70
     1
102
RTVSPost2010Prop38
140
0.0
102
RTVSPost2010PropOp38
 70
     1
102
RTVSPost2010Prop39
140
1.0
102
RTVSPost2010PropOp39
 70
     1
102
RTVSPost2010Prop40
 90
        0
102
RTVSPost2010PropOp40
 70
     1
102
RTVSPost2010Prop41ColorIndex
 90
       18
102
RTVSPost2010Prop41ColorRGB
 90
        0
102
RTVSPost2010PropOp41
 70
     1
102
RTVSPost2010Prop42
 90
       50
102
RTVSPost2010PropOp42
 70
     1
102
RTVSPost2010Prop43
 90
        3
102
RTVSPost2010PropOp43
 70
     1
102
RTVSPost2010Prop44ColorIndex
 90
        5
102
RTVSPost2010Prop44ColorRGB
 90
      255
102
RTVSPost2010PropOp44
 70
     1
102
RTVSPost2010Prop45
280
     0
102
RTVSPost2010PropOp45
 70
     1
102
RTVSPost2010Prop46
 90
       50
102
RTVSPost2010PropOp46
 70
     1
102
RTVSPost2010Prop47
 90
       50
102
RTVSPost2010PropOp47
 70
     1
102
RTVSPost2010Prop48
 90
       50
102
RTVSPost2010PropOp48
 70
     1
102
RTVSPost2010Prop49
280
     0
102
RTVSPost2010PropOp49
 70
     1
102
RTVSPost2010Prop50
 90
       50
102
RTVSPost2010PropOp50
 70
     1
102
RTVSPost2010Prop51ColorIndex
 90
      256
102
RTVSPost2010Prop51ColorRGB
 90
-16777216
102
RTVSPost2010PropOp51
 70
     0
102
RTVSPost2010Prop52
140
1.0
102
RTVSPost2010PropOp52
 70
     0
102
RTVSPost2010Prop53
 90
        2
102
RTVSPost2010PropOp53
 70
     1
102
RTVSPost2010Prop54
  1
strokes_ogs.tif
102
RTVSPost2010PropOp54
 70
     1
102
RTVSPost2010Prop55
280
     0
102
RTVSPost2010PropOp55
 70
     1
102
RTVSPost2010Prop56
140
1.0
102
RTVSPost2010PropOp56
 70
     1
102
RTVSPost2010Prop57
140
1.0
102
RTVSPost2010PropOp57
 70
     1
102
RTVSPropertyOp0
 70
     1
102
RTVSPropertyOp1
 70
     1
102
RTVSPropertyOp2
 70
     1
102
RTVSPropertyOp3
 70
     1
102
RTVSPropertyOp4
 70
     1
102
RTVSPropertyOp5
 70
     1
102
RTVSPropertyOp6
 70
     1
102
RTVSPropertyOp7
 70
     1
102
RTVSPropertyOp8
 70
     1
102
RTVSPropertyOp9
 70
     1
102
RTVSPropertyOp10
 70
     1
102
RTVSPropertyOp11
 70
     1
102
RTVSPropertyOp12
 70
     1
102
RTVSPropertyOp13
 70
     1
102
RTVSPropertyOp14
 70
     1
102
RTVSPropertyOp15
 70
     1
102
RTVSPropertyOp16
 70
     1
102
RTVSPropertyOp17
 70
     1
102
RTVSPropertyOp18
 70
     1
102
RTVSPropertyOp19
 70
     1
102
RTVSPropertyOp20
 70
     1
102
RTVSPropertyOp21
 70
     1
102
RTVSPropertyOp22
 70
     1
102
RTVSPropertyOp23
 70
     1
102
RTVSPropertyOp24
 70
     1
102
RTVSPropertyOp25
 70
     1
102
RTVSPropertyOp26
 70
     1
102
RTVSPropertyOp27
 70
     1
102
RTVSPropertyOp28
 70
     1
102
RTVSPropertyOp29
 70
     1
102
RTVSPropertyOp30
 70
     1
102
RTVSPropertyOp31
 70
     1
102
RTVSPropertyOp32
 70
     1
102
RTVSPropertyOp33
 70
     1
102
RTVSPropertyOp34
 70
     1
102
RTVSPropertyOp35
 70
     1
102
RTVSPropertyOp36
 70
     1
102
RTVSPropertyOp37
 70
     1
102
RTVSPropertyOp38
 70
     1
102
RTVSPropertyOp39
 70
     1
102
RTVSPropertyOp40
 70
     1
102
RTVSPropertyOp41
 70
     1
102
RTVSPropertyOp42
 70
     1
102
RTVSPropertyOp43
 70
     1
102
RTVSPropertyOp44
 70
     1
102
RTVSPropertyOp45
 70
     1
102
RTVSPropertyOp46
 70
     1
102
RTVSPropertyOp47
 70
     1
102
RTVSPropertyOp48
 70
     1
102
RTVSPropertyOp49
 70
     1
102
RTVSPropertyOp50
 70
     1
102
RTVSPropertyOp51
 70
     0
102
RTVSPropertyOp52
 70
     0
102
RTVSPropertyOp53
 70
     1
102
RTVSPropertyOp54
 70
     1
102
RTVSPropertyOp55
 70
     1
102
RTVSPropertyOp56
 70
     1
102
RTVSPropertyOp57
 70
     1
102
RTVSPropertyOp58
 70
     1
102
RTVSPropertyOp59
 70
     1
102
RTVSPropertyOp60
 70
     1
102
RTVSPropertyOp61
 70
     1
102
RTVSPropertyOp62
 70
     1
  0
XRECORD
  5
196E6
102
{ACAD_REACTORS
330
196E5
102
}
330
196E5
100
AcDbXrecord
280
     1
102
RTVSPost2010Prop28
280
     0
102
RTVSPost2010PropOp28
 70
     1
102
RTVSPost2010Prop29
280
     1
102
RTVSPost2010PropOp29
 70
     1
102
RTVSPost2010Prop30
280
     1
102
RTVSPost2010PropOp30
 70
     1
102
RTVSPost2010Prop31
280
     0
102
RTVSPost2010PropOp31
 70
     1
102
RTVSPost2010Prop32
280
     0
102
RTVSPost2010PropOp32
 70
     1
102
RTVSPost2010Prop33
280
     0
102
RTVSPost2010PropOp33
 70
     1
102
RTVSPost2010Prop34
280
     0
102
RTVSPost2010PropOp34
 70
     1
102
RTVSPost2010Prop35
280
     0
102
RTVSPost2010PropOp35
 70
     1
102
RTVSPost2010Prop36
280
     0
102
RTVSPost2010PropOp36
 70
     1
102
RTVSPost2010Prop37
 90
       50
102
RTVSPost2010PropOp37
 70
     1
102
RTVSPost2010Prop38
140
0.0
102
RTVSPost2010PropOp38
 70
     1
102
RTVSPost2010Prop39
140
1.0
102
RTVSPost2010PropOp39
 70
     1
102
RTVSPost2010Prop40
 90
        0
102
RTVSPost2010PropOp40
 70
     1
102
RTVSPost2010Prop41ColorIndex
 90
       18
102
RTVSPost2010Prop41ColorRGB
 90
        0
102
RTVSPost2010PropOp41
 70
     1
102
RTVSPost2010Prop42
 90
       50
102
RTVSPost2010PropOp42
 70
     1
102
RTVSPost2010Prop43
 90
        3
102
RTVSPost2010PropOp43
 70
     1
102
RTVSPost2010Prop44ColorIndex
 90
        5
102
RTVSPost2010Prop44ColorRGB
 90
      255
102
RTVSPost2010PropOp44
 70
     1
102
RTVSPost2010Prop45
280
     0
102
RTVSPost2010PropOp45
 70
     1
102
RTVSPost2010Prop46
 90
       50
102
RTVSPost2010PropOp46
 70
     1
102
RTVSPost2010Prop47
 90
       50
102
RTVSPost2010PropOp47
 70
     1
102
RTVSPost2010Prop48
 90
       50
102
RTVSPost2010PropOp48
 70
     1
102
RTVSPost2010Prop49
280
     0
102
RTVSPost2010PropOp49
 70
     1
102
RTVSPost2010Prop50
 90
       50
102
RTVSPost2010PropOp50
 70
     1
102
RTVSPost2010Prop51ColorIndex
 90
      256
102
RTVSPost2010Prop51ColorRGB
 90
-16777216
102
RTVSPost2010PropOp51
 70
     0
102
RTVSPost2010Prop52
140
1.0
102
RTVSPost2010PropOp52
 70
     0
102
RTVSPost2010Prop53
 90
        2
102
RTVSPost2010PropOp53
 70
     1
102
RTVSPost2010Prop54
  1
strokes_ogs.tif
102
RTVSPost2010PropOp54
 70
     1
102
RTVSPost2010Prop55
280
     0
102
RTVSPost2010PropOp55
 70
     1
102
RTVSPost2010Prop56
140
1.0
102
RTVSPost2010PropOp56
 70
     1
102
RTVSPost2010Prop57
140
1.0
102
RTVSPost2010PropOp57
 70
     1
102
RTVSPropertyOp0
 70
     1
102
RTVSPropertyOp1
 70
     1
102
RTVSPropertyOp2
 70
     1
102
RTVSPropertyOp3
 70
     1
102
RTVSPropertyOp4
 70
     1
102
RTVSPropertyOp5
 70
     1
102
RTVSPropertyOp6
 70
     1
102
RTVSPropertyOp7
 70
     1
102
RTVSPropertyOp8
 70
     1
102
RTVSPropertyOp9
 70
     1
102
RTVSPropertyOp10
 70
     1
102
RTVSPropertyOp11
 70
     1
102
RTVSPropertyOp12
 70
     1
102
RTVSPropertyOp13
 70
     1
102
RTVSPropertyOp14
 70
     1
102
RTVSPropertyOp15
 70
     1
102
RTVSPropertyOp16
 70
     1
102
RTVSPropertyOp17
 70
     1
102
RTVSPropertyOp18
 70
     1
102
RTVSPropertyOp19
 70
     1
102
RTVSPropertyOp20
 70
     1
102
RTVSPropertyOp21
 70
     1
102
RTVSPropertyOp22
 70
     1
102
RTVSPropertyOp23
 70
     1
102
RTVSPropertyOp24
 70
     1
102
RTVSPropertyOp25
 70
     1
102
RTVSPropertyOp26
 70
     1
102
RTVSPropertyOp27
 70
     1
102
RTVSPropertyOp28
 70
     1
102
RTVSPropertyOp29
 70
     1
102
RTVSPropertyOp30
 70
     1
102
RTVSPropertyOp31
 70
     1
102
RTVSPropertyOp32
 70
     1
102
RTVSPropertyOp33
 70
     1
102
RTVSPropertyOp34
 70
     1
102
RTVSPropertyOp35
 70
     1
102
RTVSPropertyOp36
 70
     1
102
RTVSPropertyOp37
 70
     1
102
RTVSPropertyOp38
 70
     1
102
RTVSPropertyOp39
 70
     1
102
RTVSPropertyOp40
 70
     1
102
RTVSPropertyOp41
 70
     1
102
RTVSPropertyOp42
 70
     1
102
RTVSPropertyOp43
 70
     1
102
RTVSPropertyOp44
 70
     1
102
RTVSPropertyOp45
 70
     1
102
RTVSPropertyOp46
 70
     1
102
RTVSPropertyOp47
 70
     1
102
RTVSPropertyOp48
 70
     1
102
RTVSPropertyOp49
 70
     1
102
RTVSPropertyOp50
 70
     1
102
RTVSPropertyOp51
 70
     0
102
RTVSPropertyOp52
 70
     0
102
RTVSPropertyOp53
 70
     1
102
RTVSPropertyOp54
 70
     1
102
RTVSPropertyOp55
 70
     1
102
RTVSPropertyOp56
 70
     1
102
RTVSPropertyOp57
 70
     1
102
RTVSPropertyOp58
 70
     1
102
RTVSPropertyOp59
 70
     1
102
RTVSPropertyOp60
 70
     1
102
RTVSPropertyOp61
 70
     1
102
RTVSPropertyOp62
 70
     1
  0
XRECORD
  5
19702
102
{ACAD_REACTORS
330
19701
102
}
330
19701
100
AcDbXrecord
280
     1
102
RTVSPost2010Prop28
280
     0
102
RTVSPost2010PropOp28
 70
     1
102
RTVSPost2010Prop29
280
     1
102
RTVSPost2010PropOp29
 70
     1
102
RTVSPost2010Prop30
280
     1
102
RTVSPost2010PropOp30
 70
     1
102
RTVSPost2010Prop31
280
     0
102
RTVSPost2010PropOp31
 70
     1
102
RTVSPost2010Prop32
280
     0
102
RTVSPost2010PropOp32
 70
     1
102
RTVSPost2010Prop33
280
     0
102
RTVSPost2010PropOp33
 70
     1
102
RTVSPost2010Prop34
280
     0
102
RTVSPost2010PropOp34
 70
     1
102
RTVSPost2010Prop35
280
     0
102
RTVSPost2010PropOp35
 70
     1
102
RTVSPost2010Prop36
280
     0
102
RTVSPost2010PropOp36
 70
     1
102
RTVSPost2010Prop37
 90
       50
102
RTVSPost2010PropOp37
 70
     0
102
RTVSPost2010Prop38
140
0.0
102
RTVSPost2010PropOp38
 70
     0
102
RTVSPost2010Prop39
140
1.0
102
RTVSPost2010PropOp39
 70
     0
102
RTVSPost2010Prop40
 90
        0
102
RTVSPost2010PropOp40
 70
     0
102
RTVSPost2010Prop41ColorIndex
 90
       18
102
RTVSPost2010Prop41ColorRGB
 90
        0
102
RTVSPost2010PropOp41
 70
     0
102
RTVSPost2010Prop42
 90
       50
102
RTVSPost2010PropOp42
 70
     0
102
RTVSPost2010Prop43
 90
        3
102
RTVSPost2010PropOp43
 70
     0
102
RTVSPost2010Prop44ColorIndex
 90
        5
102
RTVSPost2010Prop44ColorRGB
 90
      255
102
RTVSPost2010PropOp44
 70
     0
102
RTVSPost2010Prop45
280
     0
102
RTVSPost2010PropOp45
 70
     1
102
RTVSPost2010Prop46
 90
       50
102
RTVSPost2010PropOp46
 70
     0
102
RTVSPost2010Prop47
 90
       50
102
RTVSPost2010PropOp47
 70
     0
102
RTVSPost2010Prop48
 90
       50
102
RTVSPost2010PropOp48
 70
     0
102
RTVSPost2010Prop49
280
     0
102
RTVSPost2010PropOp49
 70
     1
102
RTVSPost2010Prop50
 90
       50
102
RTVSPost2010PropOp50
 70
     0
102
RTVSPost2010Prop51ColorIndex
 90
      256
102
RTVSPost2010Prop51ColorRGB
 90
-16777216
102
RTVSPost2010PropOp51
 70
     0
102
RTVSPost2010Prop52
140
1.0
102
RTVSPost2010PropOp52
 70
     0
102
RTVSPost2010Prop53
 90
        2
102
RTVSPost2010PropOp53
 70
     0
102
RTVSPost2010Prop54
  1
strokes_ogs.tif
102
RTVSPost2010PropOp54
 70
     0
102
RTVSPost2010Prop55
280
     0
102
RTVSPost2010PropOp55
 70
     1
102
RTVSPost2010Prop56
140
1.0
102
RTVSPost2010PropOp56
 70
     0
102
RTVSPost2010Prop57
140
1.0
102
RTVSPost2010PropOp57
 70
     0
102
RTVSPropertyOp0
 70
     0
102
RTVSPropertyOp1
 70
     0
102
RTVSPropertyOp2
 70
     0
102
RTVSPropertyOp3
 70
     0
102
RTVSPropertyOp4
 70
     0
102
RTVSPropertyOp5
 70
     0
102
RTVSPropertyOp6
 70
     0
102
RTVSPropertyOp7
 70
     0
102
RTVSPropertyOp8
 70
     0
102
RTVSPropertyOp9
 70
     0
102
RTVSPropertyOp10
 70
     0
102
RTVSPropertyOp11
 70
     0
102
RTVSPropertyOp12
 70
     0
102
RTVSPropertyOp13
 70
     0
102
RTVSPropertyOp14
 70
     2
102
RTVSPropertyOp15
 70
     0
102
RTVSPropertyOp16
 70
     0
102
RTVSPropertyOp17
 70
     0
102
RTVSPropertyOp18
 70
     0
102
RTVSPropertyOp19
 70
     0
102
RTVSPropertyOp20
 70
     0
102
RTVSPropertyOp21
 70
     0
102
RTVSPropertyOp22
 70
     0
102
RTVSPropertyOp23
 70
     0
102
RTVSPropertyOp24
 70
     0
102
RTVSPropertyOp25
 70
     0
102
RTVSPropertyOp26
 70
     0
102
RTVSPropertyOp27
 70
     0
102
RTVSPropertyOp28
 70
     1
102
RTVSPropertyOp29
 70
     1
102
RTVSPropertyOp30
 70
     1
102
RTVSPropertyOp31
 70
     1
102
RTVSPropertyOp32
 70
     1
102
RTVSPropertyOp33
 70
     1
102
RTVSPropertyOp34
 70
     1
102
RTVSPropertyOp35
 70
     1
102
RTVSPropertyOp36
 70
     1
102
RTVSPropertyOp37
 70
     0
102
RTVSPropertyOp38
 70
     0
102
RTVSPropertyOp39
 70
     0
102
RTVSPropertyOp40
 70
     0
102
RTVSPropertyOp41
 70
     0
102
RTVSPropertyOp42
 70
     0
102
RTVSPropertyOp43
 70
     0
102
RTVSPropertyOp44
 70
     0
102
RTVSPropertyOp45
 70
     1
102
RTVSPropertyOp46
 70
     0
102
RTVSPropertyOp47
 70
     0
102
RTVSPropertyOp48
 70
     0
102
RTVSPropertyOp49
 70
     1
102
RTVSPropertyOp50
 70
     0
102
RTVSPropertyOp51
 70
     0
102
RTVSPropertyOp52
 70
     0
102
RTVSPropertyOp53
 70
     0
102
RTVSPropertyOp54
 70
     0
102
RTVSPropertyOp55
 70
     1
102
RTVSPropertyOp56
 70
     0
102
RTVSPropertyOp57
 70
     0
102
RTVSPropertyOp58
 70
     0
102
RTVSPropertyOp59
 70
     0
102
RTVSPropertyOp60
 70
     0
102
RTVSPropertyOp61
 70
     0
102
RTVSPropertyOp62
 70
     0
  0
XRECORD
  5
196F2
102
{ACAD_REACTORS
330
196F1
102
}
330
196F1
100
AcDbXrecord
280
     1
102
RTVSPost2010Prop28
280
     0
102
RTVSPost2010PropOp28
 70
     1
102
RTVSPost2010Prop29
280
     1
102
RTVSPost2010PropOp29
 70
     1
102
RTVSPost2010Prop30
280
     1
102
RTVSPost2010PropOp30
 70
     1
102
RTVSPost2010Prop31
280
     0
102
RTVSPost2010PropOp31
 70
     1
102
RTVSPost2010Prop32
280
     0
102
RTVSPost2010PropOp32
 70
     1
102
RTVSPost2010Prop33
280
     0
102
RTVSPost2010PropOp33
 70
     1
102
RTVSPost2010Prop34
280
     0
102
RTVSPost2010PropOp34
 70
     1
102
RTVSPost2010Prop35
280
     0
102
RTVSPost2010PropOp35
 70
     1
102
RTVSPost2010Prop36
280
     0
102
RTVSPost2010PropOp36
 70
     1
102
RTVSPost2010Prop37
 90
       50
102
RTVSPost2010PropOp37
 70
     1
102
RTVSPost2010Prop38
140
0.0
102
RTVSPost2010PropOp38
 70
     1
102
RTVSPost2010Prop39
140
1.0
102
RTVSPost2010PropOp39
 70
     1
102
RTVSPost2010Prop40
 90
        0
102
RTVSPost2010PropOp40
 70
     1
102
RTVSPost2010Prop41ColorIndex
 90
       18
102
RTVSPost2010Prop41ColorRGB
 90
        0
102
RTVSPost2010PropOp41
 70
     1
102
RTVSPost2010Prop42
 90
       50
102
RTVSPost2010PropOp42
 70
     1
102
RTVSPost2010Prop43
 90
        3
102
RTVSPost2010PropOp43
 70
     1
102
RTVSPost2010Prop44ColorIndex
 90
        5
102
RTVSPost2010Prop44ColorRGB
 90
      255
102
RTVSPost2010PropOp44
 70
     1
102
RTVSPost2010Prop45
280
     0
102
RTVSPost2010PropOp45
 70
     1
102
RTVSPost2010Prop46
 90
       50
102
RTVSPost2010PropOp46
 70
     1
102
RTVSPost2010Prop47
 90
       50
102
RTVSPost2010PropOp47
 70
     1
102
RTVSPost2010Prop48
 90
       50
102
RTVSPost2010PropOp48
 70
     1
102
RTVSPost2010Prop49
280
     0
102
RTVSPost2010PropOp49
 70
     1
102
RTVSPost2010Prop50
 90
       50
102
RTVSPost2010PropOp50
 70
     1
102
RTVSPost2010Prop51ColorIndex
 90
      256
102
RTVSPost2010Prop51ColorRGB
 90
-16777216
102
RTVSPost2010PropOp51
 70
     0
102
RTVSPost2010Prop52
140
1.0
102
RTVSPost2010PropOp52
 70
     0
102
RTVSPost2010Prop53
 90
        2
102
RTVSPost2010PropOp53
 70
     1
102
RTVSPost2010Prop54
  1
strokes_ogs.tif
102
RTVSPost2010PropOp54
 70
     1
102
RTVSPost2010Prop55
280
     0
102
RTVSPost2010PropOp55
 70
     1
102
RTVSPost2010Prop56
140
1.0
102
RTVSPost2010PropOp56
 70
     1
102
RTVSPost2010Prop57
140
1.0
102
RTVSPost2010PropOp57
 70
     1
102
RTVSPropertyOp0
 70
     1
102
RTVSPropertyOp1
 70
     1
102
RTVSPropertyOp2
 70
     1
102
RTVSPropertyOp3
 70
     1
102
RTVSPropertyOp4
 70
     1
102
RTVSPropertyOp5
 70
     1
102
RTVSPropertyOp6
 70
     1
102
RTVSPropertyOp7
 70
     1
102
RTVSPropertyOp8
 70
     1
102
RTVSPropertyOp9
 70
     1
102
RTVSPropertyOp10
 70
     1
102
RTVSPropertyOp11
 70
     1
102
RTVSPropertyOp12
 70
     1
102
RTVSPropertyOp13
 70
     1
102
RTVSPropertyOp14
 70
     1
102
RTVSPropertyOp15
 70
     1
102
RTVSPropertyOp16
 70
     1
102
RTVSPropertyOp17
 70
     1
102
RTVSPropertyOp18
 70
     1
102
RTVSPropertyOp19
 70
     1
102
RTVSPropertyOp20
 70
     1
102
RTVSPropertyOp21
 70
     1
102
RTVSPropertyOp22
 70
     1
102
RTVSPropertyOp23
 70
     1
102
RTVSPropertyOp24
 70
     1
102
RTVSPropertyOp25
 70
     1
102
RTVSPropertyOp26
 70
     1
102
RTVSPropertyOp27
 70
     1
102
RTVSPropertyOp28
 70
     1
102
RTVSPropertyOp29
 70
     1
102
RTVSPropertyOp30
 70
     1
102
RTVSPropertyOp31
 70
     1
102
RTVSPropertyOp32
 70
     1
102
RTVSPropertyOp33
 70
     1
102
RTVSPropertyOp34
 70
     1
102
RTVSPropertyOp35
 70
     1
102
RTVSPropertyOp36
 70
     1
102
RTVSPropertyOp37
 70
     1
102
RTVSPropertyOp38
 70
     1
102
RTVSPropertyOp39
 70
     1
102
RTVSPropertyOp40
 70
     1
102
RTVSPropertyOp41
 70
     1
102
RTVSPropertyOp42
 70
     1
102
RTVSPropertyOp43
 70
     1
102
RTVSPropertyOp44
 70
     1
102
RTVSPropertyOp45
 70
     1
102
RTVSPropertyOp46
 70
     1
102
RTVSPropertyOp47
 70
     1
102
RTVSPropertyOp48
 70
     1
102
RTVSPropertyOp49
 70
     1
102
RTVSPropertyOp50
 70
     1
102
RTVSPropertyOp51
 70
     0
102
RTVSPropertyOp52
 70
     0
102
RTVSPropertyOp53
 70
     1
102
RTVSPropertyOp54
 70
     1
102
RTVSPropertyOp55
 70
     1
102
RTVSPropertyOp56
 70
     1
102
RTVSPropertyOp57
 70
     1
102
RTVSPropertyOp58
 70
     1
102
RTVSPropertyOp59
 70
     1
102
RTVSPropertyOp60
 70
     1
102
RTVSPropertyOp61
 70
     1
102
RTVSPropertyOp62
 70
     1
  0
XRECORD
  5
19704
102
{ACAD_REACTORS
330
19703
102
}
330
19703
100
AcDbXrecord
280
     1
102
RTVSPost2010Prop28
280
     0
102
RTVSPost2010PropOp28
 70
     1
102
RTVSPost2010Prop29
280
     1
102
RTVSPost2010PropOp29
 70
     1
102
RTVSPost2010Prop30
280
     1
102
RTVSPost2010PropOp30
 70
     1
102
RTVSPost2010Prop31
280
     0
102
RTVSPost2010PropOp31
 70
     1
102
RTVSPost2010Prop32
280
     0
102
RTVSPost2010PropOp32
 70
     1
102
RTVSPost2010Prop33
280
     0
102
RTVSPost2010PropOp33
 70
     1
102
RTVSPost2010Prop34
280
     0
102
RTVSPost2010PropOp34
 70
     1
102
RTVSPost2010Prop35
280
     0
102
RTVSPost2010PropOp35
 70
     1
102
RTVSPost2010Prop36
280
     0
102
RTVSPost2010PropOp36
 70
     1
102
RTVSPost2010Prop37
 90
       50
102
RTVSPost2010PropOp37
 70
     0
102
RTVSPost2010Prop38
140
0.0
102
RTVSPost2010PropOp38
 70
     0
102
RTVSPost2010Prop39
140
1.0
102
RTVSPost2010PropOp39
 70
     0
102
RTVSPost2010Prop40
 90
        0
102
RTVSPost2010PropOp40
 70
     0
102
RTVSPost2010Prop41ColorIndex
 90
       18
102
RTVSPost2010Prop41ColorRGB
 90
        0
102
RTVSPost2010PropOp41
 70
     0
102
RTVSPost2010Prop42
 90
       50
102
RTVSPost2010PropOp42
 70
     0
102
RTVSPost2010Prop43
 90
        3
102
RTVSPost2010PropOp43
 70
     0
102
RTVSPost2010Prop44ColorIndex
 90
        5
102
RTVSPost2010Prop44ColorRGB
 90
      255
102
RTVSPost2010PropOp44
 70
     0
102
RTVSPost2010Prop45
280
     0
102
RTVSPost2010PropOp45
 70
     1
102
RTVSPost2010Prop46
 90
       50
102
RTVSPost2010PropOp46
 70
     0
102
RTVSPost2010Prop47
 90
       50
102
RTVSPost2010PropOp47
 70
     0
102
RTVSPost2010Prop48
 90
       50
102
RTVSPost2010PropOp48
 70
     0
102
RTVSPost2010Prop49
280
     0
102
RTVSPost2010PropOp49
 70
     1
102
RTVSPost2010Prop50
 90
       50
102
RTVSPost2010PropOp50
 70
     0
102
RTVSPost2010Prop51ColorIndex
 90
      256
102
RTVSPost2010Prop51ColorRGB
 90
-16777216
102
RTVSPost2010PropOp51
 70
     0
102
RTVSPost2010Prop52
140
1.0
102
RTVSPost2010PropOp52
 70
     0
102
RTVSPost2010Prop53
 90
        2
102
RTVSPost2010PropOp53
 70
     0
102
RTVSPost2010Prop54
  1
strokes_ogs.tif
102
RTVSPost2010PropOp54
 70
     0
102
RTVSPost2010Prop55
280
     0
102
RTVSPost2010PropOp55
 70
     1
102
RTVSPost2010Prop56
140
1.0
102
RTVSPost2010PropOp56
 70
     0
102
RTVSPost2010Prop57
140
1.0
102
RTVSPost2010PropOp57
 70
     0
102
RTVSPropertyOp0
 70
     0
102
RTVSPropertyOp1
 70
     0
102
RTVSPropertyOp2
 70
     0
102
RTVSPropertyOp3
 70
     0
102
RTVSPropertyOp4
 70
     0
102
RTVSPropertyOp5
 70
     0
102
RTVSPropertyOp6
 70
     0
102
RTVSPropertyOp7
 70
     0
102
RTVSPropertyOp8
 70
     0
102
RTVSPropertyOp9
 70
     0
102
RTVSPropertyOp10
 70
     0
102
RTVSPropertyOp11
 70
     0
102
RTVSPropertyOp12
 70
     0
102
RTVSPropertyOp13
 70
     0
102
RTVSPropertyOp14
 70
     2
102
RTVSPropertyOp15
 70
     0
102
RTVSPropertyOp16
 70
     0
102
RTVSPropertyOp17
 70
     0
102
RTVSPropertyOp18
 70
     0
102
RTVSPropertyOp19
 70
     0
102
RTVSPropertyOp20
 70
     0
102
RTVSPropertyOp21
 70
     0
102
RTVSPropertyOp22
 70
     0
102
RTVSPropertyOp23
 70
     0
102
RTVSPropertyOp24
 70
     0
102
RTVSPropertyOp25
 70
     0
102
RTVSPropertyOp26
 70
     0
102
RTVSPropertyOp27
 70
     0
102
RTVSPropertyOp28
 70
     1
102
RTVSPropertyOp29
 70
     1
102
RTVSPropertyOp30
 70
     1
102
RTVSPropertyOp31
 70
     1
102
RTVSPropertyOp32
 70
     1
102
RTVSPropertyOp33
 70
     1
102
RTVSPropertyOp34
 70
     1
102
RTVSPropertyOp35
 70
     1
102
RTVSPropertyOp36
 70
     1
102
RTVSPropertyOp37
 70
     0
102
RTVSPropertyOp38
 70
     0
102
RTVSPropertyOp39
 70
     0
102
RTVSPropertyOp40
 70
     0
102
RTVSPropertyOp41
 70
     0
102
RTVSPropertyOp42
 70
     0
102
RTVSPropertyOp43
 70
     0
102
RTVSPropertyOp44
 70
     0
102
RTVSPropertyOp45
 70
     1
102
RTVSPropertyOp46
 70
     0
102
RTVSPropertyOp47
 70
     0
102
RTVSPropertyOp48
 70
     0
102
RTVSPropertyOp49
 70
     1
102
RTVSPropertyOp50
 70
     0
102
RTVSPropertyOp51
 70
     0
102
RTVSPropertyOp52
 70
     0
102
RTVSPropertyOp53
 70
     0
102
RTVSPropertyOp54
 70
     0
102
RTVSPropertyOp55
 70
     1
102
RTVSPropertyOp56
 70
     0
102
RTVSPropertyOp57
 70
     0
102
RTVSPropertyOp58
 70
     0
102
RTVSPropertyOp59
 70
     0
102
RTVSPropertyOp60
 70
     0
102
RTVSPropertyOp61
 70
     0
102
RTVSPropertyOp62
 70
     0
  0
XRECORD
  5
196EA
102
{ACAD_REACTORS
330
196E9
102
}
330
196E9
100
AcDbXrecord
280
     1
102
RTVSPost2010Prop28
280
     0
102
RTVSPost2010PropOp28
 70
     1
102
RTVSPost2010Prop29
280
     1
102
RTVSPost2010PropOp29
 70
     1
102
RTVSPost2010Prop30
280
     1
102
RTVSPost2010PropOp30
 70
     1
102
RTVSPost2010Prop31
280
     0
102
RTVSPost2010PropOp31
 70
     1
102
RTVSPost2010Prop32
280
     0
102
RTVSPost2010PropOp32
 70
     1
102
RTVSPost2010Prop33
280
     0
102
RTVSPost2010PropOp33
 70
     1
102
RTVSPost2010Prop34
280
     0
102
RTVSPost2010PropOp34
 70
     1
102
RTVSPost2010Prop35
280
     0
102
RTVSPost2010PropOp35
 70
     1
102
RTVSPost2010Prop36
280
     0
102
RTVSPost2010PropOp36
 70
     1
102
RTVSPost2010Prop37
 90
       50
102
RTVSPost2010PropOp37
 70
     1
102
RTVSPost2010Prop38
140
0.0
102
RTVSPost2010PropOp38
 70
     1
102
RTVSPost2010Prop39
140
1.0
102
RTVSPost2010PropOp39
 70
     1
102
RTVSPost2010Prop40
 90
        0
102
RTVSPost2010PropOp40
 70
     1
102
RTVSPost2010Prop41ColorIndex
 90
       18
102
RTVSPost2010Prop41ColorRGB
 90
        0
102
RTVSPost2010PropOp41
 70
     1
102
RTVSPost2010Prop42
 90
       50
102
RTVSPost2010PropOp42
 70
     1
102
RTVSPost2010Prop43
 90
        3
102
RTVSPost2010PropOp43
 70
     1
102
RTVSPost2010Prop44ColorIndex
 90
        5
102
RTVSPost2010Prop44ColorRGB
 90
      255
102
RTVSPost2010PropOp44
 70
     1
102
RTVSPost2010Prop45
280
     0
102
RTVSPost2010PropOp45
 70
     1
102
RTVSPost2010Prop46
 90
       50
102
RTVSPost2010PropOp46
 70
     1
102
RTVSPost2010Prop47
 90
       50
102
RTVSPost2010PropOp47
 70
     1
102
RTVSPost2010Prop48
 90
       50
102
RTVSPost2010PropOp48
 70
     1
102
RTVSPost2010Prop49
280
     0
102
RTVSPost2010PropOp49
 70
     1
102
RTVSPost2010Prop50
 90
       50
102
RTVSPost2010PropOp50
 70
     1
102
RTVSPost2010Prop51ColorIndex
 90
      256
102
RTVSPost2010Prop51ColorRGB
 90
-16777216
102
RTVSPost2010PropOp51
 70
     0
102
RTVSPost2010Prop52
140
1.0
102
RTVSPost2010PropOp52
 70
     0
102
RTVSPost2010Prop53
 90
        2
102
RTVSPost2010PropOp53
 70
     1
102
RTVSPost2010Prop54
  1
strokes_ogs.tif
102
RTVSPost2010PropOp54
 70
     1
102
RTVSPost2010Prop55
280
     0
102
RTVSPost2010PropOp55
 70
     1
102
RTVSPost2010Prop56
140
1.0
102
RTVSPost2010PropOp56
 70
     1
102
RTVSPost2010Prop57
140
1.0
102
RTVSPost2010PropOp57
 70
     1
102
RTVSPropertyOp0
 70
     1
102
RTVSPropertyOp1
 70
     1
102
RTVSPropertyOp2
 70
     1
102
RTVSPropertyOp3
 70
     1
102
RTVSPropertyOp4
 70
     1
102
RTVSPropertyOp5
 70
     1
102
RTVSPropertyOp6
 70
     1
102
RTVSPropertyOp7
 70
     1
102
RTVSPropertyOp8
 70
     1
102
RTVSPropertyOp9
 70
     1
102
RTVSPropertyOp10
 70
     1
102
RTVSPropertyOp11
 70
     1
102
RTVSPropertyOp12
 70
     1
102
RTVSPropertyOp13
 70
     1
102
RTVSPropertyOp14
 70
     1
102
RTVSPropertyOp15
 70
     1
102
RTVSPropertyOp16
 70
     1
102
RTVSPropertyOp17
 70
     1
102
RTVSPropertyOp18
 70
     1
102
RTVSPropertyOp19
 70
     1
102
RTVSPropertyOp20
 70
     1
102
RTVSPropertyOp21
 70
     1
102
RTVSPropertyOp22
 70
     1
102
RTVSPropertyOp23
 70
     1
102
RTVSPropertyOp24
 70
     1
102
RTVSPropertyOp25
 70
     1
102
RTVSPropertyOp26
 70
     1
102
RTVSPropertyOp27
 70
     1
102
RTVSPropertyOp28
 70
     1
102
RTVSPropertyOp29
 70
     1
102
RTVSPropertyOp30
 70
     1
102
RTVSPropertyOp31
 70
     1
102
RTVSPropertyOp32
 70
     1
102
RTVSPropertyOp33
 70
     1
102
RTVSPropertyOp34
 70
     1
102
RTVSPropertyOp35
 70
     1
102
RTVSPropertyOp36
 70
     1
102
RTVSPropertyOp37
 70
     1
102
RTVSPropertyOp38
 70
     1
102
RTVSPropertyOp39
 70
     1
102
RTVSPropertyOp40
 70
     1
102
RTVSPropertyOp41
 70
     1
102
RTVSPropertyOp42
 70
     1
102
RTVSPropertyOp43
 70
     1
102
RTVSPropertyOp44
 70
     1
102
RTVSPropertyOp45
 70
     1
102
RTVSPropertyOp46
 70
     1
102
RTVSPropertyOp47
 70
     1
102
RTVSPropertyOp48
 70
     1
102
RTVSPropertyOp49
 70
     1
102
RTVSPropertyOp50
 70
     1
102
RTVSPropertyOp51
 70
     0
102
RTVSPropertyOp52
 70
     0
102
RTVSPropertyOp53
 70
     1
102
RTVSPropertyOp54
 70
     1
102
RTVSPropertyOp55
 70
     1
102
RTVSPropertyOp56
 70
     1
102
RTVSPropertyOp57
 70
     1
102
RTVSPropertyOp58
 70
     1
102
RTVSPropertyOp59
 70
     1
102
RTVSPropertyOp60
 70
     1
102
RTVSPropertyOp61
 70
     1
102
RTVSPropertyOp62
 70
     1
  0
XRECORD
  5
19700
102
{ACAD_REACTORS
330
196FF
102
}
330
196FF
100
AcDbXrecord
280
     1
102
RTVSPost2010Prop28
280
     0
102
RTVSPost2010PropOp28
 70
     1
102
RTVSPost2010Prop29
280
     1
102
RTVSPost2010PropOp29
 70
     1
102
RTVSPost2010Prop30
280
     1
102
RTVSPost2010PropOp30
 70
     1
102
RTVSPost2010Prop31
280
     0
102
RTVSPost2010PropOp31
 70
     1
102
RTVSPost2010Prop32
280
     0
102
RTVSPost2010PropOp32
 70
     1
102
RTVSPost2010Prop33
280
     0
102
RTVSPost2010PropOp33
 70
     1
102
RTVSPost2010Prop34
280
     0
102
RTVSPost2010PropOp34
 70
     1
102
RTVSPost2010Prop35
280
     0
102
RTVSPost2010PropOp35
 70
     1
102
RTVSPost2010Prop36
280
     0
102
RTVSPost2010PropOp36
 70
     1
102
RTVSPost2010Prop37
 90
       50
102
RTVSPost2010PropOp37
 70
     1
102
RTVSPost2010Prop38
140
0.0
102
RTVSPost2010PropOp38
 70
     1
102
RTVSPost2010Prop39
140
1.0
102
RTVSPost2010PropOp39
 70
     1
102
RTVSPost2010Prop40
 90
        0
102
RTVSPost2010PropOp40
 70
     1
102
RTVSPost2010Prop41ColorIndex
 90
       18
102
RTVSPost2010Prop41ColorRGB
 90
        0
102
RTVSPost2010PropOp41
 70
     1
102
RTVSPost2010Prop42
 90
       50
102
RTVSPost2010PropOp42
 70
     1
102
RTVSPost2010Prop43
 90
        3
102
RTVSPost2010PropOp43
 70
     1
102
RTVSPost2010Prop44ColorIndex
 90
        5
102
RTVSPost2010Prop44ColorRGB
 90
      255
102
RTVSPost2010PropOp44
 70
     1
102
RTVSPost2010Prop45
280
     0
102
RTVSPost2010PropOp45
 70
     1
102
RTVSPost2010Prop46
 90
       50
102
RTVSPost2010PropOp46
 70
     1
102
RTVSPost2010Prop47
 90
       50
102
RTVSPost2010PropOp47
 70
     1
102
RTVSPost2010Prop48
 90
       50
102
RTVSPost2010PropOp48
 70
     1
102
RTVSPost2010Prop49
280
     0
102
RTVSPost2010PropOp49
 70
     1
102
RTVSPost2010Prop50
 90
       50
102
RTVSPost2010PropOp50
 70
     1
102
RTVSPost2010Prop51ColorIndex
 90
      256
102
RTVSPost2010Prop51ColorRGB
 90
-16777216
102
RTVSPost2010PropOp51
 70
     0
102
RTVSPost2010Prop52
140
1.0
102
RTVSPost2010PropOp52
 70
     0
102
RTVSPost2010Prop53
 90
        2
102
RTVSPost2010PropOp53
 70
     1
102
RTVSPost2010Prop54
  1
strokes_ogs.tif
102
RTVSPost2010PropOp54
 70
     1
102
RTVSPost2010Prop55
280
     0
102
RTVSPost2010PropOp55
 70
     1
102
RTVSPost2010Prop56
140
1.0
102
RTVSPost2010PropOp56
 70
     1
102
RTVSPost2010Prop57
140
1.0
102
RTVSPost2010PropOp57
 70
     1
102
RTVSPropertyOp0
 70
     1
102
RTVSPropertyOp1
 70
     1
102
RTVSPropertyOp2
 70
     1
102
RTVSPropertyOp3
 70
     1
102
RTVSPropertyOp4
 70
     1
102
RTVSPropertyOp5
 70
     1
102
RTVSPropertyOp6
 70
     1
102
RTVSPropertyOp7
 70
     1
102
RTVSPropertyOp8
 70
     1
102
RTVSPropertyOp9
 70
     1
102
RTVSPropertyOp10
 70
     1
102
RTVSPropertyOp11
 70
     1
102
RTVSPropertyOp12
 70
     1
102
RTVSPropertyOp13
 70
     1
102
RTVSPropertyOp14
 70
     1
102
RTVSPropertyOp15
 70
     1
102
RTVSPropertyOp16
 70
     1
102
RTVSPropertyOp17
 70
     1
102
RTVSPropertyOp18
 70
     1
102
RTVSPropertyOp19
 70
     1
102
RTVSPropertyOp20
 70
     1
102
RTVSPropertyOp21
 70
     1
102
RTVSPropertyOp22
 70
     1
102
RTVSPropertyOp23
 70
     1
102
RTVSPropertyOp24
 70
     1
102
RTVSPropertyOp25
 70
     1
102
RTVSPropertyOp26
 70
     1
102
RTVSPropertyOp27
 70
     1
102
RTVSPropertyOp28
 70
     1
102
RTVSPropertyOp29
 70
     1
102
RTVSPropertyOp30
 70
     1
102
RTVSPropertyOp31
 70
     1
102
RTVSPropertyOp32
 70
     1
102
RTVSPropertyOp33
 70
     1
102
RTVSPropertyOp34
 70
     1
102
RTVSPropertyOp35
 70
     1
102
RTVSPropertyOp36
 70
     1
102
RTVSPropertyOp37
 70
     1
102
RTVSPropertyOp38
 70
     1
102
RTVSPropertyOp39
 70
     1
102
RTVSPropertyOp40
 70
     1
102
RTVSPropertyOp41
 70
     1
102
RTVSPropertyOp42
 70
     1
102
RTVSPropertyOp43
 70
     1
102
RTVSPropertyOp44
 70
     1
102
RTVSPropertyOp45
 70
     1
102
RTVSPropertyOp46
 70
     1
102
RTVSPropertyOp47
 70
     1
102
RTVSPropertyOp48
 70
     1
102
RTVSPropertyOp49
 70
     1
102
RTVSPropertyOp50
 70
     1
102
RTVSPropertyOp51
 70
     0
102
RTVSPropertyOp52
 70
     0
102
RTVSPropertyOp53
 70
     1
102
RTVSPropertyOp54
 70
     1
102
RTVSPropertyOp55
 70
     1
102
RTVSPropertyOp56
 70
     1
102
RTVSPropertyOp57
 70
     1
102
RTVSPropertyOp58
 70
     1
102
RTVSPropertyOp59
 70
     1
102
RTVSPropertyOp60
 70
     1
102
RTVSPropertyOp61
 70
     1
102
RTVSPropertyOp62
 70
     1
  0
XRECORD
  5
196FE
102
{ACAD_REACTORS
330
196FD
102
}
330
196FD
100
AcDbXrecord
280
     1
102
RTVSPost2010Prop28
280
     0
102
RTVSPost2010PropOp28
 70
     1
102
RTVSPost2010Prop29
280
     1
102
RTVSPost2010PropOp29
 70
     1
102
RTVSPost2010Prop30
280
     1
102
RTVSPost2010PropOp30
 70
     1
102
RTVSPost2010Prop31
280
     0
102
RTVSPost2010PropOp31
 70
     1
102
RTVSPost2010Prop32
280
     0
102
RTVSPost2010PropOp32
 70
     1
102
RTVSPost2010Prop33
280
     0
102
RTVSPost2010PropOp33
 70
     1
102
RTVSPost2010Prop34
280
     0
102
RTVSPost2010PropOp34
 70
     1
102
RTVSPost2010Prop35
280
     0
102
RTVSPost2010PropOp35
 70
     1
102
RTVSPost2010Prop36
280
     0
102
RTVSPost2010PropOp36
 70
     1
102
RTVSPost2010Prop37
 90
       50
102
RTVSPost2010PropOp37
 70
     1
102
RTVSPost2010Prop38
140
0.0
102
RTVSPost2010PropOp38
 70
     1
102
RTVSPost2010Prop39
140
1.0
102
RTVSPost2010PropOp39
 70
     1
102
RTVSPost2010Prop40
 90
        0
102
RTVSPost2010PropOp40
 70
     1
102
RTVSPost2010Prop41ColorIndex
 90
       18
102
RTVSPost2010Prop41ColorRGB
 90
        0
102
RTVSPost2010PropOp41
 70
     1
102
RTVSPost2010Prop42
 90
       50
102
RTVSPost2010PropOp42
 70
     1
102
RTVSPost2010Prop43
 90
        3
102
RTVSPost2010PropOp43
 70
     1
102
RTVSPost2010Prop44ColorIndex
 90
        5
102
RTVSPost2010Prop44ColorRGB
 90
      255
102
RTVSPost2010PropOp44
 70
     1
102
RTVSPost2010Prop45
280
     0
102
RTVSPost2010PropOp45
 70
     1
102
RTVSPost2010Prop46
 90
       50
102
RTVSPost2010PropOp46
 70
     1
102
RTVSPost2010Prop47
 90
       50
102
RTVSPost2010PropOp47
 70
     1
102
RTVSPost2010Prop48
 90
       50
102
RTVSPost2010PropOp48
 70
     1
102
RTVSPost2010Prop49
280
     0
102
RTVSPost2010PropOp49
 70
     1
102
RTVSPost2010Prop50
 90
       50
102
RTVSPost2010PropOp50
 70
     1
102
RTVSPost2010Prop51ColorIndex
 90
      256
102
RTVSPost2010Prop51ColorRGB
 90
-16777216
102
RTVSPost2010PropOp51
 70
     0
102
RTVSPost2010Prop52
140
1.0
102
RTVSPost2010PropOp52
 70
     0
102
RTVSPost2010Prop53
 90
        2
102
RTVSPost2010PropOp53
 70
     1
102
RTVSPost2010Prop54
  1
strokes_ogs.tif
102
RTVSPost2010PropOp54
 70
     1
102
RTVSPost2010Prop55
280
     0
102
RTVSPost2010PropOp55
 70
     1
102
RTVSPost2010Prop56
140
1.0
102
RTVSPost2010PropOp56
 70
     1
102
RTVSPost2010Prop57
140
1.0
102
RTVSPost2010PropOp57
 70
     1
102
RTVSPropertyOp0
 70
     1
102
RTVSPropertyOp1
 70
     1
102
RTVSPropertyOp2
 70
     1
102
RTVSPropertyOp3
 70
     1
102
RTVSPropertyOp4
 70
     1
102
RTVSPropertyOp5
 70
     1
102
RTVSPropertyOp6
 70
     1
102
RTVSPropertyOp7
 70
     1
102
RTVSPropertyOp8
 70
     1
102
RTVSPropertyOp9
 70
     1
102
RTVSPropertyOp10
 70
     1
102
RTVSPropertyOp11
 70
     1
102
RTVSPropertyOp12
 70
     1
102
RTVSPropertyOp13
 70
     1
102
RTVSPropertyOp14
 70
     1
102
RTVSPropertyOp15
 70
     1
102
RTVSPropertyOp16
 70
     1
102
RTVSPropertyOp17
 70
     1
102
RTVSPropertyOp18
 70
     1
102
RTVSPropertyOp19
 70
     1
102
RTVSPropertyOp20
 70
     1
102
RTVSPropertyOp21
 70
     1
102
RTVSPropertyOp22
 70
     1
102
RTVSPropertyOp23
 70
     1
102
RTVSPropertyOp24
 70
     1
102
RTVSPropertyOp25
 70
     1
102
RTVSPropertyOp26
 70
     1
102
RTVSPropertyOp27
 70
     1
102
RTVSPropertyOp28
 70
     1
102
RTVSPropertyOp29
 70
     1
102
RTVSPropertyOp30
 70
     1
102
RTVSPropertyOp31
 70
     1
102
RTVSPropertyOp32
 70
     1
102
RTVSPropertyOp33
 70
     1
102
RTVSPropertyOp34
 70
     1
102
RTVSPropertyOp35
 70
     1
102
RTVSPropertyOp36
 70
     1
102
RTVSPropertyOp37
 70
     1
102
RTVSPropertyOp38
 70
     1
102
RTVSPropertyOp39
 70
     1
102
RTVSPropertyOp40
 70
     1
102
RTVSPropertyOp41
 70
     1
102
RTVSPropertyOp42
 70
     1
102
RTVSPropertyOp43
 70
     1
102
RTVSPropertyOp44
 70
     1
102
RTVSPropertyOp45
 70
     1
102
RTVSPropertyOp46
 70
     1
102
RTVSPropertyOp47
 70
     1
102
RTVSPropertyOp48
 70
     1
102
RTVSPropertyOp49
 70
     1
102
RTVSPropertyOp50
 70
     1
102
RTVSPropertyOp51
 70
     0
102
RTVSPropertyOp52
 70
     0
102
RTVSPropertyOp53
 70
     1
102
RTVSPropertyOp54
 70
     1
102
RTVSPropertyOp55
 70
     1
102
RTVSPropertyOp56
 70
     1
102
RTVSPropertyOp57
 70
     1
102
RTVSPropertyOp58
 70
     1
102
RTVSPropertyOp59
 70
     1
102
RTVSPropertyOp60
 70
     1
102
RTVSPropertyOp61
 70
     1
102
RTVSPropertyOp62
 70
     1
  0
XRECORD
  5
196F8
102
{ACAD_REACTORS
330
196F7
102
}
330
196F7
100
AcDbXrecord
280
     1
102
RTVSPost2010Prop28
280
     0
102
RTVSPost2010PropOp28
 70
     1
102
RTVSPost2010Prop29
280
     1
102
RTVSPost2010PropOp29
 70
     1
102
RTVSPost2010Prop30
280
     1
102
RTVSPost2010PropOp30
 70
     1
102
RTVSPost2010Prop31
280
     0
102
RTVSPost2010PropOp31
 70
     1
102
RTVSPost2010Prop32
280
     0
102
RTVSPost2010PropOp32
 70
     1
102
RTVSPost2010Prop33
280
     0
102
RTVSPost2010PropOp33
 70
     1
102
RTVSPost2010Prop34
280
     0
102
RTVSPost2010PropOp34
 70
     1
102
RTVSPost2010Prop35
280
     0
102
RTVSPost2010PropOp35
 70
     1
102
RTVSPost2010Prop36
280
     0
102
RTVSPost2010PropOp36
 70
     1
102
RTVSPost2010Prop37
 90
       50
102
RTVSPost2010PropOp37
 70
     1
102
RTVSPost2010Prop38
140
0.0
102
RTVSPost2010PropOp38
 70
     1
102
RTVSPost2010Prop39
140
1.0
102
RTVSPost2010PropOp39
 70
     1
102
RTVSPost2010Prop40
 90
        0
102
RTVSPost2010PropOp40
 70
     1
102
RTVSPost2010Prop41ColorIndex
 90
       18
102
RTVSPost2010Prop41ColorRGB
 90
        0
102
RTVSPost2010PropOp41
 70
     1
102
RTVSPost2010Prop42
 90
       50
102
RTVSPost2010PropOp42
 70
     1
102
RTVSPost2010Prop43
 90
        3
102
RTVSPost2010PropOp43
 70
     1
102
RTVSPost2010Prop44ColorIndex
 90
        5
102
RTVSPost2010Prop44ColorRGB
 90
      255
102
RTVSPost2010PropOp44
 70
     1
102
RTVSPost2010Prop45
280
     0
102
RTVSPost2010PropOp45
 70
     1
102
RTVSPost2010Prop46
 90
       50
102
RTVSPost2010PropOp46
 70
     1
102
RTVSPost2010Prop47
 90
       50
102
RTVSPost2010PropOp47
 70
     1
102
RTVSPost2010Prop48
 90
       50
102
RTVSPost2010PropOp48
 70
     1
102
RTVSPost2010Prop49
280
     0
102
RTVSPost2010PropOp49
 70
     1
102
RTVSPost2010Prop50
 90
       50
102
RTVSPost2010PropOp50
 70
     1
102
RTVSPost2010Prop51ColorIndex
 90
      256
102
RTVSPost2010Prop51ColorRGB
 90
-16777216
102
RTVSPost2010PropOp51
 70
     0
102
RTVSPost2010Prop52
140
1.0
102
RTVSPost2010PropOp52
 70
     0
102
RTVSPost2010Prop53
 90
        2
102
RTVSPost2010PropOp53
 70
     1
102
RTVSPost2010Prop54
  1
strokes_ogs.tif
102
RTVSPost2010PropOp54
 70
     1
102
RTVSPost2010Prop55
280
     0
102
RTVSPost2010PropOp55
 70
     1
102
RTVSPost2010Prop56
140
1.0
102
RTVSPost2010PropOp56
 70
     1
102
RTVSPost2010Prop57
140
1.0
102
RTVSPost2010PropOp57
 70
     1
102
RTVSPropertyOp0
 70
     1
102
RTVSPropertyOp1
 70
     1
102
RTVSPropertyOp2
 70
     1
102
RTVSPropertyOp3
 70
     1
102
RTVSPropertyOp4
 70
     1
102
RTVSPropertyOp5
 70
     1
102
RTVSPropertyOp6
 70
     1
102
RTVSPropertyOp7
 70
     1
102
RTVSPropertyOp8
 70
     1
102
RTVSPropertyOp9
 70
     1
102
RTVSPropertyOp10
 70
     1
102
RTVSPropertyOp11
 70
     1
102
RTVSPropertyOp12
 70
     1
102
RTVSPropertyOp13
 70
     1
102
RTVSPropertyOp14
 70
     1
102
RTVSPropertyOp15
 70
     1
102
RTVSPropertyOp16
 70
     1
102
RTVSPropertyOp17
 70
     1
102
RTVSPropertyOp18
 70
     1
102
RTVSPropertyOp19
 70
     1
102
RTVSPropertyOp20
 70
     1
102
RTVSPropertyOp21
 70
     1
102
RTVSPropertyOp22
 70
     1
102
RTVSPropertyOp23
 70
     1
102
RTVSPropertyOp24
 70
     1
102
RTVSPropertyOp25
 70
     1
102
RTVSPropertyOp26
 70
     1
102
RTVSPropertyOp27
 70
     1
102
RTVSPropertyOp28
 70
     1
102
RTVSPropertyOp29
 70
     1
102
RTVSPropertyOp30
 70
     1
102
RTVSPropertyOp31
 70
     1
102
RTVSPropertyOp32
 70
     1
102
RTVSPropertyOp33
 70
     1
102
RTVSPropertyOp34
 70
     1
102
RTVSPropertyOp35
 70
     1
102
RTVSPropertyOp36
 70
     1
102
RTVSPropertyOp37
 70
     1
102
RTVSPropertyOp38
 70
     1
102
RTVSPropertyOp39
 70
     1
102
RTVSPropertyOp40
 70
     1
102
RTVSPropertyOp41
 70
     1
102
RTVSPropertyOp42
 70
     1
102
RTVSPropertyOp43
 70
     1
102
RTVSPropertyOp44
 70
     1
102
RTVSPropertyOp45
 70
     1
102
RTVSPropertyOp46
 70
     1
102
RTVSPropertyOp47
 70
     1
102
RTVSPropertyOp48
 70
     1
102
RTVSPropertyOp49
 70
     1
102
RTVSPropertyOp50
 70
     1
102
RTVSPropertyOp51
 70
     0
102
RTVSPropertyOp52
 70
     0
102
RTVSPropertyOp53
 70
     1
102
RTVSPropertyOp54
 70
     1
102
RTVSPropertyOp55
 70
     1
102
RTVSPropertyOp56
 70
     1
102
RTVSPropertyOp57
 70
     1
102
RTVSPropertyOp58
 70
     1
102
RTVSPropertyOp59
 70
     1
102
RTVSPropertyOp60
 70
     1
102
RTVSPropertyOp61
 70
     1
102
RTVSPropertyOp62
 70
     1
  0
XRECORD
  5
196FA
102
{ACAD_REACTORS
330
196F9
102
}
330
196F9
100
AcDbXrecord
280
     1
102
RTVSPost2010Prop28
280
     0
102
RTVSPost2010PropOp28
 70
     1
102
RTVSPost2010Prop29
280
     1
102
RTVSPost2010PropOp29
 70
     1
102
RTVSPost2010Prop30
280
     1
102
RTVSPost2010PropOp30
 70
     1
102
RTVSPost2010Prop31
280
     0
102
RTVSPost2010PropOp31
 70
     1
102
RTVSPost2010Prop32
280
     0
102
RTVSPost2010PropOp32
 70
     1
102
RTVSPost2010Prop33
280
     0
102
RTVSPost2010PropOp33
 70
     1
102
RTVSPost2010Prop34
280
     0
102
RTVSPost2010PropOp34
 70
     1
102
RTVSPost2010Prop35
280
     0
102
RTVSPost2010PropOp35
 70
     1
102
RTVSPost2010Prop36
280
     0
102
RTVSPost2010PropOp36
 70
     1
102
RTVSPost2010Prop37
 90
       50
102
RTVSPost2010PropOp37
 70
     1
102
RTVSPost2010Prop38
140
0.0
102
RTVSPost2010PropOp38
 70
     1
102
RTVSPost2010Prop39
140
1.0
102
RTVSPost2010PropOp39
 70
     1
102
RTVSPost2010Prop40
 90
        0
102
RTVSPost2010PropOp40
 70
     1
102
RTVSPost2010Prop41ColorIndex
 90
       18
102
RTVSPost2010Prop41ColorRGB
 90
        0
102
RTVSPost2010PropOp41
 70
     1
102
RTVSPost2010Prop42
 90
       50
102
RTVSPost2010PropOp42
 70
     1
102
RTVSPost2010Prop43
 90
        3
102
RTVSPost2010PropOp43
 70
     1
102
RTVSPost2010Prop44ColorIndex
 90
        5
102
RTVSPost2010Prop44ColorRGB
 90
      255
102
RTVSPost2010PropOp44
 70
     1
102
RTVSPost2010Prop45
280
     0
102
RTVSPost2010PropOp45
 70
     1
102
RTVSPost2010Prop46
 90
       50
102
RTVSPost2010PropOp46
 70
     1
102
RTVSPost2010Prop47
 90
       50
102
RTVSPost2010PropOp47
 70
     1
102
RTVSPost2010Prop48
 90
       50
102
RTVSPost2010PropOp48
 70
     1
102
RTVSPost2010Prop49
280
     0
102
RTVSPost2010PropOp49
 70
     1
102
RTVSPost2010Prop50
 90
       50
102
RTVSPost2010PropOp50
 70
     1
102
RTVSPost2010Prop51ColorIndex
 90
      256
102
RTVSPost2010Prop51ColorRGB
 90
-16777216
102
RTVSPost2010PropOp51
 70
     0
102
RTVSPost2010Prop52
140
1.0
102
RTVSPost2010PropOp52
 70
     0
102
RTVSPost2010Prop53
 90
        2
102
RTVSPost2010PropOp53
 70
     1
102
RTVSPost2010Prop54
  1
strokes_ogs.tif
102
RTVSPost2010PropOp54
 70
     1
102
RTVSPost2010Prop55
280
     0
102
RTVSPost2010PropOp55
 70
     1
102
RTVSPost2010Prop56
140
1.0
102
RTVSPost2010PropOp56
 70
     1
102
RTVSPost2010Prop57
140
1.0
102
RTVSPost2010PropOp57
 70
     1
102
RTVSPropertyOp0
 70
     1
102
RTVSPropertyOp1
 70
     1
102
RTVSPropertyOp2
 70
     1
102
RTVSPropertyOp3
 70
     1
102
RTVSPropertyOp4
 70
     1
102
RTVSPropertyOp5
 70
     1
102
RTVSPropertyOp6
 70
     1
102
RTVSPropertyOp7
 70
     1
102
RTVSPropertyOp8
 70
     1
102
RTVSPropertyOp9
 70
     1
102
RTVSPropertyOp10
 70
     1
102
RTVSPropertyOp11
 70
     1
102
RTVSPropertyOp12
 70
     1
102
RTVSPropertyOp13
 70
     1
102
RTVSPropertyOp14
 70
     1
102
RTVSPropertyOp15
 70
     1
102
RTVSPropertyOp16
 70
     1
102
RTVSPropertyOp17
 70
     1
102
RTVSPropertyOp18
 70
     1
102
RTVSPropertyOp19
 70
     1
102
RTVSPropertyOp20
 70
     1
102
RTVSPropertyOp21
 70
     1
102
RTVSPropertyOp22
 70
     1
102
RTVSPropertyOp23
 70
     1
102
RTVSPropertyOp24
 70
     1
102
RTVSPropertyOp25
 70
     1
102
RTVSPropertyOp26
 70
     1
102
RTVSPropertyOp27
 70
     1
102
RTVSPropertyOp28
 70
     1
102
RTVSPropertyOp29
 70
     1
102
RTVSPropertyOp30
 70
     1
102
RTVSPropertyOp31
 70
     1
102
RTVSPropertyOp32
 70
     1
102
RTVSPropertyOp33
 70
     1
102
RTVSPropertyOp34
 70
     1
102
RTVSPropertyOp35
 70
     1
102
RTVSPropertyOp36
 70
     1
102
RTVSPropertyOp37
 70
     1
102
RTVSPropertyOp38
 70
     1
102
RTVSPropertyOp39
 70
     1
102
RTVSPropertyOp40
 70
     1
102
RTVSPropertyOp41
 70
     1
102
RTVSPropertyOp42
 70
     1
102
RTVSPropertyOp43
 70
     1
102
RTVSPropertyOp44
 70
     1
102
RTVSPropertyOp45
 70
     1
102
RTVSPropertyOp46
 70
     1
102
RTVSPropertyOp47
 70
     1
102
RTVSPropertyOp48
 70
     1
102
RTVSPropertyOp49
 70
     1
102
RTVSPropertyOp50
 70
     1
102
RTVSPropertyOp51
 70
     0
102
RTVSPropertyOp52
 70
     0
102
RTVSPropertyOp53
 70
     1
102
RTVSPropertyOp54
 70
     1
102
RTVSPropertyOp55
 70
     1
102
RTVSPropertyOp56
 70
     1
102
RTVSPropertyOp57
 70
     1
102
RTVSPropertyOp58
 70
     1
102
RTVSPropertyOp59
 70
     1
102
RTVSPropertyOp60
 70
     1
102
RTVSPropertyOp61
 70
     1
102
RTVSPropertyOp62
 70
     1
  0
XRECORD
  5
196F0
102
{ACAD_REACTORS
330
196EF
102
}
330
196EF
100
AcDbXrecord
280
     1
102
RTVSPost2010Prop28
280
     0
102
RTVSPost2010PropOp28
 70
     1
102
RTVSPost2010Prop29
280
     1
102
RTVSPost2010PropOp29
 70
     1
102
RTVSPost2010Prop30
280
     1
102
RTVSPost2010PropOp30
 70
     1
102
RTVSPost2010Prop31
280
     0
102
RTVSPost2010PropOp31
 70
     1
102
RTVSPost2010Prop32
280
     0
102
RTVSPost2010PropOp32
 70
     1
102
RTVSPost2010Prop33
280
     0
102
RTVSPost2010PropOp33
 70
     1
102
RTVSPost2010Prop34
280
     0
102
RTVSPost2010PropOp34
 70
     1
102
RTVSPost2010Prop35
280
     0
102
RTVSPost2010PropOp35
 70
     1
102
RTVSPost2010Prop36
280
     0
102
RTVSPost2010PropOp36
 70
     1
102
RTVSPost2010Prop37
 90
       50
102
RTVSPost2010PropOp37
 70
     1
102
RTVSPost2010Prop38
140
0.0
102
RTVSPost2010PropOp38
 70
     1
102
RTVSPost2010Prop39
140
1.0
102
RTVSPost2010PropOp39
 70
     1
102
RTVSPost2010Prop40
 90
        0
102
RTVSPost2010PropOp40
 70
     1
102
RTVSPost2010Prop41ColorIndex
 90
       18
102
RTVSPost2010Prop41ColorRGB
 90
        0
102
RTVSPost2010PropOp41
 70
     1
102
RTVSPost2010Prop42
 90
       50
102
RTVSPost2010PropOp42
 70
     1
102
RTVSPost2010Prop43
 90
        3
102
RTVSPost2010PropOp43
 70
     1
102
RTVSPost2010Prop44ColorIndex
 90
        5
102
RTVSPost2010Prop44ColorRGB
 90
      255
102
RTVSPost2010PropOp44
 70
     1
102
RTVSPost2010Prop45
280
     0
102
RTVSPost2010PropOp45
 70
     1
102
RTVSPost2010Prop46
 90
       50
102
RTVSPost2010PropOp46
 70
     1
102
RTVSPost2010Prop47
 90
       50
102
RTVSPost2010PropOp47
 70
     1
102
RTVSPost2010Prop48
 90
       50
102
RTVSPost2010PropOp48
 70
     1
102
RTVSPost2010Prop49
280
     0
102
RTVSPost2010PropOp49
 70
     1
102
RTVSPost2010Prop50
 90
       50
102
RTVSPost2010PropOp50
 70
     1
102
RTVSPost2010Prop51ColorIndex
 90
      256
102
RTVSPost2010Prop51ColorRGB
 90
-16777216
102
RTVSPost2010PropOp51
 70
     0
102
RTVSPost2010Prop52
140
1.0
102
RTVSPost2010PropOp52
 70
     0
102
RTVSPost2010Prop53
 90
        2
102
RTVSPost2010PropOp53
 70
     1
102
RTVSPost2010Prop54
  1
strokes_ogs.tif
102
RTVSPost2010PropOp54
 70
     1
102
RTVSPost2010Prop55
280
     0
102
RTVSPost2010PropOp55
 70
     1
102
RTVSPost2010Prop56
140
1.0
102
RTVSPost2010PropOp56
 70
     1
102
RTVSPost2010Prop57
140
1.0
102
RTVSPost2010PropOp57
 70
     1
102
RTVSPropertyOp0
 70
     1
102
RTVSPropertyOp1
 70
     1
102
RTVSPropertyOp2
 70
     1
102
RTVSPropertyOp3
 70
     1
102
RTVSPropertyOp4
 70
     1
102
RTVSPropertyOp5
 70
     1
102
RTVSPropertyOp6
 70
     1
102
RTVSPropertyOp7
 70
     1
102
RTVSPropertyOp8
 70
     1
102
RTVSPropertyOp9
 70
     1
102
RTVSPropertyOp10
 70
     1
102
RTVSPropertyOp11
 70
     1
102
RTVSPropertyOp12
 70
     1
102
RTVSPropertyOp13
 70
     1
102
RTVSPropertyOp14
 70
     1
102
RTVSPropertyOp15
 70
     1
102
RTVSPropertyOp16
 70
     1
102
RTVSPropertyOp17
 70
     1
102
RTVSPropertyOp18
 70
     1
102
RTVSPropertyOp19
 70
     1
102
RTVSPropertyOp20
 70
     1
102
RTVSPropertyOp21
 70
     1
102
RTVSPropertyOp22
 70
     1
102
RTVSPropertyOp23
 70
     1
102
RTVSPropertyOp24
 70
     1
102
RTVSPropertyOp25
 70
     1
102
RTVSPropertyOp26
 70
     1
102
RTVSPropertyOp27
 70
     1
102
RTVSPropertyOp28
 70
     1
102
RTVSPropertyOp29
 70
     1
102
RTVSPropertyOp30
 70
     1
102
RTVSPropertyOp31
 70
     1
102
RTVSPropertyOp32
 70
     1
102
RTVSPropertyOp33
 70
     1
102
RTVSPropertyOp34
 70
     1
102
RTVSPropertyOp35
 70
     1
102
RTVSPropertyOp36
 70
     1
102
RTVSPropertyOp37
 70
     1
102
RTVSPropertyOp38
 70
     1
102
RTVSPropertyOp39
 70
     1
102
RTVSPropertyOp40
 70
     1
102
RTVSPropertyOp41
 70
     1
102
RTVSPropertyOp42
 70
     1
102
RTVSPropertyOp43
 70
     1
102
RTVSPropertyOp44
 70
     1
102
RTVSPropertyOp45
 70
     1
102
RTVSPropertyOp46
 70
     1
102
RTVSPropertyOp47
 70
     1
102
RTVSPropertyOp48
 70
     1
102
RTVSPropertyOp49
 70
     1
102
RTVSPropertyOp50
 70
     1
102
RTVSPropertyOp51
 70
     0
102
RTVSPropertyOp52
 70
     0
102
RTVSPropertyOp53
 70
     1
102
RTVSPropertyOp54
 70
     1
102
RTVSPropertyOp55
 70
     1
102
RTVSPropertyOp56
 70
     1
102
RTVSPropertyOp57
 70
     1
102
RTVSPropertyOp58
 70
     1
102
RTVSPropertyOp59
 70
     1
102
RTVSPropertyOp60
 70
     1
102
RTVSPropertyOp61
 70
     1
102
RTVSPropertyOp62
 70
     1
  0
XRECORD
  5
196E4
102
{ACAD_REACTORS
330
196E3
102
}
330
196E3
100
AcDbXrecord
280
     1
102
RTVSPost2010Prop28
280
     0
102
RTVSPost2010PropOp28
 70
     1
102
RTVSPost2010Prop29
280
     1
102
RTVSPost2010PropOp29
 70
     1
102
RTVSPost2010Prop30
280
     1
102
RTVSPost2010PropOp30
 70
     1
102
RTVSPost2010Prop31
280
     0
102
RTVSPost2010PropOp31
 70
     1
102
RTVSPost2010Prop32
280
     0
102
RTVSPost2010PropOp32
 70
     1
102
RTVSPost2010Prop33
280
     0
102
RTVSPost2010PropOp33
 70
     1
102
RTVSPost2010Prop34
280
     0
102
RTVSPost2010PropOp34
 70
     1
102
RTVSPost2010Prop35
280
     0
102
RTVSPost2010PropOp35
 70
     1
102
RTVSPost2010Prop36
280
     0
102
RTVSPost2010PropOp36
 70
     1
102
RTVSPost2010Prop37
 90
       50
102
RTVSPost2010PropOp37
 70
     1
102
RTVSPost2010Prop38
140
0.0
102
RTVSPost2010PropOp38
 70
     1
102
RTVSPost2010Prop39
140
1.0
102
RTVSPost2010PropOp39
 70
     1
102
RTVSPost2010Prop40
 90
        0
102
RTVSPost2010PropOp40
 70
     1
102
RTVSPost2010Prop41ColorIndex
 90
       18
102
RTVSPost2010Prop41ColorRGB
 90
        0
102
RTVSPost2010PropOp41
 70
     1
102
RTVSPost2010Prop42
 90
       50
102
RTVSPost2010PropOp42
 70
     1
102
RTVSPost2010Prop43
 90
        3
102
RTVSPost2010PropOp43
 70
     1
102
RTVSPost2010Prop44ColorIndex
 90
        5
102
RTVSPost2010Prop44ColorRGB
 90
      255
102
RTVSPost2010PropOp44
 70
     1
102
RTVSPost2010Prop45
280
     0
102
RTVSPost2010PropOp45
 70
     1
102
RTVSPost2010Prop46
 90
       50
102
RTVSPost2010PropOp46
 70
     1
102
RTVSPost2010Prop47
 90
       50
102
RTVSPost2010PropOp47
 70
     1
102
RTVSPost2010Prop48
 90
       50
102
RTVSPost2010PropOp48
 70
     1
102
RTVSPost2010Prop49
280
     0
102
RTVSPost2010PropOp49
 70
     1
102
RTVSPost2010Prop50
 90
       50
102
RTVSPost2010PropOp50
 70
     1
102
RTVSPost2010Prop51ColorIndex
 90
      256
102
RTVSPost2010Prop51ColorRGB
 90
-16777216
102
RTVSPost2010PropOp51
 70
     0
102
RTVSPost2010Prop52
140
1.0
102
RTVSPost2010PropOp52
 70
     0
102
RTVSPost2010Prop53
 90
        2
102
RTVSPost2010PropOp53
 70
     1
102
RTVSPost2010Prop54
  1
strokes_ogs.tif
102
RTVSPost2010PropOp54
 70
     1
102
RTVSPost2010Prop55
280
     0
102
RTVSPost2010PropOp55
 70
     1
102
RTVSPost2010Prop56
140
1.0
102
RTVSPost2010PropOp56
 70
     1
102
RTVSPost2010Prop57
140
1.0
102
RTVSPost2010PropOp57
 70
     1
102
RTVSPropertyOp0
 70
     1
102
RTVSPropertyOp1
 70
     1
102
RTVSPropertyOp2
 70
     1
102
RTVSPropertyOp3
 70
     1
102
RTVSPropertyOp4
 70
     1
102
RTVSPropertyOp5
 70
     1
102
RTVSPropertyOp6
 70
     1
102
RTVSPropertyOp7
 70
     1
102
RTVSPropertyOp8
 70
     1
102
RTVSPropertyOp9
 70
     1
102
RTVSPropertyOp10
 70
     1
102
RTVSPropertyOp11
 70
     1
102
RTVSPropertyOp12
 70
     1
102
RTVSPropertyOp13
 70
     1
102
RTVSPropertyOp14
 70
     1
102
RTVSPropertyOp15
 70
     1
102
RTVSPropertyOp16
 70
     1
102
RTVSPropertyOp17
 70
     1
102
RTVSPropertyOp18
 70
     1
102
RTVSPropertyOp19
 70
     1
102
RTVSPropertyOp20
 70
     1
102
RTVSPropertyOp21
 70
     1
102
RTVSPropertyOp22
 70
     1
102
RTVSPropertyOp23
 70
     1
102
RTVSPropertyOp24
 70
     1
102
RTVSPropertyOp25
 70
     1
102
RTVSPropertyOp26
 70
     1
102
RTVSPropertyOp27
 70
     1
102
RTVSPropertyOp28
 70
     1
102
RTVSPropertyOp29
 70
     1
102
RTVSPropertyOp30
 70
     1
102
RTVSPropertyOp31
 70
     1
102
RTVSPropertyOp32
 70
     1
102
RTVSPropertyOp33
 70
     1
102
RTVSPropertyOp34
 70
     1
102
RTVSPropertyOp35
 70
     1
102
RTVSPropertyOp36
 70
     1
102
RTVSPropertyOp37
 70
     1
102
RTVSPropertyOp38
 70
     1
102
RTVSPropertyOp39
 70
     1
102
RTVSPropertyOp40
 70
     1
102
RTVSPropertyOp41
 70
     1
102
RTVSPropertyOp42
 70
     1
102
RTVSPropertyOp43
 70
     1
102
RTVSPropertyOp44
 70
     1
102
RTVSPropertyOp45
 70
     1
102
RTVSPropertyOp46
 70
     1
102
RTVSPropertyOp47
 70
     1
102
RTVSPropertyOp48
 70
     1
102
RTVSPropertyOp49
 70
     1
102
RTVSPropertyOp50
 70
     1
102
RTVSPropertyOp51
 70
     0
102
RTVSPropertyOp52
 70
     0
102
RTVSPropertyOp53
 70
     1
102
RTVSPropertyOp54
 70
     1
102
RTVSPropertyOp55
 70
     1
102
RTVSPropertyOp56
 70
     1
102
RTVSPropertyOp57
 70
     1
102
RTVSPropertyOp58
 70
     1
102
RTVSPropertyOp59
 70
     1
102
RTVSPropertyOp60
 70
     1
102
RTVSPropertyOp61
 70
     1
102
RTVSPropertyOp62
 70
     1
  0
XRECORD
  5
196FC
102
{ACAD_REACTORS
330
196FB
102
}
330
196FB
100
AcDbXrecord
280
     1
102
RTVSPost2010Prop28
280
     0
102
RTVSPost2010PropOp28
 70
     1
102
RTVSPost2010Prop29
280
     1
102
RTVSPost2010PropOp29
 70
     1
102
RTVSPost2010Prop30
280
     1
102
RTVSPost2010PropOp30
 70
     1
102
RTVSPost2010Prop31
280
     0
102
RTVSPost2010PropOp31
 70
     1
102
RTVSPost2010Prop32
280
     0
102
RTVSPost2010PropOp32
 70
     1
102
RTVSPost2010Prop33
280
     0
102
RTVSPost2010PropOp33
 70
     1
102
RTVSPost2010Prop34
280
     0
102
RTVSPost2010PropOp34
 70
     1
102
RTVSPost2010Prop35
280
     0
102
RTVSPost2010PropOp35
 70
     1
102
RTVSPost2010Prop36
280
     0
102
RTVSPost2010PropOp36
 70
     1
102
RTVSPost2010Prop37
 90
       50
102
RTVSPost2010PropOp37
 70
     1
102
RTVSPost2010Prop38
140
0.0
102
RTVSPost2010PropOp38
 70
     1
102
RTVSPost2010Prop39
140
1.0
102
RTVSPost2010PropOp39
 70
     1
102
RTVSPost2010Prop40
 90
        0
102
RTVSPost2010PropOp40
 70
     1
102
RTVSPost2010Prop41ColorIndex
 90
       18
102
RTVSPost2010Prop41ColorRGB
 90
        0
102
RTVSPost2010PropOp41
 70
     1
102
RTVSPost2010Prop42
 90
       50
102
RTVSPost2010PropOp42
 70
     1
102
RTVSPost2010Prop43
 90
        3
102
RTVSPost2010PropOp43
 70
     1
102
RTVSPost2010Prop44ColorIndex
 90
        5
102
RTVSPost2010Prop44ColorRGB
 90
      255
102
RTVSPost2010PropOp44
 70
     1
102
RTVSPost2010Prop45
280
     0
102
RTVSPost2010PropOp45
 70
     1
102
RTVSPost2010Prop46
 90
       50
102
RTVSPost2010PropOp46
 70
     1
102
RTVSPost2010Prop47
 90
       50
102
RTVSPost2010PropOp47
 70
     1
102
RTVSPost2010Prop48
 90
       50
102
RTVSPost2010PropOp48
 70
     1
102
RTVSPost2010Prop49
280
     0
102
RTVSPost2010PropOp49
 70
     1
102
RTVSPost2010Prop50
 90
       50
102
RTVSPost2010PropOp50
 70
     1
102
RTVSPost2010Prop51ColorIndex
 90
      256
102
RTVSPost2010Prop51ColorRGB
 90
-16777216
102
RTVSPost2010PropOp51
 70
     0
102
RTVSPost2010Prop52
140
1.0
102
RTVSPost2010PropOp52
 70
     0
102
RTVSPost2010Prop53
 90
        2
102
RTVSPost2010PropOp53
 70
     1
102
RTVSPost2010Prop54
  1
strokes_ogs.tif
102
RTVSPost2010PropOp54
 70
     1
102
RTVSPost2010Prop55
280
     0
102
RTVSPost2010PropOp55
 70
     1
102
RTVSPost2010Prop56
140
1.0
102
RTVSPost2010PropOp56
 70
     1
102
RTVSPost2010Prop57
140
1.0
102
RTVSPost2010PropOp57
 70
     1
102
RTVSPropertyOp0
 70
     1
102
RTVSPropertyOp1
 70
     1
102
RTVSPropertyOp2
 70
     1
102
RTVSPropertyOp3
 70
     1
102
RTVSPropertyOp4
 70
     1
102
RTVSPropertyOp5
 70
     1
102
RTVSPropertyOp6
 70
     1
102
RTVSPropertyOp7
 70
     1
102
RTVSPropertyOp8
 70
     1
102
RTVSPropertyOp9
 70
     1
102
RTVSPropertyOp10
 70
     1
102
RTVSPropertyOp11
 70
     1
102
RTVSPropertyOp12
 70
     1
102
RTVSPropertyOp13
 70
     1
102
RTVSPropertyOp14
 70
     1
102
RTVSPropertyOp15
 70
     1
102
RTVSPropertyOp16
 70
     1
102
RTVSPropertyOp17
 70
     1
102
RTVSPropertyOp18
 70
     1
102
RTVSPropertyOp19
 70
     1
102
RTVSPropertyOp20
 70
     1
102
RTVSPropertyOp21
 70
     1
102
RTVSPropertyOp22
 70
     1
102
RTVSPropertyOp23
 70
     1
102
RTVSPropertyOp24
 70
     1
102
RTVSPropertyOp25
 70
     1
102
RTVSPropertyOp26
 70
     1
102
RTVSPropertyOp27
 70
     1
102
RTVSPropertyOp28
 70
     1
102
RTVSPropertyOp29
 70
     1
102
RTVSPropertyOp30
 70
     1
102
RTVSPropertyOp31
 70
     1
102
RTVSPropertyOp32
 70
     1
102
RTVSPropertyOp33
 70
     1
102
RTVSPropertyOp34
 70
     1
102
RTVSPropertyOp35
 70
     1
102
RTVSPropertyOp36
 70
     1
102
RTVSPropertyOp37
 70
     1
102
RTVSPropertyOp38
 70
     1
102
RTVSPropertyOp39
 70
     1
102
RTVSPropertyOp40
 70
     1
102
RTVSPropertyOp41
 70
     1
102
RTVSPropertyOp42
 70
     1
102
RTVSPropertyOp43
 70
     1
102
RTVSPropertyOp44
 70
     1
102
RTVSPropertyOp45
 70
     1
102
RTVSPropertyOp46
 70
     1
102
RTVSPropertyOp47
 70
     1
102
RTVSPropertyOp48
 70
     1
102
RTVSPropertyOp49
 70
     1
102
RTVSPropertyOp50
 70
     1
102
RTVSPropertyOp51
 70
     0
102
RTVSPropertyOp52
 70
     0
102
RTVSPropertyOp53
 70
     1
102
RTVSPropertyOp54
 70
     1
102
RTVSPropertyOp55
 70
     1
102
RTVSPropertyOp56
 70
     1
102
RTVSPropertyOp57
 70
     1
102
RTVSPropertyOp58
 70
     1
102
RTVSPropertyOp59
 70
     1
102
RTVSPropertyOp60
 70
     1
102
RTVSPropertyOp61
 70
     1
102
RTVSPropertyOp62
 70
     1
  0
ENDSEC
  0
EOF
