  0
SECTION
  2
HEADER
  9
$ACADVER
  1
AC1015
  9
$DWGCODEPAGE
  3
ANSI_932
  9
$LTSCALE
 40
20.0
  9
$FILLMODE
 70
     1
  9
$CLAYER
  8
0
  9
$PDMODE
 70
     0
  9
$SPLFRAME
 70
     0
  9
$SPLINETYPE
 70
     6
  9
$SPLINESEGS
 70
     8
  9
$DIMASZ
 40
2.000000
  9
$DIMEXE
 40
1.500000
  9
$DIMEXO
 40
0.800000
  9
$DIMTAD
 70
     1
  9
$DIMTIH
 70
     0
  9
$DIMTOH
 70
     0
  9
$DIMTVP
 40
0.500000
  9
$DIMTXT
 40
3.100000
  9
$EXTMIN
 10
0.000000
 20
0.000000
 30
0.000000
  9
$EXTMAX
 10
297.000000
 20
420.000000
 30
0.000000
  9
$MEASUREMENT
 70
  1
  9
$LIMMIN
 10
0.000000
 20
0.000000
  9
$LIMMAX
 10
297.000000
 20
420.000000
  9
$HANDSEED
  5
227
  9
$LWDISPLAY
290
     0
  9
$DIMBLK
  1
_OPEN
  9
$DIMDEC
 70
     2
  9
$DIMADEC
 70
     2
  9
$DIMAUNIT
 70
     0
  9
$DIMZIN
 70
     8
  9
$DIMAZIN
 70
     2
  9
$DIMTOFL
 70
     1
  0
ENDSEC
  0
SECTION
  2
CLASSES
  0
ENDSEC
  0
SECTION
  2
TABLES
  0
TABLE
  2
VPORT
  5
1F1
100
AcDbSymbolTable
 70
     1
  0
VPORT
  5
1F2
100
AcDbSymbolTableRecord
100
AcDbViewportTableRecord
  2
*ACTIVE
 70
     0
 12
297.000167
 22
273.597480
 40
664.176743
 41
0.864228
  0
ENDTAB
  0
TABLE
  2
LTYPE
  5
1F3
100
AcDbSymbolTable
 70
     3
  0
LTYPE
  5
1F4
100
AcDbSymbolTableRecord
100
AcDbLinetypeTableRecord
  2
BYBLOCK
 70
     0
  3

 72
    65
 73
     0
 40
0.0
  0
LTYPE
  5
1F5
100
AcDbSymbolTableRecord
100
AcDbLinetypeTableRecord
  2
BYLAYER
 70
     0
  3

 72
    65
 73
     0
 40
0.0
  0
LTYPE
  5
1F6
100
AcDbSymbolTableRecord
100
AcDbLinetypeTableRecord
  2
CONTINUOUS
 70
     0
  3
Solid line (NEC CAE2D for Win R15.2 : 2020.05.18)
 72
    65
 73
     0
 40
0.0
  0
LTYPE
  5
1F7
100
AcDbSymbolTableRecord
100
AcDbLinetypeTableRecord
  2
CENTER
 70
     0
  3
____ _ ____ _ ____ _ ____ _ ____ _ ____
 72
    65
 73
     4
 40
2.0
 49
1.25
 74
     0
 49
-0.25
 74
     0
 49
0.25
 74
     0
 49
-0.25
 74
     0
  0
LTYPE
  5
1F8
100
AcDbSymbolTableRecord
100
AcDbLinetypeTableRecord
  2
PHANTOM
 70
     0
  3
______  __  __  ______  __  __  ______ 
 72
    65
 73
     6
 40
2.5
 49
1.25
 74
     0
 49
-0.25
 74
     0
 49
0.25
 74
     0
 49
-0.25
 74
     0
 49
0.25
 74
     0
 49
-0.25
 74
     0
  0
ENDTAB
  0
TABLE
  2
LAYER
  5
1F9
100
AcDbSymbolTable
 70
    15
  0
LAYER
  5
1FA
100
AcDbSymbolTableRecord
100
AcDbLayerTableRecord
  2
0
 70
     0
 62
     7
  6
CONTINUOUS
370
    -3
390

  0
LAYER
  5
1FB
100
AcDbSymbolTableRecord
100
AcDbLayerTableRecord
  2
A0
 70
     0
 62
     9
  6
CONTINUOUS
370
    -3
390

  0
LAYER
  5
1FC
100
AcDbSymbolTableRecord
100
AcDbLayerTableRecord
  2
A2
 70
     0
 62
     9
  6
CONTINUOUS
370
    -3
390

  0
LAYER
  5
1FD
100
AcDbSymbolTableRecord
100
AcDbLayerTableRecord
  2
A3
 70
     0
 62
    12
  6
CONTINUOUS
370
    -3
390

  0
LAYER
  5
1FE
100
AcDbSymbolTableRecord
100
AcDbLayerTableRecord
  2
A4
 70
     0
 62
     9
  6
CONTINUOUS
370
    -3
390

  0
LAYER
  5
1FF
100
AcDbSymbolTableRecord
100
AcDbLayerTableRecord
  2
A5
 70
     0
 62
     8
  6
CONTINUOUS
370
    -3
390

  0
LAYER
  5
200
100
AcDbSymbolTableRecord
100
AcDbLayerTableRecord
  2
A6
 70
     0
 62
    12
  6
CONTINUOUS
370
    -3
390

  0
LAYER
  5
201
100
AcDbSymbolTableRecord
100
AcDbLayerTableRecord
  2
A8
 70
     0
 62
    10
  6
CONTINUOUS
370
    -3
390

  0
LAYER
  5
202
100
AcDbSymbolTableRecord
100
AcDbLayerTableRecord
  2
A9
 70
     0
 62
     9
  6
CONTINUOUS
370
    -3
390

  0
LAYER
  5
203
100
AcDbSymbolTableRecord
100
AcDbLayerTableRecord
  2
A10
 70
     0
 62
     6
  6
CONTINUOUS
370
    -3
390

  0
LAYER
  5
204
100
AcDbSymbolTableRecord
100
AcDbLayerTableRecord
  2
A20
 70
     0
 62
     1
  6
CONTINUOUS
370
    -3
390

  0
LAYER
  5
205
100
AcDbSymbolTableRecord
100
AcDbLayerTableRecord
  2
A30
 70
     0
 62
     1
  6
CONTINUOUS
370
    -3
390

  0
LAYER
  5
206
100
AcDbSymbolTableRecord
100
AcDbLayerTableRecord
  2
A40
 70
     0
 62
     9
  6
CONTINUOUS
370
    -3
390

  0
LAYER
  5
207
100
AcDbSymbolTableRecord
100
AcDbLayerTableRecord
  2
A50
 70
     0
 62
    12
  6
CONTINUOUS
370
    -3
390

  0
LAYER
  5
208
100
AcDbSymbolTableRecord
100
AcDbLayerTableRecord
  2
A1023
 70
     0
 62
    16
  6
CONTINUOUS
370
    -3
390

  0
ENDTAB
  0
TABLE
  2
STYLE
  5
209
100
AcDbSymbolTable
 70
     4
  0
STYLE
  5
20A
100
AcDbSymbolTableRecord
100
AcDbTextStyleTableRecord
  2
STANDARD
 70
    64
 40
0.0
 41
1.0
 50
0.0
 71
     0
 42
3.000000000000000
  3
TXT
  4

  0
STYLE
  5
20B
100
AcDbSymbolTableRecord
100
AcDbTextStyleTableRecord
  2
ANKTATE
 70
    68
 40
0.0
 41
1.0
 50
0.0
 71
     0
 42
3.000000000000000
  3
TXT
  4

  0
STYLE
  5
20C
100
AcDbSymbolTableRecord
100
AcDbTextStyleTableRecord
  2
KNJYOKO
 70
    64
 40
0.0
 41
1.0
 50
0.0
 71
     0
 42
3.000000000000000
  3
TXT
  4
BIGFONT
  0
STYLE
  5
20D
100
AcDbSymbolTableRecord
100
AcDbTextStyleTableRecord
  2
KNJTATE
 70
    68
 40
0.0
 41
1.0
 50
0.0
 71
     0
 42
3.000000000000000
  3
TXT
  4
BIGFONT
  0
ENDTAB
  0
TABLE
  2
VIEW
  5
20E
100
AcDbSymbolTable
 70
     0
  0
ENDTAB
  0
TABLE
  2
UCS
  5
20F
100
AcDbSymbolTable
 70
     0
  0
ENDTAB
  0
TABLE
  2
APPID
  5
210
100
AcDbSymbolTable
 70
     1
  0
APPID
  5
211
100
AcDbSymbolTableRecord
100
AcDbRegAppTableRecord
  2
ACAD
 70
     0
  0
ENDTAB
  0
TABLE
  2
DIMSTYLE
  5
212
100
AcDbSymbolTable
 70
     2
100
AcDbDimStyleTable
  0
DIMSTYLE
105
213
100
AcDbSymbolTableRecord
100
AcDbDimStyleTableRecord
  2
STANDARD
 70
     0
 41
2.000000
 44
1.500000
 42
0.800000
145
0.661290
140
3.100000
144
1.000000
146
0.645161
340
20A
  0
DIMSTYLE
105
214
100
AcDbSymbolTableRecord
100
AcDbDimStyleTableRecord
  2
A001
 70
     0
 41
2.000000
 44
1.500000
 42
0.800000
145
0.661290
140
3.100000
144
1.000000
146
0.645161
 77
     1
 73
     0
 74
     0
271
     2
179
     2
275
     0
 78
     8
 79
     2
172
     1
340
20A
  0
ENDTAB
  0
TABLE
  2
BLOCK_RECORD
  5
215
100
AcDbSymbolTable
 70
    12
  0
BLOCK_RECORD
  5
216
100
AcDbSymbolTableRecord
100
AcDbBlockTableRecord
  2
*MODEL_SPACE
  0
BLOCK_RECORD
  5
217
100
AcDbSymbolTableRecord
100
AcDbBlockTableRecord
  2
*PAPER_SPACE
  0
BLOCK_RECORD
  5
218
100
AcDbSymbolTableRecord
100
AcDbBlockTableRecord
  2
*PAPER_SPACE0
  0
BLOCK_RECORD
  5
1
100
AcDbSymbolTableRecord
100
AcDbBlockTableRecord
  2
_NONE
  0
BLOCK_RECORD
  5
4
100
AcDbSymbolTableRecord
100
AcDbBlockTableRecord
  2
_CLOSED
  0
BLOCK_RECORD
  5
B
100
AcDbSymbolTableRecord
100
AcDbBlockTableRecord
  2
_DOT
  0
BLOCK_RECORD
  5
13
100
AcDbSymbolTableRecord
100
AcDbBlockTableRecord
  2
_OPEN
  0
BLOCK_RECORD
  5
19
100
AcDbSymbolTableRecord
100
AcDbBlockTableRecord
  2
_ORIGIN
  0
BLOCK_RECORD
  5
1E
100
AcDbSymbolTableRecord
100
AcDbBlockTableRecord
  2
_OPEN30
  0
BLOCK_RECORD
  5
24
100
AcDbSymbolTableRecord
100
AcDbBlockTableRecord
  2
_BOXFILLED
  0
BLOCK_RECORD
  5
29
100
AcDbSymbolTableRecord
100
AcDbBlockTableRecord
  2
_BOXBLANK
  0
BLOCK_RECORD
  5
31
100
AcDbSymbolTableRecord
100
AcDbBlockTableRecord
  2
_OBLIQUE
  0
BLOCK_RECORD
  5
35
100
AcDbSymbolTableRecord
100
AcDbBlockTableRecord
  2
_OPEN90
  0
BLOCK_RECORD
  5
3B
100
AcDbSymbolTableRecord
100
AcDbBlockTableRecord
  2
_CLOSEDBLANK
  0
BLOCK_RECORD
  5
41
100
AcDbSymbolTableRecord
100
AcDbBlockTableRecord
  2
_DOTBLANK
  0
ENDTAB
  0
ENDSEC
  0
SECTION
  2
BLOCKS
  0
BLOCK
  5
219
100
AcDbEntity
  8
0
100
AcDbBlockBegin
  2
*MODEL_SPACE
 70
     0
 10
0.0
 20
0.0
 30
0.0
  3
*MODEL_SPACE
  1

  0
ENDBLK
  5
21A
100
AcDbEntity
  8
0
100
AcDbBlockEnd
  0
BLOCK
  5
21B
100
AcDbEntity
  8
0
100
AcDbBlockBegin
  2
*PAPER_SPACE
 70
     0
 10
0.0
 20
0.0
 30
0.0
  3
*PAPER_SPACE
  1

  0
ENDBLK
  5
21C
100
AcDbEntity
  8
0
100
AcDbBlockEnd
  0
BLOCK
  5
21D
100
AcDbEntity
  8
0
100
AcDbBlockBegin
  2
*PAPER_SPACE0
 70
     0
 10
0.0
 20
0.0
 30
0.0
  3
*PAPER_SPACE0
  1

  0
ENDBLK
  5
21E
100
AcDbEntity
  8
0
100
AcDbBlockEnd
  0
BLOCK
  5
2
330
1
100
AcDbEntity
  8
0
100
AcDbBlockBegin
  2
_NONE
 70
     0
 10
0.0
 20
0.0
 30
0.0
  3
_NONE
  1

  0
ENDBLK
  5
3
330
1
100
AcDbEntity
  8
0
100
AcDbBlockEnd
  0
BLOCK
  5
5
330
4
100
AcDbEntity
  8
0
100
AcDbBlockBegin
  2
_CLOSED
 70
     0
 10
0.0
 20
0.0
 30
0.0
  3
_CLOSED
  1

  0
LINE
  5
6
330
4
100
AcDbEntity
  8
0
  6
BYBLOCK
 62
     0
370
    -2
100
AcDbLine
 10
-1.0
 20
0.166667
 30
0.0
 11
0.0
 21
0.0
 31
0.0
  0
LINE
  5
7
330
4
100
AcDbEntity
  8
0
  6
BYBLOCK
 62
     0
370
    -2
100
AcDbLine
 10
0.0
 20
0.0
 30
0.0
 11
-1.0
 21
-0.166667
 31
0.0
  0
LINE
  5
8
330
4
100
AcDbEntity
  8
0
  6
BYBLOCK
 62
     0
370
    -2
100
AcDbLine
 10
-1.0
 20
0.166667
 30
0.0
 11
-1.0
 21
-0.166667
 31
0.0
  0
LINE
  5
9
330
4
100
AcDbEntity
  8
0
  6
BYBLOCK
 62
     0
370
    -2
100
AcDbLine
 10
0.0
 20
0.0
 30
0.0
 11
-1.0
 21
0.0
 31
0.0
  0
ENDBLK
  5
A
330
4
100
AcDbEntity
  8
0
100
AcDbBlockEnd
  0
BLOCK
  5
C
330
B
100
AcDbEntity
  8
0
100
AcDbBlockBegin
  2
_DOT
 70
     0
 10
0.0
 20
0.0
 30
0.0
  3
_DOT
  1

  0
POLYLINE
  5
D
330
B
100
AcDbEntity
  8
0
  6
BYBLOCK
 62
     0
370
    -2
100
AcDb2dPolyline
 66
     1
 10
0.0
 20
0.0
 30
0.0
 70
     1
 40
0.5
 41
0.5
  0
VERTEX
  5
E
330
B
100
AcDbEntity
  8
0
  6
BYBLOCK
 62
     0
370
    -2
100
AcDbVertex
100
AcDb2dVertex
 10
-0.25
 20
0.0
 30
0.0
 42
1.0
  0
VERTEX
  5
F
330
B
100
AcDbEntity
  8
0
  6
BYBLOCK
 62
     0
370
    -2
100
AcDbVertex
100
AcDb2dVertex
 10
0.25
 20
0.0
 30
0.0
 42
1.0
  0
SEQEND
  5
10
330
B
100
AcDbEntity
  8
0
  6
BYBLOCK
 62
     0
370
    -2
  0
LINE
  5
11
330
B
100
AcDbEntity
  8
0
  6
BYBLOCK
 62
     0
370
    -2
100
AcDbLine
 10
-0.5
 20
0.0
 30
0.0
 11
-1.0
 21
0.0
 31
0.0
  0
ENDBLK
  5
12
330
B
100
AcDbEntity
  8
0
100
AcDbBlockEnd
  0
BLOCK
  5
14
330
13
100
AcDbEntity
  8
0
100
AcDbBlockBegin
  2
_OPEN
 70
     0
 10
0.0
 20
0.0
 30
0.0
  3
_OPEN
  1

  0
LINE
  5
15
330
13
100
AcDbEntity
  8
0
  6
BYBLOCK
 62
     0
370
    -2
100
AcDbLine
 10
-1.0
 20
0.166667
 30
0.0
 11
0.0
 21
0.0
 31
0.0
  0
LINE
  5
16
330
13
100
AcDbEntity
  8
0
  6
BYBLOCK
 62
     0
370
    -2
100
AcDbLine
 10
0.0
 20
0.0
 30
0.0
 11
-1.0
 21
-0.166667
 31
0.0
  0
LINE
  5
17
330
13
100
AcDbEntity
  8
0
  6
BYBLOCK
 62
     0
370
    -2
100
AcDbLine
 10
0.0
 20
0.0
 30
0.0
 11
-1.0
 21
0.0
 31
0.0
  0
ENDBLK
  5
18
330
13
100
AcDbEntity
  8
0
100
AcDbBlockEnd
  0
BLOCK
  5
1A
330
19
100
AcDbEntity
  8
0
100
AcDbBlockBegin
  2
_ORIGIN
 70
     0
 10
0.0
 20
0.0
 30
0.0
  3
_ORIGIN
  1

  0
CIRCLE
  5
1B
330
19
100
AcDbEntity
  8
0
  6
BYBLOCK
 62
     0
370
    -2
100
AcDbCircle
 10
0.0
 20
0.0
 30
0.0
 40
0.5
  0
LINE
  5
1C
330
19
100
AcDbEntity
  8
0
  6
BYBLOCK
 62
     0
370
    -2
100
AcDbLine
 10
0.0
 20
0.0
 30
0.0
 11
-1.0
 21
0.0
 31
0.0
  0
ENDBLK
  5
1D
330
19
100
AcDbEntity
  8
0
100
AcDbBlockEnd
  0
BLOCK
  5
1F
330
1E
100
AcDbEntity
  8
0
100
AcDbBlockBegin
  2
_OPEN30
 70
     0
 10
0.0
 20
0.0
 30
0.0
  3
_OPEN30
  1

  0
LINE
  5
20
330
1E
100
AcDbEntity
  8
0
  6
BYBLOCK
 62
     0
370
    -2
100
AcDbLine
 10
-1.0
 20
0.267949
 30
0.0
 11
0.0
 21
0.0
 31
0.0
  0
LINE
  5
21
330
1E
100
AcDbEntity
  8
0
  6
BYBLOCK
 62
     0
370
    -2
100
AcDbLine
 10
0.0
 20
0.0
 30
0.0
 11
-1.0
 21
-0.267949
 31
0.0
  0
LINE
  5
22
330
1E
100
AcDbEntity
  8
0
  6
BYBLOCK
 62
     0
370
    -2
100
AcDbLine
 10
0.0
 20
0.0
 30
0.0
 11
-1.0
 21
0.0
 31
0.0
  0
ENDBLK
  5
23
330
1E
100
AcDbEntity
  8
0
100
AcDbBlockEnd
  0
BLOCK
  5
25
330
24
100
AcDbEntity
  8
0
100
AcDbBlockBegin
  2
_BOXFILLED
 70
     0
 10
0.0
 20
0.0
 30
0.0
  3
_BOXFILLED
  1

  0
SOLID
  5
26
330
24
100
AcDbEntity
  8
0
  6
BYBLOCK
 62
     0
370
    -2
100
AcDbTrace
 10
-0.5
 20
0.5
 30
0.0
 11
0.5
 21
0.5
 31
0.0
 12
-0.5
 22
-0.5
 32
0.0
 13
0.5
 23
-0.5
 33
0.0
  0
LINE
  5
27
330
24
100
AcDbEntity
  8
0
  6
BYBLOCK
 62
     0
370
    -2
100
AcDbLine
 10
-0.5
 20
0.0
 30
0.0
 11
-1.0
 21
0.0
 31
0.0
  0
ENDBLK
  5
28
330
24
100
AcDbEntity
  8
0
100
AcDbBlockEnd
  0
BLOCK
  5
2A
330
29
100
AcDbEntity
  8
0
100
AcDbBlockBegin
  2
_BOXBLANK
 70
     0
 10
0.0
 20
0.0
 30
0.0
  3
_BOXBLANK
  1

  0
LINE
  5
2B
330
29
100
AcDbEntity
  8
0
  6
BYBLOCK
 62
     0
370
    -2
100
AcDbLine
 10
-0.5
 20
-0.5
 30
0.0
 11
0.5
 21
-0.5
 31
0.0
  0
LINE
  5
2C
330
29
100
AcDbEntity
  8
0
  6
BYBLOCK
 62
     0
370
    -2
100
AcDbLine
 10
0.5
 20
-0.5
 30
0.0
 11
0.5
 21
0.5
 31
0.0
  0
LINE
  5
2D
330
29
100
AcDbEntity
  8
0
  6
BYBLOCK
 62
     0
370
    -2
100
AcDbLine
 10
0.5
 20
0.5
 30
0.0
 11
-0.5
 21
0.5
 31
0.0
  0
LINE
  5
2E
330
29
100
AcDbEntity
  8
0
  6
BYBLOCK
 62
     0
370
    -2
100
AcDbLine
 10
-0.5
 20
0.5
 30
0.0
 11
-0.5
 21
-0.5
 31
0.0
  0
LINE
  5
2F
330
29
100
AcDbEntity
  8
0
  6
BYBLOCK
 62
     0
370
    -2
100
AcDbLine
 10
-0.5
 20
0.0
 30
0.0
 11
-1.0
 21
0.0
 31
0.0
  0
ENDBLK
  5
30
330
29
100
AcDbEntity
  8
0
100
AcDbBlockEnd
  0
BLOCK
  5
32
330
31
100
AcDbEntity
  8
0
100
AcDbBlockBegin
  2
_OBLIQUE
 70
     0
 10
0.0
 20
0.0
 30
0.0
  3
_OBLIQUE
  1

  0
LINE
  5
33
330
31
100
AcDbEntity
  8
0
  6
BYBLOCK
 62
     0
370
    -2
100
AcDbLine
 10
-0.5
 20
-0.5
 30
0.0
 11
0.5
 21
0.5
 31
0.0
  0
ENDBLK
  5
34
330
31
100
AcDbEntity
  8
0
100
AcDbBlockEnd
  0
BLOCK
  5
36
330
35
100
AcDbEntity
  8
0
100
AcDbBlockBegin
  2
_OPEN90
 70
     0
 10
0.0
 20
0.0
 30
0.0
  3
_OPEN90
  1

  0
LINE
  5
37
330
35
100
AcDbEntity
  8
0
  6
BYBLOCK
 62
     0
370
    -2
100
AcDbLine
 10
-0.5
 20
0.5
 30
0.0
 11
0.0
 21
0.0
 31
0.0
  0
LINE
  5
38
330
35
100
AcDbEntity
  8
0
  6
BYBLOCK
 62
     0
370
    -2
100
AcDbLine
 10
0.0
 20
0.0
 30
0.0
 11
-0.5
 21
-0.5
 31
0.0
  0
LINE
  5
39
330
35
100
AcDbEntity
  8
0
  6
BYBLOCK
 62
     0
370
    -2
100
AcDbLine
 10
0.0
 20
0.0
 30
0.0
 11
-1.0
 21
0.0
 31
0.0
  0
ENDBLK
  5
3A
330
35
100
AcDbEntity
  8
0
100
AcDbBlockEnd
  0
BLOCK
  5
3C
330
3B
100
AcDbEntity
  8
0
100
AcDbBlockBegin
  2
_CLOSEDBLANK
 70
     0
 10
0.0
 20
0.0
 30
0.0
  3
_CLOSEDBLANK
  1

  0
LINE
  5
3D
330
3B
100
AcDbEntity
  8
0
  6
BYBLOCK
 62
     0
370
    -2
100
AcDbLine
 10
-1.0
 20
0.1666666666666666
 30
0.0
 11
0.0
 21
0.0
 31
0.0
  0
LINE
  5
3E
330
3B
100
AcDbEntity
  8
0
  6
BYBLOCK
 62
     0
370
    -2
100
AcDbLine
 10
0.0
 20
0.0
 30
0.0
 11
-1.0
 21
-0.1666666666666666
 31
0.0
  0
LINE
  5
3F
330
3B
100
AcDbEntity
  8
0
  6
BYBLOCK
 62
     0
370
    -2
100
AcDbLine
 10
-1.0
 20
0.1666666666666666
 30
0.0
 11
-1.0
 21
-0.1666666666666666
 31
0.0
  0
ENDBLK
  5
40
330
3B
100
AcDbEntity
  8
0
100
AcDbBlockEnd
  0
BLOCK
  5
42
330
41
100
AcDbEntity
  8
0
100
AcDbBlockBegin
  2
_DOTBLANK
 70
     0
 10
0.0
 20
0.0
 30
0.0
  3
_DOTBLANK
  1

  0
CIRCLE
  5
43
330
41
100
AcDbEntity
  8
0
  6
BYBLOCK
 62
     0
370
    -2
100
AcDbCircle
 10
0.0
 20
0.0
 30
0.0
 40
0.5
  0
LINE
  5
44
330
41
100
AcDbEntity
  8
0
  6
BYBLOCK
 62
     0
370
    -2
100
AcDbLine
 10
-0.5
 20
0.0
 30
0.0
 11
-1.0
 21
0.0
 31
0.0
  0
ENDBLK
  5
45
330
41
100
AcDbEntity
  8
0
100
AcDbBlockEnd
  0
ENDSEC
  0
SECTION
  2
ENTITIES
  0
MTEXT
  5
46
100
AcDbEntity
  8
A8
  6
CONTINUOUS
 62
7
100
AcDbMText
 10
9.999997526638502
 20
18.00000076076889
 30
0.0000000000000000
 40
3.000000000000000
 41
0.0000000000000000
 44
0.6739999771118164
 71
     7
 72
     1
  1
{\H0.94x;{TYPE No.TM-150-120-40}}
 11
1.000000000000000
 21
0.0000000000000000
 31
0.0000000000000000
  7
STANDARD
  0
POINT
  5
47
100
AcDbEntity
  8
A0
  6
CONTINUOUS
 62
5
100
AcDbPoint
 10
9.999997526638502
 20
18.00000076076889
 30
0.0000000000000000
  0
LINE
  5
48
100
AcDbEntity
  8
A4
  6
CONTINUOUS
 62
7
100
AcDbLine
 10
41.00000000000000
 20
54.35889799999978
 30
0.0000000000000000
 11
41.00000000000000
 21
66.00000000000000
 31
0.0000000000000000
  0
LINE
  5
49
100
AcDbEntity
  8
A4
  6
CONTINUOUS
 62
7
100
AcDbLine
 10
59.00000000000000
 20
54.35889799999978
 30
0.0000000000000000
 11
59.00000000000000
 21
66.00000000000000
 31
0.0000000000000000
  0
LINE
  5
4A
100
AcDbEntity
  8
A4
  6
CONTINUOUS
 62
7
100
AcDbLine
 10
61.00000000000000
 20
74.00000000000000
 30
0.0000000000000000
 11
39.00000000000000
 21
74.00000000000000
 31
0.0000000000000000
  0
LINE
  5
4B
100
AcDbEntity
  8
A4
  6
CONTINUOUS
 62
7
100
AcDbLine
 10
61.00000000000000
 20
70.80000299999980
 30
0.0000000000000000
 11
39.00000000000000
 21
70.80000299999980
 31
0.0000000000000000
  0
LINE
  5
4C
100
AcDbEntity
  8
A4
  6
CONTINUOUS
 62
7
100
AcDbLine
 10
39.00000000000000
 20
70.80000299999980
 30
0.0000000000000000
 11
39.00000000000000
 21
74.00000000000000
 31
0.0000000000000000
  0
LINE
  5
4D
100
AcDbEntity
  8
A4
  6
CONTINUOUS
 62
7
100
AcDbLine
 10
61.00000000000000
 20
70.80000299999980
 30
0.0000000000000000
 11
61.00000000000000
 21
74.00000000000000
 31
0.0000000000000000
  0
LINE
  5
4E
100
AcDbEntity
  8
A4
  6
CONTINUOUS
 62
7
100
AcDbLine
 10
55.99999999999988
 20
70.80000299999973
 30
0.0000000000000000
 11
58.99999999999985
 21
65.99999999999997
 31
0.0000000000000000
  0
LINE
  5
4F
100
AcDbEntity
  8
A4
  6
CONTINUOUS
 62
7
100
AcDbLine
 10
44.00000000000005
 20
70.80000299999980
 30
0.0000000000000000
 11
41.00000000000001
 21
65.99999999999994
 31
0.0000000000000000
  0
LINE
  5
50
100
AcDbEntity
  8
A4
  6
CONTINUOUS
 62
7
100
AcDbLine
 10
59.00000000000002
 20
65.99999999999986
 30
0.0000000000000000
 11
61.00000000000004
 21
70.80000299999971
 31
0.0000000000000000
  0
LINE
  5
51
100
AcDbEntity
  8
A4
  6
CONTINUOUS
 62
7
100
AcDbLine
 10
41.00000000000004
 20
65.99999999999991
 30
0.0000000000000000
 11
38.99999999999999
 21
70.80000299999982
 31
0.0000000000000000
  0
LINE
  5
52
100
AcDbEntity
  8
A4
  6
CONTINUOUS
 62
7
100
AcDbLine
 10
61.00000000000024
 20
70.80000299999975
 30
0.0000000000000000
 11
59.00000000000024
 21
61.99999999999994
 31
0.0000000000000000
  0
LINE
  5
53
100
AcDbEntity
  8
A4
  6
CONTINUOUS
 62
7
100
AcDbLine
 10
40.99999999999987
 20
61.99999999999991
 30
0.0000000000000000
 11
38.99999999999986
 21
70.80000299999975
 31
0.0000000000000000
  0
LINE
  5
54
100
AcDbEntity
  8
A3
  6
PHANTOM
 62
1
100
AcDbLine
 10
192.5000920000000
 20
194.0000149999998
 30
0.0000000000000000
 11
205.0000920000000
 21
194.0000149999998
 31
0.0000000000000000
  0
LINE
  5
55
100
AcDbEntity
  8
A3
  6
PHANTOM
 62
1
100
AcDbLine
 10
192.5000920000000
 20
190.8000030000000
 30
0.0000000000000000
 11
195.9014740000000
 21
190.8000030000000
 31
0.0000000000000000
  0
LINE
  5
56
100
AcDbEntity
  8
A3
  6
PHANTOM
 62
1
100
AcDbLine
 10
192.5000920000000
 20
194.0000149999998
 30
0.0000000000000000
 11
192.5000920000000
 21
190.8000030000000
 31
0.0000000000000000
  0
LINE
  5
57
100
AcDbEntity
  8
A3
  6
PHANTOM
 62
1
100
AcDbLine
 10
203.8000950000000
 20
184.9214629999999
 30
0.0000000000000000
 11
203.8000950000000
 21
161.0000000000000
 31
0.0000000000000000
  0
LINE
  5
58
100
AcDbEntity
  8
A3
  6
PHANTOM
 62
1
100
AcDbLine
 10
197.0002899999995
 20
190.4711149999998
 30
0.0000000000000000
 11
202.8989109999997
 21
186.5925589999999
 31
0.0000000000000000
  0
LINE
  5
59
100
AcDbEntity
  8
A3
  6
PHANTOM
 62
1
100
AcDbLine
 10
198.7583770000001
 20
193.1448820000000
 30
0.0000000000000000
 11
204.6570129999999
 21
189.2663420000001
 31
0.0000000000000000
  0
LINE
  5
5A
100
AcDbEntity
  8
A3
  6
PHANTOM
 62
1
100
AcDbLine
 10
207.0000920000000
 20
189.0000149999999
 30
0.0000000000000000
 11
207.0000920000000
 21
161.0000000000000
 31
0.0000000000000000
  0
LINE
  5
5B
100
AcDbEntity
  8
A3
  6
PHANTOM
 62
1
100
AcDbLine
 10
203.8000950000000
 20
161.0000000000000
 30
0.0000000000000000
 11
207.0000920000000
 21
161.0000000000000
 31
0.0000000000000000
  0
LINE
  5
5C
100
AcDbEntity
  8
A4
  6
CONTINUOUS
 62
7
100
AcDbLine
 10
41.00000000000001
 20
485.6411010000001
 30
0.0000000000000000
 11
41.00000000000001
 21
473.9999999999999
 31
0.0000000000000000
  0
LINE
  5
5D
100
AcDbEntity
  8
A4
  6
CONTINUOUS
 62
7
100
AcDbLine
 10
59.00000000000001
 20
485.6411010000001
 30
0.0000000000000000
 11
59.00000000000001
 21
473.9999999999999
 31
0.0000000000000000
  0
LINE
  5
5E
100
AcDbEntity
  8
A4
  6
CONTINUOUS
 62
7
100
AcDbLine
 10
61.00000000000001
 20
465.9999999999999
 30
0.0000000000000000
 11
39.00000000000001
 21
465.9999999999999
 31
0.0000000000000000
  0
LINE
  5
5F
100
AcDbEntity
  8
A4
  6
CONTINUOUS
 62
7
100
AcDbLine
 10
61.00000000000001
 20
469.1999809999999
 30
0.0000000000000000
 11
39.00000000000001
 21
469.1999809999999
 31
0.0000000000000000
  0
LINE
  5
60
100
AcDbEntity
  8
A4
  6
CONTINUOUS
 62
7
100
AcDbLine
 10
39.00000000000001
 20
469.1999809999999
 30
0.0000000000000000
 11
39.00000000000001
 21
465.9999999999999
 31
0.0000000000000000
  0
LINE
  5
61
100
AcDbEntity
  8
A4
  6
CONTINUOUS
 62
7
100
AcDbLine
 10
61.00000000000001
 20
469.1999809999999
 30
0.0000000000000000
 11
61.00000000000001
 21
465.9999999999999
 31
0.0000000000000000
  0
LINE
  5
62
100
AcDbEntity
  8
A4
  6
CONTINUOUS
 62
7
100
AcDbLine
 10
55.99999999999994
 20
469.1999809999999
 30
0.0000000000000000
 11
59.00000000000000
 21
474.0000000000000
 31
0.0000000000000000
  0
LINE
  5
63
100
AcDbEntity
  8
A4
  6
CONTINUOUS
 62
7
100
AcDbLine
 10
43.99999999999989
 20
469.1999809999999
 30
0.0000000000000000
 11
40.99999999999986
 21
474.0000000000000
 31
0.0000000000000000
  0
LINE
  5
64
100
AcDbEntity
  8
A4
  6
CONTINUOUS
 62
7
100
AcDbLine
 10
58.99999999999997
 20
473.9999999999999
 30
0.0000000000000000
 11
60.99999999999997
 21
469.1999809999999
 31
0.0000000000000000
  0
LINE
  5
65
100
AcDbEntity
  8
A4
  6
CONTINUOUS
 62
7
100
AcDbLine
 10
41.00000000000003
 20
474.0000000000000
 30
0.0000000000000000
 11
39.00000000000003
 21
469.1999810000000
 31
0.0000000000000000
  0
LINE
  5
66
100
AcDbEntity
  8
A4
  6
CONTINUOUS
 62
7
100
AcDbLine
 10
61.00000000000024
 20
469.1999809999999
 30
0.0000000000000000
 11
59.00000000000023
 21
478.0000000000002
 31
0.0000000000000000
  0
LINE
  5
67
100
AcDbEntity
  8
A4
  6
CONTINUOUS
 62
7
100
AcDbLine
 10
40.99999999999987
 20
478.0000000000001
 30
0.0000000000000000
 11
38.99999999999986
 21
469.1999809999999
 31
0.0000000000000000
  0
LINE
  5
68
100
AcDbEntity
  8
A4
  6
CONTINUOUS
 62
7
100
AcDbLine
 10
192.5000920000000
 20
465.9999999999999
 30
0.0000000000000000
 11
202.0000920000000
 21
465.9999999999999
 31
0.0000000000000000
  0
LINE
  5
69
100
AcDbEntity
  8
A4
  6
CONTINUOUS
 62
7
100
AcDbLine
 10
192.5000920000000
 20
469.1999809999999
 30
0.0000000000000000
 11
195.9014740000000
 21
469.1999809999999
 31
0.0000000000000000
  0
LINE
  5
6A
100
AcDbEntity
  8
A4
  6
CONTINUOUS
 62
7
100
AcDbLine
 10
192.5000920000000
 20
465.9999999999999
 30
0.0000000000000000
 11
192.5000920000000
 21
469.1999809999999
 31
0.0000000000000000
  0
LINE
  5
6B
100
AcDbEntity
  8
A4
  6
CONTINUOUS
 62
7
100
AcDbLine
 10
203.8000950000001
 20
475.0785519999999
 30
0.0000000000000000
 11
203.8000950000001
 21
499.0000000000001
 31
0.0000000000000000
  0
LINE
  5
6C
100
AcDbEntity
  8
A4
  6
CONTINUOUS
 62
7
100
AcDbLine
 10
197.0002899999998
 20
469.5288690000001
 30
0.0000000000000000
 11
202.8989109999998
 21
473.4074399999999
 31
0.0000000000000000
  0
LINE
  5
6D
100
AcDbEntity
  8
A4
  6
CONTINUOUS
 62
7
100
AcDbLine
 10
198.7583769999997
 20
466.8551019999996
 30
0.0000000000000000
 11
204.6570129999998
 21
470.7336420000000
 31
0.0000000000000000
  0
LINE
  5
6E
100
AcDbEntity
  8
A4
  6
CONTINUOUS
 62
7
100
AcDbLine
 10
207.0000920000000
 20
470.9999999999999
 30
0.0000000000000000
 11
207.0000920000000
 21
499.0000000000001
 31
0.0000000000000000
  0
LINE
  5
6F
100
AcDbEntity
  8
A4
  6
CONTINUOUS
 62
7
100
AcDbLine
 10
203.8000950000001
 20
499.0000000000001
 30
0.0000000000000000
 11
207.0000920000000
 21
499.0000000000001
 31
0.0000000000000000
  0
LINE
  5
70
100
AcDbEntity
  8
A4
  6
CONTINUOUS
 62
7
100
AcDbLine
 10
60.00000000000001
 20
463.4999999999999
 30
0.0000000000000000
 11
40.00000000000001
 21
463.4999999999999
 31
0.0000000000000000
  0
LINE
  5
71
100
AcDbEntity
  8
A4
  6
CONTINUOUS
 62
7
100
AcDbLine
 10
61.00000000000001
 20
461.4999999999999
 30
0.0000000000000000
 11
39.00000000000001
 21
461.4999999999999
 31
0.0000000000000000
  0
LINE
  5
72
100
AcDbEntity
  8
A4
  6
CONTINUOUS
 62
7
100
AcDbLine
 10
43.00000000000011
 20
463.4999999999998
 30
0.0000000000000000
 11
45.50000000000006
 21
465.9999999999998
 31
0.0000000000000000
  0
LINE
  5
73
100
AcDbEntity
  8
A4
  6
CONTINUOUS
 62
7
100
AcDbLine
 10
56.99999999999980
 20
463.4999999999999
 30
0.0000000000000000
 11
54.49999999999986
 21
465.9999999999999
 31
0.0000000000000000
  0
LINE
  5
74
100
AcDbEntity
  8
A4
  6
CONTINUOUS
 62
7
100
AcDbLine
 10
38.99999999999977
 20
461.5000000000000
 30
0.0000000000000000
 11
39.99999999999974
 21
463.4999999999999
 31
0.0000000000000000
  0
LINE
  5
75
100
AcDbEntity
  8
A4
  6
CONTINUOUS
 62
7
100
AcDbLine
 10
61.00000000000000
 20
461.4999999999999
 30
0.0000000000000000
 11
59.99999999999997
 21
463.4999999999999
 31
0.0000000000000000
  0
LINE
  5
76
100
AcDbEntity
  8
A4
  6
CONTINUOUS
 62
7
100
AcDbLine
 10
193.0000920000000
 20
463.4999999999999
 30
0.0000000000000000
 11
195.5000919999999
 21
465.9999999999998
 31
0.0000000000000000
  0
LINE
  5
77
100
AcDbEntity
  8
A4
  6
CONTINUOUS
 62
7
100
AcDbLine
 10
207.0000919999999
 20
463.4999999999999
 30
0.0000000000000000
 11
204.0572810000000
 21
466.4428110000001
 31
0.0000000000000000
  0
LINE
  5
78
100
AcDbEntity
  8
A4
  6
CONTINUOUS
 62
7
100
AcDbLine
 10
211.0000920000000
 20
461.4999999999999
 30
0.0000000000000000
 11
189.0000920000000
 21
461.4999999999999
 31
0.0000000000000000
  0
LINE
  5
79
100
AcDbEntity
  8
A4
  6
CONTINUOUS
 62
7
100
AcDbLine
 10
210.0000919999998
 20
463.4999999999999
 30
0.0000000000000000
 11
190.0000920000000
 21
463.4999999999999
 31
0.0000000000000000
  0
LINE
  5
7A
100
AcDbEntity
  8
A4
  6
CONTINUOUS
 62
7
100
AcDbLine
 10
211.0000920000002
 20
461.5000000000001
 30
0.0000000000000000
 11
210.0000920000000
 21
463.5000000000000
 31
0.0000000000000000
  0
LINE
  5
7B
100
AcDbEntity
  8
A4
  6
CONTINUOUS
 62
7
100
AcDbLine
 10
189.0000919999997
 20
461.4999999999999
 30
0.0000000000000000
 11
190.0000919999996
 21
463.4999999999998
 31
0.0000000000000000
  0
LINE
  5
7C
100
AcDbEntity
  8
A4
  6
CONTINUOUS
 62
7
100
AcDbLine
 10
61.00000000000042
 20
205.0000000000000
 30
0.0000000000000000
 11
39.00000000000042
 21
205.0000000000000
 31
0.0000000000000000
  0
LINE
  5
7D
100
AcDbEntity
  8
A4
  6
CONTINUOUS
 62
7
100
AcDbLine
 10
60.00000000000042
 20
203.0000000000000
 30
0.0000000000000000
 11
40.00000000000042
 21
203.0000000000000
 31
0.0000000000000000
  0
LINE
  5
7E
100
AcDbEntity
  8
A4
  6
CONTINUOUS
 62
7
100
AcDbLine
 10
60.00000000000042
 20
205.0000000000000
 30
0.0000000000000000
 11
60.00000000000042
 21
203.0000000000000
 31
0.0000000000000000
  0
LINE
  5
7F
100
AcDbEntity
  8
A4
  6
CONTINUOUS
 62
7
100
AcDbLine
 10
40.00000000000042
 20
205.0000000000000
 30
0.0000000000000000
 11
40.00000000000042
 21
203.0000000000000
 31
0.0000000000000000
  0
LINE
  5
80
100
AcDbEntity
  8
A4
  6
CONTINUOUS
 62
7
100
AcDbLine
 10
61.00000000000042
 20
209.0000000000000
 30
0.0000000000000000
 11
39.00000000000042
 21
209.0000000000000
 31
0.0000000000000000
  0
LINE
  5
81
100
AcDbEntity
  8
A4
  6
CONTINUOUS
 62
7
100
AcDbLine
 10
61.00000000000042
 20
211.0000000000000
 30
0.0000000000000000
 11
39.00000000000042
 21
211.0000000000000
 31
0.0000000000000000
  0
LINE
  5
82
100
AcDbEntity
  8
A4
  6
CONTINUOUS
 62
7
100
AcDbLine
 10
61.00000000000042
 20
222.5000000000000
 30
0.0000000000000000
 11
39.00000000000042
 21
222.5000000000000
 31
0.0000000000000000
  0
LINE
  5
83
100
AcDbEntity
  8
A4
  6
CONTINUOUS
 62
7
100
AcDbLine
 10
61.00000000000042
 20
224.4999999999999
 30
0.0000000000000000
 11
39.00000000000042
 21
224.4999999999999
 31
0.0000000000000000
  0
LINE
  5
84
100
AcDbEntity
  8
A4
  6
CONTINUOUS
 62
7
100
AcDbLine
 10
39.00000000000042
 20
205.0000000000000
 30
0.0000000000000000
 11
39.00000000000042
 21
209.0000000000000
 31
0.0000000000000000
  0
LINE
  5
85
100
AcDbEntity
  8
A4
  6
CONTINUOUS
 62
7
100
AcDbLine
 10
39.00000000000042
 20
211.0000000000000
 30
0.0000000000000000
 11
39.00000000000042
 21
222.5000000000000
 31
0.0000000000000000
  0
LINE
  5
86
100
AcDbEntity
  8
A4
  6
CONTINUOUS
 62
7
100
AcDbLine
 10
39.00000000000001
 20
224.4999999999998
 30
0.0000000000000000
 11
39.00000000000001
 21
461.4999999999999
 31
0.0000000000000000
  0
LINE
  5
87
100
AcDbEntity
  8
A4
  6
CONTINUOUS
 62
7
100
AcDbLine
 10
61.00000000000042
 20
205.0000000000000
 30
0.0000000000000000
 11
61.00000000000042
 21
209.0000000000000
 31
0.0000000000000000
  0
LINE
  5
88
100
AcDbEntity
  8
A4
  6
CONTINUOUS
 62
7
100
AcDbLine
 10
61.00000000000042
 20
211.0000000000000
 30
0.0000000000000000
 11
61.00000000000042
 21
222.5000000000000
 31
0.0000000000000000
  0
LINE
  5
89
100
AcDbEntity
  8
A4
  6
CONTINUOUS
 62
7
100
AcDbLine
 10
61.00000000000001
 20
224.4999999999998
 30
0.0000000000000000
 11
61.00000000000001
 21
461.4999999999999
 31
0.0000000000000000
  0
LINE
  5
8A
100
AcDbEntity
  8
A2
  6
CENTER
 62
4
100
AcDbLine
 10
200.0000920000000
 20
505.0000000000001
 30
0.0000000000000000
 11
200.0000920000000
 21
35.00000000000000
 31
0.0000000000000000
  0
LINE
  5
8B
100
AcDbEntity
  8
A4
  6
CONTINUOUS
 62
7
100
AcDbLine
 10
211.0000920000004
 20
205.0000000000000
 30
0.0000000000000000
 11
189.0000920000004
 21
205.0000000000000
 31
0.0000000000000000
  0
LINE
  5
8C
100
AcDbEntity
  8
A4
  6
CONTINUOUS
 62
7
100
AcDbLine
 10
210.0000920000000
 20
203.0000000000000
 30
0.0000000000000000
 11
190.0000920000004
 21
203.0000000000000
 31
0.0000000000000000
  0
LINE
  5
8D
100
AcDbEntity
  8
A4
  6
CONTINUOUS
 62
7
100
AcDbLine
 10
210.0000920000000
 20
205.0000000000000
 30
0.0000000000000000
 11
210.0000920000000
 21
203.0000000000000
 31
0.0000000000000000
  0
LINE
  5
8E
100
AcDbEntity
  8
A4
  6
CONTINUOUS
 62
7
100
AcDbLine
 10
190.0000920000004
 20
205.0000000000000
 30
0.0000000000000000
 11
190.0000920000004
 21
203.0000000000000
 31
0.0000000000000000
  0
LINE
  5
8F
100
AcDbEntity
  8
A4
  6
CONTINUOUS
 62
7
100
AcDbLine
 10
211.0000920000004
 20
209.0000000000000
 30
0.0000000000000000
 11
189.0000920000004
 21
209.0000000000000
 31
0.0000000000000000
  0
LINE
  5
90
100
AcDbEntity
  8
A4
  6
CONTINUOUS
 62
7
100
AcDbLine
 10
211.0000920000004
 20
211.0000000000000
 30
0.0000000000000000
 11
189.0000920000004
 21
211.0000000000000
 31
0.0000000000000000
  0
LINE
  5
91
100
AcDbEntity
  8
A4
  6
CONTINUOUS
 62
7
100
AcDbLine
 10
211.0000920000004
 20
222.5000000000000
 30
0.0000000000000000
 11
189.0000920000004
 21
222.5000000000000
 31
0.0000000000000000
  0
LINE
  5
92
100
AcDbEntity
  8
A4
  6
CONTINUOUS
 62
7
100
AcDbLine
 10
211.0000920000004
 20
224.4999999999999
 30
0.0000000000000000
 11
189.0000920000004
 21
224.4999999999999
 31
0.0000000000000000
  0
LINE
  5
93
100
AcDbEntity
  8
A4
  6
CONTINUOUS
 62
7
100
AcDbLine
 10
189.0000920000004
 20
205.0000000000000
 30
0.0000000000000000
 11
189.0000920000004
 21
209.0000000000000
 31
0.0000000000000000
  0
LINE
  5
94
100
AcDbEntity
  8
A4
  6
CONTINUOUS
 62
7
100
AcDbLine
 10
189.0000920000004
 20
211.0000000000000
 30
0.0000000000000000
 11
189.0000920000004
 21
222.5000000000000
 31
0.0000000000000000
  0
LINE
  5
95
100
AcDbEntity
  8
A4
  6
CONTINUOUS
 62
7
100
AcDbLine
 10
189.0000920000000
 20
224.4999999999998
 30
0.0000000000000000
 11
189.0000920000000
 21
461.4999999999999
 31
0.0000000000000000
  0
LINE
  5
96
100
AcDbEntity
  8
A4
  6
CONTINUOUS
 62
7
100
AcDbLine
 10
211.0000920000004
 20
205.0000000000000
 30
0.0000000000000000
 11
211.0000920000004
 21
209.0000000000000
 31
0.0000000000000000
  0
LINE
  5
97
100
AcDbEntity
  8
A4
  6
CONTINUOUS
 62
7
100
AcDbLine
 10
211.0000920000004
 20
211.0000000000000
 30
0.0000000000000000
 11
211.0000920000004
 21
222.5000000000000
 31
0.0000000000000000
  0
LINE
  5
98
100
AcDbEntity
  8
A4
  6
CONTINUOUS
 62
7
100
AcDbLine
 10
211.0000920000000
 20
224.4999999999998
 30
0.0000000000000000
 11
211.0000920000000
 21
461.4999999999999
 31
0.0000000000000000
  0
LINE
  5
99
100
AcDbEntity
  8
A4
  6
CONTINUOUS
 62
7
100
AcDbLine
 10
195.0000920000000
 20
203.0000000000000
 30
0.0000000000000000
 11
195.0000920000000
 21
74.00000000000000
 31
0.0000000000000000
  0
LINE
  5
9A
100
AcDbEntity
  8
A4
  6
CONTINUOUS
 62
7
100
AcDbLine
 10
205.0000920000000
 20
203.0000000000000
 30
0.0000000000000000
 11
205.0000920000000
 21
74.00000000000000
 31
0.0000000000000000
  0
LINE
  5
9B
100
AcDbEntity
  8
A4
  6
CONTINUOUS
 62
7
100
AcDbLine
 10
45.00000000000000
 20
203.0000000000000
 30
0.0000000000000000
 11
45.00000000000000
 21
74.00000000000000
 31
0.0000000000000000
  0
LINE
  5
9C
100
AcDbEntity
  8
A4
  6
CONTINUOUS
 62
7
100
AcDbLine
 10
55.00000000000000
 20
203.0000000000000
 30
0.0000000000000000
 11
55.00000000000000
 21
74.00000000000000
 31
0.0000000000000000
  0
LINE
  5
9D
100
AcDbEntity
  8
A3
  6
PHANTOM
 62
1
100
AcDbLine
 10
40.99999999999996
 20
170.0000000000000
 30
0.0000000000000000
 11
40.99999999999996
 21
186.0000000000000
 31
0.0000000000000000
  0
LINE
  5
9E
100
AcDbEntity
  8
A3
  6
PHANTOM
 62
1
100
AcDbLine
 10
58.99999999999996
 20
170.0000000000000
 30
0.0000000000000000
 11
58.99999999999996
 21
186.0000000000000
 31
0.0000000000000000
  0
LINE
  5
9F
100
AcDbEntity
  8
A3
  6
PHANTOM
 62
1
100
AcDbLine
 10
60.99999999999996
 20
194.0000149999998
 30
0.0000000000000000
 11
38.99999999999996
 21
194.0000149999998
 31
0.0000000000000000
  0
LINE
  5
A0
100
AcDbEntity
  8
A3
  6
PHANTOM
 62
1
100
AcDbLine
 10
60.99999999999996
 20
190.8000030000000
 30
0.0000000000000000
 11
38.99999999999996
 21
190.8000030000000
 31
0.0000000000000000
  0
LINE
  5
A1
100
AcDbEntity
  8
A3
  6
PHANTOM
 62
1
100
AcDbLine
 10
38.99999999999996
 20
190.8000030000000
 30
0.0000000000000000
 11
38.99999999999996
 21
194.0000149999998
 31
0.0000000000000000
  0
LINE
  5
A2
100
AcDbEntity
  8
A3
  6
PHANTOM
 62
1
100
AcDbLine
 10
60.99999999999996
 20
190.8000030000000
 30
0.0000000000000000
 11
60.99999999999996
 21
194.0000149999998
 31
0.0000000000000000
  0
LINE
  5
A3
100
AcDbEntity
  8
A3
  6
PHANTOM
 62
1
100
AcDbLine
 10
55.99999999999997
 20
190.8000029999999
 30
0.0000000000000000
 11
59.00000000000000
 21
185.9999999999999
 31
0.0000000000000000
  0
LINE
  5
A4
100
AcDbEntity
  8
A3
  6
PHANTOM
 62
1
100
AcDbLine
 10
44.00000000000000
 20
190.8000030000001
 30
0.0000000000000000
 11
41.00000000000004
 21
186.0000000000002
 31
0.0000000000000000
  0
LINE
  5
A5
100
AcDbEntity
  8
A3
  6
PHANTOM
 62
1
100
AcDbLine
 10
58.99999999999974
 20
186.0000000000001
 30
0.0000000000000000
 11
60.99999999999974
 21
190.8000030000001
 31
0.0000000000000000
  0
LINE
  5
A6
100
AcDbEntity
  8
A3
  6
PHANTOM
 62
1
100
AcDbLine
 10
41.00000000000001
 20
186.0000000000000
 30
0.0000000000000000
 11
39.00000000000001
 21
190.8000030000000
 31
0.0000000000000000
  0
LINE
  5
A7
100
AcDbEntity
  8
A3
  6
PHANTOM
 62
1
100
AcDbLine
 10
61.00000000000003
 20
190.8000029999999
 30
0.0000000000000000
 11
59.00000000000004
 21
181.9999999999999
 31
0.0000000000000000
  0
LINE
  5
A8
100
AcDbEntity
  8
A3
  6
PHANTOM
 62
1
100
AcDbLine
 10
40.99999999999987
 20
181.9999999999999
 30
0.0000000000000000
 11
38.99999999999987
 21
190.8000029999999
 31
0.0000000000000000
  0
LINE
  5
A9
100
AcDbEntity
  8
A2
  6
CENTER
 62
4
100
AcDbLine
 10
267.5000759999998
 20
583.6858520000000
 30
0.0000000000000000
 11
126.0000610000000
 21
583.6858520000000
 31
0.0000000000000000
  0
LINE
  5
AA
100
AcDbEntity
  8
A2
  6
CENTER
 62
4
100
AcDbLine
 10
267.5000759999998
 20
-36.49089100000000
 30
0.0000000000000000
 11
126.0000610000000
 21
-36.49089100000000
 31
0.0000000000000000
  0
LINE
  5
AB
100
AcDbEntity
  8
A2
  6
CENTER
 62
4
100
AcDbLine
 10
50.00000000000000
 20
505.0000000000001
 30
0.0000000000000000
 11
50.00000000000000
 21
35.00000000000000
 31
0.0000000000000000
  0
LINE
  5
AC
100
AcDbEntity
  8
A2
  6
CENTER
 62
4
100
AcDbLine
 10
35.00000000000001
 20
490.0000000000001
 30
0.0000000000000000
 11
65.00000000000000
 21
490.0000000000001
 31
0.0000000000000000
  0
LINE
  5
AD
100
AcDbEntity
  8
A2
  6
CENTER
 62
4
100
AcDbLine
 10
35.00000000000000
 20
50.00000000000000
 30
0.0000000000000000
 11
65.00000000000000
 21
50.00000000000000
 31
0.0000000000000000
  0
LINE
  5
AE
100
AcDbEntity
  8
A2
  6
CENTER
 62
4
100
AcDbLine
 10
39.99999999999996
 20
170.0000000000000
 30
0.0000000000000000
 11
59.99999999999996
 21
170.0000000000000
 31
0.0000000000000000
  0
LINE
  5
AF
100
AcDbEntity
  8
A2
  6
CENTER
 62
4
100
AcDbLine
 10
375.0001829999999
 20
50.00000000000000
 30
0.0000000000000000
 11
345.0001830000001
 21
50.00000000000000
 31
0.0000000000000000
  0
LINE
  5
B0
100
AcDbEntity
  8
A2
  6
CENTER
 62
4
100
AcDbLine
 10
360.0001829999999
 20
505.0000000000001
 30
0.0000000000000000
 11
360.0001829999999
 21
35.00000000000000
 31
0.0000000000000000
  0
LINE
  5
B1
100
AcDbEntity
  8
A2
  6
CENTER
 62
4
100
AcDbLine
 10
375.0001829999999
 20
490.0000000000001
 30
0.0000000000000000
 11
345.0001830000001
 21
490.0000000000001
 31
0.0000000000000000
  0
LINE
  5
B2
100
AcDbEntity
  8
A4
  6
CONTINUOUS
 62
7
100
AcDbLine
 10
355.0001830000001
 20
203.0000000000000
 30
0.0000000000000000
 11
355.0001830000001
 21
74.00000000000001
 31
0.0000000000000000
  0
LINE
  5
B3
100
AcDbEntity
  8
A4
  6
CONTINUOUS
 62
7
100
AcDbLine
 10
365.0001830000001
 20
203.0000000000000
 30
0.0000000000000000
 11
365.0001830000001
 21
74.00000000000001
 31
0.0000000000000000
  0
LINE
  5
B4
100
AcDbEntity
  8
A4
  6
CONTINUOUS
 62
7
100
AcDbLine
 10
349.0001830000001
 20
224.4999999999998
 30
0.0000000000000000
 11
349.0001830000001
 21
461.4999999999999
 31
0.0000000000000000
  0
LINE
  5
B5
100
AcDbEntity
  8
A4
  6
CONTINUOUS
 62
7
100
AcDbLine
 10
349.0001830000003
 20
211.0000000000000
 30
0.0000000000000000
 11
349.0001830000003
 21
222.5000000000000
 31
0.0000000000000000
  0
LINE
  5
B6
100
AcDbEntity
  8
A4
  6
CONTINUOUS
 62
7
100
AcDbLine
 10
349.0001830000003
 20
205.0000000000000
 30
0.0000000000000000
 11
349.0001830000003
 21
209.0000000000000
 31
0.0000000000000000
  0
LINE
  5
B7
100
AcDbEntity
  8
A4
  6
CONTINUOUS
 62
7
100
AcDbLine
 10
371.0001829999999
 20
224.4999999999998
 30
0.0000000000000000
 11
371.0001829999999
 21
461.4999999999999
 31
0.0000000000000000
  0
LINE
  5
B8
100
AcDbEntity
  8
A4
  6
CONTINUOUS
 62
7
100
AcDbLine
 10
371.0001830000003
 20
211.0000000000000
 30
0.0000000000000000
 11
371.0001830000003
 21
222.5000000000000
 31
0.0000000000000000
  0
LINE
  5
B9
100
AcDbEntity
  8
A4
  6
CONTINUOUS
 62
7
100
AcDbLine
 10
371.0001830000003
 20
205.0000000000000
 30
0.0000000000000000
 11
371.0001830000003
 21
209.0000000000000
 31
0.0000000000000000
  0
LINE
  5
BA
100
AcDbEntity
  8
A4
  6
CONTINUOUS
 62
7
100
AcDbLine
 10
349.0001830000003
 20
224.4999999999999
 30
0.0000000000000000
 11
371.0001830000003
 21
224.4999999999999
 31
0.0000000000000000
  0
LINE
  5
BB
100
AcDbEntity
  8
A4
  6
CONTINUOUS
 62
7
100
AcDbLine
 10
349.0001830000003
 20
222.5000000000000
 30
0.0000000000000000
 11
371.0001830000003
 21
222.5000000000000
 31
0.0000000000000000
  0
LINE
  5
BC
100
AcDbEntity
  8
A4
  6
CONTINUOUS
 62
7
100
AcDbLine
 10
349.0001830000003
 20
211.0000000000000
 30
0.0000000000000000
 11
371.0001830000003
 21
211.0000000000000
 31
0.0000000000000000
  0
LINE
  5
BD
100
AcDbEntity
  8
A4
  6
CONTINUOUS
 62
7
100
AcDbLine
 10
349.0001830000003
 20
209.0000000000000
 30
0.0000000000000000
 11
371.0001830000003
 21
209.0000000000000
 31
0.0000000000000000
  0
LINE
  5
BE
100
AcDbEntity
  8
A4
  6
CONTINUOUS
 62
7
100
AcDbLine
 10
370.0001830000003
 20
205.0000000000000
 30
0.0000000000000000
 11
370.0001830000003
 21
203.0000000000000
 31
0.0000000000000000
  0
LINE
  5
BF
100
AcDbEntity
  8
A4
  6
CONTINUOUS
 62
7
100
AcDbLine
 10
350.0001830000003
 20
205.0000000000000
 30
0.0000000000000000
 11
350.0001830000003
 21
203.0000000000000
 31
0.0000000000000000
  0
LINE
  5
C0
100
AcDbEntity
  8
A4
  6
CONTINUOUS
 62
7
100
AcDbLine
 10
350.0001830000003
 20
203.0000000000000
 30
0.0000000000000000
 11
370.0001830000003
 21
203.0000000000000
 31
0.0000000000000000
  0
LINE
  5
C1
100
AcDbEntity
  8
A4
  6
CONTINUOUS
 62
7
100
AcDbLine
 10
349.0001830000003
 20
205.0000000000000
 30
0.0000000000000000
 11
371.0001830000003
 21
205.0000000000000
 31
0.0000000000000000
  0
LINE
  5
C2
100
AcDbEntity
  8
A4
  6
CONTINUOUS
 62
7
100
AcDbLine
 10
349.0001829999999
 20
461.4999999999999
 30
0.0000000000000000
 11
350.0001829999998
 21
463.4999999999999
 31
0.0000000000000000
  0
LINE
  5
C3
100
AcDbEntity
  8
A4
  6
CONTINUOUS
 62
7
100
AcDbLine
 10
371.0001829999997
 20
461.4999999999999
 30
0.0000000000000000
 11
370.0001829999999
 21
463.4999999999999
 31
0.0000000000000000
  0
LINE
  5
C4
100
AcDbEntity
  8
A4
  6
CONTINUOUS
 62
7
100
AcDbLine
 10
353.0001829999998
 20
463.4999999999997
 30
0.0000000000000000
 11
355.5001829999999
 21
465.9999999999998
 31
0.0000000000000000
  0
LINE
  5
C5
100
AcDbEntity
  8
A4
  6
CONTINUOUS
 62
7
100
AcDbLine
 10
367.0001829999997
 20
463.4999999999997
 30
0.0000000000000000
 11
364.5001829999997
 21
465.9999999999997
 31
0.0000000000000000
  0
LINE
  5
C6
100
AcDbEntity
  8
A4
  6
CONTINUOUS
 62
7
100
AcDbLine
 10
349.0001830000001
 20
461.4999999999999
 30
0.0000000000000000
 11
371.0001829999999
 21
461.4999999999999
 31
0.0000000000000000
  0
LINE
  5
C7
100
AcDbEntity
  8
A4
  6
CONTINUOUS
 62
7
100
AcDbLine
 10
350.0001829999999
 20
463.4999999999999
 30
0.0000000000000000
 11
370.0001830000001
 21
463.4999999999999
 31
0.0000000000000000
  0
LINE
  5
C8
100
AcDbEntity
  8
A4
  6
CONTINUOUS
 62
7
100
AcDbLine
 10
351.0001830000001
 20
465.9999999999999
 30
0.0000000000000000
 11
369.0001829999999
 21
465.9999999999999
 31
0.0000000000000000
  0
LINE
  5
C9
100
AcDbEntity
  8
A4
  6
CONTINUOUS
 62
7
100
AcDbLine
 10
351.0001830000001
 20
490.0000000000001
 30
0.0000000000000000
 11
351.0001830000001
 21
475.0785519999999
 31
0.0000000000000000
  0
LINE
  5
CA
100
AcDbEntity
  8
A4
  6
CONTINUOUS
 62
7
100
AcDbLine
 10
369.0001829999999
 20
490.0000000000001
 30
0.0000000000000000
 11
369.0001829999999
 21
475.0785519999999
 31
0.0000000000000000
  0
LINE
  5
CB
100
AcDbEntity
  8
A4
  6
CONTINUOUS
 62
7
100
AcDbLine
 10
351.0001830000001
 20
74.00000000000000
 30
0.0000000000000000
 11
369.0002140000001
 21
74.00000000000000
 31
0.0000000000000000
  0
LINE
  5
CC
100
AcDbEntity
  8
A4
  6
CONTINUOUS
 62
7
100
AcDbLine
 10
351.0001830000001
 20
50.00000000000000
 30
0.0000000000000000
 11
351.0001830000001
 21
64.92146299999990
 31
0.0000000000000000
  0
LINE
  5
CD
100
AcDbEntity
  8
A4
  6
CONTINUOUS
 62
7
100
AcDbLine
 10
369.0001829999999
 20
50.00000000000000
 30
0.0000000000000000
 11
369.0001829999999
 21
64.92146299999990
 31
0.0000000000000000
  0
LINE
  5
CE
100
AcDbEntity
  8
A4
  6
CONTINUOUS
 62
7
100
AcDbLine
 10
351.0001830000002
 20
475.0785520000001
 30
0.0000000000000000
 11
349.0001830000002
 21
467.9999999999999
 31
0.0000000000000000
  0
LINE
  5
CF
100
AcDbEntity
  8
A4
  6
CONTINUOUS
 62
7
100
AcDbLine
 10
369.0001829999999
 20
475.0785519999999
 30
0.0000000000000000
 11
371.0001829999999
 21
467.9999999999999
 31
0.0000000000000000
  0
LINE
  5
D0
100
AcDbEntity
  8
A4
  6
CONTINUOUS
 62
7
100
AcDbLine
 10
369.0001829999999
 20
64.92146300000002
 30
0.0000000000000000
 11
371.0001829999999
 21
72.00000000000000
 31
0.0000000000000000
  0
LINE
  5
D1
100
AcDbEntity
  8
A4
  6
CONTINUOUS
 62
7
100
AcDbLine
 10
351.0001830000002
 20
64.92146300000002
 30
0.0000000000000000
 11
349.0001830000002
 21
71.99999999999991
 31
0.0000000000000000
  0
LINE
  5
D2
100
AcDbEntity
  8
A2
  6
CENTER
 62
4
100
AcDbLine
 10
370.0001830000001
 20
170.0000000000000
 30
0.0000000000000000
 11
350.0001829999999
 21
170.0000000000000
 31
0.0000000000000000
  0
LINE
  5
D3
100
AcDbEntity
  8
A3
  6
PHANTOM
 62
1
100
AcDbLine
 10
369.0001829999997
 20
184.9214629999999
 30
0.0000000000000000
 11
371.0001829999997
 21
192.0000150000000
 31
0.0000000000000000
  0
LINE
  5
D4
100
AcDbEntity
  8
A3
  6
PHANTOM
 62
1
100
AcDbLine
 10
351.0001830000001
 20
184.9214630000000
 30
0.0000000000000000
 11
349.0001830000001
 21
192.0000150000000
 31
0.0000000000000000
  0
LINE
  5
D5
100
AcDbEntity
  8
A3
  6
PHANTOM
 62
1
100
AcDbLine
 10
351.0001830000001
 20
194.0000149999998
 30
0.0000000000000000
 11
369.0002140000001
 21
194.0000149999998
 31
0.0000000000000000
  0
LINE
  5
D6
100
AcDbEntity
  8
A3
  6
PHANTOM
 62
1
100
AcDbLine
 10
351.0001830000001
 20
170.0000000000000
 30
0.0000000000000000
 11
351.0001830000001
 21
184.9214629999999
 31
0.0000000000000000
  0
LINE
  5
D7
100
AcDbEntity
  8
A3
  6
PHANTOM
 62
1
100
AcDbLine
 10
369.0001829999999
 20
170.0000000000000
 30
0.0000000000000000
 11
369.0001829999999
 21
184.9214629999999
 31
0.0000000000000000
  0
LINE
  5
D8
100
AcDbEntity
  8
A4
  6
CONTINUOUS
 62
7
100
AcDbLine
 10
207.0000920000000
 20
-27.49089100000000
 30
0.0000000000000000
 11
207.0000920000000
 21
-45.49089100000000
 31
0.0000000000000000
  0
LINE
  5
D9
100
AcDbEntity
  8
A4
  6
CONTINUOUS
 62
7
100
AcDbLine
 10
203.8000950000001
 20
-27.49089100000000
 30
0.0000000000000000
 11
207.0000920000000
 21
-27.49089100000000
 31
0.0000000000000000
  0
LINE
  5
DA
100
AcDbEntity
  8
A4
  6
CONTINUOUS
 62
7
100
AcDbLine
 10
203.8000950000001
 20
-45.49089100000000
 30
0.0000000000000000
 11
207.0000920000000
 21
-45.49089100000000
 31
0.0000000000000000
  0
LINE
  5
DB
100
AcDbEntity
  8
A4
  6
CONTINUOUS
 62
7
100
AcDbLine
 10
203.8000950000001
 20
-27.49089100000000
 30
0.0000000000000000
 11
203.8000950000001
 21
-45.49089100000000
 31
0.0000000000000000
  0
LINE
  5
DC
100
AcDbEntity
  8
A2
  6
CENTER
 62
4
100
AcDbLine
 10
200.0000920000000
 20
-14.49089100000000
 30
0.0000000000000000
 11
200.0000920000000
 21
-58.49089100000000
 31
0.0000000000000000
  0
LINE
  5
DD
100
AcDbEntity
  8
A4
  6
CONTINUOUS
 62
7
100
AcDbLine
 10
207.0000920000000
 20
574.6858520000000
 30
0.0000000000000000
 11
207.0000920000000
 21
592.6858520000000
 31
0.0000000000000000
  0
LINE
  5
DE
100
AcDbEntity
  8
A2
  6
CENTER
 62
4
100
AcDbLine
 10
200.0000920000000
 20
561.6858519999998
 30
0.0000000000000000
 11
200.0000920000000
 21
605.6858520000000
 31
0.0000000000000000
  0
LINE
  5
DF
100
AcDbEntity
  8
A4
  6
CONTINUOUS
 62
7
100
AcDbLine
 10
196.1705930000000
 20
594.6592400000001
 30
0.0000000000000000
 11
203.8000950000000
 21
589.6858520000004
 31
0.0000000000000000
  0
LINE
  5
E0
100
AcDbEntity
  8
A4
  6
CONTINUOUS
 62
7
100
AcDbLine
 10
196.1705930000001
 20
572.7125240000003
 30
0.0000000000000000
 11
203.8000950000001
 21
577.6858520000003
 31
0.0000000000000000
  0
LINE
  5
E1
100
AcDbEntity
  8
A4
  6
CONTINUOUS
 62
7
100
AcDbLine
 10
203.8000950000001
 20
574.6858520000000
 30
0.0000000000000000
 11
207.0000920000000
 21
574.6858520000000
 31
0.0000000000000000
  0
LINE
  5
E2
100
AcDbEntity
  8
A4
  6
CONTINUOUS
 62
7
100
AcDbLine
 10
203.8000950000001
 20
592.6858520000000
 30
0.0000000000000000
 11
207.0000920000000
 21
592.6858520000000
 31
0.0000000000000000
  0
LINE
  5
E3
100
AcDbEntity
  8
A4
  6
CONTINUOUS
 62
7
100
AcDbLine
 10
203.8000950000001
 20
574.6858520000000
 30
0.0000000000000000
 11
203.8000950000001
 21
592.6858520000000
 31
0.0000000000000000
  0
LINE
  5
E4
100
AcDbEntity
  8
A4
  6
CONTINUOUS
 62
7
100
AcDbLine
 10
207.0000920000000
 20
592.6858519999996
 30
0.0000000000000000
 11
196.1705930000000
 21
594.6592399999996
 31
0.0000000000000000
  0
LINE
  5
E5
100
AcDbEntity
  8
A4
  6
CONTINUOUS
 62
7
100
AcDbLine
 10
207.0000919999999
 20
574.6858520000000
 30
0.0000000000000000
 11
196.1705929999997
 21
572.7125240000000
 31
0.0000000000000000
  0
LINE
  5
E6
100
AcDbEntity
  8
A4
  6
CONTINUOUS
 62
7
100
AcDbLine
 10
207.0000919999999
 20
-27.49089099999998
 30
0.0000000000000000
 11
196.1713870000000
 21
-25.51753999999999
 31
0.0000000000000000
  0
LINE
  5
E7
100
AcDbEntity
  8
A4
  6
CONTINUOUS
 62
7
100
AcDbLine
 10
196.1713710000000
 20
-25.51753699999982
 30
0.0000000000000000
 11
203.8000949999999
 21
-30.49089099999978
 31
0.0000000000000000
  0
LINE
  5
E8
100
AcDbEntity
  8
A4
  6
CONTINUOUS
 62
7
100
AcDbLine
 10
196.1713710000000
 20
-47.46424500000010
 30
0.0000000000000000
 11
203.8000950000001
 21
-42.49089100000002
 31
0.0000000000000000
  0
LINE
  5
E9
100
AcDbEntity
  8
A4
  6
CONTINUOUS
 62
7
100
AcDbLine
 10
207.0000920000001
 20
-45.49089099999993
 30
0.0000000000000000
 11
196.1713870000002
 21
-47.46424199999994
 31
0.0000000000000000
  0
LINE
  5
EA
100
AcDbEntity
  8
A4
  6
CONTINUOUS
 62
7
100
AcDbLine
 10
505.0003049999998
 20
203.0000000000000
 30
0.0000000000000000
 11
505.0003049999998
 21
74.00000000000000
 31
0.0000000000000000
  0
LINE
  5
EB
100
AcDbEntity
  8
A4
  6
CONTINUOUS
 62
7
100
AcDbLine
 10
515.0003050000000
 20
203.0000000000000
 30
0.0000000000000000
 11
515.0003050000000
 21
74.00000000000000
 31
0.0000000000000000
  0
LINE
  5
EC
100
AcDbEntity
  8
A4
  6
CONTINUOUS
 62
7
100
AcDbLine
 10
499.0003049999998
 20
224.4999999999998
 30
0.0000000000000000
 11
499.0003049999998
 21
461.4999999999999
 31
0.0000000000000000
  0
LINE
  5
ED
100
AcDbEntity
  8
A4
  6
CONTINUOUS
 62
7
100
AcDbLine
 10
499.0003050000003
 20
211.0000000000000
 30
0.0000000000000000
 11
499.0003050000003
 21
222.5000000000000
 31
0.0000000000000000
  0
LINE
  5
EE
100
AcDbEntity
  8
A4
  6
CONTINUOUS
 62
7
100
AcDbLine
 10
499.0003050000003
 20
205.0000000000000
 30
0.0000000000000000
 11
499.0003050000003
 21
209.0000000000000
 31
0.0000000000000000
  0
LINE
  5
EF
100
AcDbEntity
  8
A4
  6
CONTINUOUS
 62
7
100
AcDbLine
 10
521.0003049999998
 20
224.4999999999998
 30
0.0000000000000000
 11
521.0003049999998
 21
461.4999999999999
 31
0.0000000000000000
  0
LINE
  5
F0
100
AcDbEntity
  8
A4
  6
CONTINUOUS
 62
7
100
AcDbLine
 10
521.0003050000003
 20
211.0000000000000
 30
0.0000000000000000
 11
521.0003050000003
 21
222.5000000000000
 31
0.0000000000000000
  0
LINE
  5
F1
100
AcDbEntity
  8
A4
  6
CONTINUOUS
 62
7
100
AcDbLine
 10
521.0003050000003
 20
205.0000000000000
 30
0.0000000000000000
 11
521.0003050000003
 21
209.0000000000000
 31
0.0000000000000000
  0
LINE
  5
F2
100
AcDbEntity
  8
A4
  6
CONTINUOUS
 62
7
100
AcDbLine
 10
499.0003050000003
 20
224.4999999999999
 30
0.0000000000000000
 11
521.0003050000003
 21
224.4999999999999
 31
0.0000000000000000
  0
LINE
  5
F3
100
AcDbEntity
  8
A4
  6
CONTINUOUS
 62
7
100
AcDbLine
 10
499.0003050000003
 20
222.5000000000000
 30
0.0000000000000000
 11
521.0003050000003
 21
222.5000000000000
 31
0.0000000000000000
  0
LINE
  5
F4
100
AcDbEntity
  8
A4
  6
CONTINUOUS
 62
7
100
AcDbLine
 10
499.0003050000003
 20
211.0000000000000
 30
0.0000000000000000
 11
521.0003050000003
 21
211.0000000000000
 31
0.0000000000000000
  0
LINE
  5
F5
100
AcDbEntity
  8
A4
  6
CONTINUOUS
 62
7
100
AcDbLine
 10
499.0003050000003
 20
209.0000000000000
 30
0.0000000000000000
 11
521.0003050000003
 21
209.0000000000000
 31
0.0000000000000000
  0
LINE
  5
F6
100
AcDbEntity
  8
A4
  6
CONTINUOUS
 62
7
100
AcDbLine
 10
520.0003050000003
 20
205.0000000000000
 30
0.0000000000000000
 11
520.0003050000003
 21
203.0000000000000
 31
0.0000000000000000
  0
LINE
  5
F7
100
AcDbEntity
  8
A4
  6
CONTINUOUS
 62
7
100
AcDbLine
 10
500.0003050000003
 20
205.0000000000000
 30
0.0000000000000000
 11
500.0003050000003
 21
203.0000000000000
 31
0.0000000000000000
  0
LINE
  5
F8
100
AcDbEntity
  8
A4
  6
CONTINUOUS
 62
7
100
AcDbLine
 10
500.0003050000003
 20
203.0000000000000
 30
0.0000000000000000
 11
520.0003050000003
 21
203.0000000000000
 31
0.0000000000000000
  0
LINE
  5
F9
100
AcDbEntity
  8
A4
  6
CONTINUOUS
 62
7
100
AcDbLine
 10
499.0003050000003
 20
205.0000000000000
 30
0.0000000000000000
 11
521.0003050000003
 21
205.0000000000000
 31
0.0000000000000000
  0
LINE
  5
FA
100
AcDbEntity
  8
A2
  6
CENTER
 62
4
100
AcDbLine
 10
510.0003050000000
 20
505.0000000000001
 30
0.0000000000000000
 11
510.0003050000000
 21
35.00000000000000
 31
0.0000000000000000
  0
LINE
  5
FB
100
AcDbEntity
  8
A4
  6
CONTINUOUS
 62
7
100
AcDbLine
 10
521.0003049999997
 20
461.4999999999999
 30
0.0000000000000000
 11
520.0003049999997
 21
463.4999999999998
 31
0.0000000000000000
  0
LINE
  5
FC
100
AcDbEntity
  8
A4
  6
CONTINUOUS
 62
7
100
AcDbLine
 10
499.0003049999994
 20
461.5000000000000
 30
0.0000000000000000
 11
500.0003049999996
 21
463.5000000000003
 31
0.0000000000000000
  0
LINE
  5
FD
100
AcDbEntity
  8
A4
  6
CONTINUOUS
 62
7
100
AcDbLine
 10
500.0003049999998
 20
463.4999999999999
 30
0.0000000000000000
 11
520.0003049999998
 21
463.4999999999999
 31
0.0000000000000000
  0
LINE
  5
FE
100
AcDbEntity
  8
A4
  6
CONTINUOUS
 62
7
100
AcDbLine
 10
499.0003049999998
 20
461.4999999999999
 30
0.0000000000000000
 11
521.0003049999998
 21
461.4999999999999
 31
0.0000000000000000
  0
LINE
  5
FF
100
AcDbEntity
  8
A4
  6
CONTINUOUS
 62
7
100
AcDbLine
 10
503.0003049999997
 20
463.4999999999998
 30
0.0000000000000000
 11
505.9431160000000
 21
466.4428110000001
 31
0.0000000000000000
  0
LINE
  5
100
100
AcDbEntity
  8
A4
  6
CONTINUOUS
 62
7
100
AcDbLine
 10
517.0003049999998
 20
463.4999999999999
 30
0.0000000000000000
 11
514.5003050000001
 21
465.9999999999998
 31
0.0000000000000000
  0
LINE
  5
101
100
AcDbEntity
  8
A4
  6
CONTINUOUS
 62
7
100
AcDbLine
 10
506.2002870000001
 20
499.0000000000001
 30
0.0000000000000000
 11
503.0003049999998
 21
499.0000000000001
 31
0.0000000000000000
  0
LINE
  5
102
100
AcDbEntity
  8
A4
  6
CONTINUOUS
 62
7
100
AcDbLine
 10
503.0003049999998
 20
470.9999999999999
 30
0.0000000000000000
 11
503.0003049999998
 21
499.0000000000001
 31
0.0000000000000000
  0
LINE
  5
103
100
AcDbEntity
  8
A4
  6
CONTINUOUS
 62
7
100
AcDbLine
 10
511.2420040000000
 20
466.8551020000000
 30
0.0000000000000000
 11
505.3433839999998
 21
470.7336420000001
 31
0.0000000000000000
  0
LINE
  5
104
100
AcDbEntity
  8
A4
  6
CONTINUOUS
 62
7
100
AcDbLine
 10
513.0001219999995
 20
469.5288689999996
 30
0.0000000000000000
 11
507.1014709999995
 21
473.4074399999996
 31
0.0000000000000000
  0
LINE
  5
105
100
AcDbEntity
  8
A4
  6
CONTINUOUS
 62
7
100
AcDbLine
 10
506.2002870000001
 20
475.0785519999999
 30
0.0000000000000000
 11
506.2002870000001
 21
499.0000000000001
 31
0.0000000000000000
  0
LINE
  5
106
100
AcDbEntity
  8
A4
  6
CONTINUOUS
 62
7
100
AcDbLine
 10
517.5003049999998
 20
465.9999999999999
 30
0.0000000000000000
 11
517.5003049999998
 21
469.1999809999999
 31
0.0000000000000000
  0
LINE
  5
107
100
AcDbEntity
  8
A4
  6
CONTINUOUS
 62
7
100
AcDbLine
 10
517.5003049999998
 20
469.1999809999999
 30
0.0000000000000000
 11
514.0989380000001
 21
469.1999809999999
 31
0.0000000000000000
  0
LINE
  5
108
100
AcDbEntity
  8
A4
  6
CONTINUOUS
 62
7
100
AcDbLine
 10
517.5003049999998
 20
465.9999999999999
 30
0.0000000000000000
 11
508.0003049999998
 21
465.9999999999999
 31
0.0000000000000000
  0
LINE
  5
109
100
AcDbEntity
  8
A3
  6
PHANTOM
 62
1
100
AcDbLine
 10
506.2002870000001
 20
161.0000000000000
 30
0.0000000000000000
 11
503.0003049999998
 21
161.0000000000000
 31
0.0000000000000000
  0
LINE
  5
10A
100
AcDbEntity
  8
A3
  6
PHANTOM
 62
1
100
AcDbLine
 10
503.0003049999998
 20
189.0000149999999
 30
0.0000000000000000
 11
503.0003049999998
 21
161.0000000000000
 31
0.0000000000000000
  0
LINE
  5
10B
100
AcDbEntity
  8
A3
  6
PHANTOM
 62
1
100
AcDbLine
 10
511.2420040000002
 20
193.1448820000000
 30
0.0000000000000000
 11
505.3433839999998
 21
189.2663419999999
 31
0.0000000000000000
  0
LINE
  5
10C
100
AcDbEntity
  8
A3
  6
PHANTOM
 62
1
100
AcDbLine
 10
513.0001220000001
 20
190.4711150000001
 30
0.0000000000000000
 11
507.1014710000002
 21
186.5925590000001
 31
0.0000000000000000
  0
LINE
  5
10D
100
AcDbEntity
  8
A3
  6
PHANTOM
 62
1
100
AcDbLine
 10
506.2002870000001
 20
184.9214629999999
 30
0.0000000000000000
 11
506.2002870000001
 21
161.0000000000000
 31
0.0000000000000000
  0
LINE
  5
10E
100
AcDbEntity
  8
A3
  6
PHANTOM
 62
1
100
AcDbLine
 10
517.5003049999998
 20
194.0000149999998
 30
0.0000000000000000
 11
517.5003049999998
 21
190.8000030000000
 31
0.0000000000000000
  0
LINE
  5
10F
100
AcDbEntity
  8
A3
  6
PHANTOM
 62
1
100
AcDbLine
 10
517.5003049999998
 20
190.8000030000000
 30
0.0000000000000000
 11
514.0989380000001
 21
190.8000030000000
 31
0.0000000000000000
  0
LINE
  5
110
100
AcDbEntity
  8
A3
  6
PHANTOM
 62
1
100
AcDbLine
 10
517.5003049999998
 20
194.0000149999998
 30
0.0000000000000000
 11
505.0003049999998
 21
194.0000149999998
 31
0.0000000000000000
  0
LINE
  5
111
100
AcDbEntity
  8
A4
  6
CONTINUOUS
 62
7
100
AcDbLine
 10
262.5000759999998
 20
-28.49089100000000
 30
0.0000000000000000
 11
262.5000759999998
 21
-44.49089100000000
 31
0.0000000000000000
  0
LINE
  5
112
100
AcDbEntity
  8
A4
  6
CONTINUOUS
 62
7
100
AcDbLine
 10
262.0000759999998
 20
-28.49089100000000
 30
0.0000000000000000
 11
262.0000759999998
 21
-44.49089100000000
 31
0.0000000000000000
  0
LINE
  5
113
100
AcDbEntity
  8
A4
  6
CONTINUOUS
 62
7
100
AcDbLine
 10
262.5000759999998
 20
-44.49089100000000
 30
0.0000000000000000
 11
262.0000759999998
 21
-44.49089100000000
 31
0.0000000000000000
  0
LINE
  5
114
100
AcDbEntity
  8
A4
  6
CONTINUOUS
 62
7
100
AcDbLine
 10
262.5000759999998
 20
-28.49089100000000
 30
0.0000000000000000
 11
262.0000759999998
 21
-28.49089100000000
 31
0.0000000000000000
  0
LINE
  5
115
100
AcDbEntity
  8
A2
  6
CENTER
 62
4
100
AcDbLine
 10
132.0000459999999
 20
-24.99089100000000
 30
0.0000000000000000
 11
132.0000459999999
 21
-47.99089100000000
 31
0.0000000000000000
  0
LINE
  5
116
100
AcDbEntity
  8
A4
  6
CONTINUOUS
 62
7
100
AcDbLine
 10
369.0001829999999
 20
50.75000000000000
 30
0.0000000000000000
 11
369.1446040000001
 21
50.75000000000000
 31
0.0000000000000000
  0
LINE
  5
117
100
AcDbEntity
  8
A4
  6
CONTINUOUS
 62
7
100
AcDbLine
 10
368.9688799999999
 20
49.24999999999969
 30
0.0000000000000000
 11
369.1446040000001
 21
49.24999999999969
 31
0.0000000000000000
  0
LINE
  5
118
100
AcDbEntity
  8
A4
  6
CONTINUOUS
 62
7
100
AcDbLine
 10
350.8557609999998
 20
50.75000000000000
 30
0.0000000000000000
 11
351.0001830000001
 21
50.75000000000000
 31
0.0000000000000000
  0
LINE
  5
119
100
AcDbEntity
  8
A4
  6
CONTINUOUS
 62
7
100
AcDbLine
 10
350.8557609999998
 20
49.24999999999969
 30
0.0000000000000000
 11
351.0001830000001
 21
49.24999999999969
 31
0.0000000000000000
  0
LINE
  5
11A
100
AcDbEntity
  8
A4
  6
CONTINUOUS
 62
7
100
AcDbLine
 10
354.7784540000001
 20
42.45570300000014
 30
0.0000000000000000
 11
354.8663160000000
 21
42.60787900000025
 31
0.0000000000000000
  0
LINE
  5
11B
100
AcDbEntity
  8
A4
  6
CONTINUOUS
 62
7
100
AcDbLine
 10
356.0774919999999
 20
41.70570299999997
 30
0.0000000000000000
 11
356.1653559999999
 21
41.85787900000000
 31
0.0000000000000000
  0
LINE
  5
11C
100
AcDbEntity
  8
A4
  6
CONTINUOUS
 62
7
100
AcDbLine
 10
365.1340479999998
 20
42.60787900000001
 30
0.0000000000000000
 11
365.2219119999998
 21
42.45570299999994
 31
0.0000000000000000
  0
LINE
  5
11D
100
AcDbEntity
  8
A4
  6
CONTINUOUS
 62
7
100
AcDbLine
 10
363.8350110000001
 20
41.85787900000007
 30
0.0000000000000000
 11
363.9228740000000
 21
41.70570300000010
 31
0.0000000000000000
  0
LINE
  5
11E
100
AcDbEntity
  8
A4
  6
CONTINUOUS
 62
7
100
AcDbLine
 10
56.05648799999994
 20
50.75000000000000
 30
0.0000000000000000
 11
59.14444000000003
 21
50.75000000000000
 31
0.0000000000000000
  0
LINE
  5
11F
100
AcDbEntity
  8
A4
  6
CONTINUOUS
 62
7
100
AcDbLine
 10
56.05648799999994
 20
49.24999999999969
 30
0.0000000000000000
 11
59.14444000000003
 21
49.24999999999969
 31
0.0000000000000000
  0
LINE
  5
120
100
AcDbEntity
  8
A4
  6
CONTINUOUS
 62
7
100
AcDbLine
 10
40.85559100000000
 20
50.75000000000000
 30
0.0000000000000000
 11
43.94354199999998
 21
50.75000000000000
 31
0.0000000000000000
  0
LINE
  5
121
100
AcDbEntity
  8
A4
  6
CONTINUOUS
 62
7
100
AcDbLine
 10
40.85559100000000
 20
49.24999999999969
 30
0.0000000000000000
 11
43.94354199999998
 21
49.24999999999969
 31
0.0000000000000000
  0
LINE
  5
122
100
AcDbEntity
  8
A4
  6
CONTINUOUS
 62
7
100
AcDbLine
 10
44.77829000000003
 20
42.45570299999999
 30
0.0000000000000000
 11
46.32226600000008
 21
45.12994299999987
 31
0.0000000000000000
  0
LINE
  5
123
100
AcDbEntity
  8
A4
  6
CONTINUOUS
 62
7
100
AcDbLine
 10
46.07733200000006
 20
41.70570299999998
 30
0.0000000000000000
 11
47.62130700000012
 21
44.37994300000005
 31
0.0000000000000000
  0
LINE
  5
124
100
AcDbEntity
  8
A4
  6
CONTINUOUS
 62
7
100
AcDbLine
 10
52.37872299999982
 20
55.62007100000000
 30
0.0000000000000000
 11
53.92269899999980
 21
58.29431100000019
 31
0.0000000000000000
  0
LINE
  5
125
100
AcDbEntity
  8
A4
  6
CONTINUOUS
 62
7
100
AcDbLine
 10
53.67776500000011
 20
54.87007100000007
 30
0.0000000000000000
 11
55.22174100000005
 21
57.54431100000001
 31
0.0000000000000000
  0
LINE
  5
126
100
AcDbEntity
  8
A4
  6
CONTINUOUS
 62
7
100
AcDbLine
 10
53.67776499999996
 20
45.12994299999966
 30
0.0000000000000000
 11
55.22174099999987
 21
42.45570299999996
 31
0.0000000000000000
  0
LINE
  5
127
100
AcDbEntity
  8
A4
  6
CONTINUOUS
 62
7
100
AcDbLine
 10
52.37872300000010
 20
44.37994299999989
 30
0.0000000000000000
 11
53.92269900000007
 21
41.70570299999996
 31
0.0000000000000000
  0
LINE
  5
128
100
AcDbEntity
  8
A4
  6
CONTINUOUS
 62
7
100
AcDbLine
 10
46.07733200000002
 20
58.29431099999996
 30
0.0000000000000000
 11
47.62130700000004
 21
55.62007099999974
 31
0.0000000000000000
  0
LINE
  5
129
100
AcDbEntity
  8
A4
  6
CONTINUOUS
 62
7
100
AcDbLine
 10
44.77829000000001
 20
57.54431100000004
 30
0.0000000000000000
 11
46.32226599999998
 21
54.87007100000010
 31
0.0000000000000000
  0
LINE
  5
12A
100
AcDbEntity
  8
A4
  6
CONTINUOUS
 62
7
100
AcDbLine
 10
262.5000759999998
 20
591.6858520000000
 30
0.0000000000000000
 11
262.5000759999998
 21
575.6858520000000
 31
0.0000000000000000
  0
LINE
  5
12B
100
AcDbEntity
  8
A4
  6
CONTINUOUS
 62
7
100
AcDbLine
 10
262.0000759999998
 20
591.6858520000000
 30
0.0000000000000000
 11
262.0000759999998
 21
575.6858520000000
 31
0.0000000000000000
  0
LINE
  5
12C
100
AcDbEntity
  8
A4
  6
CONTINUOUS
 62
7
100
AcDbLine
 10
262.5000759999998
 20
575.6858520000000
 30
0.0000000000000000
 11
262.0000759999998
 21
575.6858520000000
 31
0.0000000000000000
  0
LINE
  5
12D
100
AcDbEntity
  8
A4
  6
CONTINUOUS
 62
7
100
AcDbLine
 10
262.5000759999998
 20
591.6858520000000
 30
0.0000000000000000
 11
262.0000759999998
 21
591.6858520000000
 31
0.0000000000000000
  0
LINE
  5
12E
100
AcDbEntity
  8
A2
  6
CENTER
 62
4
100
AcDbLine
 10
132.0000459999999
 20
595.1858520000000
 30
0.0000000000000000
 11
132.0000459999999
 21
572.1858520000000
 31
0.0000000000000000
  0
LINE
  5
12F
100
AcDbEntity
  8
A2
  6
CENTER
 62
4
100
AcDbLine
 10
442.5003049999998
 20
50.00000000000000
 30
0.0000000000000000
 11
584.0003359999998
 21
50.00000000000000
 31
0.0000000000000000
  0
LINE
  5
130
100
AcDbEntity
  8
A2
  6
CENTER
 62
4
100
AcDbLine
 10
442.5003049999998
 20
490.0000000000001
 30
0.0000000000000000
 11
584.0003359999998
 21
490.0000000000001
 31
0.0000000000000000
  0
LINE
  5
131
100
AcDbEntity
  8
A4
  6
CONTINUOUS
 62
7
100
AcDbLine
 10
447.5003050000000
 20
58.00000000000000
 30
0.0000000000000000
 11
447.5003050000000
 21
41.99999999999969
 31
0.0000000000000000
  0
LINE
  5
132
100
AcDbEntity
  8
A4
  6
CONTINUOUS
 62
7
100
AcDbLine
 10
448.0003050000000
 20
58.00000000000000
 30
0.0000000000000000
 11
448.0003050000000
 21
41.99999999999969
 31
0.0000000000000000
  0
LINE
  5
133
100
AcDbEntity
  8
A4
  6
CONTINUOUS
 62
7
100
AcDbLine
 10
447.5003050000000
 20
41.99999999999969
 30
0.0000000000000000
 11
448.0003050000000
 21
41.99999999999969
 31
0.0000000000000000
  0
LINE
  5
134
100
AcDbEntity
  8
A4
  6
CONTINUOUS
 62
7
100
AcDbLine
 10
447.5003050000000
 20
58.00000000000000
 30
0.0000000000000000
 11
448.0003050000000
 21
58.00000000000000
 31
0.0000000000000000
  0
LINE
  5
135
100
AcDbEntity
  8
A2
  6
CENTER
 62
4
100
AcDbLine
 10
578.0003359999998
 20
61.50000000000000
 30
0.0000000000000000
 11
578.0003359999998
 21
38.50000699999998
 31
0.0000000000000000
  0
LINE
  5
136
100
AcDbEntity
  8
A4
  6
CONTINUOUS
 62
7
100
AcDbLine
 10
447.5003050000000
 20
498.0000000000001
 30
0.0000000000000000
 11
447.5003050000000
 21
482.0000000000001
 31
0.0000000000000000
  0
LINE
  5
137
100
AcDbEntity
  8
A4
  6
CONTINUOUS
 62
7
100
AcDbLine
 10
448.0003050000000
 20
498.0000000000001
 30
0.0000000000000000
 11
448.0003050000000
 21
482.0000000000001
 31
0.0000000000000000
  0
LINE
  5
138
100
AcDbEntity
  8
A4
  6
CONTINUOUS
 62
7
100
AcDbLine
 10
447.5003050000000
 20
482.0000000000001
 30
0.0000000000000000
 11
448.0003050000000
 21
482.0000000000001
 31
0.0000000000000000
  0
LINE
  5
139
100
AcDbEntity
  8
A4
  6
CONTINUOUS
 62
7
100
AcDbLine
 10
447.5003050000000
 20
498.0000000000001
 30
0.0000000000000000
 11
448.0003050000000
 21
498.0000000000001
 31
0.0000000000000000
  0
LINE
  5
13A
100
AcDbEntity
  8
A2
  6
CENTER
 62
4
100
AcDbLine
 10
578.0003359999998
 20
501.4999999999998
 30
0.0000000000000000
 11
578.0003359999998
 21
478.5000000000001
 31
0.0000000000000000
  0
LINE
  5
13B
100
AcDbEntity
  8
A4
  6
CONTINUOUS
 62
7
100
AcDbLine
 10
369.0001829999999
 20
489.2500000000001
 30
0.0000000000000000
 11
369.1446040000001
 21
489.2500000000001
 31
0.0000000000000000
  0
LINE
  5
13C
100
AcDbEntity
  8
A4
  6
CONTINUOUS
 62
7
100
AcDbLine
 10
368.9688799999999
 20
490.7499999999998
 30
0.0000000000000000
 11
369.1446040000001
 21
490.7499999999998
 31
0.0000000000000000
  0
LINE
  5
13D
100
AcDbEntity
  8
A4
  6
CONTINUOUS
 62
7
100
AcDbLine
 10
350.8557609999998
 20
489.2500000000001
 30
0.0000000000000000
 11
351.0001830000001
 21
489.2500000000001
 31
0.0000000000000000
  0
LINE
  5
13E
100
AcDbEntity
  8
A4
  6
CONTINUOUS
 62
7
100
AcDbLine
 10
350.8557609999998
 20
490.7499999999998
 30
0.0000000000000000
 11
351.0001830000001
 21
490.7499999999998
 31
0.0000000000000000
  0
LINE
  5
13F
100
AcDbEntity
  8
A4
  6
CONTINUOUS
 62
7
100
AcDbLine
 10
354.7784540000004
 20
497.5443110000001
 30
0.0000000000000000
 11
354.8663160000002
 21
497.3920900000003
 31
0.0000000000000000
  0
LINE
  5
140
100
AcDbEntity
  8
A4
  6
CONTINUOUS
 62
7
100
AcDbLine
 10
356.0774919999999
 20
498.2943109999998
 30
0.0000000000000000
 11
356.1653559999999
 21
498.1420900000001
 31
0.0000000000000000
  0
LINE
  5
141
100
AcDbEntity
  8
A4
  6
CONTINUOUS
 62
7
100
AcDbLine
 10
365.1340480000003
 20
497.3920900000003
 30
0.0000000000000000
 11
365.2219120000001
 21
497.5443109999999
 31
0.0000000000000000
  0
LINE
  5
142
100
AcDbEntity
  8
A4
  6
CONTINUOUS
 62
7
100
AcDbLine
 10
363.8350109999999
 20
498.1420899999998
 30
0.0000000000000000
 11
363.9228739999998
 21
498.2943109999995
 31
0.0000000000000000
  0
LINE
  5
143
100
AcDbEntity
  8
A4
  6
CONTINUOUS
 62
7
100
AcDbLine
 10
40.85559100000001
 20
489.2500000000001
 30
0.0000000000000000
 11
43.94354199999999
 21
489.2500000000001
 31
0.0000000000000000
  0
LINE
  5
144
100
AcDbEntity
  8
A4
  6
CONTINUOUS
 62
7
100
AcDbLine
 10
56.05648799999995
 20
490.7499999999998
 30
0.0000000000000000
 11
59.14444000000004
 21
490.7499999999998
 31
0.0000000000000000
  0
LINE
  5
145
100
AcDbEntity
  8
A4
  6
CONTINUOUS
 62
7
100
AcDbLine
 10
56.05648799999995
 20
489.2500000000001
 30
0.0000000000000000
 11
59.14444000000004
 21
489.2500000000001
 31
0.0000000000000000
  0
LINE
  5
146
100
AcDbEntity
  8
A4
  6
CONTINUOUS
 62
7
100
AcDbLine
 10
40.85559100000001
 20
490.7499999999998
 30
0.0000000000000000
 11
43.94354199999999
 21
490.7499999999998
 31
0.0000000000000000
  0
LINE
  5
147
100
AcDbEntity
  8
A4
  6
CONTINUOUS
 62
7
100
AcDbLine
 10
44.77828999999991
 20
497.5443109999998
 30
0.0000000000000000
 11
46.32226599999993
 21
494.8700559999998
 31
0.0000000000000000
  0
LINE
  5
148
100
AcDbEntity
  8
A4
  6
CONTINUOUS
 62
7
100
AcDbLine
 10
46.07733199999996
 20
498.2943109999997
 30
0.0000000000000000
 11
47.62130699999994
 21
495.6200559999999
 31
0.0000000000000000
  0
LINE
  5
149
100
AcDbEntity
  8
A4
  6
CONTINUOUS
 62
7
100
AcDbLine
 10
52.37872300000006
 20
484.3799440000003
 30
0.0000000000000000
 11
53.92269900000011
 21
481.7056880000000
 31
0.0000000000000000
  0
LINE
  5
14A
100
AcDbEntity
  8
A4
  6
CONTINUOUS
 62
7
100
AcDbLine
 10
53.67776499999985
 20
485.1299440000000
 30
0.0000000000000000
 11
55.22174099999981
 21
482.4556880000000
 31
0.0000000000000000
  0
LINE
  5
14B
100
AcDbEntity
  8
A4
  6
CONTINUOUS
 62
7
100
AcDbLine
 10
53.67776500000005
 20
494.8700559999999
 30
0.0000000000000000
 11
55.22174099999995
 21
497.5443109999998
 31
0.0000000000000000
  0
LINE
  5
14C
100
AcDbEntity
  8
A4
  6
CONTINUOUS
 62
7
100
AcDbLine
 10
52.37872299999998
 20
495.6200559999998
 30
0.0000000000000000
 11
53.92269900000002
 21
498.2943109999997
 31
0.0000000000000000
  0
LINE
  5
14D
100
AcDbEntity
  8
A4
  6
CONTINUOUS
 62
7
100
AcDbLine
 10
46.07733199999987
 20
481.7056880000000
 30
0.0000000000000000
 11
47.62130699999989
 21
484.3799440000001
 31
0.0000000000000000
  0
LINE
  5
14E
100
AcDbEntity
  8
A4
  6
CONTINUOUS
 62
7
100
AcDbLine
 10
44.77828999999994
 20
482.4556880000001
 30
0.0000000000000000
 11
46.32226600000001
 21
485.1299440000003
 31
0.0000000000000000
  0
LINE
  5
14F
100
AcDbEntity
  8
A4
  6
CONTINUOUS
 62
7
100
AcDbLine
 10
203.8000950000001
 20
64.92146299999990
 30
0.0000000000000000
 11
203.8000950000001
 21
40.99999999999969
 31
0.0000000000000000
  0
LINE
  5
150
100
AcDbEntity
  8
A4
  6
CONTINUOUS
 62
7
100
AcDbLine
 10
203.8000950000001
 20
40.99999999999969
 30
0.0000000000000000
 11
207.0000920000000
 21
40.99999999999969
 31
0.0000000000000000
  0
LINE
  5
151
100
AcDbEntity
  8
A4
  6
CONTINUOUS
 62
7
100
AcDbLine
 10
207.0000920000000
 20
68.99999999999980
 30
0.0000000000000000
 11
207.0000920000000
 21
40.99999999999969
 31
0.0000000000000000
  0
LINE
  5
152
100
AcDbEntity
  8
A4
  6
CONTINUOUS
 62
7
100
AcDbLine
 10
198.7583770000000
 20
73.14489700000004
 30
0.0000000000000000
 11
204.6570130000000
 21
69.26634200000011
 31
0.0000000000000000
  0
LINE
  5
153
100
AcDbEntity
  8
A4
  6
CONTINUOUS
 62
7
100
AcDbLine
 10
197.0002899999998
 20
70.47111500000013
 30
0.0000000000000000
 11
202.8989109999999
 21
66.59255900000011
 31
0.0000000000000000
  0
LINE
  5
154
100
AcDbEntity
  8
A4
  6
CONTINUOUS
 62
7
100
AcDbLine
 10
192.5000920000000
 20
70.80000299999980
 30
0.0000000000000000
 11
195.9014740000000
 21
70.80000299999980
 31
0.0000000000000000
  0
LINE
  5
155
100
AcDbEntity
  8
A4
  6
CONTINUOUS
 62
7
100
AcDbLine
 10
192.5000920000000
 20
74.00000000000000
 30
0.0000000000000000
 11
192.5000920000000
 21
70.80000299999980
 31
0.0000000000000000
  0
LINE
  5
156
100
AcDbEntity
  8
A4
  6
CONTINUOUS
 62
7
100
AcDbLine
 10
192.5000920000000
 20
74.00000000000000
 30
0.0000000000000000
 11
205.0000920000000
 21
74.00000000000000
 31
0.0000000000000000
  0
LINE
  5
157
100
AcDbEntity
  8
A4
  6
CONTINUOUS
 62
7
100
AcDbLine
 10
503.0003049999998
 20
68.99999999999980
 30
0.0000000000000000
 11
503.0003049999998
 21
40.99999999999969
 31
0.0000000000000000
  0
LINE
  5
158
100
AcDbEntity
  8
A4
  6
CONTINUOUS
 62
7
100
AcDbLine
 10
506.2002870000001
 20
64.92146299999990
 30
0.0000000000000000
 11
506.2002870000001
 21
40.99999999999969
 31
0.0000000000000000
  0
LINE
  5
159
100
AcDbEntity
  8
A4
  6
CONTINUOUS
 62
7
100
AcDbLine
 10
506.2002870000001
 20
40.99999999999969
 30
0.0000000000000000
 11
503.0003049999998
 21
40.99999999999969
 31
0.0000000000000000
  0
LINE
  5
15A
100
AcDbEntity
  8
A4
  6
CONTINUOUS
 62
7
100
AcDbLine
 10
511.2420040000004
 20
73.14489699999999
 30
0.0000000000000000
 11
505.3433840000002
 21
69.26634200000009
 31
0.0000000000000000
  0
LINE
  5
15B
100
AcDbEntity
  8
A4
  6
CONTINUOUS
 62
7
100
AcDbLine
 10
517.5003049999998
 20
74.00000000000000
 30
0.0000000000000000
 11
505.0003049999998
 21
74.00000000000000
 31
0.0000000000000000
  0
LINE
  5
15C
100
AcDbEntity
  8
A4
  6
CONTINUOUS
 62
7
100
AcDbLine
 10
513.0001220000001
 20
70.47111499999991
 30
0.0000000000000000
 11
507.1014710000002
 21
66.59255899999988
 31
0.0000000000000000
  0
LINE
  5
15D
100
AcDbEntity
  8
A4
  6
CONTINUOUS
 62
7
100
AcDbLine
 10
517.5003049999998
 20
70.80000299999980
 30
0.0000000000000000
 11
514.0989380000001
 21
70.80000299999980
 31
0.0000000000000000
  0
LINE
  5
15E
100
AcDbEntity
  8
A4
  6
CONTINUOUS
 62
7
100
AcDbLine
 10
517.5003049999998
 20
74.00000000000000
 30
0.0000000000000000
 11
517.5003049999998
 21
70.80000299999980
 31
0.0000000000000000
  0
LINE
  5
15F
100
AcDbEntity
  8
A2
  6
CENTER
 62
4
100
AcDbLine
 10
187.3722989999999
 20
170.0000000000000
 30
0.0000000000000000
 11
212.0347139999999
 21
170.0000000000000
 31
0.0000000000000000
  0
LINE
  5
160
100
AcDbEntity
  8
A2
  6
CENTER
 62
4
100
AcDbLine
 10
498.6000669999999
 20
170.0000000000000
 30
0.0000000000000000
 11
520.4778440000000
 21
170.0000000000000
 31
0.0000000000000000
  0
LINE
  5
161
100
AcDbEntity
  8
A2
  6
CENTER
 62
4
100
AcDbLine
 10
267.5000759999998
 20
50.00000000000000
 30
0.0000000000000000
 11
126.0000610000000
 21
50.00000000000000
 31
0.0000000000000000
  0
LINE
  5
162
100
AcDbEntity
  8
A4
  6
CONTINUOUS
 62
7
100
AcDbLine
 10
262.5000759999998
 20
58.00000000000000
 30
0.0000000000000000
 11
262.5000759999998
 21
41.99999999999969
 31
0.0000000000000000
  0
LINE
  5
163
100
AcDbEntity
  8
A4
  6
CONTINUOUS
 62
7
100
AcDbLine
 10
262.0000759999998
 20
58.00000000000000
 30
0.0000000000000000
 11
262.0000759999998
 21
41.99999999999969
 31
0.0000000000000000
  0
LINE
  5
164
100
AcDbEntity
  8
A4
  6
CONTINUOUS
 62
7
100
AcDbLine
 10
262.5000759999998
 20
41.99999999999969
 30
0.0000000000000000
 11
262.0000759999998
 21
41.99999999999969
 31
0.0000000000000000
  0
LINE
  5
165
100
AcDbEntity
  8
A4
  6
CONTINUOUS
 62
7
100
AcDbLine
 10
262.5000759999998
 20
58.00000000000000
 30
0.0000000000000000
 11
262.0000759999998
 21
58.00000000000000
 31
0.0000000000000000
  0
LINE
  5
166
100
AcDbEntity
  8
A2
  6
CENTER
 62
4
100
AcDbLine
 10
132.0000459999999
 20
61.50000000000000
 30
0.0000000000000000
 11
132.0000459999999
 21
38.50000699999998
 31
0.0000000000000000
  0
LINE
  5
167
100
AcDbEntity
  8
A2
  6
CENTER
 62
4
100
AcDbLine
 10
267.5000759999998
 20
490.0000000000001
 30
0.0000000000000000
 11
126.0000610000000
 21
490.0000000000001
 31
0.0000000000000000
  0
LINE
  5
168
100
AcDbEntity
  8
A4
  6
CONTINUOUS
 62
7
100
AcDbLine
 10
262.5000759999998
 20
498.0000000000001
 30
0.0000000000000000
 11
262.5000759999998
 21
482.0000000000001
 31
0.0000000000000000
  0
LINE
  5
169
100
AcDbEntity
  8
A4
  6
CONTINUOUS
 62
7
100
AcDbLine
 10
262.0000759999998
 20
498.0000000000001
 30
0.0000000000000000
 11
262.0000759999998
 21
482.0000000000001
 31
0.0000000000000000
  0
LINE
  5
16A
100
AcDbEntity
  8
A4
  6
CONTINUOUS
 62
7
100
AcDbLine
 10
262.5000759999998
 20
482.0000000000001
 30
0.0000000000000000
 11
262.0000759999998
 21
482.0000000000001
 31
0.0000000000000000
  0
LINE
  5
16B
100
AcDbEntity
  8
A4
  6
CONTINUOUS
 62
7
100
AcDbLine
 10
262.5000759999998
 20
498.0000000000001
 30
0.0000000000000000
 11
262.0000759999998
 21
498.0000000000001
 31
0.0000000000000000
  0
LINE
  5
16C
100
AcDbEntity
  8
A2
  6
CENTER
 62
4
100
AcDbLine
 10
132.0000459999999
 20
501.4999999999998
 30
0.0000000000000000
 11
132.0000459999999
 21
478.5000000000001
 31
0.0000000000000000
  0
CIRCLE
  5
16D
100
AcDbEntity
  8
A4
  6
CONTINUOUS
 62
7
100
AcDbCircle
 10
360.0001829999999
 20
50.00000000000000
 30
0.0000000000000000
 40
5.000000000000000
  0
ARC
  5
16E
100
AcDbEntity
  8
A4
  6
CONTINUOUS
 62
7
100
AcDbCircle
 10
360.0001829999999
 20
50.00000000000000
 30
0.0000000000000000
 40
9.000000000000000
100
AcDbArc
 50
179.9999949999999
 51
360.0000000000000
  0
ARC
  5
16F
100
AcDbEntity
  8
A3
  6
PHANTOM
 62
1
100
AcDbCircle
 10
201.8000950000000
 20
184.9214629999999
 30
0.0000000000000000
 40
2.000000000000000
100
AcDbArc
 50
0.0000000000000000
 51
56.67370999999999
  0
ARC
  5
170
100
AcDbEntity
  8
A3
  6
PHANTOM
 62
1
100
AcDbCircle
 10
195.9014740000000
 20
188.8000030000000
 30
0.0000000000000000
 40
2.000000000000000
100
AcDbArc
 50
56.67370999999999
 51
90.00000300000002
  0
ARC
  5
171
100
AcDbEntity
  8
A3
  6
PHANTOM
 62
1
100
AcDbCircle
 10
201.8000950000000
 20
184.9214629999999
 30
0.0000000000000000
 40
5.200000000000000
100
AcDbArc
 50
0.0000000000000000
 51
56.67370999999999
  0
ARC
  5
172
100
AcDbEntity
  8
A3
  6
PHANTOM
 62
1
100
AcDbCircle
 10
195.9014740000000
 20
188.8000030000000
 30
0.0000000000000000
 40
5.200000000000000
100
AcDbArc
 50
56.67370999999999
 51
90.00000300000002
  0
ARC
  5
173
100
AcDbEntity
  8
A3
  6
PHANTOM
 62
1
100
AcDbCircle
 10
202.0000920000000
 20
189.0000149999999
 30
0.0000000000000000
 40
5.000000000000000
100
AcDbArc
 50
0.0000000000000000
 51
90.00000300000002
  0
CIRCLE
  5
174
100
AcDbEntity
  8
A4
  6
CONTINUOUS
 62
7
100
AcDbCircle
 10
360.0001829999999
 20
490.0000000000001
 30
0.0000000000000000
 40
5.000000000000000
  0
ARC
  5
175
100
AcDbEntity
  8
A4
  6
CONTINUOUS
 62
7
100
AcDbCircle
 10
360.0001829999999
 20
490.0000000000001
 30
0.0000000000000000
 40
9.000000000000000
100
AcDbArc
 50
0.0000000000000000
 51
180.0000050000000
  0
ARC
  5
176
100
AcDbEntity
  8
A4
  6
CONTINUOUS
 62
7
100
AcDbCircle
 10
201.8000950000001
 20
475.0785519999999
 30
0.0000000000000000
 40
2.000000000000000
100
AcDbArc
 50
303.3262899999999
 51
360.0000000000000
  0
ARC
  5
177
100
AcDbEntity
  8
A4
  6
CONTINUOUS
 62
7
100
AcDbCircle
 10
195.9014740000000
 20
471.1999810000000
 30
0.0000000000000000
 40
2.000000000000000
100
AcDbArc
 50
269.9999969999999
 51
303.3262899999999
  0
ARC
  5
178
100
AcDbEntity
  8
A4
  6
CONTINUOUS
 62
7
100
AcDbCircle
 10
201.8000950000001
 20
475.0785519999999
 30
0.0000000000000000
 40
5.200000000000000
100
AcDbArc
 50
303.3262899999999
 51
360.0000000000000
  0
ARC
  5
179
100
AcDbEntity
  8
A4
  6
CONTINUOUS
 62
7
100
AcDbCircle
 10
195.9014740000000
 20
471.1999810000000
 30
0.0000000000000000
 40
5.200000000000000
100
AcDbArc
 50
269.9999969999999
 51
303.3262899999999
  0
ARC
  5
17A
100
AcDbEntity
  8
A4
  6
CONTINUOUS
 62
7
100
AcDbCircle
 10
202.0000920000000
 20
470.9999999999999
 30
0.0000000000000000
 40
5.000000000000000
100
AcDbArc
 50
269.9999969999999
 51
360.0000000000000
  0
ARC
  5
17B
100
AcDbEntity
  8
A4
  6
CONTINUOUS
 62
7
100
AcDbCircle
 10
39.00000000000042
 20
209.9999999999999
 30
0.0000000000000000
 40
1.000000000000000
100
AcDbArc
 50
269.9999969999999
 51
450.0000030000000
  0
ARC
  5
17C
100
AcDbEntity
  8
A4
  6
CONTINUOUS
 62
7
100
AcDbCircle
 10
39.00000000000042
 20
223.5000000000000
 30
0.0000000000000000
 40
1.000000000000000
100
AcDbArc
 50
269.9999969999999
 51
450.0000030000000
  0
ARC
  5
17D
100
AcDbEntity
  8
A4
  6
CONTINUOUS
 62
7
100
AcDbCircle
 10
61.00000000000042
 20
209.9999999999999
 30
0.0000000000000000
 40
1.000000000000000
100
AcDbArc
 50
90.00000300000002
 51
270.0000010000000
  0
ARC
  5
17E
100
AcDbEntity
  8
A4
  6
CONTINUOUS
 62
7
100
AcDbCircle
 10
61.00000000000042
 20
223.5000000000000
 30
0.0000000000000000
 40
1.000000000000000
100
AcDbArc
 50
90.00000300000002
 51
270.0000010000000
  0
ARC
  5
17F
100
AcDbEntity
  8
A4
  6
CONTINUOUS
 62
7
100
AcDbCircle
 10
189.0000920000004
 20
209.9999999999999
 30
0.0000000000000000
 40
1.000000000000000
100
AcDbArc
 50
269.9999969999999
 51
450.0000030000000
  0
ARC
  5
180
100
AcDbEntity
  8
A4
  6
CONTINUOUS
 62
7
100
AcDbCircle
 10
189.0000920000004
 20
223.5000000000000
 30
0.0000000000000000
 40
1.000000000000000
100
AcDbArc
 50
269.9999969999999
 51
450.0000030000000
  0
ARC
  5
181
100
AcDbEntity
  8
A4
  6
CONTINUOUS
 62
7
100
AcDbCircle
 10
211.0000920000004
 20
209.9999999999999
 30
0.0000000000000000
 40
1.000000000000000
100
AcDbArc
 50
90.00000300000002
 51
270.0000010000000
  0
ARC
  5
182
100
AcDbEntity
  8
A4
  6
CONTINUOUS
 62
7
100
AcDbCircle
 10
211.0000920000004
 20
223.5000000000000
 30
0.0000000000000000
 40
1.000000000000000
100
AcDbArc
 50
90.00000300000002
 51
270.0000010000000
  0
CIRCLE
  5
183
100
AcDbEntity
  8
A3
  6
PHANTOM
 62
1
100
AcDbCircle
 10
49.99999999999996
 20
170.0000000000000
 30
0.0000000000000000
 40
5.000000000000000
  0
ARC
  5
184
100
AcDbEntity
  8
A3
  6
PHANTOM
 62
1
100
AcDbCircle
 10
49.99999999999996
 20
170.0000000000000
 30
0.0000000000000000
 40
9.000000000000000
100
AcDbArc
 50
179.9999949999999
 51
360.0000000000000
  0
ARC
  5
185
100
AcDbEntity
  8
A4
  6
CONTINUOUS
 62
7
100
AcDbCircle
 10
349.0001830000003
 20
223.5000000000000
 30
0.0000000000000000
 40
1.000000000000000
100
AcDbArc
 50
269.9999969999999
 51
450.0000030000000
  0
ARC
  5
186
100
AcDbEntity
  8
A4
  6
CONTINUOUS
 62
7
100
AcDbCircle
 10
349.0001830000003
 20
209.9999999999999
 30
0.0000000000000000
 40
1.000000000000000
100
AcDbArc
 50
269.9999969999999
 51
450.0000030000000
  0
ARC
  5
187
100
AcDbEntity
  8
A4
  6
CONTINUOUS
 62
7
100
AcDbCircle
 10
371.0001830000003
 20
223.5000000000000
 30
0.0000000000000000
 40
1.000000000000000
100
AcDbArc
 50
90.00000300000002
 51
270.0000010000000
  0
ARC
  5
188
100
AcDbEntity
  8
A4
  6
CONTINUOUS
 62
7
100
AcDbCircle
 10
371.0001830000003
 20
209.9999999999999
 30
0.0000000000000000
 40
1.000000000000000
100
AcDbArc
 50
90.00000300000002
 51
270.0000010000000
  0
CIRCLE
  5
189
100
AcDbEntity
  8
A4
  6
CONTINUOUS
 62
7
100
AcDbCircle
 10
50.00000000000001
 20
490.0000000000001
 30
0.0000000000000000
 40
5.000000000000000
  0
CIRCLE
  5
18A
100
AcDbEntity
  8
A4
  6
CONTINUOUS
 62
7
100
AcDbCircle
 10
50.00000000000000
 20
50.00000000000000
 30
0.0000000000000000
 40
5.000000000000000
  0
ARC
  5
18B
100
AcDbEntity
  8
A4
  6
CONTINUOUS
 62
7
100
AcDbCircle
 10
351.0001830000001
 20
467.9999999999998
 30
0.0000000000000000
 40
2.000000000000000
100
AcDbArc
 50
180.0000050000000
 51
270.0000010000000
  0
ARC
  5
18C
100
AcDbEntity
  8
A4
  6
CONTINUOUS
 62
7
100
AcDbCircle
 10
369.0001829999999
 20
467.9999999999998
 30
0.0000000000000000
 40
2.000000000000000
100
AcDbArc
 50
269.9999969999999
 51
360.0000000000000
  0
ARC
  5
18D
100
AcDbEntity
  8
A4
  6
CONTINUOUS
 62
7
100
AcDbCircle
 10
345.6716609999999
 20
470.5392760000001
 30
0.0000000000000000
 40
6.999888999999998
100
AcDbArc
 50
319.5730460000000
 51
400.4269540000000
  0
ARC
  5
18E
100
AcDbEntity
  8
A4
  6
CONTINUOUS
 62
7
100
AcDbCircle
 10
369.0001829999999
 20
467.9999999999998
 30
0.0000000000000000
 40
2.000000000000000
100
AcDbArc
 50
269.9999969999999
 51
360.0000000000000
  0
ARC
  5
18F
100
AcDbEntity
  8
A4
  6
CONTINUOUS
 62
7
100
AcDbCircle
 10
374.3287349999998
 20
470.5392760000001
 30
0.0000000000000000
 40
6.999888999999998
100
AcDbArc
 50
139.5730439999999
 51
220.4269519999999
  0
ARC
  5
190
100
AcDbEntity
  8
A4
  6
CONTINUOUS
 62
7
100
AcDbCircle
 10
369.0001829999999
 20
71.99999999999980
 30
0.0000000000000000
 40
2.000000000000000
100
AcDbArc
 50
0.0000000000000000
 51
90.00000300000002
  0
ARC
  5
191
100
AcDbEntity
  8
A4
  6
CONTINUOUS
 62
7
100
AcDbCircle
 10
351.0001830000001
 20
71.99999999999980
 30
0.0000000000000000
 40
2.000000000000000
100
AcDbArc
 50
90.00000300000002
 51
180.0000050000000
  0
ARC
  5
192
100
AcDbEntity
  8
A4
  6
CONTINUOUS
 62
7
100
AcDbCircle
 10
369.0001829999999
 20
71.99999999999980
 30
0.0000000000000000
 40
2.000000000000000
100
AcDbArc
 50
0.0000000000000000
 51
90.00000300000002
  0
ARC
  5
193
100
AcDbEntity
  8
A4
  6
CONTINUOUS
 62
7
100
AcDbCircle
 10
374.3287349999998
 20
69.46072299999980
 30
0.0000000000000000
 40
6.999888999999998
100
AcDbArc
 50
139.5730439999999
 51
220.4269519999999
  0
ARC
  5
194
100
AcDbEntity
  8
A4
  6
CONTINUOUS
 62
7
100
AcDbCircle
 10
345.6716609999999
 20
69.46072299999980
 30
0.0000000000000000
 40
6.999888999999998
100
AcDbArc
 50
319.5730460000000
 51
400.4269540000000
  0
ARC
  5
195
100
AcDbEntity
  8
A3
  6
PHANTOM
 62
1
100
AcDbCircle
 10
369.0001829999999
 20
192.0000150000000
 30
0.0000000000000000
 40
2.000000000000000
100
AcDbArc
 50
0.0000000000000000
 51
90.00000300000002
  0
ARC
  5
196
100
AcDbEntity
  8
A3
  6
PHANTOM
 62
1
100
AcDbCircle
 10
374.3287349999998
 20
189.4607389999998
 30
0.0000000000000000
 40
6.999888999999998
100
AcDbArc
 50
139.5730439999999
 51
220.4269519999999
  0
ARC
  5
197
100
AcDbEntity
  8
A3
  6
PHANTOM
 62
1
100
AcDbCircle
 10
369.0001829999999
 20
192.0000150000000
 30
0.0000000000000000
 40
2.000000000000000
100
AcDbArc
 50
0.0000000000000000
 51
90.00000300000002
  0
ARC
  5
198
100
AcDbEntity
  8
A3
  6
PHANTOM
 62
1
100
AcDbCircle
 10
351.0001830000001
 20
192.0000150000000
 30
0.0000000000000000
 40
2.000000000000000
100
AcDbArc
 50
90.00000300000002
 51
180.0000050000000
  0
ARC
  5
199
100
AcDbEntity
  8
A3
  6
PHANTOM
 62
1
100
AcDbCircle
 10
345.6716609999999
 20
189.4607389999998
 30
0.0000000000000000
 40
6.999888999999998
100
AcDbArc
 50
319.5730460000000
 51
400.4269540000000
  0
ARC
  5
19A
100
AcDbEntity
  8
A3
  6
PHANTOM
 62
1
100
AcDbCircle
 10
360.0001829999999
 20
170.0000000000000
 30
0.0000000000000000
 40
9.000000000000000
100
AcDbArc
 50
180.0000050000000
 51
360.0000100000000
  0
CIRCLE
  5
19B
100
AcDbEntity
  8
A3
  6
PHANTOM
 62
1
100
AcDbCircle
 10
360.0001829999999
 20
170.0000000000000
 30
0.0000000000000000
 40
5.000000000000000
  0
ARC
  5
19C
100
AcDbEntity
  8
A4
  6
CONTINUOUS
 62
7
100
AcDbCircle
 10
200.0000920000000
 20
-36.49089100000000
 30
0.0000000000000000
 40
11.00000000000000
100
AcDbArc
 50
309.5211959999997
 51
410.4788040000000
  0
ARC
  5
19D
100
AcDbEntity
  8
A4
  6
CONTINUOUS
 62
7
100
AcDbCircle
 10
195.8899079999999
 20
-26.99089100000000
 30
0.0000000000000000
 40
1.500000000000000
100
AcDbArc
 50
79.18448700000000
 51
157.0912909999999
  0
ARC
  5
19E
100
AcDbEntity
  8
A4
  6
CONTINUOUS
 62
7
100
AcDbCircle
 10
200.0000920000000
 20
-36.49089100000000
 30
0.0000000000000000
 40
10.00000000000000
100
AcDbArc
 50
314.4270040000000
 51
405.5729960000000
  0
ARC
  5
19F
100
AcDbEntity
  8
A4
  6
CONTINUOUS
 62
7
100
AcDbCircle
 10
200.0000920000000
 20
583.6858520000000
 30
0.0000000000000000
 40
11.00000000000000
100
AcDbArc
 50
121.7043270000000
 51
238.2956560000000
  0
ARC
  5
1A0
100
AcDbEntity
  8
A4
  6
CONTINUOUS
 62
7
100
AcDbCircle
 10
200.0000920000000
 20
583.6858520000000
 30
0.0000000000000000
 40
11.00000000000000
100
AcDbArc
 50
256.9546300000000
 51
303.5457900000000
  0
ARC
  5
1A1
100
AcDbEntity
  8
A4
  6
CONTINUOUS
 62
7
100
AcDbCircle
 10
218.8325810000001
 20
583.6858520000000
 30
0.0000000000000000
 40
26.33248299999999
100
AcDbArc
 50
157.5074410000000
 51
202.4925559999998
  0
ARC
  5
1A2
100
AcDbEntity
  8
A4
  6
CONTINUOUS
 62
7
100
AcDbCircle
 10
195.8891300000000
 20
574.1858520000000
 30
0.0000000000000000
 40
1.500000000000000
100
AcDbArc
 50
202.9087089999999
 51
280.8155130000000
  0
ARC
  5
1A3
100
AcDbEntity
  8
A4
  6
CONTINUOUS
 62
7
100
AcDbCircle
 10
195.8891300000000
 20
593.1858520000000
 30
0.0000000000000000
 40
1.500000000000000
100
AcDbArc
 50
79.18448700000000
 51
157.0912909999999
  0
ARC
  5
1A4
100
AcDbEntity
  8
A4
  6
CONTINUOUS
 62
7
100
AcDbCircle
 10
195.8899079999999
 20
-45.99089100000000
 30
0.0000000000000000
 40
1.500000000000000
100
AcDbArc
 50
202.9087089999999
 51
280.8155130000000
  0
ARC
  5
1A5
100
AcDbEntity
  8
A4
  6
CONTINUOUS
 62
7
100
AcDbCircle
 10
218.8231509999998
 20
-36.49089100000000
 30
0.0000000000000000
 40
26.32305500000000
100
AcDbArc
 50
157.4984249999999
 51
202.5015709999999
  0
ARC
  5
1A6
100
AcDbEntity
  8
A4
  6
CONTINUOUS
 62
7
100
AcDbCircle
 10
499.0003050000003
 20
223.5000000000000
 30
0.0000000000000000
 40
1.000000000000000
100
AcDbArc
 50
269.9999969999999
 51
450.0000030000000
  0
ARC
  5
1A7
100
AcDbEntity
  8
A4
  6
CONTINUOUS
 62
7
100
AcDbCircle
 10
499.0003050000003
 20
209.9999999999999
 30
0.0000000000000000
 40
1.000000000000000
100
AcDbArc
 50
269.9999969999999
 51
450.0000030000000
  0
ARC
  5
1A8
100
AcDbEntity
  8
A4
  6
CONTINUOUS
 62
7
100
AcDbCircle
 10
521.0003050000003
 20
223.5000000000000
 30
0.0000000000000000
 40
1.000000000000000
100
AcDbArc
 50
90.00000300000002
 51
270.0000010000000
  0
ARC
  5
1A9
100
AcDbEntity
  8
A4
  6
CONTINUOUS
 62
7
100
AcDbCircle
 10
521.0003050000003
 20
209.9999999999999
 30
0.0000000000000000
 40
1.000000000000000
100
AcDbArc
 50
90.00000300000002
 51
270.0000010000000
  0
ARC
  5
1AA
100
AcDbEntity
  8
A4
  6
CONTINUOUS
 62
7
100
AcDbCircle
 10
508.0003049999998
 20
470.9999999999999
 30
0.0000000000000000
 40
5.000000000000000
100
AcDbArc
 50
180.0000050000000
 51
270.0000010000000
  0
ARC
  5
1AB
100
AcDbEntity
  8
A4
  6
CONTINUOUS
 62
7
100
AcDbCircle
 10
514.0989380000001
 20
471.1999810000000
 30
0.0000000000000000
 40
5.200000000000000
100
AcDbArc
 50
236.6737080000000
 51
269.9999969999999
  0
ARC
  5
1AC
100
AcDbEntity
  8
A4
  6
CONTINUOUS
 62
7
100
AcDbCircle
 10
508.2002870000001
 20
475.0785519999999
 30
0.0000000000000000
 40
5.200000000000000
100
AcDbArc
 50
179.9999949999999
 51
236.6737080000000
  0
ARC
  5
1AD
100
AcDbEntity
  8
A4
  6
CONTINUOUS
 62
7
100
AcDbCircle
 10
514.0989380000001
 20
471.1999810000000
 30
0.0000000000000000
 40
2.000000000000000
100
AcDbArc
 50
236.6737080000000
 51
269.9999969999999
  0
ARC
  5
1AE
100
AcDbEntity
  8
A4
  6
CONTINUOUS
 62
7
100
AcDbCircle
 10
508.2002870000001
 20
475.0785519999999
 30
0.0000000000000000
 40
2.000000000000000
100
AcDbArc
 50
179.9999949999999
 51
236.6737080000000
  0
ARC
  5
1AF
100
AcDbEntity
  8
A3
  6
PHANTOM
 62
1
100
AcDbCircle
 10
508.0003049999998
 20
189.0000149999999
 30
0.0000000000000000
 40
5.000000000000000
100
AcDbArc
 50
90.00000300000002
 51
180.0000050000000
  0
ARC
  5
1B0
100
AcDbEntity
  8
A3
  6
PHANTOM
 62
1
100
AcDbCircle
 10
514.0989380000001
 20
188.8000030000000
 30
0.0000000000000000
 40
5.200000000000000
100
AcDbArc
 50
90.00000300000002
 51
123.3262920000000
  0
ARC
  5
1B1
100
AcDbEntity
  8
A3
  6
PHANTOM
 62
1
100
AcDbCircle
 10
508.2002870000001
 20
184.9214629999999
 30
0.0000000000000000
 40
5.200000000000000
100
AcDbArc
 50
123.3262920000000
 51
180.0000050000000
  0
ARC
  5
1B2
100
AcDbEntity
  8
A3
  6
PHANTOM
 62
1
100
AcDbCircle
 10
514.0989380000001
 20
188.8000030000000
 30
0.0000000000000000
 40
2.000000000000000
100
AcDbArc
 50
90.00000300000002
 51
123.3262920000000
  0
ARC
  5
1B3
100
AcDbEntity
  8
A3
  6
PHANTOM
 62
1
100
AcDbCircle
 10
508.2002870000001
 20
184.9214629999999
 30
0.0000000000000000
 40
2.000000000000000
100
AcDbArc
 50
123.3262920000000
 51
180.0000050000000
  0
ARC
  5
1B4
100
AcDbEntity
  8
A4
  6
CONTINUOUS
 62
7
100
AcDbCircle
 10
135.5184780000000
 20
-43.65595700000002
 30
0.0000000000000000
 40
4.518431999999998
100
AcDbArc
 50
141.1402709999999
 51
218.8597289999999
  0
ARC
  5
1B5
100
AcDbEntity
  8
A4
  6
CONTINUOUS
 62
7
100
AcDbCircle
 10
140.8750459999999
 20
-36.49089100000000
 30
0.0000000000000000
 40
9.875000000000000
100
AcDbArc
 50
153.9921760000000
 51
206.0078240000000
  0
ARC
  5
1B6
100
AcDbEntity
  8
A4
  6
CONTINUOUS
 62
7
100
AcDbCircle
 10
135.5184780000000
 20
-29.32582900000000
 30
0.0000000000000000
 40
4.518431999999998
100
AcDbArc
 50
141.1402709999999
 51
218.8597289999999
  0
ARC
  5
1B7
100
AcDbEntity
  8
A4
  6
CONTINUOUS
 62
7
100
AcDbCircle
 10
128.4816280000000
 20
-43.65595700000002
 30
0.0000000000000000
 40
4.518431999999998
100
AcDbArc
 50
321.1402760000000
 51
398.8597280000000
  0
ARC
  5
1B8
100
AcDbEntity
  8
A4
  6
CONTINUOUS
 62
7
100
AcDbCircle
 10
123.1250610000000
 20
-36.49089100000000
 30
0.0000000000000000
 40
9.875000000000000
100
AcDbArc
 50
333.9921779999999
 51
386.0078250000000
  0
ARC
  5
1B9
100
AcDbEntity
  8
A4
  6
CONTINUOUS
 62
7
100
AcDbCircle
 10
128.4816280000000
 20
-29.32582900000000
 30
0.0000000000000000
 40
4.518431999999998
100
AcDbArc
 50
321.1402760000000
 51
398.8597280000000
  0
CIRCLE
  5
1BA
100
AcDbEntity
  8
A4
  6
CONTINUOUS
 62
7
100
AcDbCircle
 10
360.0001829999999
 20
50.00000000000000
 30
0.0000000000000000
 40
8.000000000000000
  0
ARC
  5
1BB
100
AcDbEntity
  8
A4
  6
CONTINUOUS
 62
7
100
AcDbCircle
 10
360.0001829999999
 20
50.00000000000000
 30
0.0000000000000000
 40
10.00000000000000
100
AcDbArc
 50
154.1580659999999
 51
385.8419210000000
  0
CIRCLE
  5
1BC
100
AcDbEntity
  8
A4
  6
CONTINUOUS
 62
7
100
AcDbCircle
 10
50.00000000000000
 20
50.00000000000000
 30
0.0000000000000000
 40
10.00000000000000
  0
ARC
  5
1BD
100
AcDbEntity
  8
A4
  6
CONTINUOUS
 62
7
100
AcDbCircle
 10
135.5184780000000
 20
576.5208130000002
 30
0.0000000000000000
 40
4.518431999999998
100
AcDbArc
 50
141.1402709999999
 51
218.8597289999999
  0
ARC
  5
1BE
100
AcDbEntity
  8
A4
  6
CONTINUOUS
 62
7
100
AcDbCircle
 10
140.8750459999999
 20
583.6858520000000
 30
0.0000000000000000
 40
9.875000000000000
100
AcDbArc
 50
153.9921760000000
 51
206.0078240000000
  0
ARC
  5
1BF
100
AcDbEntity
  8
A4
  6
CONTINUOUS
 62
7
100
AcDbCircle
 10
135.5184780000000
 20
590.8509519999999
 30
0.0000000000000000
 40
4.518431999999998
100
AcDbArc
 50
141.1402709999999
 51
218.8597289999999
  0
ARC
  5
1C0
100
AcDbEntity
  8
A4
  6
CONTINUOUS
 62
7
100
AcDbCircle
 10
128.4816280000000
 20
576.5208130000002
 30
0.0000000000000000
 40
4.518431999999998
100
AcDbArc
 50
321.1402760000000
 51
398.8597280000000
  0
ARC
  5
1C1
100
AcDbEntity
  8
A4
  6
CONTINUOUS
 62
7
100
AcDbCircle
 10
123.1250610000000
 20
583.6858520000000
 30
0.0000000000000000
 40
9.875000000000000
100
AcDbArc
 50
333.9921779999999
 51
386.0078250000000
  0
ARC
  5
1C2
100
AcDbEntity
  8
A4
  6
CONTINUOUS
 62
7
100
AcDbCircle
 10
128.4816280000000
 20
590.8509519999999
 30
0.0000000000000000
 40
4.518431999999998
100
AcDbArc
 50
321.1402760000000
 51
398.8597280000000
  0
ARC
  5
1C3
100
AcDbEntity
  8
A4
  6
CONTINUOUS
 62
7
100
AcDbCircle
 10
574.4819029999996
 20
42.83494500000000
 30
0.0000000000000000
 40
4.518431999999998
100
AcDbArc
 50
321.1402760000000
 51
398.8597280000000
  0
ARC
  5
1C4
100
AcDbEntity
  8
A4
  6
CONTINUOUS
 62
7
100
AcDbCircle
 10
569.1253359999998
 20
50.00000000000000
 30
0.0000000000000000
 40
9.875000000000000
100
AcDbArc
 50
333.9921779999999
 51
386.0078250000000
  0
ARC
  5
1C5
100
AcDbEntity
  8
A4
  6
CONTINUOUS
 62
7
100
AcDbCircle
 10
574.4819029999996
 20
57.16506899999999
 30
0.0000000000000000
 40
4.518431999999998
100
AcDbArc
 50
321.1402760000000
 51
398.8597280000000
  0
ARC
  5
1C6
100
AcDbEntity
  8
A4
  6
CONTINUOUS
 62
7
100
AcDbCircle
 10
581.5187679999997
 20
42.83494500000000
 30
0.0000000000000000
 40
4.518431999999998
100
AcDbArc
 50
141.1402709999999
 51
218.8597289999999
  0
ARC
  5
1C7
100
AcDbEntity
  8
A4
  6
CONTINUOUS
 62
7
100
AcDbCircle
 10
586.8753359999998
 20
50.00000000000000
 30
0.0000000000000000
 40
9.875000000000000
100
AcDbArc
 50
153.9921760000000
 51
206.0078240000000
  0
ARC
  5
1C8
100
AcDbEntity
  8
A4
  6
CONTINUOUS
 62
7
100
AcDbCircle
 10
581.5187679999997
 20
57.16506899999999
 30
0.0000000000000000
 40
4.518431999999998
100
AcDbArc
 50
141.1402709999999
 51
218.8597289999999
  0
ARC
  5
1C9
100
AcDbEntity
  8
A4
  6
CONTINUOUS
 62
7
100
AcDbCircle
 10
574.4819029999996
 20
482.8348999999999
 30
0.0000000000000000
 40
4.518431999999998
100
AcDbArc
 50
321.1402760000000
 51
398.8597280000000
  0
ARC
  5
1CA
100
AcDbEntity
  8
A4
  6
CONTINUOUS
 62
7
100
AcDbCircle
 10
569.1253359999998
 20
490.0000000000001
 30
0.0000000000000000
 40
9.875000000000000
100
AcDbArc
 50
333.9921779999999
 51
386.0078250000000
  0
ARC
  5
1CB
100
AcDbEntity
  8
A4
  6
CONTINUOUS
 62
7
100
AcDbCircle
 10
574.4819029999996
 20
497.1650389999998
 30
0.0000000000000000
 40
4.518431999999998
100
AcDbArc
 50
321.1402760000000
 51
398.8597280000000
  0
ARC
  5
1CC
100
AcDbEntity
  8
A4
  6
CONTINUOUS
 62
7
100
AcDbCircle
 10
581.5187679999997
 20
482.8348999999999
 30
0.0000000000000000
 40
4.518431999999998
100
AcDbArc
 50
141.1402709999999
 51
218.8597289999999
  0
ARC
  5
1CD
100
AcDbEntity
  8
A4
  6
CONTINUOUS
 62
7
100
AcDbCircle
 10
586.8753359999998
 20
490.0000000000001
 30
0.0000000000000000
 40
9.875000000000000
100
AcDbArc
 50
153.9921760000000
 51
206.0078240000000
  0
ARC
  5
1CE
100
AcDbEntity
  8
A4
  6
CONTINUOUS
 62
7
100
AcDbCircle
 10
581.5187679999997
 20
497.1650389999998
 30
0.0000000000000000
 40
4.518431999999998
100
AcDbArc
 50
141.1402709999999
 51
218.8597289999999
  0
CIRCLE
  5
1CF
100
AcDbEntity
  8
A4
  6
CONTINUOUS
 62
7
100
AcDbCircle
 10
360.0001829999999
 20
490.0000000000001
 30
0.0000000000000000
 40
8.000000000000000
  0
ARC
  5
1D0
100
AcDbEntity
  8
A4
  6
CONTINUOUS
 62
7
100
AcDbCircle
 10
360.0001829999999
 20
490.0000000000001
 30
0.0000000000000000
 40
10.00000000000000
100
AcDbArc
 50
334.1580680000000
 51
565.8419299999999
  0
CIRCLE
  5
1D1
100
AcDbEntity
  8
A4
  6
CONTINUOUS
 62
7
100
AcDbCircle
 10
50.00000000000001
 20
490.0000000000001
 30
0.0000000000000000
 40
10.00000000000000
  0
ARC
  5
1D2
100
AcDbEntity
  8
A4
  6
CONTINUOUS
 62
7
100
AcDbCircle
 10
201.8000950000001
 20
64.92146299999990
 30
0.0000000000000000
 40
2.000000000000000
100
AcDbArc
 50
0.0000000000000000
 51
56.67370999999999
  0
ARC
  5
1D3
100
AcDbEntity
  8
A4
  6
CONTINUOUS
 62
7
100
AcDbCircle
 10
201.8000950000001
 20
64.92146299999990
 30
0.0000000000000000
 40
5.200000000000000
100
AcDbArc
 50
0.0000000000000000
 51
56.67370999999999
  0
ARC
  5
1D4
100
AcDbEntity
  8
A4
  6
CONTINUOUS
 62
7
100
AcDbCircle
 10
202.0000920000000
 20
68.99999999999980
 30
0.0000000000000000
 40
5.000000000000000
100
AcDbArc
 50
0.0000000000000000
 51
90.00000300000002
  0
ARC
  5
1D5
100
AcDbEntity
  8
A4
  6
CONTINUOUS
 62
7
100
AcDbCircle
 10
195.9014740000000
 20
68.80000299999980
 30
0.0000000000000000
 40
2.000000000000000
100
AcDbArc
 50
56.67370999999999
 51
90.00000300000002
  0
ARC
  5
1D6
100
AcDbEntity
  8
A4
  6
CONTINUOUS
 62
7
100
AcDbCircle
 10
195.9014740000000
 20
68.80000299999980
 30
0.0000000000000000
 40
5.200000000000000
100
AcDbArc
 50
56.67370999999999
 51
90.00000300000002
  0
ARC
  5
1D7
100
AcDbEntity
  8
A4
  6
CONTINUOUS
 62
7
100
AcDbCircle
 10
508.2002870000001
 20
64.92146299999990
 30
0.0000000000000000
 40
5.200000000000000
100
AcDbArc
 50
123.3262920000000
 51
180.0000050000000
  0
ARC
  5
1D8
100
AcDbEntity
  8
A4
  6
CONTINUOUS
 62
7
100
AcDbCircle
 10
508.0003049999998
 20
68.99999999999980
 30
0.0000000000000000
 40
5.000000000000000
100
AcDbArc
 50
90.00000300000002
 51
180.0000050000000
  0
ARC
  5
1D9
100
AcDbEntity
  8
A4
  6
CONTINUOUS
 62
7
100
AcDbCircle
 10
508.2002870000001
 20
64.92146299999990
 30
0.0000000000000000
 40
2.000000000000000
100
AcDbArc
 50
123.3262920000000
 51
180.0000050000000
  0
ARC
  5
1DA
100
AcDbEntity
  8
A4
  6
CONTINUOUS
 62
7
100
AcDbCircle
 10
514.0989380000001
 20
68.80000299999980
 30
0.0000000000000000
 40
5.200000000000000
100
AcDbArc
 50
90.00000300000002
 51
123.3262920000000
  0
ARC
  5
1DB
100
AcDbEntity
  8
A4
  6
CONTINUOUS
 62
7
100
AcDbCircle
 10
514.0989380000001
 20
68.80000299999980
 30
0.0000000000000000
 40
2.000000000000000
100
AcDbArc
 50
90.00000300000002
 51
123.3262920000000
  0
ARC
  5
1DC
100
AcDbEntity
  8
A4
  6
CONTINUOUS
 62
7
100
AcDbCircle
 10
200.0000920000000
 20
583.6858520000000
 30
0.0000000000000000
 40
10.00000000000000
100
AcDbArc
 50
314.4270040000000
 51
405.5729960000000
  0
ARC
  5
1DD
100
AcDbEntity
  8
A4
  6
CONTINUOUS
 62
7
100
AcDbCircle
 10
200.0000920000000
 20
583.6858520000000
 30
0.0000000000000000
 40
10.00000000000000
100
AcDbArc
 50
129.3343169999999
 51
230.6656789999999
  0
ARC
  5
1DE
100
AcDbEntity
  8
A4
  6
CONTINUOUS
 62
7
100
AcDbCircle
 10
135.5184780000000
 20
42.83494500000000
 30
0.0000000000000000
 40
4.518431999999998
100
AcDbArc
 50
141.1402709999999
 51
218.8597289999999
  0
ARC
  5
1DF
100
AcDbEntity
  8
A4
  6
CONTINUOUS
 62
7
100
AcDbCircle
 10
140.8750459999999
 20
50.00000000000000
 30
0.0000000000000000
 40
9.875000000000000
100
AcDbArc
 50
153.9921760000000
 51
206.0078240000000
  0
ARC
  5
1E0
100
AcDbEntity
  8
A4
  6
CONTINUOUS
 62
7
100
AcDbCircle
 10
135.5184780000000
 20
57.16506899999999
 30
0.0000000000000000
 40
4.518431999999998
100
AcDbArc
 50
141.1402709999999
 51
218.8597289999999
  0
ARC
  5
1E1
100
AcDbEntity
  8
A4
  6
CONTINUOUS
 62
7
100
AcDbCircle
 10
128.4816280000000
 20
42.83494500000000
 30
0.0000000000000000
 40
4.518431999999998
100
AcDbArc
 50
321.1402760000000
 51
398.8597280000000
  0
ARC
  5
1E2
100
AcDbEntity
  8
A4
  6
CONTINUOUS
 62
7
100
AcDbCircle
 10
123.1250610000000
 20
50.00000000000000
 30
0.0000000000000000
 40
9.875000000000000
100
AcDbArc
 50
333.9921779999999
 51
386.0078250000000
  0
ARC
  5
1E3
100
AcDbEntity
  8
A4
  6
CONTINUOUS
 62
7
100
AcDbCircle
 10
128.4816280000000
 20
57.16506899999999
 30
0.0000000000000000
 40
4.518431999999998
100
AcDbArc
 50
321.1402760000000
 51
398.8597280000000
  0
ARC
  5
1E4
100
AcDbEntity
  8
A4
  6
CONTINUOUS
 62
7
100
AcDbCircle
 10
135.5184780000000
 20
482.8348999999999
 30
0.0000000000000000
 40
4.518431999999998
100
AcDbArc
 50
141.1402709999999
 51
218.8597289999999
  0
ARC
  5
1E5
100
AcDbEntity
  8
A4
  6
CONTINUOUS
 62
7
100
AcDbCircle
 10
140.8750459999999
 20
490.0000000000001
 30
0.0000000000000000
 40
9.875000000000000
100
AcDbArc
 50
153.9921760000000
 51
206.0078240000000
  0
ARC
  5
1E6
100
AcDbEntity
  8
A4
  6
CONTINUOUS
 62
7
100
AcDbCircle
 10
135.5184780000000
 20
497.1650389999998
 30
0.0000000000000000
 40
4.518431999999998
100
AcDbArc
 50
141.1402709999999
 51
218.8597289999999
  0
ARC
  5
1E7
100
AcDbEntity
  8
A4
  6
CONTINUOUS
 62
7
100
AcDbCircle
 10
128.4816280000000
 20
482.8348999999999
 30
0.0000000000000000
 40
4.518431999999998
100
AcDbArc
 50
321.1402760000000
 51
398.8597280000000
  0
ARC
  5
1E8
100
AcDbEntity
  8
A4
  6
CONTINUOUS
 62
7
100
AcDbCircle
 10
123.1250610000000
 20
490.0000000000001
 30
0.0000000000000000
 40
9.875000000000000
100
AcDbArc
 50
333.9921779999999
 51
386.0078250000000
  0
ARC
  5
1E9
100
AcDbEntity
  8
A4
  6
CONTINUOUS
 62
7
100
AcDbCircle
 10
128.4816280000000
 20
497.1650389999998
 30
0.0000000000000000
 40
4.518431999999998
100
AcDbArc
 50
321.1402760000000
 51
398.8597280000000
  0
ARC
  5
1EA
100
AcDbEntity
  8
A4
  6
CONTINUOUS
 62
7
100
AcDbCircle
 10
200.0000920000000
 20
583.6858520000000
 30
0.0000000000000000
 40
11.00000000000000
100
AcDbArc
 50
56.45427800000000
 51
103.0453700000000
  0
ARC
  5
1EB
100
AcDbEntity
  8
A4
  6
CONTINUOUS
 62
7
100
AcDbCircle
 10
200.0000920000000
 20
583.6858520000000
 30
0.0000000000000000
 40
11.00000000000000
100
AcDbArc
 50
309.5211959999997
 51
410.4788040000000
  0
ARC
  5
1EC
100
AcDbEntity
  8
A4
  6
CONTINUOUS
 62
7
100
AcDbCircle
 10
200.0000920000000
 20
-36.49089100000000
 30
0.0000000000000000
 40
10.00000000000000
100
AcDbArc
 50
129.3299749999999
 51
230.6699959999999
  0
ARC
  5
1ED
100
AcDbEntity
  8
A4
  6
CONTINUOUS
 62
7
100
AcDbCircle
 10
200.0000920000000
 20
-36.49089100000000
 30
0.0000000000000000
 40
11.00000000000000
100
AcDbArc
 50
121.6990309999999
 51
238.3009290000000
  0
ARC
  5
1EE
100
AcDbEntity
  8
A4
  6
CONTINUOUS
 62
7
100
AcDbCircle
 10
200.0000920000000
 20
-36.49089100000000
 30
0.0000000000000000
 40
11.00000000000000
100
AcDbArc
 50
56.45439500000000
 51
102.8898689999999
  0
ARC
  5
1EF
100
AcDbEntity
  8
A4
  6
CONTINUOUS
 62
7
100
AcDbCircle
 10
200.0000920000000
 20
-36.49089100000000
 30
0.0000000000000000
 40
11.00000000000000
100
AcDbArc
 50
257.1101310000000
 51
303.5456049999999
  0
POINT
  5
1F0
100
AcDbEntity
  8
A10
  6
CONTINUOUS
 62
5
100
AcDbPoint
 10
50.00000000000000
 20
50.00000000000000
 30
0.0000000000000000
  0
ENDSEC
  0
SECTION
  2
OBJECTS
  0
DICTIONARY
  5
21F
100
AcDbDictionary
  3
ACAD_GROUP
350
220
  3
ACAD_LAYOUT
350
221
  3
ACAD_MLINESTYLE
350
222
  0
DICTIONARY
  5
220
102
{ACAD_REACTORS
330
21F
102
}
330
21F
100
AcDbDictionary
  0
DICTIONARY
  5
221
102
{ACAD_REACTORS
330
21F
102
}
330
21F
100
AcDbDictionary
  3
Model
350
223
  3
ﾚｲｱｳﾄ1
350
224
  3
ﾚｲｱｳﾄ2
350
225
  0
DICTIONARY
  5
222
102
{ACAD_REACTORS
330
21F
102
}
330
21F
100
AcDbDictionary
  3
STANDARD
350
226
  0
LAYOUT
  5
223
102
{ACAD_REACTORS
330
221
102
}
330
221
100
AcDbPlotSettings
 70
11952
  4
A3
 44
297.000000
 45
420.000000
 73
  1
 72
  1
100
AcDbLayout
  1
Model
 71
0
330
216
  0
LAYOUT
  5
224
102
{ACAD_REACTORS
330
221
102
}
330
221
100
AcDbPlotSettings
100
AcDbLayout
  1
ﾚｲｱｳﾄ1
 71
1
330
217
  0
LAYOUT
  5
225
102
{ACAD_REACTORS
330
221
102
}
330
221
100
AcDbPlotSettings
100
AcDbLayout
  1
ﾚｲｱｳﾄ2
 71
2
330
218
  0
MLINESTYLE
  5
226
102
{ACAD_REACTORS
330
222
102
}
330
222
100
AcDbMlineStyle
  2
STANDARD
 70
     0
  3

 62
   256
 51
90.00
 52
90.00
 71
     2
 49
0.50
 62
   256
  6
BYLAYER
 49
-0.50
 62
   256
  6
BYLAYER
  0
ENDSEC
  0
EOF
