  0
SECTION
  2
HEADER
  9
$ACADVER
  1
AC1015
  9
$ACADMAINTVER
 70
    20
  9
$DWGCODEPAGE
  3
ANSI_932
  9
$INSBASE
 10
0.0
 20
0.0
 30
0.0
  9
$EXTMIN
 10
10.0
 20
9.999999999999998
 30
0.0
  9
$EXTMAX
 10
488.0948652446432
 20
331.4130915081648
 30
0.0
  9
$LIMMIN
 10
0.0
 20
0.0
  9
$LIMMAX
 10
495.0
 20
341.25
  9
$ORTHOMODE
 70
     1
  9
$REGENMODE
 70
     1
  9
$FILLMODE
 70
     1
  9
$QTEXTMODE
 70
     0
  9
$MIRRTEXT
 70
     1
  9
$LTSCALE
 40
20.0
  9
$ATTMODE
 70
     1
  9
$TEXTSIZE
 40
5.0
  9
$TRACEWID
 40
1.0
  9
$TEXTSTYLE
  7
STANDARD
  9
$CLAYER
  8
0
  9
$CELTYPE
  6
BYLAYER
  9
$CECOLOR
 62
   256
  9
$CELTSCALE
 40
1.0
  9
$DISPSILH
 70
     0
  9
$DIMSCALE
 40
1.0
  9
$DIMASZ
 40
3.0
  9
$DIMEXO
 40
1.0
  9
$DIMDLI
 40
10.0
  9
$DIMRND
 40
0.0
  9
$DIMDLE
 40
0.0
  9
$DIMEXE
 40
1.0
  9
$DIMTP
 40
0.0
  9
$DIMTM
 40
0.0
  9
$DIMTXT
 40
3.2
  9
$DIMCEN
 40
0.0
  9
$DIMTSZ
 40
0.0
  9
$DIMTOL
 70
     0
  9
$DIMLIM
 70
     0
  9
$DIMTIH
 70
     0
  9
$DIMTOH
 70
     0
  9
$DIMSE1
 70
     0
  9
$DIMSE2
 70
     0
  9
$DIMTAD
 70
     3
  9
$DIMZIN
 70
     8
  9
$DIMBLK
  1

  9
$DIMASO
 70
     1
  9
$DIMSHO
 70
     1
  9
$DIMPOST
  1

  9
$DIMAPOST
  1

  9
$DIMALT
 70
     0
  9
$DIMALTD
 70
     2
  9
$DIMALTF
 40
25.4
  9
$DIMLFAC
 40
1.0
  9
$DIMTOFL
 70
     1
  9
$DIMTVP
 40
0.0
  9
$DIMTIX
 70
     0
  9
$DIMSOXD
 70
     0
  9
$DIMSAH
 70
     1
  9
$DIMBLK1
  1
OPEN
  9
$DIMBLK2
  1
OPEN
  9
$DIMSTYLE
  2
STANDARD
  9
$DIMCLRD
 70
     0
  9
$DIMCLRE
 70
     0
  9
$DIMCLRT
 70
     0
  9
$DIMTFAC
 40
1.0
  9
$DIMGAP
 40
1.0
  9
$DIMJUST
 70
     0
  9
$DIMSD1
 70
     0
  9
$DIMSD2
 70
     0
  9
$DIMTOLJ
 70
     1
  9
$DIMTZIN
 70
     0
  9
$DIMALTZ
 70
     0
  9
$DIMALTTZ
 70
     0
  9
$DIMUPT
 70
     0
  9
$DIMDEC
 70
     4
  9
$DIMTDEC
 70
     4
  9
$DIMALTU
 70
     2
  9
$DIMALTTD
 70
     2
  9
$DIMTXSTY
  7
STANDARD
  9
$DIMAUNIT
 70
     0
  9
$DIMADEC
 70
     0
  9
$DIMALTRND
 40
0.0
  9
$DIMAZIN
 70
     0
  9
$DIMDSEP
 70
    46
  9
$DIMATFIT
 70
     3
  9
$DIMFRAC
 70
     0
  9
$DIMLDRBLK
  1
OPEN
  9
$DIMLUNIT
 70
     2
  9
$DIMLWD
 70
    -2
  9
$DIMLWE
 70
    -2
  9
$DIMTMOVE
 70
     0
  9
$LUNITS
 70
     2
  9
$LUPREC
 70
     4
  9
$SKETCHINC
 40
1.0
  9
$FILLETRAD
 40
0.0
  9
$AUNITS
 70
     0
  9
$AUPREC
 70
     2
  9
$MENU
  1
.
  9
$ELEVATION
 40
0.0
  9
$PELEVATION
 40
0.0
  9
$THICKNESS
 40
0.0
  9
$LIMCHECK
 70
     0
  9
$CHAMFERA
 40
10.0
  9
$CHAMFERB
 40
10.0
  9
$CHAMFERC
 40
0.0
  9
$CHAMFERD
 40
0.0
  9
$SKPOLY
 70
     0
  9
$TDCREATE
 40
2451301.423474884
  9
$TDUCREATE
 40
2451301.048474884
  9
$TDUPDATE
 40
2457192.692705046
  9
$TDUUPDATE
 40
2457192.317705047
  9
$TDINDWG
 40
0.0132898380
  9
$TDUSRTIMER
 40
0.0132896991
  9
$USRTIMER
 70
     1
  9
$ANGBASE
 50
0.0
  9
$ANGDIR
 70
     0
  9
$PDMODE
 70
     0
  9
$PDSIZE
 40
0.0
  9
$PLINEWID
 40
0.0
  9
$SPLFRAME
 70
     0
  9
$SPLINETYPE
 70
     6
  9
$SPLINESEGS
 70
     8
  9
$HANDSEED
  5
9D55
  9
$SURFTAB1
 70
     6
  9
$SURFTAB2
 70
     6
  9
$SURFTYPE
 70
     6
  9
$SURFU
 70
     6
  9
$SURFV
 70
     6
  9
$UCSBASE
  2

  9
$UCSNAME
  2

  9
$UCSORG
 10
0.0
 20
0.0
 30
0.0
  9
$UCSXDIR
 10
1.0
 20
0.0
 30
0.0
  9
$UCSYDIR
 10
0.0
 20
1.0
 30
0.0
  9
$UCSORTHOREF
  2

  9
$UCSORTHOVIEW
 70
     0
  9
$UCSORGTOP
 10
0.0
 20
0.0
 30
0.0
  9
$UCSORGBOTTOM
 10
0.0
 20
0.0
 30
0.0
  9
$UCSORGLEFT
 10
0.0
 20
0.0
 30
0.0
  9
$UCSORGRIGHT
 10
0.0
 20
0.0
 30
0.0
  9
$UCSORGFRONT
 10
0.0
 20
0.0
 30
0.0
  9
$UCSORGBACK
 10
0.0
 20
0.0
 30
0.0
  9
$PUCSBASE
  2

  9
$PUCSNAME
  2

  9
$PUCSORG
 10
0.0
 20
0.0
 30
0.0
  9
$PUCSXDIR
 10
1.0
 20
0.0
 30
0.0
  9
$PUCSYDIR
 10
0.0
 20
1.0
 30
0.0
  9
$PUCSORTHOREF
  2

  9
$PUCSORTHOVIEW
 70
     0
  9
$PUCSORGTOP
 10
0.0
 20
0.0
 30
0.0
  9
$PUCSORGBOTTOM
 10
0.0
 20
0.0
 30
0.0
  9
$PUCSORGLEFT
 10
0.0
 20
0.0
 30
0.0
  9
$PUCSORGRIGHT
 10
0.0
 20
0.0
 30
0.0
  9
$PUCSORGFRONT
 10
0.0
 20
0.0
 30
0.0
  9
$PUCSORGBACK
 10
0.0
 20
0.0
 30
0.0
  9
$USERI1
 70
     0
  9
$USERI2
 70
     0
  9
$USERI3
 70
     0
  9
$USERI4
 70
     0
  9
$USERI5
 70
     0
  9
$USERR1
 40
0.0
  9
$USERR2
 40
0.0
  9
$USERR3
 40
0.0
  9
$USERR4
 40
0.0
  9
$USERR5
 40
0.0
  9
$WORLDVIEW
 70
     1
  9
$SHADEDGE
 70
     3
  9
$SHADEDIF
 70
    70
  9
$TILEMODE
 70
     1
  9
$MAXACTVP
 70
    16
  9
$PINSBASE
 10
0.0
 20
0.0
 30
0.0
  9
$PLIMCHECK
 70
     0
  9
$PEXTMIN
 10
1.000000000000000E+20
 20
1.000000000000000E+20
 30
1.000000000000000E+20
  9
$PEXTMAX
 10
-1.000000000000000E+20
 20
-1.000000000000000E+20
 30
-1.000000000000000E+20
  9
$PLIMMIN
 10
0.0
 20
0.0
  9
$PLIMMAX
 10
420.0
 20
297.0
  9
$UNITMODE
 70
     0
  9
$VISRETAIN
 70
     0
  9
$PLINEGEN
 70
     0
  9
$PSLTSCALE
 70
     0
  9
$TREEDEPTH
 70
  3020
  9
$CMLSTYLE
  2
STANDARD
  9
$CMLJUST
 70
     0
  9
$CMLSCALE
 40
1.0
  9
$PROXYGRAPHICS
 70
     1
  9
$MEASUREMENT
 70
     0
  9
$CELWEIGHT
370
    -1
  9
$ENDCAPS
280
     0
  9
$JOINSTYLE
280
     0
  9
$LWDISPLAY
290
     0
  9
$INSUNITS
 70
     0
  9
$HYPERLINKBASE
  1

  9
$STYLESHEET
  1

  9
$XEDIT
290
     1
  9
$CEPSNTYPE
380
     0
  9
$PSTYLEMODE
290
     1
  9
$FINGERPRINTGUID
  2
{04628098-FAED-4132-AA2D-AEEE84B5CD95}
  9
$VERSIONGUID
  2
{BAB452F7-01B5-4C53-9838-C5545C96A193}
  9
$EXTNAMES
290
     1
  9
$PSVPSCALE
 40
0.0
  9
$OLESTARTUP
290
     0
  0
ENDSEC
  0
SECTION
  2
CLASSES
  0
CLASS
  1
ACDBDICTIONARYWDFLT
  2
AcDbDictionaryWithDefault
  3
ObjectDBX Classes
 90
        0
280
     0
281
     0
  0
CLASS
  1
ACDBPLACEHOLDER
  2
AcDbPlaceHolder
  3
ObjectDBX Classes
 90
        0
280
     0
281
     0
  0
CLASS
  1
LAYOUT
  2
AcDbLayout
  3
ObjectDBX Classes
 90
        0
280
     0
281
     0
  0
CLASS
  1
DICTIONARYVAR
  2
AcDbDictionaryVar
  3
ObjectDBX Classes
 90
        0
280
     0
281
     0
  0
CLASS
  1
MATERIAL
  2
AcDbMaterial
  3
ObjectDBX Classes
 90
     1153
280
     0
281
     0
  0
CLASS
  1
VISUALSTYLE
  2
AcDbVisualStyle
  3
ObjectDBX Classes
 90
     4095
280
     0
281
     0
  0
CLASS
  1
TABLESTYLE
  2
AcDbTableStyle
  3
ObjectDBX Classes
 90
     4095
280
     0
281
     0
  0
CLASS
  1
SCALE
  2
AcDbScale
  3
ObjectDBX Classes
 90
     1153
280
     0
281
     0
  0
CLASS
  1
MLEADERSTYLE
  2
AcDbMLeaderStyle
  3
ACDB_MLEADERSTYLE_CLASS
 90
     4095
280
     0
281
     0
  0
CLASS
  1
ACDBSECTIONVIEWSTYLE
  2
AcDbSectionViewStyle
  3
ObjectDBX Classes
 90
     1025
280
     0
281
     0
  0
CLASS
  1
ACDBDETAILVIEWSTYLE
  2
AcDbDetailViewStyle
  3
ObjectDBX Classes
 90
     1025
280
     0
281
     0
  0
CLASS
  1
CELLSTYLEMAP
  2
AcDbCellStyleMap
  3
ObjectDBX Classes
 90
     1152
280
     0
281
     0
  0
ENDSEC
  0
SECTION
  2
TABLES
  0
TABLE
  2
VPORT
  5
9456
330
0
100
AcDbSymbolTable
 70
     1
  0
VPORT
  5
9C9E
330
9456
100
AcDbSymbolTableRecord
100
AcDbViewportTableRecord
  2
*ACTIVE
 70
     0
 10
0.0
 20
0.0
 11
1.0
 21
1.0
 12
346.4043162344071
 22
170.7031067211391
 13
0.0
 23
0.0
 14
10.0
 24
10.0
 15
10.0
 25
10.0
 16
0.0
 26
0.0
 36
1.0
 17
0.0
 27
0.0
 37
0.0
 40
324.9836568441068
 41
2.35006605019815
 42
50.0
 43
0.0
 44
0.0
 50
0.0
 51
0.0
 71
     0
 72
   100
 73
     1
 74
     0
 75
     0
 76
     0
 77
     0
 78
     0
281
     0
 65
     1
110
0.0
120
0.0
130
0.0
111
1.0
121
0.0
131
0.0
112
0.0
122
1.0
132
0.0
 79
     0
146
0.0
1001
ACAD_NAV_VCDISPLAY
1070
     3
  0
ENDTAB
  0
TABLE
  2
LTYPE
  5
9453
330
0
100
AcDbSymbolTable
 70
     4
  0
LTYPE
  5
9461
330
9453
100
AcDbSymbolTableRecord
100
AcDbLinetypeTableRecord
  2
BYBLOCK
 70
     0
  3

 72
    65
 73
     0
 40
0.0
  0
LTYPE
  5
9462
330
9453
100
AcDbSymbolTableRecord
100
AcDbLinetypeTableRecord
  2
BYLAYER
 70
     0
  3

 72
    65
 73
     0
 40
0.0
  0
LTYPE
  5
9463
330
9453
100
AcDbSymbolTableRecord
100
AcDbLinetypeTableRecord
  2
CONTINUOUS
 70
     0
  3
Solid line
 72
    65
 73
     0
 40
0.0
  0
LTYPE
  5
9471
330
9453
100
AcDbSymbolTableRecord
100
AcDbLinetypeTableRecord
  2
DASHED
 70
     0
  3
__ __ __ __ __ __ __ __ __ __ __ __ __ __ __ __
 72
    65
 73
     2
 40
0.75
 49
0.5
 74
     0
 49
-0.25
 74
     0
  0
LTYPE
  5
9472
330
9453
100
AcDbSymbolTableRecord
100
AcDbLinetypeTableRecord
  2
CENTER
 70
     0
  3
____ _ ____ _ ____ _ ____ _ ____ _ ____ _ ____ 
 72
    65
 73
     4
 40
2.0
 49
1.25
 74
     0
 49
-0.25
 74
     0
 49
0.25
 74
     0
 49
-0.25
 74
     0
  0
LTYPE
  5
9473
330
9453
100
AcDbSymbolTableRecord
100
AcDbLinetypeTableRecord
  2
PHANTOM
 70
     0
  3
______  __  __  ______  __  __  ______  __  __ 
 72
    65
 73
     6
 40
2.5
 49
1.25
 74
     0
 49
-0.25
 74
     0
 49
0.25
 74
     0
 49
-0.25
 74
     0
 49
0.25
 74
     0
 49
-0.25
 74
     0
  0
ENDTAB
  0
TABLE
  2
LAYER
  5
9450
330
0
100
AcDbSymbolTable
 70
     8
  0
LAYER
  5
945E
102
{ACAD_XDICTIONARY
360
9CF9
102
}
330
9450
100
AcDbSymbolTableRecord
100
AcDbLayerTableRecord
  2
0
 70
     0
 62
     7
  6
CONTINUOUS
370
    -3
390
9CA7
  0
LAYER
  5
9474
102
{ACAD_XDICTIONARY
360
9CFB
102
}
330
9450
100
AcDbSymbolTableRecord
100
AcDbLayerTableRecord
  2
4
 70
     0
 62
     1
  6
CENTER
370
    -3
390
9CA7
  0
LAYER
  5
9475
102
{ACAD_XDICTIONARY
360
9CFD
102
}
330
9450
100
AcDbSymbolTableRecord
100
AcDbLayerTableRecord
  2
5
 70
     0
 62
     6
  6
PHANTOM
370
    -3
390
9CA7
  0
LAYER
  5
9476
102
{ACAD_XDICTIONARY
360
9CFF
102
}
330
9450
100
AcDbSymbolTableRecord
100
AcDbLayerTableRecord
  2
1
 70
     0
 62
     7
  6
CONTINUOUS
370
    -3
390
9CA7
  0
LAYER
  5
9477
102
{ACAD_XDICTIONARY
360
9D01
102
}
330
9450
100
AcDbSymbolTableRecord
100
AcDbLayerTableRecord
  2
2
 70
     0
 62
     4
  6
CONTINUOUS
370
    -3
390
9CA7
  0
LAYER
  5
9478
102
{ACAD_XDICTIONARY
360
9D03
102
}
330
9450
100
AcDbSymbolTableRecord
100
AcDbLayerTableRecord
  2
3
 70
     0
 62
     2
  6
DASHED
370
    -3
390
9CA7
  0
LAYER
  5
9479
102
{ACAD_XDICTIONARY
360
9D05
102
}
330
9450
100
AcDbSymbolTableRecord
100
AcDbLayerTableRecord
  2
6
 70
     0
 62
     5
  6
CONTINUOUS
370
    -3
390
9CA7
  0
LAYER
  5
947A
102
{ACAD_XDICTIONARY
360
9D07
102
}
330
9450
100
AcDbSymbolTableRecord
100
AcDbLayerTableRecord
  2
7
 70
     0
 62
     3
  6
CONTINUOUS
370
    -3
390
9CA7
  0
ENDTAB
  0
TABLE
  2
STYLE
  5
9451
330
0
100
AcDbSymbolTable
 70
     1
  0
STYLE
  5
945F
330
9451
100
AcDbSymbolTableRecord
100
AcDbTextStyleTableRecord
  2
STANDARD
 70
     0
 40
0.0
 41
1.0
 50
0.0
 71
     0
 42
5.0
  3
txt
  4

  0
ENDTAB
  0
TABLE
  2
VIEW
  5
9454
330
0
100
AcDbSymbolTable
 70
     0
  0
ENDTAB
  0
TABLE
  2
UCS
  5
9455
330
0
100
AcDbSymbolTable
 70
     0
  0
ENDTAB
  0
TABLE
  2
APPID
  5
9457
330
0
100
AcDbSymbolTable
 70
     3
  0
APPID
  5
9460
330
9457
100
AcDbSymbolTableRecord
100
AcDbRegAppTableRecord
  2
ACAD
 70
     0
  0
APPID
  5
9D13
330
9457
100
AcDbSymbolTableRecord
100
AcDbRegAppTableRecord
  2
ACAD_NAV_VCDISPLAY
 70
     0
  0
APPID
  5
9D4C
330
9457
100
AcDbSymbolTableRecord
100
AcDbRegAppTableRecord
  2
ACAD_MLEADERVER
 70
     0
  0
ENDTAB
  0
TABLE
  2
DIMSTYLE
  5
9458
330
0
100
AcDbSymbolTable
 70
     1
100
AcDbDimStyleTable
 71
     0
  0
DIMSTYLE
105
947C
330
9458
100
AcDbSymbolTableRecord
100
AcDbDimStyleTableRecord
  2
STANDARD
 70
     0
 41
3.0
 42
1.0
 43
10.0
 44
1.0
 73
     0
 74
     0
 77
     3
 78
     8
140
3.2
141
0.0
147
1.0
172
     1
173
     1
284
     8
285
     8
286
     8
340
945F
  0
ENDTAB
  0
TABLE
  2
BLOCK_RECORD
  5
944F
330
0
100
AcDbSymbolTable
 70
     1
  0
BLOCK_RECORD
  5
946C
102
{ACAD_XDICTIONARY
360
9CA1
102
}
330
944F
100
AcDbSymbolTableRecord
100
AcDbBlockTableRecord
  2
*MODEL_SPACE
340
9CF5
  0
BLOCK_RECORD
  5
9468
102
{ACAD_XDICTIONARY
360
9C9F
102
}
330
944F
100
AcDbSymbolTableRecord
100
AcDbBlockTableRecord
  2
*PAPER_SPACE
340
9CF6
  0
BLOCK_RECORD
  5
9484
330
944F
100
AcDbSymbolTableRecord
100
AcDbBlockTableRecord
  2
_OPEN
340
0
  0
ENDTAB
  0
ENDSEC
  0
SECTION
  2
BLOCKS
  0
BLOCK
  5
946D
330
946C
100
AcDbEntity
  8
0
100
AcDbBlockBegin
  2
*MODEL_SPACE
 70
     0
 10
0.0
 20
0.0
 30
0.0
  3
*MODEL_SPACE
  1

  0
ENDBLK
  5
946E
330
946C
100
AcDbEntity
  8
0
100
AcDbBlockEnd
  0
BLOCK
  5
9469
330
9468
100
AcDbEntity
 67
     1
  8
0
100
AcDbBlockBegin
  2
*PAPER_SPACE
 70
     0
 10
0.0
 20
0.0
 30
0.0
  3
*PAPER_SPACE
  1

  0
ENDBLK
  5
946A
330
9468
100
AcDbEntity
 67
     1
  8
0
100
AcDbBlockEnd
  0
BLOCK
  5
9485
330
9484
100
AcDbEntity
  8
0
100
AcDbBlockBegin
  2
_OPEN
 70
     0
 10
0.0
 20
0.0
 30
0.0
  3
_OPEN
  1

  0
LINE
  5
9486
330
9484
100
AcDbEntity
  8
0
  6
ByBlock
 62
     0
100
AcDbLine
 10
-1.0
 20
0.166667
 30
0.0
 11
0.0
 21
0.0
 31
0.0
  0
LINE
  5
9487
330
9484
100
AcDbEntity
  8
0
  6
ByBlock
 62
     0
100
AcDbLine
 10
0.0
 20
0.0
 30
0.0
 11
-1.0
 21
-0.166667
 31
0.0
  0
LINE
  5
9488
330
9484
100
AcDbEntity
  8
0
  6
ByBlock
 62
     0
100
AcDbLine
 10
0.0
 20
0.0
 30
0.0
 11
-1.0
 21
0.0
 31
0.0
  0
ENDBLK
  5
9489
330
9484
100
AcDbEntity
  8
0
100
AcDbBlockEnd
  0
ENDSEC
  0
SECTION
  2
ENTITIES
  0
TEXT
  5
948A
330
946C
100
AcDbEntity
  8
7
  6
Continuous
100
AcDbText
 10
10.0
 20
18.0
 30
0.0
 40
3.0
  1
TYPE No.TM-156-6H
100
AcDbText
  0
TEXT
  5
948B
330
946C
100
AcDbEntity
  8
7
  6
Continuous
100
AcDbText
 10
10.0
 20
26.0
 30
0.0
 40
3.0
  1
CODE No.9643
100
AcDbText
  0
TEXT
  5
948C
330
946C
100
AcDbEntity
  8
1
  6
Continuous
100
AcDbText
 10
10.0
 20
10.0
 30
0.0
 40
1.399999999999999
  1
LAYER
100
AcDbText
  0
TEXT
  5
948D
330
946C
100
AcDbEntity
  8
1
  6
Continuous
100
AcDbText
 10
17.97951099999998
 20
10.04873699999998
 30
0.0
 40
1.399999999999999
  1
1
100
AcDbText
  0
TEXT
  5
948E
330
946C
100
AcDbEntity
  8
7
  6
Continuous
100
AcDbText
 10
29.97951099999999
 20
10.04873699999998
 30
0.0
 40
1.399999999999999
  1
7
100
AcDbText
  0
TEXT
  5
948F
330
946C
100
AcDbEntity
  8
4
  6
CENTER
100
AcDbText
 10
23.97951099999999
 20
10.04873699999998
 30
0.0
 40
1.399999999999999
  1
4
100
AcDbText
  0
TEXT
  5
9490
330
946C
100
AcDbEntity
  8
3
  6
DASHED
100
AcDbText
 10
21.979511
 20
10.04873699999998
 30
0.0
 40
1.399999999999999
  1
3
100
AcDbText
  0
TEXT
  5
9491
330
946C
100
AcDbEntity
  8
2
  6
Continuous
100
AcDbText
 10
19.97951099999999
 20
10.04873699999998
 30
0.0
 40
1.399999999999999
  1
2
100
AcDbText
  0
TEXT
  5
9492
330
946C
100
AcDbEntity
  8
6
  6
Continuous
100
AcDbText
 10
27.979511
 20
10.04873699999998
 30
0.0
 40
1.399999999999999
  1
6
100
AcDbText
  0
TEXT
  5
9493
330
946C
100
AcDbEntity
  8
5
  6
PHANTOM
100
AcDbText
 10
25.97951099999999
 20
10.04873699999998
 30
0.0
 40
1.399999999999999
  1
5
100
AcDbText
  0
LINE
  5
966D
330
946C
100
AcDbEntity
  8
4
  6
CENTER
100
AcDbLine
 10
193.7084939220169
 20
236.6040855081649
 30
0.0
 11
193.7084939220169
 21
331.4130915081648
 31
0.0
  0
LINE
  5
966E
330
946C
100
AcDbEntity
  8
1
  6
Continuous
100
AcDbLine
 10
223.191978922017
 20
322.7653025081648
 30
0.0
 11
223.191978922017
 21
270.6472455081649
 31
0.0
  0
LINE
  5
966F
330
946C
100
AcDbEntity
  8
1
  6
Continuous
100
AcDbLine
 10
164.225009922017
 20
322.7653025081648
 30
0.0
 11
164.225009922017
 21
270.6472455081649
 31
0.0
  0
LINE
  5
9670
330
946C
100
AcDbEntity
  8
1
  6
Continuous
100
AcDbLine
 10
210.208493922017
 20
273.7653025081649
 30
0.0
 11
210.208493922017
 21
319.2653025081648
 31
0.0
  0
LINE
  5
9671
330
946C
100
AcDbEntity
  8
1
  6
Continuous
100
AcDbLine
 10
177.2084939220169
 20
273.7653025081649
 30
0.0
 11
177.2084939220169
 21
319.2653025081648
 31
0.0
  0
LINE
  5
9672
330
946C
100
AcDbEntity
  8
1
  6
Continuous
100
AcDbLine
 10
156.208493922017
 20
270.6472455081649
 30
0.0
 11
156.208493922017
 21
319.2653025081648
 31
0.0
  0
LINE
  5
9673
330
946C
100
AcDbEntity
  8
1
  6
Continuous
100
AcDbLine
 10
231.208493922017
 20
270.6472455081649
 30
0.0
 11
231.208493922017
 21
319.2653025081648
 31
0.0
  0
LINE
  5
9674
330
946C
100
AcDbEntity
  8
1
  6
Continuous
100
AcDbLine
 10
421.1113812446434
 20
181.0287357166049
 30
0.0
 11
428.0948652446435
 21
181.0287357166049
 31
0.0
  0
LINE
  5
9675
330
946C
100
AcDbEntity
  8
1
  6
Continuous
100
AcDbLine
 10
425.5141329960491
 20
179.4707736635044
 30
0.0
 11
434.0948652446434
 21
172.528735716605
 31
0.0
  0
LINE
  5
9676
330
946C
100
AcDbEntity
  8
3
  6
DASHED
100
AcDbLine
 10
423.6272393883039
 20
177.1384716862617
 30
0.0
 11
431.0948652446434
 21
171.0969660704153
 31
0.0
  0
ARC
  5
9677
330
946C
100
AcDbEntity
  8
1
  6
Continuous
100
AcDbCircle
 10
427.0948652446434
 20
188.5287357166049
 30
0.0
 40
1.5
100
AcDbArc
 50
90.0
 51
180.0
  0
LINE
  5
9678
330
946C
100
AcDbEntity
  8
1
  6
Continuous
100
AcDbLine
 10
413.0948652446434
 20
172.528735716605
 30
0.0
 11
450.5948652446434
 21
172.528735716605
 31
0.0
  0
LINE
  5
9679
330
946C
100
AcDbEntity
  8
1
  6
Continuous
100
AcDbLine
 10
413.0948652446434
 20
170.028735716605
 30
0.0
 11
488.0948652446432
 21
170.028735716605
 31
0.0
  0
ARC
  5
967A
330
946C
100
AcDbEntity
  8
1
  6
Continuous
100
AcDbCircle
 10
220.708493922017
 20
319.2653025081648
 30
0.0
 40
10.5
100
AcDbArc
 50
0.0
 51
180.0
  0
ARC
  5
967B
330
946C
100
AcDbEntity
  8
1
  6
Continuous
100
AcDbCircle
 10
421.1113812446434
 20
174.0287357166049
 30
0.0
 40
7.0
100
AcDbArc
 50
50.62406000000224
 51
160.1917940000002
  0
ARC
  5
967C
330
946C
100
AcDbEntity
  8
3
  6
DASHED
100
AcDbCircle
 10
421.1113812446434
 20
174.0287357166049
 30
0.0
 40
4.0
100
AcDbArc
 50
50.62406000000224
 51
160.1917940000002
  0
LINE
  5
967D
330
946C
100
AcDbEntity
  8
1
  6
Continuous
100
AcDbLine
 10
414.5451140981346
 20
176.45445947678
 30
0.0
 11
413.0948652446434
 21
172.528735716605
 31
0.0
  0
LINE
  5
967E
330
946C
100
AcDbEntity
  8
3
  6
DASHED
100
AcDbLine
 10
417.3592285894954
 20
175.4148635795622
 30
0.0
 11
416.0948652446434
 21
171.9923190883655
 31
0.0
  0
LINE
  5
967F
330
946C
100
AcDbEntity
  8
1
  6
Continuous
100
AcDbLine
 10
413.0948652446434
 20
172.528735716605
 30
0.0
 11
413.0948652446434
 21
170.028735716605
 31
0.0
  0
LINE
  5
9680
330
946C
100
AcDbEntity
  8
3
  6
DASHED
100
AcDbLine
 10
416.0948652446434
 20
172.0049307166049
 30
0.0
 11
416.0948652446434
 21
170.028735716605
 31
0.0
  0
LINE
  5
9681
330
946C
100
AcDbEntity
  8
1
  6
Continuous
100
AcDbLine
 10
425.5948652446434
 20
188.5287357166049
 30
0.0
 11
425.5948652446434
 21
181.0287357166049
 31
0.0
  0
LINE
  5
9682
330
946C
100
AcDbEntity
  8
4
  6
CENTER
100
AcDbLine
 10
450.5948652446434
 20
165.4290245579726
 30
0.0
 11
450.5948652446434
 21
193.9515311675465
 31
0.0
  0
ARC
  5
9683
330
946C
100
AcDbEntity
  8
1
  6
Continuous
100
AcDbCircle
 10
480.0783492446433
 20
174.0287357166049
 30
0.0
 40
7.0
100
AcDbArc
 50
19.80820599999972
 51
129.3759399999976
  0
LINE
  5
9684
330
946C
100
AcDbEntity
  8
1
  6
Continuous
100
AcDbLine
 10
450.5948652446434
 20
172.528735716605
 30
0.0
 11
488.0948652446432
 21
172.528735716605
 31
0.0
  0
LINE
  5
9685
330
946C
100
AcDbEntity
  8
3
  6
DASHED
100
AcDbLine
 10
431.0948652446434
 20
170.028735716605
 30
0.0
 11
431.0948652446434
 21
171.109871716605
 31
0.0
  0
LINE
  5
9686
330
946C
100
AcDbEntity
  8
1
  6
Continuous
100
AcDbLine
 10
434.0948652446434
 20
172.528735716605
 30
0.0
 11
434.0948652446434
 21
170.028735716605
 31
0.0
  0
LINE
  5
9687
330
946C
100
AcDbEntity
  8
3
  6
DASHED
100
AcDbLine
 10
477.5624911009829
 20
177.1384716862617
 30
0.0
 11
470.0948652446435
 21
171.0969660704153
 31
0.0
  0
LINE
  5
9688
330
946C
100
AcDbEntity
  8
1
  6
Continuous
100
AcDbLine
 10
475.6755974932376
 20
179.4707736635043
 30
0.0
 11
467.0948652446434
 21
172.528735716605
 31
0.0
  0
LINE
  5
9689
330
946C
100
AcDbEntity
  8
1
  6
Continuous
100
AcDbLine
 10
467.0948652446434
 20
172.528735716605
 30
0.0
 11
467.0948652446434
 21
170.028735716605
 31
0.0
  0
LINE
  5
968A
330
946C
100
AcDbEntity
  8
3
  6
DASHED
100
AcDbLine
 10
470.0948652446435
 20
170.028735716605
 30
0.0
 11
470.0948652446435
 21
171.109871716605
 31
0.0
  0
LINE
  5
968B
330
946C
100
AcDbEntity
  8
3
  6
DASHED
100
AcDbLine
 10
483.8305018997913
 20
175.4148635795622
 30
0.0
 11
485.0948652446434
 21
171.9923190883655
 31
0.0
  0
ARC
  5
968C
330
946C
100
AcDbEntity
  8
3
  6
DASHED
100
AcDbCircle
 10
480.0783492446433
 20
174.0287357166049
 30
0.0
 40
4.0
100
AcDbArc
 50
19.80820599999972
 51
129.3759399999976
  0
LINE
  5
968D
330
946C
100
AcDbEntity
  8
1
  6
Continuous
100
AcDbLine
 10
486.6446163911523
 20
176.4544594767801
 30
0.0
 11
488.0948652446432
 21
172.528735716605
 31
0.0
  0
LINE
  5
968E
330
946C
100
AcDbEntity
  8
3
  6
DASHED
100
AcDbLine
 10
485.0948652446434
 20
172.0049307166049
 30
0.0
 11
485.0948652446434
 21
170.028735716605
 31
0.0
  0
LINE
  5
968F
330
946C
100
AcDbEntity
  8
1
  6
Continuous
100
AcDbLine
 10
488.0948652446432
 20
172.528735716605
 30
0.0
 11
488.0948652446432
 21
170.028735716605
 31
0.0
  0
LINE
  5
9690
330
946C
100
AcDbEntity
  8
1
  6
Continuous
100
AcDbLine
 10
427.0948652446434
 20
190.0287357166049
 30
0.0
 11
474.0948652446435
 21
190.0287357166049
 31
0.0
  0
LINE
  5
9691
330
946C
100
AcDbEntity
  8
1
  6
Continuous
100
AcDbLine
 10
428.0948652446435
 20
189.5012357166049
 30
0.0
 11
428.0948652446435
 21
181.0287357166049
 31
0.0
  0
LINE
  5
9692
330
946C
100
AcDbEntity
  8
1
  6
Continuous
100
AcDbLine
 10
480.0783492446433
 20
181.0287357166049
 30
0.0
 11
473.0948652446435
 21
181.0287357166049
 31
0.0
  0
ARC
  5
9693
330
946C
100
AcDbEntity
  8
1
  6
Continuous
100
AcDbCircle
 10
474.0948652446435
 20
188.5287357166049
 30
0.0
 40
1.5
100
AcDbArc
 50
0.0
 51
90.0
  0
LINE
  5
9694
330
946C
100
AcDbEntity
  8
1
  6
Continuous
100
AcDbLine
 10
473.0948652446435
 20
189.5012357166049
 30
0.0
 11
473.0948652446435
 21
181.0287357166049
 31
0.0
  0
LINE
  5
9695
330
946C
100
AcDbEntity
  8
1
  6
Continuous
100
AcDbLine
 10
475.5948652446434
 20
188.5287357166049
 30
0.0
 11
475.5948652446434
 21
181.0287357166049
 31
0.0
  0
ARC
  5
9696
330
946C
100
AcDbEntity
  8
1
  6
Continuous
100
AcDbCircle
 10
166.708493922017
 20
319.2653025081648
 30
0.0
 40
10.5
100
AcDbArc
 50
0.0
 51
180.0
  0
LINE
  5
9697
330
946C
100
AcDbEntity
  8
1
  6
Continuous
100
AcDbLine
 10
231.208493922017
 20
170.028735716605
 30
0.0
 11
156.208493922017
 21
170.028735716605
 31
0.0
  0
ARC
  5
9698
330
946C
100
AcDbEntity
  8
1
  6
Continuous
100
AcDbCircle
 10
217.2084939220169
 20
188.5287357166049
 30
0.0
 40
1.5
100
AcDbArc
 50
0.0
 51
90.0
  0
ARC
  5
9699
330
946C
100
AcDbEntity
  8
1
  6
Continuous
100
AcDbCircle
 10
216.208493922017
 20
245.4328065081649
 30
0.0
 40
2.5
100
AcDbArc
 50
270.0
 51
90.0
  0
ARC
  5
969A
330
946C
100
AcDbEntity
  8
1
  6
Continuous
100
AcDbCircle
 10
221.208493922017
 20
249.7905925081649
 30
0.0
 40
5.0
100
AcDbArc
 50
108.5530050000019
 51
180.0
  0
ARC
  5
969B
330
946C
100
AcDbEntity
  8
1
  6
Continuous
100
AcDbCircle
 10
216.208493922017
 20
243.2653025081648
 30
0.0
 40
2.5
100
AcDbArc
 50
270.0
 51
0.0
  0
ARC
  5
969C
330
946C
100
AcDbEntity
  8
1
  6
Continuous
100
AcDbCircle
 10
214.208493922017
 20
270.6472455081649
 30
0.0
 40
17.0
100
AcDbArc
 50
288.5530050000019
 51
0.0
  0
LINE
  5
969D
330
946C
100
AcDbEntity
  8
1
  6
Continuous
100
AcDbLine
 10
218.708493922017
 20
245.4328065081649
 30
0.0
 11
218.708493922017
 21
243.2653025081648
 31
0.0
  0
ARC
  5
969E
330
946C
100
AcDbEntity
  8
1
  6
Continuous
100
AcDbCircle
 10
223.191978922017
 20
174.028735716605
 30
0.0
 40
7.0
100
AcDbArc
 50
19.80820599999972
 51
90.0
  0
LINE
  5
969F
330
946C
100
AcDbEntity
  8
1
  6
Continuous
100
AcDbLine
 10
218.708493922017
 20
188.5287357166049
 30
0.0
 11
218.708493922017
 21
170.028735716605
 31
0.0
  0
LINE
  5
96A0
330
946C
100
AcDbEntity
  8
1
  6
Continuous
100
AcDbLine
 10
223.191978922017
 20
181.028735716605
 30
0.0
 11
218.708493922017
 21
181.028735716605
 31
0.0
  0
LINE
  5
96A1
330
946C
100
AcDbEntity
  8
1
  6
Continuous
100
AcDbLine
 10
231.208493922017
 20
172.528735716605
 30
0.0
 11
218.708493922017
 21
172.528735716605
 31
0.0
  0
LINE
  5
96A2
330
946C
100
AcDbEntity
  8
1
  6
Continuous
100
AcDbLine
 10
231.208493922017
 20
172.528735716605
 30
0.0
 11
231.208493922017
 21
170.028735716605
 31
0.0
  0
LINE
  5
96A3
330
946C
100
AcDbEntity
  8
1
  6
Continuous
100
AcDbLine
 10
231.208493922017
 20
172.528735716605
 30
0.0
 11
229.75824661223
 21
176.4544580050101
 31
0.0
  0
ARC
  5
96A4
330
946C
100
AcDbEntity
  8
1
  6
Continuous
100
AcDbCircle
 10
173.208493922017
 20
270.6472455081649
 30
0.0
 40
17.0
100
AcDbArc
 50
180.0
 51
251.446994999998
  0
LINE
  5
96A5
330
946C
100
AcDbEntity
  8
1
  6
Continuous
100
AcDbLine
 10
205.208493922017
 20
268.7653025081648
 30
0.0
 11
182.2084939220169
 21
268.7653025081649
 31
0.0
  0
ARC
  5
96A6
330
946C
100
AcDbEntity
  8
1
  6
Continuous
100
AcDbCircle
 10
205.208493922017
 20
273.7653025081649
 30
0.0
 40
5.0
100
AcDbArc
 50
270.0
 51
0.0
  0
LINE
  5
96A7
330
946C
100
AcDbEntity
  8
1
  6
Continuous
100
AcDbLine
 10
210.7123980987499
 20
268.261398331432
 30
0.0
 11
216.8980039220169
 21
262.0757925081649
 31
0.0
  0
LINE
  5
96A8
330
946C
100
AcDbEntity
  8
1
  6
Continuous
100
AcDbLine
 10
177.36244955981
 20
268.9192581459579
 30
0.0
 11
170.518983922017
 21
262.0757925081649
 31
0.0
  0
ARC
  5
96A9
330
946C
100
AcDbEntity
  8
1
  6
Continuous
100
AcDbCircle
 10
182.2084939220169
 20
273.7653025081649
 30
0.0
 40
5.0
100
AcDbArc
 50
180.0
 51
270.0
  0
LINE
  5
96AA
330
946C
100
AcDbEntity
  8
1
  6
Continuous
100
AcDbLine
 10
216.208493922017
 20
242.9328065081649
 30
0.0
 11
171.208493922017
 21
242.9328065081649
 31
0.0
  0
LINE
  5
96AB
330
946C
100
AcDbEntity
  8
1
  6
Continuous
100
AcDbLine
 10
216.208493922017
 20
247.9328065081649
 30
0.0
 11
171.208493922017
 21
247.9328065081649
 31
0.0
  0
LINE
  5
96AC
330
946C
100
AcDbEntity
  8
1
  6
Continuous
100
AcDbLine
 10
216.208493922017
 20
240.7653025081649
 30
0.0
 11
171.208493922017
 21
240.7653025081649
 31
0.0
  0
LINE
  5
96AD
330
946C
100
AcDbEntity
  8
1
  6
Continuous
100
AcDbLine
 10
216.208493922017
 20
249.7905925081649
 30
0.0
 11
216.208493922017
 21
247.9328065081649
 31
0.0
  0
ARC
  5
96AE
330
946C
100
AcDbEntity
  8
1
  6
Continuous
100
AcDbCircle
 10
166.208493922017
 20
249.7905925081649
 30
0.0
 40
5.0
100
AcDbArc
 50
0.0
 51
71.44699499999809
  0
ARC
  5
96AF
330
946C
100
AcDbEntity
  8
1
  6
Continuous
100
AcDbCircle
 10
171.208493922017
 20
243.2653025081649
 30
0.0
 40
2.5
100
AcDbArc
 50
180.0
 51
270.0
  0
ARC
  5
96B0
330
946C
100
AcDbEntity
  8
1
  6
Continuous
100
AcDbCircle
 10
171.208493922017
 20
245.4328065081649
 30
0.0
 40
2.5
100
AcDbArc
 50
90.0
 51
270.0
  0
LINE
  5
96B1
330
946C
100
AcDbEntity
  8
1
  6
Continuous
100
AcDbLine
 10
168.708493922017
 20
243.2653025081649
 30
0.0
 11
168.708493922017
 21
245.4328065081649
 31
0.0
  0
LINE
  5
96B2
330
946C
100
AcDbEntity
  8
1
  6
Continuous
100
AcDbLine
 10
171.208493922017
 20
249.7905925081649
 30
0.0
 11
171.208493922017
 21
247.9328065081649
 31
0.0
  0
LINE
  5
96B3
330
946C
100
AcDbEntity
  8
1
  6
Continuous
100
AcDbLine
 10
217.2084939220169
 20
190.028735716605
 30
0.0
 11
170.208493922017
 21
190.028735716605
 31
0.0
  0
LINE
  5
96B4
330
946C
100
AcDbEntity
  8
4
  6
CENTER
100
AcDbLine
 10
193.7084939220169
 20
165.4290245579726
 30
0.0
 11
193.7084939220169
 21
194.4040101803929
 31
0.0
  0
ARC
  5
96B5
330
946C
100
AcDbEntity
  8
1
  6
Continuous
100
AcDbCircle
 10
164.225009922017
 20
174.028735716605
 30
0.0
 40
7.0
100
AcDbArc
 50
90.0
 51
160.1917940000006
  0
LINE
  5
96B6
330
946C
100
AcDbEntity
  8
1
  6
Continuous
100
AcDbLine
 10
168.708493922017
 20
188.5287357166049
 30
0.0
 11
168.708493922017
 21
170.028735716605
 31
0.0
  0
LINE
  5
96B7
330
946C
100
AcDbEntity
  8
1
  6
Continuous
100
AcDbLine
 10
164.225009922017
 20
181.028735716605
 30
0.0
 11
168.708493922017
 21
181.028735716605
 31
0.0
  0
ARC
  5
96B8
330
946C
100
AcDbEntity
  8
1
  6
Continuous
100
AcDbCircle
 10
170.208493922017
 20
188.5287357166049
 30
0.0
 40
1.5
100
AcDbArc
 50
90.0
 51
180.0
  0
LINE
  5
96B9
330
946C
100
AcDbEntity
  8
1
  6
Continuous
100
AcDbLine
 10
168.708493922017
 20
172.528735716605
 30
0.0
 11
156.208493922017
 21
172.528735716605
 31
0.0
  0
LINE
  5
96BA
330
946C
100
AcDbEntity
  8
1
  6
Continuous
100
AcDbLine
 10
156.208493922017
 20
172.528735716605
 30
0.0
 11
156.208493922017
 21
170.028735716605
 31
0.0
  0
LINE
  5
96BB
330
946C
100
AcDbEntity
  8
1
  6
Continuous
100
AcDbLine
 10
156.208493922017
 20
172.528735716605
 30
0.0
 11
157.6587427755081
 21
176.4544594767802
 31
0.0
  0
LINE
  5
96BC
330
946C
100
AcDbEntity
  8
3
  6
DASHED
100
AcDbLine
 10
101.4381336533929
 20
170.028735716605
 30
0.0
 11
99.32681265339295
 21
187.2240627166049
 31
0.0
  0
LINE
  5
96BD
330
946C
100
AcDbEntity
  8
3
  6
DASHED
100
AcDbLine
 10
78.47568265339294
 20
172.528735716605
 30
0.0
 11
78.47568265339294
 21
170.028735716605
 31
0.0
  0
LINE
  5
96BE
330
946C
100
AcDbEntity
  8
1
  6
Continuous
100
AcDbLine
 10
99.30817865339282
 20
187.5287357166049
 30
0.0
 11
99.30817865339282
 21
170.028735716605
 31
0.0
  0
LINE
  5
96BF
330
946C
100
AcDbEntity
  8
1
  6
Continuous
100
AcDbLine
 10
106.4756826533928
 20
170.028735716605
 30
0.0
 11
104.2895436533928
 21
187.8334087166049
 31
0.0
  0
LINE
  5
96C0
330
946C
100
AcDbEntity
  8
1
  6
Continuous
100
AcDbLine
 10
17.47568265339293
 20
170.028735716605
 30
0.0
 11
17.47568265339293
 21
174.028735716605
 31
0.0
  0
LINE
  5
96C1
330
946C
100
AcDbEntity
  8
1
  6
Continuous
100
AcDbLine
 10
99.30817865339282
 20
172.528735716605
 30
0.0
 11
17.47568265339293
 21
172.528735716605
 31
0.0
  0
LINE
  5
96C2
330
946C
100
AcDbEntity
  8
1
  6
Continuous
100
AcDbLine
 10
24.47568265339294
 20
181.028735716605
 30
0.0
 11
84.36869465339293
 21
181.028735716605
 31
0.0
  0
ARC
  5
96C3
330
946C
100
AcDbEntity
  8
1
  6
Continuous
100
AcDbCircle
 10
24.47568265339282
 20
174.0287357166049
 30
0.0
 40
7.0
100
AcDbArc
 50
90.0
 51
180.0
  0
ARC
  5
96C4
330
946C
100
AcDbEntity
  8
1
  6
Continuous
100
AcDbCircle
 10
84.23955828032251
 20
196.0281798328763
 30
0.0
 40
15.0
100
AcDbArc
 50
270.0
 51
307.9071645930529
  0
LINE
  5
96C5
330
946C
100
AcDbEntity
  8
3
  6
DASHED
100
AcDbLine
 10
93.58445265339287
 20
184.2936267166049
 30
0.0
 11
78.47568265339294
 21
172.528735716605
 31
0.0
  0
LINE
  5
96C6
330
946C
100
AcDbEntity
  8
1
  6
Continuous
100
AcDbLine
 10
100.2722186533927
 20
189.501253716605
 30
0.0
 11
93.58445265339287
 21
184.293626716605
 31
0.0
  0
ARC
  5
96C7
330
946C
100
AcDbEntity
  8
1
  6
Continuous
100
AcDbCircle
 10
101.8081786533928
 20
187.5287357166049
 30
0.0
 40
2.5
100
AcDbArc
 50
6.999999999999494
 51
180.0
  0
LINE
  5
96C8
330
946C
100
AcDbEntity
  8
4
  6
CENTER
100
AcDbLine
 10
193.7084939220169
 20
126.5264233190155
 30
0.0
 11
193.7084939220169
 21
31.71741731901565
 31
0.0
  0
LINE
  5
96C9
330
946C
100
AcDbEntity
  8
1
  6
Continuous
100
AcDbLine
 10
173.447768922017
 20
59.50467931901564
 30
0.0
 11
164.5559549220171
 21
64.93856531901565
 31
0.0
  0
LINE
  5
96CA
330
946C
100
AcDbEntity
  8
1
  6
Continuous
100
AcDbLine
 10
159.208493922017
 20
58.36520631901564
 30
0.0
 11
159.208493922017
 21
63.79909231901564
 31
0.0
  0
LINE
  5
96CB
330
946C
100
AcDbEntity
  8
1
  6
Continuous
100
AcDbLine
 10
168.8610329220169
 20
58.79184731901556
 30
0.0
 11
159.969218922017
 21
64.22573331901557
 31
0.0
  0
ARC
  5
96CC
330
946C
100
AcDbEntity
  8
1
  6
Continuous
100
AcDbCircle
 10
173.7084939220169
 20
59.93132031901563
 30
0.0
 40
0.5
100
AcDbArc
 50
238.570434000001
 51
0.0
  0
LINE
  5
96CD
330
946C
100
AcDbEntity
  8
1
  6
Continuous
100
AcDbLine
 10
213.9692189220171
 20
59.50467931901564
 30
0.0
 11
222.8610329220172
 21
64.93856531901565
 31
0.0
  0
LINE
  5
96CE
330
946C
100
AcDbEntity
  8
1
  6
Continuous
100
AcDbLine
 10
228.208493922017
 20
58.36520631901564
 30
0.0
 11
228.208493922017
 21
63.79909231901564
 31
0.0
  0
LINE
  5
96CF
330
946C
100
AcDbEntity
  8
1
  6
Continuous
100
AcDbLine
 10
218.5559549220172
 20
58.79184731901566
 30
0.0
 11
227.4477689220172
 21
64.22573331901566
 31
0.0
  0
ARC
  5
96D0
330
946C
100
AcDbEntity
  8
1
  6
Continuous
100
AcDbCircle
 10
213.708493922017
 20
59.93132031901563
 30
0.0
 40
0.5
100
AcDbArc
 50
180.0
 51
301.4295659999989
  0
LINE
  5
96D1
330
946C
100
AcDbEntity
  8
1
  6
Continuous
100
AcDbLine
 10
210.208493922017
 20
89.36520631901561
 30
0.0
 11
210.208493922017
 21
43.86520631901563
 31
0.0
  0
LINE
  5
96D2
330
946C
100
AcDbEntity
  8
1
  6
Continuous
100
AcDbLine
 10
177.2084939220169
 20
89.36520631901561
 30
0.0
 11
177.2084939220169
 21
43.86520631901563
 31
0.0
  0
LINE
  5
96D3
330
946C
100
AcDbEntity
  8
1
  6
Continuous
100
AcDbLine
 10
156.208493922017
 20
92.48326331901557
 30
0.0
 11
156.208493922017
 21
43.86520631901563
 31
0.0
  0
LINE
  5
96D4
330
946C
100
AcDbEntity
  8
1
  6
Continuous
100
AcDbLine
 10
231.208493922017
 20
92.48326331901557
 30
0.0
 11
231.208493922017
 21
43.86520631901563
 31
0.0
  0
LINE
  5
96D5
330
946C
100
AcDbEntity
  8
1
  6
Continuous
100
AcDbLine
 10
17.47568265339293
 20
170.028735716605
 30
0.0
 11
106.4756826533929
 21
170.028735716605
 31
0.0
  0
ARC
  5
96D6
330
946C
100
AcDbEntity
  8
1
  6
Continuous
100
AcDbCircle
 10
166.708493922017
 20
43.86520631901563
 30
0.0
 40
7.5
100
AcDbArc
 50
250.286561000002
 51
289.713438999998
  0
ARC
  5
96D7
330
946C
100
AcDbEntity
  8
1
  6
Continuous
100
AcDbCircle
 10
166.708493922017
 20
43.86520631901563
 30
0.0
 40
10.5
100
AcDbArc
 50
180.0
 51
0.0
  0
LINE
  5
96D8
330
946C
100
AcDbEntity
  8
1
  6
Continuous
100
AcDbLine
 10
168.600307922017
 20
57.86520631901563
 30
0.0
 11
159.708493922017
 21
57.86520631901563
 31
0.0
  0
LINE
  5
96D9
330
946C
100
AcDbEntity
  8
1
  6
Continuous
100
AcDbLine
 10
168.600307922017
 20
54.86520631901563
 30
0.0
 11
159.708493922017
 21
54.86520631901563
 31
0.0
  0
LINE
  5
96DA
330
946C
100
AcDbEntity
  8
1
  6
Continuous
100
AcDbLine
 10
168.8610329220171
 20
53.93856531901564
 30
0.0
 11
159.9692189220171
 21
48.50467931901556
 31
0.0
  0
LINE
  5
96DB
330
946C
100
AcDbEntity
  8
1
  6
Continuous
100
AcDbLine
 10
163.244391922017
 20
43.86520631901563
 30
0.0
 11
159.726373922017
 21
43.86520631901563
 31
0.0
  0
LINE
  5
96DC
330
946C
100
AcDbEntity
  8
1
  6
Continuous
100
AcDbLine
 10
163.6774049220169
 20
43.11520631901563
 30
0.0
 11
161.541337922017
 21
39.41543031901565
 31
0.0
  0
ARC
  5
96DD
330
946C
100
AcDbEntity
  8
1
  6
Continuous
100
AcDbCircle
 10
166.708493922017
 20
43.86520631901563
 30
0.0
 40
7.5
100
AcDbArc
 50
184.096044
 51
216.8676039999984
  0
ARC
  5
96DE
330
946C
100
AcDbEntity
  8
1
  6
Continuous
100
AcDbCircle
 10
161.108325922017
 20
39.66543031901557
 30
0.0
 40
0.5
100
AcDbArc
 50
216.8676039999984
 51
329.9999999999994
  0
ARC
  5
96DF
330
946C
100
AcDbEntity
  8
1
  6
Continuous
100
AcDbCircle
 10
159.726373922017
 20
43.36520631901563
 30
0.0
 40
0.5
100
AcDbArc
 50
90.0
 51
184.096044
  0
LINE
  5
96E0
330
946C
100
AcDbEntity
  8
1
  6
Continuous
100
AcDbLine
 10
159.208493922017
 20
48.93132031901563
 30
0.0
 11
159.208493922017
 21
54.36520631901563
 31
0.0
  0
ARC
  5
96E1
330
946C
100
AcDbEntity
  8
1
  6
Continuous
100
AcDbCircle
 10
159.708493922017
 20
48.93132031901563
 30
0.0
 40
0.5
100
AcDbArc
 50
180.0
 51
301.4295659999989
  0
ARC
  5
96E2
330
946C
100
AcDbEntity
  8
1
  6
Continuous
100
AcDbCircle
 10
159.708493922017
 20
58.36520631901564
 30
0.0
 40
0.5
100
AcDbArc
 50
180.0
 51
270.0
  0
ARC
  5
96E3
330
946C
100
AcDbEntity
  8
1
  6
Continuous
100
AcDbCircle
 10
159.708493922017
 20
54.36520631901563
 30
0.0
 40
0.5
100
AcDbArc
 50
90.0
 51
180.0
  0
LINE
  5
96E4
330
946C
100
AcDbEntity
  8
1
  6
Continuous
100
AcDbLine
 10
174.208493922017
 20
47.36520631901563
 30
0.0
 11
174.208493922017
 21
52.79909231901563
 31
0.0
  0
LINE
  5
96E5
330
946C
100
AcDbEntity
  8
1
  6
Continuous
100
AcDbLine
 10
173.447768922017
 20
53.22573331901558
 30
0.0
 11
164.555954922017
 21
47.79184731901557
 31
0.0
  0
LINE
  5
96E6
330
946C
100
AcDbEntity
  8
1
  6
Continuous
100
AcDbLine
 10
171.875648922017
 20
39.41543031901557
 30
0.0
 11
169.7395829220169
 21
43.11520631901557
 31
0.0
  0
ARC
  5
96E7
330
946C
100
AcDbEntity
  8
1
  6
Continuous
100
AcDbCircle
 10
170.172594922017
 20
43.36520631901563
 30
0.0
 40
0.5
100
AcDbArc
 50
90.0
 51
210.0000000000004
  0
LINE
  5
96E8
330
946C
100
AcDbEntity
  8
1
  6
Continuous
100
AcDbLine
 10
173.7084939220169
 20
46.86520631901563
 30
0.0
 11
164.8166799220169
 21
46.86520631901563
 31
0.0
  0
LINE
  5
96E9
330
946C
100
AcDbEntity
  8
1
  6
Continuous
100
AcDbLine
 10
166.2754809220169
 20
41.61520631901558
 30
0.0
 11
163.9142689220169
 21
37.52546631901557
 31
0.0
  0
ARC
  5
96EA
330
946C
100
AcDbEntity
  8
1
  6
Continuous
100
AcDbCircle
 10
164.347280922017
 20
37.27546631901557
 30
0.0
 40
0.5
100
AcDbArc
 50
149.9999999999994
 51
250.286561000002
  0
LINE
  5
96EB
330
946C
100
AcDbEntity
  8
1
  6
Continuous
100
AcDbLine
 10
169.502718922017
 20
37.52546631901557
 30
0.0
 11
167.1415069220168
 21
41.61520631901558
 31
0.0
  0
ARC
  5
96EC
330
946C
100
AcDbEntity
  8
1
  6
Continuous
100
AcDbCircle
 10
166.708493922017
 20
41.36520631901563
 30
0.0
 40
0.5
100
AcDbArc
 50
30.00000000000054
 51
149.9999999999994
  0
ARC
  5
96ED
330
946C
100
AcDbEntity
  8
1
  6
Continuous
100
AcDbCircle
 10
169.069705922017
 20
37.27546631901557
 30
0.0
 40
0.5
100
AcDbArc
 50
289.713438999998
 51
30.00000000000054
  0
ARC
  5
96EE
330
946C
100
AcDbEntity
  8
1
  6
Continuous
100
AcDbCircle
 10
164.8166799220169
 20
47.36520631901563
 30
0.0
 40
0.5
100
AcDbArc
 50
121.4295659999989
 51
270.0
  0
ARC
  5
96EF
330
946C
100
AcDbEntity
  8
1
  6
Continuous
100
AcDbCircle
 10
163.244391922017
 20
43.36520631901563
 30
0.0
 40
0.5
100
AcDbArc
 50
329.9999999999994
 51
90.0
  0
ARC
  5
96F0
330
946C
100
AcDbEntity
  8
1
  6
Continuous
100
AcDbCircle
 10
166.708493922017
 20
43.86520631901563
 30
0.0
 40
7.5
100
AcDbArc
 50
323.1323960000015
 51
355.9039559999998
  0
ARC
  5
96F1
330
946C
100
AcDbEntity
  8
1
  6
Continuous
100
AcDbCircle
 10
172.3086619220169
 20
39.66543031901557
 30
0.0
 40
0.5
100
AcDbArc
 50
210.0000000000004
 51
323.1323960000015
  0
ARC
  5
96F2
330
946C
100
AcDbEntity
  8
1
  6
Continuous
100
AcDbCircle
 10
173.7084939220169
 20
47.36520631901563
 30
0.0
 40
0.5
100
AcDbArc
 50
270.0
 51
0.0
  0
ARC
  5
96F3
330
946C
100
AcDbEntity
  8
1
  6
Continuous
100
AcDbCircle
 10
173.6906139220169
 20
43.36520631901563
 30
0.0
 40
0.5
100
AcDbArc
 50
355.9039559999998
 51
90.0
  0
LINE
  5
96F4
330
946C
100
AcDbEntity
  8
1
  6
Continuous
100
AcDbLine
 10
173.6906139220169
 20
43.86520631901563
 30
0.0
 11
170.172594922017
 21
43.86520631901563
 31
0.0
  0
ARC
  5
96F5
330
946C
100
AcDbEntity
  8
1
  6
Continuous
100
AcDbCircle
 10
168.600307922017
 20
58.36520631901564
 30
0.0
 40
0.5
100
AcDbArc
 50
270.0
 51
58.57043400000104
  0
ARC
  5
96F6
330
946C
100
AcDbEntity
  8
1
  6
Continuous
100
AcDbCircle
 10
168.600307922017
 20
54.36520631901563
 30
0.0
 40
0.5
100
AcDbArc
 50
301.4295659999989
 51
90.0
  0
ARC
  5
96F7
330
946C
100
AcDbEntity
  8
1
  6
Continuous
100
AcDbCircle
 10
173.7084939220169
 20
52.79909231901563
 30
0.0
 40
0.5
100
AcDbArc
 50
0.0
 51
121.4295659999989
  0
ARC
  5
96F8
330
946C
100
AcDbEntity
  8
1
  6
Continuous
100
AcDbCircle
 10
220.708493922017
 20
43.86520631901563
 30
0.0
 40
10.5
100
AcDbArc
 50
180.0
 51
0.0
  0
ARC
  5
96F9
330
946C
100
AcDbEntity
  8
1
  6
Continuous
100
AcDbCircle
 10
220.708493922017
 20
43.86520631901563
 30
0.0
 40
7.5
100
AcDbArc
 50
250.286561000002
 51
289.713438999998
  0
LINE
  5
96FA
330
946C
100
AcDbEntity
  8
1
  6
Continuous
100
AcDbLine
 10
218.8166799220169
 20
57.86520631901563
 30
0.0
 11
227.708493922017
 21
57.86520631901563
 31
0.0
  0
LINE
  5
96FB
330
946C
100
AcDbEntity
  8
1
  6
Continuous
100
AcDbLine
 10
218.8166799220169
 20
54.86520631901563
 30
0.0
 11
227.708493922017
 21
54.86520631901563
 31
0.0
  0
LINE
  5
96FC
330
946C
100
AcDbEntity
  8
1
  6
Continuous
100
AcDbLine
 10
218.5559549220171
 20
53.93856531901564
 30
0.0
 11
227.447768922017
 21
48.50467931901564
 31
0.0
  0
ARC
  5
96FD
330
946C
100
AcDbEntity
  8
1
  6
Continuous
100
AcDbCircle
 10
220.708493922017
 20
43.86520631901563
 30
0.0
 40
7.5
100
AcDbArc
 50
323.1323960000015
 51
355.9039559999998
  0
LINE
  5
96FE
330
946C
100
AcDbEntity
  8
1
  6
Continuous
100
AcDbLine
 10
224.1725949220171
 20
43.86520631901563
 30
0.0
 11
227.690613922017
 21
43.86520631901563
 31
0.0
  0
LINE
  5
96FF
330
946C
100
AcDbEntity
  8
1
  6
Continuous
100
AcDbLine
 10
213.208493922017
 20
47.36520631901563
 30
0.0
 11
213.208493922017
 21
52.79909231901563
 31
0.0
  0
LINE
  5
9700
330
946C
100
AcDbEntity
  8
1
  6
Continuous
100
AcDbLine
 10
213.9692189220171
 20
53.22573331901566
 30
0.0
 11
222.861032922017
 21
47.79184731901565
 31
0.0
  0
LINE
  5
9701
330
946C
100
AcDbEntity
  8
1
  6
Continuous
100
AcDbLine
 10
217.9142689220169
 20
37.52546631901557
 30
0.0
 11
220.275480922017
 21
41.61520631901558
 31
0.0
  0
LINE
  5
9702
330
946C
100
AcDbEntity
  8
1
  6
Continuous
100
AcDbLine
 10
213.708493922017
 20
46.86520631901563
 30
0.0
 11
222.6003079220171
 21
46.86520631901563
 31
0.0
  0
ARC
  5
9703
330
946C
100
AcDbEntity
  8
1
  6
Continuous
100
AcDbCircle
 10
220.708493922017
 20
43.86520631901563
 30
0.0
 40
7.5
100
AcDbArc
 50
184.096044
 51
216.8676039999984
  0
LINE
  5
9704
330
946C
100
AcDbEntity
  8
1
  6
Continuous
100
AcDbLine
 10
215.541337922017
 20
39.41543031901557
 30
0.0
 11
217.677404922017
 21
43.11520631901557
 31
0.0
  0
ARC
  5
9705
330
946C
100
AcDbEntity
  8
1
  6
Continuous
100
AcDbCircle
 10
215.1083259220171
 20
39.66543031901557
 30
0.0
 40
0.5
100
AcDbArc
 50
216.8676039999984
 51
329.9999999999994
  0
ARC
  5
9706
330
946C
100
AcDbEntity
  8
1
  6
Continuous
100
AcDbCircle
 10
218.347280922017
 20
37.27546631901557
 30
0.0
 40
0.5
100
AcDbArc
 50
149.9999999999994
 51
250.286561000002
  0
LINE
  5
9707
330
946C
100
AcDbEntity
  8
1
  6
Continuous
100
AcDbLine
 10
213.726373922017
 20
43.86520631901563
 30
0.0
 11
217.2443919220171
 21
43.86520631901563
 31
0.0
  0
ARC
  5
9708
330
946C
100
AcDbEntity
  8
1
  6
Continuous
100
AcDbCircle
 10
213.708493922017
 20
47.36520631901563
 30
0.0
 40
0.5
100
AcDbArc
 50
180.0
 51
270.0
  0
ARC
  5
9709
330
946C
100
AcDbEntity
  8
1
  6
Continuous
100
AcDbCircle
 10
213.726373922017
 20
43.36520631901563
 30
0.0
 40
0.5
100
AcDbArc
 50
90.0
 51
184.096044
  0
ARC
  5
970A
330
946C
100
AcDbEntity
  8
1
  6
Continuous
100
AcDbCircle
 10
217.2443919220171
 20
43.36520631901563
 30
0.0
 40
0.5
100
AcDbArc
 50
329.9999999999994
 51
90.0
  0
LINE
  5
970B
330
946C
100
AcDbEntity
  8
1
  6
Continuous
100
AcDbLine
 10
223.7395829220168
 20
43.11520631901557
 30
0.0
 11
225.875648922017
 21
39.41543031901557
 31
0.0
  0
LINE
  5
970C
330
946C
100
AcDbEntity
  8
1
  6
Continuous
100
AcDbLine
 10
221.1415069220169
 20
41.61520631901558
 30
0.0
 11
223.502718922017
 21
37.52546631901557
 31
0.0
  0
ARC
  5
970D
330
946C
100
AcDbEntity
  8
1
  6
Continuous
100
AcDbCircle
 10
223.069705922017
 20
37.27546631901557
 30
0.0
 40
0.5
100
AcDbArc
 50
289.713438999998
 51
30.00000000000054
  0
ARC
  5
970E
330
946C
100
AcDbEntity
  8
1
  6
Continuous
100
AcDbCircle
 10
220.708493922017
 20
41.36520631901563
 30
0.0
 40
0.5
100
AcDbArc
 50
30.00000000000054
 51
149.9999999999994
  0
ARC
  5
970F
330
946C
100
AcDbEntity
  8
1
  6
Continuous
100
AcDbCircle
 10
226.308661922017
 20
39.66543031901557
 30
0.0
 40
0.5
100
AcDbArc
 50
210.0000000000004
 51
323.1323960000015
  0
ARC
  5
9710
330
946C
100
AcDbEntity
  8
1
  6
Continuous
100
AcDbCircle
 10
222.6003079220171
 20
47.36520631901563
 30
0.0
 40
0.5
100
AcDbArc
 50
270.0
 51
58.57043400000104
  0
ARC
  5
9711
330
946C
100
AcDbEntity
  8
1
  6
Continuous
100
AcDbCircle
 10
224.1725949220171
 20
43.36520631901563
 30
0.0
 40
0.5
100
AcDbArc
 50
90.0
 51
210.0000000000004
  0
ARC
  5
9712
330
946C
100
AcDbEntity
  8
1
  6
Continuous
100
AcDbCircle
 10
213.708493922017
 20
52.79909231901563
 30
0.0
 40
0.5
100
AcDbArc
 50
58.57043400000104
 51
180.0
  0
ARC
  5
9713
330
946C
100
AcDbEntity
  8
1
  6
Continuous
100
AcDbCircle
 10
218.8166799220169
 20
58.36520631901564
 30
0.0
 40
0.5
100
AcDbArc
 50
121.4295659999989
 51
270.0
  0
ARC
  5
9714
330
946C
100
AcDbEntity
  8
1
  6
Continuous
100
AcDbCircle
 10
218.8166799220169
 20
54.36520631901563
 30
0.0
 40
0.5
100
AcDbArc
 50
90.0
 51
238.570434000001
  0
ARC
  5
9715
330
946C
100
AcDbEntity
  8
1
  6
Continuous
100
AcDbCircle
 10
227.690613922017
 20
43.36520631901563
 30
0.0
 40
0.5
100
AcDbArc
 50
355.9039559999998
 51
90.0
  0
LINE
  5
9716
330
946C
100
AcDbEntity
  8
1
  6
Continuous
100
AcDbLine
 10
228.208493922017
 20
48.93132031901563
 30
0.0
 11
228.208493922017
 21
54.36520631901563
 31
0.0
  0
ARC
  5
9717
330
946C
100
AcDbEntity
  8
1
  6
Continuous
100
AcDbCircle
 10
227.708493922017
 20
48.93132031901563
 30
0.0
 40
0.5
100
AcDbArc
 50
238.570434000001
 51
0.0
  0
ARC
  5
9718
330
946C
100
AcDbEntity
  8
1
  6
Continuous
100
AcDbCircle
 10
227.708493922017
 20
58.36520631901564
 30
0.0
 40
0.5
100
AcDbArc
 50
270.0
 51
0.0
  0
ARC
  5
9719
330
946C
100
AcDbEntity
  8
1
  6
Continuous
100
AcDbCircle
 10
227.708493922017
 20
54.36520631901563
 30
0.0
 40
0.5
100
AcDbArc
 50
0.0
 51
90.0
  0
ARC
  5
971A
330
946C
100
AcDbEntity
  8
1
  6
Continuous
100
AcDbCircle
 10
182.2084939220169
 20
89.36520631901561
 30
0.0
 40
8.0
100
AcDbArc
 50
103.6089610000001
 51
121.3910389999975
  0
LINE
  5
971B
330
946C
100
AcDbEntity
  8
1
  6
Continuous
100
AcDbLine
 10
180.2084939220169
 20
106.8652063190156
 30
0.0
 11
171.066827922017
 21
106.8652063190156
 31
0.0
  0
LINE
  5
971C
330
946C
100
AcDbEntity
  8
1
  6
Continuous
100
AcDbLine
 10
180.2084939220169
 20
109.8652063190156
 30
0.0
 11
174.1709739220169
 21
109.8652063190156
 31
0.0
  0
LINE
  5
971D
330
946C
100
AcDbEntity
  8
1
  6
Continuous
100
AcDbLine
 10
180.2084939220169
 20
119.3652063190156
 30
0.0
 11
174.7084939220169
 21
119.3652063190156
 31
0.0
  0
ARC
  5
971E
330
946C
100
AcDbEntity
  8
1
  6
Continuous
100
AcDbCircle
 10
182.2084939220169
 20
89.36520631901561
 30
0.0
 40
5.0
100
AcDbArc
 50
90.0
 51
180.0
  0
LINE
  5
971F
330
946C
100
AcDbEntity
  8
1
  6
Continuous
100
AcDbLine
 10
216.208493922017
 20
122.3652063190156
 30
0.0
 11
171.208493922017
 21
122.3652063190156
 31
0.0
  0
ARC
  5
9720
330
946C
100
AcDbEntity
  8
1
  6
Continuous
100
AcDbCircle
 10
166.208493922017
 20
113.3399163190155
 30
0.0
 40
8.0
100
AcDbArc
 50
289.652048999998
 51
304.8596909999989
  0
ARC
  5
9721
330
946C
100
AcDbEntity
  8
1
  6
Continuous
100
AcDbCircle
 10
173.208493922017
 20
92.48326331901557
 30
0.0
 40
17.0
100
AcDbArc
 50
108.5530050000018
 51
180.0
  0
LINE
  5
9722
330
946C
100
AcDbEntity
  8
1
  6
Continuous
100
AcDbLine
 10
159.208493922017
 20
80.36520631901565
 30
0.0
 11
159.208493922017
 21
85.79909231901565
 31
0.0
  0
LINE
  5
9723
330
946C
100
AcDbEntity
  8
1
  6
Continuous
100
AcDbLine
 10
173.4477689220171
 20
81.50467931901564
 30
0.0
 11
164.5559549220171
 21
86.93856531901564
 31
0.0
  0
LINE
  5
9724
330
946C
100
AcDbEntity
  8
1
  6
Continuous
100
AcDbLine
 10
168.8610329220171
 20
80.79184731901566
 30
0.0
 11
159.969218922017
 21
86.22573331901566
 31
0.0
  0
LINE
  5
9725
330
946C
100
AcDbEntity
  8
1
  6
Continuous
100
AcDbLine
 10
174.208493922017
 20
81.93132031901564
 30
0.0
 11
174.208493922017
 21
87.36520631901564
 31
0.0
  0
LINE
  5
9726
330
946C
100
AcDbEntity
  8
1
  6
Continuous
100
AcDbLine
 10
168.600307922017
 20
79.86520631901564
 30
0.0
 11
159.708493922017
 21
79.86520631901564
 31
0.0
  0
LINE
  5
9727
330
946C
100
AcDbEntity
  8
1
  6
Continuous
100
AcDbLine
 10
168.600307922017
 20
76.86520631901564
 30
0.0
 11
159.708493922017
 21
76.86520631901564
 31
0.0
  0
LINE
  5
9728
330
946C
100
AcDbEntity
  8
1
  6
Continuous
100
AcDbLine
 10
168.8610329220169
 20
75.93856531901557
 30
0.0
 11
159.969218922017
 21
70.50467931901557
 31
0.0
  0
LINE
  5
9729
330
946C
100
AcDbEntity
  8
1
  6
Continuous
100
AcDbLine
 10
159.208493922017
 20
70.93132031901564
 30
0.0
 11
159.208493922017
 21
76.36520631901564
 31
0.0
  0
ARC
  5
972A
330
946C
100
AcDbEntity
  8
1
  6
Continuous
100
AcDbCircle
 10
159.708493922017
 20
63.79909231901564
 30
0.0
 40
0.5
100
AcDbArc
 50
58.57043400000104
 51
180.0
  0
ARC
  5
972B
330
946C
100
AcDbEntity
  8
1
  6
Continuous
100
AcDbCircle
 10
159.708493922017
 20
70.93132031901564
 30
0.0
 40
0.5
100
AcDbArc
 50
180.0
 51
301.4295659999989
  0
ARC
  5
972C
330
946C
100
AcDbEntity
  8
1
  6
Continuous
100
AcDbCircle
 10
159.708493922017
 20
76.36520631901564
 30
0.0
 40
0.5
100
AcDbArc
 50
90.0
 51
180.0
  0
ARC
  5
972D
330
946C
100
AcDbEntity
  8
1
  6
Continuous
100
AcDbCircle
 10
159.708493922017
 20
80.36520631901565
 30
0.0
 40
0.5
100
AcDbArc
 50
180.0
 51
270.0
  0
LINE
  5
972E
330
946C
100
AcDbEntity
  8
1
  6
Continuous
100
AcDbLine
 10
174.208493922017
 20
69.36520631901564
 30
0.0
 11
174.208493922017
 21
74.79909231901564
 31
0.0
  0
LINE
  5
972F
330
946C
100
AcDbEntity
  8
1
  6
Continuous
100
AcDbLine
 10
173.4477689220169
 20
75.22573331901566
 30
0.0
 11
164.555954922017
 21
69.79184731901566
 31
0.0
  0
LINE
  5
9730
330
946C
100
AcDbEntity
  8
1
  6
Continuous
100
AcDbLine
 10
173.7084939220169
 20
68.86520631901564
 30
0.0
 11
164.8166799220169
 21
68.86520631901564
 31
0.0
  0
LINE
  5
9731
330
946C
100
AcDbEntity
  8
1
  6
Continuous
100
AcDbLine
 10
173.7084939220169
 20
65.86520631901564
 30
0.0
 11
164.8166799220169
 21
65.86520631901564
 31
0.0
  0
ARC
  5
9732
330
946C
100
AcDbEntity
  8
1
  6
Continuous
100
AcDbCircle
 10
164.8166799220169
 20
65.36520631901564
 30
0.0
 40
0.5
100
AcDbArc
 50
90.0
 51
238.570434000001
  0
ARC
  5
9733
330
946C
100
AcDbEntity
  8
1
  6
Continuous
100
AcDbCircle
 10
164.8166799220169
 20
69.36520631901564
 30
0.0
 40
0.5
100
AcDbArc
 50
121.4295659999989
 51
270.0
  0
ARC
  5
9734
330
946C
100
AcDbEntity
  8
1
  6
Continuous
100
AcDbCircle
 10
173.7084939220169
 20
65.36520631901564
 30
0.0
 40
0.5
100
AcDbArc
 50
0.0
 51
90.0
  0
LINE
  5
9735
330
946C
100
AcDbEntity
  8
1
  6
Continuous
100
AcDbLine
 10
174.208493922017
 20
59.93132031901563
 30
0.0
 11
174.208493922017
 21
65.36520631901564
 31
0.0
  0
ARC
  5
9736
330
946C
100
AcDbEntity
  8
1
  6
Continuous
100
AcDbCircle
 10
173.7084939220169
 20
69.36520631901564
 30
0.0
 40
0.5
100
AcDbArc
 50
270.0
 51
0.0
  0
ARC
  5
9737
330
946C
100
AcDbEntity
  8
1
  6
Continuous
100
AcDbCircle
 10
168.600307922017
 20
76.36520631901564
 30
0.0
 40
0.5
100
AcDbArc
 50
301.4295659999989
 51
90.0
  0
ARC
  5
9738
330
946C
100
AcDbEntity
  8
1
  6
Continuous
100
AcDbCircle
 10
168.600307922017
 20
80.36520631901565
 30
0.0
 40
0.5
100
AcDbArc
 50
270.0
 51
58.57043400000104
  0
ARC
  5
9739
330
946C
100
AcDbEntity
  8
1
  6
Continuous
100
AcDbCircle
 10
173.7084939220169
 20
74.79909231901564
 30
0.0
 40
0.5
100
AcDbArc
 50
0.0
 51
121.4295659999989
  0
ARC
  5
973A
330
946C
100
AcDbEntity
  8
1
  6
Continuous
100
AcDbCircle
 10
173.7084939220169
 20
81.93132031901564
 30
0.0
 40
0.5
100
AcDbArc
 50
238.570434000001
 51
0.0
  0
LINE
  5
973B
330
946C
100
AcDbEntity
  8
1
  6
Continuous
100
AcDbLine
 10
168.795260922017
 20
99.86131331901558
 30
0.0
 11
160.051417922017
 21
93.08037431901556
 31
0.0
  0
ARC
  5
973C
330
946C
100
AcDbEntity
  8
1
  6
Continuous
100
AcDbCircle
 10
173.208493922017
 20
92.48326331901557
 30
0.0
 40
14.0
100
AcDbArc
 50
125.7967079999999
 51
175.7850849999999
  0
ARC
  5
973D
330
946C
100
AcDbEntity
  8
1
  6
Continuous
100
AcDbCircle
 10
159.708493922017
 20
85.79909231901565
 30
0.0
 40
0.5
100
AcDbArc
 50
58.57043400000104
 51
180.0
  0
ARC
  5
973E
330
946C
100
AcDbEntity
  8
1
  6
Continuous
100
AcDbCircle
 10
159.7450059220169
 20
93.47548331901563
 30
0.0
 40
0.5
100
AcDbArc
 50
175.7850849999999
 51
307.7939430000014
  0
LINE
  5
973F
330
946C
100
AcDbEntity
  8
1
  6
Continuous
100
AcDbLine
 10
171.033382922017
 20
97.80058831901563
 30
0.0
 11
163.244611922017
 21
91.76031631901564
 31
0.0
  0
LINE
  5
9740
330
946C
100
AcDbEntity
  8
1
  6
Continuous
100
AcDbLine
 10
175.306172922017
 20
94.14620631901563
 30
0.0
 11
171.693347922017
 21
97.75903131901566
 31
0.0
  0
LINE
  5
9741
330
946C
100
AcDbEntity
  8
1
  6
Continuous
100
AcDbLine
 10
173.947137922017
 20
90.86520631901564
 30
0.0
 11
163.5510239220169
 21
90.86520631901564
 31
0.0
  0
LINE
  5
9742
330
946C
100
AcDbEntity
  8
1
  6
Continuous
100
AcDbLine
 10
173.7084939220169
 20
87.86520631901565
 30
0.0
 11
164.8166799220169
 21
87.86520631901565
 31
0.0
  0
ARC
  5
9743
330
946C
100
AcDbEntity
  8
1
  6
Continuous
100
AcDbCircle
 10
164.8166799220169
 20
87.36520631901564
 30
0.0
 40
0.5
100
AcDbArc
 50
90.0
 51
238.570434000001
  0
ARC
  5
9744
330
946C
100
AcDbEntity
  8
1
  6
Continuous
100
AcDbCircle
 10
163.5510239220169
 20
91.36520631901564
 30
0.0
 40
0.5
100
AcDbArc
 50
127.7939430000015
 51
270.0
  0
ARC
  5
9745
330
946C
100
AcDbEntity
  8
1
  6
Continuous
100
AcDbCircle
 10
173.7084939220169
 20
87.36520631901564
 30
0.0
 40
0.5
100
AcDbArc
 50
0.0
 51
90.0
  0
ARC
  5
9746
330
946C
100
AcDbEntity
  8
1
  6
Continuous
100
AcDbCircle
 10
173.947137922017
 20
91.36520631901564
 30
0.0
 40
0.5
100
AcDbArc
 50
270.0
 51
346.3910390000003
  0
ARC
  5
9747
330
946C
100
AcDbEntity
  8
1
  6
Continuous
100
AcDbCircle
 10
182.2084939220169
 20
89.36520631901561
 30
0.0
 40
8.0
100
AcDbArc
 50
148.608961
 51
166.3910390000002
  0
ARC
  5
9748
330
946C
100
AcDbEntity
  8
1
  6
Continuous
100
AcDbCircle
 10
174.9526199220171
 20
93.79265331901564
 30
0.0
 40
0.5
100
AcDbArc
 50
328.608961
 51
44.99999999999971
  0
LINE
  5
9749
330
946C
100
AcDbEntity
  8
1
  6
Continuous
100
AcDbLine
 10
177.427492922017
 20
96.26752731901561
 30
0.0
 11
168.713551922017
 21
104.9814683190155
 31
0.0
  0
ARC
  5
974A
330
946C
100
AcDbEntity
  8
1
  6
Continuous
100
AcDbCircle
 10
168.488849922017
 20
100.2564233190156
 30
0.0
 40
0.5
100
AcDbArc
 50
307.7939430000014
 51
44.99999999999971
  0
LINE
  5
974B
330
946C
100
AcDbEntity
  8
1
  6
Continuous
100
AcDbLine
 10
168.842402922017
 20
100.6099763190156
 30
0.0
 11
165.665747922017
 21
103.7866323190156
 31
0.0
  0
ARC
  5
974C
330
946C
100
AcDbEntity
  8
1
  6
Continuous
100
AcDbCircle
 10
165.3121939220169
 20
103.4330783190155
 30
0.0
 40
0.5
100
AcDbArc
 50
44.99999999999971
 51
125.7967079999999
  0
ARC
  5
974D
330
946C
100
AcDbEntity
  8
1
  6
Continuous
100
AcDbCircle
 10
169.0671049220169
 20
105.3350223190156
 30
0.0
 40
0.5
100
AcDbArc
 50
109.652048999998
 51
224.9999999999997
  0
ARC
  5
974E
330
946C
100
AcDbEntity
  8
1
  6
Continuous
100
AcDbCircle
 10
171.3397949220169
 20
97.40547831901558
 30
0.0
 40
0.5
100
AcDbArc
 50
44.99999999999971
 51
127.7939430000015
  0
ARC
  5
974F
330
946C
100
AcDbEntity
  8
1
  6
Continuous
100
AcDbCircle
 10
177.7810469220169
 20
96.62108031901563
 30
0.0
 40
0.5
100
AcDbArc
 50
224.9999999999997
 51
301.3910389999975
  0
LINE
  5
9750
330
946C
100
AcDbEntity
  8
1
  6
Continuous
100
AcDbLine
 10
174.208493922017
 20
113.3399163190155
 30
0.0
 11
174.208493922017
 21
118.8652063190156
 31
0.0
  0
LINE
  5
9751
330
946C
100
AcDbEntity
  8
1
  6
Continuous
100
AcDbLine
 10
168.708493922017
 20
119.8652063190156
 30
0.0
 11
168.708493922017
 21
117.6977023190155
 31
0.0
  0
ARC
  5
9752
330
946C
100
AcDbEntity
  8
1
  6
Continuous
100
AcDbCircle
 10
171.208493922017
 20
117.6977023190155
 30
0.0
 40
2.5
100
AcDbArc
 50
180.0
 51
270.0
  0
ARC
  5
9753
330
946C
100
AcDbEntity
  8
1
  6
Continuous
100
AcDbCircle
 10
166.208493922017
 20
113.3399163190155
 30
0.0
 40
5.0
100
AcDbArc
 50
288.5530050000019
 51
0.0
  0
ARC
  5
9754
330
946C
100
AcDbEntity
  8
1
  6
Continuous
100
AcDbCircle
 10
166.208493922017
 20
113.3399163190155
 30
0.0
 40
8.0
100
AcDbArc
 50
339.5147670000008
 51
0.0
  0
ARC
  5
9755
330
946C
100
AcDbEntity
  8
1
  6
Continuous
100
AcDbCircle
 10
174.1709739220169
 20
110.3652063190156
 30
0.0
 40
0.5
100
AcDbArc
 50
159.5147670000009
 51
270.0
  0
ARC
  5
9756
330
946C
100
AcDbEntity
  8
1
  6
Continuous
100
AcDbCircle
 10
171.066827922017
 20
106.3652063190156
 30
0.0
 40
0.5
100
AcDbArc
 50
90.0
 51
124.8596909999989
  0
LINE
  5
9757
330
946C
100
AcDbEntity
  8
1
  6
Continuous
100
AcDbLine
 10
171.208493922017
 20
113.3399163190155
 30
0.0
 11
171.208493922017
 21
115.1977023190155
 31
0.0
  0
ARC
  5
9758
330
946C
100
AcDbEntity
  8
1
  6
Continuous
100
AcDbCircle
 10
171.208493922017
 20
119.8652063190156
 30
0.0
 40
2.5
100
AcDbArc
 50
90.0
 51
180.0
  0
ARC
  5
9759
330
946C
100
AcDbEntity
  8
1
  6
Continuous
100
AcDbCircle
 10
174.7084939220169
 20
118.8652063190156
 30
0.0
 40
0.5
100
AcDbArc
 50
90.0
 51
180.0
  0
LINE
  5
975A
330
946C
100
AcDbEntity
  8
1
  6
Continuous
100
AcDbLine
 10
183.708493922017
 20
97.86520631901565
 30
0.0
 11
183.708493922017
 21
106.3652063190156
 31
0.0
  0
LINE
  5
975B
330
946C
100
AcDbEntity
  8
1
  6
Continuous
100
AcDbLine
 10
180.7084939220169
 20
97.62656231901566
 30
0.0
 11
180.7084939220169
 21
106.3652063190156
 31
0.0
  0
LINE
  5
975C
330
946C
100
AcDbEntity
  8
1
  6
Continuous
100
AcDbLine
 10
192.2084939220169
 20
97.86520631901565
 30
0.0
 11
192.2084939220169
 21
106.3652063190156
 31
0.0
  0
ARC
  5
975D
330
946C
100
AcDbEntity
  8
1
  6
Continuous
100
AcDbCircle
 10
221.208493922017
 20
113.3399163190155
 30
0.0
 40
8.0
100
AcDbArc
 50
235.140309000001
 51
250.3479510000019
  0
LINE
  5
975E
330
946C
100
AcDbEntity
  8
1
  6
Continuous
100
AcDbLine
 10
203.708493922017
 20
97.86520631901565
 30
0.0
 11
203.708493922017
 21
106.3652063190156
 31
0.0
  0
LINE
  5
975F
330
946C
100
AcDbEntity
  8
1
  6
Continuous
100
AcDbLine
 10
206.708493922017
 20
97.62656231901566
 30
0.0
 11
206.708493922017
 21
106.3652063190156
 31
0.0
  0
LINE
  5
9760
330
946C
100
AcDbEntity
  8
1
  6
Continuous
100
AcDbLine
 10
195.208493922017
 20
97.86520631901565
 30
0.0
 11
195.208493922017
 21
106.3652063190156
 31
0.0
  0
ARC
  5
9761
330
946C
100
AcDbEntity
  8
1
  6
Continuous
100
AcDbCircle
 10
214.208493922017
 20
92.48326331901557
 30
0.0
 40
17.0
100
AcDbArc
 50
0.0
 51
71.44699499999813
  0
LINE
  5
9762
330
946C
100
AcDbEntity
  8
1
  6
Continuous
100
AcDbLine
 10
209.989493922017
 20
96.26752731901564
 30
0.0
 11
218.7034359220171
 21
104.9814683190155
 31
0.0
  0
ARC
  5
9763
330
946C
100
AcDbEntity
  8
1
  6
Continuous
100
AcDbCircle
 10
205.208493922017
 20
89.36520631901561
 30
0.0
 40
5.0
100
AcDbArc
 50
0.0
 51
90.0
  0
LINE
  5
9764
330
946C
100
AcDbEntity
  8
1
  6
Continuous
100
AcDbLine
 10
205.208493922017
 20
94.36520631901563
 30
0.0
 11
182.2084939220169
 21
94.36520631901563
 31
0.0
  0
LINE
  5
9765
330
946C
100
AcDbEntity
  8
1
  6
Continuous
100
AcDbLine
 10
191.7084939220169
 20
97.36520631901564
 30
0.0
 11
184.2084939220169
 21
97.36520631901564
 31
0.0
  0
ARC
  5
9766
330
946C
100
AcDbEntity
  8
1
  6
Continuous
100
AcDbCircle
 10
180.2084939220169
 20
97.62656231901566
 30
0.0
 40
0.5
100
AcDbArc
 50
283.6089610000001
 51
0.0
  0
ARC
  5
9767
330
946C
100
AcDbEntity
  8
1
  6
Continuous
100
AcDbCircle
 10
184.2084939220169
 20
97.86520631901565
 30
0.0
 40
0.5
100
AcDbArc
 50
180.0
 51
270.0
  0
ARC
  5
9768
330
946C
100
AcDbEntity
  8
1
  6
Continuous
100
AcDbCircle
 10
191.7084939220169
 20
97.86520631901565
 30
0.0
 40
0.5
100
AcDbArc
 50
270.0
 51
0.0
  0
LINE
  5
9769
330
946C
100
AcDbEntity
  8
1
  6
Continuous
100
AcDbLine
 10
195.7084939220169
 20
97.36520631901564
 30
0.0
 11
203.208493922017
 21
97.36520631901564
 31
0.0
  0
ARC
  5
976A
330
946C
100
AcDbEntity
  8
1
  6
Continuous
100
AcDbCircle
 10
195.7084939220169
 20
97.86520631901565
 30
0.0
 40
0.5
100
AcDbArc
 50
180.0
 51
270.0
  0
ARC
  5
976B
330
946C
100
AcDbEntity
  8
1
  6
Continuous
100
AcDbCircle
 10
207.208493922017
 20
97.62656231901566
 30
0.0
 40
0.5
100
AcDbArc
 50
180.0
 51
256.3910389999998
  0
ARC
  5
976C
330
946C
100
AcDbEntity
  8
1
  6
Continuous
100
AcDbCircle
 10
203.208493922017
 20
97.86520631901565
 30
0.0
 40
0.5
100
AcDbArc
 50
270.0
 51
0.0
  0
ARC
  5
976D
330
946C
100
AcDbEntity
  8
1
  6
Continuous
100
AcDbCircle
 10
205.208493922017
 20
89.36520631901561
 30
0.0
 40
8.0
100
AcDbArc
 50
58.60896100000247
 51
76.3910389999998
  0
ARC
  5
976E
330
946C
100
AcDbEntity
  8
1
  6
Continuous
100
AcDbCircle
 10
209.635940922017
 20
96.62108031901563
 30
0.0
 40
0.5
100
AcDbArc
 50
238.6089610000024
 51
315.0000000000003
  0
LINE
  5
976F
330
946C
100
AcDbEntity
  8
1
  6
Continuous
100
AcDbLine
 10
228.208493922017
 20
80.36520631901565
 30
0.0
 11
228.208493922017
 21
85.79909231901565
 31
0.0
  0
LINE
  5
9770
330
946C
100
AcDbEntity
  8
1
  6
Continuous
100
AcDbLine
 10
213.9692189220172
 20
81.50467931901564
 30
0.0
 11
222.861032922017
 21
86.93856531901564
 31
0.0
  0
LINE
  5
9771
330
946C
100
AcDbEntity
  8
1
  6
Continuous
100
AcDbLine
 10
218.5559549220171
 20
80.79184731901555
 30
0.0
 11
227.447768922017
 21
86.22573331901566
 31
0.0
  0
LINE
  5
9772
330
946C
100
AcDbEntity
  8
1
  6
Continuous
100
AcDbLine
 10
213.208493922017
 20
81.93132031901564
 30
0.0
 11
213.208493922017
 21
87.36520631901564
 31
0.0
  0
LINE
  5
9773
330
946C
100
AcDbEntity
  8
1
  6
Continuous
100
AcDbLine
 10
218.8166799220169
 20
79.86520631901564
 30
0.0
 11
227.708493922017
 21
79.86520631901564
 31
0.0
  0
LINE
  5
9774
330
946C
100
AcDbEntity
  8
1
  6
Continuous
100
AcDbLine
 10
218.8166799220169
 20
76.86520631901564
 30
0.0
 11
227.708493922017
 21
76.86520631901564
 31
0.0
  0
LINE
  5
9775
330
946C
100
AcDbEntity
  8
1
  6
Continuous
100
AcDbLine
 10
218.5559549220171
 20
75.93856531901565
 30
0.0
 11
227.447768922017
 21
70.50467931901565
 31
0.0
  0
LINE
  5
9776
330
946C
100
AcDbEntity
  8
1
  6
Continuous
100
AcDbLine
 10
213.208493922017
 20
69.36520631901564
 30
0.0
 11
213.208493922017
 21
74.79909231901564
 31
0.0
  0
LINE
  5
9777
330
946C
100
AcDbEntity
  8
1
  6
Continuous
100
AcDbLine
 10
213.969218922017
 20
75.22573331901566
 30
0.0
 11
222.8610329220169
 21
69.79184731901558
 31
0.0
  0
LINE
  5
9778
330
946C
100
AcDbEntity
  8
1
  6
Continuous
100
AcDbLine
 10
213.708493922017
 20
68.86520631901564
 30
0.0
 11
222.6003079220171
 21
68.86520631901564
 31
0.0
  0
LINE
  5
9779
330
946C
100
AcDbEntity
  8
1
  6
Continuous
100
AcDbLine
 10
213.708493922017
 20
65.86520631901564
 30
0.0
 11
222.6003079220171
 21
65.86520631901564
 31
0.0
  0
ARC
  5
977A
330
946C
100
AcDbEntity
  8
1
  6
Continuous
100
AcDbCircle
 10
213.708493922017
 20
65.36520631901564
 30
0.0
 40
0.5
100
AcDbArc
 50
90.0
 51
180.0
  0
LINE
  5
977B
330
946C
100
AcDbEntity
  8
1
  6
Continuous
100
AcDbLine
 10
213.208493922017
 20
59.93132031901563
 30
0.0
 11
213.208493922017
 21
65.36520631901564
 31
0.0
  0
ARC
  5
977C
330
946C
100
AcDbEntity
  8
1
  6
Continuous
100
AcDbCircle
 10
213.708493922017
 20
69.36520631901564
 30
0.0
 40
0.5
100
AcDbArc
 50
180.0
 51
270.0
  0
ARC
  5
977D
330
946C
100
AcDbEntity
  8
1
  6
Continuous
100
AcDbCircle
 10
222.6003079220171
 20
65.36520631901564
 30
0.0
 40
0.5
100
AcDbArc
 50
301.4295659999989
 51
90.0
  0
ARC
  5
977E
330
946C
100
AcDbEntity
  8
1
  6
Continuous
100
AcDbCircle
 10
222.6003079220171
 20
69.36520631901564
 30
0.0
 40
0.5
100
AcDbArc
 50
270.0
 51
58.57043400000104
  0
ARC
  5
977F
330
946C
100
AcDbEntity
  8
1
  6
Continuous
100
AcDbCircle
 10
213.708493922017
 20
74.79909231901564
 30
0.0
 40
0.5
100
AcDbArc
 50
58.57043400000104
 51
180.0
  0
ARC
  5
9780
330
946C
100
AcDbEntity
  8
1
  6
Continuous
100
AcDbCircle
 10
218.8166799220169
 20
76.36520631901564
 30
0.0
 40
0.5
100
AcDbArc
 50
90.0
 51
238.570434000001
  0
ARC
  5
9781
330
946C
100
AcDbEntity
  8
1
  6
Continuous
100
AcDbCircle
 10
213.708493922017
 20
81.93132031901564
 30
0.0
 40
0.5
100
AcDbArc
 50
180.0
 51
301.4295659999989
  0
ARC
  5
9782
330
946C
100
AcDbEntity
  8
1
  6
Continuous
100
AcDbCircle
 10
218.8166799220169
 20
80.36520631901565
 30
0.0
 40
0.5
100
AcDbArc
 50
121.4295659999989
 51
270.0
  0
LINE
  5
9783
330
946C
100
AcDbEntity
  8
1
  6
Continuous
100
AcDbLine
 10
228.208493922017
 20
70.93132031901564
 30
0.0
 11
228.208493922017
 21
76.36520631901564
 31
0.0
  0
ARC
  5
9784
330
946C
100
AcDbEntity
  8
1
  6
Continuous
100
AcDbCircle
 10
227.708493922017
 20
63.79909231901564
 30
0.0
 40
0.5
100
AcDbArc
 50
0.0
 51
121.4295659999989
  0
ARC
  5
9785
330
946C
100
AcDbEntity
  8
1
  6
Continuous
100
AcDbCircle
 10
227.708493922017
 20
70.93132031901564
 30
0.0
 40
0.5
100
AcDbArc
 50
238.570434000001
 51
0.0
  0
ARC
  5
9786
330
946C
100
AcDbEntity
  8
1
  6
Continuous
100
AcDbCircle
 10
227.708493922017
 20
76.36520631901564
 30
0.0
 40
0.5
100
AcDbArc
 50
0.0
 51
90.0
  0
ARC
  5
9787
330
946C
100
AcDbEntity
  8
1
  6
Continuous
100
AcDbCircle
 10
227.708493922017
 20
80.36520631901565
 30
0.0
 40
0.5
100
AcDbArc
 50
270.0
 51
0.0
  0
ARC
  5
9788
330
946C
100
AcDbEntity
  8
1
  6
Continuous
100
AcDbCircle
 10
214.208493922017
 20
92.48326331901557
 30
0.0
 40
14.0
100
AcDbArc
 50
4.214915000000011
 51
54.20329200000004
  0
ARC
  5
9789
330
946C
100
AcDbEntity
  8
1
  6
Continuous
100
AcDbCircle
 10
227.671980922017
 20
93.47548331901563
 30
0.0
 40
0.5
100
AcDbArc
 50
232.2060569999985
 51
4.214915000000011
  0
LINE
  5
978A
330
946C
100
AcDbEntity
  8
1
  6
Continuous
100
AcDbLine
 10
216.383604922017
 20
97.80058831901563
 30
0.0
 11
224.172375922017
 21
91.76031631901564
 31
0.0
  0
LINE
  5
978B
330
946C
100
AcDbEntity
  8
1
  6
Continuous
100
AcDbLine
 10
218.621725922017
 20
99.86131331901558
 30
0.0
 11
227.365569922017
 21
93.08037431901556
 31
0.0
  0
LINE
  5
978C
330
946C
100
AcDbEntity
  8
1
  6
Continuous
100
AcDbLine
 10
212.1108149220169
 20
94.14620631901563
 30
0.0
 11
215.7236389220171
 21
97.75903131901566
 31
0.0
  0
LINE
  5
978D
330
946C
100
AcDbEntity
  8
1
  6
Continuous
100
AcDbLine
 10
213.469849922017
 20
90.86520631901564
 30
0.0
 11
223.865963922017
 21
90.86520631901564
 31
0.0
  0
LINE
  5
978E
330
946C
100
AcDbEntity
  8
1
  6
Continuous
100
AcDbLine
 10
213.708493922017
 20
87.86520631901565
 30
0.0
 11
222.6003079220171
 21
87.86520631901565
 31
0.0
  0
ARC
  5
978F
330
946C
100
AcDbEntity
  8
1
  6
Continuous
100
AcDbCircle
 10
213.708493922017
 20
87.36520631901564
 30
0.0
 40
0.5
100
AcDbArc
 50
90.0
 51
180.0
  0
ARC
  5
9790
330
946C
100
AcDbEntity
  8
1
  6
Continuous
100
AcDbCircle
 10
205.208493922017
 20
89.36520631901561
 30
0.0
 40
8.0
100
AcDbArc
 50
13.60896099999969
 51
31.39103899999996
  0
ARC
  5
9791
330
946C
100
AcDbEntity
  8
1
  6
Continuous
100
AcDbCircle
 10
212.464367922017
 20
93.79265331901564
 30
0.0
 40
0.5
100
AcDbArc
 50
135.0000000000002
 51
211.391039
  0
ARC
  5
9792
330
946C
100
AcDbEntity
  8
1
  6
Continuous
100
AcDbCircle
 10
213.469849922017
 20
91.36520631901564
 30
0.0
 40
0.5
100
AcDbArc
 50
193.6089609999997
 51
270.0
  0
ARC
  5
9793
330
946C
100
AcDbEntity
  8
1
  6
Continuous
100
AcDbCircle
 10
222.6003079220171
 20
87.36520631901564
 30
0.0
 40
0.5
100
AcDbArc
 50
301.4295659999989
 51
90.0
  0
ARC
  5
9794
330
946C
100
AcDbEntity
  8
1
  6
Continuous
100
AcDbCircle
 10
223.865963922017
 20
91.36520631901564
 30
0.0
 40
0.5
100
AcDbArc
 50
270.0
 51
52.20605699999847
  0
LINE
  5
9795
330
946C
100
AcDbEntity
  8
1
  6
Continuous
100
AcDbLine
 10
218.574584922017
 20
100.6099763190155
 30
0.0
 11
221.7512399220171
 21
103.7866323190156
 31
0.0
  0
ARC
  5
9796
330
946C
100
AcDbEntity
  8
1
  6
Continuous
100
AcDbCircle
 10
218.928137922017
 20
100.2564233190156
 30
0.0
 40
0.5
100
AcDbArc
 50
135.0000000000002
 51
232.2060569999985
  0
ARC
  5
9797
330
946C
100
AcDbEntity
  8
1
  6
Continuous
100
AcDbCircle
 10
216.077192922017
 20
97.40547831901558
 30
0.0
 40
0.5
100
AcDbArc
 50
52.20605699999847
 51
135.0000000000002
  0
ARC
  5
9798
330
946C
100
AcDbEntity
  8
1
  6
Continuous
100
AcDbCircle
 10
218.349882922017
 20
105.3350223190156
 30
0.0
 40
0.5
100
AcDbArc
 50
315.0000000000003
 51
70.34795100000192
  0
ARC
  5
9799
330
946C
100
AcDbEntity
  8
1
  6
Continuous
100
AcDbCircle
 10
222.104792922017
 20
103.4330783190155
 30
0.0
 40
0.5
100
AcDbArc
 50
54.20329200000004
 51
135.0000000000002
  0
ARC
  5
979A
330
946C
100
AcDbEntity
  8
1
  6
Continuous
100
AcDbCircle
 10
227.708493922017
 20
85.79909231901565
 30
0.0
 40
0.5
100
AcDbArc
 50
0.0
 51
121.4295659999989
  0
LINE
  5
979B
330
946C
100
AcDbEntity
  8
1
  6
Continuous
100
AcDbLine
 10
207.208493922017
 20
106.8652063190156
 30
0.0
 11
216.350159922017
 21
106.8652063190156
 31
0.0
  0
LINE
  5
979C
330
946C
100
AcDbEntity
  8
1
  6
Continuous
100
AcDbLine
 10
207.208493922017
 20
109.8652063190156
 30
0.0
 11
213.246012922017
 21
109.8652063190156
 31
0.0
  0
LINE
  5
979D
330
946C
100
AcDbEntity
  8
1
  6
Continuous
100
AcDbLine
 10
207.208493922017
 20
119.3652063190156
 30
0.0
 11
212.708493922017
 21
119.3652063190156
 31
0.0
  0
LINE
  5
979E
330
946C
100
AcDbEntity
  8
1
  6
Continuous
100
AcDbLine
 10
183.708493922017
 20
110.3652063190156
 30
0.0
 11
183.708493922017
 21
118.8652063190156
 31
0.0
  0
LINE
  5
979F
330
946C
100
AcDbEntity
  8
1
  6
Continuous
100
AcDbLine
 10
180.7084939220169
 20
110.3652063190156
 30
0.0
 11
180.7084939220169
 21
118.8652063190156
 31
0.0
  0
LINE
  5
97A0
330
946C
100
AcDbEntity
  8
1
  6
Continuous
100
AcDbLine
 10
192.2084939220169
 20
110.3652063190156
 30
0.0
 11
192.2084939220169
 21
118.8652063190156
 31
0.0
  0
LINE
  5
97A1
330
946C
100
AcDbEntity
  8
1
  6
Continuous
100
AcDbLine
 10
191.7084939220169
 20
106.8652063190156
 30
0.0
 11
184.2084939220169
 21
106.8652063190156
 31
0.0
  0
LINE
  5
97A2
330
946C
100
AcDbEntity
  8
1
  6
Continuous
100
AcDbLine
 10
191.7084939220169
 20
109.8652063190156
 30
0.0
 11
184.2084939220169
 21
109.8652063190156
 31
0.0
  0
ARC
  5
97A3
330
946C
100
AcDbEntity
  8
1
  6
Continuous
100
AcDbCircle
 10
180.2084939220169
 20
110.3652063190156
 30
0.0
 40
0.5
100
AcDbArc
 50
270.0
 51
0.0
  0
ARC
  5
97A4
330
946C
100
AcDbEntity
  8
1
  6
Continuous
100
AcDbCircle
 10
180.2084939220169
 20
106.3652063190156
 30
0.0
 40
0.5
100
AcDbArc
 50
0.0
 51
90.0
  0
ARC
  5
97A5
330
946C
100
AcDbEntity
  8
1
  6
Continuous
100
AcDbCircle
 10
184.2084939220169
 20
106.3652063190156
 30
0.0
 40
0.5
100
AcDbArc
 50
90.0
 51
180.0
  0
ARC
  5
97A6
330
946C
100
AcDbEntity
  8
1
  6
Continuous
100
AcDbCircle
 10
184.2084939220169
 20
110.3652063190156
 30
0.0
 40
0.5
100
AcDbArc
 50
180.0
 51
270.0
  0
ARC
  5
97A7
330
946C
100
AcDbEntity
  8
1
  6
Continuous
100
AcDbCircle
 10
191.7084939220169
 20
106.3652063190156
 30
0.0
 40
0.5
100
AcDbArc
 50
0.0
 51
90.0
  0
ARC
  5
97A8
330
946C
100
AcDbEntity
  8
1
  6
Continuous
100
AcDbCircle
 10
191.7084939220169
 20
110.3652063190156
 30
0.0
 40
0.5
100
AcDbArc
 50
270.0
 51
0.0
  0
LINE
  5
97A9
330
946C
100
AcDbEntity
  8
1
  6
Continuous
100
AcDbLine
 10
191.7084939220169
 20
119.3652063190156
 30
0.0
 11
184.2084939220169
 21
119.3652063190156
 31
0.0
  0
ARC
  5
97AA
330
946C
100
AcDbEntity
  8
1
  6
Continuous
100
AcDbCircle
 10
180.2084939220169
 20
118.8652063190156
 30
0.0
 40
0.5
100
AcDbArc
 50
0.0
 51
90.0
  0
ARC
  5
97AB
330
946C
100
AcDbEntity
  8
1
  6
Continuous
100
AcDbCircle
 10
184.2084939220169
 20
118.8652063190156
 30
0.0
 40
0.5
100
AcDbArc
 50
90.0
 51
180.0
  0
ARC
  5
97AC
330
946C
100
AcDbEntity
  8
1
  6
Continuous
100
AcDbCircle
 10
191.7084939220169
 20
118.8652063190156
 30
0.0
 40
0.5
100
AcDbArc
 50
0.0
 51
90.0
  0
LINE
  5
97AD
330
946C
100
AcDbEntity
  8
1
  6
Continuous
100
AcDbLine
 10
203.708493922017
 20
110.3652063190156
 30
0.0
 11
203.708493922017
 21
118.8652063190156
 31
0.0
  0
LINE
  5
97AE
330
946C
100
AcDbEntity
  8
1
  6
Continuous
100
AcDbLine
 10
206.708493922017
 20
110.3652063190156
 30
0.0
 11
206.708493922017
 21
118.8652063190156
 31
0.0
  0
LINE
  5
97AF
330
946C
100
AcDbEntity
  8
1
  6
Continuous
100
AcDbLine
 10
195.208493922017
 20
110.3652063190156
 30
0.0
 11
195.208493922017
 21
118.8652063190156
 31
0.0
  0
LINE
  5
97B0
330
946C
100
AcDbEntity
  8
1
  6
Continuous
100
AcDbLine
 10
195.7084939220169
 20
106.8652063190156
 30
0.0
 11
203.208493922017
 21
106.8652063190156
 31
0.0
  0
LINE
  5
97B1
330
946C
100
AcDbEntity
  8
1
  6
Continuous
100
AcDbLine
 10
195.7084939220169
 20
109.8652063190156
 30
0.0
 11
203.208493922017
 21
109.8652063190156
 31
0.0
  0
ARC
  5
97B2
330
946C
100
AcDbEntity
  8
1
  6
Continuous
100
AcDbCircle
 10
195.7084939220169
 20
106.3652063190156
 30
0.0
 40
0.5
100
AcDbArc
 50
90.0
 51
180.0
  0
ARC
  5
97B3
330
946C
100
AcDbEntity
  8
1
  6
Continuous
100
AcDbCircle
 10
195.7084939220169
 20
110.3652063190156
 30
0.0
 40
0.5
100
AcDbArc
 50
180.0
 51
270.0
  0
ARC
  5
97B4
330
946C
100
AcDbEntity
  8
1
  6
Continuous
100
AcDbCircle
 10
207.208493922017
 20
110.3652063190156
 30
0.0
 40
0.5
100
AcDbArc
 50
180.0
 51
270.0
  0
ARC
  5
97B5
330
946C
100
AcDbEntity
  8
1
  6
Continuous
100
AcDbCircle
 10
207.208493922017
 20
106.3652063190156
 30
0.0
 40
0.5
100
AcDbArc
 50
90.0
 51
180.0
  0
ARC
  5
97B6
330
946C
100
AcDbEntity
  8
1
  6
Continuous
100
AcDbCircle
 10
203.208493922017
 20
106.3652063190156
 30
0.0
 40
0.5
100
AcDbArc
 50
0.0
 51
90.0
  0
ARC
  5
97B7
330
946C
100
AcDbEntity
  8
1
  6
Continuous
100
AcDbCircle
 10
203.208493922017
 20
110.3652063190156
 30
0.0
 40
0.5
100
AcDbArc
 50
270.0
 51
0.0
  0
LINE
  5
97B8
330
946C
100
AcDbEntity
  8
1
  6
Continuous
100
AcDbLine
 10
195.7084939220169
 20
119.3652063190156
 30
0.0
 11
203.208493922017
 21
119.3652063190156
 31
0.0
  0
ARC
  5
97B9
330
946C
100
AcDbEntity
  8
1
  6
Continuous
100
AcDbCircle
 10
195.7084939220169
 20
118.8652063190156
 30
0.0
 40
0.5
100
AcDbArc
 50
90.0
 51
180.0
  0
ARC
  5
97BA
330
946C
100
AcDbEntity
  8
1
  6
Continuous
100
AcDbCircle
 10
207.208493922017
 20
118.8652063190156
 30
0.0
 40
0.5
100
AcDbArc
 50
90.0
 51
180.0
  0
ARC
  5
97BB
330
946C
100
AcDbEntity
  8
1
  6
Continuous
100
AcDbCircle
 10
203.208493922017
 20
118.8652063190156
 30
0.0
 40
0.5
100
AcDbArc
 50
0.0
 51
90.0
  0
LINE
  5
97BC
330
946C
100
AcDbEntity
  8
1
  6
Continuous
100
AcDbLine
 10
213.208493922017
 20
113.3399163190155
 30
0.0
 11
213.208493922017
 21
118.8652063190156
 31
0.0
  0
LINE
  5
97BD
330
946C
100
AcDbEntity
  8
1
  6
Continuous
100
AcDbLine
 10
218.708493922017
 20
119.8652063190156
 30
0.0
 11
218.708493922017
 21
117.6977023190155
 31
0.0
  0
ARC
  5
97BE
330
946C
100
AcDbEntity
  8
1
  6
Continuous
100
AcDbCircle
 10
216.208493922017
 20
117.6977023190155
 30
0.0
 40
2.5
100
AcDbArc
 50
270.0
 51
0.0
  0
ARC
  5
97BF
330
946C
100
AcDbEntity
  8
1
  6
Continuous
100
AcDbCircle
 10
221.208493922017
 20
113.3399163190155
 30
0.0
 40
5.0
100
AcDbArc
 50
180.0
 51
251.446994999998
  0
ARC
  5
97C0
330
946C
100
AcDbEntity
  8
1
  6
Continuous
100
AcDbCircle
 10
221.208493922017
 20
113.3399163190155
 30
0.0
 40
8.0
100
AcDbArc
 50
180.0
 51
200.485232999999
  0
ARC
  5
97C1
330
946C
100
AcDbEntity
  8
1
  6
Continuous
100
AcDbCircle
 10
213.246012922017
 20
110.3652063190156
 30
0.0
 40
0.5
100
AcDbArc
 50
270.0
 51
20.48523299999908
  0
ARC
  5
97C2
330
946C
100
AcDbEntity
  8
1
  6
Continuous
100
AcDbCircle
 10
216.350159922017
 20
106.3652063190156
 30
0.0
 40
0.5
100
AcDbArc
 50
55.14030900000101
 51
90.0
  0
LINE
  5
97C3
330
946C
100
AcDbEntity
  8
1
  6
Continuous
100
AcDbLine
 10
216.208493922017
 20
113.3399163190155
 30
0.0
 11
216.208493922017
 21
115.1977023190155
 31
0.0
  0
ARC
  5
97C4
330
946C
100
AcDbEntity
  8
1
  6
Continuous
100
AcDbCircle
 10
216.208493922017
 20
119.8652063190156
 30
0.0
 40
2.5
100
AcDbArc
 50
0.0
 51
90.0
  0
ARC
  5
97C5
330
946C
100
AcDbEntity
  8
1
  6
Continuous
100
AcDbCircle
 10
212.708493922017
 20
118.8652063190156
 30
0.0
 40
0.5
100
AcDbArc
 50
0.0
 51
90.0
  0
LINE
  5
990A
330
946C
100
AcDbEntity
  8
1
  6
Continuous
100
AcDbLine
 10
366.0076742042881
 20
170.028735716605
 30
0.0
 11
277.007674204288
 21
170.028735716605
 31
0.0
  0
ARC
  5
990B
330
946C
100
AcDbEntity
  8
1
  6
Continuous
100
AcDbCircle
 10
299.2437985773583
 20
196.0281798328763
 30
0.0
 40
15.0
100
AcDbArc
 50
232.092835406947
 51
270.0
  0
LINE
  5
990C
330
946C
100
AcDbEntity
  8
1
  6
Continuous
100
AcDbLine
 10
284.1751782042882
 20
172.528735716605
 30
0.0
 11
366.0076742042881
 21
172.528735716605
 31
0.0
  0
LINE
  5
990D
330
946C
100
AcDbEntity
  8
3
  6
DASHED
100
AcDbLine
 10
289.8989042042881
 20
184.2936267166049
 30
0.0
 11
305.007674204288
 21
172.528735716605
 31
0.0
  0
LINE
  5
990F
330
946C
100
AcDbEntity
  8
1
  6
Continuous
100
AcDbLine
 10
359.007674204288
 20
181.028735716605
 30
0.0
 11
299.114662204288
 21
181.028735716605
 31
0.0
  0
LINE
  5
9910
330
946C
100
AcDbEntity
  8
1
  6
Continuous
100
AcDbLine
 10
366.0076742042881
 20
170.028735716605
 30
0.0
 11
366.0076742042881
 21
174.028735716605
 31
0.0
  0
ARC
  5
9911
330
946C
100
AcDbEntity
  8
1
  6
Continuous
100
AcDbCircle
 10
359.0076742042881
 20
174.0287357166049
 30
0.0
 40
7.0
100
AcDbArc
 50
0.000000000000007
 51
90.0
  0
LINE
  5
9912
330
946C
100
AcDbEntity
  8
3
  6
DASHED
100
AcDbLine
 10
305.007674204288
 20
172.528735716605
 30
0.0
 11
305.007674204288
 21
170.028735716605
 31
0.0
  0
LINE
  5
9914
330
946C
100
AcDbEntity
  8
1
  6
Continuous
100
AcDbLine
 10
277.0076742042881
 20
170.028735716605
 30
0.0
 11
279.1938132042881
 21
187.8334087166049
 31
0.0
  0
LINE
  5
9915
330
946C
100
AcDbEntity
  8
1
  6
Continuous
100
AcDbLine
 10
284.1751782042882
 20
187.5287357166049
 30
0.0
 11
284.1751782042882
 21
170.028735716605
 31
0.0
  0
LINE
  5
9916
330
946C
100
AcDbEntity
  8
3
  6
DASHED
100
AcDbLine
 10
282.045223204288
 20
170.028735716605
 30
0.0
 11
284.156544204288
 21
187.2240627166049
 31
0.0
  0
LINE
  5
9917
330
946C
100
AcDbEntity
  8
1
  6
Continuous
100
AcDbLine
 10
283.2111382042882
 20
189.501253716605
 30
0.0
 11
289.8989042042881
 21
184.293626716605
 31
0.0
  0
ARC
  5
9918
330
946C
100
AcDbEntity
  8
1
  6
Continuous
100
AcDbCircle
 10
281.6751782042882
 20
187.5287357166049
 30
0.0
 40
2.5
100
AcDbArc
 50
0.000000000000007
 51
173.0000000000005
  0
ENDSEC
  0
SECTION
  2
OBJECTS
  0
DICTIONARY
  5
945A
330
0
100
AcDbDictionary
281
     1
  3
ACAD_CIP_PREVIOUS_PRODUCT_INFO
350
9CF8
  3
ACAD_COLOR
350
9CDA
  3
ACAD_DETAILVIEWSTYLE
350
9CF3
  3
ACAD_GROUP
350
945B
  3
ACAD_LAYOUT
350
9467
  3
ACAD_MATERIAL
350
9CA8
  3
ACAD_MLEADERSTYLE
350
9CEF
  3
ACAD_MLINESTYLE
350
9464
  3
ACAD_PLOTSETTINGS
350
9466
  3
ACAD_PLOTSTYLENAME
350
9CA6
  3
ACAD_SCALELIST
350
9CDD
  3
ACAD_SECTIONVIEWSTYLE
350
9CF1
  3
ACAD_TABLESTYLE
350
9CDB
  3
ACAD_VISUALSTYLE
350
9CC1
  3
ACDB_RECOMPOSE_DATA
350
9D16
  3
AcDbVariableDictionary
350
9D09
  3
DWGPROPS
350
9D17
  0
DICTIONARY
  5
9CF9
330
945E
100
AcDbDictionary
280
     1
281
     1
  3
ADSK_XREC_LAYER_RECONCILED
360
9CFA
  0
DICTIONARY
  5
9CFB
330
9474
100
AcDbDictionary
280
     1
281
     1
  3
ADSK_XREC_LAYER_RECONCILED
360
9CFC
  0
DICTIONARY
  5
9CFD
330
9475
100
AcDbDictionary
280
     1
281
     1
  3
ADSK_XREC_LAYER_RECONCILED
360
9CFE
  0
DICTIONARY
  5
9CFF
330
9476
100
AcDbDictionary
280
     1
281
     1
  3
ADSK_XREC_LAYER_RECONCILED
360
9D00
  0
DICTIONARY
  5
9D01
330
9477
100
AcDbDictionary
280
     1
281
     1
  3
ADSK_XREC_LAYER_RECONCILED
360
9D02
  0
DICTIONARY
  5
9D03
330
9478
100
AcDbDictionary
280
     1
281
     1
  3
ADSK_XREC_LAYER_RECONCILED
360
9D04
  0
DICTIONARY
  5
9D05
330
9479
100
AcDbDictionary
280
     1
281
     1
  3
ADSK_XREC_LAYER_RECONCILED
360
9D06
  0
DICTIONARY
  5
9D07
330
947A
100
AcDbDictionary
280
     1
281
     1
  3
ADSK_XREC_LAYER_RECONCILED
360
9D08
  0
DICTIONARY
  5
9CA1
330
946C
100
AcDbDictionary
281
     1
  3
ACAD_LAYOUTSELFREF
350
9CA2
  0
DICTIONARY
  5
9C9F
330
9468
100
AcDbDictionary
281
     1
  3
ACAD_LAYOUTSELFREF
350
9CA0
  0
XRECORD
  5
9CF8
102
{ACAD_REACTORS
330
945A
102
}
330
945A
100
AcDbXrecord
280
     1
300
ACDLT
300
2014
300
ACDLT_F_S
  0
DICTIONARY
  5
9CDA
102
{ACAD_REACTORS
330
945A
102
}
330
945A
100
AcDbDictionary
281
     1
  0
DICTIONARY
  5
9CF3
102
{ACAD_REACTORS
330
945A
102
}
330
945A
100
AcDbDictionary
281
     1
  3
Imperial24
350
9CF4
  0
DICTIONARY
  5
945B
102
{ACAD_REACTORS
330
945A
102
}
330
945A
100
AcDbDictionary
281
     1
  0
DICTIONARY
  5
9467
102
{ACAD_REACTORS
330
945A
102
}
330
945A
100
AcDbDictionary
281
     1
  3
Model
350
9CF5
  3
レイアウト1
350
9CF6
  0
DICTIONARY
  5
9CA8
102
{ACAD_REACTORS
330
945A
102
}
330
945A
100
AcDbDictionary
281
     1
  3
ByBlock
350
9CB1
  3
ByLayer
350
9CA9
  3
Global
350
9CB9
  0
DICTIONARY
  5
9CEF
102
{ACAD_REACTORS
330
945A
102
}
330
945A
100
AcDbDictionary
281
     1
  3
Standard
350
9CF0
  0
DICTIONARY
  5
9464
102
{ACAD_REACTORS
330
945A
102
}
330
945A
100
AcDbDictionary
281
     1
  3
STANDARD
350
9465
  0
DICTIONARY
  5
9466
102
{ACAD_REACTORS
330
945A
102
}
330
945A
100
AcDbDictionary
281
     1
  0
ACDBDICTIONARYWDFLT
  5
9CA6
102
{ACAD_REACTORS
330
945A
102
}
330
945A
100
AcDbDictionary
281
     1
  3
Normal
350
9CA7
100
AcDbDictionaryWithDefault
340
9CA7
  0
DICTIONARY
  5
9CDD
102
{ACAD_REACTORS
330
945A
102
}
330
945A
100
AcDbDictionary
281
     1
  3
A0
350
9CDE
  3
A1
350
9CDF
  3
A2
350
9CE0
  3
A3
350
9CE1
  3
A4
350
9CE2
  3
A5
350
9CE3
  3
A6
350
9CE4
  3
A7
350
9CE5
  3
A8
350
9CE6
  3
A9
350
9CE7
  3
B0
350
9CE8
  3
B1
350
9CE9
  3
B2
350
9CEA
  3
B3
350
9CEB
  3
B4
350
9CEC
  3
B5
350
9CED
  3
B6
350
9CEE
  0
DICTIONARY
  5
9CF1
102
{ACAD_REACTORS
330
945A
102
}
330
945A
100
AcDbDictionary
281
     1
  3
Imperial24
350
9CF2
  0
DICTIONARY
  5
9CDB
102
{ACAD_REACTORS
330
945A
102
}
330
945A
100
AcDbDictionary
281
     1
  3
Standard
350
9CDC
  0
DICTIONARY
  5
9CC1
102
{ACAD_REACTORS
330
945A
102
}
330
945A
100
AcDbDictionary
281
     1
  3
2dWireframe
350
9CC7
  3
Basic
350
9CC6
  3
Brighten
350
9CCD
  3
ColorChange
350
9CD1
  3
Conceptual
350
9CCA
  3
Dim
350
9CCC
  3
EdgeColorOff
350
9CD9
  3
Facepattern
350
9CD0
  3
Flat
350
9CC2
  3
FlatWithEdges
350
9CC3
  3
Gouraud
350
9CC4
  3
GouraudWithEdges
350
9CC5
  3
Hidden
350
9CC9
  3
JitterOff
350
9CD7
  3
Linepattern
350
9CCF
  3
OverhangOff
350
9CD8
  3
Realistic
350
9CCB
  3
Shaded
350
9CD6
  3
Shaded with edges
350
9CD5
  3
Shades of Gray
350
9CD2
  3
Sketchy
350
9CD3
  3
Thicken
350
9CCE
  3
Wireframe
350
9CC8
  3
X-Ray
350
9CD4
  0
XRECORD
  5
9D16
102
{ACAD_REACTORS
330
945A
102
}
330
945A
100
AcDbXrecord
280
     1
 90
        1
330
9CDC
  0
DICTIONARY
  5
9D09
102
{ACAD_REACTORS
330
945A
102
}
330
945A
100
AcDbDictionary
281
     1
  3
CANNOSCALE
350
9D0E
  3
CMLEADERSTYLE
350
9D0B
  3
CTABLESTYLE
350
9D0A
  3
CVIEWDETAILSTYLE
350
9D0C
  3
CVIEWSECTIONSTYLE
350
9D0D
  3
DIMASSOC
350
9D11
  3
INDEXCTL
350
9D10
  3
SORTENTS
350
9D0F
  3
XCLIPFRAME
350
9D12
  0
XRECORD
  5
9D17
102
{ACAD_REACTORS
330
945A
102
}
330
945A
100
AcDbXrecord
280
     1
  1
DWGPROPS COOKIE
  2

  3

  4

  6

  7

  8
Yoshitsune
  9

300
=
301
=
302
=
303
=
304
=
305
=
306
=
307
=
308
=
309
=
 40
0.0132891550925926
 41
2451301.423474884
 42
2457192.692705046
  1

 90
        0
  0
XRECORD
  5
9CFA
102
{ACAD_REACTORS
330
9CF9
102
}
330
9CF9
100
AcDbXrecord
280
     1
290
     1
  0
XRECORD
  5
9CFC
102
{ACAD_REACTORS
330
9CFB
102
}
330
9CFB
100
AcDbXrecord
280
     1
290
     1
  0
XRECORD
  5
9CFE
102
{ACAD_REACTORS
330
9CFD
102
}
330
9CFD
100
AcDbXrecord
280
     1
290
     1
  0
XRECORD
  5
9D00
102
{ACAD_REACTORS
330
9CFF
102
}
330
9CFF
100
AcDbXrecord
280
     1
290
     1
  0
XRECORD
  5
9D02
102
{ACAD_REACTORS
330
9D01
102
}
330
9D01
100
AcDbXrecord
280
     1
290
     1
  0
XRECORD
  5
9D04
102
{ACAD_REACTORS
330
9D03
102
}
330
9D03
100
AcDbXrecord
280
     1
290
     1
  0
XRECORD
  5
9D06
102
{ACAD_REACTORS
330
9D05
102
}
330
9D05
100
AcDbXrecord
280
     1
290
     1
  0
XRECORD
  5
9D08
102
{ACAD_REACTORS
330
9D07
102
}
330
9D07
100
AcDbXrecord
280
     1
290
     1
  0
XRECORD
  5
9CA2
102
{ACAD_REACTORS
330
9CA1
102
}
330
9CA1
100
AcDbXrecord
280
     1
340
946C
  0
XRECORD
  5
9CA0
102
{ACAD_REACTORS
330
9C9F
102
}
330
9C9F
100
AcDbXrecord
280
     1
340
9468
  0
ACDBDETAILVIEWSTYLE
  5
9CF4
102
{ACAD_XDICTIONARY
360
9D4F
102
}
102
{ACAD_REACTORS
330
9CF3
102
}
330
9CF3
100
AcDbModelDocViewStyle
 70
     0
  3
Imperial24
290
     0
100
AcDbDetailViewStyle
 70
     0
 71
     0
 90
        3
 71
     1
340
945F
 40
0.24
340
0
 40
0.24
300

 40
0.36
280
     3
 71
     2
340
9463
 90
       25
 71
     3
340
945F
 40
0.24
 90
        1
 40
0.75
 90
        1
300
%<\AcVar ViewType \f "%tc1">% %<\AcVar ViewDetailId>%\PSCALE %<\AcVar ViewScale \f "%sn">%
 71
     4
340
9463
 90
       25
340
9463
 90
       25
280
     0
  0
LAYOUT
  5
9CF5
102
{ACAD_XDICTIONARY
360
9D51
102
}
102
{ACAD_REACTORS
330
9467
102
}
330
9467
100
AcDbPlotSettings
  1

  2
Canon LBP9100C
  4

  6

 40
0.0
 41
0.0
 42
0.0
 43
0.0
 44
0.0
 45
0.0
 46
0.0
 47
0.0
 48
0.0
 49
0.0
140
0.0
141
0.0
142
1.0
143
1.0
 70
  1712
 72
     0
 73
     0
 74
     0
  7

 75
     0
147
1.0
148
0.0
149
0.0
100
AcDbLayout
  1
Model
 70
     1
 71
     0
 10
0.0
 20
0.0
 11
12.0
 21
9.0
 12
0.0
 22
0.0
 32
0.0
 14
0.0
 24
0.0
 34
0.0
 15
0.0
 25
0.0
 35
0.0
146
0.0
 13
0.0
 23
0.0
 33
0.0
 16
1.0
 26
0.0
 36
0.0
 17
0.0
 27
1.0
 37
0.0
 76
     0
330
946C
331
9C9E
  0
LAYOUT
  5
9CF6
102
{ACAD_XDICTIONARY
360
9D53
102
}
102
{ACAD_REACTORS
330
9467
102
}
330
9467
100
AcDbPlotSettings
  1

  2
Canon LBP9100C
  4

  6

 40
0.0
 41
0.0
 42
0.0
 43
0.0
 44
0.0
 45
0.0
 46
0.0
 47
0.0
 48
0.0
 49
0.0
140
0.0
141
0.0
142
1.0
143
1.0
 70
   688
 72
     0
 73
     0
 74
     5
  7

 75
    16
147
1.0
148
0.0
149
0.0
100
AcDbLayout
  1
レイアウト1
 70
     0
 71
     1
 10
0.0
 20
0.0
 11
420.0
 21
297.0
 12
0.0
 22
0.0
 32
0.0
 14
1.000000000000000E+20
 24
1.000000000000000E+20
 34
1.000000000000000E+20
 15
-1.000000000000000E+20
 25
-1.000000000000000E+20
 35
-1.000000000000000E+20
146
0.0
 13
0.0
 23
0.0
 33
0.0
 16
1.0
 26
0.0
 36
0.0
 17
0.0
 27
1.0
 37
0.0
 76
     0
330
9468
  0
MATERIAL
  5
9CB1
102
{ACAD_XDICTIONARY
360
9CB2
102
}
102
{ACAD_REACTORS
330
9CA8
102
}
330
9CA8
100
AcDbMaterial
  1
ByBlock
 72
     0
 43
0.0208333333333333
 43
0.0
 43
0.0
 43
0.0
 43
0.0
 43
0.0208333333333333
 43
0.0
 43
0.0
 43
0.0
 43
0.0
 43
1.0
 43
0.0
 43
0.0
 43
0.0
 43
0.0
 43
1.0
 77
     0
 47
0.0208333333333333
 47
0.0
 47
0.0
 47
0.0
 47
0.0
 47
0.0208333333333333
 47
0.0
 47
0.0
 47
0.0
 47
0.0
 47
1.0
 47
0.0
 47
0.0
 47
0.0
 47
0.0
 47
1.0
171
     0
 49
0.0208333333333333
 49
0.0
 49
0.0
 49
0.0
 49
0.0
 49
0.0208333333333333
 49
0.0
 49
0.0
 49
0.0
 49
0.0
 49
1.0
 49
0.0
 49
0.0
 49
0.0
 49
0.0
 49
1.0
175
     0
142
0.0208333333333333
142
0.0
142
0.0
142
0.0
142
0.0
142
0.0208333333333333
142
0.0
142
0.0
142
0.0
142
0.0
142
1.0
142
0.0
142
0.0
142
0.0
142
0.0
142
1.0
179
     0
144
0.0208333333333333
144
0.0
144
0.0
144
0.0
144
0.0
144
0.0208333333333333
144
0.0
144
0.0
144
0.0
144
0.0
144
1.0
144
0.0
144
0.0
144
0.0
144
0.0
144
1.0
147
0.0208333333333333
147
0.0
147
0.0
147
0.0
147
0.0
147
0.0208333333333333
147
0.0
147
0.0
147
0.0
147
0.0
147
1.0
147
0.0
147
0.0
147
0.0
147
0.0
147
1.0
  0
MATERIAL
  5
9CA9
102
{ACAD_XDICTIONARY
360
9CAA
102
}
102
{ACAD_REACTORS
330
9CA8
102
}
330
9CA8
100
AcDbMaterial
  1
ByLayer
 72
     0
 43
0.0208333333333333
 43
0.0
 43
0.0
 43
0.0
 43
0.0
 43
0.0208333333333333
 43
0.0
 43
0.0
 43
0.0
 43
0.0
 43
1.0
 43
0.0
 43
0.0
 43
0.0
 43
0.0
 43
1.0
 77
     0
 47
0.0208333333333333
 47
0.0
 47
0.0
 47
0.0
 47
0.0
 47
0.0208333333333333
 47
0.0
 47
0.0
 47
0.0
 47
0.0
 47
1.0
 47
0.0
 47
0.0
 47
0.0
 47
0.0
 47
1.0
171
     0
 49
0.0208333333333333
 49
0.0
 49
0.0
 49
0.0
 49
0.0
 49
0.0208333333333333
 49
0.0
 49
0.0
 49
0.0
 49
0.0
 49
1.0
 49
0.0
 49
0.0
 49
0.0
 49
0.0
 49
1.0
175
     0
142
0.0208333333333333
142
0.0
142
0.0
142
0.0
142
0.0
142
0.0208333333333333
142
0.0
142
0.0
142
0.0
142
0.0
142
1.0
142
0.0
142
0.0
142
0.0
142
0.0
142
1.0
179
     0
144
0.0208333333333333
144
0.0
144
0.0
144
0.0
144
0.0
144
0.0208333333333333
144
0.0
144
0.0
144
0.0
144
0.0
144
1.0
144
0.0
144
0.0
144
0.0
144
0.0
144
1.0
147
0.0208333333333333
147
0.0
147
0.0
147
0.0
147
0.0
147
0.0208333333333333
147
0.0
147
0.0
147
0.0
147
0.0
147
1.0
147
0.0
147
0.0
147
0.0
147
0.0
147
1.0
  0
MATERIAL
  5
9CB9
102
{ACAD_XDICTIONARY
360
9CBA
102
}
102
{ACAD_REACTORS
330
9CA8
102
}
330
9CA8
100
AcDbMaterial
  1
Global
 72
     0
 43
0.0208333333333333
 43
0.0
 43
0.0
 43
0.0
 43
0.0
 43
0.0208333333333333
 43
0.0
 43
0.0
 43
0.0
 43
0.0
 43
1.0
 43
0.0
 43
0.0
 43
0.0
 43
0.0
 43
1.0
 77
     0
 47
0.0208333333333333
 47
0.0
 47
0.0
 47
0.0
 47
0.0
 47
0.0208333333333333
 47
0.0
 47
0.0
 47
0.0
 47
0.0
 47
1.0
 47
0.0
 47
0.0
 47
0.0
 47
0.0
 47
1.0
171
     0
 49
0.0208333333333333
 49
0.0
 49
0.0
 49
0.0
 49
0.0
 49
0.0208333333333333
 49
0.0
 49
0.0
 49
0.0
 49
0.0
 49
1.0
 49
0.0
 49
0.0
 49
0.0
 49
0.0
 49
1.0
175
     0
142
0.0208333333333333
142
0.0
142
0.0
142
0.0
142
0.0
142
0.0208333333333333
142
0.0
142
0.0
142
0.0
142
0.0
142
1.0
142
0.0
142
0.0
142
0.0
142
0.0
142
1.0
179
     0
144
0.0208333333333333
144
0.0
144
0.0
144
0.0
144
0.0
144
0.0208333333333333
144
0.0
144
0.0
144
0.0
144
0.0
144
1.0
144
0.0
144
0.0
144
0.0
144
0.0
144
1.0
147
0.0208333333333333
147
0.0
147
0.0
147
0.0
147
0.0
147
0.0208333333333333
147
0.0
147
0.0
147
0.0
147
0.0
147
1.0
147
0.0
147
0.0
147
0.0
147
0.0
147
1.0
  0
MLEADERSTYLE
  5
9CF0
102
{ACAD_REACTORS
330
9CEF
102
}
330
9CEF
100
AcDbMLeaderStyle
170
     2
171
     1
172
     0
 90
        2
 40
0.0
 41
0.0
173
     1
 91
-1056964608
340
9461
 92
       -2
290
     1
 42
0.09
291
     1
 43
0.36
  3
Standard
 44
0.18
300

342
945F
174
     1
178
     6
175
     1
176
     0
 93
-1056964608
 45
0.18
292
     0
297
     0
 46
0.18
 94
-1056964608
 47
1.0
 49
1.0
140
1.0
293
     1
141
0.0
294
     1
177
     0
142
1.0
295
     0
296
     0
143
0.125
1001
ACAD_MLEADERVER
1070
     2
  0
MLINESTYLE
  5
9465
102
{ACAD_REACTORS
330
9464
102
}
330
9464
100
AcDbMlineStyle
  2
STANDARD
 70
     0
  3

 62
   256
 51
90.0
 52
90.0
 71
     2
 49
0.5
 62
   256
  6
BYLAYER
 49
-0.5
 62
   256
  6
BYLAYER
  0
ACDBPLACEHOLDER
  5
9CA7
102
{ACAD_REACTORS
330
9CA6
102
}
330
9CA6
  0
SCALE
  5
9CDE
102
{ACAD_REACTORS
330
9CDD
102
}
330
9CDD
100
AcDbScale
 70
     0
300
1:1
140
1.0
141
1.0
290
     1
  0
SCALE
  5
9CDF
102
{ACAD_REACTORS
330
9CDD
102
}
330
9CDD
100
AcDbScale
 70
     0
300
1/128" = 1'-0"
140
0.0078125
141
12.0
290
     0
  0
SCALE
  5
9CE0
102
{ACAD_REACTORS
330
9CDD
102
}
330
9CDD
100
AcDbScale
 70
     0
300
1/64" = 1'-0"
140
0.015625
141
12.0
290
     0
  0
SCALE
  5
9CE1
102
{ACAD_REACTORS
330
9CDD
102
}
330
9CDD
100
AcDbScale
 70
     0
300
1/32" = 1'-0"
140
0.03125
141
12.0
290
     0
  0
SCALE
  5
9CE2
102
{ACAD_REACTORS
330
9CDD
102
}
330
9CDD
100
AcDbScale
 70
     0
300
1/16" = 1'-0"
140
0.0625
141
12.0
290
     0
  0
SCALE
  5
9CE3
102
{ACAD_REACTORS
330
9CDD
102
}
330
9CDD
100
AcDbScale
 70
     0
300
3/32" = 1'-0"
140
0.09375
141
12.0
290
     0
  0
SCALE
  5
9CE4
102
{ACAD_REACTORS
330
9CDD
102
}
330
9CDD
100
AcDbScale
 70
     0
300
1/8" = 1'-0"
140
0.125
141
12.0
290
     0
  0
SCALE
  5
9CE5
102
{ACAD_REACTORS
330
9CDD
102
}
330
9CDD
100
AcDbScale
 70
     0
300
3/16" = 1'-0"
140
0.1875
141
12.0
290
     0
  0
SCALE
  5
9CE6
102
{ACAD_REACTORS
330
9CDD
102
}
330
9CDD
100
AcDbScale
 70
     0
300
1/4" = 1'-0"
140
0.25
141
12.0
290
     0
  0
SCALE
  5
9CE7
102
{ACAD_REACTORS
330
9CDD
102
}
330
9CDD
100
AcDbScale
 70
     0
300
3/8" = 1'-0"
140
0.375
141
12.0
290
     0
  0
SCALE
  5
9CE8
102
{ACAD_REACTORS
330
9CDD
102
}
330
9CDD
100
AcDbScale
 70
     0
300
1/2" = 1'-0"
140
0.5
141
12.0
290
     0
  0
SCALE
  5
9CE9
102
{ACAD_REACTORS
330
9CDD
102
}
330
9CDD
100
AcDbScale
 70
     0
300
3/4" = 1'-0"
140
0.75
141
12.0
290
     0
  0
SCALE
  5
9CEA
102
{ACAD_REACTORS
330
9CDD
102
}
330
9CDD
100
AcDbScale
 70
     0
300
1" = 1'-0"
140
1.0
141
12.0
290
     0
  0
SCALE
  5
9CEB
102
{ACAD_REACTORS
330
9CDD
102
}
330
9CDD
100
AcDbScale
 70
     0
300
1-1/2" = 1'-0"
140
1.5
141
12.0
290
     0
  0
SCALE
  5
9CEC
102
{ACAD_REACTORS
330
9CDD
102
}
330
9CDD
100
AcDbScale
 70
     0
300
3" = 1'-0"
140
3.0
141
12.0
290
     0
  0
SCALE
  5
9CED
102
{ACAD_REACTORS
330
9CDD
102
}
330
9CDD
100
AcDbScale
 70
     0
300
6" = 1'-0"
140
6.0
141
12.0
290
     0
  0
SCALE
  5
9CEE
102
{ACAD_REACTORS
330
9CDD
102
}
330
9CDD
100
AcDbScale
 70
     0
300
1'-0" = 1'-0"
140
12.0
141
12.0
290
     0
  0
ACDBSECTIONVIEWSTYLE
  5
9CF2
102
{ACAD_XDICTIONARY
360
9D4D
102
}
102
{ACAD_REACTORS
330
9CF1
102
}
330
9CF1
100
AcDbModelDocViewStyle
 70
     0
  3
Imperial24
290
     0
100
AcDbSectionViewStyle
 70
     0
 71
     0
 90
       78
 71
     1
340
945F
 40
0.24
340
0
340
0
 40
0.24
300
I, O, Q, S, X, Z
 40
0.48
 90
        3
 40
0.18
 90
        1
 71
     2
340
9463
 90
       25
340
9463
 90
       50
 40
0.24
 40
0.0
 40
0.24
 71
     3
340
945F
 40
0.24
 90
        1
 40
0.75
 90
        1
300
%<\AcVar ViewType \f "%tc1">% %<\AcVar ViewSectionStartId>%-%<\AcVar ViewSectionEndId>%\PSCALE %<\AcVar ViewScale \f "%sn">%
 71
     4
300
ANSI31
 40
1.0
 90
        0
290
     0
290
     0
 90
        6
 40
0.0
 40
1.570796326794896
 40
0.2617993877991494
 40
1.308996938995747
 40
-0.2617993877991494
 40
1.832595714594046
  0
TABLESTYLE
  5
9CDC
102
{ACAD_XDICTIONARY
360
9D14
102
}
102
{ACAD_REACTORS
330
9CDB
102
}
330
9CDB
100
AcDbTableStyle
  3
Standard
 70
     0
 71
     0
 40
0.06
 41
0.06
280
     0
281
     0
  7
STANDARD
140
0.18
170
     2
 62
     0
 63
     7
283
     0
274
    -2
284
     1
 64
     0
275
    -2
285
     1
 65
     0
276
    -2
286
     1
 66
     0
277
    -2
287
     1
 67
     0
278
    -2
288
     1
 68
     0
279
    -2
289
     1
 69
     0
  7
STANDARD
140
0.25
170
     5
 62
     0
 63
     7
283
     0
274
    -2
284
     1
 64
     0
275
    -2
285
     1
 65
     0
276
    -2
286
     1
 66
     0
277
    -2
287
     1
 67
     0
278
    -2
288
     1
 68
     0
279
    -2
289
     1
 69
     0
  7
STANDARD
140
0.18
170
     5
 62
     0
 63
     7
283
     0
274
    -2
284
     1
 64
     0
275
    -2
285
     1
 65
     0
276
    -2
286
     1
 66
     0
277
    -2
287
     1
 67
     0
278
    -2
288
     1
 68
     0
279
    -2
289
     1
 69
     0
  0
VISUALSTYLE
  5
9CC7
102
{ACAD_XDICTIONARY
360
9D25
102
}
102
{ACAD_REACTORS
330
9CC1
102
}
330
9CC1
100
AcDbVisualStyle
  2
2dWireframe
 70
     4
 71
     0
 72
     2
 73
     0
 90
        0
 40
-0.6
 41
-30.0
 62
     5
 63
     7
 74
     1
 91
        4
 64
     7
 65
   257
 75
     1
175
     1
 42
1.0
 92
        0
 66
   257
 43
1.0
 76
     1
 77
     6
 78
     2
 67
     7
 79
     5
170
     0
171
     0
290
     0
174
     0
 93
        1
 44
0.0
173
     0
291
     0
 45
0.0
1001
ACAD
1000
AcDbSavedByObjectVersion
1070
     0
  0
VISUALSTYLE
  5
9CC6
102
{ACAD_XDICTIONARY
360
9D23
102
}
102
{ACAD_REACTORS
330
9CC1
102
}
330
9CC1
100
AcDbVisualStyle
  2
Basic
 70
     7
 71
     1
 72
     0
 73
     1
 90
        0
 40
-0.6
 41
-30.0
 62
     5
 63
     7
 74
     0
 91
        4
 64
     7
 65
   257
 75
     1
175
     1
 42
1.0
 92
        8
 66
     7
 43
1.0
 76
     1
 77
     6
 78
     2
 67
     7
 79
     5
170
     0
171
     0
290
     0
174
     0
 93
        1
 44
0.0
173
     0
291
     1
 45
0.0
1001
ACAD
1000
AcDbSavedByObjectVersion
1070
     0
  0
VISUALSTYLE
  5
9CCD
102
{ACAD_XDICTIONARY
360
9D31
102
}
102
{ACAD_REACTORS
330
9CC1
102
}
330
9CC1
100
AcDbVisualStyle
  2
Brighten
 70
    12
 71
     2
 72
     2
 73
     0
 90
        0
 40
-0.6
 41
-30.0
 62
     5
 63
     7
 74
     1
 91
        4
 64
     7
 65
   257
 75
     1
175
     1
 42
1.0
 92
        8
 66
     7
 43
1.0
 76
     1
 77
     6
 78
     2
 67
     7
 79
     5
170
     0
171
     0
290
     0
174
     0
 93
        1
 44
50.0
173
     0
291
     1
 45
0.0
1001
ACAD
1000
AcDbSavedByObjectVersion
1070
     0
  0
VISUALSTYLE
  5
9CD1
102
{ACAD_XDICTIONARY
360
9D39
102
}
102
{ACAD_REACTORS
330
9CC1
102
}
330
9CC1
100
AcDbVisualStyle
  2
ColorChange
 70
    16
 71
     2
 72
     2
 73
     3
 90
        0
 40
-0.6
 41
-30.0
 62
     5
 63
     8
 74
     1
 91
        4
 64
     7
 65
   257
 75
     1
175
     1
 42
1.0
 92
        8
 66
     8
 43
1.0
 76
     1
 77
     6
 78
     2
 67
     7
 79
     5
170
     0
171
     0
290
     0
174
     0
 93
        1
 44
0.0
173
     0
291
     1
 45
0.0
1001
ACAD
1000
AcDbSavedByObjectVersion
1070
     0
  0
VISUALSTYLE
  5
9CCA
102
{ACAD_XDICTIONARY
360
9D2B
102
}
102
{ACAD_REACTORS
330
9CC1
102
}
330
9CC1
100
AcDbVisualStyle
  2
Conceptual
 70
     9
 71
     3
 72
     2
 73
     0
 90
        0
 40
-0.6
 41
-30.0
 62
     5
 63
     7
 74
     2
 91
        2
 64
     7
 65
   257
 75
     1
175
     1
 42
179.0
 92
        8
 66
     7
 43
1.0
 76
     1
 77
     6
 78
     2
 67
     7
 79
     3
170
     0
171
     0
290
     0
174
     0
 93
        1
 44
0.0
173
     0
291
     0
 45
0.0
1001
ACAD
1000
AcDbSavedByObjectVersion
1070
     0
  0
VISUALSTYLE
  5
9CCC
102
{ACAD_XDICTIONARY
360
9D2F
102
}
102
{ACAD_REACTORS
330
9CC1
102
}
330
9CC1
100
AcDbVisualStyle
  2
Dim
 70
    11
 71
     2
 72
     2
 73
     0
 90
        0
 40
-0.6
 41
-30.0
 62
     5
 63
     7
 74
     1
 91
        4
 64
     7
 65
   257
 75
     1
175
     1
 42
1.0
 92
        8
 66
     7
 43
1.0
 76
     1
 77
     6
 78
     2
 67
     7
 79
     5
170
     0
171
     0
290
     0
174
     0
 93
        1
 44
-50.0
173
     0
291
     1
 45
0.0
1001
ACAD
1000
AcDbSavedByObjectVersion
1070
     0
  0
VISUALSTYLE
  5
9CD9
102
{ACAD_XDICTIONARY
360
9D49
102
}
102
{ACAD_REACTORS
330
9CC1
102
}
330
9CC1
100
AcDbVisualStyle
  2
EdgeColorOff
 70
    22
 71
     2
 72
     2
 73
     0
 90
        0
 40
-0.6
 41
-30.0
 62
     5
 63
     7
 74
     1
 91
        4
 64
     7
 65
   257
 75
     1
175
     1
 42
1.0
 92
        8
 66
     7
 43
1.0
 76
     1
 77
     6
 78
     2
 67
     7
 79
     5
170
     0
171
     0
290
     0
174
     0
 93
        1
 44
0.0
173
     0
291
     1
 45
0.0
1001
ACAD
1000
AcDbSavedByObjectVersion
1070
     0
  0
VISUALSTYLE
  5
9CD0
102
{ACAD_XDICTIONARY
360
9D37
102
}
102
{ACAD_REACTORS
330
9CC1
102
}
330
9CC1
100
AcDbVisualStyle
  2
Facepattern
 70
    15
 71
     2
 72
     2
 73
     0
 90
        0
 40
-0.6
 41
-30.0
 62
     5
 63
     7
 74
     1
 91
        4
 64
     7
 65
   257
 75
     1
175
     1
 42
1.0
 92
        8
 66
     7
 43
1.0
 76
     1
 77
     6
 78
     2
 67
     7
 79
     5
170
     0
171
     0
290
     0
174
     0
 93
        1
 44
0.0
173
     0
291
     1
 45
0.0
1001
ACAD
1000
AcDbSavedByObjectVersion
1070
     0
  0
VISUALSTYLE
  5
9CC2
102
{ACAD_XDICTIONARY
360
9D1B
102
}
102
{ACAD_REACTORS
330
9CC1
102
}
330
9CC1
100
AcDbVisualStyle
  2
Flat
 70
     0
 71
     2
 72
     1
 73
     1
 90
        2
 40
-0.6
 41
30.0
 62
     5
 63
     7
 74
     0
 91
        0
 64
     7
 65
   257
 75
     1
175
     1
 42
1.0
 92
        8
 66
     7
 43
1.0
 76
     1
 77
     6
 78
     2
 67
     7
 79
     5
170
     0
171
     0
290
     0
174
     0
 93
       13
 44
0.0
173
     0
291
     1
 45
0.0
1001
ACAD
1000
AcDbSavedByObjectVersion
1070
     0
  0
VISUALSTYLE
  5
9CC3
102
{ACAD_XDICTIONARY
360
9D1D
102
}
102
{ACAD_REACTORS
330
9CC1
102
}
330
9CC1
100
AcDbVisualStyle
  2
FlatWithEdges
 70
     1
 71
     2
 72
     1
 73
     1
 90
        2
 40
-0.6
 41
30.0
 62
     5
 63
     7
 74
     1
 91
        0
 64
     7
 65
   257
 75
     1
175
     1
 42
1.0
 92
        0
 66
   257
 43
1.0
 76
     1
 77
     6
 78
     2
 67
     7
 79
     5
170
     0
171
     0
290
     0
174
     0
 93
       13
 44
0.0
173
     0
291
     1
 45
0.0
1001
ACAD
1000
AcDbSavedByObjectVersion
1070
     0
  0
VISUALSTYLE
  5
9CC4
102
{ACAD_XDICTIONARY
360
9D1F
102
}
102
{ACAD_REACTORS
330
9CC1
102
}
330
9CC1
100
AcDbVisualStyle
  2
Gouraud
 70
     2
 71
     2
 72
     2
 73
     1
 90
        2
 40
-0.6
 41
30.0
 62
     5
 63
     7
 74
     0
 91
        0
 64
     7
 65
   257
 75
     1
175
     1
 42
1.0
 92
        0
 66
     7
 43
1.0
 76
     1
 77
     6
 78
     2
 67
     7
 79
     5
170
     0
171
     0
290
     0
174
     0
 93
       13
 44
0.0
173
     0
291
     1
 45
0.0
1001
ACAD
1000
AcDbSavedByObjectVersion
1070
     0
  0
VISUALSTYLE
  5
9CC5
102
{ACAD_XDICTIONARY
360
9D21
102
}
102
{ACAD_REACTORS
330
9CC1
102
}
330
9CC1
100
AcDbVisualStyle
  2
GouraudWithEdges
 70
     3
 71
     2
 72
     2
 73
     1
 90
        2
 40
-0.6
 41
30.0
 62
     5
 63
     7
 74
     1
 91
        0
 64
     7
 65
   257
 75
     1
175
     1
 42
1.0
 92
        0
 66
   257
 43
1.0
 76
     1
 77
     6
 78
     2
 67
     7
 79
     5
170
     0
171
     0
290
     0
174
     0
 93
       13
 44
0.0
173
     0
291
     1
 45
0.0
1001
ACAD
1000
AcDbSavedByObjectVersion
1070
     0
  0
VISUALSTYLE
  5
9CC9
102
{ACAD_XDICTIONARY
360
9D29
102
}
102
{ACAD_REACTORS
330
9CC1
102
}
330
9CC1
100
AcDbVisualStyle
  2
Hidden
 70
     6
 71
     1
 72
     2
 73
     2
 90
        0
 40
-0.6
 41
-30.0
 62
     5
 63
     7
 74
     2
 91
        2
 64
     7
 65
   257
 75
     2
175
     1
 42
40.0
 92
        0
 66
   257
 43
1.0
 76
     1
 77
     6
 78
     2
 67
     7
 79
     3
170
     0
171
     0
290
     0
174
     0
 93
        1
 44
0.0
173
     0
291
     0
 45
0.0
1001
ACAD
1000
AcDbSavedByObjectVersion
1070
     0
  0
VISUALSTYLE
  5
9CD7
102
{ACAD_XDICTIONARY
360
9D45
102
}
102
{ACAD_REACTORS
330
9CC1
102
}
330
9CC1
100
AcDbVisualStyle
  2
JitterOff
 70
    20
 71
     2
 72
     2
 73
     0
 90
        0
 40
-0.6
 41
-30.0
 62
     5
 63
     7
 74
     1
 91
        4
 64
     7
 65
   257
 75
     1
175
     1
 42
1.0
 92
       10
 66
     7
 43
1.0
 76
     1
 77
     6
 78
     2
 67
     7
 79
     5
170
     0
171
     0
290
     0
174
     0
 93
        1
 44
0.0
173
     0
291
     1
 45
0.0
1001
ACAD
1000
AcDbSavedByObjectVersion
1070
     0
  0
VISUALSTYLE
  5
9CCF
102
{ACAD_XDICTIONARY
360
9D35
102
}
102
{ACAD_REACTORS
330
9CC1
102
}
330
9CC1
100
AcDbVisualStyle
  2
Linepattern
 70
    14
 71
     2
 72
     2
 73
     0
 90
        0
 40
-0.6
 41
-30.0
 62
     5
 63
     7
 74
     1
 91
        4
 64
     7
 65
   257
 75
     7
175
     7
 42
1.0
 92
        8
 66
     7
 43
1.0
 76
     1
 77
     6
 78
     2
 67
     7
 79
     5
170
     0
171
     0
290
     0
174
     0
 93
        1
 44
0.0
173
     0
291
     1
 45
0.0
1001
ACAD
1000
AcDbSavedByObjectVersion
1070
     0
  0
VISUALSTYLE
  5
9CD8
102
{ACAD_XDICTIONARY
360
9D47
102
}
102
{ACAD_REACTORS
330
9CC1
102
}
330
9CC1
100
AcDbVisualStyle
  2
OverhangOff
 70
    21
 71
     2
 72
     2
 73
     0
 90
        0
 40
-0.6
 41
-30.0
 62
     5
 63
     7
 74
     1
 91
        4
 64
     7
 65
   257
 75
     1
175
     1
 42
1.0
 92
        9
 66
     7
 43
1.0
 76
     1
 77
     6
 78
     2
 67
     7
 79
     5
170
     0
171
     0
290
     0
174
     0
 93
        1
 44
0.0
173
     0
291
     1
 45
0.0
1001
ACAD
1000
AcDbSavedByObjectVersion
1070
     0
  0
VISUALSTYLE
  5
9CCB
102
{ACAD_XDICTIONARY
360
9D2D
102
}
102
{ACAD_REACTORS
330
9CC1
102
}
330
9CC1
100
AcDbVisualStyle
  2
Realistic
 70
     8
 71
     2
 72
     3
 73
     0
 90
        2
 40
-0.6
 41
30.0
 62
     5
 63
     7
 74
     0
 91
        0
 64
     7
 65
   257
 75
     1
175
     1
 42
1.0
 92
        8
 66
   257
 43
1.0
 76
     1
 77
     6
 78
     2
 67
     7
 79
     3
170
     0
171
     0
290
     0
174
     0
 93
       13
 44
0.0
173
     0
291
     0
 45
0.0
1001
ACAD
1000
AcDbSavedByObjectVersion
1070
     0
  0
VISUALSTYLE
  5
9CD6
102
{ACAD_XDICTIONARY
360
9D43
102
}
102
{ACAD_REACTORS
330
9CC1
102
}
330
9CC1
100
AcDbVisualStyle
  2
Shaded
 70
    27
 71
     2
 72
     2
 73
     1
 90
        2
 40
-0.6
 41
30.0
 62
     5
 63
     7
 74
     0
 91
        4
 64
     7
 65
   257
 75
     1
175
     1
 42
1.0
 92
        8
 66
   257
 43
1.0
 76
     1
 77
     6
 78
     2
 67
     8
 79
     3
170
     0
171
     0
290
     0
174
     0
 93
        5
 44
0.0
173
     0
291
     0
 45
0.0
1001
ACAD
1000
AcDbSavedByObjectVersion
1070
     0
  0
VISUALSTYLE
  5
9CD5
102
{ACAD_XDICTIONARY
360
9D41
102
}
102
{ACAD_REACTORS
330
9CC1
102
}
330
9CC1
100
AcDbVisualStyle
  2
Shaded with edges
 70
    26
 71
     2
 72
     2
 73
     1
 90
        2
 40
-0.6
 41
30.0
 62
     5
 63
     7
 74
     1
 91
       10
 64
     7
 65
   257
 75
     2
175
     1
 42
1.0
 92
        8
 66
   257
 43
1.0
 76
     1
 77
     6
 78
     2
 67
     7
 79
     3
170
     0
171
     0
290
     0
174
     0
 93
        5
 44
0.0
173
     0
291
     0
 45
0.0
1001
ACAD
1000
AcDbSavedByObjectVersion
1070
     0
  0
VISUALSTYLE
  5
9CD2
102
{ACAD_XDICTIONARY
360
9D3B
102
}
102
{ACAD_REACTORS
330
9CC1
102
}
330
9CC1
100
AcDbVisualStyle
  2
Shades of Gray
 70
    23
 71
     2
 72
     2
 73
     3
 90
        0
 40
-0.6
 41
-30.0
 62
     5
 63
     7
 74
     2
 91
        2
 64
     7
 65
     7
 75
     1
175
     1
 42
40.0
 92
        8
 66
     7
 43
1.0
 76
     1
 77
     6
 78
     2
 67
     7
 79
     3
170
     0
171
     0
290
     0
174
     0
 93
        1
 44
0.0
173
     0
291
     0
 45
0.0
1001
ACAD
1000
AcDbSavedByObjectVersion
1070
     0
  0
VISUALSTYLE
  5
9CD3
102
{ACAD_XDICTIONARY
360
9D3D
102
}
102
{ACAD_REACTORS
330
9CC1
102
}
330
9CC1
100
AcDbVisualStyle
  2
Sketchy
 70
    24
 71
     1
 72
     2
 73
     2
 90
        0
 40
-0.6
 41
-30.0
 62
     5
 63
     7
 74
     2
 91
        2
 64
     7
 65
     7
 75
     1
175
     1
 42
40.0
 92
       11
 66
     7
 43
1.0
 76
     1
 77
     6
 78
     2
 67
     7
 79
     6
170
     0
171
     0
290
     0
174
     0
 93
        1
 44
0.0
173
     0
291
     0
 45
0.0
1001
ACAD
1000
AcDbSavedByObjectVersion
1070
     0
  0
VISUALSTYLE
  5
9CCE
102
{ACAD_XDICTIONARY
360
9D33
102
}
102
{ACAD_REACTORS
330
9CC1
102
}
330
9CC1
100
AcDbVisualStyle
  2
Thicken
 70
    13
 71
     2
 72
     2
 73
     0
 90
        0
 40
-0.6
 41
-30.0
 62
     5
 63
     7
 74
     1
 91
        4
 64
     7
 65
   257
 75
     1
175
     1
 42
1.0
 92
       12
 66
     7
 43
1.0
 76
     1
 77
     6
 78
     2
 67
     7
 79
     5
170
     0
171
     0
290
     0
174
     0
 93
        1
 44
0.0
173
     0
291
     1
 45
0.0
1001
ACAD
1000
AcDbSavedByObjectVersion
1070
     0
  0
VISUALSTYLE
  5
9CC8
102
{ACAD_XDICTIONARY
360
9D27
102
}
102
{ACAD_REACTORS
330
9CC1
102
}
330
9CC1
100
AcDbVisualStyle
  2
Wireframe
 70
     5
 71
     0
 72
     2
 73
     0
 90
        0
 40
-0.6
 41
-30.0
 62
     5
 63
     7
 74
     1
 91
        4
 64
     7
 65
   257
 75
     1
175
     1
 42
1.0
 92
        0
 66
   257
 43
1.0
 76
     1
 77
     6
 78
     2
 67
     7
 79
     3
170
     0
171
     0
290
     0
174
     0
 93
        1
 44
0.0
173
     0
291
     0
 45
0.0
1001
ACAD
1000
AcDbSavedByObjectVersion
1070
     0
  0
VISUALSTYLE
  5
9CD4
102
{ACAD_XDICTIONARY
360
9D3F
102
}
102
{ACAD_REACTORS
330
9CC1
102
}
330
9CC1
100
AcDbVisualStyle
  2
X-Ray
 70
    25
 71
     2
 72
     2
 73
     1
 90
        1
 40
0.5
 41
-30.0
 62
     5
 63
     7
 74
     1
 91
        0
 64
     7
 65
   257
 75
     1
175
     1
 42
1.0
 92
        8
 66
     7
 43
1.0
 76
     1
 77
     6
 78
     2
 67
     7
 79
     3
170
     0
171
     0
290
     0
174
     0
 93
       13
 44
0.0
173
     0
291
     0
 45
0.0
1001
ACAD
1000
AcDbSavedByObjectVersion
1070
     0
  0
DICTIONARYVAR
  5
9D0E
102
{ACAD_REACTORS
330
9D09
102
}
330
9D09
100
DictionaryVariables
280
     0
  1
1:1
  0
DICTIONARYVAR
  5
9D0B
102
{ACAD_REACTORS
330
9D09
102
}
330
9D09
100
DictionaryVariables
280
     0
  1
STANDARD
  0
DICTIONARYVAR
  5
9D0A
102
{ACAD_REACTORS
330
9D09
102
}
330
9D09
100
DictionaryVariables
280
     0
  1
STANDARD
  0
DICTIONARYVAR
  5
9D0C
102
{ACAD_REACTORS
330
9D09
102
}
330
9D09
100
DictionaryVariables
280
     0
  1
Imperial24
  0
DICTIONARYVAR
  5
9D0D
102
{ACAD_REACTORS
330
9D09
102
}
330
9D09
100
DictionaryVariables
280
     0
  1
Imperial24
  0
DICTIONARYVAR
  5
9D11
102
{ACAD_REACTORS
330
9D09
102
}
330
9D09
100
DictionaryVariables
280
     0
  1
1
  0
DICTIONARYVAR
  5
9D10
102
{ACAD_REACTORS
330
9D09
102
}
330
9D09
100
DictionaryVariables
280
     0
  1
0
  0
DICTIONARYVAR
  5
9D0F
102
{ACAD_REACTORS
330
9D09
102
}
330
9D09
100
DictionaryVariables
280
     0
  1
127
  0
DICTIONARYVAR
  5
9D12
102
{ACAD_REACTORS
330
9D09
102
}
330
9D09
100
DictionaryVariables
280
     0
  1
2
  0
DICTIONARY
  5
9D4F
330
9CF4
100
AcDbDictionary
280
     1
281
     1
  3
ACAD_XREC_ROUNDTRIP
360
9D50
  0
DICTIONARY
  5
9D51
330
9CF5
100
AcDbDictionary
280
     1
281
     1
  3
ACAD_XREC_ROUNDTRIP
360
9D52
  0
DICTIONARY
  5
9D53
330
9CF6
100
AcDbDictionary
280
     1
281
     1
  3
ACAD_XREC_ROUNDTRIP
360
9D54
  0
DICTIONARY
  5
9CB2
330
9CB1
100
AcDbDictionary
280
     1
281
     1
  3
ACAD_XREC_ROUNDTRIP
360
9D19
  3
BUMPTILE
360
9CB4
  3
DIFFUSETILE
360
9CB3
  3
OPACITYTILE
360
9CB7
  3
REFLECTIONTILE
360
9CB6
  3
REFRACTIONTILE
360
9CB8
  3
SPECULARTILE
360
9CB5
  0
DICTIONARY
  5
9CAA
330
9CA9
100
AcDbDictionary
280
     1
281
     1
  3
ACAD_XREC_ROUNDTRIP
360
9D18
  3
BUMPTILE
360
9CAC
  3
DIFFUSETILE
360
9CAB
  3
OPACITYTILE
360
9CAF
  3
REFLECTIONTILE
360
9CAE
  3
REFRACTIONTILE
360
9CB0
  3
SPECULARTILE
360
9CAD
  0
DICTIONARY
  5
9CBA
330
9CB9
100
AcDbDictionary
280
     1
281
     1
  3
ACAD_XREC_ROUNDTRIP
360
9D1A
  3
BUMPTILE
360
9CBC
  3
DIFFUSETILE
360
9CBB
  3
OPACITYTILE
360
9CBF
  3
REFLECTIONTILE
360
9CBE
  3
REFRACTIONTILE
360
9CC0
  3
SPECULARTILE
360
9CBD
  0
DICTIONARY
  5
9D4D
330
9CF2
100
AcDbDictionary
280
     1
281
     1
  3
ACAD_XREC_ROUNDTRIP
360
9D4E
  0
DICTIONARY
  5
9D14
330
9CDC
100
AcDbDictionary
280
     1
281
     1
  3
ACAD_ROUNDTRIP_2008_TABLESTYLE_CELLSTYLEMAP
360
9D15
  3
ACAD_XREC_ROUNDTRIP
360
9D4B
  0
DICTIONARY
  5
9D25
330
9CC7
100
AcDbDictionary
280
     1
281
     1
  3
ACAD_XREC_ROUNDTRIP
360
9D26
  0
DICTIONARY
  5
9D23
330
9CC6
100
AcDbDictionary
280
     1
281
     1
  3
ACAD_XREC_ROUNDTRIP
360
9D24
  0
DICTIONARY
  5
9D31
330
9CCD
100
AcDbDictionary
280
     1
281
     1
  3
ACAD_XREC_ROUNDTRIP
360
9D32
  0
DICTIONARY
  5
9D39
330
9CD1
100
AcDbDictionary
280
     1
281
     1
  3
ACAD_XREC_ROUNDTRIP
360
9D3A
  0
DICTIONARY
  5
9D2B
330
9CCA
100
AcDbDictionary
280
     1
281
     1
  3
ACAD_XREC_ROUNDTRIP
360
9D2C
  0
DICTIONARY
  5
9D2F
330
9CCC
100
AcDbDictionary
280
     1
281
     1
  3
ACAD_XREC_ROUNDTRIP
360
9D30
  0
DICTIONARY
  5
9D49
330
9CD9
100
AcDbDictionary
280
     1
281
     1
  3
ACAD_XREC_ROUNDTRIP
360
9D4A
  0
DICTIONARY
  5
9D37
330
9CD0
100
AcDbDictionary
280
     1
281
     1
  3
ACAD_XREC_ROUNDTRIP
360
9D38
  0
DICTIONARY
  5
9D1B
330
9CC2
100
AcDbDictionary
280
     1
281
     1
  3
ACAD_XREC_ROUNDTRIP
360
9D1C
  0
DICTIONARY
  5
9D1D
330
9CC3
100
AcDbDictionary
280
     1
281
     1
  3
ACAD_XREC_ROUNDTRIP
360
9D1E
  0
DICTIONARY
  5
9D1F
330
9CC4
100
AcDbDictionary
280
     1
281
     1
  3
ACAD_XREC_ROUNDTRIP
360
9D20
  0
DICTIONARY
  5
9D21
330
9CC5
100
AcDbDictionary
280
     1
281
     1
  3
ACAD_XREC_ROUNDTRIP
360
9D22
  0
DICTIONARY
  5
9D29
330
9CC9
100
AcDbDictionary
280
     1
281
     1
  3
ACAD_XREC_ROUNDTRIP
360
9D2A
  0
DICTIONARY
  5
9D45
330
9CD7
100
AcDbDictionary
280
     1
281
     1
  3
ACAD_XREC_ROUNDTRIP
360
9D46
  0
DICTIONARY
  5
9D35
330
9CCF
100
AcDbDictionary
280
     1
281
     1
  3
ACAD_XREC_ROUNDTRIP
360
9D36
  0
DICTIONARY
  5
9D47
330
9CD8
100
AcDbDictionary
280
     1
281
     1
  3
ACAD_XREC_ROUNDTRIP
360
9D48
  0
DICTIONARY
  5
9D2D
330
9CCB
100
AcDbDictionary
280
     1
281
     1
  3
ACAD_XREC_ROUNDTRIP
360
9D2E
  0
DICTIONARY
  5
9D43
330
9CD6
100
AcDbDictionary
280
     1
281
     1
  3
ACAD_XREC_ROUNDTRIP
360
9D44
  0
DICTIONARY
  5
9D41
330
9CD5
100
AcDbDictionary
280
     1
281
     1
  3
ACAD_XREC_ROUNDTRIP
360
9D42
  0
DICTIONARY
  5
9D3B
330
9CD2
100
AcDbDictionary
280
     1
281
     1
  3
ACAD_XREC_ROUNDTRIP
360
9D3C
  0
DICTIONARY
  5
9D3D
330
9CD3
100
AcDbDictionary
280
     1
281
     1
  3
ACAD_XREC_ROUNDTRIP
360
9D3E
  0
DICTIONARY
  5
9D33
330
9CCE
100
AcDbDictionary
280
     1
281
     1
  3
ACAD_XREC_ROUNDTRIP
360
9D34
  0
DICTIONARY
  5
9D27
330
9CC8
100
AcDbDictionary
280
     1
281
     1
  3
ACAD_XREC_ROUNDTRIP
360
9D28
  0
DICTIONARY
  5
9D3F
330
9CD4
100
AcDbDictionary
280
     1
281
     1
  3
ACAD_XREC_ROUNDTRIP
360
9D40
  0
XRECORD
  5
9D50
102
{ACAD_REACTORS
330
9D4F
102
}
330
9D4F
100
AcDbXrecord
280
     1
102
DISPLAYNAME
  1
Imperial24
102
FLAGS
 90
        0
  0
XRECORD
  5
9D52
102
{ACAD_REACTORS
330
9D51
102
}
330
9D51
100
AcDbXrecord
280
     1
102
SHADEPLOT
 70
     0
102
SHADEPLOTRESLEVEL
 70
     2
102
SHADEPLOTCUSTOMDPI
 70
   300
  0
XRECORD
  5
9D54
102
{ACAD_REACTORS
330
9D53
102
}
330
9D53
100
AcDbXrecord
280
     1
102
SHADEPLOT
 70
     0
102
SHADEPLOTRESLEVEL
 70
     2
102
SHADEPLOTCUSTOMDPI
 70
   300
  0
XRECORD
  5
9D19
102
{ACAD_REACTORS
330
9CB2
102
}
330
9CB2
100
AcDbXrecord
280
     1
102
MATERIAL
148
0.0
149
0.0
149
0.0
 93
        0
 94
      127
282
     0
 72
     0
 77
     0
171
     0
175
     0
179
     0
273
     0
  0
XRECORD
  5
9CB4
102
{ACAD_REACTORS
330
9CB2
102
}
330
9CB2
100
AcDbXrecord
280
     1
270
     1
271
     1
  0
XRECORD
  5
9CB3
102
{ACAD_REACTORS
330
9CB2
102
}
330
9CB2
100
AcDbXrecord
280
     1
270
     1
271
     1
  0
XRECORD
  5
9CB7
102
{ACAD_REACTORS
330
9CB2
102
}
330
9CB2
100
AcDbXrecord
280
     1
270
     1
271
     1
  0
XRECORD
  5
9CB6
102
{ACAD_REACTORS
330
9CB2
102
}
330
9CB2
100
AcDbXrecord
280
     1
270
     1
271
     1
  0
XRECORD
  5
9CB8
102
{ACAD_REACTORS
330
9CB2
102
}
330
9CB2
100
AcDbXrecord
280
     1
270
     1
271
     1
  0
XRECORD
  5
9CB5
102
{ACAD_REACTORS
330
9CB2
102
}
330
9CB2
100
AcDbXrecord
280
     1
270
     1
271
     1
  0
XRECORD
  5
9D18
102
{ACAD_REACTORS
330
9CAA
102
}
330
9CAA
100
AcDbXrecord
280
     1
102
MATERIAL
148
0.0
149
0.0
149
0.0
 93
        0
 94
      127
282
     0
 72
     0
 77
     0
171
     0
175
     0
179
     0
273
     0
  0
XRECORD
  5
9CAC
102
{ACAD_REACTORS
330
9CAA
102
}
330
9CAA
100
AcDbXrecord
280
     1
270
     1
271
     1
  0
XRECORD
  5
9CAB
102
{ACAD_REACTORS
330
9CAA
102
}
330
9CAA
100
AcDbXrecord
280
     1
270
     1
271
     1
  0
XRECORD
  5
9CAF
102
{ACAD_REACTORS
330
9CAA
102
}
330
9CAA
100
AcDbXrecord
280
     1
270
     1
271
     1
  0
XRECORD
  5
9CAE
102
{ACAD_REACTORS
330
9CAA
102
}
330
9CAA
100
AcDbXrecord
280
     1
270
     1
271
     1
  0
XRECORD
  5
9CB0
102
{ACAD_REACTORS
330
9CAA
102
}
330
9CAA
100
AcDbXrecord
280
     1
270
     1
271
     1
  0
XRECORD
  5
9CAD
102
{ACAD_REACTORS
330
9CAA
102
}
330
9CAA
100
AcDbXrecord
280
     1
270
     1
271
     1
  0
XRECORD
  5
9D1A
102
{ACAD_REACTORS
330
9CBA
102
}
330
9CBA
100
AcDbXrecord
280
     1
102
MATERIAL
148
0.0
149
0.0
149
0.0
 93
        0
 94
      127
282
     0
 72
     0
 77
     0
171
     0
175
     0
179
     0
273
     0
  0
XRECORD
  5
9CBC
102
{ACAD_REACTORS
330
9CBA
102
}
330
9CBA
100
AcDbXrecord
280
     1
270
     1
271
     1
  0
XRECORD
  5
9CBB
102
{ACAD_REACTORS
330
9CBA
102
}
330
9CBA
100
AcDbXrecord
280
     1
270
     1
271
     1
  0
XRECORD
  5
9CBF
102
{ACAD_REACTORS
330
9CBA
102
}
330
9CBA
100
AcDbXrecord
280
     1
270
     1
271
     1
  0
XRECORD
  5
9CBE
102
{ACAD_REACTORS
330
9CBA
102
}
330
9CBA
100
AcDbXrecord
280
     1
270
     1
271
     1
  0
XRECORD
  5
9CC0
102
{ACAD_REACTORS
330
9CBA
102
}
330
9CBA
100
AcDbXrecord
280
     1
270
     1
271
     1
  0
XRECORD
  5
9CBD
102
{ACAD_REACTORS
330
9CBA
102
}
330
9CBA
100
AcDbXrecord
280
     1
270
     1
271
     1
  0
XRECORD
  5
9D4E
102
{ACAD_REACTORS
330
9D4D
102
}
330
9D4D
100
AcDbXrecord
280
     1
102
DISPLAYNAME
  1
Imperial24
102
FLAGS
 90
        0
  0
CELLSTYLEMAP
  5
9D15
102
{ACAD_REACTORS
330
9D14
102
}
330
9D14
100
AcDbCellStyleMap
 90
        3
300
CELLSTYLE
  1
TABLEFORMAT_BEGIN
 90
        5
170
     1
 91
        0
 92
    32768
 62
   257
 93
        1
300
CONTENTFORMAT
  1
CONTENTFORMAT_BEGIN
 90
        0
 91
        0
 92
      512
 93
        0
300

 40
0.0
140
1.0
 94
        5
 62
     0
340
945F
144
0.25
309
CONTENTFORMAT_END
171
     0
 94
        0
309
TABLEFORMAT_END
  1
CELLSTYLE_BEGIN
 90
        1
 91
        1
300
_TITLE
309
CELLSTYLE_END
300
CELLSTYLE
  1
TABLEFORMAT_BEGIN
 90
        5
170
     1
 91
        0
 92
        0
 62
   257
 93
        1
300
CONTENTFORMAT
  1
CONTENTFORMAT_BEGIN
 90
        0
 91
        0
 92
      512
 93
        0
300

 40
0.0
140
1.0
 94
        5
 62
     0
340
945F
144
0.18
309
CONTENTFORMAT_END
171
     0
 94
        0
309
TABLEFORMAT_END
  1
CELLSTYLE_BEGIN
 90
        2
 91
        1
300
_HEADER
309
CELLSTYLE_END
300
CELLSTYLE
  1
TABLEFORMAT_BEGIN
 90
        5
170
     1
 91
        0
 92
        0
 62
   257
 93
        1
300
CONTENTFORMAT
  1
CONTENTFORMAT_BEGIN
 90
        0
 91
        0
 92
      512
 93
        0
300

 40
0.0
140
1.0
 94
        2
 62
     0
340
945F
144
0.18
309
CONTENTFORMAT_END
171
     0
 94
        0
309
TABLEFORMAT_END
  1
CELLSTYLE_BEGIN
 90
        3
 91
        2
300
_DATA
309
CELLSTYLE_END
  0
XRECORD
  5
9D4B
102
{ACAD_REACTORS
330
9D14
102
}
330
9D14
100
AcDbXrecord
280
     1
102
ACAD_ROUNDTRIP_PRE2007_TABLESTYLE
 90
      512
 91
        0
  1

 92
      512
 93
        0
  2

 94
      512
 95
        0
  3

  0
XRECORD
  5
9D26
102
{ACAD_REACTORS
330
9D25
102
}
330
9D25
100
AcDbXrecord
280
     1
102
RTVSPost2010Prop28
280
     1
102
RTVSPost2010PropOp28
 70
     1
102
RTVSPost2010Prop29
280
     1
102
RTVSPost2010PropOp29
 70
     1
102
RTVSPost2010Prop30
280
     0
102
RTVSPost2010PropOp30
 70
     1
102
RTVSPost2010Prop31
280
     0
102
RTVSPost2010PropOp31
 70
     1
102
RTVSPost2010Prop32
280
     0
102
RTVSPost2010PropOp32
 70
     1
102
RTVSPost2010Prop33
280
     0
102
RTVSPost2010PropOp33
 70
     1
102
RTVSPost2010Prop34
280
     0
102
RTVSPost2010PropOp34
 70
     1
102
RTVSPost2010Prop35
280
     0
102
RTVSPost2010PropOp35
 70
     1
102
RTVSPost2010Prop36
280
     0
102
RTVSPost2010PropOp36
 70
     1
102
RTVSPost2010Prop37
 90
       50
102
RTVSPost2010PropOp37
 70
     1
102
RTVSPost2010Prop38
140
0.0
102
RTVSPost2010PropOp38
 70
     1
102
RTVSPost2010Prop39
140
1.0
102
RTVSPost2010PropOp39
 70
     1
102
RTVSPost2010Prop40
 90
        0
102
RTVSPost2010PropOp40
 70
     1
102
RTVSPost2010Prop41ColorIndex
 90
       18
102
RTVSPost2010Prop41ColorRGB
 90
        0
102
RTVSPost2010PropOp41
 70
     1
102
RTVSPost2010Prop42
 90
       50
102
RTVSPost2010PropOp42
 70
     1
102
RTVSPost2010Prop43
 90
        3
102
RTVSPost2010PropOp43
 70
     1
102
RTVSPost2010Prop44ColorIndex
 90
        5
102
RTVSPost2010Prop44ColorRGB
 90
      255
102
RTVSPost2010PropOp44
 70
     1
102
RTVSPost2010Prop45
280
     0
102
RTVSPost2010PropOp45
 70
     1
102
RTVSPost2010Prop46
 90
       50
102
RTVSPost2010PropOp46
 70
     1
102
RTVSPost2010Prop47
 90
       50
102
RTVSPost2010PropOp47
 70
     1
102
RTVSPost2010Prop48
 90
       50
102
RTVSPost2010PropOp48
 70
     1
102
RTVSPost2010Prop49
280
     0
102
RTVSPost2010PropOp49
 70
     1
102
RTVSPost2010Prop50
 90
       50
102
RTVSPost2010PropOp50
 70
     1
102
RTVSPost2010Prop51ColorIndex
 90
      256
102
RTVSPost2010Prop51ColorRGB
 90
-16777216
102
RTVSPost2010PropOp51
 70
     0
102
RTVSPost2010Prop52
140
1.0
102
RTVSPost2010PropOp52
 70
     0
102
RTVSPost2010Prop53
 90
        2
102
RTVSPost2010PropOp53
 70
     1
102
RTVSPost2010Prop54
  1
strokes_ogs.tif
102
RTVSPost2010PropOp54
 70
     1
102
RTVSPost2010Prop55
280
     0
102
RTVSPost2010PropOp55
 70
     1
102
RTVSPost2010Prop56
140
1.0
102
RTVSPost2010PropOp56
 70
     1
102
RTVSPost2010Prop57
140
1.0
102
RTVSPost2010PropOp57
 70
     1
102
RTVSPropertyOp0
 70
     1
102
RTVSPropertyOp1
 70
     1
102
RTVSPropertyOp2
 70
     1
102
RTVSPropertyOp3
 70
     1
102
RTVSPropertyOp4
 70
     1
102
RTVSPropertyOp5
 70
     1
102
RTVSPropertyOp6
 70
     1
102
RTVSPropertyOp7
 70
     1
102
RTVSPropertyOp8
 70
     1
102
RTVSPropertyOp9
 70
     1
102
RTVSPropertyOp10
 70
     1
102
RTVSPropertyOp11
 70
     1
102
RTVSPropertyOp12
 70
     1
102
RTVSPropertyOp13
 70
     1
102
RTVSPropertyOp14
 70
     1
102
RTVSPropertyOp15
 70
     1
102
RTVSPropertyOp16
 70
     1
102
RTVSPropertyOp17
 70
     1
102
RTVSPropertyOp18
 70
     1
102
RTVSPropertyOp19
 70
     1
102
RTVSPropertyOp20
 70
     1
102
RTVSPropertyOp21
 70
     1
102
RTVSPropertyOp22
 70
     1
102
RTVSPropertyOp23
 70
     1
102
RTVSPropertyOp24
 70
     1
102
RTVSPropertyOp25
 70
     1
102
RTVSPropertyOp26
 70
     1
102
RTVSPropertyOp27
 70
     1
102
RTVSPropertyOp28
 70
     1
102
RTVSPropertyOp29
 70
     1
102
RTVSPropertyOp30
 70
     1
102
RTVSPropertyOp31
 70
     1
102
RTVSPropertyOp32
 70
     1
102
RTVSPropertyOp33
 70
     1
102
RTVSPropertyOp34
 70
     1
102
RTVSPropertyOp35
 70
     1
102
RTVSPropertyOp36
 70
     1
102
RTVSPropertyOp37
 70
     1
102
RTVSPropertyOp38
 70
     1
102
RTVSPropertyOp39
 70
     1
102
RTVSPropertyOp40
 70
     1
102
RTVSPropertyOp41
 70
     1
102
RTVSPropertyOp42
 70
     1
102
RTVSPropertyOp43
 70
     1
102
RTVSPropertyOp44
 70
     1
102
RTVSPropertyOp45
 70
     1
102
RTVSPropertyOp46
 70
     1
102
RTVSPropertyOp47
 70
     1
102
RTVSPropertyOp48
 70
     1
102
RTVSPropertyOp49
 70
     1
102
RTVSPropertyOp50
 70
     1
102
RTVSPropertyOp51
 70
     0
102
RTVSPropertyOp52
 70
     0
102
RTVSPropertyOp53
 70
     1
102
RTVSPropertyOp54
 70
     1
102
RTVSPropertyOp55
 70
     1
102
RTVSPropertyOp56
 70
     1
102
RTVSPropertyOp57
 70
     1
102
RTVSPropertyOp58
 70
     1
102
RTVSPropertyOp59
 70
     1
102
RTVSPropertyOp60
 70
     1
102
RTVSPropertyOp61
 70
     1
102
RTVSPropertyOp62
 70
     1
  0
XRECORD
  5
9D24
102
{ACAD_REACTORS
330
9D23
102
}
330
9D23
100
AcDbXrecord
280
     1
102
RTVSPost2010Prop28
280
     0
102
RTVSPost2010PropOp28
 70
     1
102
RTVSPost2010Prop29
280
     1
102
RTVSPost2010PropOp29
 70
     1
102
RTVSPost2010Prop30
280
     1
102
RTVSPost2010PropOp30
 70
     1
102
RTVSPost2010Prop31
280
     0
102
RTVSPost2010PropOp31
 70
     1
102
RTVSPost2010Prop32
280
     0
102
RTVSPost2010PropOp32
 70
     1
102
RTVSPost2010Prop33
280
     0
102
RTVSPost2010PropOp33
 70
     1
102
RTVSPost2010Prop34
280
     0
102
RTVSPost2010PropOp34
 70
     1
102
RTVSPost2010Prop35
280
     0
102
RTVSPost2010PropOp35
 70
     1
102
RTVSPost2010Prop36
280
     0
102
RTVSPost2010PropOp36
 70
     1
102
RTVSPost2010Prop37
 90
       50
102
RTVSPost2010PropOp37
 70
     1
102
RTVSPost2010Prop38
140
0.0
102
RTVSPost2010PropOp38
 70
     1
102
RTVSPost2010Prop39
140
1.0
102
RTVSPost2010PropOp39
 70
     1
102
RTVSPost2010Prop40
 90
        0
102
RTVSPost2010PropOp40
 70
     1
102
RTVSPost2010Prop41ColorIndex
 90
       18
102
RTVSPost2010Prop41ColorRGB
 90
        0
102
RTVSPost2010PropOp41
 70
     1
102
RTVSPost2010Prop42
 90
       50
102
RTVSPost2010PropOp42
 70
     1
102
RTVSPost2010Prop43
 90
        3
102
RTVSPost2010PropOp43
 70
     1
102
RTVSPost2010Prop44ColorIndex
 90
        5
102
RTVSPost2010Prop44ColorRGB
 90
      255
102
RTVSPost2010PropOp44
 70
     1
102
RTVSPost2010Prop45
280
     0
102
RTVSPost2010PropOp45
 70
     1
102
RTVSPost2010Prop46
 90
       50
102
RTVSPost2010PropOp46
 70
     1
102
RTVSPost2010Prop47
 90
       50
102
RTVSPost2010PropOp47
 70
     1
102
RTVSPost2010Prop48
 90
       50
102
RTVSPost2010PropOp48
 70
     1
102
RTVSPost2010Prop49
280
     0
102
RTVSPost2010PropOp49
 70
     1
102
RTVSPost2010Prop50
 90
       50
102
RTVSPost2010PropOp50
 70
     1
102
RTVSPost2010Prop51ColorIndex
 90
      256
102
RTVSPost2010Prop51ColorRGB
 90
-16777216
102
RTVSPost2010PropOp51
 70
     0
102
RTVSPost2010Prop52
140
1.0
102
RTVSPost2010PropOp52
 70
     0
102
RTVSPost2010Prop53
 90
        2
102
RTVSPost2010PropOp53
 70
     1
102
RTVSPost2010Prop54
  1
strokes_ogs.tif
102
RTVSPost2010PropOp54
 70
     1
102
RTVSPost2010Prop55
280
     0
102
RTVSPost2010PropOp55
 70
     1
102
RTVSPost2010Prop56
140
1.0
102
RTVSPost2010PropOp56
 70
     1
102
RTVSPost2010Prop57
140
1.0
102
RTVSPost2010PropOp57
 70
     1
102
RTVSPropertyOp0
 70
     1
102
RTVSPropertyOp1
 70
     1
102
RTVSPropertyOp2
 70
     1
102
RTVSPropertyOp3
 70
     1
102
RTVSPropertyOp4
 70
     1
102
RTVSPropertyOp5
 70
     1
102
RTVSPropertyOp6
 70
     1
102
RTVSPropertyOp7
 70
     1
102
RTVSPropertyOp8
 70
     1
102
RTVSPropertyOp9
 70
     1
102
RTVSPropertyOp10
 70
     1
102
RTVSPropertyOp11
 70
     1
102
RTVSPropertyOp12
 70
     1
102
RTVSPropertyOp13
 70
     1
102
RTVSPropertyOp14
 70
     1
102
RTVSPropertyOp15
 70
     1
102
RTVSPropertyOp16
 70
     1
102
RTVSPropertyOp17
 70
     1
102
RTVSPropertyOp18
 70
     1
102
RTVSPropertyOp19
 70
     1
102
RTVSPropertyOp20
 70
     1
102
RTVSPropertyOp21
 70
     1
102
RTVSPropertyOp22
 70
     1
102
RTVSPropertyOp23
 70
     1
102
RTVSPropertyOp24
 70
     1
102
RTVSPropertyOp25
 70
     1
102
RTVSPropertyOp26
 70
     1
102
RTVSPropertyOp27
 70
     1
102
RTVSPropertyOp28
 70
     1
102
RTVSPropertyOp29
 70
     1
102
RTVSPropertyOp30
 70
     1
102
RTVSPropertyOp31
 70
     1
102
RTVSPropertyOp32
 70
     1
102
RTVSPropertyOp33
 70
     1
102
RTVSPropertyOp34
 70
     1
102
RTVSPropertyOp35
 70
     1
102
RTVSPropertyOp36
 70
     1
102
RTVSPropertyOp37
 70
     1
102
RTVSPropertyOp38
 70
     1
102
RTVSPropertyOp39
 70
     1
102
RTVSPropertyOp40
 70
     1
102
RTVSPropertyOp41
 70
     1
102
RTVSPropertyOp42
 70
     1
102
RTVSPropertyOp43
 70
     1
102
RTVSPropertyOp44
 70
     1
102
RTVSPropertyOp45
 70
     1
102
RTVSPropertyOp46
 70
     1
102
RTVSPropertyOp47
 70
     1
102
RTVSPropertyOp48
 70
     1
102
RTVSPropertyOp49
 70
     1
102
RTVSPropertyOp50
 70
     1
102
RTVSPropertyOp51
 70
     0
102
RTVSPropertyOp52
 70
     0
102
RTVSPropertyOp53
 70
     1
102
RTVSPropertyOp54
 70
     1
102
RTVSPropertyOp55
 70
     1
102
RTVSPropertyOp56
 70
     1
102
RTVSPropertyOp57
 70
     1
102
RTVSPropertyOp58
 70
     1
102
RTVSPropertyOp59
 70
     1
102
RTVSPropertyOp60
 70
     1
102
RTVSPropertyOp61
 70
     1
102
RTVSPropertyOp62
 70
     1
  0
XRECORD
  5
9D32
102
{ACAD_REACTORS
330
9D31
102
}
330
9D31
100
AcDbXrecord
280
     1
102
RTVSPost2010Prop28
280
     0
102
RTVSPost2010PropOp28
 70
     1
102
RTVSPost2010Prop29
280
     1
102
RTVSPost2010PropOp29
 70
     1
102
RTVSPost2010Prop30
280
     1
102
RTVSPost2010PropOp30
 70
     1
102
RTVSPost2010Prop31
280
     0
102
RTVSPost2010PropOp31
 70
     1
102
RTVSPost2010Prop32
280
     0
102
RTVSPost2010PropOp32
 70
     1
102
RTVSPost2010Prop33
280
     0
102
RTVSPost2010PropOp33
 70
     1
102
RTVSPost2010Prop34
280
     0
102
RTVSPost2010PropOp34
 70
     1
102
RTVSPost2010Prop35
280
     0
102
RTVSPost2010PropOp35
 70
     1
102
RTVSPost2010Prop36
280
     0
102
RTVSPost2010PropOp36
 70
     1
102
RTVSPost2010Prop37
 90
       50
102
RTVSPost2010PropOp37
 70
     1
102
RTVSPost2010Prop38
140
0.0
102
RTVSPost2010PropOp38
 70
     1
102
RTVSPost2010Prop39
140
1.0
102
RTVSPost2010PropOp39
 70
     1
102
RTVSPost2010Prop40
 90
        0
102
RTVSPost2010PropOp40
 70
     1
102
RTVSPost2010Prop41ColorIndex
 90
       18
102
RTVSPost2010Prop41ColorRGB
 90
        0
102
RTVSPost2010PropOp41
 70
     1
102
RTVSPost2010Prop42
 90
       50
102
RTVSPost2010PropOp42
 70
     1
102
RTVSPost2010Prop43
 90
        3
102
RTVSPost2010PropOp43
 70
     1
102
RTVSPost2010Prop44ColorIndex
 90
        5
102
RTVSPost2010Prop44ColorRGB
 90
      255
102
RTVSPost2010PropOp44
 70
     1
102
RTVSPost2010Prop45
280
     0
102
RTVSPost2010PropOp45
 70
     1
102
RTVSPost2010Prop46
 90
       50
102
RTVSPost2010PropOp46
 70
     1
102
RTVSPost2010Prop47
 90
       50
102
RTVSPost2010PropOp47
 70
     1
102
RTVSPost2010Prop48
 90
       50
102
RTVSPost2010PropOp48
 70
     1
102
RTVSPost2010Prop49
280
     0
102
RTVSPost2010PropOp49
 70
     1
102
RTVSPost2010Prop50
 90
       50
102
RTVSPost2010PropOp50
 70
     1
102
RTVSPost2010Prop51ColorIndex
 90
      256
102
RTVSPost2010Prop51ColorRGB
 90
-16777216
102
RTVSPost2010PropOp51
 70
     0
102
RTVSPost2010Prop52
140
1.0
102
RTVSPost2010PropOp52
 70
     0
102
RTVSPost2010Prop53
 90
        2
102
RTVSPost2010PropOp53
 70
     1
102
RTVSPost2010Prop54
  1
strokes_ogs.tif
102
RTVSPost2010PropOp54
 70
     1
102
RTVSPost2010Prop55
280
     0
102
RTVSPost2010PropOp55
 70
     1
102
RTVSPost2010Prop56
140
1.0
102
RTVSPost2010PropOp56
 70
     1
102
RTVSPost2010Prop57
140
1.0
102
RTVSPost2010PropOp57
 70
     1
102
RTVSPropertyOp0
 70
     1
102
RTVSPropertyOp1
 70
     1
102
RTVSPropertyOp2
 70
     1
102
RTVSPropertyOp3
 70
     1
102
RTVSPropertyOp4
 70
     1
102
RTVSPropertyOp5
 70
     1
102
RTVSPropertyOp6
 70
     1
102
RTVSPropertyOp7
 70
     1
102
RTVSPropertyOp8
 70
     1
102
RTVSPropertyOp9
 70
     1
102
RTVSPropertyOp10
 70
     1
102
RTVSPropertyOp11
 70
     1
102
RTVSPropertyOp12
 70
     1
102
RTVSPropertyOp13
 70
     1
102
RTVSPropertyOp14
 70
     1
102
RTVSPropertyOp15
 70
     1
102
RTVSPropertyOp16
 70
     1
102
RTVSPropertyOp17
 70
     1
102
RTVSPropertyOp18
 70
     1
102
RTVSPropertyOp19
 70
     1
102
RTVSPropertyOp20
 70
     1
102
RTVSPropertyOp21
 70
     1
102
RTVSPropertyOp22
 70
     1
102
RTVSPropertyOp23
 70
     1
102
RTVSPropertyOp24
 70
     1
102
RTVSPropertyOp25
 70
     1
102
RTVSPropertyOp26
 70
     1
102
RTVSPropertyOp27
 70
     1
102
RTVSPropertyOp28
 70
     1
102
RTVSPropertyOp29
 70
     1
102
RTVSPropertyOp30
 70
     1
102
RTVSPropertyOp31
 70
     1
102
RTVSPropertyOp32
 70
     1
102
RTVSPropertyOp33
 70
     1
102
RTVSPropertyOp34
 70
     1
102
RTVSPropertyOp35
 70
     1
102
RTVSPropertyOp36
 70
     1
102
RTVSPropertyOp37
 70
     1
102
RTVSPropertyOp38
 70
     1
102
RTVSPropertyOp39
 70
     1
102
RTVSPropertyOp40
 70
     1
102
RTVSPropertyOp41
 70
     1
102
RTVSPropertyOp42
 70
     1
102
RTVSPropertyOp43
 70
     1
102
RTVSPropertyOp44
 70
     1
102
RTVSPropertyOp45
 70
     1
102
RTVSPropertyOp46
 70
     1
102
RTVSPropertyOp47
 70
     1
102
RTVSPropertyOp48
 70
     1
102
RTVSPropertyOp49
 70
     1
102
RTVSPropertyOp50
 70
     1
102
RTVSPropertyOp51
 70
     0
102
RTVSPropertyOp52
 70
     0
102
RTVSPropertyOp53
 70
     1
102
RTVSPropertyOp54
 70
     1
102
RTVSPropertyOp55
 70
     1
102
RTVSPropertyOp56
 70
     1
102
RTVSPropertyOp57
 70
     1
102
RTVSPropertyOp58
 70
     1
102
RTVSPropertyOp59
 70
     1
102
RTVSPropertyOp60
 70
     1
102
RTVSPropertyOp61
 70
     1
102
RTVSPropertyOp62
 70
     1
  0
XRECORD
  5
9D3A
102
{ACAD_REACTORS
330
9D39
102
}
330
9D39
100
AcDbXrecord
280
     1
102
RTVSPost2010Prop28
280
     0
102
RTVSPost2010PropOp28
 70
     1
102
RTVSPost2010Prop29
280
     1
102
RTVSPost2010PropOp29
 70
     1
102
RTVSPost2010Prop30
280
     1
102
RTVSPost2010PropOp30
 70
     1
102
RTVSPost2010Prop31
280
     0
102
RTVSPost2010PropOp31
 70
     1
102
RTVSPost2010Prop32
280
     0
102
RTVSPost2010PropOp32
 70
     1
102
RTVSPost2010Prop33
280
     0
102
RTVSPost2010PropOp33
 70
     1
102
RTVSPost2010Prop34
280
     0
102
RTVSPost2010PropOp34
 70
     1
102
RTVSPost2010Prop35
280
     0
102
RTVSPost2010PropOp35
 70
     1
102
RTVSPost2010Prop36
280
     0
102
RTVSPost2010PropOp36
 70
     1
102
RTVSPost2010Prop37
 90
       50
102
RTVSPost2010PropOp37
 70
     1
102
RTVSPost2010Prop38
140
0.0
102
RTVSPost2010PropOp38
 70
     1
102
RTVSPost2010Prop39
140
1.0
102
RTVSPost2010PropOp39
 70
     1
102
RTVSPost2010Prop40
 90
        0
102
RTVSPost2010PropOp40
 70
     1
102
RTVSPost2010Prop41ColorIndex
 90
       18
102
RTVSPost2010Prop41ColorRGB
 90
        0
102
RTVSPost2010PropOp41
 70
     1
102
RTVSPost2010Prop42
 90
       50
102
RTVSPost2010PropOp42
 70
     1
102
RTVSPost2010Prop43
 90
        3
102
RTVSPost2010PropOp43
 70
     1
102
RTVSPost2010Prop44ColorIndex
 90
        5
102
RTVSPost2010Prop44ColorRGB
 90
      255
102
RTVSPost2010PropOp44
 70
     1
102
RTVSPost2010Prop45
280
     0
102
RTVSPost2010PropOp45
 70
     1
102
RTVSPost2010Prop46
 90
       50
102
RTVSPost2010PropOp46
 70
     1
102
RTVSPost2010Prop47
 90
       50
102
RTVSPost2010PropOp47
 70
     1
102
RTVSPost2010Prop48
 90
       50
102
RTVSPost2010PropOp48
 70
     1
102
RTVSPost2010Prop49
280
     0
102
RTVSPost2010PropOp49
 70
     1
102
RTVSPost2010Prop50
 90
       50
102
RTVSPost2010PropOp50
 70
     1
102
RTVSPost2010Prop51ColorIndex
 90
      256
102
RTVSPost2010Prop51ColorRGB
 90
-16777216
102
RTVSPost2010PropOp51
 70
     0
102
RTVSPost2010Prop52
140
1.0
102
RTVSPost2010PropOp52
 70
     0
102
RTVSPost2010Prop53
 90
        2
102
RTVSPost2010PropOp53
 70
     1
102
RTVSPost2010Prop54
  1
strokes_ogs.tif
102
RTVSPost2010PropOp54
 70
     1
102
RTVSPost2010Prop55
280
     0
102
RTVSPost2010PropOp55
 70
     1
102
RTVSPost2010Prop56
140
1.0
102
RTVSPost2010PropOp56
 70
     1
102
RTVSPost2010Prop57
140
1.0
102
RTVSPost2010PropOp57
 70
     1
102
RTVSPropertyOp0
 70
     1
102
RTVSPropertyOp1
 70
     1
102
RTVSPropertyOp2
 70
     1
102
RTVSPropertyOp3
 70
     1
102
RTVSPropertyOp4
 70
     1
102
RTVSPropertyOp5
 70
     1
102
RTVSPropertyOp6
 70
     1
102
RTVSPropertyOp7
 70
     1
102
RTVSPropertyOp8
 70
     1
102
RTVSPropertyOp9
 70
     1
102
RTVSPropertyOp10
 70
     1
102
RTVSPropertyOp11
 70
     1
102
RTVSPropertyOp12
 70
     1
102
RTVSPropertyOp13
 70
     1
102
RTVSPropertyOp14
 70
     1
102
RTVSPropertyOp15
 70
     1
102
RTVSPropertyOp16
 70
     1
102
RTVSPropertyOp17
 70
     1
102
RTVSPropertyOp18
 70
     1
102
RTVSPropertyOp19
 70
     1
102
RTVSPropertyOp20
 70
     1
102
RTVSPropertyOp21
 70
     1
102
RTVSPropertyOp22
 70
     1
102
RTVSPropertyOp23
 70
     1
102
RTVSPropertyOp24
 70
     1
102
RTVSPropertyOp25
 70
     1
102
RTVSPropertyOp26
 70
     1
102
RTVSPropertyOp27
 70
     1
102
RTVSPropertyOp28
 70
     1
102
RTVSPropertyOp29
 70
     1
102
RTVSPropertyOp30
 70
     1
102
RTVSPropertyOp31
 70
     1
102
RTVSPropertyOp32
 70
     1
102
RTVSPropertyOp33
 70
     1
102
RTVSPropertyOp34
 70
     1
102
RTVSPropertyOp35
 70
     1
102
RTVSPropertyOp36
 70
     1
102
RTVSPropertyOp37
 70
     1
102
RTVSPropertyOp38
 70
     1
102
RTVSPropertyOp39
 70
     1
102
RTVSPropertyOp40
 70
     1
102
RTVSPropertyOp41
 70
     1
102
RTVSPropertyOp42
 70
     1
102
RTVSPropertyOp43
 70
     1
102
RTVSPropertyOp44
 70
     1
102
RTVSPropertyOp45
 70
     1
102
RTVSPropertyOp46
 70
     1
102
RTVSPropertyOp47
 70
     1
102
RTVSPropertyOp48
 70
     1
102
RTVSPropertyOp49
 70
     1
102
RTVSPropertyOp50
 70
     1
102
RTVSPropertyOp51
 70
     0
102
RTVSPropertyOp52
 70
     0
102
RTVSPropertyOp53
 70
     1
102
RTVSPropertyOp54
 70
     1
102
RTVSPropertyOp55
 70
     1
102
RTVSPropertyOp56
 70
     1
102
RTVSPropertyOp57
 70
     1
102
RTVSPropertyOp58
 70
     1
102
RTVSPropertyOp59
 70
     1
102
RTVSPropertyOp60
 70
     1
102
RTVSPropertyOp61
 70
     1
102
RTVSPropertyOp62
 70
     1
  0
XRECORD
  5
9D2C
102
{ACAD_REACTORS
330
9D2B
102
}
330
9D2B
100
AcDbXrecord
280
     1
102
RTVSPost2010Prop28
280
     0
102
RTVSPost2010PropOp28
 70
     1
102
RTVSPost2010Prop29
280
     1
102
RTVSPost2010PropOp29
 70
     1
102
RTVSPost2010Prop30
280
     1
102
RTVSPost2010PropOp30
 70
     1
102
RTVSPost2010Prop31
280
     0
102
RTVSPost2010PropOp31
 70
     1
102
RTVSPost2010Prop32
280
     0
102
RTVSPost2010PropOp32
 70
     1
102
RTVSPost2010Prop33
280
     0
102
RTVSPost2010PropOp33
 70
     1
102
RTVSPost2010Prop34
280
     0
102
RTVSPost2010PropOp34
 70
     1
102
RTVSPost2010Prop35
280
     0
102
RTVSPost2010PropOp35
 70
     1
102
RTVSPost2010Prop36
280
     0
102
RTVSPost2010PropOp36
 70
     1
102
RTVSPost2010Prop37
 90
       50
102
RTVSPost2010PropOp37
 70
     1
102
RTVSPost2010Prop38
140
0.0
102
RTVSPost2010PropOp38
 70
     1
102
RTVSPost2010Prop39
140
1.0
102
RTVSPost2010PropOp39
 70
     1
102
RTVSPost2010Prop40
 90
        0
102
RTVSPost2010PropOp40
 70
     1
102
RTVSPost2010Prop41ColorIndex
 90
       18
102
RTVSPost2010Prop41ColorRGB
 90
        0
102
RTVSPost2010PropOp41
 70
     1
102
RTVSPost2010Prop42
 90
       50
102
RTVSPost2010PropOp42
 70
     1
102
RTVSPost2010Prop43
 90
        3
102
RTVSPost2010PropOp43
 70
     1
102
RTVSPost2010Prop44ColorIndex
 90
        5
102
RTVSPost2010Prop44ColorRGB
 90
      255
102
RTVSPost2010PropOp44
 70
     1
102
RTVSPost2010Prop45
280
     0
102
RTVSPost2010PropOp45
 70
     1
102
RTVSPost2010Prop46
 90
       50
102
RTVSPost2010PropOp46
 70
     1
102
RTVSPost2010Prop47
 90
       50
102
RTVSPost2010PropOp47
 70
     1
102
RTVSPost2010Prop48
 90
       50
102
RTVSPost2010PropOp48
 70
     1
102
RTVSPost2010Prop49
280
     0
102
RTVSPost2010PropOp49
 70
     1
102
RTVSPost2010Prop50
 90
       50
102
RTVSPost2010PropOp50
 70
     1
102
RTVSPost2010Prop51ColorIndex
 90
      256
102
RTVSPost2010Prop51ColorRGB
 90
-16777216
102
RTVSPost2010PropOp51
 70
     0
102
RTVSPost2010Prop52
140
1.0
102
RTVSPost2010PropOp52
 70
     0
102
RTVSPost2010Prop53
 90
        2
102
RTVSPost2010PropOp53
 70
     1
102
RTVSPost2010Prop54
  1
strokes_ogs.tif
102
RTVSPost2010PropOp54
 70
     1
102
RTVSPost2010Prop55
280
     0
102
RTVSPost2010PropOp55
 70
     1
102
RTVSPost2010Prop56
140
1.0
102
RTVSPost2010PropOp56
 70
     1
102
RTVSPost2010Prop57
140
1.0
102
RTVSPost2010PropOp57
 70
     1
102
RTVSPropertyOp0
 70
     1
102
RTVSPropertyOp1
 70
     1
102
RTVSPropertyOp2
 70
     1
102
RTVSPropertyOp3
 70
     1
102
RTVSPropertyOp4
 70
     1
102
RTVSPropertyOp5
 70
     1
102
RTVSPropertyOp6
 70
     1
102
RTVSPropertyOp7
 70
     1
102
RTVSPropertyOp8
 70
     1
102
RTVSPropertyOp9
 70
     1
102
RTVSPropertyOp10
 70
     1
102
RTVSPropertyOp11
 70
     1
102
RTVSPropertyOp12
 70
     1
102
RTVSPropertyOp13
 70
     1
102
RTVSPropertyOp14
 70
     1
102
RTVSPropertyOp15
 70
     1
102
RTVSPropertyOp16
 70
     1
102
RTVSPropertyOp17
 70
     1
102
RTVSPropertyOp18
 70
     1
102
RTVSPropertyOp19
 70
     1
102
RTVSPropertyOp20
 70
     1
102
RTVSPropertyOp21
 70
     1
102
RTVSPropertyOp22
 70
     1
102
RTVSPropertyOp23
 70
     1
102
RTVSPropertyOp24
 70
     1
102
RTVSPropertyOp25
 70
     1
102
RTVSPropertyOp26
 70
     1
102
RTVSPropertyOp27
 70
     1
102
RTVSPropertyOp28
 70
     1
102
RTVSPropertyOp29
 70
     1
102
RTVSPropertyOp30
 70
     1
102
RTVSPropertyOp31
 70
     1
102
RTVSPropertyOp32
 70
     1
102
RTVSPropertyOp33
 70
     1
102
RTVSPropertyOp34
 70
     1
102
RTVSPropertyOp35
 70
     1
102
RTVSPropertyOp36
 70
     1
102
RTVSPropertyOp37
 70
     1
102
RTVSPropertyOp38
 70
     1
102
RTVSPropertyOp39
 70
     1
102
RTVSPropertyOp40
 70
     1
102
RTVSPropertyOp41
 70
     1
102
RTVSPropertyOp42
 70
     1
102
RTVSPropertyOp43
 70
     1
102
RTVSPropertyOp44
 70
     1
102
RTVSPropertyOp45
 70
     1
102
RTVSPropertyOp46
 70
     1
102
RTVSPropertyOp47
 70
     1
102
RTVSPropertyOp48
 70
     1
102
RTVSPropertyOp49
 70
     1
102
RTVSPropertyOp50
 70
     1
102
RTVSPropertyOp51
 70
     0
102
RTVSPropertyOp52
 70
     0
102
RTVSPropertyOp53
 70
     1
102
RTVSPropertyOp54
 70
     1
102
RTVSPropertyOp55
 70
     1
102
RTVSPropertyOp56
 70
     1
102
RTVSPropertyOp57
 70
     1
102
RTVSPropertyOp58
 70
     1
102
RTVSPropertyOp59
 70
     1
102
RTVSPropertyOp60
 70
     1
102
RTVSPropertyOp61
 70
     1
102
RTVSPropertyOp62
 70
     1
  0
XRECORD
  5
9D30
102
{ACAD_REACTORS
330
9D2F
102
}
330
9D2F
100
AcDbXrecord
280
     1
102
RTVSPost2010Prop28
280
     0
102
RTVSPost2010PropOp28
 70
     1
102
RTVSPost2010Prop29
280
     1
102
RTVSPost2010PropOp29
 70
     1
102
RTVSPost2010Prop30
280
     1
102
RTVSPost2010PropOp30
 70
     1
102
RTVSPost2010Prop31
280
     0
102
RTVSPost2010PropOp31
 70
     1
102
RTVSPost2010Prop32
280
     0
102
RTVSPost2010PropOp32
 70
     1
102
RTVSPost2010Prop33
280
     0
102
RTVSPost2010PropOp33
 70
     1
102
RTVSPost2010Prop34
280
     0
102
RTVSPost2010PropOp34
 70
     1
102
RTVSPost2010Prop35
280
     0
102
RTVSPost2010PropOp35
 70
     1
102
RTVSPost2010Prop36
280
     0
102
RTVSPost2010PropOp36
 70
     1
102
RTVSPost2010Prop37
 90
       50
102
RTVSPost2010PropOp37
 70
     1
102
RTVSPost2010Prop38
140
0.0
102
RTVSPost2010PropOp38
 70
     1
102
RTVSPost2010Prop39
140
1.0
102
RTVSPost2010PropOp39
 70
     1
102
RTVSPost2010Prop40
 90
        0
102
RTVSPost2010PropOp40
 70
     1
102
RTVSPost2010Prop41ColorIndex
 90
       18
102
RTVSPost2010Prop41ColorRGB
 90
        0
102
RTVSPost2010PropOp41
 70
     1
102
RTVSPost2010Prop42
 90
       50
102
RTVSPost2010PropOp42
 70
     1
102
RTVSPost2010Prop43
 90
        3
102
RTVSPost2010PropOp43
 70
     1
102
RTVSPost2010Prop44ColorIndex
 90
        5
102
RTVSPost2010Prop44ColorRGB
 90
      255
102
RTVSPost2010PropOp44
 70
     1
102
RTVSPost2010Prop45
280
     0
102
RTVSPost2010PropOp45
 70
     1
102
RTVSPost2010Prop46
 90
       50
102
RTVSPost2010PropOp46
 70
     1
102
RTVSPost2010Prop47
 90
       50
102
RTVSPost2010PropOp47
 70
     1
102
RTVSPost2010Prop48
 90
       50
102
RTVSPost2010PropOp48
 70
     1
102
RTVSPost2010Prop49
280
     0
102
RTVSPost2010PropOp49
 70
     1
102
RTVSPost2010Prop50
 90
       50
102
RTVSPost2010PropOp50
 70
     1
102
RTVSPost2010Prop51ColorIndex
 90
      256
102
RTVSPost2010Prop51ColorRGB
 90
-16777216
102
RTVSPost2010PropOp51
 70
     0
102
RTVSPost2010Prop52
140
1.0
102
RTVSPost2010PropOp52
 70
     0
102
RTVSPost2010Prop53
 90
        2
102
RTVSPost2010PropOp53
 70
     1
102
RTVSPost2010Prop54
  1
strokes_ogs.tif
102
RTVSPost2010PropOp54
 70
     1
102
RTVSPost2010Prop55
280
     0
102
RTVSPost2010PropOp55
 70
     1
102
RTVSPost2010Prop56
140
1.0
102
RTVSPost2010PropOp56
 70
     1
102
RTVSPost2010Prop57
140
1.0
102
RTVSPost2010PropOp57
 70
     1
102
RTVSPropertyOp0
 70
     1
102
RTVSPropertyOp1
 70
     1
102
RTVSPropertyOp2
 70
     1
102
RTVSPropertyOp3
 70
     1
102
RTVSPropertyOp4
 70
     1
102
RTVSPropertyOp5
 70
     1
102
RTVSPropertyOp6
 70
     1
102
RTVSPropertyOp7
 70
     1
102
RTVSPropertyOp8
 70
     1
102
RTVSPropertyOp9
 70
     1
102
RTVSPropertyOp10
 70
     1
102
RTVSPropertyOp11
 70
     1
102
RTVSPropertyOp12
 70
     1
102
RTVSPropertyOp13
 70
     1
102
RTVSPropertyOp14
 70
     1
102
RTVSPropertyOp15
 70
     1
102
RTVSPropertyOp16
 70
     1
102
RTVSPropertyOp17
 70
     1
102
RTVSPropertyOp18
 70
     1
102
RTVSPropertyOp19
 70
     1
102
RTVSPropertyOp20
 70
     1
102
RTVSPropertyOp21
 70
     1
102
RTVSPropertyOp22
 70
     1
102
RTVSPropertyOp23
 70
     1
102
RTVSPropertyOp24
 70
     1
102
RTVSPropertyOp25
 70
     1
102
RTVSPropertyOp26
 70
     1
102
RTVSPropertyOp27
 70
     1
102
RTVSPropertyOp28
 70
     1
102
RTVSPropertyOp29
 70
     1
102
RTVSPropertyOp30
 70
     1
102
RTVSPropertyOp31
 70
     1
102
RTVSPropertyOp32
 70
     1
102
RTVSPropertyOp33
 70
     1
102
RTVSPropertyOp34
 70
     1
102
RTVSPropertyOp35
 70
     1
102
RTVSPropertyOp36
 70
     1
102
RTVSPropertyOp37
 70
     1
102
RTVSPropertyOp38
 70
     1
102
RTVSPropertyOp39
 70
     1
102
RTVSPropertyOp40
 70
     1
102
RTVSPropertyOp41
 70
     1
102
RTVSPropertyOp42
 70
     1
102
RTVSPropertyOp43
 70
     1
102
RTVSPropertyOp44
 70
     1
102
RTVSPropertyOp45
 70
     1
102
RTVSPropertyOp46
 70
     1
102
RTVSPropertyOp47
 70
     1
102
RTVSPropertyOp48
 70
     1
102
RTVSPropertyOp49
 70
     1
102
RTVSPropertyOp50
 70
     1
102
RTVSPropertyOp51
 70
     0
102
RTVSPropertyOp52
 70
     0
102
RTVSPropertyOp53
 70
     1
102
RTVSPropertyOp54
 70
     1
102
RTVSPropertyOp55
 70
     1
102
RTVSPropertyOp56
 70
     1
102
RTVSPropertyOp57
 70
     1
102
RTVSPropertyOp58
 70
     1
102
RTVSPropertyOp59
 70
     1
102
RTVSPropertyOp60
 70
     1
102
RTVSPropertyOp61
 70
     1
102
RTVSPropertyOp62
 70
     1
  0
XRECORD
  5
9D4A
102
{ACAD_REACTORS
330
9D49
102
}
330
9D49
100
AcDbXrecord
280
     1
102
RTVSPost2010Prop28
280
     0
102
RTVSPost2010PropOp28
 70
     1
102
RTVSPost2010Prop29
280
     1
102
RTVSPost2010PropOp29
 70
     1
102
RTVSPost2010Prop30
280
     1
102
RTVSPost2010PropOp30
 70
     1
102
RTVSPost2010Prop31
280
     0
102
RTVSPost2010PropOp31
 70
     1
102
RTVSPost2010Prop32
280
     0
102
RTVSPost2010PropOp32
 70
     1
102
RTVSPost2010Prop33
280
     0
102
RTVSPost2010PropOp33
 70
     1
102
RTVSPost2010Prop34
280
     0
102
RTVSPost2010PropOp34
 70
     1
102
RTVSPost2010Prop35
280
     0
102
RTVSPost2010PropOp35
 70
     1
102
RTVSPost2010Prop36
280
     0
102
RTVSPost2010PropOp36
 70
     1
102
RTVSPost2010Prop37
 90
       50
102
RTVSPost2010PropOp37
 70
     0
102
RTVSPost2010Prop38
140
0.0
102
RTVSPost2010PropOp38
 70
     0
102
RTVSPost2010Prop39
140
1.0
102
RTVSPost2010PropOp39
 70
     0
102
RTVSPost2010Prop40
 90
        0
102
RTVSPost2010PropOp40
 70
     0
102
RTVSPost2010Prop41ColorIndex
 90
       18
102
RTVSPost2010Prop41ColorRGB
 90
        0
102
RTVSPost2010PropOp41
 70
     0
102
RTVSPost2010Prop42
 90
       50
102
RTVSPost2010PropOp42
 70
     0
102
RTVSPost2010Prop43
 90
        3
102
RTVSPost2010PropOp43
 70
     0
102
RTVSPost2010Prop44ColorIndex
 90
        5
102
RTVSPost2010Prop44ColorRGB
 90
      255
102
RTVSPost2010PropOp44
 70
     0
102
RTVSPost2010Prop45
280
     0
102
RTVSPost2010PropOp45
 70
     1
102
RTVSPost2010Prop46
 90
       50
102
RTVSPost2010PropOp46
 70
     0
102
RTVSPost2010Prop47
 90
       50
102
RTVSPost2010PropOp47
 70
     0
102
RTVSPost2010Prop48
 90
       50
102
RTVSPost2010PropOp48
 70
     0
102
RTVSPost2010Prop49
280
     0
102
RTVSPost2010PropOp49
 70
     1
102
RTVSPost2010Prop50
 90
       50
102
RTVSPost2010PropOp50
 70
     0
102
RTVSPost2010Prop51ColorIndex
 90
      256
102
RTVSPost2010Prop51ColorRGB
 90
-16777216
102
RTVSPost2010PropOp51
 70
     0
102
RTVSPost2010Prop52
140
1.0
102
RTVSPost2010PropOp52
 70
     0
102
RTVSPost2010Prop53
 90
        2
102
RTVSPost2010PropOp53
 70
     0
102
RTVSPost2010Prop54
  1
strokes_ogs.tif
102
RTVSPost2010PropOp54
 70
     0
102
RTVSPost2010Prop55
280
     0
102
RTVSPost2010PropOp55
 70
     1
102
RTVSPost2010Prop56
140
1.0
102
RTVSPost2010PropOp56
 70
     0
102
RTVSPost2010Prop57
140
1.0
102
RTVSPost2010PropOp57
 70
     0
102
RTVSPropertyOp0
 70
     0
102
RTVSPropertyOp1
 70
     0
102
RTVSPropertyOp2
 70
     0
102
RTVSPropertyOp3
 70
     0
102
RTVSPropertyOp4
 70
     0
102
RTVSPropertyOp5
 70
     0
102
RTVSPropertyOp6
 70
     0
102
RTVSPropertyOp7
 70
     0
102
RTVSPropertyOp8
 70
     0
102
RTVSPropertyOp9
 70
     0
102
RTVSPropertyOp10
 70
     0
102
RTVSPropertyOp11
 70
     0
102
RTVSPropertyOp12
 70
     0
102
RTVSPropertyOp13
 70
     0
102
RTVSPropertyOp14
 70
     2
102
RTVSPropertyOp15
 70
     0
102
RTVSPropertyOp16
 70
     0
102
RTVSPropertyOp17
 70
     0
102
RTVSPropertyOp18
 70
     0
102
RTVSPropertyOp19
 70
     0
102
RTVSPropertyOp20
 70
     0
102
RTVSPropertyOp21
 70
     0
102
RTVSPropertyOp22
 70
     0
102
RTVSPropertyOp23
 70
     0
102
RTVSPropertyOp24
 70
     0
102
RTVSPropertyOp25
 70
     0
102
RTVSPropertyOp26
 70
     0
102
RTVSPropertyOp27
 70
     0
102
RTVSPropertyOp28
 70
     1
102
RTVSPropertyOp29
 70
     1
102
RTVSPropertyOp30
 70
     1
102
RTVSPropertyOp31
 70
     1
102
RTVSPropertyOp32
 70
     1
102
RTVSPropertyOp33
 70
     1
102
RTVSPropertyOp34
 70
     1
102
RTVSPropertyOp35
 70
     1
102
RTVSPropertyOp36
 70
     1
102
RTVSPropertyOp37
 70
     0
102
RTVSPropertyOp38
 70
     0
102
RTVSPropertyOp39
 70
     0
102
RTVSPropertyOp40
 70
     0
102
RTVSPropertyOp41
 70
     0
102
RTVSPropertyOp42
 70
     0
102
RTVSPropertyOp43
 70
     0
102
RTVSPropertyOp44
 70
     0
102
RTVSPropertyOp45
 70
     1
102
RTVSPropertyOp46
 70
     0
102
RTVSPropertyOp47
 70
     0
102
RTVSPropertyOp48
 70
     0
102
RTVSPropertyOp49
 70
     1
102
RTVSPropertyOp50
 70
     0
102
RTVSPropertyOp51
 70
     0
102
RTVSPropertyOp52
 70
     0
102
RTVSPropertyOp53
 70
     0
102
RTVSPropertyOp54
 70
     0
102
RTVSPropertyOp55
 70
     1
102
RTVSPropertyOp56
 70
     0
102
RTVSPropertyOp57
 70
     0
102
RTVSPropertyOp58
 70
     0
102
RTVSPropertyOp59
 70
     0
102
RTVSPropertyOp60
 70
     0
102
RTVSPropertyOp61
 70
     0
102
RTVSPropertyOp62
 70
     0
  0
XRECORD
  5
9D38
102
{ACAD_REACTORS
330
9D37
102
}
330
9D37
100
AcDbXrecord
280
     1
102
RTVSPost2010Prop28
280
     0
102
RTVSPost2010PropOp28
 70
     1
102
RTVSPost2010Prop29
280
     1
102
RTVSPost2010PropOp29
 70
     1
102
RTVSPost2010Prop30
280
     1
102
RTVSPost2010PropOp30
 70
     1
102
RTVSPost2010Prop31
280
     0
102
RTVSPost2010PropOp31
 70
     1
102
RTVSPost2010Prop32
280
     0
102
RTVSPost2010PropOp32
 70
     1
102
RTVSPost2010Prop33
280
     0
102
RTVSPost2010PropOp33
 70
     1
102
RTVSPost2010Prop34
280
     0
102
RTVSPost2010PropOp34
 70
     1
102
RTVSPost2010Prop35
280
     0
102
RTVSPost2010PropOp35
 70
     1
102
RTVSPost2010Prop36
280
     0
102
RTVSPost2010PropOp36
 70
     1
102
RTVSPost2010Prop37
 90
       50
102
RTVSPost2010PropOp37
 70
     1
102
RTVSPost2010Prop38
140
0.0
102
RTVSPost2010PropOp38
 70
     1
102
RTVSPost2010Prop39
140
1.0
102
RTVSPost2010PropOp39
 70
     1
102
RTVSPost2010Prop40
 90
        0
102
RTVSPost2010PropOp40
 70
     1
102
RTVSPost2010Prop41ColorIndex
 90
       18
102
RTVSPost2010Prop41ColorRGB
 90
        0
102
RTVSPost2010PropOp41
 70
     1
102
RTVSPost2010Prop42
 90
       50
102
RTVSPost2010PropOp42
 70
     1
102
RTVSPost2010Prop43
 90
        3
102
RTVSPost2010PropOp43
 70
     1
102
RTVSPost2010Prop44ColorIndex
 90
        5
102
RTVSPost2010Prop44ColorRGB
 90
      255
102
RTVSPost2010PropOp44
 70
     1
102
RTVSPost2010Prop45
280
     0
102
RTVSPost2010PropOp45
 70
     1
102
RTVSPost2010Prop46
 90
       50
102
RTVSPost2010PropOp46
 70
     1
102
RTVSPost2010Prop47
 90
       50
102
RTVSPost2010PropOp47
 70
     1
102
RTVSPost2010Prop48
 90
       50
102
RTVSPost2010PropOp48
 70
     1
102
RTVSPost2010Prop49
280
     0
102
RTVSPost2010PropOp49
 70
     1
102
RTVSPost2010Prop50
 90
       50
102
RTVSPost2010PropOp50
 70
     1
102
RTVSPost2010Prop51ColorIndex
 90
      256
102
RTVSPost2010Prop51ColorRGB
 90
-16777216
102
RTVSPost2010PropOp51
 70
     0
102
RTVSPost2010Prop52
140
1.0
102
RTVSPost2010PropOp52
 70
     0
102
RTVSPost2010Prop53
 90
        2
102
RTVSPost2010PropOp53
 70
     1
102
RTVSPost2010Prop54
  1
strokes_ogs.tif
102
RTVSPost2010PropOp54
 70
     1
102
RTVSPost2010Prop55
280
     0
102
RTVSPost2010PropOp55
 70
     1
102
RTVSPost2010Prop56
140
1.0
102
RTVSPost2010PropOp56
 70
     1
102
RTVSPost2010Prop57
140
1.0
102
RTVSPost2010PropOp57
 70
     1
102
RTVSPropertyOp0
 70
     1
102
RTVSPropertyOp1
 70
     1
102
RTVSPropertyOp2
 70
     1
102
RTVSPropertyOp3
 70
     1
102
RTVSPropertyOp4
 70
     1
102
RTVSPropertyOp5
 70
     1
102
RTVSPropertyOp6
 70
     1
102
RTVSPropertyOp7
 70
     1
102
RTVSPropertyOp8
 70
     1
102
RTVSPropertyOp9
 70
     1
102
RTVSPropertyOp10
 70
     1
102
RTVSPropertyOp11
 70
     1
102
RTVSPropertyOp12
 70
     1
102
RTVSPropertyOp13
 70
     1
102
RTVSPropertyOp14
 70
     1
102
RTVSPropertyOp15
 70
     1
102
RTVSPropertyOp16
 70
     1
102
RTVSPropertyOp17
 70
     1
102
RTVSPropertyOp18
 70
     1
102
RTVSPropertyOp19
 70
     1
102
RTVSPropertyOp20
 70
     1
102
RTVSPropertyOp21
 70
     1
102
RTVSPropertyOp22
 70
     1
102
RTVSPropertyOp23
 70
     1
102
RTVSPropertyOp24
 70
     1
102
RTVSPropertyOp25
 70
     1
102
RTVSPropertyOp26
 70
     1
102
RTVSPropertyOp27
 70
     1
102
RTVSPropertyOp28
 70
     1
102
RTVSPropertyOp29
 70
     1
102
RTVSPropertyOp30
 70
     1
102
RTVSPropertyOp31
 70
     1
102
RTVSPropertyOp32
 70
     1
102
RTVSPropertyOp33
 70
     1
102
RTVSPropertyOp34
 70
     1
102
RTVSPropertyOp35
 70
     1
102
RTVSPropertyOp36
 70
     1
102
RTVSPropertyOp37
 70
     1
102
RTVSPropertyOp38
 70
     1
102
RTVSPropertyOp39
 70
     1
102
RTVSPropertyOp40
 70
     1
102
RTVSPropertyOp41
 70
     1
102
RTVSPropertyOp42
 70
     1
102
RTVSPropertyOp43
 70
     1
102
RTVSPropertyOp44
 70
     1
102
RTVSPropertyOp45
 70
     1
102
RTVSPropertyOp46
 70
     1
102
RTVSPropertyOp47
 70
     1
102
RTVSPropertyOp48
 70
     1
102
RTVSPropertyOp49
 70
     1
102
RTVSPropertyOp50
 70
     1
102
RTVSPropertyOp51
 70
     0
102
RTVSPropertyOp52
 70
     0
102
RTVSPropertyOp53
 70
     1
102
RTVSPropertyOp54
 70
     1
102
RTVSPropertyOp55
 70
     1
102
RTVSPropertyOp56
 70
     1
102
RTVSPropertyOp57
 70
     1
102
RTVSPropertyOp58
 70
     1
102
RTVSPropertyOp59
 70
     1
102
RTVSPropertyOp60
 70
     1
102
RTVSPropertyOp61
 70
     1
102
RTVSPropertyOp62
 70
     1
  0
XRECORD
  5
9D1C
102
{ACAD_REACTORS
330
9D1B
102
}
330
9D1B
100
AcDbXrecord
280
     1
102
RTVSPost2010Prop28
280
     0
102
RTVSPost2010PropOp28
 70
     1
102
RTVSPost2010Prop29
280
     1
102
RTVSPost2010PropOp29
 70
     1
102
RTVSPost2010Prop30
280
     1
102
RTVSPost2010PropOp30
 70
     1
102
RTVSPost2010Prop31
280
     0
102
RTVSPost2010PropOp31
 70
     1
102
RTVSPost2010Prop32
280
     0
102
RTVSPost2010PropOp32
 70
     1
102
RTVSPost2010Prop33
280
     0
102
RTVSPost2010PropOp33
 70
     1
102
RTVSPost2010Prop34
280
     0
102
RTVSPost2010PropOp34
 70
     1
102
RTVSPost2010Prop35
280
     0
102
RTVSPost2010PropOp35
 70
     1
102
RTVSPost2010Prop36
280
     0
102
RTVSPost2010PropOp36
 70
     1
102
RTVSPost2010Prop37
 90
       50
102
RTVSPost2010PropOp37
 70
     1
102
RTVSPost2010Prop38
140
0.0
102
RTVSPost2010PropOp38
 70
     1
102
RTVSPost2010Prop39
140
1.0
102
RTVSPost2010PropOp39
 70
     1
102
RTVSPost2010Prop40
 90
        0
102
RTVSPost2010PropOp40
 70
     1
102
RTVSPost2010Prop41ColorIndex
 90
       18
102
RTVSPost2010Prop41ColorRGB
 90
        0
102
RTVSPost2010PropOp41
 70
     1
102
RTVSPost2010Prop42
 90
       50
102
RTVSPost2010PropOp42
 70
     1
102
RTVSPost2010Prop43
 90
        3
102
RTVSPost2010PropOp43
 70
     1
102
RTVSPost2010Prop44ColorIndex
 90
        5
102
RTVSPost2010Prop44ColorRGB
 90
      255
102
RTVSPost2010PropOp44
 70
     1
102
RTVSPost2010Prop45
280
     0
102
RTVSPost2010PropOp45
 70
     1
102
RTVSPost2010Prop46
 90
       50
102
RTVSPost2010PropOp46
 70
     1
102
RTVSPost2010Prop47
 90
       50
102
RTVSPost2010PropOp47
 70
     1
102
RTVSPost2010Prop48
 90
       50
102
RTVSPost2010PropOp48
 70
     1
102
RTVSPost2010Prop49
280
     0
102
RTVSPost2010PropOp49
 70
     1
102
RTVSPost2010Prop50
 90
       50
102
RTVSPost2010PropOp50
 70
     1
102
RTVSPost2010Prop51ColorIndex
 90
      256
102
RTVSPost2010Prop51ColorRGB
 90
-16777216
102
RTVSPost2010PropOp51
 70
     0
102
RTVSPost2010Prop52
140
1.0
102
RTVSPost2010PropOp52
 70
     0
102
RTVSPost2010Prop53
 90
        2
102
RTVSPost2010PropOp53
 70
     1
102
RTVSPost2010Prop54
  1
strokes_ogs.tif
102
RTVSPost2010PropOp54
 70
     1
102
RTVSPost2010Prop55
280
     0
102
RTVSPost2010PropOp55
 70
     1
102
RTVSPost2010Prop56
140
1.0
102
RTVSPost2010PropOp56
 70
     1
102
RTVSPost2010Prop57
140
1.0
102
RTVSPost2010PropOp57
 70
     1
102
RTVSPropertyOp0
 70
     1
102
RTVSPropertyOp1
 70
     1
102
RTVSPropertyOp2
 70
     1
102
RTVSPropertyOp3
 70
     1
102
RTVSPropertyOp4
 70
     1
102
RTVSPropertyOp5
 70
     1
102
RTVSPropertyOp6
 70
     1
102
RTVSPropertyOp7
 70
     1
102
RTVSPropertyOp8
 70
     1
102
RTVSPropertyOp9
 70
     1
102
RTVSPropertyOp10
 70
     1
102
RTVSPropertyOp11
 70
     1
102
RTVSPropertyOp12
 70
     1
102
RTVSPropertyOp13
 70
     1
102
RTVSPropertyOp14
 70
     1
102
RTVSPropertyOp15
 70
     1
102
RTVSPropertyOp16
 70
     1
102
RTVSPropertyOp17
 70
     1
102
RTVSPropertyOp18
 70
     1
102
RTVSPropertyOp19
 70
     1
102
RTVSPropertyOp20
 70
     1
102
RTVSPropertyOp21
 70
     1
102
RTVSPropertyOp22
 70
     1
102
RTVSPropertyOp23
 70
     1
102
RTVSPropertyOp24
 70
     1
102
RTVSPropertyOp25
 70
     1
102
RTVSPropertyOp26
 70
     1
102
RTVSPropertyOp27
 70
     1
102
RTVSPropertyOp28
 70
     1
102
RTVSPropertyOp29
 70
     1
102
RTVSPropertyOp30
 70
     1
102
RTVSPropertyOp31
 70
     1
102
RTVSPropertyOp32
 70
     1
102
RTVSPropertyOp33
 70
     1
102
RTVSPropertyOp34
 70
     1
102
RTVSPropertyOp35
 70
     1
102
RTVSPropertyOp36
 70
     1
102
RTVSPropertyOp37
 70
     1
102
RTVSPropertyOp38
 70
     1
102
RTVSPropertyOp39
 70
     1
102
RTVSPropertyOp40
 70
     1
102
RTVSPropertyOp41
 70
     1
102
RTVSPropertyOp42
 70
     1
102
RTVSPropertyOp43
 70
     1
102
RTVSPropertyOp44
 70
     1
102
RTVSPropertyOp45
 70
     1
102
RTVSPropertyOp46
 70
     1
102
RTVSPropertyOp47
 70
     1
102
RTVSPropertyOp48
 70
     1
102
RTVSPropertyOp49
 70
     1
102
RTVSPropertyOp50
 70
     1
102
RTVSPropertyOp51
 70
     0
102
RTVSPropertyOp52
 70
     0
102
RTVSPropertyOp53
 70
     1
102
RTVSPropertyOp54
 70
     1
102
RTVSPropertyOp55
 70
     1
102
RTVSPropertyOp56
 70
     1
102
RTVSPropertyOp57
 70
     1
102
RTVSPropertyOp58
 70
     1
102
RTVSPropertyOp59
 70
     1
102
RTVSPropertyOp60
 70
     1
102
RTVSPropertyOp61
 70
     1
102
RTVSPropertyOp62
 70
     1
  0
XRECORD
  5
9D1E
102
{ACAD_REACTORS
330
9D1D
102
}
330
9D1D
100
AcDbXrecord
280
     1
102
RTVSPost2010Prop28
280
     0
102
RTVSPost2010PropOp28
 70
     1
102
RTVSPost2010Prop29
280
     1
102
RTVSPost2010PropOp29
 70
     1
102
RTVSPost2010Prop30
280
     1
102
RTVSPost2010PropOp30
 70
     1
102
RTVSPost2010Prop31
280
     0
102
RTVSPost2010PropOp31
 70
     1
102
RTVSPost2010Prop32
280
     0
102
RTVSPost2010PropOp32
 70
     1
102
RTVSPost2010Prop33
280
     0
102
RTVSPost2010PropOp33
 70
     1
102
RTVSPost2010Prop34
280
     0
102
RTVSPost2010PropOp34
 70
     1
102
RTVSPost2010Prop35
280
     0
102
RTVSPost2010PropOp35
 70
     1
102
RTVSPost2010Prop36
280
     0
102
RTVSPost2010PropOp36
 70
     1
102
RTVSPost2010Prop37
 90
       50
102
RTVSPost2010PropOp37
 70
     1
102
RTVSPost2010Prop38
140
0.0
102
RTVSPost2010PropOp38
 70
     1
102
RTVSPost2010Prop39
140
1.0
102
RTVSPost2010PropOp39
 70
     1
102
RTVSPost2010Prop40
 90
        0
102
RTVSPost2010PropOp40
 70
     1
102
RTVSPost2010Prop41ColorIndex
 90
       18
102
RTVSPost2010Prop41ColorRGB
 90
        0
102
RTVSPost2010PropOp41
 70
     1
102
RTVSPost2010Prop42
 90
       50
102
RTVSPost2010PropOp42
 70
     1
102
RTVSPost2010Prop43
 90
        3
102
RTVSPost2010PropOp43
 70
     1
102
RTVSPost2010Prop44ColorIndex
 90
        5
102
RTVSPost2010Prop44ColorRGB
 90
      255
102
RTVSPost2010PropOp44
 70
     1
102
RTVSPost2010Prop45
280
     0
102
RTVSPost2010PropOp45
 70
     1
102
RTVSPost2010Prop46
 90
       50
102
RTVSPost2010PropOp46
 70
     1
102
RTVSPost2010Prop47
 90
       50
102
RTVSPost2010PropOp47
 70
     1
102
RTVSPost2010Prop48
 90
       50
102
RTVSPost2010PropOp48
 70
     1
102
RTVSPost2010Prop49
280
     0
102
RTVSPost2010PropOp49
 70
     1
102
RTVSPost2010Prop50
 90
       50
102
RTVSPost2010PropOp50
 70
     1
102
RTVSPost2010Prop51ColorIndex
 90
      256
102
RTVSPost2010Prop51ColorRGB
 90
-16777216
102
RTVSPost2010PropOp51
 70
     0
102
RTVSPost2010Prop52
140
1.0
102
RTVSPost2010PropOp52
 70
     0
102
RTVSPost2010Prop53
 90
        2
102
RTVSPost2010PropOp53
 70
     1
102
RTVSPost2010Prop54
  1
strokes_ogs.tif
102
RTVSPost2010PropOp54
 70
     1
102
RTVSPost2010Prop55
280
     0
102
RTVSPost2010PropOp55
 70
     1
102
RTVSPost2010Prop56
140
1.0
102
RTVSPost2010PropOp56
 70
     1
102
RTVSPost2010Prop57
140
1.0
102
RTVSPost2010PropOp57
 70
     1
102
RTVSPropertyOp0
 70
     1
102
RTVSPropertyOp1
 70
     1
102
RTVSPropertyOp2
 70
     1
102
RTVSPropertyOp3
 70
     1
102
RTVSPropertyOp4
 70
     1
102
RTVSPropertyOp5
 70
     1
102
RTVSPropertyOp6
 70
     1
102
RTVSPropertyOp7
 70
     1
102
RTVSPropertyOp8
 70
     1
102
RTVSPropertyOp9
 70
     1
102
RTVSPropertyOp10
 70
     1
102
RTVSPropertyOp11
 70
     1
102
RTVSPropertyOp12
 70
     1
102
RTVSPropertyOp13
 70
     1
102
RTVSPropertyOp14
 70
     1
102
RTVSPropertyOp15
 70
     1
102
RTVSPropertyOp16
 70
     1
102
RTVSPropertyOp17
 70
     1
102
RTVSPropertyOp18
 70
     1
102
RTVSPropertyOp19
 70
     1
102
RTVSPropertyOp20
 70
     1
102
RTVSPropertyOp21
 70
     1
102
RTVSPropertyOp22
 70
     1
102
RTVSPropertyOp23
 70
     1
102
RTVSPropertyOp24
 70
     1
102
RTVSPropertyOp25
 70
     1
102
RTVSPropertyOp26
 70
     1
102
RTVSPropertyOp27
 70
     1
102
RTVSPropertyOp28
 70
     1
102
RTVSPropertyOp29
 70
     1
102
RTVSPropertyOp30
 70
     1
102
RTVSPropertyOp31
 70
     1
102
RTVSPropertyOp32
 70
     1
102
RTVSPropertyOp33
 70
     1
102
RTVSPropertyOp34
 70
     1
102
RTVSPropertyOp35
 70
     1
102
RTVSPropertyOp36
 70
     1
102
RTVSPropertyOp37
 70
     1
102
RTVSPropertyOp38
 70
     1
102
RTVSPropertyOp39
 70
     1
102
RTVSPropertyOp40
 70
     1
102
RTVSPropertyOp41
 70
     1
102
RTVSPropertyOp42
 70
     1
102
RTVSPropertyOp43
 70
     1
102
RTVSPropertyOp44
 70
     1
102
RTVSPropertyOp45
 70
     1
102
RTVSPropertyOp46
 70
     1
102
RTVSPropertyOp47
 70
     1
102
RTVSPropertyOp48
 70
     1
102
RTVSPropertyOp49
 70
     1
102
RTVSPropertyOp50
 70
     1
102
RTVSPropertyOp51
 70
     0
102
RTVSPropertyOp52
 70
     0
102
RTVSPropertyOp53
 70
     1
102
RTVSPropertyOp54
 70
     1
102
RTVSPropertyOp55
 70
     1
102
RTVSPropertyOp56
 70
     1
102
RTVSPropertyOp57
 70
     1
102
RTVSPropertyOp58
 70
     1
102
RTVSPropertyOp59
 70
     1
102
RTVSPropertyOp60
 70
     1
102
RTVSPropertyOp61
 70
     1
102
RTVSPropertyOp62
 70
     1
  0
XRECORD
  5
9D20
102
{ACAD_REACTORS
330
9D1F
102
}
330
9D1F
100
AcDbXrecord
280
     1
102
RTVSPost2010Prop28
280
     0
102
RTVSPost2010PropOp28
 70
     1
102
RTVSPost2010Prop29
280
     1
102
RTVSPost2010PropOp29
 70
     1
102
RTVSPost2010Prop30
280
     1
102
RTVSPost2010PropOp30
 70
     1
102
RTVSPost2010Prop31
280
     0
102
RTVSPost2010PropOp31
 70
     1
102
RTVSPost2010Prop32
280
     0
102
RTVSPost2010PropOp32
 70
     1
102
RTVSPost2010Prop33
280
     0
102
RTVSPost2010PropOp33
 70
     1
102
RTVSPost2010Prop34
280
     0
102
RTVSPost2010PropOp34
 70
     1
102
RTVSPost2010Prop35
280
     0
102
RTVSPost2010PropOp35
 70
     1
102
RTVSPost2010Prop36
280
     0
102
RTVSPost2010PropOp36
 70
     1
102
RTVSPost2010Prop37
 90
       50
102
RTVSPost2010PropOp37
 70
     1
102
RTVSPost2010Prop38
140
0.0
102
RTVSPost2010PropOp38
 70
     1
102
RTVSPost2010Prop39
140
1.0
102
RTVSPost2010PropOp39
 70
     1
102
RTVSPost2010Prop40
 90
        0
102
RTVSPost2010PropOp40
 70
     1
102
RTVSPost2010Prop41ColorIndex
 90
       18
102
RTVSPost2010Prop41ColorRGB
 90
        0
102
RTVSPost2010PropOp41
 70
     1
102
RTVSPost2010Prop42
 90
       50
102
RTVSPost2010PropOp42
 70
     1
102
RTVSPost2010Prop43
 90
        3
102
RTVSPost2010PropOp43
 70
     1
102
RTVSPost2010Prop44ColorIndex
 90
        5
102
RTVSPost2010Prop44ColorRGB
 90
      255
102
RTVSPost2010PropOp44
 70
     1
102
RTVSPost2010Prop45
280
     0
102
RTVSPost2010PropOp45
 70
     1
102
RTVSPost2010Prop46
 90
       50
102
RTVSPost2010PropOp46
 70
     1
102
RTVSPost2010Prop47
 90
       50
102
RTVSPost2010PropOp47
 70
     1
102
RTVSPost2010Prop48
 90
       50
102
RTVSPost2010PropOp48
 70
     1
102
RTVSPost2010Prop49
280
     0
102
RTVSPost2010PropOp49
 70
     1
102
RTVSPost2010Prop50
 90
       50
102
RTVSPost2010PropOp50
 70
     1
102
RTVSPost2010Prop51ColorIndex
 90
      256
102
RTVSPost2010Prop51ColorRGB
 90
-16777216
102
RTVSPost2010PropOp51
 70
     0
102
RTVSPost2010Prop52
140
1.0
102
RTVSPost2010PropOp52
 70
     0
102
RTVSPost2010Prop53
 90
        2
102
RTVSPost2010PropOp53
 70
     1
102
RTVSPost2010Prop54
  1
strokes_ogs.tif
102
RTVSPost2010PropOp54
 70
     1
102
RTVSPost2010Prop55
280
     0
102
RTVSPost2010PropOp55
 70
     1
102
RTVSPost2010Prop56
140
1.0
102
RTVSPost2010PropOp56
 70
     1
102
RTVSPost2010Prop57
140
1.0
102
RTVSPost2010PropOp57
 70
     1
102
RTVSPropertyOp0
 70
     1
102
RTVSPropertyOp1
 70
     1
102
RTVSPropertyOp2
 70
     1
102
RTVSPropertyOp3
 70
     1
102
RTVSPropertyOp4
 70
     1
102
RTVSPropertyOp5
 70
     1
102
RTVSPropertyOp6
 70
     1
102
RTVSPropertyOp7
 70
     1
102
RTVSPropertyOp8
 70
     1
102
RTVSPropertyOp9
 70
     1
102
RTVSPropertyOp10
 70
     1
102
RTVSPropertyOp11
 70
     1
102
RTVSPropertyOp12
 70
     1
102
RTVSPropertyOp13
 70
     1
102
RTVSPropertyOp14
 70
     1
102
RTVSPropertyOp15
 70
     1
102
RTVSPropertyOp16
 70
     1
102
RTVSPropertyOp17
 70
     1
102
RTVSPropertyOp18
 70
     1
102
RTVSPropertyOp19
 70
     1
102
RTVSPropertyOp20
 70
     1
102
RTVSPropertyOp21
 70
     1
102
RTVSPropertyOp22
 70
     1
102
RTVSPropertyOp23
 70
     1
102
RTVSPropertyOp24
 70
     1
102
RTVSPropertyOp25
 70
     1
102
RTVSPropertyOp26
 70
     1
102
RTVSPropertyOp27
 70
     1
102
RTVSPropertyOp28
 70
     1
102
RTVSPropertyOp29
 70
     1
102
RTVSPropertyOp30
 70
     1
102
RTVSPropertyOp31
 70
     1
102
RTVSPropertyOp32
 70
     1
102
RTVSPropertyOp33
 70
     1
102
RTVSPropertyOp34
 70
     1
102
RTVSPropertyOp35
 70
     1
102
RTVSPropertyOp36
 70
     1
102
RTVSPropertyOp37
 70
     1
102
RTVSPropertyOp38
 70
     1
102
RTVSPropertyOp39
 70
     1
102
RTVSPropertyOp40
 70
     1
102
RTVSPropertyOp41
 70
     1
102
RTVSPropertyOp42
 70
     1
102
RTVSPropertyOp43
 70
     1
102
RTVSPropertyOp44
 70
     1
102
RTVSPropertyOp45
 70
     1
102
RTVSPropertyOp46
 70
     1
102
RTVSPropertyOp47
 70
     1
102
RTVSPropertyOp48
 70
     1
102
RTVSPropertyOp49
 70
     1
102
RTVSPropertyOp50
 70
     1
102
RTVSPropertyOp51
 70
     0
102
RTVSPropertyOp52
 70
     0
102
RTVSPropertyOp53
 70
     1
102
RTVSPropertyOp54
 70
     1
102
RTVSPropertyOp55
 70
     1
102
RTVSPropertyOp56
 70
     1
102
RTVSPropertyOp57
 70
     1
102
RTVSPropertyOp58
 70
     1
102
RTVSPropertyOp59
 70
     1
102
RTVSPropertyOp60
 70
     1
102
RTVSPropertyOp61
 70
     1
102
RTVSPropertyOp62
 70
     1
  0
XRECORD
  5
9D22
102
{ACAD_REACTORS
330
9D21
102
}
330
9D21
100
AcDbXrecord
280
     1
102
RTVSPost2010Prop28
280
     0
102
RTVSPost2010PropOp28
 70
     1
102
RTVSPost2010Prop29
280
     1
102
RTVSPost2010PropOp29
 70
     1
102
RTVSPost2010Prop30
280
     1
102
RTVSPost2010PropOp30
 70
     1
102
RTVSPost2010Prop31
280
     0
102
RTVSPost2010PropOp31
 70
     1
102
RTVSPost2010Prop32
280
     0
102
RTVSPost2010PropOp32
 70
     1
102
RTVSPost2010Prop33
280
     0
102
RTVSPost2010PropOp33
 70
     1
102
RTVSPost2010Prop34
280
     0
102
RTVSPost2010PropOp34
 70
     1
102
RTVSPost2010Prop35
280
     0
102
RTVSPost2010PropOp35
 70
     1
102
RTVSPost2010Prop36
280
     0
102
RTVSPost2010PropOp36
 70
     1
102
RTVSPost2010Prop37
 90
       50
102
RTVSPost2010PropOp37
 70
     1
102
RTVSPost2010Prop38
140
0.0
102
RTVSPost2010PropOp38
 70
     1
102
RTVSPost2010Prop39
140
1.0
102
RTVSPost2010PropOp39
 70
     1
102
RTVSPost2010Prop40
 90
        0
102
RTVSPost2010PropOp40
 70
     1
102
RTVSPost2010Prop41ColorIndex
 90
       18
102
RTVSPost2010Prop41ColorRGB
 90
        0
102
RTVSPost2010PropOp41
 70
     1
102
RTVSPost2010Prop42
 90
       50
102
RTVSPost2010PropOp42
 70
     1
102
RTVSPost2010Prop43
 90
        3
102
RTVSPost2010PropOp43
 70
     1
102
RTVSPost2010Prop44ColorIndex
 90
        5
102
RTVSPost2010Prop44ColorRGB
 90
      255
102
RTVSPost2010PropOp44
 70
     1
102
RTVSPost2010Prop45
280
     0
102
RTVSPost2010PropOp45
 70
     1
102
RTVSPost2010Prop46
 90
       50
102
RTVSPost2010PropOp46
 70
     1
102
RTVSPost2010Prop47
 90
       50
102
RTVSPost2010PropOp47
 70
     1
102
RTVSPost2010Prop48
 90
       50
102
RTVSPost2010PropOp48
 70
     1
102
RTVSPost2010Prop49
280
     0
102
RTVSPost2010PropOp49
 70
     1
102
RTVSPost2010Prop50
 90
       50
102
RTVSPost2010PropOp50
 70
     1
102
RTVSPost2010Prop51ColorIndex
 90
      256
102
RTVSPost2010Prop51ColorRGB
 90
-16777216
102
RTVSPost2010PropOp51
 70
     0
102
RTVSPost2010Prop52
140
1.0
102
RTVSPost2010PropOp52
 70
     0
102
RTVSPost2010Prop53
 90
        2
102
RTVSPost2010PropOp53
 70
     1
102
RTVSPost2010Prop54
  1
strokes_ogs.tif
102
RTVSPost2010PropOp54
 70
     1
102
RTVSPost2010Prop55
280
     0
102
RTVSPost2010PropOp55
 70
     1
102
RTVSPost2010Prop56
140
1.0
102
RTVSPost2010PropOp56
 70
     1
102
RTVSPost2010Prop57
140
1.0
102
RTVSPost2010PropOp57
 70
     1
102
RTVSPropertyOp0
 70
     1
102
RTVSPropertyOp1
 70
     1
102
RTVSPropertyOp2
 70
     1
102
RTVSPropertyOp3
 70
     1
102
RTVSPropertyOp4
 70
     1
102
RTVSPropertyOp5
 70
     1
102
RTVSPropertyOp6
 70
     1
102
RTVSPropertyOp7
 70
     1
102
RTVSPropertyOp8
 70
     1
102
RTVSPropertyOp9
 70
     1
102
RTVSPropertyOp10
 70
     1
102
RTVSPropertyOp11
 70
     1
102
RTVSPropertyOp12
 70
     1
102
RTVSPropertyOp13
 70
     1
102
RTVSPropertyOp14
 70
     1
102
RTVSPropertyOp15
 70
     1
102
RTVSPropertyOp16
 70
     1
102
RTVSPropertyOp17
 70
     1
102
RTVSPropertyOp18
 70
     1
102
RTVSPropertyOp19
 70
     1
102
RTVSPropertyOp20
 70
     1
102
RTVSPropertyOp21
 70
     1
102
RTVSPropertyOp22
 70
     1
102
RTVSPropertyOp23
 70
     1
102
RTVSPropertyOp24
 70
     1
102
RTVSPropertyOp25
 70
     1
102
RTVSPropertyOp26
 70
     1
102
RTVSPropertyOp27
 70
     1
102
RTVSPropertyOp28
 70
     1
102
RTVSPropertyOp29
 70
     1
102
RTVSPropertyOp30
 70
     1
102
RTVSPropertyOp31
 70
     1
102
RTVSPropertyOp32
 70
     1
102
RTVSPropertyOp33
 70
     1
102
RTVSPropertyOp34
 70
     1
102
RTVSPropertyOp35
 70
     1
102
RTVSPropertyOp36
 70
     1
102
RTVSPropertyOp37
 70
     1
102
RTVSPropertyOp38
 70
     1
102
RTVSPropertyOp39
 70
     1
102
RTVSPropertyOp40
 70
     1
102
RTVSPropertyOp41
 70
     1
102
RTVSPropertyOp42
 70
     1
102
RTVSPropertyOp43
 70
     1
102
RTVSPropertyOp44
 70
     1
102
RTVSPropertyOp45
 70
     1
102
RTVSPropertyOp46
 70
     1
102
RTVSPropertyOp47
 70
     1
102
RTVSPropertyOp48
 70
     1
102
RTVSPropertyOp49
 70
     1
102
RTVSPropertyOp50
 70
     1
102
RTVSPropertyOp51
 70
     0
102
RTVSPropertyOp52
 70
     0
102
RTVSPropertyOp53
 70
     1
102
RTVSPropertyOp54
 70
     1
102
RTVSPropertyOp55
 70
     1
102
RTVSPropertyOp56
 70
     1
102
RTVSPropertyOp57
 70
     1
102
RTVSPropertyOp58
 70
     1
102
RTVSPropertyOp59
 70
     1
102
RTVSPropertyOp60
 70
     1
102
RTVSPropertyOp61
 70
     1
102
RTVSPropertyOp62
 70
     1
  0
XRECORD
  5
9D2A
102
{ACAD_REACTORS
330
9D29
102
}
330
9D29
100
AcDbXrecord
280
     1
102
RTVSPost2010Prop28
280
     0
102
RTVSPost2010PropOp28
 70
     1
102
RTVSPost2010Prop29
280
     1
102
RTVSPost2010PropOp29
 70
     1
102
RTVSPost2010Prop30
280
     1
102
RTVSPost2010PropOp30
 70
     1
102
RTVSPost2010Prop31
280
     0
102
RTVSPost2010PropOp31
 70
     1
102
RTVSPost2010Prop32
280
     0
102
RTVSPost2010PropOp32
 70
     1
102
RTVSPost2010Prop33
280
     0
102
RTVSPost2010PropOp33
 70
     1
102
RTVSPost2010Prop34
280
     0
102
RTVSPost2010PropOp34
 70
     1
102
RTVSPost2010Prop35
280
     0
102
RTVSPost2010PropOp35
 70
     1
102
RTVSPost2010Prop36
280
     0
102
RTVSPost2010PropOp36
 70
     1
102
RTVSPost2010Prop37
 90
       50
102
RTVSPost2010PropOp37
 70
     1
102
RTVSPost2010Prop38
140
0.0
102
RTVSPost2010PropOp38
 70
     1
102
RTVSPost2010Prop39
140
1.0
102
RTVSPost2010PropOp39
 70
     1
102
RTVSPost2010Prop40
 90
        0
102
RTVSPost2010PropOp40
 70
     1
102
RTVSPost2010Prop41ColorIndex
 90
       18
102
RTVSPost2010Prop41ColorRGB
 90
        0
102
RTVSPost2010PropOp41
 70
     1
102
RTVSPost2010Prop42
 90
       50
102
RTVSPost2010PropOp42
 70
     1
102
RTVSPost2010Prop43
 90
        3
102
RTVSPost2010PropOp43
 70
     1
102
RTVSPost2010Prop44ColorIndex
 90
        5
102
RTVSPost2010Prop44ColorRGB
 90
      255
102
RTVSPost2010PropOp44
 70
     1
102
RTVSPost2010Prop45
280
     0
102
RTVSPost2010PropOp45
 70
     1
102
RTVSPost2010Prop46
 90
       50
102
RTVSPost2010PropOp46
 70
     1
102
RTVSPost2010Prop47
 90
       50
102
RTVSPost2010PropOp47
 70
     1
102
RTVSPost2010Prop48
 90
       50
102
RTVSPost2010PropOp48
 70
     1
102
RTVSPost2010Prop49
280
     0
102
RTVSPost2010PropOp49
 70
     1
102
RTVSPost2010Prop50
 90
       50
102
RTVSPost2010PropOp50
 70
     1
102
RTVSPost2010Prop51ColorIndex
 90
      256
102
RTVSPost2010Prop51ColorRGB
 90
-16777216
102
RTVSPost2010PropOp51
 70
     0
102
RTVSPost2010Prop52
140
1.0
102
RTVSPost2010PropOp52
 70
     0
102
RTVSPost2010Prop53
 90
        2
102
RTVSPost2010PropOp53
 70
     1
102
RTVSPost2010Prop54
  1
strokes_ogs.tif
102
RTVSPost2010PropOp54
 70
     1
102
RTVSPost2010Prop55
280
     0
102
RTVSPost2010PropOp55
 70
     1
102
RTVSPost2010Prop56
140
1.0
102
RTVSPost2010PropOp56
 70
     1
102
RTVSPost2010Prop57
140
1.0
102
RTVSPost2010PropOp57
 70
     1
102
RTVSPropertyOp0
 70
     1
102
RTVSPropertyOp1
 70
     1
102
RTVSPropertyOp2
 70
     1
102
RTVSPropertyOp3
 70
     1
102
RTVSPropertyOp4
 70
     1
102
RTVSPropertyOp5
 70
     1
102
RTVSPropertyOp6
 70
     1
102
RTVSPropertyOp7
 70
     1
102
RTVSPropertyOp8
 70
     1
102
RTVSPropertyOp9
 70
     1
102
RTVSPropertyOp10
 70
     1
102
RTVSPropertyOp11
 70
     1
102
RTVSPropertyOp12
 70
     1
102
RTVSPropertyOp13
 70
     1
102
RTVSPropertyOp14
 70
     1
102
RTVSPropertyOp15
 70
     1
102
RTVSPropertyOp16
 70
     1
102
RTVSPropertyOp17
 70
     1
102
RTVSPropertyOp18
 70
     1
102
RTVSPropertyOp19
 70
     1
102
RTVSPropertyOp20
 70
     1
102
RTVSPropertyOp21
 70
     1
102
RTVSPropertyOp22
 70
     1
102
RTVSPropertyOp23
 70
     1
102
RTVSPropertyOp24
 70
     1
102
RTVSPropertyOp25
 70
     1
102
RTVSPropertyOp26
 70
     1
102
RTVSPropertyOp27
 70
     1
102
RTVSPropertyOp28
 70
     1
102
RTVSPropertyOp29
 70
     1
102
RTVSPropertyOp30
 70
     1
102
RTVSPropertyOp31
 70
     1
102
RTVSPropertyOp32
 70
     1
102
RTVSPropertyOp33
 70
     1
102
RTVSPropertyOp34
 70
     1
102
RTVSPropertyOp35
 70
     1
102
RTVSPropertyOp36
 70
     1
102
RTVSPropertyOp37
 70
     1
102
RTVSPropertyOp38
 70
     1
102
RTVSPropertyOp39
 70
     1
102
RTVSPropertyOp40
 70
     1
102
RTVSPropertyOp41
 70
     1
102
RTVSPropertyOp42
 70
     1
102
RTVSPropertyOp43
 70
     1
102
RTVSPropertyOp44
 70
     1
102
RTVSPropertyOp45
 70
     1
102
RTVSPropertyOp46
 70
     1
102
RTVSPropertyOp47
 70
     1
102
RTVSPropertyOp48
 70
     1
102
RTVSPropertyOp49
 70
     1
102
RTVSPropertyOp50
 70
     1
102
RTVSPropertyOp51
 70
     0
102
RTVSPropertyOp52
 70
     0
102
RTVSPropertyOp53
 70
     1
102
RTVSPropertyOp54
 70
     1
102
RTVSPropertyOp55
 70
     1
102
RTVSPropertyOp56
 70
     1
102
RTVSPropertyOp57
 70
     1
102
RTVSPropertyOp58
 70
     1
102
RTVSPropertyOp59
 70
     1
102
RTVSPropertyOp60
 70
     1
102
RTVSPropertyOp61
 70
     1
102
RTVSPropertyOp62
 70
     1
  0
XRECORD
  5
9D46
102
{ACAD_REACTORS
330
9D45
102
}
330
9D45
100
AcDbXrecord
280
     1
102
RTVSPost2010Prop28
280
     0
102
RTVSPost2010PropOp28
 70
     1
102
RTVSPost2010Prop29
280
     1
102
RTVSPost2010PropOp29
 70
     1
102
RTVSPost2010Prop30
280
     1
102
RTVSPost2010PropOp30
 70
     1
102
RTVSPost2010Prop31
280
     0
102
RTVSPost2010PropOp31
 70
     1
102
RTVSPost2010Prop32
280
     0
102
RTVSPost2010PropOp32
 70
     1
102
RTVSPost2010Prop33
280
     0
102
RTVSPost2010PropOp33
 70
     1
102
RTVSPost2010Prop34
280
     0
102
RTVSPost2010PropOp34
 70
     1
102
RTVSPost2010Prop35
280
     0
102
RTVSPost2010PropOp35
 70
     1
102
RTVSPost2010Prop36
280
     0
102
RTVSPost2010PropOp36
 70
     1
102
RTVSPost2010Prop37
 90
       50
102
RTVSPost2010PropOp37
 70
     0
102
RTVSPost2010Prop38
140
0.0
102
RTVSPost2010PropOp38
 70
     0
102
RTVSPost2010Prop39
140
1.0
102
RTVSPost2010PropOp39
 70
     0
102
RTVSPost2010Prop40
 90
        0
102
RTVSPost2010PropOp40
 70
     0
102
RTVSPost2010Prop41ColorIndex
 90
       18
102
RTVSPost2010Prop41ColorRGB
 90
        0
102
RTVSPost2010PropOp41
 70
     0
102
RTVSPost2010Prop42
 90
       50
102
RTVSPost2010PropOp42
 70
     0
102
RTVSPost2010Prop43
 90
        3
102
RTVSPost2010PropOp43
 70
     0
102
RTVSPost2010Prop44ColorIndex
 90
        5
102
RTVSPost2010Prop44ColorRGB
 90
      255
102
RTVSPost2010PropOp44
 70
     0
102
RTVSPost2010Prop45
280
     0
102
RTVSPost2010PropOp45
 70
     1
102
RTVSPost2010Prop46
 90
       50
102
RTVSPost2010PropOp46
 70
     0
102
RTVSPost2010Prop47
 90
       50
102
RTVSPost2010PropOp47
 70
     0
102
RTVSPost2010Prop48
 90
       50
102
RTVSPost2010PropOp48
 70
     0
102
RTVSPost2010Prop49
280
     0
102
RTVSPost2010PropOp49
 70
     1
102
RTVSPost2010Prop50
 90
       50
102
RTVSPost2010PropOp50
 70
     0
102
RTVSPost2010Prop51ColorIndex
 90
      256
102
RTVSPost2010Prop51ColorRGB
 90
-16777216
102
RTVSPost2010PropOp51
 70
     0
102
RTVSPost2010Prop52
140
1.0
102
RTVSPost2010PropOp52
 70
     0
102
RTVSPost2010Prop53
 90
        2
102
RTVSPost2010PropOp53
 70
     0
102
RTVSPost2010Prop54
  1
strokes_ogs.tif
102
RTVSPost2010PropOp54
 70
     0
102
RTVSPost2010Prop55
280
     0
102
RTVSPost2010PropOp55
 70
     1
102
RTVSPost2010Prop56
140
1.0
102
RTVSPost2010PropOp56
 70
     0
102
RTVSPost2010Prop57
140
1.0
102
RTVSPost2010PropOp57
 70
     0
102
RTVSPropertyOp0
 70
     0
102
RTVSPropertyOp1
 70
     0
102
RTVSPropertyOp2
 70
     0
102
RTVSPropertyOp3
 70
     0
102
RTVSPropertyOp4
 70
     0
102
RTVSPropertyOp5
 70
     0
102
RTVSPropertyOp6
 70
     0
102
RTVSPropertyOp7
 70
     0
102
RTVSPropertyOp8
 70
     0
102
RTVSPropertyOp9
 70
     0
102
RTVSPropertyOp10
 70
     0
102
RTVSPropertyOp11
 70
     0
102
RTVSPropertyOp12
 70
     0
102
RTVSPropertyOp13
 70
     0
102
RTVSPropertyOp14
 70
     2
102
RTVSPropertyOp15
 70
     0
102
RTVSPropertyOp16
 70
     0
102
RTVSPropertyOp17
 70
     0
102
RTVSPropertyOp18
 70
     0
102
RTVSPropertyOp19
 70
     0
102
RTVSPropertyOp20
 70
     0
102
RTVSPropertyOp21
 70
     0
102
RTVSPropertyOp22
 70
     0
102
RTVSPropertyOp23
 70
     0
102
RTVSPropertyOp24
 70
     0
102
RTVSPropertyOp25
 70
     0
102
RTVSPropertyOp26
 70
     0
102
RTVSPropertyOp27
 70
     0
102
RTVSPropertyOp28
 70
     1
102
RTVSPropertyOp29
 70
     1
102
RTVSPropertyOp30
 70
     1
102
RTVSPropertyOp31
 70
     1
102
RTVSPropertyOp32
 70
     1
102
RTVSPropertyOp33
 70
     1
102
RTVSPropertyOp34
 70
     1
102
RTVSPropertyOp35
 70
     1
102
RTVSPropertyOp36
 70
     1
102
RTVSPropertyOp37
 70
     0
102
RTVSPropertyOp38
 70
     0
102
RTVSPropertyOp39
 70
     0
102
RTVSPropertyOp40
 70
     0
102
RTVSPropertyOp41
 70
     0
102
RTVSPropertyOp42
 70
     0
102
RTVSPropertyOp43
 70
     0
102
RTVSPropertyOp44
 70
     0
102
RTVSPropertyOp45
 70
     1
102
RTVSPropertyOp46
 70
     0
102
RTVSPropertyOp47
 70
     0
102
RTVSPropertyOp48
 70
     0
102
RTVSPropertyOp49
 70
     1
102
RTVSPropertyOp50
 70
     0
102
RTVSPropertyOp51
 70
     0
102
RTVSPropertyOp52
 70
     0
102
RTVSPropertyOp53
 70
     0
102
RTVSPropertyOp54
 70
     0
102
RTVSPropertyOp55
 70
     1
102
RTVSPropertyOp56
 70
     0
102
RTVSPropertyOp57
 70
     0
102
RTVSPropertyOp58
 70
     0
102
RTVSPropertyOp59
 70
     0
102
RTVSPropertyOp60
 70
     0
102
RTVSPropertyOp61
 70
     0
102
RTVSPropertyOp62
 70
     0
  0
XRECORD
  5
9D36
102
{ACAD_REACTORS
330
9D35
102
}
330
9D35
100
AcDbXrecord
280
     1
102
RTVSPost2010Prop28
280
     0
102
RTVSPost2010PropOp28
 70
     1
102
RTVSPost2010Prop29
280
     1
102
RTVSPost2010PropOp29
 70
     1
102
RTVSPost2010Prop30
280
     1
102
RTVSPost2010PropOp30
 70
     1
102
RTVSPost2010Prop31
280
     0
102
RTVSPost2010PropOp31
 70
     1
102
RTVSPost2010Prop32
280
     0
102
RTVSPost2010PropOp32
 70
     1
102
RTVSPost2010Prop33
280
     0
102
RTVSPost2010PropOp33
 70
     1
102
RTVSPost2010Prop34
280
     0
102
RTVSPost2010PropOp34
 70
     1
102
RTVSPost2010Prop35
280
     0
102
RTVSPost2010PropOp35
 70
     1
102
RTVSPost2010Prop36
280
     0
102
RTVSPost2010PropOp36
 70
     1
102
RTVSPost2010Prop37
 90
       50
102
RTVSPost2010PropOp37
 70
     1
102
RTVSPost2010Prop38
140
0.0
102
RTVSPost2010PropOp38
 70
     1
102
RTVSPost2010Prop39
140
1.0
102
RTVSPost2010PropOp39
 70
     1
102
RTVSPost2010Prop40
 90
        0
102
RTVSPost2010PropOp40
 70
     1
102
RTVSPost2010Prop41ColorIndex
 90
       18
102
RTVSPost2010Prop41ColorRGB
 90
        0
102
RTVSPost2010PropOp41
 70
     1
102
RTVSPost2010Prop42
 90
       50
102
RTVSPost2010PropOp42
 70
     1
102
RTVSPost2010Prop43
 90
        3
102
RTVSPost2010PropOp43
 70
     1
102
RTVSPost2010Prop44ColorIndex
 90
        5
102
RTVSPost2010Prop44ColorRGB
 90
      255
102
RTVSPost2010PropOp44
 70
     1
102
RTVSPost2010Prop45
280
     0
102
RTVSPost2010PropOp45
 70
     1
102
RTVSPost2010Prop46
 90
       50
102
RTVSPost2010PropOp46
 70
     1
102
RTVSPost2010Prop47
 90
       50
102
RTVSPost2010PropOp47
 70
     1
102
RTVSPost2010Prop48
 90
       50
102
RTVSPost2010PropOp48
 70
     1
102
RTVSPost2010Prop49
280
     0
102
RTVSPost2010PropOp49
 70
     1
102
RTVSPost2010Prop50
 90
       50
102
RTVSPost2010PropOp50
 70
     1
102
RTVSPost2010Prop51ColorIndex
 90
      256
102
RTVSPost2010Prop51ColorRGB
 90
-16777216
102
RTVSPost2010PropOp51
 70
     0
102
RTVSPost2010Prop52
140
1.0
102
RTVSPost2010PropOp52
 70
     0
102
RTVSPost2010Prop53
 90
        2
102
RTVSPost2010PropOp53
 70
     1
102
RTVSPost2010Prop54
  1
strokes_ogs.tif
102
RTVSPost2010PropOp54
 70
     1
102
RTVSPost2010Prop55
280
     0
102
RTVSPost2010PropOp55
 70
     1
102
RTVSPost2010Prop56
140
1.0
102
RTVSPost2010PropOp56
 70
     1
102
RTVSPost2010Prop57
140
1.0
102
RTVSPost2010PropOp57
 70
     1
102
RTVSPropertyOp0
 70
     1
102
RTVSPropertyOp1
 70
     1
102
RTVSPropertyOp2
 70
     1
102
RTVSPropertyOp3
 70
     1
102
RTVSPropertyOp4
 70
     1
102
RTVSPropertyOp5
 70
     1
102
RTVSPropertyOp6
 70
     1
102
RTVSPropertyOp7
 70
     1
102
RTVSPropertyOp8
 70
     1
102
RTVSPropertyOp9
 70
     1
102
RTVSPropertyOp10
 70
     1
102
RTVSPropertyOp11
 70
     1
102
RTVSPropertyOp12
 70
     1
102
RTVSPropertyOp13
 70
     1
102
RTVSPropertyOp14
 70
     1
102
RTVSPropertyOp15
 70
     1
102
RTVSPropertyOp16
 70
     1
102
RTVSPropertyOp17
 70
     1
102
RTVSPropertyOp18
 70
     1
102
RTVSPropertyOp19
 70
     1
102
RTVSPropertyOp20
 70
     1
102
RTVSPropertyOp21
 70
     1
102
RTVSPropertyOp22
 70
     1
102
RTVSPropertyOp23
 70
     1
102
RTVSPropertyOp24
 70
     1
102
RTVSPropertyOp25
 70
     1
102
RTVSPropertyOp26
 70
     1
102
RTVSPropertyOp27
 70
     1
102
RTVSPropertyOp28
 70
     1
102
RTVSPropertyOp29
 70
     1
102
RTVSPropertyOp30
 70
     1
102
RTVSPropertyOp31
 70
     1
102
RTVSPropertyOp32
 70
     1
102
RTVSPropertyOp33
 70
     1
102
RTVSPropertyOp34
 70
     1
102
RTVSPropertyOp35
 70
     1
102
RTVSPropertyOp36
 70
     1
102
RTVSPropertyOp37
 70
     1
102
RTVSPropertyOp38
 70
     1
102
RTVSPropertyOp39
 70
     1
102
RTVSPropertyOp40
 70
     1
102
RTVSPropertyOp41
 70
     1
102
RTVSPropertyOp42
 70
     1
102
RTVSPropertyOp43
 70
     1
102
RTVSPropertyOp44
 70
     1
102
RTVSPropertyOp45
 70
     1
102
RTVSPropertyOp46
 70
     1
102
RTVSPropertyOp47
 70
     1
102
RTVSPropertyOp48
 70
     1
102
RTVSPropertyOp49
 70
     1
102
RTVSPropertyOp50
 70
     1
102
RTVSPropertyOp51
 70
     0
102
RTVSPropertyOp52
 70
     0
102
RTVSPropertyOp53
 70
     1
102
RTVSPropertyOp54
 70
     1
102
RTVSPropertyOp55
 70
     1
102
RTVSPropertyOp56
 70
     1
102
RTVSPropertyOp57
 70
     1
102
RTVSPropertyOp58
 70
     1
102
RTVSPropertyOp59
 70
     1
102
RTVSPropertyOp60
 70
     1
102
RTVSPropertyOp61
 70
     1
102
RTVSPropertyOp62
 70
     1
  0
XRECORD
  5
9D48
102
{ACAD_REACTORS
330
9D47
102
}
330
9D47
100
AcDbXrecord
280
     1
102
RTVSPost2010Prop28
280
     0
102
RTVSPost2010PropOp28
 70
     1
102
RTVSPost2010Prop29
280
     1
102
RTVSPost2010PropOp29
 70
     1
102
RTVSPost2010Prop30
280
     1
102
RTVSPost2010PropOp30
 70
     1
102
RTVSPost2010Prop31
280
     0
102
RTVSPost2010PropOp31
 70
     1
102
RTVSPost2010Prop32
280
     0
102
RTVSPost2010PropOp32
 70
     1
102
RTVSPost2010Prop33
280
     0
102
RTVSPost2010PropOp33
 70
     1
102
RTVSPost2010Prop34
280
     0
102
RTVSPost2010PropOp34
 70
     1
102
RTVSPost2010Prop35
280
     0
102
RTVSPost2010PropOp35
 70
     1
102
RTVSPost2010Prop36
280
     0
102
RTVSPost2010PropOp36
 70
     1
102
RTVSPost2010Prop37
 90
       50
102
RTVSPost2010PropOp37
 70
     0
102
RTVSPost2010Prop38
140
0.0
102
RTVSPost2010PropOp38
 70
     0
102
RTVSPost2010Prop39
140
1.0
102
RTVSPost2010PropOp39
 70
     0
102
RTVSPost2010Prop40
 90
        0
102
RTVSPost2010PropOp40
 70
     0
102
RTVSPost2010Prop41ColorIndex
 90
       18
102
RTVSPost2010Prop41ColorRGB
 90
        0
102
RTVSPost2010PropOp41
 70
     0
102
RTVSPost2010Prop42
 90
       50
102
RTVSPost2010PropOp42
 70
     0
102
RTVSPost2010Prop43
 90
        3
102
RTVSPost2010PropOp43
 70
     0
102
RTVSPost2010Prop44ColorIndex
 90
        5
102
RTVSPost2010Prop44ColorRGB
 90
      255
102
RTVSPost2010PropOp44
 70
     0
102
RTVSPost2010Prop45
280
     0
102
RTVSPost2010PropOp45
 70
     1
102
RTVSPost2010Prop46
 90
       50
102
RTVSPost2010PropOp46
 70
     0
102
RTVSPost2010Prop47
 90
       50
102
RTVSPost2010PropOp47
 70
     0
102
RTVSPost2010Prop48
 90
       50
102
RTVSPost2010PropOp48
 70
     0
102
RTVSPost2010Prop49
280
     0
102
RTVSPost2010PropOp49
 70
     1
102
RTVSPost2010Prop50
 90
       50
102
RTVSPost2010PropOp50
 70
     0
102
RTVSPost2010Prop51ColorIndex
 90
      256
102
RTVSPost2010Prop51ColorRGB
 90
-16777216
102
RTVSPost2010PropOp51
 70
     0
102
RTVSPost2010Prop52
140
1.0
102
RTVSPost2010PropOp52
 70
     0
102
RTVSPost2010Prop53
 90
        2
102
RTVSPost2010PropOp53
 70
     0
102
RTVSPost2010Prop54
  1
strokes_ogs.tif
102
RTVSPost2010PropOp54
 70
     0
102
RTVSPost2010Prop55
280
     0
102
RTVSPost2010PropOp55
 70
     1
102
RTVSPost2010Prop56
140
1.0
102
RTVSPost2010PropOp56
 70
     0
102
RTVSPost2010Prop57
140
1.0
102
RTVSPost2010PropOp57
 70
     0
102
RTVSPropertyOp0
 70
     0
102
RTVSPropertyOp1
 70
     0
102
RTVSPropertyOp2
 70
     0
102
RTVSPropertyOp3
 70
     0
102
RTVSPropertyOp4
 70
     0
102
RTVSPropertyOp5
 70
     0
102
RTVSPropertyOp6
 70
     0
102
RTVSPropertyOp7
 70
     0
102
RTVSPropertyOp8
 70
     0
102
RTVSPropertyOp9
 70
     0
102
RTVSPropertyOp10
 70
     0
102
RTVSPropertyOp11
 70
     0
102
RTVSPropertyOp12
 70
     0
102
RTVSPropertyOp13
 70
     0
102
RTVSPropertyOp14
 70
     2
102
RTVSPropertyOp15
 70
     0
102
RTVSPropertyOp16
 70
     0
102
RTVSPropertyOp17
 70
     0
102
RTVSPropertyOp18
 70
     0
102
RTVSPropertyOp19
 70
     0
102
RTVSPropertyOp20
 70
     0
102
RTVSPropertyOp21
 70
     0
102
RTVSPropertyOp22
 70
     0
102
RTVSPropertyOp23
 70
     0
102
RTVSPropertyOp24
 70
     0
102
RTVSPropertyOp25
 70
     0
102
RTVSPropertyOp26
 70
     0
102
RTVSPropertyOp27
 70
     0
102
RTVSPropertyOp28
 70
     1
102
RTVSPropertyOp29
 70
     1
102
RTVSPropertyOp30
 70
     1
102
RTVSPropertyOp31
 70
     1
102
RTVSPropertyOp32
 70
     1
102
RTVSPropertyOp33
 70
     1
102
RTVSPropertyOp34
 70
     1
102
RTVSPropertyOp35
 70
     1
102
RTVSPropertyOp36
 70
     1
102
RTVSPropertyOp37
 70
     0
102
RTVSPropertyOp38
 70
     0
102
RTVSPropertyOp39
 70
     0
102
RTVSPropertyOp40
 70
     0
102
RTVSPropertyOp41
 70
     0
102
RTVSPropertyOp42
 70
     0
102
RTVSPropertyOp43
 70
     0
102
RTVSPropertyOp44
 70
     0
102
RTVSPropertyOp45
 70
     1
102
RTVSPropertyOp46
 70
     0
102
RTVSPropertyOp47
 70
     0
102
RTVSPropertyOp48
 70
     0
102
RTVSPropertyOp49
 70
     1
102
RTVSPropertyOp50
 70
     0
102
RTVSPropertyOp51
 70
     0
102
RTVSPropertyOp52
 70
     0
102
RTVSPropertyOp53
 70
     0
102
RTVSPropertyOp54
 70
     0
102
RTVSPropertyOp55
 70
     1
102
RTVSPropertyOp56
 70
     0
102
RTVSPropertyOp57
 70
     0
102
RTVSPropertyOp58
 70
     0
102
RTVSPropertyOp59
 70
     0
102
RTVSPropertyOp60
 70
     0
102
RTVSPropertyOp61
 70
     0
102
RTVSPropertyOp62
 70
     0
  0
XRECORD
  5
9D2E
102
{ACAD_REACTORS
330
9D2D
102
}
330
9D2D
100
AcDbXrecord
280
     1
102
RTVSPost2010Prop28
280
     0
102
RTVSPost2010PropOp28
 70
     1
102
RTVSPost2010Prop29
280
     1
102
RTVSPost2010PropOp29
 70
     1
102
RTVSPost2010Prop30
280
     1
102
RTVSPost2010PropOp30
 70
     1
102
RTVSPost2010Prop31
280
     0
102
RTVSPost2010PropOp31
 70
     1
102
RTVSPost2010Prop32
280
     0
102
RTVSPost2010PropOp32
 70
     1
102
RTVSPost2010Prop33
280
     0
102
RTVSPost2010PropOp33
 70
     1
102
RTVSPost2010Prop34
280
     0
102
RTVSPost2010PropOp34
 70
     1
102
RTVSPost2010Prop35
280
     0
102
RTVSPost2010PropOp35
 70
     1
102
RTVSPost2010Prop36
280
     0
102
RTVSPost2010PropOp36
 70
     1
102
RTVSPost2010Prop37
 90
       50
102
RTVSPost2010PropOp37
 70
     1
102
RTVSPost2010Prop38
140
0.0
102
RTVSPost2010PropOp38
 70
     1
102
RTVSPost2010Prop39
140
1.0
102
RTVSPost2010PropOp39
 70
     1
102
RTVSPost2010Prop40
 90
        0
102
RTVSPost2010PropOp40
 70
     1
102
RTVSPost2010Prop41ColorIndex
 90
       18
102
RTVSPost2010Prop41ColorRGB
 90
        0
102
RTVSPost2010PropOp41
 70
     1
102
RTVSPost2010Prop42
 90
       50
102
RTVSPost2010PropOp42
 70
     1
102
RTVSPost2010Prop43
 90
        3
102
RTVSPost2010PropOp43
 70
     1
102
RTVSPost2010Prop44ColorIndex
 90
        5
102
RTVSPost2010Prop44ColorRGB
 90
      255
102
RTVSPost2010PropOp44
 70
     1
102
RTVSPost2010Prop45
280
     0
102
RTVSPost2010PropOp45
 70
     1
102
RTVSPost2010Prop46
 90
       50
102
RTVSPost2010PropOp46
 70
     1
102
RTVSPost2010Prop47
 90
       50
102
RTVSPost2010PropOp47
 70
     1
102
RTVSPost2010Prop48
 90
       50
102
RTVSPost2010PropOp48
 70
     1
102
RTVSPost2010Prop49
280
     0
102
RTVSPost2010PropOp49
 70
     1
102
RTVSPost2010Prop50
 90
       50
102
RTVSPost2010PropOp50
 70
     1
102
RTVSPost2010Prop51ColorIndex
 90
      256
102
RTVSPost2010Prop51ColorRGB
 90
-16777216
102
RTVSPost2010PropOp51
 70
     0
102
RTVSPost2010Prop52
140
1.0
102
RTVSPost2010PropOp52
 70
     0
102
RTVSPost2010Prop53
 90
        2
102
RTVSPost2010PropOp53
 70
     1
102
RTVSPost2010Prop54
  1
strokes_ogs.tif
102
RTVSPost2010PropOp54
 70
     1
102
RTVSPost2010Prop55
280
     0
102
RTVSPost2010PropOp55
 70
     1
102
RTVSPost2010Prop56
140
1.0
102
RTVSPost2010PropOp56
 70
     1
102
RTVSPost2010Prop57
140
1.0
102
RTVSPost2010PropOp57
 70
     1
102
RTVSPropertyOp0
 70
     1
102
RTVSPropertyOp1
 70
     1
102
RTVSPropertyOp2
 70
     1
102
RTVSPropertyOp3
 70
     1
102
RTVSPropertyOp4
 70
     1
102
RTVSPropertyOp5
 70
     1
102
RTVSPropertyOp6
 70
     1
102
RTVSPropertyOp7
 70
     1
102
RTVSPropertyOp8
 70
     1
102
RTVSPropertyOp9
 70
     1
102
RTVSPropertyOp10
 70
     1
102
RTVSPropertyOp11
 70
     1
102
RTVSPropertyOp12
 70
     1
102
RTVSPropertyOp13
 70
     1
102
RTVSPropertyOp14
 70
     1
102
RTVSPropertyOp15
 70
     1
102
RTVSPropertyOp16
 70
     1
102
RTVSPropertyOp17
 70
     1
102
RTVSPropertyOp18
 70
     1
102
RTVSPropertyOp19
 70
     1
102
RTVSPropertyOp20
 70
     1
102
RTVSPropertyOp21
 70
     1
102
RTVSPropertyOp22
 70
     1
102
RTVSPropertyOp23
 70
     1
102
RTVSPropertyOp24
 70
     1
102
RTVSPropertyOp25
 70
     1
102
RTVSPropertyOp26
 70
     1
102
RTVSPropertyOp27
 70
     1
102
RTVSPropertyOp28
 70
     1
102
RTVSPropertyOp29
 70
     1
102
RTVSPropertyOp30
 70
     1
102
RTVSPropertyOp31
 70
     1
102
RTVSPropertyOp32
 70
     1
102
RTVSPropertyOp33
 70
     1
102
RTVSPropertyOp34
 70
     1
102
RTVSPropertyOp35
 70
     1
102
RTVSPropertyOp36
 70
     1
102
RTVSPropertyOp37
 70
     1
102
RTVSPropertyOp38
 70
     1
102
RTVSPropertyOp39
 70
     1
102
RTVSPropertyOp40
 70
     1
102
RTVSPropertyOp41
 70
     1
102
RTVSPropertyOp42
 70
     1
102
RTVSPropertyOp43
 70
     1
102
RTVSPropertyOp44
 70
     1
102
RTVSPropertyOp45
 70
     1
102
RTVSPropertyOp46
 70
     1
102
RTVSPropertyOp47
 70
     1
102
RTVSPropertyOp48
 70
     1
102
RTVSPropertyOp49
 70
     1
102
RTVSPropertyOp50
 70
     1
102
RTVSPropertyOp51
 70
     0
102
RTVSPropertyOp52
 70
     0
102
RTVSPropertyOp53
 70
     1
102
RTVSPropertyOp54
 70
     1
102
RTVSPropertyOp55
 70
     1
102
RTVSPropertyOp56
 70
     1
102
RTVSPropertyOp57
 70
     1
102
RTVSPropertyOp58
 70
     1
102
RTVSPropertyOp59
 70
     1
102
RTVSPropertyOp60
 70
     1
102
RTVSPropertyOp61
 70
     1
102
RTVSPropertyOp62
 70
     1
  0
XRECORD
  5
9D44
102
{ACAD_REACTORS
330
9D43
102
}
330
9D43
100
AcDbXrecord
280
     1
102
RTVSPost2010Prop28
280
     0
102
RTVSPost2010PropOp28
 70
     1
102
RTVSPost2010Prop29
280
     1
102
RTVSPost2010PropOp29
 70
     1
102
RTVSPost2010Prop30
280
     1
102
RTVSPost2010PropOp30
 70
     1
102
RTVSPost2010Prop31
280
     0
102
RTVSPost2010PropOp31
 70
     1
102
RTVSPost2010Prop32
280
     0
102
RTVSPost2010PropOp32
 70
     1
102
RTVSPost2010Prop33
280
     0
102
RTVSPost2010PropOp33
 70
     1
102
RTVSPost2010Prop34
280
     0
102
RTVSPost2010PropOp34
 70
     1
102
RTVSPost2010Prop35
280
     0
102
RTVSPost2010PropOp35
 70
     1
102
RTVSPost2010Prop36
280
     0
102
RTVSPost2010PropOp36
 70
     1
102
RTVSPost2010Prop37
 90
       50
102
RTVSPost2010PropOp37
 70
     1
102
RTVSPost2010Prop38
140
0.0
102
RTVSPost2010PropOp38
 70
     1
102
RTVSPost2010Prop39
140
1.0
102
RTVSPost2010PropOp39
 70
     1
102
RTVSPost2010Prop40
 90
        0
102
RTVSPost2010PropOp40
 70
     1
102
RTVSPost2010Prop41ColorIndex
 90
       18
102
RTVSPost2010Prop41ColorRGB
 90
        0
102
RTVSPost2010PropOp41
 70
     1
102
RTVSPost2010Prop42
 90
       50
102
RTVSPost2010PropOp42
 70
     1
102
RTVSPost2010Prop43
 90
        3
102
RTVSPost2010PropOp43
 70
     1
102
RTVSPost2010Prop44ColorIndex
 90
        5
102
RTVSPost2010Prop44ColorRGB
 90
      255
102
RTVSPost2010PropOp44
 70
     1
102
RTVSPost2010Prop45
280
     0
102
RTVSPost2010PropOp45
 70
     1
102
RTVSPost2010Prop46
 90
       50
102
RTVSPost2010PropOp46
 70
     1
102
RTVSPost2010Prop47
 90
       50
102
RTVSPost2010PropOp47
 70
     1
102
RTVSPost2010Prop48
 90
       50
102
RTVSPost2010PropOp48
 70
     1
102
RTVSPost2010Prop49
280
     0
102
RTVSPost2010PropOp49
 70
     1
102
RTVSPost2010Prop50
 90
       50
102
RTVSPost2010PropOp50
 70
     1
102
RTVSPost2010Prop51ColorIndex
 90
      256
102
RTVSPost2010Prop51ColorRGB
 90
-16777216
102
RTVSPost2010PropOp51
 70
     0
102
RTVSPost2010Prop52
140
1.0
102
RTVSPost2010PropOp52
 70
     0
102
RTVSPost2010Prop53
 90
        2
102
RTVSPost2010PropOp53
 70
     1
102
RTVSPost2010Prop54
  1
strokes_ogs.tif
102
RTVSPost2010PropOp54
 70
     1
102
RTVSPost2010Prop55
280
     0
102
RTVSPost2010PropOp55
 70
     1
102
RTVSPost2010Prop56
140
1.0
102
RTVSPost2010PropOp56
 70
     1
102
RTVSPost2010Prop57
140
1.0
102
RTVSPost2010PropOp57
 70
     1
102
RTVSPropertyOp0
 70
     1
102
RTVSPropertyOp1
 70
     1
102
RTVSPropertyOp2
 70
     1
102
RTVSPropertyOp3
 70
     1
102
RTVSPropertyOp4
 70
     1
102
RTVSPropertyOp5
 70
     1
102
RTVSPropertyOp6
 70
     1
102
RTVSPropertyOp7
 70
     1
102
RTVSPropertyOp8
 70
     1
102
RTVSPropertyOp9
 70
     1
102
RTVSPropertyOp10
 70
     1
102
RTVSPropertyOp11
 70
     1
102
RTVSPropertyOp12
 70
     1
102
RTVSPropertyOp13
 70
     1
102
RTVSPropertyOp14
 70
     1
102
RTVSPropertyOp15
 70
     1
102
RTVSPropertyOp16
 70
     1
102
RTVSPropertyOp17
 70
     1
102
RTVSPropertyOp18
 70
     1
102
RTVSPropertyOp19
 70
     1
102
RTVSPropertyOp20
 70
     1
102
RTVSPropertyOp21
 70
     1
102
RTVSPropertyOp22
 70
     1
102
RTVSPropertyOp23
 70
     1
102
RTVSPropertyOp24
 70
     1
102
RTVSPropertyOp25
 70
     1
102
RTVSPropertyOp26
 70
     1
102
RTVSPropertyOp27
 70
     1
102
RTVSPropertyOp28
 70
     1
102
RTVSPropertyOp29
 70
     1
102
RTVSPropertyOp30
 70
     1
102
RTVSPropertyOp31
 70
     1
102
RTVSPropertyOp32
 70
     1
102
RTVSPropertyOp33
 70
     1
102
RTVSPropertyOp34
 70
     1
102
RTVSPropertyOp35
 70
     1
102
RTVSPropertyOp36
 70
     1
102
RTVSPropertyOp37
 70
     1
102
RTVSPropertyOp38
 70
     1
102
RTVSPropertyOp39
 70
     1
102
RTVSPropertyOp40
 70
     1
102
RTVSPropertyOp41
 70
     1
102
RTVSPropertyOp42
 70
     1
102
RTVSPropertyOp43
 70
     1
102
RTVSPropertyOp44
 70
     1
102
RTVSPropertyOp45
 70
     1
102
RTVSPropertyOp46
 70
     1
102
RTVSPropertyOp47
 70
     1
102
RTVSPropertyOp48
 70
     1
102
RTVSPropertyOp49
 70
     1
102
RTVSPropertyOp50
 70
     1
102
RTVSPropertyOp51
 70
     0
102
RTVSPropertyOp52
 70
     0
102
RTVSPropertyOp53
 70
     1
102
RTVSPropertyOp54
 70
     1
102
RTVSPropertyOp55
 70
     1
102
RTVSPropertyOp56
 70
     1
102
RTVSPropertyOp57
 70
     1
102
RTVSPropertyOp58
 70
     1
102
RTVSPropertyOp59
 70
     1
102
RTVSPropertyOp60
 70
     1
102
RTVSPropertyOp61
 70
     1
102
RTVSPropertyOp62
 70
     1
  0
XRECORD
  5
9D42
102
{ACAD_REACTORS
330
9D41
102
}
330
9D41
100
AcDbXrecord
280
     1
102
RTVSPost2010Prop28
280
     0
102
RTVSPost2010PropOp28
 70
     1
102
RTVSPost2010Prop29
280
     1
102
RTVSPost2010PropOp29
 70
     1
102
RTVSPost2010Prop30
280
     1
102
RTVSPost2010PropOp30
 70
     1
102
RTVSPost2010Prop31
280
     0
102
RTVSPost2010PropOp31
 70
     1
102
RTVSPost2010Prop32
280
     0
102
RTVSPost2010PropOp32
 70
     1
102
RTVSPost2010Prop33
280
     0
102
RTVSPost2010PropOp33
 70
     1
102
RTVSPost2010Prop34
280
     0
102
RTVSPost2010PropOp34
 70
     1
102
RTVSPost2010Prop35
280
     0
102
RTVSPost2010PropOp35
 70
     1
102
RTVSPost2010Prop36
280
     0
102
RTVSPost2010PropOp36
 70
     1
102
RTVSPost2010Prop37
 90
       50
102
RTVSPost2010PropOp37
 70
     1
102
RTVSPost2010Prop38
140
0.0
102
RTVSPost2010PropOp38
 70
     1
102
RTVSPost2010Prop39
140
1.0
102
RTVSPost2010PropOp39
 70
     1
102
RTVSPost2010Prop40
 90
        0
102
RTVSPost2010PropOp40
 70
     1
102
RTVSPost2010Prop41ColorIndex
 90
       18
102
RTVSPost2010Prop41ColorRGB
 90
        0
102
RTVSPost2010PropOp41
 70
     1
102
RTVSPost2010Prop42
 90
       50
102
RTVSPost2010PropOp42
 70
     1
102
RTVSPost2010Prop43
 90
        3
102
RTVSPost2010PropOp43
 70
     1
102
RTVSPost2010Prop44ColorIndex
 90
        5
102
RTVSPost2010Prop44ColorRGB
 90
      255
102
RTVSPost2010PropOp44
 70
     1
102
RTVSPost2010Prop45
280
     0
102
RTVSPost2010PropOp45
 70
     1
102
RTVSPost2010Prop46
 90
       50
102
RTVSPost2010PropOp46
 70
     1
102
RTVSPost2010Prop47
 90
       50
102
RTVSPost2010PropOp47
 70
     1
102
RTVSPost2010Prop48
 90
       50
102
RTVSPost2010PropOp48
 70
     1
102
RTVSPost2010Prop49
280
     0
102
RTVSPost2010PropOp49
 70
     1
102
RTVSPost2010Prop50
 90
       50
102
RTVSPost2010PropOp50
 70
     1
102
RTVSPost2010Prop51ColorIndex
 90
      256
102
RTVSPost2010Prop51ColorRGB
 90
-16777216
102
RTVSPost2010PropOp51
 70
     0
102
RTVSPost2010Prop52
140
1.0
102
RTVSPost2010PropOp52
 70
     0
102
RTVSPost2010Prop53
 90
        2
102
RTVSPost2010PropOp53
 70
     1
102
RTVSPost2010Prop54
  1
strokes_ogs.tif
102
RTVSPost2010PropOp54
 70
     1
102
RTVSPost2010Prop55
280
     0
102
RTVSPost2010PropOp55
 70
     1
102
RTVSPost2010Prop56
140
1.0
102
RTVSPost2010PropOp56
 70
     1
102
RTVSPost2010Prop57
140
1.0
102
RTVSPost2010PropOp57
 70
     1
102
RTVSPropertyOp0
 70
     1
102
RTVSPropertyOp1
 70
     1
102
RTVSPropertyOp2
 70
     1
102
RTVSPropertyOp3
 70
     1
102
RTVSPropertyOp4
 70
     1
102
RTVSPropertyOp5
 70
     1
102
RTVSPropertyOp6
 70
     1
102
RTVSPropertyOp7
 70
     1
102
RTVSPropertyOp8
 70
     1
102
RTVSPropertyOp9
 70
     1
102
RTVSPropertyOp10
 70
     1
102
RTVSPropertyOp11
 70
     1
102
RTVSPropertyOp12
 70
     1
102
RTVSPropertyOp13
 70
     1
102
RTVSPropertyOp14
 70
     1
102
RTVSPropertyOp15
 70
     1
102
RTVSPropertyOp16
 70
     1
102
RTVSPropertyOp17
 70
     1
102
RTVSPropertyOp18
 70
     1
102
RTVSPropertyOp19
 70
     1
102
RTVSPropertyOp20
 70
     1
102
RTVSPropertyOp21
 70
     1
102
RTVSPropertyOp22
 70
     1
102
RTVSPropertyOp23
 70
     1
102
RTVSPropertyOp24
 70
     1
102
RTVSPropertyOp25
 70
     1
102
RTVSPropertyOp26
 70
     1
102
RTVSPropertyOp27
 70
     1
102
RTVSPropertyOp28
 70
     1
102
RTVSPropertyOp29
 70
     1
102
RTVSPropertyOp30
 70
     1
102
RTVSPropertyOp31
 70
     1
102
RTVSPropertyOp32
 70
     1
102
RTVSPropertyOp33
 70
     1
102
RTVSPropertyOp34
 70
     1
102
RTVSPropertyOp35
 70
     1
102
RTVSPropertyOp36
 70
     1
102
RTVSPropertyOp37
 70
     1
102
RTVSPropertyOp38
 70
     1
102
RTVSPropertyOp39
 70
     1
102
RTVSPropertyOp40
 70
     1
102
RTVSPropertyOp41
 70
     1
102
RTVSPropertyOp42
 70
     1
102
RTVSPropertyOp43
 70
     1
102
RTVSPropertyOp44
 70
     1
102
RTVSPropertyOp45
 70
     1
102
RTVSPropertyOp46
 70
     1
102
RTVSPropertyOp47
 70
     1
102
RTVSPropertyOp48
 70
     1
102
RTVSPropertyOp49
 70
     1
102
RTVSPropertyOp50
 70
     1
102
RTVSPropertyOp51
 70
     0
102
RTVSPropertyOp52
 70
     0
102
RTVSPropertyOp53
 70
     1
102
RTVSPropertyOp54
 70
     1
102
RTVSPropertyOp55
 70
     1
102
RTVSPropertyOp56
 70
     1
102
RTVSPropertyOp57
 70
     1
102
RTVSPropertyOp58
 70
     1
102
RTVSPropertyOp59
 70
     1
102
RTVSPropertyOp60
 70
     1
102
RTVSPropertyOp61
 70
     1
102
RTVSPropertyOp62
 70
     1
  0
XRECORD
  5
9D3C
102
{ACAD_REACTORS
330
9D3B
102
}
330
9D3B
100
AcDbXrecord
280
     1
102
RTVSPost2010Prop28
280
     0
102
RTVSPost2010PropOp28
 70
     1
102
RTVSPost2010Prop29
280
     1
102
RTVSPost2010PropOp29
 70
     1
102
RTVSPost2010Prop30
280
     1
102
RTVSPost2010PropOp30
 70
     1
102
RTVSPost2010Prop31
280
     0
102
RTVSPost2010PropOp31
 70
     1
102
RTVSPost2010Prop32
280
     0
102
RTVSPost2010PropOp32
 70
     1
102
RTVSPost2010Prop33
280
     0
102
RTVSPost2010PropOp33
 70
     1
102
RTVSPost2010Prop34
280
     0
102
RTVSPost2010PropOp34
 70
     1
102
RTVSPost2010Prop35
280
     0
102
RTVSPost2010PropOp35
 70
     1
102
RTVSPost2010Prop36
280
     0
102
RTVSPost2010PropOp36
 70
     1
102
RTVSPost2010Prop37
 90
       50
102
RTVSPost2010PropOp37
 70
     1
102
RTVSPost2010Prop38
140
0.0
102
RTVSPost2010PropOp38
 70
     1
102
RTVSPost2010Prop39
140
1.0
102
RTVSPost2010PropOp39
 70
     1
102
RTVSPost2010Prop40
 90
        0
102
RTVSPost2010PropOp40
 70
     1
102
RTVSPost2010Prop41ColorIndex
 90
       18
102
RTVSPost2010Prop41ColorRGB
 90
        0
102
RTVSPost2010PropOp41
 70
     1
102
RTVSPost2010Prop42
 90
       50
102
RTVSPost2010PropOp42
 70
     1
102
RTVSPost2010Prop43
 90
        3
102
RTVSPost2010PropOp43
 70
     1
102
RTVSPost2010Prop44ColorIndex
 90
        5
102
RTVSPost2010Prop44ColorRGB
 90
      255
102
RTVSPost2010PropOp44
 70
     1
102
RTVSPost2010Prop45
280
     0
102
RTVSPost2010PropOp45
 70
     1
102
RTVSPost2010Prop46
 90
       50
102
RTVSPost2010PropOp46
 70
     1
102
RTVSPost2010Prop47
 90
       50
102
RTVSPost2010PropOp47
 70
     1
102
RTVSPost2010Prop48
 90
       50
102
RTVSPost2010PropOp48
 70
     1
102
RTVSPost2010Prop49
280
     0
102
RTVSPost2010PropOp49
 70
     1
102
RTVSPost2010Prop50
 90
       50
102
RTVSPost2010PropOp50
 70
     1
102
RTVSPost2010Prop51ColorIndex
 90
      256
102
RTVSPost2010Prop51ColorRGB
 90
-16777216
102
RTVSPost2010PropOp51
 70
     0
102
RTVSPost2010Prop52
140
1.0
102
RTVSPost2010PropOp52
 70
     0
102
RTVSPost2010Prop53
 90
        2
102
RTVSPost2010PropOp53
 70
     1
102
RTVSPost2010Prop54
  1
strokes_ogs.tif
102
RTVSPost2010PropOp54
 70
     1
102
RTVSPost2010Prop55
280
     0
102
RTVSPost2010PropOp55
 70
     1
102
RTVSPost2010Prop56
140
1.0
102
RTVSPost2010PropOp56
 70
     1
102
RTVSPost2010Prop57
140
1.0
102
RTVSPost2010PropOp57
 70
     1
102
RTVSPropertyOp0
 70
     1
102
RTVSPropertyOp1
 70
     1
102
RTVSPropertyOp2
 70
     1
102
RTVSPropertyOp3
 70
     1
102
RTVSPropertyOp4
 70
     1
102
RTVSPropertyOp5
 70
     1
102
RTVSPropertyOp6
 70
     1
102
RTVSPropertyOp7
 70
     1
102
RTVSPropertyOp8
 70
     1
102
RTVSPropertyOp9
 70
     1
102
RTVSPropertyOp10
 70
     1
102
RTVSPropertyOp11
 70
     1
102
RTVSPropertyOp12
 70
     1
102
RTVSPropertyOp13
 70
     1
102
RTVSPropertyOp14
 70
     1
102
RTVSPropertyOp15
 70
     1
102
RTVSPropertyOp16
 70
     1
102
RTVSPropertyOp17
 70
     1
102
RTVSPropertyOp18
 70
     1
102
RTVSPropertyOp19
 70
     1
102
RTVSPropertyOp20
 70
     1
102
RTVSPropertyOp21
 70
     1
102
RTVSPropertyOp22
 70
     1
102
RTVSPropertyOp23
 70
     1
102
RTVSPropertyOp24
 70
     1
102
RTVSPropertyOp25
 70
     1
102
RTVSPropertyOp26
 70
     1
102
RTVSPropertyOp27
 70
     1
102
RTVSPropertyOp28
 70
     1
102
RTVSPropertyOp29
 70
     1
102
RTVSPropertyOp30
 70
     1
102
RTVSPropertyOp31
 70
     1
102
RTVSPropertyOp32
 70
     1
102
RTVSPropertyOp33
 70
     1
102
RTVSPropertyOp34
 70
     1
102
RTVSPropertyOp35
 70
     1
102
RTVSPropertyOp36
 70
     1
102
RTVSPropertyOp37
 70
     1
102
RTVSPropertyOp38
 70
     1
102
RTVSPropertyOp39
 70
     1
102
RTVSPropertyOp40
 70
     1
102
RTVSPropertyOp41
 70
     1
102
RTVSPropertyOp42
 70
     1
102
RTVSPropertyOp43
 70
     1
102
RTVSPropertyOp44
 70
     1
102
RTVSPropertyOp45
 70
     1
102
RTVSPropertyOp46
 70
     1
102
RTVSPropertyOp47
 70
     1
102
RTVSPropertyOp48
 70
     1
102
RTVSPropertyOp49
 70
     1
102
RTVSPropertyOp50
 70
     1
102
RTVSPropertyOp51
 70
     0
102
RTVSPropertyOp52
 70
     0
102
RTVSPropertyOp53
 70
     1
102
RTVSPropertyOp54
 70
     1
102
RTVSPropertyOp55
 70
     1
102
RTVSPropertyOp56
 70
     1
102
RTVSPropertyOp57
 70
     1
102
RTVSPropertyOp58
 70
     1
102
RTVSPropertyOp59
 70
     1
102
RTVSPropertyOp60
 70
     1
102
RTVSPropertyOp61
 70
     1
102
RTVSPropertyOp62
 70
     1
  0
XRECORD
  5
9D3E
102
{ACAD_REACTORS
330
9D3D
102
}
330
9D3D
100
AcDbXrecord
280
     1
102
RTVSPost2010Prop28
280
     0
102
RTVSPost2010PropOp28
 70
     1
102
RTVSPost2010Prop29
280
     1
102
RTVSPost2010PropOp29
 70
     1
102
RTVSPost2010Prop30
280
     1
102
RTVSPost2010PropOp30
 70
     1
102
RTVSPost2010Prop31
280
     0
102
RTVSPost2010PropOp31
 70
     1
102
RTVSPost2010Prop32
280
     0
102
RTVSPost2010PropOp32
 70
     1
102
RTVSPost2010Prop33
280
     0
102
RTVSPost2010PropOp33
 70
     1
102
RTVSPost2010Prop34
280
     0
102
RTVSPost2010PropOp34
 70
     1
102
RTVSPost2010Prop35
280
     0
102
RTVSPost2010PropOp35
 70
     1
102
RTVSPost2010Prop36
280
     0
102
RTVSPost2010PropOp36
 70
     1
102
RTVSPost2010Prop37
 90
       50
102
RTVSPost2010PropOp37
 70
     1
102
RTVSPost2010Prop38
140
0.0
102
RTVSPost2010PropOp38
 70
     1
102
RTVSPost2010Prop39
140
1.0
102
RTVSPost2010PropOp39
 70
     1
102
RTVSPost2010Prop40
 90
        0
102
RTVSPost2010PropOp40
 70
     1
102
RTVSPost2010Prop41ColorIndex
 90
       18
102
RTVSPost2010Prop41ColorRGB
 90
        0
102
RTVSPost2010PropOp41
 70
     1
102
RTVSPost2010Prop42
 90
       50
102
RTVSPost2010PropOp42
 70
     1
102
RTVSPost2010Prop43
 90
        3
102
RTVSPost2010PropOp43
 70
     1
102
RTVSPost2010Prop44ColorIndex
 90
        5
102
RTVSPost2010Prop44ColorRGB
 90
      255
102
RTVSPost2010PropOp44
 70
     1
102
RTVSPost2010Prop45
280
     0
102
RTVSPost2010PropOp45
 70
     1
102
RTVSPost2010Prop46
 90
       50
102
RTVSPost2010PropOp46
 70
     1
102
RTVSPost2010Prop47
 90
       50
102
RTVSPost2010PropOp47
 70
     1
102
RTVSPost2010Prop48
 90
       50
102
RTVSPost2010PropOp48
 70
     1
102
RTVSPost2010Prop49
280
     0
102
RTVSPost2010PropOp49
 70
     1
102
RTVSPost2010Prop50
 90
       50
102
RTVSPost2010PropOp50
 70
     1
102
RTVSPost2010Prop51ColorIndex
 90
      256
102
RTVSPost2010Prop51ColorRGB
 90
-16777216
102
RTVSPost2010PropOp51
 70
     0
102
RTVSPost2010Prop52
140
1.0
102
RTVSPost2010PropOp52
 70
     0
102
RTVSPost2010Prop53
 90
        2
102
RTVSPost2010PropOp53
 70
     1
102
RTVSPost2010Prop54
  1
strokes_ogs.tif
102
RTVSPost2010PropOp54
 70
     1
102
RTVSPost2010Prop55
280
     0
102
RTVSPost2010PropOp55
 70
     1
102
RTVSPost2010Prop56
140
1.0
102
RTVSPost2010PropOp56
 70
     1
102
RTVSPost2010Prop57
140
1.0
102
RTVSPost2010PropOp57
 70
     1
102
RTVSPropertyOp0
 70
     1
102
RTVSPropertyOp1
 70
     1
102
RTVSPropertyOp2
 70
     1
102
RTVSPropertyOp3
 70
     1
102
RTVSPropertyOp4
 70
     1
102
RTVSPropertyOp5
 70
     1
102
RTVSPropertyOp6
 70
     1
102
RTVSPropertyOp7
 70
     1
102
RTVSPropertyOp8
 70
     1
102
RTVSPropertyOp9
 70
     1
102
RTVSPropertyOp10
 70
     1
102
RTVSPropertyOp11
 70
     1
102
RTVSPropertyOp12
 70
     1
102
RTVSPropertyOp13
 70
     1
102
RTVSPropertyOp14
 70
     1
102
RTVSPropertyOp15
 70
     1
102
RTVSPropertyOp16
 70
     1
102
RTVSPropertyOp17
 70
     1
102
RTVSPropertyOp18
 70
     1
102
RTVSPropertyOp19
 70
     1
102
RTVSPropertyOp20
 70
     1
102
RTVSPropertyOp21
 70
     1
102
RTVSPropertyOp22
 70
     1
102
RTVSPropertyOp23
 70
     1
102
RTVSPropertyOp24
 70
     1
102
RTVSPropertyOp25
 70
     1
102
RTVSPropertyOp26
 70
     1
102
RTVSPropertyOp27
 70
     1
102
RTVSPropertyOp28
 70
     1
102
RTVSPropertyOp29
 70
     1
102
RTVSPropertyOp30
 70
     1
102
RTVSPropertyOp31
 70
     1
102
RTVSPropertyOp32
 70
     1
102
RTVSPropertyOp33
 70
     1
102
RTVSPropertyOp34
 70
     1
102
RTVSPropertyOp35
 70
     1
102
RTVSPropertyOp36
 70
     1
102
RTVSPropertyOp37
 70
     1
102
RTVSPropertyOp38
 70
     1
102
RTVSPropertyOp39
 70
     1
102
RTVSPropertyOp40
 70
     1
102
RTVSPropertyOp41
 70
     1
102
RTVSPropertyOp42
 70
     1
102
RTVSPropertyOp43
 70
     1
102
RTVSPropertyOp44
 70
     1
102
RTVSPropertyOp45
 70
     1
102
RTVSPropertyOp46
 70
     1
102
RTVSPropertyOp47
 70
     1
102
RTVSPropertyOp48
 70
     1
102
RTVSPropertyOp49
 70
     1
102
RTVSPropertyOp50
 70
     1
102
RTVSPropertyOp51
 70
     0
102
RTVSPropertyOp52
 70
     0
102
RTVSPropertyOp53
 70
     1
102
RTVSPropertyOp54
 70
     1
102
RTVSPropertyOp55
 70
     1
102
RTVSPropertyOp56
 70
     1
102
RTVSPropertyOp57
 70
     1
102
RTVSPropertyOp58
 70
     1
102
RTVSPropertyOp59
 70
     1
102
RTVSPropertyOp60
 70
     1
102
RTVSPropertyOp61
 70
     1
102
RTVSPropertyOp62
 70
     1
  0
XRECORD
  5
9D34
102
{ACAD_REACTORS
330
9D33
102
}
330
9D33
100
AcDbXrecord
280
     1
102
RTVSPost2010Prop28
280
     0
102
RTVSPost2010PropOp28
 70
     1
102
RTVSPost2010Prop29
280
     1
102
RTVSPost2010PropOp29
 70
     1
102
RTVSPost2010Prop30
280
     1
102
RTVSPost2010PropOp30
 70
     1
102
RTVSPost2010Prop31
280
     0
102
RTVSPost2010PropOp31
 70
     1
102
RTVSPost2010Prop32
280
     0
102
RTVSPost2010PropOp32
 70
     1
102
RTVSPost2010Prop33
280
     0
102
RTVSPost2010PropOp33
 70
     1
102
RTVSPost2010Prop34
280
     0
102
RTVSPost2010PropOp34
 70
     1
102
RTVSPost2010Prop35
280
     0
102
RTVSPost2010PropOp35
 70
     1
102
RTVSPost2010Prop36
280
     0
102
RTVSPost2010PropOp36
 70
     1
102
RTVSPost2010Prop37
 90
       50
102
RTVSPost2010PropOp37
 70
     1
102
RTVSPost2010Prop38
140
0.0
102
RTVSPost2010PropOp38
 70
     1
102
RTVSPost2010Prop39
140
1.0
102
RTVSPost2010PropOp39
 70
     1
102
RTVSPost2010Prop40
 90
        0
102
RTVSPost2010PropOp40
 70
     1
102
RTVSPost2010Prop41ColorIndex
 90
       18
102
RTVSPost2010Prop41ColorRGB
 90
        0
102
RTVSPost2010PropOp41
 70
     1
102
RTVSPost2010Prop42
 90
       50
102
RTVSPost2010PropOp42
 70
     1
102
RTVSPost2010Prop43
 90
        3
102
RTVSPost2010PropOp43
 70
     1
102
RTVSPost2010Prop44ColorIndex
 90
        5
102
RTVSPost2010Prop44ColorRGB
 90
      255
102
RTVSPost2010PropOp44
 70
     1
102
RTVSPost2010Prop45
280
     0
102
RTVSPost2010PropOp45
 70
     1
102
RTVSPost2010Prop46
 90
       50
102
RTVSPost2010PropOp46
 70
     1
102
RTVSPost2010Prop47
 90
       50
102
RTVSPost2010PropOp47
 70
     1
102
RTVSPost2010Prop48
 90
       50
102
RTVSPost2010PropOp48
 70
     1
102
RTVSPost2010Prop49
280
     0
102
RTVSPost2010PropOp49
 70
     1
102
RTVSPost2010Prop50
 90
       50
102
RTVSPost2010PropOp50
 70
     1
102
RTVSPost2010Prop51ColorIndex
 90
      256
102
RTVSPost2010Prop51ColorRGB
 90
-16777216
102
RTVSPost2010PropOp51
 70
     0
102
RTVSPost2010Prop52
140
1.0
102
RTVSPost2010PropOp52
 70
     0
102
RTVSPost2010Prop53
 90
        2
102
RTVSPost2010PropOp53
 70
     1
102
RTVSPost2010Prop54
  1
strokes_ogs.tif
102
RTVSPost2010PropOp54
 70
     1
102
RTVSPost2010Prop55
280
     0
102
RTVSPost2010PropOp55
 70
     1
102
RTVSPost2010Prop56
140
1.0
102
RTVSPost2010PropOp56
 70
     1
102
RTVSPost2010Prop57
140
1.0
102
RTVSPost2010PropOp57
 70
     1
102
RTVSPropertyOp0
 70
     1
102
RTVSPropertyOp1
 70
     1
102
RTVSPropertyOp2
 70
     1
102
RTVSPropertyOp3
 70
     1
102
RTVSPropertyOp4
 70
     1
102
RTVSPropertyOp5
 70
     1
102
RTVSPropertyOp6
 70
     1
102
RTVSPropertyOp7
 70
     1
102
RTVSPropertyOp8
 70
     1
102
RTVSPropertyOp9
 70
     1
102
RTVSPropertyOp10
 70
     1
102
RTVSPropertyOp11
 70
     1
102
RTVSPropertyOp12
 70
     1
102
RTVSPropertyOp13
 70
     1
102
RTVSPropertyOp14
 70
     1
102
RTVSPropertyOp15
 70
     1
102
RTVSPropertyOp16
 70
     1
102
RTVSPropertyOp17
 70
     1
102
RTVSPropertyOp18
 70
     1
102
RTVSPropertyOp19
 70
     1
102
RTVSPropertyOp20
 70
     1
102
RTVSPropertyOp21
 70
     1
102
RTVSPropertyOp22
 70
     1
102
RTVSPropertyOp23
 70
     1
102
RTVSPropertyOp24
 70
     1
102
RTVSPropertyOp25
 70
     1
102
RTVSPropertyOp26
 70
     1
102
RTVSPropertyOp27
 70
     1
102
RTVSPropertyOp28
 70
     1
102
RTVSPropertyOp29
 70
     1
102
RTVSPropertyOp30
 70
     1
102
RTVSPropertyOp31
 70
     1
102
RTVSPropertyOp32
 70
     1
102
RTVSPropertyOp33
 70
     1
102
RTVSPropertyOp34
 70
     1
102
RTVSPropertyOp35
 70
     1
102
RTVSPropertyOp36
 70
     1
102
RTVSPropertyOp37
 70
     1
102
RTVSPropertyOp38
 70
     1
102
RTVSPropertyOp39
 70
     1
102
RTVSPropertyOp40
 70
     1
102
RTVSPropertyOp41
 70
     1
102
RTVSPropertyOp42
 70
     1
102
RTVSPropertyOp43
 70
     1
102
RTVSPropertyOp44
 70
     1
102
RTVSPropertyOp45
 70
     1
102
RTVSPropertyOp46
 70
     1
102
RTVSPropertyOp47
 70
     1
102
RTVSPropertyOp48
 70
     1
102
RTVSPropertyOp49
 70
     1
102
RTVSPropertyOp50
 70
     1
102
RTVSPropertyOp51
 70
     0
102
RTVSPropertyOp52
 70
     0
102
RTVSPropertyOp53
 70
     1
102
RTVSPropertyOp54
 70
     1
102
RTVSPropertyOp55
 70
     1
102
RTVSPropertyOp56
 70
     1
102
RTVSPropertyOp57
 70
     1
102
RTVSPropertyOp58
 70
     1
102
RTVSPropertyOp59
 70
     1
102
RTVSPropertyOp60
 70
     1
102
RTVSPropertyOp61
 70
     1
102
RTVSPropertyOp62
 70
     1
  0
XRECORD
  5
9D28
102
{ACAD_REACTORS
330
9D27
102
}
330
9D27
100
AcDbXrecord
280
     1
102
RTVSPost2010Prop28
280
     0
102
RTVSPost2010PropOp28
 70
     1
102
RTVSPost2010Prop29
280
     1
102
RTVSPost2010PropOp29
 70
     1
102
RTVSPost2010Prop30
280
     1
102
RTVSPost2010PropOp30
 70
     1
102
RTVSPost2010Prop31
280
     0
102
RTVSPost2010PropOp31
 70
     1
102
RTVSPost2010Prop32
280
     0
102
RTVSPost2010PropOp32
 70
     1
102
RTVSPost2010Prop33
280
     0
102
RTVSPost2010PropOp33
 70
     1
102
RTVSPost2010Prop34
280
     0
102
RTVSPost2010PropOp34
 70
     1
102
RTVSPost2010Prop35
280
     0
102
RTVSPost2010PropOp35
 70
     1
102
RTVSPost2010Prop36
280
     0
102
RTVSPost2010PropOp36
 70
     1
102
RTVSPost2010Prop37
 90
       50
102
RTVSPost2010PropOp37
 70
     1
102
RTVSPost2010Prop38
140
0.0
102
RTVSPost2010PropOp38
 70
     1
102
RTVSPost2010Prop39
140
1.0
102
RTVSPost2010PropOp39
 70
     1
102
RTVSPost2010Prop40
 90
        0
102
RTVSPost2010PropOp40
 70
     1
102
RTVSPost2010Prop41ColorIndex
 90
       18
102
RTVSPost2010Prop41ColorRGB
 90
        0
102
RTVSPost2010PropOp41
 70
     1
102
RTVSPost2010Prop42
 90
       50
102
RTVSPost2010PropOp42
 70
     1
102
RTVSPost2010Prop43
 90
        3
102
RTVSPost2010PropOp43
 70
     1
102
RTVSPost2010Prop44ColorIndex
 90
        5
102
RTVSPost2010Prop44ColorRGB
 90
      255
102
RTVSPost2010PropOp44
 70
     1
102
RTVSPost2010Prop45
280
     0
102
RTVSPost2010PropOp45
 70
     1
102
RTVSPost2010Prop46
 90
       50
102
RTVSPost2010PropOp46
 70
     1
102
RTVSPost2010Prop47
 90
       50
102
RTVSPost2010PropOp47
 70
     1
102
RTVSPost2010Prop48
 90
       50
102
RTVSPost2010PropOp48
 70
     1
102
RTVSPost2010Prop49
280
     0
102
RTVSPost2010PropOp49
 70
     1
102
RTVSPost2010Prop50
 90
       50
102
RTVSPost2010PropOp50
 70
     1
102
RTVSPost2010Prop51ColorIndex
 90
      256
102
RTVSPost2010Prop51ColorRGB
 90
-16777216
102
RTVSPost2010PropOp51
 70
     0
102
RTVSPost2010Prop52
140
1.0
102
RTVSPost2010PropOp52
 70
     0
102
RTVSPost2010Prop53
 90
        2
102
RTVSPost2010PropOp53
 70
     1
102
RTVSPost2010Prop54
  1
strokes_ogs.tif
102
RTVSPost2010PropOp54
 70
     1
102
RTVSPost2010Prop55
280
     0
102
RTVSPost2010PropOp55
 70
     1
102
RTVSPost2010Prop56
140
1.0
102
RTVSPost2010PropOp56
 70
     1
102
RTVSPost2010Prop57
140
1.0
102
RTVSPost2010PropOp57
 70
     1
102
RTVSPropertyOp0
 70
     1
102
RTVSPropertyOp1
 70
     1
102
RTVSPropertyOp2
 70
     1
102
RTVSPropertyOp3
 70
     1
102
RTVSPropertyOp4
 70
     1
102
RTVSPropertyOp5
 70
     1
102
RTVSPropertyOp6
 70
     1
102
RTVSPropertyOp7
 70
     1
102
RTVSPropertyOp8
 70
     1
102
RTVSPropertyOp9
 70
     1
102
RTVSPropertyOp10
 70
     1
102
RTVSPropertyOp11
 70
     1
102
RTVSPropertyOp12
 70
     1
102
RTVSPropertyOp13
 70
     1
102
RTVSPropertyOp14
 70
     1
102
RTVSPropertyOp15
 70
     1
102
RTVSPropertyOp16
 70
     1
102
RTVSPropertyOp17
 70
     1
102
RTVSPropertyOp18
 70
     1
102
RTVSPropertyOp19
 70
     1
102
RTVSPropertyOp20
 70
     1
102
RTVSPropertyOp21
 70
     1
102
RTVSPropertyOp22
 70
     1
102
RTVSPropertyOp23
 70
     1
102
RTVSPropertyOp24
 70
     1
102
RTVSPropertyOp25
 70
     1
102
RTVSPropertyOp26
 70
     1
102
RTVSPropertyOp27
 70
     1
102
RTVSPropertyOp28
 70
     1
102
RTVSPropertyOp29
 70
     1
102
RTVSPropertyOp30
 70
     1
102
RTVSPropertyOp31
 70
     1
102
RTVSPropertyOp32
 70
     1
102
RTVSPropertyOp33
 70
     1
102
RTVSPropertyOp34
 70
     1
102
RTVSPropertyOp35
 70
     1
102
RTVSPropertyOp36
 70
     1
102
RTVSPropertyOp37
 70
     1
102
RTVSPropertyOp38
 70
     1
102
RTVSPropertyOp39
 70
     1
102
RTVSPropertyOp40
 70
     1
102
RTVSPropertyOp41
 70
     1
102
RTVSPropertyOp42
 70
     1
102
RTVSPropertyOp43
 70
     1
102
RTVSPropertyOp44
 70
     1
102
RTVSPropertyOp45
 70
     1
102
RTVSPropertyOp46
 70
     1
102
RTVSPropertyOp47
 70
     1
102
RTVSPropertyOp48
 70
     1
102
RTVSPropertyOp49
 70
     1
102
RTVSPropertyOp50
 70
     1
102
RTVSPropertyOp51
 70
     0
102
RTVSPropertyOp52
 70
     0
102
RTVSPropertyOp53
 70
     1
102
RTVSPropertyOp54
 70
     1
102
RTVSPropertyOp55
 70
     1
102
RTVSPropertyOp56
 70
     1
102
RTVSPropertyOp57
 70
     1
102
RTVSPropertyOp58
 70
     1
102
RTVSPropertyOp59
 70
     1
102
RTVSPropertyOp60
 70
     1
102
RTVSPropertyOp61
 70
     1
102
RTVSPropertyOp62
 70
     1
  0
XRECORD
  5
9D40
102
{ACAD_REACTORS
330
9D3F
102
}
330
9D3F
100
AcDbXrecord
280
     1
102
RTVSPost2010Prop28
280
     0
102
RTVSPost2010PropOp28
 70
     1
102
RTVSPost2010Prop29
280
     1
102
RTVSPost2010PropOp29
 70
     1
102
RTVSPost2010Prop30
280
     1
102
RTVSPost2010PropOp30
 70
     1
102
RTVSPost2010Prop31
280
     0
102
RTVSPost2010PropOp31
 70
     1
102
RTVSPost2010Prop32
280
     0
102
RTVSPost2010PropOp32
 70
     1
102
RTVSPost2010Prop33
280
     0
102
RTVSPost2010PropOp33
 70
     1
102
RTVSPost2010Prop34
280
     0
102
RTVSPost2010PropOp34
 70
     1
102
RTVSPost2010Prop35
280
     0
102
RTVSPost2010PropOp35
 70
     1
102
RTVSPost2010Prop36
280
     0
102
RTVSPost2010PropOp36
 70
     1
102
RTVSPost2010Prop37
 90
       50
102
RTVSPost2010PropOp37
 70
     1
102
RTVSPost2010Prop38
140
0.0
102
RTVSPost2010PropOp38
 70
     1
102
RTVSPost2010Prop39
140
1.0
102
RTVSPost2010PropOp39
 70
     1
102
RTVSPost2010Prop40
 90
        0
102
RTVSPost2010PropOp40
 70
     1
102
RTVSPost2010Prop41ColorIndex
 90
       18
102
RTVSPost2010Prop41ColorRGB
 90
        0
102
RTVSPost2010PropOp41
 70
     1
102
RTVSPost2010Prop42
 90
       50
102
RTVSPost2010PropOp42
 70
     1
102
RTVSPost2010Prop43
 90
        3
102
RTVSPost2010PropOp43
 70
     1
102
RTVSPost2010Prop44ColorIndex
 90
        5
102
RTVSPost2010Prop44ColorRGB
 90
      255
102
RTVSPost2010PropOp44
 70
     1
102
RTVSPost2010Prop45
280
     0
102
RTVSPost2010PropOp45
 70
     1
102
RTVSPost2010Prop46
 90
       50
102
RTVSPost2010PropOp46
 70
     1
102
RTVSPost2010Prop47
 90
       50
102
RTVSPost2010PropOp47
 70
     1
102
RTVSPost2010Prop48
 90
       50
102
RTVSPost2010PropOp48
 70
     1
102
RTVSPost2010Prop49
280
     0
102
RTVSPost2010PropOp49
 70
     1
102
RTVSPost2010Prop50
 90
       50
102
RTVSPost2010PropOp50
 70
     1
102
RTVSPost2010Prop51ColorIndex
 90
      256
102
RTVSPost2010Prop51ColorRGB
 90
-16777216
102
RTVSPost2010PropOp51
 70
     0
102
RTVSPost2010Prop52
140
1.0
102
RTVSPost2010PropOp52
 70
     0
102
RTVSPost2010Prop53
 90
        2
102
RTVSPost2010PropOp53
 70
     1
102
RTVSPost2010Prop54
  1
strokes_ogs.tif
102
RTVSPost2010PropOp54
 70
     1
102
RTVSPost2010Prop55
280
     0
102
RTVSPost2010PropOp55
 70
     1
102
RTVSPost2010Prop56
140
1.0
102
RTVSPost2010PropOp56
 70
     1
102
RTVSPost2010Prop57
140
1.0
102
RTVSPost2010PropOp57
 70
     1
102
RTVSPropertyOp0
 70
     1
102
RTVSPropertyOp1
 70
     1
102
RTVSPropertyOp2
 70
     1
102
RTVSPropertyOp3
 70
     1
102
RTVSPropertyOp4
 70
     1
102
RTVSPropertyOp5
 70
     1
102
RTVSPropertyOp6
 70
     1
102
RTVSPropertyOp7
 70
     1
102
RTVSPropertyOp8
 70
     1
102
RTVSPropertyOp9
 70
     1
102
RTVSPropertyOp10
 70
     1
102
RTVSPropertyOp11
 70
     1
102
RTVSPropertyOp12
 70
     1
102
RTVSPropertyOp13
 70
     1
102
RTVSPropertyOp14
 70
     1
102
RTVSPropertyOp15
 70
     1
102
RTVSPropertyOp16
 70
     1
102
RTVSPropertyOp17
 70
     1
102
RTVSPropertyOp18
 70
     1
102
RTVSPropertyOp19
 70
     1
102
RTVSPropertyOp20
 70
     1
102
RTVSPropertyOp21
 70
     1
102
RTVSPropertyOp22
 70
     1
102
RTVSPropertyOp23
 70
     1
102
RTVSPropertyOp24
 70
     1
102
RTVSPropertyOp25
 70
     1
102
RTVSPropertyOp26
 70
     1
102
RTVSPropertyOp27
 70
     1
102
RTVSPropertyOp28
 70
     1
102
RTVSPropertyOp29
 70
     1
102
RTVSPropertyOp30
 70
     1
102
RTVSPropertyOp31
 70
     1
102
RTVSPropertyOp32
 70
     1
102
RTVSPropertyOp33
 70
     1
102
RTVSPropertyOp34
 70
     1
102
RTVSPropertyOp35
 70
     1
102
RTVSPropertyOp36
 70
     1
102
RTVSPropertyOp37
 70
     1
102
RTVSPropertyOp38
 70
     1
102
RTVSPropertyOp39
 70
     1
102
RTVSPropertyOp40
 70
     1
102
RTVSPropertyOp41
 70
     1
102
RTVSPropertyOp42
 70
     1
102
RTVSPropertyOp43
 70
     1
102
RTVSPropertyOp44
 70
     1
102
RTVSPropertyOp45
 70
     1
102
RTVSPropertyOp46
 70
     1
102
RTVSPropertyOp47
 70
     1
102
RTVSPropertyOp48
 70
     1
102
RTVSPropertyOp49
 70
     1
102
RTVSPropertyOp50
 70
     1
102
RTVSPropertyOp51
 70
     0
102
RTVSPropertyOp52
 70
     0
102
RTVSPropertyOp53
 70
     1
102
RTVSPropertyOp54
 70
     1
102
RTVSPropertyOp55
 70
     1
102
RTVSPropertyOp56
 70
     1
102
RTVSPropertyOp57
 70
     1
102
RTVSPropertyOp58
 70
     1
102
RTVSPropertyOp59
 70
     1
102
RTVSPropertyOp60
 70
     1
102
RTVSPropertyOp61
 70
     1
102
RTVSPropertyOp62
 70
     1
  0
ENDSEC
  0
EOF
