ISO-10303-21;
HEADER;
/****************************************************************
 * Generated by software with PDE/Lib inside                    *
 * PDElib Version 4.4.1-0003, patched  Thursday August 19 11:58 *
 * International Technegroup Inc. (www.iti-oh.com)              *
 ****************************************************************/
FILE_DESCRIPTION((''),'2;1');
FILE_NAME('','2005-12-14T15:42:20',(''),(''),'','CADfix','');
FILE_SCHEMA(('AUTOMOTIVE_DESIGN'));
ENDSEC;
DATA;
#5=APPLICATION_CONTEXT('automotive design');
#6=APPLICATION_PROTOCOL_DEFINITION('Draft International Standard','automotive_design',1998,#5);
#7=PRODUCT_CONTEXT('None',#5,'mechanical');
#8=PRODUCT('rubber foot','','None',(#7));
#9=PRODUCT_RELATED_PRODUCT_CATEGORY('part','description',(#8));
#10=PRODUCT_DEFINITION_FORMATION('None','None',#8);
#11=PRODUCT_DEFINITION_CONTEXT('part definition',#5,'design');
#12=PRODUCT_DEFINITION('None','None',#10,#11);
#18=(NAMED_UNIT(*)PLANE_ANGLE_UNIT()SI_UNIT($,.RADIAN.));
#19=DIMENSIONAL_EXPONENTS(0.0,0.0,0.0,0.0,0.0,0.0,0.0);
#20=PLANE_ANGLE_MEASURE_WITH_UNIT(PLANE_ANGLE_MEASURE(0.017453292500000),#18);
#24=(CONVERSION_BASED_UNIT('DEGREE',#20)NAMED_UNIT(#19)PLANE_ANGLE_UNIT());
#28=(NAMED_UNIT(*)SI_UNIT($,.STERADIAN.)SOLID_ANGLE_UNIT());
#32=(LENGTH_UNIT()NAMED_UNIT(*)SI_UNIT(.MILLI.,.METRE.));
#34=UNCERTAINTY_MEASURE_WITH_UNIT(LENGTH_MEASURE(0.001000000000000),#32,'DISTANCE_ACCURACY_VALUE','');
#36=(GEOMETRIC_REPRESENTATION_CONTEXT(3)GLOBAL_UNCERTAINTY_ASSIGNED_CONTEXT((#34))GLOBAL_UNIT_ASSIGNED_CONTEXT((#24,#28,#32))REPRESENTATION_CONTEXT('None','None'));
#37=AXIS2_PLACEMENT_3D('',#38,#39,#40);
#38=CARTESIAN_POINT('',(0.0,0.0,0.0));
#39=DIRECTION('',(0.0,0.0,1.0));
#40=DIRECTION('',(1.0,0.0,0.0));
#41=ADVANCED_BREP_SHAPE_REPRESENTATION('',(#37,#474),#36);
#42=PRODUCT_DEFINITION_SHAPE('','',#12);
#43=SHAPE_DEFINITION_REPRESENTATION(#42,#41);
#44=CARTESIAN_POINT('',(-1.127226940972044,9.483240976773011,9.712500000000004));
#45=CARTESIAN_POINT('',(-0.855820658492687,9.515501727534183,9.712500000000002));
#46=CARTESIAN_POINT('',(-0.583013552557884,9.532187324928826,9.712500000000002));
#47=CARTESIAN_POINT('',(8.949173772370941,10.115200877486711,9.712500000000002));
#48=CARTESIAN_POINT('',(9.532187324928826,0.583013552557884,9.712500000000002));
#49=CARTESIAN_POINT('',(10.115200877486711,-8.949173772370941,9.712500000000002));
#50=CARTESIAN_POINT('',(0.583013552557884,-9.532187324928826,9.712500000000002));
#51=CARTESIAN_POINT('',(-1.127226940972044,9.483240976773011,9.187187499999997));
#52=CARTESIAN_POINT('',(-0.855820658492687,9.515501727534183,9.187187499999995));
#53=CARTESIAN_POINT('',(-0.583013552557884,9.532187324928826,9.187187499999997));
#54=CARTESIAN_POINT('',(8.949173772370941,10.115200877486711,9.187187499999997));
#55=CARTESIAN_POINT('',(9.532187324928826,0.583013552557884,9.187187499999997));
#56=CARTESIAN_POINT('',(10.115200877486711,-8.949173772370941,9.187187499999997));
#57=CARTESIAN_POINT('',(0.583013552557884,-9.532187324928826,9.187187499999997));
#65=(BOUNDED_SURFACE()B_SPLINE_SURFACE(2,1,((#44,#51),(#45,#52),(#46,#53),(#47,#54),(#48,#55),(#49,#56),(#50,#57)),.UNSPECIFIED.,.F.,.F.,.U.)B_SPLINE_SURFACE_WITH_KNOTS((3,2,2,3),(2,2),(0.0,0.632918323306090,16.455876405958310,32.278834488610542),(0.0,1.0),.UNSPECIFIED.)GEOMETRIC_REPRESENTATION_ITEM()RATIONAL_B_SPLINE_SURFACE(((0.977505800795127,0.977505800795127),(0.988284271247462,0.988284271247462),(1.0,1.0),(0.707106781186548,0.707106781186548),(1.0,1.0),(0.707106781186548,0.707106781186548),(1.0,1.0)))REPRESENTATION_ITEM('')SURFACE());
#66=CARTESIAN_POINT('',(-1.127220903854635,9.483241694372033,9.699999999999822));
#67=VERTEX_POINT('',#66);
#68=CARTESIAN_POINT('',(9.549999999999999,0.0,9.700000000000001));
#69=VERTEX_POINT('',#68);
#70=CARTESIAN_POINT('',(-1.127220903854635,9.483241694372033,9.699999999999822));
#71=CARTESIAN_POINT('',(-0.565587292205508,9.549999999999999,9.699999999999999));
#72=CARTESIAN_POINT('',(0.0,9.549999999999999,9.700000000000001));
#73=CARTESIAN_POINT('',(9.549999999999999,9.549999999999999,9.700000000000003));
#74=CARTESIAN_POINT('',(9.549999999999999,0.0,9.700000000000001));
#82=(BOUNDED_CURVE()B_SPLINE_CURVE(2,(#70,#71,#72,#73,#74),.UNSPECIFIED.,.F.,.U.)B_SPLINE_CURVE_WITH_KNOTS((3,2,3),(0.229562581104653,0.250000000000000,0.500000000000000),.UNSPECIFIED.)CURVE()GEOMETRIC_REPRESENTATION_ITEM()RATIONAL_B_SPLINE_CURVE((0.956026965066855,0.976056074382012,1.0,0.707106781186548,1.0))REPRESENTATION_ITEM(''));
#83=EDGE_CURVE('',#67,#69,#82,.T.);
#84=ORIENTED_EDGE('',*,*,#83,.T.);
#85=CARTESIAN_POINT('',(0.583010142482614,-9.532187533496741,9.699999999999884));
#86=VERTEX_POINT('',#85);
#87=CARTESIAN_POINT('',(9.549999999999999,0.0,9.700000000000001));
#88=CARTESIAN_POINT('',(9.549999999999999,-8.983746158828597,9.700000000000001));
#89=CARTESIAN_POINT('',(0.583010142482614,-9.532187533496741,9.699999999999884));
#97=(BOUNDED_CURVE()B_SPLINE_CURVE(2,(#87,#88,#89),.UNSPECIFIED.,.F.,.U.)B_SPLINE_CURVE_WITH_KNOTS((3,3),(0.500000000000000,0.739333023969413),.UNSPECIFIED.)CURVE()GEOMETRIC_REPRESENTATION_ITEM()RATIONAL_B_SPLINE_CURVE((1.0,0.719603920964966,0.976072173966902))REPRESENTATION_ITEM(''));
#98=EDGE_CURVE('',#69,#86,#97,.T.);
#99=ORIENTED_EDGE('',*,*,#98,.T.);
#100=CARTESIAN_POINT('',(0.583010183537255,-9.532187530985761,9.199999999999999));
#101=VERTEX_POINT('',#100);
#102=CARTESIAN_POINT('',(0.583010142482614,-9.532187533496741,9.699999999999884));
#103=CARTESIAN_POINT('',(0.583010183537255,-9.532187530985761,9.199999999999999));
#104=QUASI_UNIFORM_CURVE('',1,(#102,#103),.UNSPECIFIED.,.F.,.U.);
#105=EDGE_CURVE('',#86,#101,#104,.T.);
#106=ORIENTED_EDGE('',*,*,#105,.T.);
#107=CARTESIAN_POINT('',(9.549999999999999,0.0,9.199999999999999));
#108=VERTEX_POINT('',#107);
#109=CARTESIAN_POINT('',(9.549999999999999,0.0,9.199999999999999));
#110=CARTESIAN_POINT('',(9.550000000000001,-8.983746120063763,9.199999999999999));
#111=CARTESIAN_POINT('',(0.583010183537255,-9.532187530985761,9.199999999999999));
#119=(BOUNDED_CURVE()B_SPLINE_CURVE(2,(#109,#110,#111),.UNSPECIFIED.,.F.,.U.)B_SPLINE_CURVE_WITH_KNOTS((3,3),(0.500000000000000,0.739333023226263),.UNSPECIFIED.)CURVE()GEOMETRIC_REPRESENTATION_ITEM()RATIONAL_B_SPLINE_CURVE((1.0,0.719603921835620,0.976072172374189))REPRESENTATION_ITEM(''));
#120=EDGE_CURVE('',#108,#101,#119,.T.);
#121=ORIENTED_EDGE('',*,*,#120,.F.);
#122=CARTESIAN_POINT('',(-1.127220976569327,9.483241685728883,9.199999999999999));
#123=VERTEX_POINT('',#122);
#124=CARTESIAN_POINT('',(-1.127220976569327,9.483241685728883,9.199999999999999));
#125=CARTESIAN_POINT('',(-0.565587328947212,9.549999999999999,9.200000000000001));
#126=CARTESIAN_POINT('',(0.0,9.549999999999999,9.199999999999999));
#127=CARTESIAN_POINT('',(9.549999999999999,9.549999999999999,9.199999999999999));
#128=CARTESIAN_POINT('',(9.549999999999999,0.0,9.199999999999999));
#136=(BOUNDED_CURVE()B_SPLINE_CURVE(2,(#124,#125,#126,#127,#128),.UNSPECIFIED.,.F.,.U.)B_SPLINE_CURVE_WITH_KNOTS((3,2,3),(0.229562579808786,0.250000000000000,0.500000000000000),.UNSPECIFIED.)CURVE()GEOMETRIC_REPRESENTATION_ITEM()RATIONAL_B_SPLINE_CURVE((0.956026962526900,0.976056072863809,1.0,0.707106781186548,1.0))REPRESENTATION_ITEM(''));
#137=EDGE_CURVE('',#123,#108,#136,.T.);
#138=ORIENTED_EDGE('',*,*,#137,.F.);
#139=CARTESIAN_POINT('',(-1.127220903854635,9.483241694372033,9.699999999999822));
#140=CARTESIAN_POINT('',(-1.127220976569327,9.483241685728883,9.199999999999999));
#141=QUASI_UNIFORM_CURVE('',1,(#139,#140),.UNSPECIFIED.,.F.,.U.);
#142=EDGE_CURVE('',#67,#123,#141,.T.);
#143=ORIENTED_EDGE('',*,*,#142,.F.);
#144=EDGE_LOOP('',(#84,#99,#106,#121,#138,#143));
#145=FACE_OUTER_BOUND('',#144,.T.);
#146=ADVANCED_FACE('',(#145),#65,.T.);
#147=CARTESIAN_POINT('',(0.583013552557884,-9.532187324928826,9.712500000000002));
#148=CARTESIAN_POINT('',(-8.949173772370941,-10.115200877486711,9.712500000000002));
#149=CARTESIAN_POINT('',(-9.532187324928826,-0.583013552557884,9.712500000000002));
#150=CARTESIAN_POINT('',(-10.082758178795636,8.418740337517232,9.712500000000004));
#151=CARTESIAN_POINT('',(-1.127226940972044,9.483240976773011,9.712500000000004));
#152=CARTESIAN_POINT('',(0.583013552557884,-9.532187324928826,9.187187499999997));
#153=CARTESIAN_POINT('',(-8.949173772370941,-10.115200877486711,9.187187499999997));
#154=CARTESIAN_POINT('',(-9.532187324928826,-0.583013552557884,9.187187499999997));
#155=CARTESIAN_POINT('',(-10.082758178795636,8.418740337517232,9.187187499999997));
#156=CARTESIAN_POINT('',(-1.127226940972044,9.483240976773011,9.187187499999997));
#164=(BOUNDED_SURFACE()B_SPLINE_SURFACE(2,1,((#147,#152),(#148,#153),(#149,#154),(#150,#155),(#151,#156)),.UNSPECIFIED.,.F.,.F.,.U.)B_SPLINE_SURFACE_WITH_KNOTS((3,2,3),(2,2),(0.0,15.822958082652219,31.012997841998359),(0.0,1.0),.UNSPECIFIED.)GEOMETRIC_REPRESENTATION_ITEM()RATIONAL_B_SPLINE_SURFACE(((1.0,1.0),(0.707106781186548,0.707106781186548),(1.0,1.0),(0.718822509939086,0.718822509939086),(0.977505800795127,0.977505800795127)))REPRESENTATION_ITEM('')SURFACE());
#165=CARTESIAN_POINT('',(-9.549999999999999,0.0,9.700000000000001));
#166=VERTEX_POINT('',#165);
#167=CARTESIAN_POINT('',(-9.549999999999999,0.0,9.700000000000001));
#168=CARTESIAN_POINT('',(-9.549999999999999,8.482072160610075,9.700000000000001));
#169=CARTESIAN_POINT('',(-1.127220903854635,9.483241694372033,9.699999999999822));
#177=(BOUNDED_CURVE()B_SPLINE_CURVE(2,(#167,#168,#169),.UNSPECIFIED.,.F.,.U.)B_SPLINE_CURVE_WITH_KNOTS((3,3),(0.0,0.229562581104653),.UNSPECIFIED.)CURVE()GEOMETRIC_REPRESENTATION_ITEM()RATIONAL_B_SPLINE_CURVE((1.0,0.731050706804535,0.956026965066855))REPRESENTATION_ITEM(''));
#178=EDGE_CURVE('',#166,#67,#177,.T.);
#179=ORIENTED_EDGE('',*,*,#178,.T.);
#180=ORIENTED_EDGE('',*,*,#142,.T.);
#181=CARTESIAN_POINT('',(-9.549999999999999,0.0,9.199999999999999));
#182=VERTEX_POINT('',#181);
#183=CARTESIAN_POINT('',(-9.549999999999999,0.0,9.199999999999999));
#184=CARTESIAN_POINT('',(-9.550000000000001,8.482072095114217,9.199999999999999));
#185=CARTESIAN_POINT('',(-1.127220976569327,9.483241685728883,9.199999999999999));
#193=(BOUNDED_CURVE()B_SPLINE_CURVE(2,(#183,#184,#185),.UNSPECIFIED.,.F.,.U.)B_SPLINE_CURVE_WITH_KNOTS((3,3),(0.0,0.229562579808786),.UNSPECIFIED.)CURVE()GEOMETRIC_REPRESENTATION_ITEM()RATIONAL_B_SPLINE_CURVE((1.0,0.731050708322738,0.956026962526900))REPRESENTATION_ITEM(''));
#194=EDGE_CURVE('',#182,#123,#193,.T.);
#195=ORIENTED_EDGE('',*,*,#194,.F.);
#196=CARTESIAN_POINT('',(0.583010183537255,-9.532187530985761,9.199999999999999));
#197=CARTESIAN_POINT('',(0.291777200268051,-9.549999999999999,9.199999999999999));
#198=CARTESIAN_POINT('',(0.0,-9.549999999999999,9.199999999999999));
#199=CARTESIAN_POINT('',(-9.549999999999999,-9.549999999999999,9.199999999999999));
#200=CARTESIAN_POINT('',(-9.549999999999999,0.0,9.199999999999999));
#208=(BOUNDED_CURVE()B_SPLINE_CURVE(2,(#196,#197,#198,#199,#200),.UNSPECIFIED.,.F.,.U.)B_SPLINE_CURVE_WITH_KNOTS((3,2,3),(0.739333023226263,0.750000000000000,1.0),.UNSPECIFIED.)CURVE()GEOMETRIC_REPRESENTATION_ITEM()RATIONAL_B_SPLINE_CURVE((0.976072172374189,0.987502859350927,1.0,0.707106781186548,1.0))REPRESENTATION_ITEM(''));
#209=EDGE_CURVE('',#101,#182,#208,.T.);
#210=ORIENTED_EDGE('',*,*,#209,.F.);
#211=ORIENTED_EDGE('',*,*,#105,.F.);
#212=CARTESIAN_POINT('',(0.583010142482614,-9.532187533496741,9.699999999999884));
#213=CARTESIAN_POINT('',(0.291777179683175,-9.549999999999999,9.700000000000001));
#214=CARTESIAN_POINT('',(0.0,-9.549999999999999,9.700000000000001));
#215=CARTESIAN_POINT('',(-9.549999999999999,-9.549999999999999,9.700000000000003));
#216=CARTESIAN_POINT('',(-9.549999999999999,0.0,9.700000000000001));
#224=(BOUNDED_CURVE()B_SPLINE_CURVE(2,(#212,#213,#214,#215,#216),.UNSPECIFIED.,.F.,.U.)B_SPLINE_CURVE_WITH_KNOTS((3,2,3),(0.739333023969413,0.750000000000000,1.0),.UNSPECIFIED.)CURVE()GEOMETRIC_REPRESENTATION_ITEM()RATIONAL_B_SPLINE_CURVE((0.976072173966902,0.987502860221582,1.0,0.707106781186548,1.0))REPRESENTATION_ITEM(''));
#225=EDGE_CURVE('',#86,#166,#224,.T.);
#226=ORIENTED_EDGE('',*,*,#225,.T.);
#227=EDGE_LOOP('',(#179,#180,#195,#210,#211,#226));
#228=FACE_OUTER_BOUND('',#227,.T.);
#229=ADVANCED_FACE('',(#228),#164,.T.);
#230=CARTESIAN_POINT('',(-0.659324062271783,8.377506522711602,6.786898638648868));
#231=CARTESIAN_POINT('',(-9.036830584983385,7.718182460439820,6.786898638648868));
#232=CARTESIAN_POINT('',(-8.377506522711602,-0.659324062271783,6.786898638648868));
#233=CARTESIAN_POINT('',(-7.718182460439820,-9.036830584983385,6.786898638648868));
#234=CARTESIAN_POINT('',(0.659324062271783,-8.377506522711602,6.786898638648868));
#235=CARTESIAN_POINT('',(-0.711323085188633,9.038216753974140,9.260327534033779));
#236=CARTESIAN_POINT('',(-9.749539839162773,8.326893668785507,9.260327534033779));
#237=CARTESIAN_POINT('',(-9.038216753974140,-0.711323085188633,9.260327534033779));
#238=CARTESIAN_POINT('',(-8.326893668785507,-9.749539839162773,9.260327534033779));
#239=CARTESIAN_POINT('',(0.711323085188633,-9.038216753974140,9.260327534033779));
#247=(BOUNDED_SURFACE()B_SPLINE_SURFACE(2,1,((#230,#235),(#231,#236),(#232,#237),(#233,#238),(#234,#239)),.UNSPECIFIED.,.F.,.F.,.U.)B_SPLINE_SURFACE_WITH_KNOTS((3,2,3),(2,2),(0.0,15.021313533168090,30.042627066336170),(0.0,2.560682020205618),.UNSPECIFIED.)GEOMETRIC_REPRESENTATION_ITEM()RATIONAL_B_SPLINE_SURFACE(((1.0,1.0),(0.707106781186548,0.707106781186548),(1.0,1.0),(0.707106781186548,0.707106781186548),(1.0,1.0)))REPRESENTATION_ITEM('')SURFACE());
#248=CARTESIAN_POINT('',(-9.050000000000001,0.0,9.199999999999999));
#249=VERTEX_POINT('',#248);
#250=CARTESIAN_POINT('',(-0.710051788775929,9.022101563852164,9.199997973396663));
#251=VERTEX_POINT('',#250);
#252=CARTESIAN_POINT('',(-9.050000000000001,0.0,9.199999999999999));
#253=CARTESIAN_POINT('',(-9.049999978697379,8.365736455186081,9.199998986698333));
#254=CARTESIAN_POINT('',(-0.710051788775929,9.022101563852164,9.199997973396663));
#262=(BOUNDED_CURVE()B_SPLINE_CURVE(2,(#252,#253,#254),.UNSPECIFIED.,.F.,.U.)B_SPLINE_CURVE_WITH_KNOTS((3,3),(0.0,0.236331357348437),.UNSPECIFIED.)CURVE()GEOMETRIC_REPRESENTATION_ITEM()RATIONAL_B_SPLINE_CURVE((1.0,0.723120592158656,0.969723474533123))REPRESENTATION_ITEM(''));
#263=EDGE_CURVE('',#249,#251,#262,.T.);
#264=ORIENTED_EDGE('',*,*,#263,.T.);
#265=CARTESIAN_POINT('',(-0.660561397744811,8.393228360457027,6.845754769414896));
#266=VERTEX_POINT('',#265);
#267=CARTESIAN_POINT('',(-0.660561397744811,8.393228360457027,6.845754769414896));
#268=CARTESIAN_POINT('',(-0.710051788775929,9.022101563852164,9.199997973396663));
#269=QUASI_UNIFORM_CURVE('',1,(#267,#268),.UNSPECIFIED.,.F.,.U.);
#270=EDGE_CURVE('',#266,#251,#269,.T.);
#271=ORIENTED_EDGE('',*,*,#270,.F.);
#272=CARTESIAN_POINT('',(-8.419181888459509,0.0,6.845754769413531));
#273=VERTEX_POINT('',#272);
#274=CARTESIAN_POINT('',(-8.419181888459509,0.0,6.845754769413531));
#275=CARTESIAN_POINT('',(-8.419181888459509,7.782611685218079,6.845754769413530));
#276=CARTESIAN_POINT('',(-0.660561397744811,8.393228360457027,6.845754769414897));
#284=(BOUNDED_CURVE()B_SPLINE_CURVE(2,(#274,#275,#276),.UNSPECIFIED.,.F.,.U.)B_SPLINE_CURVE_WITH_KNOTS((3,3),(0.0,0.236331300632440),.UNSPECIFIED.)CURVE()GEOMETRIC_REPRESENTATION_ITEM()RATIONAL_B_SPLINE_CURVE((1.0,0.723120658605579,0.969723356171134))REPRESENTATION_ITEM(''));
#285=EDGE_CURVE('',#273,#266,#284,.T.);
#286=ORIENTED_EDGE('',*,*,#285,.F.);
#287=CARTESIAN_POINT('',(0.660561397744810,-8.393228360457028,6.845754769414896));
#288=VERTEX_POINT('',#287);
#289=CARTESIAN_POINT('',(0.660561397744810,-8.393228360457028,6.845754769414897));
#290=CARTESIAN_POINT('',(0.330790557322642,-8.419181888459509,6.845754769413531));
#291=CARTESIAN_POINT('',(0.0,-8.419181888459509,6.845754769413531));
#292=CARTESIAN_POINT('',(-8.419181888459509,-8.419181888459509,6.845754769413531));
#293=CARTESIAN_POINT('',(-8.419181888459509,0.0,6.845754769413531));
#301=(BOUNDED_CURVE()B_SPLINE_CURVE(2,(#289,#290,#291,#292,#293),.UNSPECIFIED.,.F.,.U.)B_SPLINE_CURVE_WITH_KNOTS((3,2,3),(0.736331300632440,0.750000000000000,1.0),.UNSPECIFIED.)CURVE()GEOMETRIC_REPRESENTATION_ITEM()RATIONAL_B_SPLINE_CURVE((0.969723356171134,0.983986122580968,1.0,0.707106781186547,1.0))REPRESENTATION_ITEM(''));
#302=EDGE_CURVE('',#288,#273,#301,.T.);
#303=ORIENTED_EDGE('',*,*,#302,.F.);
#304=CARTESIAN_POINT('',(0.710051788775929,-9.022101563852164,9.199997973396664));
#305=VERTEX_POINT('',#304);
#306=CARTESIAN_POINT('',(0.660561397744810,-8.393228360457028,6.845754769414896));
#307=CARTESIAN_POINT('',(0.710051788775929,-9.022101563852164,9.199997973396664));
#308=QUASI_UNIFORM_CURVE('',1,(#306,#307),.UNSPECIFIED.,.F.,.U.);
#309=EDGE_CURVE('',#288,#305,#308,.T.);
#310=ORIENTED_EDGE('',*,*,#309,.T.);
#311=CARTESIAN_POINT('',(0.710051788775929,-9.022101563852164,9.199997973396664));
#312=CARTESIAN_POINT('',(0.355573927183859,-9.049999468477511,9.199998010199032));
#313=CARTESIAN_POINT('',(-0.000000040994573,-9.049999479112378,9.199998050011594));
#314=CARTESIAN_POINT('',(-9.050000019691950,-9.049999749789013,9.199999063313261));
#315=CARTESIAN_POINT('',(-9.050000000000001,0.0,9.199999999999999));
#323=(BOUNDED_CURVE()B_SPLINE_CURVE(2,(#311,#312,#313,#314,#315),.UNSPECIFIED.,.F.,.U.)B_SPLINE_CURVE_WITH_KNOTS((3,2,3),(0.736331357348437,0.750000000000000,1.0),.UNSPECIFIED.)CURVE()GEOMETRIC_REPRESENTATION_ITEM()RATIONAL_B_SPLINE_CURVE((0.969723474533123,0.983986189027892,1.0,0.707106781186548,1.0))REPRESENTATION_ITEM(''));
#324=EDGE_CURVE('',#305,#249,#323,.T.);
#325=ORIENTED_EDGE('',*,*,#324,.T.);
#326=EDGE_LOOP('',(#264,#271,#286,#303,#310,#325));
#327=FACE_OUTER_BOUND('',#326,.T.);
#328=ADVANCED_FACE('',(#327),#247,.T.);
#329=CARTESIAN_POINT('',(0.659324062271783,-8.377506522711602,6.786898638648868));
#330=CARTESIAN_POINT('',(9.036830584983385,-7.718182460439820,6.786898638648868));
#331=CARTESIAN_POINT('',(8.377506522711602,0.659324062271783,6.786898638648868));
#332=CARTESIAN_POINT('',(7.718182460439820,9.036830584983385,6.786898638648868));
#333=CARTESIAN_POINT('',(-0.659324062271783,8.377506522711602,6.786898638648868));
#334=CARTESIAN_POINT('',(0.711323085188633,-9.038216753974140,9.260327534033779));
#335=CARTESIAN_POINT('',(9.749539839162773,-8.326893668785507,9.260327534033779));
#336=CARTESIAN_POINT('',(9.038216753974140,0.711323085188633,9.260327534033779));
#337=CARTESIAN_POINT('',(8.326893668785507,9.749539839162773,9.260327534033779));
#338=CARTESIAN_POINT('',(-0.711323085188633,9.038216753974140,9.260327534033779));
#346=(BOUNDED_SURFACE()B_SPLINE_SURFACE(2,1,((#329,#334),(#330,#335),(#331,#336),(#332,#337),(#333,#338)),.UNSPECIFIED.,.F.,.F.,.U.)B_SPLINE_SURFACE_WITH_KNOTS((3,2,3),(2,2),(0.0,15.021313533168090,30.042627066336170),(0.0,2.560682020205618),.UNSPECIFIED.)GEOMETRIC_REPRESENTATION_ITEM()RATIONAL_B_SPLINE_SURFACE(((1.0,1.0),(0.707106781186548,0.707106781186548),(1.0,1.0),(0.707106781186548,0.707106781186548),(1.0,1.0)))REPRESENTATION_ITEM('')SURFACE());
#347=CARTESIAN_POINT('',(9.050000000000001,0.0,9.199999999999999));
#348=VERTEX_POINT('',#347);
#349=CARTESIAN_POINT('',(-0.710051788775929,9.022101563852164,9.199997973396663));
#350=CARTESIAN_POINT('',(-0.355573927183859,9.049999468477507,9.199998010199028));
#351=CARTESIAN_POINT('',(0.000000040994571,9.049999479112376,9.199998050011592));
#352=CARTESIAN_POINT('',(9.050000019691950,9.049999749789013,9.199999063313261));
#353=CARTESIAN_POINT('',(9.050000000000001,0.0,9.199999999999999));
#361=(BOUNDED_CURVE()B_SPLINE_CURVE(2,(#349,#350,#351,#352,#353),.UNSPECIFIED.,.F.,.U.)B_SPLINE_CURVE_WITH_KNOTS((3,2,3),(0.236331357348437,0.250000000000000,0.500000000000000),.UNSPECIFIED.)CURVE()GEOMETRIC_REPRESENTATION_ITEM()RATIONAL_B_SPLINE_CURVE((0.969723474533123,0.983986189027892,1.0,0.707106781186548,1.0))REPRESENTATION_ITEM(''));
#362=EDGE_CURVE('',#251,#348,#361,.T.);
#363=ORIENTED_EDGE('',*,*,#362,.T.);
#364=CARTESIAN_POINT('',(9.050000000000001,0.0,9.199999999999999));
#365=CARTESIAN_POINT('',(9.049999978697375,-8.365736455186079,9.199998986698331));
#366=CARTESIAN_POINT('',(0.710051788775929,-9.022101563852164,9.199997973396664));
#374=(BOUNDED_CURVE()B_SPLINE_CURVE(2,(#364,#365,#366),.UNSPECIFIED.,.F.,.U.)B_SPLINE_CURVE_WITH_KNOTS((3,3),(0.500000000000000,0.736331357348437),.UNSPECIFIED.)CURVE()GEOMETRIC_REPRESENTATION_ITEM()RATIONAL_B_SPLINE_CURVE((1.0,0.723120592158656,0.969723474533123))REPRESENTATION_ITEM(''));
#375=EDGE_CURVE('',#348,#305,#374,.T.);
#376=ORIENTED_EDGE('',*,*,#375,.T.);
#377=ORIENTED_EDGE('',*,*,#309,.F.);
#378=CARTESIAN_POINT('',(8.419181888459509,0.0,6.845754769413531));
#379=VERTEX_POINT('',#378);
#380=CARTESIAN_POINT('',(8.419181888459509,0.0,6.845754769413531));
#381=CARTESIAN_POINT('',(8.419181888459509,-7.782611685218056,6.845754769413531));
#382=CARTESIAN_POINT('',(0.660561397744810,-8.393228360457028,6.845754769414896));
#390=(BOUNDED_CURVE()B_SPLINE_CURVE(2,(#380,#381,#382),.UNSPECIFIED.,.F.,.U.)B_SPLINE_CURVE_WITH_KNOTS((3,3),(0.500000000000000,0.736331300632440),.UNSPECIFIED.)CURVE()GEOMETRIC_REPRESENTATION_ITEM()RATIONAL_B_SPLINE_CURVE((1.0,0.723120658605580,0.969723356171132))REPRESENTATION_ITEM(''));
#391=EDGE_CURVE('',#379,#288,#390,.T.);
#392=ORIENTED_EDGE('',*,*,#391,.F.);
#393=CARTESIAN_POINT('',(-0.660561397744811,8.393228360457027,6.845754769414897));
#394=CARTESIAN_POINT('',(-0.330790557322643,8.419181888459509,6.845754769413531));
#395=CARTESIAN_POINT('',(0.0,8.419181888459509,6.845754769413531));
#396=CARTESIAN_POINT('',(8.419181888459509,8.419181888459509,6.845754769413531));
#397=CARTESIAN_POINT('',(8.419181888459509,0.0,6.845754769413531));
#405=(BOUNDED_CURVE()B_SPLINE_CURVE(2,(#393,#394,#395,#396,#397),.UNSPECIFIED.,.F.,.U.)B_SPLINE_CURVE_WITH_KNOTS((3,2,3),(0.236331300632440,0.250000000000000,0.500000000000000),.UNSPECIFIED.)CURVE()GEOMETRIC_REPRESENTATION_ITEM()RATIONAL_B_SPLINE_CURVE((0.969723356171134,0.983986122580968,1.0,0.707106781186547,1.0))REPRESENTATION_ITEM(''));
#406=EDGE_CURVE('',#266,#379,#405,.T.);
#407=ORIENTED_EDGE('',*,*,#406,.F.);
#408=ORIENTED_EDGE('',*,*,#270,.T.);
#409=EDGE_LOOP('',(#363,#376,#377,#392,#407,#408));
#410=FACE_OUTER_BOUND('',#409,.T.);
#411=ADVANCED_FACE('',(#410),#346,.T.);
#412=CARTESIAN_POINT('',(-10.504045142277629,-10.503813062360409,9.700000000000001));
#413=CARTESIAN_POINT('',(10.504045483812250,-10.503813062360409,9.700000000000001));
#414=CARTESIAN_POINT('',(-10.504045142277629,10.503871294012200,9.700000000000001));
#415=CARTESIAN_POINT('',(10.504045483812250,10.503871294012200,9.700000000000001));
#416=B_SPLINE_SURFACE_WITH_KNOTS('',1,1,((#412,#414),(#413,#415)),.UNSPECIFIED.,.F.,.F.,.U.,(2,2),(2,2),(0.0,21.008090626089871),(0.0,21.007684356372611),.UNSPECIFIED.);
#417=ORIENTED_EDGE('',*,*,#225,.F.);
#418=ORIENTED_EDGE('',*,*,#98,.F.);
#419=ORIENTED_EDGE('',*,*,#83,.F.);
#420=ORIENTED_EDGE('',*,*,#178,.F.);
#421=EDGE_LOOP('',(#417,#418,#419,#420));
#422=FACE_OUTER_BOUND('',#421,.T.);
#423=ADVANCED_FACE('',(#422),#416,.T.);
#424=CARTESIAN_POINT('',(10.504045142277629,-10.503813062360420,9.199999999999999));
#425=CARTESIAN_POINT('',(-10.504045483812250,-10.503813062360420,9.199999999999999));
#426=CARTESIAN_POINT('',(10.504045142277629,10.503871294012200,9.199999999999999));
#427=CARTESIAN_POINT('',(-10.504045483812250,10.503871294012200,9.199999999999999));
#428=B_SPLINE_SURFACE_WITH_KNOTS('',1,1,((#424,#426),(#425,#427)),.UNSPECIFIED.,.F.,.F.,.U.,(2,2),(2,2),(0.0,21.008090626089871),(0.0,21.007684356372621),.UNSPECIFIED.);
#429=ORIENTED_EDGE('',*,*,#194,.T.);
#430=ORIENTED_EDGE('',*,*,#137,.T.);
#431=ORIENTED_EDGE('',*,*,#120,.T.);
#432=ORIENTED_EDGE('',*,*,#209,.T.);
#433=EDGE_LOOP('',(#429,#430,#431,#432));
#434=FACE_OUTER_BOUND('',#433,.T.);
#435=ORIENTED_EDGE('',*,*,#375,.F.);
#436=ORIENTED_EDGE('',*,*,#362,.F.);
#437=ORIENTED_EDGE('',*,*,#263,.F.);
#438=ORIENTED_EDGE('',*,*,#324,.F.);
#439=EDGE_LOOP('',(#435,#436,#437,#438));
#440=FACE_BOUND('',#439,.T.);
#441=ADVANCED_FACE('',(#434,#440),#428,.T.);
#442=CARTESIAN_POINT('',(-5.962829523564590,5.962829523564590,10.287995303847998));
#443=CARTESIAN_POINT('',(-4.253510610077082,8.507021220154169,7.338814066108129));
#444=CARTESIAN_POINT('',(4.253510610077083,8.507021220154169,7.338814066108129));
#445=CARTESIAN_POINT('',(5.962829523564590,5.962829523564590,10.287995303847998));
#446=CARTESIAN_POINT('',(-8.507021220154169,4.253510610077083,7.338814066108129));
#447=CARTESIAN_POINT('',(-7.419024748522506,7.419024748522511,3.552714E-015));
#448=CARTESIAN_POINT('',(7.419024748522507,7.419024748522511,3.552714E-015));
#449=CARTESIAN_POINT('',(8.507021220154169,4.253510610077083,7.338814066108129));
#450=CARTESIAN_POINT('',(-8.507021220154169,-4.253510610077082,7.338814066108125));
#451=CARTESIAN_POINT('',(-7.419024748522506,-7.419024748522502,-3.552714E-015));
#452=CARTESIAN_POINT('',(7.419024748522507,-7.419024748522502,-3.552714E-015));
#453=CARTESIAN_POINT('',(8.507021220154169,-4.253510610077082,7.338814066108125));
#454=CARTESIAN_POINT('',(-5.962829523564590,-5.962829523564594,10.287995303847991));
#455=CARTESIAN_POINT('',(-4.253510610077082,-8.507021220154162,7.338814066108125));
#456=CARTESIAN_POINT('',(4.253510610077083,-8.507021220154162,7.338814066108125));
#457=CARTESIAN_POINT('',(5.962829523564590,-5.962829523564594,10.287995303847991));
#465=(BOUNDED_SURFACE()B_SPLINE_SURFACE(2,2,((#442,#446,#450,#454),(#443,#447,#451,#455),(#444,#448,#452,#456),(#445,#449,#453,#457)),.UNSPECIFIED.,.F.,.F.,.U.)B_SPLINE_SURFACE_WITH_KNOTS((3,1,3),(3,1,3),(0.0,10.814068928398081,21.628137856796169),(0.0,10.814068928398081,21.628137856796169),.UNSPECIFIED.)GEOMETRIC_REPRESENTATION_ITEM()RATIONAL_B_SPLINE_SURFACE(((2.488424235240386,1.744212117620193,1.744212117620193,2.488424235240386),(1.744212117620193,1.0,1.0,1.744212117620193),(1.744212117620193,1.0,1.0,1.744212117620193),(2.488424235240386,1.744212117620193,1.744212117620193,2.488424235240386)))REPRESENTATION_ITEM('')SURFACE());
#466=ORIENTED_EDGE('',*,*,#285,.T.);
#467=ORIENTED_EDGE('',*,*,#406,.T.);
#468=ORIENTED_EDGE('',*,*,#391,.T.);
#469=ORIENTED_EDGE('',*,*,#302,.T.);
#470=EDGE_LOOP('',(#466,#467,#468,#469));
#471=FACE_OUTER_BOUND('',#470,.T.);
#472=ADVANCED_FACE('',(#471),#465,.T.);
#473=CLOSED_SHELL('',(#146,#229,#328,#411,#423,#441,#472));
#474=MANIFOLD_SOLID_BREP('rubber foot',#473);
#480=(NAMED_UNIT(*)PLANE_ANGLE_UNIT()SI_UNIT($,.RADIAN.));
#481=DIMENSIONAL_EXPONENTS(0.0,0.0,0.0,0.0,0.0,0.0,0.0);
#482=PLANE_ANGLE_MEASURE_WITH_UNIT(PLANE_ANGLE_MEASURE(0.017453292500000),#480);
#486=(CONVERSION_BASED_UNIT('DEGREE',#482)NAMED_UNIT(#481)PLANE_ANGLE_UNIT());
#490=(NAMED_UNIT(*)SI_UNIT($,.STERADIAN.)SOLID_ANGLE_UNIT());
#494=(LENGTH_UNIT()NAMED_UNIT(*)SI_UNIT(.MILLI.,.METRE.));
#496=UNCERTAINTY_MEASURE_WITH_UNIT(LENGTH_MEASURE(0.001000000000000),#494,'DISTANCE_ACCURACY_VALUE','');
#498=(GEOMETRIC_REPRESENTATION_CONTEXT(3)GLOBAL_UNCERTAINTY_ASSIGNED_CONTEXT((#496))GLOBAL_UNIT_ASSIGNED_CONTEXT((#486,#490,#494))REPRESENTATION_CONTEXT('','3D'));
ENDSEC;
END-ISO-10303-21;
