  0
SECTION
  2
HEADER
  9
$ACADVER
  1
AC1015
  9
$ACADMAINTVER
 70
    20
  9
$DWGCODEPAGE
  3
ANSI_932
  9
$INSBASE
 10
0.0
 20
0.0
 30
0.0
  9
$EXTMIN
 10
10.0
 20
9.999999999999998
 30
0.0
  9
$EXTMAX
 10
848.6
 20
464.8
 30
0.0
  9
$LIMMIN
 10
0.0
 20
0.0
  9
$LIMMAX
 10
871.2000000000001
 20
600.6
  9
$ORTHOMODE
 70
     1
  9
$REGENMODE
 70
     1
  9
$FILLMODE
 70
     1
  9
$QTEXTMODE
 70
     0
  9
$MIRRTEXT
 70
     1
  9
$LTSCALE
 40
20.0
  9
$ATTMODE
 70
     1
  9
$TEXTSIZE
 40
5.0
  9
$TRACEWID
 40
1.0
  9
$TEXTSTYLE
  7
STANDARD
  9
$CLAYER
  8
0
  9
$CELTYPE
  6
BYLAYER
  9
$CECOLOR
 62
   256
  9
$CELTSCALE
 40
1.0
  9
$DISPSILH
 70
     0
  9
$DIMSCALE
 40
1.0
  9
$DIMASZ
 40
3.0
  9
$DIMEXO
 40
1.0
  9
$DIMDLI
 40
10.0
  9
$DIMRND
 40
0.0
  9
$DIMDLE
 40
0.0
  9
$DIMEXE
 40
1.0
  9
$DIMTP
 40
0.0
  9
$DIMTM
 40
0.0
  9
$DIMTXT
 40
2.5
  9
$DIMCEN
 40
0.0
  9
$DIMTSZ
 40
0.0
  9
$DIMTOL
 70
     0
  9
$DIMLIM
 70
     0
  9
$DIMTIH
 70
     0
  9
$DIMTOH
 70
     0
  9
$DIMSE1
 70
     0
  9
$DIMSE2
 70
     0
  9
$DIMTAD
 70
     3
  9
$DIMZIN
 70
     8
  9
$DIMBLK
  1

  9
$DIMASO
 70
     1
  9
$DIMSHO
 70
     1
  9
$DIMPOST
  1

  9
$DIMAPOST
  1

  9
$DIMALT
 70
     0
  9
$DIMALTD
 70
     2
  9
$DIMALTF
 40
25.4
  9
$DIMLFAC
 40
1.0
  9
$DIMTOFL
 70
     1
  9
$DIMTVP
 40
0.0
  9
$DIMTIX
 70
     0
  9
$DIMSOXD
 70
     0
  9
$DIMSAH
 70
     1
  9
$DIMBLK1
  1

  9
$DIMBLK2
  1

  9
$DIMSTYLE
  2
STANDARD
  9
$DIMCLRD
 70
     0
  9
$DIMCLRE
 70
     0
  9
$DIMCLRT
 70
     0
  9
$DIMTFAC
 40
1.0
  9
$DIMGAP
 40
1.0
  9
$DIMJUST
 70
     0
  9
$DIMSD1
 70
     0
  9
$DIMSD2
 70
     0
  9
$DIMTOLJ
 70
     1
  9
$DIMTZIN
 70
     0
  9
$DIMALTZ
 70
     0
  9
$DIMALTTZ
 70
     0
  9
$DIMUPT
 70
     0
  9
$DIMDEC
 70
     4
  9
$DIMTDEC
 70
     4
  9
$DIMALTU
 70
     2
  9
$DIMALTTD
 70
     2
  9
$DIMTXSTY
  7
STANDARD
  9
$DIMAUNIT
 70
     0
  9
$DIMADEC
 70
     0
  9
$DIMALTRND
 40
0.0
  9
$DIMAZIN
 70
     0
  9
$DIMDSEP
 70
    46
  9
$DIMATFIT
 70
     3
  9
$DIMFRAC
 70
     0
  9
$DIMLDRBLK
  1

  9
$DIMLUNIT
 70
     2
  9
$DIMLWD
 70
    -2
  9
$DIMLWE
 70
    -2
  9
$DIMTMOVE
 70
     0
  9
$LUNITS
 70
     2
  9
$LUPREC
 70
     4
  9
$SKETCHINC
 40
1.0
  9
$FILLETRAD
 40
0.0
  9
$AUNITS
 70
     0
  9
$AUPREC
 70
     2
  9
$MENU
  1
.
  9
$ELEVATION
 40
0.0
  9
$PELEVATION
 40
0.0
  9
$THICKNESS
 40
0.0
  9
$LIMCHECK
 70
     0
  9
$CHAMFERA
 40
10.0
  9
$CHAMFERB
 40
10.0
  9
$CHAMFERC
 40
0.0
  9
$CHAMFERD
 40
0.0
  9
$SKPOLY
 70
     0
  9
$TDCREATE
 40
2451233.360276158
  9
$TDUCREATE
 40
2451232.985276158
  9
$TDUPDATE
 40
2457192.659512928
  9
$TDUUPDATE
 40
2457192.284512928
  9
$TDINDWG
 40
0.0000129514
  9
$TDUSRTIMER
 40
0.0000124653
  9
$USRTIMER
 70
     1
  9
$ANGBASE
 50
0.0
  9
$ANGDIR
 70
     0
  9
$PDMODE
 70
     0
  9
$PDSIZE
 40
0.0
  9
$PLINEWID
 40
0.0
  9
$SPLFRAME
 70
     0
  9
$SPLINETYPE
 70
     6
  9
$SPLINESEGS
 70
     8
  9
$HANDSEED
  5
CB77
  9
$SURFTAB1
 70
     6
  9
$SURFTAB2
 70
     6
  9
$SURFTYPE
 70
     6
  9
$SURFU
 70
     6
  9
$SURFV
 70
     6
  9
$UCSBASE
  2

  9
$UCSNAME
  2

  9
$UCSORG
 10
0.0
 20
0.0
 30
0.0
  9
$UCSXDIR
 10
1.0
 20
0.0
 30
0.0
  9
$UCSYDIR
 10
0.0
 20
1.0
 30
0.0
  9
$UCSORTHOREF
  2

  9
$UCSORTHOVIEW
 70
     0
  9
$UCSORGTOP
 10
0.0
 20
0.0
 30
0.0
  9
$UCSORGBOTTOM
 10
0.0
 20
0.0
 30
0.0
  9
$UCSORGLEFT
 10
0.0
 20
0.0
 30
0.0
  9
$UCSORGRIGHT
 10
0.0
 20
0.0
 30
0.0
  9
$UCSORGFRONT
 10
0.0
 20
0.0
 30
0.0
  9
$UCSORGBACK
 10
0.0
 20
0.0
 30
0.0
  9
$PUCSBASE
  2

  9
$PUCSNAME
  2

  9
$PUCSORG
 10
0.0
 20
0.0
 30
0.0
  9
$PUCSXDIR
 10
1.0
 20
0.0
 30
0.0
  9
$PUCSYDIR
 10
0.0
 20
1.0
 30
0.0
  9
$PUCSORTHOREF
  2

  9
$PUCSORTHOVIEW
 70
     0
  9
$PUCSORGTOP
 10
0.0
 20
0.0
 30
0.0
  9
$PUCSORGBOTTOM
 10
0.0
 20
0.0
 30
0.0
  9
$PUCSORGLEFT
 10
0.0
 20
0.0
 30
0.0
  9
$PUCSORGRIGHT
 10
0.0
 20
0.0
 30
0.0
  9
$PUCSORGFRONT
 10
0.0
 20
0.0
 30
0.0
  9
$PUCSORGBACK
 10
0.0
 20
0.0
 30
0.0
  9
$USERI1
 70
     0
  9
$USERI2
 70
     0
  9
$USERI3
 70
     0
  9
$USERI4
 70
     0
  9
$USERI5
 70
     0
  9
$USERR1
 40
0.0
  9
$USERR2
 40
0.0
  9
$USERR3
 40
0.0
  9
$USERR4
 40
0.0
  9
$USERR5
 40
0.0
  9
$WORLDVIEW
 70
     1
  9
$SHADEDGE
 70
     3
  9
$SHADEDIF
 70
    70
  9
$TILEMODE
 70
     1
  9
$MAXACTVP
 70
    16
  9
$PINSBASE
 10
0.0
 20
0.0
 30
0.0
  9
$PLIMCHECK
 70
     0
  9
$PEXTMIN
 10
1.000000000000000E+20
 20
1.000000000000000E+20
 30
1.000000000000000E+20
  9
$PEXTMAX
 10
-1.000000000000000E+20
 20
-1.000000000000000E+20
 30
-1.000000000000000E+20
  9
$PLIMMIN
 10
0.0
 20
0.0
  9
$PLIMMAX
 10
420.0
 20
297.0
  9
$UNITMODE
 70
     0
  9
$VISRETAIN
 70
     0
  9
$PLINEGEN
 70
     0
  9
$PSLTSCALE
 70
     0
  9
$TREEDEPTH
 70
  3020
  9
$CMLSTYLE
  2
STANDARD
  9
$CMLJUST
 70
     0
  9
$CMLSCALE
 40
1.0
  9
$PROXYGRAPHICS
 70
     1
  9
$MEASUREMENT
 70
     0
  9
$CELWEIGHT
370
    -1
  9
$ENDCAPS
280
     0
  9
$JOINSTYLE
280
     0
  9
$LWDISPLAY
290
     0
  9
$INSUNITS
 70
     0
  9
$HYPERLINKBASE
  1

  9
$STYLESHEET
  1

  9
$XEDIT
290
     1
  9
$CEPSNTYPE
380
     0
  9
$PSTYLEMODE
290
     1
  9
$FINGERPRINTGUID
  2
{B09D206F-3A6E-4431-96D0-7F7B3D77624A}
  9
$VERSIONGUID
  2
{4767B10C-1A0C-4550-9BDD-FF50BFEEFC08}
  9
$EXTNAMES
290
     1
  9
$PSVPSCALE
 40
0.0
  9
$OLESTARTUP
290
     0
  0
ENDSEC
  0
SECTION
  2
CLASSES
  0
CLASS
  1
ACDBDICTIONARYWDFLT
  2
AcDbDictionaryWithDefault
  3
ObjectDBX Classes
 90
        0
280
     0
281
     0
  0
CLASS
  1
ACDBPLACEHOLDER
  2
AcDbPlaceHolder
  3
ObjectDBX Classes
 90
        0
280
     0
281
     0
  0
CLASS
  1
LAYOUT
  2
AcDbLayout
  3
ObjectDBX Classes
 90
        0
280
     0
281
     0
  0
CLASS
  1
DICTIONARYVAR
  2
AcDbDictionaryVar
  3
ObjectDBX Classes
 90
        0
280
     0
281
     0
  0
CLASS
  1
MATERIAL
  2
AcDbMaterial
  3
ObjectDBX Classes
 90
     1153
280
     0
281
     0
  0
CLASS
  1
VISUALSTYLE
  2
AcDbVisualStyle
  3
ObjectDBX Classes
 90
     4095
280
     0
281
     0
  0
CLASS
  1
TABLESTYLE
  2
AcDbTableStyle
  3
ObjectDBX Classes
 90
     4095
280
     0
281
     0
  0
CLASS
  1
SCALE
  2
AcDbScale
  3
ObjectDBX Classes
 90
     1153
280
     0
281
     0
  0
CLASS
  1
MLEADERSTYLE
  2
AcDbMLeaderStyle
  3
ACDB_MLEADERSTYLE_CLASS
 90
     4095
280
     0
281
     0
  0
CLASS
  1
ACDBSECTIONVIEWSTYLE
  2
AcDbSectionViewStyle
  3
ObjectDBX Classes
 90
     1025
280
     0
281
     0
  0
CLASS
  1
ACDBDETAILVIEWSTYLE
  2
AcDbDetailViewStyle
  3
ObjectDBX Classes
 90
     1025
280
     0
281
     0
  0
CLASS
  1
CELLSTYLEMAP
  2
AcDbCellStyleMap
  3
ObjectDBX Classes
 90
     1152
280
     0
281
     0
  0
ENDSEC
  0
SECTION
  2
TABLES
  0
TABLE
  2
VPORT
  5
C6E8
330
0
100
AcDbSymbolTable
 70
     1
  0
VPORT
  5
CAC0
330
C6E8
100
AcDbSymbolTableRecord
100
AcDbViewportTableRecord
  2
*ACTIVE
 70
     0
 10
0.0
 20
0.0
 11
1.0
 21
1.0
 12
573.6847337109519
 22
237.3861982245536
 13
0.0
 23
0.0
 14
10.0
 24
10.0
 15
10.0
 25
10.0
 16
0.0
 26
0.0
 36
1.0
 17
0.0
 27
0.0
 37
0.0
 40
482.082676431539
 41
1.899603698811096
 42
50.0
 43
0.0
 44
0.0
 50
0.0
 51
0.0
 71
     0
 72
   100
 73
     1
 74
     0
 75
     0
 76
     0
 77
     0
 78
     0
281
     0
 65
     1
110
0.0
120
0.0
130
0.0
111
1.0
121
0.0
131
0.0
112
0.0
122
1.0
132
0.0
 79
     0
146
0.0
1001
ACAD_NAV_VCDISPLAY
1070
     3
  0
ENDTAB
  0
TABLE
  2
LTYPE
  5
C6E5
330
0
100
AcDbSymbolTable
 70
     4
  0
LTYPE
  5
C6F3
330
C6E5
100
AcDbSymbolTableRecord
100
AcDbLinetypeTableRecord
  2
BYBLOCK
 70
     0
  3

 72
    65
 73
     0
 40
0.0
  0
LTYPE
  5
C6F4
330
C6E5
100
AcDbSymbolTableRecord
100
AcDbLinetypeTableRecord
  2
BYLAYER
 70
     0
  3

 72
    65
 73
     0
 40
0.0
  0
LTYPE
  5
C6F5
330
C6E5
100
AcDbSymbolTableRecord
100
AcDbLinetypeTableRecord
  2
CONTINUOUS
 70
     0
  3
Solid line
 72
    65
 73
     0
 40
0.0
  0
LTYPE
  5
C703
330
C6E5
100
AcDbSymbolTableRecord
100
AcDbLinetypeTableRecord
  2
DASHED
 70
     0
  3
__ __ __ __ __ __ __ __ __ __ __ __ __ __ __ __
 72
    65
 73
     2
 40
0.75
 49
0.5
 74
     0
 49
-0.25
 74
     0
  0
LTYPE
  5
C704
330
C6E5
100
AcDbSymbolTableRecord
100
AcDbLinetypeTableRecord
  2
CENTER
 70
     0
  3
____ _ ____ _ ____ _ ____ _ ____ _ ____ _ ____ 
 72
    65
 73
     4
 40
2.0
 49
1.25
 74
     0
 49
-0.25
 74
     0
 49
0.25
 74
     0
 49
-0.25
 74
     0
  0
LTYPE
  5
C705
330
C6E5
100
AcDbSymbolTableRecord
100
AcDbLinetypeTableRecord
  2
PHANTOM
 70
     0
  3
______  __  __  ______  __  __  ______  __  __ 
 72
    65
 73
     6
 40
2.5
 49
1.25
 74
     0
 49
-0.25
 74
     0
 49
0.25
 74
     0
 49
-0.25
 74
     0
 49
0.25
 74
     0
 49
-0.25
 74
     0
  0
ENDTAB
  0
TABLE
  2
LAYER
  5
C6E2
330
0
100
AcDbSymbolTable
 70
     8
  0
LAYER
  5
C6F0
102
{ACAD_XDICTIONARY
360
CB1B
102
}
330
C6E2
100
AcDbSymbolTableRecord
100
AcDbLayerTableRecord
  2
0
 70
     0
 62
     7
  6
CONTINUOUS
370
    -3
390
CAC9
  0
LAYER
  5
C706
102
{ACAD_XDICTIONARY
360
CB1D
102
}
330
C6E2
100
AcDbSymbolTableRecord
100
AcDbLayerTableRecord
  2
4
 70
     0
 62
     1
  6
CENTER
370
    -3
390
CAC9
  0
LAYER
  5
C707
102
{ACAD_XDICTIONARY
360
CB1F
102
}
330
C6E2
100
AcDbSymbolTableRecord
100
AcDbLayerTableRecord
  2
5
 70
     0
 62
     6
  6
PHANTOM
370
    -3
390
CAC9
  0
LAYER
  5
C708
102
{ACAD_XDICTIONARY
360
CB21
102
}
330
C6E2
100
AcDbSymbolTableRecord
100
AcDbLayerTableRecord
  2
1
 70
     0
 62
     7
  6
CONTINUOUS
370
    -3
390
CAC9
  0
LAYER
  5
C709
102
{ACAD_XDICTIONARY
360
CB23
102
}
330
C6E2
100
AcDbSymbolTableRecord
100
AcDbLayerTableRecord
  2
2
 70
     0
 62
     4
  6
CONTINUOUS
370
    -3
390
CAC9
  0
LAYER
  5
C70A
102
{ACAD_XDICTIONARY
360
CB25
102
}
330
C6E2
100
AcDbSymbolTableRecord
100
AcDbLayerTableRecord
  2
3
 70
     0
 62
     2
  6
DASHED
370
    -3
390
CAC9
  0
LAYER
  5
C70B
102
{ACAD_XDICTIONARY
360
CB27
102
}
330
C6E2
100
AcDbSymbolTableRecord
100
AcDbLayerTableRecord
  2
6
 70
     0
 62
     5
  6
CONTINUOUS
370
    -3
390
CAC9
  0
LAYER
  5
C70C
102
{ACAD_XDICTIONARY
360
CB29
102
}
330
C6E2
100
AcDbSymbolTableRecord
100
AcDbLayerTableRecord
  2
7
 70
     0
 62
     3
  6
CONTINUOUS
370
    -3
390
CAC9
  0
ENDTAB
  0
TABLE
  2
STYLE
  5
C6E3
330
0
100
AcDbSymbolTable
 70
     1
  0
STYLE
  5
C6F1
330
C6E3
100
AcDbSymbolTableRecord
100
AcDbTextStyleTableRecord
  2
STANDARD
 70
     0
 40
0.0
 41
1.0
 50
0.0
 71
     0
 42
5.0
  3
txt
  4

  0
ENDTAB
  0
TABLE
  2
VIEW
  5
C6E6
330
0
100
AcDbSymbolTable
 70
     0
  0
ENDTAB
  0
TABLE
  2
UCS
  5
C6E7
330
0
100
AcDbSymbolTable
 70
     0
  0
ENDTAB
  0
TABLE
  2
APPID
  5
C6E9
330
0
100
AcDbSymbolTable
 70
     3
  0
APPID
  5
C6F2
330
C6E9
100
AcDbSymbolTableRecord
100
AcDbRegAppTableRecord
  2
ACAD
 70
     0
  0
APPID
  5
CB35
330
C6E9
100
AcDbSymbolTableRecord
100
AcDbRegAppTableRecord
  2
ACAD_NAV_VCDISPLAY
 70
     0
  0
APPID
  5
CB6E
330
C6E9
100
AcDbSymbolTableRecord
100
AcDbRegAppTableRecord
  2
ACAD_MLEADERVER
 70
     0
  0
ENDTAB
  0
TABLE
  2
DIMSTYLE
  5
C6EA
330
0
100
AcDbSymbolTable
 70
     1
100
AcDbDimStyleTable
 71
     0
  0
DIMSTYLE
105
C70E
330
C6EA
100
AcDbSymbolTableRecord
100
AcDbDimStyleTableRecord
  2
STANDARD
 70
     0
 41
3.0
 42
1.0
 43
10.0
 44
1.0
 73
     0
 74
     0
 77
     3
 78
     8
140
2.5
141
0.0
147
1.0
172
     1
173
     1
284
     8
285
     8
286
     8
340
C6F1
  0
ENDTAB
  0
TABLE
  2
BLOCK_RECORD
  5
C6E1
330
0
100
AcDbSymbolTable
 70
     0
  0
BLOCK_RECORD
  5
C6FE
102
{ACAD_XDICTIONARY
360
CAC3
102
}
330
C6E1
100
AcDbSymbolTableRecord
100
AcDbBlockTableRecord
  2
*MODEL_SPACE
340
CB17
  0
BLOCK_RECORD
  5
C6FA
102
{ACAD_XDICTIONARY
360
CAC1
102
}
330
C6E1
100
AcDbSymbolTableRecord
100
AcDbBlockTableRecord
  2
*PAPER_SPACE
340
CB18
  0
ENDTAB
  0
ENDSEC
  0
SECTION
  2
BLOCKS
  0
BLOCK
  5
C6FF
330
C6FE
100
AcDbEntity
  8
0
100
AcDbBlockBegin
  2
*MODEL_SPACE
 70
     0
 10
0.0
 20
0.0
 30
0.0
  3
*MODEL_SPACE
  1

  0
ENDBLK
  5
C700
330
C6FE
100
AcDbEntity
  8
0
100
AcDbBlockEnd
  0
BLOCK
  5
C6FB
330
C6FA
100
AcDbEntity
 67
     1
  8
0
100
AcDbBlockBegin
  2
*PAPER_SPACE
 70
     0
 10
0.0
 20
0.0
 30
0.0
  3
*PAPER_SPACE
  1

  0
ENDBLK
  5
C6FC
330
C6FA
100
AcDbEntity
 67
     1
  8
0
100
AcDbBlockEnd
  0
ENDSEC
  0
SECTION
  2
ENTITIES
  0
TEXT
  5
C716
330
C6FE
100
AcDbEntity
  8
7
  6
Continuous
100
AcDbText
 10
10.0
 20
18.0
 30
0.0
 40
3.0
  1
TYPE No.TM-167-12
100
AcDbText
  0
TEXT
  5
C717
330
C6FE
100
AcDbEntity
  8
7
  6
Continuous
100
AcDbText
 10
10.0
 20
26.0
 30
0.0
 40
3.0
  1
CODE No.5841
100
AcDbText
  0
TEXT
  5
C718
330
C6FE
100
AcDbEntity
  8
1
  6
Continuous
100
AcDbText
 10
10.0
 20
10.0
 30
0.0
 40
1.399999999999999
  1
LAYER
100
AcDbText
  0
TEXT
  5
C719
330
C6FE
100
AcDbEntity
  8
1
  6
Continuous
100
AcDbText
 10
17.97951099999998
 20
10.04873699999998
 30
0.0
 40
1.399999999999999
  1
1
100
AcDbText
  0
TEXT
  5
C71A
330
C6FE
100
AcDbEntity
  8
7
  6
Continuous
100
AcDbText
 10
29.97951099999999
 20
10.04873699999998
 30
0.0
 40
1.399999999999999
  1
7
100
AcDbText
  0
TEXT
  5
C71B
330
C6FE
100
AcDbEntity
  8
4
  6
CENTER
100
AcDbText
 10
23.97951099999999
 20
10.04873699999998
 30
0.0
 40
1.399999999999999
  1
4
100
AcDbText
  0
TEXT
  5
C71C
330
C6FE
100
AcDbEntity
  8
3
  6
DASHED
100
AcDbText
 10
21.979511
 20
10.04873699999998
 30
0.0
 40
1.399999999999999
  1
3
100
AcDbText
  0
TEXT
  5
C71D
330
C6FE
100
AcDbEntity
  8
2
  6
Continuous
100
AcDbText
 10
19.97951099999999
 20
10.04873699999998
 30
0.0
 40
1.399999999999999
  1
2
100
AcDbText
  0
TEXT
  5
C71E
330
C6FE
100
AcDbEntity
  8
6
  6
Continuous
100
AcDbText
 10
27.979511
 20
10.04873699999998
 30
0.0
 40
1.399999999999999
  1
6
100
AcDbText
  0
TEXT
  5
C71F
330
C6FE
100
AcDbEntity
  8
5
  6
PHANTOM
100
AcDbText
 10
25.97951099999999
 20
10.04873699999998
 30
0.0
 40
1.399999999999999
  1
5
100
AcDbText
  0
LINE
  5
C720
330
C6FE
100
AcDbEntity
  8
1
  6
Continuous
100
AcDbLine
 10
117.5
 20
165.0999999999999
 30
0.0
 11
117.5
 21
166.602131
 31
0.0
  0
LINE
  5
C721
330
C6FE
100
AcDbEntity
  8
1
  6
Continuous
100
AcDbLine
 10
117.5
 20
165.0999999999999
 30
0.0
 11
422.4999999999998
 21
165.0999999999999
 31
0.0
  0
LINE
  5
C722
330
C6FE
100
AcDbEntity
  8
1
  6
Continuous
100
AcDbLine
 10
422.4999999999998
 20
165.0999999999999
 30
0.0
 11
422.4999999999998
 21
175.2499999999998
 31
0.0
  0
LINE
  5
C723
330
C6FE
100
AcDbEntity
  8
1
  6
Continuous
100
AcDbLine
 10
117.5
 20
200.4
 30
0.0
 11
422.4999999999998
 21
200.4
 31
0.0
  0
LINE
  5
C724
330
C6FE
100
AcDbEntity
  8
4
  6
CENTER
100
AcDbLine
 10
112.5
 20
182.75
 30
0.0
 11
754.4999999999999
 21
182.75
 31
0.0
  0
LINE
  5
C725
330
C6FE
100
AcDbEntity
  8
1
  6
Continuous
100
AcDbLine
 10
444.5
 20
165.0999999999999
 30
0.0
 11
444.5
 21
170.5
 31
0.0
  0
LINE
  5
C726
330
C6FE
100
AcDbEntity
  8
1
  6
Continuous
100
AcDbLine
 10
749.5
 20
165.0999999999999
 30
0.0
 11
749.5
 21
166.602131
 31
0.0
  0
LINE
  5
C727
330
C6FE
100
AcDbEntity
  8
1
  6
Continuous
100
AcDbLine
 10
444.5
 20
200.4
 30
0.0
 11
749.5
 21
200.4
 31
0.0
  0
LINE
  5
C728
330
C6FE
100
AcDbEntity
  8
1
  6
Continuous
100
AcDbLine
 10
444.5
 20
165.0999999999999
 30
0.0
 11
749.5
 21
165.0999999999999
 31
0.0
  0
ARC
  5
C729
330
C6FE
100
AcDbEntity
  8
1
  6
Continuous
100
AcDbCircle
 10
406.6
 20
182.3499999999999
 30
0.0
 40
2.25
100
AcDbArc
 50
180.0
 51
0.0
  0
LINE
  5
C72A
330
C6FE
100
AcDbEntity
  8
1
  6
Continuous
100
AcDbLine
 10
408.85
 20
183.15
 30
0.0
 11
408.85
 21
182.3499999999999
 31
0.0
  0
LINE
  5
C72B
330
C6FE
100
AcDbEntity
  8
1
  6
Continuous
100
AcDbLine
 10
404.3499999999998
 20
183.15
 30
0.0
 11
404.3499999999998
 21
182.3499999999999
 31
0.0
  0
LINE
  5
C72C
330
C6FE
100
AcDbEntity
  8
4
  6
CENTER
100
AcDbLine
 10
406.6
 20
188.0
 30
0.0
 11
406.6
 21
177.5
 31
0.0
  0
ARC
  5
C72D
330
C6FE
100
AcDbEntity
  8
1
  6
Continuous
100
AcDbCircle
 10
406.6
 20
183.15
 30
0.0
 40
2.25
100
AcDbArc
 50
0.0
 51
180.0
  0
ARC
  5
C72E
330
C6FE
100
AcDbEntity
  8
1
  6
Continuous
100
AcDbCircle
 10
393.9
 20
183.15
 30
0.0
 40
2.25
100
AcDbArc
 50
0.0
 51
180.0
  0
ARC
  5
C72F
330
C6FE
100
AcDbEntity
  8
1
  6
Continuous
100
AcDbCircle
 10
393.9
 20
182.3499999999999
 30
0.0
 40
2.25
100
AcDbArc
 50
180.0
 51
0.0
  0
LINE
  5
C730
330
C6FE
100
AcDbEntity
  8
4
  6
CENTER
100
AcDbLine
 10
393.9
 20
188.0
 30
0.0
 11
393.9
 21
177.5
 31
0.0
  0
LINE
  5
C731
330
C6FE
100
AcDbEntity
  8
1
  6
Continuous
100
AcDbLine
 10
391.6499999999999
 20
183.15
 30
0.0
 11
391.6499999999999
 21
182.3499999999999
 31
0.0
  0
LINE
  5
C732
330
C6FE
100
AcDbEntity
  8
1
  6
Continuous
100
AcDbLine
 10
396.15
 20
183.15
 30
0.0
 11
396.15
 21
182.3499999999999
 31
0.0
  0
ARC
  5
C733
330
C6FE
100
AcDbEntity
  8
1
  6
Continuous
100
AcDbCircle
 10
381.6
 20
182.75
 30
0.0
 40
2.25
100
AcDbArc
 50
270.0
 51
90.0
  0
LINE
  5
C734
330
C6FE
100
AcDbEntity
  8
4
  6
CENTER
100
AcDbLine
 10
381.1999999999999
 20
188.0
 30
0.0
 11
381.1999999999999
 21
177.5
 31
0.0
  0
ARC
  5
C735
330
C6FE
100
AcDbEntity
  8
1
  6
Continuous
100
AcDbCircle
 10
380.8
 20
182.75
 30
0.0
 40
2.25
100
AcDbArc
 50
90.0
 51
270.0
  0
LINE
  5
C736
330
C6FE
100
AcDbEntity
  8
1
  6
Continuous
100
AcDbLine
 10
381.6
 20
185.0
 30
0.0
 11
380.8
 21
185.0
 31
0.0
  0
LINE
  5
C737
330
C6FE
100
AcDbEntity
  8
1
  6
Continuous
100
AcDbLine
 10
381.6
 20
180.4999999999998
 30
0.0
 11
380.8
 21
180.4999999999998
 31
0.0
  0
ARC
  5
C738
330
C6FE
100
AcDbEntity
  8
1
  6
Continuous
100
AcDbCircle
 10
295.8999999999999
 20
182.75
 30
0.0
 40
2.25
100
AcDbArc
 50
270.0
 51
90.0
  0
ARC
  5
C739
330
C6FE
100
AcDbEntity
  8
1
  6
Continuous
100
AcDbCircle
 10
295.1
 20
182.75
 30
0.0
 40
2.25
100
AcDbArc
 50
90.0
 51
270.0
  0
LINE
  5
C73A
330
C6FE
100
AcDbEntity
  8
1
  6
Continuous
100
AcDbLine
 10
295.8999999999999
 20
185.0
 30
0.0
 11
295.1
 21
185.0
 31
0.0
  0
LINE
  5
C73B
330
C6FE
100
AcDbEntity
  8
4
  6
CENTER
100
AcDbLine
 10
295.5
 20
188.0
 30
0.0
 11
295.5
 21
177.5
 31
0.0
  0
LINE
  5
C73C
330
C6FE
100
AcDbEntity
  8
1
  6
Continuous
100
AcDbLine
 10
295.8999999999999
 20
180.4999999999998
 30
0.0
 11
295.1
 21
180.4999999999998
 31
0.0
  0
LINE
  5
C73D
330
C6FE
100
AcDbEntity
  8
1
  6
Continuous
100
AcDbLine
 10
257.8
 20
180.4999999999998
 30
0.0
 11
257.0
 21
180.4999999999998
 31
0.0
  0
LINE
  5
C73E
330
C6FE
100
AcDbEntity
  8
4
  6
CENTER
100
AcDbLine
 10
257.3999999999999
 20
188.0
 30
0.0
 11
257.3999999999999
 21
177.5
 31
0.0
  0
LINE
  5
C73F
330
C6FE
100
AcDbEntity
  8
1
  6
Continuous
100
AcDbLine
 10
257.8
 20
185.0
 30
0.0
 11
257.0
 21
185.0
 31
0.0
  0
ARC
  5
C740
330
C6FE
100
AcDbEntity
  8
1
  6
Continuous
100
AcDbCircle
 10
257.0
 20
182.75
 30
0.0
 40
2.25
100
AcDbArc
 50
90.0
 51
270.0
  0
ARC
  5
C741
330
C6FE
100
AcDbEntity
  8
1
  6
Continuous
100
AcDbCircle
 10
257.8
 20
182.75
 30
0.0
 40
2.25
100
AcDbArc
 50
270.0
 51
90.0
  0
ARC
  5
C742
330
C6FE
100
AcDbEntity
  8
1
  6
Continuous
100
AcDbCircle
 10
146.3
 20
183.15
 30
0.0
 40
2.25
100
AcDbArc
 50
0.0
 51
180.0
  0
ARC
  5
C743
330
C6FE
100
AcDbEntity
  8
1
  6
Continuous
100
AcDbCircle
 10
146.3
 20
182.3499999999999
 30
0.0
 40
2.25
100
AcDbArc
 50
180.0
 51
0.0
  0
LINE
  5
C744
330
C6FE
100
AcDbEntity
  8
4
  6
CENTER
100
AcDbLine
 10
146.3
 20
188.0
 30
0.0
 11
146.3
 21
177.5
 31
0.0
  0
LINE
  5
C745
330
C6FE
100
AcDbEntity
  8
1
  6
Continuous
100
AcDbLine
 10
144.05
 20
183.15
 30
0.0
 11
144.05
 21
182.3499999999999
 31
0.0
  0
LINE
  5
C746
330
C6FE
100
AcDbEntity
  8
1
  6
Continuous
100
AcDbLine
 10
148.55
 20
183.15
 30
0.0
 11
148.55
 21
182.3499999999999
 31
0.0
  0
ARC
  5
C747
330
C6FE
100
AcDbEntity
  8
1
  6
Continuous
100
AcDbCircle
 10
133.6
 20
183.15
 30
0.0
 40
2.25
100
AcDbArc
 50
0.0
 51
180.0
  0
ARC
  5
C748
330
C6FE
100
AcDbEntity
  8
1
  6
Continuous
100
AcDbCircle
 10
133.6
 20
182.3499999999999
 30
0.0
 40
2.25
100
AcDbArc
 50
180.0
 51
0.0
  0
LINE
  5
C749
330
C6FE
100
AcDbEntity
  8
4
  6
CENTER
100
AcDbLine
 10
133.6
 20
188.0
 30
0.0
 11
133.6
 21
177.5
 31
0.0
  0
LINE
  5
C74A
330
C6FE
100
AcDbEntity
  8
1
  6
Continuous
100
AcDbLine
 10
131.3499999999999
 20
183.15
 30
0.0
 11
131.3499999999999
 21
182.3499999999999
 31
0.0
  0
LINE
  5
C74B
330
C6FE
100
AcDbEntity
  8
1
  6
Continuous
100
AcDbLine
 10
135.85
 20
183.15
 30
0.0
 11
135.85
 21
182.3499999999999
 31
0.0
  0
LINE
  5
C74C
330
C6FE
100
AcDbEntity
  8
1
  6
Continuous
100
AcDbLine
 10
731.1499999999997
 20
183.15
 30
0.0
 11
731.1499999999997
 21
182.3499999999999
 31
0.0
  0
LINE
  5
C74D
330
C6FE
100
AcDbEntity
  8
1
  6
Continuous
100
AcDbLine
 10
735.6499999999997
 20
183.15
 30
0.0
 11
735.6499999999997
 21
182.3499999999999
 31
0.0
  0
LINE
  5
C74E
330
C6FE
100
AcDbEntity
  8
4
  6
CENTER
100
AcDbLine
 10
733.3999999999997
 20
188.0
 30
0.0
 11
733.3999999999997
 21
177.5
 31
0.0
  0
ARC
  5
C74F
330
C6FE
100
AcDbEntity
  8
1
  6
Continuous
100
AcDbCircle
 10
733.3999999999997
 20
182.3499999999999
 30
0.0
 40
2.25
100
AcDbArc
 50
180.0
 51
0.0
  0
ARC
  5
C750
330
C6FE
100
AcDbEntity
  8
1
  6
Continuous
100
AcDbCircle
 10
733.3999999999997
 20
183.15
 30
0.0
 40
2.25
100
AcDbArc
 50
0.0
 51
180.0
  0
LINE
  5
C751
330
C6FE
100
AcDbEntity
  8
1
  6
Continuous
100
AcDbLine
 10
718.4500000000001
 20
183.15
 30
0.0
 11
718.4500000000001
 21
182.3499999999999
 31
0.0
  0
LINE
  5
C752
330
C6FE
100
AcDbEntity
  8
1
  6
Continuous
100
AcDbLine
 10
722.95
 20
183.15
 30
0.0
 11
722.95
 21
182.3499999999999
 31
0.0
  0
LINE
  5
C753
330
C6FE
100
AcDbEntity
  8
4
  6
CENTER
100
AcDbLine
 10
720.7
 20
188.0
 30
0.0
 11
720.7
 21
177.5
 31
0.0
  0
ARC
  5
C754
330
C6FE
100
AcDbEntity
  8
1
  6
Continuous
100
AcDbCircle
 10
720.7
 20
182.3499999999999
 30
0.0
 40
2.25
100
AcDbArc
 50
180.0
 51
0.0
  0
ARC
  5
C755
330
C6FE
100
AcDbEntity
  8
1
  6
Continuous
100
AcDbCircle
 10
720.7
 20
183.15
 30
0.0
 40
2.25
100
AcDbArc
 50
0.0
 51
180.0
  0
ARC
  5
C756
330
C6FE
100
AcDbEntity
  8
1
  6
Continuous
100
AcDbCircle
 10
610.0
 20
182.75
 30
0.0
 40
2.25
100
AcDbArc
 50
270.0
 51
90.0
  0
ARC
  5
C757
330
C6FE
100
AcDbEntity
  8
1
  6
Continuous
100
AcDbCircle
 10
609.2000000000001
 20
182.75
 30
0.0
 40
2.25
100
AcDbArc
 50
90.0
 51
270.0
  0
LINE
  5
C758
330
C6FE
100
AcDbEntity
  8
1
  6
Continuous
100
AcDbLine
 10
609.2000000000001
 20
185.0
 30
0.0
 11
610.0
 21
185.0
 31
0.0
  0
LINE
  5
C759
330
C6FE
100
AcDbEntity
  8
4
  6
CENTER
100
AcDbLine
 10
609.6
 20
188.0
 30
0.0
 11
609.6
 21
177.5
 31
0.0
  0
LINE
  5
C75A
330
C6FE
100
AcDbEntity
  8
1
  6
Continuous
100
AcDbLine
 10
609.2000000000001
 20
180.4999999999998
 30
0.0
 11
610.0
 21
180.4999999999998
 31
0.0
  0
LINE
  5
C75B
330
C6FE
100
AcDbEntity
  8
4
  6
CENTER
100
AcDbLine
 10
571.4999999999998
 20
188.0
 30
0.0
 11
571.4999999999998
 21
177.5
 31
0.0
  0
LINE
  5
C75C
330
C6FE
100
AcDbEntity
  8
4
  6
CENTER
100
AcDbLine
 10
485.8
 20
188.0
 30
0.0
 11
485.8
 21
177.5
 31
0.0
  0
ARC
  5
C75D
330
C6FE
100
AcDbEntity
  8
1
  6
Continuous
100
AcDbCircle
 10
460.4
 20
183.15
 30
0.0
 40
2.25
100
AcDbArc
 50
0.0
 51
180.0
  0
ARC
  5
C75E
330
C6FE
100
AcDbEntity
  8
1
  6
Continuous
100
AcDbCircle
 10
460.4
 20
182.3499999999999
 30
0.0
 40
2.25
100
AcDbArc
 50
180.0
 51
0.0
  0
LINE
  5
C75F
330
C6FE
100
AcDbEntity
  8
4
  6
CENTER
100
AcDbLine
 10
473.1
 20
188.0
 30
0.0
 11
473.1
 21
177.5
 31
0.0
  0
LINE
  5
C760
330
C6FE
100
AcDbEntity
  8
4
  6
CENTER
100
AcDbLine
 10
460.4
 20
189.9566529999999
 30
0.0
 11
460.4
 21
175.14061
 31
0.0
  0
LINE
  5
C761
330
C6FE
100
AcDbEntity
  8
1
  6
Continuous
100
AcDbLine
 10
462.65
 20
183.15
 30
0.0
 11
462.65
 21
182.3499999999999
 31
0.0
  0
LINE
  5
C762
330
C6FE
100
AcDbEntity
  8
1
  6
Continuous
100
AcDbLine
 10
458.15
 20
183.15
 30
0.0
 11
458.15
 21
182.3499999999999
 31
0.0
  0
LINE
  5
C763
330
C6FE
100
AcDbEntity
  8
1
  6
Continuous
100
AcDbLine
 10
25.0
 20
170.171084
 30
0.0
 11
25.0
 21
195.3289159999999
 31
0.0
  0
LINE
  5
C764
330
C6FE
100
AcDbEntity
  8
1
  6
Continuous
100
AcDbLine
 10
26.6
 20
170.171084
 30
0.0
 11
26.6
 21
175.2499999999998
 31
0.0
  0
LINE
  5
C765
330
C6FE
100
AcDbEntity
  8
1
  6
Continuous
100
AcDbLine
 10
28.3
 20
191.6375
 30
0.0
 11
28.3
 21
192.8375
 31
0.0
  0
LINE
  5
C766
330
C6FE
100
AcDbEntity
  8
1
  6
Continuous
100
AcDbLine
 10
28.3
 20
192.8375
 30
0.0
 11
30.89999999999999
 21
192.8375
 31
0.0
  0
LINE
  5
C767
330
C6FE
100
AcDbEntity
  8
1
  6
Continuous
100
AcDbLine
 10
28.3
 20
191.6375
 30
0.0
 11
30.89999999999999
 21
191.6375
 31
0.0
  0
LINE
  5
C768
330
C6FE
100
AcDbEntity
  8
1
  6
Continuous
100
AcDbLine
 10
32.1
 20
175.0625
 30
0.0
 11
32.1
 21
190.4374999999998
 31
0.0
  0
ARC
  5
C769
330
C6FE
100
AcDbEntity
  8
1
  6
Continuous
100
AcDbCircle
 10
30.89999999999999
 20
190.4374999999998
 30
0.0
 40
1.199999999999999
100
AcDbArc
 50
0.0
 51
90.0
  0
ARC
  5
C76A
330
C6FE
100
AcDbEntity
  8
1
  6
Continuous
100
AcDbCircle
 10
30.89999999999999
 20
190.4374999999998
 30
0.0
 40
2.399999999999999
100
AcDbArc
 50
0.0
 51
90.0
  0
LINE
  5
C76B
330
C6FE
100
AcDbEntity
  8
1
  6
Continuous
100
AcDbLine
 10
422.4999999999998
 20
195.0
 30
0.0
 11
586.8999999999997
 21
195.0
 31
0.0
  0
LINE
  5
C76C
330
C6FE
100
AcDbEntity
  8
1
  6
Continuous
100
AcDbLine
 10
422.4999999999998
 20
170.5
 30
0.0
 11
586.8999999999997
 21
170.5
 31
0.0
  0
LINE
  5
C76D
330
C6FE
100
AcDbEntity
  8
1
  6
Continuous
100
AcDbLine
 10
444.5
 20
195.0
 30
0.0
 11
444.5
 21
200.4
 31
0.0
  0
LINE
  5
C76E
330
C6FE
100
AcDbEntity
  8
3
  6
DASHED
100
AcDbLine
 10
444.5
 20
170.5
 30
0.0
 11
444.5
 21
175.2499999999998
 31
0.0
  0
LINE
  5
C76F
330
C6FE
100
AcDbEntity
  8
1
  6
Continuous
100
AcDbLine
 10
458.8999999999998
 20
187.7499999999998
 30
0.0
 11
461.8999999999998
 21
187.7499999999998
 31
0.0
  0
LINE
  5
C770
330
C6FE
100
AcDbEntity
  8
1
  6
Continuous
100
AcDbLine
 10
458.8999999999998
 20
177.75
 30
0.0
 11
461.8999999999998
 21
177.75
 31
0.0
  0
ARC
  5
C771
330
C6FE
100
AcDbEntity
  8
1
  6
Continuous
100
AcDbCircle
 10
461.8999999999998
 20
182.75
 30
0.0
 40
5.0
100
AcDbArc
 50
270.0
 51
90.0
  0
ARC
  5
C772
330
C6FE
100
AcDbEntity
  8
1
  6
Continuous
100
AcDbCircle
 10
458.8999999999998
 20
182.75
 30
0.0
 40
5.0
100
AcDbArc
 50
90.0
 51
270.0
  0
LINE
  5
C773
330
C6FE
100
AcDbEntity
  8
1
  6
Continuous
100
AcDbLine
 10
548.8999999999998
 20
192.8375
 30
0.0
 11
548.8999999999998
 21
172.6625
 31
0.0
  0
LINE
  5
C774
330
C6FE
100
AcDbEntity
  8
1
  6
Continuous
100
AcDbLine
 10
586.8999999999997
 20
195.0
 30
0.0
 11
586.8999999999997
 21
170.5
 31
0.0
  0
LINE
  5
C775
330
C6FE
100
AcDbEntity
  8
4
  6
CENTER
100
AcDbLine
 10
561.8999999999998
 20
189.25
 30
0.0
 11
561.8999999999998
 21
176.25
 31
0.0
  0
CIRCLE
  5
C776
330
C6FE
100
AcDbEntity
  8
1
  6
Continuous
100
AcDbCircle
 10
561.8999999999998
 20
182.75
 30
0.0
 40
3.5
  0
LINE
  5
C777
330
C6FE
100
AcDbEntity
  8
4
  6
CENTER
100
AcDbLine
 10
20.0
 20
182.75
 30
0.0
 11
49.1
 21
182.75
 31
0.0
  0
ARC
  5
C778
330
C6FE
100
AcDbEntity
  8
1
  6
Continuous
100
AcDbCircle
 10
30.0
 20
196.4187499999999
 30
0.0
 40
2.38125
100
AcDbArc
 50
204.844815
 51
343.87833
  0
ARC
  5
C779
330
C6FE
100
AcDbEntity
  8
1
  6
Continuous
100
AcDbCircle
 10
30.0
 20
196.4187499999999
 30
0.0
 40
3.98125
100
AcDbArc
 50
21.665296
 51
142.987809
  0
LINE
  5
C77A
330
C6FE
100
AcDbEntity
  8
1
  6
Continuous
100
AcDbLine
 10
33.7
 20
197.8885629999999
 30
0.0
 11
32.21302999999998
 21
197.2978689999999
 31
0.0
  0
LINE
  5
C77B
330
C6FE
100
AcDbEntity
  8
1
  6
Continuous
100
AcDbLine
 10
25.644776
 20
197.2552679999998
 30
0.0
 11
26.82094199999999
 21
198.815403
 31
0.0
  0
LINE
  5
C77C
330
C6FE
100
AcDbEntity
  8
1
  6
Continuous
100
AcDbLine
 10
26.922388
 20
196.292092
 30
0.0
 11
28.098554
 21
197.852227
 31
0.0
  0
ARC
  5
C77D
330
C6FE
100
AcDbEntity
  8
1
  6
Continuous
100
AcDbCircle
 10
28.2
 20
195.3289159999999
 30
0.0
 40
1.6
100
AcDbArc
 50
142.987809
 51
180.0
  0
ARC
  5
C77E
330
C6FE
100
AcDbEntity
  8
1
  6
Continuous
100
AcDbCircle
 10
28.2
 20
195.3289159999999
 30
0.0
 40
3.2
100
AcDbArc
 50
142.987809
 51
180.0
  0
ARC
  5
C77F
330
C6FE
100
AcDbEntity
  8
1
  6
Continuous
100
AcDbCircle
 10
30.0
 20
196.4187499999999
 30
0.0
 40
3.581249999999998
100
AcDbArc
 50
236.0503449999999
 51
309.5506789999999
  0
LINE
  5
C780
330
C6FE
100
AcDbEntity
  8
1
  6
Continuous
100
AcDbLine
 10
34.5
 20
172.322939
 30
0.0
 11
34.5
 21
193.177061
 31
0.0
  0
LINE
  5
C781
330
C6FE
100
AcDbEntity
  8
1
  6
Continuous
100
AcDbLine
 10
33.3
 20
172.322939
 30
0.0
 11
33.3
 21
193.177061
 31
0.0
  0
ARC
  5
C782
330
C6FE
100
AcDbEntity
  8
1
  6
Continuous
100
AcDbCircle
 10
32.677061
 20
193.177061
 30
0.0
 40
1.822938999999999
100
AcDbArc
 50
0.0
 51
129.550679
  0
ARC
  5
C783
330
C6FE
100
AcDbEntity
  8
1
  6
Continuous
100
AcDbCircle
 10
32.677061
 20
193.177061
 30
0.0
 40
0.6229390000000003
100
AcDbArc
 50
0.0
 51
129.550679
  0
LINE
  5
C784
330
C6FE
100
AcDbEntity
  8
1
  6
Continuous
100
AcDbLine
 10
28.0
 20
193.448001
 30
0.0
 11
28.67015699999999
 21
194.443435
 31
0.0
  0
ARC
  5
C785
330
C6FE
100
AcDbEntity
  8
1
  6
Continuous
100
AcDbCircle
 10
28.2
 20
170.171084
 30
0.0
 40
3.2
100
AcDbArc
 50
180.0
 51
217.012191
  0
ARC
  5
C786
330
C6FE
100
AcDbEntity
  8
1
  6
Continuous
100
AcDbCircle
 10
28.2
 20
170.171084
 30
0.0
 40
1.6
100
AcDbArc
 50
180.0
 51
217.012191
  0
LINE
  5
C787
330
C6FE
100
AcDbEntity
  8
1
  6
Continuous
100
AcDbLine
 10
28.3
 20
173.8625
 30
0.0
 11
28.3
 21
172.6625
 31
0.0
  0
LINE
  5
C788
330
C6FE
100
AcDbEntity
  8
1
  6
Continuous
100
AcDbLine
 10
28.3
 20
173.8625
 30
0.0
 11
30.89999999999999
 21
173.8625
 31
0.0
  0
LINE
  5
C789
330
C6FE
100
AcDbEntity
  8
1
  6
Continuous
100
AcDbLine
 10
28.3
 20
172.6625
 30
0.0
 11
30.89999999999999
 21
172.6625
 31
0.0
  0
ARC
  5
C78A
330
C6FE
100
AcDbEntity
  8
1
  6
Continuous
100
AcDbCircle
 10
30.89999999999999
 20
175.0625
 30
0.0
 40
2.399999999999999
100
AcDbArc
 50
270.0
 51
0.0
  0
ARC
  5
C78B
330
C6FE
100
AcDbEntity
  8
1
  6
Continuous
100
AcDbCircle
 10
30.89999999999999
 20
175.0625
 30
0.0
 40
1.199999999999999
100
AcDbArc
 50
270.0
 51
0.0
  0
ARC
  5
C78C
330
C6FE
100
AcDbEntity
  8
1
  6
Continuous
100
AcDbCircle
 10
30.0
 20
169.08125
 30
0.0
 40
3.581249999999998
100
AcDbArc
 50
50.449321
 51
123.949655
  0
LINE
  5
C78D
330
C6FE
100
AcDbEntity
  8
1
  6
Continuous
100
AcDbLine
 10
28.0
 20
172.0519989999999
 30
0.0
 11
28.67015699999999
 21
171.0565649999998
 31
0.0
  0
ARC
  5
C78E
330
C6FE
100
AcDbEntity
  8
1
  6
Continuous
100
AcDbCircle
 10
32.677061
 20
172.322939
 30
0.0
 40
0.6229390000000003
100
AcDbArc
 50
230.4493209999999
 51
0.0
  0
ARC
  5
C78F
330
C6FE
100
AcDbEntity
  8
1
  6
Continuous
100
AcDbCircle
 10
32.677061
 20
172.322939
 30
0.0
 40
1.822938999999999
100
AcDbArc
 50
230.4493209999999
 51
0.0
  0
ARC
  5
C790
330
C6FE
100
AcDbEntity
  8
1
  6
Continuous
100
AcDbCircle
 10
30.0
 20
169.08125
 30
0.0
 40
3.98125
100
AcDbArc
 50
217.012191
 51
338.3347039999998
  0
LINE
  5
C791
330
C6FE
100
AcDbEntity
  8
1
  6
Continuous
100
AcDbLine
 10
25.644776
 20
168.244732
 30
0.0
 11
26.82094199999999
 21
166.6845969999999
 31
0.0
  0
LINE
  5
C792
330
C6FE
100
AcDbEntity
  8
1
  6
Continuous
100
AcDbLine
 10
26.922388
 20
169.207908
 30
0.0
 11
28.098554
 21
167.647773
 31
0.0
  0
LINE
  5
C793
330
C6FE
100
AcDbEntity
  8
1
  6
Continuous
100
AcDbLine
 10
33.7
 20
167.611437
 30
0.0
 11
32.21302999999998
 21
168.202131
 31
0.0
  0
LINE
  5
C794
330
C6FE
100
AcDbEntity
  8
1
  6
Continuous
100
AcDbLine
 10
27.1
 20
190.25
 30
0.0
 11
27.1
 21
195.398548
 31
0.0
  0
LINE
  5
C795
330
C6FE
100
AcDbEntity
  8
1
  6
Continuous
100
AcDbLine
 10
27.6
 20
190.25
 30
0.0
 11
27.6
 21
195.4
 31
0.0
  0
LINE
  5
C796
330
C6FE
100
AcDbEntity
  8
1
  6
Continuous
100
AcDbLine
 10
30.1
 20
177.5
 30
0.0
 11
30.1
 21
188.0
 31
0.0
  0
ARC
  5
C797
330
C6FE
100
AcDbEntity
  8
1
  6
Continuous
100
AcDbCircle
 10
29.6
 20
188.0
 30
0.0
 40
0.5
100
AcDbArc
 50
0.0
 51
36.869898
  0
LINE
  5
C798
330
C6FE
100
AcDbEntity
  8
1
  6
Continuous
100
AcDbLine
 10
33.5
 20
195.8499999999999
 30
0.0
 11
33.5
 21
196.3499999999999
 31
0.0
  0
LINE
  5
C799
330
C6FE
100
AcDbEntity
  8
1
  6
Continuous
100
AcDbLine
 10
33.5
 20
195.8499999999999
 30
0.0
 11
27.6
 21
195.4
 31
0.0
  0
ARC
  5
C79A
330
C6FE
100
AcDbEntity
  8
1
  6
Continuous
100
AcDbCircle
 10
30.0
 20
196.4187499999999
 30
0.0
 40
2.38125
100
AcDbArc
 50
356.280872
 51
192.4422739999998
  0
LINE
  5
C79B
330
C6FE
100
AcDbEntity
  8
1
  6
Continuous
100
AcDbLine
 10
33.5
 20
169.65
 30
0.0
 11
27.6
 21
170.1
 31
0.0
  0
ARC
  5
C79C
330
C6FE
100
AcDbEntity
  8
1
  6
Continuous
100
AcDbCircle
 10
30.0
 20
169.08125
 30
0.0
 40
2.38125
100
AcDbArc
 50
167.557726
 51
3.719127999999999
  0
ARC
  5
C79D
330
C6FE
100
AcDbEntity
  8
1
  6
Continuous
100
AcDbCircle
 10
30.0
 20
169.08125
 30
0.0
 40
2.38125
100
AcDbArc
 50
16.12167
 51
155.1551849999999
  0
LINE
  5
C79E
330
C6FE
100
AcDbEntity
  8
1
  6
Continuous
100
AcDbLine
 10
27.6
 20
175.2499999999998
 30
0.0
 11
27.6
 21
170.1
 31
0.0
  0
ARC
  5
C79F
330
C6FE
100
AcDbEntity
  8
1
  6
Continuous
100
AcDbCircle
 10
29.6
 20
177.5
 30
0.0
 40
0.5
100
AcDbArc
 50
323.130102
 51
0.0
  0
LINE
  5
C7A0
330
C6FE
100
AcDbEntity
  8
1
  6
Continuous
100
AcDbLine
 10
35.6
 20
195.8499999999999
 30
0.0
 11
41.5
 21
195.4
 31
0.0
  0
ARC
  5
C7A1
330
C6FE
100
AcDbEntity
  8
1
  6
Continuous
100
AcDbCircle
 10
40.89999999999998
 20
195.3289159999999
 30
0.0
 40
3.2
100
AcDbArc
 50
0.0
 51
37.01219099999998
  0
ARC
  5
C7A2
330
C6FE
100
AcDbEntity
  8
1
  6
Continuous
100
AcDbCircle
 10
40.89999999999998
 20
195.3289159999999
 30
0.0
 40
1.6
100
AcDbArc
 50
0.0
 51
37.01219099999998
  0
LINE
  5
C7A3
330
C6FE
100
AcDbEntity
  8
1
  6
Continuous
100
AcDbLine
 10
34.6
 20
172.322939
 30
0.0
 11
34.6
 21
193.177061
 31
0.0
  0
LINE
  5
C7A4
330
C6FE
100
AcDbEntity
  8
1
  6
Continuous
100
AcDbLine
 10
42.5
 20
170.171084
 30
0.0
 11
42.5
 21
171.25
 31
0.0
  0
LINE
  5
C7A5
330
C6FE
100
AcDbEntity
  8
1
  6
Continuous
100
AcDbLine
 10
44.1
 20
170.171084
 30
0.0
 11
44.1
 21
195.3289159999999
 31
0.0
  0
LINE
  5
C7A6
330
C6FE
100
AcDbEntity
  8
1
  6
Continuous
100
AcDbLine
 10
41.5
 20
194.25
 30
0.0
 11
41.5
 21
195.4
 31
0.0
  0
LINE
  5
C7A7
330
C6FE
100
AcDbEntity
  8
1
  6
Continuous
100
AcDbLine
 10
40.56006899999998
 20
194.25
 30
0.0
 11
40.42984299999999
 21
194.443435
 31
0.0
  0
ARC
  5
C7A8
330
C6FE
100
AcDbEntity
  8
1
  6
Continuous
100
AcDbCircle
 10
36.422939
 20
193.177061
 30
0.0
 40
1.822938999999999
100
AcDbArc
 50
50.449321
 51
180.0
  0
ARC
  5
C7A9
330
C6FE
100
AcDbEntity
  8
1
  6
Continuous
100
AcDbCircle
 10
39.1
 20
196.4187499999999
 30
0.0
 40
3.98125
100
AcDbArc
 50
37.01219099999998
 51
158.3347039999999
  0
LINE
  5
C7AA
330
C6FE
100
AcDbEntity
  8
1
  6
Continuous
100
AcDbLine
 10
43.455224
 20
197.2552679999998
 30
0.0
 11
42.279058
 21
198.815403
 31
0.0
  0
LINE
  5
C7AB
330
C6FE
100
AcDbEntity
  8
1
  6
Continuous
100
AcDbLine
 10
42.17761199999999
 20
196.292092
 30
0.0
 11
41.001446
 21
197.852227
 31
0.0
  0
LINE
  5
C7AC
330
C6FE
100
AcDbEntity
  8
1
  6
Continuous
100
AcDbLine
 10
35.4
 20
197.8885629999999
 30
0.0
 11
36.88696999999999
 21
197.2978689999999
 31
0.0
  0
LINE
  5
C7AD
330
C6FE
100
AcDbEntity
  8
1
  6
Continuous
100
AcDbLine
 10
41.5
 20
171.25
 30
0.0
 11
41.5
 21
170.1
 31
0.0
  0
ARC
  5
C7AE
330
C6FE
100
AcDbEntity
  8
1
  6
Continuous
100
AcDbCircle
 10
39.1
 20
169.08125
 30
0.0
 40
3.98125
100
AcDbArc
 50
201.6652959999999
 51
322.9878089999999
  0
ARC
  5
C7AF
330
C6FE
100
AcDbEntity
  8
1
  6
Continuous
100
AcDbCircle
 10
40.89999999999998
 20
170.171084
 30
0.0
 40
1.6
100
AcDbArc
 50
322.9878089999999
 51
0.0
  0
LINE
  5
C7B0
330
C6FE
100
AcDbEntity
  8
1
  6
Continuous
100
AcDbLine
 10
43.455224
 20
168.244732
 30
0.0
 11
42.279058
 21
166.6845969999999
 31
0.0
  0
ARC
  5
C7B1
330
C6FE
100
AcDbEntity
  8
1
  6
Continuous
100
AcDbCircle
 10
40.89999999999998
 20
170.171084
 30
0.0
 40
3.2
100
AcDbArc
 50
322.9878089999999
 51
0.0
  0
ARC
  5
C7B2
330
C6FE
100
AcDbEntity
  8
1
  6
Continuous
100
AcDbCircle
 10
39.1
 20
169.08125
 30
0.0
 40
2.38125
100
AcDbArc
 50
24.844815
 51
65.61074999999999
  0
ARC
  5
C7B3
330
C6FE
100
AcDbEntity
  8
1
  6
Continuous
100
AcDbCircle
 10
39.1
 20
169.08125
 30
0.0
 40
2.38125
100
AcDbArc
 50
176.2808719999999
 51
12.44227399999999
  0
LINE
  5
C7B4
330
C6FE
100
AcDbEntity
  8
1
  6
Continuous
100
AcDbLine
 10
35.6
 20
169.65
 30
0.0
 11
41.5
 21
170.1
 31
0.0
  0
LINE
  5
C7B5
330
C6FE
100
AcDbEntity
  8
1
  6
Continuous
100
AcDbLine
 10
35.4
 20
167.611437
 30
0.0
 11
36.88696999999999
 21
168.202131
 31
0.0
  0
LINE
  5
C7B6
330
C6FE
100
AcDbEntity
  8
1
  6
Continuous
100
AcDbLine
 10
42.17761199999999
 20
169.207908
 30
0.0
 11
41.001446
 21
167.647773
 31
0.0
  0
ARC
  5
C7B7
330
C6FE
100
AcDbEntity
  8
1
  6
Continuous
100
AcDbCircle
 10
36.422939
 20
172.322939
 30
0.0
 40
1.822938999999999
100
AcDbArc
 50
180.0
 51
309.5506789999999
  0
LINE
  5
C7B8
330
C6FE
100
AcDbEntity
  8
1
  6
Continuous
100
AcDbLine
 10
40.56006899999998
 20
171.25
 30
0.0
 11
40.42984299999999
 21
171.0565649999998
 31
0.0
  0
LINE
  5
C7B9
330
C6FE
100
AcDbEntity
  8
1
  6
Continuous
100
AcDbLine
 10
25.0
 20
190.25
 30
0.0
 11
30.0
 21
190.25
 31
0.0
  0
LINE
  5
C7BA
330
C6FE
100
AcDbEntity
  8
1
  6
Continuous
100
AcDbLine
 10
25.0
 20
175.2499999999998
 30
0.0
 11
30.0
 21
175.2499999999998
 31
0.0
  0
LINE
  5
C7BB
330
C6FE
100
AcDbEntity
  8
1
  6
Continuous
100
AcDbLine
 10
30.0
 20
175.2499999999998
 30
0.0
 11
30.0
 21
190.25
 31
0.0
  0
LINE
  5
C7BC
330
C6FE
100
AcDbEntity
  8
1
  6
Continuous
100
AcDbLine
 10
26.6
 20
190.25
 30
0.0
 11
26.6
 21
195.3289159999999
 31
0.0
  0
LINE
  5
C7BD
330
C6FE
100
AcDbEntity
  8
1
  6
Continuous
100
AcDbLine
 10
35.6
 20
172.75
 30
0.0
 11
35.6
 21
192.75
 31
0.0
  0
LINE
  5
C7BE
330
C6FE
100
AcDbEntity
  8
1
  6
Continuous
100
AcDbLine
 10
37.1
 20
194.25
 30
0.0
 11
44.1
 21
194.25
 31
0.0
  0
LINE
  5
C7BF
330
C6FE
100
AcDbEntity
  8
1
  6
Continuous
100
AcDbLine
 10
37.1
 20
171.25
 30
0.0
 11
44.1
 21
171.25
 31
0.0
  0
LINE
  5
C7C0
330
C6FE
100
AcDbEntity
  8
1
  6
Continuous
100
AcDbLine
 10
42.5
 20
194.25
 30
0.0
 11
42.5
 21
195.3289159999999
 31
0.0
  0
ARC
  5
C7C1
330
C6FE
100
AcDbEntity
  8
1
  6
Continuous
100
AcDbCircle
 10
37.1
 20
192.75
 30
0.0
 40
1.5
100
AcDbArc
 50
90.0
 51
180.0
  0
ARC
  5
C7C2
330
C6FE
100
AcDbEntity
  8
1
  6
Continuous
100
AcDbCircle
 10
37.1
 20
172.75
 30
0.0
 40
1.5
100
AcDbArc
 50
180.0
 51
270.0
  0
ARC
  5
C7C3
330
C6FE
100
AcDbEntity
  8
1
  6
Continuous
100
AcDbCircle
 10
39.1
 20
169.08125
 30
0.0
 40
2.38125
100
AcDbArc
 50
114.3892499999999
 51
163.87833
  0
LINE
  5
C7C4
330
C6FE
100
AcDbEntity
  8
1
  6
Continuous
100
AcDbLine
 10
446.1
 20
197.8885629999999
 30
0.0
 11
747.9
 21
197.8885629999999
 31
0.0
  0
LINE
  5
C7C5
330
C6FE
100
AcDbEntity
  8
1
  6
Continuous
100
AcDbLine
 10
446.1
 20
197.2978689999999
 30
0.0
 11
747.9
 21
197.2978689999999
 31
0.0
  0
LINE
  5
C7C6
330
C6FE
100
AcDbEntity
  8
1
  6
Continuous
100
AcDbLine
 10
747.9
 20
194.25
 30
0.0
 11
749.5
 21
194.25
 31
0.0
  0
LINE
  5
C7C7
330
C6FE
100
AcDbEntity
  8
1
  6
Continuous
100
AcDbLine
 10
747.9
 20
171.25
 30
0.0
 11
749.5
 21
171.25
 31
0.0
  0
LINE
  5
C7C8
330
C6FE
100
AcDbEntity
  8
1
  6
Continuous
100
AcDbLine
 10
747.9
 20
171.25
 30
0.0
 11
747.9
 21
194.25
 31
0.0
  0
ARC
  5
C7C9
330
C6FE
100
AcDbEntity
  8
1
  6
Continuous
100
AcDbCircle
 10
747.9
 20
199.4885629999999
 30
0.0
 40
1.6
100
AcDbArc
 50
270.0
 51
0.0
  0
ARC
  5
C7CA
330
C6FE
100
AcDbEntity
  8
1
  6
Continuous
100
AcDbCircle
 10
747.9
 20
198.8978689999999
 30
0.0
 40
1.6
100
AcDbArc
 50
270.0
 51
0.0
  0
ARC
  5
C7CB
330
C6FE
100
AcDbEntity
  8
1
  6
Continuous
100
AcDbCircle
 10
446.1
 20
199.4885629999999
 30
0.0
 40
1.6
100
AcDbArc
 50
180.0
 51
270.0
  0
ARC
  5
C7CC
330
C6FE
100
AcDbEntity
  8
1
  6
Continuous
100
AcDbCircle
 10
446.1
 20
198.8978689999999
 30
0.0
 40
1.6
100
AcDbArc
 50
180.0
 51
270.0
  0
ARC
  5
C7CD
330
C6FE
100
AcDbEntity
  8
1
  6
Continuous
100
AcDbCircle
 10
747.9
 20
166.602131
 30
0.0
 40
1.6
100
AcDbArc
 50
0.0
 51
90.0
  0
ARC
  5
C7CE
330
C6FE
100
AcDbEntity
  8
1
  6
Continuous
100
AcDbCircle
 10
747.9
 20
166.011437
 30
0.0
 40
1.6
100
AcDbArc
 50
0.0
 51
90.0
  0
LINE
  5
C7CF
330
C6FE
100
AcDbEntity
  8
1
  6
Continuous
100
AcDbLine
 10
446.1
 20
168.202131
 30
0.0
 11
747.9
 21
168.202131
 31
0.0
  0
LINE
  5
C7D0
330
C6FE
100
AcDbEntity
  8
1
  6
Continuous
100
AcDbLine
 10
446.1
 20
167.611437
 30
0.0
 11
747.9
 21
167.611437
 31
0.0
  0
ARC
  5
C7D1
330
C6FE
100
AcDbEntity
  8
1
  6
Continuous
100
AcDbCircle
 10
446.1
 20
166.602131
 30
0.0
 40
1.6
100
AcDbArc
 50
90.0
 51
180.0
  0
ARC
  5
C7D2
330
C6FE
100
AcDbEntity
  8
1
  6
Continuous
100
AcDbCircle
 10
446.1
 20
166.011437
 30
0.0
 40
1.6
100
AcDbArc
 50
90.0
 51
180.0
  0
LINE
  5
C7D3
330
C6FE
100
AcDbEntity
  8
1
  6
Continuous
100
AcDbLine
 10
448.5
 20
195.8499999999999
 30
0.0
 11
459.0
 21
195.8499999999999
 31
0.0
  0
ARC
  5
C7D4
330
C6FE
100
AcDbEntity
  8
1
  6
Continuous
100
AcDbCircle
 10
453.75
 20
196.4187499999999
 30
0.0
 40
2.38125
100
AcDbArc
 50
158.3347039999999
 51
181.6544389999999
  0
ARC
  5
C7D5
330
C6FE
100
AcDbEntity
  8
1
  6
Continuous
100
AcDbCircle
 10
453.75
 20
196.4187499999999
 30
0.0
 40
2.38125
100
AcDbArc
 50
193.81839
 51
216.5697209999999
  0
LINE
  5
C7D6
330
C6FE
100
AcDbEntity
  8
1
  6
Continuous
100
AcDbLine
 10
448.5
 20
196.3499999999999
 30
0.0
 11
448.5
 21
195.0
 31
0.0
  0
ARC
  5
C7D7
330
C6FE
100
AcDbEntity
  8
1
  6
Continuous
100
AcDbCircle
 10
453.75
 20
196.4187499999999
 30
0.0
 40
2.38125
100
AcDbArc
 50
323.430279
 51
346.18161
  0
ARC
  5
C7D8
330
C6FE
100
AcDbEntity
  8
1
  6
Continuous
100
AcDbCircle
 10
453.75
 20
196.4187499999999
 30
0.0
 40
2.38125
100
AcDbArc
 50
358.3455609999999
 51
21.665296
  0
LINE
  5
C7D9
330
C6FE
100
AcDbEntity
  8
1
  6
Continuous
100
AcDbLine
 10
459.0
 20
196.3499999999999
 30
0.0
 11
459.0
 21
195.0
 31
0.0
  0
LINE
  5
C7DA
330
C6FE
100
AcDbEntity
  8
1
  6
Continuous
100
AcDbLine
 10
422.4999999999998
 20
192.8375
 30
0.0
 11
586.8999999999997
 21
192.8375
 31
0.0
  0
LINE
  5
C7DB
330
C6FE
100
AcDbEntity
  8
1
  6
Continuous
100
AcDbLine
 10
422.4999999999998
 20
191.6375
 30
0.0
 11
548.8999999999998
 21
191.6375
 31
0.0
  0
LINE
  5
C7DC
330
C6FE
100
AcDbEntity
  8
1
  6
Continuous
100
AcDbLine
 10
422.4999999999998
 20
172.6625
 30
0.0
 11
586.8999999999997
 21
172.6625
 31
0.0
  0
LINE
  5
C7DD
330
C6FE
100
AcDbEntity
  8
1
  6
Continuous
100
AcDbLine
 10
422.4999999999998
 20
173.8625
 30
0.0
 11
548.8999999999998
 21
173.8625
 31
0.0
  0
LINE
  5
C7DE
330
C6FE
100
AcDbEntity
  8
1
  6
Continuous
100
AcDbLine
 10
420.0
 20
190.25
 30
0.0
 11
422.4999999999998
 21
190.25
 31
0.0
  0
LINE
  5
C7DF
330
C6FE
100
AcDbEntity
  8
1
  6
Continuous
100
AcDbLine
 10
420.0
 20
175.2499999999998
 30
0.0
 11
422.4999999999998
 21
175.2499999999998
 31
0.0
  0
LINE
  5
C7E0
330
C6FE
100
AcDbEntity
  8
1
  6
Continuous
100
AcDbLine
 10
420.0
 20
175.2499999999998
 30
0.0
 11
420.0
 21
190.25
 31
0.0
  0
LINE
  5
C7E1
330
C6FE
100
AcDbEntity
  8
1
  6
Continuous
100
AcDbLine
 10
422.4999999999998
 20
190.25
 30
0.0
 11
422.4999999999998
 21
200.4
 31
0.0
  0
LINE
  5
C7E2
330
C6FE
100
AcDbEntity
  8
3
  6
DASHED
100
AcDbLine
 10
447.0
 20
190.25
 30
0.0
 11
444.5
 21
190.25
 31
0.0
  0
LINE
  5
C7E3
330
C6FE
100
AcDbEntity
  8
3
  6
DASHED
100
AcDbLine
 10
447.0
 20
175.2499999999998
 30
0.0
 11
447.0
 21
190.25
 31
0.0
  0
LINE
  5
C7E4
330
C6FE
100
AcDbEntity
  8
3
  6
DASHED
100
AcDbLine
 10
447.0
 20
175.2499999999998
 30
0.0
 11
444.5
 21
175.2499999999998
 31
0.0
  0
LINE
  5
C7E5
330
C6FE
100
AcDbEntity
  8
3
  6
DASHED
100
AcDbLine
 10
444.5
 20
190.25
 30
0.0
 11
444.5
 21
195.0
 31
0.0
  0
LINE
  5
C7E6
330
C6FE
100
AcDbEntity
  8
3
  6
DASHED
100
AcDbLine
 10
583.8999999999997
 20
195.0
 30
0.0
 11
583.8999999999997
 21
170.5
 31
0.0
  0
LINE
  5
C7E7
330
C6FE
100
AcDbEntity
  8
3
  6
DASHED
100
AcDbLine
 10
280.1
 20
195.0
 30
0.0
 11
280.1
 21
170.5
 31
0.0
  0
LINE
  5
C7E8
330
C6FE
100
AcDbEntity
  8
3
  6
DASHED
100
AcDbLine
 10
283.1
 20
195.0
 30
0.0
 11
283.1
 21
170.5
 31
0.0
  0
LINE
  5
C7E9
330
C6FE
100
AcDbEntity
  8
3
  6
DASHED
100
AcDbLine
 10
280.1
 20
195.0
 30
0.0
 11
422.4999999999998
 21
195.0
 31
0.0
  0
LINE
  5
C7EA
330
C6FE
100
AcDbEntity
  8
3
  6
DASHED
100
AcDbLine
 10
280.1
 20
170.5
 30
0.0
 11
422.4999999999998
 21
170.5
 31
0.0
  0
LINE
  5
C7EB
330
C6FE
100
AcDbEntity
  8
1
  6
Continuous
100
AcDbLine
 10
33.5
 20
196.3499999999999
 30
0.0
 11
27.561975
 21
195.8971
 31
0.0
  0
ARC
  5
C7EC
330
C6FE
100
AcDbEntity
  8
1
  6
Continuous
100
AcDbCircle
 10
27.6
 20
195.398548
 30
0.0
 40
0.5
100
AcDbArc
 50
94.36157300000001
 51
180.0
  0
LINE
  5
C7ED
330
C6FE
100
AcDbEntity
  8
1
  6
Continuous
100
AcDbLine
 10
35.6
 20
196.3499999999999
 30
0.0
 11
41.538025
 21
195.8971
 31
0.0
  0
LINE
  5
C7EE
330
C6FE
100
AcDbEntity
  8
1
  6
Continuous
100
AcDbLine
 10
35.6
 20
195.8499999999999
 30
0.0
 11
35.6
 21
196.3499999999999
 31
0.0
  0
ARC
  5
C7EF
330
C6FE
100
AcDbEntity
  8
1
  6
Continuous
100
AcDbCircle
 10
41.5
 20
195.398548
 30
0.0
 40
0.5
100
AcDbArc
 50
0.0
 51
85.63842699999998
  0
LINE
  5
C7F0
330
C6FE
100
AcDbEntity
  8
1
  6
Continuous
100
AcDbLine
 10
42.0
 20
194.25
 30
0.0
 11
42.0
 21
195.398548
 31
0.0
  0
ARC
  5
C7F1
330
C6FE
100
AcDbEntity
  8
1
  6
Continuous
100
AcDbCircle
 10
39.1
 20
196.4187499999999
 30
0.0
 40
2.38125
100
AcDbArc
 50
347.557726
 51
183.719128
  0
ARC
  5
C7F2
330
C6FE
100
AcDbEntity
  8
1
  6
Continuous
100
AcDbCircle
 10
39.1
 20
196.4187499999999
 30
0.0
 40
2.38125
100
AcDbArc
 50
196.12167
 51
245.6107499999998
  0
ARC
  5
C7F3
330
C6FE
100
AcDbEntity
  8
1
  6
Continuous
100
AcDbCircle
 10
39.1
 20
196.4187499999999
 30
0.0
 40
2.38125
100
AcDbArc
 50
294.38925
 51
335.155185
  0
LINE
  5
C7F4
330
C6FE
100
AcDbEntity
  8
1
  6
Continuous
100
AcDbLine
 10
42.0
 20
171.25
 30
0.0
 11
42.0
 21
170.101452
 31
0.0
  0
ARC
  5
C7F5
330
C6FE
100
AcDbEntity
  8
1
  6
Continuous
100
AcDbCircle
 10
41.5
 20
170.101452
 30
0.0
 40
0.5
100
AcDbArc
 50
274.361573
 51
0.0
  0
LINE
  5
C7F6
330
C6FE
100
AcDbEntity
  8
1
  6
Continuous
100
AcDbLine
 10
35.6
 20
169.15
 30
0.0
 11
41.538025
 21
169.6029
 31
0.0
  0
LINE
  5
C7F7
330
C6FE
100
AcDbEntity
  8
1
  6
Continuous
100
AcDbLine
 10
35.6
 20
169.65
 30
0.0
 11
35.6
 21
169.15
 31
0.0
  0
LINE
  5
C7F8
330
C6FE
100
AcDbEntity
  8
1
  6
Continuous
100
AcDbLine
 10
33.5
 20
169.65
 30
0.0
 11
33.5
 21
169.15
 31
0.0
  0
LINE
  5
C7F9
330
C6FE
100
AcDbEntity
  8
1
  6
Continuous
100
AcDbLine
 10
33.5
 20
169.15
 30
0.0
 11
27.561975
 21
169.6029
 31
0.0
  0
ARC
  5
C7FA
330
C6FE
100
AcDbEntity
  8
1
  6
Continuous
100
AcDbCircle
 10
27.6
 20
170.101452
 30
0.0
 40
0.5
100
AcDbArc
 50
180.0
 51
265.6384269999999
  0
LINE
  5
C7FB
330
C6FE
100
AcDbEntity
  8
1
  6
Continuous
100
AcDbLine
 10
27.1
 20
175.2499999999998
 30
0.0
 11
27.1
 21
170.101452
 31
0.0
  0
LINE
  5
C7FC
330
C6FE
100
AcDbEntity
  8
1
  6
Continuous
100
AcDbLine
 10
448.5
 20
196.3499999999999
 30
0.0
 11
459.0
 21
196.3499999999999
 31
0.0
  0
LINE
  5
C7FD
330
C6FE
100
AcDbEntity
  8
1
  6
Continuous
100
AcDbLine
 10
471.4999999999998
 20
196.3499999999999
 30
0.0
 11
471.4999999999998
 21
195.0
 31
0.0
  0
LINE
  5
C7FE
330
C6FE
100
AcDbEntity
  8
1
  6
Continuous
100
AcDbLine
 10
461.0
 20
196.3499999999999
 30
0.0
 11
461.0
 21
195.0
 31
0.0
  0
ARC
  5
C7FF
330
C6FE
100
AcDbEntity
  8
1
  6
Continuous
100
AcDbCircle
 10
466.25
 20
196.4187499999999
 30
0.0
 40
2.38125
100
AcDbArc
 50
323.430279
 51
346.18161
  0
ARC
  5
C800
330
C6FE
100
AcDbEntity
  8
1
  6
Continuous
100
AcDbCircle
 10
466.25
 20
196.4187499999999
 30
0.0
 40
2.38125
100
AcDbArc
 50
193.81839
 51
216.5697209999999
  0
LINE
  5
C801
330
C6FE
100
AcDbEntity
  8
1
  6
Continuous
100
AcDbLine
 10
461.0
 20
196.3499999999999
 30
0.0
 11
471.4999999999998
 21
196.3499999999999
 31
0.0
  0
LINE
  5
C802
330
C6FE
100
AcDbEntity
  8
1
  6
Continuous
100
AcDbLine
 10
461.0
 20
195.8499999999999
 30
0.0
 11
471.4999999999998
 21
195.8499999999999
 31
0.0
  0
ARC
  5
C803
330
C6FE
100
AcDbEntity
  8
1
  6
Continuous
100
AcDbCircle
 10
466.25
 20
196.4187499999999
 30
0.0
 40
2.38125
100
AcDbArc
 50
158.3347039999999
 51
181.6544389999999
  0
ARC
  5
C804
330
C6FE
100
AcDbEntity
  8
1
  6
Continuous
100
AcDbCircle
 10
466.25
 20
196.4187499999999
 30
0.0
 40
2.38125
100
AcDbArc
 50
358.3455609999999
 51
21.665296
  0
ARC
  5
C805
330
C6FE
100
AcDbEntity
  8
1
  6
Continuous
100
AcDbCircle
 10
478.75
 20
196.4187499999999
 30
0.0
 40
2.38125
100
AcDbArc
 50
193.81839
 51
216.5697209999999
  0
ARC
  5
C806
330
C6FE
100
AcDbEntity
  8
1
  6
Continuous
100
AcDbCircle
 10
478.75
 20
196.4187499999999
 30
0.0
 40
2.38125
100
AcDbArc
 50
323.430279
 51
346.18161
  0
LINE
  5
C807
330
C6FE
100
AcDbEntity
  8
1
  6
Continuous
100
AcDbLine
 10
473.5
 20
196.3499999999999
 30
0.0
 11
473.5
 21
195.0
 31
0.0
  0
LINE
  5
C808
330
C6FE
100
AcDbEntity
  8
1
  6
Continuous
100
AcDbLine
 10
484.0
 20
196.3499999999999
 30
0.0
 11
484.0
 21
195.0
 31
0.0
  0
LINE
  5
C809
330
C6FE
100
AcDbEntity
  8
1
  6
Continuous
100
AcDbLine
 10
473.5
 20
195.8499999999999
 30
0.0
 11
484.0
 21
195.8499999999999
 31
0.0
  0
LINE
  5
C80A
330
C6FE
100
AcDbEntity
  8
1
  6
Continuous
100
AcDbLine
 10
473.5
 20
196.3499999999999
 30
0.0
 11
484.0
 21
196.3499999999999
 31
0.0
  0
ARC
  5
C80B
330
C6FE
100
AcDbEntity
  8
1
  6
Continuous
100
AcDbCircle
 10
478.75
 20
196.4187499999999
 30
0.0
 40
2.38125
100
AcDbArc
 50
358.3455609999999
 51
21.665296
  0
ARC
  5
C80C
330
C6FE
100
AcDbEntity
  8
1
  6
Continuous
100
AcDbCircle
 10
478.75
 20
196.4187499999999
 30
0.0
 40
2.38125
100
AcDbArc
 50
158.3347039999999
 51
181.6544389999999
  0
LINE
  5
C80D
330
C6FE
100
AcDbEntity
  8
1
  6
Continuous
100
AcDbLine
 10
496.4999999999998
 20
196.3499999999999
 30
0.0
 11
496.4999999999998
 21
195.0
 31
0.0
  0
LINE
  5
C80E
330
C6FE
100
AcDbEntity
  8
1
  6
Continuous
100
AcDbLine
 10
486.0
 20
196.3499999999999
 30
0.0
 11
486.0
 21
195.0
 31
0.0
  0
ARC
  5
C80F
330
C6FE
100
AcDbEntity
  8
1
  6
Continuous
100
AcDbCircle
 10
491.25
 20
196.4187499999999
 30
0.0
 40
2.38125
100
AcDbArc
 50
323.430279
 51
346.18161
  0
ARC
  5
C810
330
C6FE
100
AcDbEntity
  8
1
  6
Continuous
100
AcDbCircle
 10
491.25
 20
196.4187499999999
 30
0.0
 40
2.38125
100
AcDbArc
 50
193.81839
 51
216.5697209999999
  0
ARC
  5
C811
330
C6FE
100
AcDbEntity
  8
1
  6
Continuous
100
AcDbCircle
 10
491.25
 20
196.4187499999999
 30
0.0
 40
2.38125
100
AcDbArc
 50
158.3347039999999
 51
181.6544389999999
  0
ARC
  5
C812
330
C6FE
100
AcDbEntity
  8
1
  6
Continuous
100
AcDbCircle
 10
491.25
 20
196.4187499999999
 30
0.0
 40
2.38125
100
AcDbArc
 50
358.3455609999999
 51
21.665296
  0
LINE
  5
C813
330
C6FE
100
AcDbEntity
  8
1
  6
Continuous
100
AcDbLine
 10
486.0
 20
196.3499999999999
 30
0.0
 11
496.4999999999998
 21
196.3499999999999
 31
0.0
  0
LINE
  5
C814
330
C6FE
100
AcDbEntity
  8
1
  6
Continuous
100
AcDbLine
 10
486.0
 20
195.8499999999999
 30
0.0
 11
496.4999999999998
 21
195.8499999999999
 31
0.0
  0
ARC
  5
C815
330
C6FE
100
AcDbEntity
  8
1
  6
Continuous
100
AcDbCircle
 10
503.75
 20
196.4187499999999
 30
0.0
 40
2.38125
100
AcDbArc
 50
193.81839
 51
216.5697209999999
  0
ARC
  5
C816
330
C6FE
100
AcDbEntity
  8
1
  6
Continuous
100
AcDbCircle
 10
503.75
 20
196.4187499999999
 30
0.0
 40
2.38125
100
AcDbArc
 50
323.430279
 51
346.18161
  0
LINE
  5
C817
330
C6FE
100
AcDbEntity
  8
1
  6
Continuous
100
AcDbLine
 10
498.5
 20
196.3499999999999
 30
0.0
 11
498.5
 21
195.0
 31
0.0
  0
LINE
  5
C818
330
C6FE
100
AcDbEntity
  8
1
  6
Continuous
100
AcDbLine
 10
509.0
 20
196.3499999999999
 30
0.0
 11
509.0
 21
195.0
 31
0.0
  0
LINE
  5
C819
330
C6FE
100
AcDbEntity
  8
1
  6
Continuous
100
AcDbLine
 10
498.5
 20
195.8499999999999
 30
0.0
 11
509.0
 21
195.8499999999999
 31
0.0
  0
LINE
  5
C81A
330
C6FE
100
AcDbEntity
  8
1
  6
Continuous
100
AcDbLine
 10
498.5
 20
196.3499999999999
 30
0.0
 11
509.0
 21
196.3499999999999
 31
0.0
  0
ARC
  5
C81B
330
C6FE
100
AcDbEntity
  8
1
  6
Continuous
100
AcDbCircle
 10
503.75
 20
196.4187499999999
 30
0.0
 40
2.38125
100
AcDbArc
 50
358.3455609999999
 51
21.665296
  0
ARC
  5
C81C
330
C6FE
100
AcDbEntity
  8
1
  6
Continuous
100
AcDbCircle
 10
503.75
 20
196.4187499999999
 30
0.0
 40
2.38125
100
AcDbArc
 50
158.3347039999999
 51
181.6544389999999
  0
LINE
  5
C81D
330
C6FE
100
AcDbEntity
  8
1
  6
Continuous
100
AcDbLine
 10
511.0
 20
196.3499999999999
 30
0.0
 11
521.4999999999998
 21
196.3499999999999
 31
0.0
  0
LINE
  5
C81E
330
C6FE
100
AcDbEntity
  8
1
  6
Continuous
100
AcDbLine
 10
511.0
 20
195.8499999999999
 30
0.0
 11
521.4999999999998
 21
195.8499999999999
 31
0.0
  0
LINE
  5
C81F
330
C6FE
100
AcDbEntity
  8
1
  6
Continuous
100
AcDbLine
 10
511.0
 20
196.3499999999999
 30
0.0
 11
511.0
 21
195.0
 31
0.0
  0
ARC
  5
C820
330
C6FE
100
AcDbEntity
  8
1
  6
Continuous
100
AcDbCircle
 10
516.25
 20
196.4187499999999
 30
0.0
 40
2.38125
100
AcDbArc
 50
193.81839
 51
216.5697209999999
  0
ARC
  5
C821
330
C6FE
100
AcDbEntity
  8
1
  6
Continuous
100
AcDbCircle
 10
516.25
 20
196.4187499999999
 30
0.0
 40
2.38125
100
AcDbArc
 50
158.3347039999999
 51
181.6544389999999
  0
LINE
  5
C822
330
C6FE
100
AcDbEntity
  8
1
  6
Continuous
100
AcDbLine
 10
521.4999999999998
 20
196.3499999999999
 30
0.0
 11
521.4999999999998
 21
195.0
 31
0.0
  0
ARC
  5
C823
330
C6FE
100
AcDbEntity
  8
1
  6
Continuous
100
AcDbCircle
 10
516.25
 20
196.4187499999999
 30
0.0
 40
2.38125
100
AcDbArc
 50
323.430279
 51
346.18161
  0
ARC
  5
C824
330
C6FE
100
AcDbEntity
  8
1
  6
Continuous
100
AcDbCircle
 10
516.25
 20
196.4187499999999
 30
0.0
 40
2.38125
100
AcDbArc
 50
358.3455609999999
 51
21.665296
  0
ARC
  5
C825
330
C6FE
100
AcDbEntity
  8
1
  6
Continuous
100
AcDbCircle
 10
528.75
 20
196.4187499999999
 30
0.0
 40
2.38125
100
AcDbArc
 50
323.430279
 51
346.18161
  0
LINE
  5
C826
330
C6FE
100
AcDbEntity
  8
1
  6
Continuous
100
AcDbLine
 10
534.0
 20
196.3499999999999
 30
0.0
 11
534.0
 21
195.0
 31
0.0
  0
ARC
  5
C827
330
C6FE
100
AcDbEntity
  8
1
  6
Continuous
100
AcDbCircle
 10
528.75
 20
196.4187499999999
 30
0.0
 40
2.38125
100
AcDbArc
 50
193.81839
 51
216.5697209999999
  0
LINE
  5
C828
330
C6FE
100
AcDbEntity
  8
1
  6
Continuous
100
AcDbLine
 10
523.5
 20
196.3499999999999
 30
0.0
 11
523.5
 21
195.0
 31
0.0
  0
LINE
  5
C829
330
C6FE
100
AcDbEntity
  8
1
  6
Continuous
100
AcDbLine
 10
523.5
 20
195.8499999999999
 30
0.0
 11
534.0
 21
195.8499999999999
 31
0.0
  0
LINE
  5
C82A
330
C6FE
100
AcDbEntity
  8
1
  6
Continuous
100
AcDbLine
 10
523.5
 20
196.3499999999999
 30
0.0
 11
534.0
 21
196.3499999999999
 31
0.0
  0
ARC
  5
C82B
330
C6FE
100
AcDbEntity
  8
1
  6
Continuous
100
AcDbCircle
 10
528.75
 20
196.4187499999999
 30
0.0
 40
2.38125
100
AcDbArc
 50
358.3455609999999
 51
21.665296
  0
ARC
  5
C82C
330
C6FE
100
AcDbEntity
  8
1
  6
Continuous
100
AcDbCircle
 10
528.75
 20
196.4187499999999
 30
0.0
 40
2.38125
100
AcDbArc
 50
158.3347039999999
 51
181.6544389999999
  0
LINE
  5
C82D
330
C6FE
100
AcDbEntity
  8
1
  6
Continuous
100
AcDbLine
 10
536.0
 20
196.3499999999999
 30
0.0
 11
536.0
 21
195.0
 31
0.0
  0
ARC
  5
C82E
330
C6FE
100
AcDbEntity
  8
1
  6
Continuous
100
AcDbCircle
 10
541.25
 20
196.4187499999999
 30
0.0
 40
2.38125
100
AcDbArc
 50
193.81839
 51
216.5697209999999
  0
LINE
  5
C82F
330
C6FE
100
AcDbEntity
  8
1
  6
Continuous
100
AcDbLine
 10
546.4999999999998
 20
196.3499999999999
 30
0.0
 11
546.4999999999998
 21
195.0
 31
0.0
  0
ARC
  5
C830
330
C6FE
100
AcDbEntity
  8
1
  6
Continuous
100
AcDbCircle
 10
541.25
 20
196.4187499999999
 30
0.0
 40
2.38125
100
AcDbArc
 50
323.430279
 51
346.18161
  0
ARC
  5
C831
330
C6FE
100
AcDbEntity
  8
1
  6
Continuous
100
AcDbCircle
 10
541.25
 20
196.4187499999999
 30
0.0
 40
2.38125
100
AcDbArc
 50
158.3347039999999
 51
181.6544389999999
  0
ARC
  5
C832
330
C6FE
100
AcDbEntity
  8
1
  6
Continuous
100
AcDbCircle
 10
541.25
 20
196.4187499999999
 30
0.0
 40
2.38125
100
AcDbArc
 50
358.3455609999999
 51
21.665296
  0
LINE
  5
C833
330
C6FE
100
AcDbEntity
  8
1
  6
Continuous
100
AcDbLine
 10
536.0
 20
196.3499999999999
 30
0.0
 11
546.4999999999998
 21
196.3499999999999
 31
0.0
  0
LINE
  5
C834
330
C6FE
100
AcDbEntity
  8
1
  6
Continuous
100
AcDbLine
 10
536.0
 20
195.8499999999999
 30
0.0
 11
546.4999999999998
 21
195.8499999999999
 31
0.0
  0
ARC
  5
C835
330
C6FE
100
AcDbEntity
  8
1
  6
Continuous
100
AcDbCircle
 10
553.75
 20
196.4187499999999
 30
0.0
 40
2.38125
100
AcDbArc
 50
323.430279
 51
346.18161
  0
LINE
  5
C836
330
C6FE
100
AcDbEntity
  8
1
  6
Continuous
100
AcDbLine
 10
559.0
 20
196.3499999999999
 30
0.0
 11
559.0
 21
195.0
 31
0.0
  0
ARC
  5
C837
330
C6FE
100
AcDbEntity
  8
1
  6
Continuous
100
AcDbCircle
 10
553.75
 20
196.4187499999999
 30
0.0
 40
2.38125
100
AcDbArc
 50
193.81839
 51
216.5697209999999
  0
LINE
  5
C838
330
C6FE
100
AcDbEntity
  8
1
  6
Continuous
100
AcDbLine
 10
548.5
 20
196.3499999999999
 30
0.0
 11
548.5
 21
195.0
 31
0.0
  0
LINE
  5
C839
330
C6FE
100
AcDbEntity
  8
1
  6
Continuous
100
AcDbLine
 10
548.5
 20
195.8499999999999
 30
0.0
 11
559.0
 21
195.8499999999999
 31
0.0
  0
LINE
  5
C83A
330
C6FE
100
AcDbEntity
  8
1
  6
Continuous
100
AcDbLine
 10
548.5
 20
196.3499999999999
 30
0.0
 11
559.0
 21
196.3499999999999
 31
0.0
  0
ARC
  5
C83B
330
C6FE
100
AcDbEntity
  8
1
  6
Continuous
100
AcDbCircle
 10
553.75
 20
196.4187499999999
 30
0.0
 40
2.38125
100
AcDbArc
 50
358.3455609999999
 51
21.665296
  0
ARC
  5
C83C
330
C6FE
100
AcDbEntity
  8
1
  6
Continuous
100
AcDbCircle
 10
553.75
 20
196.4187499999999
 30
0.0
 40
2.38125
100
AcDbArc
 50
158.3347039999999
 51
181.6544389999999
  0
LINE
  5
C83D
330
C6FE
100
AcDbEntity
  8
1
  6
Continuous
100
AcDbLine
 10
561.0
 20
196.3499999999999
 30
0.0
 11
561.0
 21
195.0
 31
0.0
  0
ARC
  5
C83E
330
C6FE
100
AcDbEntity
  8
1
  6
Continuous
100
AcDbCircle
 10
566.25
 20
196.4187499999999
 30
0.0
 40
2.38125
100
AcDbArc
 50
193.81839
 51
216.5697209999999
  0
LINE
  5
C83F
330
C6FE
100
AcDbEntity
  8
1
  6
Continuous
100
AcDbLine
 10
571.4999999999998
 20
196.3499999999999
 30
0.0
 11
571.4999999999998
 21
195.0
 31
0.0
  0
ARC
  5
C840
330
C6FE
100
AcDbEntity
  8
1
  6
Continuous
100
AcDbCircle
 10
566.25
 20
196.4187499999999
 30
0.0
 40
2.38125
100
AcDbArc
 50
323.430279
 51
346.18161
  0
LINE
  5
C841
330
C6FE
100
AcDbEntity
  8
1
  6
Continuous
100
AcDbLine
 10
561.0
 20
196.3499999999999
 30
0.0
 11
571.4999999999998
 21
196.3499999999999
 31
0.0
  0
LINE
  5
C842
330
C6FE
100
AcDbEntity
  8
1
  6
Continuous
100
AcDbLine
 10
561.0
 20
195.8499999999999
 30
0.0
 11
571.4999999999998
 21
195.8499999999999
 31
0.0
  0
ARC
  5
C843
330
C6FE
100
AcDbEntity
  8
1
  6
Continuous
100
AcDbCircle
 10
566.25
 20
196.4187499999999
 30
0.0
 40
2.38125
100
AcDbArc
 50
158.3347039999999
 51
181.6544389999999
  0
ARC
  5
C844
330
C6FE
100
AcDbEntity
  8
1
  6
Continuous
100
AcDbCircle
 10
566.25
 20
196.4187499999999
 30
0.0
 40
2.38125
100
AcDbArc
 50
358.3455609999999
 51
21.665296
  0
LINE
  5
C845
330
C6FE
100
AcDbEntity
  8
1
  6
Continuous
100
AcDbLine
 10
573.5
 20
195.8499999999999
 30
0.0
 11
584.0
 21
195.8499999999999
 31
0.0
  0
LINE
  5
C846
330
C6FE
100
AcDbEntity
  8
1
  6
Continuous
100
AcDbLine
 10
573.5
 20
196.3499999999999
 30
0.0
 11
584.0
 21
196.3499999999999
 31
0.0
  0
ARC
  5
C847
330
C6FE
100
AcDbEntity
  8
1
  6
Continuous
100
AcDbCircle
 10
578.75
 20
196.4187499999999
 30
0.0
 40
2.38125
100
AcDbArc
 50
323.430279
 51
346.18161
  0
ARC
  5
C848
330
C6FE
100
AcDbEntity
  8
1
  6
Continuous
100
AcDbCircle
 10
578.75
 20
196.4187499999999
 30
0.0
 40
2.38125
100
AcDbArc
 50
193.81839
 51
216.5697209999999
  0
LINE
  5
C849
330
C6FE
100
AcDbEntity
  8
1
  6
Continuous
100
AcDbLine
 10
573.5
 20
196.3499999999999
 30
0.0
 11
573.5
 21
195.0
 31
0.0
  0
ARC
  5
C84A
330
C6FE
100
AcDbEntity
  8
1
  6
Continuous
100
AcDbCircle
 10
578.75
 20
196.4187499999999
 30
0.0
 40
2.38125
100
AcDbArc
 50
358.3455609999999
 51
21.665296
  0
ARC
  5
C84B
330
C6FE
100
AcDbEntity
  8
1
  6
Continuous
100
AcDbCircle
 10
578.75
 20
196.4187499999999
 30
0.0
 40
2.38125
100
AcDbArc
 50
158.3347039999999
 51
181.6544389999999
  0
LINE
  5
C84C
330
C6FE
100
AcDbEntity
  8
1
  6
Continuous
100
AcDbLine
 10
584.0
 20
196.3499999999999
 30
0.0
 11
584.0
 21
195.0
 31
0.0
  0
LINE
  5
C84D
330
C6FE
100
AcDbEntity
  8
1
  6
Continuous
100
AcDbLine
 10
561.0
 20
169.65
 30
0.0
 11
571.4999999999998
 21
169.65
 31
0.0
  0
LINE
  5
C84E
330
C6FE
100
AcDbEntity
  8
1
  6
Continuous
100
AcDbLine
 10
561.0
 20
169.15
 30
0.0
 11
571.4999999999998
 21
169.15
 31
0.0
  0
LINE
  5
C84F
330
C6FE
100
AcDbEntity
  8
1
  6
Continuous
100
AcDbLine
 10
498.5
 20
169.15
 30
0.0
 11
509.0
 21
169.15
 31
0.0
  0
LINE
  5
C850
330
C6FE
100
AcDbEntity
  8
1
  6
Continuous
100
AcDbLine
 10
498.5
 20
169.65
 30
0.0
 11
509.0
 21
169.65
 31
0.0
  0
LINE
  5
C851
330
C6FE
100
AcDbEntity
  8
1
  6
Continuous
100
AcDbLine
 10
498.5
 20
169.15
 30
0.0
 11
498.5
 21
170.5
 31
0.0
  0
ARC
  5
C852
330
C6FE
100
AcDbEntity
  8
1
  6
Continuous
100
AcDbCircle
 10
503.75
 20
169.08125
 30
0.0
 40
2.38125
100
AcDbArc
 50
143.430279
 51
166.18161
  0
ARC
  5
C853
330
C6FE
100
AcDbEntity
  8
1
  6
Continuous
100
AcDbCircle
 10
491.25
 20
169.08125
 30
0.0
 40
2.38125
100
AcDbArc
 50
143.430279
 51
166.18161
  0
ARC
  5
C854
330
C6FE
100
AcDbEntity
  8
1
  6
Continuous
100
AcDbCircle
 10
491.25
 20
169.08125
 30
0.0
 40
2.38125
100
AcDbArc
 50
13.81839
 51
36.569721
  0
LINE
  5
C855
330
C6FE
100
AcDbEntity
  8
1
  6
Continuous
100
AcDbLine
 10
486.0
 20
169.15
 30
0.0
 11
486.0
 21
170.5
 31
0.0
  0
LINE
  5
C856
330
C6FE
100
AcDbEntity
  8
1
  6
Continuous
100
AcDbLine
 10
496.4999999999998
 20
169.15
 30
0.0
 11
496.4999999999998
 21
170.5
 31
0.0
  0
LINE
  5
C857
330
C6FE
100
AcDbEntity
  8
1
  6
Continuous
100
AcDbLine
 10
484.0
 20
169.15
 30
0.0
 11
484.0
 21
170.5
 31
0.0
  0
LINE
  5
C858
330
C6FE
100
AcDbEntity
  8
1
  6
Continuous
100
AcDbLine
 10
473.5
 20
169.15
 30
0.0
 11
473.5
 21
170.5
 31
0.0
  0
ARC
  5
C859
330
C6FE
100
AcDbEntity
  8
1
  6
Continuous
100
AcDbCircle
 10
478.75
 20
169.08125
 30
0.0
 40
2.38125
100
AcDbArc
 50
13.81839
 51
36.569721
  0
ARC
  5
C85A
330
C6FE
100
AcDbEntity
  8
1
  6
Continuous
100
AcDbCircle
 10
478.75
 20
169.08125
 30
0.0
 40
2.38125
100
AcDbArc
 50
143.430279
 51
166.18161
  0
ARC
  5
C85B
330
C6FE
100
AcDbEntity
  8
1
  6
Continuous
100
AcDbCircle
 10
466.25
 20
169.08125
 30
0.0
 40
2.38125
100
AcDbArc
 50
143.430279
 51
166.18161
  0
ARC
  5
C85C
330
C6FE
100
AcDbEntity
  8
1
  6
Continuous
100
AcDbCircle
 10
466.25
 20
169.08125
 30
0.0
 40
2.38125
100
AcDbArc
 50
13.81839
 51
36.569721
  0
LINE
  5
C85D
330
C6FE
100
AcDbEntity
  8
1
  6
Continuous
100
AcDbLine
 10
461.0
 20
169.15
 30
0.0
 11
461.0
 21
170.5
 31
0.0
  0
LINE
  5
C85E
330
C6FE
100
AcDbEntity
  8
1
  6
Continuous
100
AcDbLine
 10
471.4999999999998
 20
169.15
 30
0.0
 11
471.4999999999998
 21
170.5
 31
0.0
  0
LINE
  5
C85F
330
C6FE
100
AcDbEntity
  8
1
  6
Continuous
100
AcDbLine
 10
459.0
 20
169.15
 30
0.0
 11
459.0
 21
170.5
 31
0.0
  0
LINE
  5
C860
330
C6FE
100
AcDbEntity
  8
1
  6
Continuous
100
AcDbLine
 10
448.5
 20
169.15
 30
0.0
 11
448.5
 21
170.5
 31
0.0
  0
ARC
  5
C861
330
C6FE
100
AcDbEntity
  8
1
  6
Continuous
100
AcDbCircle
 10
453.75
 20
169.08125
 30
0.0
 40
2.38125
100
AcDbArc
 50
13.81839
 51
36.569721
  0
ARC
  5
C862
330
C6FE
100
AcDbEntity
  8
1
  6
Continuous
100
AcDbCircle
 10
453.75
 20
169.08125
 30
0.0
 40
2.38125
100
AcDbArc
 50
143.430279
 51
166.18161
  0
LINE
  5
C863
330
C6FE
100
AcDbEntity
  8
1
  6
Continuous
100
AcDbLine
 10
461.0
 20
169.65
 30
0.0
 11
471.4999999999998
 21
169.65
 31
0.0
  0
LINE
  5
C864
330
C6FE
100
AcDbEntity
  8
1
  6
Continuous
100
AcDbLine
 10
461.0
 20
169.15
 30
0.0
 11
471.4999999999998
 21
169.15
 31
0.0
  0
LINE
  5
C865
330
C6FE
100
AcDbEntity
  8
1
  6
Continuous
100
AcDbLine
 10
448.5
 20
169.15
 30
0.0
 11
459.0
 21
169.15
 31
0.0
  0
LINE
  5
C866
330
C6FE
100
AcDbEntity
  8
1
  6
Continuous
100
AcDbLine
 10
448.5
 20
169.65
 30
0.0
 11
459.0
 21
169.65
 31
0.0
  0
ARC
  5
C867
330
C6FE
100
AcDbEntity
  8
1
  6
Continuous
100
AcDbCircle
 10
453.75
 20
169.08125
 30
0.0
 40
2.38125
100
AcDbArc
 50
178.345561
 51
201.6652959999999
  0
ARC
  5
C868
330
C6FE
100
AcDbEntity
  8
1
  6
Continuous
100
AcDbCircle
 10
466.25
 20
169.08125
 30
0.0
 40
2.38125
100
AcDbArc
 50
338.3347039999998
 51
1.654438999999999
  0
ARC
  5
C869
330
C6FE
100
AcDbEntity
  8
1
  6
Continuous
100
AcDbCircle
 10
466.25
 20
169.08125
 30
0.0
 40
2.38125
100
AcDbArc
 50
178.345561
 51
201.6652959999999
  0
ARC
  5
C86A
330
C6FE
100
AcDbEntity
  8
1
  6
Continuous
100
AcDbCircle
 10
453.75
 20
169.08125
 30
0.0
 40
2.38125
100
AcDbArc
 50
338.3347039999998
 51
1.654438999999999
  0
ARC
  5
C86B
330
C6FE
100
AcDbEntity
  8
1
  6
Continuous
100
AcDbCircle
 10
478.75
 20
169.08125
 30
0.0
 40
2.38125
100
AcDbArc
 50
178.345561
 51
201.6652959999999
  0
ARC
  5
C86C
330
C6FE
100
AcDbEntity
  8
1
  6
Continuous
100
AcDbCircle
 10
478.75
 20
169.08125
 30
0.0
 40
2.38125
100
AcDbArc
 50
338.3347039999998
 51
1.654438999999999
  0
LINE
  5
C86D
330
C6FE
100
AcDbEntity
  8
1
  6
Continuous
100
AcDbLine
 10
473.5
 20
169.15
 30
0.0
 11
484.0
 21
169.15
 31
0.0
  0
LINE
  5
C86E
330
C6FE
100
AcDbEntity
  8
1
  6
Continuous
100
AcDbLine
 10
473.5
 20
169.65
 30
0.0
 11
484.0
 21
169.65
 31
0.0
  0
ARC
  5
C86F
330
C6FE
100
AcDbEntity
  8
1
  6
Continuous
100
AcDbCircle
 10
503.75
 20
169.08125
 30
0.0
 40
2.38125
100
AcDbArc
 50
178.345561
 51
201.6652959999999
  0
LINE
  5
C870
330
C6FE
100
AcDbEntity
  8
1
  6
Continuous
100
AcDbLine
 10
486.0
 20
169.65
 30
0.0
 11
496.4999999999998
 21
169.65
 31
0.0
  0
LINE
  5
C871
330
C6FE
100
AcDbEntity
  8
1
  6
Continuous
100
AcDbLine
 10
486.0
 20
169.15
 30
0.0
 11
496.4999999999998
 21
169.15
 31
0.0
  0
ARC
  5
C872
330
C6FE
100
AcDbEntity
  8
1
  6
Continuous
100
AcDbCircle
 10
491.25
 20
169.08125
 30
0.0
 40
2.38125
100
AcDbArc
 50
338.3347039999998
 51
1.654438999999999
  0
ARC
  5
C873
330
C6FE
100
AcDbEntity
  8
1
  6
Continuous
100
AcDbCircle
 10
491.25
 20
169.08125
 30
0.0
 40
2.38125
100
AcDbArc
 50
178.345561
 51
201.6652959999999
  0
ARC
  5
C874
330
C6FE
100
AcDbEntity
  8
1
  6
Continuous
100
AcDbCircle
 10
566.25
 20
169.08125
 30
0.0
 40
2.38125
100
AcDbArc
 50
13.81839
 51
36.569721
  0
ARC
  5
C875
330
C6FE
100
AcDbEntity
  8
1
  6
Continuous
100
AcDbCircle
 10
566.25
 20
169.08125
 30
0.0
 40
2.38125
100
AcDbArc
 50
143.430279
 51
166.18161
  0
LINE
  5
C876
330
C6FE
100
AcDbEntity
  8
1
  6
Continuous
100
AcDbLine
 10
561.0
 20
169.15
 30
0.0
 11
561.0
 21
170.5
 31
0.0
  0
LINE
  5
C877
330
C6FE
100
AcDbEntity
  8
1
  6
Continuous
100
AcDbLine
 10
548.5
 20
169.15
 30
0.0
 11
548.5
 21
170.5
 31
0.0
  0
ARC
  5
C878
330
C6FE
100
AcDbEntity
  8
1
  6
Continuous
100
AcDbCircle
 10
553.75
 20
169.08125
 30
0.0
 40
2.38125
100
AcDbArc
 50
143.430279
 51
166.18161
  0
LINE
  5
C879
330
C6FE
100
AcDbEntity
  8
1
  6
Continuous
100
AcDbLine
 10
559.0
 20
169.15
 30
0.0
 11
559.0
 21
170.5
 31
0.0
  0
ARC
  5
C87A
330
C6FE
100
AcDbEntity
  8
1
  6
Continuous
100
AcDbCircle
 10
553.75
 20
169.08125
 30
0.0
 40
2.38125
100
AcDbArc
 50
13.81839
 51
36.569721
  0
ARC
  5
C87B
330
C6FE
100
AcDbEntity
  8
1
  6
Continuous
100
AcDbCircle
 10
541.25
 20
169.08125
 30
0.0
 40
2.38125
100
AcDbArc
 50
13.81839
 51
36.569721
  0
LINE
  5
C87C
330
C6FE
100
AcDbEntity
  8
1
  6
Continuous
100
AcDbLine
 10
546.4999999999998
 20
169.15
 30
0.0
 11
546.4999999999998
 21
170.5
 31
0.0
  0
ARC
  5
C87D
330
C6FE
100
AcDbEntity
  8
1
  6
Continuous
100
AcDbCircle
 10
541.25
 20
169.08125
 30
0.0
 40
2.38125
100
AcDbArc
 50
143.430279
 51
166.18161
  0
LINE
  5
C87E
330
C6FE
100
AcDbEntity
  8
1
  6
Continuous
100
AcDbLine
 10
536.0
 20
169.15
 30
0.0
 11
536.0
 21
170.5
 31
0.0
  0
LINE
  5
C87F
330
C6FE
100
AcDbEntity
  8
1
  6
Continuous
100
AcDbLine
 10
523.5
 20
169.15
 30
0.0
 11
523.5
 21
170.5
 31
0.0
  0
ARC
  5
C880
330
C6FE
100
AcDbEntity
  8
1
  6
Continuous
100
AcDbCircle
 10
528.75
 20
169.08125
 30
0.0
 40
2.38125
100
AcDbArc
 50
143.430279
 51
166.18161
  0
LINE
  5
C881
330
C6FE
100
AcDbEntity
  8
1
  6
Continuous
100
AcDbLine
 10
534.0
 20
169.15
 30
0.0
 11
534.0
 21
170.5
 31
0.0
  0
ARC
  5
C882
330
C6FE
100
AcDbEntity
  8
1
  6
Continuous
100
AcDbCircle
 10
528.75
 20
169.08125
 30
0.0
 40
2.38125
100
AcDbArc
 50
13.81839
 51
36.569721
  0
ARC
  5
C883
330
C6FE
100
AcDbEntity
  8
1
  6
Continuous
100
AcDbCircle
 10
516.25
 20
169.08125
 30
0.0
 40
2.38125
100
AcDbArc
 50
13.81839
 51
36.569721
  0
LINE
  5
C884
330
C6FE
100
AcDbEntity
  8
1
  6
Continuous
100
AcDbLine
 10
521.4999999999998
 20
169.15
 30
0.0
 11
521.4999999999998
 21
170.5
 31
0.0
  0
ARC
  5
C885
330
C6FE
100
AcDbEntity
  8
1
  6
Continuous
100
AcDbCircle
 10
516.25
 20
169.08125
 30
0.0
 40
2.38125
100
AcDbArc
 50
143.430279
 51
166.18161
  0
LINE
  5
C886
330
C6FE
100
AcDbEntity
  8
1
  6
Continuous
100
AcDbLine
 10
511.0
 20
169.15
 30
0.0
 11
511.0
 21
170.5
 31
0.0
  0
LINE
  5
C887
330
C6FE
100
AcDbEntity
  8
1
  6
Continuous
100
AcDbLine
 10
509.0
 20
169.15
 30
0.0
 11
509.0
 21
170.5
 31
0.0
  0
ARC
  5
C888
330
C6FE
100
AcDbEntity
  8
1
  6
Continuous
100
AcDbCircle
 10
503.75
 20
169.08125
 30
0.0
 40
2.38125
100
AcDbArc
 50
13.81839
 51
36.569721
  0
LINE
  5
C889
330
C6FE
100
AcDbEntity
  8
1
  6
Continuous
100
AcDbLine
 10
511.0
 20
169.65
 30
0.0
 11
521.4999999999998
 21
169.65
 31
0.0
  0
LINE
  5
C88A
330
C6FE
100
AcDbEntity
  8
1
  6
Continuous
100
AcDbLine
 10
511.0
 20
169.15
 30
0.0
 11
521.4999999999998
 21
169.15
 31
0.0
  0
ARC
  5
C88B
330
C6FE
100
AcDbEntity
  8
1
  6
Continuous
100
AcDbCircle
 10
516.25
 20
169.08125
 30
0.0
 40
2.38125
100
AcDbArc
 50
338.3347039999998
 51
1.654438999999999
  0
ARC
  5
C88C
330
C6FE
100
AcDbEntity
  8
1
  6
Continuous
100
AcDbCircle
 10
516.25
 20
169.08125
 30
0.0
 40
2.38125
100
AcDbArc
 50
178.345561
 51
201.6652959999999
  0
ARC
  5
C88D
330
C6FE
100
AcDbEntity
  8
1
  6
Continuous
100
AcDbCircle
 10
503.75
 20
169.08125
 30
0.0
 40
2.38125
100
AcDbArc
 50
338.3347039999998
 51
1.654438999999999
  0
ARC
  5
C88E
330
C6FE
100
AcDbEntity
  8
1
  6
Continuous
100
AcDbCircle
 10
528.75
 20
169.08125
 30
0.0
 40
2.38125
100
AcDbArc
 50
178.345561
 51
201.6652959999999
  0
ARC
  5
C88F
330
C6FE
100
AcDbEntity
  8
1
  6
Continuous
100
AcDbCircle
 10
528.75
 20
169.08125
 30
0.0
 40
2.38125
100
AcDbArc
 50
338.3347039999998
 51
1.654438999999999
  0
LINE
  5
C890
330
C6FE
100
AcDbEntity
  8
1
  6
Continuous
100
AcDbLine
 10
523.5
 20
169.15
 30
0.0
 11
534.0
 21
169.15
 31
0.0
  0
LINE
  5
C891
330
C6FE
100
AcDbEntity
  8
1
  6
Continuous
100
AcDbLine
 10
523.5
 20
169.65
 30
0.0
 11
534.0
 21
169.65
 31
0.0
  0
LINE
  5
C892
330
C6FE
100
AcDbEntity
  8
1
  6
Continuous
100
AcDbLine
 10
548.5
 20
169.15
 30
0.0
 11
559.0
 21
169.15
 31
0.0
  0
LINE
  5
C893
330
C6FE
100
AcDbEntity
  8
1
  6
Continuous
100
AcDbLine
 10
548.5
 20
169.65
 30
0.0
 11
559.0
 21
169.65
 31
0.0
  0
ARC
  5
C894
330
C6FE
100
AcDbEntity
  8
1
  6
Continuous
100
AcDbCircle
 10
553.75
 20
169.08125
 30
0.0
 40
2.38125
100
AcDbArc
 50
178.345561
 51
201.6652959999999
  0
LINE
  5
C895
330
C6FE
100
AcDbEntity
  8
1
  6
Continuous
100
AcDbLine
 10
536.0
 20
169.65
 30
0.0
 11
546.4999999999998
 21
169.65
 31
0.0
  0
LINE
  5
C896
330
C6FE
100
AcDbEntity
  8
1
  6
Continuous
100
AcDbLine
 10
536.0
 20
169.15
 30
0.0
 11
546.4999999999998
 21
169.15
 31
0.0
  0
ARC
  5
C897
330
C6FE
100
AcDbEntity
  8
1
  6
Continuous
100
AcDbCircle
 10
541.25
 20
169.08125
 30
0.0
 40
2.38125
100
AcDbArc
 50
338.3347039999998
 51
1.654438999999999
  0
ARC
  5
C898
330
C6FE
100
AcDbEntity
  8
1
  6
Continuous
100
AcDbCircle
 10
541.25
 20
169.08125
 30
0.0
 40
2.38125
100
AcDbArc
 50
178.345561
 51
201.6652959999999
  0
ARC
  5
C899
330
C6FE
100
AcDbEntity
  8
1
  6
Continuous
100
AcDbCircle
 10
566.25
 20
169.08125
 30
0.0
 40
2.38125
100
AcDbArc
 50
338.3347039999998
 51
1.654438999999999
  0
ARC
  5
C89A
330
C6FE
100
AcDbEntity
  8
1
  6
Continuous
100
AcDbCircle
 10
566.25
 20
169.08125
 30
0.0
 40
2.38125
100
AcDbArc
 50
178.345561
 51
201.6652959999999
  0
ARC
  5
C89B
330
C6FE
100
AcDbEntity
  8
1
  6
Continuous
100
AcDbCircle
 10
553.75
 20
169.08125
 30
0.0
 40
2.38125
100
AcDbArc
 50
338.3347039999998
 51
1.654438999999999
  0
LINE
  5
C89C
330
C6FE
100
AcDbEntity
  8
1
  6
Continuous
100
AcDbLine
 10
584.0
 20
169.15
 30
0.0
 11
584.0
 21
170.5
 31
0.0
  0
LINE
  5
C89D
330
C6FE
100
AcDbEntity
  8
1
  6
Continuous
100
AcDbLine
 10
573.5
 20
169.15
 30
0.0
 11
573.5
 21
170.5
 31
0.0
  0
ARC
  5
C89E
330
C6FE
100
AcDbEntity
  8
1
  6
Continuous
100
AcDbCircle
 10
578.75
 20
169.08125
 30
0.0
 40
2.38125
100
AcDbArc
 50
143.430279
 51
166.18161
  0
ARC
  5
C89F
330
C6FE
100
AcDbEntity
  8
1
  6
Continuous
100
AcDbCircle
 10
578.75
 20
169.08125
 30
0.0
 40
2.38125
100
AcDbArc
 50
13.81839
 51
36.569721
  0
LINE
  5
C8A0
330
C6FE
100
AcDbEntity
  8
1
  6
Continuous
100
AcDbLine
 10
571.4999999999998
 20
169.15
 30
0.0
 11
571.4999999999998
 21
170.5
 31
0.0
  0
ARC
  5
C8A1
330
C6FE
100
AcDbEntity
  8
1
  6
Continuous
100
AcDbCircle
 10
578.75
 20
169.08125
 30
0.0
 40
2.38125
100
AcDbArc
 50
178.345561
 51
201.6652959999999
  0
ARC
  5
C8A2
330
C6FE
100
AcDbEntity
  8
1
  6
Continuous
100
AcDbCircle
 10
578.75
 20
169.08125
 30
0.0
 40
2.38125
100
AcDbArc
 50
338.3347039999998
 51
1.654438999999999
  0
LINE
  5
C8A3
330
C6FE
100
AcDbEntity
  8
1
  6
Continuous
100
AcDbLine
 10
573.5
 20
169.15
 30
0.0
 11
584.0
 21
169.15
 31
0.0
  0
LINE
  5
C8A4
330
C6FE
100
AcDbEntity
  8
1
  6
Continuous
100
AcDbLine
 10
573.5
 20
169.65
 30
0.0
 11
584.0
 21
169.65
 31
0.0
  0
ARC
  5
C8A5
330
C6FE
100
AcDbEntity
  8
1
  6
Continuous
100
AcDbCircle
 10
747.9
 20
195.057229
 30
0.0
 40
0.8072289999999997
100
AcDbArc
 50
141.1871849999998
 51
270.0
  0
LINE
  5
C8A6
330
C6FE
100
AcDbEntity
  8
1
  6
Continuous
100
AcDbLine
 10
747.2710089999996
 20
195.563183
 30
0.0
 11
749.1467159999999
 21
197.8950239999998
 31
0.0
  0
LINE
  5
C8A7
330
C6FE
100
AcDbEntity
  8
1
  6
Continuous
100
AcDbLine
 10
749.5
 20
198.8978689999999
 30
0.0
 11
749.5
 21
200.4
 31
0.0
  0
LINE
  5
C8A8
330
C6FE
100
AcDbEntity
  8
1
  6
Continuous
100
AcDbLine
 10
747.2710089999996
 20
169.9368169999999
 30
0.0
 11
749.1467159999999
 21
167.6049759999999
 31
0.0
  0
ARC
  5
C8A9
330
C6FE
100
AcDbEntity
  8
1
  6
Continuous
100
AcDbCircle
 10
747.9
 20
170.442771
 30
0.0
 40
0.8072289999999997
100
AcDbArc
 50
90.0
 51
218.812815
  0
LINE
  5
C8AA
330
C6FE
100
AcDbEntity
  8
1
  6
Continuous
100
AcDbLine
 10
749.5
 20
171.25
 30
0.0
 11
749.5
 21
194.25
 31
0.0
  0
LINE
  5
C8AB
330
C6FE
100
AcDbEntity
  8
1
  6
Continuous
100
AcDbLine
 10
119.728991
 20
195.563183
 30
0.0
 11
117.853284
 21
197.8950239999998
 31
0.0
  0
LINE
  5
C8AC
330
C6FE
100
AcDbEntity
  8
1
  6
Continuous
100
AcDbLine
 10
119.1
 20
171.25
 30
0.0
 11
119.1
 21
194.25
 31
0.0
  0
ARC
  5
C8AD
330
C6FE
100
AcDbEntity
  8
1
  6
Continuous
100
AcDbCircle
 10
119.1
 20
170.442771
 30
0.0
 40
0.8072289999999997
100
AcDbArc
 50
321.187185
 51
90.0
  0
LINE
  5
C8AE
330
C6FE
100
AcDbEntity
  8
1
  6
Continuous
100
AcDbLine
 10
119.728991
 20
169.9368169999999
 30
0.0
 11
117.853284
 21
167.6049759999999
 31
0.0
  0
ARC
  5
C8AF
330
C6FE
100
AcDbEntity
  8
1
  6
Continuous
100
AcDbCircle
 10
119.1
 20
166.602131
 30
0.0
 40
1.6
100
AcDbArc
 50
141.1871849999998
 51
180.0
  0
ARC
  5
C8B0
330
C6FE
100
AcDbEntity
  8
1
  6
Continuous
100
AcDbCircle
 10
119.1
 20
195.057229
 30
0.0
 40
0.8072289999999997
100
AcDbArc
 50
270.0
 51
38.812815
  0
ARC
  5
C8B1
330
C6FE
100
AcDbEntity
  8
1
  6
Continuous
100
AcDbCircle
 10
119.1
 20
198.8978689999999
 30
0.0
 40
1.6
100
AcDbArc
 50
180.0
 51
218.812815
  0
LINE
  5
C8B2
330
C6FE
100
AcDbEntity
  8
1
  6
Continuous
100
AcDbLine
 10
117.5
 20
198.8978689999999
 30
0.0
 11
117.5
 21
200.4
 31
0.0
  0
LINE
  5
C8B3
330
C6FE
100
AcDbEntity
  8
1
  6
Continuous
100
AcDbLine
 10
117.5
 20
305.3999999999998
 30
0.0
 11
117.5
 21
314.1
 31
0.0
  0
LINE
  5
C8B4
330
C6FE
100
AcDbEntity
  8
1
  6
Continuous
100
AcDbLine
 10
422.4999999999998
 20
305.3999999999998
 30
0.0
 11
422.4999999999998
 21
314.1
 31
0.0
  0
LINE
  5
C8B5
330
C6FE
100
AcDbEntity
  8
1
  6
Continuous
100
AcDbLine
 10
117.5
 20
305.3999999999998
 30
0.0
 11
422.4999999999998
 21
305.3999999999998
 31
0.0
  0
LINE
  5
C8B6
330
C6FE
100
AcDbEntity
  8
1
  6
Continuous
100
AcDbLine
 10
117.5
 20
314.1
 30
0.0
 11
422.4999999999998
 21
314.1
 31
0.0
  0
LINE
  5
C8B7
330
C6FE
100
AcDbEntity
  8
4
  6
CENTER
100
AcDbLine
 10
133.6
 20
310.471691
 30
0.0
 11
133.6
 21
299.971691
 31
0.0
  0
LINE
  5
C8B8
330
C6FE
100
AcDbEntity
  8
4
  6
CENTER
100
AcDbLine
 10
146.3
 20
310.471691
 30
0.0
 11
146.3
 21
299.971691
 31
0.0
  0
LINE
  5
C8B9
330
C6FE
100
AcDbEntity
  8
4
  6
CENTER
100
AcDbLine
 10
257.3999999999999
 20
310.471691
 30
0.0
 11
257.3999999999999
 21
299.971691
 31
0.0
  0
LINE
  5
C8BA
330
C6FE
100
AcDbEntity
  8
4
  6
CENTER
100
AcDbLine
 10
295.5
 20
310.471691
 30
0.0
 11
295.5
 21
299.971691
 31
0.0
  0
LINE
  5
C8BB
330
C6FE
100
AcDbEntity
  8
4
  6
CENTER
100
AcDbLine
 10
381.1999999999999
 20
310.471691
 30
0.0
 11
381.1999999999999
 21
299.971691
 31
0.0
  0
LINE
  5
C8BC
330
C6FE
100
AcDbEntity
  8
4
  6
CENTER
100
AcDbLine
 10
393.9
 20
310.471691
 30
0.0
 11
393.9
 21
299.971691
 31
0.0
  0
LINE
  5
C8BD
330
C6FE
100
AcDbEntity
  8
4
  6
CENTER
100
AcDbLine
 10
406.6
 20
324.933485
 30
0.0
 11
406.6
 21
299.971691
 31
0.0
  0
LINE
  5
C8BE
330
C6FE
100
AcDbEntity
  8
1
  6
Continuous
100
AcDbLine
 10
283.1
 20
314.9
 30
0.0
 11
283.1
 21
314.1
 31
0.0
  0
LINE
  5
C8BF
330
C6FE
100
AcDbEntity
  8
1
  6
Continuous
100
AcDbLine
 10
280.1
 20
321.4999999999998
 30
0.0
 11
280.1
 21
315.0
 31
0.0
  0
LINE
  5
C8C0
330
C6FE
100
AcDbEntity
  8
1
  6
Continuous
100
AcDbLine
 10
283.1
 20
314.9
 30
0.0
 11
586.8999999999997
 21
314.9
 31
0.0
  0
LINE
  5
C8C1
330
C6FE
100
AcDbEntity
  8
3
  6
DASHED
100
AcDbLine
 10
283.1
 20
308.3999999999999
 30
0.0
 11
422.4999999999998
 21
308.3999999999999
 31
0.0
  0
LINE
  5
C8C2
330
C6FE
100
AcDbEntity
  8
3
  6
DASHED
100
AcDbLine
 10
283.1
 20
314.1
 30
0.0
 11
283.1
 21
308.3999999999999
 31
0.0
  0
LINE
  5
C8C3
330
C6FE
100
AcDbEntity
  8
1
  6
Continuous
100
AcDbLine
 10
586.8999999999997
 20
314.9
 30
0.0
 11
586.8999999999997
 21
308.3999999999999
 31
0.0
  0
LINE
  5
C8C4
330
C6FE
100
AcDbEntity
  8
3
  6
DASHED
100
AcDbLine
 10
583.8999999999997
 20
321.4999999999998
 30
0.0
 11
583.8999999999997
 21
315.8
 31
0.0
  0
LINE
  5
C8C5
330
C6FE
100
AcDbEntity
  8
1
  6
Continuous
100
AcDbLine
 10
422.4999999999998
 20
308.3999999999999
 30
0.0
 11
586.8999999999997
 21
308.3999999999999
 31
0.0
  0
LINE
  5
C8C6
330
C6FE
100
AcDbEntity
  8
1
  6
Continuous
100
AcDbLine
 10
280.1
 20
315.0
 30
0.0
 11
583.8999999999997
 21
315.0
 31
0.0
  0
LINE
  5
C8C7
330
C6FE
100
AcDbEntity
  8
1
  6
Continuous
100
AcDbLine
 10
280.1
 20
321.4999999999998
 30
0.0
 11
444.5
 21
321.4999999999998
 31
0.0
  0
LINE
  5
C8C8
330
C6FE
100
AcDbEntity
  8
1
  6
Continuous
100
AcDbLine
 10
444.5
 20
315.8
 30
0.0
 11
444.5
 21
324.5
 31
0.0
  0
LINE
  5
C8C9
330
C6FE
100
AcDbEntity
  8
1
  6
Continuous
100
AcDbLine
 10
444.5
 20
324.5
 30
0.0
 11
749.5
 21
324.5
 31
0.0
  0
LINE
  5
C8CA
330
C6FE
100
AcDbEntity
  8
1
  6
Continuous
100
AcDbLine
 10
749.5
 20
315.8
 30
0.0
 11
749.5
 21
324.5
 31
0.0
  0
LINE
  5
C8CB
330
C6FE
100
AcDbEntity
  8
1
  6
Continuous
100
AcDbLine
 10
444.5
 20
315.8
 30
0.0
 11
749.5
 21
315.8
 31
0.0
  0
LINE
  5
C8CC
330
C6FE
100
AcDbEntity
  8
3
  6
DASHED
100
AcDbLine
 10
444.5
 20
321.4999999999998
 30
0.0
 11
583.8999999999997
 21
321.4999999999998
 31
0.0
  0
LINE
  5
C8CD
330
C6FE
100
AcDbEntity
  8
1
  6
Continuous
100
AcDbLine
 10
583.8999999999997
 20
315.8
 30
0.0
 11
583.8999999999997
 21
315.0
 31
0.0
  0
LINE
  5
C8CE
330
C6FE
100
AcDbEntity
  8
4
  6
CENTER
100
AcDbLine
 10
733.3999999999997
 20
328.9955889999998
 30
0.0
 11
733.3999999999997
 21
318.4955889999999
 31
0.0
  0
LINE
  5
C8CF
330
C6FE
100
AcDbEntity
  8
4
  6
CENTER
100
AcDbLine
 10
720.7
 20
328.9955889999998
 30
0.0
 11
720.7
 21
318.4955889999999
 31
0.0
  0
LINE
  5
C8D0
330
C6FE
100
AcDbEntity
  8
4
  6
CENTER
100
AcDbLine
 10
609.6
 20
328.9955889999998
 30
0.0
 11
609.6
 21
318.4955889999999
 31
0.0
  0
LINE
  5
C8D1
330
C6FE
100
AcDbEntity
  8
4
  6
CENTER
100
AcDbLine
 10
571.4999999999998
 20
328.9955889999998
 30
0.0
 11
571.4999999999998
 21
318.4955889999999
 31
0.0
  0
LINE
  5
C8D2
330
C6FE
100
AcDbEntity
  8
4
  6
CENTER
100
AcDbLine
 10
473.1
 20
328.9955889999998
 30
0.0
 11
473.1
 21
318.4955889999999
 31
0.0
  0
LINE
  5
C8D3
330
C6FE
100
AcDbEntity
  8
4
  6
CENTER
100
AcDbLine
 10
485.8
 20
328.9955889999998
 30
0.0
 11
485.8
 21
318.4955889999999
 31
0.0
  0
LINE
  5
C8D4
330
C6FE
100
AcDbEntity
  8
4
  6
CENTER
100
AcDbLine
 10
460.4
 20
328.9955889999998
 30
0.0
 11
460.4
 21
305.465795
 31
0.0
  0
LINE
  5
C8D5
330
C6FE
100
AcDbEntity
  8
3
  6
DASHED
100
AcDbLine
 10
420.0
 20
454.6499999999999
 30
0.0
 11
422.4999999999998
 21
454.6499999999999
 31
0.0
  0
LINE
  5
C8D6
330
C6FE
100
AcDbEntity
  8
3
  6
DASHED
100
AcDbLine
 10
420.0
 20
439.6499999999998
 30
0.0
 11
422.4999999999998
 21
439.6499999999998
 31
0.0
  0
LINE
  5
C8D7
330
C6FE
100
AcDbEntity
  8
1
  6
Continuous
100
AcDbLine
 10
420.8999999999998
 20
462.2885629999998
 30
0.0
 11
119.1
 21
462.2885629999998
 31
0.0
  0
LINE
  5
C8D8
330
C6FE
100
AcDbEntity
  8
1
  6
Continuous
100
AcDbLine
 10
420.8999999999998
 20
461.697869
 30
0.0
 11
119.1
 21
461.697869
 31
0.0
  0
LINE
  5
C8D9
330
C6FE
100
AcDbEntity
  8
1
  6
Continuous
100
AcDbLine
 10
420.8999999999998
 20
432.6021309999998
 30
0.0
 11
119.1
 21
432.6021309999998
 31
0.0
  0
LINE
  5
C8DA
330
C6FE
100
AcDbEntity
  8
1
  6
Continuous
100
AcDbLine
 10
420.8999999999998
 20
432.0114369999997
 30
0.0
 11
119.1
 21
432.0114369999997
 31
0.0
  0
LINE
  5
C8DB
330
C6FE
100
AcDbEntity
  8
1
  6
Continuous
100
AcDbLine
 10
422.4999999999998
 20
464.8
 30
0.0
 11
117.5
 21
464.8
 31
0.0
  0
LINE
  5
C8DC
330
C6FE
100
AcDbEntity
  8
1
  6
Continuous
100
AcDbLine
 10
422.4999999999998
 20
429.4999999999998
 30
0.0
 11
117.5
 21
429.4999999999998
 31
0.0
  0
LINE
  5
C8DD
330
C6FE
100
AcDbEntity
  8
1
  6
Continuous
100
AcDbLine
 10
444.5
 20
456.0375
 30
0.0
 11
318.1
 21
456.0375
 31
0.0
  0
LINE
  5
C8DE
330
C6FE
100
AcDbEntity
  8
1
  6
Continuous
100
AcDbLine
 10
444.5
 20
457.2375
 30
0.0
 11
280.1
 21
457.2375
 31
0.0
  0
LINE
  5
C8DF
330
C6FE
100
AcDbEntity
  8
1
  6
Continuous
100
AcDbLine
 10
444.5
 20
438.2624999999999
 30
0.0
 11
318.1
 21
438.2624999999999
 31
0.0
  0
LINE
  5
C8E0
330
C6FE
100
AcDbEntity
  8
1
  6
Continuous
100
AcDbLine
 10
444.5
 20
437.0625
 30
0.0
 11
280.1
 21
437.0625
 31
0.0
  0
LINE
  5
C8E1
330
C6FE
100
AcDbEntity
  8
1
  6
Continuous
100
AcDbLine
 10
444.5
 20
459.4
 30
0.0
 11
280.1
 21
459.4
 31
0.0
  0
LINE
  5
C8E2
330
C6FE
100
AcDbEntity
  8
1
  6
Continuous
100
AcDbLine
 10
444.5
 20
434.9
 30
0.0
 11
280.1
 21
434.9
 31
0.0
  0
LINE
  5
C8E3
330
C6FE
100
AcDbEntity
  8
4
  6
CENTER
100
AcDbLine
 10
754.4999999999999
 20
447.1499999999998
 30
0.0
 11
112.5
 21
447.1499999999998
 31
0.0
  0
LINE
  5
C8E4
330
C6FE
100
AcDbEntity
  8
1
  6
Continuous
100
AcDbLine
 10
749.5
 20
429.4999999999998
 30
0.0
 11
444.5
 21
429.4999999999998
 31
0.0
  0
LINE
  5
C8E5
330
C6FE
100
AcDbEntity
  8
1
  6
Continuous
100
AcDbLine
 10
749.5
 20
464.8
 30
0.0
 11
444.5
 21
464.8
 31
0.0
  0
LINE
  5
C8E6
330
C6FE
100
AcDbEntity
  8
1
  6
Continuous
100
AcDbLine
 10
747.2710089999996
 20
434.3368169999997
 30
0.0
 11
749.1467159999999
 21
432.0049759999998
 31
0.0
  0
ARC
  5
C8E7
330
C6FE
100
AcDbEntity
  8
1
  6
Continuous
100
AcDbCircle
 10
720.7
 20
447.55
 30
0.0
 40
2.25
100
AcDbArc
 50
0.0
 51
180.0
  0
ARC
  5
C8E8
330
C6FE
100
AcDbEntity
  8
1
  6
Continuous
100
AcDbCircle
 10
720.7
 20
446.75
 30
0.0
 40
2.25
100
AcDbArc
 50
180.0
 51
0.0
  0
LINE
  5
C8E9
330
C6FE
100
AcDbEntity
  8
1
  6
Continuous
100
AcDbLine
 10
747.9
 20
458.65
 30
0.0
 11
747.9
 21
435.6499999999998
 31
0.0
  0
LINE
  5
C8EA
330
C6FE
100
AcDbEntity
  8
1
  6
Continuous
100
AcDbLine
 10
749.5
 20
464.8
 30
0.0
 11
749.5
 21
463.2978689999998
 31
0.0
  0
LINE
  5
C8EB
330
C6FE
100
AcDbEntity
  8
1
  6
Continuous
100
AcDbLine
 10
747.2710089999996
 20
459.9631829999998
 30
0.0
 11
749.1467159999999
 21
462.295024
 31
0.0
  0
ARC
  5
C8EC
330
C6FE
100
AcDbEntity
  8
1
  6
Continuous
100
AcDbCircle
 10
747.9
 20
459.457229
 30
0.0
 40
0.8072289999999997
100
AcDbArc
 50
141.1871849999998
 51
270.0
  0
ARC
  5
C8ED
330
C6FE
100
AcDbEntity
  8
1
  6
Continuous
100
AcDbCircle
 10
747.9
 20
463.2978689999998
 30
0.0
 40
1.6
100
AcDbArc
 50
321.187185
 51
0.0
  0
ARC
  5
C8EE
330
C6FE
100
AcDbEntity
  8
1
  6
Continuous
100
AcDbCircle
 10
747.9
 20
434.842771
 30
0.0
 40
0.8072289999999997
100
AcDbArc
 50
90.0
 51
218.812815
  0
LINE
  5
C8EF
330
C6FE
100
AcDbEntity
  8
1
  6
Continuous
100
AcDbLine
 10
722.95
 20
446.75
 30
0.0
 11
722.95
 21
447.55
 31
0.0
  0
LINE
  5
C8F0
330
C6FE
100
AcDbEntity
  8
1
  6
Continuous
100
AcDbLine
 10
731.1499999999997
 20
446.75
 30
0.0
 11
731.1499999999997
 21
447.55
 31
0.0
  0
LINE
  5
C8F1
330
C6FE
100
AcDbEntity
  8
1
  6
Continuous
100
AcDbLine
 10
735.6499999999997
 20
446.75
 30
0.0
 11
735.6499999999997
 21
447.55
 31
0.0
  0
LINE
  5
C8F2
330
C6FE
100
AcDbEntity
  8
4
  6
CENTER
100
AcDbLine
 10
733.3999999999997
 20
441.8999999999998
 30
0.0
 11
733.3999999999997
 21
452.4
 31
0.0
  0
ARC
  5
C8F3
330
C6FE
100
AcDbEntity
  8
1
  6
Continuous
100
AcDbCircle
 10
733.3999999999997
 20
447.55
 30
0.0
 40
2.25
100
AcDbArc
 50
0.0
 51
180.0
  0
ARC
  5
C8F4
330
C6FE
100
AcDbEntity
  8
1
  6
Continuous
100
AcDbCircle
 10
733.3999999999997
 20
446.75
 30
0.0
 40
2.25
100
AcDbArc
 50
180.0
 51
0.0
  0
LINE
  5
C8F5
330
C6FE
100
AcDbEntity
  8
1
  6
Continuous
100
AcDbLine
 10
718.4500000000001
 20
446.75
 30
0.0
 11
718.4500000000001
 21
447.55
 31
0.0
  0
LINE
  5
C8F6
330
C6FE
100
AcDbEntity
  8
4
  6
CENTER
100
AcDbLine
 10
720.7
 20
441.8999999999998
 30
0.0
 11
720.7
 21
452.4
 31
0.0
  0
LINE
  5
C8F7
330
C6FE
100
AcDbEntity
  8
1
  6
Continuous
100
AcDbLine
 10
749.5
 20
431.0021309999998
 30
0.0
 11
749.5
 21
429.4999999999998
 31
0.0
  0
ARC
  5
C8F8
330
C6FE
100
AcDbEntity
  8
1
  6
Continuous
100
AcDbCircle
 10
747.9
 20
431.0021309999998
 30
0.0
 40
1.6
100
AcDbArc
 50
0.0
 51
38.812815
  0
LINE
  5
C8F9
330
C6FE
100
AcDbEntity
  8
3
  6
DASHED
100
AcDbLine
 10
586.8999999999997
 20
459.4
 30
0.0
 11
444.5
 21
459.4
 31
0.0
  0
LINE
  5
C8FA
330
C6FE
100
AcDbEntity
  8
3
  6
DASHED
100
AcDbLine
 10
586.8999999999997
 20
434.9
 30
0.0
 11
444.5
 21
434.9
 31
0.0
  0
ARC
  5
C8FB
330
C6FE
100
AcDbEntity
  8
1
  6
Continuous
100
AcDbCircle
 10
609.2000000000001
 20
447.1499999999998
 30
0.0
 40
2.25
100
AcDbArc
 50
90.0
 51
270.0
  0
ARC
  5
C8FC
330
C6FE
100
AcDbEntity
  8
1
  6
Continuous
100
AcDbCircle
 10
610.0
 20
447.1499999999998
 30
0.0
 40
2.25
100
AcDbArc
 50
270.0
 51
90.0
  0
LINE
  5
C8FD
330
C6FE
100
AcDbEntity
  8
1
  6
Continuous
100
AcDbLine
 10
609.2000000000001
 20
444.8999999999998
 30
0.0
 11
610.0
 21
444.8999999999998
 31
0.0
  0
LINE
  5
C8FE
330
C6FE
100
AcDbEntity
  8
4
  6
CENTER
100
AcDbLine
 10
609.6
 20
441.8999999999998
 30
0.0
 11
609.6
 21
452.4
 31
0.0
  0
LINE
  5
C8FF
330
C6FE
100
AcDbEntity
  8
1
  6
Continuous
100
AcDbLine
 10
609.2000000000001
 20
449.3999999999998
 30
0.0
 11
610.0
 21
449.3999999999998
 31
0.0
  0
LINE
  5
C900
330
C6FE
100
AcDbEntity
  8
3
  6
DASHED
100
AcDbLine
 10
583.8999999999997
 20
434.9
 30
0.0
 11
583.8999999999997
 21
459.4
 31
0.0
  0
LINE
  5
C901
330
C6FE
100
AcDbEntity
  8
3
  6
DASHED
100
AcDbLine
 10
586.8999999999997
 20
434.9
 30
0.0
 11
586.8999999999997
 21
459.4
 31
0.0
  0
ARC
  5
C902
330
C6FE
100
AcDbEntity
  8
1
  6
Continuous
100
AcDbCircle
 10
571.1
 20
447.1499999999998
 30
0.0
 40
2.25
100
AcDbArc
 50
90.0
 51
270.0
  0
LINE
  5
C903
330
C6FE
100
AcDbEntity
  8
1
  6
Continuous
100
AcDbLine
 10
571.1
 20
449.3999999999998
 30
0.0
 11
571.9
 21
449.3999999999998
 31
0.0
  0
LINE
  5
C904
330
C6FE
100
AcDbEntity
  8
4
  6
CENTER
100
AcDbLine
 10
571.4999999999998
 20
441.8999999999998
 30
0.0
 11
571.4999999999998
 21
452.4
 31
0.0
  0
LINE
  5
C905
330
C6FE
100
AcDbEntity
  8
1
  6
Continuous
100
AcDbLine
 10
571.1
 20
444.8999999999998
 30
0.0
 11
571.9
 21
444.8999999999998
 31
0.0
  0
ARC
  5
C906
330
C6FE
100
AcDbEntity
  8
1
  6
Continuous
100
AcDbCircle
 10
571.9
 20
447.1499999999998
 30
0.0
 40
2.25
100
AcDbArc
 50
270.0
 51
90.0
  0
ARC
  5
C907
330
C6FE
100
AcDbEntity
  8
1
  6
Continuous
100
AcDbCircle
 10
486.2
 20
447.1499999999998
 30
0.0
 40
2.25
100
AcDbArc
 50
270.0
 51
90.0
  0
LINE
  5
C908
330
C6FE
100
AcDbEntity
  8
1
  6
Continuous
100
AcDbLine
 10
422.4999999999998
 20
434.9
 30
0.0
 11
422.4999999999998
 21
429.4999999999998
 31
0.0
  0
LINE
  5
C909
330
C6FE
100
AcDbEntity
  8
1
  6
Continuous
100
AcDbLine
 10
444.5
 20
439.6499999999998
 30
0.0
 11
444.5
 21
429.4999999999998
 31
0.0
  0
LINE
  5
C90A
330
C6FE
100
AcDbEntity
  8
1
  6
Continuous
100
AcDbLine
 10
470.8499999999999
 20
446.75
 30
0.0
 11
470.8499999999999
 21
447.55
 31
0.0
  0
LINE
  5
C90B
330
C6FE
100
AcDbEntity
  8
1
  6
Continuous
100
AcDbLine
 10
475.35
 20
446.75
 30
0.0
 11
475.35
 21
447.55
 31
0.0
  0
LINE
  5
C90C
330
C6FE
100
AcDbEntity
  8
4
  6
CENTER
100
AcDbLine
 10
473.1
 20
441.8999999999998
 30
0.0
 11
473.1
 21
452.4
 31
0.0
  0
ARC
  5
C90D
330
C6FE
100
AcDbEntity
  8
1
  6
Continuous
100
AcDbCircle
 10
473.1
 20
447.55
 30
0.0
 40
2.25
100
AcDbArc
 50
0.0
 51
180.0
  0
ARC
  5
C90E
330
C6FE
100
AcDbEntity
  8
1
  6
Continuous
100
AcDbCircle
 10
473.1
 20
446.75
 30
0.0
 40
2.25
100
AcDbArc
 50
180.0
 51
0.0
  0
LINE
  5
C90F
330
C6FE
100
AcDbEntity
  8
4
  6
CENTER
100
AcDbLine
 10
485.8
 20
441.8999999999998
 30
0.0
 11
485.8
 21
452.4
 31
0.0
  0
ARC
  5
C910
330
C6FE
100
AcDbEntity
  8
1
  6
Continuous
100
AcDbCircle
 10
485.4
 20
447.1499999999998
 30
0.0
 40
2.25
100
AcDbArc
 50
90.0
 51
270.0
  0
LINE
  5
C911
330
C6FE
100
AcDbEntity
  8
1
  6
Continuous
100
AcDbLine
 10
485.4
 20
449.3999999999998
 30
0.0
 11
486.2
 21
449.3999999999998
 31
0.0
  0
LINE
  5
C912
330
C6FE
100
AcDbEntity
  8
1
  6
Continuous
100
AcDbLine
 10
485.4
 20
444.8999999999998
 30
0.0
 11
486.2
 21
444.8999999999998
 31
0.0
  0
ARC
  5
C913
330
C6FE
100
AcDbEntity
  8
1
  6
Continuous
100
AcDbCircle
 10
460.4
 20
446.75
 30
0.0
 40
2.25
100
AcDbArc
 50
180.0
 51
0.0
  0
LINE
  5
C914
330
C6FE
100
AcDbEntity
  8
4
  6
CENTER
100
AcDbLine
 10
460.4
 20
441.8999999999998
 30
0.0
 11
460.4
 21
452.4
 31
0.0
  0
LINE
  5
C915
330
C6FE
100
AcDbEntity
  8
1
  6
Continuous
100
AcDbLine
 10
462.65
 20
446.75
 30
0.0
 11
462.65
 21
447.55
 31
0.0
  0
LINE
  5
C916
330
C6FE
100
AcDbEntity
  8
1
  6
Continuous
100
AcDbLine
 10
458.15
 20
446.75
 30
0.0
 11
458.15
 21
447.55
 31
0.0
  0
ARC
  5
C917
330
C6FE
100
AcDbEntity
  8
1
  6
Continuous
100
AcDbCircle
 10
460.4
 20
447.55
 30
0.0
 40
2.25
100
AcDbArc
 50
0.0
 51
180.0
  0
LINE
  5
C918
330
C6FE
100
AcDbEntity
  8
3
  6
DASHED
100
AcDbLine
 10
422.4999999999998
 20
459.4
 30
0.0
 11
422.4999999999998
 21
454.6499999999999
 31
0.0
  0
LINE
  5
C919
330
C6FE
100
AcDbEntity
  8
1
  6
Continuous
100
AcDbLine
 10
444.5
 20
464.8
 30
0.0
 11
444.5
 21
454.6499999999999
 31
0.0
  0
ARC
  5
C91A
330
C6FE
100
AcDbEntity
  8
1
  6
Continuous
100
AcDbCircle
 10
420.8999999999998
 20
463.8885629999998
 30
0.0
 40
1.6
100
AcDbArc
 50
270.0
 51
0.0
  0
ARC
  5
C91B
330
C6FE
100
AcDbEntity
  8
1
  6
Continuous
100
AcDbCircle
 10
420.8999999999998
 20
463.2978689999998
 30
0.0
 40
1.6
100
AcDbArc
 50
270.0
 51
0.0
  0
LINE
  5
C91C
330
C6FE
100
AcDbEntity
  8
1
  6
Continuous
100
AcDbLine
 10
422.4999999999998
 20
464.8
 30
0.0
 11
422.4999999999998
 21
459.4
 31
0.0
  0
LINE
  5
C91D
330
C6FE
100
AcDbEntity
  8
1
  6
Continuous
100
AcDbLine
 10
447.0
 20
439.6499999999998
 30
0.0
 11
444.5
 21
439.6499999999998
 31
0.0
  0
LINE
  5
C91E
330
C6FE
100
AcDbEntity
  8
1
  6
Continuous
100
AcDbLine
 10
447.0
 20
454.6499999999999
 30
0.0
 11
447.0
 21
439.6499999999998
 31
0.0
  0
LINE
  5
C91F
330
C6FE
100
AcDbEntity
  8
1
  6
Continuous
100
AcDbLine
 10
447.0
 20
454.6499999999999
 30
0.0
 11
444.5
 21
454.6499999999999
 31
0.0
  0
LINE
  5
C920
330
C6FE
100
AcDbEntity
  8
3
  6
DASHED
100
AcDbLine
 10
422.4999999999998
 20
439.6499999999998
 30
0.0
 11
422.4999999999998
 21
434.9
 31
0.0
  0
ARC
  5
C921
330
C6FE
100
AcDbEntity
  8
1
  6
Continuous
100
AcDbCircle
 10
420.8999999999998
 20
431.0021309999998
 30
0.0
 40
1.6
100
AcDbArc
 50
0.0
 51
90.0
  0
ARC
  5
C922
330
C6FE
100
AcDbEntity
  8
1
  6
Continuous
100
AcDbCircle
 10
420.8999999999998
 20
430.4114369999998
 30
0.0
 40
1.6
100
AcDbArc
 50
0.0
 51
90.0
  0
LINE
  5
C923
330
C6FE
100
AcDbEntity
  8
1
  6
Continuous
100
AcDbLine
 10
293.5
 20
433.55
 30
0.0
 11
283.0
 21
433.55
 31
0.0
  0
LINE
  5
C924
330
C6FE
100
AcDbEntity
  8
1
  6
Continuous
100
AcDbLine
 10
293.5
 20
434.05
 30
0.0
 11
283.0
 21
434.05
 31
0.0
  0
LINE
  5
C925
330
C6FE
100
AcDbEntity
  8
1
  6
Continuous
100
AcDbLine
 10
293.5
 20
460.25
 30
0.0
 11
283.0
 21
460.25
 31
0.0
  0
LINE
  5
C926
330
C6FE
100
AcDbEntity
  8
1
  6
Continuous
100
AcDbLine
 10
293.5
 20
460.7499999999998
 30
0.0
 11
283.0
 21
460.7499999999998
 31
0.0
  0
LINE
  5
C927
330
C6FE
100
AcDbEntity
  8
1
  6
Continuous
100
AcDbLine
 10
356.0
 20
434.05
 30
0.0
 11
345.5
 21
434.05
 31
0.0
  0
LINE
  5
C928
330
C6FE
100
AcDbEntity
  8
1
  6
Continuous
100
AcDbLine
 10
356.0
 20
433.55
 30
0.0
 11
345.5
 21
433.55
 31
0.0
  0
LINE
  5
C929
330
C6FE
100
AcDbEntity
  8
1
  6
Continuous
100
AcDbLine
 10
356.0
 20
460.7499999999998
 30
0.0
 11
345.5
 21
460.7499999999998
 31
0.0
  0
LINE
  5
C92A
330
C6FE
100
AcDbEntity
  8
1
  6
Continuous
100
AcDbLine
 10
356.0
 20
460.25
 30
0.0
 11
345.5
 21
460.25
 31
0.0
  0
LINE
  5
C92B
330
C6FE
100
AcDbEntity
  8
1
  6
Continuous
100
AcDbLine
 10
356.0
 20
433.55
 30
0.0
 11
356.0
 21
434.9
 31
0.0
  0
LINE
  5
C92C
330
C6FE
100
AcDbEntity
  8
1
  6
Continuous
100
AcDbLine
 10
358.0
 20
433.55
 30
0.0
 11
358.0
 21
434.9
 31
0.0
  0
ARC
  5
C92D
330
C6FE
100
AcDbEntity
  8
1
  6
Continuous
100
AcDbCircle
 10
363.25
 20
433.4812499999999
 30
0.0
 40
2.38125
100
AcDbArc
 50
143.430279
 51
166.18161
  0
LINE
  5
C92E
330
C6FE
100
AcDbEntity
  8
1
  6
Continuous
100
AcDbLine
 10
368.5
 20
433.55
 30
0.0
 11
368.5
 21
434.9
 31
0.0
  0
ARC
  5
C92F
330
C6FE
100
AcDbEntity
  8
1
  6
Continuous
100
AcDbCircle
 10
363.25
 20
433.4812499999999
 30
0.0
 40
2.38125
100
AcDbArc
 50
13.81839
 51
36.569721
  0
ARC
  5
C930
330
C6FE
100
AcDbEntity
  8
1
  6
Continuous
100
AcDbCircle
 10
375.75
 20
433.4812499999999
 30
0.0
 40
2.38125
100
AcDbArc
 50
13.81839
 51
36.569721
  0
ARC
  5
C931
330
C6FE
100
AcDbEntity
  8
1
  6
Continuous
100
AcDbCircle
 10
375.75
 20
433.4812499999999
 30
0.0
 40
2.38125
100
AcDbArc
 50
143.430279
 51
166.18161
  0
LINE
  5
C932
330
C6FE
100
AcDbEntity
  8
1
  6
Continuous
100
AcDbLine
 10
381.0
 20
433.55
 30
0.0
 11
381.0
 21
434.9
 31
0.0
  0
LINE
  5
C933
330
C6FE
100
AcDbEntity
  8
1
  6
Continuous
100
AcDbLine
 10
370.5
 20
433.55
 30
0.0
 11
370.5
 21
434.9
 31
0.0
  0
LINE
  5
C934
330
C6FE
100
AcDbEntity
  8
1
  6
Continuous
100
AcDbLine
 10
383.0
 20
433.55
 30
0.0
 11
383.0
 21
434.9
 31
0.0
  0
LINE
  5
C935
330
C6FE
100
AcDbEntity
  8
1
  6
Continuous
100
AcDbLine
 10
393.5
 20
433.55
 30
0.0
 11
393.5
 21
434.9
 31
0.0
  0
ARC
  5
C936
330
C6FE
100
AcDbEntity
  8
1
  6
Continuous
100
AcDbCircle
 10
388.25
 20
433.4812499999999
 30
0.0
 40
2.38125
100
AcDbArc
 50
143.430279
 51
166.18161
  0
ARC
  5
C937
330
C6FE
100
AcDbEntity
  8
1
  6
Continuous
100
AcDbCircle
 10
388.25
 20
433.4812499999999
 30
0.0
 40
2.38125
100
AcDbArc
 50
13.81839
 51
36.569721
  0
ARC
  5
C938
330
C6FE
100
AcDbEntity
  8
1
  6
Continuous
100
AcDbCircle
 10
400.75
 20
433.4812499999999
 30
0.0
 40
2.38125
100
AcDbArc
 50
13.81839
 51
36.569721
  0
ARC
  5
C939
330
C6FE
100
AcDbEntity
  8
1
  6
Continuous
100
AcDbCircle
 10
400.75
 20
433.4812499999999
 30
0.0
 40
2.38125
100
AcDbArc
 50
143.430279
 51
166.18161
  0
LINE
  5
C93A
330
C6FE
100
AcDbEntity
  8
1
  6
Continuous
100
AcDbLine
 10
406.0
 20
433.55
 30
0.0
 11
406.0
 21
434.9
 31
0.0
  0
LINE
  5
C93B
330
C6FE
100
AcDbEntity
  8
1
  6
Continuous
100
AcDbLine
 10
395.5
 20
433.55
 30
0.0
 11
395.5
 21
434.9
 31
0.0
  0
LINE
  5
C93C
330
C6FE
100
AcDbEntity
  8
1
  6
Continuous
100
AcDbLine
 10
408.0
 20
433.55
 30
0.0
 11
408.0
 21
434.9
 31
0.0
  0
LINE
  5
C93D
330
C6FE
100
AcDbEntity
  8
1
  6
Continuous
100
AcDbLine
 10
418.5
 20
433.55
 30
0.0
 11
418.5
 21
434.9
 31
0.0
  0
ARC
  5
C93E
330
C6FE
100
AcDbEntity
  8
1
  6
Continuous
100
AcDbCircle
 10
413.25
 20
433.4812499999999
 30
0.0
 40
2.38125
100
AcDbArc
 50
143.430279
 51
166.18161
  0
ARC
  5
C93F
330
C6FE
100
AcDbEntity
  8
1
  6
Continuous
100
AcDbCircle
 10
413.25
 20
433.4812499999999
 30
0.0
 40
2.38125
100
AcDbArc
 50
13.81839
 51
36.569721
  0
LINE
  5
C940
330
C6FE
100
AcDbEntity
  8
1
  6
Continuous
100
AcDbLine
 10
393.5
 20
460.25
 30
0.0
 11
383.0
 21
460.25
 31
0.0
  0
LINE
  5
C941
330
C6FE
100
AcDbEntity
  8
1
  6
Continuous
100
AcDbLine
 10
393.5
 20
460.7499999999998
 30
0.0
 11
383.0
 21
460.7499999999998
 31
0.0
  0
LINE
  5
C942
330
C6FE
100
AcDbEntity
  8
1
  6
Continuous
100
AcDbLine
 10
406.0
 20
460.7499999999998
 30
0.0
 11
395.5
 21
460.7499999999998
 31
0.0
  0
LINE
  5
C943
330
C6FE
100
AcDbEntity
  8
1
  6
Continuous
100
AcDbLine
 10
406.0
 20
460.25
 30
0.0
 11
395.5
 21
460.25
 31
0.0
  0
ARC
  5
C944
330
C6FE
100
AcDbEntity
  8
1
  6
Continuous
100
AcDbCircle
 10
413.25
 20
460.81875
 30
0.0
 40
2.38125
100
AcDbArc
 50
158.3347039999999
 51
181.6544389999999
  0
ARC
  5
C945
330
C6FE
100
AcDbEntity
  8
1
  6
Continuous
100
AcDbCircle
 10
413.25
 20
460.81875
 30
0.0
 40
2.38125
100
AcDbArc
 50
193.81839
 51
216.5697209999999
  0
LINE
  5
C946
330
C6FE
100
AcDbEntity
  8
1
  6
Continuous
100
AcDbLine
 10
408.0
 20
460.7499999999998
 30
0.0
 11
408.0
 21
459.4
 31
0.0
  0
LINE
  5
C947
330
C6FE
100
AcDbEntity
  8
1
  6
Continuous
100
AcDbLine
 10
406.0
 20
460.7499999999998
 30
0.0
 11
406.0
 21
459.4
 31
0.0
  0
ARC
  5
C948
330
C6FE
100
AcDbEntity
  8
1
  6
Continuous
100
AcDbCircle
 10
413.25
 20
460.81875
 30
0.0
 40
2.38125
100
AcDbArc
 50
358.3455609999999
 51
21.665296
  0
ARC
  5
C949
330
C6FE
100
AcDbEntity
  8
1
  6
Continuous
100
AcDbCircle
 10
413.25
 20
460.81875
 30
0.0
 40
2.38125
100
AcDbArc
 50
323.430279
 51
346.18161
  0
LINE
  5
C94A
330
C6FE
100
AcDbEntity
  8
1
  6
Continuous
100
AcDbLine
 10
418.5
 20
460.7499999999998
 30
0.0
 11
418.5
 21
459.4
 31
0.0
  0
LINE
  5
C94B
330
C6FE
100
AcDbEntity
  8
1
  6
Continuous
100
AcDbLine
 10
418.5
 20
460.25
 30
0.0
 11
408.0
 21
460.25
 31
0.0
  0
LINE
  5
C94C
330
C6FE
100
AcDbEntity
  8
1
  6
Continuous
100
AcDbLine
 10
418.5
 20
460.7499999999998
 30
0.0
 11
408.0
 21
460.7499999999998
 31
0.0
  0
ARC
  5
C94D
330
C6FE
100
AcDbEntity
  8
1
  6
Continuous
100
AcDbCircle
 10
388.25
 20
460.81875
 30
0.0
 40
2.38125
100
AcDbArc
 50
358.3455609999999
 51
21.665296
  0
LINE
  5
C94E
330
C6FE
100
AcDbEntity
  8
1
  6
Continuous
100
AcDbLine
 10
395.5
 20
460.7499999999998
 30
0.0
 11
395.5
 21
459.4
 31
0.0
  0
ARC
  5
C94F
330
C6FE
100
AcDbEntity
  8
1
  6
Continuous
100
AcDbCircle
 10
388.25
 20
460.81875
 30
0.0
 40
2.38125
100
AcDbArc
 50
323.430279
 51
346.18161
  0
LINE
  5
C950
330
C6FE
100
AcDbEntity
  8
1
  6
Continuous
100
AcDbLine
 10
393.5
 20
460.7499999999998
 30
0.0
 11
393.5
 21
459.4
 31
0.0
  0
ARC
  5
C951
330
C6FE
100
AcDbEntity
  8
1
  6
Continuous
100
AcDbCircle
 10
400.75
 20
460.81875
 30
0.0
 40
2.38125
100
AcDbArc
 50
358.3455609999999
 51
21.665296
  0
ARC
  5
C952
330
C6FE
100
AcDbEntity
  8
1
  6
Continuous
100
AcDbCircle
 10
400.75
 20
460.81875
 30
0.0
 40
2.38125
100
AcDbArc
 50
158.3347039999999
 51
181.6544389999999
  0
ARC
  5
C953
330
C6FE
100
AcDbEntity
  8
1
  6
Continuous
100
AcDbCircle
 10
400.75
 20
460.81875
 30
0.0
 40
2.38125
100
AcDbArc
 50
193.81839
 51
216.5697209999999
  0
ARC
  5
C954
330
C6FE
100
AcDbEntity
  8
1
  6
Continuous
100
AcDbCircle
 10
400.75
 20
460.81875
 30
0.0
 40
2.38125
100
AcDbArc
 50
323.430279
 51
346.18161
  0
ARC
  5
C955
330
C6FE
100
AcDbEntity
  8
1
  6
Continuous
100
AcDbCircle
 10
405.1
 20
447.1499999999998
 30
0.0
 40
5.0
100
AcDbArc
 50
90.0
 51
270.0
  0
LINE
  5
C956
330
C6FE
100
AcDbEntity
  8
4
  6
CENTER
100
AcDbLine
 10
406.6
 20
439.9433469999998
 30
0.0
 11
406.6
 21
454.75939
 31
0.0
  0
ARC
  5
C957
330
C6FE
100
AcDbEntity
  8
1
  6
Continuous
100
AcDbCircle
 10
408.1
 20
447.1499999999998
 30
0.0
 40
5.0
100
AcDbArc
 50
270.0
 51
90.0
  0
LINE
  5
C958
330
C6FE
100
AcDbEntity
  8
1
  6
Continuous
100
AcDbLine
 10
408.1
 20
452.1499999999998
 30
0.0
 11
405.1
 21
452.1499999999998
 31
0.0
  0
LINE
  5
C959
330
C6FE
100
AcDbEntity
  8
1
  6
Continuous
100
AcDbLine
 10
408.1
 20
442.1499999999999
 30
0.0
 11
405.1
 21
442.1499999999999
 31
0.0
  0
LINE
  5
C95A
330
C6FE
100
AcDbEntity
  8
1
  6
Continuous
100
AcDbLine
 10
408.85
 20
446.75
 30
0.0
 11
408.85
 21
447.55
 31
0.0
  0
LINE
  5
C95B
330
C6FE
100
AcDbEntity
  8
1
  6
Continuous
100
AcDbLine
 10
404.3499999999998
 20
446.75
 30
0.0
 11
404.3499999999998
 21
447.55
 31
0.0
  0
ARC
  5
C95C
330
C6FE
100
AcDbEntity
  8
1
  6
Continuous
100
AcDbCircle
 10
406.6
 20
447.55
 30
0.0
 40
2.25
100
AcDbArc
 50
0.0
 51
180.0
  0
ARC
  5
C95D
330
C6FE
100
AcDbEntity
  8
1
  6
Continuous
100
AcDbCircle
 10
406.6
 20
446.75
 30
0.0
 40
2.25
100
AcDbArc
 50
180.0
 51
0.0
  0
LINE
  5
C95E
330
C6FE
100
AcDbEntity
  8
3
  6
DASHED
100
AcDbLine
 10
420.0
 20
454.6499999999999
 30
0.0
 11
420.0
 21
439.6499999999998
 31
0.0
  0
LINE
  5
C95F
330
C6FE
100
AcDbEntity
  8
4
  6
CENTER
100
AcDbLine
 10
393.9
 20
441.8999999999998
 30
0.0
 11
393.9
 21
452.4
 31
0.0
  0
LINE
  5
C960
330
C6FE
100
AcDbEntity
  8
1
  6
Continuous
100
AcDbLine
 10
381.0
 20
460.7499999999998
 30
0.0
 11
370.5
 21
460.7499999999998
 31
0.0
  0
LINE
  5
C961
330
C6FE
100
AcDbEntity
  8
1
  6
Continuous
100
AcDbLine
 10
381.0
 20
460.25
 30
0.0
 11
370.5
 21
460.25
 31
0.0
  0
ARC
  5
C962
330
C6FE
100
AcDbEntity
  8
1
  6
Continuous
100
AcDbCircle
 10
375.75
 20
460.81875
 30
0.0
 40
2.38125
100
AcDbArc
 50
358.3455609999999
 51
21.665296
  0
ARC
  5
C963
330
C6FE
100
AcDbEntity
  8
1
  6
Continuous
100
AcDbCircle
 10
375.75
 20
460.81875
 30
0.0
 40
2.38125
100
AcDbArc
 50
158.3347039999999
 51
181.6544389999999
  0
LINE
  5
C964
330
C6FE
100
AcDbEntity
  8
1
  6
Continuous
100
AcDbLine
 10
381.0
 20
460.7499999999998
 30
0.0
 11
381.0
 21
459.4
 31
0.0
  0
ARC
  5
C965
330
C6FE
100
AcDbEntity
  8
1
  6
Continuous
100
AcDbCircle
 10
375.75
 20
460.81875
 30
0.0
 40
2.38125
100
AcDbArc
 50
193.81839
 51
216.5697209999999
  0
ARC
  5
C966
330
C6FE
100
AcDbEntity
  8
1
  6
Continuous
100
AcDbCircle
 10
375.75
 20
460.81875
 30
0.0
 40
2.38125
100
AcDbArc
 50
323.430279
 51
346.18161
  0
ARC
  5
C967
330
C6FE
100
AcDbEntity
  8
1
  6
Continuous
100
AcDbCircle
 10
388.25
 20
460.81875
 30
0.0
 40
2.38125
100
AcDbArc
 50
158.3347039999999
 51
181.6544389999999
  0
ARC
  5
C968
330
C6FE
100
AcDbEntity
  8
1
  6
Continuous
100
AcDbCircle
 10
388.25
 20
460.81875
 30
0.0
 40
2.38125
100
AcDbArc
 50
193.81839
 51
216.5697209999999
  0
LINE
  5
C969
330
C6FE
100
AcDbEntity
  8
1
  6
Continuous
100
AcDbLine
 10
383.0
 20
460.7499999999998
 30
0.0
 11
383.0
 21
459.4
 31
0.0
  0
ARC
  5
C96A
330
C6FE
100
AcDbEntity
  8
1
  6
Continuous
100
AcDbCircle
 10
363.25
 20
460.81875
 30
0.0
 40
2.38125
100
AcDbArc
 50
158.3347039999999
 51
181.6544389999999
  0
ARC
  5
C96B
330
C6FE
100
AcDbEntity
  8
1
  6
Continuous
100
AcDbCircle
 10
363.25
 20
460.81875
 30
0.0
 40
2.38125
100
AcDbArc
 50
193.81839
 51
216.5697209999999
  0
LINE
  5
C96C
330
C6FE
100
AcDbEntity
  8
1
  6
Continuous
100
AcDbLine
 10
358.0
 20
460.7499999999998
 30
0.0
 11
358.0
 21
459.4
 31
0.0
  0
LINE
  5
C96D
330
C6FE
100
AcDbEntity
  8
1
  6
Continuous
100
AcDbLine
 10
356.0
 20
460.7499999999998
 30
0.0
 11
356.0
 21
459.4
 31
0.0
  0
ARC
  5
C96E
330
C6FE
100
AcDbEntity
  8
1
  6
Continuous
100
AcDbCircle
 10
363.25
 20
460.81875
 30
0.0
 40
2.38125
100
AcDbArc
 50
358.3455609999999
 51
21.665296
  0
LINE
  5
C96F
330
C6FE
100
AcDbEntity
  8
1
  6
Continuous
100
AcDbLine
 10
370.5
 20
460.7499999999998
 30
0.0
 11
370.5
 21
459.4
 31
0.0
  0
ARC
  5
C970
330
C6FE
100
AcDbEntity
  8
1
  6
Continuous
100
AcDbCircle
 10
363.25
 20
460.81875
 30
0.0
 40
2.38125
100
AcDbArc
 50
323.430279
 51
346.18161
  0
LINE
  5
C971
330
C6FE
100
AcDbEntity
  8
1
  6
Continuous
100
AcDbLine
 10
368.5
 20
460.7499999999998
 30
0.0
 11
368.5
 21
459.4
 31
0.0
  0
LINE
  5
C972
330
C6FE
100
AcDbEntity
  8
1
  6
Continuous
100
AcDbLine
 10
368.5
 20
460.25
 30
0.0
 11
358.0
 21
460.25
 31
0.0
  0
LINE
  5
C973
330
C6FE
100
AcDbEntity
  8
1
  6
Continuous
100
AcDbLine
 10
368.5
 20
460.7499999999998
 30
0.0
 11
358.0
 21
460.7499999999998
 31
0.0
  0
LINE
  5
C974
330
C6FE
100
AcDbEntity
  8
4
  6
CENTER
100
AcDbLine
 10
381.1999999999999
 20
441.8999999999998
 30
0.0
 11
381.1999999999999
 21
452.4
 31
0.0
  0
LINE
  5
C975
330
C6FE
100
AcDbEntity
  8
1
  6
Continuous
100
AcDbLine
 10
393.5
 20
433.55
 30
0.0
 11
383.0
 21
433.55
 31
0.0
  0
LINE
  5
C976
330
C6FE
100
AcDbEntity
  8
1
  6
Continuous
100
AcDbLine
 10
393.5
 20
434.05
 30
0.0
 11
383.0
 21
434.05
 31
0.0
  0
LINE
  5
C977
330
C6FE
100
AcDbEntity
  8
1
  6
Continuous
100
AcDbLine
 10
406.0
 20
434.05
 30
0.0
 11
395.5
 21
434.05
 31
0.0
  0
LINE
  5
C978
330
C6FE
100
AcDbEntity
  8
1
  6
Continuous
100
AcDbLine
 10
406.0
 20
433.55
 30
0.0
 11
395.5
 21
433.55
 31
0.0
  0
ARC
  5
C979
330
C6FE
100
AcDbEntity
  8
1
  6
Continuous
100
AcDbCircle
 10
413.25
 20
433.4812499999999
 30
0.0
 40
2.38125
100
AcDbArc
 50
178.345561
 51
201.6652959999999
  0
ARC
  5
C97A
330
C6FE
100
AcDbEntity
  8
1
  6
Continuous
100
AcDbCircle
 10
413.25
 20
433.4812499999999
 30
0.0
 40
2.38125
100
AcDbArc
 50
338.3347039999998
 51
1.654438999999999
  0
LINE
  5
C97B
330
C6FE
100
AcDbEntity
  8
1
  6
Continuous
100
AcDbLine
 10
418.5
 20
433.55
 30
0.0
 11
408.0
 21
433.55
 31
0.0
  0
LINE
  5
C97C
330
C6FE
100
AcDbEntity
  8
1
  6
Continuous
100
AcDbLine
 10
418.5
 20
434.05
 30
0.0
 11
408.0
 21
434.05
 31
0.0
  0
ARC
  5
C97D
330
C6FE
100
AcDbEntity
  8
1
  6
Continuous
100
AcDbCircle
 10
388.25
 20
433.4812499999999
 30
0.0
 40
2.38125
100
AcDbArc
 50
338.3347039999998
 51
1.654438999999999
  0
ARC
  5
C97E
330
C6FE
100
AcDbEntity
  8
1
  6
Continuous
100
AcDbCircle
 10
400.75
 20
433.4812499999999
 30
0.0
 40
2.38125
100
AcDbArc
 50
178.345561
 51
201.6652959999999
  0
ARC
  5
C97F
330
C6FE
100
AcDbEntity
  8
1
  6
Continuous
100
AcDbCircle
 10
400.75
 20
433.4812499999999
 30
0.0
 40
2.38125
100
AcDbArc
 50
338.3347039999998
 51
1.654438999999999
  0
LINE
  5
C980
330
C6FE
100
AcDbEntity
  8
1
  6
Continuous
100
AcDbLine
 10
381.0
 20
434.05
 30
0.0
 11
370.5
 21
434.05
 31
0.0
  0
LINE
  5
C981
330
C6FE
100
AcDbEntity
  8
1
  6
Continuous
100
AcDbLine
 10
381.0
 20
433.55
 30
0.0
 11
370.5
 21
433.55
 31
0.0
  0
ARC
  5
C982
330
C6FE
100
AcDbEntity
  8
1
  6
Continuous
100
AcDbCircle
 10
375.75
 20
433.4812499999999
 30
0.0
 40
2.38125
100
AcDbArc
 50
178.345561
 51
201.6652959999999
  0
ARC
  5
C983
330
C6FE
100
AcDbEntity
  8
1
  6
Continuous
100
AcDbCircle
 10
375.75
 20
433.4812499999999
 30
0.0
 40
2.38125
100
AcDbArc
 50
338.3347039999998
 51
1.654438999999999
  0
ARC
  5
C984
330
C6FE
100
AcDbEntity
  8
1
  6
Continuous
100
AcDbCircle
 10
388.25
 20
433.4812499999999
 30
0.0
 40
2.38125
100
AcDbArc
 50
178.345561
 51
201.6652959999999
  0
ARC
  5
C985
330
C6FE
100
AcDbEntity
  8
1
  6
Continuous
100
AcDbCircle
 10
363.25
 20
433.4812499999999
 30
0.0
 40
2.38125
100
AcDbArc
 50
178.345561
 51
201.6652959999999
  0
ARC
  5
C986
330
C6FE
100
AcDbEntity
  8
1
  6
Continuous
100
AcDbCircle
 10
363.25
 20
433.4812499999999
 30
0.0
 40
2.38125
100
AcDbArc
 50
338.3347039999998
 51
1.654438999999999
  0
LINE
  5
C987
330
C6FE
100
AcDbEntity
  8
1
  6
Continuous
100
AcDbLine
 10
368.5
 20
433.55
 30
0.0
 11
358.0
 21
433.55
 31
0.0
  0
LINE
  5
C988
330
C6FE
100
AcDbEntity
  8
1
  6
Continuous
100
AcDbLine
 10
368.5
 20
434.05
 30
0.0
 11
358.0
 21
434.05
 31
0.0
  0
LINE
  5
C989
330
C6FE
100
AcDbEntity
  8
1
  6
Continuous
100
AcDbLine
 10
293.5
 20
433.55
 30
0.0
 11
293.5
 21
434.9
 31
0.0
  0
ARC
  5
C98A
330
C6FE
100
AcDbEntity
  8
1
  6
Continuous
100
AcDbCircle
 10
288.2499999999998
 20
433.4812499999999
 30
0.0
 40
2.38125
100
AcDbArc
 50
13.81839
 51
36.569721
  0
LINE
  5
C98B
330
C6FE
100
AcDbEntity
  8
1
  6
Continuous
100
AcDbLine
 10
295.5
 20
433.55
 30
0.0
 11
295.5
 21
434.9
 31
0.0
  0
ARC
  5
C98C
330
C6FE
100
AcDbEntity
  8
1
  6
Continuous
100
AcDbCircle
 10
300.75
 20
433.4812499999999
 30
0.0
 40
2.38125
100
AcDbArc
 50
143.430279
 51
166.18161
  0
ARC
  5
C98D
330
C6FE
100
AcDbEntity
  8
1
  6
Continuous
100
AcDbCircle
 10
300.75
 20
433.4812499999999
 30
0.0
 40
2.38125
100
AcDbArc
 50
13.81839
 51
36.569721
  0
LINE
  5
C98E
330
C6FE
100
AcDbEntity
  8
1
  6
Continuous
100
AcDbLine
 10
306.0
 20
433.55
 30
0.0
 11
306.0
 21
434.9
 31
0.0
  0
LINE
  5
C98F
330
C6FE
100
AcDbEntity
  8
1
  6
Continuous
100
AcDbLine
 10
318.5
 20
433.55
 30
0.0
 11
318.5
 21
434.9
 31
0.0
  0
ARC
  5
C990
330
C6FE
100
AcDbEntity
  8
1
  6
Continuous
100
AcDbCircle
 10
313.25
 20
433.4812499999999
 30
0.0
 40
2.38125
100
AcDbArc
 50
13.81839
 51
36.569721
  0
LINE
  5
C991
330
C6FE
100
AcDbEntity
  8
1
  6
Continuous
100
AcDbLine
 10
308.0
 20
433.55
 30
0.0
 11
308.0
 21
434.9
 31
0.0
  0
ARC
  5
C992
330
C6FE
100
AcDbEntity
  8
1
  6
Continuous
100
AcDbCircle
 10
313.25
 20
433.4812499999999
 30
0.0
 40
2.38125
100
AcDbArc
 50
143.430279
 51
166.18161
  0
ARC
  5
C993
330
C6FE
100
AcDbEntity
  8
1
  6
Continuous
100
AcDbCircle
 10
325.75
 20
433.4812499999999
 30
0.0
 40
2.38125
100
AcDbArc
 50
143.430279
 51
166.18161
  0
LINE
  5
C994
330
C6FE
100
AcDbEntity
  8
1
  6
Continuous
100
AcDbLine
 10
320.5
 20
433.55
 30
0.0
 11
320.5
 21
434.9
 31
0.0
  0
ARC
  5
C995
330
C6FE
100
AcDbEntity
  8
1
  6
Continuous
100
AcDbCircle
 10
325.75
 20
433.4812499999999
 30
0.0
 40
2.38125
100
AcDbArc
 50
13.81839
 51
36.569721
  0
LINE
  5
C996
330
C6FE
100
AcDbEntity
  8
1
  6
Continuous
100
AcDbLine
 10
331.0
 20
433.55
 30
0.0
 11
331.0
 21
434.9
 31
0.0
  0
LINE
  5
C997
330
C6FE
100
AcDbEntity
  8
1
  6
Continuous
100
AcDbLine
 10
343.5
 20
433.55
 30
0.0
 11
343.5
 21
434.9
 31
0.0
  0
ARC
  5
C998
330
C6FE
100
AcDbEntity
  8
1
  6
Continuous
100
AcDbCircle
 10
338.25
 20
433.4812499999999
 30
0.0
 40
2.38125
100
AcDbArc
 50
13.81839
 51
36.569721
  0
LINE
  5
C999
330
C6FE
100
AcDbEntity
  8
1
  6
Continuous
100
AcDbLine
 10
333.0
 20
433.55
 30
0.0
 11
333.0
 21
434.9
 31
0.0
  0
ARC
  5
C99A
330
C6FE
100
AcDbEntity
  8
1
  6
Continuous
100
AcDbCircle
 10
338.25
 20
433.4812499999999
 30
0.0
 40
2.38125
100
AcDbArc
 50
143.430279
 51
166.18161
  0
ARC
  5
C99B
330
C6FE
100
AcDbEntity
  8
1
  6
Continuous
100
AcDbCircle
 10
350.75
 20
433.4812499999999
 30
0.0
 40
2.38125
100
AcDbArc
 50
143.430279
 51
166.18161
  0
LINE
  5
C99C
330
C6FE
100
AcDbEntity
  8
1
  6
Continuous
100
AcDbLine
 10
345.5
 20
433.55
 30
0.0
 11
345.5
 21
434.9
 31
0.0
  0
ARC
  5
C99D
330
C6FE
100
AcDbEntity
  8
1
  6
Continuous
100
AcDbCircle
 10
350.75
 20
433.4812499999999
 30
0.0
 40
2.38125
100
AcDbArc
 50
13.81839
 51
36.569721
  0
LINE
  5
C99E
330
C6FE
100
AcDbEntity
  8
1
  6
Continuous
100
AcDbLine
 10
343.5
 20
460.25
 30
0.0
 11
333.0
 21
460.25
 31
0.0
  0
LINE
  5
C99F
330
C6FE
100
AcDbEntity
  8
1
  6
Continuous
100
AcDbLine
 10
343.5
 20
460.7499999999998
 30
0.0
 11
333.0
 21
460.7499999999998
 31
0.0
  0
ARC
  5
C9A0
330
C6FE
100
AcDbEntity
  8
1
  6
Continuous
100
AcDbCircle
 10
338.25
 20
460.81875
 30
0.0
 40
2.38125
100
AcDbArc
 50
358.3455609999999
 51
21.665296
  0
LINE
  5
C9A1
330
C6FE
100
AcDbEntity
  8
1
  6
Continuous
100
AcDbLine
 10
345.5
 20
460.7499999999998
 30
0.0
 11
345.5
 21
459.4
 31
0.0
  0
ARC
  5
C9A2
330
C6FE
100
AcDbEntity
  8
1
  6
Continuous
100
AcDbCircle
 10
338.25
 20
460.81875
 30
0.0
 40
2.38125
100
AcDbArc
 50
323.430279
 51
346.18161
  0
LINE
  5
C9A3
330
C6FE
100
AcDbEntity
  8
1
  6
Continuous
100
AcDbLine
 10
343.5
 20
460.7499999999998
 30
0.0
 11
343.5
 21
459.4
 31
0.0
  0
ARC
  5
C9A4
330
C6FE
100
AcDbEntity
  8
1
  6
Continuous
100
AcDbCircle
 10
350.75
 20
460.81875
 30
0.0
 40
2.38125
100
AcDbArc
 50
358.3455609999999
 51
21.665296
  0
ARC
  5
C9A5
330
C6FE
100
AcDbEntity
  8
1
  6
Continuous
100
AcDbCircle
 10
350.75
 20
460.81875
 30
0.0
 40
2.38125
100
AcDbArc
 50
158.3347039999999
 51
181.6544389999999
  0
ARC
  5
C9A6
330
C6FE
100
AcDbEntity
  8
1
  6
Continuous
100
AcDbCircle
 10
350.75
 20
460.81875
 30
0.0
 40
2.38125
100
AcDbArc
 50
323.430279
 51
346.18161
  0
ARC
  5
C9A7
330
C6FE
100
AcDbEntity
  8
1
  6
Continuous
100
AcDbCircle
 10
350.75
 20
460.81875
 30
0.0
 40
2.38125
100
AcDbArc
 50
193.81839
 51
216.5697209999999
  0
ARC
  5
C9A8
330
C6FE
100
AcDbEntity
  8
1
  6
Continuous
100
AcDbCircle
 10
325.75
 20
460.81875
 30
0.0
 40
2.38125
100
AcDbArc
 50
358.3455609999999
 51
21.665296
  0
ARC
  5
C9A9
330
C6FE
100
AcDbEntity
  8
1
  6
Continuous
100
AcDbCircle
 10
325.75
 20
460.81875
 30
0.0
 40
2.38125
100
AcDbArc
 50
158.3347039999999
 51
181.6544389999999
  0
LINE
  5
C9AA
330
C6FE
100
AcDbEntity
  8
1
  6
Continuous
100
AcDbLine
 10
331.0
 20
460.7499999999998
 30
0.0
 11
320.5
 21
460.7499999999998
 31
0.0
  0
LINE
  5
C9AB
330
C6FE
100
AcDbEntity
  8
1
  6
Continuous
100
AcDbLine
 10
331.0
 20
460.25
 30
0.0
 11
320.5
 21
460.25
 31
0.0
  0
LINE
  5
C9AC
330
C6FE
100
AcDbEntity
  8
1
  6
Continuous
100
AcDbLine
 10
331.0
 20
460.7499999999998
 30
0.0
 11
331.0
 21
459.4
 31
0.0
  0
ARC
  5
C9AD
330
C6FE
100
AcDbEntity
  8
1
  6
Continuous
100
AcDbCircle
 10
325.75
 20
460.81875
 30
0.0
 40
2.38125
100
AcDbArc
 50
323.430279
 51
346.18161
  0
LINE
  5
C9AE
330
C6FE
100
AcDbEntity
  8
1
  6
Continuous
100
AcDbLine
 10
320.5
 20
460.7499999999998
 30
0.0
 11
320.5
 21
459.4
 31
0.0
  0
ARC
  5
C9AF
330
C6FE
100
AcDbEntity
  8
1
  6
Continuous
100
AcDbCircle
 10
325.75
 20
460.81875
 30
0.0
 40
2.38125
100
AcDbArc
 50
193.81839
 51
216.5697209999999
  0
ARC
  5
C9B0
330
C6FE
100
AcDbEntity
  8
1
  6
Continuous
100
AcDbCircle
 10
338.25
 20
460.81875
 30
0.0
 40
2.38125
100
AcDbArc
 50
158.3347039999999
 51
181.6544389999999
  0
ARC
  5
C9B1
330
C6FE
100
AcDbEntity
  8
1
  6
Continuous
100
AcDbCircle
 10
338.25
 20
460.81875
 30
0.0
 40
2.38125
100
AcDbArc
 50
193.81839
 51
216.5697209999999
  0
LINE
  5
C9B2
330
C6FE
100
AcDbEntity
  8
1
  6
Continuous
100
AcDbLine
 10
333.0
 20
460.7499999999998
 30
0.0
 11
333.0
 21
459.4
 31
0.0
  0
LINE
  5
C9B3
330
C6FE
100
AcDbEntity
  8
1
  6
Continuous
100
AcDbLine
 10
318.1
 20
437.0625
 30
0.0
 11
318.1
 21
457.2375
 31
0.0
  0
LINE
  5
C9B4
330
C6FE
100
AcDbEntity
  8
1
  6
Continuous
100
AcDbLine
 10
306.0
 20
460.7499999999998
 30
0.0
 11
295.5
 21
460.7499999999998
 31
0.0
  0
LINE
  5
C9B5
330
C6FE
100
AcDbEntity
  8
1
  6
Continuous
100
AcDbLine
 10
306.0
 20
460.25
 30
0.0
 11
295.5
 21
460.25
 31
0.0
  0
ARC
  5
C9B6
330
C6FE
100
AcDbEntity
  8
1
  6
Continuous
100
AcDbCircle
 10
313.25
 20
460.81875
 30
0.0
 40
2.38125
100
AcDbArc
 50
158.3347039999999
 51
181.6544389999999
  0
ARC
  5
C9B7
330
C6FE
100
AcDbEntity
  8
1
  6
Continuous
100
AcDbCircle
 10
313.25
 20
460.81875
 30
0.0
 40
2.38125
100
AcDbArc
 50
193.81839
 51
216.5697209999999
  0
LINE
  5
C9B8
330
C6FE
100
AcDbEntity
  8
1
  6
Continuous
100
AcDbLine
 10
308.0
 20
460.7499999999998
 30
0.0
 11
308.0
 21
459.4
 31
0.0
  0
LINE
  5
C9B9
330
C6FE
100
AcDbEntity
  8
1
  6
Continuous
100
AcDbLine
 10
306.0
 20
460.7499999999998
 30
0.0
 11
306.0
 21
459.4
 31
0.0
  0
ARC
  5
C9BA
330
C6FE
100
AcDbEntity
  8
1
  6
Continuous
100
AcDbCircle
 10
313.25
 20
460.81875
 30
0.0
 40
2.38125
100
AcDbArc
 50
358.3455609999999
 51
21.665296
  0
ARC
  5
C9BB
330
C6FE
100
AcDbEntity
  8
1
  6
Continuous
100
AcDbCircle
 10
313.25
 20
460.81875
 30
0.0
 40
2.38125
100
AcDbArc
 50
323.430279
 51
346.18161
  0
LINE
  5
C9BC
330
C6FE
100
AcDbEntity
  8
1
  6
Continuous
100
AcDbLine
 10
318.5
 20
460.7499999999998
 30
0.0
 11
318.5
 21
459.4
 31
0.0
  0
LINE
  5
C9BD
330
C6FE
100
AcDbEntity
  8
1
  6
Continuous
100
AcDbLine
 10
318.5
 20
460.25
 30
0.0
 11
308.0
 21
460.25
 31
0.0
  0
LINE
  5
C9BE
330
C6FE
100
AcDbEntity
  8
1
  6
Continuous
100
AcDbLine
 10
318.5
 20
460.7499999999998
 30
0.0
 11
308.0
 21
460.7499999999998
 31
0.0
  0
ARC
  5
C9BF
330
C6FE
100
AcDbEntity
  8
1
  6
Continuous
100
AcDbCircle
 10
288.2499999999998
 20
460.81875
 30
0.0
 40
2.38125
100
AcDbArc
 50
358.3455609999999
 51
21.665296
  0
LINE
  5
C9C0
330
C6FE
100
AcDbEntity
  8
1
  6
Continuous
100
AcDbLine
 10
295.5
 20
460.7499999999998
 30
0.0
 11
295.5
 21
459.4
 31
0.0
  0
ARC
  5
C9C1
330
C6FE
100
AcDbEntity
  8
1
  6
Continuous
100
AcDbCircle
 10
288.2499999999998
 20
460.81875
 30
0.0
 40
2.38125
100
AcDbArc
 50
323.430279
 51
346.18161
  0
LINE
  5
C9C2
330
C6FE
100
AcDbEntity
  8
1
  6
Continuous
100
AcDbLine
 10
293.5
 20
460.7499999999998
 30
0.0
 11
293.5
 21
459.4
 31
0.0
  0
ARC
  5
C9C3
330
C6FE
100
AcDbEntity
  8
1
  6
Continuous
100
AcDbCircle
 10
300.75
 20
460.81875
 30
0.0
 40
2.38125
100
AcDbArc
 50
358.3455609999999
 51
21.665296
  0
ARC
  5
C9C4
330
C6FE
100
AcDbEntity
  8
1
  6
Continuous
100
AcDbCircle
 10
300.75
 20
460.81875
 30
0.0
 40
2.38125
100
AcDbArc
 50
158.3347039999999
 51
181.6544389999999
  0
ARC
  5
C9C5
330
C6FE
100
AcDbEntity
  8
1
  6
Continuous
100
AcDbCircle
 10
300.75
 20
460.81875
 30
0.0
 40
2.38125
100
AcDbArc
 50
323.430279
 51
346.18161
  0
ARC
  5
C9C6
330
C6FE
100
AcDbEntity
  8
1
  6
Continuous
100
AcDbCircle
 10
300.75
 20
460.81875
 30
0.0
 40
2.38125
100
AcDbArc
 50
193.81839
 51
216.5697209999999
  0
CIRCLE
  5
C9C7
330
C6FE
100
AcDbEntity
  8
1
  6
Continuous
100
AcDbCircle
 10
305.1
 20
447.1499999999998
 30
0.0
 40
3.5
  0
LINE
  5
C9C8
330
C6FE
100
AcDbEntity
  8
4
  6
CENTER
100
AcDbLine
 10
305.1
 20
440.65
 30
0.0
 11
305.1
 21
453.65
 31
0.0
  0
LINE
  5
C9C9
330
C6FE
100
AcDbEntity
  8
4
  6
CENTER
100
AcDbLine
 10
295.5
 20
441.8999999999998
 30
0.0
 11
295.5
 21
452.4
 31
0.0
  0
LINE
  5
C9CA
330
C6FE
100
AcDbEntity
  8
1
  6
Continuous
100
AcDbLine
 10
343.5
 20
433.55
 30
0.0
 11
333.0
 21
433.55
 31
0.0
  0
LINE
  5
C9CB
330
C6FE
100
AcDbEntity
  8
1
  6
Continuous
100
AcDbLine
 10
343.5
 20
434.05
 30
0.0
 11
333.0
 21
434.05
 31
0.0
  0
ARC
  5
C9CC
330
C6FE
100
AcDbEntity
  8
1
  6
Continuous
100
AcDbCircle
 10
338.25
 20
433.4812499999999
 30
0.0
 40
2.38125
100
AcDbArc
 50
338.3347039999998
 51
1.654438999999999
  0
ARC
  5
C9CD
330
C6FE
100
AcDbEntity
  8
1
  6
Continuous
100
AcDbCircle
 10
350.75
 20
433.4812499999999
 30
0.0
 40
2.38125
100
AcDbArc
 50
178.345561
 51
201.6652959999999
  0
ARC
  5
C9CE
330
C6FE
100
AcDbEntity
  8
1
  6
Continuous
100
AcDbCircle
 10
350.75
 20
433.4812499999999
 30
0.0
 40
2.38125
100
AcDbArc
 50
338.3347039999998
 51
1.654438999999999
  0
LINE
  5
C9CF
330
C6FE
100
AcDbEntity
  8
1
  6
Continuous
100
AcDbLine
 10
331.0
 20
434.05
 30
0.0
 11
320.5
 21
434.05
 31
0.0
  0
LINE
  5
C9D0
330
C6FE
100
AcDbEntity
  8
1
  6
Continuous
100
AcDbLine
 10
331.0
 20
433.55
 30
0.0
 11
320.5
 21
433.55
 31
0.0
  0
ARC
  5
C9D1
330
C6FE
100
AcDbEntity
  8
1
  6
Continuous
100
AcDbCircle
 10
325.75
 20
433.4812499999999
 30
0.0
 40
2.38125
100
AcDbArc
 50
178.345561
 51
201.6652959999999
  0
ARC
  5
C9D2
330
C6FE
100
AcDbEntity
  8
1
  6
Continuous
100
AcDbCircle
 10
325.75
 20
433.4812499999999
 30
0.0
 40
2.38125
100
AcDbArc
 50
338.3347039999998
 51
1.654438999999999
  0
ARC
  5
C9D3
330
C6FE
100
AcDbEntity
  8
1
  6
Continuous
100
AcDbCircle
 10
338.25
 20
433.4812499999999
 30
0.0
 40
2.38125
100
AcDbArc
 50
178.345561
 51
201.6652959999999
  0
LINE
  5
C9D4
330
C6FE
100
AcDbEntity
  8
1
  6
Continuous
100
AcDbLine
 10
306.0
 20
434.05
 30
0.0
 11
295.5
 21
434.05
 31
0.0
  0
LINE
  5
C9D5
330
C6FE
100
AcDbEntity
  8
1
  6
Continuous
100
AcDbLine
 10
306.0
 20
433.55
 30
0.0
 11
295.5
 21
433.55
 31
0.0
  0
ARC
  5
C9D6
330
C6FE
100
AcDbEntity
  8
1
  6
Continuous
100
AcDbCircle
 10
313.25
 20
433.4812499999999
 30
0.0
 40
2.38125
100
AcDbArc
 50
178.345561
 51
201.6652959999999
  0
ARC
  5
C9D7
330
C6FE
100
AcDbEntity
  8
1
  6
Continuous
100
AcDbCircle
 10
313.25
 20
433.4812499999999
 30
0.0
 40
2.38125
100
AcDbArc
 50
338.3347039999998
 51
1.654438999999999
  0
LINE
  5
C9D8
330
C6FE
100
AcDbEntity
  8
1
  6
Continuous
100
AcDbLine
 10
318.5
 20
433.55
 30
0.0
 11
308.0
 21
433.55
 31
0.0
  0
LINE
  5
C9D9
330
C6FE
100
AcDbEntity
  8
1
  6
Continuous
100
AcDbLine
 10
318.5
 20
434.05
 30
0.0
 11
308.0
 21
434.05
 31
0.0
  0
ARC
  5
C9DA
330
C6FE
100
AcDbEntity
  8
1
  6
Continuous
100
AcDbCircle
 10
288.2499999999998
 20
433.4812499999999
 30
0.0
 40
2.38125
100
AcDbArc
 50
338.3347039999998
 51
1.654438999999999
  0
ARC
  5
C9DB
330
C6FE
100
AcDbEntity
  8
1
  6
Continuous
100
AcDbCircle
 10
300.75
 20
433.4812499999999
 30
0.0
 40
2.38125
100
AcDbArc
 50
178.345561
 51
201.6652959999999
  0
ARC
  5
C9DC
330
C6FE
100
AcDbEntity
  8
1
  6
Continuous
100
AcDbCircle
 10
300.75
 20
433.4812499999999
 30
0.0
 40
2.38125
100
AcDbArc
 50
338.3347039999998
 51
1.654438999999999
  0
LINE
  5
C9DD
330
C6FE
100
AcDbEntity
  8
1
  6
Continuous
100
AcDbLine
 10
283.0
 20
433.55
 30
0.0
 11
283.0
 21
434.9
 31
0.0
  0
ARC
  5
C9DE
330
C6FE
100
AcDbEntity
  8
1
  6
Continuous
100
AcDbCircle
 10
288.2499999999998
 20
433.4812499999999
 30
0.0
 40
2.38125
100
AcDbArc
 50
143.430279
 51
166.18161
  0
LINE
  5
C9DF
330
C6FE
100
AcDbEntity
  8
3
  6
DASHED
100
AcDbLine
 10
283.1
 20
434.9
 30
0.0
 11
283.1
 21
459.4
 31
0.0
  0
LINE
  5
C9E0
330
C6FE
100
AcDbEntity
  8
1
  6
Continuous
100
AcDbLine
 10
280.1
 20
434.9
 30
0.0
 11
280.1
 21
459.4
 31
0.0
  0
ARC
  5
C9E1
330
C6FE
100
AcDbEntity
  8
1
  6
Continuous
100
AcDbCircle
 10
288.2499999999998
 20
460.81875
 30
0.0
 40
2.38125
100
AcDbArc
 50
158.3347039999999
 51
181.6544389999999
  0
ARC
  5
C9E2
330
C6FE
100
AcDbEntity
  8
1
  6
Continuous
100
AcDbCircle
 10
288.2499999999998
 20
460.81875
 30
0.0
 40
2.38125
100
AcDbArc
 50
193.81839
 51
216.5697209999999
  0
LINE
  5
C9E3
330
C6FE
100
AcDbEntity
  8
1
  6
Continuous
100
AcDbLine
 10
283.0
 20
460.7499999999998
 30
0.0
 11
283.0
 21
459.4
 31
0.0
  0
LINE
  5
C9E4
330
C6FE
100
AcDbEntity
  8
1
  6
Continuous
100
AcDbLine
 10
257.8
 20
449.3999999999998
 30
0.0
 11
257.0
 21
449.3999999999998
 31
0.0
  0
LINE
  5
C9E5
330
C6FE
100
AcDbEntity
  8
4
  6
CENTER
100
AcDbLine
 10
257.3999999999999
 20
441.8999999999998
 30
0.0
 11
257.3999999999999
 21
452.4
 31
0.0
  0
LINE
  5
C9E6
330
C6FE
100
AcDbEntity
  8
1
  6
Continuous
100
AcDbLine
 10
257.8
 20
444.8999999999998
 30
0.0
 11
257.0
 21
444.8999999999998
 31
0.0
  0
ARC
  5
C9E7
330
C6FE
100
AcDbEntity
  8
1
  6
Continuous
100
AcDbCircle
 10
257.8
 20
447.1499999999998
 30
0.0
 40
2.25
100
AcDbArc
 50
270.0
 51
90.0
  0
ARC
  5
C9E8
330
C6FE
100
AcDbEntity
  8
1
  6
Continuous
100
AcDbCircle
 10
257.0
 20
447.1499999999998
 30
0.0
 40
2.25
100
AcDbArc
 50
90.0
 51
270.0
  0
ARC
  5
C9E9
330
C6FE
100
AcDbEntity
  8
1
  6
Continuous
100
AcDbCircle
 10
288.2499999999998
 20
433.4812499999999
 30
0.0
 40
2.38125
100
AcDbArc
 50
178.345561
 51
201.6652959999999
  0
LINE
  5
C9EA
330
C6FE
100
AcDbEntity
  8
1
  6
Continuous
100
AcDbLine
 10
119.728991
 20
434.3368169999997
 30
0.0
 11
117.853284
 21
432.0049759999998
 31
0.0
  0
ARC
  5
C9EB
330
C6FE
100
AcDbEntity
  8
1
  6
Continuous
100
AcDbCircle
 10
119.1
 20
434.842771
 30
0.0
 40
0.8072289999999997
100
AcDbArc
 50
321.187185
 51
90.0
  0
ARC
  5
C9EC
330
C6FE
100
AcDbEntity
  8
1
  6
Continuous
100
AcDbCircle
 10
119.1
 20
459.457229
 30
0.0
 40
0.8072289999999997
100
AcDbArc
 50
270.0
 51
38.812815
  0
ARC
  5
C9ED
330
C6FE
100
AcDbEntity
  8
1
  6
Continuous
100
AcDbCircle
 10
146.3
 20
446.75
 30
0.0
 40
2.25
100
AcDbArc
 50
180.0
 51
0.0
  0
ARC
  5
C9EE
330
C6FE
100
AcDbEntity
  8
1
  6
Continuous
100
AcDbCircle
 10
146.3
 20
447.55
 30
0.0
 40
2.25
100
AcDbArc
 50
0.0
 51
180.0
  0
LINE
  5
C9EF
330
C6FE
100
AcDbEntity
  8
4
  6
CENTER
100
AcDbLine
 10
146.3
 20
441.8999999999998
 30
0.0
 11
146.3
 21
452.4
 31
0.0
  0
LINE
  5
C9F0
330
C6FE
100
AcDbEntity
  8
1
  6
Continuous
100
AcDbLine
 10
144.05
 20
446.75
 30
0.0
 11
144.05
 21
447.55
 31
0.0
  0
LINE
  5
C9F1
330
C6FE
100
AcDbEntity
  8
1
  6
Continuous
100
AcDbLine
 10
148.55
 20
446.75
 30
0.0
 11
148.55
 21
447.55
 31
0.0
  0
LINE
  5
C9F2
330
C6FE
100
AcDbEntity
  8
1
  6
Continuous
100
AcDbLine
 10
131.3499999999999
 20
446.75
 30
0.0
 11
131.3499999999999
 21
447.55
 31
0.0
  0
LINE
  5
C9F3
330
C6FE
100
AcDbEntity
  8
4
  6
CENTER
100
AcDbLine
 10
133.6
 20
441.8999999999998
 30
0.0
 11
133.6
 21
452.4
 31
0.0
  0
LINE
  5
C9F4
330
C6FE
100
AcDbEntity
  8
1
  6
Continuous
100
AcDbLine
 10
135.85
 20
446.75
 30
0.0
 11
135.85
 21
447.55
 31
0.0
  0
ARC
  5
C9F5
330
C6FE
100
AcDbEntity
  8
1
  6
Continuous
100
AcDbCircle
 10
133.6
 20
446.75
 30
0.0
 40
2.25
100
AcDbArc
 50
180.0
 51
0.0
  0
ARC
  5
C9F6
330
C6FE
100
AcDbEntity
  8
1
  6
Continuous
100
AcDbCircle
 10
133.6
 20
447.55
 30
0.0
 40
2.25
100
AcDbArc
 50
0.0
 51
180.0
  0
LINE
  5
C9F7
330
C6FE
100
AcDbEntity
  8
1
  6
Continuous
100
AcDbLine
 10
117.5
 20
458.65
 30
0.0
 11
117.5
 21
435.6499999999998
 31
0.0
  0
LINE
  5
C9F8
330
C6FE
100
AcDbEntity
  8
1
  6
Continuous
100
AcDbLine
 10
119.1
 20
458.65
 30
0.0
 11
119.1
 21
435.6499999999998
 31
0.0
  0
LINE
  5
C9F9
330
C6FE
100
AcDbEntity
  8
1
  6
Continuous
100
AcDbLine
 10
117.5
 20
464.8
 30
0.0
 11
117.5
 21
463.2978689999998
 31
0.0
  0
LINE
  5
C9FA
330
C6FE
100
AcDbEntity
  8
1
  6
Continuous
100
AcDbLine
 10
119.728991
 20
459.9631829999998
 30
0.0
 11
117.853284
 21
462.295024
 31
0.0
  0
ARC
  5
C9FB
330
C6FE
100
AcDbEntity
  8
1
  6
Continuous
100
AcDbCircle
 10
119.1
 20
463.8885629999998
 30
0.0
 40
1.6
100
AcDbArc
 50
180.0
 51
270.0
  0
ARC
  5
C9FC
330
C6FE
100
AcDbEntity
  8
1
  6
Continuous
100
AcDbCircle
 10
119.1
 20
463.2978689999998
 30
0.0
 40
1.6
100
AcDbArc
 50
180.0
 51
270.0
  0
LINE
  5
C9FD
330
C6FE
100
AcDbEntity
  8
1
  6
Continuous
100
AcDbLine
 10
119.1
 20
458.65
 30
0.0
 11
117.5
 21
458.65
 31
0.0
  0
LINE
  5
C9FE
330
C6FE
100
AcDbEntity
  8
1
  6
Continuous
100
AcDbLine
 10
119.1
 20
435.6499999999998
 30
0.0
 11
117.5
 21
435.6499999999998
 31
0.0
  0
LINE
  5
C9FF
330
C6FE
100
AcDbEntity
  8
1
  6
Continuous
100
AcDbLine
 10
117.5
 20
431.0021309999998
 30
0.0
 11
117.5
 21
429.4999999999998
 31
0.0
  0
ARC
  5
CA00
330
C6FE
100
AcDbEntity
  8
1
  6
Continuous
100
AcDbCircle
 10
119.1
 20
431.0021309999998
 30
0.0
 40
1.6
100
AcDbArc
 50
90.0
 51
180.0
  0
ARC
  5
CA01
330
C6FE
100
AcDbEntity
  8
1
  6
Continuous
100
AcDbCircle
 10
119.1
 20
430.4114369999998
 30
0.0
 40
1.6
100
AcDbArc
 50
90.0
 51
180.0
  0
LINE
  5
CA02
330
C6FE
100
AcDbEntity
  8
1
  6
Continuous
100
AcDbLine
 10
422.4999999999998
 20
57.1
 30
0.0
 11
586.8999999999997
 21
57.1
 31
0.0
  0
LINE
  5
CA03
330
C6FE
100
AcDbEntity
  8
1
  6
Continuous
100
AcDbLine
 10
283.1
 20
50.6
 30
0.0
 11
586.8999999999997
 21
50.6
 31
0.0
  0
LINE
  5
CA04
330
C6FE
100
AcDbEntity
  8
1
  6
Continuous
100
AcDbLine
 10
280.1
 20
50.5
 30
0.0
 11
583.8999999999997
 21
50.5
 31
0.0
  0
LINE
  5
CA05
330
C6FE
100
AcDbEntity
  8
1
  6
Continuous
100
AcDbLine
 10
444.5
 20
41.0
 30
0.0
 11
749.5
 21
41.0
 31
0.0
  0
LINE
  5
CA06
330
C6FE
100
AcDbEntity
  8
1
  6
Continuous
100
AcDbLine
 10
444.5
 20
49.7
 30
0.0
 11
749.5
 21
49.7
 31
0.0
  0
LINE
  5
CA07
330
C6FE
100
AcDbEntity
  8
3
  6
DASHED
100
AcDbLine
 10
444.5
 20
44.0
 30
0.0
 11
583.8999999999997
 21
44.0
 31
0.0
  0
LINE
  5
CA08
330
C6FE
100
AcDbEntity
  8
1
  6
Continuous
100
AcDbLine
 10
422.4999999999998
 20
60.1
 30
0.0
 11
422.4999999999998
 21
51.4
 31
0.0
  0
LINE
  5
CA09
330
C6FE
100
AcDbEntity
  8
4
  6
CENTER
100
AcDbLine
 10
406.6
 20
40.566515
 30
0.0
 11
406.6
 21
65.528309
 31
0.0
  0
LINE
  5
CA0A
330
C6FE
100
AcDbEntity
  8
3
  6
DASHED
100
AcDbLine
 10
283.1
 20
51.4
 30
0.0
 11
283.1
 21
57.1
 31
0.0
  0
LINE
  5
CA0B
330
C6FE
100
AcDbEntity
  8
1
  6
Continuous
100
AcDbLine
 10
117.5
 20
60.1
 30
0.0
 11
117.5
 21
51.4
 31
0.0
  0
LINE
  5
CA0C
330
C6FE
100
AcDbEntity
  8
1
  6
Continuous
100
AcDbLine
 10
117.5
 20
60.1
 30
0.0
 11
422.4999999999998
 21
60.1
 31
0.0
  0
LINE
  5
CA0D
330
C6FE
100
AcDbEntity
  8
4
  6
CENTER
100
AcDbLine
 10
146.3
 20
55.028309
 30
0.0
 11
146.3
 21
65.528309
 31
0.0
  0
LINE
  5
CA0E
330
C6FE
100
AcDbEntity
  8
4
  6
CENTER
100
AcDbLine
 10
133.6
 20
55.028309
 30
0.0
 11
133.6
 21
65.528309
 31
0.0
  0
LINE
  5
CA0F
330
C6FE
100
AcDbEntity
  8
3
  6
DASHED
100
AcDbLine
 10
283.1
 20
57.1
 30
0.0
 11
422.4999999999998
 21
57.1
 31
0.0
  0
LINE
  5
CA10
330
C6FE
100
AcDbEntity
  8
4
  6
CENTER
100
AcDbLine
 10
257.3999999999999
 20
55.028309
 30
0.0
 11
257.3999999999999
 21
65.528309
 31
0.0
  0
LINE
  5
CA11
330
C6FE
100
AcDbEntity
  8
4
  6
CENTER
100
AcDbLine
 10
295.5
 20
55.028309
 30
0.0
 11
295.5
 21
65.528309
 31
0.0
  0
LINE
  5
CA12
330
C6FE
100
AcDbEntity
  8
4
  6
CENTER
100
AcDbLine
 10
381.1999999999999
 20
55.028309
 30
0.0
 11
381.1999999999999
 21
65.528309
 31
0.0
  0
LINE
  5
CA13
330
C6FE
100
AcDbEntity
  8
4
  6
CENTER
100
AcDbLine
 10
393.9
 20
55.028309
 30
0.0
 11
393.9
 21
65.528309
 31
0.0
  0
LINE
  5
CA14
330
C6FE
100
AcDbEntity
  8
1
  6
Continuous
100
AcDbLine
 10
117.5
 20
51.4
 30
0.0
 11
422.4999999999998
 21
51.4
 31
0.0
  0
LINE
  5
CA15
330
C6FE
100
AcDbEntity
  8
1
  6
Continuous
100
AcDbLine
 10
280.1
 20
44.0
 30
0.0
 11
444.5
 21
44.0
 31
0.0
  0
LINE
  5
CA16
330
C6FE
100
AcDbEntity
  8
1
  6
Continuous
100
AcDbLine
 10
283.1
 20
50.6
 30
0.0
 11
283.1
 21
51.4
 31
0.0
  0
LINE
  5
CA17
330
C6FE
100
AcDbEntity
  8
1
  6
Continuous
100
AcDbLine
 10
280.1
 20
44.0
 30
0.0
 11
280.1
 21
50.5
 31
0.0
  0
LINE
  5
CA18
330
C6FE
100
AcDbEntity
  8
1
  6
Continuous
100
AcDbLine
 10
444.5
 20
49.7
 30
0.0
 11
444.5
 21
41.0
 31
0.0
  0
LINE
  5
CA19
330
C6FE
100
AcDbEntity
  8
1
  6
Continuous
100
AcDbLine
 10
586.8999999999997
 20
50.6
 30
0.0
 11
586.8999999999997
 21
57.1
 31
0.0
  0
LINE
  5
CA1A
330
C6FE
100
AcDbEntity
  8
4
  6
CENTER
100
AcDbLine
 10
460.4
 20
36.504411
 30
0.0
 11
460.4
 21
60.034205
 31
0.0
  0
LINE
  5
CA1B
330
C6FE
100
AcDbEntity
  8
4
  6
CENTER
100
AcDbLine
 10
473.1
 20
36.504411
 30
0.0
 11
473.1
 21
47.00441099999999
 31
0.0
  0
LINE
  5
CA1C
330
C6FE
100
AcDbEntity
  8
4
  6
CENTER
100
AcDbLine
 10
485.8
 20
36.504411
 30
0.0
 11
485.8
 21
47.00441099999999
 31
0.0
  0
LINE
  5
CA1D
330
C6FE
100
AcDbEntity
  8
3
  6
DASHED
100
AcDbLine
 10
583.8999999999997
 20
44.0
 30
0.0
 11
583.8999999999997
 21
49.7
 31
0.0
  0
LINE
  5
CA1E
330
C6FE
100
AcDbEntity
  8
4
  6
CENTER
100
AcDbLine
 10
571.4999999999998
 20
36.504411
 30
0.0
 11
571.4999999999998
 21
47.00441099999999
 31
0.0
  0
LINE
  5
CA1F
330
C6FE
100
AcDbEntity
  8
1
  6
Continuous
100
AcDbLine
 10
583.8999999999997
 20
49.7
 30
0.0
 11
583.8999999999997
 21
50.5
 31
0.0
  0
LINE
  5
CA20
330
C6FE
100
AcDbEntity
  8
4
  6
CENTER
100
AcDbLine
 10
609.6
 20
36.504411
 30
0.0
 11
609.6
 21
47.00441099999999
 31
0.0
  0
LINE
  5
CA21
330
C6FE
100
AcDbEntity
  8
4
  6
CENTER
100
AcDbLine
 10
733.3999999999997
 20
36.504411
 30
0.0
 11
733.3999999999997
 21
47.00441099999999
 31
0.0
  0
LINE
  5
CA22
330
C6FE
100
AcDbEntity
  8
4
  6
CENTER
100
AcDbLine
 10
720.7
 20
36.504411
 30
0.0
 11
720.7
 21
47.00441099999999
 31
0.0
  0
LINE
  5
CA23
330
C6FE
100
AcDbEntity
  8
1
  6
Continuous
100
AcDbLine
 10
749.5
 20
49.7
 30
0.0
 11
749.5
 21
41.0
 31
0.0
  0
LINE
  5
CA24
330
C6FE
100
AcDbEntity
  8
1
  6
Continuous
100
AcDbLine
 10
843.5999999999996
 20
170.171084
 30
0.0
 11
843.5999999999996
 21
195.3289159999999
 31
0.0
  0
LINE
  5
CA25
330
C6FE
100
AcDbEntity
  8
5
  6
PHANTOM
100
AcDbLine
 10
446.1
 20
171.25
 30
0.0
 11
446.1
 21
194.25
 31
0.0
  0
ARC
  5
CA26
330
C6FE
100
AcDbEntity
  8
5
  6
PHANTOM
100
AcDbCircle
 10
446.1
 20
170.442771
 30
0.0
 40
0.8072289999999997
100
AcDbArc
 50
321.187185
 51
90.0
  0
ARC
  5
CA27
330
C6FE
100
AcDbEntity
  8
5
  6
PHANTOM
100
AcDbCircle
 10
446.1
 20
166.602131
 30
0.0
 40
1.6
100
AcDbArc
 50
141.1871849999998
 51
180.0
  0
LINE
  5
CA28
330
C6FE
100
AcDbEntity
  8
5
  6
PHANTOM
100
AcDbLine
 10
446.7289909999998
 20
169.9368169999999
 30
0.0
 11
444.8532839999998
 21
167.6049759999999
 31
0.0
  0
LINE
  5
CA29
330
C6FE
100
AcDbEntity
  8
5
  6
PHANTOM
100
AcDbLine
 10
444.5
 20
165.0999999999999
 30
0.0
 11
444.5
 21
166.602131
 31
0.0
  0
ARC
  5
CA2A
330
C6FE
100
AcDbEntity
  8
5
  6
PHANTOM
100
AcDbCircle
 10
446.1
 20
195.057229
 30
0.0
 40
0.8072289999999997
100
AcDbArc
 50
270.0
 51
38.812815
  0
LINE
  5
CA2B
330
C6FE
100
AcDbEntity
  8
5
  6
PHANTOM
100
AcDbLine
 10
446.7289909999998
 20
195.563183
 30
0.0
 11
444.8532839999998
 21
197.8950239999998
 31
0.0
  0
ARC
  5
CA2C
330
C6FE
100
AcDbEntity
  8
5
  6
PHANTOM
100
AcDbCircle
 10
446.1
 20
198.8978689999999
 30
0.0
 40
1.6
100
AcDbArc
 50
180.0
 51
218.812815
  0
LINE
  5
CA2D
330
C6FE
100
AcDbEntity
  8
5
  6
PHANTOM
100
AcDbLine
 10
444.5
 20
198.8978689999999
 30
0.0
 11
444.5
 21
200.4
 31
0.0
  0
LINE
  5
CA2E
330
C6FE
100
AcDbEntity
  8
4
  6
CENTER
100
AcDbLine
 10
460.6
 20
188.0
 30
0.0
 11
460.6
 21
177.5
 31
0.0
  0
LINE
  5
CA2F
330
C6FE
100
AcDbEntity
  8
5
  6
PHANTOM
100
AcDbLine
 10
462.85
 20
183.15
 30
0.0
 11
462.85
 21
182.3499999999999
 31
0.0
  0
LINE
  5
CA30
330
C6FE
100
AcDbEntity
  8
5
  6
PHANTOM
100
AcDbLine
 10
458.3499999999999
 20
183.15
 30
0.0
 11
458.3499999999999
 21
182.3499999999999
 31
0.0
  0
ARC
  5
CA31
330
C6FE
100
AcDbEntity
  8
5
  6
PHANTOM
100
AcDbCircle
 10
460.6
 20
183.15
 30
0.0
 40
2.25
100
AcDbArc
 50
0.0
 51
180.0
  0
ARC
  5
CA32
330
C6FE
100
AcDbEntity
  8
5
  6
PHANTOM
100
AcDbCircle
 10
460.6
 20
182.3499999999999
 30
0.0
 40
2.25
100
AcDbArc
 50
180.0
 51
0.0
  0
ARC
  5
CA33
330
C6FE
100
AcDbEntity
  8
5
  6
PHANTOM
100
AcDbCircle
 10
473.3
 20
183.15
 30
0.0
 40
2.25
100
AcDbArc
 50
0.0
 51
180.0
  0
ARC
  5
CA34
330
C6FE
100
AcDbEntity
  8
5
  6
PHANTOM
100
AcDbCircle
 10
473.3
 20
182.3499999999999
 30
0.0
 40
2.25
100
AcDbArc
 50
180.0
 51
0.0
  0
LINE
  5
CA35
330
C6FE
100
AcDbEntity
  8
5
  6
PHANTOM
100
AcDbLine
 10
471.05
 20
183.15
 30
0.0
 11
471.05
 21
182.3499999999999
 31
0.0
  0
LINE
  5
CA36
330
C6FE
100
AcDbEntity
  8
4
  6
CENTER
100
AcDbLine
 10
473.3
 20
188.0
 30
0.0
 11
473.3
 21
177.5
 31
0.0
  0
LINE
  5
CA37
330
C6FE
100
AcDbEntity
  8
5
  6
PHANTOM
100
AcDbLine
 10
475.55
 20
183.15
 30
0.0
 11
475.55
 21
182.3499999999999
 31
0.0
  0
LINE
  5
CA38
330
C6FE
100
AcDbEntity
  8
5
  6
PHANTOM
100
AcDbLine
 10
584.7999999999998
 20
180.4999999999998
 30
0.0
 11
584.0
 21
180.4999999999998
 31
0.0
  0
LINE
  5
CA39
330
C6FE
100
AcDbEntity
  8
4
  6
CENTER
100
AcDbLine
 10
584.4
 20
188.0
 30
0.0
 11
584.4
 21
177.5
 31
0.0
  0
LINE
  5
CA3A
330
C6FE
100
AcDbEntity
  8
5
  6
PHANTOM
100
AcDbLine
 10
584.7999999999998
 20
185.0
 30
0.0
 11
584.0
 21
185.0
 31
0.0
  0
ARC
  5
CA3B
330
C6FE
100
AcDbEntity
  8
5
  6
PHANTOM
100
AcDbCircle
 10
584.0
 20
182.75
 30
0.0
 40
2.25
100
AcDbArc
 50
90.0
 51
270.0
  0
ARC
  5
CA3C
330
C6FE
100
AcDbEntity
  8
5
  6
PHANTOM
100
AcDbCircle
 10
584.7999999999998
 20
182.75
 30
0.0
 40
2.25
100
AcDbArc
 50
270.0
 51
90.0
  0
ARC
  5
CA3D
330
C6FE
100
AcDbEntity
  8
5
  6
PHANTOM
100
AcDbCircle
 10
622.9
 20
182.75
 30
0.0
 40
2.25
100
AcDbArc
 50
270.0
 51
90.0
  0
LINE
  5
CA3E
330
C6FE
100
AcDbEntity
  8
5
  6
PHANTOM
100
AcDbLine
 10
622.9
 20
185.0
 30
0.0
 11
622.1
 21
185.0
 31
0.0
  0
LINE
  5
CA3F
330
C6FE
100
AcDbEntity
  8
4
  6
CENTER
100
AcDbLine
 10
622.5
 20
188.0
 30
0.0
 11
622.5
 21
177.5
 31
0.0
  0
LINE
  5
CA40
330
C6FE
100
AcDbEntity
  8
5
  6
PHANTOM
100
AcDbLine
 10
622.9
 20
180.4999999999998
 30
0.0
 11
622.1
 21
180.4999999999998
 31
0.0
  0
ARC
  5
CA41
330
C6FE
100
AcDbEntity
  8
5
  6
PHANTOM
100
AcDbCircle
 10
622.1
 20
182.75
 30
0.0
 40
2.25
100
AcDbArc
 50
90.0
 51
270.0
  0
ARC
  5
CA42
330
C6FE
100
AcDbEntity
  8
5
  6
PHANTOM
100
AcDbCircle
 10
707.7999999999998
 20
182.75
 30
0.0
 40
2.25
100
AcDbArc
 50
90.0
 51
270.0
  0
LINE
  5
CA43
330
C6FE
100
AcDbEntity
  8
4
  6
CENTER
100
AcDbLine
 10
720.8999999999997
 20
188.0
 30
0.0
 11
720.8999999999997
 21
177.5
 31
0.0
  0
LINE
  5
CA44
330
C6FE
100
AcDbEntity
  8
5
  6
PHANTOM
100
AcDbLine
 10
723.1499999999997
 20
183.15
 30
0.0
 11
723.1499999999997
 21
182.3499999999999
 31
0.0
  0
LINE
  5
CA45
330
C6FE
100
AcDbEntity
  8
5
  6
PHANTOM
100
AcDbLine
 10
718.6499999999997
 20
183.15
 30
0.0
 11
718.6499999999997
 21
182.3499999999999
 31
0.0
  0
LINE
  5
CA46
330
C6FE
100
AcDbEntity
  8
5
  6
PHANTOM
100
AcDbLine
 10
708.6
 20
185.0
 30
0.0
 11
707.7999999999998
 21
185.0
 31
0.0
  0
LINE
  5
CA47
330
C6FE
100
AcDbEntity
  8
5
  6
PHANTOM
100
AcDbLine
 10
708.6
 20
180.4999999999998
 30
0.0
 11
707.7999999999998
 21
180.4999999999998
 31
0.0
  0
ARC
  5
CA48
330
C6FE
100
AcDbEntity
  8
5
  6
PHANTOM
100
AcDbCircle
 10
708.6
 20
182.75
 30
0.0
 40
2.25
100
AcDbArc
 50
270.0
 51
90.0
  0
LINE
  5
CA49
330
C6FE
100
AcDbEntity
  8
4
  6
CENTER
100
AcDbLine
 10
708.2000000000001
 20
188.0
 30
0.0
 11
708.2000000000001
 21
177.5
 31
0.0
  0
ARC
  5
CA4A
330
C6FE
100
AcDbEntity
  8
5
  6
PHANTOM
100
AcDbCircle
 10
720.8999999999997
 20
183.15
 30
0.0
 40
2.25
100
AcDbArc
 50
0.0
 51
180.0
  0
ARC
  5
CA4B
330
C6FE
100
AcDbEntity
  8
5
  6
PHANTOM
100
AcDbCircle
 10
720.8999999999997
 20
182.3499999999999
 30
0.0
 40
2.25
100
AcDbArc
 50
180.0
 51
0.0
  0
ARC
  5
CA4C
330
C6FE
100
AcDbEntity
  8
5
  6
PHANTOM
100
AcDbCircle
 10
733.6
 20
182.3499999999999
 30
0.0
 40
2.25
100
AcDbArc
 50
180.0
 51
0.0
  0
LINE
  5
CA4D
330
C6FE
100
AcDbEntity
  8
5
  6
PHANTOM
100
AcDbLine
 10
735.85
 20
183.15
 30
0.0
 11
735.85
 21
182.3499999999999
 31
0.0
  0
LINE
  5
CA4E
330
C6FE
100
AcDbEntity
  8
5
  6
PHANTOM
100
AcDbLine
 10
731.35
 20
183.15
 30
0.0
 11
731.35
 21
182.3499999999999
 31
0.0
  0
LINE
  5
CA4F
330
C6FE
100
AcDbEntity
  8
4
  6
CENTER
100
AcDbLine
 10
733.6
 20
188.0
 30
0.0
 11
733.6
 21
177.5
 31
0.0
  0
ARC
  5
CA50
330
C6FE
100
AcDbEntity
  8
5
  6
PHANTOM
100
AcDbCircle
 10
733.6
 20
183.15
 30
0.0
 40
2.25
100
AcDbArc
 50
0.0
 51
180.0
  0
LINE
  5
CA51
330
C6FE
100
AcDbEntity
  8
5
  6
PHANTOM
100
AcDbLine
 10
749.5
 20
165.0999999999999
 30
0.0
 11
749.5
 21
175.2499999999998
 31
0.0
  0
LINE
  5
CA52
330
C6FE
100
AcDbEntity
  8
5
  6
PHANTOM
100
AcDbLine
 10
749.5
 20
190.25
 30
0.0
 11
749.5
 21
200.4
 31
0.0
  0
LINE
  5
CA53
330
C6FE
100
AcDbEntity
  8
5
  6
PHANTOM
100
AcDbLine
 10
747.0
 20
190.25
 30
0.0
 11
749.5
 21
190.25
 31
0.0
  0
LINE
  5
CA54
330
C6FE
100
AcDbEntity
  8
5
  6
PHANTOM
100
AcDbLine
 10
747.0
 20
175.2499999999998
 30
0.0
 11
749.5
 21
175.2499999999998
 31
0.0
  0
LINE
  5
CA55
330
C6FE
100
AcDbEntity
  8
5
  6
PHANTOM
100
AcDbLine
 10
747.0
 20
175.2499999999998
 30
0.0
 11
747.0
 21
190.25
 31
0.0
  0
ARC
  5
CA56
330
C6FE
100
AcDbEntity
  8
1
  6
Continuous
100
AcDbCircle
 10
836.5999999999996
 20
192.75
 30
0.0
 40
1.5
100
AcDbArc
 50
90.0
 51
180.0
  0
ARC
  5
CA57
330
C6FE
100
AcDbEntity
  8
1
  6
Continuous
100
AcDbCircle
 10
832.1770609999996
 20
193.177061
 30
0.0
 40
0.6229390000000003
100
AcDbArc
 50
0.0
 51
129.550679
  0
LINE
  5
CA58
330
C6FE
100
AcDbEntity
  8
1
  6
Continuous
100
AcDbLine
 10
826.6
 20
190.25
 30
0.0
 11
826.6
 21
195.398548
 31
0.0
  0
LINE
  5
CA59
330
C6FE
100
AcDbEntity
  8
1
  6
Continuous
100
AcDbLine
 10
827.1
 20
190.25
 30
0.0
 11
827.1
 21
195.4
 31
0.0
  0
LINE
  5
CA5A
330
C6FE
100
AcDbEntity
  8
1
  6
Continuous
100
AcDbLine
 10
826.1000000000001
 20
190.25
 30
0.0
 11
826.1000000000001
 21
195.3289159999999
 31
0.0
  0
LINE
  5
CA5B
330
C6FE
100
AcDbEntity
  8
1
  6
Continuous
100
AcDbLine
 10
827.5
 20
193.448001
 30
0.0
 11
828.170157
 21
194.443435
 31
0.0
  0
ARC
  5
CA5C
330
C6FE
100
AcDbEntity
  8
1
  6
Continuous
100
AcDbCircle
 10
829.4999999999998
 20
196.4187499999999
 30
0.0
 40
3.581249999999998
100
AcDbArc
 50
236.0503449999999
 51
309.5506789999999
  0
ARC
  5
CA5D
330
C6FE
100
AcDbEntity
  8
1
  6
Continuous
100
AcDbCircle
 10
835.9229389999997
 20
193.177061
 30
0.0
 40
1.822938999999999
100
AcDbArc
 50
50.449321
 51
180.0
  0
ARC
  5
CA5E
330
C6FE
100
AcDbEntity
  8
1
  6
Continuous
100
AcDbCircle
 10
832.1770609999996
 20
193.177061
 30
0.0
 40
1.822938999999999
100
AcDbArc
 50
0.0
 51
129.550679
  0
LINE
  5
CA5F
330
C6FE
100
AcDbEntity
  8
1
  6
Continuous
100
AcDbLine
 10
824.5
 20
170.171084
 30
0.0
 11
824.5
 21
195.3289159999999
 31
0.0
  0
ARC
  5
CA60
330
C6FE
100
AcDbEntity
  8
1
  6
Continuous
100
AcDbCircle
 10
835.9229389999997
 20
172.322939
 30
0.0
 40
1.822938999999999
100
AcDbArc
 50
180.0
 51
309.5506789999999
  0
LINE
  5
CA61
330
C6FE
100
AcDbEntity
  8
4
  6
CENTER
100
AcDbLine
 10
819.5
 20
182.75
 30
0.0
 11
848.6
 21
182.75
 31
0.0
  0
LINE
  5
CA62
330
C6FE
100
AcDbEntity
  8
1
  6
Continuous
100
AcDbLine
 10
833.0
 20
169.65
 30
0.0
 11
833.0
 21
169.15
 31
0.0
  0
ARC
  5
CA63
330
C6FE
100
AcDbEntity
  8
1
  6
Continuous
100
AcDbCircle
 10
827.7000000000001
 20
170.171084
 30
0.0
 40
3.2
100
AcDbArc
 50
180.0
 51
217.012191
  0
ARC
  5
CA64
330
C6FE
100
AcDbEntity
  8
1
  6
Continuous
100
AcDbCircle
 10
827.7000000000001
 20
170.171084
 30
0.0
 40
1.6
100
AcDbArc
 50
180.0
 51
217.012191
  0
ARC
  5
CA65
330
C6FE
100
AcDbEntity
  8
1
  6
Continuous
100
AcDbCircle
 10
829.4999999999998
 20
169.08125
 30
0.0
 40
2.38125
100
AcDbArc
 50
167.557726
 51
3.719127999999999
  0
LINE
  5
CA66
330
C6FE
100
AcDbEntity
  8
1
  6
Continuous
100
AcDbLine
 10
833.0
 20
169.15
 30
0.0
 11
827.0619749999998
 21
169.6029
 31
0.0
  0
LINE
  5
CA67
330
C6FE
100
AcDbEntity
  8
1
  6
Continuous
100
AcDbLine
 10
833.2
 20
167.611437
 30
0.0
 11
831.71303
 21
168.202131
 31
0.0
  0
LINE
  5
CA68
330
C6FE
100
AcDbEntity
  8
1
  6
Continuous
100
AcDbLine
 10
825.1447759999999
 20
168.244732
 30
0.0
 11
826.3209419999999
 21
166.6845969999999
 31
0.0
  0
LINE
  5
CA69
330
C6FE
100
AcDbEntity
  8
1
  6
Continuous
100
AcDbLine
 10
826.4223879999999
 20
169.207908
 30
0.0
 11
827.598554
 21
167.647773
 31
0.0
  0
ARC
  5
CA6A
330
C6FE
100
AcDbEntity
  8
1
  6
Continuous
100
AcDbCircle
 10
829.4999999999998
 20
169.08125
 30
0.0
 40
3.98125
100
AcDbArc
 50
217.012191
 51
338.3347039999998
  0
ARC
  5
CA6B
330
C6FE
100
AcDbEntity
  8
1
  6
Continuous
100
AcDbCircle
 10
829.1
 20
188.0
 30
0.0
 40
0.5
100
AcDbArc
 50
0.0
 51
36.869898
  0
ARC
  5
CA6C
330
C6FE
100
AcDbEntity
  8
1
  6
Continuous
100
AcDbCircle
 10
829.1
 20
177.5
 30
0.0
 40
0.5
100
AcDbArc
 50
323.130102
 51
0.0
  0
LINE
  5
CA6D
330
C6FE
100
AcDbEntity
  8
1
  6
Continuous
100
AcDbLine
 10
829.6000000000001
 20
177.5
 30
0.0
 11
829.6000000000001
 21
188.0
 31
0.0
  0
ARC
  5
CA6E
330
C6FE
100
AcDbEntity
  8
1
  6
Continuous
100
AcDbCircle
 10
830.4
 20
190.4374999999998
 30
0.0
 40
1.199999999999999
100
AcDbArc
 50
0.0
 51
90.0
  0
ARC
  5
CA6F
330
C6FE
100
AcDbEntity
  8
1
  6
Continuous
100
AcDbCircle
 10
830.4
 20
190.4374999999998
 30
0.0
 40
2.399999999999999
100
AcDbArc
 50
0.0
 51
90.0
  0
ARC
  5
CA70
330
C6FE
100
AcDbEntity
  8
1
  6
Continuous
100
AcDbCircle
 10
830.4
 20
175.0625
 30
0.0
 40
1.199999999999999
100
AcDbArc
 50
270.0
 51
0.0
  0
ARC
  5
CA71
330
C6FE
100
AcDbEntity
  8
1
  6
Continuous
100
AcDbCircle
 10
830.4
 20
175.0625
 30
0.0
 40
2.399999999999999
100
AcDbArc
 50
270.0
 51
0.0
  0
LINE
  5
CA72
330
C6FE
100
AcDbEntity
  8
1
  6
Continuous
100
AcDbLine
 10
829.4999999999998
 20
175.2499999999998
 30
0.0
 11
829.4999999999998
 21
190.25
 31
0.0
  0
LINE
  5
CA73
330
C6FE
100
AcDbEntity
  8
1
  6
Continuous
100
AcDbLine
 10
831.6
 20
175.0625
 30
0.0
 11
831.6
 21
190.4374999999998
 31
0.0
  0
LINE
  5
CA74
330
C6FE
100
AcDbEntity
  8
1
  6
Continuous
100
AcDbLine
 10
834.1000000000001
 20
172.322939
 30
0.0
 11
834.1000000000001
 21
193.177061
 31
0.0
  0
LINE
  5
CA75
330
C6FE
100
AcDbEntity
  8
1
  6
Continuous
100
AcDbLine
 10
832.7999999999999
 20
172.322939
 30
0.0
 11
832.7999999999999
 21
193.177061
 31
0.0
  0
LINE
  5
CA76
330
C6FE
100
AcDbEntity
  8
1
  6
Continuous
100
AcDbLine
 10
834.0
 20
172.322939
 30
0.0
 11
834.0
 21
193.177061
 31
0.0
  0
LINE
  5
CA77
330
C6FE
100
AcDbEntity
  8
1
  6
Continuous
100
AcDbLine
 10
827.7999999999996
 20
191.6375
 30
0.0
 11
827.7999999999996
 21
192.8375
 31
0.0
  0
LINE
  5
CA78
330
C6FE
100
AcDbEntity
  8
1
  6
Continuous
100
AcDbLine
 10
827.7999999999996
 20
173.8625
 30
0.0
 11
827.7999999999996
 21
172.6625
 31
0.0
  0
LINE
  5
CA79
330
C6FE
100
AcDbEntity
  8
1
  6
Continuous
100
AcDbLine
 10
827.7999999999996
 20
191.6375
 30
0.0
 11
830.4
 21
191.6375
 31
0.0
  0
LINE
  5
CA7A
330
C6FE
100
AcDbEntity
  8
1
  6
Continuous
100
AcDbLine
 10
827.7999999999996
 20
192.8375
 30
0.0
 11
830.4
 21
192.8375
 31
0.0
  0
LINE
  5
CA7B
330
C6FE
100
AcDbEntity
  8
1
  6
Continuous
100
AcDbLine
 10
824.5
 20
190.25
 30
0.0
 11
829.4999999999998
 21
190.25
 31
0.0
  0
LINE
  5
CA7C
330
C6FE
100
AcDbEntity
  8
1
  6
Continuous
100
AcDbLine
 10
827.7999999999996
 20
173.8625
 30
0.0
 11
830.4
 21
173.8625
 31
0.0
  0
LINE
  5
CA7D
330
C6FE
100
AcDbEntity
  8
1
  6
Continuous
100
AcDbLine
 10
827.7999999999996
 20
172.6625
 30
0.0
 11
830.4
 21
172.6625
 31
0.0
  0
LINE
  5
CA7E
330
C6FE
100
AcDbEntity
  8
1
  6
Continuous
100
AcDbLine
 10
824.5
 20
175.2499999999998
 30
0.0
 11
829.4999999999998
 21
175.2499999999998
 31
0.0
  0
LINE
  5
CA7F
330
C6FE
100
AcDbEntity
  8
1
  6
Continuous
100
AcDbLine
 10
827.5
 20
172.0519989999999
 30
0.0
 11
828.170157
 21
171.0565649999998
 31
0.0
  0
ARC
  5
CA80
330
C6FE
100
AcDbEntity
  8
1
  6
Continuous
100
AcDbCircle
 10
827.1
 20
170.101452
 30
0.0
 40
0.5
100
AcDbArc
 50
180.0
 51
265.6384269999999
  0
ARC
  5
CA81
330
C6FE
100
AcDbEntity
  8
1
  6
Continuous
100
AcDbCircle
 10
829.4999999999998
 20
169.08125
 30
0.0
 40
2.38125
100
AcDbArc
 50
16.12167
 51
155.1551849999999
  0
LINE
  5
CA82
330
C6FE
100
AcDbEntity
  8
1
  6
Continuous
100
AcDbLine
 10
833.0
 20
169.65
 30
0.0
 11
827.1
 21
170.1
 31
0.0
  0
LINE
  5
CA83
330
C6FE
100
AcDbEntity
  8
1
  6
Continuous
100
AcDbLine
 10
826.6
 20
175.2499999999998
 30
0.0
 11
826.6
 21
170.101452
 31
0.0
  0
LINE
  5
CA84
330
C6FE
100
AcDbEntity
  8
1
  6
Continuous
100
AcDbLine
 10
826.1000000000001
 20
170.171084
 30
0.0
 11
826.1000000000001
 21
175.2499999999998
 31
0.0
  0
LINE
  5
CA85
330
C6FE
100
AcDbEntity
  8
1
  6
Continuous
100
AcDbLine
 10
827.1
 20
175.2499999999998
 30
0.0
 11
827.1
 21
170.1
 31
0.0
  0
ARC
  5
CA86
330
C6FE
100
AcDbEntity
  8
1
  6
Continuous
100
AcDbCircle
 10
829.4999999999998
 20
169.08125
 30
0.0
 40
3.581249999999998
100
AcDbArc
 50
50.449321
 51
123.949655
  0
ARC
  5
CA87
330
C6FE
100
AcDbEntity
  8
1
  6
Continuous
100
AcDbCircle
 10
832.1770609999996
 20
172.322939
 30
0.0
 40
1.822938999999999
100
AcDbArc
 50
230.4493209999999
 51
0.0
  0
ARC
  5
CA88
330
C6FE
100
AcDbEntity
  8
1
  6
Continuous
100
AcDbCircle
 10
832.1770609999996
 20
172.322939
 30
0.0
 40
0.6229390000000003
100
AcDbArc
 50
230.4493209999999
 51
0.0
  0
ARC
  5
CA89
330
C6FE
100
AcDbEntity
  8
1
  6
Continuous
100
AcDbCircle
 10
840.3999999999998
 20
170.171084
 30
0.0
 40
1.6
100
AcDbArc
 50
322.9878089999999
 51
0.0
  0
ARC
  5
CA8A
330
C6FE
100
AcDbEntity
  8
1
  6
Continuous
100
AcDbCircle
 10
840.3999999999998
 20
170.171084
 30
0.0
 40
3.2
100
AcDbArc
 50
322.9878089999999
 51
0.0
  0
LINE
  5
CA8B
330
C6FE
100
AcDbEntity
  8
1
  6
Continuous
100
AcDbLine
 10
835.1
 20
169.65
 30
0.0
 11
835.1
 21
169.15
 31
0.0
  0
ARC
  5
CA8C
330
C6FE
100
AcDbEntity
  8
1
  6
Continuous
100
AcDbCircle
 10
838.6000000000001
 20
169.08125
 30
0.0
 40
2.38125
100
AcDbArc
 50
176.2808719999999
 51
12.44227399999999
  0
LINE
  5
CA8D
330
C6FE
100
AcDbEntity
  8
1
  6
Continuous
100
AcDbLine
 10
835.1
 20
169.15
 30
0.0
 11
841.0380249999999
 21
169.6029
 31
0.0
  0
LINE
  5
CA8E
330
C6FE
100
AcDbEntity
  8
1
  6
Continuous
100
AcDbLine
 10
842.9552240000001
 20
168.244732
 30
0.0
 11
841.7790579999998
 21
166.6845969999999
 31
0.0
  0
LINE
  5
CA8F
330
C6FE
100
AcDbEntity
  8
1
  6
Continuous
100
AcDbLine
 10
834.9
 20
167.611437
 30
0.0
 11
836.38697
 21
168.202131
 31
0.0
  0
ARC
  5
CA90
330
C6FE
100
AcDbEntity
  8
1
  6
Continuous
100
AcDbCircle
 10
838.6000000000001
 20
169.08125
 30
0.0
 40
3.98125
100
AcDbArc
 50
201.6652959999999
 51
322.9878089999999
  0
LINE
  5
CA91
330
C6FE
100
AcDbEntity
  8
1
  6
Continuous
100
AcDbLine
 10
841.6776119999997
 20
169.207908
 30
0.0
 11
840.501446
 21
167.647773
 31
0.0
  0
LINE
  5
CA92
330
C6FE
100
AcDbEntity
  8
1
  6
Continuous
100
AcDbLine
 10
835.1
 20
172.75
 30
0.0
 11
835.1
 21
192.75
 31
0.0
  0
LINE
  5
CA93
330
C6FE
100
AcDbEntity
  8
1
  6
Continuous
100
AcDbLine
 10
841.5
 20
171.25
 30
0.0
 11
841.5
 21
170.101452
 31
0.0
  0
LINE
  5
CA94
330
C6FE
100
AcDbEntity
  8
1
  6
Continuous
100
AcDbLine
 10
842.0
 20
170.171084
 30
0.0
 11
842.0
 21
171.25
 31
0.0
  0
LINE
  5
CA95
330
C6FE
100
AcDbEntity
  8
1
  6
Continuous
100
AcDbLine
 10
841.0
 20
171.25
 30
0.0
 11
841.0
 21
170.1
 31
0.0
  0
ARC
  5
CA96
330
C6FE
100
AcDbEntity
  8
1
  6
Continuous
100
AcDbCircle
 10
841.0
 20
170.101452
 30
0.0
 40
0.5
100
AcDbArc
 50
274.361573
 51
0.0
  0
LINE
  5
CA97
330
C6FE
100
AcDbEntity
  8
1
  6
Continuous
100
AcDbLine
 10
840.060069
 20
171.25
 30
0.0
 11
839.9298429999998
 21
171.0565649999998
 31
0.0
  0
ARC
  5
CA98
330
C6FE
100
AcDbEntity
  8
1
  6
Continuous
100
AcDbCircle
 10
838.6000000000001
 20
169.08125
 30
0.0
 40
2.38125
100
AcDbArc
 50
114.3892499999999
 51
163.87833
  0
ARC
  5
CA99
330
C6FE
100
AcDbEntity
  8
1
  6
Continuous
100
AcDbCircle
 10
838.6000000000001
 20
169.08125
 30
0.0
 40
2.38125
100
AcDbArc
 50
24.844815
 51
65.61074999999999
  0
LINE
  5
CA9A
330
C6FE
100
AcDbEntity
  8
1
  6
Continuous
100
AcDbLine
 10
835.1
 20
169.65
 30
0.0
 11
841.0
 21
170.1
 31
0.0
  0
LINE
  5
CA9B
330
C6FE
100
AcDbEntity
  8
1
  6
Continuous
100
AcDbLine
 10
836.5999999999996
 20
171.25
 30
0.0
 11
843.5999999999996
 21
171.25
 31
0.0
  0
ARC
  5
CA9C
330
C6FE
100
AcDbEntity
  8
1
  6
Continuous
100
AcDbCircle
 10
836.5999999999996
 20
172.75
 30
0.0
 40
1.5
100
AcDbArc
 50
180.0
 51
270.0
  0
LINE
  5
CA9D
330
C6FE
100
AcDbEntity
  8
1
  6
Continuous
100
AcDbLine
 10
833.0
 20
195.8499999999999
 30
0.0
 11
833.0
 21
196.3499999999999
 31
0.0
  0
LINE
  5
CA9E
330
C6FE
100
AcDbEntity
  8
1
  6
Continuous
100
AcDbLine
 10
833.2
 20
197.8885629999999
 30
0.0
 11
831.71303
 21
197.2978689999999
 31
0.0
  0
LINE
  5
CA9F
330
C6FE
100
AcDbEntity
  8
1
  6
Continuous
100
AcDbLine
 10
825.1447759999999
 20
197.2552679999998
 30
0.0
 11
826.3209419999999
 21
198.815403
 31
0.0
  0
LINE
  5
CAA0
330
C6FE
100
AcDbEntity
  8
1
  6
Continuous
100
AcDbLine
 10
826.4223879999999
 20
196.292092
 30
0.0
 11
827.598554
 21
197.852227
 31
0.0
  0
LINE
  5
CAA1
330
C6FE
100
AcDbEntity
  8
1
  6
Continuous
100
AcDbLine
 10
833.0
 20
196.3499999999999
 30
0.0
 11
827.0619749999998
 21
195.8971
 31
0.0
  0
ARC
  5
CAA2
330
C6FE
100
AcDbEntity
  8
1
  6
Continuous
100
AcDbCircle
 10
829.4999999999998
 20
196.4187499999999
 30
0.0
 40
3.98125
100
AcDbArc
 50
21.665296
 51
142.987809
  0
ARC
  5
CAA3
330
C6FE
100
AcDbEntity
  8
1
  6
Continuous
100
AcDbCircle
 10
829.4999999999998
 20
196.4187499999999
 30
0.0
 40
2.38125
100
AcDbArc
 50
356.280872
 51
192.4422739999998
  0
ARC
  5
CAA4
330
C6FE
100
AcDbEntity
  8
1
  6
Continuous
100
AcDbCircle
 10
829.4999999999998
 20
196.4187499999999
 30
0.0
 40
2.38125
100
AcDbArc
 50
204.844815
 51
343.87833
  0
ARC
  5
CAA5
330
C6FE
100
AcDbEntity
  8
1
  6
Continuous
100
AcDbCircle
 10
827.1
 20
195.398548
 30
0.0
 40
0.5
100
AcDbArc
 50
94.36157300000001
 51
180.0
  0
ARC
  5
CAA6
330
C6FE
100
AcDbEntity
  8
1
  6
Continuous
100
AcDbCircle
 10
827.7000000000001
 20
195.3289159999999
 30
0.0
 40
3.2
100
AcDbArc
 50
142.987809
 51
180.0
  0
ARC
  5
CAA7
330
C6FE
100
AcDbEntity
  8
1
  6
Continuous
100
AcDbCircle
 10
827.7000000000001
 20
195.3289159999999
 30
0.0
 40
1.6
100
AcDbArc
 50
142.987809
 51
180.0
  0
LINE
  5
CAA8
330
C6FE
100
AcDbEntity
  8
1
  6
Continuous
100
AcDbLine
 10
833.0
 20
195.8499999999999
 30
0.0
 11
827.1
 21
195.4
 31
0.0
  0
LINE
  5
CAA9
330
C6FE
100
AcDbEntity
  8
1
  6
Continuous
100
AcDbLine
 10
842.9552240000001
 20
197.2552679999998
 30
0.0
 11
841.7790579999998
 21
198.815403
 31
0.0
  0
LINE
  5
CAAA
330
C6FE
100
AcDbEntity
  8
1
  6
Continuous
100
AcDbLine
 10
835.1
 20
195.8499999999999
 30
0.0
 11
835.1
 21
196.3499999999999
 31
0.0
  0
LINE
  5
CAAB
330
C6FE
100
AcDbEntity
  8
1
  6
Continuous
100
AcDbLine
 10
834.9
 20
197.8885629999999
 30
0.0
 11
836.38697
 21
197.2978689999999
 31
0.0
  0
LINE
  5
CAAC
330
C6FE
100
AcDbEntity
  8
1
  6
Continuous
100
AcDbLine
 10
835.1
 20
196.3499999999999
 30
0.0
 11
841.0380249999999
 21
195.8971
 31
0.0
  0
LINE
  5
CAAD
330
C6FE
100
AcDbEntity
  8
1
  6
Continuous
100
AcDbLine
 10
841.6776119999997
 20
196.292092
 30
0.0
 11
840.501446
 21
197.852227
 31
0.0
  0
ARC
  5
CAAE
330
C6FE
100
AcDbEntity
  8
1
  6
Continuous
100
AcDbCircle
 10
838.6000000000001
 20
196.4187499999999
 30
0.0
 40
3.98125
100
AcDbArc
 50
37.01219099999998
 51
158.3347039999999
  0
LINE
  5
CAAF
330
C6FE
100
AcDbEntity
  8
1
  6
Continuous
100
AcDbLine
 10
841.5
 20
194.25
 30
0.0
 11
841.5
 21
195.398548
 31
0.0
  0
LINE
  5
CAB0
330
C6FE
100
AcDbEntity
  8
1
  6
Continuous
100
AcDbLine
 10
842.0
 20
194.25
 30
0.0
 11
842.0
 21
195.3289159999999
 31
0.0
  0
LINE
  5
CAB1
330
C6FE
100
AcDbEntity
  8
1
  6
Continuous
100
AcDbLine
 10
841.0
 20
194.25
 30
0.0
 11
841.0
 21
195.4
 31
0.0
  0
LINE
  5
CAB2
330
C6FE
100
AcDbEntity
  8
1
  6
Continuous
100
AcDbLine
 10
840.060069
 20
194.25
 30
0.0
 11
839.9298429999998
 21
194.443435
 31
0.0
  0
LINE
  5
CAB3
330
C6FE
100
AcDbEntity
  8
1
  6
Continuous
100
AcDbLine
 10
836.5999999999996
 20
194.25
 30
0.0
 11
843.5999999999996
 21
194.25
 31
0.0
  0
ARC
  5
CAB4
330
C6FE
100
AcDbEntity
  8
1
  6
Continuous
100
AcDbCircle
 10
841.0
 20
195.398548
 30
0.0
 40
0.5
100
AcDbArc
 50
0.0
 51
85.63842699999998
  0
ARC
  5
CAB5
330
C6FE
100
AcDbEntity
  8
1
  6
Continuous
100
AcDbCircle
 10
840.3999999999998
 20
195.3289159999999
 30
0.0
 40
1.6
100
AcDbArc
 50
0.0
 51
37.01219099999998
  0
ARC
  5
CAB6
330
C6FE
100
AcDbEntity
  8
1
  6
Continuous
100
AcDbCircle
 10
840.3999999999998
 20
195.3289159999999
 30
0.0
 40
3.2
100
AcDbArc
 50
0.0
 51
37.01219099999998
  0
ARC
  5
CAB7
330
C6FE
100
AcDbEntity
  8
1
  6
Continuous
100
AcDbCircle
 10
838.6000000000001
 20
196.4187499999999
 30
0.0
 40
2.38125
100
AcDbArc
 50
294.38925
 51
335.155185
  0
ARC
  5
CAB8
330
C6FE
100
AcDbEntity
  8
1
  6
Continuous
100
AcDbCircle
 10
838.6000000000001
 20
196.4187499999999
 30
0.0
 40
2.38125
100
AcDbArc
 50
196.12167
 51
245.6107499999998
  0
ARC
  5
CAB9
330
C6FE
100
AcDbEntity
  8
1
  6
Continuous
100
AcDbCircle
 10
838.6000000000001
 20
196.4187499999999
 30
0.0
 40
2.38125
100
AcDbArc
 50
347.557726
 51
183.719128
  0
LINE
  5
CABA
330
C6FE
100
AcDbEntity
  8
1
  6
Continuous
100
AcDbLine
 10
835.1
 20
195.8499999999999
 30
0.0
 11
841.0
 21
195.4
 31
0.0
  0
ENDSEC
  0
SECTION
  2
OBJECTS
  0
DICTIONARY
  5
C6EC
330
0
100
AcDbDictionary
281
     1
  3
ACAD_CIP_PREVIOUS_PRODUCT_INFO
350
CB1A
  3
ACAD_COLOR
350
CAFC
  3
ACAD_DETAILVIEWSTYLE
350
CB15
  3
ACAD_GROUP
350
C6ED
  3
ACAD_LAYOUT
350
C6F9
  3
ACAD_MATERIAL
350
CACA
  3
ACAD_MLEADERSTYLE
350
CB11
  3
ACAD_MLINESTYLE
350
C6F6
  3
ACAD_PLOTSETTINGS
350
C6F8
  3
ACAD_PLOTSTYLENAME
350
CAC8
  3
ACAD_SCALELIST
350
CAFF
  3
ACAD_SECTIONVIEWSTYLE
350
CB13
  3
ACAD_TABLESTYLE
350
CAFD
  3
ACAD_VISUALSTYLE
350
CAE3
  3
ACDB_RECOMPOSE_DATA
350
CB38
  3
AcDbVariableDictionary
350
CB2B
  3
DWGPROPS
350
CB39
  0
DICTIONARY
  5
CB1B
330
C6F0
100
AcDbDictionary
280
     1
281
     1
  3
ADSK_XREC_LAYER_RECONCILED
360
CB1C
  0
DICTIONARY
  5
CB1D
330
C706
100
AcDbDictionary
280
     1
281
     1
  3
ADSK_XREC_LAYER_RECONCILED
360
CB1E
  0
DICTIONARY
  5
CB1F
330
C707
100
AcDbDictionary
280
     1
281
     1
  3
ADSK_XREC_LAYER_RECONCILED
360
CB20
  0
DICTIONARY
  5
CB21
330
C708
100
AcDbDictionary
280
     1
281
     1
  3
ADSK_XREC_LAYER_RECONCILED
360
CB22
  0
DICTIONARY
  5
CB23
330
C709
100
AcDbDictionary
280
     1
281
     1
  3
ADSK_XREC_LAYER_RECONCILED
360
CB24
  0
DICTIONARY
  5
CB25
330
C70A
100
AcDbDictionary
280
     1
281
     1
  3
ADSK_XREC_LAYER_RECONCILED
360
CB26
  0
DICTIONARY
  5
CB27
330
C70B
100
AcDbDictionary
280
     1
281
     1
  3
ADSK_XREC_LAYER_RECONCILED
360
CB28
  0
DICTIONARY
  5
CB29
330
C70C
100
AcDbDictionary
280
     1
281
     1
  3
ADSK_XREC_LAYER_RECONCILED
360
CB2A
  0
DICTIONARY
  5
CAC3
330
C6FE
100
AcDbDictionary
281
     1
  3
ACAD_LAYOUTSELFREF
350
CAC4
  0
DICTIONARY
  5
CAC1
330
C6FA
100
AcDbDictionary
281
     1
  3
ACAD_LAYOUTSELFREF
350
CAC2
  0
XRECORD
  5
CB1A
102
{ACAD_REACTORS
330
C6EC
102
}
330
C6EC
100
AcDbXrecord
280
     1
300
ACDLT
300
2014
300
ACDLT_F_S
  0
DICTIONARY
  5
CAFC
102
{ACAD_REACTORS
330
C6EC
102
}
330
C6EC
100
AcDbDictionary
281
     1
  0
DICTIONARY
  5
CB15
102
{ACAD_REACTORS
330
C6EC
102
}
330
C6EC
100
AcDbDictionary
281
     1
  3
Imperial24
350
CB16
  0
DICTIONARY
  5
C6ED
102
{ACAD_REACTORS
330
C6EC
102
}
330
C6EC
100
AcDbDictionary
281
     1
  0
DICTIONARY
  5
C6F9
102
{ACAD_REACTORS
330
C6EC
102
}
330
C6EC
100
AcDbDictionary
281
     1
  3
Model
350
CB17
  3
レイアウト1
350
CB18
  0
DICTIONARY
  5
CACA
102
{ACAD_REACTORS
330
C6EC
102
}
330
C6EC
100
AcDbDictionary
281
     1
  3
ByBlock
350
CAD3
  3
ByLayer
350
CACB
  3
Global
350
CADB
  0
DICTIONARY
  5
CB11
102
{ACAD_REACTORS
330
C6EC
102
}
330
C6EC
100
AcDbDictionary
281
     1
  3
Standard
350
CB12
  0
DICTIONARY
  5
C6F6
102
{ACAD_REACTORS
330
C6EC
102
}
330
C6EC
100
AcDbDictionary
281
     1
  3
STANDARD
350
C6F7
  0
DICTIONARY
  5
C6F8
102
{ACAD_REACTORS
330
C6EC
102
}
330
C6EC
100
AcDbDictionary
281
     1
  0
ACDBDICTIONARYWDFLT
  5
CAC8
102
{ACAD_REACTORS
330
C6EC
102
}
330
C6EC
100
AcDbDictionary
281
     1
  3
Normal
350
CAC9
100
AcDbDictionaryWithDefault
340
CAC9
  0
DICTIONARY
  5
CAFF
102
{ACAD_REACTORS
330
C6EC
102
}
330
C6EC
100
AcDbDictionary
281
     1
  3
A0
350
CB00
  3
A1
350
CB01
  3
A2
350
CB02
  3
A3
350
CB03
  3
A4
350
CB04
  3
A5
350
CB05
  3
A6
350
CB06
  3
A7
350
CB07
  3
A8
350
CB08
  3
A9
350
CB09
  3
B0
350
CB0A
  3
B1
350
CB0B
  3
B2
350
CB0C
  3
B3
350
CB0D
  3
B4
350
CB0E
  3
B5
350
CB0F
  3
B6
350
CB10
  0
DICTIONARY
  5
CB13
102
{ACAD_REACTORS
330
C6EC
102
}
330
C6EC
100
AcDbDictionary
281
     1
  3
Imperial24
350
CB14
  0
DICTIONARY
  5
CAFD
102
{ACAD_REACTORS
330
C6EC
102
}
330
C6EC
100
AcDbDictionary
281
     1
  3
Standard
350
CAFE
  0
DICTIONARY
  5
CAE3
102
{ACAD_REACTORS
330
C6EC
102
}
330
C6EC
100
AcDbDictionary
281
     1
  3
2dWireframe
350
CAE9
  3
Basic
350
CAE8
  3
Brighten
350
CAEF
  3
ColorChange
350
CAF3
  3
Conceptual
350
CAEC
  3
Dim
350
CAEE
  3
EdgeColorOff
350
CAFB
  3
Facepattern
350
CAF2
  3
Flat
350
CAE4
  3
FlatWithEdges
350
CAE5
  3
Gouraud
350
CAE6
  3
GouraudWithEdges
350
CAE7
  3
Hidden
350
CAEB
  3
JitterOff
350
CAF9
  3
Linepattern
350
CAF1
  3
OverhangOff
350
CAFA
  3
Realistic
350
CAED
  3
Shaded
350
CAF8
  3
Shaded with edges
350
CAF7
  3
Shades of Gray
350
CAF4
  3
Sketchy
350
CAF5
  3
Thicken
350
CAF0
  3
Wireframe
350
CAEA
  3
X-Ray
350
CAF6
  0
XRECORD
  5
CB38
102
{ACAD_REACTORS
330
C6EC
102
}
330
C6EC
100
AcDbXrecord
280
     1
 90
        1
330
CAFE
  0
DICTIONARY
  5
CB2B
102
{ACAD_REACTORS
330
C6EC
102
}
330
C6EC
100
AcDbDictionary
281
     1
  3
CANNOSCALE
350
CB30
  3
CMLEADERSTYLE
350
CB2D
  3
CTABLESTYLE
350
CB2C
  3
CVIEWDETAILSTYLE
350
CB2E
  3
CVIEWSECTIONSTYLE
350
CB2F
  3
DIMASSOC
350
CB33
  3
INDEXCTL
350
CB32
  3
SORTENTS
350
CB31
  3
XCLIPFRAME
350
CB34
  0
XRECORD
  5
CB39
102
{ACAD_REACTORS
330
C6EC
102
}
330
C6EC
100
AcDbXrecord
280
     1
  1
DWGPROPS COOKIE
  2

  3

  4

  6

  7

  8
Yoshitsune
  9

300
=
301
=
302
=
303
=
304
=
305
=
306
=
307
=
308
=
309
=
 40
0.0000121759259259
 41
2451233.360276158
 42
2457192.659512928
  1

 90
        0
  0
XRECORD
  5
CB1C
102
{ACAD_REACTORS
330
CB1B
102
}
330
CB1B
100
AcDbXrecord
280
     1
290
     1
  0
XRECORD
  5
CB1E
102
{ACAD_REACTORS
330
CB1D
102
}
330
CB1D
100
AcDbXrecord
280
     1
290
     1
  0
XRECORD
  5
CB20
102
{ACAD_REACTORS
330
CB1F
102
}
330
CB1F
100
AcDbXrecord
280
     1
290
     1
  0
XRECORD
  5
CB22
102
{ACAD_REACTORS
330
CB21
102
}
330
CB21
100
AcDbXrecord
280
     1
290
     1
  0
XRECORD
  5
CB24
102
{ACAD_REACTORS
330
CB23
102
}
330
CB23
100
AcDbXrecord
280
     1
290
     1
  0
XRECORD
  5
CB26
102
{ACAD_REACTORS
330
CB25
102
}
330
CB25
100
AcDbXrecord
280
     1
290
     1
  0
XRECORD
  5
CB28
102
{ACAD_REACTORS
330
CB27
102
}
330
CB27
100
AcDbXrecord
280
     1
290
     1
  0
XRECORD
  5
CB2A
102
{ACAD_REACTORS
330
CB29
102
}
330
CB29
100
AcDbXrecord
280
     1
290
     1
  0
XRECORD
  5
CAC4
102
{ACAD_REACTORS
330
CAC3
102
}
330
CAC3
100
AcDbXrecord
280
     1
340
C6FE
  0
XRECORD
  5
CAC2
102
{ACAD_REACTORS
330
CAC1
102
}
330
CAC1
100
AcDbXrecord
280
     1
340
C6FA
  0
ACDBDETAILVIEWSTYLE
  5
CB16
102
{ACAD_XDICTIONARY
360
CB71
102
}
102
{ACAD_REACTORS
330
CB15
102
}
330
CB15
100
AcDbModelDocViewStyle
 70
     0
  3
Imperial24
290
     0
100
AcDbDetailViewStyle
 70
     0
 71
     0
 90
        3
 71
     1
340
C6F1
 40
0.24
340
0
 40
0.24
300

 40
0.36
280
     3
 71
     2
340
C6F5
 90
       25
 71
     3
340
C6F1
 40
0.24
 90
        1
 40
0.75
 90
        1
300
%<\AcVar ViewType \f "%tc1">% %<\AcVar ViewDetailId>%\PSCALE %<\AcVar ViewScale \f "%sn">%
 71
     4
340
C6F5
 90
       25
340
C6F5
 90
       25
280
     0
  0
LAYOUT
  5
CB17
102
{ACAD_XDICTIONARY
360
CB73
102
}
102
{ACAD_REACTORS
330
C6F9
102
}
330
C6F9
100
AcDbPlotSettings
  1

  2
Canon LBP9100C
  4

  6

 40
0.0
 41
0.0
 42
0.0
 43
0.0
 44
0.0
 45
0.0
 46
0.0
 47
0.0
 48
0.0
 49
0.0
140
0.0
141
0.0
142
1.0
143
1.0
 70
  1712
 72
     0
 73
     0
 74
     0
  7

 75
     0
147
1.0
148
0.0
149
0.0
100
AcDbLayout
  1
Model
 70
     1
 71
     0
 10
0.0
 20
0.0
 11
12.0
 21
9.0
 12
0.0
 22
0.0
 32
0.0
 14
0.0
 24
0.0
 34
0.0
 15
0.0
 25
0.0
 35
0.0
146
0.0
 13
0.0
 23
0.0
 33
0.0
 16
1.0
 26
0.0
 36
0.0
 17
0.0
 27
1.0
 37
0.0
 76
     0
330
C6FE
331
CAC0
  0
LAYOUT
  5
CB18
102
{ACAD_XDICTIONARY
360
CB75
102
}
102
{ACAD_REACTORS
330
C6F9
102
}
330
C6F9
100
AcDbPlotSettings
  1

  2
Canon LBP9100C
  4

  6

 40
0.0
 41
0.0
 42
0.0
 43
0.0
 44
0.0
 45
0.0
 46
0.0
 47
0.0
 48
0.0
 49
0.0
140
0.0
141
0.0
142
1.0
143
1.0
 70
   688
 72
     0
 73
     0
 74
     5
  7

 75
    16
147
1.0
148
0.0
149
0.0
100
AcDbLayout
  1
レイアウト1
 70
     0
 71
     1
 10
0.0
 20
0.0
 11
420.0
 21
297.0
 12
0.0
 22
0.0
 32
0.0
 14
1.000000000000000E+20
 24
1.000000000000000E+20
 34
1.000000000000000E+20
 15
-1.000000000000000E+20
 25
-1.000000000000000E+20
 35
-1.000000000000000E+20
146
0.0
 13
0.0
 23
0.0
 33
0.0
 16
1.0
 26
0.0
 36
0.0
 17
0.0
 27
1.0
 37
0.0
 76
     0
330
C6FA
  0
MATERIAL
  5
CAD3
102
{ACAD_XDICTIONARY
360
CAD4
102
}
102
{ACAD_REACTORS
330
CACA
102
}
330
CACA
100
AcDbMaterial
  1
ByBlock
 72
     0
 43
0.0208333333333333
 43
0.0
 43
0.0
 43
0.0
 43
0.0
 43
0.0208333333333333
 43
0.0
 43
0.0
 43
0.0
 43
0.0
 43
1.0
 43
0.0
 43
0.0
 43
0.0
 43
0.0
 43
1.0
 77
     0
 47
0.0208333333333333
 47
0.0
 47
0.0
 47
0.0
 47
0.0
 47
0.0208333333333333
 47
0.0
 47
0.0
 47
0.0
 47
0.0
 47
1.0
 47
0.0
 47
0.0
 47
0.0
 47
0.0
 47
1.0
171
     0
 49
0.0208333333333333
 49
0.0
 49
0.0
 49
0.0
 49
0.0
 49
0.0208333333333333
 49
0.0
 49
0.0
 49
0.0
 49
0.0
 49
1.0
 49
0.0
 49
0.0
 49
0.0
 49
0.0
 49
1.0
175
     0
142
0.0208333333333333
142
0.0
142
0.0
142
0.0
142
0.0
142
0.0208333333333333
142
0.0
142
0.0
142
0.0
142
0.0
142
1.0
142
0.0
142
0.0
142
0.0
142
0.0
142
1.0
179
     0
144
0.0208333333333333
144
0.0
144
0.0
144
0.0
144
0.0
144
0.0208333333333333
144
0.0
144
0.0
144
0.0
144
0.0
144
1.0
144
0.0
144
0.0
144
0.0
144
0.0
144
1.0
147
0.0208333333333333
147
0.0
147
0.0
147
0.0
147
0.0
147
0.0208333333333333
147
0.0
147
0.0
147
0.0
147
0.0
147
1.0
147
0.0
147
0.0
147
0.0
147
0.0
147
1.0
  0
MATERIAL
  5
CACB
102
{ACAD_XDICTIONARY
360
CACC
102
}
102
{ACAD_REACTORS
330
CACA
102
}
330
CACA
100
AcDbMaterial
  1
ByLayer
 72
     0
 43
0.0208333333333333
 43
0.0
 43
0.0
 43
0.0
 43
0.0
 43
0.0208333333333333
 43
0.0
 43
0.0
 43
0.0
 43
0.0
 43
1.0
 43
0.0
 43
0.0
 43
0.0
 43
0.0
 43
1.0
 77
     0
 47
0.0208333333333333
 47
0.0
 47
0.0
 47
0.0
 47
0.0
 47
0.0208333333333333
 47
0.0
 47
0.0
 47
0.0
 47
0.0
 47
1.0
 47
0.0
 47
0.0
 47
0.0
 47
0.0
 47
1.0
171
     0
 49
0.0208333333333333
 49
0.0
 49
0.0
 49
0.0
 49
0.0
 49
0.0208333333333333
 49
0.0
 49
0.0
 49
0.0
 49
0.0
 49
1.0
 49
0.0
 49
0.0
 49
0.0
 49
0.0
 49
1.0
175
     0
142
0.0208333333333333
142
0.0
142
0.0
142
0.0
142
0.0
142
0.0208333333333333
142
0.0
142
0.0
142
0.0
142
0.0
142
1.0
142
0.0
142
0.0
142
0.0
142
0.0
142
1.0
179
     0
144
0.0208333333333333
144
0.0
144
0.0
144
0.0
144
0.0
144
0.0208333333333333
144
0.0
144
0.0
144
0.0
144
0.0
144
1.0
144
0.0
144
0.0
144
0.0
144
0.0
144
1.0
147
0.0208333333333333
147
0.0
147
0.0
147
0.0
147
0.0
147
0.0208333333333333
147
0.0
147
0.0
147
0.0
147
0.0
147
1.0
147
0.0
147
0.0
147
0.0
147
0.0
147
1.0
  0
MATERIAL
  5
CADB
102
{ACAD_XDICTIONARY
360
CADC
102
}
102
{ACAD_REACTORS
330
CACA
102
}
330
CACA
100
AcDbMaterial
  1
Global
 72
     0
 43
0.0208333333333333
 43
0.0
 43
0.0
 43
0.0
 43
0.0
 43
0.0208333333333333
 43
0.0
 43
0.0
 43
0.0
 43
0.0
 43
1.0
 43
0.0
 43
0.0
 43
0.0
 43
0.0
 43
1.0
 77
     0
 47
0.0208333333333333
 47
0.0
 47
0.0
 47
0.0
 47
0.0
 47
0.0208333333333333
 47
0.0
 47
0.0
 47
0.0
 47
0.0
 47
1.0
 47
0.0
 47
0.0
 47
0.0
 47
0.0
 47
1.0
171
     0
 49
0.0208333333333333
 49
0.0
 49
0.0
 49
0.0
 49
0.0
 49
0.0208333333333333
 49
0.0
 49
0.0
 49
0.0
 49
0.0
 49
1.0
 49
0.0
 49
0.0
 49
0.0
 49
0.0
 49
1.0
175
     0
142
0.0208333333333333
142
0.0
142
0.0
142
0.0
142
0.0
142
0.0208333333333333
142
0.0
142
0.0
142
0.0
142
0.0
142
1.0
142
0.0
142
0.0
142
0.0
142
0.0
142
1.0
179
     0
144
0.0208333333333333
144
0.0
144
0.0
144
0.0
144
0.0
144
0.0208333333333333
144
0.0
144
0.0
144
0.0
144
0.0
144
1.0
144
0.0
144
0.0
144
0.0
144
0.0
144
1.0
147
0.0208333333333333
147
0.0
147
0.0
147
0.0
147
0.0
147
0.0208333333333333
147
0.0
147
0.0
147
0.0
147
0.0
147
1.0
147
0.0
147
0.0
147
0.0
147
0.0
147
1.0
  0
MLEADERSTYLE
  5
CB12
102
{ACAD_REACTORS
330
CB11
102
}
330
CB11
100
AcDbMLeaderStyle
170
     2
171
     1
172
     0
 90
        2
 40
0.0
 41
0.0
173
     1
 91
-1056964608
340
C6F3
 92
       -2
290
     1
 42
0.09
291
     1
 43
0.36
  3
Standard
 44
0.18
300

342
C6F1
174
     1
178
     6
175
     1
176
     0
 93
-1056964608
 45
0.18
292
     0
297
     0
 46
0.18
 94
-1056964608
 47
1.0
 49
1.0
140
1.0
293
     1
141
0.0
294
     1
177
     0
142
1.0
295
     0
296
     0
143
0.125
1001
ACAD_MLEADERVER
1070
     2
  0
MLINESTYLE
  5
C6F7
102
{ACAD_REACTORS
330
C6F6
102
}
330
C6F6
100
AcDbMlineStyle
  2
STANDARD
 70
     0
  3

 62
   256
 51
90.0
 52
90.0
 71
     2
 49
0.5
 62
   256
  6
BYLAYER
 49
-0.5
 62
   256
  6
BYLAYER
  0
ACDBPLACEHOLDER
  5
CAC9
102
{ACAD_REACTORS
330
CAC8
102
}
330
CAC8
  0
SCALE
  5
CB00
102
{ACAD_REACTORS
330
CAFF
102
}
330
CAFF
100
AcDbScale
 70
     0
300
1:1
140
1.0
141
1.0
290
     1
  0
SCALE
  5
CB01
102
{ACAD_REACTORS
330
CAFF
102
}
330
CAFF
100
AcDbScale
 70
     0
300
1/128" = 1'-0"
140
0.0078125
141
12.0
290
     0
  0
SCALE
  5
CB02
102
{ACAD_REACTORS
330
CAFF
102
}
330
CAFF
100
AcDbScale
 70
     0
300
1/64" = 1'-0"
140
0.015625
141
12.0
290
     0
  0
SCALE
  5
CB03
102
{ACAD_REACTORS
330
CAFF
102
}
330
CAFF
100
AcDbScale
 70
     0
300
1/32" = 1'-0"
140
0.03125
141
12.0
290
     0
  0
SCALE
  5
CB04
102
{ACAD_REACTORS
330
CAFF
102
}
330
CAFF
100
AcDbScale
 70
     0
300
1/16" = 1'-0"
140
0.0625
141
12.0
290
     0
  0
SCALE
  5
CB05
102
{ACAD_REACTORS
330
CAFF
102
}
330
CAFF
100
AcDbScale
 70
     0
300
3/32" = 1'-0"
140
0.09375
141
12.0
290
     0
  0
SCALE
  5
CB06
102
{ACAD_REACTORS
330
CAFF
102
}
330
CAFF
100
AcDbScale
 70
     0
300
1/8" = 1'-0"
140
0.125
141
12.0
290
     0
  0
SCALE
  5
CB07
102
{ACAD_REACTORS
330
CAFF
102
}
330
CAFF
100
AcDbScale
 70
     0
300
3/16" = 1'-0"
140
0.1875
141
12.0
290
     0
  0
SCALE
  5
CB08
102
{ACAD_REACTORS
330
CAFF
102
}
330
CAFF
100
AcDbScale
 70
     0
300
1/4" = 1'-0"
140
0.25
141
12.0
290
     0
  0
SCALE
  5
CB09
102
{ACAD_REACTORS
330
CAFF
102
}
330
CAFF
100
AcDbScale
 70
     0
300
3/8" = 1'-0"
140
0.375
141
12.0
290
     0
  0
SCALE
  5
CB0A
102
{ACAD_REACTORS
330
CAFF
102
}
330
CAFF
100
AcDbScale
 70
     0
300
1/2" = 1'-0"
140
0.5
141
12.0
290
     0
  0
SCALE
  5
CB0B
102
{ACAD_REACTORS
330
CAFF
102
}
330
CAFF
100
AcDbScale
 70
     0
300
3/4" = 1'-0"
140
0.75
141
12.0
290
     0
  0
SCALE
  5
CB0C
102
{ACAD_REACTORS
330
CAFF
102
}
330
CAFF
100
AcDbScale
 70
     0
300
1" = 1'-0"
140
1.0
141
12.0
290
     0
  0
SCALE
  5
CB0D
102
{ACAD_REACTORS
330
CAFF
102
}
330
CAFF
100
AcDbScale
 70
     0
300
1-1/2" = 1'-0"
140
1.5
141
12.0
290
     0
  0
SCALE
  5
CB0E
102
{ACAD_REACTORS
330
CAFF
102
}
330
CAFF
100
AcDbScale
 70
     0
300
3" = 1'-0"
140
3.0
141
12.0
290
     0
  0
SCALE
  5
CB0F
102
{ACAD_REACTORS
330
CAFF
102
}
330
CAFF
100
AcDbScale
 70
     0
300
6" = 1'-0"
140
6.0
141
12.0
290
     0
  0
SCALE
  5
CB10
102
{ACAD_REACTORS
330
CAFF
102
}
330
CAFF
100
AcDbScale
 70
     0
300
1'-0" = 1'-0"
140
12.0
141
12.0
290
     0
  0
ACDBSECTIONVIEWSTYLE
  5
CB14
102
{ACAD_XDICTIONARY
360
CB6F
102
}
102
{ACAD_REACTORS
330
CB13
102
}
330
CB13
100
AcDbModelDocViewStyle
 70
     0
  3
Imperial24
290
     0
100
AcDbSectionViewStyle
 70
     0
 71
     0
 90
       78
 71
     1
340
C6F1
 40
0.24
340
0
340
0
 40
0.24
300
I, O, Q, S, X, Z
 40
0.48
 90
        3
 40
0.18
 90
        1
 71
     2
340
C6F5
 90
       25
340
C6F5
 90
       50
 40
0.24
 40
0.0
 40
0.24
 71
     3
340
C6F1
 40
0.24
 90
        1
 40
0.75
 90
        1
300
%<\AcVar ViewType \f "%tc1">% %<\AcVar ViewSectionStartId>%-%<\AcVar ViewSectionEndId>%\PSCALE %<\AcVar ViewScale \f "%sn">%
 71
     4
300
ANSI31
 40
1.0
 90
        0
290
     0
290
     0
 90
        6
 40
0.0
 40
1.570796326794896
 40
0.2617993877991494
 40
1.308996938995747
 40
-0.2617993877991494
 40
1.832595714594046
  0
TABLESTYLE
  5
CAFE
102
{ACAD_XDICTIONARY
360
CB36
102
}
102
{ACAD_REACTORS
330
CAFD
102
}
330
CAFD
100
AcDbTableStyle
  3
Standard
 70
     0
 71
     0
 40
0.06
 41
0.06
280
     0
281
     0
  7
STANDARD
140
0.18
170
     2
 62
     0
 63
     7
283
     0
274
    -2
284
     1
 64
     0
275
    -2
285
     1
 65
     0
276
    -2
286
     1
 66
     0
277
    -2
287
     1
 67
     0
278
    -2
288
     1
 68
     0
279
    -2
289
     1
 69
     0
  7
STANDARD
140
0.25
170
     5
 62
     0
 63
     7
283
     0
274
    -2
284
     1
 64
     0
275
    -2
285
     1
 65
     0
276
    -2
286
     1
 66
     0
277
    -2
287
     1
 67
     0
278
    -2
288
     1
 68
     0
279
    -2
289
     1
 69
     0
  7
STANDARD
140
0.18
170
     5
 62
     0
 63
     7
283
     0
274
    -2
284
     1
 64
     0
275
    -2
285
     1
 65
     0
276
    -2
286
     1
 66
     0
277
    -2
287
     1
 67
     0
278
    -2
288
     1
 68
     0
279
    -2
289
     1
 69
     0
  0
VISUALSTYLE
  5
CAE9
102
{ACAD_XDICTIONARY
360
CB47
102
}
102
{ACAD_REACTORS
330
CAE3
102
}
330
CAE3
100
AcDbVisualStyle
  2
2dWireframe
 70
     4
 71
     0
 72
     2
 73
     0
 90
        0
 40
-0.6
 41
-30.0
 62
     5
 63
     7
 74
     1
 91
        4
 64
     7
 65
   257
 75
     1
175
     1
 42
1.0
 92
        0
 66
   257
 43
1.0
 76
     1
 77
     6
 78
     2
 67
     7
 79
     5
170
     0
171
     0
290
     0
174
     0
 93
        1
 44
0.0
173
     0
291
     0
 45
0.0
1001
ACAD
1000
AcDbSavedByObjectVersion
1070
     0
  0
VISUALSTYLE
  5
CAE8
102
{ACAD_XDICTIONARY
360
CB45
102
}
102
{ACAD_REACTORS
330
CAE3
102
}
330
CAE3
100
AcDbVisualStyle
  2
Basic
 70
     7
 71
     1
 72
     0
 73
     1
 90
        0
 40
-0.6
 41
-30.0
 62
     5
 63
     7
 74
     0
 91
        4
 64
     7
 65
   257
 75
     1
175
     1
 42
1.0
 92
        8
 66
     7
 43
1.0
 76
     1
 77
     6
 78
     2
 67
     7
 79
     5
170
     0
171
     0
290
     0
174
     0
 93
        1
 44
0.0
173
     0
291
     1
 45
0.0
1001
ACAD
1000
AcDbSavedByObjectVersion
1070
     0
  0
VISUALSTYLE
  5
CAEF
102
{ACAD_XDICTIONARY
360
CB53
102
}
102
{ACAD_REACTORS
330
CAE3
102
}
330
CAE3
100
AcDbVisualStyle
  2
Brighten
 70
    12
 71
     2
 72
     2
 73
     0
 90
        0
 40
-0.6
 41
-30.0
 62
     5
 63
     7
 74
     1
 91
        4
 64
     7
 65
   257
 75
     1
175
     1
 42
1.0
 92
        8
 66
     7
 43
1.0
 76
     1
 77
     6
 78
     2
 67
     7
 79
     5
170
     0
171
     0
290
     0
174
     0
 93
        1
 44
50.0
173
     0
291
     1
 45
0.0
1001
ACAD
1000
AcDbSavedByObjectVersion
1070
     0
  0
VISUALSTYLE
  5
CAF3
102
{ACAD_XDICTIONARY
360
CB5B
102
}
102
{ACAD_REACTORS
330
CAE3
102
}
330
CAE3
100
AcDbVisualStyle
  2
ColorChange
 70
    16
 71
     2
 72
     2
 73
     3
 90
        0
 40
-0.6
 41
-30.0
 62
     5
 63
     8
 74
     1
 91
        4
 64
     7
 65
   257
 75
     1
175
     1
 42
1.0
 92
        8
 66
     8
 43
1.0
 76
     1
 77
     6
 78
     2
 67
     7
 79
     5
170
     0
171
     0
290
     0
174
     0
 93
        1
 44
0.0
173
     0
291
     1
 45
0.0
1001
ACAD
1000
AcDbSavedByObjectVersion
1070
     0
  0
VISUALSTYLE
  5
CAEC
102
{ACAD_XDICTIONARY
360
CB4D
102
}
102
{ACAD_REACTORS
330
CAE3
102
}
330
CAE3
100
AcDbVisualStyle
  2
Conceptual
 70
     9
 71
     3
 72
     2
 73
     0
 90
        0
 40
-0.6
 41
-30.0
 62
     5
 63
     7
 74
     2
 91
        2
 64
     7
 65
   257
 75
     1
175
     1
 42
179.0
 92
        8
 66
     7
 43
1.0
 76
     1
 77
     6
 78
     2
 67
     7
 79
     3
170
     0
171
     0
290
     0
174
     0
 93
        1
 44
0.0
173
     0
291
     0
 45
0.0
1001
ACAD
1000
AcDbSavedByObjectVersion
1070
     0
  0
VISUALSTYLE
  5
CAEE
102
{ACAD_XDICTIONARY
360
CB51
102
}
102
{ACAD_REACTORS
330
CAE3
102
}
330
CAE3
100
AcDbVisualStyle
  2
Dim
 70
    11
 71
     2
 72
     2
 73
     0
 90
        0
 40
-0.6
 41
-30.0
 62
     5
 63
     7
 74
     1
 91
        4
 64
     7
 65
   257
 75
     1
175
     1
 42
1.0
 92
        8
 66
     7
 43
1.0
 76
     1
 77
     6
 78
     2
 67
     7
 79
     5
170
     0
171
     0
290
     0
174
     0
 93
        1
 44
-50.0
173
     0
291
     1
 45
0.0
1001
ACAD
1000
AcDbSavedByObjectVersion
1070
     0
  0
VISUALSTYLE
  5
CAFB
102
{ACAD_XDICTIONARY
360
CB6B
102
}
102
{ACAD_REACTORS
330
CAE3
102
}
330
CAE3
100
AcDbVisualStyle
  2
EdgeColorOff
 70
    22
 71
     2
 72
     2
 73
     0
 90
        0
 40
-0.6
 41
-30.0
 62
     5
 63
     7
 74
     1
 91
        4
 64
     7
 65
   257
 75
     1
175
     1
 42
1.0
 92
        8
 66
     7
 43
1.0
 76
     1
 77
     6
 78
     2
 67
     7
 79
     5
170
     0
171
     0
290
     0
174
     0
 93
        1
 44
0.0
173
     0
291
     1
 45
0.0
1001
ACAD
1000
AcDbSavedByObjectVersion
1070
     0
  0
VISUALSTYLE
  5
CAF2
102
{ACAD_XDICTIONARY
360
CB59
102
}
102
{ACAD_REACTORS
330
CAE3
102
}
330
CAE3
100
AcDbVisualStyle
  2
Facepattern
 70
    15
 71
     2
 72
     2
 73
     0
 90
        0
 40
-0.6
 41
-30.0
 62
     5
 63
     7
 74
     1
 91
        4
 64
     7
 65
   257
 75
     1
175
     1
 42
1.0
 92
        8
 66
     7
 43
1.0
 76
     1
 77
     6
 78
     2
 67
     7
 79
     5
170
     0
171
     0
290
     0
174
     0
 93
        1
 44
0.0
173
     0
291
     1
 45
0.0
1001
ACAD
1000
AcDbSavedByObjectVersion
1070
     0
  0
VISUALSTYLE
  5
CAE4
102
{ACAD_XDICTIONARY
360
CB3D
102
}
102
{ACAD_REACTORS
330
CAE3
102
}
330
CAE3
100
AcDbVisualStyle
  2
Flat
 70
     0
 71
     2
 72
     1
 73
     1
 90
        2
 40
-0.6
 41
30.0
 62
     5
 63
     7
 74
     0
 91
        0
 64
     7
 65
   257
 75
     1
175
     1
 42
1.0
 92
        8
 66
     7
 43
1.0
 76
     1
 77
     6
 78
     2
 67
     7
 79
     5
170
     0
171
     0
290
     0
174
     0
 93
       13
 44
0.0
173
     0
291
     1
 45
0.0
1001
ACAD
1000
AcDbSavedByObjectVersion
1070
     0
  0
VISUALSTYLE
  5
CAE5
102
{ACAD_XDICTIONARY
360
CB3F
102
}
102
{ACAD_REACTORS
330
CAE3
102
}
330
CAE3
100
AcDbVisualStyle
  2
FlatWithEdges
 70
     1
 71
     2
 72
     1
 73
     1
 90
        2
 40
-0.6
 41
30.0
 62
     5
 63
     7
 74
     1
 91
        0
 64
     7
 65
   257
 75
     1
175
     1
 42
1.0
 92
        0
 66
   257
 43
1.0
 76
     1
 77
     6
 78
     2
 67
     7
 79
     5
170
     0
171
     0
290
     0
174
     0
 93
       13
 44
0.0
173
     0
291
     1
 45
0.0
1001
ACAD
1000
AcDbSavedByObjectVersion
1070
     0
  0
VISUALSTYLE
  5
CAE6
102
{ACAD_XDICTIONARY
360
CB41
102
}
102
{ACAD_REACTORS
330
CAE3
102
}
330
CAE3
100
AcDbVisualStyle
  2
Gouraud
 70
     2
 71
     2
 72
     2
 73
     1
 90
        2
 40
-0.6
 41
30.0
 62
     5
 63
     7
 74
     0
 91
        0
 64
     7
 65
   257
 75
     1
175
     1
 42
1.0
 92
        0
 66
     7
 43
1.0
 76
     1
 77
     6
 78
     2
 67
     7
 79
     5
170
     0
171
     0
290
     0
174
     0
 93
       13
 44
0.0
173
     0
291
     1
 45
0.0
1001
ACAD
1000
AcDbSavedByObjectVersion
1070
     0
  0
VISUALSTYLE
  5
CAE7
102
{ACAD_XDICTIONARY
360
CB43
102
}
102
{ACAD_REACTORS
330
CAE3
102
}
330
CAE3
100
AcDbVisualStyle
  2
GouraudWithEdges
 70
     3
 71
     2
 72
     2
 73
     1
 90
        2
 40
-0.6
 41
30.0
 62
     5
 63
     7
 74
     1
 91
        0
 64
     7
 65
   257
 75
     1
175
     1
 42
1.0
 92
        0
 66
   257
 43
1.0
 76
     1
 77
     6
 78
     2
 67
     7
 79
     5
170
     0
171
     0
290
     0
174
     0
 93
       13
 44
0.0
173
     0
291
     1
 45
0.0
1001
ACAD
1000
AcDbSavedByObjectVersion
1070
     0
  0
VISUALSTYLE
  5
CAEB
102
{ACAD_XDICTIONARY
360
CB4B
102
}
102
{ACAD_REACTORS
330
CAE3
102
}
330
CAE3
100
AcDbVisualStyle
  2
Hidden
 70
     6
 71
     1
 72
     2
 73
     2
 90
        0
 40
-0.6
 41
-30.0
 62
     5
 63
     7
 74
     2
 91
        2
 64
     7
 65
   257
 75
     2
175
     1
 42
40.0
 92
        0
 66
   257
 43
1.0
 76
     1
 77
     6
 78
     2
 67
     7
 79
     3
170
     0
171
     0
290
     0
174
     0
 93
        1
 44
0.0
173
     0
291
     0
 45
0.0
1001
ACAD
1000
AcDbSavedByObjectVersion
1070
     0
  0
VISUALSTYLE
  5
CAF9
102
{ACAD_XDICTIONARY
360
CB67
102
}
102
{ACAD_REACTORS
330
CAE3
102
}
330
CAE3
100
AcDbVisualStyle
  2
JitterOff
 70
    20
 71
     2
 72
     2
 73
     0
 90
        0
 40
-0.6
 41
-30.0
 62
     5
 63
     7
 74
     1
 91
        4
 64
     7
 65
   257
 75
     1
175
     1
 42
1.0
 92
       10
 66
     7
 43
1.0
 76
     1
 77
     6
 78
     2
 67
     7
 79
     5
170
     0
171
     0
290
     0
174
     0
 93
        1
 44
0.0
173
     0
291
     1
 45
0.0
1001
ACAD
1000
AcDbSavedByObjectVersion
1070
     0
  0
VISUALSTYLE
  5
CAF1
102
{ACAD_XDICTIONARY
360
CB57
102
}
102
{ACAD_REACTORS
330
CAE3
102
}
330
CAE3
100
AcDbVisualStyle
  2
Linepattern
 70
    14
 71
     2
 72
     2
 73
     0
 90
        0
 40
-0.6
 41
-30.0
 62
     5
 63
     7
 74
     1
 91
        4
 64
     7
 65
   257
 75
     7
175
     7
 42
1.0
 92
        8
 66
     7
 43
1.0
 76
     1
 77
     6
 78
     2
 67
     7
 79
     5
170
     0
171
     0
290
     0
174
     0
 93
        1
 44
0.0
173
     0
291
     1
 45
0.0
1001
ACAD
1000
AcDbSavedByObjectVersion
1070
     0
  0
VISUALSTYLE
  5
CAFA
102
{ACAD_XDICTIONARY
360
CB69
102
}
102
{ACAD_REACTORS
330
CAE3
102
}
330
CAE3
100
AcDbVisualStyle
  2
OverhangOff
 70
    21
 71
     2
 72
     2
 73
     0
 90
        0
 40
-0.6
 41
-30.0
 62
     5
 63
     7
 74
     1
 91
        4
 64
     7
 65
   257
 75
     1
175
     1
 42
1.0
 92
        9
 66
     7
 43
1.0
 76
     1
 77
     6
 78
     2
 67
     7
 79
     5
170
     0
171
     0
290
     0
174
     0
 93
        1
 44
0.0
173
     0
291
     1
 45
0.0
1001
ACAD
1000
AcDbSavedByObjectVersion
1070
     0
  0
VISUALSTYLE
  5
CAED
102
{ACAD_XDICTIONARY
360
CB4F
102
}
102
{ACAD_REACTORS
330
CAE3
102
}
330
CAE3
100
AcDbVisualStyle
  2
Realistic
 70
     8
 71
     2
 72
     3
 73
     0
 90
        2
 40
-0.6
 41
30.0
 62
     5
 63
     7
 74
     0
 91
        0
 64
     7
 65
   257
 75
     1
175
     1
 42
1.0
 92
        8
 66
   257
 43
1.0
 76
     1
 77
     6
 78
     2
 67
     7
 79
     3
170
     0
171
     0
290
     0
174
     0
 93
       13
 44
0.0
173
     0
291
     0
 45
0.0
1001
ACAD
1000
AcDbSavedByObjectVersion
1070
     0
  0
VISUALSTYLE
  5
CAF8
102
{ACAD_XDICTIONARY
360
CB65
102
}
102
{ACAD_REACTORS
330
CAE3
102
}
330
CAE3
100
AcDbVisualStyle
  2
Shaded
 70
    27
 71
     2
 72
     2
 73
     1
 90
        2
 40
-0.6
 41
30.0
 62
     5
 63
     7
 74
     0
 91
        4
 64
     7
 65
   257
 75
     1
175
     1
 42
1.0
 92
        8
 66
   257
 43
1.0
 76
     1
 77
     6
 78
     2
 67
     8
 79
     3
170
     0
171
     0
290
     0
174
     0
 93
        5
 44
0.0
173
     0
291
     0
 45
0.0
1001
ACAD
1000
AcDbSavedByObjectVersion
1070
     0
  0
VISUALSTYLE
  5
CAF7
102
{ACAD_XDICTIONARY
360
CB63
102
}
102
{ACAD_REACTORS
330
CAE3
102
}
330
CAE3
100
AcDbVisualStyle
  2
Shaded with edges
 70
    26
 71
     2
 72
     2
 73
     1
 90
        2
 40
-0.6
 41
30.0
 62
     5
 63
     7
 74
     1
 91
       10
 64
     7
 65
   257
 75
     2
175
     1
 42
1.0
 92
        8
 66
   257
 43
1.0
 76
     1
 77
     6
 78
     2
 67
     7
 79
     3
170
     0
171
     0
290
     0
174
     0
 93
        5
 44
0.0
173
     0
291
     0
 45
0.0
1001
ACAD
1000
AcDbSavedByObjectVersion
1070
     0
  0
VISUALSTYLE
  5
CAF4
102
{ACAD_XDICTIONARY
360
CB5D
102
}
102
{ACAD_REACTORS
330
CAE3
102
}
330
CAE3
100
AcDbVisualStyle
  2
Shades of Gray
 70
    23
 71
     2
 72
     2
 73
     3
 90
        0
 40
-0.6
 41
-30.0
 62
     5
 63
     7
 74
     2
 91
        2
 64
     7
 65
     7
 75
     1
175
     1
 42
40.0
 92
        8
 66
     7
 43
1.0
 76
     1
 77
     6
 78
     2
 67
     7
 79
     3
170
     0
171
     0
290
     0
174
     0
 93
        1
 44
0.0
173
     0
291
     0
 45
0.0
1001
ACAD
1000
AcDbSavedByObjectVersion
1070
     0
  0
VISUALSTYLE
  5
CAF5
102
{ACAD_XDICTIONARY
360
CB5F
102
}
102
{ACAD_REACTORS
330
CAE3
102
}
330
CAE3
100
AcDbVisualStyle
  2
Sketchy
 70
    24
 71
     1
 72
     2
 73
     2
 90
        0
 40
-0.6
 41
-30.0
 62
     5
 63
     7
 74
     2
 91
        2
 64
     7
 65
     7
 75
     1
175
     1
 42
40.0
 92
       11
 66
     7
 43
1.0
 76
     1
 77
     6
 78
     2
 67
     7
 79
     6
170
     0
171
     0
290
     0
174
     0
 93
        1
 44
0.0
173
     0
291
     0
 45
0.0
1001
ACAD
1000
AcDbSavedByObjectVersion
1070
     0
  0
VISUALSTYLE
  5
CAF0
102
{ACAD_XDICTIONARY
360
CB55
102
}
102
{ACAD_REACTORS
330
CAE3
102
}
330
CAE3
100
AcDbVisualStyle
  2
Thicken
 70
    13
 71
     2
 72
     2
 73
     0
 90
        0
 40
-0.6
 41
-30.0
 62
     5
 63
     7
 74
     1
 91
        4
 64
     7
 65
   257
 75
     1
175
     1
 42
1.0
 92
       12
 66
     7
 43
1.0
 76
     1
 77
     6
 78
     2
 67
     7
 79
     5
170
     0
171
     0
290
     0
174
     0
 93
        1
 44
0.0
173
     0
291
     1
 45
0.0
1001
ACAD
1000
AcDbSavedByObjectVersion
1070
     0
  0
VISUALSTYLE
  5
CAEA
102
{ACAD_XDICTIONARY
360
CB49
102
}
102
{ACAD_REACTORS
330
CAE3
102
}
330
CAE3
100
AcDbVisualStyle
  2
Wireframe
 70
     5
 71
     0
 72
     2
 73
     0
 90
        0
 40
-0.6
 41
-30.0
 62
     5
 63
     7
 74
     1
 91
        4
 64
     7
 65
   257
 75
     1
175
     1
 42
1.0
 92
        0
 66
   257
 43
1.0
 76
     1
 77
     6
 78
     2
 67
     7
 79
     3
170
     0
171
     0
290
     0
174
     0
 93
        1
 44
0.0
173
     0
291
     0
 45
0.0
1001
ACAD
1000
AcDbSavedByObjectVersion
1070
     0
  0
VISUALSTYLE
  5
CAF6
102
{ACAD_XDICTIONARY
360
CB61
102
}
102
{ACAD_REACTORS
330
CAE3
102
}
330
CAE3
100
AcDbVisualStyle
  2
X-Ray
 70
    25
 71
     2
 72
     2
 73
     1
 90
        1
 40
0.5
 41
-30.0
 62
     5
 63
     7
 74
     1
 91
        0
 64
     7
 65
   257
 75
     1
175
     1
 42
1.0
 92
        8
 66
     7
 43
1.0
 76
     1
 77
     6
 78
     2
 67
     7
 79
     3
170
     0
171
     0
290
     0
174
     0
 93
       13
 44
0.0
173
     0
291
     0
 45
0.0
1001
ACAD
1000
AcDbSavedByObjectVersion
1070
     0
  0
DICTIONARYVAR
  5
CB30
102
{ACAD_REACTORS
330
CB2B
102
}
330
CB2B
100
DictionaryVariables
280
     0
  1
1:1
  0
DICTIONARYVAR
  5
CB2D
102
{ACAD_REACTORS
330
CB2B
102
}
330
CB2B
100
DictionaryVariables
280
     0
  1
STANDARD
  0
DICTIONARYVAR
  5
CB2C
102
{ACAD_REACTORS
330
CB2B
102
}
330
CB2B
100
DictionaryVariables
280
     0
  1
STANDARD
  0
DICTIONARYVAR
  5
CB2E
102
{ACAD_REACTORS
330
CB2B
102
}
330
CB2B
100
DictionaryVariables
280
     0
  1
Imperial24
  0
DICTIONARYVAR
  5
CB2F
102
{ACAD_REACTORS
330
CB2B
102
}
330
CB2B
100
DictionaryVariables
280
     0
  1
Imperial24
  0
DICTIONARYVAR
  5
CB33
102
{ACAD_REACTORS
330
CB2B
102
}
330
CB2B
100
DictionaryVariables
280
     0
  1
1
  0
DICTIONARYVAR
  5
CB32
102
{ACAD_REACTORS
330
CB2B
102
}
330
CB2B
100
DictionaryVariables
280
     0
  1
0
  0
DICTIONARYVAR
  5
CB31
102
{ACAD_REACTORS
330
CB2B
102
}
330
CB2B
100
DictionaryVariables
280
     0
  1
127
  0
DICTIONARYVAR
  5
CB34
102
{ACAD_REACTORS
330
CB2B
102
}
330
CB2B
100
DictionaryVariables
280
     0
  1
2
  0
DICTIONARY
  5
CB71
330
CB16
100
AcDbDictionary
280
     1
281
     1
  3
ACAD_XREC_ROUNDTRIP
360
CB72
  0
DICTIONARY
  5
CB73
330
CB17
100
AcDbDictionary
280
     1
281
     1
  3
ACAD_XREC_ROUNDTRIP
360
CB74
  0
DICTIONARY
  5
CB75
330
CB18
100
AcDbDictionary
280
     1
281
     1
  3
ACAD_XREC_ROUNDTRIP
360
CB76
  0
DICTIONARY
  5
CAD4
330
CAD3
100
AcDbDictionary
280
     1
281
     1
  3
ACAD_XREC_ROUNDTRIP
360
CB3B
  3
BUMPTILE
360
CAD6
  3
DIFFUSETILE
360
CAD5
  3
OPACITYTILE
360
CAD9
  3
REFLECTIONTILE
360
CAD8
  3
REFRACTIONTILE
360
CADA
  3
SPECULARTILE
360
CAD7
  0
DICTIONARY
  5
CACC
330
CACB
100
AcDbDictionary
280
     1
281
     1
  3
ACAD_XREC_ROUNDTRIP
360
CB3A
  3
BUMPTILE
360
CACE
  3
DIFFUSETILE
360
CACD
  3
OPACITYTILE
360
CAD1
  3
REFLECTIONTILE
360
CAD0
  3
REFRACTIONTILE
360
CAD2
  3
SPECULARTILE
360
CACF
  0
DICTIONARY
  5
CADC
330
CADB
100
AcDbDictionary
280
     1
281
     1
  3
ACAD_XREC_ROUNDTRIP
360
CB3C
  3
BUMPTILE
360
CADE
  3
DIFFUSETILE
360
CADD
  3
OPACITYTILE
360
CAE1
  3
REFLECTIONTILE
360
CAE0
  3
REFRACTIONTILE
360
CAE2
  3
SPECULARTILE
360
CADF
  0
DICTIONARY
  5
CB6F
330
CB14
100
AcDbDictionary
280
     1
281
     1
  3
ACAD_XREC_ROUNDTRIP
360
CB70
  0
DICTIONARY
  5
CB36
330
CAFE
100
AcDbDictionary
280
     1
281
     1
  3
ACAD_ROUNDTRIP_2008_TABLESTYLE_CELLSTYLEMAP
360
CB37
  3
ACAD_XREC_ROUNDTRIP
360
CB6D
  0
DICTIONARY
  5
CB47
330
CAE9
100
AcDbDictionary
280
     1
281
     1
  3
ACAD_XREC_ROUNDTRIP
360
CB48
  0
DICTIONARY
  5
CB45
330
CAE8
100
AcDbDictionary
280
     1
281
     1
  3
ACAD_XREC_ROUNDTRIP
360
CB46
  0
DICTIONARY
  5
CB53
330
CAEF
100
AcDbDictionary
280
     1
281
     1
  3
ACAD_XREC_ROUNDTRIP
360
CB54
  0
DICTIONARY
  5
CB5B
330
CAF3
100
AcDbDictionary
280
     1
281
     1
  3
ACAD_XREC_ROUNDTRIP
360
CB5C
  0
DICTIONARY
  5
CB4D
330
CAEC
100
AcDbDictionary
280
     1
281
     1
  3
ACAD_XREC_ROUNDTRIP
360
CB4E
  0
DICTIONARY
  5
CB51
330
CAEE
100
AcDbDictionary
280
     1
281
     1
  3
ACAD_XREC_ROUNDTRIP
360
CB52
  0
DICTIONARY
  5
CB6B
330
CAFB
100
AcDbDictionary
280
     1
281
     1
  3
ACAD_XREC_ROUNDTRIP
360
CB6C
  0
DICTIONARY
  5
CB59
330
CAF2
100
AcDbDictionary
280
     1
281
     1
  3
ACAD_XREC_ROUNDTRIP
360
CB5A
  0
DICTIONARY
  5
CB3D
330
CAE4
100
AcDbDictionary
280
     1
281
     1
  3
ACAD_XREC_ROUNDTRIP
360
CB3E
  0
DICTIONARY
  5
CB3F
330
CAE5
100
AcDbDictionary
280
     1
281
     1
  3
ACAD_XREC_ROUNDTRIP
360
CB40
  0
DICTIONARY
  5
CB41
330
CAE6
100
AcDbDictionary
280
     1
281
     1
  3
ACAD_XREC_ROUNDTRIP
360
CB42
  0
DICTIONARY
  5
CB43
330
CAE7
100
AcDbDictionary
280
     1
281
     1
  3
ACAD_XREC_ROUNDTRIP
360
CB44
  0
DICTIONARY
  5
CB4B
330
CAEB
100
AcDbDictionary
280
     1
281
     1
  3
ACAD_XREC_ROUNDTRIP
360
CB4C
  0
DICTIONARY
  5
CB67
330
CAF9
100
AcDbDictionary
280
     1
281
     1
  3
ACAD_XREC_ROUNDTRIP
360
CB68
  0
DICTIONARY
  5
CB57
330
CAF1
100
AcDbDictionary
280
     1
281
     1
  3
ACAD_XREC_ROUNDTRIP
360
CB58
  0
DICTIONARY
  5
CB69
330
CAFA
100
AcDbDictionary
280
     1
281
     1
  3
ACAD_XREC_ROUNDTRIP
360
CB6A
  0
DICTIONARY
  5
CB4F
330
CAED
100
AcDbDictionary
280
     1
281
     1
  3
ACAD_XREC_ROUNDTRIP
360
CB50
  0
DICTIONARY
  5
CB65
330
CAF8
100
AcDbDictionary
280
     1
281
     1
  3
ACAD_XREC_ROUNDTRIP
360
CB66
  0
DICTIONARY
  5
CB63
330
CAF7
100
AcDbDictionary
280
     1
281
     1
  3
ACAD_XREC_ROUNDTRIP
360
CB64
  0
DICTIONARY
  5
CB5D
330
CAF4
100
AcDbDictionary
280
     1
281
     1
  3
ACAD_XREC_ROUNDTRIP
360
CB5E
  0
DICTIONARY
  5
CB5F
330
CAF5
100
AcDbDictionary
280
     1
281
     1
  3
ACAD_XREC_ROUNDTRIP
360
CB60
  0
DICTIONARY
  5
CB55
330
CAF0
100
AcDbDictionary
280
     1
281
     1
  3
ACAD_XREC_ROUNDTRIP
360
CB56
  0
DICTIONARY
  5
CB49
330
CAEA
100
AcDbDictionary
280
     1
281
     1
  3
ACAD_XREC_ROUNDTRIP
360
CB4A
  0
DICTIONARY
  5
CB61
330
CAF6
100
AcDbDictionary
280
     1
281
     1
  3
ACAD_XREC_ROUNDTRIP
360
CB62
  0
XRECORD
  5
CB72
102
{ACAD_REACTORS
330
CB71
102
}
330
CB71
100
AcDbXrecord
280
     1
102
DISPLAYNAME
  1
Imperial24
102
FLAGS
 90
        0
  0
XRECORD
  5
CB74
102
{ACAD_REACTORS
330
CB73
102
}
330
CB73
100
AcDbXrecord
280
     1
102
SHADEPLOT
 70
     0
102
SHADEPLOTRESLEVEL
 70
     2
102
SHADEPLOTCUSTOMDPI
 70
   300
  0
XRECORD
  5
CB76
102
{ACAD_REACTORS
330
CB75
102
}
330
CB75
100
AcDbXrecord
280
     1
102
SHADEPLOT
 70
     0
102
SHADEPLOTRESLEVEL
 70
     2
102
SHADEPLOTCUSTOMDPI
 70
   300
  0
XRECORD
  5
CB3B
102
{ACAD_REACTORS
330
CAD4
102
}
330
CAD4
100
AcDbXrecord
280
     1
102
MATERIAL
148
0.0
149
0.0
149
0.0
 93
        0
 94
      127
282
     0
 72
     0
 77
     0
171
     0
175
     0
179
     0
273
     0
  0
XRECORD
  5
CAD6
102
{ACAD_REACTORS
330
CAD4
102
}
330
CAD4
100
AcDbXrecord
280
     1
270
     1
271
     1
  0
XRECORD
  5
CAD5
102
{ACAD_REACTORS
330
CAD4
102
}
330
CAD4
100
AcDbXrecord
280
     1
270
     1
271
     1
  0
XRECORD
  5
CAD9
102
{ACAD_REACTORS
330
CAD4
102
}
330
CAD4
100
AcDbXrecord
280
     1
270
     1
271
     1
  0
XRECORD
  5
CAD8
102
{ACAD_REACTORS
330
CAD4
102
}
330
CAD4
100
AcDbXrecord
280
     1
270
     1
271
     1
  0
XRECORD
  5
CADA
102
{ACAD_REACTORS
330
CAD4
102
}
330
CAD4
100
AcDbXrecord
280
     1
270
     1
271
     1
  0
XRECORD
  5
CAD7
102
{ACAD_REACTORS
330
CAD4
102
}
330
CAD4
100
AcDbXrecord
280
     1
270
     1
271
     1
  0
XRECORD
  5
CB3A
102
{ACAD_REACTORS
330
CACC
102
}
330
CACC
100
AcDbXrecord
280
     1
102
MATERIAL
148
0.0
149
0.0
149
0.0
 93
        0
 94
      127
282
     0
 72
     0
 77
     0
171
     0
175
     0
179
     0
273
     0
  0
XRECORD
  5
CACE
102
{ACAD_REACTORS
330
CACC
102
}
330
CACC
100
AcDbXrecord
280
     1
270
     1
271
     1
  0
XRECORD
  5
CACD
102
{ACAD_REACTORS
330
CACC
102
}
330
CACC
100
AcDbXrecord
280
     1
270
     1
271
     1
  0
XRECORD
  5
CAD1
102
{ACAD_REACTORS
330
CACC
102
}
330
CACC
100
AcDbXrecord
280
     1
270
     1
271
     1
  0
XRECORD
  5
CAD0
102
{ACAD_REACTORS
330
CACC
102
}
330
CACC
100
AcDbXrecord
280
     1
270
     1
271
     1
  0
XRECORD
  5
CAD2
102
{ACAD_REACTORS
330
CACC
102
}
330
CACC
100
AcDbXrecord
280
     1
270
     1
271
     1
  0
XRECORD
  5
CACF
102
{ACAD_REACTORS
330
CACC
102
}
330
CACC
100
AcDbXrecord
280
     1
270
     1
271
     1
  0
XRECORD
  5
CB3C
102
{ACAD_REACTORS
330
CADC
102
}
330
CADC
100
AcDbXrecord
280
     1
102
MATERIAL
148
0.0
149
0.0
149
0.0
 93
        0
 94
      127
282
     0
 72
     0
 77
     0
171
     0
175
     0
179
     0
273
     0
  0
XRECORD
  5
CADE
102
{ACAD_REACTORS
330
CADC
102
}
330
CADC
100
AcDbXrecord
280
     1
270
     1
271
     1
  0
XRECORD
  5
CADD
102
{ACAD_REACTORS
330
CADC
102
}
330
CADC
100
AcDbXrecord
280
     1
270
     1
271
     1
  0
XRECORD
  5
CAE1
102
{ACAD_REACTORS
330
CADC
102
}
330
CADC
100
AcDbXrecord
280
     1
270
     1
271
     1
  0
XRECORD
  5
CAE0
102
{ACAD_REACTORS
330
CADC
102
}
330
CADC
100
AcDbXrecord
280
     1
270
     1
271
     1
  0
XRECORD
  5
CAE2
102
{ACAD_REACTORS
330
CADC
102
}
330
CADC
100
AcDbXrecord
280
     1
270
     1
271
     1
  0
XRECORD
  5
CADF
102
{ACAD_REACTORS
330
CADC
102
}
330
CADC
100
AcDbXrecord
280
     1
270
     1
271
     1
  0
XRECORD
  5
CB70
102
{ACAD_REACTORS
330
CB6F
102
}
330
CB6F
100
AcDbXrecord
280
     1
102
DISPLAYNAME
  1
Imperial24
102
FLAGS
 90
        0
  0
CELLSTYLEMAP
  5
CB37
102
{ACAD_REACTORS
330
CB36
102
}
330
CB36
100
AcDbCellStyleMap
 90
        3
300
CELLSTYLE
  1
TABLEFORMAT_BEGIN
 90
        5
170
     1
 91
        0
 92
    32768
 62
   257
 93
        1
300
CONTENTFORMAT
  1
CONTENTFORMAT_BEGIN
 90
        0
 91
        0
 92
      512
 93
        0
300

 40
0.0
140
1.0
 94
        5
 62
     0
340
C6F1
144
0.25
309
CONTENTFORMAT_END
171
     0
 94
        0
309
TABLEFORMAT_END
  1
CELLSTYLE_BEGIN
 90
        1
 91
        1
300
_TITLE
309
CELLSTYLE_END
300
CELLSTYLE
  1
TABLEFORMAT_BEGIN
 90
        5
170
     1
 91
        0
 92
        0
 62
   257
 93
        1
300
CONTENTFORMAT
  1
CONTENTFORMAT_BEGIN
 90
        0
 91
        0
 92
      512
 93
        0
300

 40
0.0
140
1.0
 94
        5
 62
     0
340
C6F1
144
0.18
309
CONTENTFORMAT_END
171
     0
 94
        0
309
TABLEFORMAT_END
  1
CELLSTYLE_BEGIN
 90
        2
 91
        1
300
_HEADER
309
CELLSTYLE_END
300
CELLSTYLE
  1
TABLEFORMAT_BEGIN
 90
        5
170
     1
 91
        0
 92
        0
 62
   257
 93
        1
300
CONTENTFORMAT
  1
CONTENTFORMAT_BEGIN
 90
        0
 91
        0
 92
      512
 93
        0
300

 40
0.0
140
1.0
 94
        2
 62
     0
340
C6F1
144
0.18
309
CONTENTFORMAT_END
171
     0
 94
        0
309
TABLEFORMAT_END
  1
CELLSTYLE_BEGIN
 90
        3
 91
        2
300
_DATA
309
CELLSTYLE_END
  0
XRECORD
  5
CB6D
102
{ACAD_REACTORS
330
CB36
102
}
330
CB36
100
AcDbXrecord
280
     1
102
ACAD_ROUNDTRIP_PRE2007_TABLESTYLE
 90
      512
 91
        0
  1

 92
      512
 93
        0
  2

 94
      512
 95
        0
  3

  0
XRECORD
  5
CB48
102
{ACAD_REACTORS
330
CB47
102
}
330
CB47
100
AcDbXrecord
280
     1
102
RTVSPost2010Prop28
280
     1
102
RTVSPost2010PropOp28
 70
     1
102
RTVSPost2010Prop29
280
     1
102
RTVSPost2010PropOp29
 70
     1
102
RTVSPost2010Prop30
280
     0
102
RTVSPost2010PropOp30
 70
     1
102
RTVSPost2010Prop31
280
     0
102
RTVSPost2010PropOp31
 70
     1
102
RTVSPost2010Prop32
280
     0
102
RTVSPost2010PropOp32
 70
     1
102
RTVSPost2010Prop33
280
     0
102
RTVSPost2010PropOp33
 70
     1
102
RTVSPost2010Prop34
280
     0
102
RTVSPost2010PropOp34
 70
     1
102
RTVSPost2010Prop35
280
     0
102
RTVSPost2010PropOp35
 70
     1
102
RTVSPost2010Prop36
280
     0
102
RTVSPost2010PropOp36
 70
     1
102
RTVSPost2010Prop37
 90
       50
102
RTVSPost2010PropOp37
 70
     1
102
RTVSPost2010Prop38
140
0.0
102
RTVSPost2010PropOp38
 70
     1
102
RTVSPost2010Prop39
140
1.0
102
RTVSPost2010PropOp39
 70
     1
102
RTVSPost2010Prop40
 90
        0
102
RTVSPost2010PropOp40
 70
     1
102
RTVSPost2010Prop41ColorIndex
 90
       18
102
RTVSPost2010Prop41ColorRGB
 90
        0
102
RTVSPost2010PropOp41
 70
     1
102
RTVSPost2010Prop42
 90
       50
102
RTVSPost2010PropOp42
 70
     1
102
RTVSPost2010Prop43
 90
        3
102
RTVSPost2010PropOp43
 70
     1
102
RTVSPost2010Prop44ColorIndex
 90
        5
102
RTVSPost2010Prop44ColorRGB
 90
      255
102
RTVSPost2010PropOp44
 70
     1
102
RTVSPost2010Prop45
280
     0
102
RTVSPost2010PropOp45
 70
     1
102
RTVSPost2010Prop46
 90
       50
102
RTVSPost2010PropOp46
 70
     1
102
RTVSPost2010Prop47
 90
       50
102
RTVSPost2010PropOp47
 70
     1
102
RTVSPost2010Prop48
 90
       50
102
RTVSPost2010PropOp48
 70
     1
102
RTVSPost2010Prop49
280
     0
102
RTVSPost2010PropOp49
 70
     1
102
RTVSPost2010Prop50
 90
       50
102
RTVSPost2010PropOp50
 70
     1
102
RTVSPost2010Prop51ColorIndex
 90
      256
102
RTVSPost2010Prop51ColorRGB
 90
-16777216
102
RTVSPost2010PropOp51
 70
     0
102
RTVSPost2010Prop52
140
1.0
102
RTVSPost2010PropOp52
 70
     0
102
RTVSPost2010Prop53
 90
        2
102
RTVSPost2010PropOp53
 70
     1
102
RTVSPost2010Prop54
  1
strokes_ogs.tif
102
RTVSPost2010PropOp54
 70
     1
102
RTVSPost2010Prop55
280
     0
102
RTVSPost2010PropOp55
 70
     1
102
RTVSPost2010Prop56
140
1.0
102
RTVSPost2010PropOp56
 70
     1
102
RTVSPost2010Prop57
140
1.0
102
RTVSPost2010PropOp57
 70
     1
102
RTVSPropertyOp0
 70
     1
102
RTVSPropertyOp1
 70
     1
102
RTVSPropertyOp2
 70
     1
102
RTVSPropertyOp3
 70
     1
102
RTVSPropertyOp4
 70
     1
102
RTVSPropertyOp5
 70
     1
102
RTVSPropertyOp6
 70
     1
102
RTVSPropertyOp7
 70
     1
102
RTVSPropertyOp8
 70
     1
102
RTVSPropertyOp9
 70
     1
102
RTVSPropertyOp10
 70
     1
102
RTVSPropertyOp11
 70
     1
102
RTVSPropertyOp12
 70
     1
102
RTVSPropertyOp13
 70
     1
102
RTVSPropertyOp14
 70
     1
102
RTVSPropertyOp15
 70
     1
102
RTVSPropertyOp16
 70
     1
102
RTVSPropertyOp17
 70
     1
102
RTVSPropertyOp18
 70
     1
102
RTVSPropertyOp19
 70
     1
102
RTVSPropertyOp20
 70
     1
102
RTVSPropertyOp21
 70
     1
102
RTVSPropertyOp22
 70
     1
102
RTVSPropertyOp23
 70
     1
102
RTVSPropertyOp24
 70
     1
102
RTVSPropertyOp25
 70
     1
102
RTVSPropertyOp26
 70
     1
102
RTVSPropertyOp27
 70
     1
102
RTVSPropertyOp28
 70
     1
102
RTVSPropertyOp29
 70
     1
102
RTVSPropertyOp30
 70
     1
102
RTVSPropertyOp31
 70
     1
102
RTVSPropertyOp32
 70
     1
102
RTVSPropertyOp33
 70
     1
102
RTVSPropertyOp34
 70
     1
102
RTVSPropertyOp35
 70
     1
102
RTVSPropertyOp36
 70
     1
102
RTVSPropertyOp37
 70
     1
102
RTVSPropertyOp38
 70
     1
102
RTVSPropertyOp39
 70
     1
102
RTVSPropertyOp40
 70
     1
102
RTVSPropertyOp41
 70
     1
102
RTVSPropertyOp42
 70
     1
102
RTVSPropertyOp43
 70
     1
102
RTVSPropertyOp44
 70
     1
102
RTVSPropertyOp45
 70
     1
102
RTVSPropertyOp46
 70
     1
102
RTVSPropertyOp47
 70
     1
102
RTVSPropertyOp48
 70
     1
102
RTVSPropertyOp49
 70
     1
102
RTVSPropertyOp50
 70
     1
102
RTVSPropertyOp51
 70
     0
102
RTVSPropertyOp52
 70
     0
102
RTVSPropertyOp53
 70
     1
102
RTVSPropertyOp54
 70
     1
102
RTVSPropertyOp55
 70
     1
102
RTVSPropertyOp56
 70
     1
102
RTVSPropertyOp57
 70
     1
102
RTVSPropertyOp58
 70
     1
102
RTVSPropertyOp59
 70
     1
102
RTVSPropertyOp60
 70
     1
102
RTVSPropertyOp61
 70
     1
102
RTVSPropertyOp62
 70
     1
  0
XRECORD
  5
CB46
102
{ACAD_REACTORS
330
CB45
102
}
330
CB45
100
AcDbXrecord
280
     1
102
RTVSPost2010Prop28
280
     0
102
RTVSPost2010PropOp28
 70
     1
102
RTVSPost2010Prop29
280
     1
102
RTVSPost2010PropOp29
 70
     1
102
RTVSPost2010Prop30
280
     1
102
RTVSPost2010PropOp30
 70
     1
102
RTVSPost2010Prop31
280
     0
102
RTVSPost2010PropOp31
 70
     1
102
RTVSPost2010Prop32
280
     0
102
RTVSPost2010PropOp32
 70
     1
102
RTVSPost2010Prop33
280
     0
102
RTVSPost2010PropOp33
 70
     1
102
RTVSPost2010Prop34
280
     0
102
RTVSPost2010PropOp34
 70
     1
102
RTVSPost2010Prop35
280
     0
102
RTVSPost2010PropOp35
 70
     1
102
RTVSPost2010Prop36
280
     0
102
RTVSPost2010PropOp36
 70
     1
102
RTVSPost2010Prop37
 90
       50
102
RTVSPost2010PropOp37
 70
     1
102
RTVSPost2010Prop38
140
0.0
102
RTVSPost2010PropOp38
 70
     1
102
RTVSPost2010Prop39
140
1.0
102
RTVSPost2010PropOp39
 70
     1
102
RTVSPost2010Prop40
 90
        0
102
RTVSPost2010PropOp40
 70
     1
102
RTVSPost2010Prop41ColorIndex
 90
       18
102
RTVSPost2010Prop41ColorRGB
 90
        0
102
RTVSPost2010PropOp41
 70
     1
102
RTVSPost2010Prop42
 90
       50
102
RTVSPost2010PropOp42
 70
     1
102
RTVSPost2010Prop43
 90
        3
102
RTVSPost2010PropOp43
 70
     1
102
RTVSPost2010Prop44ColorIndex
 90
        5
102
RTVSPost2010Prop44ColorRGB
 90
      255
102
RTVSPost2010PropOp44
 70
     1
102
RTVSPost2010Prop45
280
     0
102
RTVSPost2010PropOp45
 70
     1
102
RTVSPost2010Prop46
 90
       50
102
RTVSPost2010PropOp46
 70
     1
102
RTVSPost2010Prop47
 90
       50
102
RTVSPost2010PropOp47
 70
     1
102
RTVSPost2010Prop48
 90
       50
102
RTVSPost2010PropOp48
 70
     1
102
RTVSPost2010Prop49
280
     0
102
RTVSPost2010PropOp49
 70
     1
102
RTVSPost2010Prop50
 90
       50
102
RTVSPost2010PropOp50
 70
     1
102
RTVSPost2010Prop51ColorIndex
 90
      256
102
RTVSPost2010Prop51ColorRGB
 90
-16777216
102
RTVSPost2010PropOp51
 70
     0
102
RTVSPost2010Prop52
140
1.0
102
RTVSPost2010PropOp52
 70
     0
102
RTVSPost2010Prop53
 90
        2
102
RTVSPost2010PropOp53
 70
     1
102
RTVSPost2010Prop54
  1
strokes_ogs.tif
102
RTVSPost2010PropOp54
 70
     1
102
RTVSPost2010Prop55
280
     0
102
RTVSPost2010PropOp55
 70
     1
102
RTVSPost2010Prop56
140
1.0
102
RTVSPost2010PropOp56
 70
     1
102
RTVSPost2010Prop57
140
1.0
102
RTVSPost2010PropOp57
 70
     1
102
RTVSPropertyOp0
 70
     1
102
RTVSPropertyOp1
 70
     1
102
RTVSPropertyOp2
 70
     1
102
RTVSPropertyOp3
 70
     1
102
RTVSPropertyOp4
 70
     1
102
RTVSPropertyOp5
 70
     1
102
RTVSPropertyOp6
 70
     1
102
RTVSPropertyOp7
 70
     1
102
RTVSPropertyOp8
 70
     1
102
RTVSPropertyOp9
 70
     1
102
RTVSPropertyOp10
 70
     1
102
RTVSPropertyOp11
 70
     1
102
RTVSPropertyOp12
 70
     1
102
RTVSPropertyOp13
 70
     1
102
RTVSPropertyOp14
 70
     1
102
RTVSPropertyOp15
 70
     1
102
RTVSPropertyOp16
 70
     1
102
RTVSPropertyOp17
 70
     1
102
RTVSPropertyOp18
 70
     1
102
RTVSPropertyOp19
 70
     1
102
RTVSPropertyOp20
 70
     1
102
RTVSPropertyOp21
 70
     1
102
RTVSPropertyOp22
 70
     1
102
RTVSPropertyOp23
 70
     1
102
RTVSPropertyOp24
 70
     1
102
RTVSPropertyOp25
 70
     1
102
RTVSPropertyOp26
 70
     1
102
RTVSPropertyOp27
 70
     1
102
RTVSPropertyOp28
 70
     1
102
RTVSPropertyOp29
 70
     1
102
RTVSPropertyOp30
 70
     1
102
RTVSPropertyOp31
 70
     1
102
RTVSPropertyOp32
 70
     1
102
RTVSPropertyOp33
 70
     1
102
RTVSPropertyOp34
 70
     1
102
RTVSPropertyOp35
 70
     1
102
RTVSPropertyOp36
 70
     1
102
RTVSPropertyOp37
 70
     1
102
RTVSPropertyOp38
 70
     1
102
RTVSPropertyOp39
 70
     1
102
RTVSPropertyOp40
 70
     1
102
RTVSPropertyOp41
 70
     1
102
RTVSPropertyOp42
 70
     1
102
RTVSPropertyOp43
 70
     1
102
RTVSPropertyOp44
 70
     1
102
RTVSPropertyOp45
 70
     1
102
RTVSPropertyOp46
 70
     1
102
RTVSPropertyOp47
 70
     1
102
RTVSPropertyOp48
 70
     1
102
RTVSPropertyOp49
 70
     1
102
RTVSPropertyOp50
 70
     1
102
RTVSPropertyOp51
 70
     0
102
RTVSPropertyOp52
 70
     0
102
RTVSPropertyOp53
 70
     1
102
RTVSPropertyOp54
 70
     1
102
RTVSPropertyOp55
 70
     1
102
RTVSPropertyOp56
 70
     1
102
RTVSPropertyOp57
 70
     1
102
RTVSPropertyOp58
 70
     1
102
RTVSPropertyOp59
 70
     1
102
RTVSPropertyOp60
 70
     1
102
RTVSPropertyOp61
 70
     1
102
RTVSPropertyOp62
 70
     1
  0
XRECORD
  5
CB54
102
{ACAD_REACTORS
330
CB53
102
}
330
CB53
100
AcDbXrecord
280
     1
102
RTVSPost2010Prop28
280
     0
102
RTVSPost2010PropOp28
 70
     1
102
RTVSPost2010Prop29
280
     1
102
RTVSPost2010PropOp29
 70
     1
102
RTVSPost2010Prop30
280
     1
102
RTVSPost2010PropOp30
 70
     1
102
RTVSPost2010Prop31
280
     0
102
RTVSPost2010PropOp31
 70
     1
102
RTVSPost2010Prop32
280
     0
102
RTVSPost2010PropOp32
 70
     1
102
RTVSPost2010Prop33
280
     0
102
RTVSPost2010PropOp33
 70
     1
102
RTVSPost2010Prop34
280
     0
102
RTVSPost2010PropOp34
 70
     1
102
RTVSPost2010Prop35
280
     0
102
RTVSPost2010PropOp35
 70
     1
102
RTVSPost2010Prop36
280
     0
102
RTVSPost2010PropOp36
 70
     1
102
RTVSPost2010Prop37
 90
       50
102
RTVSPost2010PropOp37
 70
     1
102
RTVSPost2010Prop38
140
0.0
102
RTVSPost2010PropOp38
 70
     1
102
RTVSPost2010Prop39
140
1.0
102
RTVSPost2010PropOp39
 70
     1
102
RTVSPost2010Prop40
 90
        0
102
RTVSPost2010PropOp40
 70
     1
102
RTVSPost2010Prop41ColorIndex
 90
       18
102
RTVSPost2010Prop41ColorRGB
 90
        0
102
RTVSPost2010PropOp41
 70
     1
102
RTVSPost2010Prop42
 90
       50
102
RTVSPost2010PropOp42
 70
     1
102
RTVSPost2010Prop43
 90
        3
102
RTVSPost2010PropOp43
 70
     1
102
RTVSPost2010Prop44ColorIndex
 90
        5
102
RTVSPost2010Prop44ColorRGB
 90
      255
102
RTVSPost2010PropOp44
 70
     1
102
RTVSPost2010Prop45
280
     0
102
RTVSPost2010PropOp45
 70
     1
102
RTVSPost2010Prop46
 90
       50
102
RTVSPost2010PropOp46
 70
     1
102
RTVSPost2010Prop47
 90
       50
102
RTVSPost2010PropOp47
 70
     1
102
RTVSPost2010Prop48
 90
       50
102
RTVSPost2010PropOp48
 70
     1
102
RTVSPost2010Prop49
280
     0
102
RTVSPost2010PropOp49
 70
     1
102
RTVSPost2010Prop50
 90
       50
102
RTVSPost2010PropOp50
 70
     1
102
RTVSPost2010Prop51ColorIndex
 90
      256
102
RTVSPost2010Prop51ColorRGB
 90
-16777216
102
RTVSPost2010PropOp51
 70
     0
102
RTVSPost2010Prop52
140
1.0
102
RTVSPost2010PropOp52
 70
     0
102
RTVSPost2010Prop53
 90
        2
102
RTVSPost2010PropOp53
 70
     1
102
RTVSPost2010Prop54
  1
strokes_ogs.tif
102
RTVSPost2010PropOp54
 70
     1
102
RTVSPost2010Prop55
280
     0
102
RTVSPost2010PropOp55
 70
     1
102
RTVSPost2010Prop56
140
1.0
102
RTVSPost2010PropOp56
 70
     1
102
RTVSPost2010Prop57
140
1.0
102
RTVSPost2010PropOp57
 70
     1
102
RTVSPropertyOp0
 70
     1
102
RTVSPropertyOp1
 70
     1
102
RTVSPropertyOp2
 70
     1
102
RTVSPropertyOp3
 70
     1
102
RTVSPropertyOp4
 70
     1
102
RTVSPropertyOp5
 70
     1
102
RTVSPropertyOp6
 70
     1
102
RTVSPropertyOp7
 70
     1
102
RTVSPropertyOp8
 70
     1
102
RTVSPropertyOp9
 70
     1
102
RTVSPropertyOp10
 70
     1
102
RTVSPropertyOp11
 70
     1
102
RTVSPropertyOp12
 70
     1
102
RTVSPropertyOp13
 70
     1
102
RTVSPropertyOp14
 70
     1
102
RTVSPropertyOp15
 70
     1
102
RTVSPropertyOp16
 70
     1
102
RTVSPropertyOp17
 70
     1
102
RTVSPropertyOp18
 70
     1
102
RTVSPropertyOp19
 70
     1
102
RTVSPropertyOp20
 70
     1
102
RTVSPropertyOp21
 70
     1
102
RTVSPropertyOp22
 70
     1
102
RTVSPropertyOp23
 70
     1
102
RTVSPropertyOp24
 70
     1
102
RTVSPropertyOp25
 70
     1
102
RTVSPropertyOp26
 70
     1
102
RTVSPropertyOp27
 70
     1
102
RTVSPropertyOp28
 70
     1
102
RTVSPropertyOp29
 70
     1
102
RTVSPropertyOp30
 70
     1
102
RTVSPropertyOp31
 70
     1
102
RTVSPropertyOp32
 70
     1
102
RTVSPropertyOp33
 70
     1
102
RTVSPropertyOp34
 70
     1
102
RTVSPropertyOp35
 70
     1
102
RTVSPropertyOp36
 70
     1
102
RTVSPropertyOp37
 70
     1
102
RTVSPropertyOp38
 70
     1
102
RTVSPropertyOp39
 70
     1
102
RTVSPropertyOp40
 70
     1
102
RTVSPropertyOp41
 70
     1
102
RTVSPropertyOp42
 70
     1
102
RTVSPropertyOp43
 70
     1
102
RTVSPropertyOp44
 70
     1
102
RTVSPropertyOp45
 70
     1
102
RTVSPropertyOp46
 70
     1
102
RTVSPropertyOp47
 70
     1
102
RTVSPropertyOp48
 70
     1
102
RTVSPropertyOp49
 70
     1
102
RTVSPropertyOp50
 70
     1
102
RTVSPropertyOp51
 70
     0
102
RTVSPropertyOp52
 70
     0
102
RTVSPropertyOp53
 70
     1
102
RTVSPropertyOp54
 70
     1
102
RTVSPropertyOp55
 70
     1
102
RTVSPropertyOp56
 70
     1
102
RTVSPropertyOp57
 70
     1
102
RTVSPropertyOp58
 70
     1
102
RTVSPropertyOp59
 70
     1
102
RTVSPropertyOp60
 70
     1
102
RTVSPropertyOp61
 70
     1
102
RTVSPropertyOp62
 70
     1
  0
XRECORD
  5
CB5C
102
{ACAD_REACTORS
330
CB5B
102
}
330
CB5B
100
AcDbXrecord
280
     1
102
RTVSPost2010Prop28
280
     0
102
RTVSPost2010PropOp28
 70
     1
102
RTVSPost2010Prop29
280
     1
102
RTVSPost2010PropOp29
 70
     1
102
RTVSPost2010Prop30
280
     1
102
RTVSPost2010PropOp30
 70
     1
102
RTVSPost2010Prop31
280
     0
102
RTVSPost2010PropOp31
 70
     1
102
RTVSPost2010Prop32
280
     0
102
RTVSPost2010PropOp32
 70
     1
102
RTVSPost2010Prop33
280
     0
102
RTVSPost2010PropOp33
 70
     1
102
RTVSPost2010Prop34
280
     0
102
RTVSPost2010PropOp34
 70
     1
102
RTVSPost2010Prop35
280
     0
102
RTVSPost2010PropOp35
 70
     1
102
RTVSPost2010Prop36
280
     0
102
RTVSPost2010PropOp36
 70
     1
102
RTVSPost2010Prop37
 90
       50
102
RTVSPost2010PropOp37
 70
     1
102
RTVSPost2010Prop38
140
0.0
102
RTVSPost2010PropOp38
 70
     1
102
RTVSPost2010Prop39
140
1.0
102
RTVSPost2010PropOp39
 70
     1
102
RTVSPost2010Prop40
 90
        0
102
RTVSPost2010PropOp40
 70
     1
102
RTVSPost2010Prop41ColorIndex
 90
       18
102
RTVSPost2010Prop41ColorRGB
 90
        0
102
RTVSPost2010PropOp41
 70
     1
102
RTVSPost2010Prop42
 90
       50
102
RTVSPost2010PropOp42
 70
     1
102
RTVSPost2010Prop43
 90
        3
102
RTVSPost2010PropOp43
 70
     1
102
RTVSPost2010Prop44ColorIndex
 90
        5
102
RTVSPost2010Prop44ColorRGB
 90
      255
102
RTVSPost2010PropOp44
 70
     1
102
RTVSPost2010Prop45
280
     0
102
RTVSPost2010PropOp45
 70
     1
102
RTVSPost2010Prop46
 90
       50
102
RTVSPost2010PropOp46
 70
     1
102
RTVSPost2010Prop47
 90
       50
102
RTVSPost2010PropOp47
 70
     1
102
RTVSPost2010Prop48
 90
       50
102
RTVSPost2010PropOp48
 70
     1
102
RTVSPost2010Prop49
280
     0
102
RTVSPost2010PropOp49
 70
     1
102
RTVSPost2010Prop50
 90
       50
102
RTVSPost2010PropOp50
 70
     1
102
RTVSPost2010Prop51ColorIndex
 90
      256
102
RTVSPost2010Prop51ColorRGB
 90
-16777216
102
RTVSPost2010PropOp51
 70
     0
102
RTVSPost2010Prop52
140
1.0
102
RTVSPost2010PropOp52
 70
     0
102
RTVSPost2010Prop53
 90
        2
102
RTVSPost2010PropOp53
 70
     1
102
RTVSPost2010Prop54
  1
strokes_ogs.tif
102
RTVSPost2010PropOp54
 70
     1
102
RTVSPost2010Prop55
280
     0
102
RTVSPost2010PropOp55
 70
     1
102
RTVSPost2010Prop56
140
1.0
102
RTVSPost2010PropOp56
 70
     1
102
RTVSPost2010Prop57
140
1.0
102
RTVSPost2010PropOp57
 70
     1
102
RTVSPropertyOp0
 70
     1
102
RTVSPropertyOp1
 70
     1
102
RTVSPropertyOp2
 70
     1
102
RTVSPropertyOp3
 70
     1
102
RTVSPropertyOp4
 70
     1
102
RTVSPropertyOp5
 70
     1
102
RTVSPropertyOp6
 70
     1
102
RTVSPropertyOp7
 70
     1
102
RTVSPropertyOp8
 70
     1
102
RTVSPropertyOp9
 70
     1
102
RTVSPropertyOp10
 70
     1
102
RTVSPropertyOp11
 70
     1
102
RTVSPropertyOp12
 70
     1
102
RTVSPropertyOp13
 70
     1
102
RTVSPropertyOp14
 70
     1
102
RTVSPropertyOp15
 70
     1
102
RTVSPropertyOp16
 70
     1
102
RTVSPropertyOp17
 70
     1
102
RTVSPropertyOp18
 70
     1
102
RTVSPropertyOp19
 70
     1
102
RTVSPropertyOp20
 70
     1
102
RTVSPropertyOp21
 70
     1
102
RTVSPropertyOp22
 70
     1
102
RTVSPropertyOp23
 70
     1
102
RTVSPropertyOp24
 70
     1
102
RTVSPropertyOp25
 70
     1
102
RTVSPropertyOp26
 70
     1
102
RTVSPropertyOp27
 70
     1
102
RTVSPropertyOp28
 70
     1
102
RTVSPropertyOp29
 70
     1
102
RTVSPropertyOp30
 70
     1
102
RTVSPropertyOp31
 70
     1
102
RTVSPropertyOp32
 70
     1
102
RTVSPropertyOp33
 70
     1
102
RTVSPropertyOp34
 70
     1
102
RTVSPropertyOp35
 70
     1
102
RTVSPropertyOp36
 70
     1
102
RTVSPropertyOp37
 70
     1
102
RTVSPropertyOp38
 70
     1
102
RTVSPropertyOp39
 70
     1
102
RTVSPropertyOp40
 70
     1
102
RTVSPropertyOp41
 70
     1
102
RTVSPropertyOp42
 70
     1
102
RTVSPropertyOp43
 70
     1
102
RTVSPropertyOp44
 70
     1
102
RTVSPropertyOp45
 70
     1
102
RTVSPropertyOp46
 70
     1
102
RTVSPropertyOp47
 70
     1
102
RTVSPropertyOp48
 70
     1
102
RTVSPropertyOp49
 70
     1
102
RTVSPropertyOp50
 70
     1
102
RTVSPropertyOp51
 70
     0
102
RTVSPropertyOp52
 70
     0
102
RTVSPropertyOp53
 70
     1
102
RTVSPropertyOp54
 70
     1
102
RTVSPropertyOp55
 70
     1
102
RTVSPropertyOp56
 70
     1
102
RTVSPropertyOp57
 70
     1
102
RTVSPropertyOp58
 70
     1
102
RTVSPropertyOp59
 70
     1
102
RTVSPropertyOp60
 70
     1
102
RTVSPropertyOp61
 70
     1
102
RTVSPropertyOp62
 70
     1
  0
XRECORD
  5
CB4E
102
{ACAD_REACTORS
330
CB4D
102
}
330
CB4D
100
AcDbXrecord
280
     1
102
RTVSPost2010Prop28
280
     0
102
RTVSPost2010PropOp28
 70
     1
102
RTVSPost2010Prop29
280
     1
102
RTVSPost2010PropOp29
 70
     1
102
RTVSPost2010Prop30
280
     1
102
RTVSPost2010PropOp30
 70
     1
102
RTVSPost2010Prop31
280
     0
102
RTVSPost2010PropOp31
 70
     1
102
RTVSPost2010Prop32
280
     0
102
RTVSPost2010PropOp32
 70
     1
102
RTVSPost2010Prop33
280
     0
102
RTVSPost2010PropOp33
 70
     1
102
RTVSPost2010Prop34
280
     0
102
RTVSPost2010PropOp34
 70
     1
102
RTVSPost2010Prop35
280
     0
102
RTVSPost2010PropOp35
 70
     1
102
RTVSPost2010Prop36
280
     0
102
RTVSPost2010PropOp36
 70
     1
102
RTVSPost2010Prop37
 90
       50
102
RTVSPost2010PropOp37
 70
     1
102
RTVSPost2010Prop38
140
0.0
102
RTVSPost2010PropOp38
 70
     1
102
RTVSPost2010Prop39
140
1.0
102
RTVSPost2010PropOp39
 70
     1
102
RTVSPost2010Prop40
 90
        0
102
RTVSPost2010PropOp40
 70
     1
102
RTVSPost2010Prop41ColorIndex
 90
       18
102
RTVSPost2010Prop41ColorRGB
 90
        0
102
RTVSPost2010PropOp41
 70
     1
102
RTVSPost2010Prop42
 90
       50
102
RTVSPost2010PropOp42
 70
     1
102
RTVSPost2010Prop43
 90
        3
102
RTVSPost2010PropOp43
 70
     1
102
RTVSPost2010Prop44ColorIndex
 90
        5
102
RTVSPost2010Prop44ColorRGB
 90
      255
102
RTVSPost2010PropOp44
 70
     1
102
RTVSPost2010Prop45
280
     0
102
RTVSPost2010PropOp45
 70
     1
102
RTVSPost2010Prop46
 90
       50
102
RTVSPost2010PropOp46
 70
     1
102
RTVSPost2010Prop47
 90
       50
102
RTVSPost2010PropOp47
 70
     1
102
RTVSPost2010Prop48
 90
       50
102
RTVSPost2010PropOp48
 70
     1
102
RTVSPost2010Prop49
280
     0
102
RTVSPost2010PropOp49
 70
     1
102
RTVSPost2010Prop50
 90
       50
102
RTVSPost2010PropOp50
 70
     1
102
RTVSPost2010Prop51ColorIndex
 90
      256
102
RTVSPost2010Prop51ColorRGB
 90
-16777216
102
RTVSPost2010PropOp51
 70
     0
102
RTVSPost2010Prop52
140
1.0
102
RTVSPost2010PropOp52
 70
     0
102
RTVSPost2010Prop53
 90
        2
102
RTVSPost2010PropOp53
 70
     1
102
RTVSPost2010Prop54
  1
strokes_ogs.tif
102
RTVSPost2010PropOp54
 70
     1
102
RTVSPost2010Prop55
280
     0
102
RTVSPost2010PropOp55
 70
     1
102
RTVSPost2010Prop56
140
1.0
102
RTVSPost2010PropOp56
 70
     1
102
RTVSPost2010Prop57
140
1.0
102
RTVSPost2010PropOp57
 70
     1
102
RTVSPropertyOp0
 70
     1
102
RTVSPropertyOp1
 70
     1
102
RTVSPropertyOp2
 70
     1
102
RTVSPropertyOp3
 70
     1
102
RTVSPropertyOp4
 70
     1
102
RTVSPropertyOp5
 70
     1
102
RTVSPropertyOp6
 70
     1
102
RTVSPropertyOp7
 70
     1
102
RTVSPropertyOp8
 70
     1
102
RTVSPropertyOp9
 70
     1
102
RTVSPropertyOp10
 70
     1
102
RTVSPropertyOp11
 70
     1
102
RTVSPropertyOp12
 70
     1
102
RTVSPropertyOp13
 70
     1
102
RTVSPropertyOp14
 70
     1
102
RTVSPropertyOp15
 70
     1
102
RTVSPropertyOp16
 70
     1
102
RTVSPropertyOp17
 70
     1
102
RTVSPropertyOp18
 70
     1
102
RTVSPropertyOp19
 70
     1
102
RTVSPropertyOp20
 70
     1
102
RTVSPropertyOp21
 70
     1
102
RTVSPropertyOp22
 70
     1
102
RTVSPropertyOp23
 70
     1
102
RTVSPropertyOp24
 70
     1
102
RTVSPropertyOp25
 70
     1
102
RTVSPropertyOp26
 70
     1
102
RTVSPropertyOp27
 70
     1
102
RTVSPropertyOp28
 70
     1
102
RTVSPropertyOp29
 70
     1
102
RTVSPropertyOp30
 70
     1
102
RTVSPropertyOp31
 70
     1
102
RTVSPropertyOp32
 70
     1
102
RTVSPropertyOp33
 70
     1
102
RTVSPropertyOp34
 70
     1
102
RTVSPropertyOp35
 70
     1
102
RTVSPropertyOp36
 70
     1
102
RTVSPropertyOp37
 70
     1
102
RTVSPropertyOp38
 70
     1
102
RTVSPropertyOp39
 70
     1
102
RTVSPropertyOp40
 70
     1
102
RTVSPropertyOp41
 70
     1
102
RTVSPropertyOp42
 70
     1
102
RTVSPropertyOp43
 70
     1
102
RTVSPropertyOp44
 70
     1
102
RTVSPropertyOp45
 70
     1
102
RTVSPropertyOp46
 70
     1
102
RTVSPropertyOp47
 70
     1
102
RTVSPropertyOp48
 70
     1
102
RTVSPropertyOp49
 70
     1
102
RTVSPropertyOp50
 70
     1
102
RTVSPropertyOp51
 70
     0
102
RTVSPropertyOp52
 70
     0
102
RTVSPropertyOp53
 70
     1
102
RTVSPropertyOp54
 70
     1
102
RTVSPropertyOp55
 70
     1
102
RTVSPropertyOp56
 70
     1
102
RTVSPropertyOp57
 70
     1
102
RTVSPropertyOp58
 70
     1
102
RTVSPropertyOp59
 70
     1
102
RTVSPropertyOp60
 70
     1
102
RTVSPropertyOp61
 70
     1
102
RTVSPropertyOp62
 70
     1
  0
XRECORD
  5
CB52
102
{ACAD_REACTORS
330
CB51
102
}
330
CB51
100
AcDbXrecord
280
     1
102
RTVSPost2010Prop28
280
     0
102
RTVSPost2010PropOp28
 70
     1
102
RTVSPost2010Prop29
280
     1
102
RTVSPost2010PropOp29
 70
     1
102
RTVSPost2010Prop30
280
     1
102
RTVSPost2010PropOp30
 70
     1
102
RTVSPost2010Prop31
280
     0
102
RTVSPost2010PropOp31
 70
     1
102
RTVSPost2010Prop32
280
     0
102
RTVSPost2010PropOp32
 70
     1
102
RTVSPost2010Prop33
280
     0
102
RTVSPost2010PropOp33
 70
     1
102
RTVSPost2010Prop34
280
     0
102
RTVSPost2010PropOp34
 70
     1
102
RTVSPost2010Prop35
280
     0
102
RTVSPost2010PropOp35
 70
     1
102
RTVSPost2010Prop36
280
     0
102
RTVSPost2010PropOp36
 70
     1
102
RTVSPost2010Prop37
 90
       50
102
RTVSPost2010PropOp37
 70
     1
102
RTVSPost2010Prop38
140
0.0
102
RTVSPost2010PropOp38
 70
     1
102
RTVSPost2010Prop39
140
1.0
102
RTVSPost2010PropOp39
 70
     1
102
RTVSPost2010Prop40
 90
        0
102
RTVSPost2010PropOp40
 70
     1
102
RTVSPost2010Prop41ColorIndex
 90
       18
102
RTVSPost2010Prop41ColorRGB
 90
        0
102
RTVSPost2010PropOp41
 70
     1
102
RTVSPost2010Prop42
 90
       50
102
RTVSPost2010PropOp42
 70
     1
102
RTVSPost2010Prop43
 90
        3
102
RTVSPost2010PropOp43
 70
     1
102
RTVSPost2010Prop44ColorIndex
 90
        5
102
RTVSPost2010Prop44ColorRGB
 90
      255
102
RTVSPost2010PropOp44
 70
     1
102
RTVSPost2010Prop45
280
     0
102
RTVSPost2010PropOp45
 70
     1
102
RTVSPost2010Prop46
 90
       50
102
RTVSPost2010PropOp46
 70
     1
102
RTVSPost2010Prop47
 90
       50
102
RTVSPost2010PropOp47
 70
     1
102
RTVSPost2010Prop48
 90
       50
102
RTVSPost2010PropOp48
 70
     1
102
RTVSPost2010Prop49
280
     0
102
RTVSPost2010PropOp49
 70
     1
102
RTVSPost2010Prop50
 90
       50
102
RTVSPost2010PropOp50
 70
     1
102
RTVSPost2010Prop51ColorIndex
 90
      256
102
RTVSPost2010Prop51ColorRGB
 90
-16777216
102
RTVSPost2010PropOp51
 70
     0
102
RTVSPost2010Prop52
140
1.0
102
RTVSPost2010PropOp52
 70
     0
102
RTVSPost2010Prop53
 90
        2
102
RTVSPost2010PropOp53
 70
     1
102
RTVSPost2010Prop54
  1
strokes_ogs.tif
102
RTVSPost2010PropOp54
 70
     1
102
RTVSPost2010Prop55
280
     0
102
RTVSPost2010PropOp55
 70
     1
102
RTVSPost2010Prop56
140
1.0
102
RTVSPost2010PropOp56
 70
     1
102
RTVSPost2010Prop57
140
1.0
102
RTVSPost2010PropOp57
 70
     1
102
RTVSPropertyOp0
 70
     1
102
RTVSPropertyOp1
 70
     1
102
RTVSPropertyOp2
 70
     1
102
RTVSPropertyOp3
 70
     1
102
RTVSPropertyOp4
 70
     1
102
RTVSPropertyOp5
 70
     1
102
RTVSPropertyOp6
 70
     1
102
RTVSPropertyOp7
 70
     1
102
RTVSPropertyOp8
 70
     1
102
RTVSPropertyOp9
 70
     1
102
RTVSPropertyOp10
 70
     1
102
RTVSPropertyOp11
 70
     1
102
RTVSPropertyOp12
 70
     1
102
RTVSPropertyOp13
 70
     1
102
RTVSPropertyOp14
 70
     1
102
RTVSPropertyOp15
 70
     1
102
RTVSPropertyOp16
 70
     1
102
RTVSPropertyOp17
 70
     1
102
RTVSPropertyOp18
 70
     1
102
RTVSPropertyOp19
 70
     1
102
RTVSPropertyOp20
 70
     1
102
RTVSPropertyOp21
 70
     1
102
RTVSPropertyOp22
 70
     1
102
RTVSPropertyOp23
 70
     1
102
RTVSPropertyOp24
 70
     1
102
RTVSPropertyOp25
 70
     1
102
RTVSPropertyOp26
 70
     1
102
RTVSPropertyOp27
 70
     1
102
RTVSPropertyOp28
 70
     1
102
RTVSPropertyOp29
 70
     1
102
RTVSPropertyOp30
 70
     1
102
RTVSPropertyOp31
 70
     1
102
RTVSPropertyOp32
 70
     1
102
RTVSPropertyOp33
 70
     1
102
RTVSPropertyOp34
 70
     1
102
RTVSPropertyOp35
 70
     1
102
RTVSPropertyOp36
 70
     1
102
RTVSPropertyOp37
 70
     1
102
RTVSPropertyOp38
 70
     1
102
RTVSPropertyOp39
 70
     1
102
RTVSPropertyOp40
 70
     1
102
RTVSPropertyOp41
 70
     1
102
RTVSPropertyOp42
 70
     1
102
RTVSPropertyOp43
 70
     1
102
RTVSPropertyOp44
 70
     1
102
RTVSPropertyOp45
 70
     1
102
RTVSPropertyOp46
 70
     1
102
RTVSPropertyOp47
 70
     1
102
RTVSPropertyOp48
 70
     1
102
RTVSPropertyOp49
 70
     1
102
RTVSPropertyOp50
 70
     1
102
RTVSPropertyOp51
 70
     0
102
RTVSPropertyOp52
 70
     0
102
RTVSPropertyOp53
 70
     1
102
RTVSPropertyOp54
 70
     1
102
RTVSPropertyOp55
 70
     1
102
RTVSPropertyOp56
 70
     1
102
RTVSPropertyOp57
 70
     1
102
RTVSPropertyOp58
 70
     1
102
RTVSPropertyOp59
 70
     1
102
RTVSPropertyOp60
 70
     1
102
RTVSPropertyOp61
 70
     1
102
RTVSPropertyOp62
 70
     1
  0
XRECORD
  5
CB6C
102
{ACAD_REACTORS
330
CB6B
102
}
330
CB6B
100
AcDbXrecord
280
     1
102
RTVSPost2010Prop28
280
     0
102
RTVSPost2010PropOp28
 70
     1
102
RTVSPost2010Prop29
280
     1
102
RTVSPost2010PropOp29
 70
     1
102
RTVSPost2010Prop30
280
     1
102
RTVSPost2010PropOp30
 70
     1
102
RTVSPost2010Prop31
280
     0
102
RTVSPost2010PropOp31
 70
     1
102
RTVSPost2010Prop32
280
     0
102
RTVSPost2010PropOp32
 70
     1
102
RTVSPost2010Prop33
280
     0
102
RTVSPost2010PropOp33
 70
     1
102
RTVSPost2010Prop34
280
     0
102
RTVSPost2010PropOp34
 70
     1
102
RTVSPost2010Prop35
280
     0
102
RTVSPost2010PropOp35
 70
     1
102
RTVSPost2010Prop36
280
     0
102
RTVSPost2010PropOp36
 70
     1
102
RTVSPost2010Prop37
 90
       50
102
RTVSPost2010PropOp37
 70
     0
102
RTVSPost2010Prop38
140
0.0
102
RTVSPost2010PropOp38
 70
     0
102
RTVSPost2010Prop39
140
1.0
102
RTVSPost2010PropOp39
 70
     0
102
RTVSPost2010Prop40
 90
        0
102
RTVSPost2010PropOp40
 70
     0
102
RTVSPost2010Prop41ColorIndex
 90
       18
102
RTVSPost2010Prop41ColorRGB
 90
        0
102
RTVSPost2010PropOp41
 70
     0
102
RTVSPost2010Prop42
 90
       50
102
RTVSPost2010PropOp42
 70
     0
102
RTVSPost2010Prop43
 90
        3
102
RTVSPost2010PropOp43
 70
     0
102
RTVSPost2010Prop44ColorIndex
 90
        5
102
RTVSPost2010Prop44ColorRGB
 90
      255
102
RTVSPost2010PropOp44
 70
     0
102
RTVSPost2010Prop45
280
     0
102
RTVSPost2010PropOp45
 70
     1
102
RTVSPost2010Prop46
 90
       50
102
RTVSPost2010PropOp46
 70
     0
102
RTVSPost2010Prop47
 90
       50
102
RTVSPost2010PropOp47
 70
     0
102
RTVSPost2010Prop48
 90
       50
102
RTVSPost2010PropOp48
 70
     0
102
RTVSPost2010Prop49
280
     0
102
RTVSPost2010PropOp49
 70
     1
102
RTVSPost2010Prop50
 90
       50
102
RTVSPost2010PropOp50
 70
     0
102
RTVSPost2010Prop51ColorIndex
 90
      256
102
RTVSPost2010Prop51ColorRGB
 90
-16777216
102
RTVSPost2010PropOp51
 70
     0
102
RTVSPost2010Prop52
140
1.0
102
RTVSPost2010PropOp52
 70
     0
102
RTVSPost2010Prop53
 90
        2
102
RTVSPost2010PropOp53
 70
     0
102
RTVSPost2010Prop54
  1
strokes_ogs.tif
102
RTVSPost2010PropOp54
 70
     0
102
RTVSPost2010Prop55
280
     0
102
RTVSPost2010PropOp55
 70
     1
102
RTVSPost2010Prop56
140
1.0
102
RTVSPost2010PropOp56
 70
     0
102
RTVSPost2010Prop57
140
1.0
102
RTVSPost2010PropOp57
 70
     0
102
RTVSPropertyOp0
 70
     0
102
RTVSPropertyOp1
 70
     0
102
RTVSPropertyOp2
 70
     0
102
RTVSPropertyOp3
 70
     0
102
RTVSPropertyOp4
 70
     0
102
RTVSPropertyOp5
 70
     0
102
RTVSPropertyOp6
 70
     0
102
RTVSPropertyOp7
 70
     0
102
RTVSPropertyOp8
 70
     0
102
RTVSPropertyOp9
 70
     0
102
RTVSPropertyOp10
 70
     0
102
RTVSPropertyOp11
 70
     0
102
RTVSPropertyOp12
 70
     0
102
RTVSPropertyOp13
 70
     0
102
RTVSPropertyOp14
 70
     2
102
RTVSPropertyOp15
 70
     0
102
RTVSPropertyOp16
 70
     0
102
RTVSPropertyOp17
 70
     0
102
RTVSPropertyOp18
 70
     0
102
RTVSPropertyOp19
 70
     0
102
RTVSPropertyOp20
 70
     0
102
RTVSPropertyOp21
 70
     0
102
RTVSPropertyOp22
 70
     0
102
RTVSPropertyOp23
 70
     0
102
RTVSPropertyOp24
 70
     0
102
RTVSPropertyOp25
 70
     0
102
RTVSPropertyOp26
 70
     0
102
RTVSPropertyOp27
 70
     0
102
RTVSPropertyOp28
 70
     1
102
RTVSPropertyOp29
 70
     1
102
RTVSPropertyOp30
 70
     1
102
RTVSPropertyOp31
 70
     1
102
RTVSPropertyOp32
 70
     1
102
RTVSPropertyOp33
 70
     1
102
RTVSPropertyOp34
 70
     1
102
RTVSPropertyOp35
 70
     1
102
RTVSPropertyOp36
 70
     1
102
RTVSPropertyOp37
 70
     0
102
RTVSPropertyOp38
 70
     0
102
RTVSPropertyOp39
 70
     0
102
RTVSPropertyOp40
 70
     0
102
RTVSPropertyOp41
 70
     0
102
RTVSPropertyOp42
 70
     0
102
RTVSPropertyOp43
 70
     0
102
RTVSPropertyOp44
 70
     0
102
RTVSPropertyOp45
 70
     1
102
RTVSPropertyOp46
 70
     0
102
RTVSPropertyOp47
 70
     0
102
RTVSPropertyOp48
 70
     0
102
RTVSPropertyOp49
 70
     1
102
RTVSPropertyOp50
 70
     0
102
RTVSPropertyOp51
 70
     0
102
RTVSPropertyOp52
 70
     0
102
RTVSPropertyOp53
 70
     0
102
RTVSPropertyOp54
 70
     0
102
RTVSPropertyOp55
 70
     1
102
RTVSPropertyOp56
 70
     0
102
RTVSPropertyOp57
 70
     0
102
RTVSPropertyOp58
 70
     0
102
RTVSPropertyOp59
 70
     0
102
RTVSPropertyOp60
 70
     0
102
RTVSPropertyOp61
 70
     0
102
RTVSPropertyOp62
 70
     0
  0
XRECORD
  5
CB5A
102
{ACAD_REACTORS
330
CB59
102
}
330
CB59
100
AcDbXrecord
280
     1
102
RTVSPost2010Prop28
280
     0
102
RTVSPost2010PropOp28
 70
     1
102
RTVSPost2010Prop29
280
     1
102
RTVSPost2010PropOp29
 70
     1
102
RTVSPost2010Prop30
280
     1
102
RTVSPost2010PropOp30
 70
     1
102
RTVSPost2010Prop31
280
     0
102
RTVSPost2010PropOp31
 70
     1
102
RTVSPost2010Prop32
280
     0
102
RTVSPost2010PropOp32
 70
     1
102
RTVSPost2010Prop33
280
     0
102
RTVSPost2010PropOp33
 70
     1
102
RTVSPost2010Prop34
280
     0
102
RTVSPost2010PropOp34
 70
     1
102
RTVSPost2010Prop35
280
     0
102
RTVSPost2010PropOp35
 70
     1
102
RTVSPost2010Prop36
280
     0
102
RTVSPost2010PropOp36
 70
     1
102
RTVSPost2010Prop37
 90
       50
102
RTVSPost2010PropOp37
 70
     1
102
RTVSPost2010Prop38
140
0.0
102
RTVSPost2010PropOp38
 70
     1
102
RTVSPost2010Prop39
140
1.0
102
RTVSPost2010PropOp39
 70
     1
102
RTVSPost2010Prop40
 90
        0
102
RTVSPost2010PropOp40
 70
     1
102
RTVSPost2010Prop41ColorIndex
 90
       18
102
RTVSPost2010Prop41ColorRGB
 90
        0
102
RTVSPost2010PropOp41
 70
     1
102
RTVSPost2010Prop42
 90
       50
102
RTVSPost2010PropOp42
 70
     1
102
RTVSPost2010Prop43
 90
        3
102
RTVSPost2010PropOp43
 70
     1
102
RTVSPost2010Prop44ColorIndex
 90
        5
102
RTVSPost2010Prop44ColorRGB
 90
      255
102
RTVSPost2010PropOp44
 70
     1
102
RTVSPost2010Prop45
280
     0
102
RTVSPost2010PropOp45
 70
     1
102
RTVSPost2010Prop46
 90
       50
102
RTVSPost2010PropOp46
 70
     1
102
RTVSPost2010Prop47
 90
       50
102
RTVSPost2010PropOp47
 70
     1
102
RTVSPost2010Prop48
 90
       50
102
RTVSPost2010PropOp48
 70
     1
102
RTVSPost2010Prop49
280
     0
102
RTVSPost2010PropOp49
 70
     1
102
RTVSPost2010Prop50
 90
       50
102
RTVSPost2010PropOp50
 70
     1
102
RTVSPost2010Prop51ColorIndex
 90
      256
102
RTVSPost2010Prop51ColorRGB
 90
-16777216
102
RTVSPost2010PropOp51
 70
     0
102
RTVSPost2010Prop52
140
1.0
102
RTVSPost2010PropOp52
 70
     0
102
RTVSPost2010Prop53
 90
        2
102
RTVSPost2010PropOp53
 70
     1
102
RTVSPost2010Prop54
  1
strokes_ogs.tif
102
RTVSPost2010PropOp54
 70
     1
102
RTVSPost2010Prop55
280
     0
102
RTVSPost2010PropOp55
 70
     1
102
RTVSPost2010Prop56
140
1.0
102
RTVSPost2010PropOp56
 70
     1
102
RTVSPost2010Prop57
140
1.0
102
RTVSPost2010PropOp57
 70
     1
102
RTVSPropertyOp0
 70
     1
102
RTVSPropertyOp1
 70
     1
102
RTVSPropertyOp2
 70
     1
102
RTVSPropertyOp3
 70
     1
102
RTVSPropertyOp4
 70
     1
102
RTVSPropertyOp5
 70
     1
102
RTVSPropertyOp6
 70
     1
102
RTVSPropertyOp7
 70
     1
102
RTVSPropertyOp8
 70
     1
102
RTVSPropertyOp9
 70
     1
102
RTVSPropertyOp10
 70
     1
102
RTVSPropertyOp11
 70
     1
102
RTVSPropertyOp12
 70
     1
102
RTVSPropertyOp13
 70
     1
102
RTVSPropertyOp14
 70
     1
102
RTVSPropertyOp15
 70
     1
102
RTVSPropertyOp16
 70
     1
102
RTVSPropertyOp17
 70
     1
102
RTVSPropertyOp18
 70
     1
102
RTVSPropertyOp19
 70
     1
102
RTVSPropertyOp20
 70
     1
102
RTVSPropertyOp21
 70
     1
102
RTVSPropertyOp22
 70
     1
102
RTVSPropertyOp23
 70
     1
102
RTVSPropertyOp24
 70
     1
102
RTVSPropertyOp25
 70
     1
102
RTVSPropertyOp26
 70
     1
102
RTVSPropertyOp27
 70
     1
102
RTVSPropertyOp28
 70
     1
102
RTVSPropertyOp29
 70
     1
102
RTVSPropertyOp30
 70
     1
102
RTVSPropertyOp31
 70
     1
102
RTVSPropertyOp32
 70
     1
102
RTVSPropertyOp33
 70
     1
102
RTVSPropertyOp34
 70
     1
102
RTVSPropertyOp35
 70
     1
102
RTVSPropertyOp36
 70
     1
102
RTVSPropertyOp37
 70
     1
102
RTVSPropertyOp38
 70
     1
102
RTVSPropertyOp39
 70
     1
102
RTVSPropertyOp40
 70
     1
102
RTVSPropertyOp41
 70
     1
102
RTVSPropertyOp42
 70
     1
102
RTVSPropertyOp43
 70
     1
102
RTVSPropertyOp44
 70
     1
102
RTVSPropertyOp45
 70
     1
102
RTVSPropertyOp46
 70
     1
102
RTVSPropertyOp47
 70
     1
102
RTVSPropertyOp48
 70
     1
102
RTVSPropertyOp49
 70
     1
102
RTVSPropertyOp50
 70
     1
102
RTVSPropertyOp51
 70
     0
102
RTVSPropertyOp52
 70
     0
102
RTVSPropertyOp53
 70
     1
102
RTVSPropertyOp54
 70
     1
102
RTVSPropertyOp55
 70
     1
102
RTVSPropertyOp56
 70
     1
102
RTVSPropertyOp57
 70
     1
102
RTVSPropertyOp58
 70
     1
102
RTVSPropertyOp59
 70
     1
102
RTVSPropertyOp60
 70
     1
102
RTVSPropertyOp61
 70
     1
102
RTVSPropertyOp62
 70
     1
  0
XRECORD
  5
CB3E
102
{ACAD_REACTORS
330
CB3D
102
}
330
CB3D
100
AcDbXrecord
280
     1
102
RTVSPost2010Prop28
280
     0
102
RTVSPost2010PropOp28
 70
     1
102
RTVSPost2010Prop29
280
     1
102
RTVSPost2010PropOp29
 70
     1
102
RTVSPost2010Prop30
280
     1
102
RTVSPost2010PropOp30
 70
     1
102
RTVSPost2010Prop31
280
     0
102
RTVSPost2010PropOp31
 70
     1
102
RTVSPost2010Prop32
280
     0
102
RTVSPost2010PropOp32
 70
     1
102
RTVSPost2010Prop33
280
     0
102
RTVSPost2010PropOp33
 70
     1
102
RTVSPost2010Prop34
280
     0
102
RTVSPost2010PropOp34
 70
     1
102
RTVSPost2010Prop35
280
     0
102
RTVSPost2010PropOp35
 70
     1
102
RTVSPost2010Prop36
280
     0
102
RTVSPost2010PropOp36
 70
     1
102
RTVSPost2010Prop37
 90
       50
102
RTVSPost2010PropOp37
 70
     1
102
RTVSPost2010Prop38
140
0.0
102
RTVSPost2010PropOp38
 70
     1
102
RTVSPost2010Prop39
140
1.0
102
RTVSPost2010PropOp39
 70
     1
102
RTVSPost2010Prop40
 90
        0
102
RTVSPost2010PropOp40
 70
     1
102
RTVSPost2010Prop41ColorIndex
 90
       18
102
RTVSPost2010Prop41ColorRGB
 90
        0
102
RTVSPost2010PropOp41
 70
     1
102
RTVSPost2010Prop42
 90
       50
102
RTVSPost2010PropOp42
 70
     1
102
RTVSPost2010Prop43
 90
        3
102
RTVSPost2010PropOp43
 70
     1
102
RTVSPost2010Prop44ColorIndex
 90
        5
102
RTVSPost2010Prop44ColorRGB
 90
      255
102
RTVSPost2010PropOp44
 70
     1
102
RTVSPost2010Prop45
280
     0
102
RTVSPost2010PropOp45
 70
     1
102
RTVSPost2010Prop46
 90
       50
102
RTVSPost2010PropOp46
 70
     1
102
RTVSPost2010Prop47
 90
       50
102
RTVSPost2010PropOp47
 70
     1
102
RTVSPost2010Prop48
 90
       50
102
RTVSPost2010PropOp48
 70
     1
102
RTVSPost2010Prop49
280
     0
102
RTVSPost2010PropOp49
 70
     1
102
RTVSPost2010Prop50
 90
       50
102
RTVSPost2010PropOp50
 70
     1
102
RTVSPost2010Prop51ColorIndex
 90
      256
102
RTVSPost2010Prop51ColorRGB
 90
-16777216
102
RTVSPost2010PropOp51
 70
     0
102
RTVSPost2010Prop52
140
1.0
102
RTVSPost2010PropOp52
 70
     0
102
RTVSPost2010Prop53
 90
        2
102
RTVSPost2010PropOp53
 70
     1
102
RTVSPost2010Prop54
  1
strokes_ogs.tif
102
RTVSPost2010PropOp54
 70
     1
102
RTVSPost2010Prop55
280
     0
102
RTVSPost2010PropOp55
 70
     1
102
RTVSPost2010Prop56
140
1.0
102
RTVSPost2010PropOp56
 70
     1
102
RTVSPost2010Prop57
140
1.0
102
RTVSPost2010PropOp57
 70
     1
102
RTVSPropertyOp0
 70
     1
102
RTVSPropertyOp1
 70
     1
102
RTVSPropertyOp2
 70
     1
102
RTVSPropertyOp3
 70
     1
102
RTVSPropertyOp4
 70
     1
102
RTVSPropertyOp5
 70
     1
102
RTVSPropertyOp6
 70
     1
102
RTVSPropertyOp7
 70
     1
102
RTVSPropertyOp8
 70
     1
102
RTVSPropertyOp9
 70
     1
102
RTVSPropertyOp10
 70
     1
102
RTVSPropertyOp11
 70
     1
102
RTVSPropertyOp12
 70
     1
102
RTVSPropertyOp13
 70
     1
102
RTVSPropertyOp14
 70
     1
102
RTVSPropertyOp15
 70
     1
102
RTVSPropertyOp16
 70
     1
102
RTVSPropertyOp17
 70
     1
102
RTVSPropertyOp18
 70
     1
102
RTVSPropertyOp19
 70
     1
102
RTVSPropertyOp20
 70
     1
102
RTVSPropertyOp21
 70
     1
102
RTVSPropertyOp22
 70
     1
102
RTVSPropertyOp23
 70
     1
102
RTVSPropertyOp24
 70
     1
102
RTVSPropertyOp25
 70
     1
102
RTVSPropertyOp26
 70
     1
102
RTVSPropertyOp27
 70
     1
102
RTVSPropertyOp28
 70
     1
102
RTVSPropertyOp29
 70
     1
102
RTVSPropertyOp30
 70
     1
102
RTVSPropertyOp31
 70
     1
102
RTVSPropertyOp32
 70
     1
102
RTVSPropertyOp33
 70
     1
102
RTVSPropertyOp34
 70
     1
102
RTVSPropertyOp35
 70
     1
102
RTVSPropertyOp36
 70
     1
102
RTVSPropertyOp37
 70
     1
102
RTVSPropertyOp38
 70
     1
102
RTVSPropertyOp39
 70
     1
102
RTVSPropertyOp40
 70
     1
102
RTVSPropertyOp41
 70
     1
102
RTVSPropertyOp42
 70
     1
102
RTVSPropertyOp43
 70
     1
102
RTVSPropertyOp44
 70
     1
102
RTVSPropertyOp45
 70
     1
102
RTVSPropertyOp46
 70
     1
102
RTVSPropertyOp47
 70
     1
102
RTVSPropertyOp48
 70
     1
102
RTVSPropertyOp49
 70
     1
102
RTVSPropertyOp50
 70
     1
102
RTVSPropertyOp51
 70
     0
102
RTVSPropertyOp52
 70
     0
102
RTVSPropertyOp53
 70
     1
102
RTVSPropertyOp54
 70
     1
102
RTVSPropertyOp55
 70
     1
102
RTVSPropertyOp56
 70
     1
102
RTVSPropertyOp57
 70
     1
102
RTVSPropertyOp58
 70
     1
102
RTVSPropertyOp59
 70
     1
102
RTVSPropertyOp60
 70
     1
102
RTVSPropertyOp61
 70
     1
102
RTVSPropertyOp62
 70
     1
  0
XRECORD
  5
CB40
102
{ACAD_REACTORS
330
CB3F
102
}
330
CB3F
100
AcDbXrecord
280
     1
102
RTVSPost2010Prop28
280
     0
102
RTVSPost2010PropOp28
 70
     1
102
RTVSPost2010Prop29
280
     1
102
RTVSPost2010PropOp29
 70
     1
102
RTVSPost2010Prop30
280
     1
102
RTVSPost2010PropOp30
 70
     1
102
RTVSPost2010Prop31
280
     0
102
RTVSPost2010PropOp31
 70
     1
102
RTVSPost2010Prop32
280
     0
102
RTVSPost2010PropOp32
 70
     1
102
RTVSPost2010Prop33
280
     0
102
RTVSPost2010PropOp33
 70
     1
102
RTVSPost2010Prop34
280
     0
102
RTVSPost2010PropOp34
 70
     1
102
RTVSPost2010Prop35
280
     0
102
RTVSPost2010PropOp35
 70
     1
102
RTVSPost2010Prop36
280
     0
102
RTVSPost2010PropOp36
 70
     1
102
RTVSPost2010Prop37
 90
       50
102
RTVSPost2010PropOp37
 70
     1
102
RTVSPost2010Prop38
140
0.0
102
RTVSPost2010PropOp38
 70
     1
102
RTVSPost2010Prop39
140
1.0
102
RTVSPost2010PropOp39
 70
     1
102
RTVSPost2010Prop40
 90
        0
102
RTVSPost2010PropOp40
 70
     1
102
RTVSPost2010Prop41ColorIndex
 90
       18
102
RTVSPost2010Prop41ColorRGB
 90
        0
102
RTVSPost2010PropOp41
 70
     1
102
RTVSPost2010Prop42
 90
       50
102
RTVSPost2010PropOp42
 70
     1
102
RTVSPost2010Prop43
 90
        3
102
RTVSPost2010PropOp43
 70
     1
102
RTVSPost2010Prop44ColorIndex
 90
        5
102
RTVSPost2010Prop44ColorRGB
 90
      255
102
RTVSPost2010PropOp44
 70
     1
102
RTVSPost2010Prop45
280
     0
102
RTVSPost2010PropOp45
 70
     1
102
RTVSPost2010Prop46
 90
       50
102
RTVSPost2010PropOp46
 70
     1
102
RTVSPost2010Prop47
 90
       50
102
RTVSPost2010PropOp47
 70
     1
102
RTVSPost2010Prop48
 90
       50
102
RTVSPost2010PropOp48
 70
     1
102
RTVSPost2010Prop49
280
     0
102
RTVSPost2010PropOp49
 70
     1
102
RTVSPost2010Prop50
 90
       50
102
RTVSPost2010PropOp50
 70
     1
102
RTVSPost2010Prop51ColorIndex
 90
      256
102
RTVSPost2010Prop51ColorRGB
 90
-16777216
102
RTVSPost2010PropOp51
 70
     0
102
RTVSPost2010Prop52
140
1.0
102
RTVSPost2010PropOp52
 70
     0
102
RTVSPost2010Prop53
 90
        2
102
RTVSPost2010PropOp53
 70
     1
102
RTVSPost2010Prop54
  1
strokes_ogs.tif
102
RTVSPost2010PropOp54
 70
     1
102
RTVSPost2010Prop55
280
     0
102
RTVSPost2010PropOp55
 70
     1
102
RTVSPost2010Prop56
140
1.0
102
RTVSPost2010PropOp56
 70
     1
102
RTVSPost2010Prop57
140
1.0
102
RTVSPost2010PropOp57
 70
     1
102
RTVSPropertyOp0
 70
     1
102
RTVSPropertyOp1
 70
     1
102
RTVSPropertyOp2
 70
     1
102
RTVSPropertyOp3
 70
     1
102
RTVSPropertyOp4
 70
     1
102
RTVSPropertyOp5
 70
     1
102
RTVSPropertyOp6
 70
     1
102
RTVSPropertyOp7
 70
     1
102
RTVSPropertyOp8
 70
     1
102
RTVSPropertyOp9
 70
     1
102
RTVSPropertyOp10
 70
     1
102
RTVSPropertyOp11
 70
     1
102
RTVSPropertyOp12
 70
     1
102
RTVSPropertyOp13
 70
     1
102
RTVSPropertyOp14
 70
     1
102
RTVSPropertyOp15
 70
     1
102
RTVSPropertyOp16
 70
     1
102
RTVSPropertyOp17
 70
     1
102
RTVSPropertyOp18
 70
     1
102
RTVSPropertyOp19
 70
     1
102
RTVSPropertyOp20
 70
     1
102
RTVSPropertyOp21
 70
     1
102
RTVSPropertyOp22
 70
     1
102
RTVSPropertyOp23
 70
     1
102
RTVSPropertyOp24
 70
     1
102
RTVSPropertyOp25
 70
     1
102
RTVSPropertyOp26
 70
     1
102
RTVSPropertyOp27
 70
     1
102
RTVSPropertyOp28
 70
     1
102
RTVSPropertyOp29
 70
     1
102
RTVSPropertyOp30
 70
     1
102
RTVSPropertyOp31
 70
     1
102
RTVSPropertyOp32
 70
     1
102
RTVSPropertyOp33
 70
     1
102
RTVSPropertyOp34
 70
     1
102
RTVSPropertyOp35
 70
     1
102
RTVSPropertyOp36
 70
     1
102
RTVSPropertyOp37
 70
     1
102
RTVSPropertyOp38
 70
     1
102
RTVSPropertyOp39
 70
     1
102
RTVSPropertyOp40
 70
     1
102
RTVSPropertyOp41
 70
     1
102
RTVSPropertyOp42
 70
     1
102
RTVSPropertyOp43
 70
     1
102
RTVSPropertyOp44
 70
     1
102
RTVSPropertyOp45
 70
     1
102
RTVSPropertyOp46
 70
     1
102
RTVSPropertyOp47
 70
     1
102
RTVSPropertyOp48
 70
     1
102
RTVSPropertyOp49
 70
     1
102
RTVSPropertyOp50
 70
     1
102
RTVSPropertyOp51
 70
     0
102
RTVSPropertyOp52
 70
     0
102
RTVSPropertyOp53
 70
     1
102
RTVSPropertyOp54
 70
     1
102
RTVSPropertyOp55
 70
     1
102
RTVSPropertyOp56
 70
     1
102
RTVSPropertyOp57
 70
     1
102
RTVSPropertyOp58
 70
     1
102
RTVSPropertyOp59
 70
     1
102
RTVSPropertyOp60
 70
     1
102
RTVSPropertyOp61
 70
     1
102
RTVSPropertyOp62
 70
     1
  0
XRECORD
  5
CB42
102
{ACAD_REACTORS
330
CB41
102
}
330
CB41
100
AcDbXrecord
280
     1
102
RTVSPost2010Prop28
280
     0
102
RTVSPost2010PropOp28
 70
     1
102
RTVSPost2010Prop29
280
     1
102
RTVSPost2010PropOp29
 70
     1
102
RTVSPost2010Prop30
280
     1
102
RTVSPost2010PropOp30
 70
     1
102
RTVSPost2010Prop31
280
     0
102
RTVSPost2010PropOp31
 70
     1
102
RTVSPost2010Prop32
280
     0
102
RTVSPost2010PropOp32
 70
     1
102
RTVSPost2010Prop33
280
     0
102
RTVSPost2010PropOp33
 70
     1
102
RTVSPost2010Prop34
280
     0
102
RTVSPost2010PropOp34
 70
     1
102
RTVSPost2010Prop35
280
     0
102
RTVSPost2010PropOp35
 70
     1
102
RTVSPost2010Prop36
280
     0
102
RTVSPost2010PropOp36
 70
     1
102
RTVSPost2010Prop37
 90
       50
102
RTVSPost2010PropOp37
 70
     1
102
RTVSPost2010Prop38
140
0.0
102
RTVSPost2010PropOp38
 70
     1
102
RTVSPost2010Prop39
140
1.0
102
RTVSPost2010PropOp39
 70
     1
102
RTVSPost2010Prop40
 90
        0
102
RTVSPost2010PropOp40
 70
     1
102
RTVSPost2010Prop41ColorIndex
 90
       18
102
RTVSPost2010Prop41ColorRGB
 90
        0
102
RTVSPost2010PropOp41
 70
     1
102
RTVSPost2010Prop42
 90
       50
102
RTVSPost2010PropOp42
 70
     1
102
RTVSPost2010Prop43
 90
        3
102
RTVSPost2010PropOp43
 70
     1
102
RTVSPost2010Prop44ColorIndex
 90
        5
102
RTVSPost2010Prop44ColorRGB
 90
      255
102
RTVSPost2010PropOp44
 70
     1
102
RTVSPost2010Prop45
280
     0
102
RTVSPost2010PropOp45
 70
     1
102
RTVSPost2010Prop46
 90
       50
102
RTVSPost2010PropOp46
 70
     1
102
RTVSPost2010Prop47
 90
       50
102
RTVSPost2010PropOp47
 70
     1
102
RTVSPost2010Prop48
 90
       50
102
RTVSPost2010PropOp48
 70
     1
102
RTVSPost2010Prop49
280
     0
102
RTVSPost2010PropOp49
 70
     1
102
RTVSPost2010Prop50
 90
       50
102
RTVSPost2010PropOp50
 70
     1
102
RTVSPost2010Prop51ColorIndex
 90
      256
102
RTVSPost2010Prop51ColorRGB
 90
-16777216
102
RTVSPost2010PropOp51
 70
     0
102
RTVSPost2010Prop52
140
1.0
102
RTVSPost2010PropOp52
 70
     0
102
RTVSPost2010Prop53
 90
        2
102
RTVSPost2010PropOp53
 70
     1
102
RTVSPost2010Prop54
  1
strokes_ogs.tif
102
RTVSPost2010PropOp54
 70
     1
102
RTVSPost2010Prop55
280
     0
102
RTVSPost2010PropOp55
 70
     1
102
RTVSPost2010Prop56
140
1.0
102
RTVSPost2010PropOp56
 70
     1
102
RTVSPost2010Prop57
140
1.0
102
RTVSPost2010PropOp57
 70
     1
102
RTVSPropertyOp0
 70
     1
102
RTVSPropertyOp1
 70
     1
102
RTVSPropertyOp2
 70
     1
102
RTVSPropertyOp3
 70
     1
102
RTVSPropertyOp4
 70
     1
102
RTVSPropertyOp5
 70
     1
102
RTVSPropertyOp6
 70
     1
102
RTVSPropertyOp7
 70
     1
102
RTVSPropertyOp8
 70
     1
102
RTVSPropertyOp9
 70
     1
102
RTVSPropertyOp10
 70
     1
102
RTVSPropertyOp11
 70
     1
102
RTVSPropertyOp12
 70
     1
102
RTVSPropertyOp13
 70
     1
102
RTVSPropertyOp14
 70
     1
102
RTVSPropertyOp15
 70
     1
102
RTVSPropertyOp16
 70
     1
102
RTVSPropertyOp17
 70
     1
102
RTVSPropertyOp18
 70
     1
102
RTVSPropertyOp19
 70
     1
102
RTVSPropertyOp20
 70
     1
102
RTVSPropertyOp21
 70
     1
102
RTVSPropertyOp22
 70
     1
102
RTVSPropertyOp23
 70
     1
102
RTVSPropertyOp24
 70
     1
102
RTVSPropertyOp25
 70
     1
102
RTVSPropertyOp26
 70
     1
102
RTVSPropertyOp27
 70
     1
102
RTVSPropertyOp28
 70
     1
102
RTVSPropertyOp29
 70
     1
102
RTVSPropertyOp30
 70
     1
102
RTVSPropertyOp31
 70
     1
102
RTVSPropertyOp32
 70
     1
102
RTVSPropertyOp33
 70
     1
102
RTVSPropertyOp34
 70
     1
102
RTVSPropertyOp35
 70
     1
102
RTVSPropertyOp36
 70
     1
102
RTVSPropertyOp37
 70
     1
102
RTVSPropertyOp38
 70
     1
102
RTVSPropertyOp39
 70
     1
102
RTVSPropertyOp40
 70
     1
102
RTVSPropertyOp41
 70
     1
102
RTVSPropertyOp42
 70
     1
102
RTVSPropertyOp43
 70
     1
102
RTVSPropertyOp44
 70
     1
102
RTVSPropertyOp45
 70
     1
102
RTVSPropertyOp46
 70
     1
102
RTVSPropertyOp47
 70
     1
102
RTVSPropertyOp48
 70
     1
102
RTVSPropertyOp49
 70
     1
102
RTVSPropertyOp50
 70
     1
102
RTVSPropertyOp51
 70
     0
102
RTVSPropertyOp52
 70
     0
102
RTVSPropertyOp53
 70
     1
102
RTVSPropertyOp54
 70
     1
102
RTVSPropertyOp55
 70
     1
102
RTVSPropertyOp56
 70
     1
102
RTVSPropertyOp57
 70
     1
102
RTVSPropertyOp58
 70
     1
102
RTVSPropertyOp59
 70
     1
102
RTVSPropertyOp60
 70
     1
102
RTVSPropertyOp61
 70
     1
102
RTVSPropertyOp62
 70
     1
  0
XRECORD
  5
CB44
102
{ACAD_REACTORS
330
CB43
102
}
330
CB43
100
AcDbXrecord
280
     1
102
RTVSPost2010Prop28
280
     0
102
RTVSPost2010PropOp28
 70
     1
102
RTVSPost2010Prop29
280
     1
102
RTVSPost2010PropOp29
 70
     1
102
RTVSPost2010Prop30
280
     1
102
RTVSPost2010PropOp30
 70
     1
102
RTVSPost2010Prop31
280
     0
102
RTVSPost2010PropOp31
 70
     1
102
RTVSPost2010Prop32
280
     0
102
RTVSPost2010PropOp32
 70
     1
102
RTVSPost2010Prop33
280
     0
102
RTVSPost2010PropOp33
 70
     1
102
RTVSPost2010Prop34
280
     0
102
RTVSPost2010PropOp34
 70
     1
102
RTVSPost2010Prop35
280
     0
102
RTVSPost2010PropOp35
 70
     1
102
RTVSPost2010Prop36
280
     0
102
RTVSPost2010PropOp36
 70
     1
102
RTVSPost2010Prop37
 90
       50
102
RTVSPost2010PropOp37
 70
     1
102
RTVSPost2010Prop38
140
0.0
102
RTVSPost2010PropOp38
 70
     1
102
RTVSPost2010Prop39
140
1.0
102
RTVSPost2010PropOp39
 70
     1
102
RTVSPost2010Prop40
 90
        0
102
RTVSPost2010PropOp40
 70
     1
102
RTVSPost2010Prop41ColorIndex
 90
       18
102
RTVSPost2010Prop41ColorRGB
 90
        0
102
RTVSPost2010PropOp41
 70
     1
102
RTVSPost2010Prop42
 90
       50
102
RTVSPost2010PropOp42
 70
     1
102
RTVSPost2010Prop43
 90
        3
102
RTVSPost2010PropOp43
 70
     1
102
RTVSPost2010Prop44ColorIndex
 90
        5
102
RTVSPost2010Prop44ColorRGB
 90
      255
102
RTVSPost2010PropOp44
 70
     1
102
RTVSPost2010Prop45
280
     0
102
RTVSPost2010PropOp45
 70
     1
102
RTVSPost2010Prop46
 90
       50
102
RTVSPost2010PropOp46
 70
     1
102
RTVSPost2010Prop47
 90
       50
102
RTVSPost2010PropOp47
 70
     1
102
RTVSPost2010Prop48
 90
       50
102
RTVSPost2010PropOp48
 70
     1
102
RTVSPost2010Prop49
280
     0
102
RTVSPost2010PropOp49
 70
     1
102
RTVSPost2010Prop50
 90
       50
102
RTVSPost2010PropOp50
 70
     1
102
RTVSPost2010Prop51ColorIndex
 90
      256
102
RTVSPost2010Prop51ColorRGB
 90
-16777216
102
RTVSPost2010PropOp51
 70
     0
102
RTVSPost2010Prop52
140
1.0
102
RTVSPost2010PropOp52
 70
     0
102
RTVSPost2010Prop53
 90
        2
102
RTVSPost2010PropOp53
 70
     1
102
RTVSPost2010Prop54
  1
strokes_ogs.tif
102
RTVSPost2010PropOp54
 70
     1
102
RTVSPost2010Prop55
280
     0
102
RTVSPost2010PropOp55
 70
     1
102
RTVSPost2010Prop56
140
1.0
102
RTVSPost2010PropOp56
 70
     1
102
RTVSPost2010Prop57
140
1.0
102
RTVSPost2010PropOp57
 70
     1
102
RTVSPropertyOp0
 70
     1
102
RTVSPropertyOp1
 70
     1
102
RTVSPropertyOp2
 70
     1
102
RTVSPropertyOp3
 70
     1
102
RTVSPropertyOp4
 70
     1
102
RTVSPropertyOp5
 70
     1
102
RTVSPropertyOp6
 70
     1
102
RTVSPropertyOp7
 70
     1
102
RTVSPropertyOp8
 70
     1
102
RTVSPropertyOp9
 70
     1
102
RTVSPropertyOp10
 70
     1
102
RTVSPropertyOp11
 70
     1
102
RTVSPropertyOp12
 70
     1
102
RTVSPropertyOp13
 70
     1
102
RTVSPropertyOp14
 70
     1
102
RTVSPropertyOp15
 70
     1
102
RTVSPropertyOp16
 70
     1
102
RTVSPropertyOp17
 70
     1
102
RTVSPropertyOp18
 70
     1
102
RTVSPropertyOp19
 70
     1
102
RTVSPropertyOp20
 70
     1
102
RTVSPropertyOp21
 70
     1
102
RTVSPropertyOp22
 70
     1
102
RTVSPropertyOp23
 70
     1
102
RTVSPropertyOp24
 70
     1
102
RTVSPropertyOp25
 70
     1
102
RTVSPropertyOp26
 70
     1
102
RTVSPropertyOp27
 70
     1
102
RTVSPropertyOp28
 70
     1
102
RTVSPropertyOp29
 70
     1
102
RTVSPropertyOp30
 70
     1
102
RTVSPropertyOp31
 70
     1
102
RTVSPropertyOp32
 70
     1
102
RTVSPropertyOp33
 70
     1
102
RTVSPropertyOp34
 70
     1
102
RTVSPropertyOp35
 70
     1
102
RTVSPropertyOp36
 70
     1
102
RTVSPropertyOp37
 70
     1
102
RTVSPropertyOp38
 70
     1
102
RTVSPropertyOp39
 70
     1
102
RTVSPropertyOp40
 70
     1
102
RTVSPropertyOp41
 70
     1
102
RTVSPropertyOp42
 70
     1
102
RTVSPropertyOp43
 70
     1
102
RTVSPropertyOp44
 70
     1
102
RTVSPropertyOp45
 70
     1
102
RTVSPropertyOp46
 70
     1
102
RTVSPropertyOp47
 70
     1
102
RTVSPropertyOp48
 70
     1
102
RTVSPropertyOp49
 70
     1
102
RTVSPropertyOp50
 70
     1
102
RTVSPropertyOp51
 70
     0
102
RTVSPropertyOp52
 70
     0
102
RTVSPropertyOp53
 70
     1
102
RTVSPropertyOp54
 70
     1
102
RTVSPropertyOp55
 70
     1
102
RTVSPropertyOp56
 70
     1
102
RTVSPropertyOp57
 70
     1
102
RTVSPropertyOp58
 70
     1
102
RTVSPropertyOp59
 70
     1
102
RTVSPropertyOp60
 70
     1
102
RTVSPropertyOp61
 70
     1
102
RTVSPropertyOp62
 70
     1
  0
XRECORD
  5
CB4C
102
{ACAD_REACTORS
330
CB4B
102
}
330
CB4B
100
AcDbXrecord
280
     1
102
RTVSPost2010Prop28
280
     0
102
RTVSPost2010PropOp28
 70
     1
102
RTVSPost2010Prop29
280
     1
102
RTVSPost2010PropOp29
 70
     1
102
RTVSPost2010Prop30
280
     1
102
RTVSPost2010PropOp30
 70
     1
102
RTVSPost2010Prop31
280
     0
102
RTVSPost2010PropOp31
 70
     1
102
RTVSPost2010Prop32
280
     0
102
RTVSPost2010PropOp32
 70
     1
102
RTVSPost2010Prop33
280
     0
102
RTVSPost2010PropOp33
 70
     1
102
RTVSPost2010Prop34
280
     0
102
RTVSPost2010PropOp34
 70
     1
102
RTVSPost2010Prop35
280
     0
102
RTVSPost2010PropOp35
 70
     1
102
RTVSPost2010Prop36
280
     0
102
RTVSPost2010PropOp36
 70
     1
102
RTVSPost2010Prop37
 90
       50
102
RTVSPost2010PropOp37
 70
     1
102
RTVSPost2010Prop38
140
0.0
102
RTVSPost2010PropOp38
 70
     1
102
RTVSPost2010Prop39
140
1.0
102
RTVSPost2010PropOp39
 70
     1
102
RTVSPost2010Prop40
 90
        0
102
RTVSPost2010PropOp40
 70
     1
102
RTVSPost2010Prop41ColorIndex
 90
       18
102
RTVSPost2010Prop41ColorRGB
 90
        0
102
RTVSPost2010PropOp41
 70
     1
102
RTVSPost2010Prop42
 90
       50
102
RTVSPost2010PropOp42
 70
     1
102
RTVSPost2010Prop43
 90
        3
102
RTVSPost2010PropOp43
 70
     1
102
RTVSPost2010Prop44ColorIndex
 90
        5
102
RTVSPost2010Prop44ColorRGB
 90
      255
102
RTVSPost2010PropOp44
 70
     1
102
RTVSPost2010Prop45
280
     0
102
RTVSPost2010PropOp45
 70
     1
102
RTVSPost2010Prop46
 90
       50
102
RTVSPost2010PropOp46
 70
     1
102
RTVSPost2010Prop47
 90
       50
102
RTVSPost2010PropOp47
 70
     1
102
RTVSPost2010Prop48
 90
       50
102
RTVSPost2010PropOp48
 70
     1
102
RTVSPost2010Prop49
280
     0
102
RTVSPost2010PropOp49
 70
     1
102
RTVSPost2010Prop50
 90
       50
102
RTVSPost2010PropOp50
 70
     1
102
RTVSPost2010Prop51ColorIndex
 90
      256
102
RTVSPost2010Prop51ColorRGB
 90
-16777216
102
RTVSPost2010PropOp51
 70
     0
102
RTVSPost2010Prop52
140
1.0
102
RTVSPost2010PropOp52
 70
     0
102
RTVSPost2010Prop53
 90
        2
102
RTVSPost2010PropOp53
 70
     1
102
RTVSPost2010Prop54
  1
strokes_ogs.tif
102
RTVSPost2010PropOp54
 70
     1
102
RTVSPost2010Prop55
280
     0
102
RTVSPost2010PropOp55
 70
     1
102
RTVSPost2010Prop56
140
1.0
102
RTVSPost2010PropOp56
 70
     1
102
RTVSPost2010Prop57
140
1.0
102
RTVSPost2010PropOp57
 70
     1
102
RTVSPropertyOp0
 70
     1
102
RTVSPropertyOp1
 70
     1
102
RTVSPropertyOp2
 70
     1
102
RTVSPropertyOp3
 70
     1
102
RTVSPropertyOp4
 70
     1
102
RTVSPropertyOp5
 70
     1
102
RTVSPropertyOp6
 70
     1
102
RTVSPropertyOp7
 70
     1
102
RTVSPropertyOp8
 70
     1
102
RTVSPropertyOp9
 70
     1
102
RTVSPropertyOp10
 70
     1
102
RTVSPropertyOp11
 70
     1
102
RTVSPropertyOp12
 70
     1
102
RTVSPropertyOp13
 70
     1
102
RTVSPropertyOp14
 70
     1
102
RTVSPropertyOp15
 70
     1
102
RTVSPropertyOp16
 70
     1
102
RTVSPropertyOp17
 70
     1
102
RTVSPropertyOp18
 70
     1
102
RTVSPropertyOp19
 70
     1
102
RTVSPropertyOp20
 70
     1
102
RTVSPropertyOp21
 70
     1
102
RTVSPropertyOp22
 70
     1
102
RTVSPropertyOp23
 70
     1
102
RTVSPropertyOp24
 70
     1
102
RTVSPropertyOp25
 70
     1
102
RTVSPropertyOp26
 70
     1
102
RTVSPropertyOp27
 70
     1
102
RTVSPropertyOp28
 70
     1
102
RTVSPropertyOp29
 70
     1
102
RTVSPropertyOp30
 70
     1
102
RTVSPropertyOp31
 70
     1
102
RTVSPropertyOp32
 70
     1
102
RTVSPropertyOp33
 70
     1
102
RTVSPropertyOp34
 70
     1
102
RTVSPropertyOp35
 70
     1
102
RTVSPropertyOp36
 70
     1
102
RTVSPropertyOp37
 70
     1
102
RTVSPropertyOp38
 70
     1
102
RTVSPropertyOp39
 70
     1
102
RTVSPropertyOp40
 70
     1
102
RTVSPropertyOp41
 70
     1
102
RTVSPropertyOp42
 70
     1
102
RTVSPropertyOp43
 70
     1
102
RTVSPropertyOp44
 70
     1
102
RTVSPropertyOp45
 70
     1
102
RTVSPropertyOp46
 70
     1
102
RTVSPropertyOp47
 70
     1
102
RTVSPropertyOp48
 70
     1
102
RTVSPropertyOp49
 70
     1
102
RTVSPropertyOp50
 70
     1
102
RTVSPropertyOp51
 70
     0
102
RTVSPropertyOp52
 70
     0
102
RTVSPropertyOp53
 70
     1
102
RTVSPropertyOp54
 70
     1
102
RTVSPropertyOp55
 70
     1
102
RTVSPropertyOp56
 70
     1
102
RTVSPropertyOp57
 70
     1
102
RTVSPropertyOp58
 70
     1
102
RTVSPropertyOp59
 70
     1
102
RTVSPropertyOp60
 70
     1
102
RTVSPropertyOp61
 70
     1
102
RTVSPropertyOp62
 70
     1
  0
XRECORD
  5
CB68
102
{ACAD_REACTORS
330
CB67
102
}
330
CB67
100
AcDbXrecord
280
     1
102
RTVSPost2010Prop28
280
     0
102
RTVSPost2010PropOp28
 70
     1
102
RTVSPost2010Prop29
280
     1
102
RTVSPost2010PropOp29
 70
     1
102
RTVSPost2010Prop30
280
     1
102
RTVSPost2010PropOp30
 70
     1
102
RTVSPost2010Prop31
280
     0
102
RTVSPost2010PropOp31
 70
     1
102
RTVSPost2010Prop32
280
     0
102
RTVSPost2010PropOp32
 70
     1
102
RTVSPost2010Prop33
280
     0
102
RTVSPost2010PropOp33
 70
     1
102
RTVSPost2010Prop34
280
     0
102
RTVSPost2010PropOp34
 70
     1
102
RTVSPost2010Prop35
280
     0
102
RTVSPost2010PropOp35
 70
     1
102
RTVSPost2010Prop36
280
     0
102
RTVSPost2010PropOp36
 70
     1
102
RTVSPost2010Prop37
 90
       50
102
RTVSPost2010PropOp37
 70
     0
102
RTVSPost2010Prop38
140
0.0
102
RTVSPost2010PropOp38
 70
     0
102
RTVSPost2010Prop39
140
1.0
102
RTVSPost2010PropOp39
 70
     0
102
RTVSPost2010Prop40
 90
        0
102
RTVSPost2010PropOp40
 70
     0
102
RTVSPost2010Prop41ColorIndex
 90
       18
102
RTVSPost2010Prop41ColorRGB
 90
        0
102
RTVSPost2010PropOp41
 70
     0
102
RTVSPost2010Prop42
 90
       50
102
RTVSPost2010PropOp42
 70
     0
102
RTVSPost2010Prop43
 90
        3
102
RTVSPost2010PropOp43
 70
     0
102
RTVSPost2010Prop44ColorIndex
 90
        5
102
RTVSPost2010Prop44ColorRGB
 90
      255
102
RTVSPost2010PropOp44
 70
     0
102
RTVSPost2010Prop45
280
     0
102
RTVSPost2010PropOp45
 70
     1
102
RTVSPost2010Prop46
 90
       50
102
RTVSPost2010PropOp46
 70
     0
102
RTVSPost2010Prop47
 90
       50
102
RTVSPost2010PropOp47
 70
     0
102
RTVSPost2010Prop48
 90
       50
102
RTVSPost2010PropOp48
 70
     0
102
RTVSPost2010Prop49
280
     0
102
RTVSPost2010PropOp49
 70
     1
102
RTVSPost2010Prop50
 90
       50
102
RTVSPost2010PropOp50
 70
     0
102
RTVSPost2010Prop51ColorIndex
 90
      256
102
RTVSPost2010Prop51ColorRGB
 90
-16777216
102
RTVSPost2010PropOp51
 70
     0
102
RTVSPost2010Prop52
140
1.0
102
RTVSPost2010PropOp52
 70
     0
102
RTVSPost2010Prop53
 90
        2
102
RTVSPost2010PropOp53
 70
     0
102
RTVSPost2010Prop54
  1
strokes_ogs.tif
102
RTVSPost2010PropOp54
 70
     0
102
RTVSPost2010Prop55
280
     0
102
RTVSPost2010PropOp55
 70
     1
102
RTVSPost2010Prop56
140
1.0
102
RTVSPost2010PropOp56
 70
     0
102
RTVSPost2010Prop57
140
1.0
102
RTVSPost2010PropOp57
 70
     0
102
RTVSPropertyOp0
 70
     0
102
RTVSPropertyOp1
 70
     0
102
RTVSPropertyOp2
 70
     0
102
RTVSPropertyOp3
 70
     0
102
RTVSPropertyOp4
 70
     0
102
RTVSPropertyOp5
 70
     0
102
RTVSPropertyOp6
 70
     0
102
RTVSPropertyOp7
 70
     0
102
RTVSPropertyOp8
 70
     0
102
RTVSPropertyOp9
 70
     0
102
RTVSPropertyOp10
 70
     0
102
RTVSPropertyOp11
 70
     0
102
RTVSPropertyOp12
 70
     0
102
RTVSPropertyOp13
 70
     0
102
RTVSPropertyOp14
 70
     2
102
RTVSPropertyOp15
 70
     0
102
RTVSPropertyOp16
 70
     0
102
RTVSPropertyOp17
 70
     0
102
RTVSPropertyOp18
 70
     0
102
RTVSPropertyOp19
 70
     0
102
RTVSPropertyOp20
 70
     0
102
RTVSPropertyOp21
 70
     0
102
RTVSPropertyOp22
 70
     0
102
RTVSPropertyOp23
 70
     0
102
RTVSPropertyOp24
 70
     0
102
RTVSPropertyOp25
 70
     0
102
RTVSPropertyOp26
 70
     0
102
RTVSPropertyOp27
 70
     0
102
RTVSPropertyOp28
 70
     1
102
RTVSPropertyOp29
 70
     1
102
RTVSPropertyOp30
 70
     1
102
RTVSPropertyOp31
 70
     1
102
RTVSPropertyOp32
 70
     1
102
RTVSPropertyOp33
 70
     1
102
RTVSPropertyOp34
 70
     1
102
RTVSPropertyOp35
 70
     1
102
RTVSPropertyOp36
 70
     1
102
RTVSPropertyOp37
 70
     0
102
RTVSPropertyOp38
 70
     0
102
RTVSPropertyOp39
 70
     0
102
RTVSPropertyOp40
 70
     0
102
RTVSPropertyOp41
 70
     0
102
RTVSPropertyOp42
 70
     0
102
RTVSPropertyOp43
 70
     0
102
RTVSPropertyOp44
 70
     0
102
RTVSPropertyOp45
 70
     1
102
RTVSPropertyOp46
 70
     0
102
RTVSPropertyOp47
 70
     0
102
RTVSPropertyOp48
 70
     0
102
RTVSPropertyOp49
 70
     1
102
RTVSPropertyOp50
 70
     0
102
RTVSPropertyOp51
 70
     0
102
RTVSPropertyOp52
 70
     0
102
RTVSPropertyOp53
 70
     0
102
RTVSPropertyOp54
 70
     0
102
RTVSPropertyOp55
 70
     1
102
RTVSPropertyOp56
 70
     0
102
RTVSPropertyOp57
 70
     0
102
RTVSPropertyOp58
 70
     0
102
RTVSPropertyOp59
 70
     0
102
RTVSPropertyOp60
 70
     0
102
RTVSPropertyOp61
 70
     0
102
RTVSPropertyOp62
 70
     0
  0
XRECORD
  5
CB58
102
{ACAD_REACTORS
330
CB57
102
}
330
CB57
100
AcDbXrecord
280
     1
102
RTVSPost2010Prop28
280
     0
102
RTVSPost2010PropOp28
 70
     1
102
RTVSPost2010Prop29
280
     1
102
RTVSPost2010PropOp29
 70
     1
102
RTVSPost2010Prop30
280
     1
102
RTVSPost2010PropOp30
 70
     1
102
RTVSPost2010Prop31
280
     0
102
RTVSPost2010PropOp31
 70
     1
102
RTVSPost2010Prop32
280
     0
102
RTVSPost2010PropOp32
 70
     1
102
RTVSPost2010Prop33
280
     0
102
RTVSPost2010PropOp33
 70
     1
102
RTVSPost2010Prop34
280
     0
102
RTVSPost2010PropOp34
 70
     1
102
RTVSPost2010Prop35
280
     0
102
RTVSPost2010PropOp35
 70
     1
102
RTVSPost2010Prop36
280
     0
102
RTVSPost2010PropOp36
 70
     1
102
RTVSPost2010Prop37
 90
       50
102
RTVSPost2010PropOp37
 70
     1
102
RTVSPost2010Prop38
140
0.0
102
RTVSPost2010PropOp38
 70
     1
102
RTVSPost2010Prop39
140
1.0
102
RTVSPost2010PropOp39
 70
     1
102
RTVSPost2010Prop40
 90
        0
102
RTVSPost2010PropOp40
 70
     1
102
RTVSPost2010Prop41ColorIndex
 90
       18
102
RTVSPost2010Prop41ColorRGB
 90
        0
102
RTVSPost2010PropOp41
 70
     1
102
RTVSPost2010Prop42
 90
       50
102
RTVSPost2010PropOp42
 70
     1
102
RTVSPost2010Prop43
 90
        3
102
RTVSPost2010PropOp43
 70
     1
102
RTVSPost2010Prop44ColorIndex
 90
        5
102
RTVSPost2010Prop44ColorRGB
 90
      255
102
RTVSPost2010PropOp44
 70
     1
102
RTVSPost2010Prop45
280
     0
102
RTVSPost2010PropOp45
 70
     1
102
RTVSPost2010Prop46
 90
       50
102
RTVSPost2010PropOp46
 70
     1
102
RTVSPost2010Prop47
 90
       50
102
RTVSPost2010PropOp47
 70
     1
102
RTVSPost2010Prop48
 90
       50
102
RTVSPost2010PropOp48
 70
     1
102
RTVSPost2010Prop49
280
     0
102
RTVSPost2010PropOp49
 70
     1
102
RTVSPost2010Prop50
 90
       50
102
RTVSPost2010PropOp50
 70
     1
102
RTVSPost2010Prop51ColorIndex
 90
      256
102
RTVSPost2010Prop51ColorRGB
 90
-16777216
102
RTVSPost2010PropOp51
 70
     0
102
RTVSPost2010Prop52
140
1.0
102
RTVSPost2010PropOp52
 70
     0
102
RTVSPost2010Prop53
 90
        2
102
RTVSPost2010PropOp53
 70
     1
102
RTVSPost2010Prop54
  1
strokes_ogs.tif
102
RTVSPost2010PropOp54
 70
     1
102
RTVSPost2010Prop55
280
     0
102
RTVSPost2010PropOp55
 70
     1
102
RTVSPost2010Prop56
140
1.0
102
RTVSPost2010PropOp56
 70
     1
102
RTVSPost2010Prop57
140
1.0
102
RTVSPost2010PropOp57
 70
     1
102
RTVSPropertyOp0
 70
     1
102
RTVSPropertyOp1
 70
     1
102
RTVSPropertyOp2
 70
     1
102
RTVSPropertyOp3
 70
     1
102
RTVSPropertyOp4
 70
     1
102
RTVSPropertyOp5
 70
     1
102
RTVSPropertyOp6
 70
     1
102
RTVSPropertyOp7
 70
     1
102
RTVSPropertyOp8
 70
     1
102
RTVSPropertyOp9
 70
     1
102
RTVSPropertyOp10
 70
     1
102
RTVSPropertyOp11
 70
     1
102
RTVSPropertyOp12
 70
     1
102
RTVSPropertyOp13
 70
     1
102
RTVSPropertyOp14
 70
     1
102
RTVSPropertyOp15
 70
     1
102
RTVSPropertyOp16
 70
     1
102
RTVSPropertyOp17
 70
     1
102
RTVSPropertyOp18
 70
     1
102
RTVSPropertyOp19
 70
     1
102
RTVSPropertyOp20
 70
     1
102
RTVSPropertyOp21
 70
     1
102
RTVSPropertyOp22
 70
     1
102
RTVSPropertyOp23
 70
     1
102
RTVSPropertyOp24
 70
     1
102
RTVSPropertyOp25
 70
     1
102
RTVSPropertyOp26
 70
     1
102
RTVSPropertyOp27
 70
     1
102
RTVSPropertyOp28
 70
     1
102
RTVSPropertyOp29
 70
     1
102
RTVSPropertyOp30
 70
     1
102
RTVSPropertyOp31
 70
     1
102
RTVSPropertyOp32
 70
     1
102
RTVSPropertyOp33
 70
     1
102
RTVSPropertyOp34
 70
     1
102
RTVSPropertyOp35
 70
     1
102
RTVSPropertyOp36
 70
     1
102
RTVSPropertyOp37
 70
     1
102
RTVSPropertyOp38
 70
     1
102
RTVSPropertyOp39
 70
     1
102
RTVSPropertyOp40
 70
     1
102
RTVSPropertyOp41
 70
     1
102
RTVSPropertyOp42
 70
     1
102
RTVSPropertyOp43
 70
     1
102
RTVSPropertyOp44
 70
     1
102
RTVSPropertyOp45
 70
     1
102
RTVSPropertyOp46
 70
     1
102
RTVSPropertyOp47
 70
     1
102
RTVSPropertyOp48
 70
     1
102
RTVSPropertyOp49
 70
     1
102
RTVSPropertyOp50
 70
     1
102
RTVSPropertyOp51
 70
     0
102
RTVSPropertyOp52
 70
     0
102
RTVSPropertyOp53
 70
     1
102
RTVSPropertyOp54
 70
     1
102
RTVSPropertyOp55
 70
     1
102
RTVSPropertyOp56
 70
     1
102
RTVSPropertyOp57
 70
     1
102
RTVSPropertyOp58
 70
     1
102
RTVSPropertyOp59
 70
     1
102
RTVSPropertyOp60
 70
     1
102
RTVSPropertyOp61
 70
     1
102
RTVSPropertyOp62
 70
     1
  0
XRECORD
  5
CB6A
102
{ACAD_REACTORS
330
CB69
102
}
330
CB69
100
AcDbXrecord
280
     1
102
RTVSPost2010Prop28
280
     0
102
RTVSPost2010PropOp28
 70
     1
102
RTVSPost2010Prop29
280
     1
102
RTVSPost2010PropOp29
 70
     1
102
RTVSPost2010Prop30
280
     1
102
RTVSPost2010PropOp30
 70
     1
102
RTVSPost2010Prop31
280
     0
102
RTVSPost2010PropOp31
 70
     1
102
RTVSPost2010Prop32
280
     0
102
RTVSPost2010PropOp32
 70
     1
102
RTVSPost2010Prop33
280
     0
102
RTVSPost2010PropOp33
 70
     1
102
RTVSPost2010Prop34
280
     0
102
RTVSPost2010PropOp34
 70
     1
102
RTVSPost2010Prop35
280
     0
102
RTVSPost2010PropOp35
 70
     1
102
RTVSPost2010Prop36
280
     0
102
RTVSPost2010PropOp36
 70
     1
102
RTVSPost2010Prop37
 90
       50
102
RTVSPost2010PropOp37
 70
     0
102
RTVSPost2010Prop38
140
0.0
102
RTVSPost2010PropOp38
 70
     0
102
RTVSPost2010Prop39
140
1.0
102
RTVSPost2010PropOp39
 70
     0
102
RTVSPost2010Prop40
 90
        0
102
RTVSPost2010PropOp40
 70
     0
102
RTVSPost2010Prop41ColorIndex
 90
       18
102
RTVSPost2010Prop41ColorRGB
 90
        0
102
RTVSPost2010PropOp41
 70
     0
102
RTVSPost2010Prop42
 90
       50
102
RTVSPost2010PropOp42
 70
     0
102
RTVSPost2010Prop43
 90
        3
102
RTVSPost2010PropOp43
 70
     0
102
RTVSPost2010Prop44ColorIndex
 90
        5
102
RTVSPost2010Prop44ColorRGB
 90
      255
102
RTVSPost2010PropOp44
 70
     0
102
RTVSPost2010Prop45
280
     0
102
RTVSPost2010PropOp45
 70
     1
102
RTVSPost2010Prop46
 90
       50
102
RTVSPost2010PropOp46
 70
     0
102
RTVSPost2010Prop47
 90
       50
102
RTVSPost2010PropOp47
 70
     0
102
RTVSPost2010Prop48
 90
       50
102
RTVSPost2010PropOp48
 70
     0
102
RTVSPost2010Prop49
280
     0
102
RTVSPost2010PropOp49
 70
     1
102
RTVSPost2010Prop50
 90
       50
102
RTVSPost2010PropOp50
 70
     0
102
RTVSPost2010Prop51ColorIndex
 90
      256
102
RTVSPost2010Prop51ColorRGB
 90
-16777216
102
RTVSPost2010PropOp51
 70
     0
102
RTVSPost2010Prop52
140
1.0
102
RTVSPost2010PropOp52
 70
     0
102
RTVSPost2010Prop53
 90
        2
102
RTVSPost2010PropOp53
 70
     0
102
RTVSPost2010Prop54
  1
strokes_ogs.tif
102
RTVSPost2010PropOp54
 70
     0
102
RTVSPost2010Prop55
280
     0
102
RTVSPost2010PropOp55
 70
     1
102
RTVSPost2010Prop56
140
1.0
102
RTVSPost2010PropOp56
 70
     0
102
RTVSPost2010Prop57
140
1.0
102
RTVSPost2010PropOp57
 70
     0
102
RTVSPropertyOp0
 70
     0
102
RTVSPropertyOp1
 70
     0
102
RTVSPropertyOp2
 70
     0
102
RTVSPropertyOp3
 70
     0
102
RTVSPropertyOp4
 70
     0
102
RTVSPropertyOp5
 70
     0
102
RTVSPropertyOp6
 70
     0
102
RTVSPropertyOp7
 70
     0
102
RTVSPropertyOp8
 70
     0
102
RTVSPropertyOp9
 70
     0
102
RTVSPropertyOp10
 70
     0
102
RTVSPropertyOp11
 70
     0
102
RTVSPropertyOp12
 70
     0
102
RTVSPropertyOp13
 70
     0
102
RTVSPropertyOp14
 70
     2
102
RTVSPropertyOp15
 70
     0
102
RTVSPropertyOp16
 70
     0
102
RTVSPropertyOp17
 70
     0
102
RTVSPropertyOp18
 70
     0
102
RTVSPropertyOp19
 70
     0
102
RTVSPropertyOp20
 70
     0
102
RTVSPropertyOp21
 70
     0
102
RTVSPropertyOp22
 70
     0
102
RTVSPropertyOp23
 70
     0
102
RTVSPropertyOp24
 70
     0
102
RTVSPropertyOp25
 70
     0
102
RTVSPropertyOp26
 70
     0
102
RTVSPropertyOp27
 70
     0
102
RTVSPropertyOp28
 70
     1
102
RTVSPropertyOp29
 70
     1
102
RTVSPropertyOp30
 70
     1
102
RTVSPropertyOp31
 70
     1
102
RTVSPropertyOp32
 70
     1
102
RTVSPropertyOp33
 70
     1
102
RTVSPropertyOp34
 70
     1
102
RTVSPropertyOp35
 70
     1
102
RTVSPropertyOp36
 70
     1
102
RTVSPropertyOp37
 70
     0
102
RTVSPropertyOp38
 70
     0
102
RTVSPropertyOp39
 70
     0
102
RTVSPropertyOp40
 70
     0
102
RTVSPropertyOp41
 70
     0
102
RTVSPropertyOp42
 70
     0
102
RTVSPropertyOp43
 70
     0
102
RTVSPropertyOp44
 70
     0
102
RTVSPropertyOp45
 70
     1
102
RTVSPropertyOp46
 70
     0
102
RTVSPropertyOp47
 70
     0
102
RTVSPropertyOp48
 70
     0
102
RTVSPropertyOp49
 70
     1
102
RTVSPropertyOp50
 70
     0
102
RTVSPropertyOp51
 70
     0
102
RTVSPropertyOp52
 70
     0
102
RTVSPropertyOp53
 70
     0
102
RTVSPropertyOp54
 70
     0
102
RTVSPropertyOp55
 70
     1
102
RTVSPropertyOp56
 70
     0
102
RTVSPropertyOp57
 70
     0
102
RTVSPropertyOp58
 70
     0
102
RTVSPropertyOp59
 70
     0
102
RTVSPropertyOp60
 70
     0
102
RTVSPropertyOp61
 70
     0
102
RTVSPropertyOp62
 70
     0
  0
XRECORD
  5
CB50
102
{ACAD_REACTORS
330
CB4F
102
}
330
CB4F
100
AcDbXrecord
280
     1
102
RTVSPost2010Prop28
280
     0
102
RTVSPost2010PropOp28
 70
     1
102
RTVSPost2010Prop29
280
     1
102
RTVSPost2010PropOp29
 70
     1
102
RTVSPost2010Prop30
280
     1
102
RTVSPost2010PropOp30
 70
     1
102
RTVSPost2010Prop31
280
     0
102
RTVSPost2010PropOp31
 70
     1
102
RTVSPost2010Prop32
280
     0
102
RTVSPost2010PropOp32
 70
     1
102
RTVSPost2010Prop33
280
     0
102
RTVSPost2010PropOp33
 70
     1
102
RTVSPost2010Prop34
280
     0
102
RTVSPost2010PropOp34
 70
     1
102
RTVSPost2010Prop35
280
     0
102
RTVSPost2010PropOp35
 70
     1
102
RTVSPost2010Prop36
280
     0
102
RTVSPost2010PropOp36
 70
     1
102
RTVSPost2010Prop37
 90
       50
102
RTVSPost2010PropOp37
 70
     1
102
RTVSPost2010Prop38
140
0.0
102
RTVSPost2010PropOp38
 70
     1
102
RTVSPost2010Prop39
140
1.0
102
RTVSPost2010PropOp39
 70
     1
102
RTVSPost2010Prop40
 90
        0
102
RTVSPost2010PropOp40
 70
     1
102
RTVSPost2010Prop41ColorIndex
 90
       18
102
RTVSPost2010Prop41ColorRGB
 90
        0
102
RTVSPost2010PropOp41
 70
     1
102
RTVSPost2010Prop42
 90
       50
102
RTVSPost2010PropOp42
 70
     1
102
RTVSPost2010Prop43
 90
        3
102
RTVSPost2010PropOp43
 70
     1
102
RTVSPost2010Prop44ColorIndex
 90
        5
102
RTVSPost2010Prop44ColorRGB
 90
      255
102
RTVSPost2010PropOp44
 70
     1
102
RTVSPost2010Prop45
280
     0
102
RTVSPost2010PropOp45
 70
     1
102
RTVSPost2010Prop46
 90
       50
102
RTVSPost2010PropOp46
 70
     1
102
RTVSPost2010Prop47
 90
       50
102
RTVSPost2010PropOp47
 70
     1
102
RTVSPost2010Prop48
 90
       50
102
RTVSPost2010PropOp48
 70
     1
102
RTVSPost2010Prop49
280
     0
102
RTVSPost2010PropOp49
 70
     1
102
RTVSPost2010Prop50
 90
       50
102
RTVSPost2010PropOp50
 70
     1
102
RTVSPost2010Prop51ColorIndex
 90
      256
102
RTVSPost2010Prop51ColorRGB
 90
-16777216
102
RTVSPost2010PropOp51
 70
     0
102
RTVSPost2010Prop52
140
1.0
102
RTVSPost2010PropOp52
 70
     0
102
RTVSPost2010Prop53
 90
        2
102
RTVSPost2010PropOp53
 70
     1
102
RTVSPost2010Prop54
  1
strokes_ogs.tif
102
RTVSPost2010PropOp54
 70
     1
102
RTVSPost2010Prop55
280
     0
102
RTVSPost2010PropOp55
 70
     1
102
RTVSPost2010Prop56
140
1.0
102
RTVSPost2010PropOp56
 70
     1
102
RTVSPost2010Prop57
140
1.0
102
RTVSPost2010PropOp57
 70
     1
102
RTVSPropertyOp0
 70
     1
102
RTVSPropertyOp1
 70
     1
102
RTVSPropertyOp2
 70
     1
102
RTVSPropertyOp3
 70
     1
102
RTVSPropertyOp4
 70
     1
102
RTVSPropertyOp5
 70
     1
102
RTVSPropertyOp6
 70
     1
102
RTVSPropertyOp7
 70
     1
102
RTVSPropertyOp8
 70
     1
102
RTVSPropertyOp9
 70
     1
102
RTVSPropertyOp10
 70
     1
102
RTVSPropertyOp11
 70
     1
102
RTVSPropertyOp12
 70
     1
102
RTVSPropertyOp13
 70
     1
102
RTVSPropertyOp14
 70
     1
102
RTVSPropertyOp15
 70
     1
102
RTVSPropertyOp16
 70
     1
102
RTVSPropertyOp17
 70
     1
102
RTVSPropertyOp18
 70
     1
102
RTVSPropertyOp19
 70
     1
102
RTVSPropertyOp20
 70
     1
102
RTVSPropertyOp21
 70
     1
102
RTVSPropertyOp22
 70
     1
102
RTVSPropertyOp23
 70
     1
102
RTVSPropertyOp24
 70
     1
102
RTVSPropertyOp25
 70
     1
102
RTVSPropertyOp26
 70
     1
102
RTVSPropertyOp27
 70
     1
102
RTVSPropertyOp28
 70
     1
102
RTVSPropertyOp29
 70
     1
102
RTVSPropertyOp30
 70
     1
102
RTVSPropertyOp31
 70
     1
102
RTVSPropertyOp32
 70
     1
102
RTVSPropertyOp33
 70
     1
102
RTVSPropertyOp34
 70
     1
102
RTVSPropertyOp35
 70
     1
102
RTVSPropertyOp36
 70
     1
102
RTVSPropertyOp37
 70
     1
102
RTVSPropertyOp38
 70
     1
102
RTVSPropertyOp39
 70
     1
102
RTVSPropertyOp40
 70
     1
102
RTVSPropertyOp41
 70
     1
102
RTVSPropertyOp42
 70
     1
102
RTVSPropertyOp43
 70
     1
102
RTVSPropertyOp44
 70
     1
102
RTVSPropertyOp45
 70
     1
102
RTVSPropertyOp46
 70
     1
102
RTVSPropertyOp47
 70
     1
102
RTVSPropertyOp48
 70
     1
102
RTVSPropertyOp49
 70
     1
102
RTVSPropertyOp50
 70
     1
102
RTVSPropertyOp51
 70
     0
102
RTVSPropertyOp52
 70
     0
102
RTVSPropertyOp53
 70
     1
102
RTVSPropertyOp54
 70
     1
102
RTVSPropertyOp55
 70
     1
102
RTVSPropertyOp56
 70
     1
102
RTVSPropertyOp57
 70
     1
102
RTVSPropertyOp58
 70
     1
102
RTVSPropertyOp59
 70
     1
102
RTVSPropertyOp60
 70
     1
102
RTVSPropertyOp61
 70
     1
102
RTVSPropertyOp62
 70
     1
  0
XRECORD
  5
CB66
102
{ACAD_REACTORS
330
CB65
102
}
330
CB65
100
AcDbXrecord
280
     1
102
RTVSPost2010Prop28
280
     0
102
RTVSPost2010PropOp28
 70
     1
102
RTVSPost2010Prop29
280
     1
102
RTVSPost2010PropOp29
 70
     1
102
RTVSPost2010Prop30
280
     1
102
RTVSPost2010PropOp30
 70
     1
102
RTVSPost2010Prop31
280
     0
102
RTVSPost2010PropOp31
 70
     1
102
RTVSPost2010Prop32
280
     0
102
RTVSPost2010PropOp32
 70
     1
102
RTVSPost2010Prop33
280
     0
102
RTVSPost2010PropOp33
 70
     1
102
RTVSPost2010Prop34
280
     0
102
RTVSPost2010PropOp34
 70
     1
102
RTVSPost2010Prop35
280
     0
102
RTVSPost2010PropOp35
 70
     1
102
RTVSPost2010Prop36
280
     0
102
RTVSPost2010PropOp36
 70
     1
102
RTVSPost2010Prop37
 90
       50
102
RTVSPost2010PropOp37
 70
     1
102
RTVSPost2010Prop38
140
0.0
102
RTVSPost2010PropOp38
 70
     1
102
RTVSPost2010Prop39
140
1.0
102
RTVSPost2010PropOp39
 70
     1
102
RTVSPost2010Prop40
 90
        0
102
RTVSPost2010PropOp40
 70
     1
102
RTVSPost2010Prop41ColorIndex
 90
       18
102
RTVSPost2010Prop41ColorRGB
 90
        0
102
RTVSPost2010PropOp41
 70
     1
102
RTVSPost2010Prop42
 90
       50
102
RTVSPost2010PropOp42
 70
     1
102
RTVSPost2010Prop43
 90
        3
102
RTVSPost2010PropOp43
 70
     1
102
RTVSPost2010Prop44ColorIndex
 90
        5
102
RTVSPost2010Prop44ColorRGB
 90
      255
102
RTVSPost2010PropOp44
 70
     1
102
RTVSPost2010Prop45
280
     0
102
RTVSPost2010PropOp45
 70
     1
102
RTVSPost2010Prop46
 90
       50
102
RTVSPost2010PropOp46
 70
     1
102
RTVSPost2010Prop47
 90
       50
102
RTVSPost2010PropOp47
 70
     1
102
RTVSPost2010Prop48
 90
       50
102
RTVSPost2010PropOp48
 70
     1
102
RTVSPost2010Prop49
280
     0
102
RTVSPost2010PropOp49
 70
     1
102
RTVSPost2010Prop50
 90
       50
102
RTVSPost2010PropOp50
 70
     1
102
RTVSPost2010Prop51ColorIndex
 90
      256
102
RTVSPost2010Prop51ColorRGB
 90
-16777216
102
RTVSPost2010PropOp51
 70
     0
102
RTVSPost2010Prop52
140
1.0
102
RTVSPost2010PropOp52
 70
     0
102
RTVSPost2010Prop53
 90
        2
102
RTVSPost2010PropOp53
 70
     1
102
RTVSPost2010Prop54
  1
strokes_ogs.tif
102
RTVSPost2010PropOp54
 70
     1
102
RTVSPost2010Prop55
280
     0
102
RTVSPost2010PropOp55
 70
     1
102
RTVSPost2010Prop56
140
1.0
102
RTVSPost2010PropOp56
 70
     1
102
RTVSPost2010Prop57
140
1.0
102
RTVSPost2010PropOp57
 70
     1
102
RTVSPropertyOp0
 70
     1
102
RTVSPropertyOp1
 70
     1
102
RTVSPropertyOp2
 70
     1
102
RTVSPropertyOp3
 70
     1
102
RTVSPropertyOp4
 70
     1
102
RTVSPropertyOp5
 70
     1
102
RTVSPropertyOp6
 70
     1
102
RTVSPropertyOp7
 70
     1
102
RTVSPropertyOp8
 70
     1
102
RTVSPropertyOp9
 70
     1
102
RTVSPropertyOp10
 70
     1
102
RTVSPropertyOp11
 70
     1
102
RTVSPropertyOp12
 70
     1
102
RTVSPropertyOp13
 70
     1
102
RTVSPropertyOp14
 70
     1
102
RTVSPropertyOp15
 70
     1
102
RTVSPropertyOp16
 70
     1
102
RTVSPropertyOp17
 70
     1
102
RTVSPropertyOp18
 70
     1
102
RTVSPropertyOp19
 70
     1
102
RTVSPropertyOp20
 70
     1
102
RTVSPropertyOp21
 70
     1
102
RTVSPropertyOp22
 70
     1
102
RTVSPropertyOp23
 70
     1
102
RTVSPropertyOp24
 70
     1
102
RTVSPropertyOp25
 70
     1
102
RTVSPropertyOp26
 70
     1
102
RTVSPropertyOp27
 70
     1
102
RTVSPropertyOp28
 70
     1
102
RTVSPropertyOp29
 70
     1
102
RTVSPropertyOp30
 70
     1
102
RTVSPropertyOp31
 70
     1
102
RTVSPropertyOp32
 70
     1
102
RTVSPropertyOp33
 70
     1
102
RTVSPropertyOp34
 70
     1
102
RTVSPropertyOp35
 70
     1
102
RTVSPropertyOp36
 70
     1
102
RTVSPropertyOp37
 70
     1
102
RTVSPropertyOp38
 70
     1
102
RTVSPropertyOp39
 70
     1
102
RTVSPropertyOp40
 70
     1
102
RTVSPropertyOp41
 70
     1
102
RTVSPropertyOp42
 70
     1
102
RTVSPropertyOp43
 70
     1
102
RTVSPropertyOp44
 70
     1
102
RTVSPropertyOp45
 70
     1
102
RTVSPropertyOp46
 70
     1
102
RTVSPropertyOp47
 70
     1
102
RTVSPropertyOp48
 70
     1
102
RTVSPropertyOp49
 70
     1
102
RTVSPropertyOp50
 70
     1
102
RTVSPropertyOp51
 70
     0
102
RTVSPropertyOp52
 70
     0
102
RTVSPropertyOp53
 70
     1
102
RTVSPropertyOp54
 70
     1
102
RTVSPropertyOp55
 70
     1
102
RTVSPropertyOp56
 70
     1
102
RTVSPropertyOp57
 70
     1
102
RTVSPropertyOp58
 70
     1
102
RTVSPropertyOp59
 70
     1
102
RTVSPropertyOp60
 70
     1
102
RTVSPropertyOp61
 70
     1
102
RTVSPropertyOp62
 70
     1
  0
XRECORD
  5
CB64
102
{ACAD_REACTORS
330
CB63
102
}
330
CB63
100
AcDbXrecord
280
     1
102
RTVSPost2010Prop28
280
     0
102
RTVSPost2010PropOp28
 70
     1
102
RTVSPost2010Prop29
280
     1
102
RTVSPost2010PropOp29
 70
     1
102
RTVSPost2010Prop30
280
     1
102
RTVSPost2010PropOp30
 70
     1
102
RTVSPost2010Prop31
280
     0
102
RTVSPost2010PropOp31
 70
     1
102
RTVSPost2010Prop32
280
     0
102
RTVSPost2010PropOp32
 70
     1
102
RTVSPost2010Prop33
280
     0
102
RTVSPost2010PropOp33
 70
     1
102
RTVSPost2010Prop34
280
     0
102
RTVSPost2010PropOp34
 70
     1
102
RTVSPost2010Prop35
280
     0
102
RTVSPost2010PropOp35
 70
     1
102
RTVSPost2010Prop36
280
     0
102
RTVSPost2010PropOp36
 70
     1
102
RTVSPost2010Prop37
 90
       50
102
RTVSPost2010PropOp37
 70
     1
102
RTVSPost2010Prop38
140
0.0
102
RTVSPost2010PropOp38
 70
     1
102
RTVSPost2010Prop39
140
1.0
102
RTVSPost2010PropOp39
 70
     1
102
RTVSPost2010Prop40
 90
        0
102
RTVSPost2010PropOp40
 70
     1
102
RTVSPost2010Prop41ColorIndex
 90
       18
102
RTVSPost2010Prop41ColorRGB
 90
        0
102
RTVSPost2010PropOp41
 70
     1
102
RTVSPost2010Prop42
 90
       50
102
RTVSPost2010PropOp42
 70
     1
102
RTVSPost2010Prop43
 90
        3
102
RTVSPost2010PropOp43
 70
     1
102
RTVSPost2010Prop44ColorIndex
 90
        5
102
RTVSPost2010Prop44ColorRGB
 90
      255
102
RTVSPost2010PropOp44
 70
     1
102
RTVSPost2010Prop45
280
     0
102
RTVSPost2010PropOp45
 70
     1
102
RTVSPost2010Prop46
 90
       50
102
RTVSPost2010PropOp46
 70
     1
102
RTVSPost2010Prop47
 90
       50
102
RTVSPost2010PropOp47
 70
     1
102
RTVSPost2010Prop48
 90
       50
102
RTVSPost2010PropOp48
 70
     1
102
RTVSPost2010Prop49
280
     0
102
RTVSPost2010PropOp49
 70
     1
102
RTVSPost2010Prop50
 90
       50
102
RTVSPost2010PropOp50
 70
     1
102
RTVSPost2010Prop51ColorIndex
 90
      256
102
RTVSPost2010Prop51ColorRGB
 90
-16777216
102
RTVSPost2010PropOp51
 70
     0
102
RTVSPost2010Prop52
140
1.0
102
RTVSPost2010PropOp52
 70
     0
102
RTVSPost2010Prop53
 90
        2
102
RTVSPost2010PropOp53
 70
     1
102
RTVSPost2010Prop54
  1
strokes_ogs.tif
102
RTVSPost2010PropOp54
 70
     1
102
RTVSPost2010Prop55
280
     0
102
RTVSPost2010PropOp55
 70
     1
102
RTVSPost2010Prop56
140
1.0
102
RTVSPost2010PropOp56
 70
     1
102
RTVSPost2010Prop57
140
1.0
102
RTVSPost2010PropOp57
 70
     1
102
RTVSPropertyOp0
 70
     1
102
RTVSPropertyOp1
 70
     1
102
RTVSPropertyOp2
 70
     1
102
RTVSPropertyOp3
 70
     1
102
RTVSPropertyOp4
 70
     1
102
RTVSPropertyOp5
 70
     1
102
RTVSPropertyOp6
 70
     1
102
RTVSPropertyOp7
 70
     1
102
RTVSPropertyOp8
 70
     1
102
RTVSPropertyOp9
 70
     1
102
RTVSPropertyOp10
 70
     1
102
RTVSPropertyOp11
 70
     1
102
RTVSPropertyOp12
 70
     1
102
RTVSPropertyOp13
 70
     1
102
RTVSPropertyOp14
 70
     1
102
RTVSPropertyOp15
 70
     1
102
RTVSPropertyOp16
 70
     1
102
RTVSPropertyOp17
 70
     1
102
RTVSPropertyOp18
 70
     1
102
RTVSPropertyOp19
 70
     1
102
RTVSPropertyOp20
 70
     1
102
RTVSPropertyOp21
 70
     1
102
RTVSPropertyOp22
 70
     1
102
RTVSPropertyOp23
 70
     1
102
RTVSPropertyOp24
 70
     1
102
RTVSPropertyOp25
 70
     1
102
RTVSPropertyOp26
 70
     1
102
RTVSPropertyOp27
 70
     1
102
RTVSPropertyOp28
 70
     1
102
RTVSPropertyOp29
 70
     1
102
RTVSPropertyOp30
 70
     1
102
RTVSPropertyOp31
 70
     1
102
RTVSPropertyOp32
 70
     1
102
RTVSPropertyOp33
 70
     1
102
RTVSPropertyOp34
 70
     1
102
RTVSPropertyOp35
 70
     1
102
RTVSPropertyOp36
 70
     1
102
RTVSPropertyOp37
 70
     1
102
RTVSPropertyOp38
 70
     1
102
RTVSPropertyOp39
 70
     1
102
RTVSPropertyOp40
 70
     1
102
RTVSPropertyOp41
 70
     1
102
RTVSPropertyOp42
 70
     1
102
RTVSPropertyOp43
 70
     1
102
RTVSPropertyOp44
 70
     1
102
RTVSPropertyOp45
 70
     1
102
RTVSPropertyOp46
 70
     1
102
RTVSPropertyOp47
 70
     1
102
RTVSPropertyOp48
 70
     1
102
RTVSPropertyOp49
 70
     1
102
RTVSPropertyOp50
 70
     1
102
RTVSPropertyOp51
 70
     0
102
RTVSPropertyOp52
 70
     0
102
RTVSPropertyOp53
 70
     1
102
RTVSPropertyOp54
 70
     1
102
RTVSPropertyOp55
 70
     1
102
RTVSPropertyOp56
 70
     1
102
RTVSPropertyOp57
 70
     1
102
RTVSPropertyOp58
 70
     1
102
RTVSPropertyOp59
 70
     1
102
RTVSPropertyOp60
 70
     1
102
RTVSPropertyOp61
 70
     1
102
RTVSPropertyOp62
 70
     1
  0
XRECORD
  5
CB5E
102
{ACAD_REACTORS
330
CB5D
102
}
330
CB5D
100
AcDbXrecord
280
     1
102
RTVSPost2010Prop28
280
     0
102
RTVSPost2010PropOp28
 70
     1
102
RTVSPost2010Prop29
280
     1
102
RTVSPost2010PropOp29
 70
     1
102
RTVSPost2010Prop30
280
     1
102
RTVSPost2010PropOp30
 70
     1
102
RTVSPost2010Prop31
280
     0
102
RTVSPost2010PropOp31
 70
     1
102
RTVSPost2010Prop32
280
     0
102
RTVSPost2010PropOp32
 70
     1
102
RTVSPost2010Prop33
280
     0
102
RTVSPost2010PropOp33
 70
     1
102
RTVSPost2010Prop34
280
     0
102
RTVSPost2010PropOp34
 70
     1
102
RTVSPost2010Prop35
280
     0
102
RTVSPost2010PropOp35
 70
     1
102
RTVSPost2010Prop36
280
     0
102
RTVSPost2010PropOp36
 70
     1
102
RTVSPost2010Prop37
 90
       50
102
RTVSPost2010PropOp37
 70
     1
102
RTVSPost2010Prop38
140
0.0
102
RTVSPost2010PropOp38
 70
     1
102
RTVSPost2010Prop39
140
1.0
102
RTVSPost2010PropOp39
 70
     1
102
RTVSPost2010Prop40
 90
        0
102
RTVSPost2010PropOp40
 70
     1
102
RTVSPost2010Prop41ColorIndex
 90
       18
102
RTVSPost2010Prop41ColorRGB
 90
        0
102
RTVSPost2010PropOp41
 70
     1
102
RTVSPost2010Prop42
 90
       50
102
RTVSPost2010PropOp42
 70
     1
102
RTVSPost2010Prop43
 90
        3
102
RTVSPost2010PropOp43
 70
     1
102
RTVSPost2010Prop44ColorIndex
 90
        5
102
RTVSPost2010Prop44ColorRGB
 90
      255
102
RTVSPost2010PropOp44
 70
     1
102
RTVSPost2010Prop45
280
     0
102
RTVSPost2010PropOp45
 70
     1
102
RTVSPost2010Prop46
 90
       50
102
RTVSPost2010PropOp46
 70
     1
102
RTVSPost2010Prop47
 90
       50
102
RTVSPost2010PropOp47
 70
     1
102
RTVSPost2010Prop48
 90
       50
102
RTVSPost2010PropOp48
 70
     1
102
RTVSPost2010Prop49
280
     0
102
RTVSPost2010PropOp49
 70
     1
102
RTVSPost2010Prop50
 90
       50
102
RTVSPost2010PropOp50
 70
     1
102
RTVSPost2010Prop51ColorIndex
 90
      256
102
RTVSPost2010Prop51ColorRGB
 90
-16777216
102
RTVSPost2010PropOp51
 70
     0
102
RTVSPost2010Prop52
140
1.0
102
RTVSPost2010PropOp52
 70
     0
102
RTVSPost2010Prop53
 90
        2
102
RTVSPost2010PropOp53
 70
     1
102
RTVSPost2010Prop54
  1
strokes_ogs.tif
102
RTVSPost2010PropOp54
 70
     1
102
RTVSPost2010Prop55
280
     0
102
RTVSPost2010PropOp55
 70
     1
102
RTVSPost2010Prop56
140
1.0
102
RTVSPost2010PropOp56
 70
     1
102
RTVSPost2010Prop57
140
1.0
102
RTVSPost2010PropOp57
 70
     1
102
RTVSPropertyOp0
 70
     1
102
RTVSPropertyOp1
 70
     1
102
RTVSPropertyOp2
 70
     1
102
RTVSPropertyOp3
 70
     1
102
RTVSPropertyOp4
 70
     1
102
RTVSPropertyOp5
 70
     1
102
RTVSPropertyOp6
 70
     1
102
RTVSPropertyOp7
 70
     1
102
RTVSPropertyOp8
 70
     1
102
RTVSPropertyOp9
 70
     1
102
RTVSPropertyOp10
 70
     1
102
RTVSPropertyOp11
 70
     1
102
RTVSPropertyOp12
 70
     1
102
RTVSPropertyOp13
 70
     1
102
RTVSPropertyOp14
 70
     1
102
RTVSPropertyOp15
 70
     1
102
RTVSPropertyOp16
 70
     1
102
RTVSPropertyOp17
 70
     1
102
RTVSPropertyOp18
 70
     1
102
RTVSPropertyOp19
 70
     1
102
RTVSPropertyOp20
 70
     1
102
RTVSPropertyOp21
 70
     1
102
RTVSPropertyOp22
 70
     1
102
RTVSPropertyOp23
 70
     1
102
RTVSPropertyOp24
 70
     1
102
RTVSPropertyOp25
 70
     1
102
RTVSPropertyOp26
 70
     1
102
RTVSPropertyOp27
 70
     1
102
RTVSPropertyOp28
 70
     1
102
RTVSPropertyOp29
 70
     1
102
RTVSPropertyOp30
 70
     1
102
RTVSPropertyOp31
 70
     1
102
RTVSPropertyOp32
 70
     1
102
RTVSPropertyOp33
 70
     1
102
RTVSPropertyOp34
 70
     1
102
RTVSPropertyOp35
 70
     1
102
RTVSPropertyOp36
 70
     1
102
RTVSPropertyOp37
 70
     1
102
RTVSPropertyOp38
 70
     1
102
RTVSPropertyOp39
 70
     1
102
RTVSPropertyOp40
 70
     1
102
RTVSPropertyOp41
 70
     1
102
RTVSPropertyOp42
 70
     1
102
RTVSPropertyOp43
 70
     1
102
RTVSPropertyOp44
 70
     1
102
RTVSPropertyOp45
 70
     1
102
RTVSPropertyOp46
 70
     1
102
RTVSPropertyOp47
 70
     1
102
RTVSPropertyOp48
 70
     1
102
RTVSPropertyOp49
 70
     1
102
RTVSPropertyOp50
 70
     1
102
RTVSPropertyOp51
 70
     0
102
RTVSPropertyOp52
 70
     0
102
RTVSPropertyOp53
 70
     1
102
RTVSPropertyOp54
 70
     1
102
RTVSPropertyOp55
 70
     1
102
RTVSPropertyOp56
 70
     1
102
RTVSPropertyOp57
 70
     1
102
RTVSPropertyOp58
 70
     1
102
RTVSPropertyOp59
 70
     1
102
RTVSPropertyOp60
 70
     1
102
RTVSPropertyOp61
 70
     1
102
RTVSPropertyOp62
 70
     1
  0
XRECORD
  5
CB60
102
{ACAD_REACTORS
330
CB5F
102
}
330
CB5F
100
AcDbXrecord
280
     1
102
RTVSPost2010Prop28
280
     0
102
RTVSPost2010PropOp28
 70
     1
102
RTVSPost2010Prop29
280
     1
102
RTVSPost2010PropOp29
 70
     1
102
RTVSPost2010Prop30
280
     1
102
RTVSPost2010PropOp30
 70
     1
102
RTVSPost2010Prop31
280
     0
102
RTVSPost2010PropOp31
 70
     1
102
RTVSPost2010Prop32
280
     0
102
RTVSPost2010PropOp32
 70
     1
102
RTVSPost2010Prop33
280
     0
102
RTVSPost2010PropOp33
 70
     1
102
RTVSPost2010Prop34
280
     0
102
RTVSPost2010PropOp34
 70
     1
102
RTVSPost2010Prop35
280
     0
102
RTVSPost2010PropOp35
 70
     1
102
RTVSPost2010Prop36
280
     0
102
RTVSPost2010PropOp36
 70
     1
102
RTVSPost2010Prop37
 90
       50
102
RTVSPost2010PropOp37
 70
     1
102
RTVSPost2010Prop38
140
0.0
102
RTVSPost2010PropOp38
 70
     1
102
RTVSPost2010Prop39
140
1.0
102
RTVSPost2010PropOp39
 70
     1
102
RTVSPost2010Prop40
 90
        0
102
RTVSPost2010PropOp40
 70
     1
102
RTVSPost2010Prop41ColorIndex
 90
       18
102
RTVSPost2010Prop41ColorRGB
 90
        0
102
RTVSPost2010PropOp41
 70
     1
102
RTVSPost2010Prop42
 90
       50
102
RTVSPost2010PropOp42
 70
     1
102
RTVSPost2010Prop43
 90
        3
102
RTVSPost2010PropOp43
 70
     1
102
RTVSPost2010Prop44ColorIndex
 90
        5
102
RTVSPost2010Prop44ColorRGB
 90
      255
102
RTVSPost2010PropOp44
 70
     1
102
RTVSPost2010Prop45
280
     0
102
RTVSPost2010PropOp45
 70
     1
102
RTVSPost2010Prop46
 90
       50
102
RTVSPost2010PropOp46
 70
     1
102
RTVSPost2010Prop47
 90
       50
102
RTVSPost2010PropOp47
 70
     1
102
RTVSPost2010Prop48
 90
       50
102
RTVSPost2010PropOp48
 70
     1
102
RTVSPost2010Prop49
280
     0
102
RTVSPost2010PropOp49
 70
     1
102
RTVSPost2010Prop50
 90
       50
102
RTVSPost2010PropOp50
 70
     1
102
RTVSPost2010Prop51ColorIndex
 90
      256
102
RTVSPost2010Prop51ColorRGB
 90
-16777216
102
RTVSPost2010PropOp51
 70
     0
102
RTVSPost2010Prop52
140
1.0
102
RTVSPost2010PropOp52
 70
     0
102
RTVSPost2010Prop53
 90
        2
102
RTVSPost2010PropOp53
 70
     1
102
RTVSPost2010Prop54
  1
strokes_ogs.tif
102
RTVSPost2010PropOp54
 70
     1
102
RTVSPost2010Prop55
280
     0
102
RTVSPost2010PropOp55
 70
     1
102
RTVSPost2010Prop56
140
1.0
102
RTVSPost2010PropOp56
 70
     1
102
RTVSPost2010Prop57
140
1.0
102
RTVSPost2010PropOp57
 70
     1
102
RTVSPropertyOp0
 70
     1
102
RTVSPropertyOp1
 70
     1
102
RTVSPropertyOp2
 70
     1
102
RTVSPropertyOp3
 70
     1
102
RTVSPropertyOp4
 70
     1
102
RTVSPropertyOp5
 70
     1
102
RTVSPropertyOp6
 70
     1
102
RTVSPropertyOp7
 70
     1
102
RTVSPropertyOp8
 70
     1
102
RTVSPropertyOp9
 70
     1
102
RTVSPropertyOp10
 70
     1
102
RTVSPropertyOp11
 70
     1
102
RTVSPropertyOp12
 70
     1
102
RTVSPropertyOp13
 70
     1
102
RTVSPropertyOp14
 70
     1
102
RTVSPropertyOp15
 70
     1
102
RTVSPropertyOp16
 70
     1
102
RTVSPropertyOp17
 70
     1
102
RTVSPropertyOp18
 70
     1
102
RTVSPropertyOp19
 70
     1
102
RTVSPropertyOp20
 70
     1
102
RTVSPropertyOp21
 70
     1
102
RTVSPropertyOp22
 70
     1
102
RTVSPropertyOp23
 70
     1
102
RTVSPropertyOp24
 70
     1
102
RTVSPropertyOp25
 70
     1
102
RTVSPropertyOp26
 70
     1
102
RTVSPropertyOp27
 70
     1
102
RTVSPropertyOp28
 70
     1
102
RTVSPropertyOp29
 70
     1
102
RTVSPropertyOp30
 70
     1
102
RTVSPropertyOp31
 70
     1
102
RTVSPropertyOp32
 70
     1
102
RTVSPropertyOp33
 70
     1
102
RTVSPropertyOp34
 70
     1
102
RTVSPropertyOp35
 70
     1
102
RTVSPropertyOp36
 70
     1
102
RTVSPropertyOp37
 70
     1
102
RTVSPropertyOp38
 70
     1
102
RTVSPropertyOp39
 70
     1
102
RTVSPropertyOp40
 70
     1
102
RTVSPropertyOp41
 70
     1
102
RTVSPropertyOp42
 70
     1
102
RTVSPropertyOp43
 70
     1
102
RTVSPropertyOp44
 70
     1
102
RTVSPropertyOp45
 70
     1
102
RTVSPropertyOp46
 70
     1
102
RTVSPropertyOp47
 70
     1
102
RTVSPropertyOp48
 70
     1
102
RTVSPropertyOp49
 70
     1
102
RTVSPropertyOp50
 70
     1
102
RTVSPropertyOp51
 70
     0
102
RTVSPropertyOp52
 70
     0
102
RTVSPropertyOp53
 70
     1
102
RTVSPropertyOp54
 70
     1
102
RTVSPropertyOp55
 70
     1
102
RTVSPropertyOp56
 70
     1
102
RTVSPropertyOp57
 70
     1
102
RTVSPropertyOp58
 70
     1
102
RTVSPropertyOp59
 70
     1
102
RTVSPropertyOp60
 70
     1
102
RTVSPropertyOp61
 70
     1
102
RTVSPropertyOp62
 70
     1
  0
XRECORD
  5
CB56
102
{ACAD_REACTORS
330
CB55
102
}
330
CB55
100
AcDbXrecord
280
     1
102
RTVSPost2010Prop28
280
     0
102
RTVSPost2010PropOp28
 70
     1
102
RTVSPost2010Prop29
280
     1
102
RTVSPost2010PropOp29
 70
     1
102
RTVSPost2010Prop30
280
     1
102
RTVSPost2010PropOp30
 70
     1
102
RTVSPost2010Prop31
280
     0
102
RTVSPost2010PropOp31
 70
     1
102
RTVSPost2010Prop32
280
     0
102
RTVSPost2010PropOp32
 70
     1
102
RTVSPost2010Prop33
280
     0
102
RTVSPost2010PropOp33
 70
     1
102
RTVSPost2010Prop34
280
     0
102
RTVSPost2010PropOp34
 70
     1
102
RTVSPost2010Prop35
280
     0
102
RTVSPost2010PropOp35
 70
     1
102
RTVSPost2010Prop36
280
     0
102
RTVSPost2010PropOp36
 70
     1
102
RTVSPost2010Prop37
 90
       50
102
RTVSPost2010PropOp37
 70
     1
102
RTVSPost2010Prop38
140
0.0
102
RTVSPost2010PropOp38
 70
     1
102
RTVSPost2010Prop39
140
1.0
102
RTVSPost2010PropOp39
 70
     1
102
RTVSPost2010Prop40
 90
        0
102
RTVSPost2010PropOp40
 70
     1
102
RTVSPost2010Prop41ColorIndex
 90
       18
102
RTVSPost2010Prop41ColorRGB
 90
        0
102
RTVSPost2010PropOp41
 70
     1
102
RTVSPost2010Prop42
 90
       50
102
RTVSPost2010PropOp42
 70
     1
102
RTVSPost2010Prop43
 90
        3
102
RTVSPost2010PropOp43
 70
     1
102
RTVSPost2010Prop44ColorIndex
 90
        5
102
RTVSPost2010Prop44ColorRGB
 90
      255
102
RTVSPost2010PropOp44
 70
     1
102
RTVSPost2010Prop45
280
     0
102
RTVSPost2010PropOp45
 70
     1
102
RTVSPost2010Prop46
 90
       50
102
RTVSPost2010PropOp46
 70
     1
102
RTVSPost2010Prop47
 90
       50
102
RTVSPost2010PropOp47
 70
     1
102
RTVSPost2010Prop48
 90
       50
102
RTVSPost2010PropOp48
 70
     1
102
RTVSPost2010Prop49
280
     0
102
RTVSPost2010PropOp49
 70
     1
102
RTVSPost2010Prop50
 90
       50
102
RTVSPost2010PropOp50
 70
     1
102
RTVSPost2010Prop51ColorIndex
 90
      256
102
RTVSPost2010Prop51ColorRGB
 90
-16777216
102
RTVSPost2010PropOp51
 70
     0
102
RTVSPost2010Prop52
140
1.0
102
RTVSPost2010PropOp52
 70
     0
102
RTVSPost2010Prop53
 90
        2
102
RTVSPost2010PropOp53
 70
     1
102
RTVSPost2010Prop54
  1
strokes_ogs.tif
102
RTVSPost2010PropOp54
 70
     1
102
RTVSPost2010Prop55
280
     0
102
RTVSPost2010PropOp55
 70
     1
102
RTVSPost2010Prop56
140
1.0
102
RTVSPost2010PropOp56
 70
     1
102
RTVSPost2010Prop57
140
1.0
102
RTVSPost2010PropOp57
 70
     1
102
RTVSPropertyOp0
 70
     1
102
RTVSPropertyOp1
 70
     1
102
RTVSPropertyOp2
 70
     1
102
RTVSPropertyOp3
 70
     1
102
RTVSPropertyOp4
 70
     1
102
RTVSPropertyOp5
 70
     1
102
RTVSPropertyOp6
 70
     1
102
RTVSPropertyOp7
 70
     1
102
RTVSPropertyOp8
 70
     1
102
RTVSPropertyOp9
 70
     1
102
RTVSPropertyOp10
 70
     1
102
RTVSPropertyOp11
 70
     1
102
RTVSPropertyOp12
 70
     1
102
RTVSPropertyOp13
 70
     1
102
RTVSPropertyOp14
 70
     1
102
RTVSPropertyOp15
 70
     1
102
RTVSPropertyOp16
 70
     1
102
RTVSPropertyOp17
 70
     1
102
RTVSPropertyOp18
 70
     1
102
RTVSPropertyOp19
 70
     1
102
RTVSPropertyOp20
 70
     1
102
RTVSPropertyOp21
 70
     1
102
RTVSPropertyOp22
 70
     1
102
RTVSPropertyOp23
 70
     1
102
RTVSPropertyOp24
 70
     1
102
RTVSPropertyOp25
 70
     1
102
RTVSPropertyOp26
 70
     1
102
RTVSPropertyOp27
 70
     1
102
RTVSPropertyOp28
 70
     1
102
RTVSPropertyOp29
 70
     1
102
RTVSPropertyOp30
 70
     1
102
RTVSPropertyOp31
 70
     1
102
RTVSPropertyOp32
 70
     1
102
RTVSPropertyOp33
 70
     1
102
RTVSPropertyOp34
 70
     1
102
RTVSPropertyOp35
 70
     1
102
RTVSPropertyOp36
 70
     1
102
RTVSPropertyOp37
 70
     1
102
RTVSPropertyOp38
 70
     1
102
RTVSPropertyOp39
 70
     1
102
RTVSPropertyOp40
 70
     1
102
RTVSPropertyOp41
 70
     1
102
RTVSPropertyOp42
 70
     1
102
RTVSPropertyOp43
 70
     1
102
RTVSPropertyOp44
 70
     1
102
RTVSPropertyOp45
 70
     1
102
RTVSPropertyOp46
 70
     1
102
RTVSPropertyOp47
 70
     1
102
RTVSPropertyOp48
 70
     1
102
RTVSPropertyOp49
 70
     1
102
RTVSPropertyOp50
 70
     1
102
RTVSPropertyOp51
 70
     0
102
RTVSPropertyOp52
 70
     0
102
RTVSPropertyOp53
 70
     1
102
RTVSPropertyOp54
 70
     1
102
RTVSPropertyOp55
 70
     1
102
RTVSPropertyOp56
 70
     1
102
RTVSPropertyOp57
 70
     1
102
RTVSPropertyOp58
 70
     1
102
RTVSPropertyOp59
 70
     1
102
RTVSPropertyOp60
 70
     1
102
RTVSPropertyOp61
 70
     1
102
RTVSPropertyOp62
 70
     1
  0
XRECORD
  5
CB4A
102
{ACAD_REACTORS
330
CB49
102
}
330
CB49
100
AcDbXrecord
280
     1
102
RTVSPost2010Prop28
280
     0
102
RTVSPost2010PropOp28
 70
     1
102
RTVSPost2010Prop29
280
     1
102
RTVSPost2010PropOp29
 70
     1
102
RTVSPost2010Prop30
280
     1
102
RTVSPost2010PropOp30
 70
     1
102
RTVSPost2010Prop31
280
     0
102
RTVSPost2010PropOp31
 70
     1
102
RTVSPost2010Prop32
280
     0
102
RTVSPost2010PropOp32
 70
     1
102
RTVSPost2010Prop33
280
     0
102
RTVSPost2010PropOp33
 70
     1
102
RTVSPost2010Prop34
280
     0
102
RTVSPost2010PropOp34
 70
     1
102
RTVSPost2010Prop35
280
     0
102
RTVSPost2010PropOp35
 70
     1
102
RTVSPost2010Prop36
280
     0
102
RTVSPost2010PropOp36
 70
     1
102
RTVSPost2010Prop37
 90
       50
102
RTVSPost2010PropOp37
 70
     1
102
RTVSPost2010Prop38
140
0.0
102
RTVSPost2010PropOp38
 70
     1
102
RTVSPost2010Prop39
140
1.0
102
RTVSPost2010PropOp39
 70
     1
102
RTVSPost2010Prop40
 90
        0
102
RTVSPost2010PropOp40
 70
     1
102
RTVSPost2010Prop41ColorIndex
 90
       18
102
RTVSPost2010Prop41ColorRGB
 90
        0
102
RTVSPost2010PropOp41
 70
     1
102
RTVSPost2010Prop42
 90
       50
102
RTVSPost2010PropOp42
 70
     1
102
RTVSPost2010Prop43
 90
        3
102
RTVSPost2010PropOp43
 70
     1
102
RTVSPost2010Prop44ColorIndex
 90
        5
102
RTVSPost2010Prop44ColorRGB
 90
      255
102
RTVSPost2010PropOp44
 70
     1
102
RTVSPost2010Prop45
280
     0
102
RTVSPost2010PropOp45
 70
     1
102
RTVSPost2010Prop46
 90
       50
102
RTVSPost2010PropOp46
 70
     1
102
RTVSPost2010Prop47
 90
       50
102
RTVSPost2010PropOp47
 70
     1
102
RTVSPost2010Prop48
 90
       50
102
RTVSPost2010PropOp48
 70
     1
102
RTVSPost2010Prop49
280
     0
102
RTVSPost2010PropOp49
 70
     1
102
RTVSPost2010Prop50
 90
       50
102
RTVSPost2010PropOp50
 70
     1
102
RTVSPost2010Prop51ColorIndex
 90
      256
102
RTVSPost2010Prop51ColorRGB
 90
-16777216
102
RTVSPost2010PropOp51
 70
     0
102
RTVSPost2010Prop52
140
1.0
102
RTVSPost2010PropOp52
 70
     0
102
RTVSPost2010Prop53
 90
        2
102
RTVSPost2010PropOp53
 70
     1
102
RTVSPost2010Prop54
  1
strokes_ogs.tif
102
RTVSPost2010PropOp54
 70
     1
102
RTVSPost2010Prop55
280
     0
102
RTVSPost2010PropOp55
 70
     1
102
RTVSPost2010Prop56
140
1.0
102
RTVSPost2010PropOp56
 70
     1
102
RTVSPost2010Prop57
140
1.0
102
RTVSPost2010PropOp57
 70
     1
102
RTVSPropertyOp0
 70
     1
102
RTVSPropertyOp1
 70
     1
102
RTVSPropertyOp2
 70
     1
102
RTVSPropertyOp3
 70
     1
102
RTVSPropertyOp4
 70
     1
102
RTVSPropertyOp5
 70
     1
102
RTVSPropertyOp6
 70
     1
102
RTVSPropertyOp7
 70
     1
102
RTVSPropertyOp8
 70
     1
102
RTVSPropertyOp9
 70
     1
102
RTVSPropertyOp10
 70
     1
102
RTVSPropertyOp11
 70
     1
102
RTVSPropertyOp12
 70
     1
102
RTVSPropertyOp13
 70
     1
102
RTVSPropertyOp14
 70
     1
102
RTVSPropertyOp15
 70
     1
102
RTVSPropertyOp16
 70
     1
102
RTVSPropertyOp17
 70
     1
102
RTVSPropertyOp18
 70
     1
102
RTVSPropertyOp19
 70
     1
102
RTVSPropertyOp20
 70
     1
102
RTVSPropertyOp21
 70
     1
102
RTVSPropertyOp22
 70
     1
102
RTVSPropertyOp23
 70
     1
102
RTVSPropertyOp24
 70
     1
102
RTVSPropertyOp25
 70
     1
102
RTVSPropertyOp26
 70
     1
102
RTVSPropertyOp27
 70
     1
102
RTVSPropertyOp28
 70
     1
102
RTVSPropertyOp29
 70
     1
102
RTVSPropertyOp30
 70
     1
102
RTVSPropertyOp31
 70
     1
102
RTVSPropertyOp32
 70
     1
102
RTVSPropertyOp33
 70
     1
102
RTVSPropertyOp34
 70
     1
102
RTVSPropertyOp35
 70
     1
102
RTVSPropertyOp36
 70
     1
102
RTVSPropertyOp37
 70
     1
102
RTVSPropertyOp38
 70
     1
102
RTVSPropertyOp39
 70
     1
102
RTVSPropertyOp40
 70
     1
102
RTVSPropertyOp41
 70
     1
102
RTVSPropertyOp42
 70
     1
102
RTVSPropertyOp43
 70
     1
102
RTVSPropertyOp44
 70
     1
102
RTVSPropertyOp45
 70
     1
102
RTVSPropertyOp46
 70
     1
102
RTVSPropertyOp47
 70
     1
102
RTVSPropertyOp48
 70
     1
102
RTVSPropertyOp49
 70
     1
102
RTVSPropertyOp50
 70
     1
102
RTVSPropertyOp51
 70
     0
102
RTVSPropertyOp52
 70
     0
102
RTVSPropertyOp53
 70
     1
102
RTVSPropertyOp54
 70
     1
102
RTVSPropertyOp55
 70
     1
102
RTVSPropertyOp56
 70
     1
102
RTVSPropertyOp57
 70
     1
102
RTVSPropertyOp58
 70
     1
102
RTVSPropertyOp59
 70
     1
102
RTVSPropertyOp60
 70
     1
102
RTVSPropertyOp61
 70
     1
102
RTVSPropertyOp62
 70
     1
  0
XRECORD
  5
CB62
102
{ACAD_REACTORS
330
CB61
102
}
330
CB61
100
AcDbXrecord
280
     1
102
RTVSPost2010Prop28
280
     0
102
RTVSPost2010PropOp28
 70
     1
102
RTVSPost2010Prop29
280
     1
102
RTVSPost2010PropOp29
 70
     1
102
RTVSPost2010Prop30
280
     1
102
RTVSPost2010PropOp30
 70
     1
102
RTVSPost2010Prop31
280
     0
102
RTVSPost2010PropOp31
 70
     1
102
RTVSPost2010Prop32
280
     0
102
RTVSPost2010PropOp32
 70
     1
102
RTVSPost2010Prop33
280
     0
102
RTVSPost2010PropOp33
 70
     1
102
RTVSPost2010Prop34
280
     0
102
RTVSPost2010PropOp34
 70
     1
102
RTVSPost2010Prop35
280
     0
102
RTVSPost2010PropOp35
 70
     1
102
RTVSPost2010Prop36
280
     0
102
RTVSPost2010PropOp36
 70
     1
102
RTVSPost2010Prop37
 90
       50
102
RTVSPost2010PropOp37
 70
     1
102
RTVSPost2010Prop38
140
0.0
102
RTVSPost2010PropOp38
 70
     1
102
RTVSPost2010Prop39
140
1.0
102
RTVSPost2010PropOp39
 70
     1
102
RTVSPost2010Prop40
 90
        0
102
RTVSPost2010PropOp40
 70
     1
102
RTVSPost2010Prop41ColorIndex
 90
       18
102
RTVSPost2010Prop41ColorRGB
 90
        0
102
RTVSPost2010PropOp41
 70
     1
102
RTVSPost2010Prop42
 90
       50
102
RTVSPost2010PropOp42
 70
     1
102
RTVSPost2010Prop43
 90
        3
102
RTVSPost2010PropOp43
 70
     1
102
RTVSPost2010Prop44ColorIndex
 90
        5
102
RTVSPost2010Prop44ColorRGB
 90
      255
102
RTVSPost2010PropOp44
 70
     1
102
RTVSPost2010Prop45
280
     0
102
RTVSPost2010PropOp45
 70
     1
102
RTVSPost2010Prop46
 90
       50
102
RTVSPost2010PropOp46
 70
     1
102
RTVSPost2010Prop47
 90
       50
102
RTVSPost2010PropOp47
 70
     1
102
RTVSPost2010Prop48
 90
       50
102
RTVSPost2010PropOp48
 70
     1
102
RTVSPost2010Prop49
280
     0
102
RTVSPost2010PropOp49
 70
     1
102
RTVSPost2010Prop50
 90
       50
102
RTVSPost2010PropOp50
 70
     1
102
RTVSPost2010Prop51ColorIndex
 90
      256
102
RTVSPost2010Prop51ColorRGB
 90
-16777216
102
RTVSPost2010PropOp51
 70
     0
102
RTVSPost2010Prop52
140
1.0
102
RTVSPost2010PropOp52
 70
     0
102
RTVSPost2010Prop53
 90
        2
102
RTVSPost2010PropOp53
 70
     1
102
RTVSPost2010Prop54
  1
strokes_ogs.tif
102
RTVSPost2010PropOp54
 70
     1
102
RTVSPost2010Prop55
280
     0
102
RTVSPost2010PropOp55
 70
     1
102
RTVSPost2010Prop56
140
1.0
102
RTVSPost2010PropOp56
 70
     1
102
RTVSPost2010Prop57
140
1.0
102
RTVSPost2010PropOp57
 70
     1
102
RTVSPropertyOp0
 70
     1
102
RTVSPropertyOp1
 70
     1
102
RTVSPropertyOp2
 70
     1
102
RTVSPropertyOp3
 70
     1
102
RTVSPropertyOp4
 70
     1
102
RTVSPropertyOp5
 70
     1
102
RTVSPropertyOp6
 70
     1
102
RTVSPropertyOp7
 70
     1
102
RTVSPropertyOp8
 70
     1
102
RTVSPropertyOp9
 70
     1
102
RTVSPropertyOp10
 70
     1
102
RTVSPropertyOp11
 70
     1
102
RTVSPropertyOp12
 70
     1
102
RTVSPropertyOp13
 70
     1
102
RTVSPropertyOp14
 70
     1
102
RTVSPropertyOp15
 70
     1
102
RTVSPropertyOp16
 70
     1
102
RTVSPropertyOp17
 70
     1
102
RTVSPropertyOp18
 70
     1
102
RTVSPropertyOp19
 70
     1
102
RTVSPropertyOp20
 70
     1
102
RTVSPropertyOp21
 70
     1
102
RTVSPropertyOp22
 70
     1
102
RTVSPropertyOp23
 70
     1
102
RTVSPropertyOp24
 70
     1
102
RTVSPropertyOp25
 70
     1
102
RTVSPropertyOp26
 70
     1
102
RTVSPropertyOp27
 70
     1
102
RTVSPropertyOp28
 70
     1
102
RTVSPropertyOp29
 70
     1
102
RTVSPropertyOp30
 70
     1
102
RTVSPropertyOp31
 70
     1
102
RTVSPropertyOp32
 70
     1
102
RTVSPropertyOp33
 70
     1
102
RTVSPropertyOp34
 70
     1
102
RTVSPropertyOp35
 70
     1
102
RTVSPropertyOp36
 70
     1
102
RTVSPropertyOp37
 70
     1
102
RTVSPropertyOp38
 70
     1
102
RTVSPropertyOp39
 70
     1
102
RTVSPropertyOp40
 70
     1
102
RTVSPropertyOp41
 70
     1
102
RTVSPropertyOp42
 70
     1
102
RTVSPropertyOp43
 70
     1
102
RTVSPropertyOp44
 70
     1
102
RTVSPropertyOp45
 70
     1
102
RTVSPropertyOp46
 70
     1
102
RTVSPropertyOp47
 70
     1
102
RTVSPropertyOp48
 70
     1
102
RTVSPropertyOp49
 70
     1
102
RTVSPropertyOp50
 70
     1
102
RTVSPropertyOp51
 70
     0
102
RTVSPropertyOp52
 70
     0
102
RTVSPropertyOp53
 70
     1
102
RTVSPropertyOp54
 70
     1
102
RTVSPropertyOp55
 70
     1
102
RTVSPropertyOp56
 70
     1
102
RTVSPropertyOp57
 70
     1
102
RTVSPropertyOp58
 70
     1
102
RTVSPropertyOp59
 70
     1
102
RTVSPropertyOp60
 70
     1
102
RTVSPropertyOp61
 70
     1
102
RTVSPropertyOp62
 70
     1
  0
ENDSEC
  0
EOF
