  0
SECTION
  2
HEADER
  9
$ACADVER
  1
AC1015
  9
$ACADMAINTVER
 70
    20
  9
$DWGCODEPAGE
  3
ANSI_932
  9
$INSBASE
 10
0.0
 20
0.0
 30
0.0
  9
$EXTMIN
 10
10.0
 20
9.999999999999998
 30
0.0
  9
$EXTMAX
 10
1152.2
 20
464.8
 30
0.0
  9
$LIMMIN
 10
0.0
 20
0.0
  9
$LIMMAX
 10
1188.0
 20
819.0
  9
$ORTHOMODE
 70
     1
  9
$REGENMODE
 70
     1
  9
$FILLMODE
 70
     1
  9
$QTEXTMODE
 70
     0
  9
$MIRRTEXT
 70
     1
  9
$LTSCALE
 40
20.0
  9
$ATTMODE
 70
     1
  9
$TEXTSIZE
 40
5.0
  9
$TRACEWID
 40
1.0
  9
$TEXTSTYLE
  7
STANDARD
  9
$CLAYER
  8
0
  9
$CELTYPE
  6
BYLAYER
  9
$CECOLOR
 62
   256
  9
$CELTSCALE
 40
1.0
  9
$DISPSILH
 70
     0
  9
$DIMSCALE
 40
1.0
  9
$DIMASZ
 40
3.0
  9
$DIMEXO
 40
1.0
  9
$DIMDLI
 40
10.0
  9
$DIMRND
 40
0.0
  9
$DIMDLE
 40
0.0
  9
$DIMEXE
 40
1.0
  9
$DIMTP
 40
0.0
  9
$DIMTM
 40
0.0
  9
$DIMTXT
 40
2.5
  9
$DIMCEN
 40
0.0
  9
$DIMTSZ
 40
0.0
  9
$DIMTOL
 70
     0
  9
$DIMLIM
 70
     0
  9
$DIMTIH
 70
     0
  9
$DIMTOH
 70
     0
  9
$DIMSE1
 70
     0
  9
$DIMSE2
 70
     0
  9
$DIMTAD
 70
     3
  9
$DIMZIN
 70
     8
  9
$DIMBLK
  1

  9
$DIMASO
 70
     1
  9
$DIMSHO
 70
     1
  9
$DIMPOST
  1

  9
$DIMAPOST
  1

  9
$DIMALT
 70
     0
  9
$DIMALTD
 70
     2
  9
$DIMALTF
 40
25.4
  9
$DIMLFAC
 40
1.0
  9
$DIMTOFL
 70
     1
  9
$DIMTVP
 40
0.0
  9
$DIMTIX
 70
     0
  9
$DIMSOXD
 70
     0
  9
$DIMSAH
 70
     1
  9
$DIMBLK1
  1

  9
$DIMBLK2
  1

  9
$DIMSTYLE
  2
STANDARD
  9
$DIMCLRD
 70
     0
  9
$DIMCLRE
 70
     0
  9
$DIMCLRT
 70
     0
  9
$DIMTFAC
 40
1.0
  9
$DIMGAP
 40
1.0
  9
$DIMJUST
 70
     0
  9
$DIMSD1
 70
     0
  9
$DIMSD2
 70
     0
  9
$DIMTOLJ
 70
     1
  9
$DIMTZIN
 70
     0
  9
$DIMALTZ
 70
     0
  9
$DIMALTTZ
 70
     0
  9
$DIMUPT
 70
     0
  9
$DIMDEC
 70
     4
  9
$DIMTDEC
 70
     4
  9
$DIMALTU
 70
     2
  9
$DIMALTTD
 70
     2
  9
$DIMTXSTY
  7
STANDARD
  9
$DIMAUNIT
 70
     0
  9
$DIMADEC
 70
     0
  9
$DIMALTRND
 40
0.0
  9
$DIMAZIN
 70
     0
  9
$DIMDSEP
 70
    46
  9
$DIMATFIT
 70
     3
  9
$DIMFRAC
 70
     0
  9
$DIMLDRBLK
  1

  9
$DIMLUNIT
 70
     2
  9
$DIMLWD
 70
    -2
  9
$DIMLWE
 70
    -2
  9
$DIMTMOVE
 70
     0
  9
$LUNITS
 70
     2
  9
$LUPREC
 70
     4
  9
$SKETCHINC
 40
1.0
  9
$FILLETRAD
 40
0.0
  9
$AUNITS
 70
     0
  9
$AUPREC
 70
     2
  9
$MENU
  1
.
  9
$ELEVATION
 40
0.0
  9
$PELEVATION
 40
0.0
  9
$THICKNESS
 40
0.0
  9
$LIMCHECK
 70
     0
  9
$CHAMFERA
 40
10.0
  9
$CHAMFERB
 40
10.0
  9
$CHAMFERC
 40
0.0
  9
$CHAMFERD
 40
0.0
  9
$SKPOLY
 70
     0
  9
$TDCREATE
 40
2451233.361922685
  9
$TDUCREATE
 40
2451232.986922685
  9
$TDUPDATE
 40
2457192.659543322
  9
$TDUUPDATE
 40
2457192.284543322
  9
$TDINDWG
 40
0.0000141667
  9
$TDUSRTIMER
 40
0.0000138542
  9
$USRTIMER
 70
     1
  9
$ANGBASE
 50
0.0
  9
$ANGDIR
 70
     0
  9
$PDMODE
 70
     0
  9
$PDSIZE
 40
0.0
  9
$PLINEWID
 40
0.0
  9
$SPLFRAME
 70
     0
  9
$SPLINETYPE
 70
     6
  9
$SPLINESEGS
 70
     8
  9
$HANDSEED
  5
E9B5
  9
$SURFTAB1
 70
     6
  9
$SURFTAB2
 70
     6
  9
$SURFTYPE
 70
     6
  9
$SURFU
 70
     6
  9
$SURFV
 70
     6
  9
$UCSBASE
  2

  9
$UCSNAME
  2

  9
$UCSORG
 10
0.0
 20
0.0
 30
0.0
  9
$UCSXDIR
 10
1.0
 20
0.0
 30
0.0
  9
$UCSYDIR
 10
0.0
 20
1.0
 30
0.0
  9
$UCSORTHOREF
  2

  9
$UCSORTHOVIEW
 70
     0
  9
$UCSORGTOP
 10
0.0
 20
0.0
 30
0.0
  9
$UCSORGBOTTOM
 10
0.0
 20
0.0
 30
0.0
  9
$UCSORGLEFT
 10
0.0
 20
0.0
 30
0.0
  9
$UCSORGRIGHT
 10
0.0
 20
0.0
 30
0.0
  9
$UCSORGFRONT
 10
0.0
 20
0.0
 30
0.0
  9
$UCSORGBACK
 10
0.0
 20
0.0
 30
0.0
  9
$PUCSBASE
  2

  9
$PUCSNAME
  2

  9
$PUCSORG
 10
0.0
 20
0.0
 30
0.0
  9
$PUCSXDIR
 10
1.0
 20
0.0
 30
0.0
  9
$PUCSYDIR
 10
0.0
 20
1.0
 30
0.0
  9
$PUCSORTHOREF
  2

  9
$PUCSORTHOVIEW
 70
     0
  9
$PUCSORGTOP
 10
0.0
 20
0.0
 30
0.0
  9
$PUCSORGBOTTOM
 10
0.0
 20
0.0
 30
0.0
  9
$PUCSORGLEFT
 10
0.0
 20
0.0
 30
0.0
  9
$PUCSORGRIGHT
 10
0.0
 20
0.0
 30
0.0
  9
$PUCSORGFRONT
 10
0.0
 20
0.0
 30
0.0
  9
$PUCSORGBACK
 10
0.0
 20
0.0
 30
0.0
  9
$USERI1
 70
     0
  9
$USERI2
 70
     0
  9
$USERI3
 70
     0
  9
$USERI4
 70
     0
  9
$USERI5
 70
     0
  9
$USERR1
 40
0.0
  9
$USERR2
 40
0.0
  9
$USERR3
 40
0.0
  9
$USERR4
 40
0.0
  9
$USERR5
 40
0.0
  9
$WORLDVIEW
 70
     1
  9
$SHADEDGE
 70
     3
  9
$SHADEDIF
 70
    70
  9
$TILEMODE
 70
     1
  9
$MAXACTVP
 70
    16
  9
$PINSBASE
 10
0.0
 20
0.0
 30
0.0
  9
$PLIMCHECK
 70
     0
  9
$PEXTMIN
 10
1.000000000000000E+20
 20
1.000000000000000E+20
 30
1.000000000000000E+20
  9
$PEXTMAX
 10
-1.000000000000000E+20
 20
-1.000000000000000E+20
 30
-1.000000000000000E+20
  9
$PLIMMIN
 10
0.0
 20
0.0
  9
$PLIMMAX
 10
420.0
 20
297.0
  9
$UNITMODE
 70
     0
  9
$VISRETAIN
 70
     0
  9
$PLINEGEN
 70
     0
  9
$PSLTSCALE
 70
     0
  9
$TREEDEPTH
 70
  3020
  9
$CMLSTYLE
  2
STANDARD
  9
$CMLJUST
 70
     0
  9
$CMLSCALE
 40
1.0
  9
$PROXYGRAPHICS
 70
     1
  9
$MEASUREMENT
 70
     0
  9
$CELWEIGHT
370
    -1
  9
$ENDCAPS
280
     0
  9
$JOINSTYLE
280
     0
  9
$LWDISPLAY
290
     0
  9
$INSUNITS
 70
     0
  9
$HYPERLINKBASE
  1

  9
$STYLESHEET
  1

  9
$XEDIT
290
     1
  9
$CEPSNTYPE
380
     0
  9
$PSTYLEMODE
290
     1
  9
$FINGERPRINTGUID
  2
{C1FE972E-0FA0-487A-9F4C-CCFBA43E25EF}
  9
$VERSIONGUID
  2
{6F36BB05-ACBE-4A46-84C5-3AF9B9C5CA26}
  9
$EXTNAMES
290
     1
  9
$PSVPSCALE
 40
0.0
  9
$OLESTARTUP
290
     0
  0
ENDSEC
  0
SECTION
  2
CLASSES
  0
CLASS
  1
ACDBDICTIONARYWDFLT
  2
AcDbDictionaryWithDefault
  3
ObjectDBX Classes
 90
        0
280
     0
281
     0
  0
CLASS
  1
ACDBPLACEHOLDER
  2
AcDbPlaceHolder
  3
ObjectDBX Classes
 90
        0
280
     0
281
     0
  0
CLASS
  1
LAYOUT
  2
AcDbLayout
  3
ObjectDBX Classes
 90
        0
280
     0
281
     0
  0
CLASS
  1
DICTIONARYVAR
  2
AcDbDictionaryVar
  3
ObjectDBX Classes
 90
        0
280
     0
281
     0
  0
CLASS
  1
MATERIAL
  2
AcDbMaterial
  3
ObjectDBX Classes
 90
     1153
280
     0
281
     0
  0
CLASS
  1
VISUALSTYLE
  2
AcDbVisualStyle
  3
ObjectDBX Classes
 90
     4095
280
     0
281
     0
  0
CLASS
  1
TABLESTYLE
  2
AcDbTableStyle
  3
ObjectDBX Classes
 90
     4095
280
     0
281
     0
  0
CLASS
  1
SCALE
  2
AcDbScale
  3
ObjectDBX Classes
 90
     1153
280
     0
281
     0
  0
CLASS
  1
MLEADERSTYLE
  2
AcDbMLeaderStyle
  3
ACDB_MLEADERSTYLE_CLASS
 90
     4095
280
     0
281
     0
  0
CLASS
  1
ACDBSECTIONVIEWSTYLE
  2
AcDbSectionViewStyle
  3
ObjectDBX Classes
 90
     1025
280
     0
281
     0
  0
CLASS
  1
ACDBDETAILVIEWSTYLE
  2
AcDbDetailViewStyle
  3
ObjectDBX Classes
 90
     1025
280
     0
281
     0
  0
CLASS
  1
CELLSTYLEMAP
  2
AcDbCellStyleMap
  3
ObjectDBX Classes
 90
     1152
280
     0
281
     0
  0
ENDSEC
  0
SECTION
  2
TABLES
  0
TABLE
  2
VPORT
  5
E44E
330
0
100
AcDbSymbolTable
 70
     1
  0
VPORT
  5
E8FE
330
E44E
100
AcDbSymbolTableRecord
100
AcDbViewportTableRecord
  2
*ACTIVE
 70
     0
 10
0.0
 20
0.0
 11
1.0
 21
1.0
 12
777.7580170496992
 22
237.4170244116299
 13
0.0
 23
0.0
 14
10.0
 24
10.0
 15
10.0
 25
10.0
 16
0.0
 26
0.0
 36
1.0
 17
0.0
 27
0.0
 37
0.0
 40
656.603982520419
 41
1.899603698811096
 42
50.0
 43
0.0
 44
0.0
 50
0.0
 51
0.0
 71
     0
 72
   100
 73
     1
 74
     0
 75
     0
 76
     0
 77
     0
 78
     0
281
     0
 65
     1
110
0.0
120
0.0
130
0.0
111
1.0
121
0.0
131
0.0
112
0.0
122
1.0
132
0.0
 79
     0
146
0.0
1001
ACAD_NAV_VCDISPLAY
1070
     3
  0
ENDTAB
  0
TABLE
  2
LTYPE
  5
E44B
330
0
100
AcDbSymbolTable
 70
     4
  0
LTYPE
  5
E459
330
E44B
100
AcDbSymbolTableRecord
100
AcDbLinetypeTableRecord
  2
BYBLOCK
 70
     0
  3

 72
    65
 73
     0
 40
0.0
  0
LTYPE
  5
E45A
330
E44B
100
AcDbSymbolTableRecord
100
AcDbLinetypeTableRecord
  2
BYLAYER
 70
     0
  3

 72
    65
 73
     0
 40
0.0
  0
LTYPE
  5
E45B
330
E44B
100
AcDbSymbolTableRecord
100
AcDbLinetypeTableRecord
  2
CONTINUOUS
 70
     0
  3
Solid line
 72
    65
 73
     0
 40
0.0
  0
LTYPE
  5
E469
330
E44B
100
AcDbSymbolTableRecord
100
AcDbLinetypeTableRecord
  2
DASHED
 70
     0
  3
__ __ __ __ __ __ __ __ __ __ __ __ __ __ __ __
 72
    65
 73
     2
 40
0.75
 49
0.5
 74
     0
 49
-0.25
 74
     0
  0
LTYPE
  5
E46A
330
E44B
100
AcDbSymbolTableRecord
100
AcDbLinetypeTableRecord
  2
CENTER
 70
     0
  3
____ _ ____ _ ____ _ ____ _ ____ _ ____ _ ____ 
 72
    65
 73
     4
 40
2.0
 49
1.25
 74
     0
 49
-0.25
 74
     0
 49
0.25
 74
     0
 49
-0.25
 74
     0
  0
LTYPE
  5
E46B
330
E44B
100
AcDbSymbolTableRecord
100
AcDbLinetypeTableRecord
  2
PHANTOM
 70
     0
  3
______  __  __  ______  __  __  ______  __  __ 
 72
    65
 73
     6
 40
2.5
 49
1.25
 74
     0
 49
-0.25
 74
     0
 49
0.25
 74
     0
 49
-0.25
 74
     0
 49
0.25
 74
     0
 49
-0.25
 74
     0
  0
ENDTAB
  0
TABLE
  2
LAYER
  5
E448
330
0
100
AcDbSymbolTable
 70
     8
  0
LAYER
  5
E456
102
{ACAD_XDICTIONARY
360
E959
102
}
330
E448
100
AcDbSymbolTableRecord
100
AcDbLayerTableRecord
  2
0
 70
     0
 62
     7
  6
CONTINUOUS
370
    -3
390
E907
  0
LAYER
  5
E46C
102
{ACAD_XDICTIONARY
360
E95B
102
}
330
E448
100
AcDbSymbolTableRecord
100
AcDbLayerTableRecord
  2
4
 70
     0
 62
     1
  6
CENTER
370
    -3
390
E907
  0
LAYER
  5
E46D
102
{ACAD_XDICTIONARY
360
E95D
102
}
330
E448
100
AcDbSymbolTableRecord
100
AcDbLayerTableRecord
  2
5
 70
     0
 62
     6
  6
PHANTOM
370
    -3
390
E907
  0
LAYER
  5
E46E
102
{ACAD_XDICTIONARY
360
E95F
102
}
330
E448
100
AcDbSymbolTableRecord
100
AcDbLayerTableRecord
  2
1
 70
     0
 62
     7
  6
CONTINUOUS
370
    -3
390
E907
  0
LAYER
  5
E46F
102
{ACAD_XDICTIONARY
360
E961
102
}
330
E448
100
AcDbSymbolTableRecord
100
AcDbLayerTableRecord
  2
2
 70
     0
 62
     4
  6
CONTINUOUS
370
    -3
390
E907
  0
LAYER
  5
E470
102
{ACAD_XDICTIONARY
360
E963
102
}
330
E448
100
AcDbSymbolTableRecord
100
AcDbLayerTableRecord
  2
3
 70
     0
 62
     2
  6
DASHED
370
    -3
390
E907
  0
LAYER
  5
E471
102
{ACAD_XDICTIONARY
360
E965
102
}
330
E448
100
AcDbSymbolTableRecord
100
AcDbLayerTableRecord
  2
6
 70
     0
 62
     5
  6
CONTINUOUS
370
    -3
390
E907
  0
LAYER
  5
E472
102
{ACAD_XDICTIONARY
360
E967
102
}
330
E448
100
AcDbSymbolTableRecord
100
AcDbLayerTableRecord
  2
7
 70
     0
 62
     3
  6
CONTINUOUS
370
    -3
390
E907
  0
ENDTAB
  0
TABLE
  2
STYLE
  5
E449
330
0
100
AcDbSymbolTable
 70
     1
  0
STYLE
  5
E457
330
E449
100
AcDbSymbolTableRecord
100
AcDbTextStyleTableRecord
  2
STANDARD
 70
     0
 40
0.0
 41
1.0
 50
0.0
 71
     0
 42
5.0
  3
txt
  4

  0
ENDTAB
  0
TABLE
  2
VIEW
  5
E44C
330
0
100
AcDbSymbolTable
 70
     0
  0
ENDTAB
  0
TABLE
  2
UCS
  5
E44D
330
0
100
AcDbSymbolTable
 70
     0
  0
ENDTAB
  0
TABLE
  2
APPID
  5
E44F
330
0
100
AcDbSymbolTable
 70
     3
  0
APPID
  5
E458
330
E44F
100
AcDbSymbolTableRecord
100
AcDbRegAppTableRecord
  2
ACAD
 70
     0
  0
APPID
  5
E973
330
E44F
100
AcDbSymbolTableRecord
100
AcDbRegAppTableRecord
  2
ACAD_NAV_VCDISPLAY
 70
     0
  0
APPID
  5
E9AC
330
E44F
100
AcDbSymbolTableRecord
100
AcDbRegAppTableRecord
  2
ACAD_MLEADERVER
 70
     0
  0
ENDTAB
  0
TABLE
  2
DIMSTYLE
  5
E450
330
0
100
AcDbSymbolTable
 70
     1
100
AcDbDimStyleTable
 71
     0
  0
DIMSTYLE
105
E474
330
E450
100
AcDbSymbolTableRecord
100
AcDbDimStyleTableRecord
  2
STANDARD
 70
     0
 41
3.0
 42
1.0
 43
10.0
 44
1.0
 73
     0
 74
     0
 77
     3
 78
     8
140
2.5
141
0.0
147
1.0
172
     1
173
     1
284
     8
285
     8
286
     8
340
E457
  0
ENDTAB
  0
TABLE
  2
BLOCK_RECORD
  5
E447
330
0
100
AcDbSymbolTable
 70
     0
  0
BLOCK_RECORD
  5
E464
102
{ACAD_XDICTIONARY
360
E901
102
}
330
E447
100
AcDbSymbolTableRecord
100
AcDbBlockTableRecord
  2
*MODEL_SPACE
340
E955
  0
BLOCK_RECORD
  5
E460
102
{ACAD_XDICTIONARY
360
E8FF
102
}
330
E447
100
AcDbSymbolTableRecord
100
AcDbBlockTableRecord
  2
*PAPER_SPACE
340
E956
  0
ENDTAB
  0
ENDSEC
  0
SECTION
  2
BLOCKS
  0
BLOCK
  5
E465
330
E464
100
AcDbEntity
  8
0
100
AcDbBlockBegin
  2
*MODEL_SPACE
 70
     0
 10
0.0
 20
0.0
 30
0.0
  3
*MODEL_SPACE
  1

  0
ENDBLK
  5
E466
330
E464
100
AcDbEntity
  8
0
100
AcDbBlockEnd
  0
BLOCK
  5
E461
330
E460
100
AcDbEntity
 67
     1
  8
0
100
AcDbBlockBegin
  2
*PAPER_SPACE
 70
     0
 10
0.0
 20
0.0
 30
0.0
  3
*PAPER_SPACE
  1

  0
ENDBLK
  5
E462
330
E460
100
AcDbEntity
 67
     1
  8
0
100
AcDbBlockEnd
  0
ENDSEC
  0
SECTION
  2
ENTITIES
  0
TEXT
  5
E47C
330
E464
100
AcDbEntity
  8
7
  6
Continuous
100
AcDbText
 10
10.0
 20
18.0
 30
0.0
 40
3.0
  1
TYPE No.TM-167-18
100
AcDbText
  0
TEXT
  5
E47D
330
E464
100
AcDbEntity
  8
7
  6
Continuous
100
AcDbText
 10
10.0
 20
26.0
 30
0.0
 40
3.0
  1
CODE No.5844
100
AcDbText
  0
TEXT
  5
E47E
330
E464
100
AcDbEntity
  8
1
  6
Continuous
100
AcDbText
 10
10.0
 20
10.0
 30
0.0
 40
1.399999999999999
  1
LAYER
100
AcDbText
  0
TEXT
  5
E47F
330
E464
100
AcDbEntity
  8
1
  6
Continuous
100
AcDbText
 10
17.97951099999998
 20
10.04873699999998
 30
0.0
 40
1.399999999999999
  1
1
100
AcDbText
  0
TEXT
  5
E480
330
E464
100
AcDbEntity
  8
7
  6
Continuous
100
AcDbText
 10
29.97951099999999
 20
10.04873699999998
 30
0.0
 40
1.399999999999999
  1
7
100
AcDbText
  0
TEXT
  5
E481
330
E464
100
AcDbEntity
  8
4
  6
CENTER
100
AcDbText
 10
23.97951099999999
 20
10.04873699999998
 30
0.0
 40
1.399999999999999
  1
4
100
AcDbText
  0
TEXT
  5
E482
330
E464
100
AcDbEntity
  8
3
  6
DASHED
100
AcDbText
 10
21.979511
 20
10.04873699999998
 30
0.0
 40
1.399999999999999
  1
3
100
AcDbText
  0
TEXT
  5
E483
330
E464
100
AcDbEntity
  8
2
  6
Continuous
100
AcDbText
 10
19.97951099999999
 20
10.04873699999998
 30
0.0
 40
1.399999999999999
  1
2
100
AcDbText
  0
TEXT
  5
E484
330
E464
100
AcDbEntity
  8
6
  6
Continuous
100
AcDbText
 10
27.979511
 20
10.04873699999998
 30
0.0
 40
1.399999999999999
  1
6
100
AcDbText
  0
TEXT
  5
E485
330
E464
100
AcDbEntity
  8
5
  6
PHANTOM
100
AcDbText
 10
25.97951099999999
 20
10.04873699999998
 30
0.0
 40
1.399999999999999
  1
5
100
AcDbText
  0
LINE
  5
E486
330
E464
100
AcDbEntity
  8
1
  6
Continuous
100
AcDbLine
 10
118.1
 20
165.0999999999999
 30
0.0
 11
118.1
 21
166.602131
 31
0.0
  0
LINE
  5
E487
330
E464
100
AcDbEntity
  8
1
  6
Continuous
100
AcDbLine
 10
118.1
 20
165.0999999999999
 30
0.0
 11
575.1
 21
165.0999999999999
 31
0.0
  0
LINE
  5
E488
330
E464
100
AcDbEntity
  8
1
  6
Continuous
100
AcDbLine
 10
575.1
 20
165.0999999999999
 30
0.0
 11
575.1
 21
175.2499999999998
 31
0.0
  0
LINE
  5
E489
330
E464
100
AcDbEntity
  8
1
  6
Continuous
100
AcDbLine
 10
118.1
 20
200.4
 30
0.0
 11
575.1
 21
200.4
 31
0.0
  0
LINE
  5
E48A
330
E464
100
AcDbEntity
  8
4
  6
CENTER
100
AcDbLine
 10
113.1
 20
182.75
 30
0.0
 11
1059.099999999999
 21
182.75
 31
0.0
  0
LINE
  5
E48B
330
E464
100
AcDbEntity
  8
1
  6
Continuous
100
AcDbLine
 10
597.1
 20
165.0999999999999
 30
0.0
 11
597.1
 21
170.5
 31
0.0
  0
LINE
  5
E48C
330
E464
100
AcDbEntity
  8
1
  6
Continuous
100
AcDbLine
 10
1054.099999999998
 20
165.0999999999999
 30
0.0
 11
1054.099999999998
 21
166.602131
 31
0.0
  0
LINE
  5
E48D
330
E464
100
AcDbEntity
  8
1
  6
Continuous
100
AcDbLine
 10
597.1
 20
200.4
 30
0.0
 11
1054.099999999998
 21
200.4
 31
0.0
  0
LINE
  5
E48E
330
E464
100
AcDbEntity
  8
1
  6
Continuous
100
AcDbLine
 10
597.1
 20
165.0999999999999
 30
0.0
 11
1054.099999999998
 21
165.0999999999999
 31
0.0
  0
ARC
  5
E48F
330
E464
100
AcDbEntity
  8
1
  6
Continuous
100
AcDbCircle
 10
559.2
 20
182.3499999999999
 30
0.0
 40
2.25
100
AcDbArc
 50
180.0
 51
0.0
  0
LINE
  5
E490
330
E464
100
AcDbEntity
  8
1
  6
Continuous
100
AcDbLine
 10
561.45
 20
183.15
 30
0.0
 11
561.45
 21
182.3499999999999
 31
0.0
  0
LINE
  5
E491
330
E464
100
AcDbEntity
  8
1
  6
Continuous
100
AcDbLine
 10
556.95
 20
183.15
 30
0.0
 11
556.95
 21
182.3499999999999
 31
0.0
  0
LINE
  5
E492
330
E464
100
AcDbEntity
  8
4
  6
CENTER
100
AcDbLine
 10
559.2
 20
188.0
 30
0.0
 11
559.2
 21
177.5
 31
0.0
  0
ARC
  5
E493
330
E464
100
AcDbEntity
  8
1
  6
Continuous
100
AcDbCircle
 10
559.2
 20
183.15
 30
0.0
 40
2.25
100
AcDbArc
 50
0.0
 51
180.0
  0
ARC
  5
E494
330
E464
100
AcDbEntity
  8
1
  6
Continuous
100
AcDbCircle
 10
546.4999999999998
 20
183.15
 30
0.0
 40
2.25
100
AcDbArc
 50
0.0
 51
180.0
  0
ARC
  5
E495
330
E464
100
AcDbEntity
  8
1
  6
Continuous
100
AcDbCircle
 10
546.4999999999998
 20
182.3499999999999
 30
0.0
 40
2.25
100
AcDbArc
 50
180.0
 51
0.0
  0
LINE
  5
E496
330
E464
100
AcDbEntity
  8
4
  6
CENTER
100
AcDbLine
 10
546.4999999999998
 20
188.0
 30
0.0
 11
546.4999999999998
 21
177.5
 31
0.0
  0
LINE
  5
E497
330
E464
100
AcDbEntity
  8
1
  6
Continuous
100
AcDbLine
 10
544.2499999999999
 20
183.15
 30
0.0
 11
544.2499999999999
 21
182.3499999999999
 31
0.0
  0
LINE
  5
E498
330
E464
100
AcDbEntity
  8
1
  6
Continuous
100
AcDbLine
 10
548.7499999999998
 20
183.15
 30
0.0
 11
548.7499999999998
 21
182.3499999999999
 31
0.0
  0
ARC
  5
E499
330
E464
100
AcDbEntity
  8
1
  6
Continuous
100
AcDbCircle
 10
534.2
 20
182.75
 30
0.0
 40
2.25
100
AcDbArc
 50
270.0
 51
90.0
  0
LINE
  5
E49A
330
E464
100
AcDbEntity
  8
4
  6
CENTER
100
AcDbLine
 10
533.8
 20
188.0
 30
0.0
 11
533.8
 21
177.5
 31
0.0
  0
ARC
  5
E49B
330
E464
100
AcDbEntity
  8
1
  6
Continuous
100
AcDbCircle
 10
533.3999999999998
 20
182.75
 30
0.0
 40
2.25
100
AcDbArc
 50
90.0
 51
270.0
  0
LINE
  5
E49C
330
E464
100
AcDbEntity
  8
1
  6
Continuous
100
AcDbLine
 10
534.2
 20
185.0
 30
0.0
 11
533.3999999999998
 21
185.0
 31
0.0
  0
LINE
  5
E49D
330
E464
100
AcDbEntity
  8
1
  6
Continuous
100
AcDbLine
 10
534.2
 20
180.4999999999998
 30
0.0
 11
533.3999999999998
 21
180.4999999999998
 31
0.0
  0
ARC
  5
E49E
330
E464
100
AcDbEntity
  8
1
  6
Continuous
100
AcDbCircle
 10
448.5
 20
182.75
 30
0.0
 40
2.25
100
AcDbArc
 50
270.0
 51
90.0
  0
ARC
  5
E49F
330
E464
100
AcDbEntity
  8
1
  6
Continuous
100
AcDbCircle
 10
447.7
 20
182.75
 30
0.0
 40
2.25
100
AcDbArc
 50
90.0
 51
270.0
  0
LINE
  5
E4A0
330
E464
100
AcDbEntity
  8
1
  6
Continuous
100
AcDbLine
 10
448.5
 20
185.0
 30
0.0
 11
447.7
 21
185.0
 31
0.0
  0
LINE
  5
E4A1
330
E464
100
AcDbEntity
  8
4
  6
CENTER
100
AcDbLine
 10
448.1
 20
188.0
 30
0.0
 11
448.1
 21
177.5
 31
0.0
  0
LINE
  5
E4A2
330
E464
100
AcDbEntity
  8
1
  6
Continuous
100
AcDbLine
 10
448.5
 20
180.4999999999998
 30
0.0
 11
447.7
 21
180.4999999999998
 31
0.0
  0
LINE
  5
E4A3
330
E464
100
AcDbEntity
  8
1
  6
Continuous
100
AcDbLine
 10
258.0
 20
180.4999999999998
 30
0.0
 11
257.2
 21
180.4999999999998
 31
0.0
  0
LINE
  5
E4A4
330
E464
100
AcDbEntity
  8
4
  6
CENTER
100
AcDbLine
 10
257.6
 20
188.0
 30
0.0
 11
257.6
 21
177.5
 31
0.0
  0
LINE
  5
E4A5
330
E464
100
AcDbEntity
  8
1
  6
Continuous
100
AcDbLine
 10
258.0
 20
185.0
 30
0.0
 11
257.2
 21
185.0
 31
0.0
  0
ARC
  5
E4A6
330
E464
100
AcDbEntity
  8
1
  6
Continuous
100
AcDbCircle
 10
257.2
 20
182.75
 30
0.0
 40
2.25
100
AcDbArc
 50
90.0
 51
270.0
  0
ARC
  5
E4A7
330
E464
100
AcDbEntity
  8
1
  6
Continuous
100
AcDbCircle
 10
258.0
 20
182.75
 30
0.0
 40
2.25
100
AcDbArc
 50
270.0
 51
90.0
  0
ARC
  5
E4A8
330
E464
100
AcDbEntity
  8
1
  6
Continuous
100
AcDbCircle
 10
146.5
 20
183.15
 30
0.0
 40
2.25
100
AcDbArc
 50
0.0
 51
180.0
  0
ARC
  5
E4A9
330
E464
100
AcDbEntity
  8
1
  6
Continuous
100
AcDbCircle
 10
146.5
 20
182.3499999999999
 30
0.0
 40
2.25
100
AcDbArc
 50
180.0
 51
0.0
  0
LINE
  5
E4AA
330
E464
100
AcDbEntity
  8
4
  6
CENTER
100
AcDbLine
 10
146.5
 20
188.0
 30
0.0
 11
146.5
 21
177.5
 31
0.0
  0
LINE
  5
E4AB
330
E464
100
AcDbEntity
  8
1
  6
Continuous
100
AcDbLine
 10
144.25
 20
183.15
 30
0.0
 11
144.25
 21
182.3499999999999
 31
0.0
  0
LINE
  5
E4AC
330
E464
100
AcDbEntity
  8
1
  6
Continuous
100
AcDbLine
 10
148.75
 20
183.15
 30
0.0
 11
148.75
 21
182.3499999999999
 31
0.0
  0
ARC
  5
E4AD
330
E464
100
AcDbEntity
  8
1
  6
Continuous
100
AcDbCircle
 10
133.8
 20
183.15
 30
0.0
 40
2.25
100
AcDbArc
 50
0.0
 51
180.0
  0
ARC
  5
E4AE
330
E464
100
AcDbEntity
  8
1
  6
Continuous
100
AcDbCircle
 10
133.8
 20
182.3499999999999
 30
0.0
 40
2.25
100
AcDbArc
 50
180.0
 51
0.0
  0
LINE
  5
E4AF
330
E464
100
AcDbEntity
  8
4
  6
CENTER
100
AcDbLine
 10
133.8
 20
188.0
 30
0.0
 11
133.8
 21
177.5
 31
0.0
  0
LINE
  5
E4B0
330
E464
100
AcDbEntity
  8
1
  6
Continuous
100
AcDbLine
 10
131.55
 20
183.15
 30
0.0
 11
131.55
 21
182.3499999999999
 31
0.0
  0
LINE
  5
E4B1
330
E464
100
AcDbEntity
  8
1
  6
Continuous
100
AcDbLine
 10
136.05
 20
183.15
 30
0.0
 11
136.05
 21
182.3499999999999
 31
0.0
  0
LINE
  5
E4B2
330
E464
100
AcDbEntity
  8
1
  6
Continuous
100
AcDbLine
 10
1036.15
 20
183.15
 30
0.0
 11
1036.15
 21
182.3499999999999
 31
0.0
  0
LINE
  5
E4B3
330
E464
100
AcDbEntity
  8
1
  6
Continuous
100
AcDbLine
 10
1040.65
 20
183.15
 30
0.0
 11
1040.65
 21
182.3499999999999
 31
0.0
  0
LINE
  5
E4B4
330
E464
100
AcDbEntity
  8
4
  6
CENTER
100
AcDbLine
 10
1038.399999999999
 20
188.0
 30
0.0
 11
1038.399999999999
 21
177.5
 31
0.0
  0
ARC
  5
E4B5
330
E464
100
AcDbEntity
  8
1
  6
Continuous
100
AcDbCircle
 10
1038.399999999999
 20
182.3499999999999
 30
0.0
 40
2.25
100
AcDbArc
 50
180.0
 51
0.0
  0
ARC
  5
E4B6
330
E464
100
AcDbEntity
  8
1
  6
Continuous
100
AcDbCircle
 10
1038.399999999999
 20
183.15
 30
0.0
 40
2.25
100
AcDbArc
 50
0.0
 51
180.0
  0
LINE
  5
E4B7
330
E464
100
AcDbEntity
  8
1
  6
Continuous
100
AcDbLine
 10
1023.45
 20
183.15
 30
0.0
 11
1023.45
 21
182.3499999999999
 31
0.0
  0
LINE
  5
E4B8
330
E464
100
AcDbEntity
  8
1
  6
Continuous
100
AcDbLine
 10
1027.95
 20
183.15
 30
0.0
 11
1027.95
 21
182.3499999999999
 31
0.0
  0
LINE
  5
E4B9
330
E464
100
AcDbEntity
  8
4
  6
CENTER
100
AcDbLine
 10
1025.7
 20
188.0
 30
0.0
 11
1025.7
 21
177.5
 31
0.0
  0
ARC
  5
E4BA
330
E464
100
AcDbEntity
  8
1
  6
Continuous
100
AcDbCircle
 10
1025.7
 20
182.3499999999999
 30
0.0
 40
2.25
100
AcDbArc
 50
180.0
 51
0.0
  0
ARC
  5
E4BB
330
E464
100
AcDbEntity
  8
1
  6
Continuous
100
AcDbCircle
 10
1025.7
 20
183.15
 30
0.0
 40
2.25
100
AcDbArc
 50
0.0
 51
180.0
  0
ARC
  5
E4BC
330
E464
100
AcDbEntity
  8
1
  6
Continuous
100
AcDbCircle
 10
915.0
 20
182.75
 30
0.0
 40
2.25
100
AcDbArc
 50
270.0
 51
90.0
  0
ARC
  5
E4BD
330
E464
100
AcDbEntity
  8
1
  6
Continuous
100
AcDbCircle
 10
914.2000000000001
 20
182.75
 30
0.0
 40
2.25
100
AcDbArc
 50
90.0
 51
270.0
  0
LINE
  5
E4BE
330
E464
100
AcDbEntity
  8
1
  6
Continuous
100
AcDbLine
 10
914.2000000000001
 20
185.0
 30
0.0
 11
915.0
 21
185.0
 31
0.0
  0
LINE
  5
E4BF
330
E464
100
AcDbEntity
  8
4
  6
CENTER
100
AcDbLine
 10
914.6
 20
188.0
 30
0.0
 11
914.6
 21
177.5
 31
0.0
  0
LINE
  5
E4C0
330
E464
100
AcDbEntity
  8
1
  6
Continuous
100
AcDbLine
 10
914.2000000000001
 20
180.4999999999998
 30
0.0
 11
915.0
 21
180.4999999999998
 31
0.0
  0
LINE
  5
E4C1
330
E464
100
AcDbEntity
  8
4
  6
CENTER
100
AcDbLine
 10
724.1
 20
188.0
 30
0.0
 11
724.1
 21
177.5
 31
0.0
  0
LINE
  5
E4C2
330
E464
100
AcDbEntity
  8
4
  6
CENTER
100
AcDbLine
 10
638.4
 20
188.0
 30
0.0
 11
638.4
 21
177.5
 31
0.0
  0
ARC
  5
E4C3
330
E464
100
AcDbEntity
  8
1
  6
Continuous
100
AcDbCircle
 10
613.0
 20
183.15
 30
0.0
 40
2.25
100
AcDbArc
 50
0.0
 51
180.0
  0
ARC
  5
E4C4
330
E464
100
AcDbEntity
  8
1
  6
Continuous
100
AcDbCircle
 10
613.0
 20
182.3499999999999
 30
0.0
 40
2.25
100
AcDbArc
 50
180.0
 51
0.0
  0
LINE
  5
E4C5
330
E464
100
AcDbEntity
  8
4
  6
CENTER
100
AcDbLine
 10
625.7000000000001
 20
188.0
 30
0.0
 11
625.7000000000001
 21
177.5
 31
0.0
  0
LINE
  5
E4C6
330
E464
100
AcDbEntity
  8
4
  6
CENTER
100
AcDbLine
 10
613.0
 20
189.9566529999999
 30
0.0
 11
613.0
 21
175.14061
 31
0.0
  0
LINE
  5
E4C7
330
E464
100
AcDbEntity
  8
1
  6
Continuous
100
AcDbLine
 10
615.2499999999998
 20
183.15
 30
0.0
 11
615.2499999999998
 21
182.3499999999999
 31
0.0
  0
LINE
  5
E4C8
330
E464
100
AcDbEntity
  8
1
  6
Continuous
100
AcDbLine
 10
610.7499999999999
 20
183.15
 30
0.0
 11
610.7499999999999
 21
182.3499999999999
 31
0.0
  0
LINE
  5
E4C9
330
E464
100
AcDbEntity
  8
1
  6
Continuous
100
AcDbLine
 10
25.0
 20
170.171084
 30
0.0
 11
25.0
 21
195.3289159999999
 31
0.0
  0
LINE
  5
E4CA
330
E464
100
AcDbEntity
  8
1
  6
Continuous
100
AcDbLine
 10
26.6
 20
170.171084
 30
0.0
 11
26.6
 21
175.2499999999998
 31
0.0
  0
LINE
  5
E4CB
330
E464
100
AcDbEntity
  8
1
  6
Continuous
100
AcDbLine
 10
28.3
 20
191.6375
 30
0.0
 11
28.3
 21
192.8375
 31
0.0
  0
LINE
  5
E4CC
330
E464
100
AcDbEntity
  8
1
  6
Continuous
100
AcDbLine
 10
28.3
 20
192.8375
 30
0.0
 11
30.89999999999999
 21
192.8375
 31
0.0
  0
LINE
  5
E4CD
330
E464
100
AcDbEntity
  8
1
  6
Continuous
100
AcDbLine
 10
28.3
 20
191.6375
 30
0.0
 11
30.89999999999999
 21
191.6375
 31
0.0
  0
LINE
  5
E4CE
330
E464
100
AcDbEntity
  8
1
  6
Continuous
100
AcDbLine
 10
32.1
 20
175.0625
 30
0.0
 11
32.1
 21
190.4374999999998
 31
0.0
  0
ARC
  5
E4CF
330
E464
100
AcDbEntity
  8
1
  6
Continuous
100
AcDbCircle
 10
30.89999999999999
 20
190.4374999999998
 30
0.0
 40
1.199999999999999
100
AcDbArc
 50
0.0
 51
90.0
  0
ARC
  5
E4D0
330
E464
100
AcDbEntity
  8
1
  6
Continuous
100
AcDbCircle
 10
30.89999999999999
 20
190.4374999999998
 30
0.0
 40
2.399999999999999
100
AcDbArc
 50
0.0
 51
90.0
  0
LINE
  5
E4D1
330
E464
100
AcDbEntity
  8
1
  6
Continuous
100
AcDbLine
 10
575.1
 20
195.0
 30
0.0
 11
814.4999999999999
 21
195.0
 31
0.0
  0
LINE
  5
E4D2
330
E464
100
AcDbEntity
  8
1
  6
Continuous
100
AcDbLine
 10
575.1
 20
170.5
 30
0.0
 11
814.4999999999999
 21
170.5
 31
0.0
  0
LINE
  5
E4D3
330
E464
100
AcDbEntity
  8
1
  6
Continuous
100
AcDbLine
 10
597.1
 20
195.0
 30
0.0
 11
597.1
 21
200.4
 31
0.0
  0
LINE
  5
E4D4
330
E464
100
AcDbEntity
  8
3
  6
DASHED
100
AcDbLine
 10
597.1
 20
170.5
 30
0.0
 11
597.1
 21
175.2499999999998
 31
0.0
  0
LINE
  5
E4D5
330
E464
100
AcDbEntity
  8
1
  6
Continuous
100
AcDbLine
 10
611.5
 20
187.7499999999998
 30
0.0
 11
614.5
 21
187.7499999999998
 31
0.0
  0
LINE
  5
E4D6
330
E464
100
AcDbEntity
  8
1
  6
Continuous
100
AcDbLine
 10
611.5
 20
177.75
 30
0.0
 11
614.5
 21
177.75
 31
0.0
  0
ARC
  5
E4D7
330
E464
100
AcDbEntity
  8
1
  6
Continuous
100
AcDbCircle
 10
614.5
 20
182.75
 30
0.0
 40
5.0
100
AcDbArc
 50
270.0
 51
90.0
  0
ARC
  5
E4D8
330
E464
100
AcDbEntity
  8
1
  6
Continuous
100
AcDbCircle
 10
611.5
 20
182.75
 30
0.0
 40
5.0
100
AcDbArc
 50
90.0
 51
270.0
  0
LINE
  5
E4D9
330
E464
100
AcDbEntity
  8
1
  6
Continuous
100
AcDbLine
 10
776.5
 20
192.8375
 30
0.0
 11
776.5
 21
172.6625
 31
0.0
  0
LINE
  5
E4DA
330
E464
100
AcDbEntity
  8
1
  6
Continuous
100
AcDbLine
 10
814.4999999999999
 20
195.0
 30
0.0
 11
814.4999999999999
 21
170.5
 31
0.0
  0
LINE
  5
E4DB
330
E464
100
AcDbEntity
  8
4
  6
CENTER
100
AcDbLine
 10
789.5
 20
189.25
 30
0.0
 11
789.5
 21
176.25
 31
0.0
  0
CIRCLE
  5
E4DC
330
E464
100
AcDbEntity
  8
1
  6
Continuous
100
AcDbCircle
 10
789.5
 20
182.75
 30
0.0
 40
3.5
  0
LINE
  5
E4DD
330
E464
100
AcDbEntity
  8
4
  6
CENTER
100
AcDbLine
 10
20.0
 20
182.75
 30
0.0
 11
49.1
 21
182.75
 31
0.0
  0
ARC
  5
E4DE
330
E464
100
AcDbEntity
  8
1
  6
Continuous
100
AcDbCircle
 10
30.0
 20
196.4187499999999
 30
0.0
 40
2.38125
100
AcDbArc
 50
204.844815
 51
343.87833
  0
ARC
  5
E4DF
330
E464
100
AcDbEntity
  8
1
  6
Continuous
100
AcDbCircle
 10
30.0
 20
196.4187499999999
 30
0.0
 40
3.98125
100
AcDbArc
 50
21.665296
 51
142.987809
  0
LINE
  5
E4E0
330
E464
100
AcDbEntity
  8
1
  6
Continuous
100
AcDbLine
 10
33.7
 20
197.8885629999999
 30
0.0
 11
32.21302999999998
 21
197.2978689999999
 31
0.0
  0
LINE
  5
E4E1
330
E464
100
AcDbEntity
  8
1
  6
Continuous
100
AcDbLine
 10
25.644776
 20
197.2552679999998
 30
0.0
 11
26.82094199999999
 21
198.815403
 31
0.0
  0
LINE
  5
E4E2
330
E464
100
AcDbEntity
  8
1
  6
Continuous
100
AcDbLine
 10
26.922388
 20
196.292092
 30
0.0
 11
28.098554
 21
197.852227
 31
0.0
  0
ARC
  5
E4E3
330
E464
100
AcDbEntity
  8
1
  6
Continuous
100
AcDbCircle
 10
28.2
 20
195.3289159999999
 30
0.0
 40
1.6
100
AcDbArc
 50
142.987809
 51
180.0
  0
ARC
  5
E4E4
330
E464
100
AcDbEntity
  8
1
  6
Continuous
100
AcDbCircle
 10
28.2
 20
195.3289159999999
 30
0.0
 40
3.2
100
AcDbArc
 50
142.987809
 51
180.0
  0
ARC
  5
E4E5
330
E464
100
AcDbEntity
  8
1
  6
Continuous
100
AcDbCircle
 10
30.0
 20
196.4187499999999
 30
0.0
 40
3.581249999999998
100
AcDbArc
 50
236.0503449999999
 51
309.5506789999999
  0
LINE
  5
E4E6
330
E464
100
AcDbEntity
  8
1
  6
Continuous
100
AcDbLine
 10
34.5
 20
172.322939
 30
0.0
 11
34.5
 21
193.177061
 31
0.0
  0
LINE
  5
E4E7
330
E464
100
AcDbEntity
  8
1
  6
Continuous
100
AcDbLine
 10
33.3
 20
172.322939
 30
0.0
 11
33.3
 21
193.177061
 31
0.0
  0
ARC
  5
E4E8
330
E464
100
AcDbEntity
  8
1
  6
Continuous
100
AcDbCircle
 10
32.677061
 20
193.177061
 30
0.0
 40
1.822938999999999
100
AcDbArc
 50
0.0
 51
129.550679
  0
ARC
  5
E4E9
330
E464
100
AcDbEntity
  8
1
  6
Continuous
100
AcDbCircle
 10
32.677061
 20
193.177061
 30
0.0
 40
0.6229390000000003
100
AcDbArc
 50
0.0
 51
129.550679
  0
LINE
  5
E4EA
330
E464
100
AcDbEntity
  8
1
  6
Continuous
100
AcDbLine
 10
28.0
 20
193.448001
 30
0.0
 11
28.67015699999999
 21
194.443435
 31
0.0
  0
ARC
  5
E4EB
330
E464
100
AcDbEntity
  8
1
  6
Continuous
100
AcDbCircle
 10
28.2
 20
170.171084
 30
0.0
 40
3.2
100
AcDbArc
 50
180.0
 51
217.012191
  0
ARC
  5
E4EC
330
E464
100
AcDbEntity
  8
1
  6
Continuous
100
AcDbCircle
 10
28.2
 20
170.171084
 30
0.0
 40
1.6
100
AcDbArc
 50
180.0
 51
217.012191
  0
LINE
  5
E4ED
330
E464
100
AcDbEntity
  8
1
  6
Continuous
100
AcDbLine
 10
28.3
 20
173.8625
 30
0.0
 11
28.3
 21
172.6625
 31
0.0
  0
LINE
  5
E4EE
330
E464
100
AcDbEntity
  8
1
  6
Continuous
100
AcDbLine
 10
28.3
 20
173.8625
 30
0.0
 11
30.89999999999999
 21
173.8625
 31
0.0
  0
LINE
  5
E4EF
330
E464
100
AcDbEntity
  8
1
  6
Continuous
100
AcDbLine
 10
28.3
 20
172.6625
 30
0.0
 11
30.89999999999999
 21
172.6625
 31
0.0
  0
ARC
  5
E4F0
330
E464
100
AcDbEntity
  8
1
  6
Continuous
100
AcDbCircle
 10
30.89999999999999
 20
175.0625
 30
0.0
 40
2.399999999999999
100
AcDbArc
 50
270.0
 51
0.0
  0
ARC
  5
E4F1
330
E464
100
AcDbEntity
  8
1
  6
Continuous
100
AcDbCircle
 10
30.89999999999999
 20
175.0625
 30
0.0
 40
1.199999999999999
100
AcDbArc
 50
270.0
 51
0.0
  0
ARC
  5
E4F2
330
E464
100
AcDbEntity
  8
1
  6
Continuous
100
AcDbCircle
 10
30.0
 20
169.08125
 30
0.0
 40
3.581249999999998
100
AcDbArc
 50
50.449321
 51
123.949655
  0
LINE
  5
E4F3
330
E464
100
AcDbEntity
  8
1
  6
Continuous
100
AcDbLine
 10
28.0
 20
172.0519989999999
 30
0.0
 11
28.67015699999999
 21
171.0565649999998
 31
0.0
  0
ARC
  5
E4F4
330
E464
100
AcDbEntity
  8
1
  6
Continuous
100
AcDbCircle
 10
32.677061
 20
172.322939
 30
0.0
 40
0.6229390000000003
100
AcDbArc
 50
230.4493209999999
 51
0.0
  0
ARC
  5
E4F5
330
E464
100
AcDbEntity
  8
1
  6
Continuous
100
AcDbCircle
 10
32.677061
 20
172.322939
 30
0.0
 40
1.822938999999999
100
AcDbArc
 50
230.4493209999999
 51
0.0
  0
ARC
  5
E4F6
330
E464
100
AcDbEntity
  8
1
  6
Continuous
100
AcDbCircle
 10
30.0
 20
169.08125
 30
0.0
 40
3.98125
100
AcDbArc
 50
217.012191
 51
338.3347039999998
  0
LINE
  5
E4F7
330
E464
100
AcDbEntity
  8
1
  6
Continuous
100
AcDbLine
 10
25.644776
 20
168.244732
 30
0.0
 11
26.82094199999999
 21
166.6845969999999
 31
0.0
  0
LINE
  5
E4F8
330
E464
100
AcDbEntity
  8
1
  6
Continuous
100
AcDbLine
 10
26.922388
 20
169.207908
 30
0.0
 11
28.098554
 21
167.647773
 31
0.0
  0
LINE
  5
E4F9
330
E464
100
AcDbEntity
  8
1
  6
Continuous
100
AcDbLine
 10
33.7
 20
167.611437
 30
0.0
 11
32.21302999999998
 21
168.202131
 31
0.0
  0
LINE
  5
E4FA
330
E464
100
AcDbEntity
  8
1
  6
Continuous
100
AcDbLine
 10
27.1
 20
190.25
 30
0.0
 11
27.1
 21
195.398548
 31
0.0
  0
LINE
  5
E4FB
330
E464
100
AcDbEntity
  8
1
  6
Continuous
100
AcDbLine
 10
27.6
 20
190.25
 30
0.0
 11
27.6
 21
195.4
 31
0.0
  0
LINE
  5
E4FC
330
E464
100
AcDbEntity
  8
1
  6
Continuous
100
AcDbLine
 10
30.1
 20
177.5
 30
0.0
 11
30.1
 21
188.0
 31
0.0
  0
ARC
  5
E4FD
330
E464
100
AcDbEntity
  8
1
  6
Continuous
100
AcDbCircle
 10
29.6
 20
188.0
 30
0.0
 40
0.5
100
AcDbArc
 50
0.0
 51
36.869898
  0
LINE
  5
E4FE
330
E464
100
AcDbEntity
  8
1
  6
Continuous
100
AcDbLine
 10
33.5
 20
195.8499999999999
 30
0.0
 11
33.5
 21
196.3499999999999
 31
0.0
  0
LINE
  5
E4FF
330
E464
100
AcDbEntity
  8
1
  6
Continuous
100
AcDbLine
 10
33.5
 20
195.8499999999999
 30
0.0
 11
27.6
 21
195.4
 31
0.0
  0
ARC
  5
E500
330
E464
100
AcDbEntity
  8
1
  6
Continuous
100
AcDbCircle
 10
30.0
 20
196.4187499999999
 30
0.0
 40
2.38125
100
AcDbArc
 50
356.280872
 51
192.4422739999998
  0
LINE
  5
E501
330
E464
100
AcDbEntity
  8
1
  6
Continuous
100
AcDbLine
 10
33.5
 20
169.65
 30
0.0
 11
27.6
 21
170.1
 31
0.0
  0
ARC
  5
E502
330
E464
100
AcDbEntity
  8
1
  6
Continuous
100
AcDbCircle
 10
30.0
 20
169.08125
 30
0.0
 40
2.38125
100
AcDbArc
 50
167.557726
 51
3.719127999999999
  0
ARC
  5
E503
330
E464
100
AcDbEntity
  8
1
  6
Continuous
100
AcDbCircle
 10
30.0
 20
169.08125
 30
0.0
 40
2.38125
100
AcDbArc
 50
16.12167
 51
155.1551849999999
  0
LINE
  5
E504
330
E464
100
AcDbEntity
  8
1
  6
Continuous
100
AcDbLine
 10
27.6
 20
175.2499999999998
 30
0.0
 11
27.6
 21
170.1
 31
0.0
  0
ARC
  5
E505
330
E464
100
AcDbEntity
  8
1
  6
Continuous
100
AcDbCircle
 10
29.6
 20
177.5
 30
0.0
 40
0.5
100
AcDbArc
 50
323.130102
 51
0.0
  0
LINE
  5
E506
330
E464
100
AcDbEntity
  8
1
  6
Continuous
100
AcDbLine
 10
35.6
 20
195.8499999999999
 30
0.0
 11
41.5
 21
195.4
 31
0.0
  0
ARC
  5
E507
330
E464
100
AcDbEntity
  8
1
  6
Continuous
100
AcDbCircle
 10
40.89999999999998
 20
195.3289159999999
 30
0.0
 40
3.2
100
AcDbArc
 50
0.0
 51
37.01219099999998
  0
ARC
  5
E508
330
E464
100
AcDbEntity
  8
1
  6
Continuous
100
AcDbCircle
 10
40.89999999999998
 20
195.3289159999999
 30
0.0
 40
1.6
100
AcDbArc
 50
0.0
 51
37.01219099999998
  0
LINE
  5
E509
330
E464
100
AcDbEntity
  8
1
  6
Continuous
100
AcDbLine
 10
34.6
 20
172.322939
 30
0.0
 11
34.6
 21
193.177061
 31
0.0
  0
LINE
  5
E50A
330
E464
100
AcDbEntity
  8
1
  6
Continuous
100
AcDbLine
 10
42.5
 20
170.171084
 30
0.0
 11
42.5
 21
171.25
 31
0.0
  0
LINE
  5
E50B
330
E464
100
AcDbEntity
  8
1
  6
Continuous
100
AcDbLine
 10
44.1
 20
170.171084
 30
0.0
 11
44.1
 21
195.3289159999999
 31
0.0
  0
LINE
  5
E50C
330
E464
100
AcDbEntity
  8
1
  6
Continuous
100
AcDbLine
 10
41.5
 20
194.25
 30
0.0
 11
41.5
 21
195.4
 31
0.0
  0
LINE
  5
E50D
330
E464
100
AcDbEntity
  8
1
  6
Continuous
100
AcDbLine
 10
40.56006899999998
 20
194.25
 30
0.0
 11
40.42984299999999
 21
194.443435
 31
0.0
  0
ARC
  5
E50E
330
E464
100
AcDbEntity
  8
1
  6
Continuous
100
AcDbCircle
 10
36.422939
 20
193.177061
 30
0.0
 40
1.822938999999999
100
AcDbArc
 50
50.449321
 51
180.0
  0
ARC
  5
E50F
330
E464
100
AcDbEntity
  8
1
  6
Continuous
100
AcDbCircle
 10
39.1
 20
196.4187499999999
 30
0.0
 40
3.98125
100
AcDbArc
 50
37.01219099999998
 51
158.3347039999999
  0
LINE
  5
E510
330
E464
100
AcDbEntity
  8
1
  6
Continuous
100
AcDbLine
 10
43.455224
 20
197.2552679999998
 30
0.0
 11
42.279058
 21
198.815403
 31
0.0
  0
LINE
  5
E511
330
E464
100
AcDbEntity
  8
1
  6
Continuous
100
AcDbLine
 10
42.17761199999999
 20
196.292092
 30
0.0
 11
41.001446
 21
197.852227
 31
0.0
  0
LINE
  5
E512
330
E464
100
AcDbEntity
  8
1
  6
Continuous
100
AcDbLine
 10
35.4
 20
197.8885629999999
 30
0.0
 11
36.88696999999999
 21
197.2978689999999
 31
0.0
  0
LINE
  5
E513
330
E464
100
AcDbEntity
  8
1
  6
Continuous
100
AcDbLine
 10
41.5
 20
171.25
 30
0.0
 11
41.5
 21
170.1
 31
0.0
  0
ARC
  5
E514
330
E464
100
AcDbEntity
  8
1
  6
Continuous
100
AcDbCircle
 10
39.1
 20
169.08125
 30
0.0
 40
3.98125
100
AcDbArc
 50
201.6652959999999
 51
322.9878089999999
  0
ARC
  5
E515
330
E464
100
AcDbEntity
  8
1
  6
Continuous
100
AcDbCircle
 10
40.89999999999998
 20
170.171084
 30
0.0
 40
1.6
100
AcDbArc
 50
322.9878089999999
 51
0.0
  0
LINE
  5
E516
330
E464
100
AcDbEntity
  8
1
  6
Continuous
100
AcDbLine
 10
43.455224
 20
168.244732
 30
0.0
 11
42.279058
 21
166.6845969999999
 31
0.0
  0
ARC
  5
E517
330
E464
100
AcDbEntity
  8
1
  6
Continuous
100
AcDbCircle
 10
40.89999999999998
 20
170.171084
 30
0.0
 40
3.2
100
AcDbArc
 50
322.9878089999999
 51
0.0
  0
ARC
  5
E518
330
E464
100
AcDbEntity
  8
1
  6
Continuous
100
AcDbCircle
 10
39.1
 20
169.08125
 30
0.0
 40
2.38125
100
AcDbArc
 50
24.844815
 51
65.61074999999999
  0
ARC
  5
E519
330
E464
100
AcDbEntity
  8
1
  6
Continuous
100
AcDbCircle
 10
39.1
 20
169.08125
 30
0.0
 40
2.38125
100
AcDbArc
 50
176.2808719999999
 51
12.44227399999999
  0
LINE
  5
E51A
330
E464
100
AcDbEntity
  8
1
  6
Continuous
100
AcDbLine
 10
35.6
 20
169.65
 30
0.0
 11
41.5
 21
170.1
 31
0.0
  0
LINE
  5
E51B
330
E464
100
AcDbEntity
  8
1
  6
Continuous
100
AcDbLine
 10
35.4
 20
167.611437
 30
0.0
 11
36.88696999999999
 21
168.202131
 31
0.0
  0
LINE
  5
E51C
330
E464
100
AcDbEntity
  8
1
  6
Continuous
100
AcDbLine
 10
42.17761199999999
 20
169.207908
 30
0.0
 11
41.001446
 21
167.647773
 31
0.0
  0
ARC
  5
E51D
330
E464
100
AcDbEntity
  8
1
  6
Continuous
100
AcDbCircle
 10
36.422939
 20
172.322939
 30
0.0
 40
1.822938999999999
100
AcDbArc
 50
180.0
 51
309.5506789999999
  0
LINE
  5
E51E
330
E464
100
AcDbEntity
  8
1
  6
Continuous
100
AcDbLine
 10
40.56006899999998
 20
171.25
 30
0.0
 11
40.42984299999999
 21
171.0565649999998
 31
0.0
  0
LINE
  5
E51F
330
E464
100
AcDbEntity
  8
1
  6
Continuous
100
AcDbLine
 10
25.0
 20
190.25
 30
0.0
 11
30.0
 21
190.25
 31
0.0
  0
LINE
  5
E520
330
E464
100
AcDbEntity
  8
1
  6
Continuous
100
AcDbLine
 10
25.0
 20
175.2499999999998
 30
0.0
 11
30.0
 21
175.2499999999998
 31
0.0
  0
LINE
  5
E521
330
E464
100
AcDbEntity
  8
1
  6
Continuous
100
AcDbLine
 10
30.0
 20
175.2499999999998
 30
0.0
 11
30.0
 21
190.25
 31
0.0
  0
LINE
  5
E522
330
E464
100
AcDbEntity
  8
1
  6
Continuous
100
AcDbLine
 10
26.6
 20
190.25
 30
0.0
 11
26.6
 21
195.3289159999999
 31
0.0
  0
LINE
  5
E523
330
E464
100
AcDbEntity
  8
1
  6
Continuous
100
AcDbLine
 10
35.6
 20
172.75
 30
0.0
 11
35.6
 21
192.75
 31
0.0
  0
LINE
  5
E524
330
E464
100
AcDbEntity
  8
1
  6
Continuous
100
AcDbLine
 10
37.1
 20
194.25
 30
0.0
 11
44.1
 21
194.25
 31
0.0
  0
LINE
  5
E525
330
E464
100
AcDbEntity
  8
1
  6
Continuous
100
AcDbLine
 10
37.1
 20
171.25
 30
0.0
 11
44.1
 21
171.25
 31
0.0
  0
LINE
  5
E526
330
E464
100
AcDbEntity
  8
1
  6
Continuous
100
AcDbLine
 10
42.5
 20
194.25
 30
0.0
 11
42.5
 21
195.3289159999999
 31
0.0
  0
ARC
  5
E527
330
E464
100
AcDbEntity
  8
1
  6
Continuous
100
AcDbCircle
 10
37.1
 20
192.75
 30
0.0
 40
1.5
100
AcDbArc
 50
90.0
 51
180.0
  0
ARC
  5
E528
330
E464
100
AcDbEntity
  8
1
  6
Continuous
100
AcDbCircle
 10
37.1
 20
172.75
 30
0.0
 40
1.5
100
AcDbArc
 50
180.0
 51
270.0
  0
ARC
  5
E529
330
E464
100
AcDbEntity
  8
1
  6
Continuous
100
AcDbCircle
 10
39.1
 20
169.08125
 30
0.0
 40
2.38125
100
AcDbArc
 50
114.3892499999999
 51
163.87833
  0
LINE
  5
E52A
330
E464
100
AcDbEntity
  8
1
  6
Continuous
100
AcDbLine
 10
598.7000000000001
 20
197.8885629999999
 30
0.0
 11
1052.499999999999
 21
197.8885629999999
 31
0.0
  0
LINE
  5
E52B
330
E464
100
AcDbEntity
  8
1
  6
Continuous
100
AcDbLine
 10
598.7000000000001
 20
197.2978689999999
 30
0.0
 11
1052.499999999999
 21
197.2978689999999
 31
0.0
  0
LINE
  5
E52C
330
E464
100
AcDbEntity
  8
1
  6
Continuous
100
AcDbLine
 10
1052.499999999999
 20
194.25
 30
0.0
 11
1054.099999999998
 21
194.25
 31
0.0
  0
LINE
  5
E52D
330
E464
100
AcDbEntity
  8
1
  6
Continuous
100
AcDbLine
 10
1052.499999999999
 20
171.25
 30
0.0
 11
1054.099999999998
 21
171.25
 31
0.0
  0
LINE
  5
E52E
330
E464
100
AcDbEntity
  8
1
  6
Continuous
100
AcDbLine
 10
1052.499999999999
 20
171.25
 30
0.0
 11
1052.499999999999
 21
194.25
 31
0.0
  0
ARC
  5
E52F
330
E464
100
AcDbEntity
  8
1
  6
Continuous
100
AcDbCircle
 10
1052.499999999999
 20
199.4885629999999
 30
0.0
 40
1.6
100
AcDbArc
 50
270.0
 51
0.0
  0
ARC
  5
E530
330
E464
100
AcDbEntity
  8
1
  6
Continuous
100
AcDbCircle
 10
1052.499999999999
 20
198.8978689999999
 30
0.0
 40
1.6
100
AcDbArc
 50
270.0
 51
0.0
  0
ARC
  5
E531
330
E464
100
AcDbEntity
  8
1
  6
Continuous
100
AcDbCircle
 10
598.7000000000001
 20
199.4885629999999
 30
0.0
 40
1.6
100
AcDbArc
 50
180.0
 51
270.0
  0
ARC
  5
E532
330
E464
100
AcDbEntity
  8
1
  6
Continuous
100
AcDbCircle
 10
598.7000000000001
 20
198.8978689999999
 30
0.0
 40
1.6
100
AcDbArc
 50
180.0
 51
270.0
  0
ARC
  5
E533
330
E464
100
AcDbEntity
  8
1
  6
Continuous
100
AcDbCircle
 10
1052.499999999999
 20
166.602131
 30
0.0
 40
1.6
100
AcDbArc
 50
0.0
 51
90.0
  0
ARC
  5
E534
330
E464
100
AcDbEntity
  8
1
  6
Continuous
100
AcDbCircle
 10
1052.499999999999
 20
166.011437
 30
0.0
 40
1.6
100
AcDbArc
 50
0.0
 51
90.0
  0
LINE
  5
E535
330
E464
100
AcDbEntity
  8
1
  6
Continuous
100
AcDbLine
 10
598.7000000000001
 20
168.202131
 30
0.0
 11
1052.499999999999
 21
168.202131
 31
0.0
  0
LINE
  5
E536
330
E464
100
AcDbEntity
  8
1
  6
Continuous
100
AcDbLine
 10
598.7000000000001
 20
167.611437
 30
0.0
 11
1052.499999999999
 21
167.611437
 31
0.0
  0
ARC
  5
E537
330
E464
100
AcDbEntity
  8
1
  6
Continuous
100
AcDbCircle
 10
598.7000000000001
 20
166.602131
 30
0.0
 40
1.6
100
AcDbArc
 50
90.0
 51
180.0
  0
ARC
  5
E538
330
E464
100
AcDbEntity
  8
1
  6
Continuous
100
AcDbCircle
 10
598.7000000000001
 20
166.011437
 30
0.0
 40
1.6
100
AcDbArc
 50
90.0
 51
180.0
  0
LINE
  5
E539
330
E464
100
AcDbEntity
  8
1
  6
Continuous
100
AcDbLine
 10
601.1
 20
195.8499999999999
 30
0.0
 11
611.6
 21
195.8499999999999
 31
0.0
  0
ARC
  5
E53A
330
E464
100
AcDbEntity
  8
1
  6
Continuous
100
AcDbCircle
 10
606.35
 20
196.4187499999999
 30
0.0
 40
2.38125
100
AcDbArc
 50
158.3347039999999
 51
181.6544389999999
  0
ARC
  5
E53B
330
E464
100
AcDbEntity
  8
1
  6
Continuous
100
AcDbCircle
 10
606.35
 20
196.4187499999999
 30
0.0
 40
2.38125
100
AcDbArc
 50
193.81839
 51
216.5697209999999
  0
LINE
  5
E53C
330
E464
100
AcDbEntity
  8
1
  6
Continuous
100
AcDbLine
 10
601.1
 20
196.3499999999999
 30
0.0
 11
601.1
 21
195.0
 31
0.0
  0
ARC
  5
E53D
330
E464
100
AcDbEntity
  8
1
  6
Continuous
100
AcDbCircle
 10
606.35
 20
196.4187499999999
 30
0.0
 40
2.38125
100
AcDbArc
 50
323.430279
 51
346.18161
  0
ARC
  5
E53E
330
E464
100
AcDbEntity
  8
1
  6
Continuous
100
AcDbCircle
 10
606.35
 20
196.4187499999999
 30
0.0
 40
2.38125
100
AcDbArc
 50
358.3455609999999
 51
21.665296
  0
LINE
  5
E53F
330
E464
100
AcDbEntity
  8
1
  6
Continuous
100
AcDbLine
 10
611.6
 20
196.3499999999999
 30
0.0
 11
611.6
 21
195.0
 31
0.0
  0
LINE
  5
E540
330
E464
100
AcDbEntity
  8
1
  6
Continuous
100
AcDbLine
 10
575.1
 20
192.8375
 30
0.0
 11
814.4999999999999
 21
192.8375
 31
0.0
  0
LINE
  5
E541
330
E464
100
AcDbEntity
  8
1
  6
Continuous
100
AcDbLine
 10
575.1
 20
191.6375
 30
0.0
 11
776.5
 21
191.6375
 31
0.0
  0
LINE
  5
E542
330
E464
100
AcDbEntity
  8
1
  6
Continuous
100
AcDbLine
 10
575.1
 20
172.6625
 30
0.0
 11
814.4999999999999
 21
172.6625
 31
0.0
  0
LINE
  5
E543
330
E464
100
AcDbEntity
  8
1
  6
Continuous
100
AcDbLine
 10
575.1
 20
173.8625
 30
0.0
 11
776.5
 21
173.8625
 31
0.0
  0
LINE
  5
E544
330
E464
100
AcDbEntity
  8
1
  6
Continuous
100
AcDbLine
 10
572.5999999999998
 20
190.25
 30
0.0
 11
575.1
 21
190.25
 31
0.0
  0
LINE
  5
E545
330
E464
100
AcDbEntity
  8
1
  6
Continuous
100
AcDbLine
 10
572.5999999999998
 20
175.2499999999998
 30
0.0
 11
575.1
 21
175.2499999999998
 31
0.0
  0
LINE
  5
E546
330
E464
100
AcDbEntity
  8
1
  6
Continuous
100
AcDbLine
 10
572.5999999999998
 20
175.2499999999998
 30
0.0
 11
572.5999999999998
 21
190.25
 31
0.0
  0
LINE
  5
E547
330
E464
100
AcDbEntity
  8
1
  6
Continuous
100
AcDbLine
 10
575.1
 20
190.25
 30
0.0
 11
575.1
 21
200.4
 31
0.0
  0
LINE
  5
E548
330
E464
100
AcDbEntity
  8
3
  6
DASHED
100
AcDbLine
 10
599.6
 20
190.25
 30
0.0
 11
597.1
 21
190.25
 31
0.0
  0
LINE
  5
E549
330
E464
100
AcDbEntity
  8
3
  6
DASHED
100
AcDbLine
 10
599.6
 20
175.2499999999998
 30
0.0
 11
599.6
 21
190.25
 31
0.0
  0
LINE
  5
E54A
330
E464
100
AcDbEntity
  8
3
  6
DASHED
100
AcDbLine
 10
599.6
 20
175.2499999999998
 30
0.0
 11
597.1
 21
175.2499999999998
 31
0.0
  0
LINE
  5
E54B
330
E464
100
AcDbEntity
  8
3
  6
DASHED
100
AcDbLine
 10
597.1
 20
190.25
 30
0.0
 11
597.1
 21
195.0
 31
0.0
  0
LINE
  5
E54C
330
E464
100
AcDbEntity
  8
3
  6
DASHED
100
AcDbLine
 10
811.5
 20
195.0
 30
0.0
 11
811.5
 21
170.5
 31
0.0
  0
LINE
  5
E54D
330
E464
100
AcDbEntity
  8
3
  6
DASHED
100
AcDbLine
 10
357.6999999999999
 20
195.0
 30
0.0
 11
357.6999999999999
 21
170.5
 31
0.0
  0
LINE
  5
E54E
330
E464
100
AcDbEntity
  8
3
  6
DASHED
100
AcDbLine
 10
360.6999999999999
 20
195.0
 30
0.0
 11
360.6999999999999
 21
170.5
 31
0.0
  0
LINE
  5
E54F
330
E464
100
AcDbEntity
  8
3
  6
DASHED
100
AcDbLine
 10
357.6999999999999
 20
195.0
 30
0.0
 11
575.1
 21
195.0
 31
0.0
  0
LINE
  5
E550
330
E464
100
AcDbEntity
  8
3
  6
DASHED
100
AcDbLine
 10
357.6999999999999
 20
170.5
 30
0.0
 11
575.1
 21
170.5
 31
0.0
  0
LINE
  5
E551
330
E464
100
AcDbEntity
  8
1
  6
Continuous
100
AcDbLine
 10
33.5
 20
196.3499999999999
 30
0.0
 11
27.561975
 21
195.8971
 31
0.0
  0
ARC
  5
E552
330
E464
100
AcDbEntity
  8
1
  6
Continuous
100
AcDbCircle
 10
27.6
 20
195.398548
 30
0.0
 40
0.5
100
AcDbArc
 50
94.36157300000001
 51
180.0
  0
LINE
  5
E553
330
E464
100
AcDbEntity
  8
1
  6
Continuous
100
AcDbLine
 10
35.6
 20
196.3499999999999
 30
0.0
 11
41.538025
 21
195.8971
 31
0.0
  0
LINE
  5
E554
330
E464
100
AcDbEntity
  8
1
  6
Continuous
100
AcDbLine
 10
35.6
 20
195.8499999999999
 30
0.0
 11
35.6
 21
196.3499999999999
 31
0.0
  0
ARC
  5
E555
330
E464
100
AcDbEntity
  8
1
  6
Continuous
100
AcDbCircle
 10
41.5
 20
195.398548
 30
0.0
 40
0.5
100
AcDbArc
 50
0.0
 51
85.63842699999998
  0
LINE
  5
E556
330
E464
100
AcDbEntity
  8
1
  6
Continuous
100
AcDbLine
 10
42.0
 20
194.25
 30
0.0
 11
42.0
 21
195.398548
 31
0.0
  0
ARC
  5
E557
330
E464
100
AcDbEntity
  8
1
  6
Continuous
100
AcDbCircle
 10
39.1
 20
196.4187499999999
 30
0.0
 40
2.38125
100
AcDbArc
 50
347.557726
 51
183.719128
  0
ARC
  5
E558
330
E464
100
AcDbEntity
  8
1
  6
Continuous
100
AcDbCircle
 10
39.1
 20
196.4187499999999
 30
0.0
 40
2.38125
100
AcDbArc
 50
196.12167
 51
245.6107499999998
  0
ARC
  5
E559
330
E464
100
AcDbEntity
  8
1
  6
Continuous
100
AcDbCircle
 10
39.1
 20
196.4187499999999
 30
0.0
 40
2.38125
100
AcDbArc
 50
294.38925
 51
335.155185
  0
LINE
  5
E55A
330
E464
100
AcDbEntity
  8
1
  6
Continuous
100
AcDbLine
 10
42.0
 20
171.25
 30
0.0
 11
42.0
 21
170.101452
 31
0.0
  0
ARC
  5
E55B
330
E464
100
AcDbEntity
  8
1
  6
Continuous
100
AcDbCircle
 10
41.5
 20
170.101452
 30
0.0
 40
0.5
100
AcDbArc
 50
274.361573
 51
0.0
  0
LINE
  5
E55C
330
E464
100
AcDbEntity
  8
1
  6
Continuous
100
AcDbLine
 10
35.6
 20
169.15
 30
0.0
 11
41.538025
 21
169.6029
 31
0.0
  0
LINE
  5
E55D
330
E464
100
AcDbEntity
  8
1
  6
Continuous
100
AcDbLine
 10
35.6
 20
169.65
 30
0.0
 11
35.6
 21
169.15
 31
0.0
  0
LINE
  5
E55E
330
E464
100
AcDbEntity
  8
1
  6
Continuous
100
AcDbLine
 10
33.5
 20
169.65
 30
0.0
 11
33.5
 21
169.15
 31
0.0
  0
LINE
  5
E55F
330
E464
100
AcDbEntity
  8
1
  6
Continuous
100
AcDbLine
 10
33.5
 20
169.15
 30
0.0
 11
27.561975
 21
169.6029
 31
0.0
  0
ARC
  5
E560
330
E464
100
AcDbEntity
  8
1
  6
Continuous
100
AcDbCircle
 10
27.6
 20
170.101452
 30
0.0
 40
0.5
100
AcDbArc
 50
180.0
 51
265.6384269999999
  0
LINE
  5
E561
330
E464
100
AcDbEntity
  8
1
  6
Continuous
100
AcDbLine
 10
27.1
 20
175.2499999999998
 30
0.0
 11
27.1
 21
170.101452
 31
0.0
  0
LINE
  5
E562
330
E464
100
AcDbEntity
  8
1
  6
Continuous
100
AcDbLine
 10
601.1
 20
196.3499999999999
 30
0.0
 11
611.6
 21
196.3499999999999
 31
0.0
  0
LINE
  5
E563
330
E464
100
AcDbEntity
  8
1
  6
Continuous
100
AcDbLine
 10
624.1
 20
196.3499999999999
 30
0.0
 11
624.1
 21
195.0
 31
0.0
  0
LINE
  5
E564
330
E464
100
AcDbEntity
  8
1
  6
Continuous
100
AcDbLine
 10
613.6
 20
196.3499999999999
 30
0.0
 11
613.6
 21
195.0
 31
0.0
  0
ARC
  5
E565
330
E464
100
AcDbEntity
  8
1
  6
Continuous
100
AcDbCircle
 10
618.85
 20
196.4187499999999
 30
0.0
 40
2.38125
100
AcDbArc
 50
323.430279
 51
346.18161
  0
ARC
  5
E566
330
E464
100
AcDbEntity
  8
1
  6
Continuous
100
AcDbCircle
 10
618.85
 20
196.4187499999999
 30
0.0
 40
2.38125
100
AcDbArc
 50
193.81839
 51
216.5697209999999
  0
LINE
  5
E567
330
E464
100
AcDbEntity
  8
1
  6
Continuous
100
AcDbLine
 10
613.6
 20
196.3499999999999
 30
0.0
 11
624.1
 21
196.3499999999999
 31
0.0
  0
LINE
  5
E568
330
E464
100
AcDbEntity
  8
1
  6
Continuous
100
AcDbLine
 10
613.6
 20
195.8499999999999
 30
0.0
 11
624.1
 21
195.8499999999999
 31
0.0
  0
ARC
  5
E569
330
E464
100
AcDbEntity
  8
1
  6
Continuous
100
AcDbCircle
 10
618.85
 20
196.4187499999999
 30
0.0
 40
2.38125
100
AcDbArc
 50
158.3347039999999
 51
181.6544389999999
  0
ARC
  5
E56A
330
E464
100
AcDbEntity
  8
1
  6
Continuous
100
AcDbCircle
 10
618.85
 20
196.4187499999999
 30
0.0
 40
2.38125
100
AcDbArc
 50
358.3455609999999
 51
21.665296
  0
ARC
  5
E56B
330
E464
100
AcDbEntity
  8
1
  6
Continuous
100
AcDbCircle
 10
631.35
 20
196.4187499999999
 30
0.0
 40
2.38125
100
AcDbArc
 50
193.81839
 51
216.5697209999999
  0
ARC
  5
E56C
330
E464
100
AcDbEntity
  8
1
  6
Continuous
100
AcDbCircle
 10
631.35
 20
196.4187499999999
 30
0.0
 40
2.38125
100
AcDbArc
 50
323.430279
 51
346.18161
  0
LINE
  5
E56D
330
E464
100
AcDbEntity
  8
1
  6
Continuous
100
AcDbLine
 10
626.1
 20
196.3499999999999
 30
0.0
 11
626.1
 21
195.0
 31
0.0
  0
LINE
  5
E56E
330
E464
100
AcDbEntity
  8
1
  6
Continuous
100
AcDbLine
 10
636.6
 20
196.3499999999999
 30
0.0
 11
636.6
 21
195.0
 31
0.0
  0
LINE
  5
E56F
330
E464
100
AcDbEntity
  8
1
  6
Continuous
100
AcDbLine
 10
626.1
 20
195.8499999999999
 30
0.0
 11
636.6
 21
195.8499999999999
 31
0.0
  0
LINE
  5
E570
330
E464
100
AcDbEntity
  8
1
  6
Continuous
100
AcDbLine
 10
626.1
 20
196.3499999999999
 30
0.0
 11
636.6
 21
196.3499999999999
 31
0.0
  0
ARC
  5
E571
330
E464
100
AcDbEntity
  8
1
  6
Continuous
100
AcDbCircle
 10
631.35
 20
196.4187499999999
 30
0.0
 40
2.38125
100
AcDbArc
 50
358.3455609999999
 51
21.665296
  0
ARC
  5
E572
330
E464
100
AcDbEntity
  8
1
  6
Continuous
100
AcDbCircle
 10
631.35
 20
196.4187499999999
 30
0.0
 40
2.38125
100
AcDbArc
 50
158.3347039999999
 51
181.6544389999999
  0
LINE
  5
E573
330
E464
100
AcDbEntity
  8
1
  6
Continuous
100
AcDbLine
 10
649.1
 20
196.3499999999999
 30
0.0
 11
649.1
 21
195.0
 31
0.0
  0
LINE
  5
E574
330
E464
100
AcDbEntity
  8
1
  6
Continuous
100
AcDbLine
 10
638.6
 20
196.3499999999999
 30
0.0
 11
638.6
 21
195.0
 31
0.0
  0
ARC
  5
E575
330
E464
100
AcDbEntity
  8
1
  6
Continuous
100
AcDbCircle
 10
643.85
 20
196.4187499999999
 30
0.0
 40
2.38125
100
AcDbArc
 50
323.430279
 51
346.18161
  0
ARC
  5
E576
330
E464
100
AcDbEntity
  8
1
  6
Continuous
100
AcDbCircle
 10
643.85
 20
196.4187499999999
 30
0.0
 40
2.38125
100
AcDbArc
 50
193.81839
 51
216.5697209999999
  0
ARC
  5
E577
330
E464
100
AcDbEntity
  8
1
  6
Continuous
100
AcDbCircle
 10
643.85
 20
196.4187499999999
 30
0.0
 40
2.38125
100
AcDbArc
 50
158.3347039999999
 51
181.6544389999999
  0
ARC
  5
E578
330
E464
100
AcDbEntity
  8
1
  6
Continuous
100
AcDbCircle
 10
643.85
 20
196.4187499999999
 30
0.0
 40
2.38125
100
AcDbArc
 50
358.3455609999999
 51
21.665296
  0
LINE
  5
E579
330
E464
100
AcDbEntity
  8
1
  6
Continuous
100
AcDbLine
 10
638.6
 20
196.3499999999999
 30
0.0
 11
649.1
 21
196.3499999999999
 31
0.0
  0
LINE
  5
E57A
330
E464
100
AcDbEntity
  8
1
  6
Continuous
100
AcDbLine
 10
638.6
 20
195.8499999999999
 30
0.0
 11
649.1
 21
195.8499999999999
 31
0.0
  0
ARC
  5
E57B
330
E464
100
AcDbEntity
  8
1
  6
Continuous
100
AcDbCircle
 10
656.35
 20
196.4187499999999
 30
0.0
 40
2.38125
100
AcDbArc
 50
193.81839
 51
216.5697209999999
  0
ARC
  5
E57C
330
E464
100
AcDbEntity
  8
1
  6
Continuous
100
AcDbCircle
 10
656.35
 20
196.4187499999999
 30
0.0
 40
2.38125
100
AcDbArc
 50
323.430279
 51
346.18161
  0
LINE
  5
E57D
330
E464
100
AcDbEntity
  8
1
  6
Continuous
100
AcDbLine
 10
651.1
 20
196.3499999999999
 30
0.0
 11
651.1
 21
195.0
 31
0.0
  0
LINE
  5
E57E
330
E464
100
AcDbEntity
  8
1
  6
Continuous
100
AcDbLine
 10
661.6
 20
196.3499999999999
 30
0.0
 11
661.6
 21
195.0
 31
0.0
  0
LINE
  5
E57F
330
E464
100
AcDbEntity
  8
1
  6
Continuous
100
AcDbLine
 10
651.1
 20
195.8499999999999
 30
0.0
 11
661.6
 21
195.8499999999999
 31
0.0
  0
LINE
  5
E580
330
E464
100
AcDbEntity
  8
1
  6
Continuous
100
AcDbLine
 10
651.1
 20
196.3499999999999
 30
0.0
 11
661.6
 21
196.3499999999999
 31
0.0
  0
ARC
  5
E581
330
E464
100
AcDbEntity
  8
1
  6
Continuous
100
AcDbCircle
 10
656.35
 20
196.4187499999999
 30
0.0
 40
2.38125
100
AcDbArc
 50
358.3455609999999
 51
21.665296
  0
ARC
  5
E582
330
E464
100
AcDbEntity
  8
1
  6
Continuous
100
AcDbCircle
 10
656.35
 20
196.4187499999999
 30
0.0
 40
2.38125
100
AcDbArc
 50
158.3347039999999
 51
181.6544389999999
  0
LINE
  5
E583
330
E464
100
AcDbEntity
  8
1
  6
Continuous
100
AcDbLine
 10
663.6
 20
196.3499999999999
 30
0.0
 11
674.1
 21
196.3499999999999
 31
0.0
  0
LINE
  5
E584
330
E464
100
AcDbEntity
  8
1
  6
Continuous
100
AcDbLine
 10
663.6
 20
195.8499999999999
 30
0.0
 11
674.1
 21
195.8499999999999
 31
0.0
  0
LINE
  5
E585
330
E464
100
AcDbEntity
  8
1
  6
Continuous
100
AcDbLine
 10
663.6
 20
196.3499999999999
 30
0.0
 11
663.6
 21
195.0
 31
0.0
  0
ARC
  5
E586
330
E464
100
AcDbEntity
  8
1
  6
Continuous
100
AcDbCircle
 10
668.85
 20
196.4187499999999
 30
0.0
 40
2.38125
100
AcDbArc
 50
193.81839
 51
216.5697209999999
  0
ARC
  5
E587
330
E464
100
AcDbEntity
  8
1
  6
Continuous
100
AcDbCircle
 10
668.85
 20
196.4187499999999
 30
0.0
 40
2.38125
100
AcDbArc
 50
158.3347039999999
 51
181.6544389999999
  0
LINE
  5
E588
330
E464
100
AcDbEntity
  8
1
  6
Continuous
100
AcDbLine
 10
674.1
 20
196.3499999999999
 30
0.0
 11
674.1
 21
195.0
 31
0.0
  0
ARC
  5
E589
330
E464
100
AcDbEntity
  8
1
  6
Continuous
100
AcDbCircle
 10
668.85
 20
196.4187499999999
 30
0.0
 40
2.38125
100
AcDbArc
 50
323.430279
 51
346.18161
  0
ARC
  5
E58A
330
E464
100
AcDbEntity
  8
1
  6
Continuous
100
AcDbCircle
 10
668.85
 20
196.4187499999999
 30
0.0
 40
2.38125
100
AcDbArc
 50
358.3455609999999
 51
21.665296
  0
ARC
  5
E58B
330
E464
100
AcDbEntity
  8
1
  6
Continuous
100
AcDbCircle
 10
681.35
 20
196.4187499999999
 30
0.0
 40
2.38125
100
AcDbArc
 50
323.430279
 51
346.18161
  0
LINE
  5
E58C
330
E464
100
AcDbEntity
  8
1
  6
Continuous
100
AcDbLine
 10
686.6
 20
196.3499999999999
 30
0.0
 11
686.6
 21
195.0
 31
0.0
  0
ARC
  5
E58D
330
E464
100
AcDbEntity
  8
1
  6
Continuous
100
AcDbCircle
 10
681.35
 20
196.4187499999999
 30
0.0
 40
2.38125
100
AcDbArc
 50
193.81839
 51
216.5697209999999
  0
LINE
  5
E58E
330
E464
100
AcDbEntity
  8
1
  6
Continuous
100
AcDbLine
 10
676.1
 20
196.3499999999999
 30
0.0
 11
676.1
 21
195.0
 31
0.0
  0
LINE
  5
E58F
330
E464
100
AcDbEntity
  8
1
  6
Continuous
100
AcDbLine
 10
676.1
 20
195.8499999999999
 30
0.0
 11
686.6
 21
195.8499999999999
 31
0.0
  0
LINE
  5
E590
330
E464
100
AcDbEntity
  8
1
  6
Continuous
100
AcDbLine
 10
676.1
 20
196.3499999999999
 30
0.0
 11
686.6
 21
196.3499999999999
 31
0.0
  0
ARC
  5
E591
330
E464
100
AcDbEntity
  8
1
  6
Continuous
100
AcDbCircle
 10
681.35
 20
196.4187499999999
 30
0.0
 40
2.38125
100
AcDbArc
 50
358.3455609999999
 51
21.665296
  0
ARC
  5
E592
330
E464
100
AcDbEntity
  8
1
  6
Continuous
100
AcDbCircle
 10
681.35
 20
196.4187499999999
 30
0.0
 40
2.38125
100
AcDbArc
 50
158.3347039999999
 51
181.6544389999999
  0
LINE
  5
E593
330
E464
100
AcDbEntity
  8
1
  6
Continuous
100
AcDbLine
 10
688.6
 20
196.3499999999999
 30
0.0
 11
688.6
 21
195.0
 31
0.0
  0
ARC
  5
E594
330
E464
100
AcDbEntity
  8
1
  6
Continuous
100
AcDbCircle
 10
693.85
 20
196.4187499999999
 30
0.0
 40
2.38125
100
AcDbArc
 50
193.81839
 51
216.5697209999999
  0
LINE
  5
E595
330
E464
100
AcDbEntity
  8
1
  6
Continuous
100
AcDbLine
 10
699.1
 20
196.3499999999999
 30
0.0
 11
699.1
 21
195.0
 31
0.0
  0
ARC
  5
E596
330
E464
100
AcDbEntity
  8
1
  6
Continuous
100
AcDbCircle
 10
693.85
 20
196.4187499999999
 30
0.0
 40
2.38125
100
AcDbArc
 50
323.430279
 51
346.18161
  0
ARC
  5
E597
330
E464
100
AcDbEntity
  8
1
  6
Continuous
100
AcDbCircle
 10
693.85
 20
196.4187499999999
 30
0.0
 40
2.38125
100
AcDbArc
 50
158.3347039999999
 51
181.6544389999999
  0
ARC
  5
E598
330
E464
100
AcDbEntity
  8
1
  6
Continuous
100
AcDbCircle
 10
693.85
 20
196.4187499999999
 30
0.0
 40
2.38125
100
AcDbArc
 50
358.3455609999999
 51
21.665296
  0
LINE
  5
E599
330
E464
100
AcDbEntity
  8
1
  6
Continuous
100
AcDbLine
 10
688.6
 20
196.3499999999999
 30
0.0
 11
699.1
 21
196.3499999999999
 31
0.0
  0
LINE
  5
E59A
330
E464
100
AcDbEntity
  8
1
  6
Continuous
100
AcDbLine
 10
688.6
 20
195.8499999999999
 30
0.0
 11
699.1
 21
195.8499999999999
 31
0.0
  0
ARC
  5
E59B
330
E464
100
AcDbEntity
  8
1
  6
Continuous
100
AcDbCircle
 10
706.35
 20
196.4187499999999
 30
0.0
 40
2.38125
100
AcDbArc
 50
323.430279
 51
346.18161
  0
LINE
  5
E59C
330
E464
100
AcDbEntity
  8
1
  6
Continuous
100
AcDbLine
 10
711.6
 20
196.3499999999999
 30
0.0
 11
711.6
 21
195.0
 31
0.0
  0
ARC
  5
E59D
330
E464
100
AcDbEntity
  8
1
  6
Continuous
100
AcDbCircle
 10
706.35
 20
196.4187499999999
 30
0.0
 40
2.38125
100
AcDbArc
 50
193.81839
 51
216.5697209999999
  0
LINE
  5
E59E
330
E464
100
AcDbEntity
  8
1
  6
Continuous
100
AcDbLine
 10
701.1
 20
196.3499999999999
 30
0.0
 11
701.1
 21
195.0
 31
0.0
  0
LINE
  5
E59F
330
E464
100
AcDbEntity
  8
1
  6
Continuous
100
AcDbLine
 10
701.1
 20
195.8499999999999
 30
0.0
 11
711.6
 21
195.8499999999999
 31
0.0
  0
LINE
  5
E5A0
330
E464
100
AcDbEntity
  8
1
  6
Continuous
100
AcDbLine
 10
701.1
 20
196.3499999999999
 30
0.0
 11
711.6
 21
196.3499999999999
 31
0.0
  0
ARC
  5
E5A1
330
E464
100
AcDbEntity
  8
1
  6
Continuous
100
AcDbCircle
 10
706.35
 20
196.4187499999999
 30
0.0
 40
2.38125
100
AcDbArc
 50
358.3455609999999
 51
21.665296
  0
ARC
  5
E5A2
330
E464
100
AcDbEntity
  8
1
  6
Continuous
100
AcDbCircle
 10
706.35
 20
196.4187499999999
 30
0.0
 40
2.38125
100
AcDbArc
 50
158.3347039999999
 51
181.6544389999999
  0
LINE
  5
E5A3
330
E464
100
AcDbEntity
  8
1
  6
Continuous
100
AcDbLine
 10
713.6
 20
196.3499999999999
 30
0.0
 11
713.6
 21
195.0
 31
0.0
  0
ARC
  5
E5A4
330
E464
100
AcDbEntity
  8
1
  6
Continuous
100
AcDbCircle
 10
718.85
 20
196.4187499999999
 30
0.0
 40
2.38125
100
AcDbArc
 50
193.81839
 51
216.5697209999999
  0
LINE
  5
E5A5
330
E464
100
AcDbEntity
  8
1
  6
Continuous
100
AcDbLine
 10
724.1
 20
196.3499999999999
 30
0.0
 11
724.1
 21
195.0
 31
0.0
  0
ARC
  5
E5A6
330
E464
100
AcDbEntity
  8
1
  6
Continuous
100
AcDbCircle
 10
718.85
 20
196.4187499999999
 30
0.0
 40
2.38125
100
AcDbArc
 50
323.430279
 51
346.18161
  0
LINE
  5
E5A7
330
E464
100
AcDbEntity
  8
1
  6
Continuous
100
AcDbLine
 10
713.6
 20
196.3499999999999
 30
0.0
 11
724.1
 21
196.3499999999999
 31
0.0
  0
LINE
  5
E5A8
330
E464
100
AcDbEntity
  8
1
  6
Continuous
100
AcDbLine
 10
713.6
 20
195.8499999999999
 30
0.0
 11
724.1
 21
195.8499999999999
 31
0.0
  0
ARC
  5
E5A9
330
E464
100
AcDbEntity
  8
1
  6
Continuous
100
AcDbCircle
 10
718.85
 20
196.4187499999999
 30
0.0
 40
2.38125
100
AcDbArc
 50
158.3347039999999
 51
181.6544389999999
  0
ARC
  5
E5AA
330
E464
100
AcDbEntity
  8
1
  6
Continuous
100
AcDbCircle
 10
718.85
 20
196.4187499999999
 30
0.0
 40
2.38125
100
AcDbArc
 50
358.3455609999999
 51
21.665296
  0
LINE
  5
E5AB
330
E464
100
AcDbEntity
  8
1
  6
Continuous
100
AcDbLine
 10
726.1
 20
195.8499999999999
 30
0.0
 11
736.6
 21
195.8499999999999
 31
0.0
  0
LINE
  5
E5AC
330
E464
100
AcDbEntity
  8
1
  6
Continuous
100
AcDbLine
 10
726.1
 20
196.3499999999999
 30
0.0
 11
736.6
 21
196.3499999999999
 31
0.0
  0
ARC
  5
E5AD
330
E464
100
AcDbEntity
  8
1
  6
Continuous
100
AcDbCircle
 10
731.35
 20
196.4187499999999
 30
0.0
 40
2.38125
100
AcDbArc
 50
323.430279
 51
346.18161
  0
ARC
  5
E5AE
330
E464
100
AcDbEntity
  8
1
  6
Continuous
100
AcDbCircle
 10
731.35
 20
196.4187499999999
 30
0.0
 40
2.38125
100
AcDbArc
 50
193.81839
 51
216.5697209999999
  0
LINE
  5
E5AF
330
E464
100
AcDbEntity
  8
1
  6
Continuous
100
AcDbLine
 10
726.1
 20
196.3499999999999
 30
0.0
 11
726.1
 21
195.0
 31
0.0
  0
ARC
  5
E5B0
330
E464
100
AcDbEntity
  8
1
  6
Continuous
100
AcDbCircle
 10
731.35
 20
196.4187499999999
 30
0.0
 40
2.38125
100
AcDbArc
 50
358.3455609999999
 51
21.665296
  0
ARC
  5
E5B1
330
E464
100
AcDbEntity
  8
1
  6
Continuous
100
AcDbCircle
 10
731.35
 20
196.4187499999999
 30
0.0
 40
2.38125
100
AcDbArc
 50
158.3347039999999
 51
181.6544389999999
  0
LINE
  5
E5B2
330
E464
100
AcDbEntity
  8
1
  6
Continuous
100
AcDbLine
 10
736.6
 20
196.3499999999999
 30
0.0
 11
736.6
 21
195.0
 31
0.0
  0
LINE
  5
E5B3
330
E464
100
AcDbEntity
  8
1
  6
Continuous
100
AcDbLine
 10
713.6
 20
169.65
 30
0.0
 11
724.1
 21
169.65
 31
0.0
  0
LINE
  5
E5B4
330
E464
100
AcDbEntity
  8
1
  6
Continuous
100
AcDbLine
 10
713.6
 20
169.15
 30
0.0
 11
724.1
 21
169.15
 31
0.0
  0
LINE
  5
E5B5
330
E464
100
AcDbEntity
  8
1
  6
Continuous
100
AcDbLine
 10
651.1
 20
169.15
 30
0.0
 11
661.6
 21
169.15
 31
0.0
  0
LINE
  5
E5B6
330
E464
100
AcDbEntity
  8
1
  6
Continuous
100
AcDbLine
 10
651.1
 20
169.65
 30
0.0
 11
661.6
 21
169.65
 31
0.0
  0
LINE
  5
E5B7
330
E464
100
AcDbEntity
  8
1
  6
Continuous
100
AcDbLine
 10
651.1
 20
169.15
 30
0.0
 11
651.1
 21
170.5
 31
0.0
  0
ARC
  5
E5B8
330
E464
100
AcDbEntity
  8
1
  6
Continuous
100
AcDbCircle
 10
656.35
 20
169.08125
 30
0.0
 40
2.38125
100
AcDbArc
 50
143.430279
 51
166.18161
  0
ARC
  5
E5B9
330
E464
100
AcDbEntity
  8
1
  6
Continuous
100
AcDbCircle
 10
643.85
 20
169.08125
 30
0.0
 40
2.38125
100
AcDbArc
 50
143.430279
 51
166.18161
  0
ARC
  5
E5BA
330
E464
100
AcDbEntity
  8
1
  6
Continuous
100
AcDbCircle
 10
643.85
 20
169.08125
 30
0.0
 40
2.38125
100
AcDbArc
 50
13.81839
 51
36.569721
  0
LINE
  5
E5BB
330
E464
100
AcDbEntity
  8
1
  6
Continuous
100
AcDbLine
 10
638.6
 20
169.15
 30
0.0
 11
638.6
 21
170.5
 31
0.0
  0
LINE
  5
E5BC
330
E464
100
AcDbEntity
  8
1
  6
Continuous
100
AcDbLine
 10
649.1
 20
169.15
 30
0.0
 11
649.1
 21
170.5
 31
0.0
  0
LINE
  5
E5BD
330
E464
100
AcDbEntity
  8
1
  6
Continuous
100
AcDbLine
 10
636.6
 20
169.15
 30
0.0
 11
636.6
 21
170.5
 31
0.0
  0
LINE
  5
E5BE
330
E464
100
AcDbEntity
  8
1
  6
Continuous
100
AcDbLine
 10
626.1
 20
169.15
 30
0.0
 11
626.1
 21
170.5
 31
0.0
  0
ARC
  5
E5BF
330
E464
100
AcDbEntity
  8
1
  6
Continuous
100
AcDbCircle
 10
631.35
 20
169.08125
 30
0.0
 40
2.38125
100
AcDbArc
 50
13.81839
 51
36.569721
  0
ARC
  5
E5C0
330
E464
100
AcDbEntity
  8
1
  6
Continuous
100
AcDbCircle
 10
631.35
 20
169.08125
 30
0.0
 40
2.38125
100
AcDbArc
 50
143.430279
 51
166.18161
  0
ARC
  5
E5C1
330
E464
100
AcDbEntity
  8
1
  6
Continuous
100
AcDbCircle
 10
618.85
 20
169.08125
 30
0.0
 40
2.38125
100
AcDbArc
 50
143.430279
 51
166.18161
  0
ARC
  5
E5C2
330
E464
100
AcDbEntity
  8
1
  6
Continuous
100
AcDbCircle
 10
618.85
 20
169.08125
 30
0.0
 40
2.38125
100
AcDbArc
 50
13.81839
 51
36.569721
  0
LINE
  5
E5C3
330
E464
100
AcDbEntity
  8
1
  6
Continuous
100
AcDbLine
 10
613.6
 20
169.15
 30
0.0
 11
613.6
 21
170.5
 31
0.0
  0
LINE
  5
E5C4
330
E464
100
AcDbEntity
  8
1
  6
Continuous
100
AcDbLine
 10
624.1
 20
169.15
 30
0.0
 11
624.1
 21
170.5
 31
0.0
  0
LINE
  5
E5C5
330
E464
100
AcDbEntity
  8
1
  6
Continuous
100
AcDbLine
 10
611.6
 20
169.15
 30
0.0
 11
611.6
 21
170.5
 31
0.0
  0
LINE
  5
E5C6
330
E464
100
AcDbEntity
  8
1
  6
Continuous
100
AcDbLine
 10
601.1
 20
169.15
 30
0.0
 11
601.1
 21
170.5
 31
0.0
  0
ARC
  5
E5C7
330
E464
100
AcDbEntity
  8
1
  6
Continuous
100
AcDbCircle
 10
606.35
 20
169.08125
 30
0.0
 40
2.38125
100
AcDbArc
 50
13.81839
 51
36.569721
  0
ARC
  5
E5C8
330
E464
100
AcDbEntity
  8
1
  6
Continuous
100
AcDbCircle
 10
606.35
 20
169.08125
 30
0.0
 40
2.38125
100
AcDbArc
 50
143.430279
 51
166.18161
  0
LINE
  5
E5C9
330
E464
100
AcDbEntity
  8
1
  6
Continuous
100
AcDbLine
 10
613.6
 20
169.65
 30
0.0
 11
624.1
 21
169.65
 31
0.0
  0
LINE
  5
E5CA
330
E464
100
AcDbEntity
  8
1
  6
Continuous
100
AcDbLine
 10
613.6
 20
169.15
 30
0.0
 11
624.1
 21
169.15
 31
0.0
  0
LINE
  5
E5CB
330
E464
100
AcDbEntity
  8
1
  6
Continuous
100
AcDbLine
 10
601.1
 20
169.15
 30
0.0
 11
611.6
 21
169.15
 31
0.0
  0
LINE
  5
E5CC
330
E464
100
AcDbEntity
  8
1
  6
Continuous
100
AcDbLine
 10
601.1
 20
169.65
 30
0.0
 11
611.6
 21
169.65
 31
0.0
  0
ARC
  5
E5CD
330
E464
100
AcDbEntity
  8
1
  6
Continuous
100
AcDbCircle
 10
606.35
 20
169.08125
 30
0.0
 40
2.38125
100
AcDbArc
 50
178.345561
 51
201.6652959999999
  0
ARC
  5
E5CE
330
E464
100
AcDbEntity
  8
1
  6
Continuous
100
AcDbCircle
 10
618.85
 20
169.08125
 30
0.0
 40
2.38125
100
AcDbArc
 50
338.3347039999998
 51
1.654438999999999
  0
ARC
  5
E5CF
330
E464
100
AcDbEntity
  8
1
  6
Continuous
100
AcDbCircle
 10
618.85
 20
169.08125
 30
0.0
 40
2.38125
100
AcDbArc
 50
178.345561
 51
201.6652959999999
  0
ARC
  5
E5D0
330
E464
100
AcDbEntity
  8
1
  6
Continuous
100
AcDbCircle
 10
606.35
 20
169.08125
 30
0.0
 40
2.38125
100
AcDbArc
 50
338.3347039999998
 51
1.654438999999999
  0
ARC
  5
E5D1
330
E464
100
AcDbEntity
  8
1
  6
Continuous
100
AcDbCircle
 10
631.35
 20
169.08125
 30
0.0
 40
2.38125
100
AcDbArc
 50
178.345561
 51
201.6652959999999
  0
ARC
  5
E5D2
330
E464
100
AcDbEntity
  8
1
  6
Continuous
100
AcDbCircle
 10
631.35
 20
169.08125
 30
0.0
 40
2.38125
100
AcDbArc
 50
338.3347039999998
 51
1.654438999999999
  0
LINE
  5
E5D3
330
E464
100
AcDbEntity
  8
1
  6
Continuous
100
AcDbLine
 10
626.1
 20
169.15
 30
0.0
 11
636.6
 21
169.15
 31
0.0
  0
LINE
  5
E5D4
330
E464
100
AcDbEntity
  8
1
  6
Continuous
100
AcDbLine
 10
626.1
 20
169.65
 30
0.0
 11
636.6
 21
169.65
 31
0.0
  0
ARC
  5
E5D5
330
E464
100
AcDbEntity
  8
1
  6
Continuous
100
AcDbCircle
 10
656.35
 20
169.08125
 30
0.0
 40
2.38125
100
AcDbArc
 50
178.345561
 51
201.6652959999999
  0
LINE
  5
E5D6
330
E464
100
AcDbEntity
  8
1
  6
Continuous
100
AcDbLine
 10
638.6
 20
169.65
 30
0.0
 11
649.1
 21
169.65
 31
0.0
  0
LINE
  5
E5D7
330
E464
100
AcDbEntity
  8
1
  6
Continuous
100
AcDbLine
 10
638.6
 20
169.15
 30
0.0
 11
649.1
 21
169.15
 31
0.0
  0
ARC
  5
E5D8
330
E464
100
AcDbEntity
  8
1
  6
Continuous
100
AcDbCircle
 10
643.85
 20
169.08125
 30
0.0
 40
2.38125
100
AcDbArc
 50
338.3347039999998
 51
1.654438999999999
  0
ARC
  5
E5D9
330
E464
100
AcDbEntity
  8
1
  6
Continuous
100
AcDbCircle
 10
643.85
 20
169.08125
 30
0.0
 40
2.38125
100
AcDbArc
 50
178.345561
 51
201.6652959999999
  0
ARC
  5
E5DA
330
E464
100
AcDbEntity
  8
1
  6
Continuous
100
AcDbCircle
 10
718.85
 20
169.08125
 30
0.0
 40
2.38125
100
AcDbArc
 50
13.81839
 51
36.569721
  0
ARC
  5
E5DB
330
E464
100
AcDbEntity
  8
1
  6
Continuous
100
AcDbCircle
 10
718.85
 20
169.08125
 30
0.0
 40
2.38125
100
AcDbArc
 50
143.430279
 51
166.18161
  0
LINE
  5
E5DC
330
E464
100
AcDbEntity
  8
1
  6
Continuous
100
AcDbLine
 10
713.6
 20
169.15
 30
0.0
 11
713.6
 21
170.5
 31
0.0
  0
LINE
  5
E5DD
330
E464
100
AcDbEntity
  8
1
  6
Continuous
100
AcDbLine
 10
701.1
 20
169.15
 30
0.0
 11
701.1
 21
170.5
 31
0.0
  0
ARC
  5
E5DE
330
E464
100
AcDbEntity
  8
1
  6
Continuous
100
AcDbCircle
 10
706.35
 20
169.08125
 30
0.0
 40
2.38125
100
AcDbArc
 50
143.430279
 51
166.18161
  0
LINE
  5
E5DF
330
E464
100
AcDbEntity
  8
1
  6
Continuous
100
AcDbLine
 10
711.6
 20
169.15
 30
0.0
 11
711.6
 21
170.5
 31
0.0
  0
ARC
  5
E5E0
330
E464
100
AcDbEntity
  8
1
  6
Continuous
100
AcDbCircle
 10
706.35
 20
169.08125
 30
0.0
 40
2.38125
100
AcDbArc
 50
13.81839
 51
36.569721
  0
ARC
  5
E5E1
330
E464
100
AcDbEntity
  8
1
  6
Continuous
100
AcDbCircle
 10
693.85
 20
169.08125
 30
0.0
 40
2.38125
100
AcDbArc
 50
13.81839
 51
36.569721
  0
LINE
  5
E5E2
330
E464
100
AcDbEntity
  8
1
  6
Continuous
100
AcDbLine
 10
699.1
 20
169.15
 30
0.0
 11
699.1
 21
170.5
 31
0.0
  0
ARC
  5
E5E3
330
E464
100
AcDbEntity
  8
1
  6
Continuous
100
AcDbCircle
 10
693.85
 20
169.08125
 30
0.0
 40
2.38125
100
AcDbArc
 50
143.430279
 51
166.18161
  0
LINE
  5
E5E4
330
E464
100
AcDbEntity
  8
1
  6
Continuous
100
AcDbLine
 10
688.6
 20
169.15
 30
0.0
 11
688.6
 21
170.5
 31
0.0
  0
LINE
  5
E5E5
330
E464
100
AcDbEntity
  8
1
  6
Continuous
100
AcDbLine
 10
676.1
 20
169.15
 30
0.0
 11
676.1
 21
170.5
 31
0.0
  0
ARC
  5
E5E6
330
E464
100
AcDbEntity
  8
1
  6
Continuous
100
AcDbCircle
 10
681.35
 20
169.08125
 30
0.0
 40
2.38125
100
AcDbArc
 50
143.430279
 51
166.18161
  0
LINE
  5
E5E7
330
E464
100
AcDbEntity
  8
1
  6
Continuous
100
AcDbLine
 10
686.6
 20
169.15
 30
0.0
 11
686.6
 21
170.5
 31
0.0
  0
ARC
  5
E5E8
330
E464
100
AcDbEntity
  8
1
  6
Continuous
100
AcDbCircle
 10
681.35
 20
169.08125
 30
0.0
 40
2.38125
100
AcDbArc
 50
13.81839
 51
36.569721
  0
ARC
  5
E5E9
330
E464
100
AcDbEntity
  8
1
  6
Continuous
100
AcDbCircle
 10
668.85
 20
169.08125
 30
0.0
 40
2.38125
100
AcDbArc
 50
13.81839
 51
36.569721
  0
LINE
  5
E5EA
330
E464
100
AcDbEntity
  8
1
  6
Continuous
100
AcDbLine
 10
674.1
 20
169.15
 30
0.0
 11
674.1
 21
170.5
 31
0.0
  0
ARC
  5
E5EB
330
E464
100
AcDbEntity
  8
1
  6
Continuous
100
AcDbCircle
 10
668.85
 20
169.08125
 30
0.0
 40
2.38125
100
AcDbArc
 50
143.430279
 51
166.18161
  0
LINE
  5
E5EC
330
E464
100
AcDbEntity
  8
1
  6
Continuous
100
AcDbLine
 10
663.6
 20
169.15
 30
0.0
 11
663.6
 21
170.5
 31
0.0
  0
LINE
  5
E5ED
330
E464
100
AcDbEntity
  8
1
  6
Continuous
100
AcDbLine
 10
661.6
 20
169.15
 30
0.0
 11
661.6
 21
170.5
 31
0.0
  0
ARC
  5
E5EE
330
E464
100
AcDbEntity
  8
1
  6
Continuous
100
AcDbCircle
 10
656.35
 20
169.08125
 30
0.0
 40
2.38125
100
AcDbArc
 50
13.81839
 51
36.569721
  0
LINE
  5
E5EF
330
E464
100
AcDbEntity
  8
1
  6
Continuous
100
AcDbLine
 10
663.6
 20
169.65
 30
0.0
 11
674.1
 21
169.65
 31
0.0
  0
LINE
  5
E5F0
330
E464
100
AcDbEntity
  8
1
  6
Continuous
100
AcDbLine
 10
663.6
 20
169.15
 30
0.0
 11
674.1
 21
169.15
 31
0.0
  0
ARC
  5
E5F1
330
E464
100
AcDbEntity
  8
1
  6
Continuous
100
AcDbCircle
 10
668.85
 20
169.08125
 30
0.0
 40
2.38125
100
AcDbArc
 50
338.3347039999998
 51
1.654438999999999
  0
ARC
  5
E5F2
330
E464
100
AcDbEntity
  8
1
  6
Continuous
100
AcDbCircle
 10
668.85
 20
169.08125
 30
0.0
 40
2.38125
100
AcDbArc
 50
178.345561
 51
201.6652959999999
  0
ARC
  5
E5F3
330
E464
100
AcDbEntity
  8
1
  6
Continuous
100
AcDbCircle
 10
656.35
 20
169.08125
 30
0.0
 40
2.38125
100
AcDbArc
 50
338.3347039999998
 51
1.654438999999999
  0
ARC
  5
E5F4
330
E464
100
AcDbEntity
  8
1
  6
Continuous
100
AcDbCircle
 10
681.35
 20
169.08125
 30
0.0
 40
2.38125
100
AcDbArc
 50
178.345561
 51
201.6652959999999
  0
ARC
  5
E5F5
330
E464
100
AcDbEntity
  8
1
  6
Continuous
100
AcDbCircle
 10
681.35
 20
169.08125
 30
0.0
 40
2.38125
100
AcDbArc
 50
338.3347039999998
 51
1.654438999999999
  0
LINE
  5
E5F6
330
E464
100
AcDbEntity
  8
1
  6
Continuous
100
AcDbLine
 10
676.1
 20
169.15
 30
0.0
 11
686.6
 21
169.15
 31
0.0
  0
LINE
  5
E5F7
330
E464
100
AcDbEntity
  8
1
  6
Continuous
100
AcDbLine
 10
676.1
 20
169.65
 30
0.0
 11
686.6
 21
169.65
 31
0.0
  0
LINE
  5
E5F8
330
E464
100
AcDbEntity
  8
1
  6
Continuous
100
AcDbLine
 10
701.1
 20
169.15
 30
0.0
 11
711.6
 21
169.15
 31
0.0
  0
LINE
  5
E5F9
330
E464
100
AcDbEntity
  8
1
  6
Continuous
100
AcDbLine
 10
701.1
 20
169.65
 30
0.0
 11
711.6
 21
169.65
 31
0.0
  0
ARC
  5
E5FA
330
E464
100
AcDbEntity
  8
1
  6
Continuous
100
AcDbCircle
 10
706.35
 20
169.08125
 30
0.0
 40
2.38125
100
AcDbArc
 50
178.345561
 51
201.6652959999999
  0
LINE
  5
E5FB
330
E464
100
AcDbEntity
  8
1
  6
Continuous
100
AcDbLine
 10
688.6
 20
169.65
 30
0.0
 11
699.1
 21
169.65
 31
0.0
  0
LINE
  5
E5FC
330
E464
100
AcDbEntity
  8
1
  6
Continuous
100
AcDbLine
 10
688.6
 20
169.15
 30
0.0
 11
699.1
 21
169.15
 31
0.0
  0
ARC
  5
E5FD
330
E464
100
AcDbEntity
  8
1
  6
Continuous
100
AcDbCircle
 10
693.85
 20
169.08125
 30
0.0
 40
2.38125
100
AcDbArc
 50
338.3347039999998
 51
1.654438999999999
  0
ARC
  5
E5FE
330
E464
100
AcDbEntity
  8
1
  6
Continuous
100
AcDbCircle
 10
693.85
 20
169.08125
 30
0.0
 40
2.38125
100
AcDbArc
 50
178.345561
 51
201.6652959999999
  0
ARC
  5
E5FF
330
E464
100
AcDbEntity
  8
1
  6
Continuous
100
AcDbCircle
 10
718.85
 20
169.08125
 30
0.0
 40
2.38125
100
AcDbArc
 50
338.3347039999998
 51
1.654438999999999
  0
ARC
  5
E600
330
E464
100
AcDbEntity
  8
1
  6
Continuous
100
AcDbCircle
 10
718.85
 20
169.08125
 30
0.0
 40
2.38125
100
AcDbArc
 50
178.345561
 51
201.6652959999999
  0
ARC
  5
E601
330
E464
100
AcDbEntity
  8
1
  6
Continuous
100
AcDbCircle
 10
706.35
 20
169.08125
 30
0.0
 40
2.38125
100
AcDbArc
 50
338.3347039999998
 51
1.654438999999999
  0
LINE
  5
E602
330
E464
100
AcDbEntity
  8
1
  6
Continuous
100
AcDbLine
 10
736.6
 20
169.15
 30
0.0
 11
736.6
 21
170.5
 31
0.0
  0
LINE
  5
E603
330
E464
100
AcDbEntity
  8
1
  6
Continuous
100
AcDbLine
 10
726.1
 20
169.15
 30
0.0
 11
726.1
 21
170.5
 31
0.0
  0
ARC
  5
E604
330
E464
100
AcDbEntity
  8
1
  6
Continuous
100
AcDbCircle
 10
731.35
 20
169.08125
 30
0.0
 40
2.38125
100
AcDbArc
 50
143.430279
 51
166.18161
  0
ARC
  5
E605
330
E464
100
AcDbEntity
  8
1
  6
Continuous
100
AcDbCircle
 10
731.35
 20
169.08125
 30
0.0
 40
2.38125
100
AcDbArc
 50
13.81839
 51
36.569721
  0
LINE
  5
E606
330
E464
100
AcDbEntity
  8
1
  6
Continuous
100
AcDbLine
 10
724.1
 20
169.15
 30
0.0
 11
724.1
 21
170.5
 31
0.0
  0
ARC
  5
E607
330
E464
100
AcDbEntity
  8
1
  6
Continuous
100
AcDbCircle
 10
731.35
 20
169.08125
 30
0.0
 40
2.38125
100
AcDbArc
 50
178.345561
 51
201.6652959999999
  0
ARC
  5
E608
330
E464
100
AcDbEntity
  8
1
  6
Continuous
100
AcDbCircle
 10
731.35
 20
169.08125
 30
0.0
 40
2.38125
100
AcDbArc
 50
338.3347039999998
 51
1.654438999999999
  0
LINE
  5
E609
330
E464
100
AcDbEntity
  8
1
  6
Continuous
100
AcDbLine
 10
726.1
 20
169.15
 30
0.0
 11
736.6
 21
169.15
 31
0.0
  0
LINE
  5
E60A
330
E464
100
AcDbEntity
  8
1
  6
Continuous
100
AcDbLine
 10
726.1
 20
169.65
 30
0.0
 11
736.6
 21
169.65
 31
0.0
  0
ARC
  5
E60B
330
E464
100
AcDbEntity
  8
1
  6
Continuous
100
AcDbCircle
 10
1052.499999999999
 20
195.057229
 30
0.0
 40
0.8072289999999997
100
AcDbArc
 50
141.1871849999998
 51
270.0
  0
LINE
  5
E60C
330
E464
100
AcDbEntity
  8
1
  6
Continuous
100
AcDbLine
 10
1051.871008999998
 20
195.563183
 30
0.0
 11
1053.746716
 21
197.8950239999998
 31
0.0
  0
LINE
  5
E60D
330
E464
100
AcDbEntity
  8
1
  6
Continuous
100
AcDbLine
 10
1054.099999999998
 20
198.8978689999999
 30
0.0
 11
1054.099999999998
 21
200.4
 31
0.0
  0
LINE
  5
E60E
330
E464
100
AcDbEntity
  8
1
  6
Continuous
100
AcDbLine
 10
1051.871008999998
 20
169.9368169999999
 30
0.0
 11
1053.746716
 21
167.6049759999999
 31
0.0
  0
ARC
  5
E60F
330
E464
100
AcDbEntity
  8
1
  6
Continuous
100
AcDbCircle
 10
1052.499999999999
 20
170.442771
 30
0.0
 40
0.8072289999999997
100
AcDbArc
 50
90.0
 51
218.812815
  0
LINE
  5
E610
330
E464
100
AcDbEntity
  8
1
  6
Continuous
100
AcDbLine
 10
1054.099999999998
 20
171.25
 30
0.0
 11
1054.099999999998
 21
194.25
 31
0.0
  0
LINE
  5
E611
330
E464
100
AcDbEntity
  8
1
  6
Continuous
100
AcDbLine
 10
120.3289909999998
 20
195.563183
 30
0.0
 11
118.453284
 21
197.8950239999998
 31
0.0
  0
LINE
  5
E612
330
E464
100
AcDbEntity
  8
1
  6
Continuous
100
AcDbLine
 10
119.7
 20
171.25
 30
0.0
 11
119.7
 21
194.25
 31
0.0
  0
ARC
  5
E613
330
E464
100
AcDbEntity
  8
1
  6
Continuous
100
AcDbCircle
 10
119.7
 20
170.442771
 30
0.0
 40
0.8072289999999997
100
AcDbArc
 50
321.187185
 51
90.0
  0
LINE
  5
E614
330
E464
100
AcDbEntity
  8
1
  6
Continuous
100
AcDbLine
 10
120.3289909999998
 20
169.9368169999999
 30
0.0
 11
118.453284
 21
167.6049759999999
 31
0.0
  0
ARC
  5
E615
330
E464
100
AcDbEntity
  8
1
  6
Continuous
100
AcDbCircle
 10
119.7
 20
166.602131
 30
0.0
 40
1.6
100
AcDbArc
 50
141.1871849999998
 51
180.0
  0
ARC
  5
E616
330
E464
100
AcDbEntity
  8
1
  6
Continuous
100
AcDbCircle
 10
119.7
 20
195.057229
 30
0.0
 40
0.8072289999999997
100
AcDbArc
 50
270.0
 51
38.812815
  0
ARC
  5
E617
330
E464
100
AcDbEntity
  8
1
  6
Continuous
100
AcDbCircle
 10
119.7
 20
198.8978689999999
 30
0.0
 40
1.6
100
AcDbArc
 50
180.0
 51
218.812815
  0
LINE
  5
E618
330
E464
100
AcDbEntity
  8
1
  6
Continuous
100
AcDbLine
 10
118.1
 20
198.8978689999999
 30
0.0
 11
118.1
 21
200.4
 31
0.0
  0
LINE
  5
E619
330
E464
100
AcDbEntity
  8
1
  6
Continuous
100
AcDbLine
 10
118.1
 20
305.3999999999998
 30
0.0
 11
118.1
 21
314.1
 31
0.0
  0
LINE
  5
E61A
330
E464
100
AcDbEntity
  8
1
  6
Continuous
100
AcDbLine
 10
575.1
 20
305.3999999999998
 30
0.0
 11
575.1
 21
314.1
 31
0.0
  0
LINE
  5
E61B
330
E464
100
AcDbEntity
  8
1
  6
Continuous
100
AcDbLine
 10
118.1
 20
305.3999999999998
 30
0.0
 11
575.1
 21
305.3999999999998
 31
0.0
  0
LINE
  5
E61C
330
E464
100
AcDbEntity
  8
1
  6
Continuous
100
AcDbLine
 10
118.1
 20
314.1
 30
0.0
 11
575.1
 21
314.1
 31
0.0
  0
LINE
  5
E61D
330
E464
100
AcDbEntity
  8
4
  6
CENTER
100
AcDbLine
 10
133.8
 20
310.471691
 30
0.0
 11
133.8
 21
299.971691
 31
0.0
  0
LINE
  5
E61E
330
E464
100
AcDbEntity
  8
4
  6
CENTER
100
AcDbLine
 10
146.5
 20
310.471691
 30
0.0
 11
146.5
 21
299.971691
 31
0.0
  0
LINE
  5
E61F
330
E464
100
AcDbEntity
  8
4
  6
CENTER
100
AcDbLine
 10
257.6
 20
310.471691
 30
0.0
 11
257.6
 21
299.971691
 31
0.0
  0
LINE
  5
E620
330
E464
100
AcDbEntity
  8
4
  6
CENTER
100
AcDbLine
 10
448.1
 20
310.471691
 30
0.0
 11
448.1
 21
299.971691
 31
0.0
  0
LINE
  5
E621
330
E464
100
AcDbEntity
  8
4
  6
CENTER
100
AcDbLine
 10
533.8
 20
310.471691
 30
0.0
 11
533.8
 21
299.971691
 31
0.0
  0
LINE
  5
E622
330
E464
100
AcDbEntity
  8
4
  6
CENTER
100
AcDbLine
 10
546.4999999999998
 20
310.471691
 30
0.0
 11
546.4999999999998
 21
299.971691
 31
0.0
  0
LINE
  5
E623
330
E464
100
AcDbEntity
  8
4
  6
CENTER
100
AcDbLine
 10
559.2
 20
324.933485
 30
0.0
 11
559.2
 21
299.971691
 31
0.0
  0
LINE
  5
E624
330
E464
100
AcDbEntity
  8
1
  6
Continuous
100
AcDbLine
 10
360.6999999999999
 20
314.9
 30
0.0
 11
360.6999999999999
 21
314.1
 31
0.0
  0
LINE
  5
E625
330
E464
100
AcDbEntity
  8
1
  6
Continuous
100
AcDbLine
 10
357.6999999999999
 20
321.4999999999998
 30
0.0
 11
357.6999999999999
 21
315.0
 31
0.0
  0
LINE
  5
E626
330
E464
100
AcDbEntity
  8
1
  6
Continuous
100
AcDbLine
 10
360.6999999999999
 20
314.9
 30
0.0
 11
814.4999999999999
 21
314.9
 31
0.0
  0
LINE
  5
E627
330
E464
100
AcDbEntity
  8
3
  6
DASHED
100
AcDbLine
 10
360.6999999999999
 20
308.3999999999999
 30
0.0
 11
575.1
 21
308.3999999999999
 31
0.0
  0
LINE
  5
E628
330
E464
100
AcDbEntity
  8
3
  6
DASHED
100
AcDbLine
 10
360.6999999999999
 20
314.1
 30
0.0
 11
360.6999999999999
 21
308.3999999999999
 31
0.0
  0
LINE
  5
E629
330
E464
100
AcDbEntity
  8
1
  6
Continuous
100
AcDbLine
 10
814.4999999999999
 20
314.9
 30
0.0
 11
814.4999999999999
 21
308.3999999999999
 31
0.0
  0
LINE
  5
E62A
330
E464
100
AcDbEntity
  8
3
  6
DASHED
100
AcDbLine
 10
811.5
 20
321.4999999999998
 30
0.0
 11
811.5
 21
315.8
 31
0.0
  0
LINE
  5
E62B
330
E464
100
AcDbEntity
  8
1
  6
Continuous
100
AcDbLine
 10
575.1
 20
308.3999999999999
 30
0.0
 11
814.4999999999999
 21
308.3999999999999
 31
0.0
  0
LINE
  5
E62C
330
E464
100
AcDbEntity
  8
1
  6
Continuous
100
AcDbLine
 10
357.6999999999999
 20
315.0
 30
0.0
 11
811.5
 21
315.0
 31
0.0
  0
LINE
  5
E62D
330
E464
100
AcDbEntity
  8
1
  6
Continuous
100
AcDbLine
 10
357.6999999999999
 20
321.4999999999998
 30
0.0
 11
597.1
 21
321.4999999999998
 31
0.0
  0
LINE
  5
E62E
330
E464
100
AcDbEntity
  8
1
  6
Continuous
100
AcDbLine
 10
597.1
 20
315.8
 30
0.0
 11
597.1
 21
324.5
 31
0.0
  0
LINE
  5
E62F
330
E464
100
AcDbEntity
  8
1
  6
Continuous
100
AcDbLine
 10
597.1
 20
324.5
 30
0.0
 11
1054.099999999998
 21
324.5
 31
0.0
  0
LINE
  5
E630
330
E464
100
AcDbEntity
  8
1
  6
Continuous
100
AcDbLine
 10
1054.099999999998
 20
315.8
 30
0.0
 11
1054.099999999998
 21
324.5
 31
0.0
  0
LINE
  5
E631
330
E464
100
AcDbEntity
  8
1
  6
Continuous
100
AcDbLine
 10
597.1
 20
315.8
 30
0.0
 11
1054.099999999998
 21
315.8
 31
0.0
  0
LINE
  5
E632
330
E464
100
AcDbEntity
  8
3
  6
DASHED
100
AcDbLine
 10
597.1
 20
321.4999999999998
 30
0.0
 11
811.5
 21
321.4999999999998
 31
0.0
  0
LINE
  5
E633
330
E464
100
AcDbEntity
  8
1
  6
Continuous
100
AcDbLine
 10
811.5
 20
315.8
 30
0.0
 11
811.5
 21
315.0
 31
0.0
  0
LINE
  5
E634
330
E464
100
AcDbEntity
  8
4
  6
CENTER
100
AcDbLine
 10
1038.399999999999
 20
328.9955889999998
 30
0.0
 11
1038.399999999999
 21
318.4955889999999
 31
0.0
  0
LINE
  5
E635
330
E464
100
AcDbEntity
  8
4
  6
CENTER
100
AcDbLine
 10
1025.7
 20
328.9955889999998
 30
0.0
 11
1025.7
 21
318.4955889999999
 31
0.0
  0
LINE
  5
E636
330
E464
100
AcDbEntity
  8
4
  6
CENTER
100
AcDbLine
 10
914.6
 20
328.9955889999998
 30
0.0
 11
914.6
 21
318.4955889999999
 31
0.0
  0
LINE
  5
E637
330
E464
100
AcDbEntity
  8
4
  6
CENTER
100
AcDbLine
 10
724.1
 20
328.9955889999998
 30
0.0
 11
724.1
 21
318.4955889999999
 31
0.0
  0
LINE
  5
E638
330
E464
100
AcDbEntity
  8
4
  6
CENTER
100
AcDbLine
 10
625.7000000000001
 20
328.9955889999998
 30
0.0
 11
625.7000000000001
 21
318.4955889999999
 31
0.0
  0
LINE
  5
E639
330
E464
100
AcDbEntity
  8
4
  6
CENTER
100
AcDbLine
 10
638.4
 20
328.9955889999998
 30
0.0
 11
638.4
 21
318.4955889999999
 31
0.0
  0
LINE
  5
E63A
330
E464
100
AcDbEntity
  8
4
  6
CENTER
100
AcDbLine
 10
613.0
 20
328.9955889999998
 30
0.0
 11
613.0
 21
305.465795
 31
0.0
  0
LINE
  5
E63B
330
E464
100
AcDbEntity
  8
3
  6
DASHED
100
AcDbLine
 10
572.5999999999998
 20
454.6499999999999
 30
0.0
 11
575.1
 21
454.6499999999999
 31
0.0
  0
LINE
  5
E63C
330
E464
100
AcDbEntity
  8
3
  6
DASHED
100
AcDbLine
 10
572.5999999999998
 20
439.6499999999998
 30
0.0
 11
575.1
 21
439.6499999999998
 31
0.0
  0
LINE
  5
E63D
330
E464
100
AcDbEntity
  8
1
  6
Continuous
100
AcDbLine
 10
573.5
 20
462.2885629999998
 30
0.0
 11
119.7
 21
462.2885629999998
 31
0.0
  0
LINE
  5
E63E
330
E464
100
AcDbEntity
  8
1
  6
Continuous
100
AcDbLine
 10
573.5
 20
461.697869
 30
0.0
 11
119.7
 21
461.697869
 31
0.0
  0
LINE
  5
E63F
330
E464
100
AcDbEntity
  8
1
  6
Continuous
100
AcDbLine
 10
573.5
 20
432.6021309999998
 30
0.0
 11
119.7
 21
432.6021309999998
 31
0.0
  0
LINE
  5
E640
330
E464
100
AcDbEntity
  8
1
  6
Continuous
100
AcDbLine
 10
573.5
 20
432.0114369999997
 30
0.0
 11
119.7
 21
432.0114369999997
 31
0.0
  0
LINE
  5
E641
330
E464
100
AcDbEntity
  8
1
  6
Continuous
100
AcDbLine
 10
575.1
 20
464.8
 30
0.0
 11
118.1
 21
464.8
 31
0.0
  0
LINE
  5
E642
330
E464
100
AcDbEntity
  8
1
  6
Continuous
100
AcDbLine
 10
575.1
 20
429.4999999999998
 30
0.0
 11
118.1
 21
429.4999999999998
 31
0.0
  0
LINE
  5
E643
330
E464
100
AcDbEntity
  8
1
  6
Continuous
100
AcDbLine
 10
597.1
 20
456.0375
 30
0.0
 11
395.6999999999999
 21
456.0375
 31
0.0
  0
LINE
  5
E644
330
E464
100
AcDbEntity
  8
1
  6
Continuous
100
AcDbLine
 10
597.1
 20
457.2375
 30
0.0
 11
357.6999999999999
 21
457.2375
 31
0.0
  0
LINE
  5
E645
330
E464
100
AcDbEntity
  8
1
  6
Continuous
100
AcDbLine
 10
597.1
 20
438.2624999999999
 30
0.0
 11
395.6999999999999
 21
438.2624999999999
 31
0.0
  0
LINE
  5
E646
330
E464
100
AcDbEntity
  8
1
  6
Continuous
100
AcDbLine
 10
597.1
 20
437.0625
 30
0.0
 11
357.6999999999999
 21
437.0625
 31
0.0
  0
LINE
  5
E647
330
E464
100
AcDbEntity
  8
1
  6
Continuous
100
AcDbLine
 10
597.1
 20
459.4
 30
0.0
 11
357.6999999999999
 21
459.4
 31
0.0
  0
LINE
  5
E648
330
E464
100
AcDbEntity
  8
1
  6
Continuous
100
AcDbLine
 10
597.1
 20
434.9
 30
0.0
 11
357.6999999999999
 21
434.9
 31
0.0
  0
LINE
  5
E649
330
E464
100
AcDbEntity
  8
4
  6
CENTER
100
AcDbLine
 10
1059.099999999999
 20
447.1499999999998
 30
0.0
 11
113.1
 21
447.1499999999998
 31
0.0
  0
LINE
  5
E64A
330
E464
100
AcDbEntity
  8
1
  6
Continuous
100
AcDbLine
 10
1054.099999999998
 20
429.4999999999998
 30
0.0
 11
597.1
 21
429.4999999999998
 31
0.0
  0
LINE
  5
E64B
330
E464
100
AcDbEntity
  8
1
  6
Continuous
100
AcDbLine
 10
1054.099999999998
 20
464.8
 30
0.0
 11
597.1
 21
464.8
 31
0.0
  0
LINE
  5
E64C
330
E464
100
AcDbEntity
  8
1
  6
Continuous
100
AcDbLine
 10
1051.871008999998
 20
434.3368169999997
 30
0.0
 11
1053.746716
 21
432.0049759999998
 31
0.0
  0
ARC
  5
E64D
330
E464
100
AcDbEntity
  8
1
  6
Continuous
100
AcDbCircle
 10
1025.7
 20
447.55
 30
0.0
 40
2.25
100
AcDbArc
 50
0.0
 51
180.0
  0
ARC
  5
E64E
330
E464
100
AcDbEntity
  8
1
  6
Continuous
100
AcDbCircle
 10
1025.7
 20
446.75
 30
0.0
 40
2.25
100
AcDbArc
 50
180.0
 51
0.0
  0
LINE
  5
E64F
330
E464
100
AcDbEntity
  8
1
  6
Continuous
100
AcDbLine
 10
1052.499999999999
 20
458.65
 30
0.0
 11
1052.499999999999
 21
435.6499999999998
 31
0.0
  0
LINE
  5
E650
330
E464
100
AcDbEntity
  8
1
  6
Continuous
100
AcDbLine
 10
1054.099999999998
 20
464.8
 30
0.0
 11
1054.099999999998
 21
463.2978689999998
 31
0.0
  0
LINE
  5
E651
330
E464
100
AcDbEntity
  8
1
  6
Continuous
100
AcDbLine
 10
1051.871008999998
 20
459.9631829999998
 30
0.0
 11
1053.746716
 21
462.295024
 31
0.0
  0
ARC
  5
E652
330
E464
100
AcDbEntity
  8
1
  6
Continuous
100
AcDbCircle
 10
1052.499999999999
 20
459.457229
 30
0.0
 40
0.8072289999999997
100
AcDbArc
 50
141.1871849999998
 51
270.0
  0
ARC
  5
E653
330
E464
100
AcDbEntity
  8
1
  6
Continuous
100
AcDbCircle
 10
1052.499999999999
 20
463.2978689999998
 30
0.0
 40
1.6
100
AcDbArc
 50
321.187185
 51
0.0
  0
ARC
  5
E654
330
E464
100
AcDbEntity
  8
1
  6
Continuous
100
AcDbCircle
 10
1052.499999999999
 20
434.842771
 30
0.0
 40
0.8072289999999997
100
AcDbArc
 50
90.0
 51
218.812815
  0
LINE
  5
E655
330
E464
100
AcDbEntity
  8
1
  6
Continuous
100
AcDbLine
 10
1027.95
 20
446.75
 30
0.0
 11
1027.95
 21
447.55
 31
0.0
  0
LINE
  5
E656
330
E464
100
AcDbEntity
  8
1
  6
Continuous
100
AcDbLine
 10
1036.15
 20
446.75
 30
0.0
 11
1036.15
 21
447.55
 31
0.0
  0
LINE
  5
E657
330
E464
100
AcDbEntity
  8
1
  6
Continuous
100
AcDbLine
 10
1040.65
 20
446.75
 30
0.0
 11
1040.65
 21
447.55
 31
0.0
  0
LINE
  5
E658
330
E464
100
AcDbEntity
  8
4
  6
CENTER
100
AcDbLine
 10
1038.399999999999
 20
441.8999999999998
 30
0.0
 11
1038.399999999999
 21
452.4
 31
0.0
  0
ARC
  5
E659
330
E464
100
AcDbEntity
  8
1
  6
Continuous
100
AcDbCircle
 10
1038.399999999999
 20
447.55
 30
0.0
 40
2.25
100
AcDbArc
 50
0.0
 51
180.0
  0
ARC
  5
E65A
330
E464
100
AcDbEntity
  8
1
  6
Continuous
100
AcDbCircle
 10
1038.399999999999
 20
446.75
 30
0.0
 40
2.25
100
AcDbArc
 50
180.0
 51
0.0
  0
LINE
  5
E65B
330
E464
100
AcDbEntity
  8
1
  6
Continuous
100
AcDbLine
 10
1023.45
 20
446.75
 30
0.0
 11
1023.45
 21
447.55
 31
0.0
  0
LINE
  5
E65C
330
E464
100
AcDbEntity
  8
4
  6
CENTER
100
AcDbLine
 10
1025.7
 20
441.8999999999998
 30
0.0
 11
1025.7
 21
452.4
 31
0.0
  0
LINE
  5
E65D
330
E464
100
AcDbEntity
  8
1
  6
Continuous
100
AcDbLine
 10
1054.099999999998
 20
431.0021309999998
 30
0.0
 11
1054.099999999998
 21
429.4999999999998
 31
0.0
  0
ARC
  5
E65E
330
E464
100
AcDbEntity
  8
1
  6
Continuous
100
AcDbCircle
 10
1052.499999999999
 20
431.0021309999998
 30
0.0
 40
1.6
100
AcDbArc
 50
0.0
 51
38.812815
  0
LINE
  5
E65F
330
E464
100
AcDbEntity
  8
3
  6
DASHED
100
AcDbLine
 10
814.4999999999999
 20
459.4
 30
0.0
 11
597.1
 21
459.4
 31
0.0
  0
LINE
  5
E660
330
E464
100
AcDbEntity
  8
3
  6
DASHED
100
AcDbLine
 10
814.4999999999999
 20
434.9
 30
0.0
 11
597.1
 21
434.9
 31
0.0
  0
ARC
  5
E661
330
E464
100
AcDbEntity
  8
1
  6
Continuous
100
AcDbCircle
 10
914.2000000000001
 20
447.1499999999998
 30
0.0
 40
2.25
100
AcDbArc
 50
90.0
 51
270.0
  0
ARC
  5
E662
330
E464
100
AcDbEntity
  8
1
  6
Continuous
100
AcDbCircle
 10
915.0
 20
447.1499999999998
 30
0.0
 40
2.25
100
AcDbArc
 50
270.0
 51
90.0
  0
LINE
  5
E663
330
E464
100
AcDbEntity
  8
1
  6
Continuous
100
AcDbLine
 10
914.2000000000001
 20
444.8999999999998
 30
0.0
 11
915.0
 21
444.8999999999998
 31
0.0
  0
LINE
  5
E664
330
E464
100
AcDbEntity
  8
4
  6
CENTER
100
AcDbLine
 10
914.6
 20
441.8999999999998
 30
0.0
 11
914.6
 21
452.4
 31
0.0
  0
LINE
  5
E665
330
E464
100
AcDbEntity
  8
1
  6
Continuous
100
AcDbLine
 10
914.2000000000001
 20
449.3999999999998
 30
0.0
 11
915.0
 21
449.3999999999998
 31
0.0
  0
LINE
  5
E666
330
E464
100
AcDbEntity
  8
3
  6
DASHED
100
AcDbLine
 10
811.5
 20
434.9
 30
0.0
 11
811.5
 21
459.4
 31
0.0
  0
LINE
  5
E667
330
E464
100
AcDbEntity
  8
3
  6
DASHED
100
AcDbLine
 10
814.4999999999999
 20
434.9
 30
0.0
 11
814.4999999999999
 21
459.4
 31
0.0
  0
ARC
  5
E668
330
E464
100
AcDbEntity
  8
1
  6
Continuous
100
AcDbCircle
 10
723.7
 20
447.1499999999998
 30
0.0
 40
2.25
100
AcDbArc
 50
90.0
 51
270.0
  0
LINE
  5
E669
330
E464
100
AcDbEntity
  8
1
  6
Continuous
100
AcDbLine
 10
723.7
 20
449.3999999999998
 30
0.0
 11
724.5
 21
449.3999999999998
 31
0.0
  0
LINE
  5
E66A
330
E464
100
AcDbEntity
  8
4
  6
CENTER
100
AcDbLine
 10
724.1
 20
441.8999999999998
 30
0.0
 11
724.1
 21
452.4
 31
0.0
  0
LINE
  5
E66B
330
E464
100
AcDbEntity
  8
1
  6
Continuous
100
AcDbLine
 10
723.7
 20
444.8999999999998
 30
0.0
 11
724.5
 21
444.8999999999998
 31
0.0
  0
ARC
  5
E66C
330
E464
100
AcDbEntity
  8
1
  6
Continuous
100
AcDbCircle
 10
724.5
 20
447.1499999999998
 30
0.0
 40
2.25
100
AcDbArc
 50
270.0
 51
90.0
  0
ARC
  5
E66D
330
E464
100
AcDbEntity
  8
1
  6
Continuous
100
AcDbCircle
 10
638.7999999999998
 20
447.1499999999998
 30
0.0
 40
2.25
100
AcDbArc
 50
270.0
 51
90.0
  0
LINE
  5
E66E
330
E464
100
AcDbEntity
  8
1
  6
Continuous
100
AcDbLine
 10
575.1
 20
434.9
 30
0.0
 11
575.1
 21
429.4999999999998
 31
0.0
  0
LINE
  5
E66F
330
E464
100
AcDbEntity
  8
1
  6
Continuous
100
AcDbLine
 10
597.1
 20
439.6499999999998
 30
0.0
 11
597.1
 21
429.4999999999998
 31
0.0
  0
LINE
  5
E670
330
E464
100
AcDbEntity
  8
1
  6
Continuous
100
AcDbLine
 10
623.4500000000001
 20
446.75
 30
0.0
 11
623.4500000000001
 21
447.55
 31
0.0
  0
LINE
  5
E671
330
E464
100
AcDbEntity
  8
1
  6
Continuous
100
AcDbLine
 10
627.9500000000001
 20
446.75
 30
0.0
 11
627.9500000000001
 21
447.55
 31
0.0
  0
LINE
  5
E672
330
E464
100
AcDbEntity
  8
4
  6
CENTER
100
AcDbLine
 10
625.7000000000001
 20
441.8999999999998
 30
0.0
 11
625.7000000000001
 21
452.4
 31
0.0
  0
ARC
  5
E673
330
E464
100
AcDbEntity
  8
1
  6
Continuous
100
AcDbCircle
 10
625.7000000000001
 20
447.55
 30
0.0
 40
2.25
100
AcDbArc
 50
0.0
 51
180.0
  0
ARC
  5
E674
330
E464
100
AcDbEntity
  8
1
  6
Continuous
100
AcDbCircle
 10
625.7000000000001
 20
446.75
 30
0.0
 40
2.25
100
AcDbArc
 50
180.0
 51
0.0
  0
LINE
  5
E675
330
E464
100
AcDbEntity
  8
4
  6
CENTER
100
AcDbLine
 10
638.4
 20
441.8999999999998
 30
0.0
 11
638.4
 21
452.4
 31
0.0
  0
ARC
  5
E676
330
E464
100
AcDbEntity
  8
1
  6
Continuous
100
AcDbCircle
 10
638.0
 20
447.1499999999998
 30
0.0
 40
2.25
100
AcDbArc
 50
90.0
 51
270.0
  0
LINE
  5
E677
330
E464
100
AcDbEntity
  8
1
  6
Continuous
100
AcDbLine
 10
638.0
 20
449.3999999999998
 30
0.0
 11
638.7999999999998
 21
449.3999999999998
 31
0.0
  0
LINE
  5
E678
330
E464
100
AcDbEntity
  8
1
  6
Continuous
100
AcDbLine
 10
638.0
 20
444.8999999999998
 30
0.0
 11
638.7999999999998
 21
444.8999999999998
 31
0.0
  0
ARC
  5
E679
330
E464
100
AcDbEntity
  8
1
  6
Continuous
100
AcDbCircle
 10
613.0
 20
446.75
 30
0.0
 40
2.25
100
AcDbArc
 50
180.0
 51
0.0
  0
LINE
  5
E67A
330
E464
100
AcDbEntity
  8
4
  6
CENTER
100
AcDbLine
 10
613.0
 20
441.8999999999998
 30
0.0
 11
613.0
 21
452.4
 31
0.0
  0
LINE
  5
E67B
330
E464
100
AcDbEntity
  8
1
  6
Continuous
100
AcDbLine
 10
615.2499999999998
 20
446.75
 30
0.0
 11
615.2499999999998
 21
447.55
 31
0.0
  0
LINE
  5
E67C
330
E464
100
AcDbEntity
  8
1
  6
Continuous
100
AcDbLine
 10
610.7499999999999
 20
446.75
 30
0.0
 11
610.7499999999999
 21
447.55
 31
0.0
  0
ARC
  5
E67D
330
E464
100
AcDbEntity
  8
1
  6
Continuous
100
AcDbCircle
 10
613.0
 20
447.55
 30
0.0
 40
2.25
100
AcDbArc
 50
0.0
 51
180.0
  0
LINE
  5
E67E
330
E464
100
AcDbEntity
  8
3
  6
DASHED
100
AcDbLine
 10
575.1
 20
459.4
 30
0.0
 11
575.1
 21
454.6499999999999
 31
0.0
  0
LINE
  5
E67F
330
E464
100
AcDbEntity
  8
1
  6
Continuous
100
AcDbLine
 10
597.1
 20
464.8
 30
0.0
 11
597.1
 21
454.6499999999999
 31
0.0
  0
ARC
  5
E680
330
E464
100
AcDbEntity
  8
1
  6
Continuous
100
AcDbCircle
 10
573.5
 20
463.8885629999998
 30
0.0
 40
1.6
100
AcDbArc
 50
270.0
 51
0.0
  0
ARC
  5
E681
330
E464
100
AcDbEntity
  8
1
  6
Continuous
100
AcDbCircle
 10
573.5
 20
463.2978689999998
 30
0.0
 40
1.6
100
AcDbArc
 50
270.0
 51
0.0
  0
LINE
  5
E682
330
E464
100
AcDbEntity
  8
1
  6
Continuous
100
AcDbLine
 10
575.1
 20
464.8
 30
0.0
 11
575.1
 21
459.4
 31
0.0
  0
LINE
  5
E683
330
E464
100
AcDbEntity
  8
1
  6
Continuous
100
AcDbLine
 10
599.6
 20
439.6499999999998
 30
0.0
 11
597.1
 21
439.6499999999998
 31
0.0
  0
LINE
  5
E684
330
E464
100
AcDbEntity
  8
1
  6
Continuous
100
AcDbLine
 10
599.6
 20
454.6499999999999
 30
0.0
 11
599.6
 21
439.6499999999998
 31
0.0
  0
LINE
  5
E685
330
E464
100
AcDbEntity
  8
1
  6
Continuous
100
AcDbLine
 10
599.6
 20
454.6499999999999
 30
0.0
 11
597.1
 21
454.6499999999999
 31
0.0
  0
LINE
  5
E686
330
E464
100
AcDbEntity
  8
3
  6
DASHED
100
AcDbLine
 10
575.1
 20
439.6499999999998
 30
0.0
 11
575.1
 21
434.9
 31
0.0
  0
ARC
  5
E687
330
E464
100
AcDbEntity
  8
1
  6
Continuous
100
AcDbCircle
 10
573.5
 20
431.0021309999998
 30
0.0
 40
1.6
100
AcDbArc
 50
0.0
 51
90.0
  0
ARC
  5
E688
330
E464
100
AcDbEntity
  8
1
  6
Continuous
100
AcDbCircle
 10
573.5
 20
430.4114369999998
 30
0.0
 40
1.6
100
AcDbArc
 50
0.0
 51
90.0
  0
LINE
  5
E689
330
E464
100
AcDbEntity
  8
1
  6
Continuous
100
AcDbLine
 10
446.1
 20
433.55
 30
0.0
 11
435.6
 21
433.55
 31
0.0
  0
LINE
  5
E68A
330
E464
100
AcDbEntity
  8
1
  6
Continuous
100
AcDbLine
 10
446.1
 20
434.05
 30
0.0
 11
435.6
 21
434.05
 31
0.0
  0
LINE
  5
E68B
330
E464
100
AcDbEntity
  8
1
  6
Continuous
100
AcDbLine
 10
446.1
 20
460.25
 30
0.0
 11
435.6
 21
460.25
 31
0.0
  0
LINE
  5
E68C
330
E464
100
AcDbEntity
  8
1
  6
Continuous
100
AcDbLine
 10
446.1
 20
460.7499999999998
 30
0.0
 11
435.6
 21
460.7499999999998
 31
0.0
  0
LINE
  5
E68D
330
E464
100
AcDbEntity
  8
1
  6
Continuous
100
AcDbLine
 10
508.6
 20
434.05
 30
0.0
 11
498.1
 21
434.05
 31
0.0
  0
LINE
  5
E68E
330
E464
100
AcDbEntity
  8
1
  6
Continuous
100
AcDbLine
 10
508.6
 20
433.55
 30
0.0
 11
498.1
 21
433.55
 31
0.0
  0
LINE
  5
E68F
330
E464
100
AcDbEntity
  8
1
  6
Continuous
100
AcDbLine
 10
508.6
 20
460.7499999999998
 30
0.0
 11
498.1
 21
460.7499999999998
 31
0.0
  0
LINE
  5
E690
330
E464
100
AcDbEntity
  8
1
  6
Continuous
100
AcDbLine
 10
508.6
 20
460.25
 30
0.0
 11
498.1
 21
460.25
 31
0.0
  0
LINE
  5
E691
330
E464
100
AcDbEntity
  8
1
  6
Continuous
100
AcDbLine
 10
508.6
 20
433.55
 30
0.0
 11
508.6
 21
434.9
 31
0.0
  0
LINE
  5
E692
330
E464
100
AcDbEntity
  8
1
  6
Continuous
100
AcDbLine
 10
510.6
 20
433.55
 30
0.0
 11
510.6
 21
434.9
 31
0.0
  0
ARC
  5
E693
330
E464
100
AcDbEntity
  8
1
  6
Continuous
100
AcDbCircle
 10
515.85
 20
433.4812499999999
 30
0.0
 40
2.38125
100
AcDbArc
 50
143.430279
 51
166.18161
  0
LINE
  5
E694
330
E464
100
AcDbEntity
  8
1
  6
Continuous
100
AcDbLine
 10
521.1
 20
433.55
 30
0.0
 11
521.1
 21
434.9
 31
0.0
  0
ARC
  5
E695
330
E464
100
AcDbEntity
  8
1
  6
Continuous
100
AcDbCircle
 10
515.85
 20
433.4812499999999
 30
0.0
 40
2.38125
100
AcDbArc
 50
13.81839
 51
36.569721
  0
ARC
  5
E696
330
E464
100
AcDbEntity
  8
1
  6
Continuous
100
AcDbCircle
 10
528.35
 20
433.4812499999999
 30
0.0
 40
2.38125
100
AcDbArc
 50
13.81839
 51
36.569721
  0
ARC
  5
E697
330
E464
100
AcDbEntity
  8
1
  6
Continuous
100
AcDbCircle
 10
528.35
 20
433.4812499999999
 30
0.0
 40
2.38125
100
AcDbArc
 50
143.430279
 51
166.18161
  0
LINE
  5
E698
330
E464
100
AcDbEntity
  8
1
  6
Continuous
100
AcDbLine
 10
533.6
 20
433.55
 30
0.0
 11
533.6
 21
434.9
 31
0.0
  0
LINE
  5
E699
330
E464
100
AcDbEntity
  8
1
  6
Continuous
100
AcDbLine
 10
523.1
 20
433.55
 30
0.0
 11
523.1
 21
434.9
 31
0.0
  0
LINE
  5
E69A
330
E464
100
AcDbEntity
  8
1
  6
Continuous
100
AcDbLine
 10
535.6
 20
433.55
 30
0.0
 11
535.6
 21
434.9
 31
0.0
  0
LINE
  5
E69B
330
E464
100
AcDbEntity
  8
1
  6
Continuous
100
AcDbLine
 10
546.1
 20
433.55
 30
0.0
 11
546.1
 21
434.9
 31
0.0
  0
ARC
  5
E69C
330
E464
100
AcDbEntity
  8
1
  6
Continuous
100
AcDbCircle
 10
540.85
 20
433.4812499999999
 30
0.0
 40
2.38125
100
AcDbArc
 50
143.430279
 51
166.18161
  0
ARC
  5
E69D
330
E464
100
AcDbEntity
  8
1
  6
Continuous
100
AcDbCircle
 10
540.85
 20
433.4812499999999
 30
0.0
 40
2.38125
100
AcDbArc
 50
13.81839
 51
36.569721
  0
ARC
  5
E69E
330
E464
100
AcDbEntity
  8
1
  6
Continuous
100
AcDbCircle
 10
553.35
 20
433.4812499999999
 30
0.0
 40
2.38125
100
AcDbArc
 50
13.81839
 51
36.569721
  0
ARC
  5
E69F
330
E464
100
AcDbEntity
  8
1
  6
Continuous
100
AcDbCircle
 10
553.35
 20
433.4812499999999
 30
0.0
 40
2.38125
100
AcDbArc
 50
143.430279
 51
166.18161
  0
LINE
  5
E6A0
330
E464
100
AcDbEntity
  8
1
  6
Continuous
100
AcDbLine
 10
558.6
 20
433.55
 30
0.0
 11
558.6
 21
434.9
 31
0.0
  0
LINE
  5
E6A1
330
E464
100
AcDbEntity
  8
1
  6
Continuous
100
AcDbLine
 10
548.1
 20
433.55
 30
0.0
 11
548.1
 21
434.9
 31
0.0
  0
LINE
  5
E6A2
330
E464
100
AcDbEntity
  8
1
  6
Continuous
100
AcDbLine
 10
560.6
 20
433.55
 30
0.0
 11
560.6
 21
434.9
 31
0.0
  0
LINE
  5
E6A3
330
E464
100
AcDbEntity
  8
1
  6
Continuous
100
AcDbLine
 10
571.1
 20
433.55
 30
0.0
 11
571.1
 21
434.9
 31
0.0
  0
ARC
  5
E6A4
330
E464
100
AcDbEntity
  8
1
  6
Continuous
100
AcDbCircle
 10
565.85
 20
433.4812499999999
 30
0.0
 40
2.38125
100
AcDbArc
 50
143.430279
 51
166.18161
  0
ARC
  5
E6A5
330
E464
100
AcDbEntity
  8
1
  6
Continuous
100
AcDbCircle
 10
565.85
 20
433.4812499999999
 30
0.0
 40
2.38125
100
AcDbArc
 50
13.81839
 51
36.569721
  0
LINE
  5
E6A6
330
E464
100
AcDbEntity
  8
1
  6
Continuous
100
AcDbLine
 10
546.1
 20
460.25
 30
0.0
 11
535.6
 21
460.25
 31
0.0
  0
LINE
  5
E6A7
330
E464
100
AcDbEntity
  8
1
  6
Continuous
100
AcDbLine
 10
546.1
 20
460.7499999999998
 30
0.0
 11
535.6
 21
460.7499999999998
 31
0.0
  0
LINE
  5
E6A8
330
E464
100
AcDbEntity
  8
1
  6
Continuous
100
AcDbLine
 10
558.6
 20
460.7499999999998
 30
0.0
 11
548.1
 21
460.7499999999998
 31
0.0
  0
LINE
  5
E6A9
330
E464
100
AcDbEntity
  8
1
  6
Continuous
100
AcDbLine
 10
558.6
 20
460.25
 30
0.0
 11
548.1
 21
460.25
 31
0.0
  0
ARC
  5
E6AA
330
E464
100
AcDbEntity
  8
1
  6
Continuous
100
AcDbCircle
 10
565.85
 20
460.81875
 30
0.0
 40
2.38125
100
AcDbArc
 50
158.3347039999999
 51
181.6544389999999
  0
ARC
  5
E6AB
330
E464
100
AcDbEntity
  8
1
  6
Continuous
100
AcDbCircle
 10
565.85
 20
460.81875
 30
0.0
 40
2.38125
100
AcDbArc
 50
193.81839
 51
216.5697209999999
  0
LINE
  5
E6AC
330
E464
100
AcDbEntity
  8
1
  6
Continuous
100
AcDbLine
 10
560.6
 20
460.7499999999998
 30
0.0
 11
560.6
 21
459.4
 31
0.0
  0
LINE
  5
E6AD
330
E464
100
AcDbEntity
  8
1
  6
Continuous
100
AcDbLine
 10
558.6
 20
460.7499999999998
 30
0.0
 11
558.6
 21
459.4
 31
0.0
  0
ARC
  5
E6AE
330
E464
100
AcDbEntity
  8
1
  6
Continuous
100
AcDbCircle
 10
565.85
 20
460.81875
 30
0.0
 40
2.38125
100
AcDbArc
 50
358.3455609999999
 51
21.665296
  0
ARC
  5
E6AF
330
E464
100
AcDbEntity
  8
1
  6
Continuous
100
AcDbCircle
 10
565.85
 20
460.81875
 30
0.0
 40
2.38125
100
AcDbArc
 50
323.430279
 51
346.18161
  0
LINE
  5
E6B0
330
E464
100
AcDbEntity
  8
1
  6
Continuous
100
AcDbLine
 10
571.1
 20
460.7499999999998
 30
0.0
 11
571.1
 21
459.4
 31
0.0
  0
LINE
  5
E6B1
330
E464
100
AcDbEntity
  8
1
  6
Continuous
100
AcDbLine
 10
571.1
 20
460.25
 30
0.0
 11
560.6
 21
460.25
 31
0.0
  0
LINE
  5
E6B2
330
E464
100
AcDbEntity
  8
1
  6
Continuous
100
AcDbLine
 10
571.1
 20
460.7499999999998
 30
0.0
 11
560.6
 21
460.7499999999998
 31
0.0
  0
ARC
  5
E6B3
330
E464
100
AcDbEntity
  8
1
  6
Continuous
100
AcDbCircle
 10
540.85
 20
460.81875
 30
0.0
 40
2.38125
100
AcDbArc
 50
358.3455609999999
 51
21.665296
  0
LINE
  5
E6B4
330
E464
100
AcDbEntity
  8
1
  6
Continuous
100
AcDbLine
 10
548.1
 20
460.7499999999998
 30
0.0
 11
548.1
 21
459.4
 31
0.0
  0
ARC
  5
E6B5
330
E464
100
AcDbEntity
  8
1
  6
Continuous
100
AcDbCircle
 10
540.85
 20
460.81875
 30
0.0
 40
2.38125
100
AcDbArc
 50
323.430279
 51
346.18161
  0
LINE
  5
E6B6
330
E464
100
AcDbEntity
  8
1
  6
Continuous
100
AcDbLine
 10
546.1
 20
460.7499999999998
 30
0.0
 11
546.1
 21
459.4
 31
0.0
  0
ARC
  5
E6B7
330
E464
100
AcDbEntity
  8
1
  6
Continuous
100
AcDbCircle
 10
553.35
 20
460.81875
 30
0.0
 40
2.38125
100
AcDbArc
 50
358.3455609999999
 51
21.665296
  0
ARC
  5
E6B8
330
E464
100
AcDbEntity
  8
1
  6
Continuous
100
AcDbCircle
 10
553.35
 20
460.81875
 30
0.0
 40
2.38125
100
AcDbArc
 50
158.3347039999999
 51
181.6544389999999
  0
ARC
  5
E6B9
330
E464
100
AcDbEntity
  8
1
  6
Continuous
100
AcDbCircle
 10
553.35
 20
460.81875
 30
0.0
 40
2.38125
100
AcDbArc
 50
193.81839
 51
216.5697209999999
  0
ARC
  5
E6BA
330
E464
100
AcDbEntity
  8
1
  6
Continuous
100
AcDbCircle
 10
553.35
 20
460.81875
 30
0.0
 40
2.38125
100
AcDbArc
 50
323.430279
 51
346.18161
  0
ARC
  5
E6BB
330
E464
100
AcDbEntity
  8
1
  6
Continuous
100
AcDbCircle
 10
557.7
 20
447.1499999999998
 30
0.0
 40
5.0
100
AcDbArc
 50
90.0
 51
270.0
  0
LINE
  5
E6BC
330
E464
100
AcDbEntity
  8
4
  6
CENTER
100
AcDbLine
 10
559.2
 20
439.9433469999998
 30
0.0
 11
559.2
 21
454.75939
 31
0.0
  0
ARC
  5
E6BD
330
E464
100
AcDbEntity
  8
1
  6
Continuous
100
AcDbCircle
 10
560.7
 20
447.1499999999998
 30
0.0
 40
5.0
100
AcDbArc
 50
270.0
 51
90.0
  0
LINE
  5
E6BE
330
E464
100
AcDbEntity
  8
1
  6
Continuous
100
AcDbLine
 10
560.7
 20
452.1499999999998
 30
0.0
 11
557.7
 21
452.1499999999998
 31
0.0
  0
LINE
  5
E6BF
330
E464
100
AcDbEntity
  8
1
  6
Continuous
100
AcDbLine
 10
560.7
 20
442.1499999999999
 30
0.0
 11
557.7
 21
442.1499999999999
 31
0.0
  0
LINE
  5
E6C0
330
E464
100
AcDbEntity
  8
1
  6
Continuous
100
AcDbLine
 10
561.45
 20
446.75
 30
0.0
 11
561.45
 21
447.55
 31
0.0
  0
LINE
  5
E6C1
330
E464
100
AcDbEntity
  8
1
  6
Continuous
100
AcDbLine
 10
556.95
 20
446.75
 30
0.0
 11
556.95
 21
447.55
 31
0.0
  0
ARC
  5
E6C2
330
E464
100
AcDbEntity
  8
1
  6
Continuous
100
AcDbCircle
 10
559.2
 20
447.55
 30
0.0
 40
2.25
100
AcDbArc
 50
0.0
 51
180.0
  0
ARC
  5
E6C3
330
E464
100
AcDbEntity
  8
1
  6
Continuous
100
AcDbCircle
 10
559.2
 20
446.75
 30
0.0
 40
2.25
100
AcDbArc
 50
180.0
 51
0.0
  0
LINE
  5
E6C4
330
E464
100
AcDbEntity
  8
3
  6
DASHED
100
AcDbLine
 10
572.5999999999998
 20
454.6499999999999
 30
0.0
 11
572.5999999999998
 21
439.6499999999998
 31
0.0
  0
LINE
  5
E6C5
330
E464
100
AcDbEntity
  8
4
  6
CENTER
100
AcDbLine
 10
546.4999999999998
 20
441.8999999999998
 30
0.0
 11
546.4999999999998
 21
452.4
 31
0.0
  0
LINE
  5
E6C6
330
E464
100
AcDbEntity
  8
1
  6
Continuous
100
AcDbLine
 10
533.6
 20
460.7499999999998
 30
0.0
 11
523.1
 21
460.7499999999998
 31
0.0
  0
LINE
  5
E6C7
330
E464
100
AcDbEntity
  8
1
  6
Continuous
100
AcDbLine
 10
533.6
 20
460.25
 30
0.0
 11
523.1
 21
460.25
 31
0.0
  0
ARC
  5
E6C8
330
E464
100
AcDbEntity
  8
1
  6
Continuous
100
AcDbCircle
 10
528.35
 20
460.81875
 30
0.0
 40
2.38125
100
AcDbArc
 50
358.3455609999999
 51
21.665296
  0
ARC
  5
E6C9
330
E464
100
AcDbEntity
  8
1
  6
Continuous
100
AcDbCircle
 10
528.35
 20
460.81875
 30
0.0
 40
2.38125
100
AcDbArc
 50
158.3347039999999
 51
181.6544389999999
  0
LINE
  5
E6CA
330
E464
100
AcDbEntity
  8
1
  6
Continuous
100
AcDbLine
 10
533.6
 20
460.7499999999998
 30
0.0
 11
533.6
 21
459.4
 31
0.0
  0
ARC
  5
E6CB
330
E464
100
AcDbEntity
  8
1
  6
Continuous
100
AcDbCircle
 10
528.35
 20
460.81875
 30
0.0
 40
2.38125
100
AcDbArc
 50
193.81839
 51
216.5697209999999
  0
ARC
  5
E6CC
330
E464
100
AcDbEntity
  8
1
  6
Continuous
100
AcDbCircle
 10
528.35
 20
460.81875
 30
0.0
 40
2.38125
100
AcDbArc
 50
323.430279
 51
346.18161
  0
ARC
  5
E6CD
330
E464
100
AcDbEntity
  8
1
  6
Continuous
100
AcDbCircle
 10
540.85
 20
460.81875
 30
0.0
 40
2.38125
100
AcDbArc
 50
158.3347039999999
 51
181.6544389999999
  0
ARC
  5
E6CE
330
E464
100
AcDbEntity
  8
1
  6
Continuous
100
AcDbCircle
 10
540.85
 20
460.81875
 30
0.0
 40
2.38125
100
AcDbArc
 50
193.81839
 51
216.5697209999999
  0
LINE
  5
E6CF
330
E464
100
AcDbEntity
  8
1
  6
Continuous
100
AcDbLine
 10
535.6
 20
460.7499999999998
 30
0.0
 11
535.6
 21
459.4
 31
0.0
  0
ARC
  5
E6D0
330
E464
100
AcDbEntity
  8
1
  6
Continuous
100
AcDbCircle
 10
515.85
 20
460.81875
 30
0.0
 40
2.38125
100
AcDbArc
 50
158.3347039999999
 51
181.6544389999999
  0
ARC
  5
E6D1
330
E464
100
AcDbEntity
  8
1
  6
Continuous
100
AcDbCircle
 10
515.85
 20
460.81875
 30
0.0
 40
2.38125
100
AcDbArc
 50
193.81839
 51
216.5697209999999
  0
LINE
  5
E6D2
330
E464
100
AcDbEntity
  8
1
  6
Continuous
100
AcDbLine
 10
510.6
 20
460.7499999999998
 30
0.0
 11
510.6
 21
459.4
 31
0.0
  0
LINE
  5
E6D3
330
E464
100
AcDbEntity
  8
1
  6
Continuous
100
AcDbLine
 10
508.6
 20
460.7499999999998
 30
0.0
 11
508.6
 21
459.4
 31
0.0
  0
ARC
  5
E6D4
330
E464
100
AcDbEntity
  8
1
  6
Continuous
100
AcDbCircle
 10
515.85
 20
460.81875
 30
0.0
 40
2.38125
100
AcDbArc
 50
358.3455609999999
 51
21.665296
  0
LINE
  5
E6D5
330
E464
100
AcDbEntity
  8
1
  6
Continuous
100
AcDbLine
 10
523.1
 20
460.7499999999998
 30
0.0
 11
523.1
 21
459.4
 31
0.0
  0
ARC
  5
E6D6
330
E464
100
AcDbEntity
  8
1
  6
Continuous
100
AcDbCircle
 10
515.85
 20
460.81875
 30
0.0
 40
2.38125
100
AcDbArc
 50
323.430279
 51
346.18161
  0
LINE
  5
E6D7
330
E464
100
AcDbEntity
  8
1
  6
Continuous
100
AcDbLine
 10
521.1
 20
460.7499999999998
 30
0.0
 11
521.1
 21
459.4
 31
0.0
  0
LINE
  5
E6D8
330
E464
100
AcDbEntity
  8
1
  6
Continuous
100
AcDbLine
 10
521.1
 20
460.25
 30
0.0
 11
510.6
 21
460.25
 31
0.0
  0
LINE
  5
E6D9
330
E464
100
AcDbEntity
  8
1
  6
Continuous
100
AcDbLine
 10
521.1
 20
460.7499999999998
 30
0.0
 11
510.6
 21
460.7499999999998
 31
0.0
  0
LINE
  5
E6DA
330
E464
100
AcDbEntity
  8
4
  6
CENTER
100
AcDbLine
 10
533.8
 20
441.8999999999998
 30
0.0
 11
533.8
 21
452.4
 31
0.0
  0
LINE
  5
E6DB
330
E464
100
AcDbEntity
  8
1
  6
Continuous
100
AcDbLine
 10
546.1
 20
433.55
 30
0.0
 11
535.6
 21
433.55
 31
0.0
  0
LINE
  5
E6DC
330
E464
100
AcDbEntity
  8
1
  6
Continuous
100
AcDbLine
 10
546.1
 20
434.05
 30
0.0
 11
535.6
 21
434.05
 31
0.0
  0
LINE
  5
E6DD
330
E464
100
AcDbEntity
  8
1
  6
Continuous
100
AcDbLine
 10
558.6
 20
434.05
 30
0.0
 11
548.1
 21
434.05
 31
0.0
  0
LINE
  5
E6DE
330
E464
100
AcDbEntity
  8
1
  6
Continuous
100
AcDbLine
 10
558.6
 20
433.55
 30
0.0
 11
548.1
 21
433.55
 31
0.0
  0
ARC
  5
E6DF
330
E464
100
AcDbEntity
  8
1
  6
Continuous
100
AcDbCircle
 10
565.85
 20
433.4812499999999
 30
0.0
 40
2.38125
100
AcDbArc
 50
178.345561
 51
201.6652959999999
  0
ARC
  5
E6E0
330
E464
100
AcDbEntity
  8
1
  6
Continuous
100
AcDbCircle
 10
565.85
 20
433.4812499999999
 30
0.0
 40
2.38125
100
AcDbArc
 50
338.3347039999998
 51
1.654438999999999
  0
LINE
  5
E6E1
330
E464
100
AcDbEntity
  8
1
  6
Continuous
100
AcDbLine
 10
571.1
 20
433.55
 30
0.0
 11
560.6
 21
433.55
 31
0.0
  0
LINE
  5
E6E2
330
E464
100
AcDbEntity
  8
1
  6
Continuous
100
AcDbLine
 10
571.1
 20
434.05
 30
0.0
 11
560.6
 21
434.05
 31
0.0
  0
ARC
  5
E6E3
330
E464
100
AcDbEntity
  8
1
  6
Continuous
100
AcDbCircle
 10
540.85
 20
433.4812499999999
 30
0.0
 40
2.38125
100
AcDbArc
 50
338.3347039999998
 51
1.654438999999999
  0
ARC
  5
E6E4
330
E464
100
AcDbEntity
  8
1
  6
Continuous
100
AcDbCircle
 10
553.35
 20
433.4812499999999
 30
0.0
 40
2.38125
100
AcDbArc
 50
178.345561
 51
201.6652959999999
  0
ARC
  5
E6E5
330
E464
100
AcDbEntity
  8
1
  6
Continuous
100
AcDbCircle
 10
553.35
 20
433.4812499999999
 30
0.0
 40
2.38125
100
AcDbArc
 50
338.3347039999998
 51
1.654438999999999
  0
LINE
  5
E6E6
330
E464
100
AcDbEntity
  8
1
  6
Continuous
100
AcDbLine
 10
533.6
 20
434.05
 30
0.0
 11
523.1
 21
434.05
 31
0.0
  0
LINE
  5
E6E7
330
E464
100
AcDbEntity
  8
1
  6
Continuous
100
AcDbLine
 10
533.6
 20
433.55
 30
0.0
 11
523.1
 21
433.55
 31
0.0
  0
ARC
  5
E6E8
330
E464
100
AcDbEntity
  8
1
  6
Continuous
100
AcDbCircle
 10
528.35
 20
433.4812499999999
 30
0.0
 40
2.38125
100
AcDbArc
 50
178.345561
 51
201.6652959999999
  0
ARC
  5
E6E9
330
E464
100
AcDbEntity
  8
1
  6
Continuous
100
AcDbCircle
 10
528.35
 20
433.4812499999999
 30
0.0
 40
2.38125
100
AcDbArc
 50
338.3347039999998
 51
1.654438999999999
  0
ARC
  5
E6EA
330
E464
100
AcDbEntity
  8
1
  6
Continuous
100
AcDbCircle
 10
540.85
 20
433.4812499999999
 30
0.0
 40
2.38125
100
AcDbArc
 50
178.345561
 51
201.6652959999999
  0
ARC
  5
E6EB
330
E464
100
AcDbEntity
  8
1
  6
Continuous
100
AcDbCircle
 10
515.85
 20
433.4812499999999
 30
0.0
 40
2.38125
100
AcDbArc
 50
178.345561
 51
201.6652959999999
  0
ARC
  5
E6EC
330
E464
100
AcDbEntity
  8
1
  6
Continuous
100
AcDbCircle
 10
515.85
 20
433.4812499999999
 30
0.0
 40
2.38125
100
AcDbArc
 50
338.3347039999998
 51
1.654438999999999
  0
LINE
  5
E6ED
330
E464
100
AcDbEntity
  8
1
  6
Continuous
100
AcDbLine
 10
521.1
 20
433.55
 30
0.0
 11
510.6
 21
433.55
 31
0.0
  0
LINE
  5
E6EE
330
E464
100
AcDbEntity
  8
1
  6
Continuous
100
AcDbLine
 10
521.1
 20
434.05
 30
0.0
 11
510.6
 21
434.05
 31
0.0
  0
LINE
  5
E6EF
330
E464
100
AcDbEntity
  8
1
  6
Continuous
100
AcDbLine
 10
446.1
 20
433.55
 30
0.0
 11
446.1
 21
434.9
 31
0.0
  0
ARC
  5
E6F0
330
E464
100
AcDbEntity
  8
1
  6
Continuous
100
AcDbCircle
 10
440.85
 20
433.4812499999999
 30
0.0
 40
2.38125
100
AcDbArc
 50
13.81839
 51
36.569721
  0
LINE
  5
E6F1
330
E464
100
AcDbEntity
  8
1
  6
Continuous
100
AcDbLine
 10
448.1
 20
433.55
 30
0.0
 11
448.1
 21
434.9
 31
0.0
  0
ARC
  5
E6F2
330
E464
100
AcDbEntity
  8
1
  6
Continuous
100
AcDbCircle
 10
453.35
 20
433.4812499999999
 30
0.0
 40
2.38125
100
AcDbArc
 50
143.430279
 51
166.18161
  0
ARC
  5
E6F3
330
E464
100
AcDbEntity
  8
1
  6
Continuous
100
AcDbCircle
 10
453.35
 20
433.4812499999999
 30
0.0
 40
2.38125
100
AcDbArc
 50
13.81839
 51
36.569721
  0
LINE
  5
E6F4
330
E464
100
AcDbEntity
  8
1
  6
Continuous
100
AcDbLine
 10
458.6
 20
433.55
 30
0.0
 11
458.6
 21
434.9
 31
0.0
  0
LINE
  5
E6F5
330
E464
100
AcDbEntity
  8
1
  6
Continuous
100
AcDbLine
 10
471.1
 20
433.55
 30
0.0
 11
471.1
 21
434.9
 31
0.0
  0
ARC
  5
E6F6
330
E464
100
AcDbEntity
  8
1
  6
Continuous
100
AcDbCircle
 10
465.85
 20
433.4812499999999
 30
0.0
 40
2.38125
100
AcDbArc
 50
13.81839
 51
36.569721
  0
LINE
  5
E6F7
330
E464
100
AcDbEntity
  8
1
  6
Continuous
100
AcDbLine
 10
460.6
 20
433.55
 30
0.0
 11
460.6
 21
434.9
 31
0.0
  0
ARC
  5
E6F8
330
E464
100
AcDbEntity
  8
1
  6
Continuous
100
AcDbCircle
 10
465.85
 20
433.4812499999999
 30
0.0
 40
2.38125
100
AcDbArc
 50
143.430279
 51
166.18161
  0
ARC
  5
E6F9
330
E464
100
AcDbEntity
  8
1
  6
Continuous
100
AcDbCircle
 10
478.35
 20
433.4812499999999
 30
0.0
 40
2.38125
100
AcDbArc
 50
143.430279
 51
166.18161
  0
LINE
  5
E6FA
330
E464
100
AcDbEntity
  8
1
  6
Continuous
100
AcDbLine
 10
473.1
 20
433.55
 30
0.0
 11
473.1
 21
434.9
 31
0.0
  0
ARC
  5
E6FB
330
E464
100
AcDbEntity
  8
1
  6
Continuous
100
AcDbCircle
 10
478.35
 20
433.4812499999999
 30
0.0
 40
2.38125
100
AcDbArc
 50
13.81839
 51
36.569721
  0
LINE
  5
E6FC
330
E464
100
AcDbEntity
  8
1
  6
Continuous
100
AcDbLine
 10
483.6
 20
433.55
 30
0.0
 11
483.6
 21
434.9
 31
0.0
  0
LINE
  5
E6FD
330
E464
100
AcDbEntity
  8
1
  6
Continuous
100
AcDbLine
 10
496.1
 20
433.55
 30
0.0
 11
496.1
 21
434.9
 31
0.0
  0
ARC
  5
E6FE
330
E464
100
AcDbEntity
  8
1
  6
Continuous
100
AcDbCircle
 10
490.85
 20
433.4812499999999
 30
0.0
 40
2.38125
100
AcDbArc
 50
13.81839
 51
36.569721
  0
LINE
  5
E6FF
330
E464
100
AcDbEntity
  8
1
  6
Continuous
100
AcDbLine
 10
485.6
 20
433.55
 30
0.0
 11
485.6
 21
434.9
 31
0.0
  0
ARC
  5
E700
330
E464
100
AcDbEntity
  8
1
  6
Continuous
100
AcDbCircle
 10
490.85
 20
433.4812499999999
 30
0.0
 40
2.38125
100
AcDbArc
 50
143.430279
 51
166.18161
  0
ARC
  5
E701
330
E464
100
AcDbEntity
  8
1
  6
Continuous
100
AcDbCircle
 10
503.35
 20
433.4812499999999
 30
0.0
 40
2.38125
100
AcDbArc
 50
143.430279
 51
166.18161
  0
LINE
  5
E702
330
E464
100
AcDbEntity
  8
1
  6
Continuous
100
AcDbLine
 10
498.1
 20
433.55
 30
0.0
 11
498.1
 21
434.9
 31
0.0
  0
ARC
  5
E703
330
E464
100
AcDbEntity
  8
1
  6
Continuous
100
AcDbCircle
 10
503.35
 20
433.4812499999999
 30
0.0
 40
2.38125
100
AcDbArc
 50
13.81839
 51
36.569721
  0
LINE
  5
E704
330
E464
100
AcDbEntity
  8
1
  6
Continuous
100
AcDbLine
 10
496.1
 20
460.25
 30
0.0
 11
485.6
 21
460.25
 31
0.0
  0
LINE
  5
E705
330
E464
100
AcDbEntity
  8
1
  6
Continuous
100
AcDbLine
 10
496.1
 20
460.7499999999998
 30
0.0
 11
485.6
 21
460.7499999999998
 31
0.0
  0
ARC
  5
E706
330
E464
100
AcDbEntity
  8
1
  6
Continuous
100
AcDbCircle
 10
490.85
 20
460.81875
 30
0.0
 40
2.38125
100
AcDbArc
 50
358.3455609999999
 51
21.665296
  0
LINE
  5
E707
330
E464
100
AcDbEntity
  8
1
  6
Continuous
100
AcDbLine
 10
498.1
 20
460.7499999999998
 30
0.0
 11
498.1
 21
459.4
 31
0.0
  0
ARC
  5
E708
330
E464
100
AcDbEntity
  8
1
  6
Continuous
100
AcDbCircle
 10
490.85
 20
460.81875
 30
0.0
 40
2.38125
100
AcDbArc
 50
323.430279
 51
346.18161
  0
LINE
  5
E709
330
E464
100
AcDbEntity
  8
1
  6
Continuous
100
AcDbLine
 10
496.1
 20
460.7499999999998
 30
0.0
 11
496.1
 21
459.4
 31
0.0
  0
ARC
  5
E70A
330
E464
100
AcDbEntity
  8
1
  6
Continuous
100
AcDbCircle
 10
503.35
 20
460.81875
 30
0.0
 40
2.38125
100
AcDbArc
 50
358.3455609999999
 51
21.665296
  0
ARC
  5
E70B
330
E464
100
AcDbEntity
  8
1
  6
Continuous
100
AcDbCircle
 10
503.35
 20
460.81875
 30
0.0
 40
2.38125
100
AcDbArc
 50
158.3347039999999
 51
181.6544389999999
  0
ARC
  5
E70C
330
E464
100
AcDbEntity
  8
1
  6
Continuous
100
AcDbCircle
 10
503.35
 20
460.81875
 30
0.0
 40
2.38125
100
AcDbArc
 50
323.430279
 51
346.18161
  0
ARC
  5
E70D
330
E464
100
AcDbEntity
  8
1
  6
Continuous
100
AcDbCircle
 10
503.35
 20
460.81875
 30
0.0
 40
2.38125
100
AcDbArc
 50
193.81839
 51
216.5697209999999
  0
ARC
  5
E70E
330
E464
100
AcDbEntity
  8
1
  6
Continuous
100
AcDbCircle
 10
478.35
 20
460.81875
 30
0.0
 40
2.38125
100
AcDbArc
 50
358.3455609999999
 51
21.665296
  0
ARC
  5
E70F
330
E464
100
AcDbEntity
  8
1
  6
Continuous
100
AcDbCircle
 10
478.35
 20
460.81875
 30
0.0
 40
2.38125
100
AcDbArc
 50
158.3347039999999
 51
181.6544389999999
  0
LINE
  5
E710
330
E464
100
AcDbEntity
  8
1
  6
Continuous
100
AcDbLine
 10
483.6
 20
460.7499999999998
 30
0.0
 11
473.1
 21
460.7499999999998
 31
0.0
  0
LINE
  5
E711
330
E464
100
AcDbEntity
  8
1
  6
Continuous
100
AcDbLine
 10
483.6
 20
460.25
 30
0.0
 11
473.1
 21
460.25
 31
0.0
  0
LINE
  5
E712
330
E464
100
AcDbEntity
  8
1
  6
Continuous
100
AcDbLine
 10
483.6
 20
460.7499999999998
 30
0.0
 11
483.6
 21
459.4
 31
0.0
  0
ARC
  5
E713
330
E464
100
AcDbEntity
  8
1
  6
Continuous
100
AcDbCircle
 10
478.35
 20
460.81875
 30
0.0
 40
2.38125
100
AcDbArc
 50
323.430279
 51
346.18161
  0
LINE
  5
E714
330
E464
100
AcDbEntity
  8
1
  6
Continuous
100
AcDbLine
 10
473.1
 20
460.7499999999998
 30
0.0
 11
473.1
 21
459.4
 31
0.0
  0
ARC
  5
E715
330
E464
100
AcDbEntity
  8
1
  6
Continuous
100
AcDbCircle
 10
478.35
 20
460.81875
 30
0.0
 40
2.38125
100
AcDbArc
 50
193.81839
 51
216.5697209999999
  0
ARC
  5
E716
330
E464
100
AcDbEntity
  8
1
  6
Continuous
100
AcDbCircle
 10
490.85
 20
460.81875
 30
0.0
 40
2.38125
100
AcDbArc
 50
158.3347039999999
 51
181.6544389999999
  0
ARC
  5
E717
330
E464
100
AcDbEntity
  8
1
  6
Continuous
100
AcDbCircle
 10
490.85
 20
460.81875
 30
0.0
 40
2.38125
100
AcDbArc
 50
193.81839
 51
216.5697209999999
  0
LINE
  5
E718
330
E464
100
AcDbEntity
  8
1
  6
Continuous
100
AcDbLine
 10
485.6
 20
460.7499999999998
 30
0.0
 11
485.6
 21
459.4
 31
0.0
  0
LINE
  5
E719
330
E464
100
AcDbEntity
  8
1
  6
Continuous
100
AcDbLine
 10
395.6999999999999
 20
437.0625
 30
0.0
 11
395.6999999999999
 21
457.2375
 31
0.0
  0
LINE
  5
E71A
330
E464
100
AcDbEntity
  8
1
  6
Continuous
100
AcDbLine
 10
458.6
 20
460.7499999999998
 30
0.0
 11
448.1
 21
460.7499999999998
 31
0.0
  0
LINE
  5
E71B
330
E464
100
AcDbEntity
  8
1
  6
Continuous
100
AcDbLine
 10
458.6
 20
460.25
 30
0.0
 11
448.1
 21
460.25
 31
0.0
  0
ARC
  5
E71C
330
E464
100
AcDbEntity
  8
1
  6
Continuous
100
AcDbCircle
 10
465.85
 20
460.81875
 30
0.0
 40
2.38125
100
AcDbArc
 50
158.3347039999999
 51
181.6544389999999
  0
ARC
  5
E71D
330
E464
100
AcDbEntity
  8
1
  6
Continuous
100
AcDbCircle
 10
465.85
 20
460.81875
 30
0.0
 40
2.38125
100
AcDbArc
 50
193.81839
 51
216.5697209999999
  0
LINE
  5
E71E
330
E464
100
AcDbEntity
  8
1
  6
Continuous
100
AcDbLine
 10
460.6
 20
460.7499999999998
 30
0.0
 11
460.6
 21
459.4
 31
0.0
  0
LINE
  5
E71F
330
E464
100
AcDbEntity
  8
1
  6
Continuous
100
AcDbLine
 10
458.6
 20
460.7499999999998
 30
0.0
 11
458.6
 21
459.4
 31
0.0
  0
ARC
  5
E720
330
E464
100
AcDbEntity
  8
1
  6
Continuous
100
AcDbCircle
 10
465.85
 20
460.81875
 30
0.0
 40
2.38125
100
AcDbArc
 50
358.3455609999999
 51
21.665296
  0
ARC
  5
E721
330
E464
100
AcDbEntity
  8
1
  6
Continuous
100
AcDbCircle
 10
465.85
 20
460.81875
 30
0.0
 40
2.38125
100
AcDbArc
 50
323.430279
 51
346.18161
  0
LINE
  5
E722
330
E464
100
AcDbEntity
  8
1
  6
Continuous
100
AcDbLine
 10
471.1
 20
460.7499999999998
 30
0.0
 11
471.1
 21
459.4
 31
0.0
  0
LINE
  5
E723
330
E464
100
AcDbEntity
  8
1
  6
Continuous
100
AcDbLine
 10
471.1
 20
460.25
 30
0.0
 11
460.6
 21
460.25
 31
0.0
  0
LINE
  5
E724
330
E464
100
AcDbEntity
  8
1
  6
Continuous
100
AcDbLine
 10
471.1
 20
460.7499999999998
 30
0.0
 11
460.6
 21
460.7499999999998
 31
0.0
  0
ARC
  5
E725
330
E464
100
AcDbEntity
  8
1
  6
Continuous
100
AcDbCircle
 10
440.85
 20
460.81875
 30
0.0
 40
2.38125
100
AcDbArc
 50
358.3455609999999
 51
21.665296
  0
LINE
  5
E726
330
E464
100
AcDbEntity
  8
1
  6
Continuous
100
AcDbLine
 10
448.1
 20
460.7499999999998
 30
0.0
 11
448.1
 21
459.4
 31
0.0
  0
ARC
  5
E727
330
E464
100
AcDbEntity
  8
1
  6
Continuous
100
AcDbCircle
 10
440.85
 20
460.81875
 30
0.0
 40
2.38125
100
AcDbArc
 50
323.430279
 51
346.18161
  0
LINE
  5
E728
330
E464
100
AcDbEntity
  8
1
  6
Continuous
100
AcDbLine
 10
446.1
 20
460.7499999999998
 30
0.0
 11
446.1
 21
459.4
 31
0.0
  0
ARC
  5
E729
330
E464
100
AcDbEntity
  8
1
  6
Continuous
100
AcDbCircle
 10
453.35
 20
460.81875
 30
0.0
 40
2.38125
100
AcDbArc
 50
358.3455609999999
 51
21.665296
  0
ARC
  5
E72A
330
E464
100
AcDbEntity
  8
1
  6
Continuous
100
AcDbCircle
 10
453.35
 20
460.81875
 30
0.0
 40
2.38125
100
AcDbArc
 50
158.3347039999999
 51
181.6544389999999
  0
ARC
  5
E72B
330
E464
100
AcDbEntity
  8
1
  6
Continuous
100
AcDbCircle
 10
453.35
 20
460.81875
 30
0.0
 40
2.38125
100
AcDbArc
 50
323.430279
 51
346.18161
  0
ARC
  5
E72C
330
E464
100
AcDbEntity
  8
1
  6
Continuous
100
AcDbCircle
 10
453.35
 20
460.81875
 30
0.0
 40
2.38125
100
AcDbArc
 50
193.81839
 51
216.5697209999999
  0
CIRCLE
  5
E72D
330
E464
100
AcDbEntity
  8
1
  6
Continuous
100
AcDbCircle
 10
382.6999999999999
 20
447.1499999999998
 30
0.0
 40
3.5
  0
LINE
  5
E72E
330
E464
100
AcDbEntity
  8
4
  6
CENTER
100
AcDbLine
 10
382.6999999999999
 20
440.65
 30
0.0
 11
382.6999999999999
 21
453.65
 31
0.0
  0
LINE
  5
E72F
330
E464
100
AcDbEntity
  8
4
  6
CENTER
100
AcDbLine
 10
448.1
 20
441.8999999999998
 30
0.0
 11
448.1
 21
452.4
 31
0.0
  0
LINE
  5
E730
330
E464
100
AcDbEntity
  8
1
  6
Continuous
100
AcDbLine
 10
496.1
 20
433.55
 30
0.0
 11
485.6
 21
433.55
 31
0.0
  0
LINE
  5
E731
330
E464
100
AcDbEntity
  8
1
  6
Continuous
100
AcDbLine
 10
496.1
 20
434.05
 30
0.0
 11
485.6
 21
434.05
 31
0.0
  0
ARC
  5
E732
330
E464
100
AcDbEntity
  8
1
  6
Continuous
100
AcDbCircle
 10
490.85
 20
433.4812499999999
 30
0.0
 40
2.38125
100
AcDbArc
 50
338.3347039999998
 51
1.654438999999999
  0
ARC
  5
E733
330
E464
100
AcDbEntity
  8
1
  6
Continuous
100
AcDbCircle
 10
503.35
 20
433.4812499999999
 30
0.0
 40
2.38125
100
AcDbArc
 50
178.345561
 51
201.6652959999999
  0
ARC
  5
E734
330
E464
100
AcDbEntity
  8
1
  6
Continuous
100
AcDbCircle
 10
503.35
 20
433.4812499999999
 30
0.0
 40
2.38125
100
AcDbArc
 50
338.3347039999998
 51
1.654438999999999
  0
LINE
  5
E735
330
E464
100
AcDbEntity
  8
1
  6
Continuous
100
AcDbLine
 10
483.6
 20
434.05
 30
0.0
 11
473.1
 21
434.05
 31
0.0
  0
LINE
  5
E736
330
E464
100
AcDbEntity
  8
1
  6
Continuous
100
AcDbLine
 10
483.6
 20
433.55
 30
0.0
 11
473.1
 21
433.55
 31
0.0
  0
ARC
  5
E737
330
E464
100
AcDbEntity
  8
1
  6
Continuous
100
AcDbCircle
 10
478.35
 20
433.4812499999999
 30
0.0
 40
2.38125
100
AcDbArc
 50
178.345561
 51
201.6652959999999
  0
ARC
  5
E738
330
E464
100
AcDbEntity
  8
1
  6
Continuous
100
AcDbCircle
 10
478.35
 20
433.4812499999999
 30
0.0
 40
2.38125
100
AcDbArc
 50
338.3347039999998
 51
1.654438999999999
  0
ARC
  5
E739
330
E464
100
AcDbEntity
  8
1
  6
Continuous
100
AcDbCircle
 10
490.85
 20
433.4812499999999
 30
0.0
 40
2.38125
100
AcDbArc
 50
178.345561
 51
201.6652959999999
  0
LINE
  5
E73A
330
E464
100
AcDbEntity
  8
1
  6
Continuous
100
AcDbLine
 10
458.6
 20
434.05
 30
0.0
 11
448.1
 21
434.05
 31
0.0
  0
LINE
  5
E73B
330
E464
100
AcDbEntity
  8
1
  6
Continuous
100
AcDbLine
 10
458.6
 20
433.55
 30
0.0
 11
448.1
 21
433.55
 31
0.0
  0
ARC
  5
E73C
330
E464
100
AcDbEntity
  8
1
  6
Continuous
100
AcDbCircle
 10
465.85
 20
433.4812499999999
 30
0.0
 40
2.38125
100
AcDbArc
 50
178.345561
 51
201.6652959999999
  0
ARC
  5
E73D
330
E464
100
AcDbEntity
  8
1
  6
Continuous
100
AcDbCircle
 10
465.85
 20
433.4812499999999
 30
0.0
 40
2.38125
100
AcDbArc
 50
338.3347039999998
 51
1.654438999999999
  0
LINE
  5
E73E
330
E464
100
AcDbEntity
  8
1
  6
Continuous
100
AcDbLine
 10
471.1
 20
433.55
 30
0.0
 11
460.6
 21
433.55
 31
0.0
  0
LINE
  5
E73F
330
E464
100
AcDbEntity
  8
1
  6
Continuous
100
AcDbLine
 10
471.1
 20
434.05
 30
0.0
 11
460.6
 21
434.05
 31
0.0
  0
ARC
  5
E740
330
E464
100
AcDbEntity
  8
1
  6
Continuous
100
AcDbCircle
 10
440.85
 20
433.4812499999999
 30
0.0
 40
2.38125
100
AcDbArc
 50
338.3347039999998
 51
1.654438999999999
  0
ARC
  5
E741
330
E464
100
AcDbEntity
  8
1
  6
Continuous
100
AcDbCircle
 10
453.35
 20
433.4812499999999
 30
0.0
 40
2.38125
100
AcDbArc
 50
178.345561
 51
201.6652959999999
  0
ARC
  5
E742
330
E464
100
AcDbEntity
  8
1
  6
Continuous
100
AcDbCircle
 10
453.35
 20
433.4812499999999
 30
0.0
 40
2.38125
100
AcDbArc
 50
338.3347039999998
 51
1.654438999999999
  0
LINE
  5
E743
330
E464
100
AcDbEntity
  8
1
  6
Continuous
100
AcDbLine
 10
435.6
 20
433.55
 30
0.0
 11
435.6
 21
434.9
 31
0.0
  0
ARC
  5
E744
330
E464
100
AcDbEntity
  8
1
  6
Continuous
100
AcDbCircle
 10
440.85
 20
433.4812499999999
 30
0.0
 40
2.38125
100
AcDbArc
 50
143.430279
 51
166.18161
  0
LINE
  5
E745
330
E464
100
AcDbEntity
  8
3
  6
DASHED
100
AcDbLine
 10
360.6999999999999
 20
434.9
 30
0.0
 11
360.6999999999999
 21
459.4
 31
0.0
  0
LINE
  5
E746
330
E464
100
AcDbEntity
  8
1
  6
Continuous
100
AcDbLine
 10
357.6999999999999
 20
434.9
 30
0.0
 11
357.6999999999999
 21
459.4
 31
0.0
  0
ARC
  5
E747
330
E464
100
AcDbEntity
  8
1
  6
Continuous
100
AcDbCircle
 10
440.85
 20
460.81875
 30
0.0
 40
2.38125
100
AcDbArc
 50
158.3347039999999
 51
181.6544389999999
  0
ARC
  5
E748
330
E464
100
AcDbEntity
  8
1
  6
Continuous
100
AcDbCircle
 10
440.85
 20
460.81875
 30
0.0
 40
2.38125
100
AcDbArc
 50
193.81839
 51
216.5697209999999
  0
LINE
  5
E749
330
E464
100
AcDbEntity
  8
1
  6
Continuous
100
AcDbLine
 10
435.6
 20
460.7499999999998
 30
0.0
 11
435.6
 21
459.4
 31
0.0
  0
LINE
  5
E74A
330
E464
100
AcDbEntity
  8
1
  6
Continuous
100
AcDbLine
 10
258.0
 20
449.3999999999998
 30
0.0
 11
257.2
 21
449.3999999999998
 31
0.0
  0
LINE
  5
E74B
330
E464
100
AcDbEntity
  8
4
  6
CENTER
100
AcDbLine
 10
257.6
 20
441.8999999999998
 30
0.0
 11
257.6
 21
452.4
 31
0.0
  0
LINE
  5
E74C
330
E464
100
AcDbEntity
  8
1
  6
Continuous
100
AcDbLine
 10
258.0
 20
444.8999999999998
 30
0.0
 11
257.2
 21
444.8999999999998
 31
0.0
  0
ARC
  5
E74D
330
E464
100
AcDbEntity
  8
1
  6
Continuous
100
AcDbCircle
 10
258.0
 20
447.1499999999998
 30
0.0
 40
2.25
100
AcDbArc
 50
270.0
 51
90.0
  0
ARC
  5
E74E
330
E464
100
AcDbEntity
  8
1
  6
Continuous
100
AcDbCircle
 10
257.2
 20
447.1499999999998
 30
0.0
 40
2.25
100
AcDbArc
 50
90.0
 51
270.0
  0
ARC
  5
E74F
330
E464
100
AcDbEntity
  8
1
  6
Continuous
100
AcDbCircle
 10
440.85
 20
433.4812499999999
 30
0.0
 40
2.38125
100
AcDbArc
 50
178.345561
 51
201.6652959999999
  0
LINE
  5
E750
330
E464
100
AcDbEntity
  8
1
  6
Continuous
100
AcDbLine
 10
120.3289909999998
 20
434.3368169999997
 30
0.0
 11
118.453284
 21
432.0049759999998
 31
0.0
  0
ARC
  5
E751
330
E464
100
AcDbEntity
  8
1
  6
Continuous
100
AcDbCircle
 10
119.7
 20
434.842771
 30
0.0
 40
0.8072289999999997
100
AcDbArc
 50
321.187185
 51
90.0
  0
ARC
  5
E752
330
E464
100
AcDbEntity
  8
1
  6
Continuous
100
AcDbCircle
 10
119.7
 20
459.457229
 30
0.0
 40
0.8072289999999997
100
AcDbArc
 50
270.0
 51
38.812815
  0
ARC
  5
E753
330
E464
100
AcDbEntity
  8
1
  6
Continuous
100
AcDbCircle
 10
146.5
 20
446.75
 30
0.0
 40
2.25
100
AcDbArc
 50
180.0
 51
0.0
  0
ARC
  5
E754
330
E464
100
AcDbEntity
  8
1
  6
Continuous
100
AcDbCircle
 10
146.5
 20
447.55
 30
0.0
 40
2.25
100
AcDbArc
 50
0.0
 51
180.0
  0
LINE
  5
E755
330
E464
100
AcDbEntity
  8
4
  6
CENTER
100
AcDbLine
 10
146.5
 20
441.8999999999998
 30
0.0
 11
146.5
 21
452.4
 31
0.0
  0
LINE
  5
E756
330
E464
100
AcDbEntity
  8
1
  6
Continuous
100
AcDbLine
 10
144.25
 20
446.75
 30
0.0
 11
144.25
 21
447.55
 31
0.0
  0
LINE
  5
E757
330
E464
100
AcDbEntity
  8
1
  6
Continuous
100
AcDbLine
 10
148.75
 20
446.75
 30
0.0
 11
148.75
 21
447.55
 31
0.0
  0
LINE
  5
E758
330
E464
100
AcDbEntity
  8
1
  6
Continuous
100
AcDbLine
 10
131.55
 20
446.75
 30
0.0
 11
131.55
 21
447.55
 31
0.0
  0
LINE
  5
E759
330
E464
100
AcDbEntity
  8
4
  6
CENTER
100
AcDbLine
 10
133.8
 20
441.8999999999998
 30
0.0
 11
133.8
 21
452.4
 31
0.0
  0
LINE
  5
E75A
330
E464
100
AcDbEntity
  8
1
  6
Continuous
100
AcDbLine
 10
136.05
 20
446.75
 30
0.0
 11
136.05
 21
447.55
 31
0.0
  0
ARC
  5
E75B
330
E464
100
AcDbEntity
  8
1
  6
Continuous
100
AcDbCircle
 10
133.8
 20
446.75
 30
0.0
 40
2.25
100
AcDbArc
 50
180.0
 51
0.0
  0
ARC
  5
E75C
330
E464
100
AcDbEntity
  8
1
  6
Continuous
100
AcDbCircle
 10
133.8
 20
447.55
 30
0.0
 40
2.25
100
AcDbArc
 50
0.0
 51
180.0
  0
LINE
  5
E75D
330
E464
100
AcDbEntity
  8
1
  6
Continuous
100
AcDbLine
 10
118.1
 20
458.65
 30
0.0
 11
118.1
 21
435.6499999999998
 31
0.0
  0
LINE
  5
E75E
330
E464
100
AcDbEntity
  8
1
  6
Continuous
100
AcDbLine
 10
119.7
 20
458.65
 30
0.0
 11
119.7
 21
435.6499999999998
 31
0.0
  0
LINE
  5
E75F
330
E464
100
AcDbEntity
  8
1
  6
Continuous
100
AcDbLine
 10
118.1
 20
464.8
 30
0.0
 11
118.1
 21
463.2978689999998
 31
0.0
  0
LINE
  5
E760
330
E464
100
AcDbEntity
  8
1
  6
Continuous
100
AcDbLine
 10
120.3289909999998
 20
459.9631829999998
 30
0.0
 11
118.453284
 21
462.295024
 31
0.0
  0
ARC
  5
E761
330
E464
100
AcDbEntity
  8
1
  6
Continuous
100
AcDbCircle
 10
119.7
 20
463.8885629999998
 30
0.0
 40
1.6
100
AcDbArc
 50
180.0
 51
270.0
  0
ARC
  5
E762
330
E464
100
AcDbEntity
  8
1
  6
Continuous
100
AcDbCircle
 10
119.7
 20
463.2978689999998
 30
0.0
 40
1.6
100
AcDbArc
 50
180.0
 51
270.0
  0
LINE
  5
E763
330
E464
100
AcDbEntity
  8
1
  6
Continuous
100
AcDbLine
 10
119.7
 20
458.65
 30
0.0
 11
118.1
 21
458.65
 31
0.0
  0
LINE
  5
E764
330
E464
100
AcDbEntity
  8
1
  6
Continuous
100
AcDbLine
 10
119.7
 20
435.6499999999998
 30
0.0
 11
118.1
 21
435.6499999999998
 31
0.0
  0
LINE
  5
E765
330
E464
100
AcDbEntity
  8
1
  6
Continuous
100
AcDbLine
 10
118.1
 20
431.0021309999998
 30
0.0
 11
118.1
 21
429.4999999999998
 31
0.0
  0
ARC
  5
E766
330
E464
100
AcDbEntity
  8
1
  6
Continuous
100
AcDbCircle
 10
119.7
 20
431.0021309999998
 30
0.0
 40
1.6
100
AcDbArc
 50
90.0
 51
180.0
  0
ARC
  5
E767
330
E464
100
AcDbEntity
  8
1
  6
Continuous
100
AcDbCircle
 10
119.7
 20
430.4114369999998
 30
0.0
 40
1.6
100
AcDbArc
 50
90.0
 51
180.0
  0
LINE
  5
E768
330
E464
100
AcDbEntity
  8
1
  6
Continuous
100
AcDbLine
 10
575.1
 20
57.1
 30
0.0
 11
814.4999999999999
 21
57.1
 31
0.0
  0
LINE
  5
E769
330
E464
100
AcDbEntity
  8
1
  6
Continuous
100
AcDbLine
 10
360.6999999999999
 20
50.6
 30
0.0
 11
814.4999999999999
 21
50.6
 31
0.0
  0
LINE
  5
E76A
330
E464
100
AcDbEntity
  8
1
  6
Continuous
100
AcDbLine
 10
357.6999999999999
 20
50.5
 30
0.0
 11
811.5
 21
50.5
 31
0.0
  0
LINE
  5
E76B
330
E464
100
AcDbEntity
  8
1
  6
Continuous
100
AcDbLine
 10
597.1
 20
41.0
 30
0.0
 11
1054.099999999998
 21
41.0
 31
0.0
  0
LINE
  5
E76C
330
E464
100
AcDbEntity
  8
1
  6
Continuous
100
AcDbLine
 10
597.1
 20
49.7
 30
0.0
 11
1054.099999999998
 21
49.7
 31
0.0
  0
LINE
  5
E76D
330
E464
100
AcDbEntity
  8
3
  6
DASHED
100
AcDbLine
 10
597.1
 20
44.0
 30
0.0
 11
811.5
 21
44.0
 31
0.0
  0
LINE
  5
E76E
330
E464
100
AcDbEntity
  8
1
  6
Continuous
100
AcDbLine
 10
575.1
 20
60.1
 30
0.0
 11
575.1
 21
51.4
 31
0.0
  0
LINE
  5
E76F
330
E464
100
AcDbEntity
  8
4
  6
CENTER
100
AcDbLine
 10
559.2
 20
40.566515
 30
0.0
 11
559.2
 21
65.528309
 31
0.0
  0
LINE
  5
E770
330
E464
100
AcDbEntity
  8
3
  6
DASHED
100
AcDbLine
 10
360.6999999999999
 20
51.4
 30
0.0
 11
360.6999999999999
 21
57.1
 31
0.0
  0
LINE
  5
E771
330
E464
100
AcDbEntity
  8
1
  6
Continuous
100
AcDbLine
 10
118.1
 20
60.1
 30
0.0
 11
118.1
 21
51.4
 31
0.0
  0
LINE
  5
E772
330
E464
100
AcDbEntity
  8
1
  6
Continuous
100
AcDbLine
 10
118.1
 20
60.1
 30
0.0
 11
575.1
 21
60.1
 31
0.0
  0
LINE
  5
E773
330
E464
100
AcDbEntity
  8
4
  6
CENTER
100
AcDbLine
 10
146.5
 20
55.028309
 30
0.0
 11
146.5
 21
65.528309
 31
0.0
  0
LINE
  5
E774
330
E464
100
AcDbEntity
  8
4
  6
CENTER
100
AcDbLine
 10
133.8
 20
55.028309
 30
0.0
 11
133.8
 21
65.528309
 31
0.0
  0
LINE
  5
E775
330
E464
100
AcDbEntity
  8
3
  6
DASHED
100
AcDbLine
 10
360.6999999999999
 20
57.1
 30
0.0
 11
575.1
 21
57.1
 31
0.0
  0
LINE
  5
E776
330
E464
100
AcDbEntity
  8
4
  6
CENTER
100
AcDbLine
 10
257.6
 20
55.028309
 30
0.0
 11
257.6
 21
65.528309
 31
0.0
  0
LINE
  5
E777
330
E464
100
AcDbEntity
  8
4
  6
CENTER
100
AcDbLine
 10
448.1
 20
55.028309
 30
0.0
 11
448.1
 21
65.528309
 31
0.0
  0
LINE
  5
E778
330
E464
100
AcDbEntity
  8
4
  6
CENTER
100
AcDbLine
 10
533.8
 20
55.028309
 30
0.0
 11
533.8
 21
65.528309
 31
0.0
  0
LINE
  5
E779
330
E464
100
AcDbEntity
  8
4
  6
CENTER
100
AcDbLine
 10
546.4999999999998
 20
55.028309
 30
0.0
 11
546.4999999999998
 21
65.528309
 31
0.0
  0
LINE
  5
E77A
330
E464
100
AcDbEntity
  8
1
  6
Continuous
100
AcDbLine
 10
118.1
 20
51.4
 30
0.0
 11
575.1
 21
51.4
 31
0.0
  0
LINE
  5
E77B
330
E464
100
AcDbEntity
  8
1
  6
Continuous
100
AcDbLine
 10
357.6999999999999
 20
44.0
 30
0.0
 11
597.1
 21
44.0
 31
0.0
  0
LINE
  5
E77C
330
E464
100
AcDbEntity
  8
1
  6
Continuous
100
AcDbLine
 10
360.6999999999999
 20
50.6
 30
0.0
 11
360.6999999999999
 21
51.4
 31
0.0
  0
LINE
  5
E77D
330
E464
100
AcDbEntity
  8
1
  6
Continuous
100
AcDbLine
 10
357.6999999999999
 20
44.0
 30
0.0
 11
357.6999999999999
 21
50.5
 31
0.0
  0
LINE
  5
E77E
330
E464
100
AcDbEntity
  8
1
  6
Continuous
100
AcDbLine
 10
597.1
 20
49.7
 30
0.0
 11
597.1
 21
41.0
 31
0.0
  0
LINE
  5
E77F
330
E464
100
AcDbEntity
  8
1
  6
Continuous
100
AcDbLine
 10
814.4999999999999
 20
50.6
 30
0.0
 11
814.4999999999999
 21
57.1
 31
0.0
  0
LINE
  5
E780
330
E464
100
AcDbEntity
  8
4
  6
CENTER
100
AcDbLine
 10
613.0
 20
36.504411
 30
0.0
 11
613.0
 21
60.034205
 31
0.0
  0
LINE
  5
E781
330
E464
100
AcDbEntity
  8
4
  6
CENTER
100
AcDbLine
 10
625.7000000000001
 20
36.504411
 30
0.0
 11
625.7000000000001
 21
47.00441099999999
 31
0.0
  0
LINE
  5
E782
330
E464
100
AcDbEntity
  8
4
  6
CENTER
100
AcDbLine
 10
638.4
 20
36.504411
 30
0.0
 11
638.4
 21
47.00441099999999
 31
0.0
  0
LINE
  5
E783
330
E464
100
AcDbEntity
  8
3
  6
DASHED
100
AcDbLine
 10
811.5
 20
44.0
 30
0.0
 11
811.5
 21
49.7
 31
0.0
  0
LINE
  5
E784
330
E464
100
AcDbEntity
  8
4
  6
CENTER
100
AcDbLine
 10
724.1
 20
36.504411
 30
0.0
 11
724.1
 21
47.00441099999999
 31
0.0
  0
LINE
  5
E785
330
E464
100
AcDbEntity
  8
1
  6
Continuous
100
AcDbLine
 10
811.5
 20
49.7
 30
0.0
 11
811.5
 21
50.5
 31
0.0
  0
LINE
  5
E786
330
E464
100
AcDbEntity
  8
4
  6
CENTER
100
AcDbLine
 10
914.6
 20
36.504411
 30
0.0
 11
914.6
 21
47.00441099999999
 31
0.0
  0
LINE
  5
E787
330
E464
100
AcDbEntity
  8
4
  6
CENTER
100
AcDbLine
 10
1038.399999999999
 20
36.504411
 30
0.0
 11
1038.399999999999
 21
47.00441099999999
 31
0.0
  0
LINE
  5
E788
330
E464
100
AcDbEntity
  8
4
  6
CENTER
100
AcDbLine
 10
1025.7
 20
36.504411
 30
0.0
 11
1025.7
 21
47.00441099999999
 31
0.0
  0
LINE
  5
E789
330
E464
100
AcDbEntity
  8
1
  6
Continuous
100
AcDbLine
 10
1054.099999999998
 20
49.7
 30
0.0
 11
1054.099999999998
 21
41.0
 31
0.0
  0
LINE
  5
E78A
330
E464
100
AcDbEntity
  8
1
  6
Continuous
100
AcDbLine
 10
1147.2
 20
170.171084
 30
0.0
 11
1147.2
 21
195.3289159999999
 31
0.0
  0
LINE
  5
E78B
330
E464
100
AcDbEntity
  8
5
  6
PHANTOM
100
AcDbLine
 10
598.7000000000001
 20
171.25
 30
0.0
 11
598.7000000000001
 21
194.25
 31
0.0
  0
ARC
  5
E78C
330
E464
100
AcDbEntity
  8
5
  6
PHANTOM
100
AcDbCircle
 10
598.7000000000001
 20
170.442771
 30
0.0
 40
0.8072289999999997
100
AcDbArc
 50
321.187185
 51
90.0
  0
ARC
  5
E78D
330
E464
100
AcDbEntity
  8
5
  6
PHANTOM
100
AcDbCircle
 10
598.7000000000001
 20
166.602131
 30
0.0
 40
1.6
100
AcDbArc
 50
141.1871849999998
 51
180.0
  0
LINE
  5
E78E
330
E464
100
AcDbEntity
  8
5
  6
PHANTOM
100
AcDbLine
 10
599.3289909999997
 20
169.9368169999999
 30
0.0
 11
597.4532840000001
 21
167.6049759999999
 31
0.0
  0
LINE
  5
E78F
330
E464
100
AcDbEntity
  8
5
  6
PHANTOM
100
AcDbLine
 10
597.1
 20
165.0999999999999
 30
0.0
 11
597.1
 21
166.602131
 31
0.0
  0
ARC
  5
E790
330
E464
100
AcDbEntity
  8
5
  6
PHANTOM
100
AcDbCircle
 10
598.7000000000001
 20
195.057229
 30
0.0
 40
0.8072289999999997
100
AcDbArc
 50
270.0
 51
38.812815
  0
LINE
  5
E791
330
E464
100
AcDbEntity
  8
5
  6
PHANTOM
100
AcDbLine
 10
599.3289909999997
 20
195.563183
 30
0.0
 11
597.4532840000001
 21
197.8950239999998
 31
0.0
  0
ARC
  5
E792
330
E464
100
AcDbEntity
  8
5
  6
PHANTOM
100
AcDbCircle
 10
598.7000000000001
 20
198.8978689999999
 30
0.0
 40
1.6
100
AcDbArc
 50
180.0
 51
218.812815
  0
LINE
  5
E793
330
E464
100
AcDbEntity
  8
5
  6
PHANTOM
100
AcDbLine
 10
597.1
 20
198.8978689999999
 30
0.0
 11
597.1
 21
200.4
 31
0.0
  0
LINE
  5
E794
330
E464
100
AcDbEntity
  8
4
  6
CENTER
100
AcDbLine
 10
612.8
 20
188.0
 30
0.0
 11
612.8
 21
177.5
 31
0.0
  0
LINE
  5
E795
330
E464
100
AcDbEntity
  8
5
  6
PHANTOM
100
AcDbLine
 10
615.05
 20
183.15
 30
0.0
 11
615.05
 21
182.3499999999999
 31
0.0
  0
LINE
  5
E796
330
E464
100
AcDbEntity
  8
5
  6
PHANTOM
100
AcDbLine
 10
610.5499999999998
 20
183.15
 30
0.0
 11
610.5499999999998
 21
182.3499999999999
 31
0.0
  0
ARC
  5
E797
330
E464
100
AcDbEntity
  8
5
  6
PHANTOM
100
AcDbCircle
 10
612.8
 20
183.15
 30
0.0
 40
2.25
100
AcDbArc
 50
0.0
 51
180.0
  0
ARC
  5
E798
330
E464
100
AcDbEntity
  8
5
  6
PHANTOM
100
AcDbCircle
 10
612.8
 20
182.3499999999999
 30
0.0
 40
2.25
100
AcDbArc
 50
180.0
 51
0.0
  0
ARC
  5
E799
330
E464
100
AcDbEntity
  8
5
  6
PHANTOM
100
AcDbCircle
 10
625.4999999999999
 20
183.15
 30
0.0
 40
2.25
100
AcDbArc
 50
0.0
 51
180.0
  0
ARC
  5
E79A
330
E464
100
AcDbEntity
  8
5
  6
PHANTOM
100
AcDbCircle
 10
625.4999999999999
 20
182.3499999999999
 30
0.0
 40
2.25
100
AcDbArc
 50
180.0
 51
0.0
  0
LINE
  5
E79B
330
E464
100
AcDbEntity
  8
5
  6
PHANTOM
100
AcDbLine
 10
623.2499999999999
 20
183.15
 30
0.0
 11
623.2499999999999
 21
182.3499999999999
 31
0.0
  0
LINE
  5
E79C
330
E464
100
AcDbEntity
  8
4
  6
CENTER
100
AcDbLine
 10
625.4999999999999
 20
188.0
 30
0.0
 11
625.4999999999999
 21
177.5
 31
0.0
  0
LINE
  5
E79D
330
E464
100
AcDbEntity
  8
5
  6
PHANTOM
100
AcDbLine
 10
627.7499999999998
 20
183.15
 30
0.0
 11
627.7499999999998
 21
182.3499999999999
 31
0.0
  0
LINE
  5
E79E
330
E464
100
AcDbEntity
  8
5
  6
PHANTOM
100
AcDbLine
 10
737.0
 20
180.4999999999998
 30
0.0
 11
736.2
 21
180.4999999999998
 31
0.0
  0
LINE
  5
E79F
330
E464
100
AcDbEntity
  8
4
  6
CENTER
100
AcDbLine
 10
736.6
 20
188.0
 30
0.0
 11
736.6
 21
177.5
 31
0.0
  0
LINE
  5
E7A0
330
E464
100
AcDbEntity
  8
5
  6
PHANTOM
100
AcDbLine
 10
737.0
 20
185.0
 30
0.0
 11
736.2
 21
185.0
 31
0.0
  0
ARC
  5
E7A1
330
E464
100
AcDbEntity
  8
5
  6
PHANTOM
100
AcDbCircle
 10
736.2
 20
182.75
 30
0.0
 40
2.25
100
AcDbArc
 50
90.0
 51
270.0
  0
ARC
  5
E7A2
330
E464
100
AcDbEntity
  8
5
  6
PHANTOM
100
AcDbCircle
 10
737.0
 20
182.75
 30
0.0
 40
2.25
100
AcDbArc
 50
270.0
 51
90.0
  0
ARC
  5
E7A3
330
E464
100
AcDbEntity
  8
5
  6
PHANTOM
100
AcDbCircle
 10
927.5
 20
182.75
 30
0.0
 40
2.25
100
AcDbArc
 50
270.0
 51
90.0
  0
LINE
  5
E7A4
330
E464
100
AcDbEntity
  8
5
  6
PHANTOM
100
AcDbLine
 10
927.5
 20
185.0
 30
0.0
 11
926.7000000000001
 21
185.0
 31
0.0
  0
LINE
  5
E7A5
330
E464
100
AcDbEntity
  8
4
  6
CENTER
100
AcDbLine
 10
927.1
 20
188.0
 30
0.0
 11
927.1
 21
177.5
 31
0.0
  0
LINE
  5
E7A6
330
E464
100
AcDbEntity
  8
5
  6
PHANTOM
100
AcDbLine
 10
927.5
 20
180.4999999999998
 30
0.0
 11
926.7000000000001
 21
180.4999999999998
 31
0.0
  0
ARC
  5
E7A7
330
E464
100
AcDbEntity
  8
5
  6
PHANTOM
100
AcDbCircle
 10
926.7000000000001
 20
182.75
 30
0.0
 40
2.25
100
AcDbArc
 50
90.0
 51
270.0
  0
ARC
  5
E7A8
330
E464
100
AcDbEntity
  8
5
  6
PHANTOM
100
AcDbCircle
 10
1012.4
 20
182.75
 30
0.0
 40
2.25
100
AcDbArc
 50
90.0
 51
270.0
  0
LINE
  5
E7A9
330
E464
100
AcDbEntity
  8
4
  6
CENTER
100
AcDbLine
 10
1025.5
 20
188.0
 30
0.0
 11
1025.5
 21
177.5
 31
0.0
  0
LINE
  5
E7AA
330
E464
100
AcDbEntity
  8
5
  6
PHANTOM
100
AcDbLine
 10
1027.749999999999
 20
183.15
 30
0.0
 11
1027.749999999999
 21
182.3499999999999
 31
0.0
  0
LINE
  5
E7AB
330
E464
100
AcDbEntity
  8
5
  6
PHANTOM
100
AcDbLine
 10
1023.249999999998
 20
183.15
 30
0.0
 11
1023.249999999998
 21
182.3499999999999
 31
0.0
  0
LINE
  5
E7AC
330
E464
100
AcDbEntity
  8
5
  6
PHANTOM
100
AcDbLine
 10
1013.2
 20
185.0
 30
0.0
 11
1012.4
 21
185.0
 31
0.0
  0
LINE
  5
E7AD
330
E464
100
AcDbEntity
  8
5
  6
PHANTOM
100
AcDbLine
 10
1013.2
 20
180.4999999999998
 30
0.0
 11
1012.4
 21
180.4999999999998
 31
0.0
  0
ARC
  5
E7AE
330
E464
100
AcDbEntity
  8
5
  6
PHANTOM
100
AcDbCircle
 10
1013.2
 20
182.75
 30
0.0
 40
2.25
100
AcDbArc
 50
270.0
 51
90.0
  0
LINE
  5
E7AF
330
E464
100
AcDbEntity
  8
4
  6
CENTER
100
AcDbLine
 10
1012.8
 20
188.0
 30
0.0
 11
1012.8
 21
177.5
 31
0.0
  0
ARC
  5
E7B0
330
E464
100
AcDbEntity
  8
5
  6
PHANTOM
100
AcDbCircle
 10
1025.5
 20
183.15
 30
0.0
 40
2.25
100
AcDbArc
 50
0.0
 51
180.0
  0
ARC
  5
E7B1
330
E464
100
AcDbEntity
  8
5
  6
PHANTOM
100
AcDbCircle
 10
1025.5
 20
182.3499999999999
 30
0.0
 40
2.25
100
AcDbArc
 50
180.0
 51
0.0
  0
ARC
  5
E7B2
330
E464
100
AcDbEntity
  8
5
  6
PHANTOM
100
AcDbCircle
 10
1038.2
 20
182.3499999999999
 30
0.0
 40
2.25
100
AcDbArc
 50
180.0
 51
0.0
  0
LINE
  5
E7B3
330
E464
100
AcDbEntity
  8
5
  6
PHANTOM
100
AcDbLine
 10
1040.45
 20
183.15
 30
0.0
 11
1040.45
 21
182.3499999999999
 31
0.0
  0
LINE
  5
E7B4
330
E464
100
AcDbEntity
  8
5
  6
PHANTOM
100
AcDbLine
 10
1035.95
 20
183.15
 30
0.0
 11
1035.95
 21
182.3499999999999
 31
0.0
  0
LINE
  5
E7B5
330
E464
100
AcDbEntity
  8
4
  6
CENTER
100
AcDbLine
 10
1038.2
 20
188.0
 30
0.0
 11
1038.2
 21
177.5
 31
0.0
  0
ARC
  5
E7B6
330
E464
100
AcDbEntity
  8
5
  6
PHANTOM
100
AcDbCircle
 10
1038.2
 20
183.15
 30
0.0
 40
2.25
100
AcDbArc
 50
0.0
 51
180.0
  0
LINE
  5
E7B7
330
E464
100
AcDbEntity
  8
5
  6
PHANTOM
100
AcDbLine
 10
1054.099999999998
 20
165.0999999999999
 30
0.0
 11
1054.099999999998
 21
175.2499999999998
 31
0.0
  0
LINE
  5
E7B8
330
E464
100
AcDbEntity
  8
5
  6
PHANTOM
100
AcDbLine
 10
1054.099999999998
 20
190.25
 30
0.0
 11
1054.099999999998
 21
200.4
 31
0.0
  0
LINE
  5
E7B9
330
E464
100
AcDbEntity
  8
5
  6
PHANTOM
100
AcDbLine
 10
1051.6
 20
190.25
 30
0.0
 11
1054.099999999998
 21
190.25
 31
0.0
  0
LINE
  5
E7BA
330
E464
100
AcDbEntity
  8
5
  6
PHANTOM
100
AcDbLine
 10
1051.6
 20
175.2499999999998
 30
0.0
 11
1054.099999999998
 21
175.2499999999998
 31
0.0
  0
LINE
  5
E7BB
330
E464
100
AcDbEntity
  8
5
  6
PHANTOM
100
AcDbLine
 10
1051.6
 20
175.2499999999998
 30
0.0
 11
1051.6
 21
190.25
 31
0.0
  0
ARC
  5
E7BC
330
E464
100
AcDbEntity
  8
1
  6
Continuous
100
AcDbCircle
 10
1140.2
 20
192.75
 30
0.0
 40
1.5
100
AcDbArc
 50
90.0
 51
180.0
  0
ARC
  5
E7BD
330
E464
100
AcDbEntity
  8
1
  6
Continuous
100
AcDbCircle
 10
1135.777061
 20
193.177061
 30
0.0
 40
0.6229390000000003
100
AcDbArc
 50
0.0
 51
129.550679
  0
LINE
  5
E7BE
330
E464
100
AcDbEntity
  8
1
  6
Continuous
100
AcDbLine
 10
1130.2
 20
190.25
 30
0.0
 11
1130.2
 21
195.398548
 31
0.0
  0
LINE
  5
E7BF
330
E464
100
AcDbEntity
  8
1
  6
Continuous
100
AcDbLine
 10
1130.7
 20
190.25
 30
0.0
 11
1130.7
 21
195.4
 31
0.0
  0
LINE
  5
E7C0
330
E464
100
AcDbEntity
  8
1
  6
Continuous
100
AcDbLine
 10
1129.7
 20
190.25
 30
0.0
 11
1129.7
 21
195.3289159999999
 31
0.0
  0
LINE
  5
E7C1
330
E464
100
AcDbEntity
  8
1
  6
Continuous
100
AcDbLine
 10
1131.099999999999
 20
193.448001
 30
0.0
 11
1131.770156999998
 21
194.443435
 31
0.0
  0
ARC
  5
E7C2
330
E464
100
AcDbEntity
  8
1
  6
Continuous
100
AcDbCircle
 10
1133.099999999999
 20
196.4187499999999
 30
0.0
 40
3.581249999999998
100
AcDbArc
 50
236.0503449999999
 51
309.5506789999999
  0
ARC
  5
E7C3
330
E464
100
AcDbEntity
  8
1
  6
Continuous
100
AcDbCircle
 10
1139.522938999999
 20
193.177061
 30
0.0
 40
1.822938999999999
100
AcDbArc
 50
50.449321
 51
180.0
  0
ARC
  5
E7C4
330
E464
100
AcDbEntity
  8
1
  6
Continuous
100
AcDbCircle
 10
1135.777061
 20
193.177061
 30
0.0
 40
1.822938999999999
100
AcDbArc
 50
0.0
 51
129.550679
  0
LINE
  5
E7C5
330
E464
100
AcDbEntity
  8
1
  6
Continuous
100
AcDbLine
 10
1128.099999999998
 20
170.171084
 30
0.0
 11
1128.099999999998
 21
195.3289159999999
 31
0.0
  0
ARC
  5
E7C6
330
E464
100
AcDbEntity
  8
1
  6
Continuous
100
AcDbCircle
 10
1139.522938999999
 20
172.322939
 30
0.0
 40
1.822938999999999
100
AcDbArc
 50
180.0
 51
309.5506789999999
  0
LINE
  5
E7C7
330
E464
100
AcDbEntity
  8
4
  6
CENTER
100
AcDbLine
 10
1123.099999999999
 20
182.75
 30
0.0
 11
1152.2
 21
182.75
 31
0.0
  0
LINE
  5
E7C8
330
E464
100
AcDbEntity
  8
1
  6
Continuous
100
AcDbLine
 10
1136.6
 20
169.65
 30
0.0
 11
1136.6
 21
169.15
 31
0.0
  0
ARC
  5
E7C9
330
E464
100
AcDbEntity
  8
1
  6
Continuous
100
AcDbCircle
 10
1131.3
 20
170.171084
 30
0.0
 40
3.2
100
AcDbArc
 50
180.0
 51
217.012191
  0
ARC
  5
E7CA
330
E464
100
AcDbEntity
  8
1
  6
Continuous
100
AcDbCircle
 10
1131.3
 20
170.171084
 30
0.0
 40
1.6
100
AcDbArc
 50
180.0
 51
217.012191
  0
ARC
  5
E7CB
330
E464
100
AcDbEntity
  8
1
  6
Continuous
100
AcDbCircle
 10
1133.099999999999
 20
169.08125
 30
0.0
 40
2.38125
100
AcDbArc
 50
167.557726
 51
3.719127999999999
  0
LINE
  5
E7CC
330
E464
100
AcDbEntity
  8
1
  6
Continuous
100
AcDbLine
 10
1136.6
 20
169.15
 30
0.0
 11
1130.661974999999
 21
169.6029
 31
0.0
  0
LINE
  5
E7CD
330
E464
100
AcDbEntity
  8
1
  6
Continuous
100
AcDbLine
 10
1136.8
 20
167.611437
 30
0.0
 11
1135.31303
 21
168.202131
 31
0.0
  0
LINE
  5
E7CE
330
E464
100
AcDbEntity
  8
1
  6
Continuous
100
AcDbLine
 10
1128.744776
 20
168.244732
 30
0.0
 11
1129.920942
 21
166.6845969999999
 31
0.0
  0
LINE
  5
E7CF
330
E464
100
AcDbEntity
  8
1
  6
Continuous
100
AcDbLine
 10
1130.022388
 20
169.207908
 30
0.0
 11
1131.198553999998
 21
167.647773
 31
0.0
  0
ARC
  5
E7D0
330
E464
100
AcDbEntity
  8
1
  6
Continuous
100
AcDbCircle
 10
1133.099999999999
 20
169.08125
 30
0.0
 40
3.98125
100
AcDbArc
 50
217.012191
 51
338.3347039999998
  0
ARC
  5
E7D1
330
E464
100
AcDbEntity
  8
1
  6
Continuous
100
AcDbCircle
 10
1132.7
 20
188.0
 30
0.0
 40
0.5
100
AcDbArc
 50
0.0
 51
36.869898
  0
ARC
  5
E7D2
330
E464
100
AcDbEntity
  8
1
  6
Continuous
100
AcDbCircle
 10
1132.7
 20
177.5
 30
0.0
 40
0.5
100
AcDbArc
 50
323.130102
 51
0.0
  0
LINE
  5
E7D3
330
E464
100
AcDbEntity
  8
1
  6
Continuous
100
AcDbLine
 10
1133.2
 20
177.5
 30
0.0
 11
1133.2
 21
188.0
 31
0.0
  0
ARC
  5
E7D4
330
E464
100
AcDbEntity
  8
1
  6
Continuous
100
AcDbCircle
 10
1134.0
 20
190.4374999999998
 30
0.0
 40
1.199999999999999
100
AcDbArc
 50
0.0
 51
90.0
  0
ARC
  5
E7D5
330
E464
100
AcDbEntity
  8
1
  6
Continuous
100
AcDbCircle
 10
1134.0
 20
190.4374999999998
 30
0.0
 40
2.399999999999999
100
AcDbArc
 50
0.0
 51
90.0
  0
ARC
  5
E7D6
330
E464
100
AcDbEntity
  8
1
  6
Continuous
100
AcDbCircle
 10
1134.0
 20
175.0625
 30
0.0
 40
1.199999999999999
100
AcDbArc
 50
270.0
 51
0.0
  0
ARC
  5
E7D7
330
E464
100
AcDbEntity
  8
1
  6
Continuous
100
AcDbCircle
 10
1134.0
 20
175.0625
 30
0.0
 40
2.399999999999999
100
AcDbArc
 50
270.0
 51
0.0
  0
LINE
  5
E7D8
330
E464
100
AcDbEntity
  8
1
  6
Continuous
100
AcDbLine
 10
1133.099999999999
 20
175.2499999999998
 30
0.0
 11
1133.099999999999
 21
190.25
 31
0.0
  0
LINE
  5
E7D9
330
E464
100
AcDbEntity
  8
1
  6
Continuous
100
AcDbLine
 10
1135.199999999998
 20
175.0625
 30
0.0
 11
1135.199999999998
 21
190.4374999999998
 31
0.0
  0
LINE
  5
E7DA
330
E464
100
AcDbEntity
  8
1
  6
Continuous
100
AcDbLine
 10
1137.7
 20
172.322939
 30
0.0
 11
1137.7
 21
193.177061
 31
0.0
  0
LINE
  5
E7DB
330
E464
100
AcDbEntity
  8
1
  6
Continuous
100
AcDbLine
 10
1136.4
 20
172.322939
 30
0.0
 11
1136.4
 21
193.177061
 31
0.0
  0
LINE
  5
E7DC
330
E464
100
AcDbEntity
  8
1
  6
Continuous
100
AcDbLine
 10
1137.599999999999
 20
172.322939
 30
0.0
 11
1137.599999999999
 21
193.177061
 31
0.0
  0
LINE
  5
E7DD
330
E464
100
AcDbEntity
  8
1
  6
Continuous
100
AcDbLine
 10
1131.4
 20
191.6375
 30
0.0
 11
1131.4
 21
192.8375
 31
0.0
  0
LINE
  5
E7DE
330
E464
100
AcDbEntity
  8
1
  6
Continuous
100
AcDbLine
 10
1131.4
 20
173.8625
 30
0.0
 11
1131.4
 21
172.6625
 31
0.0
  0
LINE
  5
E7DF
330
E464
100
AcDbEntity
  8
1
  6
Continuous
100
AcDbLine
 10
1131.4
 20
191.6375
 30
0.0
 11
1134.0
 21
191.6375
 31
0.0
  0
LINE
  5
E7E0
330
E464
100
AcDbEntity
  8
1
  6
Continuous
100
AcDbLine
 10
1131.4
 20
192.8375
 30
0.0
 11
1134.0
 21
192.8375
 31
0.0
  0
LINE
  5
E7E1
330
E464
100
AcDbEntity
  8
1
  6
Continuous
100
AcDbLine
 10
1128.099999999998
 20
190.25
 30
0.0
 11
1133.099999999999
 21
190.25
 31
0.0
  0
LINE
  5
E7E2
330
E464
100
AcDbEntity
  8
1
  6
Continuous
100
AcDbLine
 10
1131.4
 20
173.8625
 30
0.0
 11
1134.0
 21
173.8625
 31
0.0
  0
LINE
  5
E7E3
330
E464
100
AcDbEntity
  8
1
  6
Continuous
100
AcDbLine
 10
1131.4
 20
172.6625
 30
0.0
 11
1134.0
 21
172.6625
 31
0.0
  0
LINE
  5
E7E4
330
E464
100
AcDbEntity
  8
1
  6
Continuous
100
AcDbLine
 10
1128.099999999998
 20
175.2499999999998
 30
0.0
 11
1133.099999999999
 21
175.2499999999998
 31
0.0
  0
LINE
  5
E7E5
330
E464
100
AcDbEntity
  8
1
  6
Continuous
100
AcDbLine
 10
1131.099999999999
 20
172.0519989999999
 30
0.0
 11
1131.770156999998
 21
171.0565649999998
 31
0.0
  0
ARC
  5
E7E6
330
E464
100
AcDbEntity
  8
1
  6
Continuous
100
AcDbCircle
 10
1130.7
 20
170.101452
 30
0.0
 40
0.5
100
AcDbArc
 50
180.0
 51
265.6384269999999
  0
ARC
  5
E7E7
330
E464
100
AcDbEntity
  8
1
  6
Continuous
100
AcDbCircle
 10
1133.099999999999
 20
169.08125
 30
0.0
 40
2.38125
100
AcDbArc
 50
16.12167
 51
155.1551849999999
  0
LINE
  5
E7E8
330
E464
100
AcDbEntity
  8
1
  6
Continuous
100
AcDbLine
 10
1136.6
 20
169.65
 30
0.0
 11
1130.7
 21
170.1
 31
0.0
  0
LINE
  5
E7E9
330
E464
100
AcDbEntity
  8
1
  6
Continuous
100
AcDbLine
 10
1130.2
 20
175.2499999999998
 30
0.0
 11
1130.2
 21
170.101452
 31
0.0
  0
LINE
  5
E7EA
330
E464
100
AcDbEntity
  8
1
  6
Continuous
100
AcDbLine
 10
1129.7
 20
170.171084
 30
0.0
 11
1129.7
 21
175.2499999999998
 31
0.0
  0
LINE
  5
E7EB
330
E464
100
AcDbEntity
  8
1
  6
Continuous
100
AcDbLine
 10
1130.7
 20
175.2499999999998
 30
0.0
 11
1130.7
 21
170.1
 31
0.0
  0
ARC
  5
E7EC
330
E464
100
AcDbEntity
  8
1
  6
Continuous
100
AcDbCircle
 10
1133.099999999999
 20
169.08125
 30
0.0
 40
3.581249999999998
100
AcDbArc
 50
50.449321
 51
123.949655
  0
ARC
  5
E7ED
330
E464
100
AcDbEntity
  8
1
  6
Continuous
100
AcDbCircle
 10
1135.777061
 20
172.322939
 30
0.0
 40
1.822938999999999
100
AcDbArc
 50
230.4493209999999
 51
0.0
  0
ARC
  5
E7EE
330
E464
100
AcDbEntity
  8
1
  6
Continuous
100
AcDbCircle
 10
1135.777061
 20
172.322939
 30
0.0
 40
0.6229390000000003
100
AcDbArc
 50
230.4493209999999
 51
0.0
  0
ARC
  5
E7EF
330
E464
100
AcDbEntity
  8
1
  6
Continuous
100
AcDbCircle
 10
1144.0
 20
170.171084
 30
0.0
 40
1.6
100
AcDbArc
 50
322.9878089999999
 51
0.0
  0
ARC
  5
E7F0
330
E464
100
AcDbEntity
  8
1
  6
Continuous
100
AcDbCircle
 10
1144.0
 20
170.171084
 30
0.0
 40
3.2
100
AcDbArc
 50
322.9878089999999
 51
0.0
  0
LINE
  5
E7F1
330
E464
100
AcDbEntity
  8
1
  6
Continuous
100
AcDbLine
 10
1138.7
 20
169.65
 30
0.0
 11
1138.7
 21
169.15
 31
0.0
  0
ARC
  5
E7F2
330
E464
100
AcDbEntity
  8
1
  6
Continuous
100
AcDbCircle
 10
1142.2
 20
169.08125
 30
0.0
 40
2.38125
100
AcDbArc
 50
176.2808719999999
 51
12.44227399999999
  0
LINE
  5
E7F3
330
E464
100
AcDbEntity
  8
1
  6
Continuous
100
AcDbLine
 10
1138.7
 20
169.15
 30
0.0
 11
1144.638025
 21
169.6029
 31
0.0
  0
LINE
  5
E7F4
330
E464
100
AcDbEntity
  8
1
  6
Continuous
100
AcDbLine
 10
1146.555223999998
 20
168.244732
 30
0.0
 11
1145.379058
 21
166.6845969999999
 31
0.0
  0
LINE
  5
E7F5
330
E464
100
AcDbEntity
  8
1
  6
Continuous
100
AcDbLine
 10
1138.5
 20
167.611437
 30
0.0
 11
1139.98697
 21
168.202131
 31
0.0
  0
ARC
  5
E7F6
330
E464
100
AcDbEntity
  8
1
  6
Continuous
100
AcDbCircle
 10
1142.2
 20
169.08125
 30
0.0
 40
3.98125
100
AcDbArc
 50
201.6652959999999
 51
322.9878089999999
  0
LINE
  5
E7F7
330
E464
100
AcDbEntity
  8
1
  6
Continuous
100
AcDbLine
 10
1145.277611999999
 20
169.207908
 30
0.0
 11
1144.101446
 21
167.647773
 31
0.0
  0
LINE
  5
E7F8
330
E464
100
AcDbEntity
  8
1
  6
Continuous
100
AcDbLine
 10
1138.7
 20
172.75
 30
0.0
 11
1138.7
 21
192.75
 31
0.0
  0
LINE
  5
E7F9
330
E464
100
AcDbEntity
  8
1
  6
Continuous
100
AcDbLine
 10
1145.1
 20
171.25
 30
0.0
 11
1145.1
 21
170.101452
 31
0.0
  0
LINE
  5
E7FA
330
E464
100
AcDbEntity
  8
1
  6
Continuous
100
AcDbLine
 10
1145.599999999999
 20
170.171084
 30
0.0
 11
1145.599999999999
 21
171.25
 31
0.0
  0
LINE
  5
E7FB
330
E464
100
AcDbEntity
  8
1
  6
Continuous
100
AcDbLine
 10
1144.6
 20
171.25
 30
0.0
 11
1144.6
 21
170.1
 31
0.0
  0
ARC
  5
E7FC
330
E464
100
AcDbEntity
  8
1
  6
Continuous
100
AcDbCircle
 10
1144.6
 20
170.101452
 30
0.0
 40
0.5
100
AcDbArc
 50
274.361573
 51
0.0
  0
LINE
  5
E7FD
330
E464
100
AcDbEntity
  8
1
  6
Continuous
100
AcDbLine
 10
1143.660069
 20
171.25
 30
0.0
 11
1143.529843
 21
171.0565649999998
 31
0.0
  0
ARC
  5
E7FE
330
E464
100
AcDbEntity
  8
1
  6
Continuous
100
AcDbCircle
 10
1142.2
 20
169.08125
 30
0.0
 40
2.38125
100
AcDbArc
 50
114.3892499999999
 51
163.87833
  0
ARC
  5
E7FF
330
E464
100
AcDbEntity
  8
1
  6
Continuous
100
AcDbCircle
 10
1142.2
 20
169.08125
 30
0.0
 40
2.38125
100
AcDbArc
 50
24.844815
 51
65.61074999999999
  0
LINE
  5
E800
330
E464
100
AcDbEntity
  8
1
  6
Continuous
100
AcDbLine
 10
1138.7
 20
169.65
 30
0.0
 11
1144.6
 21
170.1
 31
0.0
  0
LINE
  5
E801
330
E464
100
AcDbEntity
  8
1
  6
Continuous
100
AcDbLine
 10
1140.2
 20
171.25
 30
0.0
 11
1147.2
 21
171.25
 31
0.0
  0
ARC
  5
E802
330
E464
100
AcDbEntity
  8
1
  6
Continuous
100
AcDbCircle
 10
1140.2
 20
172.75
 30
0.0
 40
1.5
100
AcDbArc
 50
180.0
 51
270.0
  0
LINE
  5
E803
330
E464
100
AcDbEntity
  8
1
  6
Continuous
100
AcDbLine
 10
1136.6
 20
195.8499999999999
 30
0.0
 11
1136.6
 21
196.3499999999999
 31
0.0
  0
LINE
  5
E804
330
E464
100
AcDbEntity
  8
1
  6
Continuous
100
AcDbLine
 10
1136.8
 20
197.8885629999999
 30
0.0
 11
1135.31303
 21
197.2978689999999
 31
0.0
  0
LINE
  5
E805
330
E464
100
AcDbEntity
  8
1
  6
Continuous
100
AcDbLine
 10
1128.744776
 20
197.2552679999998
 30
0.0
 11
1129.920942
 21
198.815403
 31
0.0
  0
LINE
  5
E806
330
E464
100
AcDbEntity
  8
1
  6
Continuous
100
AcDbLine
 10
1130.022388
 20
196.292092
 30
0.0
 11
1131.198553999998
 21
197.852227
 31
0.0
  0
LINE
  5
E807
330
E464
100
AcDbEntity
  8
1
  6
Continuous
100
AcDbLine
 10
1136.6
 20
196.3499999999999
 30
0.0
 11
1130.661974999999
 21
195.8971
 31
0.0
  0
ARC
  5
E808
330
E464
100
AcDbEntity
  8
1
  6
Continuous
100
AcDbCircle
 10
1133.099999999999
 20
196.4187499999999
 30
0.0
 40
3.98125
100
AcDbArc
 50
21.665296
 51
142.987809
  0
ARC
  5
E809
330
E464
100
AcDbEntity
  8
1
  6
Continuous
100
AcDbCircle
 10
1133.099999999999
 20
196.4187499999999
 30
0.0
 40
2.38125
100
AcDbArc
 50
356.280872
 51
192.4422739999998
  0
ARC
  5
E80A
330
E464
100
AcDbEntity
  8
1
  6
Continuous
100
AcDbCircle
 10
1133.099999999999
 20
196.4187499999999
 30
0.0
 40
2.38125
100
AcDbArc
 50
204.844815
 51
343.87833
  0
ARC
  5
E80B
330
E464
100
AcDbEntity
  8
1
  6
Continuous
100
AcDbCircle
 10
1130.7
 20
195.398548
 30
0.0
 40
0.5
100
AcDbArc
 50
94.36157300000001
 51
180.0
  0
ARC
  5
E80C
330
E464
100
AcDbEntity
  8
1
  6
Continuous
100
AcDbCircle
 10
1131.3
 20
195.3289159999999
 30
0.0
 40
3.2
100
AcDbArc
 50
142.987809
 51
180.0
  0
ARC
  5
E80D
330
E464
100
AcDbEntity
  8
1
  6
Continuous
100
AcDbCircle
 10
1131.3
 20
195.3289159999999
 30
0.0
 40
1.6
100
AcDbArc
 50
142.987809
 51
180.0
  0
LINE
  5
E80E
330
E464
100
AcDbEntity
  8
1
  6
Continuous
100
AcDbLine
 10
1136.6
 20
195.8499999999999
 30
0.0
 11
1130.7
 21
195.4
 31
0.0
  0
LINE
  5
E80F
330
E464
100
AcDbEntity
  8
1
  6
Continuous
100
AcDbLine
 10
1146.555223999998
 20
197.2552679999998
 30
0.0
 11
1145.379058
 21
198.815403
 31
0.0
  0
LINE
  5
E810
330
E464
100
AcDbEntity
  8
1
  6
Continuous
100
AcDbLine
 10
1138.7
 20
195.8499999999999
 30
0.0
 11
1138.7
 21
196.3499999999999
 31
0.0
  0
LINE
  5
E811
330
E464
100
AcDbEntity
  8
1
  6
Continuous
100
AcDbLine
 10
1138.5
 20
197.8885629999999
 30
0.0
 11
1139.98697
 21
197.2978689999999
 31
0.0
  0
LINE
  5
E812
330
E464
100
AcDbEntity
  8
1
  6
Continuous
100
AcDbLine
 10
1138.7
 20
196.3499999999999
 30
0.0
 11
1144.638025
 21
195.8971
 31
0.0
  0
LINE
  5
E813
330
E464
100
AcDbEntity
  8
1
  6
Continuous
100
AcDbLine
 10
1145.277611999999
 20
196.292092
 30
0.0
 11
1144.101446
 21
197.852227
 31
0.0
  0
ARC
  5
E814
330
E464
100
AcDbEntity
  8
1
  6
Continuous
100
AcDbCircle
 10
1142.2
 20
196.4187499999999
 30
0.0
 40
3.98125
100
AcDbArc
 50
37.01219099999998
 51
158.3347039999999
  0
LINE
  5
E815
330
E464
100
AcDbEntity
  8
1
  6
Continuous
100
AcDbLine
 10
1145.1
 20
194.25
 30
0.0
 11
1145.1
 21
195.398548
 31
0.0
  0
LINE
  5
E816
330
E464
100
AcDbEntity
  8
1
  6
Continuous
100
AcDbLine
 10
1145.599999999999
 20
194.25
 30
0.0
 11
1145.599999999999
 21
195.3289159999999
 31
0.0
  0
LINE
  5
E817
330
E464
100
AcDbEntity
  8
1
  6
Continuous
100
AcDbLine
 10
1144.6
 20
194.25
 30
0.0
 11
1144.6
 21
195.4
 31
0.0
  0
LINE
  5
E818
330
E464
100
AcDbEntity
  8
1
  6
Continuous
100
AcDbLine
 10
1143.660069
 20
194.25
 30
0.0
 11
1143.529843
 21
194.443435
 31
0.0
  0
LINE
  5
E819
330
E464
100
AcDbEntity
  8
1
  6
Continuous
100
AcDbLine
 10
1140.2
 20
194.25
 30
0.0
 11
1147.2
 21
194.25
 31
0.0
  0
ARC
  5
E81A
330
E464
100
AcDbEntity
  8
1
  6
Continuous
100
AcDbCircle
 10
1144.6
 20
195.398548
 30
0.0
 40
0.5
100
AcDbArc
 50
0.0
 51
85.63842699999998
  0
ARC
  5
E81B
330
E464
100
AcDbEntity
  8
1
  6
Continuous
100
AcDbCircle
 10
1144.0
 20
195.3289159999999
 30
0.0
 40
1.6
100
AcDbArc
 50
0.0
 51
37.01219099999998
  0
ARC
  5
E81C
330
E464
100
AcDbEntity
  8
1
  6
Continuous
100
AcDbCircle
 10
1144.0
 20
195.3289159999999
 30
0.0
 40
3.2
100
AcDbArc
 50
0.0
 51
37.01219099999998
  0
ARC
  5
E81D
330
E464
100
AcDbEntity
  8
1
  6
Continuous
100
AcDbCircle
 10
1142.2
 20
196.4187499999999
 30
0.0
 40
2.38125
100
AcDbArc
 50
294.38925
 51
335.155185
  0
ARC
  5
E81E
330
E464
100
AcDbEntity
  8
1
  6
Continuous
100
AcDbCircle
 10
1142.2
 20
196.4187499999999
 30
0.0
 40
2.38125
100
AcDbArc
 50
196.12167
 51
245.6107499999998
  0
ARC
  5
E81F
330
E464
100
AcDbEntity
  8
1
  6
Continuous
100
AcDbCircle
 10
1142.2
 20
196.4187499999999
 30
0.0
 40
2.38125
100
AcDbArc
 50
347.557726
 51
183.719128
  0
LINE
  5
E820
330
E464
100
AcDbEntity
  8
1
  6
Continuous
100
AcDbLine
 10
1138.7
 20
195.8499999999999
 30
0.0
 11
1144.6
 21
195.4
 31
0.0
  0
LINE
  5
E821
330
E464
100
AcDbEntity
  8
1
  6
Continuous
100
AcDbLine
 10
410.5999999999998
 20
460.7499999999998
 30
0.0
 11
410.5999999999998
 21
459.4
 31
0.0
  0
ARC
  5
E822
330
E464
100
AcDbEntity
  8
1
  6
Continuous
100
AcDbCircle
 10
415.85
 20
460.81875
 30
0.0
 40
2.38125
100
AcDbArc
 50
193.81839
 51
216.5697209999999
  0
ARC
  5
E823
330
E464
100
AcDbEntity
  8
1
  6
Continuous
100
AcDbCircle
 10
428.35
 20
460.81875
 30
0.0
 40
2.38125
100
AcDbArc
 50
193.81839
 51
216.5697209999999
  0
ARC
  5
E824
330
E464
100
AcDbEntity
  8
1
  6
Continuous
100
AcDbCircle
 10
428.35
 20
460.81875
 30
0.0
 40
2.38125
100
AcDbArc
 50
323.430279
 51
346.18161
  0
LINE
  5
E825
330
E464
100
AcDbEntity
  8
1
  6
Continuous
100
AcDbLine
 10
421.1
 20
460.7499999999998
 30
0.0
 11
421.1
 21
459.4
 31
0.0
  0
ARC
  5
E826
330
E464
100
AcDbEntity
  8
1
  6
Continuous
100
AcDbCircle
 10
415.85
 20
460.81875
 30
0.0
 40
2.38125
100
AcDbArc
 50
323.430279
 51
346.18161
  0
LINE
  5
E827
330
E464
100
AcDbEntity
  8
1
  6
Continuous
100
AcDbLine
 10
423.0999999999998
 20
460.7499999999998
 30
0.0
 11
423.0999999999998
 21
459.4
 31
0.0
  0
LINE
  5
E828
330
E464
100
AcDbEntity
  8
1
  6
Continuous
100
AcDbLine
 10
433.6
 20
460.7499999999998
 30
0.0
 11
433.6
 21
459.4
 31
0.0
  0
ARC
  5
E829
330
E464
100
AcDbEntity
  8
1
  6
Continuous
100
AcDbCircle
 10
415.85
 20
460.81875
 30
0.0
 40
2.38125
100
AcDbArc
 50
158.3347039999999
 51
181.6544389999999
  0
ARC
  5
E82A
330
E464
100
AcDbEntity
  8
1
  6
Continuous
100
AcDbCircle
 10
415.85
 20
460.81875
 30
0.0
 40
2.38125
100
AcDbArc
 50
358.3455609999999
 51
21.665296
  0
LINE
  5
E82B
330
E464
100
AcDbEntity
  8
1
  6
Continuous
100
AcDbLine
 10
421.1
 20
460.7499999999998
 30
0.0
 11
410.5999999999998
 21
460.7499999999998
 31
0.0
  0
LINE
  5
E82C
330
E464
100
AcDbEntity
  8
1
  6
Continuous
100
AcDbLine
 10
421.1
 20
460.25
 30
0.0
 11
410.5999999999998
 21
460.25
 31
0.0
  0
ARC
  5
E82D
330
E464
100
AcDbEntity
  8
1
  6
Continuous
100
AcDbCircle
 10
428.35
 20
460.81875
 30
0.0
 40
2.38125
100
AcDbArc
 50
158.3347039999999
 51
181.6544389999999
  0
ARC
  5
E82E
330
E464
100
AcDbEntity
  8
1
  6
Continuous
100
AcDbCircle
 10
428.35
 20
460.81875
 30
0.0
 40
2.38125
100
AcDbArc
 50
358.3455609999999
 51
21.665296
  0
LINE
  5
E82F
330
E464
100
AcDbEntity
  8
1
  6
Continuous
100
AcDbLine
 10
433.6
 20
460.25
 30
0.0
 11
423.0999999999998
 21
460.25
 31
0.0
  0
LINE
  5
E830
330
E464
100
AcDbEntity
  8
1
  6
Continuous
100
AcDbLine
 10
433.6
 20
460.7499999999998
 30
0.0
 11
423.0999999999998
 21
460.7499999999998
 31
0.0
  0
ARC
  5
E831
330
E464
100
AcDbEntity
  8
1
  6
Continuous
100
AcDbCircle
 10
415.85
 20
433.4812499999999
 30
0.0
 40
2.38125
100
AcDbArc
 50
178.345561
 51
201.6652959999999
  0
ARC
  5
E832
330
E464
100
AcDbEntity
  8
1
  6
Continuous
100
AcDbCircle
 10
415.85
 20
433.4812499999999
 30
0.0
 40
2.38125
100
AcDbArc
 50
143.430279
 51
166.18161
  0
LINE
  5
E833
330
E464
100
AcDbEntity
  8
1
  6
Continuous
100
AcDbLine
 10
410.5999999999998
 20
433.55
 30
0.0
 11
410.5999999999998
 21
434.9
 31
0.0
  0
ARC
  5
E834
330
E464
100
AcDbEntity
  8
1
  6
Continuous
100
AcDbCircle
 10
415.85
 20
433.4812499999999
 30
0.0
 40
2.38125
100
AcDbArc
 50
338.3347039999998
 51
1.654438999999999
  0
ARC
  5
E835
330
E464
100
AcDbEntity
  8
1
  6
Continuous
100
AcDbCircle
 10
415.85
 20
433.4812499999999
 30
0.0
 40
2.38125
100
AcDbArc
 50
13.81839
 51
36.569721
  0
LINE
  5
E836
330
E464
100
AcDbEntity
  8
1
  6
Continuous
100
AcDbLine
 10
421.1
 20
433.55
 30
0.0
 11
421.1
 21
434.9
 31
0.0
  0
LINE
  5
E837
330
E464
100
AcDbEntity
  8
1
  6
Continuous
100
AcDbLine
 10
421.1
 20
434.05
 30
0.0
 11
410.5999999999998
 21
434.05
 31
0.0
  0
LINE
  5
E838
330
E464
100
AcDbEntity
  8
1
  6
Continuous
100
AcDbLine
 10
421.1
 20
433.55
 30
0.0
 11
410.5999999999998
 21
433.55
 31
0.0
  0
ARC
  5
E839
330
E464
100
AcDbEntity
  8
1
  6
Continuous
100
AcDbCircle
 10
428.35
 20
433.4812499999999
 30
0.0
 40
2.38125
100
AcDbArc
 50
338.3347039999998
 51
1.654438999999999
  0
ARC
  5
E83A
330
E464
100
AcDbEntity
  8
1
  6
Continuous
100
AcDbCircle
 10
428.35
 20
433.4812499999999
 30
0.0
 40
2.38125
100
AcDbArc
 50
178.345561
 51
201.6652959999999
  0
LINE
  5
E83B
330
E464
100
AcDbEntity
  8
1
  6
Continuous
100
AcDbLine
 10
433.6
 20
433.55
 30
0.0
 11
423.0999999999998
 21
433.55
 31
0.0
  0
LINE
  5
E83C
330
E464
100
AcDbEntity
  8
1
  6
Continuous
100
AcDbLine
 10
433.6
 20
434.05
 30
0.0
 11
423.0999999999998
 21
434.05
 31
0.0
  0
LINE
  5
E83D
330
E464
100
AcDbEntity
  8
1
  6
Continuous
100
AcDbLine
 10
433.6
 20
433.55
 30
0.0
 11
433.6
 21
434.9
 31
0.0
  0
ARC
  5
E83E
330
E464
100
AcDbEntity
  8
1
  6
Continuous
100
AcDbCircle
 10
428.35
 20
433.4812499999999
 30
0.0
 40
2.38125
100
AcDbArc
 50
13.81839
 51
36.569721
  0
ARC
  5
E83F
330
E464
100
AcDbEntity
  8
1
  6
Continuous
100
AcDbCircle
 10
428.35
 20
433.4812499999999
 30
0.0
 40
2.38125
100
AcDbArc
 50
143.430279
 51
166.18161
  0
LINE
  5
E840
330
E464
100
AcDbEntity
  8
1
  6
Continuous
100
AcDbLine
 10
423.0999999999998
 20
433.55
 30
0.0
 11
423.0999999999998
 21
434.9
 31
0.0
  0
LINE
  5
E841
330
E464
100
AcDbEntity
  8
1
  6
Continuous
100
AcDbLine
 10
738.6
 20
195.8499999999999
 30
0.0
 11
749.1
 21
195.8499999999999
 31
0.0
  0
LINE
  5
E842
330
E464
100
AcDbEntity
  8
1
  6
Continuous
100
AcDbLine
 10
738.6
 20
196.3499999999999
 30
0.0
 11
749.1
 21
196.3499999999999
 31
0.0
  0
ARC
  5
E843
330
E464
100
AcDbEntity
  8
1
  6
Continuous
100
AcDbCircle
 10
743.85
 20
196.4187499999999
 30
0.0
 40
2.38125
100
AcDbArc
 50
158.3347039999999
 51
181.6544389999999
  0
ARC
  5
E844
330
E464
100
AcDbEntity
  8
1
  6
Continuous
100
AcDbCircle
 10
743.85
 20
196.4187499999999
 30
0.0
 40
2.38125
100
AcDbArc
 50
193.81839
 51
216.5697209999999
  0
LINE
  5
E845
330
E464
100
AcDbEntity
  8
1
  6
Continuous
100
AcDbLine
 10
738.6
 20
196.3499999999999
 30
0.0
 11
738.6
 21
195.0
 31
0.0
  0
LINE
  5
E846
330
E464
100
AcDbEntity
  8
1
  6
Continuous
100
AcDbLine
 10
761.6
 20
196.3499999999999
 30
0.0
 11
761.6
 21
195.0
 31
0.0
  0
ARC
  5
E847
330
E464
100
AcDbEntity
  8
1
  6
Continuous
100
AcDbCircle
 10
756.35
 20
196.4187499999999
 30
0.0
 40
2.38125
100
AcDbArc
 50
158.3347039999999
 51
181.6544389999999
  0
ARC
  5
E848
330
E464
100
AcDbEntity
  8
1
  6
Continuous
100
AcDbCircle
 10
756.35
 20
196.4187499999999
 30
0.0
 40
2.38125
100
AcDbArc
 50
358.3455609999999
 51
21.665296
  0
LINE
  5
E849
330
E464
100
AcDbEntity
  8
1
  6
Continuous
100
AcDbLine
 10
751.1
 20
196.3499999999999
 30
0.0
 11
751.1
 21
195.0
 31
0.0
  0
ARC
  5
E84A
330
E464
100
AcDbEntity
  8
1
  6
Continuous
100
AcDbCircle
 10
756.35
 20
196.4187499999999
 30
0.0
 40
2.38125
100
AcDbArc
 50
193.81839
 51
216.5697209999999
  0
ARC
  5
E84B
330
E464
100
AcDbEntity
  8
1
  6
Continuous
100
AcDbCircle
 10
756.35
 20
196.4187499999999
 30
0.0
 40
2.38125
100
AcDbArc
 50
323.430279
 51
346.18161
  0
LINE
  5
E84C
330
E464
100
AcDbEntity
  8
1
  6
Continuous
100
AcDbLine
 10
751.1
 20
196.3499999999999
 30
0.0
 11
761.6
 21
196.3499999999999
 31
0.0
  0
LINE
  5
E84D
330
E464
100
AcDbEntity
  8
1
  6
Continuous
100
AcDbLine
 10
751.1
 20
195.8499999999999
 30
0.0
 11
761.6
 21
195.8499999999999
 31
0.0
  0
ARC
  5
E84E
330
E464
100
AcDbEntity
  8
1
  6
Continuous
100
AcDbCircle
 10
743.85
 20
196.4187499999999
 30
0.0
 40
2.38125
100
AcDbArc
 50
358.3455609999999
 51
21.665296
  0
ARC
  5
E84F
330
E464
100
AcDbEntity
  8
1
  6
Continuous
100
AcDbCircle
 10
743.85
 20
196.4187499999999
 30
0.0
 40
2.38125
100
AcDbArc
 50
323.430279
 51
346.18161
  0
LINE
  5
E850
330
E464
100
AcDbEntity
  8
1
  6
Continuous
100
AcDbLine
 10
749.1
 20
196.3499999999999
 30
0.0
 11
749.1
 21
195.0
 31
0.0
  0
LINE
  5
E851
330
E464
100
AcDbEntity
  8
1
  6
Continuous
100
AcDbLine
 10
738.6
 20
169.15
 30
0.0
 11
749.1
 21
169.15
 31
0.0
  0
LINE
  5
E852
330
E464
100
AcDbEntity
  8
1
  6
Continuous
100
AcDbLine
 10
738.6
 20
169.65
 30
0.0
 11
749.1
 21
169.65
 31
0.0
  0
LINE
  5
E853
330
E464
100
AcDbEntity
  8
1
  6
Continuous
100
AcDbLine
 10
738.6
 20
169.15
 30
0.0
 11
738.6
 21
170.5
 31
0.0
  0
ARC
  5
E854
330
E464
100
AcDbEntity
  8
1
  6
Continuous
100
AcDbCircle
 10
743.85
 20
169.08125
 30
0.0
 40
2.38125
100
AcDbArc
 50
178.345561
 51
201.6652959999999
  0
ARC
  5
E855
330
E464
100
AcDbEntity
  8
1
  6
Continuous
100
AcDbCircle
 10
743.85
 20
169.08125
 30
0.0
 40
2.38125
100
AcDbArc
 50
143.430279
 51
166.18161
  0
LINE
  5
E856
330
E464
100
AcDbEntity
  8
1
  6
Continuous
100
AcDbLine
 10
749.1
 20
169.15
 30
0.0
 11
749.1
 21
170.5
 31
0.0
  0
LINE
  5
E857
330
E464
100
AcDbEntity
  8
1
  6
Continuous
100
AcDbLine
 10
751.1
 20
169.15
 30
0.0
 11
751.1
 21
170.5
 31
0.0
  0
LINE
  5
E858
330
E464
100
AcDbEntity
  8
1
  6
Continuous
100
AcDbLine
 10
761.6
 20
169.15
 30
0.0
 11
761.6
 21
170.5
 31
0.0
  0
LINE
  5
E859
330
E464
100
AcDbEntity
  8
1
  6
Continuous
100
AcDbLine
 10
751.1
 20
169.15
 30
0.0
 11
761.6
 21
169.15
 31
0.0
  0
ARC
  5
E85A
330
E464
100
AcDbEntity
  8
1
  6
Continuous
100
AcDbCircle
 10
756.35
 20
169.08125
 30
0.0
 40
2.38125
100
AcDbArc
 50
338.3347039999998
 51
1.654438999999999
  0
ARC
  5
E85B
330
E464
100
AcDbEntity
  8
1
  6
Continuous
100
AcDbCircle
 10
756.35
 20
169.08125
 30
0.0
 40
2.38125
100
AcDbArc
 50
178.345561
 51
201.6652959999999
  0
ARC
  5
E85C
330
E464
100
AcDbEntity
  8
1
  6
Continuous
100
AcDbCircle
 10
743.85
 20
169.08125
 30
0.0
 40
2.38125
100
AcDbArc
 50
338.3347039999998
 51
1.654438999999999
  0
LINE
  5
E85D
330
E464
100
AcDbEntity
  8
1
  6
Continuous
100
AcDbLine
 10
751.1
 20
169.65
 30
0.0
 11
761.6
 21
169.65
 31
0.0
  0
ARC
  5
E85E
330
E464
100
AcDbEntity
  8
1
  6
Continuous
100
AcDbCircle
 10
756.35
 20
169.08125
 30
0.0
 40
2.38125
100
AcDbArc
 50
13.81839
 51
36.569721
  0
ARC
  5
E85F
330
E464
100
AcDbEntity
  8
1
  6
Continuous
100
AcDbCircle
 10
756.35
 20
169.08125
 30
0.0
 40
2.38125
100
AcDbArc
 50
143.430279
 51
166.18161
  0
ARC
  5
E860
330
E464
100
AcDbEntity
  8
1
  6
Continuous
100
AcDbCircle
 10
743.85
 20
169.08125
 30
0.0
 40
2.38125
100
AcDbArc
 50
13.81839
 51
36.569721
  0
LINE
  5
E861
330
E464
100
AcDbEntity
  8
1
  6
Continuous
100
AcDbLine
 10
408.6
 20
460.25
 30
0.0
 11
398.1
 21
460.25
 31
0.0
  0
LINE
  5
E862
330
E464
100
AcDbEntity
  8
1
  6
Continuous
100
AcDbLine
 10
408.6
 20
460.7499999999998
 30
0.0
 11
398.1
 21
460.7499999999998
 31
0.0
  0
ARC
  5
E863
330
E464
100
AcDbEntity
  8
1
  6
Continuous
100
AcDbCircle
 10
403.35
 20
460.81875
 30
0.0
 40
2.38125
100
AcDbArc
 50
193.81839
 51
216.5697209999999
  0
LINE
  5
E864
330
E464
100
AcDbEntity
  8
1
  6
Continuous
100
AcDbLine
 10
396.1
 20
460.7499999999998
 30
0.0
 11
396.1
 21
459.4
 31
0.0
  0
LINE
  5
E865
330
E464
100
AcDbEntity
  8
1
  6
Continuous
100
AcDbLine
 10
398.1
 20
460.7499999999998
 30
0.0
 11
398.1
 21
459.4
 31
0.0
  0
ARC
  5
E866
330
E464
100
AcDbEntity
  8
1
  6
Continuous
100
AcDbCircle
 10
403.35
 20
460.81875
 30
0.0
 40
2.38125
100
AcDbArc
 50
158.3347039999999
 51
181.6544389999999
  0
LINE
  5
E867
330
E464
100
AcDbEntity
  8
1
  6
Continuous
100
AcDbLine
 10
385.6
 20
460.7499999999998
 30
0.0
 11
385.6
 21
459.4
 31
0.0
  0
ARC
  5
E868
330
E464
100
AcDbEntity
  8
1
  6
Continuous
100
AcDbCircle
 10
390.85
 20
460.81875
 30
0.0
 40
2.38125
100
AcDbArc
 50
193.81839
 51
216.5697209999999
  0
ARC
  5
E869
330
E464
100
AcDbEntity
  8
1
  6
Continuous
100
AcDbCircle
 10
390.85
 20
460.81875
 30
0.0
 40
2.38125
100
AcDbArc
 50
323.430279
 51
346.18161
  0
ARC
  5
E86A
330
E464
100
AcDbEntity
  8
1
  6
Continuous
100
AcDbCircle
 10
390.85
 20
460.81875
 30
0.0
 40
2.38125
100
AcDbArc
 50
158.3347039999999
 51
181.6544389999999
  0
ARC
  5
E86B
330
E464
100
AcDbEntity
  8
1
  6
Continuous
100
AcDbCircle
 10
390.85
 20
460.81875
 30
0.0
 40
2.38125
100
AcDbArc
 50
358.3455609999999
 51
21.665296
  0
LINE
  5
E86C
330
E464
100
AcDbEntity
  8
1
  6
Continuous
100
AcDbLine
 10
396.1
 20
460.7499999999998
 30
0.0
 11
385.6
 21
460.7499999999998
 31
0.0
  0
LINE
  5
E86D
330
E464
100
AcDbEntity
  8
1
  6
Continuous
100
AcDbLine
 10
396.1
 20
460.25
 30
0.0
 11
385.6
 21
460.25
 31
0.0
  0
ARC
  5
E86E
330
E464
100
AcDbEntity
  8
1
  6
Continuous
100
AcDbCircle
 10
403.35
 20
460.81875
 30
0.0
 40
2.38125
100
AcDbArc
 50
323.430279
 51
346.18161
  0
LINE
  5
E86F
330
E464
100
AcDbEntity
  8
1
  6
Continuous
100
AcDbLine
 10
408.6
 20
460.7499999999998
 30
0.0
 11
408.6
 21
459.4
 31
0.0
  0
ARC
  5
E870
330
E464
100
AcDbEntity
  8
1
  6
Continuous
100
AcDbCircle
 10
403.35
 20
460.81875
 30
0.0
 40
2.38125
100
AcDbArc
 50
358.3455609999999
 51
21.665296
  0
LINE
  5
E871
330
E464
100
AcDbEntity
  8
1
  6
Continuous
100
AcDbLine
 10
408.6
 20
433.55
 30
0.0
 11
398.1
 21
433.55
 31
0.0
  0
LINE
  5
E872
330
E464
100
AcDbEntity
  8
1
  6
Continuous
100
AcDbLine
 10
408.6
 20
434.05
 30
0.0
 11
398.1
 21
434.05
 31
0.0
  0
LINE
  5
E873
330
E464
100
AcDbEntity
  8
1
  6
Continuous
100
AcDbLine
 10
396.1
 20
433.55
 30
0.0
 11
396.1
 21
434.9
 31
0.0
  0
ARC
  5
E874
330
E464
100
AcDbEntity
  8
1
  6
Continuous
100
AcDbCircle
 10
403.35
 20
433.4812499999999
 30
0.0
 40
2.38125
100
AcDbArc
 50
178.345561
 51
201.6652959999999
  0
ARC
  5
E875
330
E464
100
AcDbEntity
  8
1
  6
Continuous
100
AcDbCircle
 10
403.35
 20
433.4812499999999
 30
0.0
 40
2.38125
100
AcDbArc
 50
143.430279
 51
166.18161
  0
LINE
  5
E876
330
E464
100
AcDbEntity
  8
1
  6
Continuous
100
AcDbLine
 10
398.1
 20
433.55
 30
0.0
 11
398.1
 21
434.9
 31
0.0
  0
ARC
  5
E877
330
E464
100
AcDbEntity
  8
1
  6
Continuous
100
AcDbCircle
 10
390.85
 20
433.4812499999999
 30
0.0
 40
2.38125
100
AcDbArc
 50
178.345561
 51
201.6652959999999
  0
ARC
  5
E878
330
E464
100
AcDbEntity
  8
1
  6
Continuous
100
AcDbCircle
 10
390.85
 20
433.4812499999999
 30
0.0
 40
2.38125
100
AcDbArc
 50
143.430279
 51
166.18161
  0
LINE
  5
E879
330
E464
100
AcDbEntity
  8
1
  6
Continuous
100
AcDbLine
 10
385.6
 20
433.55
 30
0.0
 11
385.6
 21
434.9
 31
0.0
  0
ARC
  5
E87A
330
E464
100
AcDbEntity
  8
1
  6
Continuous
100
AcDbCircle
 10
390.85
 20
433.4812499999999
 30
0.0
 40
2.38125
100
AcDbArc
 50
338.3347039999998
 51
1.654438999999999
  0
ARC
  5
E87B
330
E464
100
AcDbEntity
  8
1
  6
Continuous
100
AcDbCircle
 10
390.85
 20
433.4812499999999
 30
0.0
 40
2.38125
100
AcDbArc
 50
13.81839
 51
36.569721
  0
LINE
  5
E87C
330
E464
100
AcDbEntity
  8
1
  6
Continuous
100
AcDbLine
 10
396.1
 20
434.05
 30
0.0
 11
385.6
 21
434.05
 31
0.0
  0
LINE
  5
E87D
330
E464
100
AcDbEntity
  8
1
  6
Continuous
100
AcDbLine
 10
396.1
 20
433.55
 30
0.0
 11
385.6
 21
433.55
 31
0.0
  0
ARC
  5
E87E
330
E464
100
AcDbEntity
  8
1
  6
Continuous
100
AcDbCircle
 10
403.35
 20
433.4812499999999
 30
0.0
 40
2.38125
100
AcDbArc
 50
338.3347039999998
 51
1.654438999999999
  0
LINE
  5
E87F
330
E464
100
AcDbEntity
  8
1
  6
Continuous
100
AcDbLine
 10
408.6
 20
433.55
 30
0.0
 11
408.6
 21
434.9
 31
0.0
  0
ARC
  5
E880
330
E464
100
AcDbEntity
  8
1
  6
Continuous
100
AcDbCircle
 10
403.35
 20
433.4812499999999
 30
0.0
 40
2.38125
100
AcDbArc
 50
13.81839
 51
36.569721
  0
LINE
  5
E881
330
E464
100
AcDbEntity
  8
1
  6
Continuous
100
AcDbLine
 10
763.6
 20
196.3499999999999
 30
0.0
 11
774.1
 21
196.3499999999999
 31
0.0
  0
LINE
  5
E882
330
E464
100
AcDbEntity
  8
1
  6
Continuous
100
AcDbLine
 10
763.6
 20
195.8499999999999
 30
0.0
 11
774.1
 21
195.8499999999999
 31
0.0
  0
LINE
  5
E883
330
E464
100
AcDbEntity
  8
1
  6
Continuous
100
AcDbLine
 10
763.6
 20
196.3499999999999
 30
0.0
 11
763.6
 21
195.0
 31
0.0
  0
ARC
  5
E884
330
E464
100
AcDbEntity
  8
1
  6
Continuous
100
AcDbCircle
 10
768.85
 20
196.4187499999999
 30
0.0
 40
2.38125
100
AcDbArc
 50
323.430279
 51
346.18161
  0
ARC
  5
E885
330
E464
100
AcDbEntity
  8
1
  6
Continuous
100
AcDbCircle
 10
768.85
 20
196.4187499999999
 30
0.0
 40
2.38125
100
AcDbArc
 50
358.3455609999999
 51
21.665296
  0
ARC
  5
E886
330
E464
100
AcDbEntity
  8
1
  6
Continuous
100
AcDbCircle
 10
768.85
 20
196.4187499999999
 30
0.0
 40
2.38125
100
AcDbArc
 50
193.81839
 51
216.5697209999999
  0
ARC
  5
E887
330
E464
100
AcDbEntity
  8
1
  6
Continuous
100
AcDbCircle
 10
768.85
 20
196.4187499999999
 30
0.0
 40
2.38125
100
AcDbArc
 50
158.3347039999999
 51
181.6544389999999
  0
LINE
  5
E888
330
E464
100
AcDbEntity
  8
1
  6
Continuous
100
AcDbLine
 10
776.1
 20
195.8499999999999
 30
0.0
 11
786.6
 21
195.8499999999999
 31
0.0
  0
LINE
  5
E889
330
E464
100
AcDbEntity
  8
1
  6
Continuous
100
AcDbLine
 10
776.1
 20
196.3499999999999
 30
0.0
 11
786.6
 21
196.3499999999999
 31
0.0
  0
LINE
  5
E88A
330
E464
100
AcDbEntity
  8
1
  6
Continuous
100
AcDbLine
 10
774.1
 20
196.3499999999999
 30
0.0
 11
774.1
 21
195.0
 31
0.0
  0
ARC
  5
E88B
330
E464
100
AcDbEntity
  8
1
  6
Continuous
100
AcDbCircle
 10
781.35
 20
196.4187499999999
 30
0.0
 40
2.38125
100
AcDbArc
 50
323.430279
 51
346.18161
  0
ARC
  5
E88C
330
E464
100
AcDbEntity
  8
1
  6
Continuous
100
AcDbCircle
 10
781.35
 20
196.4187499999999
 30
0.0
 40
2.38125
100
AcDbArc
 50
193.81839
 51
216.5697209999999
  0
LINE
  5
E88D
330
E464
100
AcDbEntity
  8
1
  6
Continuous
100
AcDbLine
 10
776.1
 20
196.3499999999999
 30
0.0
 11
776.1
 21
195.0
 31
0.0
  0
ARC
  5
E88E
330
E464
100
AcDbEntity
  8
1
  6
Continuous
100
AcDbCircle
 10
781.35
 20
196.4187499999999
 30
0.0
 40
2.38125
100
AcDbArc
 50
358.3455609999999
 51
21.665296
  0
ARC
  5
E88F
330
E464
100
AcDbEntity
  8
1
  6
Continuous
100
AcDbCircle
 10
781.35
 20
196.4187499999999
 30
0.0
 40
2.38125
100
AcDbArc
 50
158.3347039999999
 51
181.6544389999999
  0
LINE
  5
E890
330
E464
100
AcDbEntity
  8
1
  6
Continuous
100
AcDbLine
 10
786.6
 20
196.3499999999999
 30
0.0
 11
786.6
 21
195.0
 31
0.0
  0
LINE
  5
E891
330
E464
100
AcDbEntity
  8
1
  6
Continuous
100
AcDbLine
 10
763.6
 20
169.65
 30
0.0
 11
774.1
 21
169.65
 31
0.0
  0
LINE
  5
E892
330
E464
100
AcDbEntity
  8
1
  6
Continuous
100
AcDbLine
 10
763.6
 20
169.15
 30
0.0
 11
774.1
 21
169.15
 31
0.0
  0
LINE
  5
E893
330
E464
100
AcDbEntity
  8
1
  6
Continuous
100
AcDbLine
 10
763.6
 20
169.15
 30
0.0
 11
763.6
 21
170.5
 31
0.0
  0
ARC
  5
E894
330
E464
100
AcDbEntity
  8
1
  6
Continuous
100
AcDbCircle
 10
768.85
 20
169.08125
 30
0.0
 40
2.38125
100
AcDbArc
 50
13.81839
 51
36.569721
  0
ARC
  5
E895
330
E464
100
AcDbEntity
  8
1
  6
Continuous
100
AcDbCircle
 10
768.85
 20
169.08125
 30
0.0
 40
2.38125
100
AcDbArc
 50
338.3347039999998
 51
1.654438999999999
  0
ARC
  5
E896
330
E464
100
AcDbEntity
  8
1
  6
Continuous
100
AcDbCircle
 10
768.85
 20
169.08125
 30
0.0
 40
2.38125
100
AcDbArc
 50
143.430279
 51
166.18161
  0
ARC
  5
E897
330
E464
100
AcDbEntity
  8
1
  6
Continuous
100
AcDbCircle
 10
768.85
 20
169.08125
 30
0.0
 40
2.38125
100
AcDbArc
 50
178.345561
 51
201.6652959999999
  0
LINE
  5
E898
330
E464
100
AcDbEntity
  8
1
  6
Continuous
100
AcDbLine
 10
776.1
 20
169.65
 30
0.0
 11
786.6
 21
169.65
 31
0.0
  0
LINE
  5
E899
330
E464
100
AcDbEntity
  8
1
  6
Continuous
100
AcDbLine
 10
776.1
 20
169.15
 30
0.0
 11
786.6
 21
169.15
 31
0.0
  0
ARC
  5
E89A
330
E464
100
AcDbEntity
  8
1
  6
Continuous
100
AcDbCircle
 10
781.35
 20
169.08125
 30
0.0
 40
2.38125
100
AcDbArc
 50
143.430279
 51
166.18161
  0
ARC
  5
E89B
330
E464
100
AcDbEntity
  8
1
  6
Continuous
100
AcDbCircle
 10
781.35
 20
169.08125
 30
0.0
 40
2.38125
100
AcDbArc
 50
13.81839
 51
36.569721
  0
ARC
  5
E89C
330
E464
100
AcDbEntity
  8
1
  6
Continuous
100
AcDbCircle
 10
781.35
 20
169.08125
 30
0.0
 40
2.38125
100
AcDbArc
 50
178.345561
 51
201.6652959999999
  0
ARC
  5
E89D
330
E464
100
AcDbEntity
  8
1
  6
Continuous
100
AcDbCircle
 10
781.35
 20
169.08125
 30
0.0
 40
2.38125
100
AcDbArc
 50
338.3347039999998
 51
1.654438999999999
  0
LINE
  5
E89E
330
E464
100
AcDbEntity
  8
1
  6
Continuous
100
AcDbLine
 10
776.1
 20
169.15
 30
0.0
 11
776.1
 21
170.5
 31
0.0
  0
LINE
  5
E89F
330
E464
100
AcDbEntity
  8
1
  6
Continuous
100
AcDbLine
 10
774.1
 20
169.15
 30
0.0
 11
774.1
 21
170.5
 31
0.0
  0
LINE
  5
E8A0
330
E464
100
AcDbEntity
  8
1
  6
Continuous
100
AcDbLine
 10
786.6
 20
169.15
 30
0.0
 11
786.6
 21
170.5
 31
0.0
  0
LINE
  5
E8A1
330
E464
100
AcDbEntity
  8
1
  6
Continuous
100
AcDbLine
 10
383.6
 20
460.7499999999998
 30
0.0
 11
373.1
 21
460.7499999999998
 31
0.0
  0
LINE
  5
E8A2
330
E464
100
AcDbEntity
  8
1
  6
Continuous
100
AcDbLine
 10
383.6
 20
460.25
 30
0.0
 11
373.1
 21
460.25
 31
0.0
  0
LINE
  5
E8A3
330
E464
100
AcDbEntity
  8
1
  6
Continuous
100
AcDbLine
 10
371.1
 20
460.25
 30
0.0
 11
360.6
 21
460.25
 31
0.0
  0
LINE
  5
E8A4
330
E464
100
AcDbEntity
  8
1
  6
Continuous
100
AcDbLine
 10
371.1
 20
460.7499999999998
 30
0.0
 11
360.6
 21
460.7499999999998
 31
0.0
  0
ARC
  5
E8A5
330
E464
100
AcDbEntity
  8
1
  6
Continuous
100
AcDbCircle
 10
365.85
 20
460.81875
 30
0.0
 40
2.38125
100
AcDbArc
 50
358.3455609999999
 51
21.665296
  0
ARC
  5
E8A6
330
E464
100
AcDbEntity
  8
1
  6
Continuous
100
AcDbCircle
 10
365.85
 20
460.81875
 30
0.0
 40
2.38125
100
AcDbArc
 50
158.3347039999999
 51
181.6544389999999
  0
ARC
  5
E8A7
330
E464
100
AcDbEntity
  8
1
  6
Continuous
100
AcDbCircle
 10
365.85
 20
460.81875
 30
0.0
 40
2.38125
100
AcDbArc
 50
323.430279
 51
346.18161
  0
ARC
  5
E8A8
330
E464
100
AcDbEntity
  8
1
  6
Continuous
100
AcDbCircle
 10
365.85
 20
460.81875
 30
0.0
 40
2.38125
100
AcDbArc
 50
193.81839
 51
216.5697209999999
  0
LINE
  5
E8A9
330
E464
100
AcDbEntity
  8
1
  6
Continuous
100
AcDbLine
 10
360.6
 20
460.7499999999998
 30
0.0
 11
360.6
 21
459.4
 31
0.0
  0
LINE
  5
E8AA
330
E464
100
AcDbEntity
  8
1
  6
Continuous
100
AcDbLine
 10
373.1
 20
460.7499999999998
 30
0.0
 11
373.1
 21
459.4
 31
0.0
  0
LINE
  5
E8AB
330
E464
100
AcDbEntity
  8
1
  6
Continuous
100
AcDbLine
 10
371.1
 20
460.7499999999998
 30
0.0
 11
371.1
 21
459.4
 31
0.0
  0
ARC
  5
E8AC
330
E464
100
AcDbEntity
  8
1
  6
Continuous
100
AcDbCircle
 10
378.35
 20
460.81875
 30
0.0
 40
2.38125
100
AcDbArc
 50
358.3455609999999
 51
21.665296
  0
LINE
  5
E8AD
330
E464
100
AcDbEntity
  8
1
  6
Continuous
100
AcDbLine
 10
383.6
 20
460.7499999999998
 30
0.0
 11
383.6
 21
459.4
 31
0.0
  0
ARC
  5
E8AE
330
E464
100
AcDbEntity
  8
1
  6
Continuous
100
AcDbCircle
 10
378.35
 20
460.81875
 30
0.0
 40
2.38125
100
AcDbArc
 50
323.430279
 51
346.18161
  0
ARC
  5
E8AF
330
E464
100
AcDbEntity
  8
1
  6
Continuous
100
AcDbCircle
 10
378.35
 20
460.81875
 30
0.0
 40
2.38125
100
AcDbArc
 50
158.3347039999999
 51
181.6544389999999
  0
ARC
  5
E8B0
330
E464
100
AcDbEntity
  8
1
  6
Continuous
100
AcDbCircle
 10
378.35
 20
460.81875
 30
0.0
 40
2.38125
100
AcDbArc
 50
193.81839
 51
216.5697209999999
  0
LINE
  5
E8B1
330
E464
100
AcDbEntity
  8
1
  6
Continuous
100
AcDbLine
 10
383.6
 20
434.05
 30
0.0
 11
373.1
 21
434.05
 31
0.0
  0
LINE
  5
E8B2
330
E464
100
AcDbEntity
  8
1
  6
Continuous
100
AcDbLine
 10
383.6
 20
433.55
 30
0.0
 11
373.1
 21
433.55
 31
0.0
  0
LINE
  5
E8B3
330
E464
100
AcDbEntity
  8
1
  6
Continuous
100
AcDbLine
 10
371.1
 20
433.55
 30
0.0
 11
360.6
 21
433.55
 31
0.0
  0
LINE
  5
E8B4
330
E464
100
AcDbEntity
  8
1
  6
Continuous
100
AcDbLine
 10
371.1
 20
434.05
 30
0.0
 11
360.6
 21
434.05
 31
0.0
  0
ARC
  5
E8B5
330
E464
100
AcDbEntity
  8
1
  6
Continuous
100
AcDbCircle
 10
365.85
 20
433.4812499999999
 30
0.0
 40
2.38125
100
AcDbArc
 50
13.81839
 51
36.569721
  0
ARC
  5
E8B6
330
E464
100
AcDbEntity
  8
1
  6
Continuous
100
AcDbCircle
 10
365.85
 20
433.4812499999999
 30
0.0
 40
2.38125
100
AcDbArc
 50
338.3347039999998
 51
1.654438999999999
  0
LINE
  5
E8B7
330
E464
100
AcDbEntity
  8
1
  6
Continuous
100
AcDbLine
 10
360.6
 20
433.55
 30
0.0
 11
360.6
 21
434.9
 31
0.0
  0
ARC
  5
E8B8
330
E464
100
AcDbEntity
  8
1
  6
Continuous
100
AcDbCircle
 10
365.85
 20
433.4812499999999
 30
0.0
 40
2.38125
100
AcDbArc
 50
143.430279
 51
166.18161
  0
ARC
  5
E8B9
330
E464
100
AcDbEntity
  8
1
  6
Continuous
100
AcDbCircle
 10
365.85
 20
433.4812499999999
 30
0.0
 40
2.38125
100
AcDbArc
 50
178.345561
 51
201.6652959999999
  0
LINE
  5
E8BA
330
E464
100
AcDbEntity
  8
1
  6
Continuous
100
AcDbLine
 10
373.1
 20
433.55
 30
0.0
 11
373.1
 21
434.9
 31
0.0
  0
LINE
  5
E8BB
330
E464
100
AcDbEntity
  8
1
  6
Continuous
100
AcDbLine
 10
371.1
 20
433.55
 30
0.0
 11
371.1
 21
434.9
 31
0.0
  0
ARC
  5
E8BC
330
E464
100
AcDbEntity
  8
1
  6
Continuous
100
AcDbCircle
 10
378.35
 20
433.4812499999999
 30
0.0
 40
2.38125
100
AcDbArc
 50
13.81839
 51
36.569721
  0
LINE
  5
E8BD
330
E464
100
AcDbEntity
  8
1
  6
Continuous
100
AcDbLine
 10
383.6
 20
433.55
 30
0.0
 11
383.6
 21
434.9
 31
0.0
  0
ARC
  5
E8BE
330
E464
100
AcDbEntity
  8
1
  6
Continuous
100
AcDbCircle
 10
378.35
 20
433.4812499999999
 30
0.0
 40
2.38125
100
AcDbArc
 50
338.3347039999998
 51
1.654438999999999
  0
ARC
  5
E8BF
330
E464
100
AcDbEntity
  8
1
  6
Continuous
100
AcDbCircle
 10
378.35
 20
433.4812499999999
 30
0.0
 40
2.38125
100
AcDbArc
 50
143.430279
 51
166.18161
  0
ARC
  5
E8C0
330
E464
100
AcDbEntity
  8
1
  6
Continuous
100
AcDbCircle
 10
378.35
 20
433.4812499999999
 30
0.0
 40
2.38125
100
AcDbArc
 50
178.345561
 51
201.6652959999999
  0
LINE
  5
E8C1
330
E464
100
AcDbEntity
  8
1
  6
Continuous
100
AcDbLine
 10
811.5999999999996
 20
196.3499999999999
 30
0.0
 11
811.5999999999996
 21
195.0
 31
0.0
  0
ARC
  5
E8C2
330
E464
100
AcDbEntity
  8
1
  6
Continuous
100
AcDbCircle
 10
806.3500000000001
 20
196.4187499999999
 30
0.0
 40
2.38125
100
AcDbArc
 50
158.3347039999999
 51
181.6544389999999
  0
ARC
  5
E8C3
330
E464
100
AcDbEntity
  8
1
  6
Continuous
100
AcDbCircle
 10
806.3500000000001
 20
196.4187499999999
 30
0.0
 40
2.38125
100
AcDbArc
 50
358.3455609999999
 51
21.665296
  0
LINE
  5
E8C4
330
E464
100
AcDbEntity
  8
1
  6
Continuous
100
AcDbLine
 10
801.1000000000001
 20
196.3499999999999
 30
0.0
 11
801.1000000000001
 21
195.0
 31
0.0
  0
ARC
  5
E8C5
330
E464
100
AcDbEntity
  8
1
  6
Continuous
100
AcDbCircle
 10
806.3500000000001
 20
196.4187499999999
 30
0.0
 40
2.38125
100
AcDbArc
 50
193.81839
 51
216.5697209999999
  0
ARC
  5
E8C6
330
E464
100
AcDbEntity
  8
1
  6
Continuous
100
AcDbCircle
 10
806.3500000000001
 20
196.4187499999999
 30
0.0
 40
2.38125
100
AcDbArc
 50
323.430279
 51
346.18161
  0
LINE
  5
E8C7
330
E464
100
AcDbEntity
  8
1
  6
Continuous
100
AcDbLine
 10
799.1
 20
196.3499999999999
 30
0.0
 11
799.1
 21
195.0
 31
0.0
  0
LINE
  5
E8C8
330
E464
100
AcDbEntity
  8
1
  6
Continuous
100
AcDbLine
 10
801.1000000000001
 20
196.3499999999999
 30
0.0
 11
811.5999999999996
 21
196.3499999999999
 31
0.0
  0
LINE
  5
E8C9
330
E464
100
AcDbEntity
  8
1
  6
Continuous
100
AcDbLine
 10
801.1000000000001
 20
195.8499999999999
 30
0.0
 11
811.5999999999996
 21
195.8499999999999
 31
0.0
  0
ARC
  5
E8CA
330
E464
100
AcDbEntity
  8
1
  6
Continuous
100
AcDbCircle
 10
793.85
 20
196.4187499999999
 30
0.0
 40
2.38125
100
AcDbArc
 50
158.3347039999999
 51
181.6544389999999
  0
ARC
  5
E8CB
330
E464
100
AcDbEntity
  8
1
  6
Continuous
100
AcDbCircle
 10
793.85
 20
196.4187499999999
 30
0.0
 40
2.38125
100
AcDbArc
 50
193.81839
 51
216.5697209999999
  0
ARC
  5
E8CC
330
E464
100
AcDbEntity
  8
1
  6
Continuous
100
AcDbCircle
 10
793.85
 20
196.4187499999999
 30
0.0
 40
2.38125
100
AcDbArc
 50
358.3455609999999
 51
21.665296
  0
ARC
  5
E8CD
330
E464
100
AcDbEntity
  8
1
  6
Continuous
100
AcDbCircle
 10
793.85
 20
196.4187499999999
 30
0.0
 40
2.38125
100
AcDbArc
 50
323.430279
 51
346.18161
  0
LINE
  5
E8CE
330
E464
100
AcDbEntity
  8
1
  6
Continuous
100
AcDbLine
 10
788.6
 20
196.3499999999999
 30
0.0
 11
788.6
 21
195.0
 31
0.0
  0
LINE
  5
E8CF
330
E464
100
AcDbEntity
  8
1
  6
Continuous
100
AcDbLine
 10
788.6
 20
195.8499999999999
 30
0.0
 11
799.1
 21
195.8499999999999
 31
0.0
  0
LINE
  5
E8D0
330
E464
100
AcDbEntity
  8
1
  6
Continuous
100
AcDbLine
 10
788.6
 20
196.3499999999999
 30
0.0
 11
799.1
 21
196.3499999999999
 31
0.0
  0
LINE
  5
E8D1
330
E464
100
AcDbEntity
  8
1
  6
Continuous
100
AcDbLine
 10
811.5999999999996
 20
169.15
 30
0.0
 11
811.5999999999996
 21
170.5
 31
0.0
  0
LINE
  5
E8D2
330
E464
100
AcDbEntity
  8
1
  6
Continuous
100
AcDbLine
 10
799.1
 20
169.15
 30
0.0
 11
799.1
 21
170.5
 31
0.0
  0
LINE
  5
E8D3
330
E464
100
AcDbEntity
  8
1
  6
Continuous
100
AcDbLine
 10
801.1000000000001
 20
169.15
 30
0.0
 11
801.1000000000001
 21
170.5
 31
0.0
  0
ARC
  5
E8D4
330
E464
100
AcDbEntity
  8
1
  6
Continuous
100
AcDbCircle
 10
806.3500000000001
 20
169.08125
 30
0.0
 40
2.38125
100
AcDbArc
 50
338.3347039999998
 51
1.654438999999999
  0
ARC
  5
E8D5
330
E464
100
AcDbEntity
  8
1
  6
Continuous
100
AcDbCircle
 10
806.3500000000001
 20
169.08125
 30
0.0
 40
2.38125
100
AcDbArc
 50
178.345561
 51
201.6652959999999
  0
ARC
  5
E8D6
330
E464
100
AcDbEntity
  8
1
  6
Continuous
100
AcDbCircle
 10
806.3500000000001
 20
169.08125
 30
0.0
 40
2.38125
100
AcDbArc
 50
13.81839
 51
36.569721
  0
ARC
  5
E8D7
330
E464
100
AcDbEntity
  8
1
  6
Continuous
100
AcDbCircle
 10
806.3500000000001
 20
169.08125
 30
0.0
 40
2.38125
100
AcDbArc
 50
143.430279
 51
166.18161
  0
LINE
  5
E8D8
330
E464
100
AcDbEntity
  8
1
  6
Continuous
100
AcDbLine
 10
801.1000000000001
 20
169.15
 30
0.0
 11
811.5999999999996
 21
169.15
 31
0.0
  0
LINE
  5
E8D9
330
E464
100
AcDbEntity
  8
1
  6
Continuous
100
AcDbLine
 10
801.1000000000001
 20
169.65
 30
0.0
 11
811.5999999999996
 21
169.65
 31
0.0
  0
ARC
  5
E8DA
330
E464
100
AcDbEntity
  8
1
  6
Continuous
100
AcDbCircle
 10
793.85
 20
169.08125
 30
0.0
 40
2.38125
100
AcDbArc
 50
178.345561
 51
201.6652959999999
  0
ARC
  5
E8DB
330
E464
100
AcDbEntity
  8
1
  6
Continuous
100
AcDbCircle
 10
793.85
 20
169.08125
 30
0.0
 40
2.38125
100
AcDbArc
 50
143.430279
 51
166.18161
  0
ARC
  5
E8DC
330
E464
100
AcDbEntity
  8
1
  6
Continuous
100
AcDbCircle
 10
793.85
 20
169.08125
 30
0.0
 40
2.38125
100
AcDbArc
 50
338.3347039999998
 51
1.654438999999999
  0
ARC
  5
E8DD
330
E464
100
AcDbEntity
  8
1
  6
Continuous
100
AcDbCircle
 10
793.85
 20
169.08125
 30
0.0
 40
2.38125
100
AcDbArc
 50
13.81839
 51
36.569721
  0
LINE
  5
E8DE
330
E464
100
AcDbEntity
  8
1
  6
Continuous
100
AcDbLine
 10
788.6
 20
169.15
 30
0.0
 11
788.6
 21
170.5
 31
0.0
  0
LINE
  5
E8DF
330
E464
100
AcDbEntity
  8
1
  6
Continuous
100
AcDbLine
 10
788.6
 20
169.15
 30
0.0
 11
799.1
 21
169.15
 31
0.0
  0
LINE
  5
E8E0
330
E464
100
AcDbEntity
  8
1
  6
Continuous
100
AcDbLine
 10
788.6
 20
169.65
 30
0.0
 11
799.1
 21
169.65
 31
0.0
  0
ARC
  5
E8E1
330
E464
100
AcDbEntity
  8
1
  6
Continuous
100
AcDbCircle
 10
826.1000000000001
 20
447.1499999999998
 30
0.0
 40
2.25
100
AcDbArc
 50
270.0
 51
90.0
  0
LINE
  5
E8E2
330
E464
100
AcDbEntity
  8
1
  6
Continuous
100
AcDbLine
 10
825.2999999999996
 20
449.3999999999998
 30
0.0
 11
826.1000000000001
 21
449.3999999999998
 31
0.0
  0
LINE
  5
E8E3
330
E464
100
AcDbEntity
  8
4
  6
CENTER
100
AcDbLine
 10
825.7000000000001
 20
441.8999999999998
 30
0.0
 11
825.7000000000001
 21
452.4
 31
0.0
  0
LINE
  5
E8E4
330
E464
100
AcDbEntity
  8
1
  6
Continuous
100
AcDbLine
 10
825.2999999999996
 20
444.8999999999998
 30
0.0
 11
826.1000000000001
 21
444.8999999999998
 31
0.0
  0
ARC
  5
E8E5
330
E464
100
AcDbEntity
  8
1
  6
Continuous
100
AcDbCircle
 10
825.2999999999996
 20
447.1499999999998
 30
0.0
 40
2.25
100
AcDbArc
 50
90.0
 51
270.0
  0
LINE
  5
E8E6
330
E464
100
AcDbEntity
  8
4
  6
CENTER
100
AcDbLine
 10
825.7000000000001
 20
328.9955889999998
 30
0.0
 11
825.7000000000001
 21
318.4955889999999
 31
0.0
  0
ARC
  5
E8E7
330
E464
100
AcDbEntity
  8
1
  6
Continuous
100
AcDbCircle
 10
346.1
 20
447.1499999999998
 30
0.0
 40
2.25
100
AcDbArc
 50
90.0
 51
270.0
  0
ARC
  5
E8E8
330
E464
100
AcDbEntity
  8
1
  6
Continuous
100
AcDbCircle
 10
346.8999999999998
 20
447.1499999999998
 30
0.0
 40
2.25
100
AcDbArc
 50
270.0
 51
90.0
  0
LINE
  5
E8E9
330
E464
100
AcDbEntity
  8
1
  6
Continuous
100
AcDbLine
 10
346.8999999999998
 20
444.8999999999998
 30
0.0
 11
346.1
 21
444.8999999999998
 31
0.0
  0
LINE
  5
E8EA
330
E464
100
AcDbEntity
  8
4
  6
CENTER
100
AcDbLine
 10
346.4999999999998
 20
441.8999999999998
 30
0.0
 11
346.4999999999998
 21
452.4
 31
0.0
  0
LINE
  5
E8EB
330
E464
100
AcDbEntity
  8
1
  6
Continuous
100
AcDbLine
 10
346.8999999999998
 20
449.3999999999998
 30
0.0
 11
346.1
 21
449.3999999999998
 31
0.0
  0
LINE
  5
E8EC
330
E464
100
AcDbEntity
  8
4
  6
CENTER
100
AcDbLine
 10
346.4999999999998
 20
310.471691
 30
0.0
 11
346.4999999999998
 21
299.971691
 31
0.0
  0
ARC
  5
E8ED
330
E464
100
AcDbEntity
  8
1
  6
Continuous
100
AcDbCircle
 10
826.1000000000001
 20
182.75
 30
0.0
 40
2.25
100
AcDbArc
 50
270.0
 51
90.0
  0
LINE
  5
E8EE
330
E464
100
AcDbEntity
  8
1
  6
Continuous
100
AcDbLine
 10
825.2999999999996
 20
180.4999999999998
 30
0.0
 11
826.1000000000001
 21
180.4999999999998
 31
0.0
  0
LINE
  5
E8EF
330
E464
100
AcDbEntity
  8
4
  6
CENTER
100
AcDbLine
 10
825.7000000000001
 20
188.0
 30
0.0
 11
825.7000000000001
 21
177.5
 31
0.0
  0
LINE
  5
E8F0
330
E464
100
AcDbEntity
  8
1
  6
Continuous
100
AcDbLine
 10
825.2999999999996
 20
185.0
 30
0.0
 11
826.1000000000001
 21
185.0
 31
0.0
  0
ARC
  5
E8F1
330
E464
100
AcDbEntity
  8
1
  6
Continuous
100
AcDbCircle
 10
825.2999999999996
 20
182.75
 30
0.0
 40
2.25
100
AcDbArc
 50
90.0
 51
270.0
  0
LINE
  5
E8F2
330
E464
100
AcDbEntity
  8
4
  6
CENTER
100
AcDbLine
 10
825.7000000000001
 20
36.504411
 30
0.0
 11
825.7000000000001
 21
47.00441099999999
 31
0.0
  0
LINE
  5
E8F3
330
E464
100
AcDbEntity
  8
4
  6
CENTER
100
AcDbLine
 10
346.4999999999998
 20
55.028309
 30
0.0
 11
346.4999999999998
 21
65.528309
 31
0.0
  0
ARC
  5
E8F4
330
E464
100
AcDbEntity
  8
1
  6
Continuous
100
AcDbCircle
 10
346.8999999999998
 20
182.75
 30
0.0
 40
2.25
100
AcDbArc
 50
270.0
 51
90.0
  0
ARC
  5
E8F5
330
E464
100
AcDbEntity
  8
1
  6
Continuous
100
AcDbCircle
 10
346.1
 20
182.75
 30
0.0
 40
2.25
100
AcDbArc
 50
90.0
 51
270.0
  0
LINE
  5
E8F6
330
E464
100
AcDbEntity
  8
1
  6
Continuous
100
AcDbLine
 10
346.8999999999998
 20
185.0
 30
0.0
 11
346.1
 21
185.0
 31
0.0
  0
LINE
  5
E8F7
330
E464
100
AcDbEntity
  8
4
  6
CENTER
100
AcDbLine
 10
346.4999999999998
 20
188.0
 30
0.0
 11
346.4999999999998
 21
177.5
 31
0.0
  0
LINE
  5
E8F8
330
E464
100
AcDbEntity
  8
1
  6
Continuous
100
AcDbLine
 10
346.8999999999998
 20
180.4999999999998
 30
0.0
 11
346.1
 21
180.4999999999998
 31
0.0
  0
ENDSEC
  0
SECTION
  2
OBJECTS
  0
DICTIONARY
  5
E452
330
0
100
AcDbDictionary
281
     1
  3
ACAD_CIP_PREVIOUS_PRODUCT_INFO
350
E958
  3
ACAD_COLOR
350
E93A
  3
ACAD_DETAILVIEWSTYLE
350
E953
  3
ACAD_GROUP
350
E453
  3
ACAD_LAYOUT
350
E45F
  3
ACAD_MATERIAL
350
E908
  3
ACAD_MLEADERSTYLE
350
E94F
  3
ACAD_MLINESTYLE
350
E45C
  3
ACAD_PLOTSETTINGS
350
E45E
  3
ACAD_PLOTSTYLENAME
350
E906
  3
ACAD_SCALELIST
350
E93D
  3
ACAD_SECTIONVIEWSTYLE
350
E951
  3
ACAD_TABLESTYLE
350
E93B
  3
ACAD_VISUALSTYLE
350
E921
  3
ACDB_RECOMPOSE_DATA
350
E976
  3
AcDbVariableDictionary
350
E969
  3
DWGPROPS
350
E977
  0
DICTIONARY
  5
E959
330
E456
100
AcDbDictionary
280
     1
281
     1
  3
ADSK_XREC_LAYER_RECONCILED
360
E95A
  0
DICTIONARY
  5
E95B
330
E46C
100
AcDbDictionary
280
     1
281
     1
  3
ADSK_XREC_LAYER_RECONCILED
360
E95C
  0
DICTIONARY
  5
E95D
330
E46D
100
AcDbDictionary
280
     1
281
     1
  3
ADSK_XREC_LAYER_RECONCILED
360
E95E
  0
DICTIONARY
  5
E95F
330
E46E
100
AcDbDictionary
280
     1
281
     1
  3
ADSK_XREC_LAYER_RECONCILED
360
E960
  0
DICTIONARY
  5
E961
330
E46F
100
AcDbDictionary
280
     1
281
     1
  3
ADSK_XREC_LAYER_RECONCILED
360
E962
  0
DICTIONARY
  5
E963
330
E470
100
AcDbDictionary
280
     1
281
     1
  3
ADSK_XREC_LAYER_RECONCILED
360
E964
  0
DICTIONARY
  5
E965
330
E471
100
AcDbDictionary
280
     1
281
     1
  3
ADSK_XREC_LAYER_RECONCILED
360
E966
  0
DICTIONARY
  5
E967
330
E472
100
AcDbDictionary
280
     1
281
     1
  3
ADSK_XREC_LAYER_RECONCILED
360
E968
  0
DICTIONARY
  5
E901
330
E464
100
AcDbDictionary
281
     1
  3
ACAD_LAYOUTSELFREF
350
E902
  0
DICTIONARY
  5
E8FF
330
E460
100
AcDbDictionary
281
     1
  3
ACAD_LAYOUTSELFREF
350
E900
  0
XRECORD
  5
E958
102
{ACAD_REACTORS
330
E452
102
}
330
E452
100
AcDbXrecord
280
     1
300
ACDLT
300
2014
300
ACDLT_F_S
  0
DICTIONARY
  5
E93A
102
{ACAD_REACTORS
330
E452
102
}
330
E452
100
AcDbDictionary
281
     1
  0
DICTIONARY
  5
E953
102
{ACAD_REACTORS
330
E452
102
}
330
E452
100
AcDbDictionary
281
     1
  3
Imperial24
350
E954
  0
DICTIONARY
  5
E453
102
{ACAD_REACTORS
330
E452
102
}
330
E452
100
AcDbDictionary
281
     1
  0
DICTIONARY
  5
E45F
102
{ACAD_REACTORS
330
E452
102
}
330
E452
100
AcDbDictionary
281
     1
  3
Model
350
E955
  3
レイアウト1
350
E956
  0
DICTIONARY
  5
E908
102
{ACAD_REACTORS
330
E452
102
}
330
E452
100
AcDbDictionary
281
     1
  3
ByBlock
350
E911
  3
ByLayer
350
E909
  3
Global
350
E919
  0
DICTIONARY
  5
E94F
102
{ACAD_REACTORS
330
E452
102
}
330
E452
100
AcDbDictionary
281
     1
  3
Standard
350
E950
  0
DICTIONARY
  5
E45C
102
{ACAD_REACTORS
330
E452
102
}
330
E452
100
AcDbDictionary
281
     1
  3
STANDARD
350
E45D
  0
DICTIONARY
  5
E45E
102
{ACAD_REACTORS
330
E452
102
}
330
E452
100
AcDbDictionary
281
     1
  0
ACDBDICTIONARYWDFLT
  5
E906
102
{ACAD_REACTORS
330
E452
102
}
330
E452
100
AcDbDictionary
281
     1
  3
Normal
350
E907
100
AcDbDictionaryWithDefault
340
E907
  0
DICTIONARY
  5
E93D
102
{ACAD_REACTORS
330
E452
102
}
330
E452
100
AcDbDictionary
281
     1
  3
A0
350
E93E
  3
A1
350
E93F
  3
A2
350
E940
  3
A3
350
E941
  3
A4
350
E942
  3
A5
350
E943
  3
A6
350
E944
  3
A7
350
E945
  3
A8
350
E946
  3
A9
350
E947
  3
B0
350
E948
  3
B1
350
E949
  3
B2
350
E94A
  3
B3
350
E94B
  3
B4
350
E94C
  3
B5
350
E94D
  3
B6
350
E94E
  0
DICTIONARY
  5
E951
102
{ACAD_REACTORS
330
E452
102
}
330
E452
100
AcDbDictionary
281
     1
  3
Imperial24
350
E952
  0
DICTIONARY
  5
E93B
102
{ACAD_REACTORS
330
E452
102
}
330
E452
100
AcDbDictionary
281
     1
  3
Standard
350
E93C
  0
DICTIONARY
  5
E921
102
{ACAD_REACTORS
330
E452
102
}
330
E452
100
AcDbDictionary
281
     1
  3
2dWireframe
350
E927
  3
Basic
350
E926
  3
Brighten
350
E92D
  3
ColorChange
350
E931
  3
Conceptual
350
E92A
  3
Dim
350
E92C
  3
EdgeColorOff
350
E939
  3
Facepattern
350
E930
  3
Flat
350
E922
  3
FlatWithEdges
350
E923
  3
Gouraud
350
E924
  3
GouraudWithEdges
350
E925
  3
Hidden
350
E929
  3
JitterOff
350
E937
  3
Linepattern
350
E92F
  3
OverhangOff
350
E938
  3
Realistic
350
E92B
  3
Shaded
350
E936
  3
Shaded with edges
350
E935
  3
Shades of Gray
350
E932
  3
Sketchy
350
E933
  3
Thicken
350
E92E
  3
Wireframe
350
E928
  3
X-Ray
350
E934
  0
XRECORD
  5
E976
102
{ACAD_REACTORS
330
E452
102
}
330
E452
100
AcDbXrecord
280
     1
 90
        1
330
E93C
  0
DICTIONARY
  5
E969
102
{ACAD_REACTORS
330
E452
102
}
330
E452
100
AcDbDictionary
281
     1
  3
CANNOSCALE
350
E96E
  3
CMLEADERSTYLE
350
E96B
  3
CTABLESTYLE
350
E96A
  3
CVIEWDETAILSTYLE
350
E96C
  3
CVIEWSECTIONSTYLE
350
E96D
  3
DIMASSOC
350
E971
  3
INDEXCTL
350
E970
  3
SORTENTS
350
E96F
  3
XCLIPFRAME
350
E972
  0
XRECORD
  5
E977
102
{ACAD_REACTORS
330
E452
102
}
330
E452
100
AcDbXrecord
280
     1
  1
DWGPROPS COOKIE
  2

  3

  4

  6

  7

  8
Yoshitsune
  9

300
=
301
=
302
=
303
=
304
=
305
=
306
=
307
=
308
=
309
=
 40
0.0000134490740741
 41
2451233.361922685
 42
2457192.659543322
  1

 90
        0
  0
XRECORD
  5
E95A
102
{ACAD_REACTORS
330
E959
102
}
330
E959
100
AcDbXrecord
280
     1
290
     1
  0
XRECORD
  5
E95C
102
{ACAD_REACTORS
330
E95B
102
}
330
E95B
100
AcDbXrecord
280
     1
290
     1
  0
XRECORD
  5
E95E
102
{ACAD_REACTORS
330
E95D
102
}
330
E95D
100
AcDbXrecord
280
     1
290
     1
  0
XRECORD
  5
E960
102
{ACAD_REACTORS
330
E95F
102
}
330
E95F
100
AcDbXrecord
280
     1
290
     1
  0
XRECORD
  5
E962
102
{ACAD_REACTORS
330
E961
102
}
330
E961
100
AcDbXrecord
280
     1
290
     1
  0
XRECORD
  5
E964
102
{ACAD_REACTORS
330
E963
102
}
330
E963
100
AcDbXrecord
280
     1
290
     1
  0
XRECORD
  5
E966
102
{ACAD_REACTORS
330
E965
102
}
330
E965
100
AcDbXrecord
280
     1
290
     1
  0
XRECORD
  5
E968
102
{ACAD_REACTORS
330
E967
102
}
330
E967
100
AcDbXrecord
280
     1
290
     1
  0
XRECORD
  5
E902
102
{ACAD_REACTORS
330
E901
102
}
330
E901
100
AcDbXrecord
280
     1
340
E464
  0
XRECORD
  5
E900
102
{ACAD_REACTORS
330
E8FF
102
}
330
E8FF
100
AcDbXrecord
280
     1
340
E460
  0
ACDBDETAILVIEWSTYLE
  5
E954
102
{ACAD_XDICTIONARY
360
E9AF
102
}
102
{ACAD_REACTORS
330
E953
102
}
330
E953
100
AcDbModelDocViewStyle
 70
     0
  3
Imperial24
290
     0
100
AcDbDetailViewStyle
 70
     0
 71
     0
 90
        3
 71
     1
340
E457
 40
0.24
340
0
 40
0.24
300

 40
0.36
280
     3
 71
     2
340
E45B
 90
       25
 71
     3
340
E457
 40
0.24
 90
        1
 40
0.75
 90
        1
300
%<\AcVar ViewType \f "%tc1">% %<\AcVar ViewDetailId>%\PSCALE %<\AcVar ViewScale \f "%sn">%
 71
     4
340
E45B
 90
       25
340
E45B
 90
       25
280
     0
  0
LAYOUT
  5
E955
102
{ACAD_XDICTIONARY
360
E9B1
102
}
102
{ACAD_REACTORS
330
E45F
102
}
330
E45F
100
AcDbPlotSettings
  1

  2
Canon LBP9100C
  4

  6

 40
0.0
 41
0.0
 42
0.0
 43
0.0
 44
0.0
 45
0.0
 46
0.0
 47
0.0
 48
0.0
 49
0.0
140
0.0
141
0.0
142
1.0
143
1.0
 70
  1712
 72
     0
 73
     0
 74
     0
  7

 75
     0
147
1.0
148
0.0
149
0.0
100
AcDbLayout
  1
Model
 70
     1
 71
     0
 10
0.0
 20
0.0
 11
12.0
 21
9.0
 12
0.0
 22
0.0
 32
0.0
 14
0.0
 24
0.0
 34
0.0
 15
0.0
 25
0.0
 35
0.0
146
0.0
 13
0.0
 23
0.0
 33
0.0
 16
1.0
 26
0.0
 36
0.0
 17
0.0
 27
1.0
 37
0.0
 76
     0
330
E464
331
E8FE
  0
LAYOUT
  5
E956
102
{ACAD_XDICTIONARY
360
E9B3
102
}
102
{ACAD_REACTORS
330
E45F
102
}
330
E45F
100
AcDbPlotSettings
  1

  2
Canon LBP9100C
  4

  6

 40
0.0
 41
0.0
 42
0.0
 43
0.0
 44
0.0
 45
0.0
 46
0.0
 47
0.0
 48
0.0
 49
0.0
140
0.0
141
0.0
142
1.0
143
1.0
 70
   688
 72
     0
 73
     0
 74
     5
  7

 75
    16
147
1.0
148
0.0
149
0.0
100
AcDbLayout
  1
レイアウト1
 70
     0
 71
     1
 10
0.0
 20
0.0
 11
420.0
 21
297.0
 12
0.0
 22
0.0
 32
0.0
 14
1.000000000000000E+20
 24
1.000000000000000E+20
 34
1.000000000000000E+20
 15
-1.000000000000000E+20
 25
-1.000000000000000E+20
 35
-1.000000000000000E+20
146
0.0
 13
0.0
 23
0.0
 33
0.0
 16
1.0
 26
0.0
 36
0.0
 17
0.0
 27
1.0
 37
0.0
 76
     0
330
E460
  0
MATERIAL
  5
E911
102
{ACAD_XDICTIONARY
360
E912
102
}
102
{ACAD_REACTORS
330
E908
102
}
330
E908
100
AcDbMaterial
  1
ByBlock
 72
     0
 43
0.0208333333333333
 43
0.0
 43
0.0
 43
0.0
 43
0.0
 43
0.0208333333333333
 43
0.0
 43
0.0
 43
0.0
 43
0.0
 43
1.0
 43
0.0
 43
0.0
 43
0.0
 43
0.0
 43
1.0
 77
     0
 47
0.0208333333333333
 47
0.0
 47
0.0
 47
0.0
 47
0.0
 47
0.0208333333333333
 47
0.0
 47
0.0
 47
0.0
 47
0.0
 47
1.0
 47
0.0
 47
0.0
 47
0.0
 47
0.0
 47
1.0
171
     0
 49
0.0208333333333333
 49
0.0
 49
0.0
 49
0.0
 49
0.0
 49
0.0208333333333333
 49
0.0
 49
0.0
 49
0.0
 49
0.0
 49
1.0
 49
0.0
 49
0.0
 49
0.0
 49
0.0
 49
1.0
175
     0
142
0.0208333333333333
142
0.0
142
0.0
142
0.0
142
0.0
142
0.0208333333333333
142
0.0
142
0.0
142
0.0
142
0.0
142
1.0
142
0.0
142
0.0
142
0.0
142
0.0
142
1.0
179
     0
144
0.0208333333333333
144
0.0
144
0.0
144
0.0
144
0.0
144
0.0208333333333333
144
0.0
144
0.0
144
0.0
144
0.0
144
1.0
144
0.0
144
0.0
144
0.0
144
0.0
144
1.0
147
0.0208333333333333
147
0.0
147
0.0
147
0.0
147
0.0
147
0.0208333333333333
147
0.0
147
0.0
147
0.0
147
0.0
147
1.0
147
0.0
147
0.0
147
0.0
147
0.0
147
1.0
  0
MATERIAL
  5
E909
102
{ACAD_XDICTIONARY
360
E90A
102
}
102
{ACAD_REACTORS
330
E908
102
}
330
E908
100
AcDbMaterial
  1
ByLayer
 72
     0
 43
0.0208333333333333
 43
0.0
 43
0.0
 43
0.0
 43
0.0
 43
0.0208333333333333
 43
0.0
 43
0.0
 43
0.0
 43
0.0
 43
1.0
 43
0.0
 43
0.0
 43
0.0
 43
0.0
 43
1.0
 77
     0
 47
0.0208333333333333
 47
0.0
 47
0.0
 47
0.0
 47
0.0
 47
0.0208333333333333
 47
0.0
 47
0.0
 47
0.0
 47
0.0
 47
1.0
 47
0.0
 47
0.0
 47
0.0
 47
0.0
 47
1.0
171
     0
 49
0.0208333333333333
 49
0.0
 49
0.0
 49
0.0
 49
0.0
 49
0.0208333333333333
 49
0.0
 49
0.0
 49
0.0
 49
0.0
 49
1.0
 49
0.0
 49
0.0
 49
0.0
 49
0.0
 49
1.0
175
     0
142
0.0208333333333333
142
0.0
142
0.0
142
0.0
142
0.0
142
0.0208333333333333
142
0.0
142
0.0
142
0.0
142
0.0
142
1.0
142
0.0
142
0.0
142
0.0
142
0.0
142
1.0
179
     0
144
0.0208333333333333
144
0.0
144
0.0
144
0.0
144
0.0
144
0.0208333333333333
144
0.0
144
0.0
144
0.0
144
0.0
144
1.0
144
0.0
144
0.0
144
0.0
144
0.0
144
1.0
147
0.0208333333333333
147
0.0
147
0.0
147
0.0
147
0.0
147
0.0208333333333333
147
0.0
147
0.0
147
0.0
147
0.0
147
1.0
147
0.0
147
0.0
147
0.0
147
0.0
147
1.0
  0
MATERIAL
  5
E919
102
{ACAD_XDICTIONARY
360
E91A
102
}
102
{ACAD_REACTORS
330
E908
102
}
330
E908
100
AcDbMaterial
  1
Global
 72
     0
 43
0.0208333333333333
 43
0.0
 43
0.0
 43
0.0
 43
0.0
 43
0.0208333333333333
 43
0.0
 43
0.0
 43
0.0
 43
0.0
 43
1.0
 43
0.0
 43
0.0
 43
0.0
 43
0.0
 43
1.0
 77
     0
 47
0.0208333333333333
 47
0.0
 47
0.0
 47
0.0
 47
0.0
 47
0.0208333333333333
 47
0.0
 47
0.0
 47
0.0
 47
0.0
 47
1.0
 47
0.0
 47
0.0
 47
0.0
 47
0.0
 47
1.0
171
     0
 49
0.0208333333333333
 49
0.0
 49
0.0
 49
0.0
 49
0.0
 49
0.0208333333333333
 49
0.0
 49
0.0
 49
0.0
 49
0.0
 49
1.0
 49
0.0
 49
0.0
 49
0.0
 49
0.0
 49
1.0
175
     0
142
0.0208333333333333
142
0.0
142
0.0
142
0.0
142
0.0
142
0.0208333333333333
142
0.0
142
0.0
142
0.0
142
0.0
142
1.0
142
0.0
142
0.0
142
0.0
142
0.0
142
1.0
179
     0
144
0.0208333333333333
144
0.0
144
0.0
144
0.0
144
0.0
144
0.0208333333333333
144
0.0
144
0.0
144
0.0
144
0.0
144
1.0
144
0.0
144
0.0
144
0.0
144
0.0
144
1.0
147
0.0208333333333333
147
0.0
147
0.0
147
0.0
147
0.0
147
0.0208333333333333
147
0.0
147
0.0
147
0.0
147
0.0
147
1.0
147
0.0
147
0.0
147
0.0
147
0.0
147
1.0
  0
MLEADERSTYLE
  5
E950
102
{ACAD_REACTORS
330
E94F
102
}
330
E94F
100
AcDbMLeaderStyle
170
     2
171
     1
172
     0
 90
        2
 40
0.0
 41
0.0
173
     1
 91
-1056964608
340
E459
 92
       -2
290
     1
 42
0.09
291
     1
 43
0.36
  3
Standard
 44
0.18
300

342
E457
174
     1
178
     6
175
     1
176
     0
 93
-1056964608
 45
0.18
292
     0
297
     0
 46
0.18
 94
-1056964608
 47
1.0
 49
1.0
140
1.0
293
     1
141
0.0
294
     1
177
     0
142
1.0
295
     0
296
     0
143
0.125
1001
ACAD_MLEADERVER
1070
     2
  0
MLINESTYLE
  5
E45D
102
{ACAD_REACTORS
330
E45C
102
}
330
E45C
100
AcDbMlineStyle
  2
STANDARD
 70
     0
  3

 62
   256
 51
90.0
 52
90.0
 71
     2
 49
0.5
 62
   256
  6
BYLAYER
 49
-0.5
 62
   256
  6
BYLAYER
  0
ACDBPLACEHOLDER
  5
E907
102
{ACAD_REACTORS
330
E906
102
}
330
E906
  0
SCALE
  5
E93E
102
{ACAD_REACTORS
330
E93D
102
}
330
E93D
100
AcDbScale
 70
     0
300
1:1
140
1.0
141
1.0
290
     1
  0
SCALE
  5
E93F
102
{ACAD_REACTORS
330
E93D
102
}
330
E93D
100
AcDbScale
 70
     0
300
1/128" = 1'-0"
140
0.0078125
141
12.0
290
     0
  0
SCALE
  5
E940
102
{ACAD_REACTORS
330
E93D
102
}
330
E93D
100
AcDbScale
 70
     0
300
1/64" = 1'-0"
140
0.015625
141
12.0
290
     0
  0
SCALE
  5
E941
102
{ACAD_REACTORS
330
E93D
102
}
330
E93D
100
AcDbScale
 70
     0
300
1/32" = 1'-0"
140
0.03125
141
12.0
290
     0
  0
SCALE
  5
E942
102
{ACAD_REACTORS
330
E93D
102
}
330
E93D
100
AcDbScale
 70
     0
300
1/16" = 1'-0"
140
0.0625
141
12.0
290
     0
  0
SCALE
  5
E943
102
{ACAD_REACTORS
330
E93D
102
}
330
E93D
100
AcDbScale
 70
     0
300
3/32" = 1'-0"
140
0.09375
141
12.0
290
     0
  0
SCALE
  5
E944
102
{ACAD_REACTORS
330
E93D
102
}
330
E93D
100
AcDbScale
 70
     0
300
1/8" = 1'-0"
140
0.125
141
12.0
290
     0
  0
SCALE
  5
E945
102
{ACAD_REACTORS
330
E93D
102
}
330
E93D
100
AcDbScale
 70
     0
300
3/16" = 1'-0"
140
0.1875
141
12.0
290
     0
  0
SCALE
  5
E946
102
{ACAD_REACTORS
330
E93D
102
}
330
E93D
100
AcDbScale
 70
     0
300
1/4" = 1'-0"
140
0.25
141
12.0
290
     0
  0
SCALE
  5
E947
102
{ACAD_REACTORS
330
E93D
102
}
330
E93D
100
AcDbScale
 70
     0
300
3/8" = 1'-0"
140
0.375
141
12.0
290
     0
  0
SCALE
  5
E948
102
{ACAD_REACTORS
330
E93D
102
}
330
E93D
100
AcDbScale
 70
     0
300
1/2" = 1'-0"
140
0.5
141
12.0
290
     0
  0
SCALE
  5
E949
102
{ACAD_REACTORS
330
E93D
102
}
330
E93D
100
AcDbScale
 70
     0
300
3/4" = 1'-0"
140
0.75
141
12.0
290
     0
  0
SCALE
  5
E94A
102
{ACAD_REACTORS
330
E93D
102
}
330
E93D
100
AcDbScale
 70
     0
300
1" = 1'-0"
140
1.0
141
12.0
290
     0
  0
SCALE
  5
E94B
102
{ACAD_REACTORS
330
E93D
102
}
330
E93D
100
AcDbScale
 70
     0
300
1-1/2" = 1'-0"
140
1.5
141
12.0
290
     0
  0
SCALE
  5
E94C
102
{ACAD_REACTORS
330
E93D
102
}
330
E93D
100
AcDbScale
 70
     0
300
3" = 1'-0"
140
3.0
141
12.0
290
     0
  0
SCALE
  5
E94D
102
{ACAD_REACTORS
330
E93D
102
}
330
E93D
100
AcDbScale
 70
     0
300
6" = 1'-0"
140
6.0
141
12.0
290
     0
  0
SCALE
  5
E94E
102
{ACAD_REACTORS
330
E93D
102
}
330
E93D
100
AcDbScale
 70
     0
300
1'-0" = 1'-0"
140
12.0
141
12.0
290
     0
  0
ACDBSECTIONVIEWSTYLE
  5
E952
102
{ACAD_XDICTIONARY
360
E9AD
102
}
102
{ACAD_REACTORS
330
E951
102
}
330
E951
100
AcDbModelDocViewStyle
 70
     0
  3
Imperial24
290
     0
100
AcDbSectionViewStyle
 70
     0
 71
     0
 90
       78
 71
     1
340
E457
 40
0.24
340
0
340
0
 40
0.24
300
I, O, Q, S, X, Z
 40
0.48
 90
        3
 40
0.18
 90
        1
 71
     2
340
E45B
 90
       25
340
E45B
 90
       50
 40
0.24
 40
0.0
 40
0.24
 71
     3
340
E457
 40
0.24
 90
        1
 40
0.75
 90
        1
300
%<\AcVar ViewType \f "%tc1">% %<\AcVar ViewSectionStartId>%-%<\AcVar ViewSectionEndId>%\PSCALE %<\AcVar ViewScale \f "%sn">%
 71
     4
300
ANSI31
 40
1.0
 90
        0
290
     0
290
     0
 90
        6
 40
0.0
 40
1.570796326794896
 40
0.2617993877991494
 40
1.308996938995747
 40
-0.2617993877991494
 40
1.832595714594046
  0
TABLESTYLE
  5
E93C
102
{ACAD_XDICTIONARY
360
E974
102
}
102
{ACAD_REACTORS
330
E93B
102
}
330
E93B
100
AcDbTableStyle
  3
Standard
 70
     0
 71
     0
 40
0.06
 41
0.06
280
     0
281
     0
  7
STANDARD
140
0.18
170
     2
 62
     0
 63
     7
283
     0
274
    -2
284
     1
 64
     0
275
    -2
285
     1
 65
     0
276
    -2
286
     1
 66
     0
277
    -2
287
     1
 67
     0
278
    -2
288
     1
 68
     0
279
    -2
289
     1
 69
     0
  7
STANDARD
140
0.25
170
     5
 62
     0
 63
     7
283
     0
274
    -2
284
     1
 64
     0
275
    -2
285
     1
 65
     0
276
    -2
286
     1
 66
     0
277
    -2
287
     1
 67
     0
278
    -2
288
     1
 68
     0
279
    -2
289
     1
 69
     0
  7
STANDARD
140
0.18
170
     5
 62
     0
 63
     7
283
     0
274
    -2
284
     1
 64
     0
275
    -2
285
     1
 65
     0
276
    -2
286
     1
 66
     0
277
    -2
287
     1
 67
     0
278
    -2
288
     1
 68
     0
279
    -2
289
     1
 69
     0
  0
VISUALSTYLE
  5
E927
102
{ACAD_XDICTIONARY
360
E985
102
}
102
{ACAD_REACTORS
330
E921
102
}
330
E921
100
AcDbVisualStyle
  2
2dWireframe
 70
     4
 71
     0
 72
     2
 73
     0
 90
        0
 40
-0.6
 41
-30.0
 62
     5
 63
     7
 74
     1
 91
        4
 64
     7
 65
   257
 75
     1
175
     1
 42
1.0
 92
        0
 66
   257
 43
1.0
 76
     1
 77
     6
 78
     2
 67
     7
 79
     5
170
     0
171
     0
290
     0
174
     0
 93
        1
 44
0.0
173
     0
291
     0
 45
0.0
1001
ACAD
1000
AcDbSavedByObjectVersion
1070
     0
  0
VISUALSTYLE
  5
E926
102
{ACAD_XDICTIONARY
360
E983
102
}
102
{ACAD_REACTORS
330
E921
102
}
330
E921
100
AcDbVisualStyle
  2
Basic
 70
     7
 71
     1
 72
     0
 73
     1
 90
        0
 40
-0.6
 41
-30.0
 62
     5
 63
     7
 74
     0
 91
        4
 64
     7
 65
   257
 75
     1
175
     1
 42
1.0
 92
        8
 66
     7
 43
1.0
 76
     1
 77
     6
 78
     2
 67
     7
 79
     5
170
     0
171
     0
290
     0
174
     0
 93
        1
 44
0.0
173
     0
291
     1
 45
0.0
1001
ACAD
1000
AcDbSavedByObjectVersion
1070
     0
  0
VISUALSTYLE
  5
E92D
102
{ACAD_XDICTIONARY
360
E991
102
}
102
{ACAD_REACTORS
330
E921
102
}
330
E921
100
AcDbVisualStyle
  2
Brighten
 70
    12
 71
     2
 72
     2
 73
     0
 90
        0
 40
-0.6
 41
-30.0
 62
     5
 63
     7
 74
     1
 91
        4
 64
     7
 65
   257
 75
     1
175
     1
 42
1.0
 92
        8
 66
     7
 43
1.0
 76
     1
 77
     6
 78
     2
 67
     7
 79
     5
170
     0
171
     0
290
     0
174
     0
 93
        1
 44
50.0
173
     0
291
     1
 45
0.0
1001
ACAD
1000
AcDbSavedByObjectVersion
1070
     0
  0
VISUALSTYLE
  5
E931
102
{ACAD_XDICTIONARY
360
E999
102
}
102
{ACAD_REACTORS
330
E921
102
}
330
E921
100
AcDbVisualStyle
  2
ColorChange
 70
    16
 71
     2
 72
     2
 73
     3
 90
        0
 40
-0.6
 41
-30.0
 62
     5
 63
     8
 74
     1
 91
        4
 64
     7
 65
   257
 75
     1
175
     1
 42
1.0
 92
        8
 66
     8
 43
1.0
 76
     1
 77
     6
 78
     2
 67
     7
 79
     5
170
     0
171
     0
290
     0
174
     0
 93
        1
 44
0.0
173
     0
291
     1
 45
0.0
1001
ACAD
1000
AcDbSavedByObjectVersion
1070
     0
  0
VISUALSTYLE
  5
E92A
102
{ACAD_XDICTIONARY
360
E98B
102
}
102
{ACAD_REACTORS
330
E921
102
}
330
E921
100
AcDbVisualStyle
  2
Conceptual
 70
     9
 71
     3
 72
     2
 73
     0
 90
        0
 40
-0.6
 41
-30.0
 62
     5
 63
     7
 74
     2
 91
        2
 64
     7
 65
   257
 75
     1
175
     1
 42
179.0
 92
        8
 66
     7
 43
1.0
 76
     1
 77
     6
 78
     2
 67
     7
 79
     3
170
     0
171
     0
290
     0
174
     0
 93
        1
 44
0.0
173
     0
291
     0
 45
0.0
1001
ACAD
1000
AcDbSavedByObjectVersion
1070
     0
  0
VISUALSTYLE
  5
E92C
102
{ACAD_XDICTIONARY
360
E98F
102
}
102
{ACAD_REACTORS
330
E921
102
}
330
E921
100
AcDbVisualStyle
  2
Dim
 70
    11
 71
     2
 72
     2
 73
     0
 90
        0
 40
-0.6
 41
-30.0
 62
     5
 63
     7
 74
     1
 91
        4
 64
     7
 65
   257
 75
     1
175
     1
 42
1.0
 92
        8
 66
     7
 43
1.0
 76
     1
 77
     6
 78
     2
 67
     7
 79
     5
170
     0
171
     0
290
     0
174
     0
 93
        1
 44
-50.0
173
     0
291
     1
 45
0.0
1001
ACAD
1000
AcDbSavedByObjectVersion
1070
     0
  0
VISUALSTYLE
  5
E939
102
{ACAD_XDICTIONARY
360
E9A9
102
}
102
{ACAD_REACTORS
330
E921
102
}
330
E921
100
AcDbVisualStyle
  2
EdgeColorOff
 70
    22
 71
     2
 72
     2
 73
     0
 90
        0
 40
-0.6
 41
-30.0
 62
     5
 63
     7
 74
     1
 91
        4
 64
     7
 65
   257
 75
     1
175
     1
 42
1.0
 92
        8
 66
     7
 43
1.0
 76
     1
 77
     6
 78
     2
 67
     7
 79
     5
170
     0
171
     0
290
     0
174
     0
 93
        1
 44
0.0
173
     0
291
     1
 45
0.0
1001
ACAD
1000
AcDbSavedByObjectVersion
1070
     0
  0
VISUALSTYLE
  5
E930
102
{ACAD_XDICTIONARY
360
E997
102
}
102
{ACAD_REACTORS
330
E921
102
}
330
E921
100
AcDbVisualStyle
  2
Facepattern
 70
    15
 71
     2
 72
     2
 73
     0
 90
        0
 40
-0.6
 41
-30.0
 62
     5
 63
     7
 74
     1
 91
        4
 64
     7
 65
   257
 75
     1
175
     1
 42
1.0
 92
        8
 66
     7
 43
1.0
 76
     1
 77
     6
 78
     2
 67
     7
 79
     5
170
     0
171
     0
290
     0
174
     0
 93
        1
 44
0.0
173
     0
291
     1
 45
0.0
1001
ACAD
1000
AcDbSavedByObjectVersion
1070
     0
  0
VISUALSTYLE
  5
E922
102
{ACAD_XDICTIONARY
360
E97B
102
}
102
{ACAD_REACTORS
330
E921
102
}
330
E921
100
AcDbVisualStyle
  2
Flat
 70
     0
 71
     2
 72
     1
 73
     1
 90
        2
 40
-0.6
 41
30.0
 62
     5
 63
     7
 74
     0
 91
        0
 64
     7
 65
   257
 75
     1
175
     1
 42
1.0
 92
        8
 66
     7
 43
1.0
 76
     1
 77
     6
 78
     2
 67
     7
 79
     5
170
     0
171
     0
290
     0
174
     0
 93
       13
 44
0.0
173
     0
291
     1
 45
0.0
1001
ACAD
1000
AcDbSavedByObjectVersion
1070
     0
  0
VISUALSTYLE
  5
E923
102
{ACAD_XDICTIONARY
360
E97D
102
}
102
{ACAD_REACTORS
330
E921
102
}
330
E921
100
AcDbVisualStyle
  2
FlatWithEdges
 70
     1
 71
     2
 72
     1
 73
     1
 90
        2
 40
-0.6
 41
30.0
 62
     5
 63
     7
 74
     1
 91
        0
 64
     7
 65
   257
 75
     1
175
     1
 42
1.0
 92
        0
 66
   257
 43
1.0
 76
     1
 77
     6
 78
     2
 67
     7
 79
     5
170
     0
171
     0
290
     0
174
     0
 93
       13
 44
0.0
173
     0
291
     1
 45
0.0
1001
ACAD
1000
AcDbSavedByObjectVersion
1070
     0
  0
VISUALSTYLE
  5
E924
102
{ACAD_XDICTIONARY
360
E97F
102
}
102
{ACAD_REACTORS
330
E921
102
}
330
E921
100
AcDbVisualStyle
  2
Gouraud
 70
     2
 71
     2
 72
     2
 73
     1
 90
        2
 40
-0.6
 41
30.0
 62
     5
 63
     7
 74
     0
 91
        0
 64
     7
 65
   257
 75
     1
175
     1
 42
1.0
 92
        0
 66
     7
 43
1.0
 76
     1
 77
     6
 78
     2
 67
     7
 79
     5
170
     0
171
     0
290
     0
174
     0
 93
       13
 44
0.0
173
     0
291
     1
 45
0.0
1001
ACAD
1000
AcDbSavedByObjectVersion
1070
     0
  0
VISUALSTYLE
  5
E925
102
{ACAD_XDICTIONARY
360
E981
102
}
102
{ACAD_REACTORS
330
E921
102
}
330
E921
100
AcDbVisualStyle
  2
GouraudWithEdges
 70
     3
 71
     2
 72
     2
 73
     1
 90
        2
 40
-0.6
 41
30.0
 62
     5
 63
     7
 74
     1
 91
        0
 64
     7
 65
   257
 75
     1
175
     1
 42
1.0
 92
        0
 66
   257
 43
1.0
 76
     1
 77
     6
 78
     2
 67
     7
 79
     5
170
     0
171
     0
290
     0
174
     0
 93
       13
 44
0.0
173
     0
291
     1
 45
0.0
1001
ACAD
1000
AcDbSavedByObjectVersion
1070
     0
  0
VISUALSTYLE
  5
E929
102
{ACAD_XDICTIONARY
360
E989
102
}
102
{ACAD_REACTORS
330
E921
102
}
330
E921
100
AcDbVisualStyle
  2
Hidden
 70
     6
 71
     1
 72
     2
 73
     2
 90
        0
 40
-0.6
 41
-30.0
 62
     5
 63
     7
 74
     2
 91
        2
 64
     7
 65
   257
 75
     2
175
     1
 42
40.0
 92
        0
 66
   257
 43
1.0
 76
     1
 77
     6
 78
     2
 67
     7
 79
     3
170
     0
171
     0
290
     0
174
     0
 93
        1
 44
0.0
173
     0
291
     0
 45
0.0
1001
ACAD
1000
AcDbSavedByObjectVersion
1070
     0
  0
VISUALSTYLE
  5
E937
102
{ACAD_XDICTIONARY
360
E9A5
102
}
102
{ACAD_REACTORS
330
E921
102
}
330
E921
100
AcDbVisualStyle
  2
JitterOff
 70
    20
 71
     2
 72
     2
 73
     0
 90
        0
 40
-0.6
 41
-30.0
 62
     5
 63
     7
 74
     1
 91
        4
 64
     7
 65
   257
 75
     1
175
     1
 42
1.0
 92
       10
 66
     7
 43
1.0
 76
     1
 77
     6
 78
     2
 67
     7
 79
     5
170
     0
171
     0
290
     0
174
     0
 93
        1
 44
0.0
173
     0
291
     1
 45
0.0
1001
ACAD
1000
AcDbSavedByObjectVersion
1070
     0
  0
VISUALSTYLE
  5
E92F
102
{ACAD_XDICTIONARY
360
E995
102
}
102
{ACAD_REACTORS
330
E921
102
}
330
E921
100
AcDbVisualStyle
  2
Linepattern
 70
    14
 71
     2
 72
     2
 73
     0
 90
        0
 40
-0.6
 41
-30.0
 62
     5
 63
     7
 74
     1
 91
        4
 64
     7
 65
   257
 75
     7
175
     7
 42
1.0
 92
        8
 66
     7
 43
1.0
 76
     1
 77
     6
 78
     2
 67
     7
 79
     5
170
     0
171
     0
290
     0
174
     0
 93
        1
 44
0.0
173
     0
291
     1
 45
0.0
1001
ACAD
1000
AcDbSavedByObjectVersion
1070
     0
  0
VISUALSTYLE
  5
E938
102
{ACAD_XDICTIONARY
360
E9A7
102
}
102
{ACAD_REACTORS
330
E921
102
}
330
E921
100
AcDbVisualStyle
  2
OverhangOff
 70
    21
 71
     2
 72
     2
 73
     0
 90
        0
 40
-0.6
 41
-30.0
 62
     5
 63
     7
 74
     1
 91
        4
 64
     7
 65
   257
 75
     1
175
     1
 42
1.0
 92
        9
 66
     7
 43
1.0
 76
     1
 77
     6
 78
     2
 67
     7
 79
     5
170
     0
171
     0
290
     0
174
     0
 93
        1
 44
0.0
173
     0
291
     1
 45
0.0
1001
ACAD
1000
AcDbSavedByObjectVersion
1070
     0
  0
VISUALSTYLE
  5
E92B
102
{ACAD_XDICTIONARY
360
E98D
102
}
102
{ACAD_REACTORS
330
E921
102
}
330
E921
100
AcDbVisualStyle
  2
Realistic
 70
     8
 71
     2
 72
     3
 73
     0
 90
        2
 40
-0.6
 41
30.0
 62
     5
 63
     7
 74
     0
 91
        0
 64
     7
 65
   257
 75
     1
175
     1
 42
1.0
 92
        8
 66
   257
 43
1.0
 76
     1
 77
     6
 78
     2
 67
     7
 79
     3
170
     0
171
     0
290
     0
174
     0
 93
       13
 44
0.0
173
     0
291
     0
 45
0.0
1001
ACAD
1000
AcDbSavedByObjectVersion
1070
     0
  0
VISUALSTYLE
  5
E936
102
{ACAD_XDICTIONARY
360
E9A3
102
}
102
{ACAD_REACTORS
330
E921
102
}
330
E921
100
AcDbVisualStyle
  2
Shaded
 70
    27
 71
     2
 72
     2
 73
     1
 90
        2
 40
-0.6
 41
30.0
 62
     5
 63
     7
 74
     0
 91
        4
 64
     7
 65
   257
 75
     1
175
     1
 42
1.0
 92
        8
 66
   257
 43
1.0
 76
     1
 77
     6
 78
     2
 67
     8
 79
     3
170
     0
171
     0
290
     0
174
     0
 93
        5
 44
0.0
173
     0
291
     0
 45
0.0
1001
ACAD
1000
AcDbSavedByObjectVersion
1070
     0
  0
VISUALSTYLE
  5
E935
102
{ACAD_XDICTIONARY
360
E9A1
102
}
102
{ACAD_REACTORS
330
E921
102
}
330
E921
100
AcDbVisualStyle
  2
Shaded with edges
 70
    26
 71
     2
 72
     2
 73
     1
 90
        2
 40
-0.6
 41
30.0
 62
     5
 63
     7
 74
     1
 91
       10
 64
     7
 65
   257
 75
     2
175
     1
 42
1.0
 92
        8
 66
   257
 43
1.0
 76
     1
 77
     6
 78
     2
 67
     7
 79
     3
170
     0
171
     0
290
     0
174
     0
 93
        5
 44
0.0
173
     0
291
     0
 45
0.0
1001
ACAD
1000
AcDbSavedByObjectVersion
1070
     0
  0
VISUALSTYLE
  5
E932
102
{ACAD_XDICTIONARY
360
E99B
102
}
102
{ACAD_REACTORS
330
E921
102
}
330
E921
100
AcDbVisualStyle
  2
Shades of Gray
 70
    23
 71
     2
 72
     2
 73
     3
 90
        0
 40
-0.6
 41
-30.0
 62
     5
 63
     7
 74
     2
 91
        2
 64
     7
 65
     7
 75
     1
175
     1
 42
40.0
 92
        8
 66
     7
 43
1.0
 76
     1
 77
     6
 78
     2
 67
     7
 79
     3
170
     0
171
     0
290
     0
174
     0
 93
        1
 44
0.0
173
     0
291
     0
 45
0.0
1001
ACAD
1000
AcDbSavedByObjectVersion
1070
     0
  0
VISUALSTYLE
  5
E933
102
{ACAD_XDICTIONARY
360
E99D
102
}
102
{ACAD_REACTORS
330
E921
102
}
330
E921
100
AcDbVisualStyle
  2
Sketchy
 70
    24
 71
     1
 72
     2
 73
     2
 90
        0
 40
-0.6
 41
-30.0
 62
     5
 63
     7
 74
     2
 91
        2
 64
     7
 65
     7
 75
     1
175
     1
 42
40.0
 92
       11
 66
     7
 43
1.0
 76
     1
 77
     6
 78
     2
 67
     7
 79
     6
170
     0
171
     0
290
     0
174
     0
 93
        1
 44
0.0
173
     0
291
     0
 45
0.0
1001
ACAD
1000
AcDbSavedByObjectVersion
1070
     0
  0
VISUALSTYLE
  5
E92E
102
{ACAD_XDICTIONARY
360
E993
102
}
102
{ACAD_REACTORS
330
E921
102
}
330
E921
100
AcDbVisualStyle
  2
Thicken
 70
    13
 71
     2
 72
     2
 73
     0
 90
        0
 40
-0.6
 41
-30.0
 62
     5
 63
     7
 74
     1
 91
        4
 64
     7
 65
   257
 75
     1
175
     1
 42
1.0
 92
       12
 66
     7
 43
1.0
 76
     1
 77
     6
 78
     2
 67
     7
 79
     5
170
     0
171
     0
290
     0
174
     0
 93
        1
 44
0.0
173
     0
291
     1
 45
0.0
1001
ACAD
1000
AcDbSavedByObjectVersion
1070
     0
  0
VISUALSTYLE
  5
E928
102
{ACAD_XDICTIONARY
360
E987
102
}
102
{ACAD_REACTORS
330
E921
102
}
330
E921
100
AcDbVisualStyle
  2
Wireframe
 70
     5
 71
     0
 72
     2
 73
     0
 90
        0
 40
-0.6
 41
-30.0
 62
     5
 63
     7
 74
     1
 91
        4
 64
     7
 65
   257
 75
     1
175
     1
 42
1.0
 92
        0
 66
   257
 43
1.0
 76
     1
 77
     6
 78
     2
 67
     7
 79
     3
170
     0
171
     0
290
     0
174
     0
 93
        1
 44
0.0
173
     0
291
     0
 45
0.0
1001
ACAD
1000
AcDbSavedByObjectVersion
1070
     0
  0
VISUALSTYLE
  5
E934
102
{ACAD_XDICTIONARY
360
E99F
102
}
102
{ACAD_REACTORS
330
E921
102
}
330
E921
100
AcDbVisualStyle
  2
X-Ray
 70
    25
 71
     2
 72
     2
 73
     1
 90
        1
 40
0.5
 41
-30.0
 62
     5
 63
     7
 74
     1
 91
        0
 64
     7
 65
   257
 75
     1
175
     1
 42
1.0
 92
        8
 66
     7
 43
1.0
 76
     1
 77
     6
 78
     2
 67
     7
 79
     3
170
     0
171
     0
290
     0
174
     0
 93
       13
 44
0.0
173
     0
291
     0
 45
0.0
1001
ACAD
1000
AcDbSavedByObjectVersion
1070
     0
  0
DICTIONARYVAR
  5
E96E
102
{ACAD_REACTORS
330
E969
102
}
330
E969
100
DictionaryVariables
280
     0
  1
1:1
  0
DICTIONARYVAR
  5
E96B
102
{ACAD_REACTORS
330
E969
102
}
330
E969
100
DictionaryVariables
280
     0
  1
STANDARD
  0
DICTIONARYVAR
  5
E96A
102
{ACAD_REACTORS
330
E969
102
}
330
E969
100
DictionaryVariables
280
     0
  1
STANDARD
  0
DICTIONARYVAR
  5
E96C
102
{ACAD_REACTORS
330
E969
102
}
330
E969
100
DictionaryVariables
280
     0
  1
Imperial24
  0
DICTIONARYVAR
  5
E96D
102
{ACAD_REACTORS
330
E969
102
}
330
E969
100
DictionaryVariables
280
     0
  1
Imperial24
  0
DICTIONARYVAR
  5
E971
102
{ACAD_REACTORS
330
E969
102
}
330
E969
100
DictionaryVariables
280
     0
  1
1
  0
DICTIONARYVAR
  5
E970
102
{ACAD_REACTORS
330
E969
102
}
330
E969
100
DictionaryVariables
280
     0
  1
0
  0
DICTIONARYVAR
  5
E96F
102
{ACAD_REACTORS
330
E969
102
}
330
E969
100
DictionaryVariables
280
     0
  1
127
  0
DICTIONARYVAR
  5
E972
102
{ACAD_REACTORS
330
E969
102
}
330
E969
100
DictionaryVariables
280
     0
  1
2
  0
DICTIONARY
  5
E9AF
330
E954
100
AcDbDictionary
280
     1
281
     1
  3
ACAD_XREC_ROUNDTRIP
360
E9B0
  0
DICTIONARY
  5
E9B1
330
E955
100
AcDbDictionary
280
     1
281
     1
  3
ACAD_XREC_ROUNDTRIP
360
E9B2
  0
DICTIONARY
  5
E9B3
330
E956
100
AcDbDictionary
280
     1
281
     1
  3
ACAD_XREC_ROUNDTRIP
360
E9B4
  0
DICTIONARY
  5
E912
330
E911
100
AcDbDictionary
280
     1
281
     1
  3
ACAD_XREC_ROUNDTRIP
360
E979
  3
BUMPTILE
360
E914
  3
DIFFUSETILE
360
E913
  3
OPACITYTILE
360
E917
  3
REFLECTIONTILE
360
E916
  3
REFRACTIONTILE
360
E918
  3
SPECULARTILE
360
E915
  0
DICTIONARY
  5
E90A
330
E909
100
AcDbDictionary
280
     1
281
     1
  3
ACAD_XREC_ROUNDTRIP
360
E978
  3
BUMPTILE
360
E90C
  3
DIFFUSETILE
360
E90B
  3
OPACITYTILE
360
E90F
  3
REFLECTIONTILE
360
E90E
  3
REFRACTIONTILE
360
E910
  3
SPECULARTILE
360
E90D
  0
DICTIONARY
  5
E91A
330
E919
100
AcDbDictionary
280
     1
281
     1
  3
ACAD_XREC_ROUNDTRIP
360
E97A
  3
BUMPTILE
360
E91C
  3
DIFFUSETILE
360
E91B
  3
OPACITYTILE
360
E91F
  3
REFLECTIONTILE
360
E91E
  3
REFRACTIONTILE
360
E920
  3
SPECULARTILE
360
E91D
  0
DICTIONARY
  5
E9AD
330
E952
100
AcDbDictionary
280
     1
281
     1
  3
ACAD_XREC_ROUNDTRIP
360
E9AE
  0
DICTIONARY
  5
E974
330
E93C
100
AcDbDictionary
280
     1
281
     1
  3
ACAD_ROUNDTRIP_2008_TABLESTYLE_CELLSTYLEMAP
360
E975
  3
ACAD_XREC_ROUNDTRIP
360
E9AB
  0
DICTIONARY
  5
E985
330
E927
100
AcDbDictionary
280
     1
281
     1
  3
ACAD_XREC_ROUNDTRIP
360
E986
  0
DICTIONARY
  5
E983
330
E926
100
AcDbDictionary
280
     1
281
     1
  3
ACAD_XREC_ROUNDTRIP
360
E984
  0
DICTIONARY
  5
E991
330
E92D
100
AcDbDictionary
280
     1
281
     1
  3
ACAD_XREC_ROUNDTRIP
360
E992
  0
DICTIONARY
  5
E999
330
E931
100
AcDbDictionary
280
     1
281
     1
  3
ACAD_XREC_ROUNDTRIP
360
E99A
  0
DICTIONARY
  5
E98B
330
E92A
100
AcDbDictionary
280
     1
281
     1
  3
ACAD_XREC_ROUNDTRIP
360
E98C
  0
DICTIONARY
  5
E98F
330
E92C
100
AcDbDictionary
280
     1
281
     1
  3
ACAD_XREC_ROUNDTRIP
360
E990
  0
DICTIONARY
  5
E9A9
330
E939
100
AcDbDictionary
280
     1
281
     1
  3
ACAD_XREC_ROUNDTRIP
360
E9AA
  0
DICTIONARY
  5
E997
330
E930
100
AcDbDictionary
280
     1
281
     1
  3
ACAD_XREC_ROUNDTRIP
360
E998
  0
DICTIONARY
  5
E97B
330
E922
100
AcDbDictionary
280
     1
281
     1
  3
ACAD_XREC_ROUNDTRIP
360
E97C
  0
DICTIONARY
  5
E97D
330
E923
100
AcDbDictionary
280
     1
281
     1
  3
ACAD_XREC_ROUNDTRIP
360
E97E
  0
DICTIONARY
  5
E97F
330
E924
100
AcDbDictionary
280
     1
281
     1
  3
ACAD_XREC_ROUNDTRIP
360
E980
  0
DICTIONARY
  5
E981
330
E925
100
AcDbDictionary
280
     1
281
     1
  3
ACAD_XREC_ROUNDTRIP
360
E982
  0
DICTIONARY
  5
E989
330
E929
100
AcDbDictionary
280
     1
281
     1
  3
ACAD_XREC_ROUNDTRIP
360
E98A
  0
DICTIONARY
  5
E9A5
330
E937
100
AcDbDictionary
280
     1
281
     1
  3
ACAD_XREC_ROUNDTRIP
360
E9A6
  0
DICTIONARY
  5
E995
330
E92F
100
AcDbDictionary
280
     1
281
     1
  3
ACAD_XREC_ROUNDTRIP
360
E996
  0
DICTIONARY
  5
E9A7
330
E938
100
AcDbDictionary
280
     1
281
     1
  3
ACAD_XREC_ROUNDTRIP
360
E9A8
  0
DICTIONARY
  5
E98D
330
E92B
100
AcDbDictionary
280
     1
281
     1
  3
ACAD_XREC_ROUNDTRIP
360
E98E
  0
DICTIONARY
  5
E9A3
330
E936
100
AcDbDictionary
280
     1
281
     1
  3
ACAD_XREC_ROUNDTRIP
360
E9A4
  0
DICTIONARY
  5
E9A1
330
E935
100
AcDbDictionary
280
     1
281
     1
  3
ACAD_XREC_ROUNDTRIP
360
E9A2
  0
DICTIONARY
  5
E99B
330
E932
100
AcDbDictionary
280
     1
281
     1
  3
ACAD_XREC_ROUNDTRIP
360
E99C
  0
DICTIONARY
  5
E99D
330
E933
100
AcDbDictionary
280
     1
281
     1
  3
ACAD_XREC_ROUNDTRIP
360
E99E
  0
DICTIONARY
  5
E993
330
E92E
100
AcDbDictionary
280
     1
281
     1
  3
ACAD_XREC_ROUNDTRIP
360
E994
  0
DICTIONARY
  5
E987
330
E928
100
AcDbDictionary
280
     1
281
     1
  3
ACAD_XREC_ROUNDTRIP
360
E988
  0
DICTIONARY
  5
E99F
330
E934
100
AcDbDictionary
280
     1
281
     1
  3
ACAD_XREC_ROUNDTRIP
360
E9A0
  0
XRECORD
  5
E9B0
102
{ACAD_REACTORS
330
E9AF
102
}
330
E9AF
100
AcDbXrecord
280
     1
102
DISPLAYNAME
  1
Imperial24
102
FLAGS
 90
        0
  0
XRECORD
  5
E9B2
102
{ACAD_REACTORS
330
E9B1
102
}
330
E9B1
100
AcDbXrecord
280
     1
102
SHADEPLOT
 70
     0
102
SHADEPLOTRESLEVEL
 70
     2
102
SHADEPLOTCUSTOMDPI
 70
   300
  0
XRECORD
  5
E9B4
102
{ACAD_REACTORS
330
E9B3
102
}
330
E9B3
100
AcDbXrecord
280
     1
102
SHADEPLOT
 70
     0
102
SHADEPLOTRESLEVEL
 70
     2
102
SHADEPLOTCUSTOMDPI
 70
   300
  0
XRECORD
  5
E979
102
{ACAD_REACTORS
330
E912
102
}
330
E912
100
AcDbXrecord
280
     1
102
MATERIAL
148
0.0
149
0.0
149
0.0
 93
        0
 94
      127
282
     0
 72
     0
 77
     0
171
     0
175
     0
179
     0
273
     0
  0
XRECORD
  5
E914
102
{ACAD_REACTORS
330
E912
102
}
330
E912
100
AcDbXrecord
280
     1
270
     1
271
     1
  0
XRECORD
  5
E913
102
{ACAD_REACTORS
330
E912
102
}
330
E912
100
AcDbXrecord
280
     1
270
     1
271
     1
  0
XRECORD
  5
E917
102
{ACAD_REACTORS
330
E912
102
}
330
E912
100
AcDbXrecord
280
     1
270
     1
271
     1
  0
XRECORD
  5
E916
102
{ACAD_REACTORS
330
E912
102
}
330
E912
100
AcDbXrecord
280
     1
270
     1
271
     1
  0
XRECORD
  5
E918
102
{ACAD_REACTORS
330
E912
102
}
330
E912
100
AcDbXrecord
280
     1
270
     1
271
     1
  0
XRECORD
  5
E915
102
{ACAD_REACTORS
330
E912
102
}
330
E912
100
AcDbXrecord
280
     1
270
     1
271
     1
  0
XRECORD
  5
E978
102
{ACAD_REACTORS
330
E90A
102
}
330
E90A
100
AcDbXrecord
280
     1
102
MATERIAL
148
0.0
149
0.0
149
0.0
 93
        0
 94
      127
282
     0
 72
     0
 77
     0
171
     0
175
     0
179
     0
273
     0
  0
XRECORD
  5
E90C
102
{ACAD_REACTORS
330
E90A
102
}
330
E90A
100
AcDbXrecord
280
     1
270
     1
271
     1
  0
XRECORD
  5
E90B
102
{ACAD_REACTORS
330
E90A
102
}
330
E90A
100
AcDbXrecord
280
     1
270
     1
271
     1
  0
XRECORD
  5
E90F
102
{ACAD_REACTORS
330
E90A
102
}
330
E90A
100
AcDbXrecord
280
     1
270
     1
271
     1
  0
XRECORD
  5
E90E
102
{ACAD_REACTORS
330
E90A
102
}
330
E90A
100
AcDbXrecord
280
     1
270
     1
271
     1
  0
XRECORD
  5
E910
102
{ACAD_REACTORS
330
E90A
102
}
330
E90A
100
AcDbXrecord
280
     1
270
     1
271
     1
  0
XRECORD
  5
E90D
102
{ACAD_REACTORS
330
E90A
102
}
330
E90A
100
AcDbXrecord
280
     1
270
     1
271
     1
  0
XRECORD
  5
E97A
102
{ACAD_REACTORS
330
E91A
102
}
330
E91A
100
AcDbXrecord
280
     1
102
MATERIAL
148
0.0
149
0.0
149
0.0
 93
        0
 94
      127
282
     0
 72
     0
 77
     0
171
     0
175
     0
179
     0
273
     0
  0
XRECORD
  5
E91C
102
{ACAD_REACTORS
330
E91A
102
}
330
E91A
100
AcDbXrecord
280
     1
270
     1
271
     1
  0
XRECORD
  5
E91B
102
{ACAD_REACTORS
330
E91A
102
}
330
E91A
100
AcDbXrecord
280
     1
270
     1
271
     1
  0
XRECORD
  5
E91F
102
{ACAD_REACTORS
330
E91A
102
}
330
E91A
100
AcDbXrecord
280
     1
270
     1
271
     1
  0
XRECORD
  5
E91E
102
{ACAD_REACTORS
330
E91A
102
}
330
E91A
100
AcDbXrecord
280
     1
270
     1
271
     1
  0
XRECORD
  5
E920
102
{ACAD_REACTORS
330
E91A
102
}
330
E91A
100
AcDbXrecord
280
     1
270
     1
271
     1
  0
XRECORD
  5
E91D
102
{ACAD_REACTORS
330
E91A
102
}
330
E91A
100
AcDbXrecord
280
     1
270
     1
271
     1
  0
XRECORD
  5
E9AE
102
{ACAD_REACTORS
330
E9AD
102
}
330
E9AD
100
AcDbXrecord
280
     1
102
DISPLAYNAME
  1
Imperial24
102
FLAGS
 90
        0
  0
CELLSTYLEMAP
  5
E975
102
{ACAD_REACTORS
330
E974
102
}
330
E974
100
AcDbCellStyleMap
 90
        3
300
CELLSTYLE
  1
TABLEFORMAT_BEGIN
 90
        5
170
     1
 91
        0
 92
    32768
 62
   257
 93
        1
300
CONTENTFORMAT
  1
CONTENTFORMAT_BEGIN
 90
        0
 91
        0
 92
      512
 93
        0
300

 40
0.0
140
1.0
 94
        5
 62
     0
340
E457
144
0.25
309
CONTENTFORMAT_END
171
     0
 94
        0
309
TABLEFORMAT_END
  1
CELLSTYLE_BEGIN
 90
        1
 91
        1
300
_TITLE
309
CELLSTYLE_END
300
CELLSTYLE
  1
TABLEFORMAT_BEGIN
 90
        5
170
     1
 91
        0
 92
        0
 62
   257
 93
        1
300
CONTENTFORMAT
  1
CONTENTFORMAT_BEGIN
 90
        0
 91
        0
 92
      512
 93
        0
300

 40
0.0
140
1.0
 94
        5
 62
     0
340
E457
144
0.18
309
CONTENTFORMAT_END
171
     0
 94
        0
309
TABLEFORMAT_END
  1
CELLSTYLE_BEGIN
 90
        2
 91
        1
300
_HEADER
309
CELLSTYLE_END
300
CELLSTYLE
  1
TABLEFORMAT_BEGIN
 90
        5
170
     1
 91
        0
 92
        0
 62
   257
 93
        1
300
CONTENTFORMAT
  1
CONTENTFORMAT_BEGIN
 90
        0
 91
        0
 92
      512
 93
        0
300

 40
0.0
140
1.0
 94
        2
 62
     0
340
E457
144
0.18
309
CONTENTFORMAT_END
171
     0
 94
        0
309
TABLEFORMAT_END
  1
CELLSTYLE_BEGIN
 90
        3
 91
        2
300
_DATA
309
CELLSTYLE_END
  0
XRECORD
  5
E9AB
102
{ACAD_REACTORS
330
E974
102
}
330
E974
100
AcDbXrecord
280
     1
102
ACAD_ROUNDTRIP_PRE2007_TABLESTYLE
 90
      512
 91
        0
  1

 92
      512
 93
        0
  2

 94
      512
 95
        0
  3

  0
XRECORD
  5
E986
102
{ACAD_REACTORS
330
E985
102
}
330
E985
100
AcDbXrecord
280
     1
102
RTVSPost2010Prop28
280
     1
102
RTVSPost2010PropOp28
 70
     1
102
RTVSPost2010Prop29
280
     1
102
RTVSPost2010PropOp29
 70
     1
102
RTVSPost2010Prop30
280
     0
102
RTVSPost2010PropOp30
 70
     1
102
RTVSPost2010Prop31
280
     0
102
RTVSPost2010PropOp31
 70
     1
102
RTVSPost2010Prop32
280
     0
102
RTVSPost2010PropOp32
 70
     1
102
RTVSPost2010Prop33
280
     0
102
RTVSPost2010PropOp33
 70
     1
102
RTVSPost2010Prop34
280
     0
102
RTVSPost2010PropOp34
 70
     1
102
RTVSPost2010Prop35
280
     0
102
RTVSPost2010PropOp35
 70
     1
102
RTVSPost2010Prop36
280
     0
102
RTVSPost2010PropOp36
 70
     1
102
RTVSPost2010Prop37
 90
       50
102
RTVSPost2010PropOp37
 70
     1
102
RTVSPost2010Prop38
140
0.0
102
RTVSPost2010PropOp38
 70
     1
102
RTVSPost2010Prop39
140
1.0
102
RTVSPost2010PropOp39
 70
     1
102
RTVSPost2010Prop40
 90
        0
102
RTVSPost2010PropOp40
 70
     1
102
RTVSPost2010Prop41ColorIndex
 90
       18
102
RTVSPost2010Prop41ColorRGB
 90
        0
102
RTVSPost2010PropOp41
 70
     1
102
RTVSPost2010Prop42
 90
       50
102
RTVSPost2010PropOp42
 70
     1
102
RTVSPost2010Prop43
 90
        3
102
RTVSPost2010PropOp43
 70
     1
102
RTVSPost2010Prop44ColorIndex
 90
        5
102
RTVSPost2010Prop44ColorRGB
 90
      255
102
RTVSPost2010PropOp44
 70
     1
102
RTVSPost2010Prop45
280
     0
102
RTVSPost2010PropOp45
 70
     1
102
RTVSPost2010Prop46
 90
       50
102
RTVSPost2010PropOp46
 70
     1
102
RTVSPost2010Prop47
 90
       50
102
RTVSPost2010PropOp47
 70
     1
102
RTVSPost2010Prop48
 90
       50
102
RTVSPost2010PropOp48
 70
     1
102
RTVSPost2010Prop49
280
     0
102
RTVSPost2010PropOp49
 70
     1
102
RTVSPost2010Prop50
 90
       50
102
RTVSPost2010PropOp50
 70
     1
102
RTVSPost2010Prop51ColorIndex
 90
      256
102
RTVSPost2010Prop51ColorRGB
 90
-16777216
102
RTVSPost2010PropOp51
 70
     0
102
RTVSPost2010Prop52
140
1.0
102
RTVSPost2010PropOp52
 70
     0
102
RTVSPost2010Prop53
 90
        2
102
RTVSPost2010PropOp53
 70
     1
102
RTVSPost2010Prop54
  1
strokes_ogs.tif
102
RTVSPost2010PropOp54
 70
     1
102
RTVSPost2010Prop55
280
     0
102
RTVSPost2010PropOp55
 70
     1
102
RTVSPost2010Prop56
140
1.0
102
RTVSPost2010PropOp56
 70
     1
102
RTVSPost2010Prop57
140
1.0
102
RTVSPost2010PropOp57
 70
     1
102
RTVSPropertyOp0
 70
     1
102
RTVSPropertyOp1
 70
     1
102
RTVSPropertyOp2
 70
     1
102
RTVSPropertyOp3
 70
     1
102
RTVSPropertyOp4
 70
     1
102
RTVSPropertyOp5
 70
     1
102
RTVSPropertyOp6
 70
     1
102
RTVSPropertyOp7
 70
     1
102
RTVSPropertyOp8
 70
     1
102
RTVSPropertyOp9
 70
     1
102
RTVSPropertyOp10
 70
     1
102
RTVSPropertyOp11
 70
     1
102
RTVSPropertyOp12
 70
     1
102
RTVSPropertyOp13
 70
     1
102
RTVSPropertyOp14
 70
     1
102
RTVSPropertyOp15
 70
     1
102
RTVSPropertyOp16
 70
     1
102
RTVSPropertyOp17
 70
     1
102
RTVSPropertyOp18
 70
     1
102
RTVSPropertyOp19
 70
     1
102
RTVSPropertyOp20
 70
     1
102
RTVSPropertyOp21
 70
     1
102
RTVSPropertyOp22
 70
     1
102
RTVSPropertyOp23
 70
     1
102
RTVSPropertyOp24
 70
     1
102
RTVSPropertyOp25
 70
     1
102
RTVSPropertyOp26
 70
     1
102
RTVSPropertyOp27
 70
     1
102
RTVSPropertyOp28
 70
     1
102
RTVSPropertyOp29
 70
     1
102
RTVSPropertyOp30
 70
     1
102
RTVSPropertyOp31
 70
     1
102
RTVSPropertyOp32
 70
     1
102
RTVSPropertyOp33
 70
     1
102
RTVSPropertyOp34
 70
     1
102
RTVSPropertyOp35
 70
     1
102
RTVSPropertyOp36
 70
     1
102
RTVSPropertyOp37
 70
     1
102
RTVSPropertyOp38
 70
     1
102
RTVSPropertyOp39
 70
     1
102
RTVSPropertyOp40
 70
     1
102
RTVSPropertyOp41
 70
     1
102
RTVSPropertyOp42
 70
     1
102
RTVSPropertyOp43
 70
     1
102
RTVSPropertyOp44
 70
     1
102
RTVSPropertyOp45
 70
     1
102
RTVSPropertyOp46
 70
     1
102
RTVSPropertyOp47
 70
     1
102
RTVSPropertyOp48
 70
     1
102
RTVSPropertyOp49
 70
     1
102
RTVSPropertyOp50
 70
     1
102
RTVSPropertyOp51
 70
     0
102
RTVSPropertyOp52
 70
     0
102
RTVSPropertyOp53
 70
     1
102
RTVSPropertyOp54
 70
     1
102
RTVSPropertyOp55
 70
     1
102
RTVSPropertyOp56
 70
     1
102
RTVSPropertyOp57
 70
     1
102
RTVSPropertyOp58
 70
     1
102
RTVSPropertyOp59
 70
     1
102
RTVSPropertyOp60
 70
     1
102
RTVSPropertyOp61
 70
     1
102
RTVSPropertyOp62
 70
     1
  0
XRECORD
  5
E984
102
{ACAD_REACTORS
330
E983
102
}
330
E983
100
AcDbXrecord
280
     1
102
RTVSPost2010Prop28
280
     0
102
RTVSPost2010PropOp28
 70
     1
102
RTVSPost2010Prop29
280
     1
102
RTVSPost2010PropOp29
 70
     1
102
RTVSPost2010Prop30
280
     1
102
RTVSPost2010PropOp30
 70
     1
102
RTVSPost2010Prop31
280
     0
102
RTVSPost2010PropOp31
 70
     1
102
RTVSPost2010Prop32
280
     0
102
RTVSPost2010PropOp32
 70
     1
102
RTVSPost2010Prop33
280
     0
102
RTVSPost2010PropOp33
 70
     1
102
RTVSPost2010Prop34
280
     0
102
RTVSPost2010PropOp34
 70
     1
102
RTVSPost2010Prop35
280
     0
102
RTVSPost2010PropOp35
 70
     1
102
RTVSPost2010Prop36
280
     0
102
RTVSPost2010PropOp36
 70
     1
102
RTVSPost2010Prop37
 90
       50
102
RTVSPost2010PropOp37
 70
     1
102
RTVSPost2010Prop38
140
0.0
102
RTVSPost2010PropOp38
 70
     1
102
RTVSPost2010Prop39
140
1.0
102
RTVSPost2010PropOp39
 70
     1
102
RTVSPost2010Prop40
 90
        0
102
RTVSPost2010PropOp40
 70
     1
102
RTVSPost2010Prop41ColorIndex
 90
       18
102
RTVSPost2010Prop41ColorRGB
 90
        0
102
RTVSPost2010PropOp41
 70
     1
102
RTVSPost2010Prop42
 90
       50
102
RTVSPost2010PropOp42
 70
     1
102
RTVSPost2010Prop43
 90
        3
102
RTVSPost2010PropOp43
 70
     1
102
RTVSPost2010Prop44ColorIndex
 90
        5
102
RTVSPost2010Prop44ColorRGB
 90
      255
102
RTVSPost2010PropOp44
 70
     1
102
RTVSPost2010Prop45
280
     0
102
RTVSPost2010PropOp45
 70
     1
102
RTVSPost2010Prop46
 90
       50
102
RTVSPost2010PropOp46
 70
     1
102
RTVSPost2010Prop47
 90
       50
102
RTVSPost2010PropOp47
 70
     1
102
RTVSPost2010Prop48
 90
       50
102
RTVSPost2010PropOp48
 70
     1
102
RTVSPost2010Prop49
280
     0
102
RTVSPost2010PropOp49
 70
     1
102
RTVSPost2010Prop50
 90
       50
102
RTVSPost2010PropOp50
 70
     1
102
RTVSPost2010Prop51ColorIndex
 90
      256
102
RTVSPost2010Prop51ColorRGB
 90
-16777216
102
RTVSPost2010PropOp51
 70
     0
102
RTVSPost2010Prop52
140
1.0
102
RTVSPost2010PropOp52
 70
     0
102
RTVSPost2010Prop53
 90
        2
102
RTVSPost2010PropOp53
 70
     1
102
RTVSPost2010Prop54
  1
strokes_ogs.tif
102
RTVSPost2010PropOp54
 70
     1
102
RTVSPost2010Prop55
280
     0
102
RTVSPost2010PropOp55
 70
     1
102
RTVSPost2010Prop56
140
1.0
102
RTVSPost2010PropOp56
 70
     1
102
RTVSPost2010Prop57
140
1.0
102
RTVSPost2010PropOp57
 70
     1
102
RTVSPropertyOp0
 70
     1
102
RTVSPropertyOp1
 70
     1
102
RTVSPropertyOp2
 70
     1
102
RTVSPropertyOp3
 70
     1
102
RTVSPropertyOp4
 70
     1
102
RTVSPropertyOp5
 70
     1
102
RTVSPropertyOp6
 70
     1
102
RTVSPropertyOp7
 70
     1
102
RTVSPropertyOp8
 70
     1
102
RTVSPropertyOp9
 70
     1
102
RTVSPropertyOp10
 70
     1
102
RTVSPropertyOp11
 70
     1
102
RTVSPropertyOp12
 70
     1
102
RTVSPropertyOp13
 70
     1
102
RTVSPropertyOp14
 70
     1
102
RTVSPropertyOp15
 70
     1
102
RTVSPropertyOp16
 70
     1
102
RTVSPropertyOp17
 70
     1
102
RTVSPropertyOp18
 70
     1
102
RTVSPropertyOp19
 70
     1
102
RTVSPropertyOp20
 70
     1
102
RTVSPropertyOp21
 70
     1
102
RTVSPropertyOp22
 70
     1
102
RTVSPropertyOp23
 70
     1
102
RTVSPropertyOp24
 70
     1
102
RTVSPropertyOp25
 70
     1
102
RTVSPropertyOp26
 70
     1
102
RTVSPropertyOp27
 70
     1
102
RTVSPropertyOp28
 70
     1
102
RTVSPropertyOp29
 70
     1
102
RTVSPropertyOp30
 70
     1
102
RTVSPropertyOp31
 70
     1
102
RTVSPropertyOp32
 70
     1
102
RTVSPropertyOp33
 70
     1
102
RTVSPropertyOp34
 70
     1
102
RTVSPropertyOp35
 70
     1
102
RTVSPropertyOp36
 70
     1
102
RTVSPropertyOp37
 70
     1
102
RTVSPropertyOp38
 70
     1
102
RTVSPropertyOp39
 70
     1
102
RTVSPropertyOp40
 70
     1
102
RTVSPropertyOp41
 70
     1
102
RTVSPropertyOp42
 70
     1
102
RTVSPropertyOp43
 70
     1
102
RTVSPropertyOp44
 70
     1
102
RTVSPropertyOp45
 70
     1
102
RTVSPropertyOp46
 70
     1
102
RTVSPropertyOp47
 70
     1
102
RTVSPropertyOp48
 70
     1
102
RTVSPropertyOp49
 70
     1
102
RTVSPropertyOp50
 70
     1
102
RTVSPropertyOp51
 70
     0
102
RTVSPropertyOp52
 70
     0
102
RTVSPropertyOp53
 70
     1
102
RTVSPropertyOp54
 70
     1
102
RTVSPropertyOp55
 70
     1
102
RTVSPropertyOp56
 70
     1
102
RTVSPropertyOp57
 70
     1
102
RTVSPropertyOp58
 70
     1
102
RTVSPropertyOp59
 70
     1
102
RTVSPropertyOp60
 70
     1
102
RTVSPropertyOp61
 70
     1
102
RTVSPropertyOp62
 70
     1
  0
XRECORD
  5
E992
102
{ACAD_REACTORS
330
E991
102
}
330
E991
100
AcDbXrecord
280
     1
102
RTVSPost2010Prop28
280
     0
102
RTVSPost2010PropOp28
 70
     1
102
RTVSPost2010Prop29
280
     1
102
RTVSPost2010PropOp29
 70
     1
102
RTVSPost2010Prop30
280
     1
102
RTVSPost2010PropOp30
 70
     1
102
RTVSPost2010Prop31
280
     0
102
RTVSPost2010PropOp31
 70
     1
102
RTVSPost2010Prop32
280
     0
102
RTVSPost2010PropOp32
 70
     1
102
RTVSPost2010Prop33
280
     0
102
RTVSPost2010PropOp33
 70
     1
102
RTVSPost2010Prop34
280
     0
102
RTVSPost2010PropOp34
 70
     1
102
RTVSPost2010Prop35
280
     0
102
RTVSPost2010PropOp35
 70
     1
102
RTVSPost2010Prop36
280
     0
102
RTVSPost2010PropOp36
 70
     1
102
RTVSPost2010Prop37
 90
       50
102
RTVSPost2010PropOp37
 70
     1
102
RTVSPost2010Prop38
140
0.0
102
RTVSPost2010PropOp38
 70
     1
102
RTVSPost2010Prop39
140
1.0
102
RTVSPost2010PropOp39
 70
     1
102
RTVSPost2010Prop40
 90
        0
102
RTVSPost2010PropOp40
 70
     1
102
RTVSPost2010Prop41ColorIndex
 90
       18
102
RTVSPost2010Prop41ColorRGB
 90
        0
102
RTVSPost2010PropOp41
 70
     1
102
RTVSPost2010Prop42
 90
       50
102
RTVSPost2010PropOp42
 70
     1
102
RTVSPost2010Prop43
 90
        3
102
RTVSPost2010PropOp43
 70
     1
102
RTVSPost2010Prop44ColorIndex
 90
        5
102
RTVSPost2010Prop44ColorRGB
 90
      255
102
RTVSPost2010PropOp44
 70
     1
102
RTVSPost2010Prop45
280
     0
102
RTVSPost2010PropOp45
 70
     1
102
RTVSPost2010Prop46
 90
       50
102
RTVSPost2010PropOp46
 70
     1
102
RTVSPost2010Prop47
 90
       50
102
RTVSPost2010PropOp47
 70
     1
102
RTVSPost2010Prop48
 90
       50
102
RTVSPost2010PropOp48
 70
     1
102
RTVSPost2010Prop49
280
     0
102
RTVSPost2010PropOp49
 70
     1
102
RTVSPost2010Prop50
 90
       50
102
RTVSPost2010PropOp50
 70
     1
102
RTVSPost2010Prop51ColorIndex
 90
      256
102
RTVSPost2010Prop51ColorRGB
 90
-16777216
102
RTVSPost2010PropOp51
 70
     0
102
RTVSPost2010Prop52
140
1.0
102
RTVSPost2010PropOp52
 70
     0
102
RTVSPost2010Prop53
 90
        2
102
RTVSPost2010PropOp53
 70
     1
102
RTVSPost2010Prop54
  1
strokes_ogs.tif
102
RTVSPost2010PropOp54
 70
     1
102
RTVSPost2010Prop55
280
     0
102
RTVSPost2010PropOp55
 70
     1
102
RTVSPost2010Prop56
140
1.0
102
RTVSPost2010PropOp56
 70
     1
102
RTVSPost2010Prop57
140
1.0
102
RTVSPost2010PropOp57
 70
     1
102
RTVSPropertyOp0
 70
     1
102
RTVSPropertyOp1
 70
     1
102
RTVSPropertyOp2
 70
     1
102
RTVSPropertyOp3
 70
     1
102
RTVSPropertyOp4
 70
     1
102
RTVSPropertyOp5
 70
     1
102
RTVSPropertyOp6
 70
     1
102
RTVSPropertyOp7
 70
     1
102
RTVSPropertyOp8
 70
     1
102
RTVSPropertyOp9
 70
     1
102
RTVSPropertyOp10
 70
     1
102
RTVSPropertyOp11
 70
     1
102
RTVSPropertyOp12
 70
     1
102
RTVSPropertyOp13
 70
     1
102
RTVSPropertyOp14
 70
     1
102
RTVSPropertyOp15
 70
     1
102
RTVSPropertyOp16
 70
     1
102
RTVSPropertyOp17
 70
     1
102
RTVSPropertyOp18
 70
     1
102
RTVSPropertyOp19
 70
     1
102
RTVSPropertyOp20
 70
     1
102
RTVSPropertyOp21
 70
     1
102
RTVSPropertyOp22
 70
     1
102
RTVSPropertyOp23
 70
     1
102
RTVSPropertyOp24
 70
     1
102
RTVSPropertyOp25
 70
     1
102
RTVSPropertyOp26
 70
     1
102
RTVSPropertyOp27
 70
     1
102
RTVSPropertyOp28
 70
     1
102
RTVSPropertyOp29
 70
     1
102
RTVSPropertyOp30
 70
     1
102
RTVSPropertyOp31
 70
     1
102
RTVSPropertyOp32
 70
     1
102
RTVSPropertyOp33
 70
     1
102
RTVSPropertyOp34
 70
     1
102
RTVSPropertyOp35
 70
     1
102
RTVSPropertyOp36
 70
     1
102
RTVSPropertyOp37
 70
     1
102
RTVSPropertyOp38
 70
     1
102
RTVSPropertyOp39
 70
     1
102
RTVSPropertyOp40
 70
     1
102
RTVSPropertyOp41
 70
     1
102
RTVSPropertyOp42
 70
     1
102
RTVSPropertyOp43
 70
     1
102
RTVSPropertyOp44
 70
     1
102
RTVSPropertyOp45
 70
     1
102
RTVSPropertyOp46
 70
     1
102
RTVSPropertyOp47
 70
     1
102
RTVSPropertyOp48
 70
     1
102
RTVSPropertyOp49
 70
     1
102
RTVSPropertyOp50
 70
     1
102
RTVSPropertyOp51
 70
     0
102
RTVSPropertyOp52
 70
     0
102
RTVSPropertyOp53
 70
     1
102
RTVSPropertyOp54
 70
     1
102
RTVSPropertyOp55
 70
     1
102
RTVSPropertyOp56
 70
     1
102
RTVSPropertyOp57
 70
     1
102
RTVSPropertyOp58
 70
     1
102
RTVSPropertyOp59
 70
     1
102
RTVSPropertyOp60
 70
     1
102
RTVSPropertyOp61
 70
     1
102
RTVSPropertyOp62
 70
     1
  0
XRECORD
  5
E99A
102
{ACAD_REACTORS
330
E999
102
}
330
E999
100
AcDbXrecord
280
     1
102
RTVSPost2010Prop28
280
     0
102
RTVSPost2010PropOp28
 70
     1
102
RTVSPost2010Prop29
280
     1
102
RTVSPost2010PropOp29
 70
     1
102
RTVSPost2010Prop30
280
     1
102
RTVSPost2010PropOp30
 70
     1
102
RTVSPost2010Prop31
280
     0
102
RTVSPost2010PropOp31
 70
     1
102
RTVSPost2010Prop32
280
     0
102
RTVSPost2010PropOp32
 70
     1
102
RTVSPost2010Prop33
280
     0
102
RTVSPost2010PropOp33
 70
     1
102
RTVSPost2010Prop34
280
     0
102
RTVSPost2010PropOp34
 70
     1
102
RTVSPost2010Prop35
280
     0
102
RTVSPost2010PropOp35
 70
     1
102
RTVSPost2010Prop36
280
     0
102
RTVSPost2010PropOp36
 70
     1
102
RTVSPost2010Prop37
 90
       50
102
RTVSPost2010PropOp37
 70
     1
102
RTVSPost2010Prop38
140
0.0
102
RTVSPost2010PropOp38
 70
     1
102
RTVSPost2010Prop39
140
1.0
102
RTVSPost2010PropOp39
 70
     1
102
RTVSPost2010Prop40
 90
        0
102
RTVSPost2010PropOp40
 70
     1
102
RTVSPost2010Prop41ColorIndex
 90
       18
102
RTVSPost2010Prop41ColorRGB
 90
        0
102
RTVSPost2010PropOp41
 70
     1
102
RTVSPost2010Prop42
 90
       50
102
RTVSPost2010PropOp42
 70
     1
102
RTVSPost2010Prop43
 90
        3
102
RTVSPost2010PropOp43
 70
     1
102
RTVSPost2010Prop44ColorIndex
 90
        5
102
RTVSPost2010Prop44ColorRGB
 90
      255
102
RTVSPost2010PropOp44
 70
     1
102
RTVSPost2010Prop45
280
     0
102
RTVSPost2010PropOp45
 70
     1
102
RTVSPost2010Prop46
 90
       50
102
RTVSPost2010PropOp46
 70
     1
102
RTVSPost2010Prop47
 90
       50
102
RTVSPost2010PropOp47
 70
     1
102
RTVSPost2010Prop48
 90
       50
102
RTVSPost2010PropOp48
 70
     1
102
RTVSPost2010Prop49
280
     0
102
RTVSPost2010PropOp49
 70
     1
102
RTVSPost2010Prop50
 90
       50
102
RTVSPost2010PropOp50
 70
     1
102
RTVSPost2010Prop51ColorIndex
 90
      256
102
RTVSPost2010Prop51ColorRGB
 90
-16777216
102
RTVSPost2010PropOp51
 70
     0
102
RTVSPost2010Prop52
140
1.0
102
RTVSPost2010PropOp52
 70
     0
102
RTVSPost2010Prop53
 90
        2
102
RTVSPost2010PropOp53
 70
     1
102
RTVSPost2010Prop54
  1
strokes_ogs.tif
102
RTVSPost2010PropOp54
 70
     1
102
RTVSPost2010Prop55
280
     0
102
RTVSPost2010PropOp55
 70
     1
102
RTVSPost2010Prop56
140
1.0
102
RTVSPost2010PropOp56
 70
     1
102
RTVSPost2010Prop57
140
1.0
102
RTVSPost2010PropOp57
 70
     1
102
RTVSPropertyOp0
 70
     1
102
RTVSPropertyOp1
 70
     1
102
RTVSPropertyOp2
 70
     1
102
RTVSPropertyOp3
 70
     1
102
RTVSPropertyOp4
 70
     1
102
RTVSPropertyOp5
 70
     1
102
RTVSPropertyOp6
 70
     1
102
RTVSPropertyOp7
 70
     1
102
RTVSPropertyOp8
 70
     1
102
RTVSPropertyOp9
 70
     1
102
RTVSPropertyOp10
 70
     1
102
RTVSPropertyOp11
 70
     1
102
RTVSPropertyOp12
 70
     1
102
RTVSPropertyOp13
 70
     1
102
RTVSPropertyOp14
 70
     1
102
RTVSPropertyOp15
 70
     1
102
RTVSPropertyOp16
 70
     1
102
RTVSPropertyOp17
 70
     1
102
RTVSPropertyOp18
 70
     1
102
RTVSPropertyOp19
 70
     1
102
RTVSPropertyOp20
 70
     1
102
RTVSPropertyOp21
 70
     1
102
RTVSPropertyOp22
 70
     1
102
RTVSPropertyOp23
 70
     1
102
RTVSPropertyOp24
 70
     1
102
RTVSPropertyOp25
 70
     1
102
RTVSPropertyOp26
 70
     1
102
RTVSPropertyOp27
 70
     1
102
RTVSPropertyOp28
 70
     1
102
RTVSPropertyOp29
 70
     1
102
RTVSPropertyOp30
 70
     1
102
RTVSPropertyOp31
 70
     1
102
RTVSPropertyOp32
 70
     1
102
RTVSPropertyOp33
 70
     1
102
RTVSPropertyOp34
 70
     1
102
RTVSPropertyOp35
 70
     1
102
RTVSPropertyOp36
 70
     1
102
RTVSPropertyOp37
 70
     1
102
RTVSPropertyOp38
 70
     1
102
RTVSPropertyOp39
 70
     1
102
RTVSPropertyOp40
 70
     1
102
RTVSPropertyOp41
 70
     1
102
RTVSPropertyOp42
 70
     1
102
RTVSPropertyOp43
 70
     1
102
RTVSPropertyOp44
 70
     1
102
RTVSPropertyOp45
 70
     1
102
RTVSPropertyOp46
 70
     1
102
RTVSPropertyOp47
 70
     1
102
RTVSPropertyOp48
 70
     1
102
RTVSPropertyOp49
 70
     1
102
RTVSPropertyOp50
 70
     1
102
RTVSPropertyOp51
 70
     0
102
RTVSPropertyOp52
 70
     0
102
RTVSPropertyOp53
 70
     1
102
RTVSPropertyOp54
 70
     1
102
RTVSPropertyOp55
 70
     1
102
RTVSPropertyOp56
 70
     1
102
RTVSPropertyOp57
 70
     1
102
RTVSPropertyOp58
 70
     1
102
RTVSPropertyOp59
 70
     1
102
RTVSPropertyOp60
 70
     1
102
RTVSPropertyOp61
 70
     1
102
RTVSPropertyOp62
 70
     1
  0
XRECORD
  5
E98C
102
{ACAD_REACTORS
330
E98B
102
}
330
E98B
100
AcDbXrecord
280
     1
102
RTVSPost2010Prop28
280
     0
102
RTVSPost2010PropOp28
 70
     1
102
RTVSPost2010Prop29
280
     1
102
RTVSPost2010PropOp29
 70
     1
102
RTVSPost2010Prop30
280
     1
102
RTVSPost2010PropOp30
 70
     1
102
RTVSPost2010Prop31
280
     0
102
RTVSPost2010PropOp31
 70
     1
102
RTVSPost2010Prop32
280
     0
102
RTVSPost2010PropOp32
 70
     1
102
RTVSPost2010Prop33
280
     0
102
RTVSPost2010PropOp33
 70
     1
102
RTVSPost2010Prop34
280
     0
102
RTVSPost2010PropOp34
 70
     1
102
RTVSPost2010Prop35
280
     0
102
RTVSPost2010PropOp35
 70
     1
102
RTVSPost2010Prop36
280
     0
102
RTVSPost2010PropOp36
 70
     1
102
RTVSPost2010Prop37
 90
       50
102
RTVSPost2010PropOp37
 70
     1
102
RTVSPost2010Prop38
140
0.0
102
RTVSPost2010PropOp38
 70
     1
102
RTVSPost2010Prop39
140
1.0
102
RTVSPost2010PropOp39
 70
     1
102
RTVSPost2010Prop40
 90
        0
102
RTVSPost2010PropOp40
 70
     1
102
RTVSPost2010Prop41ColorIndex
 90
       18
102
RTVSPost2010Prop41ColorRGB
 90
        0
102
RTVSPost2010PropOp41
 70
     1
102
RTVSPost2010Prop42
 90
       50
102
RTVSPost2010PropOp42
 70
     1
102
RTVSPost2010Prop43
 90
        3
102
RTVSPost2010PropOp43
 70
     1
102
RTVSPost2010Prop44ColorIndex
 90
        5
102
RTVSPost2010Prop44ColorRGB
 90
      255
102
RTVSPost2010PropOp44
 70
     1
102
RTVSPost2010Prop45
280
     0
102
RTVSPost2010PropOp45
 70
     1
102
RTVSPost2010Prop46
 90
       50
102
RTVSPost2010PropOp46
 70
     1
102
RTVSPost2010Prop47
 90
       50
102
RTVSPost2010PropOp47
 70
     1
102
RTVSPost2010Prop48
 90
       50
102
RTVSPost2010PropOp48
 70
     1
102
RTVSPost2010Prop49
280
     0
102
RTVSPost2010PropOp49
 70
     1
102
RTVSPost2010Prop50
 90
       50
102
RTVSPost2010PropOp50
 70
     1
102
RTVSPost2010Prop51ColorIndex
 90
      256
102
RTVSPost2010Prop51ColorRGB
 90
-16777216
102
RTVSPost2010PropOp51
 70
     0
102
RTVSPost2010Prop52
140
1.0
102
RTVSPost2010PropOp52
 70
     0
102
RTVSPost2010Prop53
 90
        2
102
RTVSPost2010PropOp53
 70
     1
102
RTVSPost2010Prop54
  1
strokes_ogs.tif
102
RTVSPost2010PropOp54
 70
     1
102
RTVSPost2010Prop55
280
     0
102
RTVSPost2010PropOp55
 70
     1
102
RTVSPost2010Prop56
140
1.0
102
RTVSPost2010PropOp56
 70
     1
102
RTVSPost2010Prop57
140
1.0
102
RTVSPost2010PropOp57
 70
     1
102
RTVSPropertyOp0
 70
     1
102
RTVSPropertyOp1
 70
     1
102
RTVSPropertyOp2
 70
     1
102
RTVSPropertyOp3
 70
     1
102
RTVSPropertyOp4
 70
     1
102
RTVSPropertyOp5
 70
     1
102
RTVSPropertyOp6
 70
     1
102
RTVSPropertyOp7
 70
     1
102
RTVSPropertyOp8
 70
     1
102
RTVSPropertyOp9
 70
     1
102
RTVSPropertyOp10
 70
     1
102
RTVSPropertyOp11
 70
     1
102
RTVSPropertyOp12
 70
     1
102
RTVSPropertyOp13
 70
     1
102
RTVSPropertyOp14
 70
     1
102
RTVSPropertyOp15
 70
     1
102
RTVSPropertyOp16
 70
     1
102
RTVSPropertyOp17
 70
     1
102
RTVSPropertyOp18
 70
     1
102
RTVSPropertyOp19
 70
     1
102
RTVSPropertyOp20
 70
     1
102
RTVSPropertyOp21
 70
     1
102
RTVSPropertyOp22
 70
     1
102
RTVSPropertyOp23
 70
     1
102
RTVSPropertyOp24
 70
     1
102
RTVSPropertyOp25
 70
     1
102
RTVSPropertyOp26
 70
     1
102
RTVSPropertyOp27
 70
     1
102
RTVSPropertyOp28
 70
     1
102
RTVSPropertyOp29
 70
     1
102
RTVSPropertyOp30
 70
     1
102
RTVSPropertyOp31
 70
     1
102
RTVSPropertyOp32
 70
     1
102
RTVSPropertyOp33
 70
     1
102
RTVSPropertyOp34
 70
     1
102
RTVSPropertyOp35
 70
     1
102
RTVSPropertyOp36
 70
     1
102
RTVSPropertyOp37
 70
     1
102
RTVSPropertyOp38
 70
     1
102
RTVSPropertyOp39
 70
     1
102
RTVSPropertyOp40
 70
     1
102
RTVSPropertyOp41
 70
     1
102
RTVSPropertyOp42
 70
     1
102
RTVSPropertyOp43
 70
     1
102
RTVSPropertyOp44
 70
     1
102
RTVSPropertyOp45
 70
     1
102
RTVSPropertyOp46
 70
     1
102
RTVSPropertyOp47
 70
     1
102
RTVSPropertyOp48
 70
     1
102
RTVSPropertyOp49
 70
     1
102
RTVSPropertyOp50
 70
     1
102
RTVSPropertyOp51
 70
     0
102
RTVSPropertyOp52
 70
     0
102
RTVSPropertyOp53
 70
     1
102
RTVSPropertyOp54
 70
     1
102
RTVSPropertyOp55
 70
     1
102
RTVSPropertyOp56
 70
     1
102
RTVSPropertyOp57
 70
     1
102
RTVSPropertyOp58
 70
     1
102
RTVSPropertyOp59
 70
     1
102
RTVSPropertyOp60
 70
     1
102
RTVSPropertyOp61
 70
     1
102
RTVSPropertyOp62
 70
     1
  0
XRECORD
  5
E990
102
{ACAD_REACTORS
330
E98F
102
}
330
E98F
100
AcDbXrecord
280
     1
102
RTVSPost2010Prop28
280
     0
102
RTVSPost2010PropOp28
 70
     1
102
RTVSPost2010Prop29
280
     1
102
RTVSPost2010PropOp29
 70
     1
102
RTVSPost2010Prop30
280
     1
102
RTVSPost2010PropOp30
 70
     1
102
RTVSPost2010Prop31
280
     0
102
RTVSPost2010PropOp31
 70
     1
102
RTVSPost2010Prop32
280
     0
102
RTVSPost2010PropOp32
 70
     1
102
RTVSPost2010Prop33
280
     0
102
RTVSPost2010PropOp33
 70
     1
102
RTVSPost2010Prop34
280
     0
102
RTVSPost2010PropOp34
 70
     1
102
RTVSPost2010Prop35
280
     0
102
RTVSPost2010PropOp35
 70
     1
102
RTVSPost2010Prop36
280
     0
102
RTVSPost2010PropOp36
 70
     1
102
RTVSPost2010Prop37
 90
       50
102
RTVSPost2010PropOp37
 70
     1
102
RTVSPost2010Prop38
140
0.0
102
RTVSPost2010PropOp38
 70
     1
102
RTVSPost2010Prop39
140
1.0
102
RTVSPost2010PropOp39
 70
     1
102
RTVSPost2010Prop40
 90
        0
102
RTVSPost2010PropOp40
 70
     1
102
RTVSPost2010Prop41ColorIndex
 90
       18
102
RTVSPost2010Prop41ColorRGB
 90
        0
102
RTVSPost2010PropOp41
 70
     1
102
RTVSPost2010Prop42
 90
       50
102
RTVSPost2010PropOp42
 70
     1
102
RTVSPost2010Prop43
 90
        3
102
RTVSPost2010PropOp43
 70
     1
102
RTVSPost2010Prop44ColorIndex
 90
        5
102
RTVSPost2010Prop44ColorRGB
 90
      255
102
RTVSPost2010PropOp44
 70
     1
102
RTVSPost2010Prop45
280
     0
102
RTVSPost2010PropOp45
 70
     1
102
RTVSPost2010Prop46
 90
       50
102
RTVSPost2010PropOp46
 70
     1
102
RTVSPost2010Prop47
 90
       50
102
RTVSPost2010PropOp47
 70
     1
102
RTVSPost2010Prop48
 90
       50
102
RTVSPost2010PropOp48
 70
     1
102
RTVSPost2010Prop49
280
     0
102
RTVSPost2010PropOp49
 70
     1
102
RTVSPost2010Prop50
 90
       50
102
RTVSPost2010PropOp50
 70
     1
102
RTVSPost2010Prop51ColorIndex
 90
      256
102
RTVSPost2010Prop51ColorRGB
 90
-16777216
102
RTVSPost2010PropOp51
 70
     0
102
RTVSPost2010Prop52
140
1.0
102
RTVSPost2010PropOp52
 70
     0
102
RTVSPost2010Prop53
 90
        2
102
RTVSPost2010PropOp53
 70
     1
102
RTVSPost2010Prop54
  1
strokes_ogs.tif
102
RTVSPost2010PropOp54
 70
     1
102
RTVSPost2010Prop55
280
     0
102
RTVSPost2010PropOp55
 70
     1
102
RTVSPost2010Prop56
140
1.0
102
RTVSPost2010PropOp56
 70
     1
102
RTVSPost2010Prop57
140
1.0
102
RTVSPost2010PropOp57
 70
     1
102
RTVSPropertyOp0
 70
     1
102
RTVSPropertyOp1
 70
     1
102
RTVSPropertyOp2
 70
     1
102
RTVSPropertyOp3
 70
     1
102
RTVSPropertyOp4
 70
     1
102
RTVSPropertyOp5
 70
     1
102
RTVSPropertyOp6
 70
     1
102
RTVSPropertyOp7
 70
     1
102
RTVSPropertyOp8
 70
     1
102
RTVSPropertyOp9
 70
     1
102
RTVSPropertyOp10
 70
     1
102
RTVSPropertyOp11
 70
     1
102
RTVSPropertyOp12
 70
     1
102
RTVSPropertyOp13
 70
     1
102
RTVSPropertyOp14
 70
     1
102
RTVSPropertyOp15
 70
     1
102
RTVSPropertyOp16
 70
     1
102
RTVSPropertyOp17
 70
     1
102
RTVSPropertyOp18
 70
     1
102
RTVSPropertyOp19
 70
     1
102
RTVSPropertyOp20
 70
     1
102
RTVSPropertyOp21
 70
     1
102
RTVSPropertyOp22
 70
     1
102
RTVSPropertyOp23
 70
     1
102
RTVSPropertyOp24
 70
     1
102
RTVSPropertyOp25
 70
     1
102
RTVSPropertyOp26
 70
     1
102
RTVSPropertyOp27
 70
     1
102
RTVSPropertyOp28
 70
     1
102
RTVSPropertyOp29
 70
     1
102
RTVSPropertyOp30
 70
     1
102
RTVSPropertyOp31
 70
     1
102
RTVSPropertyOp32
 70
     1
102
RTVSPropertyOp33
 70
     1
102
RTVSPropertyOp34
 70
     1
102
RTVSPropertyOp35
 70
     1
102
RTVSPropertyOp36
 70
     1
102
RTVSPropertyOp37
 70
     1
102
RTVSPropertyOp38
 70
     1
102
RTVSPropertyOp39
 70
     1
102
RTVSPropertyOp40
 70
     1
102
RTVSPropertyOp41
 70
     1
102
RTVSPropertyOp42
 70
     1
102
RTVSPropertyOp43
 70
     1
102
RTVSPropertyOp44
 70
     1
102
RTVSPropertyOp45
 70
     1
102
RTVSPropertyOp46
 70
     1
102
RTVSPropertyOp47
 70
     1
102
RTVSPropertyOp48
 70
     1
102
RTVSPropertyOp49
 70
     1
102
RTVSPropertyOp50
 70
     1
102
RTVSPropertyOp51
 70
     0
102
RTVSPropertyOp52
 70
     0
102
RTVSPropertyOp53
 70
     1
102
RTVSPropertyOp54
 70
     1
102
RTVSPropertyOp55
 70
     1
102
RTVSPropertyOp56
 70
     1
102
RTVSPropertyOp57
 70
     1
102
RTVSPropertyOp58
 70
     1
102
RTVSPropertyOp59
 70
     1
102
RTVSPropertyOp60
 70
     1
102
RTVSPropertyOp61
 70
     1
102
RTVSPropertyOp62
 70
     1
  0
XRECORD
  5
E9AA
102
{ACAD_REACTORS
330
E9A9
102
}
330
E9A9
100
AcDbXrecord
280
     1
102
RTVSPost2010Prop28
280
     0
102
RTVSPost2010PropOp28
 70
     1
102
RTVSPost2010Prop29
280
     1
102
RTVSPost2010PropOp29
 70
     1
102
RTVSPost2010Prop30
280
     1
102
RTVSPost2010PropOp30
 70
     1
102
RTVSPost2010Prop31
280
     0
102
RTVSPost2010PropOp31
 70
     1
102
RTVSPost2010Prop32
280
     0
102
RTVSPost2010PropOp32
 70
     1
102
RTVSPost2010Prop33
280
     0
102
RTVSPost2010PropOp33
 70
     1
102
RTVSPost2010Prop34
280
     0
102
RTVSPost2010PropOp34
 70
     1
102
RTVSPost2010Prop35
280
     0
102
RTVSPost2010PropOp35
 70
     1
102
RTVSPost2010Prop36
280
     0
102
RTVSPost2010PropOp36
 70
     1
102
RTVSPost2010Prop37
 90
       50
102
RTVSPost2010PropOp37
 70
     0
102
RTVSPost2010Prop38
140
0.0
102
RTVSPost2010PropOp38
 70
     0
102
RTVSPost2010Prop39
140
1.0
102
RTVSPost2010PropOp39
 70
     0
102
RTVSPost2010Prop40
 90
        0
102
RTVSPost2010PropOp40
 70
     0
102
RTVSPost2010Prop41ColorIndex
 90
       18
102
RTVSPost2010Prop41ColorRGB
 90
        0
102
RTVSPost2010PropOp41
 70
     0
102
RTVSPost2010Prop42
 90
       50
102
RTVSPost2010PropOp42
 70
     0
102
RTVSPost2010Prop43
 90
        3
102
RTVSPost2010PropOp43
 70
     0
102
RTVSPost2010Prop44ColorIndex
 90
        5
102
RTVSPost2010Prop44ColorRGB
 90
      255
102
RTVSPost2010PropOp44
 70
     0
102
RTVSPost2010Prop45
280
     0
102
RTVSPost2010PropOp45
 70
     1
102
RTVSPost2010Prop46
 90
       50
102
RTVSPost2010PropOp46
 70
     0
102
RTVSPost2010Prop47
 90
       50
102
RTVSPost2010PropOp47
 70
     0
102
RTVSPost2010Prop48
 90
       50
102
RTVSPost2010PropOp48
 70
     0
102
RTVSPost2010Prop49
280
     0
102
RTVSPost2010PropOp49
 70
     1
102
RTVSPost2010Prop50
 90
       50
102
RTVSPost2010PropOp50
 70
     0
102
RTVSPost2010Prop51ColorIndex
 90
      256
102
RTVSPost2010Prop51ColorRGB
 90
-16777216
102
RTVSPost2010PropOp51
 70
     0
102
RTVSPost2010Prop52
140
1.0
102
RTVSPost2010PropOp52
 70
     0
102
RTVSPost2010Prop53
 90
        2
102
RTVSPost2010PropOp53
 70
     0
102
RTVSPost2010Prop54
  1
strokes_ogs.tif
102
RTVSPost2010PropOp54
 70
     0
102
RTVSPost2010Prop55
280
     0
102
RTVSPost2010PropOp55
 70
     1
102
RTVSPost2010Prop56
140
1.0
102
RTVSPost2010PropOp56
 70
     0
102
RTVSPost2010Prop57
140
1.0
102
RTVSPost2010PropOp57
 70
     0
102
RTVSPropertyOp0
 70
     0
102
RTVSPropertyOp1
 70
     0
102
RTVSPropertyOp2
 70
     0
102
RTVSPropertyOp3
 70
     0
102
RTVSPropertyOp4
 70
     0
102
RTVSPropertyOp5
 70
     0
102
RTVSPropertyOp6
 70
     0
102
RTVSPropertyOp7
 70
     0
102
RTVSPropertyOp8
 70
     0
102
RTVSPropertyOp9
 70
     0
102
RTVSPropertyOp10
 70
     0
102
RTVSPropertyOp11
 70
     0
102
RTVSPropertyOp12
 70
     0
102
RTVSPropertyOp13
 70
     0
102
RTVSPropertyOp14
 70
     2
102
RTVSPropertyOp15
 70
     0
102
RTVSPropertyOp16
 70
     0
102
RTVSPropertyOp17
 70
     0
102
RTVSPropertyOp18
 70
     0
102
RTVSPropertyOp19
 70
     0
102
RTVSPropertyOp20
 70
     0
102
RTVSPropertyOp21
 70
     0
102
RTVSPropertyOp22
 70
     0
102
RTVSPropertyOp23
 70
     0
102
RTVSPropertyOp24
 70
     0
102
RTVSPropertyOp25
 70
     0
102
RTVSPropertyOp26
 70
     0
102
RTVSPropertyOp27
 70
     0
102
RTVSPropertyOp28
 70
     1
102
RTVSPropertyOp29
 70
     1
102
RTVSPropertyOp30
 70
     1
102
RTVSPropertyOp31
 70
     1
102
RTVSPropertyOp32
 70
     1
102
RTVSPropertyOp33
 70
     1
102
RTVSPropertyOp34
 70
     1
102
RTVSPropertyOp35
 70
     1
102
RTVSPropertyOp36
 70
     1
102
RTVSPropertyOp37
 70
     0
102
RTVSPropertyOp38
 70
     0
102
RTVSPropertyOp39
 70
     0
102
RTVSPropertyOp40
 70
     0
102
RTVSPropertyOp41
 70
     0
102
RTVSPropertyOp42
 70
     0
102
RTVSPropertyOp43
 70
     0
102
RTVSPropertyOp44
 70
     0
102
RTVSPropertyOp45
 70
     1
102
RTVSPropertyOp46
 70
     0
102
RTVSPropertyOp47
 70
     0
102
RTVSPropertyOp48
 70
     0
102
RTVSPropertyOp49
 70
     1
102
RTVSPropertyOp50
 70
     0
102
RTVSPropertyOp51
 70
     0
102
RTVSPropertyOp52
 70
     0
102
RTVSPropertyOp53
 70
     0
102
RTVSPropertyOp54
 70
     0
102
RTVSPropertyOp55
 70
     1
102
RTVSPropertyOp56
 70
     0
102
RTVSPropertyOp57
 70
     0
102
RTVSPropertyOp58
 70
     0
102
RTVSPropertyOp59
 70
     0
102
RTVSPropertyOp60
 70
     0
102
RTVSPropertyOp61
 70
     0
102
RTVSPropertyOp62
 70
     0
  0
XRECORD
  5
E998
102
{ACAD_REACTORS
330
E997
102
}
330
E997
100
AcDbXrecord
280
     1
102
RTVSPost2010Prop28
280
     0
102
RTVSPost2010PropOp28
 70
     1
102
RTVSPost2010Prop29
280
     1
102
RTVSPost2010PropOp29
 70
     1
102
RTVSPost2010Prop30
280
     1
102
RTVSPost2010PropOp30
 70
     1
102
RTVSPost2010Prop31
280
     0
102
RTVSPost2010PropOp31
 70
     1
102
RTVSPost2010Prop32
280
     0
102
RTVSPost2010PropOp32
 70
     1
102
RTVSPost2010Prop33
280
     0
102
RTVSPost2010PropOp33
 70
     1
102
RTVSPost2010Prop34
280
     0
102
RTVSPost2010PropOp34
 70
     1
102
RTVSPost2010Prop35
280
     0
102
RTVSPost2010PropOp35
 70
     1
102
RTVSPost2010Prop36
280
     0
102
RTVSPost2010PropOp36
 70
     1
102
RTVSPost2010Prop37
 90
       50
102
RTVSPost2010PropOp37
 70
     1
102
RTVSPost2010Prop38
140
0.0
102
RTVSPost2010PropOp38
 70
     1
102
RTVSPost2010Prop39
140
1.0
102
RTVSPost2010PropOp39
 70
     1
102
RTVSPost2010Prop40
 90
        0
102
RTVSPost2010PropOp40
 70
     1
102
RTVSPost2010Prop41ColorIndex
 90
       18
102
RTVSPost2010Prop41ColorRGB
 90
        0
102
RTVSPost2010PropOp41
 70
     1
102
RTVSPost2010Prop42
 90
       50
102
RTVSPost2010PropOp42
 70
     1
102
RTVSPost2010Prop43
 90
        3
102
RTVSPost2010PropOp43
 70
     1
102
RTVSPost2010Prop44ColorIndex
 90
        5
102
RTVSPost2010Prop44ColorRGB
 90
      255
102
RTVSPost2010PropOp44
 70
     1
102
RTVSPost2010Prop45
280
     0
102
RTVSPost2010PropOp45
 70
     1
102
RTVSPost2010Prop46
 90
       50
102
RTVSPost2010PropOp46
 70
     1
102
RTVSPost2010Prop47
 90
       50
102
RTVSPost2010PropOp47
 70
     1
102
RTVSPost2010Prop48
 90
       50
102
RTVSPost2010PropOp48
 70
     1
102
RTVSPost2010Prop49
280
     0
102
RTVSPost2010PropOp49
 70
     1
102
RTVSPost2010Prop50
 90
       50
102
RTVSPost2010PropOp50
 70
     1
102
RTVSPost2010Prop51ColorIndex
 90
      256
102
RTVSPost2010Prop51ColorRGB
 90
-16777216
102
RTVSPost2010PropOp51
 70
     0
102
RTVSPost2010Prop52
140
1.0
102
RTVSPost2010PropOp52
 70
     0
102
RTVSPost2010Prop53
 90
        2
102
RTVSPost2010PropOp53
 70
     1
102
RTVSPost2010Prop54
  1
strokes_ogs.tif
102
RTVSPost2010PropOp54
 70
     1
102
RTVSPost2010Prop55
280
     0
102
RTVSPost2010PropOp55
 70
     1
102
RTVSPost2010Prop56
140
1.0
102
RTVSPost2010PropOp56
 70
     1
102
RTVSPost2010Prop57
140
1.0
102
RTVSPost2010PropOp57
 70
     1
102
RTVSPropertyOp0
 70
     1
102
RTVSPropertyOp1
 70
     1
102
RTVSPropertyOp2
 70
     1
102
RTVSPropertyOp3
 70
     1
102
RTVSPropertyOp4
 70
     1
102
RTVSPropertyOp5
 70
     1
102
RTVSPropertyOp6
 70
     1
102
RTVSPropertyOp7
 70
     1
102
RTVSPropertyOp8
 70
     1
102
RTVSPropertyOp9
 70
     1
102
RTVSPropertyOp10
 70
     1
102
RTVSPropertyOp11
 70
     1
102
RTVSPropertyOp12
 70
     1
102
RTVSPropertyOp13
 70
     1
102
RTVSPropertyOp14
 70
     1
102
RTVSPropertyOp15
 70
     1
102
RTVSPropertyOp16
 70
     1
102
RTVSPropertyOp17
 70
     1
102
RTVSPropertyOp18
 70
     1
102
RTVSPropertyOp19
 70
     1
102
RTVSPropertyOp20
 70
     1
102
RTVSPropertyOp21
 70
     1
102
RTVSPropertyOp22
 70
     1
102
RTVSPropertyOp23
 70
     1
102
RTVSPropertyOp24
 70
     1
102
RTVSPropertyOp25
 70
     1
102
RTVSPropertyOp26
 70
     1
102
RTVSPropertyOp27
 70
     1
102
RTVSPropertyOp28
 70
     1
102
RTVSPropertyOp29
 70
     1
102
RTVSPropertyOp30
 70
     1
102
RTVSPropertyOp31
 70
     1
102
RTVSPropertyOp32
 70
     1
102
RTVSPropertyOp33
 70
     1
102
RTVSPropertyOp34
 70
     1
102
RTVSPropertyOp35
 70
     1
102
RTVSPropertyOp36
 70
     1
102
RTVSPropertyOp37
 70
     1
102
RTVSPropertyOp38
 70
     1
102
RTVSPropertyOp39
 70
     1
102
RTVSPropertyOp40
 70
     1
102
RTVSPropertyOp41
 70
     1
102
RTVSPropertyOp42
 70
     1
102
RTVSPropertyOp43
 70
     1
102
RTVSPropertyOp44
 70
     1
102
RTVSPropertyOp45
 70
     1
102
RTVSPropertyOp46
 70
     1
102
RTVSPropertyOp47
 70
     1
102
RTVSPropertyOp48
 70
     1
102
RTVSPropertyOp49
 70
     1
102
RTVSPropertyOp50
 70
     1
102
RTVSPropertyOp51
 70
     0
102
RTVSPropertyOp52
 70
     0
102
RTVSPropertyOp53
 70
     1
102
RTVSPropertyOp54
 70
     1
102
RTVSPropertyOp55
 70
     1
102
RTVSPropertyOp56
 70
     1
102
RTVSPropertyOp57
 70
     1
102
RTVSPropertyOp58
 70
     1
102
RTVSPropertyOp59
 70
     1
102
RTVSPropertyOp60
 70
     1
102
RTVSPropertyOp61
 70
     1
102
RTVSPropertyOp62
 70
     1
  0
XRECORD
  5
E97C
102
{ACAD_REACTORS
330
E97B
102
}
330
E97B
100
AcDbXrecord
280
     1
102
RTVSPost2010Prop28
280
     0
102
RTVSPost2010PropOp28
 70
     1
102
RTVSPost2010Prop29
280
     1
102
RTVSPost2010PropOp29
 70
     1
102
RTVSPost2010Prop30
280
     1
102
RTVSPost2010PropOp30
 70
     1
102
RTVSPost2010Prop31
280
     0
102
RTVSPost2010PropOp31
 70
     1
102
RTVSPost2010Prop32
280
     0
102
RTVSPost2010PropOp32
 70
     1
102
RTVSPost2010Prop33
280
     0
102
RTVSPost2010PropOp33
 70
     1
102
RTVSPost2010Prop34
280
     0
102
RTVSPost2010PropOp34
 70
     1
102
RTVSPost2010Prop35
280
     0
102
RTVSPost2010PropOp35
 70
     1
102
RTVSPost2010Prop36
280
     0
102
RTVSPost2010PropOp36
 70
     1
102
RTVSPost2010Prop37
 90
       50
102
RTVSPost2010PropOp37
 70
     1
102
RTVSPost2010Prop38
140
0.0
102
RTVSPost2010PropOp38
 70
     1
102
RTVSPost2010Prop39
140
1.0
102
RTVSPost2010PropOp39
 70
     1
102
RTVSPost2010Prop40
 90
        0
102
RTVSPost2010PropOp40
 70
     1
102
RTVSPost2010Prop41ColorIndex
 90
       18
102
RTVSPost2010Prop41ColorRGB
 90
        0
102
RTVSPost2010PropOp41
 70
     1
102
RTVSPost2010Prop42
 90
       50
102
RTVSPost2010PropOp42
 70
     1
102
RTVSPost2010Prop43
 90
        3
102
RTVSPost2010PropOp43
 70
     1
102
RTVSPost2010Prop44ColorIndex
 90
        5
102
RTVSPost2010Prop44ColorRGB
 90
      255
102
RTVSPost2010PropOp44
 70
     1
102
RTVSPost2010Prop45
280
     0
102
RTVSPost2010PropOp45
 70
     1
102
RTVSPost2010Prop46
 90
       50
102
RTVSPost2010PropOp46
 70
     1
102
RTVSPost2010Prop47
 90
       50
102
RTVSPost2010PropOp47
 70
     1
102
RTVSPost2010Prop48
 90
       50
102
RTVSPost2010PropOp48
 70
     1
102
RTVSPost2010Prop49
280
     0
102
RTVSPost2010PropOp49
 70
     1
102
RTVSPost2010Prop50
 90
       50
102
RTVSPost2010PropOp50
 70
     1
102
RTVSPost2010Prop51ColorIndex
 90
      256
102
RTVSPost2010Prop51ColorRGB
 90
-16777216
102
RTVSPost2010PropOp51
 70
     0
102
RTVSPost2010Prop52
140
1.0
102
RTVSPost2010PropOp52
 70
     0
102
RTVSPost2010Prop53
 90
        2
102
RTVSPost2010PropOp53
 70
     1
102
RTVSPost2010Prop54
  1
strokes_ogs.tif
102
RTVSPost2010PropOp54
 70
     1
102
RTVSPost2010Prop55
280
     0
102
RTVSPost2010PropOp55
 70
     1
102
RTVSPost2010Prop56
140
1.0
102
RTVSPost2010PropOp56
 70
     1
102
RTVSPost2010Prop57
140
1.0
102
RTVSPost2010PropOp57
 70
     1
102
RTVSPropertyOp0
 70
     1
102
RTVSPropertyOp1
 70
     1
102
RTVSPropertyOp2
 70
     1
102
RTVSPropertyOp3
 70
     1
102
RTVSPropertyOp4
 70
     1
102
RTVSPropertyOp5
 70
     1
102
RTVSPropertyOp6
 70
     1
102
RTVSPropertyOp7
 70
     1
102
RTVSPropertyOp8
 70
     1
102
RTVSPropertyOp9
 70
     1
102
RTVSPropertyOp10
 70
     1
102
RTVSPropertyOp11
 70
     1
102
RTVSPropertyOp12
 70
     1
102
RTVSPropertyOp13
 70
     1
102
RTVSPropertyOp14
 70
     1
102
RTVSPropertyOp15
 70
     1
102
RTVSPropertyOp16
 70
     1
102
RTVSPropertyOp17
 70
     1
102
RTVSPropertyOp18
 70
     1
102
RTVSPropertyOp19
 70
     1
102
RTVSPropertyOp20
 70
     1
102
RTVSPropertyOp21
 70
     1
102
RTVSPropertyOp22
 70
     1
102
RTVSPropertyOp23
 70
     1
102
RTVSPropertyOp24
 70
     1
102
RTVSPropertyOp25
 70
     1
102
RTVSPropertyOp26
 70
     1
102
RTVSPropertyOp27
 70
     1
102
RTVSPropertyOp28
 70
     1
102
RTVSPropertyOp29
 70
     1
102
RTVSPropertyOp30
 70
     1
102
RTVSPropertyOp31
 70
     1
102
RTVSPropertyOp32
 70
     1
102
RTVSPropertyOp33
 70
     1
102
RTVSPropertyOp34
 70
     1
102
RTVSPropertyOp35
 70
     1
102
RTVSPropertyOp36
 70
     1
102
RTVSPropertyOp37
 70
     1
102
RTVSPropertyOp38
 70
     1
102
RTVSPropertyOp39
 70
     1
102
RTVSPropertyOp40
 70
     1
102
RTVSPropertyOp41
 70
     1
102
RTVSPropertyOp42
 70
     1
102
RTVSPropertyOp43
 70
     1
102
RTVSPropertyOp44
 70
     1
102
RTVSPropertyOp45
 70
     1
102
RTVSPropertyOp46
 70
     1
102
RTVSPropertyOp47
 70
     1
102
RTVSPropertyOp48
 70
     1
102
RTVSPropertyOp49
 70
     1
102
RTVSPropertyOp50
 70
     1
102
RTVSPropertyOp51
 70
     0
102
RTVSPropertyOp52
 70
     0
102
RTVSPropertyOp53
 70
     1
102
RTVSPropertyOp54
 70
     1
102
RTVSPropertyOp55
 70
     1
102
RTVSPropertyOp56
 70
     1
102
RTVSPropertyOp57
 70
     1
102
RTVSPropertyOp58
 70
     1
102
RTVSPropertyOp59
 70
     1
102
RTVSPropertyOp60
 70
     1
102
RTVSPropertyOp61
 70
     1
102
RTVSPropertyOp62
 70
     1
  0
XRECORD
  5
E97E
102
{ACAD_REACTORS
330
E97D
102
}
330
E97D
100
AcDbXrecord
280
     1
102
RTVSPost2010Prop28
280
     0
102
RTVSPost2010PropOp28
 70
     1
102
RTVSPost2010Prop29
280
     1
102
RTVSPost2010PropOp29
 70
     1
102
RTVSPost2010Prop30
280
     1
102
RTVSPost2010PropOp30
 70
     1
102
RTVSPost2010Prop31
280
     0
102
RTVSPost2010PropOp31
 70
     1
102
RTVSPost2010Prop32
280
     0
102
RTVSPost2010PropOp32
 70
     1
102
RTVSPost2010Prop33
280
     0
102
RTVSPost2010PropOp33
 70
     1
102
RTVSPost2010Prop34
280
     0
102
RTVSPost2010PropOp34
 70
     1
102
RTVSPost2010Prop35
280
     0
102
RTVSPost2010PropOp35
 70
     1
102
RTVSPost2010Prop36
280
     0
102
RTVSPost2010PropOp36
 70
     1
102
RTVSPost2010Prop37
 90
       50
102
RTVSPost2010PropOp37
 70
     1
102
RTVSPost2010Prop38
140
0.0
102
RTVSPost2010PropOp38
 70
     1
102
RTVSPost2010Prop39
140
1.0
102
RTVSPost2010PropOp39
 70
     1
102
RTVSPost2010Prop40
 90
        0
102
RTVSPost2010PropOp40
 70
     1
102
RTVSPost2010Prop41ColorIndex
 90
       18
102
RTVSPost2010Prop41ColorRGB
 90
        0
102
RTVSPost2010PropOp41
 70
     1
102
RTVSPost2010Prop42
 90
       50
102
RTVSPost2010PropOp42
 70
     1
102
RTVSPost2010Prop43
 90
        3
102
RTVSPost2010PropOp43
 70
     1
102
RTVSPost2010Prop44ColorIndex
 90
        5
102
RTVSPost2010Prop44ColorRGB
 90
      255
102
RTVSPost2010PropOp44
 70
     1
102
RTVSPost2010Prop45
280
     0
102
RTVSPost2010PropOp45
 70
     1
102
RTVSPost2010Prop46
 90
       50
102
RTVSPost2010PropOp46
 70
     1
102
RTVSPost2010Prop47
 90
       50
102
RTVSPost2010PropOp47
 70
     1
102
RTVSPost2010Prop48
 90
       50
102
RTVSPost2010PropOp48
 70
     1
102
RTVSPost2010Prop49
280
     0
102
RTVSPost2010PropOp49
 70
     1
102
RTVSPost2010Prop50
 90
       50
102
RTVSPost2010PropOp50
 70
     1
102
RTVSPost2010Prop51ColorIndex
 90
      256
102
RTVSPost2010Prop51ColorRGB
 90
-16777216
102
RTVSPost2010PropOp51
 70
     0
102
RTVSPost2010Prop52
140
1.0
102
RTVSPost2010PropOp52
 70
     0
102
RTVSPost2010Prop53
 90
        2
102
RTVSPost2010PropOp53
 70
     1
102
RTVSPost2010Prop54
  1
strokes_ogs.tif
102
RTVSPost2010PropOp54
 70
     1
102
RTVSPost2010Prop55
280
     0
102
RTVSPost2010PropOp55
 70
     1
102
RTVSPost2010Prop56
140
1.0
102
RTVSPost2010PropOp56
 70
     1
102
RTVSPost2010Prop57
140
1.0
102
RTVSPost2010PropOp57
 70
     1
102
RTVSPropertyOp0
 70
     1
102
RTVSPropertyOp1
 70
     1
102
RTVSPropertyOp2
 70
     1
102
RTVSPropertyOp3
 70
     1
102
RTVSPropertyOp4
 70
     1
102
RTVSPropertyOp5
 70
     1
102
RTVSPropertyOp6
 70
     1
102
RTVSPropertyOp7
 70
     1
102
RTVSPropertyOp8
 70
     1
102
RTVSPropertyOp9
 70
     1
102
RTVSPropertyOp10
 70
     1
102
RTVSPropertyOp11
 70
     1
102
RTVSPropertyOp12
 70
     1
102
RTVSPropertyOp13
 70
     1
102
RTVSPropertyOp14
 70
     1
102
RTVSPropertyOp15
 70
     1
102
RTVSPropertyOp16
 70
     1
102
RTVSPropertyOp17
 70
     1
102
RTVSPropertyOp18
 70
     1
102
RTVSPropertyOp19
 70
     1
102
RTVSPropertyOp20
 70
     1
102
RTVSPropertyOp21
 70
     1
102
RTVSPropertyOp22
 70
     1
102
RTVSPropertyOp23
 70
     1
102
RTVSPropertyOp24
 70
     1
102
RTVSPropertyOp25
 70
     1
102
RTVSPropertyOp26
 70
     1
102
RTVSPropertyOp27
 70
     1
102
RTVSPropertyOp28
 70
     1
102
RTVSPropertyOp29
 70
     1
102
RTVSPropertyOp30
 70
     1
102
RTVSPropertyOp31
 70
     1
102
RTVSPropertyOp32
 70
     1
102
RTVSPropertyOp33
 70
     1
102
RTVSPropertyOp34
 70
     1
102
RTVSPropertyOp35
 70
     1
102
RTVSPropertyOp36
 70
     1
102
RTVSPropertyOp37
 70
     1
102
RTVSPropertyOp38
 70
     1
102
RTVSPropertyOp39
 70
     1
102
RTVSPropertyOp40
 70
     1
102
RTVSPropertyOp41
 70
     1
102
RTVSPropertyOp42
 70
     1
102
RTVSPropertyOp43
 70
     1
102
RTVSPropertyOp44
 70
     1
102
RTVSPropertyOp45
 70
     1
102
RTVSPropertyOp46
 70
     1
102
RTVSPropertyOp47
 70
     1
102
RTVSPropertyOp48
 70
     1
102
RTVSPropertyOp49
 70
     1
102
RTVSPropertyOp50
 70
     1
102
RTVSPropertyOp51
 70
     0
102
RTVSPropertyOp52
 70
     0
102
RTVSPropertyOp53
 70
     1
102
RTVSPropertyOp54
 70
     1
102
RTVSPropertyOp55
 70
     1
102
RTVSPropertyOp56
 70
     1
102
RTVSPropertyOp57
 70
     1
102
RTVSPropertyOp58
 70
     1
102
RTVSPropertyOp59
 70
     1
102
RTVSPropertyOp60
 70
     1
102
RTVSPropertyOp61
 70
     1
102
RTVSPropertyOp62
 70
     1
  0
XRECORD
  5
E980
102
{ACAD_REACTORS
330
E97F
102
}
330
E97F
100
AcDbXrecord
280
     1
102
RTVSPost2010Prop28
280
     0
102
RTVSPost2010PropOp28
 70
     1
102
RTVSPost2010Prop29
280
     1
102
RTVSPost2010PropOp29
 70
     1
102
RTVSPost2010Prop30
280
     1
102
RTVSPost2010PropOp30
 70
     1
102
RTVSPost2010Prop31
280
     0
102
RTVSPost2010PropOp31
 70
     1
102
RTVSPost2010Prop32
280
     0
102
RTVSPost2010PropOp32
 70
     1
102
RTVSPost2010Prop33
280
     0
102
RTVSPost2010PropOp33
 70
     1
102
RTVSPost2010Prop34
280
     0
102
RTVSPost2010PropOp34
 70
     1
102
RTVSPost2010Prop35
280
     0
102
RTVSPost2010PropOp35
 70
     1
102
RTVSPost2010Prop36
280
     0
102
RTVSPost2010PropOp36
 70
     1
102
RTVSPost2010Prop37
 90
       50
102
RTVSPost2010PropOp37
 70
     1
102
RTVSPost2010Prop38
140
0.0
102
RTVSPost2010PropOp38
 70
     1
102
RTVSPost2010Prop39
140
1.0
102
RTVSPost2010PropOp39
 70
     1
102
RTVSPost2010Prop40
 90
        0
102
RTVSPost2010PropOp40
 70
     1
102
RTVSPost2010Prop41ColorIndex
 90
       18
102
RTVSPost2010Prop41ColorRGB
 90
        0
102
RTVSPost2010PropOp41
 70
     1
102
RTVSPost2010Prop42
 90
       50
102
RTVSPost2010PropOp42
 70
     1
102
RTVSPost2010Prop43
 90
        3
102
RTVSPost2010PropOp43
 70
     1
102
RTVSPost2010Prop44ColorIndex
 90
        5
102
RTVSPost2010Prop44ColorRGB
 90
      255
102
RTVSPost2010PropOp44
 70
     1
102
RTVSPost2010Prop45
280
     0
102
RTVSPost2010PropOp45
 70
     1
102
RTVSPost2010Prop46
 90
       50
102
RTVSPost2010PropOp46
 70
     1
102
RTVSPost2010Prop47
 90
       50
102
RTVSPost2010PropOp47
 70
     1
102
RTVSPost2010Prop48
 90
       50
102
RTVSPost2010PropOp48
 70
     1
102
RTVSPost2010Prop49
280
     0
102
RTVSPost2010PropOp49
 70
     1
102
RTVSPost2010Prop50
 90
       50
102
RTVSPost2010PropOp50
 70
     1
102
RTVSPost2010Prop51ColorIndex
 90
      256
102
RTVSPost2010Prop51ColorRGB
 90
-16777216
102
RTVSPost2010PropOp51
 70
     0
102
RTVSPost2010Prop52
140
1.0
102
RTVSPost2010PropOp52
 70
     0
102
RTVSPost2010Prop53
 90
        2
102
RTVSPost2010PropOp53
 70
     1
102
RTVSPost2010Prop54
  1
strokes_ogs.tif
102
RTVSPost2010PropOp54
 70
     1
102
RTVSPost2010Prop55
280
     0
102
RTVSPost2010PropOp55
 70
     1
102
RTVSPost2010Prop56
140
1.0
102
RTVSPost2010PropOp56
 70
     1
102
RTVSPost2010Prop57
140
1.0
102
RTVSPost2010PropOp57
 70
     1
102
RTVSPropertyOp0
 70
     1
102
RTVSPropertyOp1
 70
     1
102
RTVSPropertyOp2
 70
     1
102
RTVSPropertyOp3
 70
     1
102
RTVSPropertyOp4
 70
     1
102
RTVSPropertyOp5
 70
     1
102
RTVSPropertyOp6
 70
     1
102
RTVSPropertyOp7
 70
     1
102
RTVSPropertyOp8
 70
     1
102
RTVSPropertyOp9
 70
     1
102
RTVSPropertyOp10
 70
     1
102
RTVSPropertyOp11
 70
     1
102
RTVSPropertyOp12
 70
     1
102
RTVSPropertyOp13
 70
     1
102
RTVSPropertyOp14
 70
     1
102
RTVSPropertyOp15
 70
     1
102
RTVSPropertyOp16
 70
     1
102
RTVSPropertyOp17
 70
     1
102
RTVSPropertyOp18
 70
     1
102
RTVSPropertyOp19
 70
     1
102
RTVSPropertyOp20
 70
     1
102
RTVSPropertyOp21
 70
     1
102
RTVSPropertyOp22
 70
     1
102
RTVSPropertyOp23
 70
     1
102
RTVSPropertyOp24
 70
     1
102
RTVSPropertyOp25
 70
     1
102
RTVSPropertyOp26
 70
     1
102
RTVSPropertyOp27
 70
     1
102
RTVSPropertyOp28
 70
     1
102
RTVSPropertyOp29
 70
     1
102
RTVSPropertyOp30
 70
     1
102
RTVSPropertyOp31
 70
     1
102
RTVSPropertyOp32
 70
     1
102
RTVSPropertyOp33
 70
     1
102
RTVSPropertyOp34
 70
     1
102
RTVSPropertyOp35
 70
     1
102
RTVSPropertyOp36
 70
     1
102
RTVSPropertyOp37
 70
     1
102
RTVSPropertyOp38
 70
     1
102
RTVSPropertyOp39
 70
     1
102
RTVSPropertyOp40
 70
     1
102
RTVSPropertyOp41
 70
     1
102
RTVSPropertyOp42
 70
     1
102
RTVSPropertyOp43
 70
     1
102
RTVSPropertyOp44
 70
     1
102
RTVSPropertyOp45
 70
     1
102
RTVSPropertyOp46
 70
     1
102
RTVSPropertyOp47
 70
     1
102
RTVSPropertyOp48
 70
     1
102
RTVSPropertyOp49
 70
     1
102
RTVSPropertyOp50
 70
     1
102
RTVSPropertyOp51
 70
     0
102
RTVSPropertyOp52
 70
     0
102
RTVSPropertyOp53
 70
     1
102
RTVSPropertyOp54
 70
     1
102
RTVSPropertyOp55
 70
     1
102
RTVSPropertyOp56
 70
     1
102
RTVSPropertyOp57
 70
     1
102
RTVSPropertyOp58
 70
     1
102
RTVSPropertyOp59
 70
     1
102
RTVSPropertyOp60
 70
     1
102
RTVSPropertyOp61
 70
     1
102
RTVSPropertyOp62
 70
     1
  0
XRECORD
  5
E982
102
{ACAD_REACTORS
330
E981
102
}
330
E981
100
AcDbXrecord
280
     1
102
RTVSPost2010Prop28
280
     0
102
RTVSPost2010PropOp28
 70
     1
102
RTVSPost2010Prop29
280
     1
102
RTVSPost2010PropOp29
 70
     1
102
RTVSPost2010Prop30
280
     1
102
RTVSPost2010PropOp30
 70
     1
102
RTVSPost2010Prop31
280
     0
102
RTVSPost2010PropOp31
 70
     1
102
RTVSPost2010Prop32
280
     0
102
RTVSPost2010PropOp32
 70
     1
102
RTVSPost2010Prop33
280
     0
102
RTVSPost2010PropOp33
 70
     1
102
RTVSPost2010Prop34
280
     0
102
RTVSPost2010PropOp34
 70
     1
102
RTVSPost2010Prop35
280
     0
102
RTVSPost2010PropOp35
 70
     1
102
RTVSPost2010Prop36
280
     0
102
RTVSPost2010PropOp36
 70
     1
102
RTVSPost2010Prop37
 90
       50
102
RTVSPost2010PropOp37
 70
     1
102
RTVSPost2010Prop38
140
0.0
102
RTVSPost2010PropOp38
 70
     1
102
RTVSPost2010Prop39
140
1.0
102
RTVSPost2010PropOp39
 70
     1
102
RTVSPost2010Prop40
 90
        0
102
RTVSPost2010PropOp40
 70
     1
102
RTVSPost2010Prop41ColorIndex
 90
       18
102
RTVSPost2010Prop41ColorRGB
 90
        0
102
RTVSPost2010PropOp41
 70
     1
102
RTVSPost2010Prop42
 90
       50
102
RTVSPost2010PropOp42
 70
     1
102
RTVSPost2010Prop43
 90
        3
102
RTVSPost2010PropOp43
 70
     1
102
RTVSPost2010Prop44ColorIndex
 90
        5
102
RTVSPost2010Prop44ColorRGB
 90
      255
102
RTVSPost2010PropOp44
 70
     1
102
RTVSPost2010Prop45
280
     0
102
RTVSPost2010PropOp45
 70
     1
102
RTVSPost2010Prop46
 90
       50
102
RTVSPost2010PropOp46
 70
     1
102
RTVSPost2010Prop47
 90
       50
102
RTVSPost2010PropOp47
 70
     1
102
RTVSPost2010Prop48
 90
       50
102
RTVSPost2010PropOp48
 70
     1
102
RTVSPost2010Prop49
280
     0
102
RTVSPost2010PropOp49
 70
     1
102
RTVSPost2010Prop50
 90
       50
102
RTVSPost2010PropOp50
 70
     1
102
RTVSPost2010Prop51ColorIndex
 90
      256
102
RTVSPost2010Prop51ColorRGB
 90
-16777216
102
RTVSPost2010PropOp51
 70
     0
102
RTVSPost2010Prop52
140
1.0
102
RTVSPost2010PropOp52
 70
     0
102
RTVSPost2010Prop53
 90
        2
102
RTVSPost2010PropOp53
 70
     1
102
RTVSPost2010Prop54
  1
strokes_ogs.tif
102
RTVSPost2010PropOp54
 70
     1
102
RTVSPost2010Prop55
280
     0
102
RTVSPost2010PropOp55
 70
     1
102
RTVSPost2010Prop56
140
1.0
102
RTVSPost2010PropOp56
 70
     1
102
RTVSPost2010Prop57
140
1.0
102
RTVSPost2010PropOp57
 70
     1
102
RTVSPropertyOp0
 70
     1
102
RTVSPropertyOp1
 70
     1
102
RTVSPropertyOp2
 70
     1
102
RTVSPropertyOp3
 70
     1
102
RTVSPropertyOp4
 70
     1
102
RTVSPropertyOp5
 70
     1
102
RTVSPropertyOp6
 70
     1
102
RTVSPropertyOp7
 70
     1
102
RTVSPropertyOp8
 70
     1
102
RTVSPropertyOp9
 70
     1
102
RTVSPropertyOp10
 70
     1
102
RTVSPropertyOp11
 70
     1
102
RTVSPropertyOp12
 70
     1
102
RTVSPropertyOp13
 70
     1
102
RTVSPropertyOp14
 70
     1
102
RTVSPropertyOp15
 70
     1
102
RTVSPropertyOp16
 70
     1
102
RTVSPropertyOp17
 70
     1
102
RTVSPropertyOp18
 70
     1
102
RTVSPropertyOp19
 70
     1
102
RTVSPropertyOp20
 70
     1
102
RTVSPropertyOp21
 70
     1
102
RTVSPropertyOp22
 70
     1
102
RTVSPropertyOp23
 70
     1
102
RTVSPropertyOp24
 70
     1
102
RTVSPropertyOp25
 70
     1
102
RTVSPropertyOp26
 70
     1
102
RTVSPropertyOp27
 70
     1
102
RTVSPropertyOp28
 70
     1
102
RTVSPropertyOp29
 70
     1
102
RTVSPropertyOp30
 70
     1
102
RTVSPropertyOp31
 70
     1
102
RTVSPropertyOp32
 70
     1
102
RTVSPropertyOp33
 70
     1
102
RTVSPropertyOp34
 70
     1
102
RTVSPropertyOp35
 70
     1
102
RTVSPropertyOp36
 70
     1
102
RTVSPropertyOp37
 70
     1
102
RTVSPropertyOp38
 70
     1
102
RTVSPropertyOp39
 70
     1
102
RTVSPropertyOp40
 70
     1
102
RTVSPropertyOp41
 70
     1
102
RTVSPropertyOp42
 70
     1
102
RTVSPropertyOp43
 70
     1
102
RTVSPropertyOp44
 70
     1
102
RTVSPropertyOp45
 70
     1
102
RTVSPropertyOp46
 70
     1
102
RTVSPropertyOp47
 70
     1
102
RTVSPropertyOp48
 70
     1
102
RTVSPropertyOp49
 70
     1
102
RTVSPropertyOp50
 70
     1
102
RTVSPropertyOp51
 70
     0
102
RTVSPropertyOp52
 70
     0
102
RTVSPropertyOp53
 70
     1
102
RTVSPropertyOp54
 70
     1
102
RTVSPropertyOp55
 70
     1
102
RTVSPropertyOp56
 70
     1
102
RTVSPropertyOp57
 70
     1
102
RTVSPropertyOp58
 70
     1
102
RTVSPropertyOp59
 70
     1
102
RTVSPropertyOp60
 70
     1
102
RTVSPropertyOp61
 70
     1
102
RTVSPropertyOp62
 70
     1
  0
XRECORD
  5
E98A
102
{ACAD_REACTORS
330
E989
102
}
330
E989
100
AcDbXrecord
280
     1
102
RTVSPost2010Prop28
280
     0
102
RTVSPost2010PropOp28
 70
     1
102
RTVSPost2010Prop29
280
     1
102
RTVSPost2010PropOp29
 70
     1
102
RTVSPost2010Prop30
280
     1
102
RTVSPost2010PropOp30
 70
     1
102
RTVSPost2010Prop31
280
     0
102
RTVSPost2010PropOp31
 70
     1
102
RTVSPost2010Prop32
280
     0
102
RTVSPost2010PropOp32
 70
     1
102
RTVSPost2010Prop33
280
     0
102
RTVSPost2010PropOp33
 70
     1
102
RTVSPost2010Prop34
280
     0
102
RTVSPost2010PropOp34
 70
     1
102
RTVSPost2010Prop35
280
     0
102
RTVSPost2010PropOp35
 70
     1
102
RTVSPost2010Prop36
280
     0
102
RTVSPost2010PropOp36
 70
     1
102
RTVSPost2010Prop37
 90
       50
102
RTVSPost2010PropOp37
 70
     1
102
RTVSPost2010Prop38
140
0.0
102
RTVSPost2010PropOp38
 70
     1
102
RTVSPost2010Prop39
140
1.0
102
RTVSPost2010PropOp39
 70
     1
102
RTVSPost2010Prop40
 90
        0
102
RTVSPost2010PropOp40
 70
     1
102
RTVSPost2010Prop41ColorIndex
 90
       18
102
RTVSPost2010Prop41ColorRGB
 90
        0
102
RTVSPost2010PropOp41
 70
     1
102
RTVSPost2010Prop42
 90
       50
102
RTVSPost2010PropOp42
 70
     1
102
RTVSPost2010Prop43
 90
        3
102
RTVSPost2010PropOp43
 70
     1
102
RTVSPost2010Prop44ColorIndex
 90
        5
102
RTVSPost2010Prop44ColorRGB
 90
      255
102
RTVSPost2010PropOp44
 70
     1
102
RTVSPost2010Prop45
280
     0
102
RTVSPost2010PropOp45
 70
     1
102
RTVSPost2010Prop46
 90
       50
102
RTVSPost2010PropOp46
 70
     1
102
RTVSPost2010Prop47
 90
       50
102
RTVSPost2010PropOp47
 70
     1
102
RTVSPost2010Prop48
 90
       50
102
RTVSPost2010PropOp48
 70
     1
102
RTVSPost2010Prop49
280
     0
102
RTVSPost2010PropOp49
 70
     1
102
RTVSPost2010Prop50
 90
       50
102
RTVSPost2010PropOp50
 70
     1
102
RTVSPost2010Prop51ColorIndex
 90
      256
102
RTVSPost2010Prop51ColorRGB
 90
-16777216
102
RTVSPost2010PropOp51
 70
     0
102
RTVSPost2010Prop52
140
1.0
102
RTVSPost2010PropOp52
 70
     0
102
RTVSPost2010Prop53
 90
        2
102
RTVSPost2010PropOp53
 70
     1
102
RTVSPost2010Prop54
  1
strokes_ogs.tif
102
RTVSPost2010PropOp54
 70
     1
102
RTVSPost2010Prop55
280
     0
102
RTVSPost2010PropOp55
 70
     1
102
RTVSPost2010Prop56
140
1.0
102
RTVSPost2010PropOp56
 70
     1
102
RTVSPost2010Prop57
140
1.0
102
RTVSPost2010PropOp57
 70
     1
102
RTVSPropertyOp0
 70
     1
102
RTVSPropertyOp1
 70
     1
102
RTVSPropertyOp2
 70
     1
102
RTVSPropertyOp3
 70
     1
102
RTVSPropertyOp4
 70
     1
102
RTVSPropertyOp5
 70
     1
102
RTVSPropertyOp6
 70
     1
102
RTVSPropertyOp7
 70
     1
102
RTVSPropertyOp8
 70
     1
102
RTVSPropertyOp9
 70
     1
102
RTVSPropertyOp10
 70
     1
102
RTVSPropertyOp11
 70
     1
102
RTVSPropertyOp12
 70
     1
102
RTVSPropertyOp13
 70
     1
102
RTVSPropertyOp14
 70
     1
102
RTVSPropertyOp15
 70
     1
102
RTVSPropertyOp16
 70
     1
102
RTVSPropertyOp17
 70
     1
102
RTVSPropertyOp18
 70
     1
102
RTVSPropertyOp19
 70
     1
102
RTVSPropertyOp20
 70
     1
102
RTVSPropertyOp21
 70
     1
102
RTVSPropertyOp22
 70
     1
102
RTVSPropertyOp23
 70
     1
102
RTVSPropertyOp24
 70
     1
102
RTVSPropertyOp25
 70
     1
102
RTVSPropertyOp26
 70
     1
102
RTVSPropertyOp27
 70
     1
102
RTVSPropertyOp28
 70
     1
102
RTVSPropertyOp29
 70
     1
102
RTVSPropertyOp30
 70
     1
102
RTVSPropertyOp31
 70
     1
102
RTVSPropertyOp32
 70
     1
102
RTVSPropertyOp33
 70
     1
102
RTVSPropertyOp34
 70
     1
102
RTVSPropertyOp35
 70
     1
102
RTVSPropertyOp36
 70
     1
102
RTVSPropertyOp37
 70
     1
102
RTVSPropertyOp38
 70
     1
102
RTVSPropertyOp39
 70
     1
102
RTVSPropertyOp40
 70
     1
102
RTVSPropertyOp41
 70
     1
102
RTVSPropertyOp42
 70
     1
102
RTVSPropertyOp43
 70
     1
102
RTVSPropertyOp44
 70
     1
102
RTVSPropertyOp45
 70
     1
102
RTVSPropertyOp46
 70
     1
102
RTVSPropertyOp47
 70
     1
102
RTVSPropertyOp48
 70
     1
102
RTVSPropertyOp49
 70
     1
102
RTVSPropertyOp50
 70
     1
102
RTVSPropertyOp51
 70
     0
102
RTVSPropertyOp52
 70
     0
102
RTVSPropertyOp53
 70
     1
102
RTVSPropertyOp54
 70
     1
102
RTVSPropertyOp55
 70
     1
102
RTVSPropertyOp56
 70
     1
102
RTVSPropertyOp57
 70
     1
102
RTVSPropertyOp58
 70
     1
102
RTVSPropertyOp59
 70
     1
102
RTVSPropertyOp60
 70
     1
102
RTVSPropertyOp61
 70
     1
102
RTVSPropertyOp62
 70
     1
  0
XRECORD
  5
E9A6
102
{ACAD_REACTORS
330
E9A5
102
}
330
E9A5
100
AcDbXrecord
280
     1
102
RTVSPost2010Prop28
280
     0
102
RTVSPost2010PropOp28
 70
     1
102
RTVSPost2010Prop29
280
     1
102
RTVSPost2010PropOp29
 70
     1
102
RTVSPost2010Prop30
280
     1
102
RTVSPost2010PropOp30
 70
     1
102
RTVSPost2010Prop31
280
     0
102
RTVSPost2010PropOp31
 70
     1
102
RTVSPost2010Prop32
280
     0
102
RTVSPost2010PropOp32
 70
     1
102
RTVSPost2010Prop33
280
     0
102
RTVSPost2010PropOp33
 70
     1
102
RTVSPost2010Prop34
280
     0
102
RTVSPost2010PropOp34
 70
     1
102
RTVSPost2010Prop35
280
     0
102
RTVSPost2010PropOp35
 70
     1
102
RTVSPost2010Prop36
280
     0
102
RTVSPost2010PropOp36
 70
     1
102
RTVSPost2010Prop37
 90
       50
102
RTVSPost2010PropOp37
 70
     0
102
RTVSPost2010Prop38
140
0.0
102
RTVSPost2010PropOp38
 70
     0
102
RTVSPost2010Prop39
140
1.0
102
RTVSPost2010PropOp39
 70
     0
102
RTVSPost2010Prop40
 90
        0
102
RTVSPost2010PropOp40
 70
     0
102
RTVSPost2010Prop41ColorIndex
 90
       18
102
RTVSPost2010Prop41ColorRGB
 90
        0
102
RTVSPost2010PropOp41
 70
     0
102
RTVSPost2010Prop42
 90
       50
102
RTVSPost2010PropOp42
 70
     0
102
RTVSPost2010Prop43
 90
        3
102
RTVSPost2010PropOp43
 70
     0
102
RTVSPost2010Prop44ColorIndex
 90
        5
102
RTVSPost2010Prop44ColorRGB
 90
      255
102
RTVSPost2010PropOp44
 70
     0
102
RTVSPost2010Prop45
280
     0
102
RTVSPost2010PropOp45
 70
     1
102
RTVSPost2010Prop46
 90
       50
102
RTVSPost2010PropOp46
 70
     0
102
RTVSPost2010Prop47
 90
       50
102
RTVSPost2010PropOp47
 70
     0
102
RTVSPost2010Prop48
 90
       50
102
RTVSPost2010PropOp48
 70
     0
102
RTVSPost2010Prop49
280
     0
102
RTVSPost2010PropOp49
 70
     1
102
RTVSPost2010Prop50
 90
       50
102
RTVSPost2010PropOp50
 70
     0
102
RTVSPost2010Prop51ColorIndex
 90
      256
102
RTVSPost2010Prop51ColorRGB
 90
-16777216
102
RTVSPost2010PropOp51
 70
     0
102
RTVSPost2010Prop52
140
1.0
102
RTVSPost2010PropOp52
 70
     0
102
RTVSPost2010Prop53
 90
        2
102
RTVSPost2010PropOp53
 70
     0
102
RTVSPost2010Prop54
  1
strokes_ogs.tif
102
RTVSPost2010PropOp54
 70
     0
102
RTVSPost2010Prop55
280
     0
102
RTVSPost2010PropOp55
 70
     1
102
RTVSPost2010Prop56
140
1.0
102
RTVSPost2010PropOp56
 70
     0
102
RTVSPost2010Prop57
140
1.0
102
RTVSPost2010PropOp57
 70
     0
102
RTVSPropertyOp0
 70
     0
102
RTVSPropertyOp1
 70
     0
102
RTVSPropertyOp2
 70
     0
102
RTVSPropertyOp3
 70
     0
102
RTVSPropertyOp4
 70
     0
102
RTVSPropertyOp5
 70
     0
102
RTVSPropertyOp6
 70
     0
102
RTVSPropertyOp7
 70
     0
102
RTVSPropertyOp8
 70
     0
102
RTVSPropertyOp9
 70
     0
102
RTVSPropertyOp10
 70
     0
102
RTVSPropertyOp11
 70
     0
102
RTVSPropertyOp12
 70
     0
102
RTVSPropertyOp13
 70
     0
102
RTVSPropertyOp14
 70
     2
102
RTVSPropertyOp15
 70
     0
102
RTVSPropertyOp16
 70
     0
102
RTVSPropertyOp17
 70
     0
102
RTVSPropertyOp18
 70
     0
102
RTVSPropertyOp19
 70
     0
102
RTVSPropertyOp20
 70
     0
102
RTVSPropertyOp21
 70
     0
102
RTVSPropertyOp22
 70
     0
102
RTVSPropertyOp23
 70
     0
102
RTVSPropertyOp24
 70
     0
102
RTVSPropertyOp25
 70
     0
102
RTVSPropertyOp26
 70
     0
102
RTVSPropertyOp27
 70
     0
102
RTVSPropertyOp28
 70
     1
102
RTVSPropertyOp29
 70
     1
102
RTVSPropertyOp30
 70
     1
102
RTVSPropertyOp31
 70
     1
102
RTVSPropertyOp32
 70
     1
102
RTVSPropertyOp33
 70
     1
102
RTVSPropertyOp34
 70
     1
102
RTVSPropertyOp35
 70
     1
102
RTVSPropertyOp36
 70
     1
102
RTVSPropertyOp37
 70
     0
102
RTVSPropertyOp38
 70
     0
102
RTVSPropertyOp39
 70
     0
102
RTVSPropertyOp40
 70
     0
102
RTVSPropertyOp41
 70
     0
102
RTVSPropertyOp42
 70
     0
102
RTVSPropertyOp43
 70
     0
102
RTVSPropertyOp44
 70
     0
102
RTVSPropertyOp45
 70
     1
102
RTVSPropertyOp46
 70
     0
102
RTVSPropertyOp47
 70
     0
102
RTVSPropertyOp48
 70
     0
102
RTVSPropertyOp49
 70
     1
102
RTVSPropertyOp50
 70
     0
102
RTVSPropertyOp51
 70
     0
102
RTVSPropertyOp52
 70
     0
102
RTVSPropertyOp53
 70
     0
102
RTVSPropertyOp54
 70
     0
102
RTVSPropertyOp55
 70
     1
102
RTVSPropertyOp56
 70
     0
102
RTVSPropertyOp57
 70
     0
102
RTVSPropertyOp58
 70
     0
102
RTVSPropertyOp59
 70
     0
102
RTVSPropertyOp60
 70
     0
102
RTVSPropertyOp61
 70
     0
102
RTVSPropertyOp62
 70
     0
  0
XRECORD
  5
E996
102
{ACAD_REACTORS
330
E995
102
}
330
E995
100
AcDbXrecord
280
     1
102
RTVSPost2010Prop28
280
     0
102
RTVSPost2010PropOp28
 70
     1
102
RTVSPost2010Prop29
280
     1
102
RTVSPost2010PropOp29
 70
     1
102
RTVSPost2010Prop30
280
     1
102
RTVSPost2010PropOp30
 70
     1
102
RTVSPost2010Prop31
280
     0
102
RTVSPost2010PropOp31
 70
     1
102
RTVSPost2010Prop32
280
     0
102
RTVSPost2010PropOp32
 70
     1
102
RTVSPost2010Prop33
280
     0
102
RTVSPost2010PropOp33
 70
     1
102
RTVSPost2010Prop34
280
     0
102
RTVSPost2010PropOp34
 70
     1
102
RTVSPost2010Prop35
280
     0
102
RTVSPost2010PropOp35
 70
     1
102
RTVSPost2010Prop36
280
     0
102
RTVSPost2010PropOp36
 70
     1
102
RTVSPost2010Prop37
 90
       50
102
RTVSPost2010PropOp37
 70
     1
102
RTVSPost2010Prop38
140
0.0
102
RTVSPost2010PropOp38
 70
     1
102
RTVSPost2010Prop39
140
1.0
102
RTVSPost2010PropOp39
 70
     1
102
RTVSPost2010Prop40
 90
        0
102
RTVSPost2010PropOp40
 70
     1
102
RTVSPost2010Prop41ColorIndex
 90
       18
102
RTVSPost2010Prop41ColorRGB
 90
        0
102
RTVSPost2010PropOp41
 70
     1
102
RTVSPost2010Prop42
 90
       50
102
RTVSPost2010PropOp42
 70
     1
102
RTVSPost2010Prop43
 90
        3
102
RTVSPost2010PropOp43
 70
     1
102
RTVSPost2010Prop44ColorIndex
 90
        5
102
RTVSPost2010Prop44ColorRGB
 90
      255
102
RTVSPost2010PropOp44
 70
     1
102
RTVSPost2010Prop45
280
     0
102
RTVSPost2010PropOp45
 70
     1
102
RTVSPost2010Prop46
 90
       50
102
RTVSPost2010PropOp46
 70
     1
102
RTVSPost2010Prop47
 90
       50
102
RTVSPost2010PropOp47
 70
     1
102
RTVSPost2010Prop48
 90
       50
102
RTVSPost2010PropOp48
 70
     1
102
RTVSPost2010Prop49
280
     0
102
RTVSPost2010PropOp49
 70
     1
102
RTVSPost2010Prop50
 90
       50
102
RTVSPost2010PropOp50
 70
     1
102
RTVSPost2010Prop51ColorIndex
 90
      256
102
RTVSPost2010Prop51ColorRGB
 90
-16777216
102
RTVSPost2010PropOp51
 70
     0
102
RTVSPost2010Prop52
140
1.0
102
RTVSPost2010PropOp52
 70
     0
102
RTVSPost2010Prop53
 90
        2
102
RTVSPost2010PropOp53
 70
     1
102
RTVSPost2010Prop54
  1
strokes_ogs.tif
102
RTVSPost2010PropOp54
 70
     1
102
RTVSPost2010Prop55
280
     0
102
RTVSPost2010PropOp55
 70
     1
102
RTVSPost2010Prop56
140
1.0
102
RTVSPost2010PropOp56
 70
     1
102
RTVSPost2010Prop57
140
1.0
102
RTVSPost2010PropOp57
 70
     1
102
RTVSPropertyOp0
 70
     1
102
RTVSPropertyOp1
 70
     1
102
RTVSPropertyOp2
 70
     1
102
RTVSPropertyOp3
 70
     1
102
RTVSPropertyOp4
 70
     1
102
RTVSPropertyOp5
 70
     1
102
RTVSPropertyOp6
 70
     1
102
RTVSPropertyOp7
 70
     1
102
RTVSPropertyOp8
 70
     1
102
RTVSPropertyOp9
 70
     1
102
RTVSPropertyOp10
 70
     1
102
RTVSPropertyOp11
 70
     1
102
RTVSPropertyOp12
 70
     1
102
RTVSPropertyOp13
 70
     1
102
RTVSPropertyOp14
 70
     1
102
RTVSPropertyOp15
 70
     1
102
RTVSPropertyOp16
 70
     1
102
RTVSPropertyOp17
 70
     1
102
RTVSPropertyOp18
 70
     1
102
RTVSPropertyOp19
 70
     1
102
RTVSPropertyOp20
 70
     1
102
RTVSPropertyOp21
 70
     1
102
RTVSPropertyOp22
 70
     1
102
RTVSPropertyOp23
 70
     1
102
RTVSPropertyOp24
 70
     1
102
RTVSPropertyOp25
 70
     1
102
RTVSPropertyOp26
 70
     1
102
RTVSPropertyOp27
 70
     1
102
RTVSPropertyOp28
 70
     1
102
RTVSPropertyOp29
 70
     1
102
RTVSPropertyOp30
 70
     1
102
RTVSPropertyOp31
 70
     1
102
RTVSPropertyOp32
 70
     1
102
RTVSPropertyOp33
 70
     1
102
RTVSPropertyOp34
 70
     1
102
RTVSPropertyOp35
 70
     1
102
RTVSPropertyOp36
 70
     1
102
RTVSPropertyOp37
 70
     1
102
RTVSPropertyOp38
 70
     1
102
RTVSPropertyOp39
 70
     1
102
RTVSPropertyOp40
 70
     1
102
RTVSPropertyOp41
 70
     1
102
RTVSPropertyOp42
 70
     1
102
RTVSPropertyOp43
 70
     1
102
RTVSPropertyOp44
 70
     1
102
RTVSPropertyOp45
 70
     1
102
RTVSPropertyOp46
 70
     1
102
RTVSPropertyOp47
 70
     1
102
RTVSPropertyOp48
 70
     1
102
RTVSPropertyOp49
 70
     1
102
RTVSPropertyOp50
 70
     1
102
RTVSPropertyOp51
 70
     0
102
RTVSPropertyOp52
 70
     0
102
RTVSPropertyOp53
 70
     1
102
RTVSPropertyOp54
 70
     1
102
RTVSPropertyOp55
 70
     1
102
RTVSPropertyOp56
 70
     1
102
RTVSPropertyOp57
 70
     1
102
RTVSPropertyOp58
 70
     1
102
RTVSPropertyOp59
 70
     1
102
RTVSPropertyOp60
 70
     1
102
RTVSPropertyOp61
 70
     1
102
RTVSPropertyOp62
 70
     1
  0
XRECORD
  5
E9A8
102
{ACAD_REACTORS
330
E9A7
102
}
330
E9A7
100
AcDbXrecord
280
     1
102
RTVSPost2010Prop28
280
     0
102
RTVSPost2010PropOp28
 70
     1
102
RTVSPost2010Prop29
280
     1
102
RTVSPost2010PropOp29
 70
     1
102
RTVSPost2010Prop30
280
     1
102
RTVSPost2010PropOp30
 70
     1
102
RTVSPost2010Prop31
280
     0
102
RTVSPost2010PropOp31
 70
     1
102
RTVSPost2010Prop32
280
     0
102
RTVSPost2010PropOp32
 70
     1
102
RTVSPost2010Prop33
280
     0
102
RTVSPost2010PropOp33
 70
     1
102
RTVSPost2010Prop34
280
     0
102
RTVSPost2010PropOp34
 70
     1
102
RTVSPost2010Prop35
280
     0
102
RTVSPost2010PropOp35
 70
     1
102
RTVSPost2010Prop36
280
     0
102
RTVSPost2010PropOp36
 70
     1
102
RTVSPost2010Prop37
 90
       50
102
RTVSPost2010PropOp37
 70
     0
102
RTVSPost2010Prop38
140
0.0
102
RTVSPost2010PropOp38
 70
     0
102
RTVSPost2010Prop39
140
1.0
102
RTVSPost2010PropOp39
 70
     0
102
RTVSPost2010Prop40
 90
        0
102
RTVSPost2010PropOp40
 70
     0
102
RTVSPost2010Prop41ColorIndex
 90
       18
102
RTVSPost2010Prop41ColorRGB
 90
        0
102
RTVSPost2010PropOp41
 70
     0
102
RTVSPost2010Prop42
 90
       50
102
RTVSPost2010PropOp42
 70
     0
102
RTVSPost2010Prop43
 90
        3
102
RTVSPost2010PropOp43
 70
     0
102
RTVSPost2010Prop44ColorIndex
 90
        5
102
RTVSPost2010Prop44ColorRGB
 90
      255
102
RTVSPost2010PropOp44
 70
     0
102
RTVSPost2010Prop45
280
     0
102
RTVSPost2010PropOp45
 70
     1
102
RTVSPost2010Prop46
 90
       50
102
RTVSPost2010PropOp46
 70
     0
102
RTVSPost2010Prop47
 90
       50
102
RTVSPost2010PropOp47
 70
     0
102
RTVSPost2010Prop48
 90
       50
102
RTVSPost2010PropOp48
 70
     0
102
RTVSPost2010Prop49
280
     0
102
RTVSPost2010PropOp49
 70
     1
102
RTVSPost2010Prop50
 90
       50
102
RTVSPost2010PropOp50
 70
     0
102
RTVSPost2010Prop51ColorIndex
 90
      256
102
RTVSPost2010Prop51ColorRGB
 90
-16777216
102
RTVSPost2010PropOp51
 70
     0
102
RTVSPost2010Prop52
140
1.0
102
RTVSPost2010PropOp52
 70
     0
102
RTVSPost2010Prop53
 90
        2
102
RTVSPost2010PropOp53
 70
     0
102
RTVSPost2010Prop54
  1
strokes_ogs.tif
102
RTVSPost2010PropOp54
 70
     0
102
RTVSPost2010Prop55
280
     0
102
RTVSPost2010PropOp55
 70
     1
102
RTVSPost2010Prop56
140
1.0
102
RTVSPost2010PropOp56
 70
     0
102
RTVSPost2010Prop57
140
1.0
102
RTVSPost2010PropOp57
 70
     0
102
RTVSPropertyOp0
 70
     0
102
RTVSPropertyOp1
 70
     0
102
RTVSPropertyOp2
 70
     0
102
RTVSPropertyOp3
 70
     0
102
RTVSPropertyOp4
 70
     0
102
RTVSPropertyOp5
 70
     0
102
RTVSPropertyOp6
 70
     0
102
RTVSPropertyOp7
 70
     0
102
RTVSPropertyOp8
 70
     0
102
RTVSPropertyOp9
 70
     0
102
RTVSPropertyOp10
 70
     0
102
RTVSPropertyOp11
 70
     0
102
RTVSPropertyOp12
 70
     0
102
RTVSPropertyOp13
 70
     0
102
RTVSPropertyOp14
 70
     2
102
RTVSPropertyOp15
 70
     0
102
RTVSPropertyOp16
 70
     0
102
RTVSPropertyOp17
 70
     0
102
RTVSPropertyOp18
 70
     0
102
RTVSPropertyOp19
 70
     0
102
RTVSPropertyOp20
 70
     0
102
RTVSPropertyOp21
 70
     0
102
RTVSPropertyOp22
 70
     0
102
RTVSPropertyOp23
 70
     0
102
RTVSPropertyOp24
 70
     0
102
RTVSPropertyOp25
 70
     0
102
RTVSPropertyOp26
 70
     0
102
RTVSPropertyOp27
 70
     0
102
RTVSPropertyOp28
 70
     1
102
RTVSPropertyOp29
 70
     1
102
RTVSPropertyOp30
 70
     1
102
RTVSPropertyOp31
 70
     1
102
RTVSPropertyOp32
 70
     1
102
RTVSPropertyOp33
 70
     1
102
RTVSPropertyOp34
 70
     1
102
RTVSPropertyOp35
 70
     1
102
RTVSPropertyOp36
 70
     1
102
RTVSPropertyOp37
 70
     0
102
RTVSPropertyOp38
 70
     0
102
RTVSPropertyOp39
 70
     0
102
RTVSPropertyOp40
 70
     0
102
RTVSPropertyOp41
 70
     0
102
RTVSPropertyOp42
 70
     0
102
RTVSPropertyOp43
 70
     0
102
RTVSPropertyOp44
 70
     0
102
RTVSPropertyOp45
 70
     1
102
RTVSPropertyOp46
 70
     0
102
RTVSPropertyOp47
 70
     0
102
RTVSPropertyOp48
 70
     0
102
RTVSPropertyOp49
 70
     1
102
RTVSPropertyOp50
 70
     0
102
RTVSPropertyOp51
 70
     0
102
RTVSPropertyOp52
 70
     0
102
RTVSPropertyOp53
 70
     0
102
RTVSPropertyOp54
 70
     0
102
RTVSPropertyOp55
 70
     1
102
RTVSPropertyOp56
 70
     0
102
RTVSPropertyOp57
 70
     0
102
RTVSPropertyOp58
 70
     0
102
RTVSPropertyOp59
 70
     0
102
RTVSPropertyOp60
 70
     0
102
RTVSPropertyOp61
 70
     0
102
RTVSPropertyOp62
 70
     0
  0
XRECORD
  5
E98E
102
{ACAD_REACTORS
330
E98D
102
}
330
E98D
100
AcDbXrecord
280
     1
102
RTVSPost2010Prop28
280
     0
102
RTVSPost2010PropOp28
 70
     1
102
RTVSPost2010Prop29
280
     1
102
RTVSPost2010PropOp29
 70
     1
102
RTVSPost2010Prop30
280
     1
102
RTVSPost2010PropOp30
 70
     1
102
RTVSPost2010Prop31
280
     0
102
RTVSPost2010PropOp31
 70
     1
102
RTVSPost2010Prop32
280
     0
102
RTVSPost2010PropOp32
 70
     1
102
RTVSPost2010Prop33
280
     0
102
RTVSPost2010PropOp33
 70
     1
102
RTVSPost2010Prop34
280
     0
102
RTVSPost2010PropOp34
 70
     1
102
RTVSPost2010Prop35
280
     0
102
RTVSPost2010PropOp35
 70
     1
102
RTVSPost2010Prop36
280
     0
102
RTVSPost2010PropOp36
 70
     1
102
RTVSPost2010Prop37
 90
       50
102
RTVSPost2010PropOp37
 70
     1
102
RTVSPost2010Prop38
140
0.0
102
RTVSPost2010PropOp38
 70
     1
102
RTVSPost2010Prop39
140
1.0
102
RTVSPost2010PropOp39
 70
     1
102
RTVSPost2010Prop40
 90
        0
102
RTVSPost2010PropOp40
 70
     1
102
RTVSPost2010Prop41ColorIndex
 90
       18
102
RTVSPost2010Prop41ColorRGB
 90
        0
102
RTVSPost2010PropOp41
 70
     1
102
RTVSPost2010Prop42
 90
       50
102
RTVSPost2010PropOp42
 70
     1
102
RTVSPost2010Prop43
 90
        3
102
RTVSPost2010PropOp43
 70
     1
102
RTVSPost2010Prop44ColorIndex
 90
        5
102
RTVSPost2010Prop44ColorRGB
 90
      255
102
RTVSPost2010PropOp44
 70
     1
102
RTVSPost2010Prop45
280
     0
102
RTVSPost2010PropOp45
 70
     1
102
RTVSPost2010Prop46
 90
       50
102
RTVSPost2010PropOp46
 70
     1
102
RTVSPost2010Prop47
 90
       50
102
RTVSPost2010PropOp47
 70
     1
102
RTVSPost2010Prop48
 90
       50
102
RTVSPost2010PropOp48
 70
     1
102
RTVSPost2010Prop49
280
     0
102
RTVSPost2010PropOp49
 70
     1
102
RTVSPost2010Prop50
 90
       50
102
RTVSPost2010PropOp50
 70
     1
102
RTVSPost2010Prop51ColorIndex
 90
      256
102
RTVSPost2010Prop51ColorRGB
 90
-16777216
102
RTVSPost2010PropOp51
 70
     0
102
RTVSPost2010Prop52
140
1.0
102
RTVSPost2010PropOp52
 70
     0
102
RTVSPost2010Prop53
 90
        2
102
RTVSPost2010PropOp53
 70
     1
102
RTVSPost2010Prop54
  1
strokes_ogs.tif
102
RTVSPost2010PropOp54
 70
     1
102
RTVSPost2010Prop55
280
     0
102
RTVSPost2010PropOp55
 70
     1
102
RTVSPost2010Prop56
140
1.0
102
RTVSPost2010PropOp56
 70
     1
102
RTVSPost2010Prop57
140
1.0
102
RTVSPost2010PropOp57
 70
     1
102
RTVSPropertyOp0
 70
     1
102
RTVSPropertyOp1
 70
     1
102
RTVSPropertyOp2
 70
     1
102
RTVSPropertyOp3
 70
     1
102
RTVSPropertyOp4
 70
     1
102
RTVSPropertyOp5
 70
     1
102
RTVSPropertyOp6
 70
     1
102
RTVSPropertyOp7
 70
     1
102
RTVSPropertyOp8
 70
     1
102
RTVSPropertyOp9
 70
     1
102
RTVSPropertyOp10
 70
     1
102
RTVSPropertyOp11
 70
     1
102
RTVSPropertyOp12
 70
     1
102
RTVSPropertyOp13
 70
     1
102
RTVSPropertyOp14
 70
     1
102
RTVSPropertyOp15
 70
     1
102
RTVSPropertyOp16
 70
     1
102
RTVSPropertyOp17
 70
     1
102
RTVSPropertyOp18
 70
     1
102
RTVSPropertyOp19
 70
     1
102
RTVSPropertyOp20
 70
     1
102
RTVSPropertyOp21
 70
     1
102
RTVSPropertyOp22
 70
     1
102
RTVSPropertyOp23
 70
     1
102
RTVSPropertyOp24
 70
     1
102
RTVSPropertyOp25
 70
     1
102
RTVSPropertyOp26
 70
     1
102
RTVSPropertyOp27
 70
     1
102
RTVSPropertyOp28
 70
     1
102
RTVSPropertyOp29
 70
     1
102
RTVSPropertyOp30
 70
     1
102
RTVSPropertyOp31
 70
     1
102
RTVSPropertyOp32
 70
     1
102
RTVSPropertyOp33
 70
     1
102
RTVSPropertyOp34
 70
     1
102
RTVSPropertyOp35
 70
     1
102
RTVSPropertyOp36
 70
     1
102
RTVSPropertyOp37
 70
     1
102
RTVSPropertyOp38
 70
     1
102
RTVSPropertyOp39
 70
     1
102
RTVSPropertyOp40
 70
     1
102
RTVSPropertyOp41
 70
     1
102
RTVSPropertyOp42
 70
     1
102
RTVSPropertyOp43
 70
     1
102
RTVSPropertyOp44
 70
     1
102
RTVSPropertyOp45
 70
     1
102
RTVSPropertyOp46
 70
     1
102
RTVSPropertyOp47
 70
     1
102
RTVSPropertyOp48
 70
     1
102
RTVSPropertyOp49
 70
     1
102
RTVSPropertyOp50
 70
     1
102
RTVSPropertyOp51
 70
     0
102
RTVSPropertyOp52
 70
     0
102
RTVSPropertyOp53
 70
     1
102
RTVSPropertyOp54
 70
     1
102
RTVSPropertyOp55
 70
     1
102
RTVSPropertyOp56
 70
     1
102
RTVSPropertyOp57
 70
     1
102
RTVSPropertyOp58
 70
     1
102
RTVSPropertyOp59
 70
     1
102
RTVSPropertyOp60
 70
     1
102
RTVSPropertyOp61
 70
     1
102
RTVSPropertyOp62
 70
     1
  0
XRECORD
  5
E9A4
102
{ACAD_REACTORS
330
E9A3
102
}
330
E9A3
100
AcDbXrecord
280
     1
102
RTVSPost2010Prop28
280
     0
102
RTVSPost2010PropOp28
 70
     1
102
RTVSPost2010Prop29
280
     1
102
RTVSPost2010PropOp29
 70
     1
102
RTVSPost2010Prop30
280
     1
102
RTVSPost2010PropOp30
 70
     1
102
RTVSPost2010Prop31
280
     0
102
RTVSPost2010PropOp31
 70
     1
102
RTVSPost2010Prop32
280
     0
102
RTVSPost2010PropOp32
 70
     1
102
RTVSPost2010Prop33
280
     0
102
RTVSPost2010PropOp33
 70
     1
102
RTVSPost2010Prop34
280
     0
102
RTVSPost2010PropOp34
 70
     1
102
RTVSPost2010Prop35
280
     0
102
RTVSPost2010PropOp35
 70
     1
102
RTVSPost2010Prop36
280
     0
102
RTVSPost2010PropOp36
 70
     1
102
RTVSPost2010Prop37
 90
       50
102
RTVSPost2010PropOp37
 70
     1
102
RTVSPost2010Prop38
140
0.0
102
RTVSPost2010PropOp38
 70
     1
102
RTVSPost2010Prop39
140
1.0
102
RTVSPost2010PropOp39
 70
     1
102
RTVSPost2010Prop40
 90
        0
102
RTVSPost2010PropOp40
 70
     1
102
RTVSPost2010Prop41ColorIndex
 90
       18
102
RTVSPost2010Prop41ColorRGB
 90
        0
102
RTVSPost2010PropOp41
 70
     1
102
RTVSPost2010Prop42
 90
       50
102
RTVSPost2010PropOp42
 70
     1
102
RTVSPost2010Prop43
 90
        3
102
RTVSPost2010PropOp43
 70
     1
102
RTVSPost2010Prop44ColorIndex
 90
        5
102
RTVSPost2010Prop44ColorRGB
 90
      255
102
RTVSPost2010PropOp44
 70
     1
102
RTVSPost2010Prop45
280
     0
102
RTVSPost2010PropOp45
 70
     1
102
RTVSPost2010Prop46
 90
       50
102
RTVSPost2010PropOp46
 70
     1
102
RTVSPost2010Prop47
 90
       50
102
RTVSPost2010PropOp47
 70
     1
102
RTVSPost2010Prop48
 90
       50
102
RTVSPost2010PropOp48
 70
     1
102
RTVSPost2010Prop49
280
     0
102
RTVSPost2010PropOp49
 70
     1
102
RTVSPost2010Prop50
 90
       50
102
RTVSPost2010PropOp50
 70
     1
102
RTVSPost2010Prop51ColorIndex
 90
      256
102
RTVSPost2010Prop51ColorRGB
 90
-16777216
102
RTVSPost2010PropOp51
 70
     0
102
RTVSPost2010Prop52
140
1.0
102
RTVSPost2010PropOp52
 70
     0
102
RTVSPost2010Prop53
 90
        2
102
RTVSPost2010PropOp53
 70
     1
102
RTVSPost2010Prop54
  1
strokes_ogs.tif
102
RTVSPost2010PropOp54
 70
     1
102
RTVSPost2010Prop55
280
     0
102
RTVSPost2010PropOp55
 70
     1
102
RTVSPost2010Prop56
140
1.0
102
RTVSPost2010PropOp56
 70
     1
102
RTVSPost2010Prop57
140
1.0
102
RTVSPost2010PropOp57
 70
     1
102
RTVSPropertyOp0
 70
     1
102
RTVSPropertyOp1
 70
     1
102
RTVSPropertyOp2
 70
     1
102
RTVSPropertyOp3
 70
     1
102
RTVSPropertyOp4
 70
     1
102
RTVSPropertyOp5
 70
     1
102
RTVSPropertyOp6
 70
     1
102
RTVSPropertyOp7
 70
     1
102
RTVSPropertyOp8
 70
     1
102
RTVSPropertyOp9
 70
     1
102
RTVSPropertyOp10
 70
     1
102
RTVSPropertyOp11
 70
     1
102
RTVSPropertyOp12
 70
     1
102
RTVSPropertyOp13
 70
     1
102
RTVSPropertyOp14
 70
     1
102
RTVSPropertyOp15
 70
     1
102
RTVSPropertyOp16
 70
     1
102
RTVSPropertyOp17
 70
     1
102
RTVSPropertyOp18
 70
     1
102
RTVSPropertyOp19
 70
     1
102
RTVSPropertyOp20
 70
     1
102
RTVSPropertyOp21
 70
     1
102
RTVSPropertyOp22
 70
     1
102
RTVSPropertyOp23
 70
     1
102
RTVSPropertyOp24
 70
     1
102
RTVSPropertyOp25
 70
     1
102
RTVSPropertyOp26
 70
     1
102
RTVSPropertyOp27
 70
     1
102
RTVSPropertyOp28
 70
     1
102
RTVSPropertyOp29
 70
     1
102
RTVSPropertyOp30
 70
     1
102
RTVSPropertyOp31
 70
     1
102
RTVSPropertyOp32
 70
     1
102
RTVSPropertyOp33
 70
     1
102
RTVSPropertyOp34
 70
     1
102
RTVSPropertyOp35
 70
     1
102
RTVSPropertyOp36
 70
     1
102
RTVSPropertyOp37
 70
     1
102
RTVSPropertyOp38
 70
     1
102
RTVSPropertyOp39
 70
     1
102
RTVSPropertyOp40
 70
     1
102
RTVSPropertyOp41
 70
     1
102
RTVSPropertyOp42
 70
     1
102
RTVSPropertyOp43
 70
     1
102
RTVSPropertyOp44
 70
     1
102
RTVSPropertyOp45
 70
     1
102
RTVSPropertyOp46
 70
     1
102
RTVSPropertyOp47
 70
     1
102
RTVSPropertyOp48
 70
     1
102
RTVSPropertyOp49
 70
     1
102
RTVSPropertyOp50
 70
     1
102
RTVSPropertyOp51
 70
     0
102
RTVSPropertyOp52
 70
     0
102
RTVSPropertyOp53
 70
     1
102
RTVSPropertyOp54
 70
     1
102
RTVSPropertyOp55
 70
     1
102
RTVSPropertyOp56
 70
     1
102
RTVSPropertyOp57
 70
     1
102
RTVSPropertyOp58
 70
     1
102
RTVSPropertyOp59
 70
     1
102
RTVSPropertyOp60
 70
     1
102
RTVSPropertyOp61
 70
     1
102
RTVSPropertyOp62
 70
     1
  0
XRECORD
  5
E9A2
102
{ACAD_REACTORS
330
E9A1
102
}
330
E9A1
100
AcDbXrecord
280
     1
102
RTVSPost2010Prop28
280
     0
102
RTVSPost2010PropOp28
 70
     1
102
RTVSPost2010Prop29
280
     1
102
RTVSPost2010PropOp29
 70
     1
102
RTVSPost2010Prop30
280
     1
102
RTVSPost2010PropOp30
 70
     1
102
RTVSPost2010Prop31
280
     0
102
RTVSPost2010PropOp31
 70
     1
102
RTVSPost2010Prop32
280
     0
102
RTVSPost2010PropOp32
 70
     1
102
RTVSPost2010Prop33
280
     0
102
RTVSPost2010PropOp33
 70
     1
102
RTVSPost2010Prop34
280
     0
102
RTVSPost2010PropOp34
 70
     1
102
RTVSPost2010Prop35
280
     0
102
RTVSPost2010PropOp35
 70
     1
102
RTVSPost2010Prop36
280
     0
102
RTVSPost2010PropOp36
 70
     1
102
RTVSPost2010Prop37
 90
       50
102
RTVSPost2010PropOp37
 70
     1
102
RTVSPost2010Prop38
140
0.0
102
RTVSPost2010PropOp38
 70
     1
102
RTVSPost2010Prop39
140
1.0
102
RTVSPost2010PropOp39
 70
     1
102
RTVSPost2010Prop40
 90
        0
102
RTVSPost2010PropOp40
 70
     1
102
RTVSPost2010Prop41ColorIndex
 90
       18
102
RTVSPost2010Prop41ColorRGB
 90
        0
102
RTVSPost2010PropOp41
 70
     1
102
RTVSPost2010Prop42
 90
       50
102
RTVSPost2010PropOp42
 70
     1
102
RTVSPost2010Prop43
 90
        3
102
RTVSPost2010PropOp43
 70
     1
102
RTVSPost2010Prop44ColorIndex
 90
        5
102
RTVSPost2010Prop44ColorRGB
 90
      255
102
RTVSPost2010PropOp44
 70
     1
102
RTVSPost2010Prop45
280
     0
102
RTVSPost2010PropOp45
 70
     1
102
RTVSPost2010Prop46
 90
       50
102
RTVSPost2010PropOp46
 70
     1
102
RTVSPost2010Prop47
 90
       50
102
RTVSPost2010PropOp47
 70
     1
102
RTVSPost2010Prop48
 90
       50
102
RTVSPost2010PropOp48
 70
     1
102
RTVSPost2010Prop49
280
     0
102
RTVSPost2010PropOp49
 70
     1
102
RTVSPost2010Prop50
 90
       50
102
RTVSPost2010PropOp50
 70
     1
102
RTVSPost2010Prop51ColorIndex
 90
      256
102
RTVSPost2010Prop51ColorRGB
 90
-16777216
102
RTVSPost2010PropOp51
 70
     0
102
RTVSPost2010Prop52
140
1.0
102
RTVSPost2010PropOp52
 70
     0
102
RTVSPost2010Prop53
 90
        2
102
RTVSPost2010PropOp53
 70
     1
102
RTVSPost2010Prop54
  1
strokes_ogs.tif
102
RTVSPost2010PropOp54
 70
     1
102
RTVSPost2010Prop55
280
     0
102
RTVSPost2010PropOp55
 70
     1
102
RTVSPost2010Prop56
140
1.0
102
RTVSPost2010PropOp56
 70
     1
102
RTVSPost2010Prop57
140
1.0
102
RTVSPost2010PropOp57
 70
     1
102
RTVSPropertyOp0
 70
     1
102
RTVSPropertyOp1
 70
     1
102
RTVSPropertyOp2
 70
     1
102
RTVSPropertyOp3
 70
     1
102
RTVSPropertyOp4
 70
     1
102
RTVSPropertyOp5
 70
     1
102
RTVSPropertyOp6
 70
     1
102
RTVSPropertyOp7
 70
     1
102
RTVSPropertyOp8
 70
     1
102
RTVSPropertyOp9
 70
     1
102
RTVSPropertyOp10
 70
     1
102
RTVSPropertyOp11
 70
     1
102
RTVSPropertyOp12
 70
     1
102
RTVSPropertyOp13
 70
     1
102
RTVSPropertyOp14
 70
     1
102
RTVSPropertyOp15
 70
     1
102
RTVSPropertyOp16
 70
     1
102
RTVSPropertyOp17
 70
     1
102
RTVSPropertyOp18
 70
     1
102
RTVSPropertyOp19
 70
     1
102
RTVSPropertyOp20
 70
     1
102
RTVSPropertyOp21
 70
     1
102
RTVSPropertyOp22
 70
     1
102
RTVSPropertyOp23
 70
     1
102
RTVSPropertyOp24
 70
     1
102
RTVSPropertyOp25
 70
     1
102
RTVSPropertyOp26
 70
     1
102
RTVSPropertyOp27
 70
     1
102
RTVSPropertyOp28
 70
     1
102
RTVSPropertyOp29
 70
     1
102
RTVSPropertyOp30
 70
     1
102
RTVSPropertyOp31
 70
     1
102
RTVSPropertyOp32
 70
     1
102
RTVSPropertyOp33
 70
     1
102
RTVSPropertyOp34
 70
     1
102
RTVSPropertyOp35
 70
     1
102
RTVSPropertyOp36
 70
     1
102
RTVSPropertyOp37
 70
     1
102
RTVSPropertyOp38
 70
     1
102
RTVSPropertyOp39
 70
     1
102
RTVSPropertyOp40
 70
     1
102
RTVSPropertyOp41
 70
     1
102
RTVSPropertyOp42
 70
     1
102
RTVSPropertyOp43
 70
     1
102
RTVSPropertyOp44
 70
     1
102
RTVSPropertyOp45
 70
     1
102
RTVSPropertyOp46
 70
     1
102
RTVSPropertyOp47
 70
     1
102
RTVSPropertyOp48
 70
     1
102
RTVSPropertyOp49
 70
     1
102
RTVSPropertyOp50
 70
     1
102
RTVSPropertyOp51
 70
     0
102
RTVSPropertyOp52
 70
     0
102
RTVSPropertyOp53
 70
     1
102
RTVSPropertyOp54
 70
     1
102
RTVSPropertyOp55
 70
     1
102
RTVSPropertyOp56
 70
     1
102
RTVSPropertyOp57
 70
     1
102
RTVSPropertyOp58
 70
     1
102
RTVSPropertyOp59
 70
     1
102
RTVSPropertyOp60
 70
     1
102
RTVSPropertyOp61
 70
     1
102
RTVSPropertyOp62
 70
     1
  0
XRECORD
  5
E99C
102
{ACAD_REACTORS
330
E99B
102
}
330
E99B
100
AcDbXrecord
280
     1
102
RTVSPost2010Prop28
280
     0
102
RTVSPost2010PropOp28
 70
     1
102
RTVSPost2010Prop29
280
     1
102
RTVSPost2010PropOp29
 70
     1
102
RTVSPost2010Prop30
280
     1
102
RTVSPost2010PropOp30
 70
     1
102
RTVSPost2010Prop31
280
     0
102
RTVSPost2010PropOp31
 70
     1
102
RTVSPost2010Prop32
280
     0
102
RTVSPost2010PropOp32
 70
     1
102
RTVSPost2010Prop33
280
     0
102
RTVSPost2010PropOp33
 70
     1
102
RTVSPost2010Prop34
280
     0
102
RTVSPost2010PropOp34
 70
     1
102
RTVSPost2010Prop35
280
     0
102
RTVSPost2010PropOp35
 70
     1
102
RTVSPost2010Prop36
280
     0
102
RTVSPost2010PropOp36
 70
     1
102
RTVSPost2010Prop37
 90
       50
102
RTVSPost2010PropOp37
 70
     1
102
RTVSPost2010Prop38
140
0.0
102
RTVSPost2010PropOp38
 70
     1
102
RTVSPost2010Prop39
140
1.0
102
RTVSPost2010PropOp39
 70
     1
102
RTVSPost2010Prop40
 90
        0
102
RTVSPost2010PropOp40
 70
     1
102
RTVSPost2010Prop41ColorIndex
 90
       18
102
RTVSPost2010Prop41ColorRGB
 90
        0
102
RTVSPost2010PropOp41
 70
     1
102
RTVSPost2010Prop42
 90
       50
102
RTVSPost2010PropOp42
 70
     1
102
RTVSPost2010Prop43
 90
        3
102
RTVSPost2010PropOp43
 70
     1
102
RTVSPost2010Prop44ColorIndex
 90
        5
102
RTVSPost2010Prop44ColorRGB
 90
      255
102
RTVSPost2010PropOp44
 70
     1
102
RTVSPost2010Prop45
280
     0
102
RTVSPost2010PropOp45
 70
     1
102
RTVSPost2010Prop46
 90
       50
102
RTVSPost2010PropOp46
 70
     1
102
RTVSPost2010Prop47
 90
       50
102
RTVSPost2010PropOp47
 70
     1
102
RTVSPost2010Prop48
 90
       50
102
RTVSPost2010PropOp48
 70
     1
102
RTVSPost2010Prop49
280
     0
102
RTVSPost2010PropOp49
 70
     1
102
RTVSPost2010Prop50
 90
       50
102
RTVSPost2010PropOp50
 70
     1
102
RTVSPost2010Prop51ColorIndex
 90
      256
102
RTVSPost2010Prop51ColorRGB
 90
-16777216
102
RTVSPost2010PropOp51
 70
     0
102
RTVSPost2010Prop52
140
1.0
102
RTVSPost2010PropOp52
 70
     0
102
RTVSPost2010Prop53
 90
        2
102
RTVSPost2010PropOp53
 70
     1
102
RTVSPost2010Prop54
  1
strokes_ogs.tif
102
RTVSPost2010PropOp54
 70
     1
102
RTVSPost2010Prop55
280
     0
102
RTVSPost2010PropOp55
 70
     1
102
RTVSPost2010Prop56
140
1.0
102
RTVSPost2010PropOp56
 70
     1
102
RTVSPost2010Prop57
140
1.0
102
RTVSPost2010PropOp57
 70
     1
102
RTVSPropertyOp0
 70
     1
102
RTVSPropertyOp1
 70
     1
102
RTVSPropertyOp2
 70
     1
102
RTVSPropertyOp3
 70
     1
102
RTVSPropertyOp4
 70
     1
102
RTVSPropertyOp5
 70
     1
102
RTVSPropertyOp6
 70
     1
102
RTVSPropertyOp7
 70
     1
102
RTVSPropertyOp8
 70
     1
102
RTVSPropertyOp9
 70
     1
102
RTVSPropertyOp10
 70
     1
102
RTVSPropertyOp11
 70
     1
102
RTVSPropertyOp12
 70
     1
102
RTVSPropertyOp13
 70
     1
102
RTVSPropertyOp14
 70
     1
102
RTVSPropertyOp15
 70
     1
102
RTVSPropertyOp16
 70
     1
102
RTVSPropertyOp17
 70
     1
102
RTVSPropertyOp18
 70
     1
102
RTVSPropertyOp19
 70
     1
102
RTVSPropertyOp20
 70
     1
102
RTVSPropertyOp21
 70
     1
102
RTVSPropertyOp22
 70
     1
102
RTVSPropertyOp23
 70
     1
102
RTVSPropertyOp24
 70
     1
102
RTVSPropertyOp25
 70
     1
102
RTVSPropertyOp26
 70
     1
102
RTVSPropertyOp27
 70
     1
102
RTVSPropertyOp28
 70
     1
102
RTVSPropertyOp29
 70
     1
102
RTVSPropertyOp30
 70
     1
102
RTVSPropertyOp31
 70
     1
102
RTVSPropertyOp32
 70
     1
102
RTVSPropertyOp33
 70
     1
102
RTVSPropertyOp34
 70
     1
102
RTVSPropertyOp35
 70
     1
102
RTVSPropertyOp36
 70
     1
102
RTVSPropertyOp37
 70
     1
102
RTVSPropertyOp38
 70
     1
102
RTVSPropertyOp39
 70
     1
102
RTVSPropertyOp40
 70
     1
102
RTVSPropertyOp41
 70
     1
102
RTVSPropertyOp42
 70
     1
102
RTVSPropertyOp43
 70
     1
102
RTVSPropertyOp44
 70
     1
102
RTVSPropertyOp45
 70
     1
102
RTVSPropertyOp46
 70
     1
102
RTVSPropertyOp47
 70
     1
102
RTVSPropertyOp48
 70
     1
102
RTVSPropertyOp49
 70
     1
102
RTVSPropertyOp50
 70
     1
102
RTVSPropertyOp51
 70
     0
102
RTVSPropertyOp52
 70
     0
102
RTVSPropertyOp53
 70
     1
102
RTVSPropertyOp54
 70
     1
102
RTVSPropertyOp55
 70
     1
102
RTVSPropertyOp56
 70
     1
102
RTVSPropertyOp57
 70
     1
102
RTVSPropertyOp58
 70
     1
102
RTVSPropertyOp59
 70
     1
102
RTVSPropertyOp60
 70
     1
102
RTVSPropertyOp61
 70
     1
102
RTVSPropertyOp62
 70
     1
  0
XRECORD
  5
E99E
102
{ACAD_REACTORS
330
E99D
102
}
330
E99D
100
AcDbXrecord
280
     1
102
RTVSPost2010Prop28
280
     0
102
RTVSPost2010PropOp28
 70
     1
102
RTVSPost2010Prop29
280
     1
102
RTVSPost2010PropOp29
 70
     1
102
RTVSPost2010Prop30
280
     1
102
RTVSPost2010PropOp30
 70
     1
102
RTVSPost2010Prop31
280
     0
102
RTVSPost2010PropOp31
 70
     1
102
RTVSPost2010Prop32
280
     0
102
RTVSPost2010PropOp32
 70
     1
102
RTVSPost2010Prop33
280
     0
102
RTVSPost2010PropOp33
 70
     1
102
RTVSPost2010Prop34
280
     0
102
RTVSPost2010PropOp34
 70
     1
102
RTVSPost2010Prop35
280
     0
102
RTVSPost2010PropOp35
 70
     1
102
RTVSPost2010Prop36
280
     0
102
RTVSPost2010PropOp36
 70
     1
102
RTVSPost2010Prop37
 90
       50
102
RTVSPost2010PropOp37
 70
     1
102
RTVSPost2010Prop38
140
0.0
102
RTVSPost2010PropOp38
 70
     1
102
RTVSPost2010Prop39
140
1.0
102
RTVSPost2010PropOp39
 70
     1
102
RTVSPost2010Prop40
 90
        0
102
RTVSPost2010PropOp40
 70
     1
102
RTVSPost2010Prop41ColorIndex
 90
       18
102
RTVSPost2010Prop41ColorRGB
 90
        0
102
RTVSPost2010PropOp41
 70
     1
102
RTVSPost2010Prop42
 90
       50
102
RTVSPost2010PropOp42
 70
     1
102
RTVSPost2010Prop43
 90
        3
102
RTVSPost2010PropOp43
 70
     1
102
RTVSPost2010Prop44ColorIndex
 90
        5
102
RTVSPost2010Prop44ColorRGB
 90
      255
102
RTVSPost2010PropOp44
 70
     1
102
RTVSPost2010Prop45
280
     0
102
RTVSPost2010PropOp45
 70
     1
102
RTVSPost2010Prop46
 90
       50
102
RTVSPost2010PropOp46
 70
     1
102
RTVSPost2010Prop47
 90
       50
102
RTVSPost2010PropOp47
 70
     1
102
RTVSPost2010Prop48
 90
       50
102
RTVSPost2010PropOp48
 70
     1
102
RTVSPost2010Prop49
280
     0
102
RTVSPost2010PropOp49
 70
     1
102
RTVSPost2010Prop50
 90
       50
102
RTVSPost2010PropOp50
 70
     1
102
RTVSPost2010Prop51ColorIndex
 90
      256
102
RTVSPost2010Prop51ColorRGB
 90
-16777216
102
RTVSPost2010PropOp51
 70
     0
102
RTVSPost2010Prop52
140
1.0
102
RTVSPost2010PropOp52
 70
     0
102
RTVSPost2010Prop53
 90
        2
102
RTVSPost2010PropOp53
 70
     1
102
RTVSPost2010Prop54
  1
strokes_ogs.tif
102
RTVSPost2010PropOp54
 70
     1
102
RTVSPost2010Prop55
280
     0
102
RTVSPost2010PropOp55
 70
     1
102
RTVSPost2010Prop56
140
1.0
102
RTVSPost2010PropOp56
 70
     1
102
RTVSPost2010Prop57
140
1.0
102
RTVSPost2010PropOp57
 70
     1
102
RTVSPropertyOp0
 70
     1
102
RTVSPropertyOp1
 70
     1
102
RTVSPropertyOp2
 70
     1
102
RTVSPropertyOp3
 70
     1
102
RTVSPropertyOp4
 70
     1
102
RTVSPropertyOp5
 70
     1
102
RTVSPropertyOp6
 70
     1
102
RTVSPropertyOp7
 70
     1
102
RTVSPropertyOp8
 70
     1
102
RTVSPropertyOp9
 70
     1
102
RTVSPropertyOp10
 70
     1
102
RTVSPropertyOp11
 70
     1
102
RTVSPropertyOp12
 70
     1
102
RTVSPropertyOp13
 70
     1
102
RTVSPropertyOp14
 70
     1
102
RTVSPropertyOp15
 70
     1
102
RTVSPropertyOp16
 70
     1
102
RTVSPropertyOp17
 70
     1
102
RTVSPropertyOp18
 70
     1
102
RTVSPropertyOp19
 70
     1
102
RTVSPropertyOp20
 70
     1
102
RTVSPropertyOp21
 70
     1
102
RTVSPropertyOp22
 70
     1
102
RTVSPropertyOp23
 70
     1
102
RTVSPropertyOp24
 70
     1
102
RTVSPropertyOp25
 70
     1
102
RTVSPropertyOp26
 70
     1
102
RTVSPropertyOp27
 70
     1
102
RTVSPropertyOp28
 70
     1
102
RTVSPropertyOp29
 70
     1
102
RTVSPropertyOp30
 70
     1
102
RTVSPropertyOp31
 70
     1
102
RTVSPropertyOp32
 70
     1
102
RTVSPropertyOp33
 70
     1
102
RTVSPropertyOp34
 70
     1
102
RTVSPropertyOp35
 70
     1
102
RTVSPropertyOp36
 70
     1
102
RTVSPropertyOp37
 70
     1
102
RTVSPropertyOp38
 70
     1
102
RTVSPropertyOp39
 70
     1
102
RTVSPropertyOp40
 70
     1
102
RTVSPropertyOp41
 70
     1
102
RTVSPropertyOp42
 70
     1
102
RTVSPropertyOp43
 70
     1
102
RTVSPropertyOp44
 70
     1
102
RTVSPropertyOp45
 70
     1
102
RTVSPropertyOp46
 70
     1
102
RTVSPropertyOp47
 70
     1
102
RTVSPropertyOp48
 70
     1
102
RTVSPropertyOp49
 70
     1
102
RTVSPropertyOp50
 70
     1
102
RTVSPropertyOp51
 70
     0
102
RTVSPropertyOp52
 70
     0
102
RTVSPropertyOp53
 70
     1
102
RTVSPropertyOp54
 70
     1
102
RTVSPropertyOp55
 70
     1
102
RTVSPropertyOp56
 70
     1
102
RTVSPropertyOp57
 70
     1
102
RTVSPropertyOp58
 70
     1
102
RTVSPropertyOp59
 70
     1
102
RTVSPropertyOp60
 70
     1
102
RTVSPropertyOp61
 70
     1
102
RTVSPropertyOp62
 70
     1
  0
XRECORD
  5
E994
102
{ACAD_REACTORS
330
E993
102
}
330
E993
100
AcDbXrecord
280
     1
102
RTVSPost2010Prop28
280
     0
102
RTVSPost2010PropOp28
 70
     1
102
RTVSPost2010Prop29
280
     1
102
RTVSPost2010PropOp29
 70
     1
102
RTVSPost2010Prop30
280
     1
102
RTVSPost2010PropOp30
 70
     1
102
RTVSPost2010Prop31
280
     0
102
RTVSPost2010PropOp31
 70
     1
102
RTVSPost2010Prop32
280
     0
102
RTVSPost2010PropOp32
 70
     1
102
RTVSPost2010Prop33
280
     0
102
RTVSPost2010PropOp33
 70
     1
102
RTVSPost2010Prop34
280
     0
102
RTVSPost2010PropOp34
 70
     1
102
RTVSPost2010Prop35
280
     0
102
RTVSPost2010PropOp35
 70
     1
102
RTVSPost2010Prop36
280
     0
102
RTVSPost2010PropOp36
 70
     1
102
RTVSPost2010Prop37
 90
       50
102
RTVSPost2010PropOp37
 70
     1
102
RTVSPost2010Prop38
140
0.0
102
RTVSPost2010PropOp38
 70
     1
102
RTVSPost2010Prop39
140
1.0
102
RTVSPost2010PropOp39
 70
     1
102
RTVSPost2010Prop40
 90
        0
102
RTVSPost2010PropOp40
 70
     1
102
RTVSPost2010Prop41ColorIndex
 90
       18
102
RTVSPost2010Prop41ColorRGB
 90
        0
102
RTVSPost2010PropOp41
 70
     1
102
RTVSPost2010Prop42
 90
       50
102
RTVSPost2010PropOp42
 70
     1
102
RTVSPost2010Prop43
 90
        3
102
RTVSPost2010PropOp43
 70
     1
102
RTVSPost2010Prop44ColorIndex
 90
        5
102
RTVSPost2010Prop44ColorRGB
 90
      255
102
RTVSPost2010PropOp44
 70
     1
102
RTVSPost2010Prop45
280
     0
102
RTVSPost2010PropOp45
 70
     1
102
RTVSPost2010Prop46
 90
       50
102
RTVSPost2010PropOp46
 70
     1
102
RTVSPost2010Prop47
 90
       50
102
RTVSPost2010PropOp47
 70
     1
102
RTVSPost2010Prop48
 90
       50
102
RTVSPost2010PropOp48
 70
     1
102
RTVSPost2010Prop49
280
     0
102
RTVSPost2010PropOp49
 70
     1
102
RTVSPost2010Prop50
 90
       50
102
RTVSPost2010PropOp50
 70
     1
102
RTVSPost2010Prop51ColorIndex
 90
      256
102
RTVSPost2010Prop51ColorRGB
 90
-16777216
102
RTVSPost2010PropOp51
 70
     0
102
RTVSPost2010Prop52
140
1.0
102
RTVSPost2010PropOp52
 70
     0
102
RTVSPost2010Prop53
 90
        2
102
RTVSPost2010PropOp53
 70
     1
102
RTVSPost2010Prop54
  1
strokes_ogs.tif
102
RTVSPost2010PropOp54
 70
     1
102
RTVSPost2010Prop55
280
     0
102
RTVSPost2010PropOp55
 70
     1
102
RTVSPost2010Prop56
140
1.0
102
RTVSPost2010PropOp56
 70
     1
102
RTVSPost2010Prop57
140
1.0
102
RTVSPost2010PropOp57
 70
     1
102
RTVSPropertyOp0
 70
     1
102
RTVSPropertyOp1
 70
     1
102
RTVSPropertyOp2
 70
     1
102
RTVSPropertyOp3
 70
     1
102
RTVSPropertyOp4
 70
     1
102
RTVSPropertyOp5
 70
     1
102
RTVSPropertyOp6
 70
     1
102
RTVSPropertyOp7
 70
     1
102
RTVSPropertyOp8
 70
     1
102
RTVSPropertyOp9
 70
     1
102
RTVSPropertyOp10
 70
     1
102
RTVSPropertyOp11
 70
     1
102
RTVSPropertyOp12
 70
     1
102
RTVSPropertyOp13
 70
     1
102
RTVSPropertyOp14
 70
     1
102
RTVSPropertyOp15
 70
     1
102
RTVSPropertyOp16
 70
     1
102
RTVSPropertyOp17
 70
     1
102
RTVSPropertyOp18
 70
     1
102
RTVSPropertyOp19
 70
     1
102
RTVSPropertyOp20
 70
     1
102
RTVSPropertyOp21
 70
     1
102
RTVSPropertyOp22
 70
     1
102
RTVSPropertyOp23
 70
     1
102
RTVSPropertyOp24
 70
     1
102
RTVSPropertyOp25
 70
     1
102
RTVSPropertyOp26
 70
     1
102
RTVSPropertyOp27
 70
     1
102
RTVSPropertyOp28
 70
     1
102
RTVSPropertyOp29
 70
     1
102
RTVSPropertyOp30
 70
     1
102
RTVSPropertyOp31
 70
     1
102
RTVSPropertyOp32
 70
     1
102
RTVSPropertyOp33
 70
     1
102
RTVSPropertyOp34
 70
     1
102
RTVSPropertyOp35
 70
     1
102
RTVSPropertyOp36
 70
     1
102
RTVSPropertyOp37
 70
     1
102
RTVSPropertyOp38
 70
     1
102
RTVSPropertyOp39
 70
     1
102
RTVSPropertyOp40
 70
     1
102
RTVSPropertyOp41
 70
     1
102
RTVSPropertyOp42
 70
     1
102
RTVSPropertyOp43
 70
     1
102
RTVSPropertyOp44
 70
     1
102
RTVSPropertyOp45
 70
     1
102
RTVSPropertyOp46
 70
     1
102
RTVSPropertyOp47
 70
     1
102
RTVSPropertyOp48
 70
     1
102
RTVSPropertyOp49
 70
     1
102
RTVSPropertyOp50
 70
     1
102
RTVSPropertyOp51
 70
     0
102
RTVSPropertyOp52
 70
     0
102
RTVSPropertyOp53
 70
     1
102
RTVSPropertyOp54
 70
     1
102
RTVSPropertyOp55
 70
     1
102
RTVSPropertyOp56
 70
     1
102
RTVSPropertyOp57
 70
     1
102
RTVSPropertyOp58
 70
     1
102
RTVSPropertyOp59
 70
     1
102
RTVSPropertyOp60
 70
     1
102
RTVSPropertyOp61
 70
     1
102
RTVSPropertyOp62
 70
     1
  0
XRECORD
  5
E988
102
{ACAD_REACTORS
330
E987
102
}
330
E987
100
AcDbXrecord
280
     1
102
RTVSPost2010Prop28
280
     0
102
RTVSPost2010PropOp28
 70
     1
102
RTVSPost2010Prop29
280
     1
102
RTVSPost2010PropOp29
 70
     1
102
RTVSPost2010Prop30
280
     1
102
RTVSPost2010PropOp30
 70
     1
102
RTVSPost2010Prop31
280
     0
102
RTVSPost2010PropOp31
 70
     1
102
RTVSPost2010Prop32
280
     0
102
RTVSPost2010PropOp32
 70
     1
102
RTVSPost2010Prop33
280
     0
102
RTVSPost2010PropOp33
 70
     1
102
RTVSPost2010Prop34
280
     0
102
RTVSPost2010PropOp34
 70
     1
102
RTVSPost2010Prop35
280
     0
102
RTVSPost2010PropOp35
 70
     1
102
RTVSPost2010Prop36
280
     0
102
RTVSPost2010PropOp36
 70
     1
102
RTVSPost2010Prop37
 90
       50
102
RTVSPost2010PropOp37
 70
     1
102
RTVSPost2010Prop38
140
0.0
102
RTVSPost2010PropOp38
 70
     1
102
RTVSPost2010Prop39
140
1.0
102
RTVSPost2010PropOp39
 70
     1
102
RTVSPost2010Prop40
 90
        0
102
RTVSPost2010PropOp40
 70
     1
102
RTVSPost2010Prop41ColorIndex
 90
       18
102
RTVSPost2010Prop41ColorRGB
 90
        0
102
RTVSPost2010PropOp41
 70
     1
102
RTVSPost2010Prop42
 90
       50
102
RTVSPost2010PropOp42
 70
     1
102
RTVSPost2010Prop43
 90
        3
102
RTVSPost2010PropOp43
 70
     1
102
RTVSPost2010Prop44ColorIndex
 90
        5
102
RTVSPost2010Prop44ColorRGB
 90
      255
102
RTVSPost2010PropOp44
 70
     1
102
RTVSPost2010Prop45
280
     0
102
RTVSPost2010PropOp45
 70
     1
102
RTVSPost2010Prop46
 90
       50
102
RTVSPost2010PropOp46
 70
     1
102
RTVSPost2010Prop47
 90
       50
102
RTVSPost2010PropOp47
 70
     1
102
RTVSPost2010Prop48
 90
       50
102
RTVSPost2010PropOp48
 70
     1
102
RTVSPost2010Prop49
280
     0
102
RTVSPost2010PropOp49
 70
     1
102
RTVSPost2010Prop50
 90
       50
102
RTVSPost2010PropOp50
 70
     1
102
RTVSPost2010Prop51ColorIndex
 90
      256
102
RTVSPost2010Prop51ColorRGB
 90
-16777216
102
RTVSPost2010PropOp51
 70
     0
102
RTVSPost2010Prop52
140
1.0
102
RTVSPost2010PropOp52
 70
     0
102
RTVSPost2010Prop53
 90
        2
102
RTVSPost2010PropOp53
 70
     1
102
RTVSPost2010Prop54
  1
strokes_ogs.tif
102
RTVSPost2010PropOp54
 70
     1
102
RTVSPost2010Prop55
280
     0
102
RTVSPost2010PropOp55
 70
     1
102
RTVSPost2010Prop56
140
1.0
102
RTVSPost2010PropOp56
 70
     1
102
RTVSPost2010Prop57
140
1.0
102
RTVSPost2010PropOp57
 70
     1
102
RTVSPropertyOp0
 70
     1
102
RTVSPropertyOp1
 70
     1
102
RTVSPropertyOp2
 70
     1
102
RTVSPropertyOp3
 70
     1
102
RTVSPropertyOp4
 70
     1
102
RTVSPropertyOp5
 70
     1
102
RTVSPropertyOp6
 70
     1
102
RTVSPropertyOp7
 70
     1
102
RTVSPropertyOp8
 70
     1
102
RTVSPropertyOp9
 70
     1
102
RTVSPropertyOp10
 70
     1
102
RTVSPropertyOp11
 70
     1
102
RTVSPropertyOp12
 70
     1
102
RTVSPropertyOp13
 70
     1
102
RTVSPropertyOp14
 70
     1
102
RTVSPropertyOp15
 70
     1
102
RTVSPropertyOp16
 70
     1
102
RTVSPropertyOp17
 70
     1
102
RTVSPropertyOp18
 70
     1
102
RTVSPropertyOp19
 70
     1
102
RTVSPropertyOp20
 70
     1
102
RTVSPropertyOp21
 70
     1
102
RTVSPropertyOp22
 70
     1
102
RTVSPropertyOp23
 70
     1
102
RTVSPropertyOp24
 70
     1
102
RTVSPropertyOp25
 70
     1
102
RTVSPropertyOp26
 70
     1
102
RTVSPropertyOp27
 70
     1
102
RTVSPropertyOp28
 70
     1
102
RTVSPropertyOp29
 70
     1
102
RTVSPropertyOp30
 70
     1
102
RTVSPropertyOp31
 70
     1
102
RTVSPropertyOp32
 70
     1
102
RTVSPropertyOp33
 70
     1
102
RTVSPropertyOp34
 70
     1
102
RTVSPropertyOp35
 70
     1
102
RTVSPropertyOp36
 70
     1
102
RTVSPropertyOp37
 70
     1
102
RTVSPropertyOp38
 70
     1
102
RTVSPropertyOp39
 70
     1
102
RTVSPropertyOp40
 70
     1
102
RTVSPropertyOp41
 70
     1
102
RTVSPropertyOp42
 70
     1
102
RTVSPropertyOp43
 70
     1
102
RTVSPropertyOp44
 70
     1
102
RTVSPropertyOp45
 70
     1
102
RTVSPropertyOp46
 70
     1
102
RTVSPropertyOp47
 70
     1
102
RTVSPropertyOp48
 70
     1
102
RTVSPropertyOp49
 70
     1
102
RTVSPropertyOp50
 70
     1
102
RTVSPropertyOp51
 70
     0
102
RTVSPropertyOp52
 70
     0
102
RTVSPropertyOp53
 70
     1
102
RTVSPropertyOp54
 70
     1
102
RTVSPropertyOp55
 70
     1
102
RTVSPropertyOp56
 70
     1
102
RTVSPropertyOp57
 70
     1
102
RTVSPropertyOp58
 70
     1
102
RTVSPropertyOp59
 70
     1
102
RTVSPropertyOp60
 70
     1
102
RTVSPropertyOp61
 70
     1
102
RTVSPropertyOp62
 70
     1
  0
XRECORD
  5
E9A0
102
{ACAD_REACTORS
330
E99F
102
}
330
E99F
100
AcDbXrecord
280
     1
102
RTVSPost2010Prop28
280
     0
102
RTVSPost2010PropOp28
 70
     1
102
RTVSPost2010Prop29
280
     1
102
RTVSPost2010PropOp29
 70
     1
102
RTVSPost2010Prop30
280
     1
102
RTVSPost2010PropOp30
 70
     1
102
RTVSPost2010Prop31
280
     0
102
RTVSPost2010PropOp31
 70
     1
102
RTVSPost2010Prop32
280
     0
102
RTVSPost2010PropOp32
 70
     1
102
RTVSPost2010Prop33
280
     0
102
RTVSPost2010PropOp33
 70
     1
102
RTVSPost2010Prop34
280
     0
102
RTVSPost2010PropOp34
 70
     1
102
RTVSPost2010Prop35
280
     0
102
RTVSPost2010PropOp35
 70
     1
102
RTVSPost2010Prop36
280
     0
102
RTVSPost2010PropOp36
 70
     1
102
RTVSPost2010Prop37
 90
       50
102
RTVSPost2010PropOp37
 70
     1
102
RTVSPost2010Prop38
140
0.0
102
RTVSPost2010PropOp38
 70
     1
102
RTVSPost2010Prop39
140
1.0
102
RTVSPost2010PropOp39
 70
     1
102
RTVSPost2010Prop40
 90
        0
102
RTVSPost2010PropOp40
 70
     1
102
RTVSPost2010Prop41ColorIndex
 90
       18
102
RTVSPost2010Prop41ColorRGB
 90
        0
102
RTVSPost2010PropOp41
 70
     1
102
RTVSPost2010Prop42
 90
       50
102
RTVSPost2010PropOp42
 70
     1
102
RTVSPost2010Prop43
 90
        3
102
RTVSPost2010PropOp43
 70
     1
102
RTVSPost2010Prop44ColorIndex
 90
        5
102
RTVSPost2010Prop44ColorRGB
 90
      255
102
RTVSPost2010PropOp44
 70
     1
102
RTVSPost2010Prop45
280
     0
102
RTVSPost2010PropOp45
 70
     1
102
RTVSPost2010Prop46
 90
       50
102
RTVSPost2010PropOp46
 70
     1
102
RTVSPost2010Prop47
 90
       50
102
RTVSPost2010PropOp47
 70
     1
102
RTVSPost2010Prop48
 90
       50
102
RTVSPost2010PropOp48
 70
     1
102
RTVSPost2010Prop49
280
     0
102
RTVSPost2010PropOp49
 70
     1
102
RTVSPost2010Prop50
 90
       50
102
RTVSPost2010PropOp50
 70
     1
102
RTVSPost2010Prop51ColorIndex
 90
      256
102
RTVSPost2010Prop51ColorRGB
 90
-16777216
102
RTVSPost2010PropOp51
 70
     0
102
RTVSPost2010Prop52
140
1.0
102
RTVSPost2010PropOp52
 70
     0
102
RTVSPost2010Prop53
 90
        2
102
RTVSPost2010PropOp53
 70
     1
102
RTVSPost2010Prop54
  1
strokes_ogs.tif
102
RTVSPost2010PropOp54
 70
     1
102
RTVSPost2010Prop55
280
     0
102
RTVSPost2010PropOp55
 70
     1
102
RTVSPost2010Prop56
140
1.0
102
RTVSPost2010PropOp56
 70
     1
102
RTVSPost2010Prop57
140
1.0
102
RTVSPost2010PropOp57
 70
     1
102
RTVSPropertyOp0
 70
     1
102
RTVSPropertyOp1
 70
     1
102
RTVSPropertyOp2
 70
     1
102
RTVSPropertyOp3
 70
     1
102
RTVSPropertyOp4
 70
     1
102
RTVSPropertyOp5
 70
     1
102
RTVSPropertyOp6
 70
     1
102
RTVSPropertyOp7
 70
     1
102
RTVSPropertyOp8
 70
     1
102
RTVSPropertyOp9
 70
     1
102
RTVSPropertyOp10
 70
     1
102
RTVSPropertyOp11
 70
     1
102
RTVSPropertyOp12
 70
     1
102
RTVSPropertyOp13
 70
     1
102
RTVSPropertyOp14
 70
     1
102
RTVSPropertyOp15
 70
     1
102
RTVSPropertyOp16
 70
     1
102
RTVSPropertyOp17
 70
     1
102
RTVSPropertyOp18
 70
     1
102
RTVSPropertyOp19
 70
     1
102
RTVSPropertyOp20
 70
     1
102
RTVSPropertyOp21
 70
     1
102
RTVSPropertyOp22
 70
     1
102
RTVSPropertyOp23
 70
     1
102
RTVSPropertyOp24
 70
     1
102
RTVSPropertyOp25
 70
     1
102
RTVSPropertyOp26
 70
     1
102
RTVSPropertyOp27
 70
     1
102
RTVSPropertyOp28
 70
     1
102
RTVSPropertyOp29
 70
     1
102
RTVSPropertyOp30
 70
     1
102
RTVSPropertyOp31
 70
     1
102
RTVSPropertyOp32
 70
     1
102
RTVSPropertyOp33
 70
     1
102
RTVSPropertyOp34
 70
     1
102
RTVSPropertyOp35
 70
     1
102
RTVSPropertyOp36
 70
     1
102
RTVSPropertyOp37
 70
     1
102
RTVSPropertyOp38
 70
     1
102
RTVSPropertyOp39
 70
     1
102
RTVSPropertyOp40
 70
     1
102
RTVSPropertyOp41
 70
     1
102
RTVSPropertyOp42
 70
     1
102
RTVSPropertyOp43
 70
     1
102
RTVSPropertyOp44
 70
     1
102
RTVSPropertyOp45
 70
     1
102
RTVSPropertyOp46
 70
     1
102
RTVSPropertyOp47
 70
     1
102
RTVSPropertyOp48
 70
     1
102
RTVSPropertyOp49
 70
     1
102
RTVSPropertyOp50
 70
     1
102
RTVSPropertyOp51
 70
     0
102
RTVSPropertyOp52
 70
     0
102
RTVSPropertyOp53
 70
     1
102
RTVSPropertyOp54
 70
     1
102
RTVSPropertyOp55
 70
     1
102
RTVSPropertyOp56
 70
     1
102
RTVSPropertyOp57
 70
     1
102
RTVSPropertyOp58
 70
     1
102
RTVSPropertyOp59
 70
     1
102
RTVSPropertyOp60
 70
     1
102
RTVSPropertyOp61
 70
     1
102
RTVSPropertyOp62
 70
     1
  0
ENDSEC
  0
EOF
