  0
SECTION
  2
HEADER
  9
$ACADVER
  1
AC1015
  9
$ACADMAINTVER
 70
    20
  9
$DWGCODEPAGE
  3
ANSI_932
  9
$INSBASE
 10
0.0
 20
0.0
 30
0.0
  9
$EXTMIN
 10
10.0
 20
9.999999999999998
 30
0.0
  9
$EXTMAX
 10
818.5999999999996
 20
434.7999999999998
 30
0.0
  9
$LIMMIN
 10
0.0
 20
0.0
  9
$LIMMAX
 10
871.2000000000001
 20
600.6
  9
$ORTHOMODE
 70
     1
  9
$REGENMODE
 70
     1
  9
$FILLMODE
 70
     1
  9
$QTEXTMODE
 70
     0
  9
$MIRRTEXT
 70
     1
  9
$LTSCALE
 40
20.0
  9
$ATTMODE
 70
     1
  9
$TEXTSIZE
 40
5.0
  9
$TRACEWID
 40
1.0
  9
$TEXTSTYLE
  7
STANDARD
  9
$CLAYER
  8
0
  9
$CELTYPE
  6
BYLAYER
  9
$CECOLOR
 62
   256
  9
$CELTSCALE
 40
1.0
  9
$DISPSILH
 70
     0
  9
$DIMSCALE
 40
1.0
  9
$DIMASZ
 40
3.0
  9
$DIMEXO
 40
1.0
  9
$DIMDLI
 40
10.0
  9
$DIMRND
 40
0.0
  9
$DIMDLE
 40
0.0
  9
$DIMEXE
 40
1.0
  9
$DIMTP
 40
0.0
  9
$DIMTM
 40
0.0
  9
$DIMTXT
 40
2.5
  9
$DIMCEN
 40
0.0
  9
$DIMTSZ
 40
0.0
  9
$DIMTOL
 70
     0
  9
$DIMLIM
 70
     0
  9
$DIMTIH
 70
     0
  9
$DIMTOH
 70
     0
  9
$DIMSE1
 70
     0
  9
$DIMSE2
 70
     0
  9
$DIMTAD
 70
     3
  9
$DIMZIN
 70
     8
  9
$DIMBLK
  1

  9
$DIMASO
 70
     1
  9
$DIMSHO
 70
     1
  9
$DIMPOST
  1

  9
$DIMAPOST
  1

  9
$DIMALT
 70
     0
  9
$DIMALTD
 70
     2
  9
$DIMALTF
 40
25.4
  9
$DIMLFAC
 40
1.0
  9
$DIMTOFL
 70
     1
  9
$DIMTVP
 40
0.0
  9
$DIMTIX
 70
     0
  9
$DIMSOXD
 70
     0
  9
$DIMSAH
 70
     1
  9
$DIMBLK1
  1

  9
$DIMBLK2
  1

  9
$DIMSTYLE
  2
STANDARD
  9
$DIMCLRD
 70
     0
  9
$DIMCLRE
 70
     0
  9
$DIMCLRT
 70
     0
  9
$DIMTFAC
 40
1.0
  9
$DIMGAP
 40
1.0
  9
$DIMJUST
 70
     0
  9
$DIMSD1
 70
     0
  9
$DIMSD2
 70
     0
  9
$DIMTOLJ
 70
     1
  9
$DIMTZIN
 70
     0
  9
$DIMALTZ
 70
     0
  9
$DIMALTTZ
 70
     0
  9
$DIMUPT
 70
     0
  9
$DIMDEC
 70
     4
  9
$DIMTDEC
 70
     4
  9
$DIMALTU
 70
     2
  9
$DIMALTTD
 70
     2
  9
$DIMTXSTY
  7
STANDARD
  9
$DIMAUNIT
 70
     0
  9
$DIMADEC
 70
     0
  9
$DIMALTRND
 40
0.0
  9
$DIMAZIN
 70
     0
  9
$DIMDSEP
 70
    46
  9
$DIMATFIT
 70
     3
  9
$DIMFRAC
 70
     0
  9
$DIMLDRBLK
  1

  9
$DIMLUNIT
 70
     2
  9
$DIMLWD
 70
    -2
  9
$DIMLWE
 70
    -2
  9
$DIMTMOVE
 70
     0
  9
$LUNITS
 70
     2
  9
$LUPREC
 70
     4
  9
$SKETCHINC
 40
1.0
  9
$FILLETRAD
 40
0.0
  9
$AUNITS
 70
     0
  9
$AUPREC
 70
     2
  9
$MENU
  1
.
  9
$ELEVATION
 40
0.0
  9
$PELEVATION
 40
0.0
  9
$THICKNESS
 40
0.0
  9
$LIMCHECK
 70
     0
  9
$CHAMFERA
 40
10.0
  9
$CHAMFERB
 40
10.0
  9
$CHAMFERC
 40
0.0
  9
$CHAMFERD
 40
0.0
  9
$SKPOLY
 70
     0
  9
$TDCREATE
 40
2451247.598495833
  9
$TDUCREATE
 40
2451247.223495833
  9
$TDUPDATE
 40
2457192.659572327
  9
$TDUUPDATE
 40
2457192.284572327
  9
$TDINDWG
 40
0.0000128472
  9
$TDUSRTIMER
 40
0.0000123495
  9
$USRTIMER
 70
     1
  9
$ANGBASE
 50
0.0
  9
$ANGDIR
 70
     0
  9
$PDMODE
 70
     0
  9
$PDSIZE
 40
0.0
  9
$PLINEWID
 40
0.0
  9
$SPLFRAME
 70
     0
  9
$SPLINETYPE
 70
     6
  9
$SPLINESEGS
 70
     8
  9
$HANDSEED
  5
F487
  9
$SURFTAB1
 70
     6
  9
$SURFTAB2
 70
     6
  9
$SURFTYPE
 70
     6
  9
$SURFU
 70
     6
  9
$SURFV
 70
     6
  9
$UCSBASE
  2

  9
$UCSNAME
  2

  9
$UCSORG
 10
0.0
 20
0.0
 30
0.0
  9
$UCSXDIR
 10
1.0
 20
0.0
 30
0.0
  9
$UCSYDIR
 10
0.0
 20
1.0
 30
0.0
  9
$UCSORTHOREF
  2

  9
$UCSORTHOVIEW
 70
     0
  9
$UCSORGTOP
 10
0.0
 20
0.0
 30
0.0
  9
$UCSORGBOTTOM
 10
0.0
 20
0.0
 30
0.0
  9
$UCSORGLEFT
 10
0.0
 20
0.0
 30
0.0
  9
$UCSORGRIGHT
 10
0.0
 20
0.0
 30
0.0
  9
$UCSORGFRONT
 10
0.0
 20
0.0
 30
0.0
  9
$UCSORGBACK
 10
0.0
 20
0.0
 30
0.0
  9
$PUCSBASE
  2

  9
$PUCSNAME
  2

  9
$PUCSORG
 10
0.0
 20
0.0
 30
0.0
  9
$PUCSXDIR
 10
1.0
 20
0.0
 30
0.0
  9
$PUCSYDIR
 10
0.0
 20
1.0
 30
0.0
  9
$PUCSORTHOREF
  2

  9
$PUCSORTHOVIEW
 70
     0
  9
$PUCSORGTOP
 10
0.0
 20
0.0
 30
0.0
  9
$PUCSORGBOTTOM
 10
0.0
 20
0.0
 30
0.0
  9
$PUCSORGLEFT
 10
0.0
 20
0.0
 30
0.0
  9
$PUCSORGRIGHT
 10
0.0
 20
0.0
 30
0.0
  9
$PUCSORGFRONT
 10
0.0
 20
0.0
 30
0.0
  9
$PUCSORGBACK
 10
0.0
 20
0.0
 30
0.0
  9
$USERI1
 70
     0
  9
$USERI2
 70
     0
  9
$USERI3
 70
     0
  9
$USERI4
 70
     0
  9
$USERI5
 70
     0
  9
$USERR1
 40
0.0
  9
$USERR2
 40
0.0
  9
$USERR3
 40
0.0
  9
$USERR4
 40
0.0
  9
$USERR5
 40
0.0
  9
$WORLDVIEW
 70
     1
  9
$SHADEDGE
 70
     3
  9
$SHADEDIF
 70
    70
  9
$TILEMODE
 70
     1
  9
$MAXACTVP
 70
    16
  9
$PINSBASE
 10
0.0
 20
0.0
 30
0.0
  9
$PLIMCHECK
 70
     0
  9
$PEXTMIN
 10
1.000000000000000E+20
 20
1.000000000000000E+20
 30
1.000000000000000E+20
  9
$PEXTMAX
 10
-1.000000000000000E+20
 20
-1.000000000000000E+20
 30
-1.000000000000000E+20
  9
$PLIMMIN
 10
0.0
 20
0.0
  9
$PLIMMAX
 10
420.0
 20
297.0
  9
$UNITMODE
 70
     0
  9
$VISRETAIN
 70
     0
  9
$PLINEGEN
 70
     0
  9
$PSLTSCALE
 70
     0
  9
$TREEDEPTH
 70
  3020
  9
$CMLSTYLE
  2
STANDARD
  9
$CMLJUST
 70
     0
  9
$CMLSCALE
 40
1.0
  9
$PROXYGRAPHICS
 70
     1
  9
$MEASUREMENT
 70
     0
  9
$CELWEIGHT
370
    -1
  9
$ENDCAPS
280
     0
  9
$JOINSTYLE
280
     0
  9
$LWDISPLAY
290
     0
  9
$INSUNITS
 70
     0
  9
$HYPERLINKBASE
  1

  9
$STYLESHEET
  1

  9
$XEDIT
290
     1
  9
$CEPSNTYPE
380
     0
  9
$PSTYLEMODE
290
     1
  9
$FINGERPRINTGUID
  2
{060F6F69-8FCE-475C-B719-02BD045AF285}
  9
$VERSIONGUID
  2
{7417151C-A04E-42DF-8451-1BF6EC8AB9B1}
  9
$EXTNAMES
290
     1
  9
$PSVPSCALE
 40
0.0
  9
$OLESTARTUP
290
     0
  0
ENDSEC
  0
SECTION
  2
CLASSES
  0
CLASS
  1
ACDBDICTIONARYWDFLT
  2
AcDbDictionaryWithDefault
  3
ObjectDBX Classes
 90
        0
280
     0
281
     0
  0
CLASS
  1
ACDBPLACEHOLDER
  2
AcDbPlaceHolder
  3
ObjectDBX Classes
 90
        0
280
     0
281
     0
  0
CLASS
  1
LAYOUT
  2
AcDbLayout
  3
ObjectDBX Classes
 90
        0
280
     0
281
     0
  0
CLASS
  1
DICTIONARYVAR
  2
AcDbDictionaryVar
  3
ObjectDBX Classes
 90
        0
280
     0
281
     0
  0
CLASS
  1
MATERIAL
  2
AcDbMaterial
  3
ObjectDBX Classes
 90
     1153
280
     0
281
     0
  0
CLASS
  1
VISUALSTYLE
  2
AcDbVisualStyle
  3
ObjectDBX Classes
 90
     4095
280
     0
281
     0
  0
CLASS
  1
TABLESTYLE
  2
AcDbTableStyle
  3
ObjectDBX Classes
 90
     4095
280
     0
281
     0
  0
CLASS
  1
SCALE
  2
AcDbScale
  3
ObjectDBX Classes
 90
     1153
280
     0
281
     0
  0
CLASS
  1
MLEADERSTYLE
  2
AcDbMLeaderStyle
  3
ACDB_MLEADERSTYLE_CLASS
 90
     4095
280
     0
281
     0
  0
CLASS
  1
ACDBSECTIONVIEWSTYLE
  2
AcDbSectionViewStyle
  3
ObjectDBX Classes
 90
     1025
280
     0
281
     0
  0
CLASS
  1
ACDBDETAILVIEWSTYLE
  2
AcDbDetailViewStyle
  3
ObjectDBX Classes
 90
     1025
280
     0
281
     0
  0
CLASS
  1
CELLSTYLEMAP
  2
AcDbCellStyleMap
  3
ObjectDBX Classes
 90
     1152
280
     0
281
     0
  0
ENDSEC
  0
SECTION
  2
TABLES
  0
TABLE
  2
VPORT
  5
EFF2
330
0
100
AcDbSymbolTable
 70
     1
  0
VPORT
  5
F3D0
330
EFF2
100
AcDbSymbolTableRecord
100
AcDbViewportTableRecord
  2
*ACTIVE
 70
     0
 10
0.0
 20
0.0
 11
1.0
 21
1.0
 12
553.5351622140044
 22
222.4023572647272
 13
0.0
 23
0.0
 14
10.0
 24
10.0
 15
10.0
 25
10.0
 16
0.0
 26
0.0
 36
1.0
 17
0.0
 27
0.0
 37
0.0
 40
464.8517929845942
 41
1.899603698811096
 42
50.0
 43
0.0
 44
0.0
 50
0.0
 51
0.0
 71
     0
 72
   100
 73
     1
 74
     0
 75
     0
 76
     0
 77
     0
 78
     0
281
     0
 65
     1
110
0.0
120
0.0
130
0.0
111
1.0
121
0.0
131
0.0
112
0.0
122
1.0
132
0.0
 79
     0
146
0.0
1001
ACAD_NAV_VCDISPLAY
1070
     3
  0
ENDTAB
  0
TABLE
  2
LTYPE
  5
EFEF
330
0
100
AcDbSymbolTable
 70
     4
  0
LTYPE
  5
EFFD
330
EFEF
100
AcDbSymbolTableRecord
100
AcDbLinetypeTableRecord
  2
BYBLOCK
 70
     0
  3

 72
    65
 73
     0
 40
0.0
  0
LTYPE
  5
EFFE
330
EFEF
100
AcDbSymbolTableRecord
100
AcDbLinetypeTableRecord
  2
BYLAYER
 70
     0
  3

 72
    65
 73
     0
 40
0.0
  0
LTYPE
  5
EFFF
330
EFEF
100
AcDbSymbolTableRecord
100
AcDbLinetypeTableRecord
  2
CONTINUOUS
 70
     0
  3
Solid line
 72
    65
 73
     0
 40
0.0
  0
LTYPE
  5
F00D
330
EFEF
100
AcDbSymbolTableRecord
100
AcDbLinetypeTableRecord
  2
DASHED
 70
     0
  3
__ __ __ __ __ __ __ __ __ __ __ __ __ __ __ __
 72
    65
 73
     2
 40
0.75
 49
0.5
 74
     0
 49
-0.25
 74
     0
  0
LTYPE
  5
F00E
330
EFEF
100
AcDbSymbolTableRecord
100
AcDbLinetypeTableRecord
  2
CENTER
 70
     0
  3
____ _ ____ _ ____ _ ____ _ ____ _ ____ _ ____ 
 72
    65
 73
     4
 40
2.0
 49
1.25
 74
     0
 49
-0.25
 74
     0
 49
0.25
 74
     0
 49
-0.25
 74
     0
  0
LTYPE
  5
F00F
330
EFEF
100
AcDbSymbolTableRecord
100
AcDbLinetypeTableRecord
  2
PHANTOM
 70
     0
  3
______  __  __  ______  __  __  ______  __  __ 
 72
    65
 73
     6
 40
2.5
 49
1.25
 74
     0
 49
-0.25
 74
     0
 49
0.25
 74
     0
 49
-0.25
 74
     0
 49
0.25
 74
     0
 49
-0.25
 74
     0
  0
ENDTAB
  0
TABLE
  2
LAYER
  5
EFEC
330
0
100
AcDbSymbolTable
 70
     8
  0
LAYER
  5
EFFA
102
{ACAD_XDICTIONARY
360
F42B
102
}
330
EFEC
100
AcDbSymbolTableRecord
100
AcDbLayerTableRecord
  2
0
 70
     0
 62
     7
  6
CONTINUOUS
370
    -3
390
F3D9
  0
LAYER
  5
F010
102
{ACAD_XDICTIONARY
360
F42D
102
}
330
EFEC
100
AcDbSymbolTableRecord
100
AcDbLayerTableRecord
  2
4
 70
     0
 62
     1
  6
CENTER
370
    -3
390
F3D9
  0
LAYER
  5
F011
102
{ACAD_XDICTIONARY
360
F42F
102
}
330
EFEC
100
AcDbSymbolTableRecord
100
AcDbLayerTableRecord
  2
5
 70
     0
 62
     6
  6
PHANTOM
370
    -3
390
F3D9
  0
LAYER
  5
F012
102
{ACAD_XDICTIONARY
360
F431
102
}
330
EFEC
100
AcDbSymbolTableRecord
100
AcDbLayerTableRecord
  2
1
 70
     0
 62
     7
  6
CONTINUOUS
370
    -3
390
F3D9
  0
LAYER
  5
F013
102
{ACAD_XDICTIONARY
360
F433
102
}
330
EFEC
100
AcDbSymbolTableRecord
100
AcDbLayerTableRecord
  2
2
 70
     0
 62
     4
  6
CONTINUOUS
370
    -3
390
F3D9
  0
LAYER
  5
F014
102
{ACAD_XDICTIONARY
360
F435
102
}
330
EFEC
100
AcDbSymbolTableRecord
100
AcDbLayerTableRecord
  2
3
 70
     0
 62
     2
  6
DASHED
370
    -3
390
F3D9
  0
LAYER
  5
F015
102
{ACAD_XDICTIONARY
360
F437
102
}
330
EFEC
100
AcDbSymbolTableRecord
100
AcDbLayerTableRecord
  2
6
 70
     0
 62
     5
  6
CONTINUOUS
370
    -3
390
F3D9
  0
LAYER
  5
F016
102
{ACAD_XDICTIONARY
360
F439
102
}
330
EFEC
100
AcDbSymbolTableRecord
100
AcDbLayerTableRecord
  2
7
 70
     0
 62
     3
  6
CONTINUOUS
370
    -3
390
F3D9
  0
ENDTAB
  0
TABLE
  2
STYLE
  5
EFED
330
0
100
AcDbSymbolTable
 70
     1
  0
STYLE
  5
EFFB
330
EFED
100
AcDbSymbolTableRecord
100
AcDbTextStyleTableRecord
  2
STANDARD
 70
     0
 40
0.0
 41
1.0
 50
0.0
 71
     0
 42
5.0
  3
txt
  4

  0
ENDTAB
  0
TABLE
  2
VIEW
  5
EFF0
330
0
100
AcDbSymbolTable
 70
     0
  0
ENDTAB
  0
TABLE
  2
UCS
  5
EFF1
330
0
100
AcDbSymbolTable
 70
     0
  0
ENDTAB
  0
TABLE
  2
APPID
  5
EFF3
330
0
100
AcDbSymbolTable
 70
     3
  0
APPID
  5
EFFC
330
EFF3
100
AcDbSymbolTableRecord
100
AcDbRegAppTableRecord
  2
ACAD
 70
     0
  0
APPID
  5
F445
330
EFF3
100
AcDbSymbolTableRecord
100
AcDbRegAppTableRecord
  2
ACAD_NAV_VCDISPLAY
 70
     0
  0
APPID
  5
F47E
330
EFF3
100
AcDbSymbolTableRecord
100
AcDbRegAppTableRecord
  2
ACAD_MLEADERVER
 70
     0
  0
ENDTAB
  0
TABLE
  2
DIMSTYLE
  5
EFF4
330
0
100
AcDbSymbolTable
 70
     1
100
AcDbDimStyleTable
 71
     0
  0
DIMSTYLE
105
F018
330
EFF4
100
AcDbSymbolTableRecord
100
AcDbDimStyleTableRecord
  2
STANDARD
 70
     0
 41
3.0
 42
1.0
 43
10.0
 44
1.0
 73
     0
 74
     0
 77
     3
 78
     8
140
2.5
141
0.0
147
1.0
172
     1
173
     1
284
     8
285
     8
286
     8
340
EFFB
  0
ENDTAB
  0
TABLE
  2
BLOCK_RECORD
  5
EFEB
330
0
100
AcDbSymbolTable
 70
     0
  0
BLOCK_RECORD
  5
F008
102
{ACAD_XDICTIONARY
360
F3D3
102
}
330
EFEB
100
AcDbSymbolTableRecord
100
AcDbBlockTableRecord
  2
*MODEL_SPACE
340
F427
  0
BLOCK_RECORD
  5
F004
102
{ACAD_XDICTIONARY
360
F3D1
102
}
330
EFEB
100
AcDbSymbolTableRecord
100
AcDbBlockTableRecord
  2
*PAPER_SPACE
340
F428
  0
ENDTAB
  0
ENDSEC
  0
SECTION
  2
BLOCKS
  0
BLOCK
  5
F009
330
F008
100
AcDbEntity
  8
0
100
AcDbBlockBegin
  2
*MODEL_SPACE
 70
     0
 10
0.0
 20
0.0
 30
0.0
  3
*MODEL_SPACE
  1

  0
ENDBLK
  5
F00A
330
F008
100
AcDbEntity
  8
0
100
AcDbBlockEnd
  0
BLOCK
  5
F005
330
F004
100
AcDbEntity
 67
     1
  8
0
100
AcDbBlockBegin
  2
*PAPER_SPACE
 70
     0
 10
0.0
 20
0.0
 30
0.0
  3
*PAPER_SPACE
  1

  0
ENDBLK
  5
F006
330
F004
100
AcDbEntity
 67
     1
  8
0
100
AcDbBlockEnd
  0
ENDSEC
  0
SECTION
  2
ENTITIES
  0
TEXT
  5
F020
330
F008
100
AcDbEntity
  8
7
  6
Continuous
100
AcDbText
 10
10.0
 20
18.0
 30
0.0
 40
3.0
  1
TYPE No.TM-168-12
100
AcDbText
  0
TEXT
  5
F021
330
F008
100
AcDbEntity
  8
7
  6
Continuous
100
AcDbText
 10
10.0
 20
26.0
 30
0.0
 40
3.0
  1
CODE No.5851
100
AcDbText
  0
TEXT
  5
F022
330
F008
100
AcDbEntity
  8
1
  6
Continuous
100
AcDbText
 10
10.0
 20
10.0
 30
0.0
 40
1.399999999999999
  1
LAYER
100
AcDbText
  0
TEXT
  5
F023
330
F008
100
AcDbEntity
  8
1
  6
Continuous
100
AcDbText
 10
17.97951099999998
 20
10.04873699999998
 30
0.0
 40
1.399999999999999
  1
1
100
AcDbText
  0
TEXT
  5
F024
330
F008
100
AcDbEntity
  8
7
  6
Continuous
100
AcDbText
 10
29.97951099999999
 20
10.04873699999998
 30
0.0
 40
1.399999999999999
  1
7
100
AcDbText
  0
TEXT
  5
F025
330
F008
100
AcDbEntity
  8
4
  6
CENTER
100
AcDbText
 10
23.97951099999999
 20
10.04873699999998
 30
0.0
 40
1.399999999999999
  1
4
100
AcDbText
  0
TEXT
  5
F026
330
F008
100
AcDbEntity
  8
3
  6
DASHED
100
AcDbText
 10
21.979511
 20
10.04873699999998
 30
0.0
 40
1.399999999999999
  1
3
100
AcDbText
  0
TEXT
  5
F027
330
F008
100
AcDbEntity
  8
2
  6
Continuous
100
AcDbText
 10
19.97951099999999
 20
10.04873699999998
 30
0.0
 40
1.399999999999999
  1
2
100
AcDbText
  0
TEXT
  5
F028
330
F008
100
AcDbEntity
  8
6
  6
Continuous
100
AcDbText
 10
27.979511
 20
10.04873699999998
 30
0.0
 40
1.399999999999999
  1
6
100
AcDbText
  0
TEXT
  5
F029
330
F008
100
AcDbEntity
  8
5
  6
PHANTOM
100
AcDbText
 10
25.97951099999999
 20
10.04873699999998
 30
0.0
 40
1.399999999999999
  1
5
100
AcDbText
  0
LINE
  5
F02A
330
F008
100
AcDbEntity
  8
4
  6
CENTER
100
AcDbLine
 10
97.5
 20
172.75
 30
0.0
 11
739.5
 21
172.75
 31
0.0
  0
LINE
  5
F02B
330
F008
100
AcDbEntity
  8
1
  6
Continuous
100
AcDbLine
 10
734.4999999999998
 20
155.0999999999999
 30
0.0
 11
734.4999999999998
 21
156.602131
 31
0.0
  0
LINE
  5
F02C
330
F008
100
AcDbEntity
  8
1
  6
Continuous
100
AcDbLine
 10
299.5
 20
190.4
 30
0.0
 11
734.4999999999998
 21
190.4
 31
0.0
  0
LINE
  5
F02D
330
F008
100
AcDbEntity
  8
1
  6
Continuous
100
AcDbLine
 10
299.5
 20
155.0999999999999
 30
0.0
 11
734.4999999999998
 21
155.0999999999999
 31
0.0
  0
LINE
  5
F02E
330
F008
100
AcDbEntity
  8
1
  6
Continuous
100
AcDbLine
 10
716.15
 20
173.15
 30
0.0
 11
716.15
 21
172.35
 31
0.0
  0
LINE
  5
F02F
330
F008
100
AcDbEntity
  8
1
  6
Continuous
100
AcDbLine
 10
720.65
 20
173.15
 30
0.0
 11
720.65
 21
172.35
 31
0.0
  0
LINE
  5
F030
330
F008
100
AcDbEntity
  8
4
  6
CENTER
100
AcDbLine
 10
718.4
 20
178.0
 30
0.0
 11
718.4
 21
167.5
 31
0.0
  0
ARC
  5
F031
330
F008
100
AcDbEntity
  8
1
  6
Continuous
100
AcDbCircle
 10
718.4
 20
172.35
 30
0.0
 40
2.25
100
AcDbArc
 50
180.0
 51
0.0
  0
ARC
  5
F032
330
F008
100
AcDbEntity
  8
1
  6
Continuous
100
AcDbCircle
 10
718.4
 20
173.15
 30
0.0
 40
2.25
100
AcDbArc
 50
0.0
 51
180.0
  0
LINE
  5
F033
330
F008
100
AcDbEntity
  8
1
  6
Continuous
100
AcDbLine
 10
703.4500000000001
 20
173.15
 30
0.0
 11
703.4500000000001
 21
172.35
 31
0.0
  0
LINE
  5
F034
330
F008
100
AcDbEntity
  8
1
  6
Continuous
100
AcDbLine
 10
707.9500000000003
 20
173.15
 30
0.0
 11
707.9500000000003
 21
172.35
 31
0.0
  0
LINE
  5
F035
330
F008
100
AcDbEntity
  8
4
  6
CENTER
100
AcDbLine
 10
705.7000000000003
 20
178.0
 30
0.0
 11
705.7000000000003
 21
167.5
 31
0.0
  0
ARC
  5
F036
330
F008
100
AcDbEntity
  8
1
  6
Continuous
100
AcDbCircle
 10
705.7000000000003
 20
172.35
 30
0.0
 40
2.25
100
AcDbArc
 50
180.0
 51
0.0
  0
ARC
  5
F037
330
F008
100
AcDbEntity
  8
1
  6
Continuous
100
AcDbCircle
 10
705.7000000000003
 20
173.15
 30
0.0
 40
2.25
100
AcDbArc
 50
0.0
 51
180.0
  0
LINE
  5
F038
330
F008
100
AcDbEntity
  8
4
  6
CENTER
100
AcDbLine
 10
556.5
 20
178.0
 30
0.0
 11
556.5
 21
167.5
 31
0.0
  0
LINE
  5
F039
330
F008
100
AcDbEntity
  8
4
  6
CENTER
100
AcDbLine
 10
470.8
 20
178.0
 30
0.0
 11
470.8
 21
167.5
 31
0.0
  0
LINE
  5
F03A
330
F008
100
AcDbEntity
  8
4
  6
CENTER
100
AcDbLine
 10
458.1
 20
178.0
 30
0.0
 11
458.1
 21
167.5
 31
0.0
  0
LINE
  5
F03B
330
F008
100
AcDbEntity
  8
4
  6
CENTER
100
AcDbLine
 10
445.3999999999998
 20
178.0
 30
0.0
 11
445.3999999999998
 21
167.5
 31
0.0
  0
LINE
  5
F03C
330
F008
100
AcDbEntity
  8
1
  6
Continuous
100
AcDbLine
 10
25.0
 20
160.171084
 30
0.0
 11
25.0
 21
185.3289159999999
 31
0.0
  0
LINE
  5
F03D
330
F008
100
AcDbEntity
  8
1
  6
Continuous
100
AcDbLine
 10
26.6
 20
160.171084
 30
0.0
 11
26.6
 21
165.25
 31
0.0
  0
LINE
  5
F03E
330
F008
100
AcDbEntity
  8
1
  6
Continuous
100
AcDbLine
 10
102.4999999999999
 20
185.0
 30
0.0
 11
404.4999999999998
 21
185.0
 31
0.0
  0
LINE
  5
F03F
330
F008
100
AcDbEntity
  8
1
  6
Continuous
100
AcDbLine
 10
102.4999999999999
 20
160.4999999999998
 30
0.0
 11
404.4999999999998
 21
160.4999999999998
 31
0.0
  0
LINE
  5
F040
330
F008
100
AcDbEntity
  8
4
  6
CENTER
100
AcDbLine
 10
20.0
 20
172.75
 30
0.0
 11
49.1
 21
172.75
 31
0.0
  0
ARC
  5
F041
330
F008
100
AcDbEntity
  8
1
  6
Continuous
100
AcDbCircle
 10
30.0
 20
186.4187499999999
 30
0.0
 40
2.38125
100
AcDbArc
 50
204.844815
 51
343.87833
  0
ARC
  5
F042
330
F008
100
AcDbEntity
  8
1
  6
Continuous
100
AcDbCircle
 10
30.0
 20
186.4187499999999
 30
0.0
 40
3.98125
100
AcDbArc
 50
21.665296
 51
142.987809
  0
LINE
  5
F043
330
F008
100
AcDbEntity
  8
1
  6
Continuous
100
AcDbLine
 10
33.7
 20
187.8885629999999
 30
0.0
 11
32.21302999999998
 21
187.297869
 31
0.0
  0
LINE
  5
F044
330
F008
100
AcDbEntity
  8
1
  6
Continuous
100
AcDbLine
 10
25.644776
 20
187.255268
 30
0.0
 11
26.82094199999999
 21
188.815403
 31
0.0
  0
LINE
  5
F045
330
F008
100
AcDbEntity
  8
1
  6
Continuous
100
AcDbLine
 10
26.922388
 20
186.292092
 30
0.0
 11
28.098554
 21
187.8522269999999
 31
0.0
  0
ARC
  5
F046
330
F008
100
AcDbEntity
  8
1
  6
Continuous
100
AcDbCircle
 10
28.2
 20
185.3289159999999
 30
0.0
 40
1.6
100
AcDbArc
 50
142.987809
 51
180.0
  0
ARC
  5
F047
330
F008
100
AcDbEntity
  8
1
  6
Continuous
100
AcDbCircle
 10
28.2
 20
185.3289159999999
 30
0.0
 40
3.2
100
AcDbArc
 50
142.987809
 51
180.0
  0
ARC
  5
F048
330
F008
100
AcDbEntity
  8
1
  6
Continuous
100
AcDbCircle
 10
30.0
 20
186.4187499999999
 30
0.0
 40
3.581249999999998
100
AcDbArc
 50
236.0503449999999
 51
309.5506789999999
  0
LINE
  5
F049
330
F008
100
AcDbEntity
  8
1
  6
Continuous
100
AcDbLine
 10
34.5
 20
162.3229389999998
 30
0.0
 11
34.5
 21
183.177061
 31
0.0
  0
LINE
  5
F04A
330
F008
100
AcDbEntity
  8
1
  6
Continuous
100
AcDbLine
 10
33.3
 20
162.3229389999998
 30
0.0
 11
33.3
 21
183.177061
 31
0.0
  0
ARC
  5
F04B
330
F008
100
AcDbEntity
  8
1
  6
Continuous
100
AcDbCircle
 10
32.677061
 20
183.177061
 30
0.0
 40
1.822938999999999
100
AcDbArc
 50
0.0
 51
129.550679
  0
ARC
  5
F04C
330
F008
100
AcDbEntity
  8
1
  6
Continuous
100
AcDbCircle
 10
32.677061
 20
183.177061
 30
0.0
 40
0.6229390000000003
100
AcDbArc
 50
0.0
 51
129.550679
  0
LINE
  5
F04D
330
F008
100
AcDbEntity
  8
1
  6
Continuous
100
AcDbLine
 10
28.0
 20
183.448001
 30
0.0
 11
28.67015699999999
 21
184.443435
 31
0.0
  0
ARC
  5
F04E
330
F008
100
AcDbEntity
  8
1
  6
Continuous
100
AcDbCircle
 10
28.2
 20
160.171084
 30
0.0
 40
3.2
100
AcDbArc
 50
180.0
 51
217.012191
  0
ARC
  5
F04F
330
F008
100
AcDbEntity
  8
1
  6
Continuous
100
AcDbCircle
 10
28.2
 20
160.171084
 30
0.0
 40
1.6
100
AcDbArc
 50
180.0
 51
217.012191
  0
ARC
  5
F050
330
F008
100
AcDbEntity
  8
1
  6
Continuous
100
AcDbCircle
 10
30.0
 20
159.08125
 30
0.0
 40
3.581249999999998
100
AcDbArc
 50
50.449321
 51
123.949655
  0
LINE
  5
F051
330
F008
100
AcDbEntity
  8
1
  6
Continuous
100
AcDbLine
 10
28.0
 20
162.051999
 30
0.0
 11
28.67015699999999
 21
161.0565649999998
 31
0.0
  0
ARC
  5
F052
330
F008
100
AcDbEntity
  8
1
  6
Continuous
100
AcDbCircle
 10
32.677061
 20
162.3229389999998
 30
0.0
 40
0.6229390000000003
100
AcDbArc
 50
230.4493209999999
 51
0.0
  0
ARC
  5
F053
330
F008
100
AcDbEntity
  8
1
  6
Continuous
100
AcDbCircle
 10
32.677061
 20
162.3229389999998
 30
0.0
 40
1.822938999999999
100
AcDbArc
 50
230.4493209999999
 51
0.0
  0
ARC
  5
F054
330
F008
100
AcDbEntity
  8
1
  6
Continuous
100
AcDbCircle
 10
30.0
 20
159.08125
 30
0.0
 40
3.98125
100
AcDbArc
 50
217.012191
 51
338.3347039999998
  0
LINE
  5
F055
330
F008
100
AcDbEntity
  8
1
  6
Continuous
100
AcDbLine
 10
25.644776
 20
158.2447319999999
 30
0.0
 11
26.82094199999999
 21
156.6845969999999
 31
0.0
  0
LINE
  5
F056
330
F008
100
AcDbEntity
  8
1
  6
Continuous
100
AcDbLine
 10
26.922388
 20
159.2079079999998
 30
0.0
 11
28.098554
 21
157.647773
 31
0.0
  0
LINE
  5
F057
330
F008
100
AcDbEntity
  8
1
  6
Continuous
100
AcDbLine
 10
33.7
 20
157.611437
 30
0.0
 11
32.21302999999998
 21
158.202131
 31
0.0
  0
LINE
  5
F058
330
F008
100
AcDbEntity
  8
1
  6
Continuous
100
AcDbLine
 10
27.1
 20
180.25
 30
0.0
 11
27.1
 21
185.398548
 31
0.0
  0
LINE
  5
F059
330
F008
100
AcDbEntity
  8
1
  6
Continuous
100
AcDbLine
 10
27.6
 20
180.25
 30
0.0
 11
27.6
 21
185.4
 31
0.0
  0
LINE
  5
F05A
330
F008
100
AcDbEntity
  8
1
  6
Continuous
100
AcDbLine
 10
30.1
 20
167.5
 30
0.0
 11
30.1
 21
178.0
 31
0.0
  0
ARC
  5
F05B
330
F008
100
AcDbEntity
  8
1
  6
Continuous
100
AcDbCircle
 10
29.6
 20
178.0
 30
0.0
 40
0.5
100
AcDbArc
 50
0.0
 51
36.869898
  0
LINE
  5
F05C
330
F008
100
AcDbEntity
  8
1
  6
Continuous
100
AcDbLine
 10
33.5
 20
185.85
 30
0.0
 11
33.5
 21
186.3499999999999
 31
0.0
  0
LINE
  5
F05D
330
F008
100
AcDbEntity
  8
1
  6
Continuous
100
AcDbLine
 10
33.5
 20
185.85
 30
0.0
 11
27.6
 21
185.4
 31
0.0
  0
ARC
  5
F05E
330
F008
100
AcDbEntity
  8
1
  6
Continuous
100
AcDbCircle
 10
30.0
 20
186.4187499999999
 30
0.0
 40
2.38125
100
AcDbArc
 50
356.280872
 51
192.4422739999998
  0
LINE
  5
F05F
330
F008
100
AcDbEntity
  8
1
  6
Continuous
100
AcDbLine
 10
33.5
 20
159.6499999999998
 30
0.0
 11
27.6
 21
160.0999999999999
 31
0.0
  0
ARC
  5
F060
330
F008
100
AcDbEntity
  8
1
  6
Continuous
100
AcDbCircle
 10
30.0
 20
159.08125
 30
0.0
 40
2.38125
100
AcDbArc
 50
167.557726
 51
3.719127999999999
  0
ARC
  5
F061
330
F008
100
AcDbEntity
  8
1
  6
Continuous
100
AcDbCircle
 10
30.0
 20
159.08125
 30
0.0
 40
2.38125
100
AcDbArc
 50
16.12167
 51
155.1551849999999
  0
LINE
  5
F062
330
F008
100
AcDbEntity
  8
1
  6
Continuous
100
AcDbLine
 10
27.6
 20
165.25
 30
0.0
 11
27.6
 21
160.0999999999999
 31
0.0
  0
ARC
  5
F063
330
F008
100
AcDbEntity
  8
1
  6
Continuous
100
AcDbCircle
 10
29.6
 20
167.5
 30
0.0
 40
0.5
100
AcDbArc
 50
323.130102
 51
0.0
  0
LINE
  5
F064
330
F008
100
AcDbEntity
  8
1
  6
Continuous
100
AcDbLine
 10
25.0
 20
180.25
 30
0.0
 11
30.0
 21
180.25
 31
0.0
  0
LINE
  5
F065
330
F008
100
AcDbEntity
  8
1
  6
Continuous
100
AcDbLine
 10
25.0
 20
165.25
 30
0.0
 11
30.0
 21
165.25
 31
0.0
  0
LINE
  5
F066
330
F008
100
AcDbEntity
  8
1
  6
Continuous
100
AcDbLine
 10
30.0
 20
165.25
 30
0.0
 11
30.0
 21
180.25
 31
0.0
  0
LINE
  5
F067
330
F008
100
AcDbEntity
  8
1
  6
Continuous
100
AcDbLine
 10
26.6
 20
180.25
 30
0.0
 11
26.6
 21
185.3289159999999
 31
0.0
  0
LINE
  5
F068
330
F008
100
AcDbEntity
  8
1
  6
Continuous
100
AcDbLine
 10
301.1
 20
187.8885629999999
 30
0.0
 11
602.8999999999999
 21
187.8885629999999
 31
0.0
  0
LINE
  5
F069
330
F008
100
AcDbEntity
  8
1
  6
Continuous
100
AcDbLine
 10
301.1
 20
187.297869
 30
0.0
 11
602.8999999999999
 21
187.297869
 31
0.0
  0
LINE
  5
F06A
330
F008
100
AcDbEntity
  8
1
  6
Continuous
100
AcDbLine
 10
732.8999999999997
 20
184.25
 30
0.0
 11
734.4999999999998
 21
184.25
 31
0.0
  0
LINE
  5
F06B
330
F008
100
AcDbEntity
  8
1
  6
Continuous
100
AcDbLine
 10
732.8999999999997
 20
161.25
 30
0.0
 11
734.4999999999998
 21
161.25
 31
0.0
  0
LINE
  5
F06C
330
F008
100
AcDbEntity
  8
1
  6
Continuous
100
AcDbLine
 10
732.8999999999997
 20
161.25
 30
0.0
 11
732.8999999999997
 21
184.25
 31
0.0
  0
ARC
  5
F06D
330
F008
100
AcDbEntity
  8
1
  6
Continuous
100
AcDbCircle
 10
732.8999999999997
 20
189.488563
 30
0.0
 40
1.6
100
AcDbArc
 50
270.0
 51
0.0
  0
ARC
  5
F06E
330
F008
100
AcDbEntity
  8
1
  6
Continuous
100
AcDbCircle
 10
732.8999999999997
 20
188.8978689999999
 30
0.0
 40
1.6
100
AcDbArc
 50
270.0
 51
0.0
  0
ARC
  5
F06F
330
F008
100
AcDbEntity
  8
1
  6
Continuous
100
AcDbCircle
 10
732.8999999999997
 20
156.602131
 30
0.0
 40
1.6
100
AcDbArc
 50
0.0
 51
90.0
  0
ARC
  5
F070
330
F008
100
AcDbEntity
  8
1
  6
Continuous
100
AcDbCircle
 10
732.8999999999997
 20
156.0114369999998
 30
0.0
 40
1.6
100
AcDbArc
 50
0.0
 51
90.0
  0
LINE
  5
F071
330
F008
100
AcDbEntity
  8
1
  6
Continuous
100
AcDbLine
 10
301.1
 20
158.202131
 30
0.0
 11
602.8999999999999
 21
158.202131
 31
0.0
  0
LINE
  5
F072
330
F008
100
AcDbEntity
  8
1
  6
Continuous
100
AcDbLine
 10
301.1
 20
157.611437
 30
0.0
 11
602.8999999999999
 21
157.611437
 31
0.0
  0
LINE
  5
F073
330
F008
100
AcDbEntity
  8
1
  6
Continuous
100
AcDbLine
 10
324.5
 20
185.85
 30
0.0
 11
335.0
 21
185.85
 31
0.0
  0
ARC
  5
F074
330
F008
100
AcDbEntity
  8
1
  6
Continuous
100
AcDbCircle
 10
329.7499999999998
 20
186.4187499999999
 30
0.0
 40
2.38125
100
AcDbArc
 50
158.3347039999999
 51
181.6544389999999
  0
ARC
  5
F075
330
F008
100
AcDbEntity
  8
1
  6
Continuous
100
AcDbCircle
 10
329.7499999999998
 20
186.4187499999999
 30
0.0
 40
2.38125
100
AcDbArc
 50
193.81839
 51
216.5697209999999
  0
LINE
  5
F076
330
F008
100
AcDbEntity
  8
1
  6
Continuous
100
AcDbLine
 10
324.5
 20
186.3499999999999
 30
0.0
 11
324.5
 21
185.85
 31
0.0
  0
ARC
  5
F077
330
F008
100
AcDbEntity
  8
1
  6
Continuous
100
AcDbCircle
 10
329.7499999999998
 20
186.4187499999999
 30
0.0
 40
2.38125
100
AcDbArc
 50
323.430279
 51
346.18161
  0
ARC
  5
F078
330
F008
100
AcDbEntity
  8
1
  6
Continuous
100
AcDbCircle
 10
329.7499999999998
 20
186.4187499999999
 30
0.0
 40
2.38125
100
AcDbArc
 50
358.3455609999999
 51
21.665296
  0
LINE
  5
F079
330
F008
100
AcDbEntity
  8
1
  6
Continuous
100
AcDbLine
 10
335.0
 20
186.3499999999999
 30
0.0
 11
335.0
 21
185.85
 31
0.0
  0
LINE
  5
F07A
330
F008
100
AcDbEntity
  8
3
  6
DASHED
100
AcDbLine
 10
432.0
 20
180.25
 30
0.0
 11
429.4999999999998
 21
180.25
 31
0.0
  0
LINE
  5
F07B
330
F008
100
AcDbEntity
  8
3
  6
DASHED
100
AcDbLine
 10
432.0
 20
165.25
 30
0.0
 11
432.0
 21
180.25
 31
0.0
  0
LINE
  5
F07C
330
F008
100
AcDbEntity
  8
3
  6
DASHED
100
AcDbLine
 10
432.0
 20
165.25
 30
0.0
 11
429.4999999999998
 21
165.25
 31
0.0
  0
LINE
  5
F07D
330
F008
100
AcDbEntity
  8
3
  6
DASHED
100
AcDbLine
 10
429.4999999999998
 20
180.25
 30
0.0
 11
429.4999999999998
 21
190.4
 31
0.0
  0
LINE
  5
F07E
330
F008
100
AcDbEntity
  8
1
  6
Continuous
100
AcDbLine
 10
33.5
 20
186.3499999999999
 30
0.0
 11
27.561975
 21
185.8971
 31
0.0
  0
ARC
  5
F07F
330
F008
100
AcDbEntity
  8
1
  6
Continuous
100
AcDbCircle
 10
27.6
 20
185.398548
 30
0.0
 40
0.5
100
AcDbArc
 50
94.36157300000001
 51
180.0
  0
LINE
  5
F080
330
F008
100
AcDbEntity
  8
1
  6
Continuous
100
AcDbLine
 10
33.5
 20
159.6499999999998
 30
0.0
 11
33.5
 21
159.15
 31
0.0
  0
LINE
  5
F081
330
F008
100
AcDbEntity
  8
1
  6
Continuous
100
AcDbLine
 10
33.5
 20
159.15
 30
0.0
 11
27.561975
 21
159.6029
 31
0.0
  0
ARC
  5
F082
330
F008
100
AcDbEntity
  8
1
  6
Continuous
100
AcDbCircle
 10
27.6
 20
160.1014519999999
 30
0.0
 40
0.5
100
AcDbArc
 50
180.0
 51
265.6384269999999
  0
LINE
  5
F083
330
F008
100
AcDbEntity
  8
1
  6
Continuous
100
AcDbLine
 10
27.1
 20
165.25
 30
0.0
 11
27.1
 21
160.1014519999999
 31
0.0
  0
LINE
  5
F084
330
F008
100
AcDbEntity
  8
1
  6
Continuous
100
AcDbLine
 10
324.5
 20
186.3499999999999
 30
0.0
 11
335.0
 21
186.3499999999999
 31
0.0
  0
ARC
  5
F085
330
F008
100
AcDbEntity
  8
1
  6
Continuous
100
AcDbCircle
 10
732.8999999999997
 20
185.057229
 30
0.0
 40
0.8072289999999997
100
AcDbArc
 50
141.1871849999998
 51
270.0
  0
LINE
  5
F086
330
F008
100
AcDbEntity
  8
1
  6
Continuous
100
AcDbLine
 10
732.2710089999997
 20
185.563183
 30
0.0
 11
734.1467159999997
 21
187.8950239999998
 31
0.0
  0
LINE
  5
F087
330
F008
100
AcDbEntity
  8
1
  6
Continuous
100
AcDbLine
 10
734.4999999999998
 20
188.8978689999999
 30
0.0
 11
734.4999999999998
 21
190.4
 31
0.0
  0
LINE
  5
F088
330
F008
100
AcDbEntity
  8
1
  6
Continuous
100
AcDbLine
 10
732.2710089999997
 20
159.9368169999999
 30
0.0
 11
734.1467159999997
 21
157.604976
 31
0.0
  0
ARC
  5
F089
330
F008
100
AcDbEntity
  8
1
  6
Continuous
100
AcDbCircle
 10
732.8999999999997
 20
160.4427709999999
 30
0.0
 40
0.8072289999999997
100
AcDbArc
 50
90.0
 51
218.812815
  0
LINE
  5
F08A
330
F008
100
AcDbEntity
  8
1
  6
Continuous
100
AcDbLine
 10
734.4999999999998
 20
161.25
 30
0.0
 11
734.4999999999998
 21
184.25
 31
0.0
  0
LINE
  5
F08B
330
F008
100
AcDbEntity
  8
1
  6
Continuous
100
AcDbLine
 10
102.4999999999999
 20
291.9
 30
0.0
 11
102.4999999999999
 21
285.3999999999999
 31
0.0
  0
LINE
  5
F08C
330
F008
100
AcDbEntity
  8
1
  6
Continuous
100
AcDbLine
 10
299.5
 20
294.8999999999998
 30
0.0
 11
604.4999999999999
 21
294.8999999999998
 31
0.0
  0
LINE
  5
F08D
330
F008
100
AcDbEntity
  8
1
  6
Continuous
100
AcDbLine
 10
299.5
 20
286.2
 30
0.0
 11
604.4999999999999
 21
286.2
 31
0.0
  0
LINE
  5
F08E
330
F008
100
AcDbEntity
  8
1
  6
Continuous
100
AcDbLine
 10
102.4999999999999
 20
285.3999999999999
 30
0.0
 11
404.4999999999998
 21
285.3999999999999
 31
0.0
  0
LINE
  5
F08F
330
F008
100
AcDbEntity
  8
3
  6
DASHED
100
AcDbLine
 10
299.5
 20
291.9
 30
0.0
 11
404.4999999999998
 21
291.9
 31
0.0
  0
LINE
  5
F090
330
F008
100
AcDbEntity
  8
3
  6
DASHED
100
AcDbLine
 10
404.4999999999998
 20
286.2
 30
0.0
 11
404.4999999999998
 21
291.9
 31
0.0
  0
LINE
  5
F091
330
F008
100
AcDbEntity
  8
3
  6
DASHED
100
AcDbLine
 10
602.8999999999999
 20
301.5
 30
0.0
 11
602.8999999999999
 21
295.8
 31
0.0
  0
LINE
  5
F092
330
F008
100
AcDbEntity
  8
1
  6
Continuous
100
AcDbLine
 10
102.4999999999999
 20
291.9
 30
0.0
 11
299.5
 21
291.9
 31
0.0
  0
LINE
  5
F093
330
F008
100
AcDbEntity
  8
1
  6
Continuous
100
AcDbLine
 10
430.4999999999998
 20
295.0
 30
0.0
 11
602.8999999999999
 21
295.0
 31
0.0
  0
LINE
  5
F094
330
F008
100
AcDbEntity
  8
1
  6
Continuous
100
AcDbLine
 10
429.4999999999998
 20
295.8
 30
0.0
 11
429.4999999999998
 21
304.4999999999999
 31
0.0
  0
LINE
  5
F095
330
F008
100
AcDbEntity
  8
1
  6
Continuous
100
AcDbLine
 10
429.4999999999998
 20
304.4999999999999
 30
0.0
 11
734.4999999999998
 21
304.4999999999999
 31
0.0
  0
LINE
  5
F096
330
F008
100
AcDbEntity
  8
1
  6
Continuous
100
AcDbLine
 10
734.4999999999998
 20
295.8
 30
0.0
 11
734.4999999999998
 21
304.4999999999999
 31
0.0
  0
LINE
  5
F097
330
F008
100
AcDbEntity
  8
1
  6
Continuous
100
AcDbLine
 10
429.4999999999998
 20
295.8
 30
0.0
 11
734.4999999999998
 21
295.8
 31
0.0
  0
LINE
  5
F098
330
F008
100
AcDbEntity
  8
3
  6
DASHED
100
AcDbLine
 10
430.4999999999998
 20
301.5
 30
0.0
 11
602.8999999999999
 21
301.5
 31
0.0
  0
LINE
  5
F099
330
F008
100
AcDbEntity
  8
4
  6
CENTER
100
AcDbLine
 10
718.4
 20
308.995589
 30
0.0
 11
718.4
 21
298.495589
 31
0.0
  0
LINE
  5
F09A
330
F008
100
AcDbEntity
  8
4
  6
CENTER
100
AcDbLine
 10
705.7000000000003
 20
308.995589
 30
0.0
 11
705.7000000000003
 21
298.495589
 31
0.0
  0
LINE
  5
F09B
330
F008
100
AcDbEntity
  8
4
  6
CENTER
100
AcDbLine
 10
556.5
 20
308.995589
 30
0.0
 11
556.5
 21
298.495589
 31
0.0
  0
LINE
  5
F09C
330
F008
100
AcDbEntity
  8
4
  6
CENTER
100
AcDbLine
 10
458.1
 20
308.995589
 30
0.0
 11
458.1
 21
298.495589
 31
0.0
  0
LINE
  5
F09D
330
F008
100
AcDbEntity
  8
4
  6
CENTER
100
AcDbLine
 10
470.8
 20
308.995589
 30
0.0
 11
470.8
 21
298.495589
 31
0.0
  0
LINE
  5
F09E
330
F008
100
AcDbEntity
  8
4
  6
CENTER
100
AcDbLine
 10
445.3999999999998
 20
308.995589
 30
0.0
 11
445.3999999999998
 21
298.495589
 31
0.0
  0
LINE
  5
F09F
330
F008
100
AcDbEntity
  8
1
  6
Continuous
100
AcDbLine
 10
813.6000000000001
 20
160.171084
 30
0.0
 11
813.6000000000001
 21
185.3289159999999
 31
0.0
  0
ARC
  5
F0A0
330
F008
100
AcDbEntity
  8
1
  6
Continuous
100
AcDbCircle
 10
806.6
 20
182.75
 30
0.0
 40
1.5
100
AcDbArc
 50
90.0
 51
180.0
  0
ARC
  5
F0A1
330
F008
100
AcDbEntity
  8
1
  6
Continuous
100
AcDbCircle
 10
805.9229389999996
 20
183.177061
 30
0.0
 40
1.822938999999999
100
AcDbArc
 50
50.449321
 51
180.0
  0
ARC
  5
F0A2
330
F008
100
AcDbEntity
  8
1
  6
Continuous
100
AcDbCircle
 10
805.9229389999996
 20
162.3229389999998
 30
0.0
 40
1.822938999999999
100
AcDbArc
 50
180.0
 51
309.5506789999999
  0
LINE
  5
F0A3
330
F008
100
AcDbEntity
  8
4
  6
CENTER
100
AcDbLine
 10
789.5
 20
172.75
 30
0.0
 11
818.5999999999996
 21
172.75
 31
0.0
  0
LINE
  5
F0A4
330
F008
100
AcDbEntity
  8
1
  6
Continuous
100
AcDbLine
 10
804.1
 20
162.3229389999998
 30
0.0
 11
804.1
 21
183.177061
 31
0.0
  0
ARC
  5
F0A5
330
F008
100
AcDbEntity
  8
1
  6
Continuous
100
AcDbCircle
 10
810.3999999999999
 20
160.171084
 30
0.0
 40
1.6
100
AcDbArc
 50
322.9878089999999
 51
0.0
  0
ARC
  5
F0A6
330
F008
100
AcDbEntity
  8
1
  6
Continuous
100
AcDbCircle
 10
810.3999999999999
 20
160.171084
 30
0.0
 40
3.2
100
AcDbArc
 50
322.9878089999999
 51
0.0
  0
LINE
  5
F0A7
330
F008
100
AcDbEntity
  8
1
  6
Continuous
100
AcDbLine
 10
805.1
 20
159.6499999999998
 30
0.0
 11
805.1
 21
159.15
 31
0.0
  0
ARC
  5
F0A8
330
F008
100
AcDbEntity
  8
1
  6
Continuous
100
AcDbCircle
 10
808.6
 20
159.08125
 30
0.0
 40
2.38125
100
AcDbArc
 50
176.2808719999999
 51
12.44227399999999
  0
LINE
  5
F0A9
330
F008
100
AcDbEntity
  8
1
  6
Continuous
100
AcDbLine
 10
805.1
 20
159.15
 30
0.0
 11
811.0380249999996
 21
159.6029
 31
0.0
  0
LINE
  5
F0AA
330
F008
100
AcDbEntity
  8
1
  6
Continuous
100
AcDbLine
 10
812.955224
 20
158.2447319999999
 30
0.0
 11
811.7790579999999
 21
156.6845969999999
 31
0.0
  0
LINE
  5
F0AB
330
F008
100
AcDbEntity
  8
1
  6
Continuous
100
AcDbLine
 10
804.8999999999999
 20
157.611437
 30
0.0
 11
806.3869699999996
 21
158.202131
 31
0.0
  0
ARC
  5
F0AC
330
F008
100
AcDbEntity
  8
1
  6
Continuous
100
AcDbCircle
 10
808.6
 20
159.08125
 30
0.0
 40
3.98125
100
AcDbArc
 50
201.6652959999999
 51
322.9878089999999
  0
LINE
  5
F0AD
330
F008
100
AcDbEntity
  8
1
  6
Continuous
100
AcDbLine
 10
811.6776119999999
 20
159.2079079999998
 30
0.0
 11
810.5014459999999
 21
157.647773
 31
0.0
  0
LINE
  5
F0AE
330
F008
100
AcDbEntity
  8
1
  6
Continuous
100
AcDbLine
 10
805.1
 20
162.7499999999998
 30
0.0
 11
805.1
 21
182.75
 31
0.0
  0
LINE
  5
F0AF
330
F008
100
AcDbEntity
  8
1
  6
Continuous
100
AcDbLine
 10
811.5
 20
161.25
 30
0.0
 11
811.5
 21
160.1014519999999
 31
0.0
  0
LINE
  5
F0B0
330
F008
100
AcDbEntity
  8
1
  6
Continuous
100
AcDbLine
 10
812.0
 20
160.171084
 30
0.0
 11
812.0
 21
161.25
 31
0.0
  0
LINE
  5
F0B1
330
F008
100
AcDbEntity
  8
1
  6
Continuous
100
AcDbLine
 10
811.0
 20
161.25
 30
0.0
 11
811.0
 21
160.0999999999999
 31
0.0
  0
ARC
  5
F0B2
330
F008
100
AcDbEntity
  8
1
  6
Continuous
100
AcDbCircle
 10
811.0
 20
160.1014519999999
 30
0.0
 40
0.5
100
AcDbArc
 50
274.361573
 51
0.0
  0
LINE
  5
F0B3
330
F008
100
AcDbEntity
  8
1
  6
Continuous
100
AcDbLine
 10
810.060069
 20
161.25
 30
0.0
 11
809.9298430000001
 21
161.0565649999998
 31
0.0
  0
ARC
  5
F0B4
330
F008
100
AcDbEntity
  8
1
  6
Continuous
100
AcDbCircle
 10
808.6
 20
159.08125
 30
0.0
 40
2.38125
100
AcDbArc
 50
114.3892499999999
 51
163.87833
  0
ARC
  5
F0B5
330
F008
100
AcDbEntity
  8
1
  6
Continuous
100
AcDbCircle
 10
808.6
 20
159.08125
 30
0.0
 40
2.38125
100
AcDbArc
 50
24.844815
 51
65.61074999999999
  0
LINE
  5
F0B6
330
F008
100
AcDbEntity
  8
1
  6
Continuous
100
AcDbLine
 10
805.1
 20
159.6499999999998
 30
0.0
 11
811.0
 21
160.0999999999999
 31
0.0
  0
LINE
  5
F0B7
330
F008
100
AcDbEntity
  8
1
  6
Continuous
100
AcDbLine
 10
806.6
 20
161.25
 30
0.0
 11
813.6000000000001
 21
161.25
 31
0.0
  0
ARC
  5
F0B8
330
F008
100
AcDbEntity
  8
1
  6
Continuous
100
AcDbCircle
 10
806.6
 20
162.7499999999998
 30
0.0
 40
1.5
100
AcDbArc
 50
180.0
 51
270.0
  0
LINE
  5
F0B9
330
F008
100
AcDbEntity
  8
1
  6
Continuous
100
AcDbLine
 10
812.955224
 20
187.255268
 30
0.0
 11
811.7790579999999
 21
188.815403
 31
0.0
  0
LINE
  5
F0BA
330
F008
100
AcDbEntity
  8
1
  6
Continuous
100
AcDbLine
 10
805.1
 20
185.85
 30
0.0
 11
805.1
 21
186.3499999999999
 31
0.0
  0
LINE
  5
F0BB
330
F008
100
AcDbEntity
  8
1
  6
Continuous
100
AcDbLine
 10
804.8999999999999
 20
187.8885629999999
 30
0.0
 11
806.3869699999996
 21
187.297869
 31
0.0
  0
LINE
  5
F0BC
330
F008
100
AcDbEntity
  8
1
  6
Continuous
100
AcDbLine
 10
805.1
 20
186.3499999999999
 30
0.0
 11
811.0380249999996
 21
185.8971
 31
0.0
  0
LINE
  5
F0BD
330
F008
100
AcDbEntity
  8
1
  6
Continuous
100
AcDbLine
 10
811.6776119999999
 20
186.292092
 30
0.0
 11
810.5014459999999
 21
187.8522269999999
 31
0.0
  0
ARC
  5
F0BE
330
F008
100
AcDbEntity
  8
1
  6
Continuous
100
AcDbCircle
 10
808.6
 20
186.4187499999999
 30
0.0
 40
3.98125
100
AcDbArc
 50
37.01219099999998
 51
158.3347039999999
  0
LINE
  5
F0BF
330
F008
100
AcDbEntity
  8
1
  6
Continuous
100
AcDbLine
 10
811.5
 20
184.25
 30
0.0
 11
811.5
 21
185.398548
 31
0.0
  0
LINE
  5
F0C0
330
F008
100
AcDbEntity
  8
1
  6
Continuous
100
AcDbLine
 10
812.0
 20
184.25
 30
0.0
 11
812.0
 21
185.3289159999999
 31
0.0
  0
LINE
  5
F0C1
330
F008
100
AcDbEntity
  8
1
  6
Continuous
100
AcDbLine
 10
811.0
 20
184.25
 30
0.0
 11
811.0
 21
185.4
 31
0.0
  0
LINE
  5
F0C2
330
F008
100
AcDbEntity
  8
1
  6
Continuous
100
AcDbLine
 10
810.060069
 20
184.25
 30
0.0
 11
809.9298430000001
 21
184.443435
 31
0.0
  0
LINE
  5
F0C3
330
F008
100
AcDbEntity
  8
1
  6
Continuous
100
AcDbLine
 10
806.6
 20
184.25
 30
0.0
 11
813.6000000000001
 21
184.25
 31
0.0
  0
ARC
  5
F0C4
330
F008
100
AcDbEntity
  8
1
  6
Continuous
100
AcDbCircle
 10
811.0
 20
185.398548
 30
0.0
 40
0.5
100
AcDbArc
 50
0.0
 51
85.63842699999998
  0
ARC
  5
F0C5
330
F008
100
AcDbEntity
  8
1
  6
Continuous
100
AcDbCircle
 10
810.3999999999999
 20
185.3289159999999
 30
0.0
 40
1.6
100
AcDbArc
 50
0.0
 51
37.01219099999998
  0
ARC
  5
F0C6
330
F008
100
AcDbEntity
  8
1
  6
Continuous
100
AcDbCircle
 10
810.3999999999999
 20
185.3289159999999
 30
0.0
 40
3.2
100
AcDbArc
 50
0.0
 51
37.01219099999998
  0
ARC
  5
F0C7
330
F008
100
AcDbEntity
  8
1
  6
Continuous
100
AcDbCircle
 10
808.6
 20
186.4187499999999
 30
0.0
 40
2.38125
100
AcDbArc
 50
294.38925
 51
335.155185
  0
ARC
  5
F0C8
330
F008
100
AcDbEntity
  8
1
  6
Continuous
100
AcDbCircle
 10
808.6
 20
186.4187499999999
 30
0.0
 40
2.38125
100
AcDbArc
 50
196.12167
 51
245.6107499999998
  0
ARC
  5
F0C9
330
F008
100
AcDbEntity
  8
1
  6
Continuous
100
AcDbCircle
 10
808.6
 20
186.4187499999999
 30
0.0
 40
2.38125
100
AcDbArc
 50
347.557726
 51
183.719128
  0
LINE
  5
F0CA
330
F008
100
AcDbEntity
  8
1
  6
Continuous
100
AcDbLine
 10
805.1
 20
185.85
 30
0.0
 11
811.0
 21
185.4
 31
0.0
  0
LINE
  5
F0CB
330
F008
100
AcDbEntity
  8
1
  6
Continuous
100
AcDbLine
 10
37.20000000000001
 20
178.5
 30
0.0
 11
37.20000000000001
 21
185.4
 31
0.0
  0
LINE
  5
F0CC
330
F008
100
AcDbEntity
  8
1
  6
Continuous
100
AcDbLine
 10
36.7
 20
178.5
 30
0.0
 11
36.7
 21
185.398548
 31
0.0
  0
LINE
  5
F0CD
330
F008
100
AcDbEntity
  8
1
  6
Continuous
100
AcDbLine
 10
37.6
 20
183.448001
 30
0.0
 11
38.270157
 21
184.443435
 31
0.0
  0
ARC
  5
F0CE
330
F008
100
AcDbEntity
  8
1
  6
Continuous
100
AcDbCircle
 10
42.27706099999998
 20
183.177061
 30
0.0
 40
0.6229390000000003
100
AcDbArc
 50
0.0
 51
129.550679
  0
ARC
  5
F0CF
330
F008
100
AcDbEntity
  8
1
  6
Continuous
100
AcDbCircle
 10
42.27706099999998
 20
183.177061
 30
0.0
 40
1.822938999999999
100
AcDbArc
 50
0.0
 51
129.550679
  0
ARC
  5
F0D0
330
F008
100
AcDbEntity
  8
1
  6
Continuous
100
AcDbCircle
 10
39.6
 20
186.4187499999999
 30
0.0
 40
3.581249999999998
100
AcDbArc
 50
236.0503449999999
 51
309.5506789999999
  0
LINE
  5
F0D1
330
F008
100
AcDbEntity
  8
1
  6
Continuous
100
AcDbLine
 10
34.6
 20
160.171084
 30
0.0
 11
34.6
 21
185.3289159999999
 31
0.0
  0
LINE
  5
F0D2
330
F008
100
AcDbEntity
  8
1
  6
Continuous
100
AcDbLine
 10
43.1
 20
159.15
 30
0.0
 11
37.16197499999999
 21
159.6029
 31
0.0
  0
LINE
  5
F0D3
330
F008
100
AcDbEntity
  8
1
  6
Continuous
100
AcDbLine
 10
43.1
 20
159.6499999999998
 30
0.0
 11
43.1
 21
159.15
 31
0.0
  0
ARC
  5
F0D4
330
F008
100
AcDbEntity
  8
1
  6
Continuous
100
AcDbCircle
 10
39.6
 20
159.08125
 30
0.0
 40
2.38125
100
AcDbArc
 50
167.557726
 51
3.719127999999999
  0
ARC
  5
F0D5
330
F008
100
AcDbEntity
  8
1
  6
Continuous
100
AcDbCircle
 10
37.79999999999999
 20
160.171084
 30
0.0
 40
1.6
100
AcDbArc
 50
180.0
 51
217.012191
  0
ARC
  5
F0D6
330
F008
100
AcDbEntity
  8
1
  6
Continuous
100
AcDbCircle
 10
37.79999999999999
 20
160.171084
 30
0.0
 40
3.2
100
AcDbArc
 50
180.0
 51
217.012191
  0
LINE
  5
F0D7
330
F008
100
AcDbEntity
  8
1
  6
Continuous
100
AcDbLine
 10
43.3
 20
157.611437
 30
0.0
 11
41.81302999999997
 21
158.202131
 31
0.0
  0
LINE
  5
F0D8
330
F008
100
AcDbEntity
  8
1
  6
Continuous
100
AcDbLine
 10
36.522388
 20
159.2079079999998
 30
0.0
 11
37.698554
 21
157.647773
 31
0.0
  0
LINE
  5
F0D9
330
F008
100
AcDbEntity
  8
1
  6
Continuous
100
AcDbLine
 10
35.244776
 20
158.2447319999999
 30
0.0
 11
36.42094199999998
 21
156.6845969999999
 31
0.0
  0
ARC
  5
F0DA
330
F008
100
AcDbEntity
  8
1
  6
Continuous
100
AcDbCircle
 10
39.6
 20
159.08125
 30
0.0
 40
3.98125
100
AcDbArc
 50
217.012191
 51
338.3347039999998
  0
LINE
  5
F0DB
330
F008
100
AcDbEntity
  8
1
  6
Continuous
100
AcDbLine
 10
36.7
 20
167.0
 30
0.0
 11
36.7
 21
160.1014519999999
 31
0.0
  0
ARC
  5
F0DC
330
F008
100
AcDbEntity
  8
1
  6
Continuous
100
AcDbCircle
 10
37.20000000000001
 20
160.1014519999999
 30
0.0
 40
0.5
100
AcDbArc
 50
180.0
 51
265.6384269999999
  0
LINE
  5
F0DD
330
F008
100
AcDbEntity
  8
1
  6
Continuous
100
AcDbLine
 10
37.20000000000001
 20
167.0
 30
0.0
 11
37.20000000000001
 21
160.0999999999999
 31
0.0
  0
ARC
  5
F0DE
330
F008
100
AcDbEntity
  8
1
  6
Continuous
100
AcDbCircle
 10
39.6
 20
159.08125
 30
0.0
 40
2.38125
100
AcDbArc
 50
16.12167
 51
155.1551849999999
  0
LINE
  5
F0DF
330
F008
100
AcDbEntity
  8
1
  6
Continuous
100
AcDbLine
 10
43.1
 20
159.6499999999998
 30
0.0
 11
37.20000000000001
 21
160.0999999999999
 31
0.0
  0
ARC
  5
F0E0
330
F008
100
AcDbEntity
  8
1
  6
Continuous
100
AcDbCircle
 10
39.2
 20
178.0
 30
0.0
 40
0.5
100
AcDbArc
 50
0.0
 51
90.0
  0
LINE
  5
F0E1
330
F008
100
AcDbEntity
  8
1
  6
Continuous
100
AcDbLine
 10
39.7
 20
165.0
 30
0.0
 11
39.7
 21
180.4999999999998
 31
0.0
  0
ARC
  5
F0E2
330
F008
100
AcDbEntity
  8
1
  6
Continuous
100
AcDbCircle
 10
42.27706099999998
 20
162.3229389999998
 30
0.0
 40
1.822938999999999
100
AcDbArc
 50
230.4493209999999
 51
0.0
  0
ARC
  5
F0E3
330
F008
100
AcDbEntity
  8
1
  6
Continuous
100
AcDbCircle
 10
42.27706099999998
 20
162.3229389999998
 30
0.0
 40
0.6229390000000003
100
AcDbArc
 50
230.4493209999999
 51
0.0
  0
LINE
  5
F0E4
330
F008
100
AcDbEntity
  8
1
  6
Continuous
100
AcDbLine
 10
37.6
 20
162.051999
 30
0.0
 11
38.270157
 21
161.0565649999998
 31
0.0
  0
ARC
  5
F0E5
330
F008
100
AcDbEntity
  8
1
  6
Continuous
100
AcDbCircle
 10
39.6
 20
159.08125
 30
0.0
 40
3.581249999999998
100
AcDbArc
 50
50.449321
 51
123.949655
  0
LINE
  5
F0E6
330
F008
100
AcDbEntity
  8
1
  6
Continuous
100
AcDbLine
 10
42.9
 20
162.3229389999998
 30
0.0
 11
42.9
 21
183.177061
 31
0.0
  0
LINE
  5
F0E7
330
F008
100
AcDbEntity
  8
1
  6
Continuous
100
AcDbLine
 10
44.1
 20
162.3229389999998
 30
0.0
 11
44.1
 21
183.177061
 31
0.0
  0
LINE
  5
F0E8
330
F008
100
AcDbEntity
  8
1
  6
Continuous
100
AcDbLine
 10
36.2
 20
160.171084
 30
0.0
 11
36.2
 21
185.3289159999999
 31
0.0
  0
ARC
  5
F0E9
330
F008
100
AcDbEntity
  8
1
  6
Continuous
100
AcDbCircle
 10
37.20000000000001
 20
185.398548
 30
0.0
 40
0.5
100
AcDbArc
 50
94.36157300000001
 51
180.0
  0
LINE
  5
F0EA
330
F008
100
AcDbEntity
  8
1
  6
Continuous
100
AcDbLine
 10
43.1
 20
186.3499999999999
 30
0.0
 11
37.16197499999999
 21
185.8971
 31
0.0
  0
ARC
  5
F0EB
330
F008
100
AcDbEntity
  8
1
  6
Continuous
100
AcDbCircle
 10
39.6
 20
186.4187499999999
 30
0.0
 40
2.38125
100
AcDbArc
 50
356.280872
 51
192.4422739999998
  0
LINE
  5
F0EC
330
F008
100
AcDbEntity
  8
1
  6
Continuous
100
AcDbLine
 10
43.1
 20
185.85
 30
0.0
 11
37.20000000000001
 21
185.4
 31
0.0
  0
LINE
  5
F0ED
330
F008
100
AcDbEntity
  8
1
  6
Continuous
100
AcDbLine
 10
43.1
 20
185.85
 30
0.0
 11
43.1
 21
186.3499999999999
 31
0.0
  0
ARC
  5
F0EE
330
F008
100
AcDbEntity
  8
1
  6
Continuous
100
AcDbCircle
 10
37.79999999999999
 20
185.3289159999999
 30
0.0
 40
3.2
100
AcDbArc
 50
142.987809
 51
180.0
  0
ARC
  5
F0EF
330
F008
100
AcDbEntity
  8
1
  6
Continuous
100
AcDbCircle
 10
37.79999999999999
 20
185.3289159999999
 30
0.0
 40
1.6
100
AcDbArc
 50
142.987809
 51
180.0
  0
LINE
  5
F0F0
330
F008
100
AcDbEntity
  8
1
  6
Continuous
100
AcDbLine
 10
36.522388
 20
186.292092
 30
0.0
 11
37.698554
 21
187.8522269999999
 31
0.0
  0
LINE
  5
F0F1
330
F008
100
AcDbEntity
  8
1
  6
Continuous
100
AcDbLine
 10
35.244776
 20
187.255268
 30
0.0
 11
36.42094199999998
 21
188.815403
 31
0.0
  0
LINE
  5
F0F2
330
F008
100
AcDbEntity
  8
1
  6
Continuous
100
AcDbLine
 10
43.3
 20
187.8885629999999
 30
0.0
 11
41.81302999999997
 21
187.297869
 31
0.0
  0
ARC
  5
F0F3
330
F008
100
AcDbEntity
  8
1
  6
Continuous
100
AcDbCircle
 10
39.6
 20
186.4187499999999
 30
0.0
 40
3.98125
100
AcDbArc
 50
21.665296
 51
142.987809
  0
ARC
  5
F0F4
330
F008
100
AcDbEntity
  8
1
  6
Continuous
100
AcDbCircle
 10
39.6
 20
186.4187499999999
 30
0.0
 40
2.38125
100
AcDbArc
 50
204.844815
 51
343.87833
  0
LINE
  5
F0F5
330
F008
100
AcDbEntity
  8
1
  6
Continuous
100
AcDbLine
 10
36.2
 20
175.65
 30
0.0
 11
38.7
 21
175.65
 31
0.0
  0
LINE
  5
F0F6
330
F008
100
AcDbEntity
  8
1
  6
Continuous
100
AcDbLine
 10
36.2
 20
169.8499999999999
 30
0.0
 11
38.7
 21
169.8499999999999
 31
0.0
  0
LINE
  5
F0F7
330
F008
100
AcDbEntity
  8
1
  6
Continuous
100
AcDbLine
 10
38.7
 20
169.8499999999999
 30
0.0
 11
38.7
 21
175.65
 31
0.0
  0
LINE
  5
F0F8
330
F008
100
AcDbEntity
  8
1
  6
Continuous
100
AcDbLine
 10
37.20000000000001
 20
178.5
 30
0.0
 11
39.2
 21
178.5
 31
0.0
  0
LINE
  5
F0F9
330
F008
100
AcDbEntity
  8
1
  6
Continuous
100
AcDbLine
 10
39.2
 20
167.5
 30
0.0
 11
39.2
 21
178.0
 31
0.0
  0
LINE
  5
F0FA
330
F008
100
AcDbEntity
  8
1
  6
Continuous
100
AcDbLine
 10
37.20000000000001
 20
178.0
 30
0.0
 11
39.2
 21
178.0
 31
0.0
  0
ARC
  5
F0FB
330
F008
100
AcDbEntity
  8
1
  6
Continuous
100
AcDbCircle
 10
37.20000000000001
 20
178.5
 30
0.0
 40
0.5
100
AcDbArc
 50
180.0
 51
270.0
  0
ARC
  5
F0FC
330
F008
100
AcDbEntity
  8
1
  6
Continuous
100
AcDbCircle
 10
37.20000000000001
 20
167.0
 30
0.0
 40
0.5
100
AcDbArc
 50
90.0
 51
180.0
  0
LINE
  5
F0FD
330
F008
100
AcDbEntity
  8
1
  6
Continuous
100
AcDbLine
 10
37.20000000000001
 20
167.5
 30
0.0
 11
39.2
 21
167.5
 31
0.0
  0
LINE
  5
F0FE
330
F008
100
AcDbEntity
  8
1
  6
Continuous
100
AcDbLine
 10
37.20000000000001
 20
167.0
 30
0.0
 11
39.2
 21
167.0
 31
0.0
  0
ARC
  5
F0FF
330
F008
100
AcDbEntity
  8
1
  6
Continuous
100
AcDbCircle
 10
39.2
 20
167.5
 30
0.0
 40
0.5
100
AcDbArc
 50
270.0
 51
0.0
  0
LINE
  5
F100
330
F008
100
AcDbEntity
  8
1
  6
Continuous
100
AcDbLine
 10
39.7
 20
180.4999999999998
 30
0.0
 11
42.9
 21
180.4999999999998
 31
0.0
  0
LINE
  5
F101
330
F008
100
AcDbEntity
  8
1
  6
Continuous
100
AcDbLine
 10
39.7
 20
165.0
 30
0.0
 11
42.9
 21
165.0
 31
0.0
  0
LINE
  5
F102
330
F008
100
AcDbEntity
  8
1
  6
Continuous
100
AcDbLine
 10
797.0
 20
184.25
 30
0.0
 11
804.0
 21
184.25
 31
0.0
  0
LINE
  5
F103
330
F008
100
AcDbEntity
  8
1
  6
Continuous
100
AcDbLine
 10
803.355224
 20
187.255268
 30
0.0
 11
802.1790580000001
 21
188.815403
 31
0.0
  0
LINE
  5
F104
330
F008
100
AcDbEntity
  8
1
  6
Continuous
100
AcDbLine
 10
797.0
 20
161.25
 30
0.0
 11
804.0
 21
161.25
 31
0.0
  0
LINE
  5
F105
330
F008
100
AcDbEntity
  8
1
  6
Continuous
100
AcDbLine
 10
803.355224
 20
158.2447319999999
 30
0.0
 11
802.1790580000001
 21
156.6845969999999
 31
0.0
  0
ARC
  5
F106
330
F008
100
AcDbEntity
  8
1
  6
Continuous
100
AcDbCircle
 10
796.322939
 20
183.177061
 30
0.0
 40
1.822938999999999
100
AcDbArc
 50
50.449321
 51
180.0
  0
ARC
  5
F107
330
F008
100
AcDbEntity
  8
1
  6
Continuous
100
AcDbCircle
 10
797.0
 20
182.75
 30
0.0
 40
1.5
100
AcDbArc
 50
90.0
 51
180.0
  0
LINE
  5
F108
330
F008
100
AcDbEntity
  8
1
  6
Continuous
100
AcDbLine
 10
795.5
 20
159.15
 30
0.0
 11
801.438025
 21
159.6029
 31
0.0
  0
ARC
  5
F109
330
F008
100
AcDbEntity
  8
1
  6
Continuous
100
AcDbCircle
 10
799.0
 20
159.08125
 30
0.0
 40
2.38125
100
AcDbArc
 50
176.2808719999999
 51
12.44227399999999
  0
LINE
  5
F10A
330
F008
100
AcDbEntity
  8
1
  6
Continuous
100
AcDbLine
 10
795.5
 20
159.6499999999998
 30
0.0
 11
795.5
 21
159.15
 31
0.0
  0
ARC
  5
F10B
330
F008
100
AcDbEntity
  8
1
  6
Continuous
100
AcDbCircle
 10
800.7999999999999
 20
160.171084
 30
0.0
 40
1.6
100
AcDbArc
 50
322.9878089999999
 51
0.0
  0
LINE
  5
F10C
330
F008
100
AcDbEntity
  8
1
  6
Continuous
100
AcDbLine
 10
802.077612
 20
159.2079079999998
 30
0.0
 11
800.9014459999999
 21
157.647773
 31
0.0
  0
ARC
  5
F10D
330
F008
100
AcDbEntity
  8
1
  6
Continuous
100
AcDbCircle
 10
799.0
 20
159.08125
 30
0.0
 40
3.98125
100
AcDbArc
 50
201.6652959999999
 51
322.9878089999999
  0
LINE
  5
F10E
330
F008
100
AcDbEntity
  8
1
  6
Continuous
100
AcDbLine
 10
795.2999999999997
 20
157.611437
 30
0.0
 11
796.78697
 21
158.202131
 31
0.0
  0
ARC
  5
F10F
330
F008
100
AcDbEntity
  8
1
  6
Continuous
100
AcDbCircle
 10
797.0
 20
162.7499999999998
 30
0.0
 40
1.5
100
AcDbArc
 50
180.0
 51
270.0
  0
LINE
  5
F110
330
F008
100
AcDbEntity
  8
1
  6
Continuous
100
AcDbLine
 10
795.5
 20
159.6499999999998
 30
0.0
 11
801.3999999999999
 21
160.0999999999999
 31
0.0
  0
ARC
  5
F111
330
F008
100
AcDbEntity
  8
1
  6
Continuous
100
AcDbCircle
 10
799.0
 20
159.08125
 30
0.0
 40
2.38125
100
AcDbArc
 50
24.844815
 51
65.61074999999999
  0
ARC
  5
F112
330
F008
100
AcDbEntity
  8
1
  6
Continuous
100
AcDbCircle
 10
799.0
 20
159.08125
 30
0.0
 40
2.38125
100
AcDbArc
 50
114.3892499999999
 51
163.87833
  0
LINE
  5
F113
330
F008
100
AcDbEntity
  8
1
  6
Continuous
100
AcDbLine
 10
800.460069
 20
161.25
 30
0.0
 11
800.3298429999999
 21
161.0565649999998
 31
0.0
  0
ARC
  5
F114
330
F008
100
AcDbEntity
  8
1
  6
Continuous
100
AcDbCircle
 10
801.3999999999999
 20
160.1014519999999
 30
0.0
 40
0.5
100
AcDbArc
 50
274.361573
 51
0.0
  0
LINE
  5
F115
330
F008
100
AcDbEntity
  8
1
  6
Continuous
100
AcDbLine
 10
801.3999999999999
 20
161.25
 30
0.0
 11
801.3999999999999
 21
160.0999999999999
 31
0.0
  0
LINE
  5
F116
330
F008
100
AcDbEntity
  8
1
  6
Continuous
100
AcDbLine
 10
802.3999999999999
 20
160.171084
 30
0.0
 11
802.3999999999999
 21
161.25
 31
0.0
  0
LINE
  5
F117
330
F008
100
AcDbEntity
  8
1
  6
Continuous
100
AcDbLine
 10
801.9
 20
161.25
 30
0.0
 11
801.9
 21
160.1014519999999
 31
0.0
  0
LINE
  5
F118
330
F008
100
AcDbEntity
  8
1
  6
Continuous
100
AcDbLine
 10
795.5
 20
162.7499999999998
 30
0.0
 11
795.5
 21
182.75
 31
0.0
  0
LINE
  5
F119
330
F008
100
AcDbEntity
  8
1
  6
Continuous
100
AcDbLine
 10
794.5
 20
162.3229389999998
 30
0.0
 11
794.5
 21
183.177061
 31
0.0
  0
ARC
  5
F11A
330
F008
100
AcDbEntity
  8
1
  6
Continuous
100
AcDbCircle
 10
796.322939
 20
162.3229389999998
 30
0.0
 40
1.822938999999999
100
AcDbArc
 50
180.0
 51
309.5506789999999
  0
LINE
  5
F11B
330
F008
100
AcDbEntity
  8
1
  6
Continuous
100
AcDbLine
 10
795.5
 20
185.85
 30
0.0
 11
801.3999999999999
 21
185.4
 31
0.0
  0
ARC
  5
F11C
330
F008
100
AcDbEntity
  8
1
  6
Continuous
100
AcDbCircle
 10
799.0
 20
186.4187499999999
 30
0.0
 40
2.38125
100
AcDbArc
 50
347.557726
 51
183.719128
  0
ARC
  5
F11D
330
F008
100
AcDbEntity
  8
1
  6
Continuous
100
AcDbCircle
 10
799.0
 20
186.4187499999999
 30
0.0
 40
2.38125
100
AcDbArc
 50
196.12167
 51
245.6107499999998
  0
ARC
  5
F11E
330
F008
100
AcDbEntity
  8
1
  6
Continuous
100
AcDbCircle
 10
799.0
 20
186.4187499999999
 30
0.0
 40
2.38125
100
AcDbArc
 50
294.38925
 51
335.155185
  0
ARC
  5
F11F
330
F008
100
AcDbEntity
  8
1
  6
Continuous
100
AcDbCircle
 10
800.7999999999999
 20
185.3289159999999
 30
0.0
 40
1.6
100
AcDbArc
 50
0.0
 51
37.01219099999998
  0
ARC
  5
F120
330
F008
100
AcDbEntity
  8
1
  6
Continuous
100
AcDbCircle
 10
801.3999999999999
 20
185.398548
 30
0.0
 40
0.5
100
AcDbArc
 50
0.0
 51
85.63842699999998
  0
LINE
  5
F121
330
F008
100
AcDbEntity
  8
1
  6
Continuous
100
AcDbLine
 10
800.460069
 20
184.25
 30
0.0
 11
800.3298429999999
 21
184.443435
 31
0.0
  0
LINE
  5
F122
330
F008
100
AcDbEntity
  8
1
  6
Continuous
100
AcDbLine
 10
801.3999999999999
 20
184.25
 30
0.0
 11
801.3999999999999
 21
185.4
 31
0.0
  0
LINE
  5
F123
330
F008
100
AcDbEntity
  8
1
  6
Continuous
100
AcDbLine
 10
802.3999999999999
 20
184.25
 30
0.0
 11
802.3999999999999
 21
185.3289159999999
 31
0.0
  0
LINE
  5
F124
330
F008
100
AcDbEntity
  8
1
  6
Continuous
100
AcDbLine
 10
801.9
 20
184.25
 30
0.0
 11
801.9
 21
185.398548
 31
0.0
  0
ARC
  5
F125
330
F008
100
AcDbEntity
  8
1
  6
Continuous
100
AcDbCircle
 10
799.0
 20
186.4187499999999
 30
0.0
 40
3.98125
100
AcDbArc
 50
37.01219099999998
 51
158.3347039999999
  0
LINE
  5
F126
330
F008
100
AcDbEntity
  8
1
  6
Continuous
100
AcDbLine
 10
802.077612
 20
186.292092
 30
0.0
 11
800.9014459999999
 21
187.8522269999999
 31
0.0
  0
LINE
  5
F127
330
F008
100
AcDbEntity
  8
1
  6
Continuous
100
AcDbLine
 10
795.5
 20
186.3499999999999
 30
0.0
 11
801.438025
 21
185.8971
 31
0.0
  0
LINE
  5
F128
330
F008
100
AcDbEntity
  8
1
  6
Continuous
100
AcDbLine
 10
795.2999999999997
 20
187.8885629999999
 30
0.0
 11
796.78697
 21
187.297869
 31
0.0
  0
LINE
  5
F129
330
F008
100
AcDbEntity
  8
1
  6
Continuous
100
AcDbLine
 10
795.5
 20
185.85
 30
0.0
 11
795.5
 21
186.3499999999999
 31
0.0
  0
LINE
  5
F12A
330
F008
100
AcDbEntity
  8
1
  6
Continuous
100
AcDbLine
 10
804.0
 20
160.171084
 30
0.0
 11
804.0
 21
185.3289159999999
 31
0.0
  0
ARC
  5
F12B
330
F008
100
AcDbEntity
  8
1
  6
Continuous
100
AcDbCircle
 10
800.7999999999999
 20
160.171084
 30
0.0
 40
3.2
100
AcDbArc
 50
322.9878089999999
 51
0.0
  0
ARC
  5
F12C
330
F008
100
AcDbEntity
  8
1
  6
Continuous
100
AcDbCircle
 10
800.7999999999999
 20
185.3289159999999
 30
0.0
 40
3.2
100
AcDbArc
 50
0.0
 51
37.01219099999998
  0
LINE
  5
F12D
330
F008
100
AcDbEntity
  8
1
  6
Continuous
100
AcDbLine
 10
337.1999999999998
 20
186.3499999999999
 30
0.0
 11
347.6999999999999
 21
186.3499999999999
 31
0.0
  0
LINE
  5
F12E
330
F008
100
AcDbEntity
  8
1
  6
Continuous
100
AcDbLine
 10
337.1999999999998
 20
185.85
 30
0.0
 11
347.6999999999999
 21
185.85
 31
0.0
  0
ARC
  5
F12F
330
F008
100
AcDbEntity
  8
1
  6
Continuous
100
AcDbCircle
 10
342.45
 20
186.4187499999999
 30
0.0
 40
2.38125
100
AcDbArc
 50
358.3455609999999
 51
21.665296
  0
ARC
  5
F130
330
F008
100
AcDbEntity
  8
1
  6
Continuous
100
AcDbCircle
 10
342.45
 20
186.4187499999999
 30
0.0
 40
2.38125
100
AcDbArc
 50
323.430279
 51
346.18161
  0
LINE
  5
F131
330
F008
100
AcDbEntity
  8
1
  6
Continuous
100
AcDbLine
 10
337.1999999999998
 20
186.3499999999999
 30
0.0
 11
337.1999999999998
 21
185.85
 31
0.0
  0
ARC
  5
F132
330
F008
100
AcDbEntity
  8
1
  6
Continuous
100
AcDbCircle
 10
342.45
 20
186.4187499999999
 30
0.0
 40
2.38125
100
AcDbArc
 50
193.81839
 51
216.5697209999999
  0
ARC
  5
F133
330
F008
100
AcDbEntity
  8
1
  6
Continuous
100
AcDbCircle
 10
342.45
 20
186.4187499999999
 30
0.0
 40
2.38125
100
AcDbArc
 50
158.3347039999999
 51
181.6544389999999
  0
LINE
  5
F134
330
F008
100
AcDbEntity
  8
1
  6
Continuous
100
AcDbLine
 10
347.6999999999999
 20
186.3499999999999
 30
0.0
 11
347.6999999999999
 21
185.85
 31
0.0
  0
LINE
  5
F135
330
F008
100
AcDbEntity
  8
1
  6
Continuous
100
AcDbLine
 10
360.3999999999999
 20
186.3499999999999
 30
0.0
 11
360.3999999999999
 21
185.85
 31
0.0
  0
ARC
  5
F136
330
F008
100
AcDbEntity
  8
1
  6
Continuous
100
AcDbCircle
 10
355.1499999999998
 20
186.4187499999999
 30
0.0
 40
2.38125
100
AcDbArc
 50
158.3347039999999
 51
181.6544389999999
  0
ARC
  5
F137
330
F008
100
AcDbEntity
  8
1
  6
Continuous
100
AcDbCircle
 10
355.1499999999998
 20
186.4187499999999
 30
0.0
 40
2.38125
100
AcDbArc
 50
193.81839
 51
216.5697209999999
  0
LINE
  5
F138
330
F008
100
AcDbEntity
  8
1
  6
Continuous
100
AcDbLine
 10
349.8999999999999
 20
186.3499999999999
 30
0.0
 11
349.8999999999999
 21
185.85
 31
0.0
  0
ARC
  5
F139
330
F008
100
AcDbEntity
  8
1
  6
Continuous
100
AcDbCircle
 10
355.1499999999998
 20
186.4187499999999
 30
0.0
 40
2.38125
100
AcDbArc
 50
323.430279
 51
346.18161
  0
ARC
  5
F13A
330
F008
100
AcDbEntity
  8
1
  6
Continuous
100
AcDbCircle
 10
355.1499999999998
 20
186.4187499999999
 30
0.0
 40
2.38125
100
AcDbArc
 50
358.3455609999999
 51
21.665296
  0
LINE
  5
F13B
330
F008
100
AcDbEntity
  8
1
  6
Continuous
100
AcDbLine
 10
349.8999999999999
 20
185.85
 30
0.0
 11
360.3999999999999
 21
185.85
 31
0.0
  0
LINE
  5
F13C
330
F008
100
AcDbEntity
  8
1
  6
Continuous
100
AcDbLine
 10
349.8999999999999
 20
186.3499999999999
 30
0.0
 11
360.3999999999999
 21
186.3499999999999
 31
0.0
  0
LINE
  5
F13D
330
F008
100
AcDbEntity
  8
1
  6
Continuous
100
AcDbLine
 10
375.3
 20
186.3499999999999
 30
0.0
 11
385.8
 21
186.3499999999999
 31
0.0
  0
LINE
  5
F13E
330
F008
100
AcDbEntity
  8
1
  6
Continuous
100
AcDbLine
 10
375.3
 20
185.85
 30
0.0
 11
385.8
 21
185.85
 31
0.0
  0
LINE
  5
F13F
330
F008
100
AcDbEntity
  8
1
  6
Continuous
100
AcDbLine
 10
375.3
 20
186.3499999999999
 30
0.0
 11
375.3
 21
185.85
 31
0.0
  0
LINE
  5
F140
330
F008
100
AcDbEntity
  8
1
  6
Continuous
100
AcDbLine
 10
373.1
 20
186.3499999999999
 30
0.0
 11
373.1
 21
185.85
 31
0.0
  0
ARC
  5
F141
330
F008
100
AcDbEntity
  8
1
  6
Continuous
100
AcDbCircle
 10
367.85
 20
186.4187499999999
 30
0.0
 40
2.38125
100
AcDbArc
 50
158.3347039999999
 51
181.6544389999999
  0
ARC
  5
F142
330
F008
100
AcDbEntity
  8
1
  6
Continuous
100
AcDbCircle
 10
367.85
 20
186.4187499999999
 30
0.0
 40
2.38125
100
AcDbArc
 50
193.81839
 51
216.5697209999999
  0
LINE
  5
F143
330
F008
100
AcDbEntity
  8
1
  6
Continuous
100
AcDbLine
 10
362.6
 20
186.3499999999999
 30
0.0
 11
362.6
 21
185.85
 31
0.0
  0
ARC
  5
F144
330
F008
100
AcDbEntity
  8
1
  6
Continuous
100
AcDbCircle
 10
367.85
 20
186.4187499999999
 30
0.0
 40
2.38125
100
AcDbArc
 50
323.430279
 51
346.18161
  0
ARC
  5
F145
330
F008
100
AcDbEntity
  8
1
  6
Continuous
100
AcDbCircle
 10
367.85
 20
186.4187499999999
 30
0.0
 40
2.38125
100
AcDbArc
 50
358.3455609999999
 51
21.665296
  0
LINE
  5
F146
330
F008
100
AcDbEntity
  8
1
  6
Continuous
100
AcDbLine
 10
362.6
 20
185.85
 30
0.0
 11
373.1
 21
185.85
 31
0.0
  0
LINE
  5
F147
330
F008
100
AcDbEntity
  8
1
  6
Continuous
100
AcDbLine
 10
362.6
 20
186.3499999999999
 30
0.0
 11
373.1
 21
186.3499999999999
 31
0.0
  0
ARC
  5
F148
330
F008
100
AcDbEntity
  8
1
  6
Continuous
100
AcDbCircle
 10
380.55
 20
186.4187499999999
 30
0.0
 40
2.38125
100
AcDbArc
 50
358.3455609999999
 51
21.665296
  0
ARC
  5
F149
330
F008
100
AcDbEntity
  8
1
  6
Continuous
100
AcDbCircle
 10
380.55
 20
186.4187499999999
 30
0.0
 40
2.38125
100
AcDbArc
 50
323.430279
 51
346.18161
  0
ARC
  5
F14A
330
F008
100
AcDbEntity
  8
1
  6
Continuous
100
AcDbCircle
 10
380.55
 20
186.4187499999999
 30
0.0
 40
2.38125
100
AcDbArc
 50
193.81839
 51
216.5697209999999
  0
ARC
  5
F14B
330
F008
100
AcDbEntity
  8
1
  6
Continuous
100
AcDbCircle
 10
380.55
 20
186.4187499999999
 30
0.0
 40
2.38125
100
AcDbArc
 50
158.3347039999999
 51
181.6544389999999
  0
LINE
  5
F14C
330
F008
100
AcDbEntity
  8
1
  6
Continuous
100
AcDbLine
 10
385.8
 20
186.3499999999999
 30
0.0
 11
385.8
 21
185.85
 31
0.0
  0
LINE
  5
F14D
330
F008
100
AcDbEntity
  8
1
  6
Continuous
100
AcDbLine
 10
388.0
 20
186.3499999999999
 30
0.0
 11
398.4999999999999
 21
186.3499999999999
 31
0.0
  0
LINE
  5
F14E
330
F008
100
AcDbEntity
  8
1
  6
Continuous
100
AcDbLine
 10
388.0
 20
185.85
 30
0.0
 11
398.4999999999999
 21
185.85
 31
0.0
  0
LINE
  5
F14F
330
F008
100
AcDbEntity
  8
1
  6
Continuous
100
AcDbLine
 10
388.0
 20
186.3499999999999
 30
0.0
 11
388.0
 21
185.85
 31
0.0
  0
ARC
  5
F150
330
F008
100
AcDbEntity
  8
1
  6
Continuous
100
AcDbCircle
 10
393.25
 20
186.4187499999999
 30
0.0
 40
2.38125
100
AcDbArc
 50
193.81839
 51
216.5697209999999
  0
ARC
  5
F151
330
F008
100
AcDbEntity
  8
1
  6
Continuous
100
AcDbCircle
 10
393.25
 20
186.4187499999999
 30
0.0
 40
2.38125
100
AcDbArc
 50
158.3347039999999
 51
181.6544389999999
  0
LINE
  5
F152
330
F008
100
AcDbEntity
  8
1
  6
Continuous
100
AcDbLine
 10
400.6999999999998
 20
185.85
 30
0.0
 11
411.2
 21
185.85
 31
0.0
  0
LINE
  5
F153
330
F008
100
AcDbEntity
  8
1
  6
Continuous
100
AcDbLine
 10
400.6999999999998
 20
186.3499999999999
 30
0.0
 11
411.2
 21
186.3499999999999
 31
0.0
  0
ARC
  5
F154
330
F008
100
AcDbEntity
  8
1
  6
Continuous
100
AcDbCircle
 10
405.9499999999998
 20
186.4187499999999
 30
0.0
 40
2.38125
100
AcDbArc
 50
158.3347039999999
 51
181.6544389999999
  0
ARC
  5
F155
330
F008
100
AcDbEntity
  8
1
  6
Continuous
100
AcDbCircle
 10
405.9499999999998
 20
186.4187499999999
 30
0.0
 40
2.38125
100
AcDbArc
 50
193.81839
 51
216.5697209999999
  0
ARC
  5
F156
330
F008
100
AcDbEntity
  8
1
  6
Continuous
100
AcDbCircle
 10
405.9499999999998
 20
186.4187499999999
 30
0.0
 40
2.38125
100
AcDbArc
 50
232.488267
 51
346.18161
  0
ARC
  5
F157
330
F008
100
AcDbEntity
  8
1
  6
Continuous
100
AcDbCircle
 10
405.9499999999998
 20
186.4187499999999
 30
0.0
 40
2.38125
100
AcDbArc
 50
358.3455609999999
 51
21.665296
  0
ARC
  5
F158
330
F008
100
AcDbEntity
  8
1
  6
Continuous
100
AcDbCircle
 10
393.25
 20
186.4187499999999
 30
0.0
 40
2.38125
100
AcDbArc
 50
358.3455609999999
 51
21.665296
  0
ARC
  5
F159
330
F008
100
AcDbEntity
  8
1
  6
Continuous
100
AcDbCircle
 10
393.25
 20
186.4187499999999
 30
0.0
 40
2.38125
100
AcDbArc
 50
323.430279
 51
346.18161
  0
LINE
  5
F15A
330
F008
100
AcDbEntity
  8
1
  6
Continuous
100
AcDbLine
 10
398.4999999999999
 20
186.3499999999999
 30
0.0
 11
398.4999999999999
 21
185.85
 31
0.0
  0
LINE
  5
F15B
330
F008
100
AcDbEntity
  8
1
  6
Continuous
100
AcDbLine
 10
400.6999999999998
 20
186.3499999999999
 30
0.0
 11
400.6999999999998
 21
185.85
 31
0.0
  0
LINE
  5
F15C
330
F008
100
AcDbEntity
  8
1
  6
Continuous
100
AcDbLine
 10
411.2
 20
186.3499999999999
 30
0.0
 11
411.2
 21
185.85
 31
0.0
  0
LINE
  5
F15D
330
F008
100
AcDbEntity
  8
1
  6
Continuous
100
AcDbLine
 10
426.1
 20
186.3499999999999
 30
0.0
 11
436.6
 21
186.3499999999999
 31
0.0
  0
LINE
  5
F15E
330
F008
100
AcDbEntity
  8
1
  6
Continuous
100
AcDbLine
 10
426.1
 20
185.85
 30
0.0
 11
436.6
 21
185.85
 31
0.0
  0
LINE
  5
F15F
330
F008
100
AcDbEntity
  8
1
  6
Continuous
100
AcDbLine
 10
426.1
 20
186.3499999999999
 30
0.0
 11
426.1
 21
185.85
 31
0.0
  0
LINE
  5
F160
330
F008
100
AcDbEntity
  8
1
  6
Continuous
100
AcDbLine
 10
423.8999999999998
 20
186.3499999999999
 30
0.0
 11
423.8999999999998
 21
185.85
 31
0.0
  0
ARC
  5
F161
330
F008
100
AcDbEntity
  8
1
  6
Continuous
100
AcDbCircle
 10
418.6499999999998
 20
186.4187499999999
 30
0.0
 40
2.38125
100
AcDbArc
 50
193.81839
 51
346.18161
  0
ARC
  5
F162
330
F008
100
AcDbEntity
  8
1
  6
Continuous
100
AcDbCircle
 10
418.6499999999998
 20
186.4187499999999
 30
0.0
 40
2.38125
100
AcDbArc
 50
358.3455609999999
 51
21.665296
  0
ARC
  5
F163
330
F008
100
AcDbEntity
  8
1
  6
Continuous
100
AcDbCircle
 10
418.6499999999998
 20
186.4187499999999
 30
0.0
 40
2.38125
100
AcDbArc
 50
158.3347039999999
 51
181.6544389999999
  0
LINE
  5
F164
330
F008
100
AcDbEntity
  8
1
  6
Continuous
100
AcDbLine
 10
413.3999999999998
 20
186.3499999999999
 30
0.0
 11
413.3999999999998
 21
185.85
 31
0.0
  0
LINE
  5
F165
330
F008
100
AcDbEntity
  8
1
  6
Continuous
100
AcDbLine
 10
413.3999999999998
 20
185.85
 30
0.0
 11
423.8999999999998
 21
185.85
 31
0.0
  0
LINE
  5
F166
330
F008
100
AcDbEntity
  8
1
  6
Continuous
100
AcDbLine
 10
413.3999999999998
 20
186.3499999999999
 30
0.0
 11
423.8999999999998
 21
186.3499999999999
 31
0.0
  0
LINE
  5
F167
330
F008
100
AcDbEntity
  8
1
  6
Continuous
100
AcDbLine
 10
436.6
 20
186.3499999999999
 30
0.0
 11
436.6
 21
185.85
 31
0.0
  0
ARC
  5
F168
330
F008
100
AcDbEntity
  8
1
  6
Continuous
100
AcDbCircle
 10
431.35
 20
186.4187499999999
 30
0.0
 40
2.38125
100
AcDbArc
 50
358.3455609999999
 51
21.665296
  0
ARC
  5
F169
330
F008
100
AcDbEntity
  8
1
  6
Continuous
100
AcDbCircle
 10
431.35
 20
186.4187499999999
 30
0.0
 40
2.38125
100
AcDbArc
 50
193.81839
 51
346.18161
  0
ARC
  5
F16A
330
F008
100
AcDbEntity
  8
1
  6
Continuous
100
AcDbCircle
 10
431.35
 20
186.4187499999999
 30
0.0
 40
2.38125
100
AcDbArc
 50
158.3347039999999
 51
181.6544389999999
  0
LINE
  5
F16B
330
F008
100
AcDbEntity
  8
1
  6
Continuous
100
AcDbLine
 10
438.7999999999998
 20
186.3499999999999
 30
0.0
 11
449.3
 21
186.3499999999999
 31
0.0
  0
LINE
  5
F16C
330
F008
100
AcDbEntity
  8
1
  6
Continuous
100
AcDbLine
 10
438.7999999999998
 20
185.85
 30
0.0
 11
449.3
 21
185.85
 31
0.0
  0
LINE
  5
F16D
330
F008
100
AcDbEntity
  8
1
  6
Continuous
100
AcDbLine
 10
438.7999999999998
 20
186.3499999999999
 30
0.0
 11
438.7999999999998
 21
185.85
 31
0.0
  0
ARC
  5
F16E
330
F008
100
AcDbEntity
  8
1
  6
Continuous
100
AcDbCircle
 10
444.05
 20
186.4187499999999
 30
0.0
 40
2.38125
100
AcDbArc
 50
158.3347039999999
 51
181.6544389999999
  0
ARC
  5
F16F
330
F008
100
AcDbEntity
  8
1
  6
Continuous
100
AcDbCircle
 10
444.05
 20
186.4187499999999
 30
0.0
 40
2.38125
100
AcDbArc
 50
358.3455609999999
 51
21.665296
  0
ARC
  5
F170
330
F008
100
AcDbEntity
  8
1
  6
Continuous
100
AcDbCircle
 10
444.05
 20
186.4187499999999
 30
0.0
 40
2.38125
100
AcDbArc
 50
193.81839
 51
346.18161
  0
LINE
  5
F171
330
F008
100
AcDbEntity
  8
1
  6
Continuous
100
AcDbLine
 10
449.3
 20
186.3499999999999
 30
0.0
 11
449.3
 21
185.85
 31
0.0
  0
LINE
  5
F172
330
F008
100
AcDbEntity
  8
1
  6
Continuous
100
AcDbLine
 10
602.9039159999999
 20
186.3499999999999
 30
0.0
 11
609.1
 21
186.3499999999999
 31
0.0
  0
LINE
  5
F173
330
F008
100
AcDbEntity
  8
1
  6
Continuous
100
AcDbLine
 10
602.5017219999997
 20
185.85
 30
0.0
 11
609.1
 21
185.85
 31
0.0
  0
ARC
  5
F174
330
F008
100
AcDbEntity
  8
1
  6
Continuous
100
AcDbCircle
 10
603.8499999999998
 20
186.4187499999999
 30
0.0
 40
2.38125
100
AcDbArc
 50
358.3455609999999
 51
21.665296
  0
ARC
  5
F175
330
F008
100
AcDbEntity
  8
1
  6
Continuous
100
AcDbCircle
 10
616.5499999999998
 20
186.4187499999999
 30
0.0
 40
2.38125
100
AcDbArc
 50
193.81839
 51
346.18161
  0
ARC
  5
F176
330
F008
100
AcDbEntity
  8
1
  6
Continuous
100
AcDbCircle
 10
616.5499999999998
 20
186.4187499999999
 30
0.0
 40
2.38125
100
AcDbArc
 50
358.3455609999999
 51
21.665296
  0
LINE
  5
F177
330
F008
100
AcDbEntity
  8
1
  6
Continuous
100
AcDbLine
 10
621.7999999999998
 20
186.3499999999999
 30
0.0
 11
621.7999999999998
 21
185.85
 31
0.0
  0
ARC
  5
F178
330
F008
100
AcDbEntity
  8
1
  6
Continuous
100
AcDbCircle
 10
616.5499999999998
 20
186.4187499999999
 30
0.0
 40
2.38125
100
AcDbArc
 50
158.3347039999999
 51
181.6544389999999
  0
LINE
  5
F179
330
F008
100
AcDbEntity
  8
1
  6
Continuous
100
AcDbLine
 10
609.1
 20
186.3499999999999
 30
0.0
 11
609.1
 21
185.85
 31
0.0
  0
LINE
  5
F17A
330
F008
100
AcDbEntity
  8
1
  6
Continuous
100
AcDbLine
 10
611.2999999999998
 20
186.3499999999999
 30
0.0
 11
611.2999999999998
 21
185.85
 31
0.0
  0
LINE
  5
F17B
330
F008
100
AcDbEntity
  8
1
  6
Continuous
100
AcDbLine
 10
611.2999999999998
 20
185.85
 30
0.0
 11
621.7999999999998
 21
185.85
 31
0.0
  0
LINE
  5
F17C
330
F008
100
AcDbEntity
  8
1
  6
Continuous
100
AcDbLine
 10
611.2999999999998
 20
186.3499999999999
 30
0.0
 11
621.7999999999998
 21
186.3499999999999
 31
0.0
  0
LINE
  5
F17D
330
F008
100
AcDbEntity
  8
1
  6
Continuous
100
AcDbLine
 10
649.3999999999997
 20
186.3499999999999
 30
0.0
 11
659.9
 21
186.3499999999999
 31
0.0
  0
LINE
  5
F17E
330
F008
100
AcDbEntity
  8
1
  6
Continuous
100
AcDbLine
 10
649.3999999999997
 20
185.85
 30
0.0
 11
659.9
 21
185.85
 31
0.0
  0
LINE
  5
F17F
330
F008
100
AcDbEntity
  8
1
  6
Continuous
100
AcDbLine
 10
636.7000000000001
 20
185.85
 30
0.0
 11
647.2000000000001
 21
185.85
 31
0.0
  0
LINE
  5
F180
330
F008
100
AcDbEntity
  8
1
  6
Continuous
100
AcDbLine
 10
636.7000000000001
 20
186.3499999999999
 30
0.0
 11
647.2000000000001
 21
186.3499999999999
 31
0.0
  0
LINE
  5
F181
330
F008
100
AcDbEntity
  8
1
  6
Continuous
100
AcDbLine
 10
636.7000000000001
 20
186.3499999999999
 30
0.0
 11
636.7000000000001
 21
185.85
 31
0.0
  0
ARC
  5
F182
330
F008
100
AcDbEntity
  8
1
  6
Continuous
100
AcDbCircle
 10
629.25
 20
186.4187499999999
 30
0.0
 40
2.38125
100
AcDbArc
 50
193.81839
 51
346.18161
  0
ARC
  5
F183
330
F008
100
AcDbEntity
  8
1
  6
Continuous
100
AcDbCircle
 10
629.25
 20
186.4187499999999
 30
0.0
 40
2.38125
100
AcDbArc
 50
358.3455609999999
 51
21.665296
  0
LINE
  5
F184
330
F008
100
AcDbEntity
  8
1
  6
Continuous
100
AcDbLine
 10
634.4999999999997
 20
186.3499999999999
 30
0.0
 11
634.4999999999997
 21
185.85
 31
0.0
  0
ARC
  5
F185
330
F008
100
AcDbEntity
  8
1
  6
Continuous
100
AcDbCircle
 10
629.25
 20
186.4187499999999
 30
0.0
 40
2.38125
100
AcDbArc
 50
158.3347039999999
 51
181.6544389999999
  0
LINE
  5
F186
330
F008
100
AcDbEntity
  8
1
  6
Continuous
100
AcDbLine
 10
624.0
 20
186.3499999999999
 30
0.0
 11
624.0
 21
185.85
 31
0.0
  0
LINE
  5
F187
330
F008
100
AcDbEntity
  8
1
  6
Continuous
100
AcDbLine
 10
624.0
 20
185.85
 30
0.0
 11
634.4999999999997
 21
185.85
 31
0.0
  0
LINE
  5
F188
330
F008
100
AcDbEntity
  8
1
  6
Continuous
100
AcDbLine
 10
624.0
 20
186.3499999999999
 30
0.0
 11
634.4999999999997
 21
186.3499999999999
 31
0.0
  0
LINE
  5
F189
330
F008
100
AcDbEntity
  8
1
  6
Continuous
100
AcDbLine
 10
649.3999999999997
 20
186.3499999999999
 30
0.0
 11
649.3999999999997
 21
185.85
 31
0.0
  0
LINE
  5
F18A
330
F008
100
AcDbEntity
  8
1
  6
Continuous
100
AcDbLine
 10
647.2000000000001
 20
186.3499999999999
 30
0.0
 11
647.2000000000001
 21
185.85
 31
0.0
  0
ARC
  5
F18B
330
F008
100
AcDbEntity
  8
1
  6
Continuous
100
AcDbCircle
 10
654.6499999999999
 20
186.4187499999999
 30
0.0
 40
2.38125
100
AcDbArc
 50
158.3347039999999
 51
181.6544389999999
  0
ARC
  5
F18C
330
F008
100
AcDbEntity
  8
1
  6
Continuous
100
AcDbCircle
 10
641.9500000000001
 20
186.4187499999999
 30
0.0
 40
2.38125
100
AcDbArc
 50
193.81839
 51
346.18161
  0
ARC
  5
F18D
330
F008
100
AcDbEntity
  8
1
  6
Continuous
100
AcDbCircle
 10
641.9500000000001
 20
186.4187499999999
 30
0.0
 40
2.38125
100
AcDbArc
 50
358.3455609999999
 51
21.665296
  0
ARC
  5
F18E
330
F008
100
AcDbEntity
  8
1
  6
Continuous
100
AcDbCircle
 10
641.9500000000001
 20
186.4187499999999
 30
0.0
 40
2.38125
100
AcDbArc
 50
158.3347039999999
 51
181.6544389999999
  0
LINE
  5
F18F
330
F008
100
AcDbEntity
  8
1
  6
Continuous
100
AcDbLine
 10
659.9
 20
186.3499999999999
 30
0.0
 11
659.9
 21
185.85
 31
0.0
  0
ARC
  5
F190
330
F008
100
AcDbEntity
  8
1
  6
Continuous
100
AcDbCircle
 10
654.6499999999999
 20
186.4187499999999
 30
0.0
 40
2.38125
100
AcDbArc
 50
358.3455609999999
 51
21.665296
  0
ARC
  5
F191
330
F008
100
AcDbEntity
  8
1
  6
Continuous
100
AcDbCircle
 10
654.6499999999999
 20
186.4187499999999
 30
0.0
 40
2.38125
100
AcDbArc
 50
193.81839
 51
346.18161
  0
LINE
  5
F192
330
F008
100
AcDbEntity
  8
1
  6
Continuous
100
AcDbLine
 10
362.6
 20
159.15
 30
0.0
 11
373.1
 21
159.15
 31
0.0
  0
LINE
  5
F193
330
F008
100
AcDbEntity
  8
1
  6
Continuous
100
AcDbLine
 10
362.6
 20
159.6499999999998
 30
0.0
 11
373.1
 21
159.6499999999998
 31
0.0
  0
LINE
  5
F194
330
F008
100
AcDbEntity
  8
1
  6
Continuous
100
AcDbLine
 10
324.5
 20
159.15
 30
0.0
 11
335.0
 21
159.15
 31
0.0
  0
LINE
  5
F195
330
F008
100
AcDbEntity
  8
1
  6
Continuous
100
AcDbLine
 10
324.5
 20
159.6499999999998
 30
0.0
 11
335.0
 21
159.6499999999998
 31
0.0
  0
ARC
  5
F196
330
F008
100
AcDbEntity
  8
1
  6
Continuous
100
AcDbCircle
 10
329.7499999999998
 20
159.08125
 30
0.0
 40
2.38125
100
AcDbArc
 50
338.3347039999998
 51
1.654438999999999
  0
ARC
  5
F197
330
F008
100
AcDbEntity
  8
1
  6
Continuous
100
AcDbCircle
 10
329.7499999999998
 20
159.08125
 30
0.0
 40
2.38125
100
AcDbArc
 50
13.81839
 51
36.569721
  0
LINE
  5
F198
330
F008
100
AcDbEntity
  8
1
  6
Continuous
100
AcDbLine
 10
324.5
 20
159.15
 30
0.0
 11
324.5
 21
159.6499999999998
 31
0.0
  0
ARC
  5
F199
330
F008
100
AcDbEntity
  8
1
  6
Continuous
100
AcDbCircle
 10
329.7499999999998
 20
159.08125
 30
0.0
 40
2.38125
100
AcDbArc
 50
143.430279
 51
166.18161
  0
ARC
  5
F19A
330
F008
100
AcDbEntity
  8
1
  6
Continuous
100
AcDbCircle
 10
329.7499999999998
 20
159.08125
 30
0.0
 40
2.38125
100
AcDbArc
 50
178.345561
 51
201.6652959999999
  0
LINE
  5
F19B
330
F008
100
AcDbEntity
  8
1
  6
Continuous
100
AcDbLine
 10
349.8999999999999
 20
159.15
 30
0.0
 11
360.3999999999999
 21
159.15
 31
0.0
  0
LINE
  5
F19C
330
F008
100
AcDbEntity
  8
1
  6
Continuous
100
AcDbLine
 10
349.8999999999999
 20
159.6499999999998
 30
0.0
 11
360.3999999999999
 21
159.6499999999998
 31
0.0
  0
LINE
  5
F19D
330
F008
100
AcDbEntity
  8
1
  6
Continuous
100
AcDbLine
 10
349.8999999999999
 20
159.15
 30
0.0
 11
349.8999999999999
 21
159.6499999999998
 31
0.0
  0
LINE
  5
F19E
330
F008
100
AcDbEntity
  8
1
  6
Continuous
100
AcDbLine
 10
347.6999999999999
 20
159.15
 30
0.0
 11
347.6999999999999
 21
159.6499999999998
 31
0.0
  0
ARC
  5
F19F
330
F008
100
AcDbEntity
  8
1
  6
Continuous
100
AcDbCircle
 10
342.45
 20
159.08125
 30
0.0
 40
2.38125
100
AcDbArc
 50
178.345561
 51
201.6652959999999
  0
ARC
  5
F1A0
330
F008
100
AcDbEntity
  8
1
  6
Continuous
100
AcDbCircle
 10
342.45
 20
159.08125
 30
0.0
 40
2.38125
100
AcDbArc
 50
143.430279
 51
166.18161
  0
LINE
  5
F1A1
330
F008
100
AcDbEntity
  8
1
  6
Continuous
100
AcDbLine
 10
337.1999999999998
 20
159.15
 30
0.0
 11
337.1999999999998
 21
159.6499999999998
 31
0.0
  0
ARC
  5
F1A2
330
F008
100
AcDbEntity
  8
1
  6
Continuous
100
AcDbCircle
 10
342.45
 20
159.08125
 30
0.0
 40
2.38125
100
AcDbArc
 50
13.81839
 51
36.569721
  0
ARC
  5
F1A3
330
F008
100
AcDbEntity
  8
1
  6
Continuous
100
AcDbCircle
 10
342.45
 20
159.08125
 30
0.0
 40
2.38125
100
AcDbArc
 50
338.3347039999998
 51
1.654438999999999
  0
LINE
  5
F1A4
330
F008
100
AcDbEntity
  8
1
  6
Continuous
100
AcDbLine
 10
337.1999999999998
 20
159.6499999999998
 30
0.0
 11
347.6999999999999
 21
159.6499999999998
 31
0.0
  0
LINE
  5
F1A5
330
F008
100
AcDbEntity
  8
1
  6
Continuous
100
AcDbLine
 10
337.1999999999998
 20
159.15
 30
0.0
 11
347.6999999999999
 21
159.15
 31
0.0
  0
LINE
  5
F1A6
330
F008
100
AcDbEntity
  8
1
  6
Continuous
100
AcDbLine
 10
335.0
 20
159.15
 30
0.0
 11
335.0
 21
159.6499999999998
 31
0.0
  0
LINE
  5
F1A7
330
F008
100
AcDbEntity
  8
1
  6
Continuous
100
AcDbLine
 10
362.6
 20
159.15
 30
0.0
 11
362.6
 21
159.6499999999998
 31
0.0
  0
ARC
  5
F1A8
330
F008
100
AcDbEntity
  8
1
  6
Continuous
100
AcDbCircle
 10
367.85
 20
159.08125
 30
0.0
 40
2.38125
100
AcDbArc
 50
143.430279
 51
166.18161
  0
ARC
  5
F1A9
330
F008
100
AcDbEntity
  8
1
  6
Continuous
100
AcDbCircle
 10
367.85
 20
159.08125
 30
0.0
 40
2.38125
100
AcDbArc
 50
178.345561
 51
201.6652959999999
  0
ARC
  5
F1AA
330
F008
100
AcDbEntity
  8
1
  6
Continuous
100
AcDbCircle
 10
355.1499999999998
 20
159.08125
 30
0.0
 40
2.38125
100
AcDbArc
 50
338.3347039999998
 51
1.654438999999999
  0
ARC
  5
F1AB
330
F008
100
AcDbEntity
  8
1
  6
Continuous
100
AcDbCircle
 10
355.1499999999998
 20
159.08125
 30
0.0
 40
2.38125
100
AcDbArc
 50
13.81839
 51
36.569721
  0
ARC
  5
F1AC
330
F008
100
AcDbEntity
  8
1
  6
Continuous
100
AcDbCircle
 10
355.1499999999998
 20
159.08125
 30
0.0
 40
2.38125
100
AcDbArc
 50
143.430279
 51
166.18161
  0
ARC
  5
F1AD
330
F008
100
AcDbEntity
  8
1
  6
Continuous
100
AcDbCircle
 10
355.1499999999998
 20
159.08125
 30
0.0
 40
2.38125
100
AcDbArc
 50
178.345561
 51
201.6652959999999
  0
LINE
  5
F1AE
330
F008
100
AcDbEntity
  8
1
  6
Continuous
100
AcDbLine
 10
360.3999999999999
 20
159.15
 30
0.0
 11
360.3999999999999
 21
159.6499999999998
 31
0.0
  0
LINE
  5
F1AF
330
F008
100
AcDbEntity
  8
1
  6
Continuous
100
AcDbLine
 10
400.6999999999998
 20
159.15
 30
0.0
 11
411.2
 21
159.15
 31
0.0
  0
LINE
  5
F1B0
330
F008
100
AcDbEntity
  8
1
  6
Continuous
100
AcDbLine
 10
400.6999999999998
 20
159.6499999999998
 30
0.0
 11
411.2
 21
159.6499999999998
 31
0.0
  0
LINE
  5
F1B1
330
F008
100
AcDbEntity
  8
1
  6
Continuous
100
AcDbLine
 10
375.3
 20
159.6499999999998
 30
0.0
 11
385.8
 21
159.6499999999998
 31
0.0
  0
LINE
  5
F1B2
330
F008
100
AcDbEntity
  8
1
  6
Continuous
100
AcDbLine
 10
375.3
 20
159.15
 30
0.0
 11
385.8
 21
159.15
 31
0.0
  0
ARC
  5
F1B3
330
F008
100
AcDbEntity
  8
1
  6
Continuous
100
AcDbCircle
 10
380.55
 20
159.08125
 30
0.0
 40
2.38125
100
AcDbArc
 50
178.345561
 51
201.6652959999999
  0
ARC
  5
F1B4
330
F008
100
AcDbEntity
  8
1
  6
Continuous
100
AcDbCircle
 10
380.55
 20
159.08125
 30
0.0
 40
2.38125
100
AcDbArc
 50
143.430279
 51
166.18161
  0
ARC
  5
F1B5
330
F008
100
AcDbEntity
  8
1
  6
Continuous
100
AcDbCircle
 10
380.55
 20
159.08125
 30
0.0
 40
2.38125
100
AcDbArc
 50
13.81839
 51
36.569721
  0
ARC
  5
F1B6
330
F008
100
AcDbEntity
  8
1
  6
Continuous
100
AcDbCircle
 10
380.55
 20
159.08125
 30
0.0
 40
2.38125
100
AcDbArc
 50
338.3347039999998
 51
1.654438999999999
  0
ARC
  5
F1B7
330
F008
100
AcDbEntity
  8
1
  6
Continuous
100
AcDbCircle
 10
367.85
 20
159.08125
 30
0.0
 40
2.38125
100
AcDbArc
 50
338.3347039999998
 51
1.654438999999999
  0
ARC
  5
F1B8
330
F008
100
AcDbEntity
  8
1
  6
Continuous
100
AcDbCircle
 10
367.85
 20
159.08125
 30
0.0
 40
2.38125
100
AcDbArc
 50
13.81839
 51
36.569721
  0
LINE
  5
F1B9
330
F008
100
AcDbEntity
  8
1
  6
Continuous
100
AcDbLine
 10
373.1
 20
159.15
 30
0.0
 11
373.1
 21
159.6499999999998
 31
0.0
  0
LINE
  5
F1BA
330
F008
100
AcDbEntity
  8
1
  6
Continuous
100
AcDbLine
 10
375.3
 20
159.15
 30
0.0
 11
375.3
 21
159.6499999999998
 31
0.0
  0
LINE
  5
F1BB
330
F008
100
AcDbEntity
  8
1
  6
Continuous
100
AcDbLine
 10
400.6999999999998
 20
159.15
 30
0.0
 11
400.6999999999998
 21
159.6499999999998
 31
0.0
  0
LINE
  5
F1BC
330
F008
100
AcDbEntity
  8
1
  6
Continuous
100
AcDbLine
 10
398.4999999999999
 20
159.15
 30
0.0
 11
398.4999999999999
 21
159.6499999999998
 31
0.0
  0
ARC
  5
F1BD
330
F008
100
AcDbEntity
  8
1
  6
Continuous
100
AcDbCircle
 10
393.25
 20
159.08125
 30
0.0
 40
2.38125
100
AcDbArc
 50
13.81839
 51
36.569721
  0
ARC
  5
F1BE
330
F008
100
AcDbEntity
  8
1
  6
Continuous
100
AcDbCircle
 10
393.25
 20
159.08125
 30
0.0
 40
2.38125
100
AcDbArc
 50
338.3347039999998
 51
1.654438999999999
  0
ARC
  5
F1BF
330
F008
100
AcDbEntity
  8
1
  6
Continuous
100
AcDbCircle
 10
393.25
 20
159.08125
 30
0.0
 40
2.38125
100
AcDbArc
 50
178.345561
 51
201.6652959999999
  0
ARC
  5
F1C0
330
F008
100
AcDbEntity
  8
1
  6
Continuous
100
AcDbCircle
 10
393.25
 20
159.08125
 30
0.0
 40
2.38125
100
AcDbArc
 50
143.430279
 51
166.18161
  0
LINE
  5
F1C1
330
F008
100
AcDbEntity
  8
1
  6
Continuous
100
AcDbLine
 10
388.0
 20
159.15
 30
0.0
 11
388.0
 21
159.6499999999998
 31
0.0
  0
LINE
  5
F1C2
330
F008
100
AcDbEntity
  8
1
  6
Continuous
100
AcDbLine
 10
388.0
 20
159.6499999999998
 30
0.0
 11
398.4999999999999
 21
159.6499999999998
 31
0.0
  0
LINE
  5
F1C3
330
F008
100
AcDbEntity
  8
1
  6
Continuous
100
AcDbLine
 10
388.0
 20
159.15
 30
0.0
 11
398.4999999999999
 21
159.15
 31
0.0
  0
LINE
  5
F1C4
330
F008
100
AcDbEntity
  8
1
  6
Continuous
100
AcDbLine
 10
385.8
 20
159.15
 30
0.0
 11
385.8
 21
159.6499999999998
 31
0.0
  0
LINE
  5
F1C5
330
F008
100
AcDbEntity
  8
1
  6
Continuous
100
AcDbLine
 10
413.3999999999998
 20
159.15
 30
0.0
 11
423.8999999999998
 21
159.15
 31
0.0
  0
LINE
  5
F1C6
330
F008
100
AcDbEntity
  8
1
  6
Continuous
100
AcDbLine
 10
413.3999999999998
 20
159.6499999999998
 30
0.0
 11
423.8999999999998
 21
159.6499999999998
 31
0.0
  0
LINE
  5
F1C7
330
F008
100
AcDbEntity
  8
1
  6
Continuous
100
AcDbLine
 10
413.3999999999998
 20
159.15
 30
0.0
 11
413.3999999999998
 21
159.6499999999998
 31
0.0
  0
ARC
  5
F1C8
330
F008
100
AcDbEntity
  8
1
  6
Continuous
100
AcDbCircle
 10
418.6499999999998
 20
159.08125
 30
0.0
 40
2.38125
100
AcDbArc
 50
178.345561
 51
201.6652959999999
  0
LINE
  5
F1C9
330
F008
100
AcDbEntity
  8
1
  6
Continuous
100
AcDbLine
 10
411.2
 20
159.15
 30
0.0
 11
411.2
 21
159.6499999999998
 31
0.0
  0
ARC
  5
F1CA
330
F008
100
AcDbEntity
  8
1
  6
Continuous
100
AcDbCircle
 10
405.9499999999998
 20
159.08125
 30
0.0
 40
2.38125
100
AcDbArc
 50
338.3347039999998
 51
1.654438999999999
  0
ARC
  5
F1CB
330
F008
100
AcDbEntity
  8
1
  6
Continuous
100
AcDbCircle
 10
405.9499999999998
 20
159.08125
 30
0.0
 40
2.38125
100
AcDbArc
 50
143.430279
 51
166.18161
  0
ARC
  5
F1CC
330
F008
100
AcDbEntity
  8
1
  6
Continuous
100
AcDbCircle
 10
405.9499999999998
 20
159.08125
 30
0.0
 40
2.38125
100
AcDbArc
 50
178.345561
 51
201.6652959999999
  0
ARC
  5
F1CD
330
F008
100
AcDbEntity
  8
1
  6
Continuous
100
AcDbCircle
 10
431.35
 20
159.08125
 30
0.0
 40
2.38125
100
AcDbArc
 50
178.345561
 51
201.6652959999999
  0
ARC
  5
F1CE
330
F008
100
AcDbEntity
  8
1
  6
Continuous
100
AcDbCircle
 10
431.35
 20
159.08125
 30
0.0
 40
2.38125
100
AcDbArc
 50
338.3347039999998
 51
1.654438999999999
  0
LINE
  5
F1CF
330
F008
100
AcDbEntity
  8
1
  6
Continuous
100
AcDbLine
 10
436.6
 20
159.15
 30
0.0
 11
436.6
 21
159.6499999999998
 31
0.0
  0
ARC
  5
F1D0
330
F008
100
AcDbEntity
  8
1
  6
Continuous
100
AcDbCircle
 10
418.6499999999998
 20
159.08125
 30
0.0
 40
2.38125
100
AcDbArc
 50
338.3347039999998
 51
1.654438999999999
  0
LINE
  5
F1D1
330
F008
100
AcDbEntity
  8
1
  6
Continuous
100
AcDbLine
 10
423.8999999999998
 20
159.15
 30
0.0
 11
423.8999999999998
 21
159.6499999999998
 31
0.0
  0
LINE
  5
F1D2
330
F008
100
AcDbEntity
  8
1
  6
Continuous
100
AcDbLine
 10
426.1
 20
159.15
 30
0.0
 11
426.1
 21
159.6499999999998
 31
0.0
  0
LINE
  5
F1D3
330
F008
100
AcDbEntity
  8
1
  6
Continuous
100
AcDbLine
 10
426.1
 20
159.6499999999998
 30
0.0
 11
436.6
 21
159.6499999999998
 31
0.0
  0
LINE
  5
F1D4
330
F008
100
AcDbEntity
  8
1
  6
Continuous
100
AcDbLine
 10
426.1
 20
159.15
 30
0.0
 11
436.6
 21
159.15
 31
0.0
  0
LINE
  5
F1D5
330
F008
100
AcDbEntity
  8
1
  6
Continuous
100
AcDbLine
 10
611.2999999999998
 20
159.15
 30
0.0
 11
621.7999999999998
 21
159.15
 31
0.0
  0
LINE
  5
F1D6
330
F008
100
AcDbEntity
  8
1
  6
Continuous
100
AcDbLine
 10
611.2999999999998
 20
159.6499999999998
 30
0.0
 11
621.7999999999998
 21
159.6499999999998
 31
0.0
  0
LINE
  5
F1D7
330
F008
100
AcDbEntity
  8
1
  6
Continuous
100
AcDbLine
 10
449.3
 20
159.15
 30
0.0
 11
449.3
 21
159.6499999999998
 31
0.0
  0
ARC
  5
F1D8
330
F008
100
AcDbEntity
  8
1
  6
Continuous
100
AcDbCircle
 10
444.05
 20
159.08125
 30
0.0
 40
2.38125
100
AcDbArc
 50
338.3347039999998
 51
1.654438999999999
  0
ARC
  5
F1D9
330
F008
100
AcDbEntity
  8
1
  6
Continuous
100
AcDbCircle
 10
444.05
 20
159.08125
 30
0.0
 40
2.38125
100
AcDbArc
 50
178.345561
 51
201.6652959999999
  0
LINE
  5
F1DA
330
F008
100
AcDbEntity
  8
1
  6
Continuous
100
AcDbLine
 10
438.7999999999998
 20
159.15
 30
0.0
 11
438.7999999999998
 21
159.6499999999998
 31
0.0
  0
LINE
  5
F1DB
330
F008
100
AcDbEntity
  8
1
  6
Continuous
100
AcDbLine
 10
438.7999999999998
 20
159.6499999999998
 30
0.0
 11
449.3
 21
159.6499999999998
 31
0.0
  0
LINE
  5
F1DC
330
F008
100
AcDbEntity
  8
1
  6
Continuous
100
AcDbLine
 10
438.7999999999998
 20
159.15
 30
0.0
 11
449.3
 21
159.15
 31
0.0
  0
LINE
  5
F1DD
330
F008
100
AcDbEntity
  8
1
  6
Continuous
100
AcDbLine
 10
602.5017219999997
 20
159.6499999999998
 30
0.0
 11
609.1
 21
159.6499999999998
 31
0.0
  0
LINE
  5
F1DE
330
F008
100
AcDbEntity
  8
1
  6
Continuous
100
AcDbLine
 10
602.9039159999999
 20
159.15
 30
0.0
 11
609.1
 21
159.15
 31
0.0
  0
LINE
  5
F1DF
330
F008
100
AcDbEntity
  8
1
  6
Continuous
100
AcDbLine
 10
611.2999999999998
 20
159.15
 30
0.0
 11
611.2999999999998
 21
159.6499999999998
 31
0.0
  0
LINE
  5
F1E0
330
F008
100
AcDbEntity
  8
1
  6
Continuous
100
AcDbLine
 10
609.1
 20
159.15
 30
0.0
 11
609.1
 21
159.6499999999998
 31
0.0
  0
ARC
  5
F1E1
330
F008
100
AcDbEntity
  8
1
  6
Continuous
100
AcDbCircle
 10
616.5499999999998
 20
159.08125
 30
0.0
 40
2.38125
100
AcDbArc
 50
178.345561
 51
201.6652959999999
  0
ARC
  5
F1E2
330
F008
100
AcDbEntity
  8
1
  6
Continuous
100
AcDbCircle
 10
603.8499999999998
 20
159.08125
 30
0.0
 40
2.38125
100
AcDbArc
 50
13.81839
 51
74.15916999999999
  0
ARC
  5
F1E3
330
F008
100
AcDbEntity
  8
1
  6
Continuous
100
AcDbCircle
 10
603.8499999999998
 20
159.08125
 30
0.0
 40
2.38125
100
AcDbArc
 50
338.3347039999998
 51
1.654438999999999
  0
LINE
  5
F1E4
330
F008
100
AcDbEntity
  8
1
  6
Continuous
100
AcDbLine
 10
649.3999999999997
 20
159.6499999999998
 30
0.0
 11
659.9
 21
159.6499999999998
 31
0.0
  0
LINE
  5
F1E5
330
F008
100
AcDbEntity
  8
1
  6
Continuous
100
AcDbLine
 10
649.3999999999997
 20
159.15
 30
0.0
 11
659.9
 21
159.15
 31
0.0
  0
LINE
  5
F1E6
330
F008
100
AcDbEntity
  8
1
  6
Continuous
100
AcDbLine
 10
624.0
 20
159.15
 30
0.0
 11
634.4999999999997
 21
159.15
 31
0.0
  0
LINE
  5
F1E7
330
F008
100
AcDbEntity
  8
1
  6
Continuous
100
AcDbLine
 10
624.0
 20
159.6499999999998
 30
0.0
 11
634.4999999999997
 21
159.6499999999998
 31
0.0
  0
LINE
  5
F1E8
330
F008
100
AcDbEntity
  8
1
  6
Continuous
100
AcDbLine
 10
624.0
 20
159.15
 30
0.0
 11
624.0
 21
159.6499999999998
 31
0.0
  0
ARC
  5
F1E9
330
F008
100
AcDbEntity
  8
1
  6
Continuous
100
AcDbCircle
 10
629.25
 20
159.08125
 30
0.0
 40
2.38125
100
AcDbArc
 50
178.345561
 51
201.6652959999999
  0
ARC
  5
F1EA
330
F008
100
AcDbEntity
  8
1
  6
Continuous
100
AcDbCircle
 10
629.25
 20
159.08125
 30
0.0
 40
2.38125
100
AcDbArc
 50
338.3347039999998
 51
1.654438999999999
  0
ARC
  5
F1EB
330
F008
100
AcDbEntity
  8
1
  6
Continuous
100
AcDbCircle
 10
629.25
 20
159.08125
 30
0.0
 40
2.38125
100
AcDbArc
 50
13.81839
 51
166.18161
  0
LINE
  5
F1EC
330
F008
100
AcDbEntity
  8
1
  6
Continuous
100
AcDbLine
 10
621.7999999999998
 20
159.15
 30
0.0
 11
621.7999999999998
 21
159.6499999999998
 31
0.0
  0
ARC
  5
F1ED
330
F008
100
AcDbEntity
  8
1
  6
Continuous
100
AcDbCircle
 10
616.5499999999998
 20
159.08125
 30
0.0
 40
2.38125
100
AcDbArc
 50
338.3347039999998
 51
1.654438999999999
  0
ARC
  5
F1EE
330
F008
100
AcDbEntity
  8
1
  6
Continuous
100
AcDbCircle
 10
616.5499999999998
 20
159.08125
 30
0.0
 40
2.38125
100
AcDbArc
 50
13.81839
 51
166.18161
  0
ARC
  5
F1EF
330
F008
100
AcDbEntity
  8
1
  6
Continuous
100
AcDbCircle
 10
641.9500000000001
 20
159.08125
 30
0.0
 40
2.38125
100
AcDbArc
 50
178.345561
 51
201.6652959999999
  0
ARC
  5
F1F0
330
F008
100
AcDbEntity
  8
1
  6
Continuous
100
AcDbCircle
 10
641.9500000000001
 20
159.08125
 30
0.0
 40
2.38125
100
AcDbArc
 50
338.3347039999998
 51
1.654438999999999
  0
ARC
  5
F1F1
330
F008
100
AcDbEntity
  8
1
  6
Continuous
100
AcDbCircle
 10
641.9500000000001
 20
159.08125
 30
0.0
 40
2.38125
100
AcDbArc
 50
13.81839
 51
166.18161
  0
LINE
  5
F1F2
330
F008
100
AcDbEntity
  8
1
  6
Continuous
100
AcDbLine
 10
647.2000000000001
 20
159.15
 30
0.0
 11
647.2000000000001
 21
159.6499999999998
 31
0.0
  0
LINE
  5
F1F3
330
F008
100
AcDbEntity
  8
1
  6
Continuous
100
AcDbLine
 10
649.3999999999997
 20
159.15
 30
0.0
 11
649.3999999999997
 21
159.6499999999998
 31
0.0
  0
LINE
  5
F1F4
330
F008
100
AcDbEntity
  8
1
  6
Continuous
100
AcDbLine
 10
634.4999999999997
 20
159.15
 30
0.0
 11
634.4999999999997
 21
159.6499999999998
 31
0.0
  0
LINE
  5
F1F5
330
F008
100
AcDbEntity
  8
1
  6
Continuous
100
AcDbLine
 10
636.7000000000001
 20
159.15
 30
0.0
 11
636.7000000000001
 21
159.6499999999998
 31
0.0
  0
LINE
  5
F1F6
330
F008
100
AcDbEntity
  8
1
  6
Continuous
100
AcDbLine
 10
636.7000000000001
 20
159.15
 30
0.0
 11
647.2000000000001
 21
159.15
 31
0.0
  0
LINE
  5
F1F7
330
F008
100
AcDbEntity
  8
1
  6
Continuous
100
AcDbLine
 10
636.7000000000001
 20
159.6499999999998
 30
0.0
 11
647.2000000000001
 21
159.6499999999998
 31
0.0
  0
ARC
  5
F1F8
330
F008
100
AcDbEntity
  8
1
  6
Continuous
100
AcDbCircle
 10
654.6499999999999
 20
159.08125
 30
0.0
 40
2.38125
100
AcDbArc
 50
13.81839
 51
166.18161
  0
ARC
  5
F1F9
330
F008
100
AcDbEntity
  8
1
  6
Continuous
100
AcDbCircle
 10
654.6499999999999
 20
159.08125
 30
0.0
 40
2.38125
100
AcDbArc
 50
338.3347039999998
 51
1.654438999999999
  0
LINE
  5
F1FA
330
F008
100
AcDbEntity
  8
1
  6
Continuous
100
AcDbLine
 10
659.9
 20
159.15
 30
0.0
 11
659.9
 21
159.6499999999998
 31
0.0
  0
ARC
  5
F1FB
330
F008
100
AcDbEntity
  8
1
  6
Continuous
100
AcDbCircle
 10
654.6499999999999
 20
159.08125
 30
0.0
 40
2.38125
100
AcDbArc
 50
178.345561
 51
201.6652959999999
  0
LINE
  5
F1FC
330
F008
100
AcDbEntity
  8
1
  6
Continuous
100
AcDbLine
 10
657.65
 20
185.85
 30
0.0
 11
657.65
 21
159.6499999999998
 31
0.0
  0
LINE
  5
F1FD
330
F008
100
AcDbEntity
  8
1
  6
Continuous
100
AcDbLine
 10
604.4999999999999
 20
178.5
 30
0.0
 11
657.65
 21
178.5
 31
0.0
  0
LINE
  5
F1FE
330
F008
100
AcDbEntity
  8
1
  6
Continuous
100
AcDbLine
 10
604.4999999999999
 20
167.0
 30
0.0
 11
657.65
 21
167.0
 31
0.0
  0
LINE
  5
F1FF
330
F008
100
AcDbEntity
  8
1
  6
Continuous
100
AcDbLine
 10
644.9500000000001
 20
182.2499999999998
 30
0.0
 11
651.6499999999997
 21
182.2499999999998
 31
0.0
  0
LINE
  5
F200
330
F008
100
AcDbEntity
  8
1
  6
Continuous
100
AcDbLine
 10
651.6499999999997
 20
185.85
 30
0.0
 11
651.6499999999997
 21
182.2499999999998
 31
0.0
  0
LINE
  5
F201
330
F008
100
AcDbEntity
  8
1
  6
Continuous
100
AcDbLine
 10
644.9500000000001
 20
185.85
 30
0.0
 11
644.9500000000001
 21
182.2499999999998
 31
0.0
  0
LINE
  5
F202
330
F008
100
AcDbEntity
  8
1
  6
Continuous
100
AcDbLine
 10
644.9500000000001
 20
159.6499999999998
 30
0.0
 11
644.9500000000001
 21
163.25
 31
0.0
  0
LINE
  5
F203
330
F008
100
AcDbEntity
  8
1
  6
Continuous
100
AcDbLine
 10
651.6499999999997
 20
159.6499999999998
 30
0.0
 11
651.6499999999997
 21
163.25
 31
0.0
  0
LINE
  5
F204
330
F008
100
AcDbEntity
  8
1
  6
Continuous
100
AcDbLine
 10
644.9500000000001
 20
163.25
 30
0.0
 11
651.6499999999997
 21
163.25
 31
0.0
  0
LINE
  5
F205
330
F008
100
AcDbEntity
  8
1
  6
Continuous
100
AcDbLine
 10
632.2499999999998
 20
185.85
 30
0.0
 11
632.2499999999998
 21
182.2499999999998
 31
0.0
  0
LINE
  5
F206
330
F008
100
AcDbEntity
  8
1
  6
Continuous
100
AcDbLine
 10
638.9500000000001
 20
185.85
 30
0.0
 11
638.9500000000001
 21
182.2499999999998
 31
0.0
  0
LINE
  5
F207
330
F008
100
AcDbEntity
  8
1
  6
Continuous
100
AcDbLine
 10
632.2499999999998
 20
182.2499999999998
 30
0.0
 11
638.9500000000001
 21
182.2499999999998
 31
0.0
  0
LINE
  5
F208
330
F008
100
AcDbEntity
  8
1
  6
Continuous
100
AcDbLine
 10
632.2499999999998
 20
163.25
 30
0.0
 11
638.9500000000001
 21
163.25
 31
0.0
  0
LINE
  5
F209
330
F008
100
AcDbEntity
  8
1
  6
Continuous
100
AcDbLine
 10
638.9500000000001
 20
159.6499999999998
 30
0.0
 11
638.9500000000001
 21
163.25
 31
0.0
  0
LINE
  5
F20A
330
F008
100
AcDbEntity
  8
1
  6
Continuous
100
AcDbLine
 10
632.2499999999998
 20
159.6499999999998
 30
0.0
 11
632.2499999999998
 21
163.25
 31
0.0
  0
LINE
  5
F20B
330
F008
100
AcDbEntity
  8
1
  6
Continuous
100
AcDbLine
 10
626.25
 20
185.85
 30
0.0
 11
626.25
 21
182.2499999999998
 31
0.0
  0
LINE
  5
F20C
330
F008
100
AcDbEntity
  8
1
  6
Continuous
100
AcDbLine
 10
619.55
 20
185.85
 30
0.0
 11
619.55
 21
182.2499999999998
 31
0.0
  0
LINE
  5
F20D
330
F008
100
AcDbEntity
  8
1
  6
Continuous
100
AcDbLine
 10
619.55
 20
182.2499999999998
 30
0.0
 11
626.25
 21
182.2499999999998
 31
0.0
  0
LINE
  5
F20E
330
F008
100
AcDbEntity
  8
1
  6
Continuous
100
AcDbLine
 10
619.55
 20
163.25
 30
0.0
 11
626.25
 21
163.25
 31
0.0
  0
LINE
  5
F20F
330
F008
100
AcDbEntity
  8
1
  6
Continuous
100
AcDbLine
 10
619.55
 20
159.6499999999998
 30
0.0
 11
619.55
 21
163.25
 31
0.0
  0
LINE
  5
F210
330
F008
100
AcDbEntity
  8
1
  6
Continuous
100
AcDbLine
 10
626.25
 20
159.6499999999998
 30
0.0
 11
626.25
 21
163.25
 31
0.0
  0
LINE
  5
F211
330
F008
100
AcDbEntity
  8
1
  6
Continuous
100
AcDbLine
 10
606.85
 20
185.85
 30
0.0
 11
606.85
 21
182.2499999999998
 31
0.0
  0
LINE
  5
F212
330
F008
100
AcDbEntity
  8
1
  6
Continuous
100
AcDbLine
 10
613.5499999999998
 20
185.85
 30
0.0
 11
613.5499999999998
 21
182.2499999999998
 31
0.0
  0
LINE
  5
F213
330
F008
100
AcDbEntity
  8
1
  6
Continuous
100
AcDbLine
 10
606.85
 20
182.2499999999998
 30
0.0
 11
613.5499999999998
 21
182.2499999999998
 31
0.0
  0
LINE
  5
F214
330
F008
100
AcDbEntity
  8
1
  6
Continuous
100
AcDbLine
 10
613.5499999999998
 20
159.6499999999998
 30
0.0
 11
613.5499999999998
 21
163.25
 31
0.0
  0
LINE
  5
F215
330
F008
100
AcDbEntity
  8
1
  6
Continuous
100
AcDbLine
 10
606.85
 20
159.6499999999998
 30
0.0
 11
606.85
 21
163.25
 31
0.0
  0
LINE
  5
F216
330
F008
100
AcDbEntity
  8
1
  6
Continuous
100
AcDbLine
 10
606.85
 20
163.25
 30
0.0
 11
613.5499999999998
 21
163.25
 31
0.0
  0
LINE
  5
F217
330
F008
100
AcDbEntity
  8
1
  6
Continuous
100
AcDbLine
 10
604.4999999999999
 20
161.25
 30
0.0
 11
604.4999999999999
 21
184.25
 31
0.0
  0
LINE
  5
F218
330
F008
100
AcDbEntity
  8
1
  6
Continuous
100
AcDbLine
 10
602.8999999999999
 20
161.25
 30
0.0
 11
602.8999999999999
 21
184.25
 31
0.0
  0
LINE
  5
F219
330
F008
100
AcDbEntity
  8
1
  6
Continuous
100
AcDbLine
 10
602.2710089999999
 20
159.9368169999999
 30
0.0
 11
604.1467159999997
 21
157.604976
 31
0.0
  0
ARC
  5
F21A
330
F008
100
AcDbEntity
  8
1
  6
Continuous
100
AcDbCircle
 10
602.8999999999999
 20
156.0114369999998
 30
0.0
 40
1.6
100
AcDbArc
 50
0.0
 51
90.0
  0
ARC
  5
F21B
330
F008
100
AcDbEntity
  8
1
  6
Continuous
100
AcDbCircle
 10
602.8999999999999
 20
156.602131
 30
0.0
 40
1.6
100
AcDbArc
 50
0.0
 51
90.0
  0
LINE
  5
F21C
330
F008
100
AcDbEntity
  8
1
  6
Continuous
100
AcDbLine
 10
604.4999999999999
 20
155.0999999999999
 30
0.0
 11
604.4999999999999
 21
156.602131
 31
0.0
  0
ARC
  5
F21D
330
F008
100
AcDbEntity
  8
1
  6
Continuous
100
AcDbCircle
 10
602.8999999999999
 20
160.4427709999999
 30
0.0
 40
0.8072289999999997
100
AcDbArc
 50
90.0
 51
218.812815
  0
LINE
  5
F21E
330
F008
100
AcDbEntity
  8
1
  6
Continuous
100
AcDbLine
 10
602.8999999999999
 20
161.25
 30
0.0
 11
604.4999999999999
 21
161.25
 31
0.0
  0
LINE
  5
F21F
330
F008
100
AcDbEntity
  8
1
  6
Continuous
100
AcDbLine
 10
604.4999999999999
 20
188.8978689999999
 30
0.0
 11
604.4999999999999
 21
190.4
 31
0.0
  0
LINE
  5
F220
330
F008
100
AcDbEntity
  8
1
  6
Continuous
100
AcDbLine
 10
602.2710089999999
 20
185.563183
 30
0.0
 11
604.1467159999997
 21
187.8950239999998
 31
0.0
  0
ARC
  5
F221
330
F008
100
AcDbEntity
  8
1
  6
Continuous
100
AcDbCircle
 10
602.8999999999999
 20
185.057229
 30
0.0
 40
0.8072289999999997
100
AcDbArc
 50
141.1871849999998
 51
270.0
  0
ARC
  5
F222
330
F008
100
AcDbEntity
  8
1
  6
Continuous
100
AcDbCircle
 10
602.8999999999999
 20
188.8978689999999
 30
0.0
 40
1.6
100
AcDbArc
 50
270.0
 51
0.0
  0
ARC
  5
F223
330
F008
100
AcDbEntity
  8
1
  6
Continuous
100
AcDbCircle
 10
602.8999999999999
 20
189.488563
 30
0.0
 40
1.6
100
AcDbArc
 50
270.0
 51
0.0
  0
LINE
  5
F224
330
F008
100
AcDbEntity
  8
1
  6
Continuous
100
AcDbLine
 10
602.8999999999999
 20
184.25
 30
0.0
 11
604.4999999999999
 21
184.25
 31
0.0
  0
LINE
  5
F225
330
F008
100
AcDbEntity
  8
1
  6
Continuous
100
AcDbLine
 10
604.141492
 20
187.8885629999999
 30
0.0
 11
732.8999999999997
 21
187.8885629999999
 31
0.0
  0
LINE
  5
F226
330
F008
100
AcDbEntity
  8
1
  6
Continuous
100
AcDbLine
 10
603.6663719999998
 20
187.297869
 30
0.0
 11
732.8999999999997
 21
187.297869
 31
0.0
  0
ARC
  5
F227
330
F008
100
AcDbEntity
  8
1
  6
Continuous
100
AcDbCircle
 10
603.8499999999998
 20
186.4187499999999
 30
0.0
 40
2.38125
100
AcDbArc
 50
285.8408299999999
 51
346.18161
  0
LINE
  5
F228
330
F008
100
AcDbEntity
  8
1
  6
Continuous
100
AcDbLine
 10
604.141519
 20
157.611437
 30
0.0
 11
732.8999999999997
 21
157.611437
 31
0.0
  0
LINE
  5
F229
330
F008
100
AcDbEntity
  8
1
  6
Continuous
100
AcDbLine
 10
603.6663719999998
 20
158.202131
 30
0.0
 11
732.8999999999997
 21
158.202131
 31
0.0
  0
CIRCLE
  5
F22A
330
F008
100
AcDbEntity
  8
1
  6
Continuous
100
AcDbCircle
 10
648.2999999999998
 20
172.75
 30
0.0
 40
2.0
  0
CIRCLE
  5
F22B
330
F008
100
AcDbEntity
  8
1
  6
Continuous
100
AcDbCircle
 10
635.6
 20
172.75
 30
0.0
 40
2.0
  0
CIRCLE
  5
F22C
330
F008
100
AcDbEntity
  8
1
  6
Continuous
100
AcDbCircle
 10
622.9
 20
172.75
 30
0.0
 40
2.0
  0
CIRCLE
  5
F22D
330
F008
100
AcDbEntity
  8
1
  6
Continuous
100
AcDbCircle
 10
610.2000000000002
 20
172.75
 30
0.0
 40
2.0
  0
LINE
  5
F22E
330
F008
100
AcDbEntity
  8
1
  6
Continuous
100
AcDbLine
 10
102.4999999999999
 20
160.4999999999998
 30
0.0
 11
102.4999999999999
 21
185.0
 31
0.0
  0
LINE
  5
F22F
330
F008
100
AcDbEntity
  8
1
  6
Continuous
100
AcDbLine
 10
404.4999999999998
 20
167.25
 30
0.0
 11
404.4999999999998
 21
178.2499999999998
 31
0.0
  0
LINE
  5
F230
330
F008
100
AcDbEntity
  8
3
  6
DASHED
100
AcDbLine
 10
299.5
 20
160.4999999999998
 30
0.0
 11
299.5
 21
185.0
 31
0.0
  0
LINE
  5
F231
330
F008
100
AcDbEntity
  8
1
  6
Continuous
100
AcDbLine
 10
299.5
 20
155.0999999999999
 30
0.0
 11
299.5
 21
160.4999999999998
 31
0.0
  0
ARC
  5
F232
330
F008
100
AcDbEntity
  8
1
  6
Continuous
100
AcDbCircle
 10
301.1
 20
156.0114369999998
 30
0.0
 40
1.6
100
AcDbArc
 50
90.0
 51
180.0
  0
ARC
  5
F233
330
F008
100
AcDbEntity
  8
1
  6
Continuous
100
AcDbCircle
 10
301.1
 20
156.602131
 30
0.0
 40
1.6
100
AcDbArc
 50
90.0
 51
180.0
  0
ARC
  5
F234
330
F008
100
AcDbEntity
  8
1
  6
Continuous
100
AcDbCircle
 10
301.1
 20
188.8978689999999
 30
0.0
 40
1.6
100
AcDbArc
 50
180.0
 51
270.0
  0
ARC
  5
F235
330
F008
100
AcDbEntity
  8
1
  6
Continuous
100
AcDbCircle
 10
301.1
 20
189.488563
 30
0.0
 40
1.6
100
AcDbArc
 50
180.0
 51
270.0
  0
LINE
  5
F236
330
F008
100
AcDbEntity
  8
1
  6
Continuous
100
AcDbLine
 10
299.5
 20
185.0
 30
0.0
 11
299.5
 21
190.4
 31
0.0
  0
LINE
  5
F237
330
F008
100
AcDbEntity
  8
3
  6
DASHED
100
AcDbLine
 10
429.4999999999998
 20
165.25
 30
0.0
 11
429.4999999999998
 21
155.0999999999999
 31
0.0
  0
ARC
  5
F238
330
F008
100
AcDbEntity
  8
1
  6
Continuous
100
AcDbCircle
 10
118.4
 20
173.15
 30
0.0
 40
2.25
100
AcDbArc
 50
0.0
 51
180.0
  0
ARC
  5
F239
330
F008
100
AcDbEntity
  8
1
  6
Continuous
100
AcDbCircle
 10
118.4
 20
172.35
 30
0.0
 40
2.25
100
AcDbArc
 50
180.0
 51
0.0
  0
LINE
  5
F23A
330
F008
100
AcDbEntity
  8
1
  6
Continuous
100
AcDbLine
 10
120.65
 20
172.35
 30
0.0
 11
120.65
 21
173.15
 31
0.0
  0
LINE
  5
F23B
330
F008
100
AcDbEntity
  8
4
  6
CENTER
100
AcDbLine
 10
118.4
 20
167.5
 30
0.0
 11
118.4
 21
178.0
 31
0.0
  0
LINE
  5
F23C
330
F008
100
AcDbEntity
  8
1
  6
Continuous
100
AcDbLine
 10
116.1499999999999
 20
172.35
 30
0.0
 11
116.1499999999999
 21
173.15
 31
0.0
  0
LINE
  5
F23D
330
F008
100
AcDbEntity
  8
1
  6
Continuous
100
AcDbLine
 10
128.8499999999999
 20
172.35
 30
0.0
 11
128.8499999999999
 21
173.15
 31
0.0
  0
LINE
  5
F23E
330
F008
100
AcDbEntity
  8
4
  6
CENTER
100
AcDbLine
 10
131.0999999999999
 20
167.5
 30
0.0
 11
131.0999999999999
 21
178.0
 31
0.0
  0
LINE
  5
F23F
330
F008
100
AcDbEntity
  8
1
  6
Continuous
100
AcDbLine
 10
133.3499999999999
 20
172.35
 30
0.0
 11
133.3499999999999
 21
173.15
 31
0.0
  0
ARC
  5
F240
330
F008
100
AcDbEntity
  8
1
  6
Continuous
100
AcDbCircle
 10
131.0999999999999
 20
172.35
 30
0.0
 40
2.25
100
AcDbArc
 50
180.0
 51
0.0
  0
ARC
  5
F241
330
F008
100
AcDbEntity
  8
1
  6
Continuous
100
AcDbCircle
 10
131.0999999999999
 20
173.15
 30
0.0
 40
2.25
100
AcDbArc
 50
0.0
 51
180.0
  0
LINE
  5
F242
330
F008
100
AcDbEntity
  8
1
  6
Continuous
100
AcDbLine
 10
241.8
 20
175.0
 30
0.0
 11
242.6
 21
175.0
 31
0.0
  0
LINE
  5
F243
330
F008
100
AcDbEntity
  8
4
  6
CENTER
100
AcDbLine
 10
242.2
 20
167.5
 30
0.0
 11
242.2
 21
178.0
 31
0.0
  0
LINE
  5
F244
330
F008
100
AcDbEntity
  8
1
  6
Continuous
100
AcDbLine
 10
241.8
 20
170.5
 30
0.0
 11
242.6
 21
170.5
 31
0.0
  0
ARC
  5
F245
330
F008
100
AcDbEntity
  8
1
  6
Continuous
100
AcDbCircle
 10
241.8
 20
172.75
 30
0.0
 40
2.25
100
AcDbArc
 50
90.0
 51
270.0
  0
ARC
  5
F246
330
F008
100
AcDbEntity
  8
1
  6
Continuous
100
AcDbCircle
 10
242.6
 20
172.75
 30
0.0
 40
2.25
100
AcDbArc
 50
270.0
 51
90.0
  0
LINE
  5
F247
330
F008
100
AcDbEntity
  8
1
  6
Continuous
100
AcDbLine
 10
376.4499999999999
 20
172.35
 30
0.0
 11
376.4499999999999
 21
173.15
 31
0.0
  0
LINE
  5
F248
330
F008
100
AcDbEntity
  8
4
  6
CENTER
100
AcDbLine
 10
378.6999999999999
 20
167.5
 30
0.0
 11
378.6999999999999
 21
178.0
 31
0.0
  0
LINE
  5
F249
330
F008
100
AcDbEntity
  8
1
  6
Continuous
100
AcDbLine
 10
380.9499999999999
 20
172.35
 30
0.0
 11
380.9499999999999
 21
173.15
 31
0.0
  0
ARC
  5
F24A
330
F008
100
AcDbEntity
  8
1
  6
Continuous
100
AcDbCircle
 10
378.6999999999999
 20
172.35
 30
0.0
 40
2.25
100
AcDbArc
 50
180.0
 51
0.0
  0
ARC
  5
F24B
330
F008
100
AcDbEntity
  8
1
  6
Continuous
100
AcDbCircle
 10
378.6999999999999
 20
173.15
 30
0.0
 40
2.25
100
AcDbArc
 50
0.0
 51
180.0
  0
LINE
  5
F24C
330
F008
100
AcDbEntity
  8
1
  6
Continuous
100
AcDbLine
 10
389.1499999999999
 20
172.35
 30
0.0
 11
389.1499999999999
 21
173.15
 31
0.0
  0
LINE
  5
F24D
330
F008
100
AcDbEntity
  8
4
  6
CENTER
100
AcDbLine
 10
391.3999999999999
 20
167.5
 30
0.0
 11
391.3999999999999
 21
178.0
 31
0.0
  0
LINE
  5
F24E
330
F008
100
AcDbEntity
  8
1
  6
Continuous
100
AcDbLine
 10
393.6499999999999
 20
172.35
 30
0.0
 11
393.6499999999999
 21
173.15
 31
0.0
  0
ARC
  5
F24F
330
F008
100
AcDbEntity
  8
1
  6
Continuous
100
AcDbCircle
 10
391.3999999999999
 20
172.35
 30
0.0
 40
2.25
100
AcDbArc
 50
180.0
 51
0.0
  0
ARC
  5
F250
330
F008
100
AcDbEntity
  8
1
  6
Continuous
100
AcDbCircle
 10
391.3999999999999
 20
173.15
 30
0.0
 40
2.25
100
AcDbArc
 50
0.0
 51
180.0
  0
LINE
  5
F251
330
F008
100
AcDbEntity
  8
1
  6
Continuous
100
AcDbLine
 10
311.0
 20
186.3499999999999
 30
0.0
 11
318.5
 21
186.3499999999999
 31
0.0
  0
LINE
  5
F252
330
F008
100
AcDbEntity
  8
1
  6
Continuous
100
AcDbLine
 10
311.0
 20
185.85
 30
0.0
 11
318.5
 21
185.85
 31
0.0
  0
ARC
  5
F253
330
F008
100
AcDbEntity
  8
1
  6
Continuous
100
AcDbCircle
 10
314.7499999999999
 20
186.4187499999999
 30
0.0
 40
2.38125
100
AcDbArc
 50
358.3455609999999
 51
21.665296
  0
ARC
  5
F254
330
F008
100
AcDbEntity
  8
1
  6
Continuous
100
AcDbCircle
 10
314.7499999999999
 20
186.4187499999999
 30
0.0
 40
2.38125
100
AcDbArc
 50
323.430279
 51
346.18161
  0
LINE
  5
F255
330
F008
100
AcDbEntity
  8
1
  6
Continuous
100
AcDbLine
 10
311.0
 20
186.3499999999999
 30
0.0
 11
311.0
 21
185.0
 31
0.0
  0
ARC
  5
F256
330
F008
100
AcDbEntity
  8
1
  6
Continuous
100
AcDbCircle
 10
314.7499999999999
 20
186.4187499999999
 30
0.0
 40
2.38125
100
AcDbArc
 50
193.81839
 51
216.5697209999999
  0
ARC
  5
F257
330
F008
100
AcDbEntity
  8
1
  6
Continuous
100
AcDbCircle
 10
314.7499999999999
 20
186.4187499999999
 30
0.0
 40
2.38125
100
AcDbArc
 50
158.3347039999999
 51
181.6544389999999
  0
LINE
  5
F258
330
F008
100
AcDbEntity
  8
1
  6
Continuous
100
AcDbLine
 10
318.5
 20
186.3499999999999
 30
0.0
 11
318.5
 21
185.0
 31
0.0
  0
ARC
  5
F259
330
F008
100
AcDbEntity
  8
1
  6
Continuous
100
AcDbCircle
 10
314.7499999999999
 20
159.08125
 30
0.0
 40
2.38125
100
AcDbArc
 50
13.81839
 51
36.569721
  0
ARC
  5
F25A
330
F008
100
AcDbEntity
  8
1
  6
Continuous
100
AcDbCircle
 10
314.7499999999999
 20
159.08125
 30
0.0
 40
2.38125
100
AcDbArc
 50
338.3347039999998
 51
1.654438999999999
  0
ARC
  5
F25B
330
F008
100
AcDbEntity
  8
1
  6
Continuous
100
AcDbCircle
 10
314.7499999999999
 20
159.08125
 30
0.0
 40
2.38125
100
AcDbArc
 50
178.345561
 51
201.6652959999999
  0
ARC
  5
F25C
330
F008
100
AcDbEntity
  8
1
  6
Continuous
100
AcDbCircle
 10
314.7499999999999
 20
159.08125
 30
0.0
 40
2.38125
100
AcDbArc
 50
143.430279
 51
166.18161
  0
LINE
  5
F25D
330
F008
100
AcDbEntity
  8
1
  6
Continuous
100
AcDbLine
 10
311.0
 20
159.15
 30
0.0
 11
318.5
 21
159.15
 31
0.0
  0
LINE
  5
F25E
330
F008
100
AcDbEntity
  8
1
  6
Continuous
100
AcDbLine
 10
311.0
 20
159.6499999999998
 30
0.0
 11
318.5
 21
159.6499999999998
 31
0.0
  0
LINE
  5
F25F
330
F008
100
AcDbEntity
  8
1
  6
Continuous
100
AcDbLine
 10
318.5
 20
159.15
 30
0.0
 11
318.5
 21
160.4999999999998
 31
0.0
  0
LINE
  5
F260
330
F008
100
AcDbEntity
  8
1
  6
Continuous
100
AcDbLine
 10
311.0
 20
159.15
 30
0.0
 11
311.0
 21
160.4999999999998
 31
0.0
  0
LINE
  5
F261
330
F008
100
AcDbEntity
  8
1
  6
Continuous
100
AcDbLine
 10
451.4999999999998
 20
185.85
 30
0.0
 11
462.0
 21
185.85
 31
0.0
  0
LINE
  5
F262
330
F008
100
AcDbEntity
  8
1
  6
Continuous
100
AcDbLine
 10
451.4999999999998
 20
186.3499999999999
 30
0.0
 11
462.0
 21
186.3499999999999
 31
0.0
  0
LINE
  5
F263
330
F008
100
AcDbEntity
  8
1
  6
Continuous
100
AcDbLine
 10
451.4999999999998
 20
186.3499999999999
 30
0.0
 11
451.4999999999998
 21
185.85
 31
0.0
  0
LINE
  5
F264
330
F008
100
AcDbEntity
  8
1
  6
Continuous
100
AcDbLine
 10
462.0
 20
186.3499999999999
 30
0.0
 11
462.0
 21
185.85
 31
0.0
  0
ARC
  5
F265
330
F008
100
AcDbEntity
  8
1
  6
Continuous
100
AcDbCircle
 10
456.7499999999998
 20
186.4187499999999
 30
0.0
 40
2.38125
100
AcDbArc
 50
193.81839
 51
346.18161
  0
ARC
  5
F266
330
F008
100
AcDbEntity
  8
1
  6
Continuous
100
AcDbCircle
 10
456.7499999999998
 20
186.4187499999999
 30
0.0
 40
2.38125
100
AcDbArc
 50
358.3455609999999
 51
21.665296
  0
ARC
  5
F267
330
F008
100
AcDbEntity
  8
1
  6
Continuous
100
AcDbCircle
 10
456.7499999999998
 20
186.4187499999999
 30
0.0
 40
2.38125
100
AcDbArc
 50
158.3347039999999
 51
181.6544389999999
  0
LINE
  5
F268
330
F008
100
AcDbEntity
  8
1
  6
Continuous
100
AcDbLine
 10
451.4999999999998
 20
159.6499999999998
 30
0.0
 11
462.0
 21
159.6499999999998
 31
0.0
  0
LINE
  5
F269
330
F008
100
AcDbEntity
  8
1
  6
Continuous
100
AcDbLine
 10
451.4999999999998
 20
159.15
 30
0.0
 11
462.0
 21
159.15
 31
0.0
  0
LINE
  5
F26A
330
F008
100
AcDbEntity
  8
1
  6
Continuous
100
AcDbLine
 10
451.4999999999998
 20
159.15
 30
0.0
 11
451.4999999999998
 21
159.6499999999998
 31
0.0
  0
LINE
  5
F26B
330
F008
100
AcDbEntity
  8
1
  6
Continuous
100
AcDbLine
 10
462.0
 20
159.15
 30
0.0
 11
462.0
 21
159.6499999999998
 31
0.0
  0
ARC
  5
F26C
330
F008
100
AcDbEntity
  8
1
  6
Continuous
100
AcDbCircle
 10
456.7499999999998
 20
159.08125
 30
0.0
 40
2.38125
100
AcDbArc
 50
338.3347039999998
 51
1.654438999999999
  0
ARC
  5
F26D
330
F008
100
AcDbEntity
  8
1
  6
Continuous
100
AcDbCircle
 10
456.7499999999998
 20
159.08125
 30
0.0
 40
2.38125
100
AcDbArc
 50
178.345561
 51
201.6652959999999
  0
LINE
  5
F26E
330
F008
100
AcDbEntity
  8
1
  6
Continuous
100
AcDbLine
 10
459.75
 20
185.85
 30
0.0
 11
459.75
 21
159.6499999999998
 31
0.0
  0
LINE
  5
F26F
330
F008
100
AcDbEntity
  8
1
  6
Continuous
100
AcDbLine
 10
447.05
 20
185.85
 30
0.0
 11
447.05
 21
182.2499999999998
 31
0.0
  0
LINE
  5
F270
330
F008
100
AcDbEntity
  8
1
  6
Continuous
100
AcDbLine
 10
453.75
 20
185.85
 30
0.0
 11
453.75
 21
182.2499999999998
 31
0.0
  0
LINE
  5
F271
330
F008
100
AcDbEntity
  8
1
  6
Continuous
100
AcDbLine
 10
404.4999999999998
 20
178.5
 30
0.0
 11
459.75
 21
178.5
 31
0.0
  0
LINE
  5
F272
330
F008
100
AcDbEntity
  8
1
  6
Continuous
100
AcDbLine
 10
447.05
 20
182.2499999999998
 30
0.0
 11
453.75
 21
182.2499999999998
 31
0.0
  0
LINE
  5
F273
330
F008
100
AcDbEntity
  8
1
  6
Continuous
100
AcDbLine
 10
404.4999999999998
 20
167.0
 30
0.0
 11
459.75
 21
167.0
 31
0.0
  0
LINE
  5
F274
330
F008
100
AcDbEntity
  8
1
  6
Continuous
100
AcDbLine
 10
447.05
 20
163.25
 30
0.0
 11
453.75
 21
163.25
 31
0.0
  0
LINE
  5
F275
330
F008
100
AcDbEntity
  8
1
  6
Continuous
100
AcDbLine
 10
453.75
 20
159.6499999999998
 30
0.0
 11
453.75
 21
163.25
 31
0.0
  0
LINE
  5
F276
330
F008
100
AcDbEntity
  8
1
  6
Continuous
100
AcDbLine
 10
447.05
 20
159.6499999999998
 30
0.0
 11
447.05
 21
163.25
 31
0.0
  0
ARC
  5
F277
330
F008
100
AcDbEntity
  8
1
  6
Continuous
100
AcDbCircle
 10
456.7499999999998
 20
159.08125
 30
0.0
 40
2.38125
100
AcDbArc
 50
13.81839
 51
166.18161
  0
ARC
  5
F278
330
F008
100
AcDbEntity
  8
1
  6
Continuous
100
AcDbCircle
 10
444.05
 20
159.08125
 30
0.0
 40
2.38125
100
AcDbArc
 50
13.81839
 51
166.18161
  0
ARC
  5
F279
330
F008
100
AcDbEntity
  8
1
  6
Continuous
100
AcDbCircle
 10
431.35
 20
159.08125
 30
0.0
 40
2.38125
100
AcDbArc
 50
13.81839
 51
166.18161
  0
ARC
  5
F27A
330
F008
100
AcDbEntity
  8
1
  6
Continuous
100
AcDbCircle
 10
418.6499999999998
 20
159.08125
 30
0.0
 40
2.38125
100
AcDbArc
 50
13.81839
 51
166.18161
  0
ARC
  5
F27B
330
F008
100
AcDbEntity
  8
1
  6
Continuous
100
AcDbCircle
 10
405.9499999999998
 20
159.08125
 30
0.0
 40
2.38125
100
AcDbArc
 50
13.81839
 51
127.511733
  0
CIRCLE
  5
F27C
330
F008
100
AcDbEntity
  8
1
  6
Continuous
100
AcDbCircle
 10
437.6999999999998
 20
172.75
 30
0.0
 40
2.0
  0
CIRCLE
  5
F27D
330
F008
100
AcDbEntity
  8
1
  6
Continuous
100
AcDbCircle
 10
425.0
 20
172.75
 30
0.0
 40
2.0
  0
CIRCLE
  5
F27E
330
F008
100
AcDbEntity
  8
1
  6
Continuous
100
AcDbCircle
 10
450.3999999999998
 20
172.75
 30
0.0
 40
2.0
  0
LINE
  5
F27F
330
F008
100
AcDbEntity
  8
1
  6
Continuous
100
AcDbLine
 10
441.0499999999998
 20
185.85
 30
0.0
 11
441.0499999999998
 21
182.2499999999998
 31
0.0
  0
LINE
  5
F280
330
F008
100
AcDbEntity
  8
1
  6
Continuous
100
AcDbLine
 10
434.35
 20
185.85
 30
0.0
 11
434.35
 21
182.2499999999998
 31
0.0
  0
LINE
  5
F281
330
F008
100
AcDbEntity
  8
1
  6
Continuous
100
AcDbLine
 10
434.35
 20
182.2499999999998
 30
0.0
 11
441.0499999999998
 21
182.2499999999998
 31
0.0
  0
LINE
  5
F282
330
F008
100
AcDbEntity
  8
1
  6
Continuous
100
AcDbLine
 10
434.35
 20
159.6499999999998
 30
0.0
 11
434.35
 21
163.25
 31
0.0
  0
LINE
  5
F283
330
F008
100
AcDbEntity
  8
1
  6
Continuous
100
AcDbLine
 10
441.0499999999998
 20
159.6499999999998
 30
0.0
 11
441.0499999999998
 21
163.25
 31
0.0
  0
LINE
  5
F284
330
F008
100
AcDbEntity
  8
1
  6
Continuous
100
AcDbLine
 10
434.35
 20
163.25
 30
0.0
 11
441.0499999999998
 21
163.25
 31
0.0
  0
LINE
  5
F285
330
F008
100
AcDbEntity
  8
1
  6
Continuous
100
AcDbLine
 10
421.6499999999999
 20
163.25
 30
0.0
 11
428.35
 21
163.25
 31
0.0
  0
LINE
  5
F286
330
F008
100
AcDbEntity
  8
1
  6
Continuous
100
AcDbLine
 10
428.35
 20
159.6499999999998
 30
0.0
 11
428.35
 21
163.25
 31
0.0
  0
LINE
  5
F287
330
F008
100
AcDbEntity
  8
1
  6
Continuous
100
AcDbLine
 10
421.6499999999999
 20
159.6499999999998
 30
0.0
 11
421.6499999999999
 21
163.25
 31
0.0
  0
LINE
  5
F288
330
F008
100
AcDbEntity
  8
1
  6
Continuous
100
AcDbLine
 10
421.6499999999999
 20
185.85
 30
0.0
 11
421.6499999999999
 21
182.2499999999998
 31
0.0
  0
LINE
  5
F289
330
F008
100
AcDbEntity
  8
1
  6
Continuous
100
AcDbLine
 10
428.35
 20
185.85
 30
0.0
 11
428.35
 21
182.2499999999998
 31
0.0
  0
LINE
  5
F28A
330
F008
100
AcDbEntity
  8
1
  6
Continuous
100
AcDbLine
 10
421.6499999999999
 20
182.2499999999998
 30
0.0
 11
428.35
 21
182.2499999999998
 31
0.0
  0
LINE
  5
F28B
330
F008
100
AcDbEntity
  8
1
  6
Continuous
100
AcDbLine
 10
415.6499999999998
 20
185.85
 30
0.0
 11
415.6499999999998
 21
182.2499999999998
 31
0.0
  0
LINE
  5
F28C
330
F008
100
AcDbEntity
  8
1
  6
Continuous
100
AcDbLine
 10
408.95
 20
185.85
 30
0.0
 11
408.95
 21
182.2499999999998
 31
0.0
  0
LINE
  5
F28D
330
F008
100
AcDbEntity
  8
1
  6
Continuous
100
AcDbLine
 10
408.95
 20
182.2499999999998
 30
0.0
 11
415.6499999999998
 21
182.2499999999998
 31
0.0
  0
LINE
  5
F28E
330
F008
100
AcDbEntity
  8
1
  6
Continuous
100
AcDbLine
 10
408.95
 20
163.25
 30
0.0
 11
415.6499999999998
 21
163.25
 31
0.0
  0
LINE
  5
F28F
330
F008
100
AcDbEntity
  8
1
  6
Continuous
100
AcDbLine
 10
408.95
 20
159.6499999999998
 30
0.0
 11
408.95
 21
163.25
 31
0.0
  0
LINE
  5
F290
330
F008
100
AcDbEntity
  8
1
  6
Continuous
100
AcDbLine
 10
415.6499999999998
 20
159.6499999999998
 30
0.0
 11
415.6499999999998
 21
163.25
 31
0.0
  0
LINE
  5
F291
330
F008
100
AcDbEntity
  8
1
  6
Continuous
100
AcDbLine
 10
402.9499999999998
 20
185.85
 30
0.0
 11
402.9499999999998
 21
185.0
 31
0.0
  0
LINE
  5
F292
330
F008
100
AcDbEntity
  8
1
  6
Continuous
100
AcDbLine
 10
390.25
 20
185.85
 30
0.0
 11
390.25
 21
185.0
 31
0.0
  0
LINE
  5
F293
330
F008
100
AcDbEntity
  8
1
  6
Continuous
100
AcDbLine
 10
396.25
 20
185.85
 30
0.0
 11
396.25
 21
185.0
 31
0.0
  0
LINE
  5
F294
330
F008
100
AcDbEntity
  8
1
  6
Continuous
100
AcDbLine
 10
383.55
 20
185.85
 30
0.0
 11
383.55
 21
185.0
 31
0.0
  0
LINE
  5
F295
330
F008
100
AcDbEntity
  8
1
  6
Continuous
100
AcDbLine
 10
377.55
 20
185.85
 30
0.0
 11
377.55
 21
185.0
 31
0.0
  0
LINE
  5
F296
330
F008
100
AcDbEntity
  8
1
  6
Continuous
100
AcDbLine
 10
370.85
 20
185.85
 30
0.0
 11
370.85
 21
185.0
 31
0.0
  0
LINE
  5
F297
330
F008
100
AcDbEntity
  8
1
  6
Continuous
100
AcDbLine
 10
364.85
 20
185.85
 30
0.0
 11
364.85
 21
185.0
 31
0.0
  0
LINE
  5
F298
330
F008
100
AcDbEntity
  8
1
  6
Continuous
100
AcDbLine
 10
358.1499999999999
 20
185.85
 30
0.0
 11
358.1499999999999
 21
185.0
 31
0.0
  0
LINE
  5
F299
330
F008
100
AcDbEntity
  8
1
  6
Continuous
100
AcDbLine
 10
352.1499999999999
 20
185.85
 30
0.0
 11
352.1499999999999
 21
185.0
 31
0.0
  0
LINE
  5
F29A
330
F008
100
AcDbEntity
  8
1
  6
Continuous
100
AcDbLine
 10
339.4499999999998
 20
185.85
 30
0.0
 11
339.4499999999998
 21
185.0
 31
0.0
  0
LINE
  5
F29B
330
F008
100
AcDbEntity
  8
1
  6
Continuous
100
AcDbLine
 10
345.4499999999999
 20
185.85
 30
0.0
 11
345.4499999999999
 21
185.0
 31
0.0
  0
LINE
  5
F29C
330
F008
100
AcDbEntity
  8
1
  6
Continuous
100
AcDbLine
 10
332.75
 20
185.85
 30
0.0
 11
332.75
 21
185.0
 31
0.0
  0
LINE
  5
F29D
330
F008
100
AcDbEntity
  8
1
  6
Continuous
100
AcDbLine
 10
326.75
 20
185.85
 30
0.0
 11
326.75
 21
185.0
 31
0.0
  0
LINE
  5
F29E
330
F008
100
AcDbEntity
  8
1
  6
Continuous
100
AcDbLine
 10
396.25
 20
159.6499999999998
 30
0.0
 11
396.25
 21
160.4999999999998
 31
0.0
  0
LINE
  5
F29F
330
F008
100
AcDbEntity
  8
1
  6
Continuous
100
AcDbLine
 10
390.25
 20
159.6499999999998
 30
0.0
 11
390.25
 21
160.4999999999998
 31
0.0
  0
LINE
  5
F2A0
330
F008
100
AcDbEntity
  8
1
  6
Continuous
100
AcDbLine
 10
383.55
 20
159.6499999999998
 30
0.0
 11
383.55
 21
160.4999999999998
 31
0.0
  0
LINE
  5
F2A1
330
F008
100
AcDbEntity
  8
1
  6
Continuous
100
AcDbLine
 10
377.55
 20
159.6499999999998
 30
0.0
 11
377.55
 21
160.4999999999998
 31
0.0
  0
LINE
  5
F2A2
330
F008
100
AcDbEntity
  8
1
  6
Continuous
100
AcDbLine
 10
370.85
 20
159.6499999999998
 30
0.0
 11
370.85
 21
160.4999999999998
 31
0.0
  0
LINE
  5
F2A3
330
F008
100
AcDbEntity
  8
1
  6
Continuous
100
AcDbLine
 10
364.85
 20
159.6499999999998
 30
0.0
 11
364.85
 21
160.4999999999998
 31
0.0
  0
LINE
  5
F2A4
330
F008
100
AcDbEntity
  8
1
  6
Continuous
100
AcDbLine
 10
358.1499999999999
 20
159.6499999999998
 30
0.0
 11
358.1499999999999
 21
160.4999999999998
 31
0.0
  0
LINE
  5
F2A5
330
F008
100
AcDbEntity
  8
1
  6
Continuous
100
AcDbLine
 10
352.1499999999999
 20
159.6499999999998
 30
0.0
 11
352.1499999999999
 21
160.4999999999998
 31
0.0
  0
LINE
  5
F2A6
330
F008
100
AcDbEntity
  8
1
  6
Continuous
100
AcDbLine
 10
339.4499999999998
 20
159.6499999999998
 30
0.0
 11
339.4499999999998
 21
160.4999999999998
 31
0.0
  0
LINE
  5
F2A7
330
F008
100
AcDbEntity
  8
1
  6
Continuous
100
AcDbLine
 10
345.4499999999999
 20
159.6499999999998
 30
0.0
 11
345.4499999999999
 21
160.4999999999998
 31
0.0
  0
LINE
  5
F2A8
330
F008
100
AcDbEntity
  8
1
  6
Continuous
100
AcDbLine
 10
332.75
 20
159.6499999999998
 30
0.0
 11
332.75
 21
160.4999999999998
 31
0.0
  0
LINE
  5
F2A9
330
F008
100
AcDbEntity
  8
1
  6
Continuous
100
AcDbLine
 10
326.75
 20
159.6499999999998
 30
0.0
 11
326.75
 21
160.4999999999998
 31
0.0
  0
LINE
  5
F2AA
330
F008
100
AcDbEntity
  8
1
  6
Continuous
100
AcDbLine
 10
404.4999999999998
 20
177.2499999999998
 30
0.0
 11
411.1499999999998
 21
177.2499999999998
 31
0.0
  0
LINE
  5
F2AB
330
F008
100
AcDbEntity
  8
1
  6
Continuous
100
AcDbLine
 10
404.4999999999998
 20
168.25
 30
0.0
 11
411.1499999999998
 21
168.25
 31
0.0
  0
ARC
  5
F2AC
330
F008
100
AcDbEntity
  8
1
  6
Continuous
100
AcDbCircle
 10
411.1499999999998
 20
172.75
 30
0.0
 40
4.5
100
AcDbArc
 50
270.0
 51
90.0
  0
LINE
  5
F2AD
330
F008
100
AcDbEntity
  8
1
  6
Continuous
100
AcDbLine
 10
274.0
 20
169.0
 30
0.0
 11
274.0
 21
176.5
 31
0.0
  0
ARC
  5
F2AE
330
F008
100
AcDbEntity
  8
1
  6
Continuous
100
AcDbCircle
 10
276.5
 20
169.0
 30
0.0
 40
2.5
100
AcDbArc
 50
180.0
 51
0.0
  0
ARC
  5
F2AF
330
F008
100
AcDbEntity
  8
1
  6
Continuous
100
AcDbCircle
 10
276.5
 20
176.5
 30
0.0
 40
2.5
100
AcDbArc
 50
0.0
 51
180.0
  0
LINE
  5
F2B0
330
F008
100
AcDbEntity
  8
1
  6
Continuous
100
AcDbLine
 10
279.0
 20
169.0
 30
0.0
 11
279.0
 21
176.5
 31
0.0
  0
LINE
  5
F2B1
330
F008
100
AcDbEntity
  8
1
  6
Continuous
100
AcDbLine
 10
459.75
 20
176.75
 30
0.0
 11
481.25
 21
176.75
 31
0.0
  0
LINE
  5
F2B2
330
F008
100
AcDbEntity
  8
1
  6
Continuous
100
AcDbLine
 10
459.75
 20
168.75
 30
0.0
 11
481.25
 21
168.75
 31
0.0
  0
LINE
  5
F2B3
330
F008
100
AcDbEntity
  8
1
  6
Continuous
100
AcDbLine
 10
476.25
 20
174.75
 30
0.0
 11
481.25
 21
174.75
 31
0.0
  0
LINE
  5
F2B4
330
F008
100
AcDbEntity
  8
1
  6
Continuous
100
AcDbLine
 10
476.25
 20
170.75
 30
0.0
 11
481.25
 21
170.75
 31
0.0
  0
LINE
  5
F2B5
330
F008
100
AcDbEntity
  8
1
  6
Continuous
100
AcDbLine
 10
481.25
 20
176.75
 30
0.0
 11
481.25
 21
174.9499999999999
 31
0.0
  0
LINE
  5
F2B6
330
F008
100
AcDbEntity
  8
1
  6
Continuous
100
AcDbLine
 10
476.25
 20
174.75
 30
0.0
 11
476.25
 21
170.75
 31
0.0
  0
LINE
  5
F2B7
330
F008
100
AcDbEntity
  8
1
  6
Continuous
100
AcDbLine
 10
478.75
 20
174.9499999999999
 30
0.0
 11
478.75
 21
174.75
 31
0.0
  0
LINE
  5
F2B8
330
F008
100
AcDbEntity
  8
1
  6
Continuous
100
AcDbLine
 10
478.75
 20
174.9499999999999
 30
0.0
 11
481.25
 21
174.9499999999999
 31
0.0
  0
LINE
  5
F2B9
330
F008
100
AcDbEntity
  8
1
  6
Continuous
100
AcDbLine
 10
478.75
 20
170.55
 30
0.0
 11
481.25
 21
170.55
 31
0.0
  0
LINE
  5
F2BA
330
F008
100
AcDbEntity
  8
1
  6
Continuous
100
AcDbLine
 10
478.75
 20
170.75
 30
0.0
 11
478.75
 21
170.55
 31
0.0
  0
LINE
  5
F2BB
330
F008
100
AcDbEntity
  8
1
  6
Continuous
100
AcDbLine
 10
481.25
 20
170.55
 30
0.0
 11
481.25
 21
168.75
 31
0.0
  0
LINE
  5
F2BC
330
F008
100
AcDbEntity
  8
1
  6
Continuous
100
AcDbLine
 10
481.25
 20
174.75
 30
0.0
 11
481.25
 21
170.75
 31
0.0
  0
LINE
  5
F2BD
330
F008
100
AcDbEntity
  8
4
  6
CENTER
100
AcDbLine
 10
578.0
 20
163.75
 30
0.0
 11
578.0
 21
181.75
 31
0.0
  0
CIRCLE
  5
F2BE
330
F008
100
AcDbEntity
  8
1
  6
Continuous
100
AcDbCircle
 10
578.0
 20
172.75
 30
0.0
 40
6.0
  0
LINE
  5
F2BF
330
F008
100
AcDbEntity
  8
1
  6
Continuous
100
AcDbLine
 10
566.764624
 20
179.095575
 30
0.0
 11
578.199924
 21
180.3137309999999
 31
0.0
  0
LINE
  5
F2C0
330
F008
100
AcDbEntity
  8
1
  6
Continuous
100
AcDbLine
 10
574.763991
 20
165.365676
 30
0.0
 11
579.7358599999999
 21
165.8953089999999
 31
0.0
  0
LINE
  5
F2C1
330
F008
100
AcDbEntity
  8
1
  6
Continuous
100
AcDbLine
 10
565.7991919999998
 20
169.277458
 30
0.0
 11
564.9877289999998
 21
176.894974
 31
0.0
  0
LINE
  5
F2C2
330
F008
100
AcDbEntity
  8
1
  6
Continuous
100
AcDbLine
 10
600.7441570000001
 20
171.65304
 30
0.0
 11
599.674389
 21
181.6953649999999
 31
0.0
  0
LINE
  5
F2C3
330
F008
100
AcDbEntity
  8
1
  6
Continuous
100
AcDbLine
 10
596.4813279999998
 20
169.187623
 30
0.0
 11
598.967262
 21
169.4524389999999
 31
0.0
  0
LINE
  5
F2C4
330
F008
100
AcDbEntity
  8
1
  6
Continuous
100
AcDbLine
 10
567.226621
 20
167.5696969999999
 30
0.0
 11
574.763991
 21
165.365676
 31
0.0
  0
ARC
  5
F2C5
330
F008
100
AcDbEntity
  8
1
  6
Continuous
100
AcDbCircle
 10
567.7879400000001
 20
169.489312
 30
0.0
 40
2.0
100
AcDbArc
 50
186.080556
 51
253.700421
  0
LINE
  5
F2C6
330
F008
100
AcDbEntity
  8
1
  6
Continuous
100
AcDbLine
 10
599.5
 20
164.1
 30
0.0
 11
599.5
 21
169.5849589999999
 31
0.0
  0
LINE
  5
F2C7
330
F008
100
AcDbEntity
  8
1
  6
Continuous
100
AcDbLine
 10
584.4999999999997
 20
164.1
 30
0.0
 11
584.4999999999997
 21
167.459404
 31
0.0
  0
LINE
  5
F2C8
330
F008
100
AcDbEntity
  8
1
  6
Continuous
100
AcDbLine
 10
585.5
 20
163.1
 30
0.0
 11
598.5
 21
163.1
 31
0.0
  0
ARC
  5
F2C9
330
F008
100
AcDbEntity
  8
1
  6
Continuous
100
AcDbCircle
 10
598.5
 20
164.1
 30
0.0
 40
1.0
100
AcDbArc
 50
270.0
 51
0.0
  0
ARC
  5
F2CA
330
F008
100
AcDbEntity
  8
1
  6
Continuous
100
AcDbCircle
 10
585.5
 20
164.1
 30
0.0
 40
1.0
100
AcDbArc
 50
180.0
 51
270.0
  0
LINE
  5
F2CB
330
F008
100
AcDbEntity
  8
1
  6
Continuous
100
AcDbLine
 10
586.537588
 20
168.1283559999999
 30
0.0
 11
579.7358599999999
 21
165.8953089999999
 31
0.0
  0
LINE
  5
F2CC
330
F008
100
AcDbEntity
  8
1
  6
Continuous
100
AcDbLine
 10
586.537588
 20
168.1283559999999
 30
0.0
 11
586.9612949999998
 21
164.1508609999999
 31
0.0
  0
LINE
  5
F2CD
330
F008
100
AcDbEntity
  8
1
  6
Continuous
100
AcDbLine
 10
596.4813279999998
 20
169.187623
 30
0.0
 11
596.9050339999999
 21
165.2101269999998
 31
0.0
  0
ARC
  5
F2CE
330
F008
100
AcDbEntity
  8
1
  6
Continuous
100
AcDbCircle
 10
598.7554089999997
 20
171.441187
 30
0.0
 40
2.0
100
AcDbArc
 50
276.080556
 51
6.080555999999999
  0
LINE
  5
F2CF
330
F008
100
AcDbEntity
  8
1
  6
Continuous
100
AcDbLine
 10
578.199924
 20
180.3137309999999
 30
0.0
 11
582.4951999999998
 21
177.754316
 31
0.0
  0
LINE
  5
F2D0
330
F008
100
AcDbEntity
  8
1
  6
Continuous
100
AcDbLine
 10
582.4951999999998
 20
177.754316
 30
0.0
 11
585.4783219999998
 21
178.072096
 31
0.0
  0
LINE
  5
F2D1
330
F008
100
AcDbEntity
  8
1
  6
Continuous
100
AcDbLine
 10
585.2808259999997
 20
179.926062
 30
0.0
 11
585.4783219999998
 21
178.072096
 31
0.0
  0
LINE
  5
F2D2
330
F008
100
AcDbEntity
  8
1
  6
Continuous
100
AcDbLine
 10
586.9612949999998
 20
164.1508609999999
 30
0.0
 11
596.9050339999999
 21
165.2101269999998
 31
0.0
  0
LINE
  5
F2D3
330
F008
100
AcDbEntity
  8
1
  6
Continuous
100
AcDbLine
 10
595.1360589999998
 20
181.8161719999999
 30
0.0
 11
585.4783219999998
 21
178.072096
 31
0.0
  0
ARC
  5
F2D4
330
F008
100
AcDbEntity
  8
1
  6
Continuous
100
AcDbCircle
 10
566.9764769999998
 20
177.106827
 30
0.0
 40
2.0
100
AcDbArc
 50
96.080556
 51
186.080556
  0
LINE
  5
F2D5
330
F008
100
AcDbEntity
  8
1
  6
Continuous
100
AcDbLine
 10
595.1360589999998
 20
181.8161719999999
 30
0.0
 11
599.896744
 21
179.608032
 31
0.0
  0
ARC
  5
F2D6
330
F008
100
AcDbEntity
  8
1
  6
Continuous
100
AcDbCircle
 10
595.1360589999998
 20
181.8161719999999
 30
0.0
 40
1.8
100
AcDbArc
 50
65.1168
 51
111.190132
  0
LINE
  5
F2D7
330
F008
100
AcDbEntity
  8
1
  6
Continuous
100
AcDbLine
 10
594.4854239999997
 20
183.4944669999999
 30
0.0
 11
585.2808259999997
 21
179.926062
 31
0.0
  0
LINE
  5
F2D8
330
F008
100
AcDbEntity
  8
1
  6
Continuous
100
AcDbLine
 10
595.893445
 20
183.4490729999999
 30
0.0
 11
599.674389
 21
181.6953649999999
 31
0.0
  0
LINE
  5
F2D9
330
F008
100
AcDbEntity
  8
1
  6
Continuous
100
AcDbLine
 10
276.5
 20
176.547908
 30
0.0
 11
276.5
 21
168.9520919999999
 31
0.0
  0
LINE
  5
F2DA
330
F008
100
AcDbEntity
  8
1
  6
Continuous
100
AcDbLine
 10
277.1603559999999
 20
177.4884619999999
 30
0.0
 11
278.516247
 21
177.9780889999999
 31
0.0
  0
ARC
  5
F2DB
330
F008
100
AcDbEntity
  8
1
  6
Continuous
100
AcDbCircle
 10
277.4999999999999
 20
176.547908
 30
0.0
 40
1.0
100
AcDbArc
 50
109.855214
 51
180.0
  0
ARC
  5
F2DC
330
F008
100
AcDbEntity
  8
1
  6
Continuous
100
AcDbCircle
 10
277.4999999999999
 20
168.9520919999999
 30
0.0
 40
1.0
100
AcDbArc
 50
180.0
 51
250.144786
  0
LINE
  5
F2DD
330
F008
100
AcDbEntity
  8
1
  6
Continuous
100
AcDbLine
 10
277.1603559999999
 20
168.011538
 30
0.0
 11
278.516247
 21
167.521911
 31
0.0
  0
LINE
  5
F2DE
330
F008
100
AcDbEntity
  8
1
  6
Continuous
100
AcDbLine
 10
602.8999999999999
 20
295.0
 30
0.0
 11
602.8999999999999
 21
295.8
 31
0.0
  0
LINE
  5
F2DF
330
F008
100
AcDbEntity
  8
1
  6
Continuous
100
AcDbLine
 10
299.5
 20
294.8999999999998
 30
0.0
 11
299.5
 21
286.2
 31
0.0
  0
LINE
  5
F2E0
330
F008
100
AcDbEntity
  8
1
  6
Continuous
100
AcDbLine
 10
404.4999999999998
 20
285.3999999999999
 30
0.0
 11
404.4999999999998
 21
286.2
 31
0.0
  0
LINE
  5
F2E1
330
F008
100
AcDbEntity
  8
1
  6
Continuous
100
AcDbLine
 10
604.4999999999999
 20
294.8999999999998
 30
0.0
 11
604.4999999999999
 21
286.2
 31
0.0
  0
LINE
  5
F2E2
330
F008
100
AcDbEntity
  8
4
  6
CENTER
100
AcDbLine
 10
578.0
 20
288.9125609999999
 30
0.0
 11
578.0
 21
300.449154
 31
0.0
  0
LINE
  5
F2E3
330
F008
100
AcDbEntity
  8
4
  6
CENTER
100
AcDbLine
 10
391.3999999999999
 20
279.274712
 30
0.0
 11
391.3999999999999
 21
289.774712
 31
0.0
  0
LINE
  5
F2E4
330
F008
100
AcDbEntity
  8
4
  6
CENTER
100
AcDbLine
 10
378.6999999999999
 20
279.274712
 30
0.0
 11
378.6999999999999
 21
289.774712
 31
0.0
  0
LINE
  5
F2E5
330
F008
100
AcDbEntity
  8
4
  6
CENTER
100
AcDbLine
 10
242.2
 20
279.274712
 30
0.0
 11
242.2
 21
289.774712
 31
0.0
  0
LINE
  5
F2E6
330
F008
100
AcDbEntity
  8
4
  6
CENTER
100
AcDbLine
 10
131.0999999999999
 20
279.274712
 30
0.0
 11
131.0999999999999
 21
289.774712
 31
0.0
  0
LINE
  5
F2E7
330
F008
100
AcDbEntity
  8
4
  6
CENTER
100
AcDbLine
 10
118.4
 20
279.274712
 30
0.0
 11
118.4
 21
289.774712
 31
0.0
  0
LINE
  5
F2E8
330
F008
100
AcDbEntity
  8
1
  6
Continuous
100
AcDbLine
 10
276.5
 20
292.8999999999998
 30
0.0
 11
280.5
 21
295.3999999999999
 31
0.0
  0
LINE
  5
F2E9
330
F008
100
AcDbEntity
  8
1
  6
Continuous
100
AcDbLine
 10
280.5
 20
295.3999999999999
 30
0.0
 11
299.5
 21
293.3
 31
0.0
  0
LINE
  5
F2EA
330
F008
100
AcDbEntity
  8
1
  6
Continuous
100
AcDbLine
 10
280.6883369999998
 20
294.574312
 30
0.0
 11
299.5
 21
292.4951279999999
 31
0.0
  0
LINE
  5
F2EB
330
F008
100
AcDbEntity
  8
1
  6
Continuous
100
AcDbLine
 10
276.9239989999999
 20
292.2216009999999
 30
0.0
 11
280.6883369999998
 21
294.574312
 31
0.0
  0
LINE
  5
F2EC
330
F008
100
AcDbEntity
  8
1
  6
Continuous
100
AcDbLine
 10
299.5
 20
399.5
 30
0.0
 11
734.4999999999998
 21
399.5
 31
0.0
  0
LINE
  5
F2ED
330
F008
100
AcDbEntity
  8
1
  6
Continuous
100
AcDbLine
 10
299.5
 20
434.7999999999998
 30
0.0
 11
734.4999999999998
 21
434.7999999999998
 31
0.0
  0
LINE
  5
F2EE
330
F008
100
AcDbEntity
  8
4
  6
CENTER
100
AcDbLine
 10
97.5
 20
417.1499999999999
 30
0.0
 11
739.5
 21
417.1499999999999
 31
0.0
  0
LINE
  5
F2EF
330
F008
100
AcDbEntity
  8
1
  6
Continuous
100
AcDbLine
 10
102.4999999999999
 20
404.8999999999998
 30
0.0
 11
299.5
 21
404.8999999999998
 31
0.0
  0
LINE
  5
F2F0
330
F008
100
AcDbEntity
  8
1
  6
Continuous
100
AcDbLine
 10
102.4999999999999
 20
429.3999999999998
 30
0.0
 11
299.5
 21
429.3999999999998
 31
0.0
  0
LINE
  5
F2F1
330
F008
100
AcDbEntity
  8
1
  6
Continuous
100
AcDbLine
 10
102.4999999999999
 20
404.8999999999998
 30
0.0
 11
102.4999999999999
 21
429.3999999999998
 31
0.0
  0
LINE
  5
F2F2
330
F008
100
AcDbEntity
  8
1
  6
Continuous
100
AcDbLine
 10
116.1499999999999
 20
416.75
 30
0.0
 11
116.1499999999999
 21
417.55
 31
0.0
  0
LINE
  5
F2F3
330
F008
100
AcDbEntity
  8
4
  6
CENTER
100
AcDbLine
 10
118.4
 20
411.8999999999998
 30
0.0
 11
118.4
 21
422.4
 31
0.0
  0
LINE
  5
F2F4
330
F008
100
AcDbEntity
  8
1
  6
Continuous
100
AcDbLine
 10
120.65
 20
416.75
 30
0.0
 11
120.65
 21
417.55
 31
0.0
  0
ARC
  5
F2F5
330
F008
100
AcDbEntity
  8
1
  6
Continuous
100
AcDbCircle
 10
118.4
 20
416.75
 30
0.0
 40
2.25
100
AcDbArc
 50
180.0
 51
0.0
  0
ARC
  5
F2F6
330
F008
100
AcDbEntity
  8
1
  6
Continuous
100
AcDbCircle
 10
118.4
 20
417.55
 30
0.0
 40
2.25
100
AcDbArc
 50
0.0
 51
180.0
  0
ARC
  5
F2F7
330
F008
100
AcDbEntity
  8
1
  6
Continuous
100
AcDbCircle
 10
131.0999999999999
 20
417.55
 30
0.0
 40
2.25
100
AcDbArc
 50
0.0
 51
180.0
  0
ARC
  5
F2F8
330
F008
100
AcDbEntity
  8
1
  6
Continuous
100
AcDbCircle
 10
131.0999999999999
 20
416.75
 30
0.0
 40
2.25
100
AcDbArc
 50
180.0
 51
0.0
  0
LINE
  5
F2F9
330
F008
100
AcDbEntity
  8
1
  6
Continuous
100
AcDbLine
 10
133.3499999999999
 20
416.75
 30
0.0
 11
133.3499999999999
 21
417.55
 31
0.0
  0
LINE
  5
F2FA
330
F008
100
AcDbEntity
  8
4
  6
CENTER
100
AcDbLine
 10
131.0999999999999
 20
411.8999999999998
 30
0.0
 11
131.0999999999999
 21
422.4
 31
0.0
  0
LINE
  5
F2FB
330
F008
100
AcDbEntity
  8
1
  6
Continuous
100
AcDbLine
 10
128.8499999999999
 20
416.75
 30
0.0
 11
128.8499999999999
 21
417.55
 31
0.0
  0
ARC
  5
F2FC
330
F008
100
AcDbEntity
  8
1
  6
Continuous
100
AcDbCircle
 10
242.6
 20
417.1499999999999
 30
0.0
 40
2.25
100
AcDbArc
 50
270.0
 51
90.0
  0
ARC
  5
F2FD
330
F008
100
AcDbEntity
  8
1
  6
Continuous
100
AcDbCircle
 10
241.8
 20
417.1499999999999
 30
0.0
 40
2.25
100
AcDbArc
 50
90.0
 51
270.0
  0
LINE
  5
F2FE
330
F008
100
AcDbEntity
  8
1
  6
Continuous
100
AcDbLine
 10
241.8
 20
414.9
 30
0.0
 11
242.6
 21
414.9
 31
0.0
  0
LINE
  5
F2FF
330
F008
100
AcDbEntity
  8
4
  6
CENTER
100
AcDbLine
 10
242.2
 20
411.8999999999998
 30
0.0
 11
242.2
 21
422.4
 31
0.0
  0
LINE
  5
F300
330
F008
100
AcDbEntity
  8
1
  6
Continuous
100
AcDbLine
 10
241.8
 20
419.3999999999999
 30
0.0
 11
242.6
 21
419.3999999999999
 31
0.0
  0
LINE
  5
F301
330
F008
100
AcDbEntity
  8
1
  6
Continuous
100
AcDbLine
 10
429.4999999999998
 20
424.65
 30
0.0
 11
429.4999999999998
 21
434.7999999999998
 31
0.0
  0
LINE
  5
F302
330
F008
100
AcDbEntity
  8
1
  6
Continuous
100
AcDbLine
 10
299.5
 20
399.5
 30
0.0
 11
299.5
 21
434.7999999999998
 31
0.0
  0
LINE
  5
F303
330
F008
100
AcDbEntity
  8
1
  6
Continuous
100
AcDbLine
 10
277.1603559999999
 20
412.411538
 30
0.0
 11
285.5
 21
409.3999999999998
 31
0.0
  0
LINE
  5
F304
330
F008
100
AcDbEntity
  8
1
  6
Continuous
100
AcDbLine
 10
277.1603559999999
 20
421.8884619999998
 30
0.0
 11
285.5
 21
424.8999999999998
 31
0.0
  0
LINE
  5
F305
330
F008
100
AcDbEntity
  8
1
  6
Continuous
100
AcDbLine
 10
276.5
 20
420.9479079999998
 30
0.0
 11
276.5
 21
413.3520919999998
 31
0.0
  0
ARC
  5
F306
330
F008
100
AcDbEntity
  8
1
  6
Continuous
100
AcDbCircle
 10
277.4999999999999
 20
413.3520919999998
 30
0.0
 40
1.0
100
AcDbArc
 50
180.0
 51
250.144786
  0
ARC
  5
F307
330
F008
100
AcDbEntity
  8
1
  6
Continuous
100
AcDbCircle
 10
277.4999999999999
 20
420.9479079999998
 30
0.0
 40
1.0
100
AcDbArc
 50
109.855214
 51
180.0
  0
ARC
  5
F308
330
F008
100
AcDbEntity
  8
1
  6
Continuous
100
AcDbCircle
 10
276.5
 20
420.8999999999998
 30
0.0
 40
2.5
100
AcDbArc
 50
36.244746
 51
180.0
  0
ARC
  5
F309
330
F008
100
AcDbEntity
  8
1
  6
Continuous
100
AcDbCircle
 10
276.5
 20
413.3999999999998
 30
0.0
 40
2.5
100
AcDbArc
 50
180.0
 51
323.7552539999999
  0
LINE
  5
F30A
330
F008
100
AcDbEntity
  8
1
  6
Continuous
100
AcDbLine
 10
274.0
 20
413.3999999999998
 30
0.0
 11
274.0
 21
420.8999999999998
 31
0.0
  0
ARC
  5
F30B
330
F008
100
AcDbEntity
  8
1
  6
Continuous
100
AcDbCircle
 10
458.1
 20
417.55
 30
0.0
 40
2.25
100
AcDbArc
 50
0.0
 51
180.0
  0
ARC
  5
F30C
330
F008
100
AcDbEntity
  8
1
  6
Continuous
100
AcDbCircle
 10
458.1
 20
416.75
 30
0.0
 40
2.25
100
AcDbArc
 50
180.0
 51
0.0
  0
LINE
  5
F30D
330
F008
100
AcDbEntity
  8
1
  6
Continuous
100
AcDbLine
 10
460.35
 20
416.75
 30
0.0
 11
460.35
 21
417.55
 31
0.0
  0
LINE
  5
F30E
330
F008
100
AcDbEntity
  8
4
  6
CENTER
100
AcDbLine
 10
378.6999999999999
 20
411.8999999999998
 30
0.0
 11
378.6999999999999
 21
422.4
 31
0.0
  0
LINE
  5
F30F
330
F008
100
AcDbEntity
  8
1
  6
Continuous
100
AcDbLine
 10
455.85
 20
416.75
 30
0.0
 11
455.85
 21
417.55
 31
0.0
  0
ARC
  5
F310
330
F008
100
AcDbEntity
  8
1
  6
Continuous
100
AcDbCircle
 10
445.3999999999998
 20
417.55
 30
0.0
 40
2.25
100
AcDbArc
 50
0.0
 51
180.0
  0
ARC
  5
F311
330
F008
100
AcDbEntity
  8
1
  6
Continuous
100
AcDbCircle
 10
445.3999999999998
 20
416.75
 30
0.0
 40
2.25
100
AcDbArc
 50
180.0
 51
0.0
  0
LINE
  5
F312
330
F008
100
AcDbEntity
  8
1
  6
Continuous
100
AcDbLine
 10
447.6499999999998
 20
416.75
 30
0.0
 11
447.6499999999998
 21
417.55
 31
0.0
  0
LINE
  5
F313
330
F008
100
AcDbEntity
  8
4
  6
CENTER
100
AcDbLine
 10
391.3999999999999
 20
411.8999999999998
 30
0.0
 11
391.3999999999999
 21
422.4
 31
0.0
  0
LINE
  5
F314
330
F008
100
AcDbEntity
  8
1
  6
Continuous
100
AcDbLine
 10
443.1499999999998
 20
416.75
 30
0.0
 11
443.1499999999998
 21
417.55
 31
0.0
  0
LINE
  5
F315
330
F008
100
AcDbEntity
  8
1
  6
Continuous
100
AcDbLine
 10
429.4999999999998
 20
409.6499999999998
 30
0.0
 11
429.4999999999998
 21
399.5
 31
0.0
  0
LINE
  5
F316
330
F008
100
AcDbEntity
  8
1
  6
Continuous
100
AcDbLine
 10
432.0
 20
409.6499999999998
 30
0.0
 11
429.4999999999998
 21
409.6499999999998
 31
0.0
  0
LINE
  5
F317
330
F008
100
AcDbEntity
  8
1
  6
Continuous
100
AcDbLine
 10
432.0
 20
409.6499999999998
 30
0.0
 11
432.0
 21
424.65
 31
0.0
  0
LINE
  5
F318
330
F008
100
AcDbEntity
  8
1
  6
Continuous
100
AcDbLine
 10
432.0
 20
424.65
 30
0.0
 11
429.4999999999998
 21
424.65
 31
0.0
  0
LINE
  5
F319
330
F008
100
AcDbEntity
  8
4
  6
CENTER
100
AcDbLine
 10
445.3999999999998
 20
422.4
 30
0.0
 11
445.3999999999998
 21
411.8999999999998
 31
0.0
  0
LINE
  5
F31A
330
F008
100
AcDbEntity
  8
4
  6
CENTER
100
AcDbLine
 10
458.1
 20
422.4
 30
0.0
 11
458.1
 21
411.8999999999998
 31
0.0
  0
LINE
  5
F31B
330
F008
100
AcDbEntity
  8
4
  6
CENTER
100
AcDbLine
 10
470.8
 20
422.4
 30
0.0
 11
470.8
 21
411.8999999999998
 31
0.0
  0
LINE
  5
F31C
330
F008
100
AcDbEntity
  8
3
  6
DASHED
100
AcDbLine
 10
604.4999999999999
 20
405.6499999999998
 30
0.0
 11
604.4999999999999
 21
428.65
 31
0.0
  0
LINE
  5
F31D
330
F008
100
AcDbEntity
  8
1
  6
Continuous
100
AcDbLine
 10
734.4999999999998
 20
405.6499999999998
 30
0.0
 11
734.4999999999998
 21
428.65
 31
0.0
  0
LINE
  5
F31E
330
F008
100
AcDbEntity
  8
4
  6
CENTER
100
AcDbLine
 10
556.5
 20
422.4
 30
0.0
 11
556.5
 21
411.8999999999998
 31
0.0
  0
LINE
  5
F31F
330
F008
100
AcDbEntity
  8
4
  6
CENTER
100
AcDbLine
 10
578.0
 20
408.15
 30
0.0
 11
578.0
 21
426.1499999999998
 31
0.0
  0
LINE
  5
F320
330
F008
100
AcDbEntity
  8
3
  6
DASHED
100
AcDbLine
 10
602.2710089999999
 20
404.3368169999998
 30
0.0
 11
604.1467159999997
 21
402.004976
 31
0.0
  0
LINE
  5
F321
330
F008
100
AcDbEntity
  8
3
  6
DASHED
100
AcDbLine
 10
604.4999999999999
 20
399.5
 30
0.0
 11
604.4999999999999
 21
401.0021309999998
 31
0.0
  0
ARC
  5
F322
330
F008
100
AcDbEntity
  8
3
  6
DASHED
100
AcDbCircle
 10
602.8999999999999
 20
401.0021309999998
 30
0.0
 40
1.6
100
AcDbArc
 50
0.0
 51
38.812815
  0
LINE
  5
F323
330
F008
100
AcDbEntity
  8
3
  6
DASHED
100
AcDbLine
 10
602.8999999999999
 20
405.6499999999998
 30
0.0
 11
604.4999999999999
 21
405.6499999999998
 31
0.0
  0
ARC
  5
F324
330
F008
100
AcDbEntity
  8
3
  6
DASHED
100
AcDbCircle
 10
602.8999999999999
 20
404.8427709999998
 30
0.0
 40
0.8072289999999997
100
AcDbArc
 50
90.0
 51
218.812815
  0
ARC
  5
F325
330
F008
100
AcDbEntity
  8
1
  6
Continuous
100
AcDbCircle
 10
705.7000000000003
 20
417.55
 30
0.0
 40
2.25
100
AcDbArc
 50
0.0
 51
180.0
  0
ARC
  5
F326
330
F008
100
AcDbEntity
  8
1
  6
Continuous
100
AcDbCircle
 10
705.7000000000003
 20
416.75
 30
0.0
 40
2.25
100
AcDbArc
 50
180.0
 51
0.0
  0
LINE
  5
F327
330
F008
100
AcDbEntity
  8
1
  6
Continuous
100
AcDbLine
 10
703.4500000000001
 20
417.55
 30
0.0
 11
703.4500000000001
 21
416.75
 31
0.0
  0
LINE
  5
F328
330
F008
100
AcDbEntity
  8
4
  6
CENTER
100
AcDbLine
 10
705.7000000000003
 20
422.4
 30
0.0
 11
705.7000000000003
 21
411.8999999999998
 31
0.0
  0
LINE
  5
F329
330
F008
100
AcDbEntity
  8
1
  6
Continuous
100
AcDbLine
 10
707.9500000000003
 20
417.55
 30
0.0
 11
707.9500000000003
 21
416.75
 31
0.0
  0
ARC
  5
F32A
330
F008
100
AcDbEntity
  8
1
  6
Continuous
100
AcDbCircle
 10
718.4
 20
417.55
 30
0.0
 40
2.25
100
AcDbArc
 50
0.0
 51
180.0
  0
ARC
  5
F32B
330
F008
100
AcDbEntity
  8
1
  6
Continuous
100
AcDbCircle
 10
718.4
 20
416.75
 30
0.0
 40
2.25
100
AcDbArc
 50
180.0
 51
0.0
  0
LINE
  5
F32C
330
F008
100
AcDbEntity
  8
4
  6
CENTER
100
AcDbLine
 10
718.4
 20
422.4
 30
0.0
 11
718.4
 21
411.8999999999998
 31
0.0
  0
LINE
  5
F32D
330
F008
100
AcDbEntity
  8
1
  6
Continuous
100
AcDbLine
 10
720.65
 20
417.55
 30
0.0
 11
720.65
 21
416.75
 31
0.0
  0
LINE
  5
F32E
330
F008
100
AcDbEntity
  8
1
  6
Continuous
100
AcDbLine
 10
716.15
 20
417.55
 30
0.0
 11
716.15
 21
416.75
 31
0.0
  0
LINE
  5
F32F
330
F008
100
AcDbEntity
  8
1
  6
Continuous
100
AcDbLine
 10
732.2710089999997
 20
404.3368169999998
 30
0.0
 11
734.1467159999997
 21
402.004976
 31
0.0
  0
ARC
  5
F330
330
F008
100
AcDbEntity
  8
1
  6
Continuous
100
AcDbCircle
 10
732.8999999999997
 20
401.0021309999998
 30
0.0
 40
1.6
100
AcDbArc
 50
0.0
 51
38.812815
  0
LINE
  5
F331
330
F008
100
AcDbEntity
  8
1
  6
Continuous
100
AcDbLine
 10
734.4999999999998
 20
399.5
 30
0.0
 11
734.4999999999998
 21
401.0021309999998
 31
0.0
  0
ARC
  5
F332
330
F008
100
AcDbEntity
  8
1
  6
Continuous
100
AcDbCircle
 10
732.8999999999997
 20
404.8427709999998
 30
0.0
 40
0.8072289999999997
100
AcDbArc
 50
90.0
 51
218.812815
  0
LINE
  5
F333
330
F008
100
AcDbEntity
  8
1
  6
Continuous
100
AcDbLine
 10
732.8999999999997
 20
405.6499999999998
 30
0.0
 11
734.4999999999998
 21
405.6499999999998
 31
0.0
  0
LINE
  5
F334
330
F008
100
AcDbEntity
  8
3
  6
DASHED
100
AcDbLine
 10
602.8999999999999
 20
428.65
 30
0.0
 11
604.4999999999999
 21
428.65
 31
0.0
  0
ARC
  5
F335
330
F008
100
AcDbEntity
  8
3
  6
DASHED
100
AcDbCircle
 10
602.8999999999999
 20
433.297869
 30
0.0
 40
1.6
100
AcDbArc
 50
321.187185
 51
0.0
  0
ARC
  5
F336
330
F008
100
AcDbEntity
  8
3
  6
DASHED
100
AcDbCircle
 10
602.8999999999999
 20
429.4572289999998
 30
0.0
 40
0.8072289999999997
100
AcDbArc
 50
141.1871849999998
 51
270.0
  0
LINE
  5
F337
330
F008
100
AcDbEntity
  8
3
  6
DASHED
100
AcDbLine
 10
602.2710089999999
 20
429.963183
 30
0.0
 11
604.1467159999997
 21
432.2950239999998
 31
0.0
  0
LINE
  5
F338
330
F008
100
AcDbEntity
  8
3
  6
DASHED
100
AcDbLine
 10
604.4999999999999
 20
433.297869
 30
0.0
 11
604.4999999999999
 21
434.7999999999998
 31
0.0
  0
LINE
  5
F339
330
F008
100
AcDbEntity
  8
1
  6
Continuous
100
AcDbLine
 10
734.4999999999998
 20
433.297869
 30
0.0
 11
734.4999999999998
 21
434.7999999999998
 31
0.0
  0
LINE
  5
F33A
330
F008
100
AcDbEntity
  8
1
  6
Continuous
100
AcDbLine
 10
732.2710089999997
 20
429.963183
 30
0.0
 11
734.1467159999997
 21
432.2950239999998
 31
0.0
  0
ARC
  5
F33B
330
F008
100
AcDbEntity
  8
1
  6
Continuous
100
AcDbCircle
 10
732.8999999999997
 20
429.4572289999998
 30
0.0
 40
0.8072289999999997
100
AcDbArc
 50
141.1871849999998
 51
270.0
  0
ARC
  5
F33C
330
F008
100
AcDbEntity
  8
1
  6
Continuous
100
AcDbCircle
 10
732.8999999999997
 20
433.297869
 30
0.0
 40
1.6
100
AcDbArc
 50
321.187185
 51
0.0
  0
LINE
  5
F33D
330
F008
100
AcDbEntity
  8
1
  6
Continuous
100
AcDbLine
 10
732.8999999999997
 20
428.65
 30
0.0
 11
734.4999999999998
 21
428.65
 31
0.0
  0
LINE
  5
F33E
330
F008
100
AcDbEntity
  8
3
  6
DASHED
100
AcDbLine
 10
299.5
 20
429.3999999999998
 30
0.0
 11
404.4999999999998
 21
429.3999999999998
 31
0.0
  0
LINE
  5
F33F
330
F008
100
AcDbEntity
  8
3
  6
DASHED
100
AcDbLine
 10
299.5
 20
404.8999999999998
 30
0.0
 11
404.4999999999998
 21
404.8999999999998
 31
0.0
  0
ARC
  5
F340
330
F008
100
AcDbEntity
  8
1
  6
Continuous
100
AcDbCircle
 10
471.1999999999998
 20
417.1499999999999
 30
0.0
 40
2.25
100
AcDbArc
 50
270.0
 51
90.0
  0
ARC
  5
F341
330
F008
100
AcDbEntity
  8
1
  6
Continuous
100
AcDbCircle
 10
470.3999999999998
 20
417.1499999999999
 30
0.0
 40
2.25
100
AcDbArc
 50
90.0
 51
270.0
  0
LINE
  5
F342
330
F008
100
AcDbEntity
  8
1
  6
Continuous
100
AcDbLine
 10
471.1999999999998
 20
414.9
 30
0.0
 11
470.3999999999998
 21
414.9
 31
0.0
  0
LINE
  5
F343
330
F008
100
AcDbEntity
  8
1
  6
Continuous
100
AcDbLine
 10
471.1999999999998
 20
419.3999999999999
 30
0.0
 11
470.3999999999998
 21
419.3999999999999
 31
0.0
  0
LINE
  5
F344
330
F008
100
AcDbEntity
  8
1
  6
Continuous
100
AcDbLine
 10
556.8999999999999
 20
419.3999999999999
 30
0.0
 11
556.0999999999998
 21
419.3999999999999
 31
0.0
  0
LINE
  5
F345
330
F008
100
AcDbEntity
  8
1
  6
Continuous
100
AcDbLine
 10
556.8999999999999
 20
414.9
 30
0.0
 11
556.0999999999998
 21
414.9
 31
0.0
  0
ARC
  5
F346
330
F008
100
AcDbEntity
  8
1
  6
Continuous
100
AcDbCircle
 10
556.0999999999998
 20
417.1499999999999
 30
0.0
 40
2.25
100
AcDbArc
 50
90.0
 51
270.0
  0
ARC
  5
F347
330
F008
100
AcDbEntity
  8
1
  6
Continuous
100
AcDbCircle
 10
556.8999999999999
 20
417.1499999999999
 30
0.0
 40
2.25
100
AcDbArc
 50
270.0
 51
90.0
  0
LINE
  5
F348
330
F008
100
AcDbEntity
  8
1
  6
Continuous
100
AcDbLine
 10
285.5
 20
424.8999999999998
 30
0.0
 11
299.5
 21
424.8999999999998
 31
0.0
  0
LINE
  5
F349
330
F008
100
AcDbEntity
  8
1
  6
Continuous
100
AcDbLine
 10
285.5
 20
409.3999999999998
 30
0.0
 11
299.5
 21
409.3999999999998
 31
0.0
  0
LINE
  5
F34A
330
F008
100
AcDbEntity
  8
1
  6
Continuous
100
AcDbLine
 10
280.5
 20
421.947908
 30
0.0
 11
280.5
 21
412.3520919999998
 31
0.0
  0
LINE
  5
F34B
330
F008
100
AcDbEntity
  8
1
  6
Continuous
100
AcDbLine
 10
295.5
 20
413.1499999999999
 30
0.0
 11
295.5
 21
421.15
 31
0.0
  0
LINE
  5
F34C
330
F008
100
AcDbEntity
  8
1
  6
Continuous
100
AcDbLine
 10
289.4999999999999
 20
421.15
 30
0.0
 11
299.5
 21
421.15
 31
0.0
  0
LINE
  5
F34D
330
F008
100
AcDbEntity
  8
1
  6
Continuous
100
AcDbLine
 10
289.4999999999999
 20
413.1499999999999
 30
0.0
 11
299.5
 21
413.1499999999999
 31
0.0
  0
LINE
  5
F34E
330
F008
100
AcDbEntity
  8
1
  6
Continuous
100
AcDbLine
 10
102.4999999999999
 20
427.2375
 30
0.0
 11
299.5
 21
427.2375
 31
0.0
  0
LINE
  5
F34F
330
F008
100
AcDbEntity
  8
1
  6
Continuous
100
AcDbLine
 10
102.4999999999999
 20
407.0624999999997
 30
0.0
 11
299.5
 21
407.0624999999997
 31
0.0
  0
LINE
  5
F350
330
F008
100
AcDbEntity
  8
3
  6
DASHED
100
AcDbLine
 10
299.5
 20
427.2375
 30
0.0
 11
404.4999999999998
 21
427.2375
 31
0.0
  0
LINE
  5
F351
330
F008
100
AcDbEntity
  8
3
  6
DASHED
100
AcDbLine
 10
299.5
 20
407.0624999999997
 30
0.0
 11
404.4999999999998
 21
407.0624999999997
 31
0.0
  0
LINE
  5
F352
330
F008
100
AcDbEntity
  8
1
  6
Continuous
100
AcDbLine
 10
430.4999999999998
 20
295.0
 30
0.0
 11
430.4999999999998
 21
295.8
 31
0.0
  0
LINE
  5
F353
330
F008
100
AcDbEntity
  8
3
  6
DASHED
100
AcDbLine
 10
430.4999999999998
 20
295.8
 30
0.0
 11
430.4999999999998
 21
301.5
 31
0.0
  0
LINE
  5
F354
330
F008
100
AcDbEntity
  8
1
  6
Continuous
100
AcDbLine
 10
430.4999999999998
 20
409.6499999999998
 30
0.0
 11
430.4999999999998
 21
424.65
 31
0.0
  0
CIRCLE
  5
F355
330
F008
100
AcDbEntity
  8
1
  6
Continuous
100
AcDbCircle
 10
425.0
 20
417.1499999999999
 30
0.0
 40
2.0
  0
ARC
  5
F356
330
F008
100
AcDbEntity
  8
1
  6
Continuous
100
AcDbCircle
 10
425.0
 20
417.1499999999999
 30
0.0
 40
6.25
100
AcDbArc
 50
28.357637
 51
331.642363
  0
LINE
  5
F357
330
F008
100
AcDbEntity
  8
4
  6
CENTER
100
AcDbLine
 10
425.0
 20
427.187536
 30
0.0
 11
425.0
 21
407.7685309999997
 31
0.0
  0
CIRCLE
  5
F358
330
F008
100
AcDbEntity
  8
1
  6
Continuous
100
AcDbCircle
 10
341.5
 20
417.1499999999999
 30
0.0
 40
6.25
  0
LINE
  5
F359
330
F008
100
AcDbEntity
  8
4
  6
CENTER
100
AcDbLine
 10
341.5
 20
427.187536
 30
0.0
 11
341.5
 21
407.7685309999997
 31
0.0
  0
LINE
  5
F35A
330
F008
100
AcDbEntity
  8
4
  6
CENTER
100
AcDbLine
 10
450.3999999999998
 20
177.75
 30
0.0
 11
450.3999999999998
 21
167.75
 31
0.0
  0
LINE
  5
F35B
330
F008
100
AcDbEntity
  8
4
  6
CENTER
100
AcDbLine
 10
437.6999999999998
 20
177.75
 30
0.0
 11
437.6999999999998
 21
167.75
 31
0.0
  0
LINE
  5
F35C
330
F008
100
AcDbEntity
  8
4
  6
CENTER
100
AcDbLine
 10
425.0
 20
177.75
 30
0.0
 11
425.0
 21
167.75
 31
0.0
  0
LINE
  5
F35D
330
F008
100
AcDbEntity
  8
4
  6
CENTER
100
AcDbLine
 10
648.2999999999998
 20
177.75
 30
0.0
 11
648.2999999999998
 21
167.75
 31
0.0
  0
LINE
  5
F35E
330
F008
100
AcDbEntity
  8
4
  6
CENTER
100
AcDbLine
 10
635.6
 20
177.75
 30
0.0
 11
635.6
 21
167.75
 31
0.0
  0
LINE
  5
F35F
330
F008
100
AcDbEntity
  8
4
  6
CENTER
100
AcDbLine
 10
622.9
 20
177.75
 30
0.0
 11
622.9
 21
167.75
 31
0.0
  0
LINE
  5
F360
330
F008
100
AcDbEntity
  8
4
  6
CENTER
100
AcDbLine
 10
610.2000000000002
 20
177.75
 30
0.0
 11
610.2000000000002
 21
167.75
 31
0.0
  0
LINE
  5
F361
330
F008
100
AcDbEntity
  8
1
  6
Continuous
100
AcDbLine
 10
399.25
 20
179.75
 30
0.0
 11
403.0
 21
179.75
 31
0.0
  0
LINE
  5
F362
330
F008
100
AcDbEntity
  8
1
  6
Continuous
100
AcDbLine
 10
399.25
 20
181.25
 30
0.0
 11
401.4999999999998
 21
181.25
 31
0.0
  0
LINE
  5
F363
330
F008
100
AcDbEntity
  8
1
  6
Continuous
100
AcDbLine
 10
404.4999999999998
 20
182.8375
 30
0.0
 11
404.4999999999998
 21
185.0
 31
0.0
  0
ARC
  5
F364
330
F008
100
AcDbEntity
  8
1
  6
Continuous
100
AcDbCircle
 10
403.0
 20
178.2499999999998
 30
0.0
 40
1.5
100
AcDbArc
 50
0.0
 51
90.0
  0
ARC
  5
F365
330
F008
100
AcDbEntity
  8
1
  6
Continuous
100
AcDbCircle
 10
399.25
 20
180.4999999999998
 30
0.0
 40
0.75
100
AcDbArc
 50
90.0
 51
270.0
  0
LINE
  5
F366
330
F008
100
AcDbEntity
  8
1
  6
Continuous
100
AcDbLine
 10
402.5
 20
182.2499999999998
 30
0.0
 11
402.5
 21
185.0
 31
0.0
  0
LINE
  5
F367
330
F008
100
AcDbEntity
  8
1
  6
Continuous
100
AcDbLine
 10
402.5
 20
163.25
 30
0.0
 11
402.5
 21
160.4999999999998
 31
0.0
  0
LINE
  5
F368
330
F008
100
AcDbEntity
  8
1
  6
Continuous
100
AcDbLine
 10
399.25
 20
164.25
 30
0.0
 11
401.4999999999998
 21
164.25
 31
0.0
  0
ARC
  5
F369
330
F008
100
AcDbEntity
  8
1
  6
Continuous
100
AcDbCircle
 10
399.25
 20
165.0
 30
0.0
 40
0.75
100
AcDbArc
 50
90.0
 51
270.0
  0
LINE
  5
F36A
330
F008
100
AcDbEntity
  8
1
  6
Continuous
100
AcDbLine
 10
399.25
 20
165.7499999999998
 30
0.0
 11
403.0
 21
165.7499999999998
 31
0.0
  0
ARC
  5
F36B
330
F008
100
AcDbEntity
  8
1
  6
Continuous
100
AcDbCircle
 10
403.0
 20
167.25
 30
0.0
 40
1.5
100
AcDbArc
 50
270.0
 51
0.0
  0
LINE
  5
F36C
330
F008
100
AcDbEntity
  8
1
  6
Continuous
100
AcDbLine
 10
404.4999999999998
 20
162.6624999999999
 30
0.0
 11
404.4999999999998
 21
160.4999999999998
 31
0.0
  0
ARC
  5
F36D
330
F008
100
AcDbEntity
  8
1
  6
Continuous
100
AcDbCircle
 10
401.4999999999998
 20
182.2499999999998
 30
0.0
 40
1.0
100
AcDbArc
 50
270.0
 51
0.0
  0
ARC
  5
F36E
330
F008
100
AcDbEntity
  8
1
  6
Continuous
100
AcDbCircle
 10
401.4999999999998
 20
163.25
 30
0.0
 40
1.0
100
AcDbArc
 50
0.0
 51
90.0
  0
LINE
  5
F36F
330
F008
100
AcDbEntity
  8
3
  6
DASHED
100
AcDbLine
 10
404.4999999999998
 20
427.2375
 30
0.0
 11
404.4999999999998
 21
429.3999999999998
 31
0.0
  0
LINE
  5
F370
330
F008
100
AcDbEntity
  8
3
  6
DASHED
100
AcDbLine
 10
402.5
 20
426.6499999999998
 30
0.0
 11
402.5
 21
427.2375
 31
0.0
  0
ARC
  5
F371
330
F008
100
AcDbEntity
  8
3
  6
DASHED
100
AcDbCircle
 10
401.4999999999998
 20
426.6499999999998
 30
0.0
 40
1.0
100
AcDbArc
 50
270.0
 51
0.0
  0
LINE
  5
F372
330
F008
100
AcDbEntity
  8
3
  6
DASHED
100
AcDbLine
 10
399.25
 20
425.6499999999999
 30
0.0
 11
401.4999999999998
 21
425.6499999999999
 31
0.0
  0
ARC
  5
F373
330
F008
100
AcDbEntity
  8
3
  6
DASHED
100
AcDbCircle
 10
399.25
 20
424.8999999999998
 30
0.0
 40
0.75
100
AcDbArc
 50
90.0
 51
270.0
  0
LINE
  5
F374
330
F008
100
AcDbEntity
  8
3
  6
DASHED
100
AcDbLine
 10
399.25
 20
424.15
 30
0.0
 11
403.0
 21
424.15
 31
0.0
  0
ARC
  5
F375
330
F008
100
AcDbEntity
  8
3
  6
DASHED
100
AcDbCircle
 10
403.0
 20
422.6499999999998
 30
0.0
 40
1.5
100
AcDbArc
 50
0.0
 51
90.0
  0
LINE
  5
F376
330
F008
100
AcDbEntity
  8
3
  6
DASHED
100
AcDbLine
 10
404.4999999999998
 20
411.65
 30
0.0
 11
404.4999999999998
 21
422.6499999999998
 31
0.0
  0
ARC
  5
F377
330
F008
100
AcDbEntity
  8
3
  6
DASHED
100
AcDbCircle
 10
403.0
 20
411.65
 30
0.0
 40
1.5
100
AcDbArc
 50
270.0
 51
0.0
  0
LINE
  5
F378
330
F008
100
AcDbEntity
  8
3
  6
DASHED
100
AcDbLine
 10
399.25
 20
410.1499999999998
 30
0.0
 11
403.0
 21
410.1499999999998
 31
0.0
  0
LINE
  5
F379
330
F008
100
AcDbEntity
  8
3
  6
DASHED
100
AcDbLine
 10
399.25
 20
408.65
 30
0.0
 11
401.4999999999998
 21
408.65
 31
0.0
  0
ARC
  5
F37A
330
F008
100
AcDbEntity
  8
3
  6
DASHED
100
AcDbCircle
 10
399.25
 20
409.3999999999998
 30
0.0
 40
0.75
100
AcDbArc
 50
90.0
 51
270.0
  0
ARC
  5
F37B
330
F008
100
AcDbEntity
  8
3
  6
DASHED
100
AcDbCircle
 10
401.4999999999998
 20
407.65
 30
0.0
 40
1.0
100
AcDbArc
 50
0.0
 51
90.0
  0
LINE
  5
F37C
330
F008
100
AcDbEntity
  8
3
  6
DASHED
100
AcDbLine
 10
402.5
 20
407.65
 30
0.0
 11
402.5
 21
407.0624999999997
 31
0.0
  0
LINE
  5
F37D
330
F008
100
AcDbEntity
  8
3
  6
DASHED
100
AcDbLine
 10
404.4999999999998
 20
407.0624999999997
 30
0.0
 11
404.4999999999998
 21
404.8999999999998
 31
0.0
  0
LINE
  5
F37E
330
F008
100
AcDbEntity
  8
1
  6
Continuous
100
AcDbLine
 10
402.5
 20
182.8375
 30
0.0
 11
404.4999999999998
 21
182.8375
 31
0.0
  0
LINE
  5
F37F
330
F008
100
AcDbEntity
  8
1
  6
Continuous
100
AcDbLine
 10
402.5
 20
162.6624999999999
 30
0.0
 11
404.4999999999998
 21
162.6624999999999
 31
0.0
  0
LINE
  5
F380
330
F008
100
AcDbEntity
  8
1
  6
Continuous
100
AcDbLine
 10
276.5
 20
292.8999999999998
 30
0.0
 11
276.9239989999999
 21
292.2216009999999
 31
0.0
  0
LINE
  5
F381
330
F008
100
AcDbEntity
  8
3
  6
DASHED
100
AcDbLine
 10
430.4999999999998
 20
44.0
 30
0.0
 11
602.8999999999999
 21
44.0
 31
0.0
  0
LINE
  5
F382
330
F008
100
AcDbEntity
  8
1
  6
Continuous
100
AcDbLine
 10
429.4999999999998
 20
49.7
 30
0.0
 11
734.4999999999998
 21
49.7
 31
0.0
  0
LINE
  5
F383
330
F008
100
AcDbEntity
  8
1
  6
Continuous
100
AcDbLine
 10
430.4999999999998
 20
50.5
 30
0.0
 11
602.8999999999999
 21
50.5
 31
0.0
  0
LINE
  5
F384
330
F008
100
AcDbEntity
  8
1
  6
Continuous
100
AcDbLine
 10
299.5
 20
50.6
 30
0.0
 11
604.4999999999999
 21
50.6
 31
0.0
  0
LINE
  5
F385
330
F008
100
AcDbEntity
  8
1
  6
Continuous
100
AcDbLine
 10
299.5
 20
59.29999999999999
 30
0.0
 11
604.4999999999999
 21
59.29999999999999
 31
0.0
  0
LINE
  5
F386
330
F008
100
AcDbEntity
  8
1
  6
Continuous
100
AcDbLine
 10
429.4999999999998
 20
41.0
 30
0.0
 11
734.4999999999998
 21
41.0
 31
0.0
  0
LINE
  5
F387
330
F008
100
AcDbEntity
  8
1
  6
Continuous
100
AcDbLine
 10
102.4999999999999
 20
60.1
 30
0.0
 11
404.4999999999998
 21
60.1
 31
0.0
  0
LINE
  5
F388
330
F008
100
AcDbEntity
  8
1
  6
Continuous
100
AcDbLine
 10
102.4999999999999
 20
53.6
 30
0.0
 11
299.5
 21
53.6
 31
0.0
  0
LINE
  5
F389
330
F008
100
AcDbEntity
  8
1
  6
Continuous
100
AcDbLine
 10
102.4999999999999
 20
53.6
 30
0.0
 11
102.4999999999999
 21
60.1
 31
0.0
  0
LINE
  5
F38A
330
F008
100
AcDbEntity
  8
4
  6
CENTER
100
AcDbLine
 10
118.4
 20
66.22528800000001
 30
0.0
 11
118.4
 21
55.725288
 31
0.0
  0
LINE
  5
F38B
330
F008
100
AcDbEntity
  8
4
  6
CENTER
100
AcDbLine
 10
131.0999999999999
 20
66.22528800000001
 30
0.0
 11
131.0999999999999
 21
55.725288
 31
0.0
  0
LINE
  5
F38C
330
F008
100
AcDbEntity
  8
4
  6
CENTER
100
AcDbLine
 10
242.2
 20
66.22528800000001
 30
0.0
 11
242.2
 21
55.725288
 31
0.0
  0
LINE
  5
F38D
330
F008
100
AcDbEntity
  8
3
  6
DASHED
100
AcDbLine
 10
299.5
 20
53.6
 30
0.0
 11
404.4999999999998
 21
53.6
 31
0.0
  0
LINE
  5
F38E
330
F008
100
AcDbEntity
  8
1
  6
Continuous
100
AcDbLine
 10
299.5
 20
50.6
 30
0.0
 11
299.5
 21
59.29999999999999
 31
0.0
  0
LINE
  5
F38F
330
F008
100
AcDbEntity
  8
1
  6
Continuous
100
AcDbLine
 10
276.5
 20
52.6
 30
0.0
 11
280.5
 21
50.1
 31
0.0
  0
LINE
  5
F390
330
F008
100
AcDbEntity
  8
1
  6
Continuous
100
AcDbLine
 10
280.5
 20
50.1
 30
0.0
 11
299.5
 21
52.2
 31
0.0
  0
LINE
  5
F391
330
F008
100
AcDbEntity
  8
1
  6
Continuous
100
AcDbLine
 10
280.6883369999998
 20
50.925688
 30
0.0
 11
299.5
 21
53.004872
 31
0.0
  0
LINE
  5
F392
330
F008
100
AcDbEntity
  8
1
  6
Continuous
100
AcDbLine
 10
276.9239989999999
 20
53.278399
 30
0.0
 11
280.6883369999998
 21
50.925688
 31
0.0
  0
LINE
  5
F393
330
F008
100
AcDbEntity
  8
1
  6
Continuous
100
AcDbLine
 10
276.5
 20
52.6
 30
0.0
 11
276.9239989999999
 21
53.278399
 31
0.0
  0
LINE
  5
F394
330
F008
100
AcDbEntity
  8
4
  6
CENTER
100
AcDbLine
 10
378.6999999999999
 20
66.22528800000001
 30
0.0
 11
378.6999999999999
 21
55.725288
 31
0.0
  0
LINE
  5
F395
330
F008
100
AcDbEntity
  8
4
  6
CENTER
100
AcDbLine
 10
391.3999999999999
 20
66.22528800000001
 30
0.0
 11
391.3999999999999
 21
55.725288
 31
0.0
  0
LINE
  5
F396
330
F008
100
AcDbEntity
  8
3
  6
DASHED
100
AcDbLine
 10
404.4999999999998
 20
59.29999999999999
 30
0.0
 11
404.4999999999998
 21
53.6
 31
0.0
  0
LINE
  5
F397
330
F008
100
AcDbEntity
  8
1
  6
Continuous
100
AcDbLine
 10
404.4999999999998
 20
60.1
 30
0.0
 11
404.4999999999998
 21
59.29999999999999
 31
0.0
  0
LINE
  5
F398
330
F008
100
AcDbEntity
  8
3
  6
DASHED
100
AcDbLine
 10
430.4999999999998
 20
49.7
 30
0.0
 11
430.4999999999998
 21
44.0
 31
0.0
  0
LINE
  5
F399
330
F008
100
AcDbEntity
  8
1
  6
Continuous
100
AcDbLine
 10
430.4999999999998
 20
50.5
 30
0.0
 11
430.4999999999998
 21
49.7
 31
0.0
  0
LINE
  5
F39A
330
F008
100
AcDbEntity
  8
1
  6
Continuous
100
AcDbLine
 10
429.4999999999998
 20
49.7
 30
0.0
 11
429.4999999999998
 21
41.0
 31
0.0
  0
LINE
  5
F39B
330
F008
100
AcDbEntity
  8
4
  6
CENTER
100
AcDbLine
 10
458.1
 20
36.504411
 30
0.0
 11
458.1
 21
47.00441099999999
 31
0.0
  0
LINE
  5
F39C
330
F008
100
AcDbEntity
  8
4
  6
CENTER
100
AcDbLine
 10
445.3999999999998
 20
36.504411
 30
0.0
 11
445.3999999999998
 21
47.00441099999999
 31
0.0
  0
LINE
  5
F39D
330
F008
100
AcDbEntity
  8
4
  6
CENTER
100
AcDbLine
 10
470.8
 20
36.504411
 30
0.0
 11
470.8
 21
47.00441099999999
 31
0.0
  0
LINE
  5
F39E
330
F008
100
AcDbEntity
  8
4
  6
CENTER
100
AcDbLine
 10
578.0
 20
56.58743900000001
 30
0.0
 11
578.0
 21
45.05084599999999
 31
0.0
  0
LINE
  5
F39F
330
F008
100
AcDbEntity
  8
4
  6
CENTER
100
AcDbLine
 10
556.5
 20
36.504411
 30
0.0
 11
556.5
 21
47.00441099999999
 31
0.0
  0
LINE
  5
F3A0
330
F008
100
AcDbEntity
  8
1
  6
Continuous
100
AcDbLine
 10
604.4999999999999
 20
50.6
 30
0.0
 11
604.4999999999999
 21
59.29999999999999
 31
0.0
  0
LINE
  5
F3A1
330
F008
100
AcDbEntity
  8
1
  6
Continuous
100
AcDbLine
 10
602.8999999999999
 20
50.5
 30
0.0
 11
602.8999999999999
 21
49.7
 31
0.0
  0
LINE
  5
F3A2
330
F008
100
AcDbEntity
  8
3
  6
DASHED
100
AcDbLine
 10
602.8999999999999
 20
44.0
 30
0.0
 11
602.8999999999999
 21
49.7
 31
0.0
  0
LINE
  5
F3A3
330
F008
100
AcDbEntity
  8
4
  6
CENTER
100
AcDbLine
 10
718.4
 20
36.504411
 30
0.0
 11
718.4
 21
47.00441099999999
 31
0.0
  0
LINE
  5
F3A4
330
F008
100
AcDbEntity
  8
4
  6
CENTER
100
AcDbLine
 10
705.7000000000003
 20
36.504411
 30
0.0
 11
705.7000000000003
 21
47.00441099999999
 31
0.0
  0
LINE
  5
F3A5
330
F008
100
AcDbEntity
  8
1
  6
Continuous
100
AcDbLine
 10
734.4999999999998
 20
49.7
 30
0.0
 11
734.4999999999998
 21
41.0
 31
0.0
  0
LINE
  5
F3A6
330
F008
100
AcDbEntity
  8
5
  6
PHANTOM
100
AcDbLine
 10
429.4999999999998
 20
160.4999999999998
 30
0.0
 11
731.5
 21
160.4999999999998
 31
0.0
  0
LINE
  5
F3A7
330
F008
100
AcDbEntity
  8
5
  6
PHANTOM
100
AcDbLine
 10
429.4999999999998
 20
185.0
 30
0.0
 11
731.5
 21
185.0
 31
0.0
  0
LINE
  5
F3A8
330
F008
100
AcDbEntity
  8
5
  6
PHANTOM
100
AcDbLine
 10
429.4999999999998
 20
165.25
 30
0.0
 11
429.4999999999998
 21
180.25
 31
0.0
  0
LINE
  5
F3A9
330
F008
100
AcDbEntity
  8
5
  6
PHANTOM
100
AcDbLine
 10
443.1499999999998
 20
172.35
 30
0.0
 11
443.1499999999998
 21
173.15
 31
0.0
  0
LINE
  5
F3AA
330
F008
100
AcDbEntity
  8
5
  6
PHANTOM
100
AcDbLine
 10
447.6499999999998
 20
172.35
 30
0.0
 11
447.6499999999998
 21
173.15
 31
0.0
  0
ARC
  5
F3AB
330
F008
100
AcDbEntity
  8
5
  6
PHANTOM
100
AcDbCircle
 10
445.3999999999998
 20
172.35
 30
0.0
 40
2.25
100
AcDbArc
 50
180.0
 51
0.0
  0
ARC
  5
F3AC
330
F008
100
AcDbEntity
  8
5
  6
PHANTOM
100
AcDbCircle
 10
445.3999999999998
 20
173.15
 30
0.0
 40
2.25
100
AcDbArc
 50
0.0
 51
180.0
  0
ARC
  5
F3AD
330
F008
100
AcDbEntity
  8
5
  6
PHANTOM
100
AcDbCircle
 10
458.1
 20
173.15
 30
0.0
 40
2.25
100
AcDbArc
 50
0.0
 51
180.0
  0
ARC
  5
F3AE
330
F008
100
AcDbEntity
  8
5
  6
PHANTOM
100
AcDbCircle
 10
458.1
 20
172.35
 30
0.0
 40
2.25
100
AcDbArc
 50
180.0
 51
0.0
  0
LINE
  5
F3AF
330
F008
100
AcDbEntity
  8
5
  6
PHANTOM
100
AcDbLine
 10
460.35
 20
172.35
 30
0.0
 11
460.35
 21
173.15
 31
0.0
  0
LINE
  5
F3B0
330
F008
100
AcDbEntity
  8
5
  6
PHANTOM
100
AcDbLine
 10
455.85
 20
172.35
 30
0.0
 11
455.85
 21
173.15
 31
0.0
  0
LINE
  5
F3B1
330
F008
100
AcDbEntity
  8
4
  6
CENTER
100
AcDbLine
 10
569.2000000000001
 20
167.5
 30
0.0
 11
569.2000000000001
 21
178.0
 31
0.0
  0
ARC
  5
F3B2
330
F008
100
AcDbEntity
  8
5
  6
PHANTOM
100
AcDbCircle
 10
569.6
 20
172.75
 30
0.0
 40
2.25
100
AcDbArc
 50
270.0
 51
90.0
  0
ARC
  5
F3B3
330
F008
100
AcDbEntity
  8
5
  6
PHANTOM
100
AcDbCircle
 10
568.7999999999998
 20
172.75
 30
0.0
 40
2.25
100
AcDbArc
 50
90.0
 51
270.0
  0
LINE
  5
F3B4
330
F008
100
AcDbEntity
  8
5
  6
PHANTOM
100
AcDbLine
 10
568.7999999999998
 20
170.5
 30
0.0
 11
569.6
 21
170.5
 31
0.0
  0
LINE
  5
F3B5
330
F008
100
AcDbEntity
  8
5
  6
PHANTOM
100
AcDbLine
 10
568.7999999999998
 20
175.0
 30
0.0
 11
569.6
 21
175.0
 31
0.0
  0
LINE
  5
F3B6
330
F008
100
AcDbEntity
  8
5
  6
PHANTOM
100
AcDbLine
 10
606.0
 20
169.0
 30
0.0
 11
606.0
 21
176.5
 31
0.0
  0
LINE
  5
F3B7
330
F008
100
AcDbEntity
  8
5
  6
PHANTOM
100
AcDbLine
 10
601.0
 20
169.0
 30
0.0
 11
601.0
 21
176.5
 31
0.0
  0
ARC
  5
F3B8
330
F008
100
AcDbEntity
  8
5
  6
PHANTOM
100
AcDbCircle
 10
603.5
 20
169.0
 30
0.0
 40
2.5
100
AcDbArc
 50
180.0
 51
0.0
  0
ARC
  5
F3B9
330
F008
100
AcDbEntity
  8
5
  6
PHANTOM
100
AcDbCircle
 10
603.5
 20
176.5
 30
0.0
 40
2.5
100
AcDbArc
 50
0.0
 51
180.0
  0
LINE
  5
F3BA
330
F008
100
AcDbEntity
  8
5
  6
PHANTOM
100
AcDbLine
 10
731.5
 20
167.25
 30
0.0
 11
731.5
 21
178.2499999999998
 31
0.0
  0
LINE
  5
F3BB
330
F008
100
AcDbEntity
  8
5
  6
PHANTOM
100
AcDbLine
 10
729.4999999999999
 20
162.6624999999999
 30
0.0
 11
731.5
 21
162.6624999999999
 31
0.0
  0
ARC
  5
F3BC
330
F008
100
AcDbEntity
  8
5
  6
PHANTOM
100
AcDbCircle
 10
730.0
 20
167.25
 30
0.0
 40
1.5
100
AcDbArc
 50
270.0
 51
0.0
  0
ARC
  5
F3BD
330
F008
100
AcDbEntity
  8
5
  6
PHANTOM
100
AcDbCircle
 10
728.5
 20
163.25
 30
0.0
 40
1.0
100
AcDbArc
 50
0.0
 51
90.0
  0
LINE
  5
F3BE
330
F008
100
AcDbEntity
  8
5
  6
PHANTOM
100
AcDbLine
 10
726.25
 20
165.7499999999998
 30
0.0
 11
730.0
 21
165.7499999999998
 31
0.0
  0
ARC
  5
F3BF
330
F008
100
AcDbEntity
  8
5
  6
PHANTOM
100
AcDbCircle
 10
726.25
 20
165.0
 30
0.0
 40
0.75
100
AcDbArc
 50
90.0
 51
270.0
  0
LINE
  5
F3C0
330
F008
100
AcDbEntity
  8
5
  6
PHANTOM
100
AcDbLine
 10
726.25
 20
164.25
 30
0.0
 11
728.5
 21
164.25
 31
0.0
  0
LINE
  5
F3C1
330
F008
100
AcDbEntity
  8
5
  6
PHANTOM
100
AcDbLine
 10
729.4999999999999
 20
163.25
 30
0.0
 11
729.4999999999999
 21
160.4999999999998
 31
0.0
  0
LINE
  5
F3C2
330
F008
100
AcDbEntity
  8
5
  6
PHANTOM
100
AcDbLine
 10
731.5
 20
162.6624999999999
 30
0.0
 11
731.5
 21
160.4999999999998
 31
0.0
  0
LINE
  5
F3C3
330
F008
100
AcDbEntity
  8
5
  6
PHANTOM
100
AcDbLine
 10
729.4999999999999
 20
182.8375
 30
0.0
 11
731.5
 21
182.8375
 31
0.0
  0
ARC
  5
F3C4
330
F008
100
AcDbEntity
  8
5
  6
PHANTOM
100
AcDbCircle
 10
730.0
 20
178.2499999999998
 30
0.0
 40
1.5
100
AcDbArc
 50
0.0
 51
90.0
  0
ARC
  5
F3C5
330
F008
100
AcDbEntity
  8
5
  6
PHANTOM
100
AcDbCircle
 10
728.5
 20
182.2499999999998
 30
0.0
 40
1.0
100
AcDbArc
 50
270.0
 51
0.0
  0
LINE
  5
F3C6
330
F008
100
AcDbEntity
  8
5
  6
PHANTOM
100
AcDbLine
 10
729.4999999999999
 20
182.2499999999998
 30
0.0
 11
729.4999999999999
 21
185.0
 31
0.0
  0
ARC
  5
F3C7
330
F008
100
AcDbEntity
  8
5
  6
PHANTOM
100
AcDbCircle
 10
726.25
 20
180.4999999999998
 30
0.0
 40
0.75
100
AcDbArc
 50
90.0
 51
270.0
  0
LINE
  5
F3C8
330
F008
100
AcDbEntity
  8
5
  6
PHANTOM
100
AcDbLine
 10
726.25
 20
181.25
 30
0.0
 11
728.5
 21
181.25
 31
0.0
  0
LINE
  5
F3C9
330
F008
100
AcDbEntity
  8
5
  6
PHANTOM
100
AcDbLine
 10
726.25
 20
179.75
 30
0.0
 11
730.0
 21
179.75
 31
0.0
  0
LINE
  5
F3CA
330
F008
100
AcDbEntity
  8
5
  6
PHANTOM
100
AcDbLine
 10
731.5
 20
182.8375
 30
0.0
 11
731.5
 21
185.0
 31
0.0
  0
ENDSEC
  0
SECTION
  2
OBJECTS
  0
DICTIONARY
  5
EFF6
330
0
100
AcDbDictionary
281
     1
  3
ACAD_CIP_PREVIOUS_PRODUCT_INFO
350
F42A
  3
ACAD_COLOR
350
F40C
  3
ACAD_DETAILVIEWSTYLE
350
F425
  3
ACAD_GROUP
350
EFF7
  3
ACAD_LAYOUT
350
F003
  3
ACAD_MATERIAL
350
F3DA
  3
ACAD_MLEADERSTYLE
350
F421
  3
ACAD_MLINESTYLE
350
F000
  3
ACAD_PLOTSETTINGS
350
F002
  3
ACAD_PLOTSTYLENAME
350
F3D8
  3
ACAD_SCALELIST
350
F40F
  3
ACAD_SECTIONVIEWSTYLE
350
F423
  3
ACAD_TABLESTYLE
350
F40D
  3
ACAD_VISUALSTYLE
350
F3F3
  3
ACDB_RECOMPOSE_DATA
350
F448
  3
AcDbVariableDictionary
350
F43B
  3
DWGPROPS
350
F449
  0
DICTIONARY
  5
F42B
330
EFFA
100
AcDbDictionary
280
     1
281
     1
  3
ADSK_XREC_LAYER_RECONCILED
360
F42C
  0
DICTIONARY
  5
F42D
330
F010
100
AcDbDictionary
280
     1
281
     1
  3
ADSK_XREC_LAYER_RECONCILED
360
F42E
  0
DICTIONARY
  5
F42F
330
F011
100
AcDbDictionary
280
     1
281
     1
  3
ADSK_XREC_LAYER_RECONCILED
360
F430
  0
DICTIONARY
  5
F431
330
F012
100
AcDbDictionary
280
     1
281
     1
  3
ADSK_XREC_LAYER_RECONCILED
360
F432
  0
DICTIONARY
  5
F433
330
F013
100
AcDbDictionary
280
     1
281
     1
  3
ADSK_XREC_LAYER_RECONCILED
360
F434
  0
DICTIONARY
  5
F435
330
F014
100
AcDbDictionary
280
     1
281
     1
  3
ADSK_XREC_LAYER_RECONCILED
360
F436
  0
DICTIONARY
  5
F437
330
F015
100
AcDbDictionary
280
     1
281
     1
  3
ADSK_XREC_LAYER_RECONCILED
360
F438
  0
DICTIONARY
  5
F439
330
F016
100
AcDbDictionary
280
     1
281
     1
  3
ADSK_XREC_LAYER_RECONCILED
360
F43A
  0
DICTIONARY
  5
F3D3
330
F008
100
AcDbDictionary
281
     1
  3
ACAD_LAYOUTSELFREF
350
F3D4
  0
DICTIONARY
  5
F3D1
330
F004
100
AcDbDictionary
281
     1
  3
ACAD_LAYOUTSELFREF
350
F3D2
  0
XRECORD
  5
F42A
102
{ACAD_REACTORS
330
EFF6
102
}
330
EFF6
100
AcDbXrecord
280
     1
300
ACDLT
300
2014
300
ACDLT_F_S
  0
DICTIONARY
  5
F40C
102
{ACAD_REACTORS
330
EFF6
102
}
330
EFF6
100
AcDbDictionary
281
     1
  0
DICTIONARY
  5
F425
102
{ACAD_REACTORS
330
EFF6
102
}
330
EFF6
100
AcDbDictionary
281
     1
  3
Imperial24
350
F426
  0
DICTIONARY
  5
EFF7
102
{ACAD_REACTORS
330
EFF6
102
}
330
EFF6
100
AcDbDictionary
281
     1
  0
DICTIONARY
  5
F003
102
{ACAD_REACTORS
330
EFF6
102
}
330
EFF6
100
AcDbDictionary
281
     1
  3
Model
350
F427
  3
レイアウト1
350
F428
  0
DICTIONARY
  5
F3DA
102
{ACAD_REACTORS
330
EFF6
102
}
330
EFF6
100
AcDbDictionary
281
     1
  3
ByBlock
350
F3E3
  3
ByLayer
350
F3DB
  3
Global
350
F3EB
  0
DICTIONARY
  5
F421
102
{ACAD_REACTORS
330
EFF6
102
}
330
EFF6
100
AcDbDictionary
281
     1
  3
Standard
350
F422
  0
DICTIONARY
  5
F000
102
{ACAD_REACTORS
330
EFF6
102
}
330
EFF6
100
AcDbDictionary
281
     1
  3
STANDARD
350
F001
  0
DICTIONARY
  5
F002
102
{ACAD_REACTORS
330
EFF6
102
}
330
EFF6
100
AcDbDictionary
281
     1
  0
ACDBDICTIONARYWDFLT
  5
F3D8
102
{ACAD_REACTORS
330
EFF6
102
}
330
EFF6
100
AcDbDictionary
281
     1
  3
Normal
350
F3D9
100
AcDbDictionaryWithDefault
340
F3D9
  0
DICTIONARY
  5
F40F
102
{ACAD_REACTORS
330
EFF6
102
}
330
EFF6
100
AcDbDictionary
281
     1
  3
A0
350
F410
  3
A1
350
F411
  3
A2
350
F412
  3
A3
350
F413
  3
A4
350
F414
  3
A5
350
F415
  3
A6
350
F416
  3
A7
350
F417
  3
A8
350
F418
  3
A9
350
F419
  3
B0
350
F41A
  3
B1
350
F41B
  3
B2
350
F41C
  3
B3
350
F41D
  3
B4
350
F41E
  3
B5
350
F41F
  3
B6
350
F420
  0
DICTIONARY
  5
F423
102
{ACAD_REACTORS
330
EFF6
102
}
330
EFF6
100
AcDbDictionary
281
     1
  3
Imperial24
350
F424
  0
DICTIONARY
  5
F40D
102
{ACAD_REACTORS
330
EFF6
102
}
330
EFF6
100
AcDbDictionary
281
     1
  3
Standard
350
F40E
  0
DICTIONARY
  5
F3F3
102
{ACAD_REACTORS
330
EFF6
102
}
330
EFF6
100
AcDbDictionary
281
     1
  3
2dWireframe
350
F3F9
  3
Basic
350
F3F8
  3
Brighten
350
F3FF
  3
ColorChange
350
F403
  3
Conceptual
350
F3FC
  3
Dim
350
F3FE
  3
EdgeColorOff
350
F40B
  3
Facepattern
350
F402
  3
Flat
350
F3F4
  3
FlatWithEdges
350
F3F5
  3
Gouraud
350
F3F6
  3
GouraudWithEdges
350
F3F7
  3
Hidden
350
F3FB
  3
JitterOff
350
F409
  3
Linepattern
350
F401
  3
OverhangOff
350
F40A
  3
Realistic
350
F3FD
  3
Shaded
350
F408
  3
Shaded with edges
350
F407
  3
Shades of Gray
350
F404
  3
Sketchy
350
F405
  3
Thicken
350
F400
  3
Wireframe
350
F3FA
  3
X-Ray
350
F406
  0
XRECORD
  5
F448
102
{ACAD_REACTORS
330
EFF6
102
}
330
EFF6
100
AcDbXrecord
280
     1
 90
        1
330
F40E
  0
DICTIONARY
  5
F43B
102
{ACAD_REACTORS
330
EFF6
102
}
330
EFF6
100
AcDbDictionary
281
     1
  3
CANNOSCALE
350
F440
  3
CMLEADERSTYLE
350
F43D
  3
CTABLESTYLE
350
F43C
  3
CVIEWDETAILSTYLE
350
F43E
  3
CVIEWSECTIONSTYLE
350
F43F
  3
DIMASSOC
350
F443
  3
INDEXCTL
350
F442
  3
SORTENTS
350
F441
  3
XCLIPFRAME
350
F444
  0
XRECORD
  5
F449
102
{ACAD_REACTORS
330
EFF6
102
}
330
EFF6
100
AcDbXrecord
280
     1
  1
DWGPROPS COOKIE
  2

  3

  4

  6

  7

  8
Yoshitsune
  9

300
=
301
=
302
=
303
=
304
=
305
=
306
=
307
=
308
=
309
=
 40
0.0000121759259259
 41
2451247.598495833
 42
2457192.659572327
  1

 90
        0
  0
XRECORD
  5
F42C
102
{ACAD_REACTORS
330
F42B
102
}
330
F42B
100
AcDbXrecord
280
     1
290
     1
  0
XRECORD
  5
F42E
102
{ACAD_REACTORS
330
F42D
102
}
330
F42D
100
AcDbXrecord
280
     1
290
     1
  0
XRECORD
  5
F430
102
{ACAD_REACTORS
330
F42F
102
}
330
F42F
100
AcDbXrecord
280
     1
290
     1
  0
XRECORD
  5
F432
102
{ACAD_REACTORS
330
F431
102
}
330
F431
100
AcDbXrecord
280
     1
290
     1
  0
XRECORD
  5
F434
102
{ACAD_REACTORS
330
F433
102
}
330
F433
100
AcDbXrecord
280
     1
290
     1
  0
XRECORD
  5
F436
102
{ACAD_REACTORS
330
F435
102
}
330
F435
100
AcDbXrecord
280
     1
290
     1
  0
XRECORD
  5
F438
102
{ACAD_REACTORS
330
F437
102
}
330
F437
100
AcDbXrecord
280
     1
290
     1
  0
XRECORD
  5
F43A
102
{ACAD_REACTORS
330
F439
102
}
330
F439
100
AcDbXrecord
280
     1
290
     1
  0
XRECORD
  5
F3D4
102
{ACAD_REACTORS
330
F3D3
102
}
330
F3D3
100
AcDbXrecord
280
     1
340
F008
  0
XRECORD
  5
F3D2
102
{ACAD_REACTORS
330
F3D1
102
}
330
F3D1
100
AcDbXrecord
280
     1
340
F004
  0
ACDBDETAILVIEWSTYLE
  5
F426
102
{ACAD_XDICTIONARY
360
F481
102
}
102
{ACAD_REACTORS
330
F425
102
}
330
F425
100
AcDbModelDocViewStyle
 70
     0
  3
Imperial24
290
     0
100
AcDbDetailViewStyle
 70
     0
 71
     0
 90
        3
 71
     1
340
EFFB
 40
0.24
340
0
 40
0.24
300

 40
0.36
280
     3
 71
     2
340
EFFF
 90
       25
 71
     3
340
EFFB
 40
0.24
 90
        1
 40
0.75
 90
        1
300
%<\AcVar ViewType \f "%tc1">% %<\AcVar ViewDetailId>%\PSCALE %<\AcVar ViewScale \f "%sn">%
 71
     4
340
EFFF
 90
       25
340
EFFF
 90
       25
280
     0
  0
LAYOUT
  5
F427
102
{ACAD_XDICTIONARY
360
F483
102
}
102
{ACAD_REACTORS
330
F003
102
}
330
F003
100
AcDbPlotSettings
  1

  2
Canon LBP9100C
  4

  6

 40
0.0
 41
0.0
 42
0.0
 43
0.0
 44
0.0
 45
0.0
 46
0.0
 47
0.0
 48
0.0
 49
0.0
140
0.0
141
0.0
142
1.0
143
1.0
 70
  1712
 72
     0
 73
     0
 74
     0
  7

 75
     0
147
1.0
148
0.0
149
0.0
100
AcDbLayout
  1
Model
 70
     1
 71
     0
 10
0.0
 20
0.0
 11
12.0
 21
9.0
 12
0.0
 22
0.0
 32
0.0
 14
0.0
 24
0.0
 34
0.0
 15
0.0
 25
0.0
 35
0.0
146
0.0
 13
0.0
 23
0.0
 33
0.0
 16
1.0
 26
0.0
 36
0.0
 17
0.0
 27
1.0
 37
0.0
 76
     0
330
F008
331
F3D0
  0
LAYOUT
  5
F428
102
{ACAD_XDICTIONARY
360
F485
102
}
102
{ACAD_REACTORS
330
F003
102
}
330
F003
100
AcDbPlotSettings
  1

  2
Canon LBP9100C
  4

  6

 40
0.0
 41
0.0
 42
0.0
 43
0.0
 44
0.0
 45
0.0
 46
0.0
 47
0.0
 48
0.0
 49
0.0
140
0.0
141
0.0
142
1.0
143
1.0
 70
   688
 72
     0
 73
     0
 74
     5
  7

 75
    16
147
1.0
148
0.0
149
0.0
100
AcDbLayout
  1
レイアウト1
 70
     0
 71
     1
 10
0.0
 20
0.0
 11
420.0
 21
297.0
 12
0.0
 22
0.0
 32
0.0
 14
1.000000000000000E+20
 24
1.000000000000000E+20
 34
1.000000000000000E+20
 15
-1.000000000000000E+20
 25
-1.000000000000000E+20
 35
-1.000000000000000E+20
146
0.0
 13
0.0
 23
0.0
 33
0.0
 16
1.0
 26
0.0
 36
0.0
 17
0.0
 27
1.0
 37
0.0
 76
     0
330
F004
  0
MATERIAL
  5
F3E3
102
{ACAD_XDICTIONARY
360
F3E4
102
}
102
{ACAD_REACTORS
330
F3DA
102
}
330
F3DA
100
AcDbMaterial
  1
ByBlock
 72
     0
 43
0.0208333333333333
 43
0.0
 43
0.0
 43
0.0
 43
0.0
 43
0.0208333333333333
 43
0.0
 43
0.0
 43
0.0
 43
0.0
 43
1.0
 43
0.0
 43
0.0
 43
0.0
 43
0.0
 43
1.0
 77
     0
 47
0.0208333333333333
 47
0.0
 47
0.0
 47
0.0
 47
0.0
 47
0.0208333333333333
 47
0.0
 47
0.0
 47
0.0
 47
0.0
 47
1.0
 47
0.0
 47
0.0
 47
0.0
 47
0.0
 47
1.0
171
     0
 49
0.0208333333333333
 49
0.0
 49
0.0
 49
0.0
 49
0.0
 49
0.0208333333333333
 49
0.0
 49
0.0
 49
0.0
 49
0.0
 49
1.0
 49
0.0
 49
0.0
 49
0.0
 49
0.0
 49
1.0
175
     0
142
0.0208333333333333
142
0.0
142
0.0
142
0.0
142
0.0
142
0.0208333333333333
142
0.0
142
0.0
142
0.0
142
0.0
142
1.0
142
0.0
142
0.0
142
0.0
142
0.0
142
1.0
179
     0
144
0.0208333333333333
144
0.0
144
0.0
144
0.0
144
0.0
144
0.0208333333333333
144
0.0
144
0.0
144
0.0
144
0.0
144
1.0
144
0.0
144
0.0
144
0.0
144
0.0
144
1.0
147
0.0208333333333333
147
0.0
147
0.0
147
0.0
147
0.0
147
0.0208333333333333
147
0.0
147
0.0
147
0.0
147
0.0
147
1.0
147
0.0
147
0.0
147
0.0
147
0.0
147
1.0
  0
MATERIAL
  5
F3DB
102
{ACAD_XDICTIONARY
360
F3DC
102
}
102
{ACAD_REACTORS
330
F3DA
102
}
330
F3DA
100
AcDbMaterial
  1
ByLayer
 72
     0
 43
0.0208333333333333
 43
0.0
 43
0.0
 43
0.0
 43
0.0
 43
0.0208333333333333
 43
0.0
 43
0.0
 43
0.0
 43
0.0
 43
1.0
 43
0.0
 43
0.0
 43
0.0
 43
0.0
 43
1.0
 77
     0
 47
0.0208333333333333
 47
0.0
 47
0.0
 47
0.0
 47
0.0
 47
0.0208333333333333
 47
0.0
 47
0.0
 47
0.0
 47
0.0
 47
1.0
 47
0.0
 47
0.0
 47
0.0
 47
0.0
 47
1.0
171
     0
 49
0.0208333333333333
 49
0.0
 49
0.0
 49
0.0
 49
0.0
 49
0.0208333333333333
 49
0.0
 49
0.0
 49
0.0
 49
0.0
 49
1.0
 49
0.0
 49
0.0
 49
0.0
 49
0.0
 49
1.0
175
     0
142
0.0208333333333333
142
0.0
142
0.0
142
0.0
142
0.0
142
0.0208333333333333
142
0.0
142
0.0
142
0.0
142
0.0
142
1.0
142
0.0
142
0.0
142
0.0
142
0.0
142
1.0
179
     0
144
0.0208333333333333
144
0.0
144
0.0
144
0.0
144
0.0
144
0.0208333333333333
144
0.0
144
0.0
144
0.0
144
0.0
144
1.0
144
0.0
144
0.0
144
0.0
144
0.0
144
1.0
147
0.0208333333333333
147
0.0
147
0.0
147
0.0
147
0.0
147
0.0208333333333333
147
0.0
147
0.0
147
0.0
147
0.0
147
1.0
147
0.0
147
0.0
147
0.0
147
0.0
147
1.0
  0
MATERIAL
  5
F3EB
102
{ACAD_XDICTIONARY
360
F3EC
102
}
102
{ACAD_REACTORS
330
F3DA
102
}
330
F3DA
100
AcDbMaterial
  1
Global
 72
     0
 43
0.0208333333333333
 43
0.0
 43
0.0
 43
0.0
 43
0.0
 43
0.0208333333333333
 43
0.0
 43
0.0
 43
0.0
 43
0.0
 43
1.0
 43
0.0
 43
0.0
 43
0.0
 43
0.0
 43
1.0
 77
     0
 47
0.0208333333333333
 47
0.0
 47
0.0
 47
0.0
 47
0.0
 47
0.0208333333333333
 47
0.0
 47
0.0
 47
0.0
 47
0.0
 47
1.0
 47
0.0
 47
0.0
 47
0.0
 47
0.0
 47
1.0
171
     0
 49
0.0208333333333333
 49
0.0
 49
0.0
 49
0.0
 49
0.0
 49
0.0208333333333333
 49
0.0
 49
0.0
 49
0.0
 49
0.0
 49
1.0
 49
0.0
 49
0.0
 49
0.0
 49
0.0
 49
1.0
175
     0
142
0.0208333333333333
142
0.0
142
0.0
142
0.0
142
0.0
142
0.0208333333333333
142
0.0
142
0.0
142
0.0
142
0.0
142
1.0
142
0.0
142
0.0
142
0.0
142
0.0
142
1.0
179
     0
144
0.0208333333333333
144
0.0
144
0.0
144
0.0
144
0.0
144
0.0208333333333333
144
0.0
144
0.0
144
0.0
144
0.0
144
1.0
144
0.0
144
0.0
144
0.0
144
0.0
144
1.0
147
0.0208333333333333
147
0.0
147
0.0
147
0.0
147
0.0
147
0.0208333333333333
147
0.0
147
0.0
147
0.0
147
0.0
147
1.0
147
0.0
147
0.0
147
0.0
147
0.0
147
1.0
  0
MLEADERSTYLE
  5
F422
102
{ACAD_REACTORS
330
F421
102
}
330
F421
100
AcDbMLeaderStyle
170
     2
171
     1
172
     0
 90
        2
 40
0.0
 41
0.0
173
     1
 91
-1056964608
340
EFFD
 92
       -2
290
     1
 42
0.09
291
     1
 43
0.36
  3
Standard
 44
0.18
300

342
EFFB
174
     1
178
     6
175
     1
176
     0
 93
-1056964608
 45
0.18
292
     0
297
     0
 46
0.18
 94
-1056964608
 47
1.0
 49
1.0
140
1.0
293
     1
141
0.0
294
     1
177
     0
142
1.0
295
     0
296
     0
143
0.125
1001
ACAD_MLEADERVER
1070
     2
  0
MLINESTYLE
  5
F001
102
{ACAD_REACTORS
330
F000
102
}
330
F000
100
AcDbMlineStyle
  2
STANDARD
 70
     0
  3

 62
   256
 51
90.0
 52
90.0
 71
     2
 49
0.5
 62
   256
  6
BYLAYER
 49
-0.5
 62
   256
  6
BYLAYER
  0
ACDBPLACEHOLDER
  5
F3D9
102
{ACAD_REACTORS
330
F3D8
102
}
330
F3D8
  0
SCALE
  5
F410
102
{ACAD_REACTORS
330
F40F
102
}
330
F40F
100
AcDbScale
 70
     0
300
1:1
140
1.0
141
1.0
290
     1
  0
SCALE
  5
F411
102
{ACAD_REACTORS
330
F40F
102
}
330
F40F
100
AcDbScale
 70
     0
300
1/128" = 1'-0"
140
0.0078125
141
12.0
290
     0
  0
SCALE
  5
F412
102
{ACAD_REACTORS
330
F40F
102
}
330
F40F
100
AcDbScale
 70
     0
300
1/64" = 1'-0"
140
0.015625
141
12.0
290
     0
  0
SCALE
  5
F413
102
{ACAD_REACTORS
330
F40F
102
}
330
F40F
100
AcDbScale
 70
     0
300
1/32" = 1'-0"
140
0.03125
141
12.0
290
     0
  0
SCALE
  5
F414
102
{ACAD_REACTORS
330
F40F
102
}
330
F40F
100
AcDbScale
 70
     0
300
1/16" = 1'-0"
140
0.0625
141
12.0
290
     0
  0
SCALE
  5
F415
102
{ACAD_REACTORS
330
F40F
102
}
330
F40F
100
AcDbScale
 70
     0
300
3/32" = 1'-0"
140
0.09375
141
12.0
290
     0
  0
SCALE
  5
F416
102
{ACAD_REACTORS
330
F40F
102
}
330
F40F
100
AcDbScale
 70
     0
300
1/8" = 1'-0"
140
0.125
141
12.0
290
     0
  0
SCALE
  5
F417
102
{ACAD_REACTORS
330
F40F
102
}
330
F40F
100
AcDbScale
 70
     0
300
3/16" = 1'-0"
140
0.1875
141
12.0
290
     0
  0
SCALE
  5
F418
102
{ACAD_REACTORS
330
F40F
102
}
330
F40F
100
AcDbScale
 70
     0
300
1/4" = 1'-0"
140
0.25
141
12.0
290
     0
  0
SCALE
  5
F419
102
{ACAD_REACTORS
330
F40F
102
}
330
F40F
100
AcDbScale
 70
     0
300
3/8" = 1'-0"
140
0.375
141
12.0
290
     0
  0
SCALE
  5
F41A
102
{ACAD_REACTORS
330
F40F
102
}
330
F40F
100
AcDbScale
 70
     0
300
1/2" = 1'-0"
140
0.5
141
12.0
290
     0
  0
SCALE
  5
F41B
102
{ACAD_REACTORS
330
F40F
102
}
330
F40F
100
AcDbScale
 70
     0
300
3/4" = 1'-0"
140
0.75
141
12.0
290
     0
  0
SCALE
  5
F41C
102
{ACAD_REACTORS
330
F40F
102
}
330
F40F
100
AcDbScale
 70
     0
300
1" = 1'-0"
140
1.0
141
12.0
290
     0
  0
SCALE
  5
F41D
102
{ACAD_REACTORS
330
F40F
102
}
330
F40F
100
AcDbScale
 70
     0
300
1-1/2" = 1'-0"
140
1.5
141
12.0
290
     0
  0
SCALE
  5
F41E
102
{ACAD_REACTORS
330
F40F
102
}
330
F40F
100
AcDbScale
 70
     0
300
3" = 1'-0"
140
3.0
141
12.0
290
     0
  0
SCALE
  5
F41F
102
{ACAD_REACTORS
330
F40F
102
}
330
F40F
100
AcDbScale
 70
     0
300
6" = 1'-0"
140
6.0
141
12.0
290
     0
  0
SCALE
  5
F420
102
{ACAD_REACTORS
330
F40F
102
}
330
F40F
100
AcDbScale
 70
     0
300
1'-0" = 1'-0"
140
12.0
141
12.0
290
     0
  0
ACDBSECTIONVIEWSTYLE
  5
F424
102
{ACAD_XDICTIONARY
360
F47F
102
}
102
{ACAD_REACTORS
330
F423
102
}
330
F423
100
AcDbModelDocViewStyle
 70
     0
  3
Imperial24
290
     0
100
AcDbSectionViewStyle
 70
     0
 71
     0
 90
       78
 71
     1
340
EFFB
 40
0.24
340
0
340
0
 40
0.24
300
I, O, Q, S, X, Z
 40
0.48
 90
        3
 40
0.18
 90
        1
 71
     2
340
EFFF
 90
       25
340
EFFF
 90
       50
 40
0.24
 40
0.0
 40
0.24
 71
     3
340
EFFB
 40
0.24
 90
        1
 40
0.75
 90
        1
300
%<\AcVar ViewType \f "%tc1">% %<\AcVar ViewSectionStartId>%-%<\AcVar ViewSectionEndId>%\PSCALE %<\AcVar ViewScale \f "%sn">%
 71
     4
300
ANSI31
 40
1.0
 90
        0
290
     0
290
     0
 90
        6
 40
0.0
 40
1.570796326794896
 40
0.2617993877991494
 40
1.308996938995747
 40
-0.2617993877991494
 40
1.832595714594046
  0
TABLESTYLE
  5
F40E
102
{ACAD_XDICTIONARY
360
F446
102
}
102
{ACAD_REACTORS
330
F40D
102
}
330
F40D
100
AcDbTableStyle
  3
Standard
 70
     0
 71
     0
 40
0.06
 41
0.06
280
     0
281
     0
  7
STANDARD
140
0.18
170
     2
 62
     0
 63
     7
283
     0
274
    -2
284
     1
 64
     0
275
    -2
285
     1
 65
     0
276
    -2
286
     1
 66
     0
277
    -2
287
     1
 67
     0
278
    -2
288
     1
 68
     0
279
    -2
289
     1
 69
     0
  7
STANDARD
140
0.25
170
     5
 62
     0
 63
     7
283
     0
274
    -2
284
     1
 64
     0
275
    -2
285
     1
 65
     0
276
    -2
286
     1
 66
     0
277
    -2
287
     1
 67
     0
278
    -2
288
     1
 68
     0
279
    -2
289
     1
 69
     0
  7
STANDARD
140
0.18
170
     5
 62
     0
 63
     7
283
     0
274
    -2
284
     1
 64
     0
275
    -2
285
     1
 65
     0
276
    -2
286
     1
 66
     0
277
    -2
287
     1
 67
     0
278
    -2
288
     1
 68
     0
279
    -2
289
     1
 69
     0
  0
VISUALSTYLE
  5
F3F9
102
{ACAD_XDICTIONARY
360
F457
102
}
102
{ACAD_REACTORS
330
F3F3
102
}
330
F3F3
100
AcDbVisualStyle
  2
2dWireframe
 70
     4
 71
     0
 72
     2
 73
     0
 90
        0
 40
-0.6
 41
-30.0
 62
     5
 63
     7
 74
     1
 91
        4
 64
     7
 65
   257
 75
     1
175
     1
 42
1.0
 92
        0
 66
   257
 43
1.0
 76
     1
 77
     6
 78
     2
 67
     7
 79
     5
170
     0
171
     0
290
     0
174
     0
 93
        1
 44
0.0
173
     0
291
     0
 45
0.0
1001
ACAD
1000
AcDbSavedByObjectVersion
1070
     0
  0
VISUALSTYLE
  5
F3F8
102
{ACAD_XDICTIONARY
360
F455
102
}
102
{ACAD_REACTORS
330
F3F3
102
}
330
F3F3
100
AcDbVisualStyle
  2
Basic
 70
     7
 71
     1
 72
     0
 73
     1
 90
        0
 40
-0.6
 41
-30.0
 62
     5
 63
     7
 74
     0
 91
        4
 64
     7
 65
   257
 75
     1
175
     1
 42
1.0
 92
        8
 66
     7
 43
1.0
 76
     1
 77
     6
 78
     2
 67
     7
 79
     5
170
     0
171
     0
290
     0
174
     0
 93
        1
 44
0.0
173
     0
291
     1
 45
0.0
1001
ACAD
1000
AcDbSavedByObjectVersion
1070
     0
  0
VISUALSTYLE
  5
F3FF
102
{ACAD_XDICTIONARY
360
F463
102
}
102
{ACAD_REACTORS
330
F3F3
102
}
330
F3F3
100
AcDbVisualStyle
  2
Brighten
 70
    12
 71
     2
 72
     2
 73
     0
 90
        0
 40
-0.6
 41
-30.0
 62
     5
 63
     7
 74
     1
 91
        4
 64
     7
 65
   257
 75
     1
175
     1
 42
1.0
 92
        8
 66
     7
 43
1.0
 76
     1
 77
     6
 78
     2
 67
     7
 79
     5
170
     0
171
     0
290
     0
174
     0
 93
        1
 44
50.0
173
     0
291
     1
 45
0.0
1001
ACAD
1000
AcDbSavedByObjectVersion
1070
     0
  0
VISUALSTYLE
  5
F403
102
{ACAD_XDICTIONARY
360
F46B
102
}
102
{ACAD_REACTORS
330
F3F3
102
}
330
F3F3
100
AcDbVisualStyle
  2
ColorChange
 70
    16
 71
     2
 72
     2
 73
     3
 90
        0
 40
-0.6
 41
-30.0
 62
     5
 63
     8
 74
     1
 91
        4
 64
     7
 65
   257
 75
     1
175
     1
 42
1.0
 92
        8
 66
     8
 43
1.0
 76
     1
 77
     6
 78
     2
 67
     7
 79
     5
170
     0
171
     0
290
     0
174
     0
 93
        1
 44
0.0
173
     0
291
     1
 45
0.0
1001
ACAD
1000
AcDbSavedByObjectVersion
1070
     0
  0
VISUALSTYLE
  5
F3FC
102
{ACAD_XDICTIONARY
360
F45D
102
}
102
{ACAD_REACTORS
330
F3F3
102
}
330
F3F3
100
AcDbVisualStyle
  2
Conceptual
 70
     9
 71
     3
 72
     2
 73
     0
 90
        0
 40
-0.6
 41
-30.0
 62
     5
 63
     7
 74
     2
 91
        2
 64
     7
 65
   257
 75
     1
175
     1
 42
179.0
 92
        8
 66
     7
 43
1.0
 76
     1
 77
     6
 78
     2
 67
     7
 79
     3
170
     0
171
     0
290
     0
174
     0
 93
        1
 44
0.0
173
     0
291
     0
 45
0.0
1001
ACAD
1000
AcDbSavedByObjectVersion
1070
     0
  0
VISUALSTYLE
  5
F3FE
102
{ACAD_XDICTIONARY
360
F461
102
}
102
{ACAD_REACTORS
330
F3F3
102
}
330
F3F3
100
AcDbVisualStyle
  2
Dim
 70
    11
 71
     2
 72
     2
 73
     0
 90
        0
 40
-0.6
 41
-30.0
 62
     5
 63
     7
 74
     1
 91
        4
 64
     7
 65
   257
 75
     1
175
     1
 42
1.0
 92
        8
 66
     7
 43
1.0
 76
     1
 77
     6
 78
     2
 67
     7
 79
     5
170
     0
171
     0
290
     0
174
     0
 93
        1
 44
-50.0
173
     0
291
     1
 45
0.0
1001
ACAD
1000
AcDbSavedByObjectVersion
1070
     0
  0
VISUALSTYLE
  5
F40B
102
{ACAD_XDICTIONARY
360
F47B
102
}
102
{ACAD_REACTORS
330
F3F3
102
}
330
F3F3
100
AcDbVisualStyle
  2
EdgeColorOff
 70
    22
 71
     2
 72
     2
 73
     0
 90
        0
 40
-0.6
 41
-30.0
 62
     5
 63
     7
 74
     1
 91
        4
 64
     7
 65
   257
 75
     1
175
     1
 42
1.0
 92
        8
 66
     7
 43
1.0
 76
     1
 77
     6
 78
     2
 67
     7
 79
     5
170
     0
171
     0
290
     0
174
     0
 93
        1
 44
0.0
173
     0
291
     1
 45
0.0
1001
ACAD
1000
AcDbSavedByObjectVersion
1070
     0
  0
VISUALSTYLE
  5
F402
102
{ACAD_XDICTIONARY
360
F469
102
}
102
{ACAD_REACTORS
330
F3F3
102
}
330
F3F3
100
AcDbVisualStyle
  2
Facepattern
 70
    15
 71
     2
 72
     2
 73
     0
 90
        0
 40
-0.6
 41
-30.0
 62
     5
 63
     7
 74
     1
 91
        4
 64
     7
 65
   257
 75
     1
175
     1
 42
1.0
 92
        8
 66
     7
 43
1.0
 76
     1
 77
     6
 78
     2
 67
     7
 79
     5
170
     0
171
     0
290
     0
174
     0
 93
        1
 44
0.0
173
     0
291
     1
 45
0.0
1001
ACAD
1000
AcDbSavedByObjectVersion
1070
     0
  0
VISUALSTYLE
  5
F3F4
102
{ACAD_XDICTIONARY
360
F44D
102
}
102
{ACAD_REACTORS
330
F3F3
102
}
330
F3F3
100
AcDbVisualStyle
  2
Flat
 70
     0
 71
     2
 72
     1
 73
     1
 90
        2
 40
-0.6
 41
30.0
 62
     5
 63
     7
 74
     0
 91
        0
 64
     7
 65
   257
 75
     1
175
     1
 42
1.0
 92
        8
 66
     7
 43
1.0
 76
     1
 77
     6
 78
     2
 67
     7
 79
     5
170
     0
171
     0
290
     0
174
     0
 93
       13
 44
0.0
173
     0
291
     1
 45
0.0
1001
ACAD
1000
AcDbSavedByObjectVersion
1070
     0
  0
VISUALSTYLE
  5
F3F5
102
{ACAD_XDICTIONARY
360
F44F
102
}
102
{ACAD_REACTORS
330
F3F3
102
}
330
F3F3
100
AcDbVisualStyle
  2
FlatWithEdges
 70
     1
 71
     2
 72
     1
 73
     1
 90
        2
 40
-0.6
 41
30.0
 62
     5
 63
     7
 74
     1
 91
        0
 64
     7
 65
   257
 75
     1
175
     1
 42
1.0
 92
        0
 66
   257
 43
1.0
 76
     1
 77
     6
 78
     2
 67
     7
 79
     5
170
     0
171
     0
290
     0
174
     0
 93
       13
 44
0.0
173
     0
291
     1
 45
0.0
1001
ACAD
1000
AcDbSavedByObjectVersion
1070
     0
  0
VISUALSTYLE
  5
F3F6
102
{ACAD_XDICTIONARY
360
F451
102
}
102
{ACAD_REACTORS
330
F3F3
102
}
330
F3F3
100
AcDbVisualStyle
  2
Gouraud
 70
     2
 71
     2
 72
     2
 73
     1
 90
        2
 40
-0.6
 41
30.0
 62
     5
 63
     7
 74
     0
 91
        0
 64
     7
 65
   257
 75
     1
175
     1
 42
1.0
 92
        0
 66
     7
 43
1.0
 76
     1
 77
     6
 78
     2
 67
     7
 79
     5
170
     0
171
     0
290
     0
174
     0
 93
       13
 44
0.0
173
     0
291
     1
 45
0.0
1001
ACAD
1000
AcDbSavedByObjectVersion
1070
     0
  0
VISUALSTYLE
  5
F3F7
102
{ACAD_XDICTIONARY
360
F453
102
}
102
{ACAD_REACTORS
330
F3F3
102
}
330
F3F3
100
AcDbVisualStyle
  2
GouraudWithEdges
 70
     3
 71
     2
 72
     2
 73
     1
 90
        2
 40
-0.6
 41
30.0
 62
     5
 63
     7
 74
     1
 91
        0
 64
     7
 65
   257
 75
     1
175
     1
 42
1.0
 92
        0
 66
   257
 43
1.0
 76
     1
 77
     6
 78
     2
 67
     7
 79
     5
170
     0
171
     0
290
     0
174
     0
 93
       13
 44
0.0
173
     0
291
     1
 45
0.0
1001
ACAD
1000
AcDbSavedByObjectVersion
1070
     0
  0
VISUALSTYLE
  5
F3FB
102
{ACAD_XDICTIONARY
360
F45B
102
}
102
{ACAD_REACTORS
330
F3F3
102
}
330
F3F3
100
AcDbVisualStyle
  2
Hidden
 70
     6
 71
     1
 72
     2
 73
     2
 90
        0
 40
-0.6
 41
-30.0
 62
     5
 63
     7
 74
     2
 91
        2
 64
     7
 65
   257
 75
     2
175
     1
 42
40.0
 92
        0
 66
   257
 43
1.0
 76
     1
 77
     6
 78
     2
 67
     7
 79
     3
170
     0
171
     0
290
     0
174
     0
 93
        1
 44
0.0
173
     0
291
     0
 45
0.0
1001
ACAD
1000
AcDbSavedByObjectVersion
1070
     0
  0
VISUALSTYLE
  5
F409
102
{ACAD_XDICTIONARY
360
F477
102
}
102
{ACAD_REACTORS
330
F3F3
102
}
330
F3F3
100
AcDbVisualStyle
  2
JitterOff
 70
    20
 71
     2
 72
     2
 73
     0
 90
        0
 40
-0.6
 41
-30.0
 62
     5
 63
     7
 74
     1
 91
        4
 64
     7
 65
   257
 75
     1
175
     1
 42
1.0
 92
       10
 66
     7
 43
1.0
 76
     1
 77
     6
 78
     2
 67
     7
 79
     5
170
     0
171
     0
290
     0
174
     0
 93
        1
 44
0.0
173
     0
291
     1
 45
0.0
1001
ACAD
1000
AcDbSavedByObjectVersion
1070
     0
  0
VISUALSTYLE
  5
F401
102
{ACAD_XDICTIONARY
360
F467
102
}
102
{ACAD_REACTORS
330
F3F3
102
}
330
F3F3
100
AcDbVisualStyle
  2
Linepattern
 70
    14
 71
     2
 72
     2
 73
     0
 90
        0
 40
-0.6
 41
-30.0
 62
     5
 63
     7
 74
     1
 91
        4
 64
     7
 65
   257
 75
     7
175
     7
 42
1.0
 92
        8
 66
     7
 43
1.0
 76
     1
 77
     6
 78
     2
 67
     7
 79
     5
170
     0
171
     0
290
     0
174
     0
 93
        1
 44
0.0
173
     0
291
     1
 45
0.0
1001
ACAD
1000
AcDbSavedByObjectVersion
1070
     0
  0
VISUALSTYLE
  5
F40A
102
{ACAD_XDICTIONARY
360
F479
102
}
102
{ACAD_REACTORS
330
F3F3
102
}
330
F3F3
100
AcDbVisualStyle
  2
OverhangOff
 70
    21
 71
     2
 72
     2
 73
     0
 90
        0
 40
-0.6
 41
-30.0
 62
     5
 63
     7
 74
     1
 91
        4
 64
     7
 65
   257
 75
     1
175
     1
 42
1.0
 92
        9
 66
     7
 43
1.0
 76
     1
 77
     6
 78
     2
 67
     7
 79
     5
170
     0
171
     0
290
     0
174
     0
 93
        1
 44
0.0
173
     0
291
     1
 45
0.0
1001
ACAD
1000
AcDbSavedByObjectVersion
1070
     0
  0
VISUALSTYLE
  5
F3FD
102
{ACAD_XDICTIONARY
360
F45F
102
}
102
{ACAD_REACTORS
330
F3F3
102
}
330
F3F3
100
AcDbVisualStyle
  2
Realistic
 70
     8
 71
     2
 72
     3
 73
     0
 90
        2
 40
-0.6
 41
30.0
 62
     5
 63
     7
 74
     0
 91
        0
 64
     7
 65
   257
 75
     1
175
     1
 42
1.0
 92
        8
 66
   257
 43
1.0
 76
     1
 77
     6
 78
     2
 67
     7
 79
     3
170
     0
171
     0
290
     0
174
     0
 93
       13
 44
0.0
173
     0
291
     0
 45
0.0
1001
ACAD
1000
AcDbSavedByObjectVersion
1070
     0
  0
VISUALSTYLE
  5
F408
102
{ACAD_XDICTIONARY
360
F475
102
}
102
{ACAD_REACTORS
330
F3F3
102
}
330
F3F3
100
AcDbVisualStyle
  2
Shaded
 70
    27
 71
     2
 72
     2
 73
     1
 90
        2
 40
-0.6
 41
30.0
 62
     5
 63
     7
 74
     0
 91
        4
 64
     7
 65
   257
 75
     1
175
     1
 42
1.0
 92
        8
 66
   257
 43
1.0
 76
     1
 77
     6
 78
     2
 67
     8
 79
     3
170
     0
171
     0
290
     0
174
     0
 93
        5
 44
0.0
173
     0
291
     0
 45
0.0
1001
ACAD
1000
AcDbSavedByObjectVersion
1070
     0
  0
VISUALSTYLE
  5
F407
102
{ACAD_XDICTIONARY
360
F473
102
}
102
{ACAD_REACTORS
330
F3F3
102
}
330
F3F3
100
AcDbVisualStyle
  2
Shaded with edges
 70
    26
 71
     2
 72
     2
 73
     1
 90
        2
 40
-0.6
 41
30.0
 62
     5
 63
     7
 74
     1
 91
       10
 64
     7
 65
   257
 75
     2
175
     1
 42
1.0
 92
        8
 66
   257
 43
1.0
 76
     1
 77
     6
 78
     2
 67
     7
 79
     3
170
     0
171
     0
290
     0
174
     0
 93
        5
 44
0.0
173
     0
291
     0
 45
0.0
1001
ACAD
1000
AcDbSavedByObjectVersion
1070
     0
  0
VISUALSTYLE
  5
F404
102
{ACAD_XDICTIONARY
360
F46D
102
}
102
{ACAD_REACTORS
330
F3F3
102
}
330
F3F3
100
AcDbVisualStyle
  2
Shades of Gray
 70
    23
 71
     2
 72
     2
 73
     3
 90
        0
 40
-0.6
 41
-30.0
 62
     5
 63
     7
 74
     2
 91
        2
 64
     7
 65
     7
 75
     1
175
     1
 42
40.0
 92
        8
 66
     7
 43
1.0
 76
     1
 77
     6
 78
     2
 67
     7
 79
     3
170
     0
171
     0
290
     0
174
     0
 93
        1
 44
0.0
173
     0
291
     0
 45
0.0
1001
ACAD
1000
AcDbSavedByObjectVersion
1070
     0
  0
VISUALSTYLE
  5
F405
102
{ACAD_XDICTIONARY
360
F46F
102
}
102
{ACAD_REACTORS
330
F3F3
102
}
330
F3F3
100
AcDbVisualStyle
  2
Sketchy
 70
    24
 71
     1
 72
     2
 73
     2
 90
        0
 40
-0.6
 41
-30.0
 62
     5
 63
     7
 74
     2
 91
        2
 64
     7
 65
     7
 75
     1
175
     1
 42
40.0
 92
       11
 66
     7
 43
1.0
 76
     1
 77
     6
 78
     2
 67
     7
 79
     6
170
     0
171
     0
290
     0
174
     0
 93
        1
 44
0.0
173
     0
291
     0
 45
0.0
1001
ACAD
1000
AcDbSavedByObjectVersion
1070
     0
  0
VISUALSTYLE
  5
F400
102
{ACAD_XDICTIONARY
360
F465
102
}
102
{ACAD_REACTORS
330
F3F3
102
}
330
F3F3
100
AcDbVisualStyle
  2
Thicken
 70
    13
 71
     2
 72
     2
 73
     0
 90
        0
 40
-0.6
 41
-30.0
 62
     5
 63
     7
 74
     1
 91
        4
 64
     7
 65
   257
 75
     1
175
     1
 42
1.0
 92
       12
 66
     7
 43
1.0
 76
     1
 77
     6
 78
     2
 67
     7
 79
     5
170
     0
171
     0
290
     0
174
     0
 93
        1
 44
0.0
173
     0
291
     1
 45
0.0
1001
ACAD
1000
AcDbSavedByObjectVersion
1070
     0
  0
VISUALSTYLE
  5
F3FA
102
{ACAD_XDICTIONARY
360
F459
102
}
102
{ACAD_REACTORS
330
F3F3
102
}
330
F3F3
100
AcDbVisualStyle
  2
Wireframe
 70
     5
 71
     0
 72
     2
 73
     0
 90
        0
 40
-0.6
 41
-30.0
 62
     5
 63
     7
 74
     1
 91
        4
 64
     7
 65
   257
 75
     1
175
     1
 42
1.0
 92
        0
 66
   257
 43
1.0
 76
     1
 77
     6
 78
     2
 67
     7
 79
     3
170
     0
171
     0
290
     0
174
     0
 93
        1
 44
0.0
173
     0
291
     0
 45
0.0
1001
ACAD
1000
AcDbSavedByObjectVersion
1070
     0
  0
VISUALSTYLE
  5
F406
102
{ACAD_XDICTIONARY
360
F471
102
}
102
{ACAD_REACTORS
330
F3F3
102
}
330
F3F3
100
AcDbVisualStyle
  2
X-Ray
 70
    25
 71
     2
 72
     2
 73
     1
 90
        1
 40
0.5
 41
-30.0
 62
     5
 63
     7
 74
     1
 91
        0
 64
     7
 65
   257
 75
     1
175
     1
 42
1.0
 92
        8
 66
     7
 43
1.0
 76
     1
 77
     6
 78
     2
 67
     7
 79
     3
170
     0
171
     0
290
     0
174
     0
 93
       13
 44
0.0
173
     0
291
     0
 45
0.0
1001
ACAD
1000
AcDbSavedByObjectVersion
1070
     0
  0
DICTIONARYVAR
  5
F440
102
{ACAD_REACTORS
330
F43B
102
}
330
F43B
100
DictionaryVariables
280
     0
  1
1:1
  0
DICTIONARYVAR
  5
F43D
102
{ACAD_REACTORS
330
F43B
102
}
330
F43B
100
DictionaryVariables
280
     0
  1
STANDARD
  0
DICTIONARYVAR
  5
F43C
102
{ACAD_REACTORS
330
F43B
102
}
330
F43B
100
DictionaryVariables
280
     0
  1
STANDARD
  0
DICTIONARYVAR
  5
F43E
102
{ACAD_REACTORS
330
F43B
102
}
330
F43B
100
DictionaryVariables
280
     0
  1
Imperial24
  0
DICTIONARYVAR
  5
F43F
102
{ACAD_REACTORS
330
F43B
102
}
330
F43B
100
DictionaryVariables
280
     0
  1
Imperial24
  0
DICTIONARYVAR
  5
F443
102
{ACAD_REACTORS
330
F43B
102
}
330
F43B
100
DictionaryVariables
280
     0
  1
1
  0
DICTIONARYVAR
  5
F442
102
{ACAD_REACTORS
330
F43B
102
}
330
F43B
100
DictionaryVariables
280
     0
  1
0
  0
DICTIONARYVAR
  5
F441
102
{ACAD_REACTORS
330
F43B
102
}
330
F43B
100
DictionaryVariables
280
     0
  1
127
  0
DICTIONARYVAR
  5
F444
102
{ACAD_REACTORS
330
F43B
102
}
330
F43B
100
DictionaryVariables
280
     0
  1
2
  0
DICTIONARY
  5
F481
330
F426
100
AcDbDictionary
280
     1
281
     1
  3
ACAD_XREC_ROUNDTRIP
360
F482
  0
DICTIONARY
  5
F483
330
F427
100
AcDbDictionary
280
     1
281
     1
  3
ACAD_XREC_ROUNDTRIP
360
F484
  0
DICTIONARY
  5
F485
330
F428
100
AcDbDictionary
280
     1
281
     1
  3
ACAD_XREC_ROUNDTRIP
360
F486
  0
DICTIONARY
  5
F3E4
330
F3E3
100
AcDbDictionary
280
     1
281
     1
  3
ACAD_XREC_ROUNDTRIP
360
F44B
  3
BUMPTILE
360
F3E6
  3
DIFFUSETILE
360
F3E5
  3
OPACITYTILE
360
F3E9
  3
REFLECTIONTILE
360
F3E8
  3
REFRACTIONTILE
360
F3EA
  3
SPECULARTILE
360
F3E7
  0
DICTIONARY
  5
F3DC
330
F3DB
100
AcDbDictionary
280
     1
281
     1
  3
ACAD_XREC_ROUNDTRIP
360
F44A
  3
BUMPTILE
360
F3DE
  3
DIFFUSETILE
360
F3DD
  3
OPACITYTILE
360
F3E1
  3
REFLECTIONTILE
360
F3E0
  3
REFRACTIONTILE
360
F3E2
  3
SPECULARTILE
360
F3DF
  0
DICTIONARY
  5
F3EC
330
F3EB
100
AcDbDictionary
280
     1
281
     1
  3
ACAD_XREC_ROUNDTRIP
360
F44C
  3
BUMPTILE
360
F3EE
  3
DIFFUSETILE
360
F3ED
  3
OPACITYTILE
360
F3F1
  3
REFLECTIONTILE
360
F3F0
  3
REFRACTIONTILE
360
F3F2
  3
SPECULARTILE
360
F3EF
  0
DICTIONARY
  5
F47F
330
F424
100
AcDbDictionary
280
     1
281
     1
  3
ACAD_XREC_ROUNDTRIP
360
F480
  0
DICTIONARY
  5
F446
330
F40E
100
AcDbDictionary
280
     1
281
     1
  3
ACAD_ROUNDTRIP_2008_TABLESTYLE_CELLSTYLEMAP
360
F447
  3
ACAD_XREC_ROUNDTRIP
360
F47D
  0
DICTIONARY
  5
F457
330
F3F9
100
AcDbDictionary
280
     1
281
     1
  3
ACAD_XREC_ROUNDTRIP
360
F458
  0
DICTIONARY
  5
F455
330
F3F8
100
AcDbDictionary
280
     1
281
     1
  3
ACAD_XREC_ROUNDTRIP
360
F456
  0
DICTIONARY
  5
F463
330
F3FF
100
AcDbDictionary
280
     1
281
     1
  3
ACAD_XREC_ROUNDTRIP
360
F464
  0
DICTIONARY
  5
F46B
330
F403
100
AcDbDictionary
280
     1
281
     1
  3
ACAD_XREC_ROUNDTRIP
360
F46C
  0
DICTIONARY
  5
F45D
330
F3FC
100
AcDbDictionary
280
     1
281
     1
  3
ACAD_XREC_ROUNDTRIP
360
F45E
  0
DICTIONARY
  5
F461
330
F3FE
100
AcDbDictionary
280
     1
281
     1
  3
ACAD_XREC_ROUNDTRIP
360
F462
  0
DICTIONARY
  5
F47B
330
F40B
100
AcDbDictionary
280
     1
281
     1
  3
ACAD_XREC_ROUNDTRIP
360
F47C
  0
DICTIONARY
  5
F469
330
F402
100
AcDbDictionary
280
     1
281
     1
  3
ACAD_XREC_ROUNDTRIP
360
F46A
  0
DICTIONARY
  5
F44D
330
F3F4
100
AcDbDictionary
280
     1
281
     1
  3
ACAD_XREC_ROUNDTRIP
360
F44E
  0
DICTIONARY
  5
F44F
330
F3F5
100
AcDbDictionary
280
     1
281
     1
  3
ACAD_XREC_ROUNDTRIP
360
F450
  0
DICTIONARY
  5
F451
330
F3F6
100
AcDbDictionary
280
     1
281
     1
  3
ACAD_XREC_ROUNDTRIP
360
F452
  0
DICTIONARY
  5
F453
330
F3F7
100
AcDbDictionary
280
     1
281
     1
  3
ACAD_XREC_ROUNDTRIP
360
F454
  0
DICTIONARY
  5
F45B
330
F3FB
100
AcDbDictionary
280
     1
281
     1
  3
ACAD_XREC_ROUNDTRIP
360
F45C
  0
DICTIONARY
  5
F477
330
F409
100
AcDbDictionary
280
     1
281
     1
  3
ACAD_XREC_ROUNDTRIP
360
F478
  0
DICTIONARY
  5
F467
330
F401
100
AcDbDictionary
280
     1
281
     1
  3
ACAD_XREC_ROUNDTRIP
360
F468
  0
DICTIONARY
  5
F479
330
F40A
100
AcDbDictionary
280
     1
281
     1
  3
ACAD_XREC_ROUNDTRIP
360
F47A
  0
DICTIONARY
  5
F45F
330
F3FD
100
AcDbDictionary
280
     1
281
     1
  3
ACAD_XREC_ROUNDTRIP
360
F460
  0
DICTIONARY
  5
F475
330
F408
100
AcDbDictionary
280
     1
281
     1
  3
ACAD_XREC_ROUNDTRIP
360
F476
  0
DICTIONARY
  5
F473
330
F407
100
AcDbDictionary
280
     1
281
     1
  3
ACAD_XREC_ROUNDTRIP
360
F474
  0
DICTIONARY
  5
F46D
330
F404
100
AcDbDictionary
280
     1
281
     1
  3
ACAD_XREC_ROUNDTRIP
360
F46E
  0
DICTIONARY
  5
F46F
330
F405
100
AcDbDictionary
280
     1
281
     1
  3
ACAD_XREC_ROUNDTRIP
360
F470
  0
DICTIONARY
  5
F465
330
F400
100
AcDbDictionary
280
     1
281
     1
  3
ACAD_XREC_ROUNDTRIP
360
F466
  0
DICTIONARY
  5
F459
330
F3FA
100
AcDbDictionary
280
     1
281
     1
  3
ACAD_XREC_ROUNDTRIP
360
F45A
  0
DICTIONARY
  5
F471
330
F406
100
AcDbDictionary
280
     1
281
     1
  3
ACAD_XREC_ROUNDTRIP
360
F472
  0
XRECORD
  5
F482
102
{ACAD_REACTORS
330
F481
102
}
330
F481
100
AcDbXrecord
280
     1
102
DISPLAYNAME
  1
Imperial24
102
FLAGS
 90
        0
  0
XRECORD
  5
F484
102
{ACAD_REACTORS
330
F483
102
}
330
F483
100
AcDbXrecord
280
     1
102
SHADEPLOT
 70
     0
102
SHADEPLOTRESLEVEL
 70
     2
102
SHADEPLOTCUSTOMDPI
 70
   300
  0
XRECORD
  5
F486
102
{ACAD_REACTORS
330
F485
102
}
330
F485
100
AcDbXrecord
280
     1
102
SHADEPLOT
 70
     0
102
SHADEPLOTRESLEVEL
 70
     2
102
SHADEPLOTCUSTOMDPI
 70
   300
  0
XRECORD
  5
F44B
102
{ACAD_REACTORS
330
F3E4
102
}
330
F3E4
100
AcDbXrecord
280
     1
102
MATERIAL
148
0.0
149
0.0
149
0.0
 93
        0
 94
      127
282
     0
 72
     0
 77
     0
171
     0
175
     0
179
     0
273
     0
  0
XRECORD
  5
F3E6
102
{ACAD_REACTORS
330
F3E4
102
}
330
F3E4
100
AcDbXrecord
280
     1
270
     1
271
     1
  0
XRECORD
  5
F3E5
102
{ACAD_REACTORS
330
F3E4
102
}
330
F3E4
100
AcDbXrecord
280
     1
270
     1
271
     1
  0
XRECORD
  5
F3E9
102
{ACAD_REACTORS
330
F3E4
102
}
330
F3E4
100
AcDbXrecord
280
     1
270
     1
271
     1
  0
XRECORD
  5
F3E8
102
{ACAD_REACTORS
330
F3E4
102
}
330
F3E4
100
AcDbXrecord
280
     1
270
     1
271
     1
  0
XRECORD
  5
F3EA
102
{ACAD_REACTORS
330
F3E4
102
}
330
F3E4
100
AcDbXrecord
280
     1
270
     1
271
     1
  0
XRECORD
  5
F3E7
102
{ACAD_REACTORS
330
F3E4
102
}
330
F3E4
100
AcDbXrecord
280
     1
270
     1
271
     1
  0
XRECORD
  5
F44A
102
{ACAD_REACTORS
330
F3DC
102
}
330
F3DC
100
AcDbXrecord
280
     1
102
MATERIAL
148
0.0
149
0.0
149
0.0
 93
        0
 94
      127
282
     0
 72
     0
 77
     0
171
     0
175
     0
179
     0
273
     0
  0
XRECORD
  5
F3DE
102
{ACAD_REACTORS
330
F3DC
102
}
330
F3DC
100
AcDbXrecord
280
     1
270
     1
271
     1
  0
XRECORD
  5
F3DD
102
{ACAD_REACTORS
330
F3DC
102
}
330
F3DC
100
AcDbXrecord
280
     1
270
     1
271
     1
  0
XRECORD
  5
F3E1
102
{ACAD_REACTORS
330
F3DC
102
}
330
F3DC
100
AcDbXrecord
280
     1
270
     1
271
     1
  0
XRECORD
  5
F3E0
102
{ACAD_REACTORS
330
F3DC
102
}
330
F3DC
100
AcDbXrecord
280
     1
270
     1
271
     1
  0
XRECORD
  5
F3E2
102
{ACAD_REACTORS
330
F3DC
102
}
330
F3DC
100
AcDbXrecord
280
     1
270
     1
271
     1
  0
XRECORD
  5
F3DF
102
{ACAD_REACTORS
330
F3DC
102
}
330
F3DC
100
AcDbXrecord
280
     1
270
     1
271
     1
  0
XRECORD
  5
F44C
102
{ACAD_REACTORS
330
F3EC
102
}
330
F3EC
100
AcDbXrecord
280
     1
102
MATERIAL
148
0.0
149
0.0
149
0.0
 93
        0
 94
      127
282
     0
 72
     0
 77
     0
171
     0
175
     0
179
     0
273
     0
  0
XRECORD
  5
F3EE
102
{ACAD_REACTORS
330
F3EC
102
}
330
F3EC
100
AcDbXrecord
280
     1
270
     1
271
     1
  0
XRECORD
  5
F3ED
102
{ACAD_REACTORS
330
F3EC
102
}
330
F3EC
100
AcDbXrecord
280
     1
270
     1
271
     1
  0
XRECORD
  5
F3F1
102
{ACAD_REACTORS
330
F3EC
102
}
330
F3EC
100
AcDbXrecord
280
     1
270
     1
271
     1
  0
XRECORD
  5
F3F0
102
{ACAD_REACTORS
330
F3EC
102
}
330
F3EC
100
AcDbXrecord
280
     1
270
     1
271
     1
  0
XRECORD
  5
F3F2
102
{ACAD_REACTORS
330
F3EC
102
}
330
F3EC
100
AcDbXrecord
280
     1
270
     1
271
     1
  0
XRECORD
  5
F3EF
102
{ACAD_REACTORS
330
F3EC
102
}
330
F3EC
100
AcDbXrecord
280
     1
270
     1
271
     1
  0
XRECORD
  5
F480
102
{ACAD_REACTORS
330
F47F
102
}
330
F47F
100
AcDbXrecord
280
     1
102
DISPLAYNAME
  1
Imperial24
102
FLAGS
 90
        0
  0
CELLSTYLEMAP
  5
F447
102
{ACAD_REACTORS
330
F446
102
}
330
F446
100
AcDbCellStyleMap
 90
        3
300
CELLSTYLE
  1
TABLEFORMAT_BEGIN
 90
        5
170
     1
 91
        0
 92
    32768
 62
   257
 93
        1
300
CONTENTFORMAT
  1
CONTENTFORMAT_BEGIN
 90
        0
 91
        0
 92
      512
 93
        0
300

 40
0.0
140
1.0
 94
        5
 62
     0
340
EFFB
144
0.25
309
CONTENTFORMAT_END
171
     0
 94
        0
309
TABLEFORMAT_END
  1
CELLSTYLE_BEGIN
 90
        1
 91
        1
300
_TITLE
309
CELLSTYLE_END
300
CELLSTYLE
  1
TABLEFORMAT_BEGIN
 90
        5
170
     1
 91
        0
 92
        0
 62
   257
 93
        1
300
CONTENTFORMAT
  1
CONTENTFORMAT_BEGIN
 90
        0
 91
        0
 92
      512
 93
        0
300

 40
0.0
140
1.0
 94
        5
 62
     0
340
EFFB
144
0.18
309
CONTENTFORMAT_END
171
     0
 94
        0
309
TABLEFORMAT_END
  1
CELLSTYLE_BEGIN
 90
        2
 91
        1
300
_HEADER
309
CELLSTYLE_END
300
CELLSTYLE
  1
TABLEFORMAT_BEGIN
 90
        5
170
     1
 91
        0
 92
        0
 62
   257
 93
        1
300
CONTENTFORMAT
  1
CONTENTFORMAT_BEGIN
 90
        0
 91
        0
 92
      512
 93
        0
300

 40
0.0
140
1.0
 94
        2
 62
     0
340
EFFB
144
0.18
309
CONTENTFORMAT_END
171
     0
 94
        0
309
TABLEFORMAT_END
  1
CELLSTYLE_BEGIN
 90
        3
 91
        2
300
_DATA
309
CELLSTYLE_END
  0
XRECORD
  5
F47D
102
{ACAD_REACTORS
330
F446
102
}
330
F446
100
AcDbXrecord
280
     1
102
ACAD_ROUNDTRIP_PRE2007_TABLESTYLE
 90
      512
 91
        0
  1

 92
      512
 93
        0
  2

 94
      512
 95
        0
  3

  0
XRECORD
  5
F458
102
{ACAD_REACTORS
330
F457
102
}
330
F457
100
AcDbXrecord
280
     1
102
RTVSPost2010Prop28
280
     1
102
RTVSPost2010PropOp28
 70
     1
102
RTVSPost2010Prop29
280
     1
102
RTVSPost2010PropOp29
 70
     1
102
RTVSPost2010Prop30
280
     0
102
RTVSPost2010PropOp30
 70
     1
102
RTVSPost2010Prop31
280
     0
102
RTVSPost2010PropOp31
 70
     1
102
RTVSPost2010Prop32
280
     0
102
RTVSPost2010PropOp32
 70
     1
102
RTVSPost2010Prop33
280
     0
102
RTVSPost2010PropOp33
 70
     1
102
RTVSPost2010Prop34
280
     0
102
RTVSPost2010PropOp34
 70
     1
102
RTVSPost2010Prop35
280
     0
102
RTVSPost2010PropOp35
 70
     1
102
RTVSPost2010Prop36
280
     0
102
RTVSPost2010PropOp36
 70
     1
102
RTVSPost2010Prop37
 90
       50
102
RTVSPost2010PropOp37
 70
     1
102
RTVSPost2010Prop38
140
0.0
102
RTVSPost2010PropOp38
 70
     1
102
RTVSPost2010Prop39
140
1.0
102
RTVSPost2010PropOp39
 70
     1
102
RTVSPost2010Prop40
 90
        0
102
RTVSPost2010PropOp40
 70
     1
102
RTVSPost2010Prop41ColorIndex
 90
       18
102
RTVSPost2010Prop41ColorRGB
 90
        0
102
RTVSPost2010PropOp41
 70
     1
102
RTVSPost2010Prop42
 90
       50
102
RTVSPost2010PropOp42
 70
     1
102
RTVSPost2010Prop43
 90
        3
102
RTVSPost2010PropOp43
 70
     1
102
RTVSPost2010Prop44ColorIndex
 90
        5
102
RTVSPost2010Prop44ColorRGB
 90
      255
102
RTVSPost2010PropOp44
 70
     1
102
RTVSPost2010Prop45
280
     0
102
RTVSPost2010PropOp45
 70
     1
102
RTVSPost2010Prop46
 90
       50
102
RTVSPost2010PropOp46
 70
     1
102
RTVSPost2010Prop47
 90
       50
102
RTVSPost2010PropOp47
 70
     1
102
RTVSPost2010Prop48
 90
       50
102
RTVSPost2010PropOp48
 70
     1
102
RTVSPost2010Prop49
280
     0
102
RTVSPost2010PropOp49
 70
     1
102
RTVSPost2010Prop50
 90
       50
102
RTVSPost2010PropOp50
 70
     1
102
RTVSPost2010Prop51ColorIndex
 90
      256
102
RTVSPost2010Prop51ColorRGB
 90
-16777216
102
RTVSPost2010PropOp51
 70
     0
102
RTVSPost2010Prop52
140
1.0
102
RTVSPost2010PropOp52
 70
     0
102
RTVSPost2010Prop53
 90
        2
102
RTVSPost2010PropOp53
 70
     1
102
RTVSPost2010Prop54
  1
strokes_ogs.tif
102
RTVSPost2010PropOp54
 70
     1
102
RTVSPost2010Prop55
280
     0
102
RTVSPost2010PropOp55
 70
     1
102
RTVSPost2010Prop56
140
1.0
102
RTVSPost2010PropOp56
 70
     1
102
RTVSPost2010Prop57
140
1.0
102
RTVSPost2010PropOp57
 70
     1
102
RTVSPropertyOp0
 70
     1
102
RTVSPropertyOp1
 70
     1
102
RTVSPropertyOp2
 70
     1
102
RTVSPropertyOp3
 70
     1
102
RTVSPropertyOp4
 70
     1
102
RTVSPropertyOp5
 70
     1
102
RTVSPropertyOp6
 70
     1
102
RTVSPropertyOp7
 70
     1
102
RTVSPropertyOp8
 70
     1
102
RTVSPropertyOp9
 70
     1
102
RTVSPropertyOp10
 70
     1
102
RTVSPropertyOp11
 70
     1
102
RTVSPropertyOp12
 70
     1
102
RTVSPropertyOp13
 70
     1
102
RTVSPropertyOp14
 70
     1
102
RTVSPropertyOp15
 70
     1
102
RTVSPropertyOp16
 70
     1
102
RTVSPropertyOp17
 70
     1
102
RTVSPropertyOp18
 70
     1
102
RTVSPropertyOp19
 70
     1
102
RTVSPropertyOp20
 70
     1
102
RTVSPropertyOp21
 70
     1
102
RTVSPropertyOp22
 70
     1
102
RTVSPropertyOp23
 70
     1
102
RTVSPropertyOp24
 70
     1
102
RTVSPropertyOp25
 70
     1
102
RTVSPropertyOp26
 70
     1
102
RTVSPropertyOp27
 70
     1
102
RTVSPropertyOp28
 70
     1
102
RTVSPropertyOp29
 70
     1
102
RTVSPropertyOp30
 70
     1
102
RTVSPropertyOp31
 70
     1
102
RTVSPropertyOp32
 70
     1
102
RTVSPropertyOp33
 70
     1
102
RTVSPropertyOp34
 70
     1
102
RTVSPropertyOp35
 70
     1
102
RTVSPropertyOp36
 70
     1
102
RTVSPropertyOp37
 70
     1
102
RTVSPropertyOp38
 70
     1
102
RTVSPropertyOp39
 70
     1
102
RTVSPropertyOp40
 70
     1
102
RTVSPropertyOp41
 70
     1
102
RTVSPropertyOp42
 70
     1
102
RTVSPropertyOp43
 70
     1
102
RTVSPropertyOp44
 70
     1
102
RTVSPropertyOp45
 70
     1
102
RTVSPropertyOp46
 70
     1
102
RTVSPropertyOp47
 70
     1
102
RTVSPropertyOp48
 70
     1
102
RTVSPropertyOp49
 70
     1
102
RTVSPropertyOp50
 70
     1
102
RTVSPropertyOp51
 70
     0
102
RTVSPropertyOp52
 70
     0
102
RTVSPropertyOp53
 70
     1
102
RTVSPropertyOp54
 70
     1
102
RTVSPropertyOp55
 70
     1
102
RTVSPropertyOp56
 70
     1
102
RTVSPropertyOp57
 70
     1
102
RTVSPropertyOp58
 70
     1
102
RTVSPropertyOp59
 70
     1
102
RTVSPropertyOp60
 70
     1
102
RTVSPropertyOp61
 70
     1
102
RTVSPropertyOp62
 70
     1
  0
XRECORD
  5
F456
102
{ACAD_REACTORS
330
F455
102
}
330
F455
100
AcDbXrecord
280
     1
102
RTVSPost2010Prop28
280
     0
102
RTVSPost2010PropOp28
 70
     1
102
RTVSPost2010Prop29
280
     1
102
RTVSPost2010PropOp29
 70
     1
102
RTVSPost2010Prop30
280
     1
102
RTVSPost2010PropOp30
 70
     1
102
RTVSPost2010Prop31
280
     0
102
RTVSPost2010PropOp31
 70
     1
102
RTVSPost2010Prop32
280
     0
102
RTVSPost2010PropOp32
 70
     1
102
RTVSPost2010Prop33
280
     0
102
RTVSPost2010PropOp33
 70
     1
102
RTVSPost2010Prop34
280
     0
102
RTVSPost2010PropOp34
 70
     1
102
RTVSPost2010Prop35
280
     0
102
RTVSPost2010PropOp35
 70
     1
102
RTVSPost2010Prop36
280
     0
102
RTVSPost2010PropOp36
 70
     1
102
RTVSPost2010Prop37
 90
       50
102
RTVSPost2010PropOp37
 70
     1
102
RTVSPost2010Prop38
140
0.0
102
RTVSPost2010PropOp38
 70
     1
102
RTVSPost2010Prop39
140
1.0
102
RTVSPost2010PropOp39
 70
     1
102
RTVSPost2010Prop40
 90
        0
102
RTVSPost2010PropOp40
 70
     1
102
RTVSPost2010Prop41ColorIndex
 90
       18
102
RTVSPost2010Prop41ColorRGB
 90
        0
102
RTVSPost2010PropOp41
 70
     1
102
RTVSPost2010Prop42
 90
       50
102
RTVSPost2010PropOp42
 70
     1
102
RTVSPost2010Prop43
 90
        3
102
RTVSPost2010PropOp43
 70
     1
102
RTVSPost2010Prop44ColorIndex
 90
        5
102
RTVSPost2010Prop44ColorRGB
 90
      255
102
RTVSPost2010PropOp44
 70
     1
102
RTVSPost2010Prop45
280
     0
102
RTVSPost2010PropOp45
 70
     1
102
RTVSPost2010Prop46
 90
       50
102
RTVSPost2010PropOp46
 70
     1
102
RTVSPost2010Prop47
 90
       50
102
RTVSPost2010PropOp47
 70
     1
102
RTVSPost2010Prop48
 90
       50
102
RTVSPost2010PropOp48
 70
     1
102
RTVSPost2010Prop49
280
     0
102
RTVSPost2010PropOp49
 70
     1
102
RTVSPost2010Prop50
 90
       50
102
RTVSPost2010PropOp50
 70
     1
102
RTVSPost2010Prop51ColorIndex
 90
      256
102
RTVSPost2010Prop51ColorRGB
 90
-16777216
102
RTVSPost2010PropOp51
 70
     0
102
RTVSPost2010Prop52
140
1.0
102
RTVSPost2010PropOp52
 70
     0
102
RTVSPost2010Prop53
 90
        2
102
RTVSPost2010PropOp53
 70
     1
102
RTVSPost2010Prop54
  1
strokes_ogs.tif
102
RTVSPost2010PropOp54
 70
     1
102
RTVSPost2010Prop55
280
     0
102
RTVSPost2010PropOp55
 70
     1
102
RTVSPost2010Prop56
140
1.0
102
RTVSPost2010PropOp56
 70
     1
102
RTVSPost2010Prop57
140
1.0
102
RTVSPost2010PropOp57
 70
     1
102
RTVSPropertyOp0
 70
     1
102
RTVSPropertyOp1
 70
     1
102
RTVSPropertyOp2
 70
     1
102
RTVSPropertyOp3
 70
     1
102
RTVSPropertyOp4
 70
     1
102
RTVSPropertyOp5
 70
     1
102
RTVSPropertyOp6
 70
     1
102
RTVSPropertyOp7
 70
     1
102
RTVSPropertyOp8
 70
     1
102
RTVSPropertyOp9
 70
     1
102
RTVSPropertyOp10
 70
     1
102
RTVSPropertyOp11
 70
     1
102
RTVSPropertyOp12
 70
     1
102
RTVSPropertyOp13
 70
     1
102
RTVSPropertyOp14
 70
     1
102
RTVSPropertyOp15
 70
     1
102
RTVSPropertyOp16
 70
     1
102
RTVSPropertyOp17
 70
     1
102
RTVSPropertyOp18
 70
     1
102
RTVSPropertyOp19
 70
     1
102
RTVSPropertyOp20
 70
     1
102
RTVSPropertyOp21
 70
     1
102
RTVSPropertyOp22
 70
     1
102
RTVSPropertyOp23
 70
     1
102
RTVSPropertyOp24
 70
     1
102
RTVSPropertyOp25
 70
     1
102
RTVSPropertyOp26
 70
     1
102
RTVSPropertyOp27
 70
     1
102
RTVSPropertyOp28
 70
     1
102
RTVSPropertyOp29
 70
     1
102
RTVSPropertyOp30
 70
     1
102
RTVSPropertyOp31
 70
     1
102
RTVSPropertyOp32
 70
     1
102
RTVSPropertyOp33
 70
     1
102
RTVSPropertyOp34
 70
     1
102
RTVSPropertyOp35
 70
     1
102
RTVSPropertyOp36
 70
     1
102
RTVSPropertyOp37
 70
     1
102
RTVSPropertyOp38
 70
     1
102
RTVSPropertyOp39
 70
     1
102
RTVSPropertyOp40
 70
     1
102
RTVSPropertyOp41
 70
     1
102
RTVSPropertyOp42
 70
     1
102
RTVSPropertyOp43
 70
     1
102
RTVSPropertyOp44
 70
     1
102
RTVSPropertyOp45
 70
     1
102
RTVSPropertyOp46
 70
     1
102
RTVSPropertyOp47
 70
     1
102
RTVSPropertyOp48
 70
     1
102
RTVSPropertyOp49
 70
     1
102
RTVSPropertyOp50
 70
     1
102
RTVSPropertyOp51
 70
     0
102
RTVSPropertyOp52
 70
     0
102
RTVSPropertyOp53
 70
     1
102
RTVSPropertyOp54
 70
     1
102
RTVSPropertyOp55
 70
     1
102
RTVSPropertyOp56
 70
     1
102
RTVSPropertyOp57
 70
     1
102
RTVSPropertyOp58
 70
     1
102
RTVSPropertyOp59
 70
     1
102
RTVSPropertyOp60
 70
     1
102
RTVSPropertyOp61
 70
     1
102
RTVSPropertyOp62
 70
     1
  0
XRECORD
  5
F464
102
{ACAD_REACTORS
330
F463
102
}
330
F463
100
AcDbXrecord
280
     1
102
RTVSPost2010Prop28
280
     0
102
RTVSPost2010PropOp28
 70
     1
102
RTVSPost2010Prop29
280
     1
102
RTVSPost2010PropOp29
 70
     1
102
RTVSPost2010Prop30
280
     1
102
RTVSPost2010PropOp30
 70
     1
102
RTVSPost2010Prop31
280
     0
102
RTVSPost2010PropOp31
 70
     1
102
RTVSPost2010Prop32
280
     0
102
RTVSPost2010PropOp32
 70
     1
102
RTVSPost2010Prop33
280
     0
102
RTVSPost2010PropOp33
 70
     1
102
RTVSPost2010Prop34
280
     0
102
RTVSPost2010PropOp34
 70
     1
102
RTVSPost2010Prop35
280
     0
102
RTVSPost2010PropOp35
 70
     1
102
RTVSPost2010Prop36
280
     0
102
RTVSPost2010PropOp36
 70
     1
102
RTVSPost2010Prop37
 90
       50
102
RTVSPost2010PropOp37
 70
     1
102
RTVSPost2010Prop38
140
0.0
102
RTVSPost2010PropOp38
 70
     1
102
RTVSPost2010Prop39
140
1.0
102
RTVSPost2010PropOp39
 70
     1
102
RTVSPost2010Prop40
 90
        0
102
RTVSPost2010PropOp40
 70
     1
102
RTVSPost2010Prop41ColorIndex
 90
       18
102
RTVSPost2010Prop41ColorRGB
 90
        0
102
RTVSPost2010PropOp41
 70
     1
102
RTVSPost2010Prop42
 90
       50
102
RTVSPost2010PropOp42
 70
     1
102
RTVSPost2010Prop43
 90
        3
102
RTVSPost2010PropOp43
 70
     1
102
RTVSPost2010Prop44ColorIndex
 90
        5
102
RTVSPost2010Prop44ColorRGB
 90
      255
102
RTVSPost2010PropOp44
 70
     1
102
RTVSPost2010Prop45
280
     0
102
RTVSPost2010PropOp45
 70
     1
102
RTVSPost2010Prop46
 90
       50
102
RTVSPost2010PropOp46
 70
     1
102
RTVSPost2010Prop47
 90
       50
102
RTVSPost2010PropOp47
 70
     1
102
RTVSPost2010Prop48
 90
       50
102
RTVSPost2010PropOp48
 70
     1
102
RTVSPost2010Prop49
280
     0
102
RTVSPost2010PropOp49
 70
     1
102
RTVSPost2010Prop50
 90
       50
102
RTVSPost2010PropOp50
 70
     1
102
RTVSPost2010Prop51ColorIndex
 90
      256
102
RTVSPost2010Prop51ColorRGB
 90
-16777216
102
RTVSPost2010PropOp51
 70
     0
102
RTVSPost2010Prop52
140
1.0
102
RTVSPost2010PropOp52
 70
     0
102
RTVSPost2010Prop53
 90
        2
102
RTVSPost2010PropOp53
 70
     1
102
RTVSPost2010Prop54
  1
strokes_ogs.tif
102
RTVSPost2010PropOp54
 70
     1
102
RTVSPost2010Prop55
280
     0
102
RTVSPost2010PropOp55
 70
     1
102
RTVSPost2010Prop56
140
1.0
102
RTVSPost2010PropOp56
 70
     1
102
RTVSPost2010Prop57
140
1.0
102
RTVSPost2010PropOp57
 70
     1
102
RTVSPropertyOp0
 70
     1
102
RTVSPropertyOp1
 70
     1
102
RTVSPropertyOp2
 70
     1
102
RTVSPropertyOp3
 70
     1
102
RTVSPropertyOp4
 70
     1
102
RTVSPropertyOp5
 70
     1
102
RTVSPropertyOp6
 70
     1
102
RTVSPropertyOp7
 70
     1
102
RTVSPropertyOp8
 70
     1
102
RTVSPropertyOp9
 70
     1
102
RTVSPropertyOp10
 70
     1
102
RTVSPropertyOp11
 70
     1
102
RTVSPropertyOp12
 70
     1
102
RTVSPropertyOp13
 70
     1
102
RTVSPropertyOp14
 70
     1
102
RTVSPropertyOp15
 70
     1
102
RTVSPropertyOp16
 70
     1
102
RTVSPropertyOp17
 70
     1
102
RTVSPropertyOp18
 70
     1
102
RTVSPropertyOp19
 70
     1
102
RTVSPropertyOp20
 70
     1
102
RTVSPropertyOp21
 70
     1
102
RTVSPropertyOp22
 70
     1
102
RTVSPropertyOp23
 70
     1
102
RTVSPropertyOp24
 70
     1
102
RTVSPropertyOp25
 70
     1
102
RTVSPropertyOp26
 70
     1
102
RTVSPropertyOp27
 70
     1
102
RTVSPropertyOp28
 70
     1
102
RTVSPropertyOp29
 70
     1
102
RTVSPropertyOp30
 70
     1
102
RTVSPropertyOp31
 70
     1
102
RTVSPropertyOp32
 70
     1
102
RTVSPropertyOp33
 70
     1
102
RTVSPropertyOp34
 70
     1
102
RTVSPropertyOp35
 70
     1
102
RTVSPropertyOp36
 70
     1
102
RTVSPropertyOp37
 70
     1
102
RTVSPropertyOp38
 70
     1
102
RTVSPropertyOp39
 70
     1
102
RTVSPropertyOp40
 70
     1
102
RTVSPropertyOp41
 70
     1
102
RTVSPropertyOp42
 70
     1
102
RTVSPropertyOp43
 70
     1
102
RTVSPropertyOp44
 70
     1
102
RTVSPropertyOp45
 70
     1
102
RTVSPropertyOp46
 70
     1
102
RTVSPropertyOp47
 70
     1
102
RTVSPropertyOp48
 70
     1
102
RTVSPropertyOp49
 70
     1
102
RTVSPropertyOp50
 70
     1
102
RTVSPropertyOp51
 70
     0
102
RTVSPropertyOp52
 70
     0
102
RTVSPropertyOp53
 70
     1
102
RTVSPropertyOp54
 70
     1
102
RTVSPropertyOp55
 70
     1
102
RTVSPropertyOp56
 70
     1
102
RTVSPropertyOp57
 70
     1
102
RTVSPropertyOp58
 70
     1
102
RTVSPropertyOp59
 70
     1
102
RTVSPropertyOp60
 70
     1
102
RTVSPropertyOp61
 70
     1
102
RTVSPropertyOp62
 70
     1
  0
XRECORD
  5
F46C
102
{ACAD_REACTORS
330
F46B
102
}
330
F46B
100
AcDbXrecord
280
     1
102
RTVSPost2010Prop28
280
     0
102
RTVSPost2010PropOp28
 70
     1
102
RTVSPost2010Prop29
280
     1
102
RTVSPost2010PropOp29
 70
     1
102
RTVSPost2010Prop30
280
     1
102
RTVSPost2010PropOp30
 70
     1
102
RTVSPost2010Prop31
280
     0
102
RTVSPost2010PropOp31
 70
     1
102
RTVSPost2010Prop32
280
     0
102
RTVSPost2010PropOp32
 70
     1
102
RTVSPost2010Prop33
280
     0
102
RTVSPost2010PropOp33
 70
     1
102
RTVSPost2010Prop34
280
     0
102
RTVSPost2010PropOp34
 70
     1
102
RTVSPost2010Prop35
280
     0
102
RTVSPost2010PropOp35
 70
     1
102
RTVSPost2010Prop36
280
     0
102
RTVSPost2010PropOp36
 70
     1
102
RTVSPost2010Prop37
 90
       50
102
RTVSPost2010PropOp37
 70
     1
102
RTVSPost2010Prop38
140
0.0
102
RTVSPost2010PropOp38
 70
     1
102
RTVSPost2010Prop39
140
1.0
102
RTVSPost2010PropOp39
 70
     1
102
RTVSPost2010Prop40
 90
        0
102
RTVSPost2010PropOp40
 70
     1
102
RTVSPost2010Prop41ColorIndex
 90
       18
102
RTVSPost2010Prop41ColorRGB
 90
        0
102
RTVSPost2010PropOp41
 70
     1
102
RTVSPost2010Prop42
 90
       50
102
RTVSPost2010PropOp42
 70
     1
102
RTVSPost2010Prop43
 90
        3
102
RTVSPost2010PropOp43
 70
     1
102
RTVSPost2010Prop44ColorIndex
 90
        5
102
RTVSPost2010Prop44ColorRGB
 90
      255
102
RTVSPost2010PropOp44
 70
     1
102
RTVSPost2010Prop45
280
     0
102
RTVSPost2010PropOp45
 70
     1
102
RTVSPost2010Prop46
 90
       50
102
RTVSPost2010PropOp46
 70
     1
102
RTVSPost2010Prop47
 90
       50
102
RTVSPost2010PropOp47
 70
     1
102
RTVSPost2010Prop48
 90
       50
102
RTVSPost2010PropOp48
 70
     1
102
RTVSPost2010Prop49
280
     0
102
RTVSPost2010PropOp49
 70
     1
102
RTVSPost2010Prop50
 90
       50
102
RTVSPost2010PropOp50
 70
     1
102
RTVSPost2010Prop51ColorIndex
 90
      256
102
RTVSPost2010Prop51ColorRGB
 90
-16777216
102
RTVSPost2010PropOp51
 70
     0
102
RTVSPost2010Prop52
140
1.0
102
RTVSPost2010PropOp52
 70
     0
102
RTVSPost2010Prop53
 90
        2
102
RTVSPost2010PropOp53
 70
     1
102
RTVSPost2010Prop54
  1
strokes_ogs.tif
102
RTVSPost2010PropOp54
 70
     1
102
RTVSPost2010Prop55
280
     0
102
RTVSPost2010PropOp55
 70
     1
102
RTVSPost2010Prop56
140
1.0
102
RTVSPost2010PropOp56
 70
     1
102
RTVSPost2010Prop57
140
1.0
102
RTVSPost2010PropOp57
 70
     1
102
RTVSPropertyOp0
 70
     1
102
RTVSPropertyOp1
 70
     1
102
RTVSPropertyOp2
 70
     1
102
RTVSPropertyOp3
 70
     1
102
RTVSPropertyOp4
 70
     1
102
RTVSPropertyOp5
 70
     1
102
RTVSPropertyOp6
 70
     1
102
RTVSPropertyOp7
 70
     1
102
RTVSPropertyOp8
 70
     1
102
RTVSPropertyOp9
 70
     1
102
RTVSPropertyOp10
 70
     1
102
RTVSPropertyOp11
 70
     1
102
RTVSPropertyOp12
 70
     1
102
RTVSPropertyOp13
 70
     1
102
RTVSPropertyOp14
 70
     1
102
RTVSPropertyOp15
 70
     1
102
RTVSPropertyOp16
 70
     1
102
RTVSPropertyOp17
 70
     1
102
RTVSPropertyOp18
 70
     1
102
RTVSPropertyOp19
 70
     1
102
RTVSPropertyOp20
 70
     1
102
RTVSPropertyOp21
 70
     1
102
RTVSPropertyOp22
 70
     1
102
RTVSPropertyOp23
 70
     1
102
RTVSPropertyOp24
 70
     1
102
RTVSPropertyOp25
 70
     1
102
RTVSPropertyOp26
 70
     1
102
RTVSPropertyOp27
 70
     1
102
RTVSPropertyOp28
 70
     1
102
RTVSPropertyOp29
 70
     1
102
RTVSPropertyOp30
 70
     1
102
RTVSPropertyOp31
 70
     1
102
RTVSPropertyOp32
 70
     1
102
RTVSPropertyOp33
 70
     1
102
RTVSPropertyOp34
 70
     1
102
RTVSPropertyOp35
 70
     1
102
RTVSPropertyOp36
 70
     1
102
RTVSPropertyOp37
 70
     1
102
RTVSPropertyOp38
 70
     1
102
RTVSPropertyOp39
 70
     1
102
RTVSPropertyOp40
 70
     1
102
RTVSPropertyOp41
 70
     1
102
RTVSPropertyOp42
 70
     1
102
RTVSPropertyOp43
 70
     1
102
RTVSPropertyOp44
 70
     1
102
RTVSPropertyOp45
 70
     1
102
RTVSPropertyOp46
 70
     1
102
RTVSPropertyOp47
 70
     1
102
RTVSPropertyOp48
 70
     1
102
RTVSPropertyOp49
 70
     1
102
RTVSPropertyOp50
 70
     1
102
RTVSPropertyOp51
 70
     0
102
RTVSPropertyOp52
 70
     0
102
RTVSPropertyOp53
 70
     1
102
RTVSPropertyOp54
 70
     1
102
RTVSPropertyOp55
 70
     1
102
RTVSPropertyOp56
 70
     1
102
RTVSPropertyOp57
 70
     1
102
RTVSPropertyOp58
 70
     1
102
RTVSPropertyOp59
 70
     1
102
RTVSPropertyOp60
 70
     1
102
RTVSPropertyOp61
 70
     1
102
RTVSPropertyOp62
 70
     1
  0
XRECORD
  5
F45E
102
{ACAD_REACTORS
330
F45D
102
}
330
F45D
100
AcDbXrecord
280
     1
102
RTVSPost2010Prop28
280
     0
102
RTVSPost2010PropOp28
 70
     1
102
RTVSPost2010Prop29
280
     1
102
RTVSPost2010PropOp29
 70
     1
102
RTVSPost2010Prop30
280
     1
102
RTVSPost2010PropOp30
 70
     1
102
RTVSPost2010Prop31
280
     0
102
RTVSPost2010PropOp31
 70
     1
102
RTVSPost2010Prop32
280
     0
102
RTVSPost2010PropOp32
 70
     1
102
RTVSPost2010Prop33
280
     0
102
RTVSPost2010PropOp33
 70
     1
102
RTVSPost2010Prop34
280
     0
102
RTVSPost2010PropOp34
 70
     1
102
RTVSPost2010Prop35
280
     0
102
RTVSPost2010PropOp35
 70
     1
102
RTVSPost2010Prop36
280
     0
102
RTVSPost2010PropOp36
 70
     1
102
RTVSPost2010Prop37
 90
       50
102
RTVSPost2010PropOp37
 70
     1
102
RTVSPost2010Prop38
140
0.0
102
RTVSPost2010PropOp38
 70
     1
102
RTVSPost2010Prop39
140
1.0
102
RTVSPost2010PropOp39
 70
     1
102
RTVSPost2010Prop40
 90
        0
102
RTVSPost2010PropOp40
 70
     1
102
RTVSPost2010Prop41ColorIndex
 90
       18
102
RTVSPost2010Prop41ColorRGB
 90
        0
102
RTVSPost2010PropOp41
 70
     1
102
RTVSPost2010Prop42
 90
       50
102
RTVSPost2010PropOp42
 70
     1
102
RTVSPost2010Prop43
 90
        3
102
RTVSPost2010PropOp43
 70
     1
102
RTVSPost2010Prop44ColorIndex
 90
        5
102
RTVSPost2010Prop44ColorRGB
 90
      255
102
RTVSPost2010PropOp44
 70
     1
102
RTVSPost2010Prop45
280
     0
102
RTVSPost2010PropOp45
 70
     1
102
RTVSPost2010Prop46
 90
       50
102
RTVSPost2010PropOp46
 70
     1
102
RTVSPost2010Prop47
 90
       50
102
RTVSPost2010PropOp47
 70
     1
102
RTVSPost2010Prop48
 90
       50
102
RTVSPost2010PropOp48
 70
     1
102
RTVSPost2010Prop49
280
     0
102
RTVSPost2010PropOp49
 70
     1
102
RTVSPost2010Prop50
 90
       50
102
RTVSPost2010PropOp50
 70
     1
102
RTVSPost2010Prop51ColorIndex
 90
      256
102
RTVSPost2010Prop51ColorRGB
 90
-16777216
102
RTVSPost2010PropOp51
 70
     0
102
RTVSPost2010Prop52
140
1.0
102
RTVSPost2010PropOp52
 70
     0
102
RTVSPost2010Prop53
 90
        2
102
RTVSPost2010PropOp53
 70
     1
102
RTVSPost2010Prop54
  1
strokes_ogs.tif
102
RTVSPost2010PropOp54
 70
     1
102
RTVSPost2010Prop55
280
     0
102
RTVSPost2010PropOp55
 70
     1
102
RTVSPost2010Prop56
140
1.0
102
RTVSPost2010PropOp56
 70
     1
102
RTVSPost2010Prop57
140
1.0
102
RTVSPost2010PropOp57
 70
     1
102
RTVSPropertyOp0
 70
     1
102
RTVSPropertyOp1
 70
     1
102
RTVSPropertyOp2
 70
     1
102
RTVSPropertyOp3
 70
     1
102
RTVSPropertyOp4
 70
     1
102
RTVSPropertyOp5
 70
     1
102
RTVSPropertyOp6
 70
     1
102
RTVSPropertyOp7
 70
     1
102
RTVSPropertyOp8
 70
     1
102
RTVSPropertyOp9
 70
     1
102
RTVSPropertyOp10
 70
     1
102
RTVSPropertyOp11
 70
     1
102
RTVSPropertyOp12
 70
     1
102
RTVSPropertyOp13
 70
     1
102
RTVSPropertyOp14
 70
     1
102
RTVSPropertyOp15
 70
     1
102
RTVSPropertyOp16
 70
     1
102
RTVSPropertyOp17
 70
     1
102
RTVSPropertyOp18
 70
     1
102
RTVSPropertyOp19
 70
     1
102
RTVSPropertyOp20
 70
     1
102
RTVSPropertyOp21
 70
     1
102
RTVSPropertyOp22
 70
     1
102
RTVSPropertyOp23
 70
     1
102
RTVSPropertyOp24
 70
     1
102
RTVSPropertyOp25
 70
     1
102
RTVSPropertyOp26
 70
     1
102
RTVSPropertyOp27
 70
     1
102
RTVSPropertyOp28
 70
     1
102
RTVSPropertyOp29
 70
     1
102
RTVSPropertyOp30
 70
     1
102
RTVSPropertyOp31
 70
     1
102
RTVSPropertyOp32
 70
     1
102
RTVSPropertyOp33
 70
     1
102
RTVSPropertyOp34
 70
     1
102
RTVSPropertyOp35
 70
     1
102
RTVSPropertyOp36
 70
     1
102
RTVSPropertyOp37
 70
     1
102
RTVSPropertyOp38
 70
     1
102
RTVSPropertyOp39
 70
     1
102
RTVSPropertyOp40
 70
     1
102
RTVSPropertyOp41
 70
     1
102
RTVSPropertyOp42
 70
     1
102
RTVSPropertyOp43
 70
     1
102
RTVSPropertyOp44
 70
     1
102
RTVSPropertyOp45
 70
     1
102
RTVSPropertyOp46
 70
     1
102
RTVSPropertyOp47
 70
     1
102
RTVSPropertyOp48
 70
     1
102
RTVSPropertyOp49
 70
     1
102
RTVSPropertyOp50
 70
     1
102
RTVSPropertyOp51
 70
     0
102
RTVSPropertyOp52
 70
     0
102
RTVSPropertyOp53
 70
     1
102
RTVSPropertyOp54
 70
     1
102
RTVSPropertyOp55
 70
     1
102
RTVSPropertyOp56
 70
     1
102
RTVSPropertyOp57
 70
     1
102
RTVSPropertyOp58
 70
     1
102
RTVSPropertyOp59
 70
     1
102
RTVSPropertyOp60
 70
     1
102
RTVSPropertyOp61
 70
     1
102
RTVSPropertyOp62
 70
     1
  0
XRECORD
  5
F462
102
{ACAD_REACTORS
330
F461
102
}
330
F461
100
AcDbXrecord
280
     1
102
RTVSPost2010Prop28
280
     0
102
RTVSPost2010PropOp28
 70
     1
102
RTVSPost2010Prop29
280
     1
102
RTVSPost2010PropOp29
 70
     1
102
RTVSPost2010Prop30
280
     1
102
RTVSPost2010PropOp30
 70
     1
102
RTVSPost2010Prop31
280
     0
102
RTVSPost2010PropOp31
 70
     1
102
RTVSPost2010Prop32
280
     0
102
RTVSPost2010PropOp32
 70
     1
102
RTVSPost2010Prop33
280
     0
102
RTVSPost2010PropOp33
 70
     1
102
RTVSPost2010Prop34
280
     0
102
RTVSPost2010PropOp34
 70
     1
102
RTVSPost2010Prop35
280
     0
102
RTVSPost2010PropOp35
 70
     1
102
RTVSPost2010Prop36
280
     0
102
RTVSPost2010PropOp36
 70
     1
102
RTVSPost2010Prop37
 90
       50
102
RTVSPost2010PropOp37
 70
     1
102
RTVSPost2010Prop38
140
0.0
102
RTVSPost2010PropOp38
 70
     1
102
RTVSPost2010Prop39
140
1.0
102
RTVSPost2010PropOp39
 70
     1
102
RTVSPost2010Prop40
 90
        0
102
RTVSPost2010PropOp40
 70
     1
102
RTVSPost2010Prop41ColorIndex
 90
       18
102
RTVSPost2010Prop41ColorRGB
 90
        0
102
RTVSPost2010PropOp41
 70
     1
102
RTVSPost2010Prop42
 90
       50
102
RTVSPost2010PropOp42
 70
     1
102
RTVSPost2010Prop43
 90
        3
102
RTVSPost2010PropOp43
 70
     1
102
RTVSPost2010Prop44ColorIndex
 90
        5
102
RTVSPost2010Prop44ColorRGB
 90
      255
102
RTVSPost2010PropOp44
 70
     1
102
RTVSPost2010Prop45
280
     0
102
RTVSPost2010PropOp45
 70
     1
102
RTVSPost2010Prop46
 90
       50
102
RTVSPost2010PropOp46
 70
     1
102
RTVSPost2010Prop47
 90
       50
102
RTVSPost2010PropOp47
 70
     1
102
RTVSPost2010Prop48
 90
       50
102
RTVSPost2010PropOp48
 70
     1
102
RTVSPost2010Prop49
280
     0
102
RTVSPost2010PropOp49
 70
     1
102
RTVSPost2010Prop50
 90
       50
102
RTVSPost2010PropOp50
 70
     1
102
RTVSPost2010Prop51ColorIndex
 90
      256
102
RTVSPost2010Prop51ColorRGB
 90
-16777216
102
RTVSPost2010PropOp51
 70
     0
102
RTVSPost2010Prop52
140
1.0
102
RTVSPost2010PropOp52
 70
     0
102
RTVSPost2010Prop53
 90
        2
102
RTVSPost2010PropOp53
 70
     1
102
RTVSPost2010Prop54
  1
strokes_ogs.tif
102
RTVSPost2010PropOp54
 70
     1
102
RTVSPost2010Prop55
280
     0
102
RTVSPost2010PropOp55
 70
     1
102
RTVSPost2010Prop56
140
1.0
102
RTVSPost2010PropOp56
 70
     1
102
RTVSPost2010Prop57
140
1.0
102
RTVSPost2010PropOp57
 70
     1
102
RTVSPropertyOp0
 70
     1
102
RTVSPropertyOp1
 70
     1
102
RTVSPropertyOp2
 70
     1
102
RTVSPropertyOp3
 70
     1
102
RTVSPropertyOp4
 70
     1
102
RTVSPropertyOp5
 70
     1
102
RTVSPropertyOp6
 70
     1
102
RTVSPropertyOp7
 70
     1
102
RTVSPropertyOp8
 70
     1
102
RTVSPropertyOp9
 70
     1
102
RTVSPropertyOp10
 70
     1
102
RTVSPropertyOp11
 70
     1
102
RTVSPropertyOp12
 70
     1
102
RTVSPropertyOp13
 70
     1
102
RTVSPropertyOp14
 70
     1
102
RTVSPropertyOp15
 70
     1
102
RTVSPropertyOp16
 70
     1
102
RTVSPropertyOp17
 70
     1
102
RTVSPropertyOp18
 70
     1
102
RTVSPropertyOp19
 70
     1
102
RTVSPropertyOp20
 70
     1
102
RTVSPropertyOp21
 70
     1
102
RTVSPropertyOp22
 70
     1
102
RTVSPropertyOp23
 70
     1
102
RTVSPropertyOp24
 70
     1
102
RTVSPropertyOp25
 70
     1
102
RTVSPropertyOp26
 70
     1
102
RTVSPropertyOp27
 70
     1
102
RTVSPropertyOp28
 70
     1
102
RTVSPropertyOp29
 70
     1
102
RTVSPropertyOp30
 70
     1
102
RTVSPropertyOp31
 70
     1
102
RTVSPropertyOp32
 70
     1
102
RTVSPropertyOp33
 70
     1
102
RTVSPropertyOp34
 70
     1
102
RTVSPropertyOp35
 70
     1
102
RTVSPropertyOp36
 70
     1
102
RTVSPropertyOp37
 70
     1
102
RTVSPropertyOp38
 70
     1
102
RTVSPropertyOp39
 70
     1
102
RTVSPropertyOp40
 70
     1
102
RTVSPropertyOp41
 70
     1
102
RTVSPropertyOp42
 70
     1
102
RTVSPropertyOp43
 70
     1
102
RTVSPropertyOp44
 70
     1
102
RTVSPropertyOp45
 70
     1
102
RTVSPropertyOp46
 70
     1
102
RTVSPropertyOp47
 70
     1
102
RTVSPropertyOp48
 70
     1
102
RTVSPropertyOp49
 70
     1
102
RTVSPropertyOp50
 70
     1
102
RTVSPropertyOp51
 70
     0
102
RTVSPropertyOp52
 70
     0
102
RTVSPropertyOp53
 70
     1
102
RTVSPropertyOp54
 70
     1
102
RTVSPropertyOp55
 70
     1
102
RTVSPropertyOp56
 70
     1
102
RTVSPropertyOp57
 70
     1
102
RTVSPropertyOp58
 70
     1
102
RTVSPropertyOp59
 70
     1
102
RTVSPropertyOp60
 70
     1
102
RTVSPropertyOp61
 70
     1
102
RTVSPropertyOp62
 70
     1
  0
XRECORD
  5
F47C
102
{ACAD_REACTORS
330
F47B
102
}
330
F47B
100
AcDbXrecord
280
     1
102
RTVSPost2010Prop28
280
     0
102
RTVSPost2010PropOp28
 70
     1
102
RTVSPost2010Prop29
280
     1
102
RTVSPost2010PropOp29
 70
     1
102
RTVSPost2010Prop30
280
     1
102
RTVSPost2010PropOp30
 70
     1
102
RTVSPost2010Prop31
280
     0
102
RTVSPost2010PropOp31
 70
     1
102
RTVSPost2010Prop32
280
     0
102
RTVSPost2010PropOp32
 70
     1
102
RTVSPost2010Prop33
280
     0
102
RTVSPost2010PropOp33
 70
     1
102
RTVSPost2010Prop34
280
     0
102
RTVSPost2010PropOp34
 70
     1
102
RTVSPost2010Prop35
280
     0
102
RTVSPost2010PropOp35
 70
     1
102
RTVSPost2010Prop36
280
     0
102
RTVSPost2010PropOp36
 70
     1
102
RTVSPost2010Prop37
 90
       50
102
RTVSPost2010PropOp37
 70
     0
102
RTVSPost2010Prop38
140
0.0
102
RTVSPost2010PropOp38
 70
     0
102
RTVSPost2010Prop39
140
1.0
102
RTVSPost2010PropOp39
 70
     0
102
RTVSPost2010Prop40
 90
        0
102
RTVSPost2010PropOp40
 70
     0
102
RTVSPost2010Prop41ColorIndex
 90
       18
102
RTVSPost2010Prop41ColorRGB
 90
        0
102
RTVSPost2010PropOp41
 70
     0
102
RTVSPost2010Prop42
 90
       50
102
RTVSPost2010PropOp42
 70
     0
102
RTVSPost2010Prop43
 90
        3
102
RTVSPost2010PropOp43
 70
     0
102
RTVSPost2010Prop44ColorIndex
 90
        5
102
RTVSPost2010Prop44ColorRGB
 90
      255
102
RTVSPost2010PropOp44
 70
     0
102
RTVSPost2010Prop45
280
     0
102
RTVSPost2010PropOp45
 70
     1
102
RTVSPost2010Prop46
 90
       50
102
RTVSPost2010PropOp46
 70
     0
102
RTVSPost2010Prop47
 90
       50
102
RTVSPost2010PropOp47
 70
     0
102
RTVSPost2010Prop48
 90
       50
102
RTVSPost2010PropOp48
 70
     0
102
RTVSPost2010Prop49
280
     0
102
RTVSPost2010PropOp49
 70
     1
102
RTVSPost2010Prop50
 90
       50
102
RTVSPost2010PropOp50
 70
     0
102
RTVSPost2010Prop51ColorIndex
 90
      256
102
RTVSPost2010Prop51ColorRGB
 90
-16777216
102
RTVSPost2010PropOp51
 70
     0
102
RTVSPost2010Prop52
140
1.0
102
RTVSPost2010PropOp52
 70
     0
102
RTVSPost2010Prop53
 90
        2
102
RTVSPost2010PropOp53
 70
     0
102
RTVSPost2010Prop54
  1
strokes_ogs.tif
102
RTVSPost2010PropOp54
 70
     0
102
RTVSPost2010Prop55
280
     0
102
RTVSPost2010PropOp55
 70
     1
102
RTVSPost2010Prop56
140
1.0
102
RTVSPost2010PropOp56
 70
     0
102
RTVSPost2010Prop57
140
1.0
102
RTVSPost2010PropOp57
 70
     0
102
RTVSPropertyOp0
 70
     0
102
RTVSPropertyOp1
 70
     0
102
RTVSPropertyOp2
 70
     0
102
RTVSPropertyOp3
 70
     0
102
RTVSPropertyOp4
 70
     0
102
RTVSPropertyOp5
 70
     0
102
RTVSPropertyOp6
 70
     0
102
RTVSPropertyOp7
 70
     0
102
RTVSPropertyOp8
 70
     0
102
RTVSPropertyOp9
 70
     0
102
RTVSPropertyOp10
 70
     0
102
RTVSPropertyOp11
 70
     0
102
RTVSPropertyOp12
 70
     0
102
RTVSPropertyOp13
 70
     0
102
RTVSPropertyOp14
 70
     2
102
RTVSPropertyOp15
 70
     0
102
RTVSPropertyOp16
 70
     0
102
RTVSPropertyOp17
 70
     0
102
RTVSPropertyOp18
 70
     0
102
RTVSPropertyOp19
 70
     0
102
RTVSPropertyOp20
 70
     0
102
RTVSPropertyOp21
 70
     0
102
RTVSPropertyOp22
 70
     0
102
RTVSPropertyOp23
 70
     0
102
RTVSPropertyOp24
 70
     0
102
RTVSPropertyOp25
 70
     0
102
RTVSPropertyOp26
 70
     0
102
RTVSPropertyOp27
 70
     0
102
RTVSPropertyOp28
 70
     1
102
RTVSPropertyOp29
 70
     1
102
RTVSPropertyOp30
 70
     1
102
RTVSPropertyOp31
 70
     1
102
RTVSPropertyOp32
 70
     1
102
RTVSPropertyOp33
 70
     1
102
RTVSPropertyOp34
 70
     1
102
RTVSPropertyOp35
 70
     1
102
RTVSPropertyOp36
 70
     1
102
RTVSPropertyOp37
 70
     0
102
RTVSPropertyOp38
 70
     0
102
RTVSPropertyOp39
 70
     0
102
RTVSPropertyOp40
 70
     0
102
RTVSPropertyOp41
 70
     0
102
RTVSPropertyOp42
 70
     0
102
RTVSPropertyOp43
 70
     0
102
RTVSPropertyOp44
 70
     0
102
RTVSPropertyOp45
 70
     1
102
RTVSPropertyOp46
 70
     0
102
RTVSPropertyOp47
 70
     0
102
RTVSPropertyOp48
 70
     0
102
RTVSPropertyOp49
 70
     1
102
RTVSPropertyOp50
 70
     0
102
RTVSPropertyOp51
 70
     0
102
RTVSPropertyOp52
 70
     0
102
RTVSPropertyOp53
 70
     0
102
RTVSPropertyOp54
 70
     0
102
RTVSPropertyOp55
 70
     1
102
RTVSPropertyOp56
 70
     0
102
RTVSPropertyOp57
 70
     0
102
RTVSPropertyOp58
 70
     0
102
RTVSPropertyOp59
 70
     0
102
RTVSPropertyOp60
 70
     0
102
RTVSPropertyOp61
 70
     0
102
RTVSPropertyOp62
 70
     0
  0
XRECORD
  5
F46A
102
{ACAD_REACTORS
330
F469
102
}
330
F469
100
AcDbXrecord
280
     1
102
RTVSPost2010Prop28
280
     0
102
RTVSPost2010PropOp28
 70
     1
102
RTVSPost2010Prop29
280
     1
102
RTVSPost2010PropOp29
 70
     1
102
RTVSPost2010Prop30
280
     1
102
RTVSPost2010PropOp30
 70
     1
102
RTVSPost2010Prop31
280
     0
102
RTVSPost2010PropOp31
 70
     1
102
RTVSPost2010Prop32
280
     0
102
RTVSPost2010PropOp32
 70
     1
102
RTVSPost2010Prop33
280
     0
102
RTVSPost2010PropOp33
 70
     1
102
RTVSPost2010Prop34
280
     0
102
RTVSPost2010PropOp34
 70
     1
102
RTVSPost2010Prop35
280
     0
102
RTVSPost2010PropOp35
 70
     1
102
RTVSPost2010Prop36
280
     0
102
RTVSPost2010PropOp36
 70
     1
102
RTVSPost2010Prop37
 90
       50
102
RTVSPost2010PropOp37
 70
     1
102
RTVSPost2010Prop38
140
0.0
102
RTVSPost2010PropOp38
 70
     1
102
RTVSPost2010Prop39
140
1.0
102
RTVSPost2010PropOp39
 70
     1
102
RTVSPost2010Prop40
 90
        0
102
RTVSPost2010PropOp40
 70
     1
102
RTVSPost2010Prop41ColorIndex
 90
       18
102
RTVSPost2010Prop41ColorRGB
 90
        0
102
RTVSPost2010PropOp41
 70
     1
102
RTVSPost2010Prop42
 90
       50
102
RTVSPost2010PropOp42
 70
     1
102
RTVSPost2010Prop43
 90
        3
102
RTVSPost2010PropOp43
 70
     1
102
RTVSPost2010Prop44ColorIndex
 90
        5
102
RTVSPost2010Prop44ColorRGB
 90
      255
102
RTVSPost2010PropOp44
 70
     1
102
RTVSPost2010Prop45
280
     0
102
RTVSPost2010PropOp45
 70
     1
102
RTVSPost2010Prop46
 90
       50
102
RTVSPost2010PropOp46
 70
     1
102
RTVSPost2010Prop47
 90
       50
102
RTVSPost2010PropOp47
 70
     1
102
RTVSPost2010Prop48
 90
       50
102
RTVSPost2010PropOp48
 70
     1
102
RTVSPost2010Prop49
280
     0
102
RTVSPost2010PropOp49
 70
     1
102
RTVSPost2010Prop50
 90
       50
102
RTVSPost2010PropOp50
 70
     1
102
RTVSPost2010Prop51ColorIndex
 90
      256
102
RTVSPost2010Prop51ColorRGB
 90
-16777216
102
RTVSPost2010PropOp51
 70
     0
102
RTVSPost2010Prop52
140
1.0
102
RTVSPost2010PropOp52
 70
     0
102
RTVSPost2010Prop53
 90
        2
102
RTVSPost2010PropOp53
 70
     1
102
RTVSPost2010Prop54
  1
strokes_ogs.tif
102
RTVSPost2010PropOp54
 70
     1
102
RTVSPost2010Prop55
280
     0
102
RTVSPost2010PropOp55
 70
     1
102
RTVSPost2010Prop56
140
1.0
102
RTVSPost2010PropOp56
 70
     1
102
RTVSPost2010Prop57
140
1.0
102
RTVSPost2010PropOp57
 70
     1
102
RTVSPropertyOp0
 70
     1
102
RTVSPropertyOp1
 70
     1
102
RTVSPropertyOp2
 70
     1
102
RTVSPropertyOp3
 70
     1
102
RTVSPropertyOp4
 70
     1
102
RTVSPropertyOp5
 70
     1
102
RTVSPropertyOp6
 70
     1
102
RTVSPropertyOp7
 70
     1
102
RTVSPropertyOp8
 70
     1
102
RTVSPropertyOp9
 70
     1
102
RTVSPropertyOp10
 70
     1
102
RTVSPropertyOp11
 70
     1
102
RTVSPropertyOp12
 70
     1
102
RTVSPropertyOp13
 70
     1
102
RTVSPropertyOp14
 70
     1
102
RTVSPropertyOp15
 70
     1
102
RTVSPropertyOp16
 70
     1
102
RTVSPropertyOp17
 70
     1
102
RTVSPropertyOp18
 70
     1
102
RTVSPropertyOp19
 70
     1
102
RTVSPropertyOp20
 70
     1
102
RTVSPropertyOp21
 70
     1
102
RTVSPropertyOp22
 70
     1
102
RTVSPropertyOp23
 70
     1
102
RTVSPropertyOp24
 70
     1
102
RTVSPropertyOp25
 70
     1
102
RTVSPropertyOp26
 70
     1
102
RTVSPropertyOp27
 70
     1
102
RTVSPropertyOp28
 70
     1
102
RTVSPropertyOp29
 70
     1
102
RTVSPropertyOp30
 70
     1
102
RTVSPropertyOp31
 70
     1
102
RTVSPropertyOp32
 70
     1
102
RTVSPropertyOp33
 70
     1
102
RTVSPropertyOp34
 70
     1
102
RTVSPropertyOp35
 70
     1
102
RTVSPropertyOp36
 70
     1
102
RTVSPropertyOp37
 70
     1
102
RTVSPropertyOp38
 70
     1
102
RTVSPropertyOp39
 70
     1
102
RTVSPropertyOp40
 70
     1
102
RTVSPropertyOp41
 70
     1
102
RTVSPropertyOp42
 70
     1
102
RTVSPropertyOp43
 70
     1
102
RTVSPropertyOp44
 70
     1
102
RTVSPropertyOp45
 70
     1
102
RTVSPropertyOp46
 70
     1
102
RTVSPropertyOp47
 70
     1
102
RTVSPropertyOp48
 70
     1
102
RTVSPropertyOp49
 70
     1
102
RTVSPropertyOp50
 70
     1
102
RTVSPropertyOp51
 70
     0
102
RTVSPropertyOp52
 70
     0
102
RTVSPropertyOp53
 70
     1
102
RTVSPropertyOp54
 70
     1
102
RTVSPropertyOp55
 70
     1
102
RTVSPropertyOp56
 70
     1
102
RTVSPropertyOp57
 70
     1
102
RTVSPropertyOp58
 70
     1
102
RTVSPropertyOp59
 70
     1
102
RTVSPropertyOp60
 70
     1
102
RTVSPropertyOp61
 70
     1
102
RTVSPropertyOp62
 70
     1
  0
XRECORD
  5
F44E
102
{ACAD_REACTORS
330
F44D
102
}
330
F44D
100
AcDbXrecord
280
     1
102
RTVSPost2010Prop28
280
     0
102
RTVSPost2010PropOp28
 70
     1
102
RTVSPost2010Prop29
280
     1
102
RTVSPost2010PropOp29
 70
     1
102
RTVSPost2010Prop30
280
     1
102
RTVSPost2010PropOp30
 70
     1
102
RTVSPost2010Prop31
280
     0
102
RTVSPost2010PropOp31
 70
     1
102
RTVSPost2010Prop32
280
     0
102
RTVSPost2010PropOp32
 70
     1
102
RTVSPost2010Prop33
280
     0
102
RTVSPost2010PropOp33
 70
     1
102
RTVSPost2010Prop34
280
     0
102
RTVSPost2010PropOp34
 70
     1
102
RTVSPost2010Prop35
280
     0
102
RTVSPost2010PropOp35
 70
     1
102
RTVSPost2010Prop36
280
     0
102
RTVSPost2010PropOp36
 70
     1
102
RTVSPost2010Prop37
 90
       50
102
RTVSPost2010PropOp37
 70
     1
102
RTVSPost2010Prop38
140
0.0
102
RTVSPost2010PropOp38
 70
     1
102
RTVSPost2010Prop39
140
1.0
102
RTVSPost2010PropOp39
 70
     1
102
RTVSPost2010Prop40
 90
        0
102
RTVSPost2010PropOp40
 70
     1
102
RTVSPost2010Prop41ColorIndex
 90
       18
102
RTVSPost2010Prop41ColorRGB
 90
        0
102
RTVSPost2010PropOp41
 70
     1
102
RTVSPost2010Prop42
 90
       50
102
RTVSPost2010PropOp42
 70
     1
102
RTVSPost2010Prop43
 90
        3
102
RTVSPost2010PropOp43
 70
     1
102
RTVSPost2010Prop44ColorIndex
 90
        5
102
RTVSPost2010Prop44ColorRGB
 90
      255
102
RTVSPost2010PropOp44
 70
     1
102
RTVSPost2010Prop45
280
     0
102
RTVSPost2010PropOp45
 70
     1
102
RTVSPost2010Prop46
 90
       50
102
RTVSPost2010PropOp46
 70
     1
102
RTVSPost2010Prop47
 90
       50
102
RTVSPost2010PropOp47
 70
     1
102
RTVSPost2010Prop48
 90
       50
102
RTVSPost2010PropOp48
 70
     1
102
RTVSPost2010Prop49
280
     0
102
RTVSPost2010PropOp49
 70
     1
102
RTVSPost2010Prop50
 90
       50
102
RTVSPost2010PropOp50
 70
     1
102
RTVSPost2010Prop51ColorIndex
 90
      256
102
RTVSPost2010Prop51ColorRGB
 90
-16777216
102
RTVSPost2010PropOp51
 70
     0
102
RTVSPost2010Prop52
140
1.0
102
RTVSPost2010PropOp52
 70
     0
102
RTVSPost2010Prop53
 90
        2
102
RTVSPost2010PropOp53
 70
     1
102
RTVSPost2010Prop54
  1
strokes_ogs.tif
102
RTVSPost2010PropOp54
 70
     1
102
RTVSPost2010Prop55
280
     0
102
RTVSPost2010PropOp55
 70
     1
102
RTVSPost2010Prop56
140
1.0
102
RTVSPost2010PropOp56
 70
     1
102
RTVSPost2010Prop57
140
1.0
102
RTVSPost2010PropOp57
 70
     1
102
RTVSPropertyOp0
 70
     1
102
RTVSPropertyOp1
 70
     1
102
RTVSPropertyOp2
 70
     1
102
RTVSPropertyOp3
 70
     1
102
RTVSPropertyOp4
 70
     1
102
RTVSPropertyOp5
 70
     1
102
RTVSPropertyOp6
 70
     1
102
RTVSPropertyOp7
 70
     1
102
RTVSPropertyOp8
 70
     1
102
RTVSPropertyOp9
 70
     1
102
RTVSPropertyOp10
 70
     1
102
RTVSPropertyOp11
 70
     1
102
RTVSPropertyOp12
 70
     1
102
RTVSPropertyOp13
 70
     1
102
RTVSPropertyOp14
 70
     1
102
RTVSPropertyOp15
 70
     1
102
RTVSPropertyOp16
 70
     1
102
RTVSPropertyOp17
 70
     1
102
RTVSPropertyOp18
 70
     1
102
RTVSPropertyOp19
 70
     1
102
RTVSPropertyOp20
 70
     1
102
RTVSPropertyOp21
 70
     1
102
RTVSPropertyOp22
 70
     1
102
RTVSPropertyOp23
 70
     1
102
RTVSPropertyOp24
 70
     1
102
RTVSPropertyOp25
 70
     1
102
RTVSPropertyOp26
 70
     1
102
RTVSPropertyOp27
 70
     1
102
RTVSPropertyOp28
 70
     1
102
RTVSPropertyOp29
 70
     1
102
RTVSPropertyOp30
 70
     1
102
RTVSPropertyOp31
 70
     1
102
RTVSPropertyOp32
 70
     1
102
RTVSPropertyOp33
 70
     1
102
RTVSPropertyOp34
 70
     1
102
RTVSPropertyOp35
 70
     1
102
RTVSPropertyOp36
 70
     1
102
RTVSPropertyOp37
 70
     1
102
RTVSPropertyOp38
 70
     1
102
RTVSPropertyOp39
 70
     1
102
RTVSPropertyOp40
 70
     1
102
RTVSPropertyOp41
 70
     1
102
RTVSPropertyOp42
 70
     1
102
RTVSPropertyOp43
 70
     1
102
RTVSPropertyOp44
 70
     1
102
RTVSPropertyOp45
 70
     1
102
RTVSPropertyOp46
 70
     1
102
RTVSPropertyOp47
 70
     1
102
RTVSPropertyOp48
 70
     1
102
RTVSPropertyOp49
 70
     1
102
RTVSPropertyOp50
 70
     1
102
RTVSPropertyOp51
 70
     0
102
RTVSPropertyOp52
 70
     0
102
RTVSPropertyOp53
 70
     1
102
RTVSPropertyOp54
 70
     1
102
RTVSPropertyOp55
 70
     1
102
RTVSPropertyOp56
 70
     1
102
RTVSPropertyOp57
 70
     1
102
RTVSPropertyOp58
 70
     1
102
RTVSPropertyOp59
 70
     1
102
RTVSPropertyOp60
 70
     1
102
RTVSPropertyOp61
 70
     1
102
RTVSPropertyOp62
 70
     1
  0
XRECORD
  5
F450
102
{ACAD_REACTORS
330
F44F
102
}
330
F44F
100
AcDbXrecord
280
     1
102
RTVSPost2010Prop28
280
     0
102
RTVSPost2010PropOp28
 70
     1
102
RTVSPost2010Prop29
280
     1
102
RTVSPost2010PropOp29
 70
     1
102
RTVSPost2010Prop30
280
     1
102
RTVSPost2010PropOp30
 70
     1
102
RTVSPost2010Prop31
280
     0
102
RTVSPost2010PropOp31
 70
     1
102
RTVSPost2010Prop32
280
     0
102
RTVSPost2010PropOp32
 70
     1
102
RTVSPost2010Prop33
280
     0
102
RTVSPost2010PropOp33
 70
     1
102
RTVSPost2010Prop34
280
     0
102
RTVSPost2010PropOp34
 70
     1
102
RTVSPost2010Prop35
280
     0
102
RTVSPost2010PropOp35
 70
     1
102
RTVSPost2010Prop36
280
     0
102
RTVSPost2010PropOp36
 70
     1
102
RTVSPost2010Prop37
 90
       50
102
RTVSPost2010PropOp37
 70
     1
102
RTVSPost2010Prop38
140
0.0
102
RTVSPost2010PropOp38
 70
     1
102
RTVSPost2010Prop39
140
1.0
102
RTVSPost2010PropOp39
 70
     1
102
RTVSPost2010Prop40
 90
        0
102
RTVSPost2010PropOp40
 70
     1
102
RTVSPost2010Prop41ColorIndex
 90
       18
102
RTVSPost2010Prop41ColorRGB
 90
        0
102
RTVSPost2010PropOp41
 70
     1
102
RTVSPost2010Prop42
 90
       50
102
RTVSPost2010PropOp42
 70
     1
102
RTVSPost2010Prop43
 90
        3
102
RTVSPost2010PropOp43
 70
     1
102
RTVSPost2010Prop44ColorIndex
 90
        5
102
RTVSPost2010Prop44ColorRGB
 90
      255
102
RTVSPost2010PropOp44
 70
     1
102
RTVSPost2010Prop45
280
     0
102
RTVSPost2010PropOp45
 70
     1
102
RTVSPost2010Prop46
 90
       50
102
RTVSPost2010PropOp46
 70
     1
102
RTVSPost2010Prop47
 90
       50
102
RTVSPost2010PropOp47
 70
     1
102
RTVSPost2010Prop48
 90
       50
102
RTVSPost2010PropOp48
 70
     1
102
RTVSPost2010Prop49
280
     0
102
RTVSPost2010PropOp49
 70
     1
102
RTVSPost2010Prop50
 90
       50
102
RTVSPost2010PropOp50
 70
     1
102
RTVSPost2010Prop51ColorIndex
 90
      256
102
RTVSPost2010Prop51ColorRGB
 90
-16777216
102
RTVSPost2010PropOp51
 70
     0
102
RTVSPost2010Prop52
140
1.0
102
RTVSPost2010PropOp52
 70
     0
102
RTVSPost2010Prop53
 90
        2
102
RTVSPost2010PropOp53
 70
     1
102
RTVSPost2010Prop54
  1
strokes_ogs.tif
102
RTVSPost2010PropOp54
 70
     1
102
RTVSPost2010Prop55
280
     0
102
RTVSPost2010PropOp55
 70
     1
102
RTVSPost2010Prop56
140
1.0
102
RTVSPost2010PropOp56
 70
     1
102
RTVSPost2010Prop57
140
1.0
102
RTVSPost2010PropOp57
 70
     1
102
RTVSPropertyOp0
 70
     1
102
RTVSPropertyOp1
 70
     1
102
RTVSPropertyOp2
 70
     1
102
RTVSPropertyOp3
 70
     1
102
RTVSPropertyOp4
 70
     1
102
RTVSPropertyOp5
 70
     1
102
RTVSPropertyOp6
 70
     1
102
RTVSPropertyOp7
 70
     1
102
RTVSPropertyOp8
 70
     1
102
RTVSPropertyOp9
 70
     1
102
RTVSPropertyOp10
 70
     1
102
RTVSPropertyOp11
 70
     1
102
RTVSPropertyOp12
 70
     1
102
RTVSPropertyOp13
 70
     1
102
RTVSPropertyOp14
 70
     1
102
RTVSPropertyOp15
 70
     1
102
RTVSPropertyOp16
 70
     1
102
RTVSPropertyOp17
 70
     1
102
RTVSPropertyOp18
 70
     1
102
RTVSPropertyOp19
 70
     1
102
RTVSPropertyOp20
 70
     1
102
RTVSPropertyOp21
 70
     1
102
RTVSPropertyOp22
 70
     1
102
RTVSPropertyOp23
 70
     1
102
RTVSPropertyOp24
 70
     1
102
RTVSPropertyOp25
 70
     1
102
RTVSPropertyOp26
 70
     1
102
RTVSPropertyOp27
 70
     1
102
RTVSPropertyOp28
 70
     1
102
RTVSPropertyOp29
 70
     1
102
RTVSPropertyOp30
 70
     1
102
RTVSPropertyOp31
 70
     1
102
RTVSPropertyOp32
 70
     1
102
RTVSPropertyOp33
 70
     1
102
RTVSPropertyOp34
 70
     1
102
RTVSPropertyOp35
 70
     1
102
RTVSPropertyOp36
 70
     1
102
RTVSPropertyOp37
 70
     1
102
RTVSPropertyOp38
 70
     1
102
RTVSPropertyOp39
 70
     1
102
RTVSPropertyOp40
 70
     1
102
RTVSPropertyOp41
 70
     1
102
RTVSPropertyOp42
 70
     1
102
RTVSPropertyOp43
 70
     1
102
RTVSPropertyOp44
 70
     1
102
RTVSPropertyOp45
 70
     1
102
RTVSPropertyOp46
 70
     1
102
RTVSPropertyOp47
 70
     1
102
RTVSPropertyOp48
 70
     1
102
RTVSPropertyOp49
 70
     1
102
RTVSPropertyOp50
 70
     1
102
RTVSPropertyOp51
 70
     0
102
RTVSPropertyOp52
 70
     0
102
RTVSPropertyOp53
 70
     1
102
RTVSPropertyOp54
 70
     1
102
RTVSPropertyOp55
 70
     1
102
RTVSPropertyOp56
 70
     1
102
RTVSPropertyOp57
 70
     1
102
RTVSPropertyOp58
 70
     1
102
RTVSPropertyOp59
 70
     1
102
RTVSPropertyOp60
 70
     1
102
RTVSPropertyOp61
 70
     1
102
RTVSPropertyOp62
 70
     1
  0
XRECORD
  5
F452
102
{ACAD_REACTORS
330
F451
102
}
330
F451
100
AcDbXrecord
280
     1
102
RTVSPost2010Prop28
280
     0
102
RTVSPost2010PropOp28
 70
     1
102
RTVSPost2010Prop29
280
     1
102
RTVSPost2010PropOp29
 70
     1
102
RTVSPost2010Prop30
280
     1
102
RTVSPost2010PropOp30
 70
     1
102
RTVSPost2010Prop31
280
     0
102
RTVSPost2010PropOp31
 70
     1
102
RTVSPost2010Prop32
280
     0
102
RTVSPost2010PropOp32
 70
     1
102
RTVSPost2010Prop33
280
     0
102
RTVSPost2010PropOp33
 70
     1
102
RTVSPost2010Prop34
280
     0
102
RTVSPost2010PropOp34
 70
     1
102
RTVSPost2010Prop35
280
     0
102
RTVSPost2010PropOp35
 70
     1
102
RTVSPost2010Prop36
280
     0
102
RTVSPost2010PropOp36
 70
     1
102
RTVSPost2010Prop37
 90
       50
102
RTVSPost2010PropOp37
 70
     1
102
RTVSPost2010Prop38
140
0.0
102
RTVSPost2010PropOp38
 70
     1
102
RTVSPost2010Prop39
140
1.0
102
RTVSPost2010PropOp39
 70
     1
102
RTVSPost2010Prop40
 90
        0
102
RTVSPost2010PropOp40
 70
     1
102
RTVSPost2010Prop41ColorIndex
 90
       18
102
RTVSPost2010Prop41ColorRGB
 90
        0
102
RTVSPost2010PropOp41
 70
     1
102
RTVSPost2010Prop42
 90
       50
102
RTVSPost2010PropOp42
 70
     1
102
RTVSPost2010Prop43
 90
        3
102
RTVSPost2010PropOp43
 70
     1
102
RTVSPost2010Prop44ColorIndex
 90
        5
102
RTVSPost2010Prop44ColorRGB
 90
      255
102
RTVSPost2010PropOp44
 70
     1
102
RTVSPost2010Prop45
280
     0
102
RTVSPost2010PropOp45
 70
     1
102
RTVSPost2010Prop46
 90
       50
102
RTVSPost2010PropOp46
 70
     1
102
RTVSPost2010Prop47
 90
       50
102
RTVSPost2010PropOp47
 70
     1
102
RTVSPost2010Prop48
 90
       50
102
RTVSPost2010PropOp48
 70
     1
102
RTVSPost2010Prop49
280
     0
102
RTVSPost2010PropOp49
 70
     1
102
RTVSPost2010Prop50
 90
       50
102
RTVSPost2010PropOp50
 70
     1
102
RTVSPost2010Prop51ColorIndex
 90
      256
102
RTVSPost2010Prop51ColorRGB
 90
-16777216
102
RTVSPost2010PropOp51
 70
     0
102
RTVSPost2010Prop52
140
1.0
102
RTVSPost2010PropOp52
 70
     0
102
RTVSPost2010Prop53
 90
        2
102
RTVSPost2010PropOp53
 70
     1
102
RTVSPost2010Prop54
  1
strokes_ogs.tif
102
RTVSPost2010PropOp54
 70
     1
102
RTVSPost2010Prop55
280
     0
102
RTVSPost2010PropOp55
 70
     1
102
RTVSPost2010Prop56
140
1.0
102
RTVSPost2010PropOp56
 70
     1
102
RTVSPost2010Prop57
140
1.0
102
RTVSPost2010PropOp57
 70
     1
102
RTVSPropertyOp0
 70
     1
102
RTVSPropertyOp1
 70
     1
102
RTVSPropertyOp2
 70
     1
102
RTVSPropertyOp3
 70
     1
102
RTVSPropertyOp4
 70
     1
102
RTVSPropertyOp5
 70
     1
102
RTVSPropertyOp6
 70
     1
102
RTVSPropertyOp7
 70
     1
102
RTVSPropertyOp8
 70
     1
102
RTVSPropertyOp9
 70
     1
102
RTVSPropertyOp10
 70
     1
102
RTVSPropertyOp11
 70
     1
102
RTVSPropertyOp12
 70
     1
102
RTVSPropertyOp13
 70
     1
102
RTVSPropertyOp14
 70
     1
102
RTVSPropertyOp15
 70
     1
102
RTVSPropertyOp16
 70
     1
102
RTVSPropertyOp17
 70
     1
102
RTVSPropertyOp18
 70
     1
102
RTVSPropertyOp19
 70
     1
102
RTVSPropertyOp20
 70
     1
102
RTVSPropertyOp21
 70
     1
102
RTVSPropertyOp22
 70
     1
102
RTVSPropertyOp23
 70
     1
102
RTVSPropertyOp24
 70
     1
102
RTVSPropertyOp25
 70
     1
102
RTVSPropertyOp26
 70
     1
102
RTVSPropertyOp27
 70
     1
102
RTVSPropertyOp28
 70
     1
102
RTVSPropertyOp29
 70
     1
102
RTVSPropertyOp30
 70
     1
102
RTVSPropertyOp31
 70
     1
102
RTVSPropertyOp32
 70
     1
102
RTVSPropertyOp33
 70
     1
102
RTVSPropertyOp34
 70
     1
102
RTVSPropertyOp35
 70
     1
102
RTVSPropertyOp36
 70
     1
102
RTVSPropertyOp37
 70
     1
102
RTVSPropertyOp38
 70
     1
102
RTVSPropertyOp39
 70
     1
102
RTVSPropertyOp40
 70
     1
102
RTVSPropertyOp41
 70
     1
102
RTVSPropertyOp42
 70
     1
102
RTVSPropertyOp43
 70
     1
102
RTVSPropertyOp44
 70
     1
102
RTVSPropertyOp45
 70
     1
102
RTVSPropertyOp46
 70
     1
102
RTVSPropertyOp47
 70
     1
102
RTVSPropertyOp48
 70
     1
102
RTVSPropertyOp49
 70
     1
102
RTVSPropertyOp50
 70
     1
102
RTVSPropertyOp51
 70
     0
102
RTVSPropertyOp52
 70
     0
102
RTVSPropertyOp53
 70
     1
102
RTVSPropertyOp54
 70
     1
102
RTVSPropertyOp55
 70
     1
102
RTVSPropertyOp56
 70
     1
102
RTVSPropertyOp57
 70
     1
102
RTVSPropertyOp58
 70
     1
102
RTVSPropertyOp59
 70
     1
102
RTVSPropertyOp60
 70
     1
102
RTVSPropertyOp61
 70
     1
102
RTVSPropertyOp62
 70
     1
  0
XRECORD
  5
F454
102
{ACAD_REACTORS
330
F453
102
}
330
F453
100
AcDbXrecord
280
     1
102
RTVSPost2010Prop28
280
     0
102
RTVSPost2010PropOp28
 70
     1
102
RTVSPost2010Prop29
280
     1
102
RTVSPost2010PropOp29
 70
     1
102
RTVSPost2010Prop30
280
     1
102
RTVSPost2010PropOp30
 70
     1
102
RTVSPost2010Prop31
280
     0
102
RTVSPost2010PropOp31
 70
     1
102
RTVSPost2010Prop32
280
     0
102
RTVSPost2010PropOp32
 70
     1
102
RTVSPost2010Prop33
280
     0
102
RTVSPost2010PropOp33
 70
     1
102
RTVSPost2010Prop34
280
     0
102
RTVSPost2010PropOp34
 70
     1
102
RTVSPost2010Prop35
280
     0
102
RTVSPost2010PropOp35
 70
     1
102
RTVSPost2010Prop36
280
     0
102
RTVSPost2010PropOp36
 70
     1
102
RTVSPost2010Prop37
 90
       50
102
RTVSPost2010PropOp37
 70
     1
102
RTVSPost2010Prop38
140
0.0
102
RTVSPost2010PropOp38
 70
     1
102
RTVSPost2010Prop39
140
1.0
102
RTVSPost2010PropOp39
 70
     1
102
RTVSPost2010Prop40
 90
        0
102
RTVSPost2010PropOp40
 70
     1
102
RTVSPost2010Prop41ColorIndex
 90
       18
102
RTVSPost2010Prop41ColorRGB
 90
        0
102
RTVSPost2010PropOp41
 70
     1
102
RTVSPost2010Prop42
 90
       50
102
RTVSPost2010PropOp42
 70
     1
102
RTVSPost2010Prop43
 90
        3
102
RTVSPost2010PropOp43
 70
     1
102
RTVSPost2010Prop44ColorIndex
 90
        5
102
RTVSPost2010Prop44ColorRGB
 90
      255
102
RTVSPost2010PropOp44
 70
     1
102
RTVSPost2010Prop45
280
     0
102
RTVSPost2010PropOp45
 70
     1
102
RTVSPost2010Prop46
 90
       50
102
RTVSPost2010PropOp46
 70
     1
102
RTVSPost2010Prop47
 90
       50
102
RTVSPost2010PropOp47
 70
     1
102
RTVSPost2010Prop48
 90
       50
102
RTVSPost2010PropOp48
 70
     1
102
RTVSPost2010Prop49
280
     0
102
RTVSPost2010PropOp49
 70
     1
102
RTVSPost2010Prop50
 90
       50
102
RTVSPost2010PropOp50
 70
     1
102
RTVSPost2010Prop51ColorIndex
 90
      256
102
RTVSPost2010Prop51ColorRGB
 90
-16777216
102
RTVSPost2010PropOp51
 70
     0
102
RTVSPost2010Prop52
140
1.0
102
RTVSPost2010PropOp52
 70
     0
102
RTVSPost2010Prop53
 90
        2
102
RTVSPost2010PropOp53
 70
     1
102
RTVSPost2010Prop54
  1
strokes_ogs.tif
102
RTVSPost2010PropOp54
 70
     1
102
RTVSPost2010Prop55
280
     0
102
RTVSPost2010PropOp55
 70
     1
102
RTVSPost2010Prop56
140
1.0
102
RTVSPost2010PropOp56
 70
     1
102
RTVSPost2010Prop57
140
1.0
102
RTVSPost2010PropOp57
 70
     1
102
RTVSPropertyOp0
 70
     1
102
RTVSPropertyOp1
 70
     1
102
RTVSPropertyOp2
 70
     1
102
RTVSPropertyOp3
 70
     1
102
RTVSPropertyOp4
 70
     1
102
RTVSPropertyOp5
 70
     1
102
RTVSPropertyOp6
 70
     1
102
RTVSPropertyOp7
 70
     1
102
RTVSPropertyOp8
 70
     1
102
RTVSPropertyOp9
 70
     1
102
RTVSPropertyOp10
 70
     1
102
RTVSPropertyOp11
 70
     1
102
RTVSPropertyOp12
 70
     1
102
RTVSPropertyOp13
 70
     1
102
RTVSPropertyOp14
 70
     1
102
RTVSPropertyOp15
 70
     1
102
RTVSPropertyOp16
 70
     1
102
RTVSPropertyOp17
 70
     1
102
RTVSPropertyOp18
 70
     1
102
RTVSPropertyOp19
 70
     1
102
RTVSPropertyOp20
 70
     1
102
RTVSPropertyOp21
 70
     1
102
RTVSPropertyOp22
 70
     1
102
RTVSPropertyOp23
 70
     1
102
RTVSPropertyOp24
 70
     1
102
RTVSPropertyOp25
 70
     1
102
RTVSPropertyOp26
 70
     1
102
RTVSPropertyOp27
 70
     1
102
RTVSPropertyOp28
 70
     1
102
RTVSPropertyOp29
 70
     1
102
RTVSPropertyOp30
 70
     1
102
RTVSPropertyOp31
 70
     1
102
RTVSPropertyOp32
 70
     1
102
RTVSPropertyOp33
 70
     1
102
RTVSPropertyOp34
 70
     1
102
RTVSPropertyOp35
 70
     1
102
RTVSPropertyOp36
 70
     1
102
RTVSPropertyOp37
 70
     1
102
RTVSPropertyOp38
 70
     1
102
RTVSPropertyOp39
 70
     1
102
RTVSPropertyOp40
 70
     1
102
RTVSPropertyOp41
 70
     1
102
RTVSPropertyOp42
 70
     1
102
RTVSPropertyOp43
 70
     1
102
RTVSPropertyOp44
 70
     1
102
RTVSPropertyOp45
 70
     1
102
RTVSPropertyOp46
 70
     1
102
RTVSPropertyOp47
 70
     1
102
RTVSPropertyOp48
 70
     1
102
RTVSPropertyOp49
 70
     1
102
RTVSPropertyOp50
 70
     1
102
RTVSPropertyOp51
 70
     0
102
RTVSPropertyOp52
 70
     0
102
RTVSPropertyOp53
 70
     1
102
RTVSPropertyOp54
 70
     1
102
RTVSPropertyOp55
 70
     1
102
RTVSPropertyOp56
 70
     1
102
RTVSPropertyOp57
 70
     1
102
RTVSPropertyOp58
 70
     1
102
RTVSPropertyOp59
 70
     1
102
RTVSPropertyOp60
 70
     1
102
RTVSPropertyOp61
 70
     1
102
RTVSPropertyOp62
 70
     1
  0
XRECORD
  5
F45C
102
{ACAD_REACTORS
330
F45B
102
}
330
F45B
100
AcDbXrecord
280
     1
102
RTVSPost2010Prop28
280
     0
102
RTVSPost2010PropOp28
 70
     1
102
RTVSPost2010Prop29
280
     1
102
RTVSPost2010PropOp29
 70
     1
102
RTVSPost2010Prop30
280
     1
102
RTVSPost2010PropOp30
 70
     1
102
RTVSPost2010Prop31
280
     0
102
RTVSPost2010PropOp31
 70
     1
102
RTVSPost2010Prop32
280
     0
102
RTVSPost2010PropOp32
 70
     1
102
RTVSPost2010Prop33
280
     0
102
RTVSPost2010PropOp33
 70
     1
102
RTVSPost2010Prop34
280
     0
102
RTVSPost2010PropOp34
 70
     1
102
RTVSPost2010Prop35
280
     0
102
RTVSPost2010PropOp35
 70
     1
102
RTVSPost2010Prop36
280
     0
102
RTVSPost2010PropOp36
 70
     1
102
RTVSPost2010Prop37
 90
       50
102
RTVSPost2010PropOp37
 70
     1
102
RTVSPost2010Prop38
140
0.0
102
RTVSPost2010PropOp38
 70
     1
102
RTVSPost2010Prop39
140
1.0
102
RTVSPost2010PropOp39
 70
     1
102
RTVSPost2010Prop40
 90
        0
102
RTVSPost2010PropOp40
 70
     1
102
RTVSPost2010Prop41ColorIndex
 90
       18
102
RTVSPost2010Prop41ColorRGB
 90
        0
102
RTVSPost2010PropOp41
 70
     1
102
RTVSPost2010Prop42
 90
       50
102
RTVSPost2010PropOp42
 70
     1
102
RTVSPost2010Prop43
 90
        3
102
RTVSPost2010PropOp43
 70
     1
102
RTVSPost2010Prop44ColorIndex
 90
        5
102
RTVSPost2010Prop44ColorRGB
 90
      255
102
RTVSPost2010PropOp44
 70
     1
102
RTVSPost2010Prop45
280
     0
102
RTVSPost2010PropOp45
 70
     1
102
RTVSPost2010Prop46
 90
       50
102
RTVSPost2010PropOp46
 70
     1
102
RTVSPost2010Prop47
 90
       50
102
RTVSPost2010PropOp47
 70
     1
102
RTVSPost2010Prop48
 90
       50
102
RTVSPost2010PropOp48
 70
     1
102
RTVSPost2010Prop49
280
     0
102
RTVSPost2010PropOp49
 70
     1
102
RTVSPost2010Prop50
 90
       50
102
RTVSPost2010PropOp50
 70
     1
102
RTVSPost2010Prop51ColorIndex
 90
      256
102
RTVSPost2010Prop51ColorRGB
 90
-16777216
102
RTVSPost2010PropOp51
 70
     0
102
RTVSPost2010Prop52
140
1.0
102
RTVSPost2010PropOp52
 70
     0
102
RTVSPost2010Prop53
 90
        2
102
RTVSPost2010PropOp53
 70
     1
102
RTVSPost2010Prop54
  1
strokes_ogs.tif
102
RTVSPost2010PropOp54
 70
     1
102
RTVSPost2010Prop55
280
     0
102
RTVSPost2010PropOp55
 70
     1
102
RTVSPost2010Prop56
140
1.0
102
RTVSPost2010PropOp56
 70
     1
102
RTVSPost2010Prop57
140
1.0
102
RTVSPost2010PropOp57
 70
     1
102
RTVSPropertyOp0
 70
     1
102
RTVSPropertyOp1
 70
     1
102
RTVSPropertyOp2
 70
     1
102
RTVSPropertyOp3
 70
     1
102
RTVSPropertyOp4
 70
     1
102
RTVSPropertyOp5
 70
     1
102
RTVSPropertyOp6
 70
     1
102
RTVSPropertyOp7
 70
     1
102
RTVSPropertyOp8
 70
     1
102
RTVSPropertyOp9
 70
     1
102
RTVSPropertyOp10
 70
     1
102
RTVSPropertyOp11
 70
     1
102
RTVSPropertyOp12
 70
     1
102
RTVSPropertyOp13
 70
     1
102
RTVSPropertyOp14
 70
     1
102
RTVSPropertyOp15
 70
     1
102
RTVSPropertyOp16
 70
     1
102
RTVSPropertyOp17
 70
     1
102
RTVSPropertyOp18
 70
     1
102
RTVSPropertyOp19
 70
     1
102
RTVSPropertyOp20
 70
     1
102
RTVSPropertyOp21
 70
     1
102
RTVSPropertyOp22
 70
     1
102
RTVSPropertyOp23
 70
     1
102
RTVSPropertyOp24
 70
     1
102
RTVSPropertyOp25
 70
     1
102
RTVSPropertyOp26
 70
     1
102
RTVSPropertyOp27
 70
     1
102
RTVSPropertyOp28
 70
     1
102
RTVSPropertyOp29
 70
     1
102
RTVSPropertyOp30
 70
     1
102
RTVSPropertyOp31
 70
     1
102
RTVSPropertyOp32
 70
     1
102
RTVSPropertyOp33
 70
     1
102
RTVSPropertyOp34
 70
     1
102
RTVSPropertyOp35
 70
     1
102
RTVSPropertyOp36
 70
     1
102
RTVSPropertyOp37
 70
     1
102
RTVSPropertyOp38
 70
     1
102
RTVSPropertyOp39
 70
     1
102
RTVSPropertyOp40
 70
     1
102
RTVSPropertyOp41
 70
     1
102
RTVSPropertyOp42
 70
     1
102
RTVSPropertyOp43
 70
     1
102
RTVSPropertyOp44
 70
     1
102
RTVSPropertyOp45
 70
     1
102
RTVSPropertyOp46
 70
     1
102
RTVSPropertyOp47
 70
     1
102
RTVSPropertyOp48
 70
     1
102
RTVSPropertyOp49
 70
     1
102
RTVSPropertyOp50
 70
     1
102
RTVSPropertyOp51
 70
     0
102
RTVSPropertyOp52
 70
     0
102
RTVSPropertyOp53
 70
     1
102
RTVSPropertyOp54
 70
     1
102
RTVSPropertyOp55
 70
     1
102
RTVSPropertyOp56
 70
     1
102
RTVSPropertyOp57
 70
     1
102
RTVSPropertyOp58
 70
     1
102
RTVSPropertyOp59
 70
     1
102
RTVSPropertyOp60
 70
     1
102
RTVSPropertyOp61
 70
     1
102
RTVSPropertyOp62
 70
     1
  0
XRECORD
  5
F478
102
{ACAD_REACTORS
330
F477
102
}
330
F477
100
AcDbXrecord
280
     1
102
RTVSPost2010Prop28
280
     0
102
RTVSPost2010PropOp28
 70
     1
102
RTVSPost2010Prop29
280
     1
102
RTVSPost2010PropOp29
 70
     1
102
RTVSPost2010Prop30
280
     1
102
RTVSPost2010PropOp30
 70
     1
102
RTVSPost2010Prop31
280
     0
102
RTVSPost2010PropOp31
 70
     1
102
RTVSPost2010Prop32
280
     0
102
RTVSPost2010PropOp32
 70
     1
102
RTVSPost2010Prop33
280
     0
102
RTVSPost2010PropOp33
 70
     1
102
RTVSPost2010Prop34
280
     0
102
RTVSPost2010PropOp34
 70
     1
102
RTVSPost2010Prop35
280
     0
102
RTVSPost2010PropOp35
 70
     1
102
RTVSPost2010Prop36
280
     0
102
RTVSPost2010PropOp36
 70
     1
102
RTVSPost2010Prop37
 90
       50
102
RTVSPost2010PropOp37
 70
     0
102
RTVSPost2010Prop38
140
0.0
102
RTVSPost2010PropOp38
 70
     0
102
RTVSPost2010Prop39
140
1.0
102
RTVSPost2010PropOp39
 70
     0
102
RTVSPost2010Prop40
 90
        0
102
RTVSPost2010PropOp40
 70
     0
102
RTVSPost2010Prop41ColorIndex
 90
       18
102
RTVSPost2010Prop41ColorRGB
 90
        0
102
RTVSPost2010PropOp41
 70
     0
102
RTVSPost2010Prop42
 90
       50
102
RTVSPost2010PropOp42
 70
     0
102
RTVSPost2010Prop43
 90
        3
102
RTVSPost2010PropOp43
 70
     0
102
RTVSPost2010Prop44ColorIndex
 90
        5
102
RTVSPost2010Prop44ColorRGB
 90
      255
102
RTVSPost2010PropOp44
 70
     0
102
RTVSPost2010Prop45
280
     0
102
RTVSPost2010PropOp45
 70
     1
102
RTVSPost2010Prop46
 90
       50
102
RTVSPost2010PropOp46
 70
     0
102
RTVSPost2010Prop47
 90
       50
102
RTVSPost2010PropOp47
 70
     0
102
RTVSPost2010Prop48
 90
       50
102
RTVSPost2010PropOp48
 70
     0
102
RTVSPost2010Prop49
280
     0
102
RTVSPost2010PropOp49
 70
     1
102
RTVSPost2010Prop50
 90
       50
102
RTVSPost2010PropOp50
 70
     0
102
RTVSPost2010Prop51ColorIndex
 90
      256
102
RTVSPost2010Prop51ColorRGB
 90
-16777216
102
RTVSPost2010PropOp51
 70
     0
102
RTVSPost2010Prop52
140
1.0
102
RTVSPost2010PropOp52
 70
     0
102
RTVSPost2010Prop53
 90
        2
102
RTVSPost2010PropOp53
 70
     0
102
RTVSPost2010Prop54
  1
strokes_ogs.tif
102
RTVSPost2010PropOp54
 70
     0
102
RTVSPost2010Prop55
280
     0
102
RTVSPost2010PropOp55
 70
     1
102
RTVSPost2010Prop56
140
1.0
102
RTVSPost2010PropOp56
 70
     0
102
RTVSPost2010Prop57
140
1.0
102
RTVSPost2010PropOp57
 70
     0
102
RTVSPropertyOp0
 70
     0
102
RTVSPropertyOp1
 70
     0
102
RTVSPropertyOp2
 70
     0
102
RTVSPropertyOp3
 70
     0
102
RTVSPropertyOp4
 70
     0
102
RTVSPropertyOp5
 70
     0
102
RTVSPropertyOp6
 70
     0
102
RTVSPropertyOp7
 70
     0
102
RTVSPropertyOp8
 70
     0
102
RTVSPropertyOp9
 70
     0
102
RTVSPropertyOp10
 70
     0
102
RTVSPropertyOp11
 70
     0
102
RTVSPropertyOp12
 70
     0
102
RTVSPropertyOp13
 70
     0
102
RTVSPropertyOp14
 70
     2
102
RTVSPropertyOp15
 70
     0
102
RTVSPropertyOp16
 70
     0
102
RTVSPropertyOp17
 70
     0
102
RTVSPropertyOp18
 70
     0
102
RTVSPropertyOp19
 70
     0
102
RTVSPropertyOp20
 70
     0
102
RTVSPropertyOp21
 70
     0
102
RTVSPropertyOp22
 70
     0
102
RTVSPropertyOp23
 70
     0
102
RTVSPropertyOp24
 70
     0
102
RTVSPropertyOp25
 70
     0
102
RTVSPropertyOp26
 70
     0
102
RTVSPropertyOp27
 70
     0
102
RTVSPropertyOp28
 70
     1
102
RTVSPropertyOp29
 70
     1
102
RTVSPropertyOp30
 70
     1
102
RTVSPropertyOp31
 70
     1
102
RTVSPropertyOp32
 70
     1
102
RTVSPropertyOp33
 70
     1
102
RTVSPropertyOp34
 70
     1
102
RTVSPropertyOp35
 70
     1
102
RTVSPropertyOp36
 70
     1
102
RTVSPropertyOp37
 70
     0
102
RTVSPropertyOp38
 70
     0
102
RTVSPropertyOp39
 70
     0
102
RTVSPropertyOp40
 70
     0
102
RTVSPropertyOp41
 70
     0
102
RTVSPropertyOp42
 70
     0
102
RTVSPropertyOp43
 70
     0
102
RTVSPropertyOp44
 70
     0
102
RTVSPropertyOp45
 70
     1
102
RTVSPropertyOp46
 70
     0
102
RTVSPropertyOp47
 70
     0
102
RTVSPropertyOp48
 70
     0
102
RTVSPropertyOp49
 70
     1
102
RTVSPropertyOp50
 70
     0
102
RTVSPropertyOp51
 70
     0
102
RTVSPropertyOp52
 70
     0
102
RTVSPropertyOp53
 70
     0
102
RTVSPropertyOp54
 70
     0
102
RTVSPropertyOp55
 70
     1
102
RTVSPropertyOp56
 70
     0
102
RTVSPropertyOp57
 70
     0
102
RTVSPropertyOp58
 70
     0
102
RTVSPropertyOp59
 70
     0
102
RTVSPropertyOp60
 70
     0
102
RTVSPropertyOp61
 70
     0
102
RTVSPropertyOp62
 70
     0
  0
XRECORD
  5
F468
102
{ACAD_REACTORS
330
F467
102
}
330
F467
100
AcDbXrecord
280
     1
102
RTVSPost2010Prop28
280
     0
102
RTVSPost2010PropOp28
 70
     1
102
RTVSPost2010Prop29
280
     1
102
RTVSPost2010PropOp29
 70
     1
102
RTVSPost2010Prop30
280
     1
102
RTVSPost2010PropOp30
 70
     1
102
RTVSPost2010Prop31
280
     0
102
RTVSPost2010PropOp31
 70
     1
102
RTVSPost2010Prop32
280
     0
102
RTVSPost2010PropOp32
 70
     1
102
RTVSPost2010Prop33
280
     0
102
RTVSPost2010PropOp33
 70
     1
102
RTVSPost2010Prop34
280
     0
102
RTVSPost2010PropOp34
 70
     1
102
RTVSPost2010Prop35
280
     0
102
RTVSPost2010PropOp35
 70
     1
102
RTVSPost2010Prop36
280
     0
102
RTVSPost2010PropOp36
 70
     1
102
RTVSPost2010Prop37
 90
       50
102
RTVSPost2010PropOp37
 70
     1
102
RTVSPost2010Prop38
140
0.0
102
RTVSPost2010PropOp38
 70
     1
102
RTVSPost2010Prop39
140
1.0
102
RTVSPost2010PropOp39
 70
     1
102
RTVSPost2010Prop40
 90
        0
102
RTVSPost2010PropOp40
 70
     1
102
RTVSPost2010Prop41ColorIndex
 90
       18
102
RTVSPost2010Prop41ColorRGB
 90
        0
102
RTVSPost2010PropOp41
 70
     1
102
RTVSPost2010Prop42
 90
       50
102
RTVSPost2010PropOp42
 70
     1
102
RTVSPost2010Prop43
 90
        3
102
RTVSPost2010PropOp43
 70
     1
102
RTVSPost2010Prop44ColorIndex
 90
        5
102
RTVSPost2010Prop44ColorRGB
 90
      255
102
RTVSPost2010PropOp44
 70
     1
102
RTVSPost2010Prop45
280
     0
102
RTVSPost2010PropOp45
 70
     1
102
RTVSPost2010Prop46
 90
       50
102
RTVSPost2010PropOp46
 70
     1
102
RTVSPost2010Prop47
 90
       50
102
RTVSPost2010PropOp47
 70
     1
102
RTVSPost2010Prop48
 90
       50
102
RTVSPost2010PropOp48
 70
     1
102
RTVSPost2010Prop49
280
     0
102
RTVSPost2010PropOp49
 70
     1
102
RTVSPost2010Prop50
 90
       50
102
RTVSPost2010PropOp50
 70
     1
102
RTVSPost2010Prop51ColorIndex
 90
      256
102
RTVSPost2010Prop51ColorRGB
 90
-16777216
102
RTVSPost2010PropOp51
 70
     0
102
RTVSPost2010Prop52
140
1.0
102
RTVSPost2010PropOp52
 70
     0
102
RTVSPost2010Prop53
 90
        2
102
RTVSPost2010PropOp53
 70
     1
102
RTVSPost2010Prop54
  1
strokes_ogs.tif
102
RTVSPost2010PropOp54
 70
     1
102
RTVSPost2010Prop55
280
     0
102
RTVSPost2010PropOp55
 70
     1
102
RTVSPost2010Prop56
140
1.0
102
RTVSPost2010PropOp56
 70
     1
102
RTVSPost2010Prop57
140
1.0
102
RTVSPost2010PropOp57
 70
     1
102
RTVSPropertyOp0
 70
     1
102
RTVSPropertyOp1
 70
     1
102
RTVSPropertyOp2
 70
     1
102
RTVSPropertyOp3
 70
     1
102
RTVSPropertyOp4
 70
     1
102
RTVSPropertyOp5
 70
     1
102
RTVSPropertyOp6
 70
     1
102
RTVSPropertyOp7
 70
     1
102
RTVSPropertyOp8
 70
     1
102
RTVSPropertyOp9
 70
     1
102
RTVSPropertyOp10
 70
     1
102
RTVSPropertyOp11
 70
     1
102
RTVSPropertyOp12
 70
     1
102
RTVSPropertyOp13
 70
     1
102
RTVSPropertyOp14
 70
     1
102
RTVSPropertyOp15
 70
     1
102
RTVSPropertyOp16
 70
     1
102
RTVSPropertyOp17
 70
     1
102
RTVSPropertyOp18
 70
     1
102
RTVSPropertyOp19
 70
     1
102
RTVSPropertyOp20
 70
     1
102
RTVSPropertyOp21
 70
     1
102
RTVSPropertyOp22
 70
     1
102
RTVSPropertyOp23
 70
     1
102
RTVSPropertyOp24
 70
     1
102
RTVSPropertyOp25
 70
     1
102
RTVSPropertyOp26
 70
     1
102
RTVSPropertyOp27
 70
     1
102
RTVSPropertyOp28
 70
     1
102
RTVSPropertyOp29
 70
     1
102
RTVSPropertyOp30
 70
     1
102
RTVSPropertyOp31
 70
     1
102
RTVSPropertyOp32
 70
     1
102
RTVSPropertyOp33
 70
     1
102
RTVSPropertyOp34
 70
     1
102
RTVSPropertyOp35
 70
     1
102
RTVSPropertyOp36
 70
     1
102
RTVSPropertyOp37
 70
     1
102
RTVSPropertyOp38
 70
     1
102
RTVSPropertyOp39
 70
     1
102
RTVSPropertyOp40
 70
     1
102
RTVSPropertyOp41
 70
     1
102
RTVSPropertyOp42
 70
     1
102
RTVSPropertyOp43
 70
     1
102
RTVSPropertyOp44
 70
     1
102
RTVSPropertyOp45
 70
     1
102
RTVSPropertyOp46
 70
     1
102
RTVSPropertyOp47
 70
     1
102
RTVSPropertyOp48
 70
     1
102
RTVSPropertyOp49
 70
     1
102
RTVSPropertyOp50
 70
     1
102
RTVSPropertyOp51
 70
     0
102
RTVSPropertyOp52
 70
     0
102
RTVSPropertyOp53
 70
     1
102
RTVSPropertyOp54
 70
     1
102
RTVSPropertyOp55
 70
     1
102
RTVSPropertyOp56
 70
     1
102
RTVSPropertyOp57
 70
     1
102
RTVSPropertyOp58
 70
     1
102
RTVSPropertyOp59
 70
     1
102
RTVSPropertyOp60
 70
     1
102
RTVSPropertyOp61
 70
     1
102
RTVSPropertyOp62
 70
     1
  0
XRECORD
  5
F47A
102
{ACAD_REACTORS
330
F479
102
}
330
F479
100
AcDbXrecord
280
     1
102
RTVSPost2010Prop28
280
     0
102
RTVSPost2010PropOp28
 70
     1
102
RTVSPost2010Prop29
280
     1
102
RTVSPost2010PropOp29
 70
     1
102
RTVSPost2010Prop30
280
     1
102
RTVSPost2010PropOp30
 70
     1
102
RTVSPost2010Prop31
280
     0
102
RTVSPost2010PropOp31
 70
     1
102
RTVSPost2010Prop32
280
     0
102
RTVSPost2010PropOp32
 70
     1
102
RTVSPost2010Prop33
280
     0
102
RTVSPost2010PropOp33
 70
     1
102
RTVSPost2010Prop34
280
     0
102
RTVSPost2010PropOp34
 70
     1
102
RTVSPost2010Prop35
280
     0
102
RTVSPost2010PropOp35
 70
     1
102
RTVSPost2010Prop36
280
     0
102
RTVSPost2010PropOp36
 70
     1
102
RTVSPost2010Prop37
 90
       50
102
RTVSPost2010PropOp37
 70
     0
102
RTVSPost2010Prop38
140
0.0
102
RTVSPost2010PropOp38
 70
     0
102
RTVSPost2010Prop39
140
1.0
102
RTVSPost2010PropOp39
 70
     0
102
RTVSPost2010Prop40
 90
        0
102
RTVSPost2010PropOp40
 70
     0
102
RTVSPost2010Prop41ColorIndex
 90
       18
102
RTVSPost2010Prop41ColorRGB
 90
        0
102
RTVSPost2010PropOp41
 70
     0
102
RTVSPost2010Prop42
 90
       50
102
RTVSPost2010PropOp42
 70
     0
102
RTVSPost2010Prop43
 90
        3
102
RTVSPost2010PropOp43
 70
     0
102
RTVSPost2010Prop44ColorIndex
 90
        5
102
RTVSPost2010Prop44ColorRGB
 90
      255
102
RTVSPost2010PropOp44
 70
     0
102
RTVSPost2010Prop45
280
     0
102
RTVSPost2010PropOp45
 70
     1
102
RTVSPost2010Prop46
 90
       50
102
RTVSPost2010PropOp46
 70
     0
102
RTVSPost2010Prop47
 90
       50
102
RTVSPost2010PropOp47
 70
     0
102
RTVSPost2010Prop48
 90
       50
102
RTVSPost2010PropOp48
 70
     0
102
RTVSPost2010Prop49
280
     0
102
RTVSPost2010PropOp49
 70
     1
102
RTVSPost2010Prop50
 90
       50
102
RTVSPost2010PropOp50
 70
     0
102
RTVSPost2010Prop51ColorIndex
 90
      256
102
RTVSPost2010Prop51ColorRGB
 90
-16777216
102
RTVSPost2010PropOp51
 70
     0
102
RTVSPost2010Prop52
140
1.0
102
RTVSPost2010PropOp52
 70
     0
102
RTVSPost2010Prop53
 90
        2
102
RTVSPost2010PropOp53
 70
     0
102
RTVSPost2010Prop54
  1
strokes_ogs.tif
102
RTVSPost2010PropOp54
 70
     0
102
RTVSPost2010Prop55
280
     0
102
RTVSPost2010PropOp55
 70
     1
102
RTVSPost2010Prop56
140
1.0
102
RTVSPost2010PropOp56
 70
     0
102
RTVSPost2010Prop57
140
1.0
102
RTVSPost2010PropOp57
 70
     0
102
RTVSPropertyOp0
 70
     0
102
RTVSPropertyOp1
 70
     0
102
RTVSPropertyOp2
 70
     0
102
RTVSPropertyOp3
 70
     0
102
RTVSPropertyOp4
 70
     0
102
RTVSPropertyOp5
 70
     0
102
RTVSPropertyOp6
 70
     0
102
RTVSPropertyOp7
 70
     0
102
RTVSPropertyOp8
 70
     0
102
RTVSPropertyOp9
 70
     0
102
RTVSPropertyOp10
 70
     0
102
RTVSPropertyOp11
 70
     0
102
RTVSPropertyOp12
 70
     0
102
RTVSPropertyOp13
 70
     0
102
RTVSPropertyOp14
 70
     2
102
RTVSPropertyOp15
 70
     0
102
RTVSPropertyOp16
 70
     0
102
RTVSPropertyOp17
 70
     0
102
RTVSPropertyOp18
 70
     0
102
RTVSPropertyOp19
 70
     0
102
RTVSPropertyOp20
 70
     0
102
RTVSPropertyOp21
 70
     0
102
RTVSPropertyOp22
 70
     0
102
RTVSPropertyOp23
 70
     0
102
RTVSPropertyOp24
 70
     0
102
RTVSPropertyOp25
 70
     0
102
RTVSPropertyOp26
 70
     0
102
RTVSPropertyOp27
 70
     0
102
RTVSPropertyOp28
 70
     1
102
RTVSPropertyOp29
 70
     1
102
RTVSPropertyOp30
 70
     1
102
RTVSPropertyOp31
 70
     1
102
RTVSPropertyOp32
 70
     1
102
RTVSPropertyOp33
 70
     1
102
RTVSPropertyOp34
 70
     1
102
RTVSPropertyOp35
 70
     1
102
RTVSPropertyOp36
 70
     1
102
RTVSPropertyOp37
 70
     0
102
RTVSPropertyOp38
 70
     0
102
RTVSPropertyOp39
 70
     0
102
RTVSPropertyOp40
 70
     0
102
RTVSPropertyOp41
 70
     0
102
RTVSPropertyOp42
 70
     0
102
RTVSPropertyOp43
 70
     0
102
RTVSPropertyOp44
 70
     0
102
RTVSPropertyOp45
 70
     1
102
RTVSPropertyOp46
 70
     0
102
RTVSPropertyOp47
 70
     0
102
RTVSPropertyOp48
 70
     0
102
RTVSPropertyOp49
 70
     1
102
RTVSPropertyOp50
 70
     0
102
RTVSPropertyOp51
 70
     0
102
RTVSPropertyOp52
 70
     0
102
RTVSPropertyOp53
 70
     0
102
RTVSPropertyOp54
 70
     0
102
RTVSPropertyOp55
 70
     1
102
RTVSPropertyOp56
 70
     0
102
RTVSPropertyOp57
 70
     0
102
RTVSPropertyOp58
 70
     0
102
RTVSPropertyOp59
 70
     0
102
RTVSPropertyOp60
 70
     0
102
RTVSPropertyOp61
 70
     0
102
RTVSPropertyOp62
 70
     0
  0
XRECORD
  5
F460
102
{ACAD_REACTORS
330
F45F
102
}
330
F45F
100
AcDbXrecord
280
     1
102
RTVSPost2010Prop28
280
     0
102
RTVSPost2010PropOp28
 70
     1
102
RTVSPost2010Prop29
280
     1
102
RTVSPost2010PropOp29
 70
     1
102
RTVSPost2010Prop30
280
     1
102
RTVSPost2010PropOp30
 70
     1
102
RTVSPost2010Prop31
280
     0
102
RTVSPost2010PropOp31
 70
     1
102
RTVSPost2010Prop32
280
     0
102
RTVSPost2010PropOp32
 70
     1
102
RTVSPost2010Prop33
280
     0
102
RTVSPost2010PropOp33
 70
     1
102
RTVSPost2010Prop34
280
     0
102
RTVSPost2010PropOp34
 70
     1
102
RTVSPost2010Prop35
280
     0
102
RTVSPost2010PropOp35
 70
     1
102
RTVSPost2010Prop36
280
     0
102
RTVSPost2010PropOp36
 70
     1
102
RTVSPost2010Prop37
 90
       50
102
RTVSPost2010PropOp37
 70
     1
102
RTVSPost2010Prop38
140
0.0
102
RTVSPost2010PropOp38
 70
     1
102
RTVSPost2010Prop39
140
1.0
102
RTVSPost2010PropOp39
 70
     1
102
RTVSPost2010Prop40
 90
        0
102
RTVSPost2010PropOp40
 70
     1
102
RTVSPost2010Prop41ColorIndex
 90
       18
102
RTVSPost2010Prop41ColorRGB
 90
        0
102
RTVSPost2010PropOp41
 70
     1
102
RTVSPost2010Prop42
 90
       50
102
RTVSPost2010PropOp42
 70
     1
102
RTVSPost2010Prop43
 90
        3
102
RTVSPost2010PropOp43
 70
     1
102
RTVSPost2010Prop44ColorIndex
 90
        5
102
RTVSPost2010Prop44ColorRGB
 90
      255
102
RTVSPost2010PropOp44
 70
     1
102
RTVSPost2010Prop45
280
     0
102
RTVSPost2010PropOp45
 70
     1
102
RTVSPost2010Prop46
 90
       50
102
RTVSPost2010PropOp46
 70
     1
102
RTVSPost2010Prop47
 90
       50
102
RTVSPost2010PropOp47
 70
     1
102
RTVSPost2010Prop48
 90
       50
102
RTVSPost2010PropOp48
 70
     1
102
RTVSPost2010Prop49
280
     0
102
RTVSPost2010PropOp49
 70
     1
102
RTVSPost2010Prop50
 90
       50
102
RTVSPost2010PropOp50
 70
     1
102
RTVSPost2010Prop51ColorIndex
 90
      256
102
RTVSPost2010Prop51ColorRGB
 90
-16777216
102
RTVSPost2010PropOp51
 70
     0
102
RTVSPost2010Prop52
140
1.0
102
RTVSPost2010PropOp52
 70
     0
102
RTVSPost2010Prop53
 90
        2
102
RTVSPost2010PropOp53
 70
     1
102
RTVSPost2010Prop54
  1
strokes_ogs.tif
102
RTVSPost2010PropOp54
 70
     1
102
RTVSPost2010Prop55
280
     0
102
RTVSPost2010PropOp55
 70
     1
102
RTVSPost2010Prop56
140
1.0
102
RTVSPost2010PropOp56
 70
     1
102
RTVSPost2010Prop57
140
1.0
102
RTVSPost2010PropOp57
 70
     1
102
RTVSPropertyOp0
 70
     1
102
RTVSPropertyOp1
 70
     1
102
RTVSPropertyOp2
 70
     1
102
RTVSPropertyOp3
 70
     1
102
RTVSPropertyOp4
 70
     1
102
RTVSPropertyOp5
 70
     1
102
RTVSPropertyOp6
 70
     1
102
RTVSPropertyOp7
 70
     1
102
RTVSPropertyOp8
 70
     1
102
RTVSPropertyOp9
 70
     1
102
RTVSPropertyOp10
 70
     1
102
RTVSPropertyOp11
 70
     1
102
RTVSPropertyOp12
 70
     1
102
RTVSPropertyOp13
 70
     1
102
RTVSPropertyOp14
 70
     1
102
RTVSPropertyOp15
 70
     1
102
RTVSPropertyOp16
 70
     1
102
RTVSPropertyOp17
 70
     1
102
RTVSPropertyOp18
 70
     1
102
RTVSPropertyOp19
 70
     1
102
RTVSPropertyOp20
 70
     1
102
RTVSPropertyOp21
 70
     1
102
RTVSPropertyOp22
 70
     1
102
RTVSPropertyOp23
 70
     1
102
RTVSPropertyOp24
 70
     1
102
RTVSPropertyOp25
 70
     1
102
RTVSPropertyOp26
 70
     1
102
RTVSPropertyOp27
 70
     1
102
RTVSPropertyOp28
 70
     1
102
RTVSPropertyOp29
 70
     1
102
RTVSPropertyOp30
 70
     1
102
RTVSPropertyOp31
 70
     1
102
RTVSPropertyOp32
 70
     1
102
RTVSPropertyOp33
 70
     1
102
RTVSPropertyOp34
 70
     1
102
RTVSPropertyOp35
 70
     1
102
RTVSPropertyOp36
 70
     1
102
RTVSPropertyOp37
 70
     1
102
RTVSPropertyOp38
 70
     1
102
RTVSPropertyOp39
 70
     1
102
RTVSPropertyOp40
 70
     1
102
RTVSPropertyOp41
 70
     1
102
RTVSPropertyOp42
 70
     1
102
RTVSPropertyOp43
 70
     1
102
RTVSPropertyOp44
 70
     1
102
RTVSPropertyOp45
 70
     1
102
RTVSPropertyOp46
 70
     1
102
RTVSPropertyOp47
 70
     1
102
RTVSPropertyOp48
 70
     1
102
RTVSPropertyOp49
 70
     1
102
RTVSPropertyOp50
 70
     1
102
RTVSPropertyOp51
 70
     0
102
RTVSPropertyOp52
 70
     0
102
RTVSPropertyOp53
 70
     1
102
RTVSPropertyOp54
 70
     1
102
RTVSPropertyOp55
 70
     1
102
RTVSPropertyOp56
 70
     1
102
RTVSPropertyOp57
 70
     1
102
RTVSPropertyOp58
 70
     1
102
RTVSPropertyOp59
 70
     1
102
RTVSPropertyOp60
 70
     1
102
RTVSPropertyOp61
 70
     1
102
RTVSPropertyOp62
 70
     1
  0
XRECORD
  5
F476
102
{ACAD_REACTORS
330
F475
102
}
330
F475
100
AcDbXrecord
280
     1
102
RTVSPost2010Prop28
280
     0
102
RTVSPost2010PropOp28
 70
     1
102
RTVSPost2010Prop29
280
     1
102
RTVSPost2010PropOp29
 70
     1
102
RTVSPost2010Prop30
280
     1
102
RTVSPost2010PropOp30
 70
     1
102
RTVSPost2010Prop31
280
     0
102
RTVSPost2010PropOp31
 70
     1
102
RTVSPost2010Prop32
280
     0
102
RTVSPost2010PropOp32
 70
     1
102
RTVSPost2010Prop33
280
     0
102
RTVSPost2010PropOp33
 70
     1
102
RTVSPost2010Prop34
280
     0
102
RTVSPost2010PropOp34
 70
     1
102
RTVSPost2010Prop35
280
     0
102
RTVSPost2010PropOp35
 70
     1
102
RTVSPost2010Prop36
280
     0
102
RTVSPost2010PropOp36
 70
     1
102
RTVSPost2010Prop37
 90
       50
102
RTVSPost2010PropOp37
 70
     1
102
RTVSPost2010Prop38
140
0.0
102
RTVSPost2010PropOp38
 70
     1
102
RTVSPost2010Prop39
140
1.0
102
RTVSPost2010PropOp39
 70
     1
102
RTVSPost2010Prop40
 90
        0
102
RTVSPost2010PropOp40
 70
     1
102
RTVSPost2010Prop41ColorIndex
 90
       18
102
RTVSPost2010Prop41ColorRGB
 90
        0
102
RTVSPost2010PropOp41
 70
     1
102
RTVSPost2010Prop42
 90
       50
102
RTVSPost2010PropOp42
 70
     1
102
RTVSPost2010Prop43
 90
        3
102
RTVSPost2010PropOp43
 70
     1
102
RTVSPost2010Prop44ColorIndex
 90
        5
102
RTVSPost2010Prop44ColorRGB
 90
      255
102
RTVSPost2010PropOp44
 70
     1
102
RTVSPost2010Prop45
280
     0
102
RTVSPost2010PropOp45
 70
     1
102
RTVSPost2010Prop46
 90
       50
102
RTVSPost2010PropOp46
 70
     1
102
RTVSPost2010Prop47
 90
       50
102
RTVSPost2010PropOp47
 70
     1
102
RTVSPost2010Prop48
 90
       50
102
RTVSPost2010PropOp48
 70
     1
102
RTVSPost2010Prop49
280
     0
102
RTVSPost2010PropOp49
 70
     1
102
RTVSPost2010Prop50
 90
       50
102
RTVSPost2010PropOp50
 70
     1
102
RTVSPost2010Prop51ColorIndex
 90
      256
102
RTVSPost2010Prop51ColorRGB
 90
-16777216
102
RTVSPost2010PropOp51
 70
     0
102
RTVSPost2010Prop52
140
1.0
102
RTVSPost2010PropOp52
 70
     0
102
RTVSPost2010Prop53
 90
        2
102
RTVSPost2010PropOp53
 70
     1
102
RTVSPost2010Prop54
  1
strokes_ogs.tif
102
RTVSPost2010PropOp54
 70
     1
102
RTVSPost2010Prop55
280
     0
102
RTVSPost2010PropOp55
 70
     1
102
RTVSPost2010Prop56
140
1.0
102
RTVSPost2010PropOp56
 70
     1
102
RTVSPost2010Prop57
140
1.0
102
RTVSPost2010PropOp57
 70
     1
102
RTVSPropertyOp0
 70
     1
102
RTVSPropertyOp1
 70
     1
102
RTVSPropertyOp2
 70
     1
102
RTVSPropertyOp3
 70
     1
102
RTVSPropertyOp4
 70
     1
102
RTVSPropertyOp5
 70
     1
102
RTVSPropertyOp6
 70
     1
102
RTVSPropertyOp7
 70
     1
102
RTVSPropertyOp8
 70
     1
102
RTVSPropertyOp9
 70
     1
102
RTVSPropertyOp10
 70
     1
102
RTVSPropertyOp11
 70
     1
102
RTVSPropertyOp12
 70
     1
102
RTVSPropertyOp13
 70
     1
102
RTVSPropertyOp14
 70
     1
102
RTVSPropertyOp15
 70
     1
102
RTVSPropertyOp16
 70
     1
102
RTVSPropertyOp17
 70
     1
102
RTVSPropertyOp18
 70
     1
102
RTVSPropertyOp19
 70
     1
102
RTVSPropertyOp20
 70
     1
102
RTVSPropertyOp21
 70
     1
102
RTVSPropertyOp22
 70
     1
102
RTVSPropertyOp23
 70
     1
102
RTVSPropertyOp24
 70
     1
102
RTVSPropertyOp25
 70
     1
102
RTVSPropertyOp26
 70
     1
102
RTVSPropertyOp27
 70
     1
102
RTVSPropertyOp28
 70
     1
102
RTVSPropertyOp29
 70
     1
102
RTVSPropertyOp30
 70
     1
102
RTVSPropertyOp31
 70
     1
102
RTVSPropertyOp32
 70
     1
102
RTVSPropertyOp33
 70
     1
102
RTVSPropertyOp34
 70
     1
102
RTVSPropertyOp35
 70
     1
102
RTVSPropertyOp36
 70
     1
102
RTVSPropertyOp37
 70
     1
102
RTVSPropertyOp38
 70
     1
102
RTVSPropertyOp39
 70
     1
102
RTVSPropertyOp40
 70
     1
102
RTVSPropertyOp41
 70
     1
102
RTVSPropertyOp42
 70
     1
102
RTVSPropertyOp43
 70
     1
102
RTVSPropertyOp44
 70
     1
102
RTVSPropertyOp45
 70
     1
102
RTVSPropertyOp46
 70
     1
102
RTVSPropertyOp47
 70
     1
102
RTVSPropertyOp48
 70
     1
102
RTVSPropertyOp49
 70
     1
102
RTVSPropertyOp50
 70
     1
102
RTVSPropertyOp51
 70
     0
102
RTVSPropertyOp52
 70
     0
102
RTVSPropertyOp53
 70
     1
102
RTVSPropertyOp54
 70
     1
102
RTVSPropertyOp55
 70
     1
102
RTVSPropertyOp56
 70
     1
102
RTVSPropertyOp57
 70
     1
102
RTVSPropertyOp58
 70
     1
102
RTVSPropertyOp59
 70
     1
102
RTVSPropertyOp60
 70
     1
102
RTVSPropertyOp61
 70
     1
102
RTVSPropertyOp62
 70
     1
  0
XRECORD
  5
F474
102
{ACAD_REACTORS
330
F473
102
}
330
F473
100
AcDbXrecord
280
     1
102
RTVSPost2010Prop28
280
     0
102
RTVSPost2010PropOp28
 70
     1
102
RTVSPost2010Prop29
280
     1
102
RTVSPost2010PropOp29
 70
     1
102
RTVSPost2010Prop30
280
     1
102
RTVSPost2010PropOp30
 70
     1
102
RTVSPost2010Prop31
280
     0
102
RTVSPost2010PropOp31
 70
     1
102
RTVSPost2010Prop32
280
     0
102
RTVSPost2010PropOp32
 70
     1
102
RTVSPost2010Prop33
280
     0
102
RTVSPost2010PropOp33
 70
     1
102
RTVSPost2010Prop34
280
     0
102
RTVSPost2010PropOp34
 70
     1
102
RTVSPost2010Prop35
280
     0
102
RTVSPost2010PropOp35
 70
     1
102
RTVSPost2010Prop36
280
     0
102
RTVSPost2010PropOp36
 70
     1
102
RTVSPost2010Prop37
 90
       50
102
RTVSPost2010PropOp37
 70
     1
102
RTVSPost2010Prop38
140
0.0
102
RTVSPost2010PropOp38
 70
     1
102
RTVSPost2010Prop39
140
1.0
102
RTVSPost2010PropOp39
 70
     1
102
RTVSPost2010Prop40
 90
        0
102
RTVSPost2010PropOp40
 70
     1
102
RTVSPost2010Prop41ColorIndex
 90
       18
102
RTVSPost2010Prop41ColorRGB
 90
        0
102
RTVSPost2010PropOp41
 70
     1
102
RTVSPost2010Prop42
 90
       50
102
RTVSPost2010PropOp42
 70
     1
102
RTVSPost2010Prop43
 90
        3
102
RTVSPost2010PropOp43
 70
     1
102
RTVSPost2010Prop44ColorIndex
 90
        5
102
RTVSPost2010Prop44ColorRGB
 90
      255
102
RTVSPost2010PropOp44
 70
     1
102
RTVSPost2010Prop45
280
     0
102
RTVSPost2010PropOp45
 70
     1
102
RTVSPost2010Prop46
 90
       50
102
RTVSPost2010PropOp46
 70
     1
102
RTVSPost2010Prop47
 90
       50
102
RTVSPost2010PropOp47
 70
     1
102
RTVSPost2010Prop48
 90
       50
102
RTVSPost2010PropOp48
 70
     1
102
RTVSPost2010Prop49
280
     0
102
RTVSPost2010PropOp49
 70
     1
102
RTVSPost2010Prop50
 90
       50
102
RTVSPost2010PropOp50
 70
     1
102
RTVSPost2010Prop51ColorIndex
 90
      256
102
RTVSPost2010Prop51ColorRGB
 90
-16777216
102
RTVSPost2010PropOp51
 70
     0
102
RTVSPost2010Prop52
140
1.0
102
RTVSPost2010PropOp52
 70
     0
102
RTVSPost2010Prop53
 90
        2
102
RTVSPost2010PropOp53
 70
     1
102
RTVSPost2010Prop54
  1
strokes_ogs.tif
102
RTVSPost2010PropOp54
 70
     1
102
RTVSPost2010Prop55
280
     0
102
RTVSPost2010PropOp55
 70
     1
102
RTVSPost2010Prop56
140
1.0
102
RTVSPost2010PropOp56
 70
     1
102
RTVSPost2010Prop57
140
1.0
102
RTVSPost2010PropOp57
 70
     1
102
RTVSPropertyOp0
 70
     1
102
RTVSPropertyOp1
 70
     1
102
RTVSPropertyOp2
 70
     1
102
RTVSPropertyOp3
 70
     1
102
RTVSPropertyOp4
 70
     1
102
RTVSPropertyOp5
 70
     1
102
RTVSPropertyOp6
 70
     1
102
RTVSPropertyOp7
 70
     1
102
RTVSPropertyOp8
 70
     1
102
RTVSPropertyOp9
 70
     1
102
RTVSPropertyOp10
 70
     1
102
RTVSPropertyOp11
 70
     1
102
RTVSPropertyOp12
 70
     1
102
RTVSPropertyOp13
 70
     1
102
RTVSPropertyOp14
 70
     1
102
RTVSPropertyOp15
 70
     1
102
RTVSPropertyOp16
 70
     1
102
RTVSPropertyOp17
 70
     1
102
RTVSPropertyOp18
 70
     1
102
RTVSPropertyOp19
 70
     1
102
RTVSPropertyOp20
 70
     1
102
RTVSPropertyOp21
 70
     1
102
RTVSPropertyOp22
 70
     1
102
RTVSPropertyOp23
 70
     1
102
RTVSPropertyOp24
 70
     1
102
RTVSPropertyOp25
 70
     1
102
RTVSPropertyOp26
 70
     1
102
RTVSPropertyOp27
 70
     1
102
RTVSPropertyOp28
 70
     1
102
RTVSPropertyOp29
 70
     1
102
RTVSPropertyOp30
 70
     1
102
RTVSPropertyOp31
 70
     1
102
RTVSPropertyOp32
 70
     1
102
RTVSPropertyOp33
 70
     1
102
RTVSPropertyOp34
 70
     1
102
RTVSPropertyOp35
 70
     1
102
RTVSPropertyOp36
 70
     1
102
RTVSPropertyOp37
 70
     1
102
RTVSPropertyOp38
 70
     1
102
RTVSPropertyOp39
 70
     1
102
RTVSPropertyOp40
 70
     1
102
RTVSPropertyOp41
 70
     1
102
RTVSPropertyOp42
 70
     1
102
RTVSPropertyOp43
 70
     1
102
RTVSPropertyOp44
 70
     1
102
RTVSPropertyOp45
 70
     1
102
RTVSPropertyOp46
 70
     1
102
RTVSPropertyOp47
 70
     1
102
RTVSPropertyOp48
 70
     1
102
RTVSPropertyOp49
 70
     1
102
RTVSPropertyOp50
 70
     1
102
RTVSPropertyOp51
 70
     0
102
RTVSPropertyOp52
 70
     0
102
RTVSPropertyOp53
 70
     1
102
RTVSPropertyOp54
 70
     1
102
RTVSPropertyOp55
 70
     1
102
RTVSPropertyOp56
 70
     1
102
RTVSPropertyOp57
 70
     1
102
RTVSPropertyOp58
 70
     1
102
RTVSPropertyOp59
 70
     1
102
RTVSPropertyOp60
 70
     1
102
RTVSPropertyOp61
 70
     1
102
RTVSPropertyOp62
 70
     1
  0
XRECORD
  5
F46E
102
{ACAD_REACTORS
330
F46D
102
}
330
F46D
100
AcDbXrecord
280
     1
102
RTVSPost2010Prop28
280
     0
102
RTVSPost2010PropOp28
 70
     1
102
RTVSPost2010Prop29
280
     1
102
RTVSPost2010PropOp29
 70
     1
102
RTVSPost2010Prop30
280
     1
102
RTVSPost2010PropOp30
 70
     1
102
RTVSPost2010Prop31
280
     0
102
RTVSPost2010PropOp31
 70
     1
102
RTVSPost2010Prop32
280
     0
102
RTVSPost2010PropOp32
 70
     1
102
RTVSPost2010Prop33
280
     0
102
RTVSPost2010PropOp33
 70
     1
102
RTVSPost2010Prop34
280
     0
102
RTVSPost2010PropOp34
 70
     1
102
RTVSPost2010Prop35
280
     0
102
RTVSPost2010PropOp35
 70
     1
102
RTVSPost2010Prop36
280
     0
102
RTVSPost2010PropOp36
 70
     1
102
RTVSPost2010Prop37
 90
       50
102
RTVSPost2010PropOp37
 70
     1
102
RTVSPost2010Prop38
140
0.0
102
RTVSPost2010PropOp38
 70
     1
102
RTVSPost2010Prop39
140
1.0
102
RTVSPost2010PropOp39
 70
     1
102
RTVSPost2010Prop40
 90
        0
102
RTVSPost2010PropOp40
 70
     1
102
RTVSPost2010Prop41ColorIndex
 90
       18
102
RTVSPost2010Prop41ColorRGB
 90
        0
102
RTVSPost2010PropOp41
 70
     1
102
RTVSPost2010Prop42
 90
       50
102
RTVSPost2010PropOp42
 70
     1
102
RTVSPost2010Prop43
 90
        3
102
RTVSPost2010PropOp43
 70
     1
102
RTVSPost2010Prop44ColorIndex
 90
        5
102
RTVSPost2010Prop44ColorRGB
 90
      255
102
RTVSPost2010PropOp44
 70
     1
102
RTVSPost2010Prop45
280
     0
102
RTVSPost2010PropOp45
 70
     1
102
RTVSPost2010Prop46
 90
       50
102
RTVSPost2010PropOp46
 70
     1
102
RTVSPost2010Prop47
 90
       50
102
RTVSPost2010PropOp47
 70
     1
102
RTVSPost2010Prop48
 90
       50
102
RTVSPost2010PropOp48
 70
     1
102
RTVSPost2010Prop49
280
     0
102
RTVSPost2010PropOp49
 70
     1
102
RTVSPost2010Prop50
 90
       50
102
RTVSPost2010PropOp50
 70
     1
102
RTVSPost2010Prop51ColorIndex
 90
      256
102
RTVSPost2010Prop51ColorRGB
 90
-16777216
102
RTVSPost2010PropOp51
 70
     0
102
RTVSPost2010Prop52
140
1.0
102
RTVSPost2010PropOp52
 70
     0
102
RTVSPost2010Prop53
 90
        2
102
RTVSPost2010PropOp53
 70
     1
102
RTVSPost2010Prop54
  1
strokes_ogs.tif
102
RTVSPost2010PropOp54
 70
     1
102
RTVSPost2010Prop55
280
     0
102
RTVSPost2010PropOp55
 70
     1
102
RTVSPost2010Prop56
140
1.0
102
RTVSPost2010PropOp56
 70
     1
102
RTVSPost2010Prop57
140
1.0
102
RTVSPost2010PropOp57
 70
     1
102
RTVSPropertyOp0
 70
     1
102
RTVSPropertyOp1
 70
     1
102
RTVSPropertyOp2
 70
     1
102
RTVSPropertyOp3
 70
     1
102
RTVSPropertyOp4
 70
     1
102
RTVSPropertyOp5
 70
     1
102
RTVSPropertyOp6
 70
     1
102
RTVSPropertyOp7
 70
     1
102
RTVSPropertyOp8
 70
     1
102
RTVSPropertyOp9
 70
     1
102
RTVSPropertyOp10
 70
     1
102
RTVSPropertyOp11
 70
     1
102
RTVSPropertyOp12
 70
     1
102
RTVSPropertyOp13
 70
     1
102
RTVSPropertyOp14
 70
     1
102
RTVSPropertyOp15
 70
     1
102
RTVSPropertyOp16
 70
     1
102
RTVSPropertyOp17
 70
     1
102
RTVSPropertyOp18
 70
     1
102
RTVSPropertyOp19
 70
     1
102
RTVSPropertyOp20
 70
     1
102
RTVSPropertyOp21
 70
     1
102
RTVSPropertyOp22
 70
     1
102
RTVSPropertyOp23
 70
     1
102
RTVSPropertyOp24
 70
     1
102
RTVSPropertyOp25
 70
     1
102
RTVSPropertyOp26
 70
     1
102
RTVSPropertyOp27
 70
     1
102
RTVSPropertyOp28
 70
     1
102
RTVSPropertyOp29
 70
     1
102
RTVSPropertyOp30
 70
     1
102
RTVSPropertyOp31
 70
     1
102
RTVSPropertyOp32
 70
     1
102
RTVSPropertyOp33
 70
     1
102
RTVSPropertyOp34
 70
     1
102
RTVSPropertyOp35
 70
     1
102
RTVSPropertyOp36
 70
     1
102
RTVSPropertyOp37
 70
     1
102
RTVSPropertyOp38
 70
     1
102
RTVSPropertyOp39
 70
     1
102
RTVSPropertyOp40
 70
     1
102
RTVSPropertyOp41
 70
     1
102
RTVSPropertyOp42
 70
     1
102
RTVSPropertyOp43
 70
     1
102
RTVSPropertyOp44
 70
     1
102
RTVSPropertyOp45
 70
     1
102
RTVSPropertyOp46
 70
     1
102
RTVSPropertyOp47
 70
     1
102
RTVSPropertyOp48
 70
     1
102
RTVSPropertyOp49
 70
     1
102
RTVSPropertyOp50
 70
     1
102
RTVSPropertyOp51
 70
     0
102
RTVSPropertyOp52
 70
     0
102
RTVSPropertyOp53
 70
     1
102
RTVSPropertyOp54
 70
     1
102
RTVSPropertyOp55
 70
     1
102
RTVSPropertyOp56
 70
     1
102
RTVSPropertyOp57
 70
     1
102
RTVSPropertyOp58
 70
     1
102
RTVSPropertyOp59
 70
     1
102
RTVSPropertyOp60
 70
     1
102
RTVSPropertyOp61
 70
     1
102
RTVSPropertyOp62
 70
     1
  0
XRECORD
  5
F470
102
{ACAD_REACTORS
330
F46F
102
}
330
F46F
100
AcDbXrecord
280
     1
102
RTVSPost2010Prop28
280
     0
102
RTVSPost2010PropOp28
 70
     1
102
RTVSPost2010Prop29
280
     1
102
RTVSPost2010PropOp29
 70
     1
102
RTVSPost2010Prop30
280
     1
102
RTVSPost2010PropOp30
 70
     1
102
RTVSPost2010Prop31
280
     0
102
RTVSPost2010PropOp31
 70
     1
102
RTVSPost2010Prop32
280
     0
102
RTVSPost2010PropOp32
 70
     1
102
RTVSPost2010Prop33
280
     0
102
RTVSPost2010PropOp33
 70
     1
102
RTVSPost2010Prop34
280
     0
102
RTVSPost2010PropOp34
 70
     1
102
RTVSPost2010Prop35
280
     0
102
RTVSPost2010PropOp35
 70
     1
102
RTVSPost2010Prop36
280
     0
102
RTVSPost2010PropOp36
 70
     1
102
RTVSPost2010Prop37
 90
       50
102
RTVSPost2010PropOp37
 70
     1
102
RTVSPost2010Prop38
140
0.0
102
RTVSPost2010PropOp38
 70
     1
102
RTVSPost2010Prop39
140
1.0
102
RTVSPost2010PropOp39
 70
     1
102
RTVSPost2010Prop40
 90
        0
102
RTVSPost2010PropOp40
 70
     1
102
RTVSPost2010Prop41ColorIndex
 90
       18
102
RTVSPost2010Prop41ColorRGB
 90
        0
102
RTVSPost2010PropOp41
 70
     1
102
RTVSPost2010Prop42
 90
       50
102
RTVSPost2010PropOp42
 70
     1
102
RTVSPost2010Prop43
 90
        3
102
RTVSPost2010PropOp43
 70
     1
102
RTVSPost2010Prop44ColorIndex
 90
        5
102
RTVSPost2010Prop44ColorRGB
 90
      255
102
RTVSPost2010PropOp44
 70
     1
102
RTVSPost2010Prop45
280
     0
102
RTVSPost2010PropOp45
 70
     1
102
RTVSPost2010Prop46
 90
       50
102
RTVSPost2010PropOp46
 70
     1
102
RTVSPost2010Prop47
 90
       50
102
RTVSPost2010PropOp47
 70
     1
102
RTVSPost2010Prop48
 90
       50
102
RTVSPost2010PropOp48
 70
     1
102
RTVSPost2010Prop49
280
     0
102
RTVSPost2010PropOp49
 70
     1
102
RTVSPost2010Prop50
 90
       50
102
RTVSPost2010PropOp50
 70
     1
102
RTVSPost2010Prop51ColorIndex
 90
      256
102
RTVSPost2010Prop51ColorRGB
 90
-16777216
102
RTVSPost2010PropOp51
 70
     0
102
RTVSPost2010Prop52
140
1.0
102
RTVSPost2010PropOp52
 70
     0
102
RTVSPost2010Prop53
 90
        2
102
RTVSPost2010PropOp53
 70
     1
102
RTVSPost2010Prop54
  1
strokes_ogs.tif
102
RTVSPost2010PropOp54
 70
     1
102
RTVSPost2010Prop55
280
     0
102
RTVSPost2010PropOp55
 70
     1
102
RTVSPost2010Prop56
140
1.0
102
RTVSPost2010PropOp56
 70
     1
102
RTVSPost2010Prop57
140
1.0
102
RTVSPost2010PropOp57
 70
     1
102
RTVSPropertyOp0
 70
     1
102
RTVSPropertyOp1
 70
     1
102
RTVSPropertyOp2
 70
     1
102
RTVSPropertyOp3
 70
     1
102
RTVSPropertyOp4
 70
     1
102
RTVSPropertyOp5
 70
     1
102
RTVSPropertyOp6
 70
     1
102
RTVSPropertyOp7
 70
     1
102
RTVSPropertyOp8
 70
     1
102
RTVSPropertyOp9
 70
     1
102
RTVSPropertyOp10
 70
     1
102
RTVSPropertyOp11
 70
     1
102
RTVSPropertyOp12
 70
     1
102
RTVSPropertyOp13
 70
     1
102
RTVSPropertyOp14
 70
     1
102
RTVSPropertyOp15
 70
     1
102
RTVSPropertyOp16
 70
     1
102
RTVSPropertyOp17
 70
     1
102
RTVSPropertyOp18
 70
     1
102
RTVSPropertyOp19
 70
     1
102
RTVSPropertyOp20
 70
     1
102
RTVSPropertyOp21
 70
     1
102
RTVSPropertyOp22
 70
     1
102
RTVSPropertyOp23
 70
     1
102
RTVSPropertyOp24
 70
     1
102
RTVSPropertyOp25
 70
     1
102
RTVSPropertyOp26
 70
     1
102
RTVSPropertyOp27
 70
     1
102
RTVSPropertyOp28
 70
     1
102
RTVSPropertyOp29
 70
     1
102
RTVSPropertyOp30
 70
     1
102
RTVSPropertyOp31
 70
     1
102
RTVSPropertyOp32
 70
     1
102
RTVSPropertyOp33
 70
     1
102
RTVSPropertyOp34
 70
     1
102
RTVSPropertyOp35
 70
     1
102
RTVSPropertyOp36
 70
     1
102
RTVSPropertyOp37
 70
     1
102
RTVSPropertyOp38
 70
     1
102
RTVSPropertyOp39
 70
     1
102
RTVSPropertyOp40
 70
     1
102
RTVSPropertyOp41
 70
     1
102
RTVSPropertyOp42
 70
     1
102
RTVSPropertyOp43
 70
     1
102
RTVSPropertyOp44
 70
     1
102
RTVSPropertyOp45
 70
     1
102
RTVSPropertyOp46
 70
     1
102
RTVSPropertyOp47
 70
     1
102
RTVSPropertyOp48
 70
     1
102
RTVSPropertyOp49
 70
     1
102
RTVSPropertyOp50
 70
     1
102
RTVSPropertyOp51
 70
     0
102
RTVSPropertyOp52
 70
     0
102
RTVSPropertyOp53
 70
     1
102
RTVSPropertyOp54
 70
     1
102
RTVSPropertyOp55
 70
     1
102
RTVSPropertyOp56
 70
     1
102
RTVSPropertyOp57
 70
     1
102
RTVSPropertyOp58
 70
     1
102
RTVSPropertyOp59
 70
     1
102
RTVSPropertyOp60
 70
     1
102
RTVSPropertyOp61
 70
     1
102
RTVSPropertyOp62
 70
     1
  0
XRECORD
  5
F466
102
{ACAD_REACTORS
330
F465
102
}
330
F465
100
AcDbXrecord
280
     1
102
RTVSPost2010Prop28
280
     0
102
RTVSPost2010PropOp28
 70
     1
102
RTVSPost2010Prop29
280
     1
102
RTVSPost2010PropOp29
 70
     1
102
RTVSPost2010Prop30
280
     1
102
RTVSPost2010PropOp30
 70
     1
102
RTVSPost2010Prop31
280
     0
102
RTVSPost2010PropOp31
 70
     1
102
RTVSPost2010Prop32
280
     0
102
RTVSPost2010PropOp32
 70
     1
102
RTVSPost2010Prop33
280
     0
102
RTVSPost2010PropOp33
 70
     1
102
RTVSPost2010Prop34
280
     0
102
RTVSPost2010PropOp34
 70
     1
102
RTVSPost2010Prop35
280
     0
102
RTVSPost2010PropOp35
 70
     1
102
RTVSPost2010Prop36
280
     0
102
RTVSPost2010PropOp36
 70
     1
102
RTVSPost2010Prop37
 90
       50
102
RTVSPost2010PropOp37
 70
     1
102
RTVSPost2010Prop38
140
0.0
102
RTVSPost2010PropOp38
 70
     1
102
RTVSPost2010Prop39
140
1.0
102
RTVSPost2010PropOp39
 70
     1
102
RTVSPost2010Prop40
 90
        0
102
RTVSPost2010PropOp40
 70
     1
102
RTVSPost2010Prop41ColorIndex
 90
       18
102
RTVSPost2010Prop41ColorRGB
 90
        0
102
RTVSPost2010PropOp41
 70
     1
102
RTVSPost2010Prop42
 90
       50
102
RTVSPost2010PropOp42
 70
     1
102
RTVSPost2010Prop43
 90
        3
102
RTVSPost2010PropOp43
 70
     1
102
RTVSPost2010Prop44ColorIndex
 90
        5
102
RTVSPost2010Prop44ColorRGB
 90
      255
102
RTVSPost2010PropOp44
 70
     1
102
RTVSPost2010Prop45
280
     0
102
RTVSPost2010PropOp45
 70
     1
102
RTVSPost2010Prop46
 90
       50
102
RTVSPost2010PropOp46
 70
     1
102
RTVSPost2010Prop47
 90
       50
102
RTVSPost2010PropOp47
 70
     1
102
RTVSPost2010Prop48
 90
       50
102
RTVSPost2010PropOp48
 70
     1
102
RTVSPost2010Prop49
280
     0
102
RTVSPost2010PropOp49
 70
     1
102
RTVSPost2010Prop50
 90
       50
102
RTVSPost2010PropOp50
 70
     1
102
RTVSPost2010Prop51ColorIndex
 90
      256
102
RTVSPost2010Prop51ColorRGB
 90
-16777216
102
RTVSPost2010PropOp51
 70
     0
102
RTVSPost2010Prop52
140
1.0
102
RTVSPost2010PropOp52
 70
     0
102
RTVSPost2010Prop53
 90
        2
102
RTVSPost2010PropOp53
 70
     1
102
RTVSPost2010Prop54
  1
strokes_ogs.tif
102
RTVSPost2010PropOp54
 70
     1
102
RTVSPost2010Prop55
280
     0
102
RTVSPost2010PropOp55
 70
     1
102
RTVSPost2010Prop56
140
1.0
102
RTVSPost2010PropOp56
 70
     1
102
RTVSPost2010Prop57
140
1.0
102
RTVSPost2010PropOp57
 70
     1
102
RTVSPropertyOp0
 70
     1
102
RTVSPropertyOp1
 70
     1
102
RTVSPropertyOp2
 70
     1
102
RTVSPropertyOp3
 70
     1
102
RTVSPropertyOp4
 70
     1
102
RTVSPropertyOp5
 70
     1
102
RTVSPropertyOp6
 70
     1
102
RTVSPropertyOp7
 70
     1
102
RTVSPropertyOp8
 70
     1
102
RTVSPropertyOp9
 70
     1
102
RTVSPropertyOp10
 70
     1
102
RTVSPropertyOp11
 70
     1
102
RTVSPropertyOp12
 70
     1
102
RTVSPropertyOp13
 70
     1
102
RTVSPropertyOp14
 70
     1
102
RTVSPropertyOp15
 70
     1
102
RTVSPropertyOp16
 70
     1
102
RTVSPropertyOp17
 70
     1
102
RTVSPropertyOp18
 70
     1
102
RTVSPropertyOp19
 70
     1
102
RTVSPropertyOp20
 70
     1
102
RTVSPropertyOp21
 70
     1
102
RTVSPropertyOp22
 70
     1
102
RTVSPropertyOp23
 70
     1
102
RTVSPropertyOp24
 70
     1
102
RTVSPropertyOp25
 70
     1
102
RTVSPropertyOp26
 70
     1
102
RTVSPropertyOp27
 70
     1
102
RTVSPropertyOp28
 70
     1
102
RTVSPropertyOp29
 70
     1
102
RTVSPropertyOp30
 70
     1
102
RTVSPropertyOp31
 70
     1
102
RTVSPropertyOp32
 70
     1
102
RTVSPropertyOp33
 70
     1
102
RTVSPropertyOp34
 70
     1
102
RTVSPropertyOp35
 70
     1
102
RTVSPropertyOp36
 70
     1
102
RTVSPropertyOp37
 70
     1
102
RTVSPropertyOp38
 70
     1
102
RTVSPropertyOp39
 70
     1
102
RTVSPropertyOp40
 70
     1
102
RTVSPropertyOp41
 70
     1
102
RTVSPropertyOp42
 70
     1
102
RTVSPropertyOp43
 70
     1
102
RTVSPropertyOp44
 70
     1
102
RTVSPropertyOp45
 70
     1
102
RTVSPropertyOp46
 70
     1
102
RTVSPropertyOp47
 70
     1
102
RTVSPropertyOp48
 70
     1
102
RTVSPropertyOp49
 70
     1
102
RTVSPropertyOp50
 70
     1
102
RTVSPropertyOp51
 70
     0
102
RTVSPropertyOp52
 70
     0
102
RTVSPropertyOp53
 70
     1
102
RTVSPropertyOp54
 70
     1
102
RTVSPropertyOp55
 70
     1
102
RTVSPropertyOp56
 70
     1
102
RTVSPropertyOp57
 70
     1
102
RTVSPropertyOp58
 70
     1
102
RTVSPropertyOp59
 70
     1
102
RTVSPropertyOp60
 70
     1
102
RTVSPropertyOp61
 70
     1
102
RTVSPropertyOp62
 70
     1
  0
XRECORD
  5
F45A
102
{ACAD_REACTORS
330
F459
102
}
330
F459
100
AcDbXrecord
280
     1
102
RTVSPost2010Prop28
280
     0
102
RTVSPost2010PropOp28
 70
     1
102
RTVSPost2010Prop29
280
     1
102
RTVSPost2010PropOp29
 70
     1
102
RTVSPost2010Prop30
280
     1
102
RTVSPost2010PropOp30
 70
     1
102
RTVSPost2010Prop31
280
     0
102
RTVSPost2010PropOp31
 70
     1
102
RTVSPost2010Prop32
280
     0
102
RTVSPost2010PropOp32
 70
     1
102
RTVSPost2010Prop33
280
     0
102
RTVSPost2010PropOp33
 70
     1
102
RTVSPost2010Prop34
280
     0
102
RTVSPost2010PropOp34
 70
     1
102
RTVSPost2010Prop35
280
     0
102
RTVSPost2010PropOp35
 70
     1
102
RTVSPost2010Prop36
280
     0
102
RTVSPost2010PropOp36
 70
     1
102
RTVSPost2010Prop37
 90
       50
102
RTVSPost2010PropOp37
 70
     1
102
RTVSPost2010Prop38
140
0.0
102
RTVSPost2010PropOp38
 70
     1
102
RTVSPost2010Prop39
140
1.0
102
RTVSPost2010PropOp39
 70
     1
102
RTVSPost2010Prop40
 90
        0
102
RTVSPost2010PropOp40
 70
     1
102
RTVSPost2010Prop41ColorIndex
 90
       18
102
RTVSPost2010Prop41ColorRGB
 90
        0
102
RTVSPost2010PropOp41
 70
     1
102
RTVSPost2010Prop42
 90
       50
102
RTVSPost2010PropOp42
 70
     1
102
RTVSPost2010Prop43
 90
        3
102
RTVSPost2010PropOp43
 70
     1
102
RTVSPost2010Prop44ColorIndex
 90
        5
102
RTVSPost2010Prop44ColorRGB
 90
      255
102
RTVSPost2010PropOp44
 70
     1
102
RTVSPost2010Prop45
280
     0
102
RTVSPost2010PropOp45
 70
     1
102
RTVSPost2010Prop46
 90
       50
102
RTVSPost2010PropOp46
 70
     1
102
RTVSPost2010Prop47
 90
       50
102
RTVSPost2010PropOp47
 70
     1
102
RTVSPost2010Prop48
 90
       50
102
RTVSPost2010PropOp48
 70
     1
102
RTVSPost2010Prop49
280
     0
102
RTVSPost2010PropOp49
 70
     1
102
RTVSPost2010Prop50
 90
       50
102
RTVSPost2010PropOp50
 70
     1
102
RTVSPost2010Prop51ColorIndex
 90
      256
102
RTVSPost2010Prop51ColorRGB
 90
-16777216
102
RTVSPost2010PropOp51
 70
     0
102
RTVSPost2010Prop52
140
1.0
102
RTVSPost2010PropOp52
 70
     0
102
RTVSPost2010Prop53
 90
        2
102
RTVSPost2010PropOp53
 70
     1
102
RTVSPost2010Prop54
  1
strokes_ogs.tif
102
RTVSPost2010PropOp54
 70
     1
102
RTVSPost2010Prop55
280
     0
102
RTVSPost2010PropOp55
 70
     1
102
RTVSPost2010Prop56
140
1.0
102
RTVSPost2010PropOp56
 70
     1
102
RTVSPost2010Prop57
140
1.0
102
RTVSPost2010PropOp57
 70
     1
102
RTVSPropertyOp0
 70
     1
102
RTVSPropertyOp1
 70
     1
102
RTVSPropertyOp2
 70
     1
102
RTVSPropertyOp3
 70
     1
102
RTVSPropertyOp4
 70
     1
102
RTVSPropertyOp5
 70
     1
102
RTVSPropertyOp6
 70
     1
102
RTVSPropertyOp7
 70
     1
102
RTVSPropertyOp8
 70
     1
102
RTVSPropertyOp9
 70
     1
102
RTVSPropertyOp10
 70
     1
102
RTVSPropertyOp11
 70
     1
102
RTVSPropertyOp12
 70
     1
102
RTVSPropertyOp13
 70
     1
102
RTVSPropertyOp14
 70
     1
102
RTVSPropertyOp15
 70
     1
102
RTVSPropertyOp16
 70
     1
102
RTVSPropertyOp17
 70
     1
102
RTVSPropertyOp18
 70
     1
102
RTVSPropertyOp19
 70
     1
102
RTVSPropertyOp20
 70
     1
102
RTVSPropertyOp21
 70
     1
102
RTVSPropertyOp22
 70
     1
102
RTVSPropertyOp23
 70
     1
102
RTVSPropertyOp24
 70
     1
102
RTVSPropertyOp25
 70
     1
102
RTVSPropertyOp26
 70
     1
102
RTVSPropertyOp27
 70
     1
102
RTVSPropertyOp28
 70
     1
102
RTVSPropertyOp29
 70
     1
102
RTVSPropertyOp30
 70
     1
102
RTVSPropertyOp31
 70
     1
102
RTVSPropertyOp32
 70
     1
102
RTVSPropertyOp33
 70
     1
102
RTVSPropertyOp34
 70
     1
102
RTVSPropertyOp35
 70
     1
102
RTVSPropertyOp36
 70
     1
102
RTVSPropertyOp37
 70
     1
102
RTVSPropertyOp38
 70
     1
102
RTVSPropertyOp39
 70
     1
102
RTVSPropertyOp40
 70
     1
102
RTVSPropertyOp41
 70
     1
102
RTVSPropertyOp42
 70
     1
102
RTVSPropertyOp43
 70
     1
102
RTVSPropertyOp44
 70
     1
102
RTVSPropertyOp45
 70
     1
102
RTVSPropertyOp46
 70
     1
102
RTVSPropertyOp47
 70
     1
102
RTVSPropertyOp48
 70
     1
102
RTVSPropertyOp49
 70
     1
102
RTVSPropertyOp50
 70
     1
102
RTVSPropertyOp51
 70
     0
102
RTVSPropertyOp52
 70
     0
102
RTVSPropertyOp53
 70
     1
102
RTVSPropertyOp54
 70
     1
102
RTVSPropertyOp55
 70
     1
102
RTVSPropertyOp56
 70
     1
102
RTVSPropertyOp57
 70
     1
102
RTVSPropertyOp58
 70
     1
102
RTVSPropertyOp59
 70
     1
102
RTVSPropertyOp60
 70
     1
102
RTVSPropertyOp61
 70
     1
102
RTVSPropertyOp62
 70
     1
  0
XRECORD
  5
F472
102
{ACAD_REACTORS
330
F471
102
}
330
F471
100
AcDbXrecord
280
     1
102
RTVSPost2010Prop28
280
     0
102
RTVSPost2010PropOp28
 70
     1
102
RTVSPost2010Prop29
280
     1
102
RTVSPost2010PropOp29
 70
     1
102
RTVSPost2010Prop30
280
     1
102
RTVSPost2010PropOp30
 70
     1
102
RTVSPost2010Prop31
280
     0
102
RTVSPost2010PropOp31
 70
     1
102
RTVSPost2010Prop32
280
     0
102
RTVSPost2010PropOp32
 70
     1
102
RTVSPost2010Prop33
280
     0
102
RTVSPost2010PropOp33
 70
     1
102
RTVSPost2010Prop34
280
     0
102
RTVSPost2010PropOp34
 70
     1
102
RTVSPost2010Prop35
280
     0
102
RTVSPost2010PropOp35
 70
     1
102
RTVSPost2010Prop36
280
     0
102
RTVSPost2010PropOp36
 70
     1
102
RTVSPost2010Prop37
 90
       50
102
RTVSPost2010PropOp37
 70
     1
102
RTVSPost2010Prop38
140
0.0
102
RTVSPost2010PropOp38
 70
     1
102
RTVSPost2010Prop39
140
1.0
102
RTVSPost2010PropOp39
 70
     1
102
RTVSPost2010Prop40
 90
        0
102
RTVSPost2010PropOp40
 70
     1
102
RTVSPost2010Prop41ColorIndex
 90
       18
102
RTVSPost2010Prop41ColorRGB
 90
        0
102
RTVSPost2010PropOp41
 70
     1
102
RTVSPost2010Prop42
 90
       50
102
RTVSPost2010PropOp42
 70
     1
102
RTVSPost2010Prop43
 90
        3
102
RTVSPost2010PropOp43
 70
     1
102
RTVSPost2010Prop44ColorIndex
 90
        5
102
RTVSPost2010Prop44ColorRGB
 90
      255
102
RTVSPost2010PropOp44
 70
     1
102
RTVSPost2010Prop45
280
     0
102
RTVSPost2010PropOp45
 70
     1
102
RTVSPost2010Prop46
 90
       50
102
RTVSPost2010PropOp46
 70
     1
102
RTVSPost2010Prop47
 90
       50
102
RTVSPost2010PropOp47
 70
     1
102
RTVSPost2010Prop48
 90
       50
102
RTVSPost2010PropOp48
 70
     1
102
RTVSPost2010Prop49
280
     0
102
RTVSPost2010PropOp49
 70
     1
102
RTVSPost2010Prop50
 90
       50
102
RTVSPost2010PropOp50
 70
     1
102
RTVSPost2010Prop51ColorIndex
 90
      256
102
RTVSPost2010Prop51ColorRGB
 90
-16777216
102
RTVSPost2010PropOp51
 70
     0
102
RTVSPost2010Prop52
140
1.0
102
RTVSPost2010PropOp52
 70
     0
102
RTVSPost2010Prop53
 90
        2
102
RTVSPost2010PropOp53
 70
     1
102
RTVSPost2010Prop54
  1
strokes_ogs.tif
102
RTVSPost2010PropOp54
 70
     1
102
RTVSPost2010Prop55
280
     0
102
RTVSPost2010PropOp55
 70
     1
102
RTVSPost2010Prop56
140
1.0
102
RTVSPost2010PropOp56
 70
     1
102
RTVSPost2010Prop57
140
1.0
102
RTVSPost2010PropOp57
 70
     1
102
RTVSPropertyOp0
 70
     1
102
RTVSPropertyOp1
 70
     1
102
RTVSPropertyOp2
 70
     1
102
RTVSPropertyOp3
 70
     1
102
RTVSPropertyOp4
 70
     1
102
RTVSPropertyOp5
 70
     1
102
RTVSPropertyOp6
 70
     1
102
RTVSPropertyOp7
 70
     1
102
RTVSPropertyOp8
 70
     1
102
RTVSPropertyOp9
 70
     1
102
RTVSPropertyOp10
 70
     1
102
RTVSPropertyOp11
 70
     1
102
RTVSPropertyOp12
 70
     1
102
RTVSPropertyOp13
 70
     1
102
RTVSPropertyOp14
 70
     1
102
RTVSPropertyOp15
 70
     1
102
RTVSPropertyOp16
 70
     1
102
RTVSPropertyOp17
 70
     1
102
RTVSPropertyOp18
 70
     1
102
RTVSPropertyOp19
 70
     1
102
RTVSPropertyOp20
 70
     1
102
RTVSPropertyOp21
 70
     1
102
RTVSPropertyOp22
 70
     1
102
RTVSPropertyOp23
 70
     1
102
RTVSPropertyOp24
 70
     1
102
RTVSPropertyOp25
 70
     1
102
RTVSPropertyOp26
 70
     1
102
RTVSPropertyOp27
 70
     1
102
RTVSPropertyOp28
 70
     1
102
RTVSPropertyOp29
 70
     1
102
RTVSPropertyOp30
 70
     1
102
RTVSPropertyOp31
 70
     1
102
RTVSPropertyOp32
 70
     1
102
RTVSPropertyOp33
 70
     1
102
RTVSPropertyOp34
 70
     1
102
RTVSPropertyOp35
 70
     1
102
RTVSPropertyOp36
 70
     1
102
RTVSPropertyOp37
 70
     1
102
RTVSPropertyOp38
 70
     1
102
RTVSPropertyOp39
 70
     1
102
RTVSPropertyOp40
 70
     1
102
RTVSPropertyOp41
 70
     1
102
RTVSPropertyOp42
 70
     1
102
RTVSPropertyOp43
 70
     1
102
RTVSPropertyOp44
 70
     1
102
RTVSPropertyOp45
 70
     1
102
RTVSPropertyOp46
 70
     1
102
RTVSPropertyOp47
 70
     1
102
RTVSPropertyOp48
 70
     1
102
RTVSPropertyOp49
 70
     1
102
RTVSPropertyOp50
 70
     1
102
RTVSPropertyOp51
 70
     0
102
RTVSPropertyOp52
 70
     0
102
RTVSPropertyOp53
 70
     1
102
RTVSPropertyOp54
 70
     1
102
RTVSPropertyOp55
 70
     1
102
RTVSPropertyOp56
 70
     1
102
RTVSPropertyOp57
 70
     1
102
RTVSPropertyOp58
 70
     1
102
RTVSPropertyOp59
 70
     1
102
RTVSPropertyOp60
 70
     1
102
RTVSPropertyOp61
 70
     1
102
RTVSPropertyOp62
 70
     1
  0
ENDSEC
  0
EOF
