  0
SECTION
  2
HEADER
  9
$ACADVER
  1
AC1015
  9
$ACADMAINTVER
 70
    20
  9
$DWGCODEPAGE
  3
ANSI_932
  9
$INSBASE
 10
0.0
 20
0.0
 30
0.0
  9
$EXTMIN
 10
10.0
 20
9.999999999999998
 30
0.0
  9
$EXTMAX
 10
920.6000000000001
 20
434.7999999999998
 30
0.0
  9
$LIMMIN
 10
0.0
 20
0.0
  9
$LIMMAX
 10
950.3999999999999
 20
655.2000000000001
  9
$ORTHOMODE
 70
     1
  9
$REGENMODE
 70
     1
  9
$FILLMODE
 70
     1
  9
$QTEXTMODE
 70
     0
  9
$MIRRTEXT
 70
     1
  9
$LTSCALE
 40
20.0
  9
$ATTMODE
 70
     1
  9
$TEXTSIZE
 40
5.0
  9
$TRACEWID
 40
1.0
  9
$TEXTSTYLE
  7
STANDARD
  9
$CLAYER
  8
0
  9
$CELTYPE
  6
BYLAYER
  9
$CECOLOR
 62
   256
  9
$CELTSCALE
 40
1.0
  9
$DISPSILH
 70
     0
  9
$DIMSCALE
 40
1.0
  9
$DIMASZ
 40
3.0
  9
$DIMEXO
 40
1.0
  9
$DIMDLI
 40
10.0
  9
$DIMRND
 40
0.0
  9
$DIMDLE
 40
0.0
  9
$DIMEXE
 40
1.0
  9
$DIMTP
 40
0.0
  9
$DIMTM
 40
0.0
  9
$DIMTXT
 40
2.5
  9
$DIMCEN
 40
0.0
  9
$DIMTSZ
 40
0.0
  9
$DIMTOL
 70
     0
  9
$DIMLIM
 70
     0
  9
$DIMTIH
 70
     0
  9
$DIMTOH
 70
     0
  9
$DIMSE1
 70
     0
  9
$DIMSE2
 70
     0
  9
$DIMTAD
 70
     3
  9
$DIMZIN
 70
     8
  9
$DIMBLK
  1

  9
$DIMASO
 70
     1
  9
$DIMSHO
 70
     1
  9
$DIMPOST
  1

  9
$DIMAPOST
  1

  9
$DIMALT
 70
     0
  9
$DIMALTD
 70
     2
  9
$DIMALTF
 40
25.4
  9
$DIMLFAC
 40
1.0
  9
$DIMTOFL
 70
     1
  9
$DIMTVP
 40
0.0
  9
$DIMTIX
 70
     0
  9
$DIMSOXD
 70
     0
  9
$DIMSAH
 70
     1
  9
$DIMBLK1
  1

  9
$DIMBLK2
  1

  9
$DIMSTYLE
  2
STANDARD
  9
$DIMCLRD
 70
     0
  9
$DIMCLRE
 70
     0
  9
$DIMCLRT
 70
     0
  9
$DIMTFAC
 40
1.0
  9
$DIMGAP
 40
1.0
  9
$DIMJUST
 70
     0
  9
$DIMSD1
 70
     0
  9
$DIMSD2
 70
     0
  9
$DIMTOLJ
 70
     1
  9
$DIMTZIN
 70
     0
  9
$DIMALTZ
 70
     0
  9
$DIMALTTZ
 70
     0
  9
$DIMUPT
 70
     0
  9
$DIMDEC
 70
     4
  9
$DIMTDEC
 70
     4
  9
$DIMALTU
 70
     2
  9
$DIMALTTD
 70
     2
  9
$DIMTXSTY
  7
STANDARD
  9
$DIMAUNIT
 70
     0
  9
$DIMADEC
 70
     0
  9
$DIMALTRND
 40
0.0
  9
$DIMAZIN
 70
     0
  9
$DIMDSEP
 70
    46
  9
$DIMATFIT
 70
     3
  9
$DIMFRAC
 70
     0
  9
$DIMLDRBLK
  1

  9
$DIMLUNIT
 70
     2
  9
$DIMLWD
 70
    -2
  9
$DIMLWE
 70
    -2
  9
$DIMTMOVE
 70
     0
  9
$LUNITS
 70
     2
  9
$LUPREC
 70
     4
  9
$SKETCHINC
 40
1.0
  9
$FILLETRAD
 40
0.0
  9
$AUNITS
 70
     0
  9
$AUPREC
 70
     2
  9
$MENU
  1
.
  9
$ELEVATION
 40
0.0
  9
$PELEVATION
 40
0.0
  9
$THICKNESS
 40
0.0
  9
$LIMCHECK
 70
     0
  9
$CHAMFERA
 40
10.0
  9
$CHAMFERB
 40
10.0
  9
$CHAMFERC
 40
0.0
  9
$CHAMFERD
 40
0.0
  9
$SKPOLY
 70
     0
  9
$TDCREATE
 40
2451301.788226620
  9
$TDUCREATE
 40
2451301.413226620
  9
$TDUPDATE
 40
2457192.659581389
  9
$TDUUPDATE
 40
2457192.284581389
  9
$TDINDWG
 40
0.0000138773
  9
$TDUSRTIMER
 40
0.0000133796
  9
$USRTIMER
 70
     1
  9
$ANGBASE
 50
0.0
  9
$ANGDIR
 70
     0
  9
$PDMODE
 70
     0
  9
$PDSIZE
 40
0.0
  9
$PLINEWID
 40
0.0
  9
$SPLFRAME
 70
     0
  9
$SPLINETYPE
 70
     6
  9
$SPLINESEGS
 70
     8
  9
$HANDSEED
  5
10A32
  9
$SURFTAB1
 70
     6
  9
$SURFTAB2
 70
     6
  9
$SURFTYPE
 70
     6
  9
$SURFU
 70
     6
  9
$SURFV
 70
     6
  9
$UCSBASE
  2

  9
$UCSNAME
  2

  9
$UCSORG
 10
0.0
 20
0.0
 30
0.0
  9
$UCSXDIR
 10
1.0
 20
0.0
 30
0.0
  9
$UCSYDIR
 10
0.0
 20
1.0
 30
0.0
  9
$UCSORTHOREF
  2

  9
$UCSORTHOVIEW
 70
     0
  9
$UCSORGTOP
 10
0.0
 20
0.0
 30
0.0
  9
$UCSORGBOTTOM
 10
0.0
 20
0.0
 30
0.0
  9
$UCSORGLEFT
 10
0.0
 20
0.0
 30
0.0
  9
$UCSORGRIGHT
 10
0.0
 20
0.0
 30
0.0
  9
$UCSORGFRONT
 10
0.0
 20
0.0
 30
0.0
  9
$UCSORGBACK
 10
0.0
 20
0.0
 30
0.0
  9
$PUCSBASE
  2

  9
$PUCSNAME
  2

  9
$PUCSORG
 10
0.0
 20
0.0
 30
0.0
  9
$PUCSXDIR
 10
1.0
 20
0.0
 30
0.0
  9
$PUCSYDIR
 10
0.0
 20
1.0
 30
0.0
  9
$PUCSORTHOREF
  2

  9
$PUCSORTHOVIEW
 70
     0
  9
$PUCSORGTOP
 10
0.0
 20
0.0
 30
0.0
  9
$PUCSORGBOTTOM
 10
0.0
 20
0.0
 30
0.0
  9
$PUCSORGLEFT
 10
0.0
 20
0.0
 30
0.0
  9
$PUCSORGRIGHT
 10
0.0
 20
0.0
 30
0.0
  9
$PUCSORGFRONT
 10
0.0
 20
0.0
 30
0.0
  9
$PUCSORGBACK
 10
0.0
 20
0.0
 30
0.0
  9
$USERI1
 70
     0
  9
$USERI2
 70
     0
  9
$USERI3
 70
     0
  9
$USERI4
 70
     0
  9
$USERI5
 70
     0
  9
$USERR1
 40
0.0
  9
$USERR2
 40
0.0
  9
$USERR3
 40
0.0
  9
$USERR4
 40
0.0
  9
$USERR5
 40
0.0
  9
$WORLDVIEW
 70
     1
  9
$SHADEDGE
 70
     3
  9
$SHADEDIF
 70
    70
  9
$TILEMODE
 70
     1
  9
$MAXACTVP
 70
    16
  9
$PINSBASE
 10
0.0
 20
0.0
 30
0.0
  9
$PLIMCHECK
 70
     0
  9
$PEXTMIN
 10
1.000000000000000E+20
 20
1.000000000000000E+20
 30
1.000000000000000E+20
  9
$PEXTMAX
 10
-1.000000000000000E+20
 20
-1.000000000000000E+20
 30
-1.000000000000000E+20
  9
$PLIMMIN
 10
0.0
 20
0.0
  9
$PLIMMAX
 10
420.0
 20
297.0
  9
$UNITMODE
 70
     0
  9
$VISRETAIN
 70
     0
  9
$PLINEGEN
 70
     0
  9
$PSLTSCALE
 70
     0
  9
$TREEDEPTH
 70
  3020
  9
$CMLSTYLE
  2
STANDARD
  9
$CMLJUST
 70
     0
  9
$CMLSCALE
 40
1.0
  9
$PROXYGRAPHICS
 70
     1
  9
$MEASUREMENT
 70
     0
  9
$CELWEIGHT
370
    -1
  9
$ENDCAPS
280
     0
  9
$JOINSTYLE
280
     0
  9
$LWDISPLAY
290
     0
  9
$INSUNITS
 70
     0
  9
$HYPERLINKBASE
  1

  9
$STYLESHEET
  1

  9
$XEDIT
290
     1
  9
$CEPSNTYPE
380
     0
  9
$PSTYLEMODE
290
     1
  9
$FINGERPRINTGUID
  2
{F5E5ABEE-66DC-4F36-91DB-4F8E1778BBA5}
  9
$VERSIONGUID
  2
{CECF106D-25C8-4604-B8CC-A1E9C6B0927D}
  9
$EXTNAMES
290
     1
  9
$PSVPSCALE
 40
0.0
  9
$OLESTARTUP
290
     0
  0
ENDSEC
  0
SECTION
  2
CLASSES
  0
CLASS
  1
ACDBDICTIONARYWDFLT
  2
AcDbDictionaryWithDefault
  3
ObjectDBX Classes
 90
        0
280
     0
281
     0
  0
CLASS
  1
ACDBPLACEHOLDER
  2
AcDbPlaceHolder
  3
ObjectDBX Classes
 90
        0
280
     0
281
     0
  0
CLASS
  1
LAYOUT
  2
AcDbLayout
  3
ObjectDBX Classes
 90
        0
280
     0
281
     0
  0
CLASS
  1
DICTIONARYVAR
  2
AcDbDictionaryVar
  3
ObjectDBX Classes
 90
        0
280
     0
281
     0
  0
CLASS
  1
MATERIAL
  2
AcDbMaterial
  3
ObjectDBX Classes
 90
     1153
280
     0
281
     0
  0
CLASS
  1
VISUALSTYLE
  2
AcDbVisualStyle
  3
ObjectDBX Classes
 90
     4095
280
     0
281
     0
  0
CLASS
  1
TABLESTYLE
  2
AcDbTableStyle
  3
ObjectDBX Classes
 90
     4095
280
     0
281
     0
  0
CLASS
  1
SCALE
  2
AcDbScale
  3
ObjectDBX Classes
 90
     1153
280
     0
281
     0
  0
CLASS
  1
MLEADERSTYLE
  2
AcDbMLeaderStyle
  3
ACDB_MLEADERSTYLE_CLASS
 90
     4095
280
     0
281
     0
  0
CLASS
  1
ACDBSECTIONVIEWSTYLE
  2
AcDbSectionViewStyle
  3
ObjectDBX Classes
 90
     1025
280
     0
281
     0
  0
CLASS
  1
ACDBDETAILVIEWSTYLE
  2
AcDbDetailViewStyle
  3
ObjectDBX Classes
 90
     1025
280
     0
281
     0
  0
CLASS
  1
CELLSTYLEMAP
  2
AcDbCellStyleMap
  3
ObjectDBX Classes
 90
     1152
280
     0
281
     0
  0
ENDSEC
  0
SECTION
  2
TABLES
  0
TABLE
  2
VPORT
  5
1053D
330
0
100
AcDbSymbolTable
 70
     1
  0
VPORT
  5
1097B
330
1053D
100
AcDbSymbolTableRecord
100
AcDbViewportTableRecord
  2
*ACTIVE
 70
     0
 10
0.0
 20
0.0
 11
1.0
 21
1.0
 12
622.0921650577743
 22
222.400691100304
 13
0.0
 23
0.0
 14
10.0
 24
10.0
 15
10.0
 25
10.0
 16
0.0
 26
0.0
 36
1.0
 17
0.0
 27
0.0
 37
0.0
 40
523.4493004166603
 41
1.899603698811096
 42
50.0
 43
0.0
 44
0.0
 50
0.0
 51
0.0
 71
     0
 72
   100
 73
     1
 74
     0
 75
     0
 76
     0
 77
     0
 78
     0
281
     0
 65
     1
110
0.0
120
0.0
130
0.0
111
1.0
121
0.0
131
0.0
112
0.0
122
1.0
132
0.0
 79
     0
146
0.0
1001
ACAD_NAV_VCDISPLAY
1070
     3
  0
ENDTAB
  0
TABLE
  2
LTYPE
  5
1053A
330
0
100
AcDbSymbolTable
 70
     4
  0
LTYPE
  5
10548
330
1053A
100
AcDbSymbolTableRecord
100
AcDbLinetypeTableRecord
  2
BYBLOCK
 70
     0
  3

 72
    65
 73
     0
 40
0.0
  0
LTYPE
  5
10549
330
1053A
100
AcDbSymbolTableRecord
100
AcDbLinetypeTableRecord
  2
BYLAYER
 70
     0
  3

 72
    65
 73
     0
 40
0.0
  0
LTYPE
  5
1054A
330
1053A
100
AcDbSymbolTableRecord
100
AcDbLinetypeTableRecord
  2
CONTINUOUS
 70
     0
  3
Solid line
 72
    65
 73
     0
 40
0.0
  0
LTYPE
  5
10558
330
1053A
100
AcDbSymbolTableRecord
100
AcDbLinetypeTableRecord
  2
DASHED
 70
     0
  3
__ __ __ __ __ __ __ __ __ __ __ __ __ __ __ __
 72
    65
 73
     2
 40
0.75
 49
0.5
 74
     0
 49
-0.25
 74
     0
  0
LTYPE
  5
10559
330
1053A
100
AcDbSymbolTableRecord
100
AcDbLinetypeTableRecord
  2
CENTER
 70
     0
  3
____ _ ____ _ ____ _ ____ _ ____ _ ____ _ ____ 
 72
    65
 73
     4
 40
2.0
 49
1.25
 74
     0
 49
-0.25
 74
     0
 49
0.25
 74
     0
 49
-0.25
 74
     0
  0
LTYPE
  5
1055A
330
1053A
100
AcDbSymbolTableRecord
100
AcDbLinetypeTableRecord
  2
PHANTOM
 70
     0
  3
______  __  __  ______  __  __  ______  __  __ 
 72
    65
 73
     6
 40
2.5
 49
1.25
 74
     0
 49
-0.25
 74
     0
 49
0.25
 74
     0
 49
-0.25
 74
     0
 49
0.25
 74
     0
 49
-0.25
 74
     0
  0
ENDTAB
  0
TABLE
  2
LAYER
  5
10537
330
0
100
AcDbSymbolTable
 70
     8
  0
LAYER
  5
10545
102
{ACAD_XDICTIONARY
360
109D6
102
}
330
10537
100
AcDbSymbolTableRecord
100
AcDbLayerTableRecord
  2
0
 70
     0
 62
     7
  6
CONTINUOUS
370
    -3
390
10984
  0
LAYER
  5
1055B
102
{ACAD_XDICTIONARY
360
109D8
102
}
330
10537
100
AcDbSymbolTableRecord
100
AcDbLayerTableRecord
  2
4
 70
     0
 62
     1
  6
CENTER
370
    -3
390
10984
  0
LAYER
  5
1055C
102
{ACAD_XDICTIONARY
360
109DA
102
}
330
10537
100
AcDbSymbolTableRecord
100
AcDbLayerTableRecord
  2
5
 70
     0
 62
     6
  6
PHANTOM
370
    -3
390
10984
  0
LAYER
  5
1055D
102
{ACAD_XDICTIONARY
360
109DC
102
}
330
10537
100
AcDbSymbolTableRecord
100
AcDbLayerTableRecord
  2
1
 70
     0
 62
     7
  6
CONTINUOUS
370
    -3
390
10984
  0
LAYER
  5
1055E
102
{ACAD_XDICTIONARY
360
109DE
102
}
330
10537
100
AcDbSymbolTableRecord
100
AcDbLayerTableRecord
  2
2
 70
     0
 62
     4
  6
CONTINUOUS
370
    -3
390
10984
  0
LAYER
  5
1055F
102
{ACAD_XDICTIONARY
360
109E0
102
}
330
10537
100
AcDbSymbolTableRecord
100
AcDbLayerTableRecord
  2
3
 70
     0
 62
     2
  6
DASHED
370
    -3
390
10984
  0
LAYER
  5
10560
102
{ACAD_XDICTIONARY
360
109E2
102
}
330
10537
100
AcDbSymbolTableRecord
100
AcDbLayerTableRecord
  2
6
 70
     0
 62
     5
  6
CONTINUOUS
370
    -3
390
10984
  0
LAYER
  5
10561
102
{ACAD_XDICTIONARY
360
109E4
102
}
330
10537
100
AcDbSymbolTableRecord
100
AcDbLayerTableRecord
  2
7
 70
     0
 62
     3
  6
CONTINUOUS
370
    -3
390
10984
  0
ENDTAB
  0
TABLE
  2
STYLE
  5
10538
330
0
100
AcDbSymbolTable
 70
     1
  0
STYLE
  5
10546
330
10538
100
AcDbSymbolTableRecord
100
AcDbTextStyleTableRecord
  2
STANDARD
 70
     0
 40
0.0
 41
1.0
 50
0.0
 71
     0
 42
5.0
  3
txt
  4

  0
ENDTAB
  0
TABLE
  2
VIEW
  5
1053B
330
0
100
AcDbSymbolTable
 70
     0
  0
ENDTAB
  0
TABLE
  2
UCS
  5
1053C
330
0
100
AcDbSymbolTable
 70
     0
  0
ENDTAB
  0
TABLE
  2
APPID
  5
1053E
330
0
100
AcDbSymbolTable
 70
     3
  0
APPID
  5
10547
330
1053E
100
AcDbSymbolTableRecord
100
AcDbRegAppTableRecord
  2
ACAD
 70
     0
  0
APPID
  5
109F0
330
1053E
100
AcDbSymbolTableRecord
100
AcDbRegAppTableRecord
  2
ACAD_NAV_VCDISPLAY
 70
     0
  0
APPID
  5
10A29
330
1053E
100
AcDbSymbolTableRecord
100
AcDbRegAppTableRecord
  2
ACAD_MLEADERVER
 70
     0
  0
ENDTAB
  0
TABLE
  2
DIMSTYLE
  5
1053F
330
0
100
AcDbSymbolTable
 70
     1
100
AcDbDimStyleTable
 71
     0
  0
DIMSTYLE
105
10563
330
1053F
100
AcDbSymbolTableRecord
100
AcDbDimStyleTableRecord
  2
STANDARD
 70
     0
 41
3.0
 42
1.0
 43
10.0
 44
1.0
 73
     0
 74
     0
 77
     3
 78
     8
140
2.5
141
0.0
147
1.0
172
     1
173
     1
284
     8
285
     8
286
     8
340
10546
  0
ENDTAB
  0
TABLE
  2
BLOCK_RECORD
  5
10536
330
0
100
AcDbSymbolTable
 70
     0
  0
BLOCK_RECORD
  5
10553
102
{ACAD_XDICTIONARY
360
1097E
102
}
330
10536
100
AcDbSymbolTableRecord
100
AcDbBlockTableRecord
  2
*MODEL_SPACE
340
109D2
  0
BLOCK_RECORD
  5
1054F
102
{ACAD_XDICTIONARY
360
1097C
102
}
330
10536
100
AcDbSymbolTableRecord
100
AcDbBlockTableRecord
  2
*PAPER_SPACE
340
109D3
  0
ENDTAB
  0
ENDSEC
  0
SECTION
  2
BLOCKS
  0
BLOCK
  5
10554
330
10553
100
AcDbEntity
  8
0
100
AcDbBlockBegin
  2
*MODEL_SPACE
 70
     0
 10
0.0
 20
0.0
 30
0.0
  3
*MODEL_SPACE
  1

  0
ENDBLK
  5
10555
330
10553
100
AcDbEntity
  8
0
100
AcDbBlockEnd
  0
BLOCK
  5
10550
330
1054F
100
AcDbEntity
 67
     1
  8
0
100
AcDbBlockBegin
  2
*PAPER_SPACE
 70
     0
 10
0.0
 20
0.0
 30
0.0
  3
*PAPER_SPACE
  1

  0
ENDBLK
  5
10551
330
1054F
100
AcDbEntity
 67
     1
  8
0
100
AcDbBlockEnd
  0
ENDSEC
  0
SECTION
  2
ENTITIES
  0
TEXT
  5
1056B
330
10553
100
AcDbEntity
  8
7
  6
Continuous
100
AcDbText
 10
10.0
 20
18.0
 30
0.0
 40
3.0
  1
TYPE No.TM-168-14
100
AcDbText
  0
TEXT
  5
1056C
330
10553
100
AcDbEntity
  8
7
  6
Continuous
100
AcDbText
 10
10.0
 20
26.0
 30
0.0
 40
3.0
  1
CODE No.5852
100
AcDbText
  0
TEXT
  5
1056D
330
10553
100
AcDbEntity
  8
1
  6
Continuous
100
AcDbText
 10
10.0
 20
10.0
 30
0.0
 40
1.399999999999999
  1
LAYER
100
AcDbText
  0
TEXT
  5
1056E
330
10553
100
AcDbEntity
  8
1
  6
Continuous
100
AcDbText
 10
17.97951099999998
 20
10.04873699999998
 30
0.0
 40
1.399999999999999
  1
1
100
AcDbText
  0
TEXT
  5
1056F
330
10553
100
AcDbEntity
  8
7
  6
Continuous
100
AcDbText
 10
29.97951099999999
 20
10.04873699999998
 30
0.0
 40
1.399999999999999
  1
7
100
AcDbText
  0
TEXT
  5
10570
330
10553
100
AcDbEntity
  8
4
  6
CENTER
100
AcDbText
 10
23.97951099999999
 20
10.04873699999998
 30
0.0
 40
1.399999999999999
  1
4
100
AcDbText
  0
TEXT
  5
10571
330
10553
100
AcDbEntity
  8
3
  6
DASHED
100
AcDbText
 10
21.979511
 20
10.04873699999998
 30
0.0
 40
1.399999999999999
  1
3
100
AcDbText
  0
TEXT
  5
10572
330
10553
100
AcDbEntity
  8
2
  6
Continuous
100
AcDbText
 10
19.97951099999999
 20
10.04873699999998
 30
0.0
 40
1.399999999999999
  1
2
100
AcDbText
  0
TEXT
  5
10573
330
10553
100
AcDbEntity
  8
6
  6
Continuous
100
AcDbText
 10
27.979511
 20
10.04873699999998
 30
0.0
 40
1.399999999999999
  1
6
100
AcDbText
  0
TEXT
  5
10574
330
10553
100
AcDbEntity
  8
5
  6
PHANTOM
100
AcDbText
 10
25.97951099999999
 20
10.04873699999998
 30
0.0
 40
1.399999999999999
  1
5
100
AcDbText
  0
LINE
  5
10575
330
10553
100
AcDbEntity
  8
4
  6
CENTER
100
AcDbLine
 10
97.3
 20
172.75
 30
0.0
 11
841.0999999999997
 21
172.75
 31
0.0
  0
LINE
  5
10576
330
10553
100
AcDbEntity
  8
1
  6
Continuous
100
AcDbLine
 10
836.2999999999997
 20
155.0999999999999
 30
0.0
 11
836.2999999999997
 21
156.602131
 31
0.0
  0
LINE
  5
10577
330
10553
100
AcDbEntity
  8
1
  6
Continuous
100
AcDbLine
 10
324.3
 20
190.4
 30
0.0
 11
836.2999999999997
 21
190.4
 31
0.0
  0
LINE
  5
10578
330
10553
100
AcDbEntity
  8
1
  6
Continuous
100
AcDbLine
 10
324.3
 20
155.0999999999999
 30
0.0
 11
836.2999999999997
 21
155.0999999999999
 31
0.0
  0
LINE
  5
10579
330
10553
100
AcDbEntity
  8
1
  6
Continuous
100
AcDbLine
 10
817.75
 20
173.15
 30
0.0
 11
817.75
 21
172.35
 31
0.0
  0
LINE
  5
1057A
330
10553
100
AcDbEntity
  8
1
  6
Continuous
100
AcDbLine
 10
822.25
 20
173.15
 30
0.0
 11
822.25
 21
172.35
 31
0.0
  0
LINE
  5
1057B
330
10553
100
AcDbEntity
  8
4
  6
CENTER
100
AcDbLine
 10
820.0
 20
178.0
 30
0.0
 11
820.0
 21
167.5
 31
0.0
  0
ARC
  5
1057C
330
10553
100
AcDbEntity
  8
1
  6
Continuous
100
AcDbCircle
 10
820.0
 20
172.35
 30
0.0
 40
2.25
100
AcDbArc
 50
180.0
 51
0.0
  0
ARC
  5
1057D
330
10553
100
AcDbEntity
  8
1
  6
Continuous
100
AcDbCircle
 10
820.0
 20
173.15
 30
0.0
 40
2.25
100
AcDbArc
 50
0.0
 51
180.0
  0
LINE
  5
1057E
330
10553
100
AcDbEntity
  8
1
  6
Continuous
100
AcDbLine
 10
805.0499999999997
 20
173.15
 30
0.0
 11
805.0499999999997
 21
172.35
 31
0.0
  0
LINE
  5
1057F
330
10553
100
AcDbEntity
  8
1
  6
Continuous
100
AcDbLine
 10
809.5499999999997
 20
173.15
 30
0.0
 11
809.5499999999997
 21
172.35
 31
0.0
  0
LINE
  5
10580
330
10553
100
AcDbEntity
  8
4
  6
CENTER
100
AcDbLine
 10
807.2999999999996
 20
178.0
 30
0.0
 11
807.2999999999996
 21
167.5
 31
0.0
  0
ARC
  5
10581
330
10553
100
AcDbEntity
  8
1
  6
Continuous
100
AcDbCircle
 10
807.2999999999996
 20
172.35
 30
0.0
 40
2.25
100
AcDbArc
 50
180.0
 51
0.0
  0
ARC
  5
10582
330
10553
100
AcDbEntity
  8
1
  6
Continuous
100
AcDbCircle
 10
807.2999999999996
 20
173.15
 30
0.0
 40
2.25
100
AcDbArc
 50
0.0
 51
180.0
  0
LINE
  5
10583
330
10553
100
AcDbEntity
  8
4
  6
CENTER
100
AcDbLine
 10
607.2999999999998
 20
178.0
 30
0.0
 11
607.2999999999998
 21
167.5
 31
0.0
  0
LINE
  5
10584
330
10553
100
AcDbEntity
  8
4
  6
CENTER
100
AcDbLine
 10
521.6
 20
178.0
 30
0.0
 11
521.6
 21
167.5
 31
0.0
  0
LINE
  5
10585
330
10553
100
AcDbEntity
  8
4
  6
CENTER
100
AcDbLine
 10
508.8999999999998
 20
178.0
 30
0.0
 11
508.8999999999998
 21
167.5
 31
0.0
  0
LINE
  5
10586
330
10553
100
AcDbEntity
  8
4
  6
CENTER
100
AcDbLine
 10
496.1999999999998
 20
178.0
 30
0.0
 11
496.1999999999998
 21
167.5
 31
0.0
  0
LINE
  5
10587
330
10553
100
AcDbEntity
  8
1
  6
Continuous
100
AcDbLine
 10
25.0
 20
160.171084
 30
0.0
 11
25.0
 21
185.3289159999999
 31
0.0
  0
LINE
  5
10588
330
10553
100
AcDbEntity
  8
1
  6
Continuous
100
AcDbLine
 10
26.6
 20
160.171084
 30
0.0
 11
26.6
 21
165.25
 31
0.0
  0
LINE
  5
10589
330
10553
100
AcDbEntity
  8
1
  6
Continuous
100
AcDbLine
 10
102.2999999999999
 20
185.0
 30
0.0
 11
455.2999999999998
 21
185.0
 31
0.0
  0
LINE
  5
1058A
330
10553
100
AcDbEntity
  8
1
  6
Continuous
100
AcDbLine
 10
102.2999999999999
 20
160.4999999999998
 30
0.0
 11
455.2999999999998
 21
160.4999999999998
 31
0.0
  0
LINE
  5
1058B
330
10553
100
AcDbEntity
  8
4
  6
CENTER
100
AcDbLine
 10
20.0
 20
172.75
 30
0.0
 11
49.1
 21
172.75
 31
0.0
  0
ARC
  5
1058C
330
10553
100
AcDbEntity
  8
1
  6
Continuous
100
AcDbCircle
 10
30.0
 20
186.4187499999999
 30
0.0
 40
2.38125
100
AcDbArc
 50
204.844815
 51
343.87833
  0
ARC
  5
1058D
330
10553
100
AcDbEntity
  8
1
  6
Continuous
100
AcDbCircle
 10
30.0
 20
186.4187499999999
 30
0.0
 40
3.98125
100
AcDbArc
 50
21.665296
 51
142.987809
  0
LINE
  5
1058E
330
10553
100
AcDbEntity
  8
1
  6
Continuous
100
AcDbLine
 10
33.7
 20
187.8885629999999
 30
0.0
 11
32.21302999999998
 21
187.297869
 31
0.0
  0
LINE
  5
1058F
330
10553
100
AcDbEntity
  8
1
  6
Continuous
100
AcDbLine
 10
25.644776
 20
187.255268
 30
0.0
 11
26.82094199999999
 21
188.815403
 31
0.0
  0
LINE
  5
10590
330
10553
100
AcDbEntity
  8
1
  6
Continuous
100
AcDbLine
 10
26.922388
 20
186.292092
 30
0.0
 11
28.098554
 21
187.8522269999999
 31
0.0
  0
ARC
  5
10591
330
10553
100
AcDbEntity
  8
1
  6
Continuous
100
AcDbCircle
 10
28.2
 20
185.3289159999999
 30
0.0
 40
1.6
100
AcDbArc
 50
142.987809
 51
180.0
  0
ARC
  5
10592
330
10553
100
AcDbEntity
  8
1
  6
Continuous
100
AcDbCircle
 10
28.2
 20
185.3289159999999
 30
0.0
 40
3.2
100
AcDbArc
 50
142.987809
 51
180.0
  0
ARC
  5
10593
330
10553
100
AcDbEntity
  8
1
  6
Continuous
100
AcDbCircle
 10
30.0
 20
186.4187499999999
 30
0.0
 40
3.581249999999998
100
AcDbArc
 50
236.0503449999999
 51
309.5506789999999
  0
LINE
  5
10594
330
10553
100
AcDbEntity
  8
1
  6
Continuous
100
AcDbLine
 10
34.5
 20
162.3229389999998
 30
0.0
 11
34.5
 21
183.177061
 31
0.0
  0
LINE
  5
10595
330
10553
100
AcDbEntity
  8
1
  6
Continuous
100
AcDbLine
 10
33.3
 20
162.3229389999998
 30
0.0
 11
33.3
 21
183.177061
 31
0.0
  0
ARC
  5
10596
330
10553
100
AcDbEntity
  8
1
  6
Continuous
100
AcDbCircle
 10
32.677061
 20
183.177061
 30
0.0
 40
1.822938999999999
100
AcDbArc
 50
0.0
 51
129.550679
  0
ARC
  5
10597
330
10553
100
AcDbEntity
  8
1
  6
Continuous
100
AcDbCircle
 10
32.677061
 20
183.177061
 30
0.0
 40
0.6229390000000003
100
AcDbArc
 50
0.0
 51
129.550679
  0
LINE
  5
10598
330
10553
100
AcDbEntity
  8
1
  6
Continuous
100
AcDbLine
 10
28.0
 20
183.448001
 30
0.0
 11
28.67015699999999
 21
184.443435
 31
0.0
  0
ARC
  5
10599
330
10553
100
AcDbEntity
  8
1
  6
Continuous
100
AcDbCircle
 10
28.2
 20
160.171084
 30
0.0
 40
3.2
100
AcDbArc
 50
180.0
 51
217.012191
  0
ARC
  5
1059A
330
10553
100
AcDbEntity
  8
1
  6
Continuous
100
AcDbCircle
 10
28.2
 20
160.171084
 30
0.0
 40
1.6
100
AcDbArc
 50
180.0
 51
217.012191
  0
ARC
  5
1059B
330
10553
100
AcDbEntity
  8
1
  6
Continuous
100
AcDbCircle
 10
30.0
 20
159.08125
 30
0.0
 40
3.581249999999998
100
AcDbArc
 50
50.449321
 51
123.949655
  0
LINE
  5
1059C
330
10553
100
AcDbEntity
  8
1
  6
Continuous
100
AcDbLine
 10
28.0
 20
162.051999
 30
0.0
 11
28.67015699999999
 21
161.0565649999998
 31
0.0
  0
ARC
  5
1059D
330
10553
100
AcDbEntity
  8
1
  6
Continuous
100
AcDbCircle
 10
32.677061
 20
162.3229389999998
 30
0.0
 40
0.6229390000000003
100
AcDbArc
 50
230.4493209999999
 51
0.0
  0
ARC
  5
1059E
330
10553
100
AcDbEntity
  8
1
  6
Continuous
100
AcDbCircle
 10
32.677061
 20
162.3229389999998
 30
0.0
 40
1.822938999999999
100
AcDbArc
 50
230.4493209999999
 51
0.0
  0
ARC
  5
1059F
330
10553
100
AcDbEntity
  8
1
  6
Continuous
100
AcDbCircle
 10
30.0
 20
159.08125
 30
0.0
 40
3.98125
100
AcDbArc
 50
217.012191
 51
338.3347039999998
  0
LINE
  5
105A0
330
10553
100
AcDbEntity
  8
1
  6
Continuous
100
AcDbLine
 10
25.644776
 20
158.2447319999999
 30
0.0
 11
26.82094199999999
 21
156.6845969999999
 31
0.0
  0
LINE
  5
105A1
330
10553
100
AcDbEntity
  8
1
  6
Continuous
100
AcDbLine
 10
26.922388
 20
159.2079079999998
 30
0.0
 11
28.098554
 21
157.647773
 31
0.0
  0
LINE
  5
105A2
330
10553
100
AcDbEntity
  8
1
  6
Continuous
100
AcDbLine
 10
33.7
 20
157.611437
 30
0.0
 11
32.21302999999998
 21
158.202131
 31
0.0
  0
LINE
  5
105A3
330
10553
100
AcDbEntity
  8
1
  6
Continuous
100
AcDbLine
 10
27.1
 20
180.25
 30
0.0
 11
27.1
 21
185.398548
 31
0.0
  0
LINE
  5
105A4
330
10553
100
AcDbEntity
  8
1
  6
Continuous
100
AcDbLine
 10
27.6
 20
180.25
 30
0.0
 11
27.6
 21
185.4
 31
0.0
  0
LINE
  5
105A5
330
10553
100
AcDbEntity
  8
1
  6
Continuous
100
AcDbLine
 10
30.1
 20
167.5
 30
0.0
 11
30.1
 21
178.0
 31
0.0
  0
ARC
  5
105A6
330
10553
100
AcDbEntity
  8
1
  6
Continuous
100
AcDbCircle
 10
29.6
 20
178.0
 30
0.0
 40
0.5
100
AcDbArc
 50
0.0
 51
36.869898
  0
LINE
  5
105A7
330
10553
100
AcDbEntity
  8
1
  6
Continuous
100
AcDbLine
 10
33.5
 20
185.85
 30
0.0
 11
33.5
 21
186.3499999999999
 31
0.0
  0
LINE
  5
105A8
330
10553
100
AcDbEntity
  8
1
  6
Continuous
100
AcDbLine
 10
33.5
 20
185.85
 30
0.0
 11
27.6
 21
185.4
 31
0.0
  0
ARC
  5
105A9
330
10553
100
AcDbEntity
  8
1
  6
Continuous
100
AcDbCircle
 10
30.0
 20
186.4187499999999
 30
0.0
 40
2.38125
100
AcDbArc
 50
356.280872
 51
192.4422739999998
  0
LINE
  5
105AA
330
10553
100
AcDbEntity
  8
1
  6
Continuous
100
AcDbLine
 10
33.5
 20
159.6499999999998
 30
0.0
 11
27.6
 21
160.0999999999999
 31
0.0
  0
ARC
  5
105AB
330
10553
100
AcDbEntity
  8
1
  6
Continuous
100
AcDbCircle
 10
30.0
 20
159.08125
 30
0.0
 40
2.38125
100
AcDbArc
 50
167.557726
 51
3.719127999999999
  0
ARC
  5
105AC
330
10553
100
AcDbEntity
  8
1
  6
Continuous
100
AcDbCircle
 10
30.0
 20
159.08125
 30
0.0
 40
2.38125
100
AcDbArc
 50
16.12167
 51
155.1551849999999
  0
LINE
  5
105AD
330
10553
100
AcDbEntity
  8
1
  6
Continuous
100
AcDbLine
 10
27.6
 20
165.25
 30
0.0
 11
27.6
 21
160.0999999999999
 31
0.0
  0
ARC
  5
105AE
330
10553
100
AcDbEntity
  8
1
  6
Continuous
100
AcDbCircle
 10
29.6
 20
167.5
 30
0.0
 40
0.5
100
AcDbArc
 50
323.130102
 51
0.0
  0
LINE
  5
105AF
330
10553
100
AcDbEntity
  8
1
  6
Continuous
100
AcDbLine
 10
25.0
 20
180.25
 30
0.0
 11
30.0
 21
180.25
 31
0.0
  0
LINE
  5
105B0
330
10553
100
AcDbEntity
  8
1
  6
Continuous
100
AcDbLine
 10
25.0
 20
165.25
 30
0.0
 11
30.0
 21
165.25
 31
0.0
  0
LINE
  5
105B1
330
10553
100
AcDbEntity
  8
1
  6
Continuous
100
AcDbLine
 10
30.0
 20
165.25
 30
0.0
 11
30.0
 21
180.25
 31
0.0
  0
LINE
  5
105B2
330
10553
100
AcDbEntity
  8
1
  6
Continuous
100
AcDbLine
 10
26.6
 20
180.25
 30
0.0
 11
26.6
 21
185.3289159999999
 31
0.0
  0
LINE
  5
105B3
330
10553
100
AcDbEntity
  8
1
  6
Continuous
100
AcDbLine
 10
325.8999999999999
 20
187.8885629999999
 30
0.0
 11
678.7000000000001
 21
187.8885629999999
 31
0.0
  0
LINE
  5
105B4
330
10553
100
AcDbEntity
  8
1
  6
Continuous
100
AcDbLine
 10
325.8999999999999
 20
187.297869
 30
0.0
 11
678.7000000000001
 21
187.297869
 31
0.0
  0
LINE
  5
105B5
330
10553
100
AcDbEntity
  8
1
  6
Continuous
100
AcDbLine
 10
834.7000000000001
 20
184.25
 30
0.0
 11
836.2999999999997
 21
184.25
 31
0.0
  0
LINE
  5
105B6
330
10553
100
AcDbEntity
  8
1
  6
Continuous
100
AcDbLine
 10
834.7000000000001
 20
161.25
 30
0.0
 11
836.2999999999997
 21
161.25
 31
0.0
  0
LINE
  5
105B7
330
10553
100
AcDbEntity
  8
1
  6
Continuous
100
AcDbLine
 10
834.7000000000001
 20
161.25
 30
0.0
 11
834.7000000000001
 21
184.25
 31
0.0
  0
ARC
  5
105B8
330
10553
100
AcDbEntity
  8
1
  6
Continuous
100
AcDbCircle
 10
834.7000000000001
 20
189.488563
 30
0.0
 40
1.6
100
AcDbArc
 50
270.0
 51
0.0
  0
ARC
  5
105B9
330
10553
100
AcDbEntity
  8
1
  6
Continuous
100
AcDbCircle
 10
834.7000000000001
 20
188.8978689999999
 30
0.0
 40
1.6
100
AcDbArc
 50
270.0
 51
0.0
  0
ARC
  5
105BA
330
10553
100
AcDbEntity
  8
1
  6
Continuous
100
AcDbCircle
 10
834.7000000000001
 20
156.602131
 30
0.0
 40
1.6
100
AcDbArc
 50
0.0
 51
90.0
  0
ARC
  5
105BB
330
10553
100
AcDbEntity
  8
1
  6
Continuous
100
AcDbCircle
 10
834.7000000000001
 20
156.0114369999998
 30
0.0
 40
1.6
100
AcDbArc
 50
0.0
 51
90.0
  0
LINE
  5
105BC
330
10553
100
AcDbEntity
  8
1
  6
Continuous
100
AcDbLine
 10
325.8999999999999
 20
158.202131
 30
0.0
 11
678.7000000000001
 21
158.202131
 31
0.0
  0
LINE
  5
105BD
330
10553
100
AcDbEntity
  8
1
  6
Continuous
100
AcDbLine
 10
325.8999999999999
 20
157.611437
 30
0.0
 11
678.7000000000001
 21
157.611437
 31
0.0
  0
LINE
  5
105BE
330
10553
100
AcDbEntity
  8
1
  6
Continuous
100
AcDbLine
 10
349.3
 20
185.85
 30
0.0
 11
359.8
 21
185.85
 31
0.0
  0
ARC
  5
105BF
330
10553
100
AcDbEntity
  8
1
  6
Continuous
100
AcDbCircle
 10
354.55
 20
186.4187499999999
 30
0.0
 40
2.38125
100
AcDbArc
 50
158.3347039999999
 51
181.6544389999999
  0
ARC
  5
105C0
330
10553
100
AcDbEntity
  8
1
  6
Continuous
100
AcDbCircle
 10
354.55
 20
186.4187499999999
 30
0.0
 40
2.38125
100
AcDbArc
 50
193.81839
 51
216.5697209999999
  0
LINE
  5
105C1
330
10553
100
AcDbEntity
  8
1
  6
Continuous
100
AcDbLine
 10
349.3
 20
186.3499999999999
 30
0.0
 11
349.3
 21
185.85
 31
0.0
  0
ARC
  5
105C2
330
10553
100
AcDbEntity
  8
1
  6
Continuous
100
AcDbCircle
 10
354.55
 20
186.4187499999999
 30
0.0
 40
2.38125
100
AcDbArc
 50
323.430279
 51
346.18161
  0
ARC
  5
105C3
330
10553
100
AcDbEntity
  8
1
  6
Continuous
100
AcDbCircle
 10
354.55
 20
186.4187499999999
 30
0.0
 40
2.38125
100
AcDbArc
 50
358.3455609999999
 51
21.665296
  0
LINE
  5
105C4
330
10553
100
AcDbEntity
  8
1
  6
Continuous
100
AcDbLine
 10
359.8
 20
186.3499999999999
 30
0.0
 11
359.8
 21
185.85
 31
0.0
  0
LINE
  5
105C5
330
10553
100
AcDbEntity
  8
3
  6
DASHED
100
AcDbLine
 10
482.8
 20
180.25
 30
0.0
 11
480.2999999999998
 21
180.25
 31
0.0
  0
LINE
  5
105C6
330
10553
100
AcDbEntity
  8
3
  6
DASHED
100
AcDbLine
 10
482.8
 20
165.25
 30
0.0
 11
482.8
 21
180.25
 31
0.0
  0
LINE
  5
105C7
330
10553
100
AcDbEntity
  8
3
  6
DASHED
100
AcDbLine
 10
482.8
 20
165.25
 30
0.0
 11
480.2999999999998
 21
165.25
 31
0.0
  0
LINE
  5
105C8
330
10553
100
AcDbEntity
  8
3
  6
DASHED
100
AcDbLine
 10
480.2999999999998
 20
180.25
 30
0.0
 11
480.2999999999998
 21
190.4
 31
0.0
  0
LINE
  5
105C9
330
10553
100
AcDbEntity
  8
1
  6
Continuous
100
AcDbLine
 10
33.5
 20
186.3499999999999
 30
0.0
 11
27.561975
 21
185.8971
 31
0.0
  0
ARC
  5
105CA
330
10553
100
AcDbEntity
  8
1
  6
Continuous
100
AcDbCircle
 10
27.6
 20
185.398548
 30
0.0
 40
0.5
100
AcDbArc
 50
94.36157300000001
 51
180.0
  0
LINE
  5
105CB
330
10553
100
AcDbEntity
  8
1
  6
Continuous
100
AcDbLine
 10
33.5
 20
159.6499999999998
 30
0.0
 11
33.5
 21
159.15
 31
0.0
  0
LINE
  5
105CC
330
10553
100
AcDbEntity
  8
1
  6
Continuous
100
AcDbLine
 10
33.5
 20
159.15
 30
0.0
 11
27.561975
 21
159.6029
 31
0.0
  0
ARC
  5
105CD
330
10553
100
AcDbEntity
  8
1
  6
Continuous
100
AcDbCircle
 10
27.6
 20
160.1014519999999
 30
0.0
 40
0.5
100
AcDbArc
 50
180.0
 51
265.6384269999999
  0
LINE
  5
105CE
330
10553
100
AcDbEntity
  8
1
  6
Continuous
100
AcDbLine
 10
27.1
 20
165.25
 30
0.0
 11
27.1
 21
160.1014519999999
 31
0.0
  0
LINE
  5
105CF
330
10553
100
AcDbEntity
  8
1
  6
Continuous
100
AcDbLine
 10
349.3
 20
186.3499999999999
 30
0.0
 11
359.8
 21
186.3499999999999
 31
0.0
  0
ARC
  5
105D0
330
10553
100
AcDbEntity
  8
1
  6
Continuous
100
AcDbCircle
 10
834.7000000000001
 20
185.057229
 30
0.0
 40
0.8072289999999997
100
AcDbArc
 50
141.1871849999998
 51
270.0
  0
LINE
  5
105D1
330
10553
100
AcDbEntity
  8
1
  6
Continuous
100
AcDbLine
 10
834.0710089999998
 20
185.563183
 30
0.0
 11
835.9467160000001
 21
187.8950239999998
 31
0.0
  0
LINE
  5
105D2
330
10553
100
AcDbEntity
  8
1
  6
Continuous
100
AcDbLine
 10
836.2999999999997
 20
188.8978689999999
 30
0.0
 11
836.2999999999997
 21
190.4
 31
0.0
  0
LINE
  5
105D3
330
10553
100
AcDbEntity
  8
1
  6
Continuous
100
AcDbLine
 10
834.0710089999998
 20
159.9368169999999
 30
0.0
 11
835.9467160000001
 21
157.604976
 31
0.0
  0
ARC
  5
105D4
330
10553
100
AcDbEntity
  8
1
  6
Continuous
100
AcDbCircle
 10
834.7000000000001
 20
160.4427709999999
 30
0.0
 40
0.8072289999999997
100
AcDbArc
 50
90.0
 51
218.812815
  0
LINE
  5
105D5
330
10553
100
AcDbEntity
  8
1
  6
Continuous
100
AcDbLine
 10
836.2999999999997
 20
161.25
 30
0.0
 11
836.2999999999997
 21
184.25
 31
0.0
  0
LINE
  5
105D6
330
10553
100
AcDbEntity
  8
1
  6
Continuous
100
AcDbLine
 10
915.6
 20
160.171084
 30
0.0
 11
915.6
 21
185.3289159999999
 31
0.0
  0
ARC
  5
105D7
330
10553
100
AcDbEntity
  8
1
  6
Continuous
100
AcDbCircle
 10
908.6
 20
182.75
 30
0.0
 40
1.5
100
AcDbArc
 50
90.0
 51
180.0
  0
ARC
  5
105D8
330
10553
100
AcDbEntity
  8
1
  6
Continuous
100
AcDbCircle
 10
907.922939
 20
183.177061
 30
0.0
 40
1.822938999999999
100
AcDbArc
 50
50.449321
 51
180.0
  0
ARC
  5
105D9
330
10553
100
AcDbEntity
  8
1
  6
Continuous
100
AcDbCircle
 10
907.922939
 20
162.3229389999998
 30
0.0
 40
1.822938999999999
100
AcDbArc
 50
180.0
 51
309.5506789999999
  0
LINE
  5
105DA
330
10553
100
AcDbEntity
  8
4
  6
CENTER
100
AcDbLine
 10
891.5
 20
172.75
 30
0.0
 11
920.6000000000001
 21
172.75
 31
0.0
  0
LINE
  5
105DB
330
10553
100
AcDbEntity
  8
1
  6
Continuous
100
AcDbLine
 10
906.0999999999999
 20
162.3229389999998
 30
0.0
 11
906.0999999999999
 21
183.177061
 31
0.0
  0
ARC
  5
105DC
330
10553
100
AcDbEntity
  8
1
  6
Continuous
100
AcDbCircle
 10
912.4
 20
160.171084
 30
0.0
 40
1.6
100
AcDbArc
 50
322.9878089999999
 51
0.0
  0
ARC
  5
105DD
330
10553
100
AcDbEntity
  8
1
  6
Continuous
100
AcDbCircle
 10
912.4
 20
160.171084
 30
0.0
 40
3.2
100
AcDbArc
 50
322.9878089999999
 51
0.0
  0
LINE
  5
105DE
330
10553
100
AcDbEntity
  8
1
  6
Continuous
100
AcDbLine
 10
907.0999999999999
 20
159.6499999999998
 30
0.0
 11
907.0999999999999
 21
159.15
 31
0.0
  0
ARC
  5
105DF
330
10553
100
AcDbEntity
  8
1
  6
Continuous
100
AcDbCircle
 10
910.5999999999999
 20
159.08125
 30
0.0
 40
2.38125
100
AcDbArc
 50
176.2808719999999
 51
12.44227399999999
  0
LINE
  5
105E0
330
10553
100
AcDbEntity
  8
1
  6
Continuous
100
AcDbLine
 10
907.0999999999999
 20
159.15
 30
0.0
 11
913.0380249999999
 21
159.6029
 31
0.0
  0
LINE
  5
105E1
330
10553
100
AcDbEntity
  8
1
  6
Continuous
100
AcDbLine
 10
914.955224
 20
158.2447319999999
 30
0.0
 11
913.7790579999997
 21
156.6845969999999
 31
0.0
  0
LINE
  5
105E2
330
10553
100
AcDbEntity
  8
1
  6
Continuous
100
AcDbLine
 10
906.9
 20
157.611437
 30
0.0
 11
908.3869700000001
 21
158.202131
 31
0.0
  0
ARC
  5
105E3
330
10553
100
AcDbEntity
  8
1
  6
Continuous
100
AcDbCircle
 10
910.5999999999999
 20
159.08125
 30
0.0
 40
3.98125
100
AcDbArc
 50
201.6652959999999
 51
322.9878089999999
  0
LINE
  5
105E4
330
10553
100
AcDbEntity
  8
1
  6
Continuous
100
AcDbLine
 10
913.677612
 20
159.2079079999998
 30
0.0
 11
912.501446
 21
157.647773
 31
0.0
  0
LINE
  5
105E5
330
10553
100
AcDbEntity
  8
1
  6
Continuous
100
AcDbLine
 10
907.0999999999999
 20
162.7499999999998
 30
0.0
 11
907.0999999999999
 21
182.75
 31
0.0
  0
LINE
  5
105E6
330
10553
100
AcDbEntity
  8
1
  6
Continuous
100
AcDbLine
 10
913.4999999999999
 20
161.25
 30
0.0
 11
913.4999999999999
 21
160.1014519999999
 31
0.0
  0
LINE
  5
105E7
330
10553
100
AcDbEntity
  8
1
  6
Continuous
100
AcDbLine
 10
914.0
 20
160.171084
 30
0.0
 11
914.0
 21
161.25
 31
0.0
  0
LINE
  5
105E8
330
10553
100
AcDbEntity
  8
1
  6
Continuous
100
AcDbLine
 10
913.0
 20
161.25
 30
0.0
 11
913.0
 21
160.0999999999999
 31
0.0
  0
ARC
  5
105E9
330
10553
100
AcDbEntity
  8
1
  6
Continuous
100
AcDbCircle
 10
913.0
 20
160.1014519999999
 30
0.0
 40
0.5
100
AcDbArc
 50
274.361573
 51
0.0
  0
LINE
  5
105EA
330
10553
100
AcDbEntity
  8
1
  6
Continuous
100
AcDbLine
 10
912.0600689999999
 20
161.25
 30
0.0
 11
911.929843
 21
161.0565649999998
 31
0.0
  0
ARC
  5
105EB
330
10553
100
AcDbEntity
  8
1
  6
Continuous
100
AcDbCircle
 10
910.5999999999999
 20
159.08125
 30
0.0
 40
2.38125
100
AcDbArc
 50
114.3892499999999
 51
163.87833
  0
ARC
  5
105EC
330
10553
100
AcDbEntity
  8
1
  6
Continuous
100
AcDbCircle
 10
910.5999999999999
 20
159.08125
 30
0.0
 40
2.38125
100
AcDbArc
 50
24.844815
 51
65.61074999999999
  0
LINE
  5
105ED
330
10553
100
AcDbEntity
  8
1
  6
Continuous
100
AcDbLine
 10
907.0999999999999
 20
159.6499999999998
 30
0.0
 11
913.0
 21
160.0999999999999
 31
0.0
  0
LINE
  5
105EE
330
10553
100
AcDbEntity
  8
1
  6
Continuous
100
AcDbLine
 10
908.6
 20
161.25
 30
0.0
 11
915.6
 21
161.25
 31
0.0
  0
ARC
  5
105EF
330
10553
100
AcDbEntity
  8
1
  6
Continuous
100
AcDbCircle
 10
908.6
 20
162.7499999999998
 30
0.0
 40
1.5
100
AcDbArc
 50
180.0
 51
270.0
  0
LINE
  5
105F0
330
10553
100
AcDbEntity
  8
1
  6
Continuous
100
AcDbLine
 10
914.955224
 20
187.255268
 30
0.0
 11
913.7790579999997
 21
188.815403
 31
0.0
  0
LINE
  5
105F1
330
10553
100
AcDbEntity
  8
1
  6
Continuous
100
AcDbLine
 10
907.0999999999999
 20
185.85
 30
0.0
 11
907.0999999999999
 21
186.3499999999999
 31
0.0
  0
LINE
  5
105F2
330
10553
100
AcDbEntity
  8
1
  6
Continuous
100
AcDbLine
 10
906.9
 20
187.8885629999999
 30
0.0
 11
908.3869700000001
 21
187.297869
 31
0.0
  0
LINE
  5
105F3
330
10553
100
AcDbEntity
  8
1
  6
Continuous
100
AcDbLine
 10
907.0999999999999
 20
186.3499999999999
 30
0.0
 11
913.0380249999999
 21
185.8971
 31
0.0
  0
LINE
  5
105F4
330
10553
100
AcDbEntity
  8
1
  6
Continuous
100
AcDbLine
 10
913.677612
 20
186.292092
 30
0.0
 11
912.501446
 21
187.8522269999999
 31
0.0
  0
ARC
  5
105F5
330
10553
100
AcDbEntity
  8
1
  6
Continuous
100
AcDbCircle
 10
910.5999999999999
 20
186.4187499999999
 30
0.0
 40
3.98125
100
AcDbArc
 50
37.01219099999998
 51
158.3347039999999
  0
LINE
  5
105F6
330
10553
100
AcDbEntity
  8
1
  6
Continuous
100
AcDbLine
 10
913.4999999999999
 20
184.25
 30
0.0
 11
913.4999999999999
 21
185.398548
 31
0.0
  0
LINE
  5
105F7
330
10553
100
AcDbEntity
  8
1
  6
Continuous
100
AcDbLine
 10
914.0
 20
184.25
 30
0.0
 11
914.0
 21
185.3289159999999
 31
0.0
  0
LINE
  5
105F8
330
10553
100
AcDbEntity
  8
1
  6
Continuous
100
AcDbLine
 10
913.0
 20
184.25
 30
0.0
 11
913.0
 21
185.4
 31
0.0
  0
LINE
  5
105F9
330
10553
100
AcDbEntity
  8
1
  6
Continuous
100
AcDbLine
 10
912.0600689999999
 20
184.25
 30
0.0
 11
911.929843
 21
184.443435
 31
0.0
  0
LINE
  5
105FA
330
10553
100
AcDbEntity
  8
1
  6
Continuous
100
AcDbLine
 10
908.6
 20
184.25
 30
0.0
 11
915.6
 21
184.25
 31
0.0
  0
ARC
  5
105FB
330
10553
100
AcDbEntity
  8
1
  6
Continuous
100
AcDbCircle
 10
913.0
 20
185.398548
 30
0.0
 40
0.5
100
AcDbArc
 50
0.0
 51
85.63842699999998
  0
ARC
  5
105FC
330
10553
100
AcDbEntity
  8
1
  6
Continuous
100
AcDbCircle
 10
912.4
 20
185.3289159999999
 30
0.0
 40
1.6
100
AcDbArc
 50
0.0
 51
37.01219099999998
  0
ARC
  5
105FD
330
10553
100
AcDbEntity
  8
1
  6
Continuous
100
AcDbCircle
 10
912.4
 20
185.3289159999999
 30
0.0
 40
3.2
100
AcDbArc
 50
0.0
 51
37.01219099999998
  0
ARC
  5
105FE
330
10553
100
AcDbEntity
  8
1
  6
Continuous
100
AcDbCircle
 10
910.5999999999999
 20
186.4187499999999
 30
0.0
 40
2.38125
100
AcDbArc
 50
294.38925
 51
335.155185
  0
ARC
  5
105FF
330
10553
100
AcDbEntity
  8
1
  6
Continuous
100
AcDbCircle
 10
910.5999999999999
 20
186.4187499999999
 30
0.0
 40
2.38125
100
AcDbArc
 50
196.12167
 51
245.6107499999998
  0
ARC
  5
10600
330
10553
100
AcDbEntity
  8
1
  6
Continuous
100
AcDbCircle
 10
910.5999999999999
 20
186.4187499999999
 30
0.0
 40
2.38125
100
AcDbArc
 50
347.557726
 51
183.719128
  0
LINE
  5
10601
330
10553
100
AcDbEntity
  8
1
  6
Continuous
100
AcDbLine
 10
907.0999999999999
 20
185.85
 30
0.0
 11
913.0
 21
185.4
 31
0.0
  0
LINE
  5
10602
330
10553
100
AcDbEntity
  8
1
  6
Continuous
100
AcDbLine
 10
37.20000000000001
 20
178.5
 30
0.0
 11
37.20000000000001
 21
185.4
 31
0.0
  0
LINE
  5
10603
330
10553
100
AcDbEntity
  8
1
  6
Continuous
100
AcDbLine
 10
36.7
 20
178.5
 30
0.0
 11
36.7
 21
185.398548
 31
0.0
  0
LINE
  5
10604
330
10553
100
AcDbEntity
  8
1
  6
Continuous
100
AcDbLine
 10
37.6
 20
183.448001
 30
0.0
 11
38.270157
 21
184.443435
 31
0.0
  0
ARC
  5
10605
330
10553
100
AcDbEntity
  8
1
  6
Continuous
100
AcDbCircle
 10
42.27706099999998
 20
183.177061
 30
0.0
 40
0.6229390000000003
100
AcDbArc
 50
0.0
 51
129.550679
  0
ARC
  5
10606
330
10553
100
AcDbEntity
  8
1
  6
Continuous
100
AcDbCircle
 10
42.27706099999998
 20
183.177061
 30
0.0
 40
1.822938999999999
100
AcDbArc
 50
0.0
 51
129.550679
  0
ARC
  5
10607
330
10553
100
AcDbEntity
  8
1
  6
Continuous
100
AcDbCircle
 10
39.6
 20
186.4187499999999
 30
0.0
 40
3.581249999999998
100
AcDbArc
 50
236.0503449999999
 51
309.5506789999999
  0
LINE
  5
10608
330
10553
100
AcDbEntity
  8
1
  6
Continuous
100
AcDbLine
 10
34.6
 20
160.171084
 30
0.0
 11
34.6
 21
185.3289159999999
 31
0.0
  0
LINE
  5
10609
330
10553
100
AcDbEntity
  8
1
  6
Continuous
100
AcDbLine
 10
43.1
 20
159.15
 30
0.0
 11
37.16197499999999
 21
159.6029
 31
0.0
  0
LINE
  5
1060A
330
10553
100
AcDbEntity
  8
1
  6
Continuous
100
AcDbLine
 10
43.1
 20
159.6499999999998
 30
0.0
 11
43.1
 21
159.15
 31
0.0
  0
ARC
  5
1060B
330
10553
100
AcDbEntity
  8
1
  6
Continuous
100
AcDbCircle
 10
39.6
 20
159.08125
 30
0.0
 40
2.38125
100
AcDbArc
 50
167.557726
 51
3.719127999999999
  0
ARC
  5
1060C
330
10553
100
AcDbEntity
  8
1
  6
Continuous
100
AcDbCircle
 10
37.79999999999999
 20
160.171084
 30
0.0
 40
1.6
100
AcDbArc
 50
180.0
 51
217.012191
  0
ARC
  5
1060D
330
10553
100
AcDbEntity
  8
1
  6
Continuous
100
AcDbCircle
 10
37.79999999999999
 20
160.171084
 30
0.0
 40
3.2
100
AcDbArc
 50
180.0
 51
217.012191
  0
LINE
  5
1060E
330
10553
100
AcDbEntity
  8
1
  6
Continuous
100
AcDbLine
 10
43.3
 20
157.611437
 30
0.0
 11
41.81302999999997
 21
158.202131
 31
0.0
  0
LINE
  5
1060F
330
10553
100
AcDbEntity
  8
1
  6
Continuous
100
AcDbLine
 10
36.522388
 20
159.2079079999998
 30
0.0
 11
37.698554
 21
157.647773
 31
0.0
  0
LINE
  5
10610
330
10553
100
AcDbEntity
  8
1
  6
Continuous
100
AcDbLine
 10
35.244776
 20
158.2447319999999
 30
0.0
 11
36.42094199999998
 21
156.6845969999999
 31
0.0
  0
ARC
  5
10611
330
10553
100
AcDbEntity
  8
1
  6
Continuous
100
AcDbCircle
 10
39.6
 20
159.08125
 30
0.0
 40
3.98125
100
AcDbArc
 50
217.012191
 51
338.3347039999998
  0
LINE
  5
10612
330
10553
100
AcDbEntity
  8
1
  6
Continuous
100
AcDbLine
 10
36.7
 20
167.0
 30
0.0
 11
36.7
 21
160.1014519999999
 31
0.0
  0
ARC
  5
10613
330
10553
100
AcDbEntity
  8
1
  6
Continuous
100
AcDbCircle
 10
37.20000000000001
 20
160.1014519999999
 30
0.0
 40
0.5
100
AcDbArc
 50
180.0
 51
265.6384269999999
  0
LINE
  5
10614
330
10553
100
AcDbEntity
  8
1
  6
Continuous
100
AcDbLine
 10
37.20000000000001
 20
167.0
 30
0.0
 11
37.20000000000001
 21
160.0999999999999
 31
0.0
  0
ARC
  5
10615
330
10553
100
AcDbEntity
  8
1
  6
Continuous
100
AcDbCircle
 10
39.6
 20
159.08125
 30
0.0
 40
2.38125
100
AcDbArc
 50
16.12167
 51
155.1551849999999
  0
LINE
  5
10616
330
10553
100
AcDbEntity
  8
1
  6
Continuous
100
AcDbLine
 10
43.1
 20
159.6499999999998
 30
0.0
 11
37.20000000000001
 21
160.0999999999999
 31
0.0
  0
ARC
  5
10617
330
10553
100
AcDbEntity
  8
1
  6
Continuous
100
AcDbCircle
 10
39.2
 20
178.0
 30
0.0
 40
0.5
100
AcDbArc
 50
0.0
 51
90.0
  0
LINE
  5
10618
330
10553
100
AcDbEntity
  8
1
  6
Continuous
100
AcDbLine
 10
39.7
 20
165.0
 30
0.0
 11
39.7
 21
180.4999999999998
 31
0.0
  0
ARC
  5
10619
330
10553
100
AcDbEntity
  8
1
  6
Continuous
100
AcDbCircle
 10
42.27706099999998
 20
162.3229389999998
 30
0.0
 40
1.822938999999999
100
AcDbArc
 50
230.4493209999999
 51
0.0
  0
ARC
  5
1061A
330
10553
100
AcDbEntity
  8
1
  6
Continuous
100
AcDbCircle
 10
42.27706099999998
 20
162.3229389999998
 30
0.0
 40
0.6229390000000003
100
AcDbArc
 50
230.4493209999999
 51
0.0
  0
LINE
  5
1061B
330
10553
100
AcDbEntity
  8
1
  6
Continuous
100
AcDbLine
 10
37.6
 20
162.051999
 30
0.0
 11
38.270157
 21
161.0565649999998
 31
0.0
  0
ARC
  5
1061C
330
10553
100
AcDbEntity
  8
1
  6
Continuous
100
AcDbCircle
 10
39.6
 20
159.08125
 30
0.0
 40
3.581249999999998
100
AcDbArc
 50
50.449321
 51
123.949655
  0
LINE
  5
1061D
330
10553
100
AcDbEntity
  8
1
  6
Continuous
100
AcDbLine
 10
42.9
 20
162.3229389999998
 30
0.0
 11
42.9
 21
183.177061
 31
0.0
  0
LINE
  5
1061E
330
10553
100
AcDbEntity
  8
1
  6
Continuous
100
AcDbLine
 10
44.1
 20
162.3229389999998
 30
0.0
 11
44.1
 21
183.177061
 31
0.0
  0
LINE
  5
1061F
330
10553
100
AcDbEntity
  8
1
  6
Continuous
100
AcDbLine
 10
36.2
 20
160.171084
 30
0.0
 11
36.2
 21
185.3289159999999
 31
0.0
  0
ARC
  5
10620
330
10553
100
AcDbEntity
  8
1
  6
Continuous
100
AcDbCircle
 10
37.20000000000001
 20
185.398548
 30
0.0
 40
0.5
100
AcDbArc
 50
94.36157300000001
 51
180.0
  0
LINE
  5
10621
330
10553
100
AcDbEntity
  8
1
  6
Continuous
100
AcDbLine
 10
43.1
 20
186.3499999999999
 30
0.0
 11
37.16197499999999
 21
185.8971
 31
0.0
  0
ARC
  5
10622
330
10553
100
AcDbEntity
  8
1
  6
Continuous
100
AcDbCircle
 10
39.6
 20
186.4187499999999
 30
0.0
 40
2.38125
100
AcDbArc
 50
356.280872
 51
192.4422739999998
  0
LINE
  5
10623
330
10553
100
AcDbEntity
  8
1
  6
Continuous
100
AcDbLine
 10
43.1
 20
185.85
 30
0.0
 11
37.20000000000001
 21
185.4
 31
0.0
  0
LINE
  5
10624
330
10553
100
AcDbEntity
  8
1
  6
Continuous
100
AcDbLine
 10
43.1
 20
185.85
 30
0.0
 11
43.1
 21
186.3499999999999
 31
0.0
  0
ARC
  5
10625
330
10553
100
AcDbEntity
  8
1
  6
Continuous
100
AcDbCircle
 10
37.79999999999999
 20
185.3289159999999
 30
0.0
 40
3.2
100
AcDbArc
 50
142.987809
 51
180.0
  0
ARC
  5
10626
330
10553
100
AcDbEntity
  8
1
  6
Continuous
100
AcDbCircle
 10
37.79999999999999
 20
185.3289159999999
 30
0.0
 40
1.6
100
AcDbArc
 50
142.987809
 51
180.0
  0
LINE
  5
10627
330
10553
100
AcDbEntity
  8
1
  6
Continuous
100
AcDbLine
 10
36.522388
 20
186.292092
 30
0.0
 11
37.698554
 21
187.8522269999999
 31
0.0
  0
LINE
  5
10628
330
10553
100
AcDbEntity
  8
1
  6
Continuous
100
AcDbLine
 10
35.244776
 20
187.255268
 30
0.0
 11
36.42094199999998
 21
188.815403
 31
0.0
  0
LINE
  5
10629
330
10553
100
AcDbEntity
  8
1
  6
Continuous
100
AcDbLine
 10
43.3
 20
187.8885629999999
 30
0.0
 11
41.81302999999997
 21
187.297869
 31
0.0
  0
ARC
  5
1062A
330
10553
100
AcDbEntity
  8
1
  6
Continuous
100
AcDbCircle
 10
39.6
 20
186.4187499999999
 30
0.0
 40
3.98125
100
AcDbArc
 50
21.665296
 51
142.987809
  0
ARC
  5
1062B
330
10553
100
AcDbEntity
  8
1
  6
Continuous
100
AcDbCircle
 10
39.6
 20
186.4187499999999
 30
0.0
 40
2.38125
100
AcDbArc
 50
204.844815
 51
343.87833
  0
LINE
  5
1062C
330
10553
100
AcDbEntity
  8
1
  6
Continuous
100
AcDbLine
 10
36.2
 20
175.65
 30
0.0
 11
38.7
 21
175.65
 31
0.0
  0
LINE
  5
1062D
330
10553
100
AcDbEntity
  8
1
  6
Continuous
100
AcDbLine
 10
36.2
 20
169.8499999999999
 30
0.0
 11
38.7
 21
169.8499999999999
 31
0.0
  0
LINE
  5
1062E
330
10553
100
AcDbEntity
  8
1
  6
Continuous
100
AcDbLine
 10
38.7
 20
169.8499999999999
 30
0.0
 11
38.7
 21
175.65
 31
0.0
  0
LINE
  5
1062F
330
10553
100
AcDbEntity
  8
1
  6
Continuous
100
AcDbLine
 10
37.20000000000001
 20
178.5
 30
0.0
 11
39.2
 21
178.5
 31
0.0
  0
LINE
  5
10630
330
10553
100
AcDbEntity
  8
1
  6
Continuous
100
AcDbLine
 10
39.2
 20
167.5
 30
0.0
 11
39.2
 21
178.0
 31
0.0
  0
LINE
  5
10631
330
10553
100
AcDbEntity
  8
1
  6
Continuous
100
AcDbLine
 10
37.20000000000001
 20
178.0
 30
0.0
 11
39.2
 21
178.0
 31
0.0
  0
ARC
  5
10632
330
10553
100
AcDbEntity
  8
1
  6
Continuous
100
AcDbCircle
 10
37.20000000000001
 20
178.5
 30
0.0
 40
0.5
100
AcDbArc
 50
180.0
 51
270.0
  0
ARC
  5
10633
330
10553
100
AcDbEntity
  8
1
  6
Continuous
100
AcDbCircle
 10
37.20000000000001
 20
167.0
 30
0.0
 40
0.5
100
AcDbArc
 50
90.0
 51
180.0
  0
LINE
  5
10634
330
10553
100
AcDbEntity
  8
1
  6
Continuous
100
AcDbLine
 10
37.20000000000001
 20
167.5
 30
0.0
 11
39.2
 21
167.5
 31
0.0
  0
LINE
  5
10635
330
10553
100
AcDbEntity
  8
1
  6
Continuous
100
AcDbLine
 10
37.20000000000001
 20
167.0
 30
0.0
 11
39.2
 21
167.0
 31
0.0
  0
ARC
  5
10636
330
10553
100
AcDbEntity
  8
1
  6
Continuous
100
AcDbCircle
 10
39.2
 20
167.5
 30
0.0
 40
0.5
100
AcDbArc
 50
270.0
 51
0.0
  0
LINE
  5
10637
330
10553
100
AcDbEntity
  8
1
  6
Continuous
100
AcDbLine
 10
39.7
 20
180.4999999999998
 30
0.0
 11
42.9
 21
180.4999999999998
 31
0.0
  0
LINE
  5
10638
330
10553
100
AcDbEntity
  8
1
  6
Continuous
100
AcDbLine
 10
39.7
 20
165.0
 30
0.0
 11
42.9
 21
165.0
 31
0.0
  0
LINE
  5
10639
330
10553
100
AcDbEntity
  8
1
  6
Continuous
100
AcDbLine
 10
899.0
 20
184.25
 30
0.0
 11
906.0
 21
184.25
 31
0.0
  0
LINE
  5
1063A
330
10553
100
AcDbEntity
  8
1
  6
Continuous
100
AcDbLine
 10
905.355224
 20
187.255268
 30
0.0
 11
904.179058
 21
188.815403
 31
0.0
  0
LINE
  5
1063B
330
10553
100
AcDbEntity
  8
1
  6
Continuous
100
AcDbLine
 10
899.0
 20
161.25
 30
0.0
 11
906.0
 21
161.25
 31
0.0
  0
LINE
  5
1063C
330
10553
100
AcDbEntity
  8
1
  6
Continuous
100
AcDbLine
 10
905.355224
 20
158.2447319999999
 30
0.0
 11
904.179058
 21
156.6845969999999
 31
0.0
  0
ARC
  5
1063D
330
10553
100
AcDbEntity
  8
1
  6
Continuous
100
AcDbCircle
 10
898.3229389999996
 20
183.177061
 30
0.0
 40
1.822938999999999
100
AcDbArc
 50
50.449321
 51
180.0
  0
ARC
  5
1063E
330
10553
100
AcDbEntity
  8
1
  6
Continuous
100
AcDbCircle
 10
899.0
 20
182.75
 30
0.0
 40
1.5
100
AcDbArc
 50
90.0
 51
180.0
  0
LINE
  5
1063F
330
10553
100
AcDbEntity
  8
1
  6
Continuous
100
AcDbLine
 10
897.4999999999999
 20
159.15
 30
0.0
 11
903.4380249999999
 21
159.6029
 31
0.0
  0
ARC
  5
10640
330
10553
100
AcDbEntity
  8
1
  6
Continuous
100
AcDbCircle
 10
901.0
 20
159.08125
 30
0.0
 40
2.38125
100
AcDbArc
 50
176.2808719999999
 51
12.44227399999999
  0
LINE
  5
10641
330
10553
100
AcDbEntity
  8
1
  6
Continuous
100
AcDbLine
 10
897.4999999999999
 20
159.6499999999998
 30
0.0
 11
897.4999999999999
 21
159.15
 31
0.0
  0
ARC
  5
10642
330
10553
100
AcDbEntity
  8
1
  6
Continuous
100
AcDbCircle
 10
902.8
 20
160.171084
 30
0.0
 40
1.6
100
AcDbArc
 50
322.9878089999999
 51
0.0
  0
LINE
  5
10643
330
10553
100
AcDbEntity
  8
1
  6
Continuous
100
AcDbLine
 10
904.077612
 20
159.2079079999998
 30
0.0
 11
902.9014459999999
 21
157.647773
 31
0.0
  0
ARC
  5
10644
330
10553
100
AcDbEntity
  8
1
  6
Continuous
100
AcDbCircle
 10
901.0
 20
159.08125
 30
0.0
 40
3.98125
100
AcDbArc
 50
201.6652959999999
 51
322.9878089999999
  0
LINE
  5
10645
330
10553
100
AcDbEntity
  8
1
  6
Continuous
100
AcDbLine
 10
897.2999999999997
 20
157.611437
 30
0.0
 11
898.7869699999999
 21
158.202131
 31
0.0
  0
ARC
  5
10646
330
10553
100
AcDbEntity
  8
1
  6
Continuous
100
AcDbCircle
 10
899.0
 20
162.7499999999998
 30
0.0
 40
1.5
100
AcDbArc
 50
180.0
 51
270.0
  0
LINE
  5
10647
330
10553
100
AcDbEntity
  8
1
  6
Continuous
100
AcDbLine
 10
897.4999999999999
 20
159.6499999999998
 30
0.0
 11
903.4
 21
160.0999999999999
 31
0.0
  0
ARC
  5
10648
330
10553
100
AcDbEntity
  8
1
  6
Continuous
100
AcDbCircle
 10
901.0
 20
159.08125
 30
0.0
 40
2.38125
100
AcDbArc
 50
24.844815
 51
65.61074999999999
  0
ARC
  5
10649
330
10553
100
AcDbEntity
  8
1
  6
Continuous
100
AcDbCircle
 10
901.0
 20
159.08125
 30
0.0
 40
2.38125
100
AcDbArc
 50
114.3892499999999
 51
163.87833
  0
LINE
  5
1064A
330
10553
100
AcDbEntity
  8
1
  6
Continuous
100
AcDbLine
 10
902.4600689999997
 20
161.25
 30
0.0
 11
902.329843
 21
161.0565649999998
 31
0.0
  0
ARC
  5
1064B
330
10553
100
AcDbEntity
  8
1
  6
Continuous
100
AcDbCircle
 10
903.4
 20
160.1014519999999
 30
0.0
 40
0.5
100
AcDbArc
 50
274.361573
 51
0.0
  0
LINE
  5
1064C
330
10553
100
AcDbEntity
  8
1
  6
Continuous
100
AcDbLine
 10
903.4
 20
161.25
 30
0.0
 11
903.4
 21
160.0999999999999
 31
0.0
  0
LINE
  5
1064D
330
10553
100
AcDbEntity
  8
1
  6
Continuous
100
AcDbLine
 10
904.4
 20
160.171084
 30
0.0
 11
904.4
 21
161.25
 31
0.0
  0
LINE
  5
1064E
330
10553
100
AcDbEntity
  8
1
  6
Continuous
100
AcDbLine
 10
903.8999999999999
 20
161.25
 30
0.0
 11
903.8999999999999
 21
160.1014519999999
 31
0.0
  0
LINE
  5
1064F
330
10553
100
AcDbEntity
  8
1
  6
Continuous
100
AcDbLine
 10
897.4999999999999
 20
162.7499999999998
 30
0.0
 11
897.4999999999999
 21
182.75
 31
0.0
  0
LINE
  5
10650
330
10553
100
AcDbEntity
  8
1
  6
Continuous
100
AcDbLine
 10
896.4999999999999
 20
162.3229389999998
 30
0.0
 11
896.4999999999999
 21
183.177061
 31
0.0
  0
ARC
  5
10651
330
10553
100
AcDbEntity
  8
1
  6
Continuous
100
AcDbCircle
 10
898.3229389999996
 20
162.3229389999998
 30
0.0
 40
1.822938999999999
100
AcDbArc
 50
180.0
 51
309.5506789999999
  0
LINE
  5
10652
330
10553
100
AcDbEntity
  8
1
  6
Continuous
100
AcDbLine
 10
897.4999999999999
 20
185.85
 30
0.0
 11
903.4
 21
185.4
 31
0.0
  0
ARC
  5
10653
330
10553
100
AcDbEntity
  8
1
  6
Continuous
100
AcDbCircle
 10
901.0
 20
186.4187499999999
 30
0.0
 40
2.38125
100
AcDbArc
 50
347.557726
 51
183.719128
  0
ARC
  5
10654
330
10553
100
AcDbEntity
  8
1
  6
Continuous
100
AcDbCircle
 10
901.0
 20
186.4187499999999
 30
0.0
 40
2.38125
100
AcDbArc
 50
196.12167
 51
245.6107499999998
  0
ARC
  5
10655
330
10553
100
AcDbEntity
  8
1
  6
Continuous
100
AcDbCircle
 10
901.0
 20
186.4187499999999
 30
0.0
 40
2.38125
100
AcDbArc
 50
294.38925
 51
335.155185
  0
ARC
  5
10656
330
10553
100
AcDbEntity
  8
1
  6
Continuous
100
AcDbCircle
 10
902.8
 20
185.3289159999999
 30
0.0
 40
1.6
100
AcDbArc
 50
0.0
 51
37.01219099999998
  0
ARC
  5
10657
330
10553
100
AcDbEntity
  8
1
  6
Continuous
100
AcDbCircle
 10
903.4
 20
185.398548
 30
0.0
 40
0.5
100
AcDbArc
 50
0.0
 51
85.63842699999998
  0
LINE
  5
10658
330
10553
100
AcDbEntity
  8
1
  6
Continuous
100
AcDbLine
 10
902.4600689999997
 20
184.25
 30
0.0
 11
902.329843
 21
184.443435
 31
0.0
  0
LINE
  5
10659
330
10553
100
AcDbEntity
  8
1
  6
Continuous
100
AcDbLine
 10
903.4
 20
184.25
 30
0.0
 11
903.4
 21
185.4
 31
0.0
  0
LINE
  5
1065A
330
10553
100
AcDbEntity
  8
1
  6
Continuous
100
AcDbLine
 10
904.4
 20
184.25
 30
0.0
 11
904.4
 21
185.3289159999999
 31
0.0
  0
LINE
  5
1065B
330
10553
100
AcDbEntity
  8
1
  6
Continuous
100
AcDbLine
 10
903.8999999999999
 20
184.25
 30
0.0
 11
903.8999999999999
 21
185.398548
 31
0.0
  0
ARC
  5
1065C
330
10553
100
AcDbEntity
  8
1
  6
Continuous
100
AcDbCircle
 10
901.0
 20
186.4187499999999
 30
0.0
 40
3.98125
100
AcDbArc
 50
37.01219099999998
 51
158.3347039999999
  0
LINE
  5
1065D
330
10553
100
AcDbEntity
  8
1
  6
Continuous
100
AcDbLine
 10
904.077612
 20
186.292092
 30
0.0
 11
902.9014459999999
 21
187.8522269999999
 31
0.0
  0
LINE
  5
1065E
330
10553
100
AcDbEntity
  8
1
  6
Continuous
100
AcDbLine
 10
897.4999999999999
 20
186.3499999999999
 30
0.0
 11
903.4380249999999
 21
185.8971
 31
0.0
  0
LINE
  5
1065F
330
10553
100
AcDbEntity
  8
1
  6
Continuous
100
AcDbLine
 10
897.2999999999997
 20
187.8885629999999
 30
0.0
 11
898.7869699999999
 21
187.297869
 31
0.0
  0
LINE
  5
10660
330
10553
100
AcDbEntity
  8
1
  6
Continuous
100
AcDbLine
 10
897.4999999999999
 20
185.85
 30
0.0
 11
897.4999999999999
 21
186.3499999999999
 31
0.0
  0
LINE
  5
10661
330
10553
100
AcDbEntity
  8
1
  6
Continuous
100
AcDbLine
 10
906.0
 20
160.171084
 30
0.0
 11
906.0
 21
185.3289159999999
 31
0.0
  0
ARC
  5
10662
330
10553
100
AcDbEntity
  8
1
  6
Continuous
100
AcDbCircle
 10
902.8
 20
160.171084
 30
0.0
 40
3.2
100
AcDbArc
 50
322.9878089999999
 51
0.0
  0
ARC
  5
10663
330
10553
100
AcDbEntity
  8
1
  6
Continuous
100
AcDbCircle
 10
902.8
 20
185.3289159999999
 30
0.0
 40
3.2
100
AcDbArc
 50
0.0
 51
37.01219099999998
  0
LINE
  5
10664
330
10553
100
AcDbEntity
  8
1
  6
Continuous
100
AcDbLine
 10
450.8999999999998
 20
185.85
 30
0.0
 11
461.3999999999998
 21
185.85
 31
0.0
  0
LINE
  5
10665
330
10553
100
AcDbEntity
  8
1
  6
Continuous
100
AcDbLine
 10
450.8999999999998
 20
186.3499999999999
 30
0.0
 11
461.3999999999998
 21
186.3499999999999
 31
0.0
  0
ARC
  5
10666
330
10553
100
AcDbEntity
  8
1
  6
Continuous
100
AcDbCircle
 10
456.1499999999998
 20
186.4187499999999
 30
0.0
 40
2.38125
100
AcDbArc
 50
158.3347039999999
 51
181.6544389999999
  0
ARC
  5
10667
330
10553
100
AcDbEntity
  8
1
  6
Continuous
100
AcDbCircle
 10
456.1499999999998
 20
186.4187499999999
 30
0.0
 40
2.38125
100
AcDbArc
 50
193.81839
 51
216.5697209999999
  0
ARC
  5
10668
330
10553
100
AcDbEntity
  8
1
  6
Continuous
100
AcDbCircle
 10
456.1499999999998
 20
186.4187499999999
 30
0.0
 40
2.38125
100
AcDbArc
 50
249.0866669999999
 51
346.18161
  0
ARC
  5
10669
330
10553
100
AcDbEntity
  8
1
  6
Continuous
100
AcDbCircle
 10
456.1499999999998
 20
186.4187499999999
 30
0.0
 40
2.38125
100
AcDbArc
 50
358.3455609999999
 51
21.665296
  0
LINE
  5
1066A
330
10553
100
AcDbEntity
  8
1
  6
Continuous
100
AcDbLine
 10
450.8999999999998
 20
186.3499999999999
 30
0.0
 11
450.8999999999998
 21
185.85
 31
0.0
  0
LINE
  5
1066B
330
10553
100
AcDbEntity
  8
1
  6
Continuous
100
AcDbLine
 10
461.3999999999998
 20
186.3499999999999
 30
0.0
 11
461.3999999999998
 21
185.85
 31
0.0
  0
LINE
  5
1066C
330
10553
100
AcDbEntity
  8
1
  6
Continuous
100
AcDbLine
 10
476.2999999999998
 20
186.3499999999999
 30
0.0
 11
486.8
 21
186.3499999999999
 31
0.0
  0
LINE
  5
1066D
330
10553
100
AcDbEntity
  8
1
  6
Continuous
100
AcDbLine
 10
476.2999999999998
 20
185.85
 30
0.0
 11
486.8
 21
185.85
 31
0.0
  0
LINE
  5
1066E
330
10553
100
AcDbEntity
  8
1
  6
Continuous
100
AcDbLine
 10
476.2999999999998
 20
186.3499999999999
 30
0.0
 11
476.2999999999998
 21
185.85
 31
0.0
  0
LINE
  5
1066F
330
10553
100
AcDbEntity
  8
1
  6
Continuous
100
AcDbLine
 10
474.1
 20
186.3499999999999
 30
0.0
 11
474.1
 21
185.85
 31
0.0
  0
ARC
  5
10670
330
10553
100
AcDbEntity
  8
1
  6
Continuous
100
AcDbCircle
 10
468.85
 20
186.4187499999999
 30
0.0
 40
2.38125
100
AcDbArc
 50
193.81839
 51
346.18161
  0
ARC
  5
10671
330
10553
100
AcDbEntity
  8
1
  6
Continuous
100
AcDbCircle
 10
468.85
 20
186.4187499999999
 30
0.0
 40
2.38125
100
AcDbArc
 50
358.3455609999999
 51
21.665296
  0
ARC
  5
10672
330
10553
100
AcDbEntity
  8
1
  6
Continuous
100
AcDbCircle
 10
468.85
 20
186.4187499999999
 30
0.0
 40
2.38125
100
AcDbArc
 50
158.3347039999999
 51
181.6544389999999
  0
LINE
  5
10673
330
10553
100
AcDbEntity
  8
1
  6
Continuous
100
AcDbLine
 10
463.6
 20
186.3499999999999
 30
0.0
 11
463.6
 21
185.85
 31
0.0
  0
LINE
  5
10674
330
10553
100
AcDbEntity
  8
1
  6
Continuous
100
AcDbLine
 10
463.6
 20
185.85
 30
0.0
 11
474.1
 21
185.85
 31
0.0
  0
LINE
  5
10675
330
10553
100
AcDbEntity
  8
1
  6
Continuous
100
AcDbLine
 10
463.6
 20
186.3499999999999
 30
0.0
 11
474.1
 21
186.3499999999999
 31
0.0
  0
LINE
  5
10676
330
10553
100
AcDbEntity
  8
1
  6
Continuous
100
AcDbLine
 10
486.8
 20
186.3499999999999
 30
0.0
 11
486.8
 21
185.85
 31
0.0
  0
ARC
  5
10677
330
10553
100
AcDbEntity
  8
1
  6
Continuous
100
AcDbCircle
 10
481.55
 20
186.4187499999999
 30
0.0
 40
2.38125
100
AcDbArc
 50
358.3455609999999
 51
21.665296
  0
ARC
  5
10678
330
10553
100
AcDbEntity
  8
1
  6
Continuous
100
AcDbCircle
 10
481.55
 20
186.4187499999999
 30
0.0
 40
2.38125
100
AcDbArc
 50
193.81839
 51
346.18161
  0
ARC
  5
10679
330
10553
100
AcDbEntity
  8
1
  6
Continuous
100
AcDbCircle
 10
481.55
 20
186.4187499999999
 30
0.0
 40
2.38125
100
AcDbArc
 50
158.3347039999999
 51
181.6544389999999
  0
LINE
  5
1067A
330
10553
100
AcDbEntity
  8
1
  6
Continuous
100
AcDbLine
 10
489.0
 20
186.3499999999999
 30
0.0
 11
499.5
 21
186.3499999999999
 31
0.0
  0
LINE
  5
1067B
330
10553
100
AcDbEntity
  8
1
  6
Continuous
100
AcDbLine
 10
489.0
 20
185.85
 30
0.0
 11
499.5
 21
185.85
 31
0.0
  0
LINE
  5
1067C
330
10553
100
AcDbEntity
  8
1
  6
Continuous
100
AcDbLine
 10
489.0
 20
186.3499999999999
 30
0.0
 11
489.0
 21
185.85
 31
0.0
  0
ARC
  5
1067D
330
10553
100
AcDbEntity
  8
1
  6
Continuous
100
AcDbCircle
 10
494.2499999999998
 20
186.4187499999999
 30
0.0
 40
2.38125
100
AcDbArc
 50
158.3347039999999
 51
181.6544389999999
  0
ARC
  5
1067E
330
10553
100
AcDbEntity
  8
1
  6
Continuous
100
AcDbCircle
 10
494.2499999999998
 20
186.4187499999999
 30
0.0
 40
2.38125
100
AcDbArc
 50
358.3455609999999
 51
21.665296
  0
ARC
  5
1067F
330
10553
100
AcDbEntity
  8
1
  6
Continuous
100
AcDbCircle
 10
494.2499999999998
 20
186.4187499999999
 30
0.0
 40
2.38125
100
AcDbArc
 50
193.81839
 51
346.18161
  0
LINE
  5
10680
330
10553
100
AcDbEntity
  8
1
  6
Continuous
100
AcDbLine
 10
499.5
 20
186.3499999999999
 30
0.0
 11
499.5
 21
185.85
 31
0.0
  0
ARC
  5
10681
330
10553
100
AcDbEntity
  8
1
  6
Continuous
100
AcDbCircle
 10
718.1499999999997
 20
186.4187499999999
 30
0.0
 40
2.38125
100
AcDbArc
 50
193.81839
 51
346.18161
  0
ARC
  5
10682
330
10553
100
AcDbEntity
  8
1
  6
Continuous
100
AcDbCircle
 10
718.1499999999997
 20
186.4187499999999
 30
0.0
 40
2.38125
100
AcDbArc
 50
358.3455609999999
 51
21.665296
  0
LINE
  5
10683
330
10553
100
AcDbEntity
  8
1
  6
Continuous
100
AcDbLine
 10
723.3999999999999
 20
186.3499999999999
 30
0.0
 11
723.3999999999999
 21
185.85
 31
0.0
  0
ARC
  5
10684
330
10553
100
AcDbEntity
  8
1
  6
Continuous
100
AcDbCircle
 10
718.1499999999997
 20
186.4187499999999
 30
0.0
 40
2.38125
100
AcDbArc
 50
158.3347039999999
 51
181.6544389999999
  0
LINE
  5
10685
330
10553
100
AcDbEntity
  8
1
  6
Continuous
100
AcDbLine
 10
712.8999999999997
 20
186.3499999999999
 30
0.0
 11
712.8999999999997
 21
185.85
 31
0.0
  0
LINE
  5
10686
330
10553
100
AcDbEntity
  8
1
  6
Continuous
100
AcDbLine
 10
712.8999999999997
 20
185.85
 30
0.0
 11
723.3999999999999
 21
185.85
 31
0.0
  0
LINE
  5
10687
330
10553
100
AcDbEntity
  8
1
  6
Continuous
100
AcDbLine
 10
712.8999999999997
 20
186.3499999999999
 30
0.0
 11
723.3999999999999
 21
186.3499999999999
 31
0.0
  0
LINE
  5
10688
330
10553
100
AcDbEntity
  8
1
  6
Continuous
100
AcDbLine
 10
738.2999999999997
 20
186.3499999999999
 30
0.0
 11
748.7999999999997
 21
186.3499999999999
 31
0.0
  0
LINE
  5
10689
330
10553
100
AcDbEntity
  8
1
  6
Continuous
100
AcDbLine
 10
738.2999999999997
 20
185.85
 30
0.0
 11
748.7999999999997
 21
185.85
 31
0.0
  0
ARC
  5
1068A
330
10553
100
AcDbEntity
  8
1
  6
Continuous
100
AcDbCircle
 10
730.85
 20
186.4187499999999
 30
0.0
 40
2.38125
100
AcDbArc
 50
193.81839
 51
346.18161
  0
ARC
  5
1068B
330
10553
100
AcDbEntity
  8
1
  6
Continuous
100
AcDbCircle
 10
730.85
 20
186.4187499999999
 30
0.0
 40
2.38125
100
AcDbArc
 50
358.3455609999999
 51
21.665296
  0
LINE
  5
1068C
330
10553
100
AcDbEntity
  8
1
  6
Continuous
100
AcDbLine
 10
736.1
 20
186.3499999999999
 30
0.0
 11
736.1
 21
185.85
 31
0.0
  0
ARC
  5
1068D
330
10553
100
AcDbEntity
  8
1
  6
Continuous
100
AcDbCircle
 10
730.85
 20
186.4187499999999
 30
0.0
 40
2.38125
100
AcDbArc
 50
158.3347039999999
 51
181.6544389999999
  0
LINE
  5
1068E
330
10553
100
AcDbEntity
  8
1
  6
Continuous
100
AcDbLine
 10
725.6
 20
186.3499999999999
 30
0.0
 11
725.6
 21
185.85
 31
0.0
  0
LINE
  5
1068F
330
10553
100
AcDbEntity
  8
1
  6
Continuous
100
AcDbLine
 10
725.6
 20
185.85
 30
0.0
 11
736.1
 21
185.85
 31
0.0
  0
LINE
  5
10690
330
10553
100
AcDbEntity
  8
1
  6
Continuous
100
AcDbLine
 10
725.6
 20
186.3499999999999
 30
0.0
 11
736.1
 21
186.3499999999999
 31
0.0
  0
LINE
  5
10691
330
10553
100
AcDbEntity
  8
1
  6
Continuous
100
AcDbLine
 10
738.2999999999997
 20
186.3499999999999
 30
0.0
 11
738.2999999999997
 21
185.85
 31
0.0
  0
ARC
  5
10692
330
10553
100
AcDbEntity
  8
1
  6
Continuous
100
AcDbCircle
 10
743.5499999999997
 20
186.4187499999999
 30
0.0
 40
2.38125
100
AcDbArc
 50
158.3347039999999
 51
181.6544389999999
  0
LINE
  5
10693
330
10553
100
AcDbEntity
  8
1
  6
Continuous
100
AcDbLine
 10
748.7999999999997
 20
186.3499999999999
 30
0.0
 11
748.7999999999997
 21
185.85
 31
0.0
  0
ARC
  5
10694
330
10553
100
AcDbEntity
  8
1
  6
Continuous
100
AcDbCircle
 10
743.5499999999997
 20
186.4187499999999
 30
0.0
 40
2.38125
100
AcDbArc
 50
358.3455609999999
 51
21.665296
  0
ARC
  5
10695
330
10553
100
AcDbEntity
  8
1
  6
Continuous
100
AcDbCircle
 10
743.5499999999997
 20
186.4187499999999
 30
0.0
 40
2.38125
100
AcDbArc
 50
193.81839
 51
346.18161
  0
LINE
  5
10696
330
10553
100
AcDbEntity
  8
1
  6
Continuous
100
AcDbLine
 10
349.3
 20
159.15
 30
0.0
 11
359.8
 21
159.15
 31
0.0
  0
LINE
  5
10697
330
10553
100
AcDbEntity
  8
1
  6
Continuous
100
AcDbLine
 10
349.3
 20
159.6499999999998
 30
0.0
 11
359.8
 21
159.6499999999998
 31
0.0
  0
ARC
  5
10698
330
10553
100
AcDbEntity
  8
1
  6
Continuous
100
AcDbCircle
 10
354.55
 20
159.08125
 30
0.0
 40
2.38125
100
AcDbArc
 50
338.3347039999998
 51
1.654438999999999
  0
ARC
  5
10699
330
10553
100
AcDbEntity
  8
1
  6
Continuous
100
AcDbCircle
 10
354.55
 20
159.08125
 30
0.0
 40
2.38125
100
AcDbArc
 50
13.81839
 51
36.569721
  0
LINE
  5
1069A
330
10553
100
AcDbEntity
  8
1
  6
Continuous
100
AcDbLine
 10
349.3
 20
159.15
 30
0.0
 11
349.3
 21
159.6499999999998
 31
0.0
  0
ARC
  5
1069B
330
10553
100
AcDbEntity
  8
1
  6
Continuous
100
AcDbCircle
 10
354.55
 20
159.08125
 30
0.0
 40
2.38125
100
AcDbArc
 50
143.430279
 51
166.18161
  0
ARC
  5
1069C
330
10553
100
AcDbEntity
  8
1
  6
Continuous
100
AcDbCircle
 10
354.55
 20
159.08125
 30
0.0
 40
2.38125
100
AcDbArc
 50
178.345561
 51
201.6652959999999
  0
LINE
  5
1069D
330
10553
100
AcDbEntity
  8
1
  6
Continuous
100
AcDbLine
 10
359.8
 20
159.15
 30
0.0
 11
359.8
 21
159.6499999999998
 31
0.0
  0
LINE
  5
1069E
330
10553
100
AcDbEntity
  8
1
  6
Continuous
100
AcDbLine
 10
450.8999999999998
 20
159.15
 30
0.0
 11
461.3999999999998
 21
159.15
 31
0.0
  0
LINE
  5
1069F
330
10553
100
AcDbEntity
  8
1
  6
Continuous
100
AcDbLine
 10
450.8999999999998
 20
159.6499999999998
 30
0.0
 11
461.3999999999998
 21
159.6499999999998
 31
0.0
  0
LINE
  5
106A0
330
10553
100
AcDbEntity
  8
1
  6
Continuous
100
AcDbLine
 10
450.8999999999998
 20
159.15
 30
0.0
 11
450.8999999999998
 21
159.6499999999998
 31
0.0
  0
LINE
  5
106A1
330
10553
100
AcDbEntity
  8
1
  6
Continuous
100
AcDbLine
 10
463.6
 20
159.15
 30
0.0
 11
474.1
 21
159.15
 31
0.0
  0
LINE
  5
106A2
330
10553
100
AcDbEntity
  8
1
  6
Continuous
100
AcDbLine
 10
463.6
 20
159.6499999999998
 30
0.0
 11
474.1
 21
159.6499999999998
 31
0.0
  0
LINE
  5
106A3
330
10553
100
AcDbEntity
  8
1
  6
Continuous
100
AcDbLine
 10
463.6
 20
159.15
 30
0.0
 11
463.6
 21
159.6499999999998
 31
0.0
  0
ARC
  5
106A4
330
10553
100
AcDbEntity
  8
1
  6
Continuous
100
AcDbCircle
 10
468.85
 20
159.08125
 30
0.0
 40
2.38125
100
AcDbArc
 50
178.345561
 51
201.6652959999999
  0
LINE
  5
106A5
330
10553
100
AcDbEntity
  8
1
  6
Continuous
100
AcDbLine
 10
461.3999999999998
 20
159.15
 30
0.0
 11
461.3999999999998
 21
159.6499999999998
 31
0.0
  0
ARC
  5
106A6
330
10553
100
AcDbEntity
  8
1
  6
Continuous
100
AcDbCircle
 10
456.1499999999998
 20
159.08125
 30
0.0
 40
2.38125
100
AcDbArc
 50
338.3347039999998
 51
1.654438999999999
  0
ARC
  5
106A7
330
10553
100
AcDbEntity
  8
1
  6
Continuous
100
AcDbCircle
 10
456.1499999999998
 20
159.08125
 30
0.0
 40
2.38125
100
AcDbArc
 50
143.430279
 51
166.18161
  0
ARC
  5
106A8
330
10553
100
AcDbEntity
  8
1
  6
Continuous
100
AcDbCircle
 10
456.1499999999998
 20
159.08125
 30
0.0
 40
2.38125
100
AcDbArc
 50
178.345561
 51
201.6652959999999
  0
ARC
  5
106A9
330
10553
100
AcDbEntity
  8
1
  6
Continuous
100
AcDbCircle
 10
481.55
 20
159.08125
 30
0.0
 40
2.38125
100
AcDbArc
 50
178.345561
 51
201.6652959999999
  0
ARC
  5
106AA
330
10553
100
AcDbEntity
  8
1
  6
Continuous
100
AcDbCircle
 10
481.55
 20
159.08125
 30
0.0
 40
2.38125
100
AcDbArc
 50
338.3347039999998
 51
1.654438999999999
  0
LINE
  5
106AB
330
10553
100
AcDbEntity
  8
1
  6
Continuous
100
AcDbLine
 10
486.8
 20
159.15
 30
0.0
 11
486.8
 21
159.6499999999998
 31
0.0
  0
ARC
  5
106AC
330
10553
100
AcDbEntity
  8
1
  6
Continuous
100
AcDbCircle
 10
468.85
 20
159.08125
 30
0.0
 40
2.38125
100
AcDbArc
 50
338.3347039999998
 51
1.654438999999999
  0
LINE
  5
106AD
330
10553
100
AcDbEntity
  8
1
  6
Continuous
100
AcDbLine
 10
474.1
 20
159.15
 30
0.0
 11
474.1
 21
159.6499999999998
 31
0.0
  0
LINE
  5
106AE
330
10553
100
AcDbEntity
  8
1
  6
Continuous
100
AcDbLine
 10
476.2999999999998
 20
159.15
 30
0.0
 11
476.2999999999998
 21
159.6499999999998
 31
0.0
  0
LINE
  5
106AF
330
10553
100
AcDbEntity
  8
1
  6
Continuous
100
AcDbLine
 10
476.2999999999998
 20
159.6499999999998
 30
0.0
 11
486.8
 21
159.6499999999998
 31
0.0
  0
LINE
  5
106B0
330
10553
100
AcDbEntity
  8
1
  6
Continuous
100
AcDbLine
 10
476.2999999999998
 20
159.15
 30
0.0
 11
486.8
 21
159.15
 31
0.0
  0
LINE
  5
106B1
330
10553
100
AcDbEntity
  8
1
  6
Continuous
100
AcDbLine
 10
712.8999999999997
 20
159.15
 30
0.0
 11
723.3999999999999
 21
159.15
 31
0.0
  0
LINE
  5
106B2
330
10553
100
AcDbEntity
  8
1
  6
Continuous
100
AcDbLine
 10
712.8999999999997
 20
159.6499999999998
 30
0.0
 11
723.3999999999999
 21
159.6499999999998
 31
0.0
  0
LINE
  5
106B3
330
10553
100
AcDbEntity
  8
1
  6
Continuous
100
AcDbLine
 10
499.5
 20
159.15
 30
0.0
 11
499.5
 21
159.6499999999998
 31
0.0
  0
ARC
  5
106B4
330
10553
100
AcDbEntity
  8
1
  6
Continuous
100
AcDbCircle
 10
494.2499999999998
 20
159.08125
 30
0.0
 40
2.38125
100
AcDbArc
 50
338.3347039999998
 51
1.654438999999999
  0
ARC
  5
106B5
330
10553
100
AcDbEntity
  8
1
  6
Continuous
100
AcDbCircle
 10
494.2499999999998
 20
159.08125
 30
0.0
 40
2.38125
100
AcDbArc
 50
178.345561
 51
201.6652959999999
  0
LINE
  5
106B6
330
10553
100
AcDbEntity
  8
1
  6
Continuous
100
AcDbLine
 10
489.0
 20
159.15
 30
0.0
 11
489.0
 21
159.6499999999998
 31
0.0
  0
LINE
  5
106B7
330
10553
100
AcDbEntity
  8
1
  6
Continuous
100
AcDbLine
 10
489.0
 20
159.6499999999998
 30
0.0
 11
499.5
 21
159.6499999999998
 31
0.0
  0
LINE
  5
106B8
330
10553
100
AcDbEntity
  8
1
  6
Continuous
100
AcDbLine
 10
489.0
 20
159.15
 30
0.0
 11
499.5
 21
159.15
 31
0.0
  0
LINE
  5
106B9
330
10553
100
AcDbEntity
  8
1
  6
Continuous
100
AcDbLine
 10
712.8999999999997
 20
159.15
 30
0.0
 11
712.8999999999997
 21
159.6499999999998
 31
0.0
  0
ARC
  5
106BA
330
10553
100
AcDbEntity
  8
1
  6
Continuous
100
AcDbCircle
 10
718.1499999999997
 20
159.08125
 30
0.0
 40
2.38125
100
AcDbArc
 50
178.345561
 51
201.6652959999999
  0
LINE
  5
106BB
330
10553
100
AcDbEntity
  8
1
  6
Continuous
100
AcDbLine
 10
738.2999999999997
 20
159.6499999999998
 30
0.0
 11
748.7999999999997
 21
159.6499999999998
 31
0.0
  0
LINE
  5
106BC
330
10553
100
AcDbEntity
  8
1
  6
Continuous
100
AcDbLine
 10
738.2999999999997
 20
159.15
 30
0.0
 11
748.7999999999997
 21
159.15
 31
0.0
  0
LINE
  5
106BD
330
10553
100
AcDbEntity
  8
1
  6
Continuous
100
AcDbLine
 10
725.6
 20
159.15
 30
0.0
 11
736.1
 21
159.15
 31
0.0
  0
LINE
  5
106BE
330
10553
100
AcDbEntity
  8
1
  6
Continuous
100
AcDbLine
 10
725.6
 20
159.6499999999998
 30
0.0
 11
736.1
 21
159.6499999999998
 31
0.0
  0
LINE
  5
106BF
330
10553
100
AcDbEntity
  8
1
  6
Continuous
100
AcDbLine
 10
725.6
 20
159.15
 30
0.0
 11
725.6
 21
159.6499999999998
 31
0.0
  0
ARC
  5
106C0
330
10553
100
AcDbEntity
  8
1
  6
Continuous
100
AcDbCircle
 10
730.85
 20
159.08125
 30
0.0
 40
2.38125
100
AcDbArc
 50
178.345561
 51
201.6652959999999
  0
ARC
  5
106C1
330
10553
100
AcDbEntity
  8
1
  6
Continuous
100
AcDbCircle
 10
730.85
 20
159.08125
 30
0.0
 40
2.38125
100
AcDbArc
 50
338.3347039999998
 51
1.654438999999999
  0
ARC
  5
106C2
330
10553
100
AcDbEntity
  8
1
  6
Continuous
100
AcDbCircle
 10
730.85
 20
159.08125
 30
0.0
 40
2.38125
100
AcDbArc
 50
13.81839
 51
166.18161
  0
LINE
  5
106C3
330
10553
100
AcDbEntity
  8
1
  6
Continuous
100
AcDbLine
 10
723.3999999999999
 20
159.15
 30
0.0
 11
723.3999999999999
 21
159.6499999999998
 31
0.0
  0
ARC
  5
106C4
330
10553
100
AcDbEntity
  8
1
  6
Continuous
100
AcDbCircle
 10
718.1499999999997
 20
159.08125
 30
0.0
 40
2.38125
100
AcDbArc
 50
338.3347039999998
 51
1.654438999999999
  0
ARC
  5
106C5
330
10553
100
AcDbEntity
  8
1
  6
Continuous
100
AcDbCircle
 10
718.1499999999997
 20
159.08125
 30
0.0
 40
2.38125
100
AcDbArc
 50
13.81839
 51
166.18161
  0
LINE
  5
106C6
330
10553
100
AcDbEntity
  8
1
  6
Continuous
100
AcDbLine
 10
738.2999999999997
 20
159.15
 30
0.0
 11
738.2999999999997
 21
159.6499999999998
 31
0.0
  0
LINE
  5
106C7
330
10553
100
AcDbEntity
  8
1
  6
Continuous
100
AcDbLine
 10
736.1
 20
159.15
 30
0.0
 11
736.1
 21
159.6499999999998
 31
0.0
  0
ARC
  5
106C8
330
10553
100
AcDbEntity
  8
1
  6
Continuous
100
AcDbCircle
 10
743.5499999999997
 20
159.08125
 30
0.0
 40
2.38125
100
AcDbArc
 50
13.81839
 51
166.18161
  0
ARC
  5
106C9
330
10553
100
AcDbEntity
  8
1
  6
Continuous
100
AcDbCircle
 10
743.5499999999997
 20
159.08125
 30
0.0
 40
2.38125
100
AcDbArc
 50
338.3347039999998
 51
1.654438999999999
  0
LINE
  5
106CA
330
10553
100
AcDbEntity
  8
1
  6
Continuous
100
AcDbLine
 10
748.7999999999997
 20
159.15
 30
0.0
 11
748.7999999999997
 21
159.6499999999998
 31
0.0
  0
ARC
  5
106CB
330
10553
100
AcDbEntity
  8
1
  6
Continuous
100
AcDbCircle
 10
743.5499999999997
 20
159.08125
 30
0.0
 40
2.38125
100
AcDbArc
 50
178.345561
 51
201.6652959999999
  0
LINE
  5
106CC
330
10553
100
AcDbEntity
  8
1
  6
Continuous
100
AcDbLine
 10
746.5499999999997
 20
185.85
 30
0.0
 11
746.5499999999997
 21
159.6499999999998
 31
0.0
  0
LINE
  5
106CD
330
10553
100
AcDbEntity
  8
1
  6
Continuous
100
AcDbLine
 10
680.2999999999998
 20
178.5
 30
0.0
 11
746.5499999999997
 21
178.5
 31
0.0
  0
LINE
  5
106CE
330
10553
100
AcDbEntity
  8
1
  6
Continuous
100
AcDbLine
 10
680.2999999999998
 20
167.0
 30
0.0
 11
746.5499999999997
 21
167.0
 31
0.0
  0
LINE
  5
106CF
330
10553
100
AcDbEntity
  8
1
  6
Continuous
100
AcDbLine
 10
733.85
 20
182.2499999999998
 30
0.0
 11
740.5499999999997
 21
182.2499999999998
 31
0.0
  0
LINE
  5
106D0
330
10553
100
AcDbEntity
  8
1
  6
Continuous
100
AcDbLine
 10
740.5499999999997
 20
185.85
 30
0.0
 11
740.5499999999997
 21
182.2499999999998
 31
0.0
  0
LINE
  5
106D1
330
10553
100
AcDbEntity
  8
1
  6
Continuous
100
AcDbLine
 10
740.5499999999997
 20
159.6499999999998
 30
0.0
 11
740.5499999999997
 21
163.25
 31
0.0
  0
LINE
  5
106D2
330
10553
100
AcDbEntity
  8
1
  6
Continuous
100
AcDbLine
 10
733.85
 20
163.25
 30
0.0
 11
740.5499999999997
 21
163.25
 31
0.0
  0
LINE
  5
106D3
330
10553
100
AcDbEntity
  8
1
  6
Continuous
100
AcDbLine
 10
733.85
 20
185.85
 30
0.0
 11
733.85
 21
182.2499999999998
 31
0.0
  0
LINE
  5
106D4
330
10553
100
AcDbEntity
  8
1
  6
Continuous
100
AcDbLine
 10
733.85
 20
159.6499999999998
 30
0.0
 11
733.85
 21
163.25
 31
0.0
  0
LINE
  5
106D5
330
10553
100
AcDbEntity
  8
1
  6
Continuous
100
AcDbLine
 10
727.85
 20
185.85
 30
0.0
 11
727.85
 21
182.2499999999998
 31
0.0
  0
LINE
  5
106D6
330
10553
100
AcDbEntity
  8
1
  6
Continuous
100
AcDbLine
 10
721.15
 20
185.85
 30
0.0
 11
721.15
 21
182.2499999999998
 31
0.0
  0
LINE
  5
106D7
330
10553
100
AcDbEntity
  8
1
  6
Continuous
100
AcDbLine
 10
721.15
 20
182.2499999999998
 30
0.0
 11
727.85
 21
182.2499999999998
 31
0.0
  0
LINE
  5
106D8
330
10553
100
AcDbEntity
  8
1
  6
Continuous
100
AcDbLine
 10
721.15
 20
163.25
 30
0.0
 11
727.85
 21
163.25
 31
0.0
  0
LINE
  5
106D9
330
10553
100
AcDbEntity
  8
1
  6
Continuous
100
AcDbLine
 10
721.15
 20
159.6499999999998
 30
0.0
 11
721.15
 21
163.25
 31
0.0
  0
LINE
  5
106DA
330
10553
100
AcDbEntity
  8
1
  6
Continuous
100
AcDbLine
 10
727.85
 20
159.6499999999998
 30
0.0
 11
727.85
 21
163.25
 31
0.0
  0
LINE
  5
106DB
330
10553
100
AcDbEntity
  8
1
  6
Continuous
100
AcDbLine
 10
715.1499999999997
 20
185.85
 30
0.0
 11
715.1499999999997
 21
182.2499999999998
 31
0.0
  0
LINE
  5
106DC
330
10553
100
AcDbEntity
  8
1
  6
Continuous
100
AcDbLine
 10
715.1499999999997
 20
159.6499999999998
 30
0.0
 11
715.1499999999997
 21
163.25
 31
0.0
  0
LINE
  5
106DD
330
10553
100
AcDbEntity
  8
1
  6
Continuous
100
AcDbLine
 10
680.2999999999998
 20
161.25
 30
0.0
 11
680.2999999999998
 21
184.25
 31
0.0
  0
LINE
  5
106DE
330
10553
100
AcDbEntity
  8
1
  6
Continuous
100
AcDbLine
 10
678.7000000000001
 20
161.25
 30
0.0
 11
678.7000000000001
 21
184.25
 31
0.0
  0
LINE
  5
106DF
330
10553
100
AcDbEntity
  8
1
  6
Continuous
100
AcDbLine
 10
678.071009
 20
159.9368169999999
 30
0.0
 11
679.946716
 21
157.604976
 31
0.0
  0
ARC
  5
106E0
330
10553
100
AcDbEntity
  8
1
  6
Continuous
100
AcDbCircle
 10
678.7000000000001
 20
156.0114369999998
 30
0.0
 40
1.6
100
AcDbArc
 50
0.0
 51
90.0
  0
ARC
  5
106E1
330
10553
100
AcDbEntity
  8
1
  6
Continuous
100
AcDbCircle
 10
678.7000000000001
 20
156.602131
 30
0.0
 40
1.6
100
AcDbArc
 50
0.0
 51
90.0
  0
LINE
  5
106E2
330
10553
100
AcDbEntity
  8
1
  6
Continuous
100
AcDbLine
 10
680.2999999999998
 20
155.0999999999999
 30
0.0
 11
680.2999999999998
 21
156.602131
 31
0.0
  0
ARC
  5
106E3
330
10553
100
AcDbEntity
  8
1
  6
Continuous
100
AcDbCircle
 10
678.7000000000001
 20
160.4427709999999
 30
0.0
 40
0.8072289999999997
100
AcDbArc
 50
90.0
 51
218.812815
  0
LINE
  5
106E4
330
10553
100
AcDbEntity
  8
1
  6
Continuous
100
AcDbLine
 10
678.7000000000001
 20
161.25
 30
0.0
 11
680.2999999999998
 21
161.25
 31
0.0
  0
LINE
  5
106E5
330
10553
100
AcDbEntity
  8
1
  6
Continuous
100
AcDbLine
 10
680.2999999999998
 20
188.8978689999999
 30
0.0
 11
680.2999999999998
 21
190.4
 31
0.0
  0
LINE
  5
106E6
330
10553
100
AcDbEntity
  8
1
  6
Continuous
100
AcDbLine
 10
678.071009
 20
185.563183
 30
0.0
 11
679.946716
 21
187.8950239999998
 31
0.0
  0
ARC
  5
106E7
330
10553
100
AcDbEntity
  8
1
  6
Continuous
100
AcDbCircle
 10
678.7000000000001
 20
185.057229
 30
0.0
 40
0.8072289999999997
100
AcDbArc
 50
141.1871849999998
 51
270.0
  0
ARC
  5
106E8
330
10553
100
AcDbEntity
  8
1
  6
Continuous
100
AcDbCircle
 10
678.7000000000001
 20
188.8978689999999
 30
0.0
 40
1.6
100
AcDbArc
 50
270.0
 51
0.0
  0
ARC
  5
106E9
330
10553
100
AcDbEntity
  8
1
  6
Continuous
100
AcDbCircle
 10
678.7000000000001
 20
189.488563
 30
0.0
 40
1.6
100
AcDbArc
 50
270.0
 51
0.0
  0
LINE
  5
106EA
330
10553
100
AcDbEntity
  8
1
  6
Continuous
100
AcDbLine
 10
678.7000000000001
 20
184.25
 30
0.0
 11
680.2999999999998
 21
184.25
 31
0.0
  0
LINE
  5
106EB
330
10553
100
AcDbEntity
  8
1
  6
Continuous
100
AcDbLine
 10
679.941492
 20
187.8885629999999
 30
0.0
 11
834.7000000000001
 21
187.8885629999999
 31
0.0
  0
LINE
  5
106EC
330
10553
100
AcDbEntity
  8
1
  6
Continuous
100
AcDbLine
 10
679.4663719999999
 20
187.297869
 30
0.0
 11
834.7000000000001
 21
187.297869
 31
0.0
  0
LINE
  5
106ED
330
10553
100
AcDbEntity
  8
1
  6
Continuous
100
AcDbLine
 10
679.941492
 20
157.611437
 30
0.0
 11
834.7000000000001
 21
157.611437
 31
0.0
  0
LINE
  5
106EE
330
10553
100
AcDbEntity
  8
1
  6
Continuous
100
AcDbLine
 10
679.4663719999999
 20
158.202131
 30
0.0
 11
834.7000000000001
 21
158.202131
 31
0.0
  0
CIRCLE
  5
106EF
330
10553
100
AcDbEntity
  8
1
  6
Continuous
100
AcDbCircle
 10
737.2
 20
172.75
 30
0.0
 40
2.0
  0
CIRCLE
  5
106F0
330
10553
100
AcDbEntity
  8
1
  6
Continuous
100
AcDbCircle
 10
724.5
 20
172.75
 30
0.0
 40
2.0
  0
LINE
  5
106F1
330
10553
100
AcDbEntity
  8
1
  6
Continuous
100
AcDbLine
 10
102.2999999999999
 20
160.4999999999998
 30
0.0
 11
102.2999999999999
 21
185.0
 31
0.0
  0
LINE
  5
106F2
330
10553
100
AcDbEntity
  8
1
  6
Continuous
100
AcDbLine
 10
455.2999999999998
 20
167.25
 30
0.0
 11
455.2999999999998
 21
178.2499999999998
 31
0.0
  0
LINE
  5
106F3
330
10553
100
AcDbEntity
  8
3
  6
DASHED
100
AcDbLine
 10
324.3
 20
160.4999999999998
 30
0.0
 11
324.3
 21
185.0
 31
0.0
  0
LINE
  5
106F4
330
10553
100
AcDbEntity
  8
1
  6
Continuous
100
AcDbLine
 10
324.3
 20
155.0999999999999
 30
0.0
 11
324.3
 21
160.4999999999998
 31
0.0
  0
ARC
  5
106F5
330
10553
100
AcDbEntity
  8
1
  6
Continuous
100
AcDbCircle
 10
325.8999999999999
 20
156.0114369999998
 30
0.0
 40
1.6
100
AcDbArc
 50
90.0
 51
180.0
  0
ARC
  5
106F6
330
10553
100
AcDbEntity
  8
1
  6
Continuous
100
AcDbCircle
 10
325.8999999999999
 20
156.602131
 30
0.0
 40
1.6
100
AcDbArc
 50
90.0
 51
180.0
  0
ARC
  5
106F7
330
10553
100
AcDbEntity
  8
1
  6
Continuous
100
AcDbCircle
 10
325.8999999999999
 20
188.8978689999999
 30
0.0
 40
1.6
100
AcDbArc
 50
180.0
 51
270.0
  0
ARC
  5
106F8
330
10553
100
AcDbEntity
  8
1
  6
Continuous
100
AcDbCircle
 10
325.8999999999999
 20
189.488563
 30
0.0
 40
1.6
100
AcDbArc
 50
180.0
 51
270.0
  0
LINE
  5
106F9
330
10553
100
AcDbEntity
  8
1
  6
Continuous
100
AcDbLine
 10
324.3
 20
185.0
 30
0.0
 11
324.3
 21
190.4
 31
0.0
  0
LINE
  5
106FA
330
10553
100
AcDbEntity
  8
3
  6
DASHED
100
AcDbLine
 10
480.2999999999998
 20
165.25
 30
0.0
 11
480.2999999999998
 21
155.0999999999999
 31
0.0
  0
ARC
  5
106FB
330
10553
100
AcDbEntity
  8
1
  6
Continuous
100
AcDbCircle
 10
118.2
 20
173.15
 30
0.0
 40
2.25
100
AcDbArc
 50
0.0
 51
180.0
  0
ARC
  5
106FC
330
10553
100
AcDbEntity
  8
1
  6
Continuous
100
AcDbCircle
 10
118.2
 20
172.35
 30
0.0
 40
2.25
100
AcDbArc
 50
180.0
 51
0.0
  0
LINE
  5
106FD
330
10553
100
AcDbEntity
  8
1
  6
Continuous
100
AcDbLine
 10
120.45
 20
172.35
 30
0.0
 11
120.45
 21
173.15
 31
0.0
  0
LINE
  5
106FE
330
10553
100
AcDbEntity
  8
4
  6
CENTER
100
AcDbLine
 10
118.2
 20
167.5
 30
0.0
 11
118.2
 21
178.0
 31
0.0
  0
LINE
  5
106FF
330
10553
100
AcDbEntity
  8
1
  6
Continuous
100
AcDbLine
 10
115.9499999999999
 20
172.35
 30
0.0
 11
115.9499999999999
 21
173.15
 31
0.0
  0
LINE
  5
10700
330
10553
100
AcDbEntity
  8
1
  6
Continuous
100
AcDbLine
 10
128.6499999999997
 20
172.35
 30
0.0
 11
128.6499999999997
 21
173.15
 31
0.0
  0
LINE
  5
10701
330
10553
100
AcDbEntity
  8
4
  6
CENTER
100
AcDbLine
 10
130.9
 20
167.5
 30
0.0
 11
130.9
 21
178.0
 31
0.0
  0
LINE
  5
10702
330
10553
100
AcDbEntity
  8
1
  6
Continuous
100
AcDbLine
 10
133.15
 20
172.35
 30
0.0
 11
133.15
 21
173.15
 31
0.0
  0
ARC
  5
10703
330
10553
100
AcDbEntity
  8
1
  6
Continuous
100
AcDbCircle
 10
130.9
 20
172.35
 30
0.0
 40
2.25
100
AcDbArc
 50
180.0
 51
0.0
  0
ARC
  5
10704
330
10553
100
AcDbEntity
  8
1
  6
Continuous
100
AcDbCircle
 10
130.9
 20
173.15
 30
0.0
 40
2.25
100
AcDbArc
 50
0.0
 51
180.0
  0
LINE
  5
10705
330
10553
100
AcDbEntity
  8
1
  6
Continuous
100
AcDbLine
 10
241.5999999999999
 20
175.0
 30
0.0
 11
242.3999999999999
 21
175.0
 31
0.0
  0
LINE
  5
10706
330
10553
100
AcDbEntity
  8
4
  6
CENTER
100
AcDbLine
 10
242.0
 20
167.5
 30
0.0
 11
242.0
 21
178.0
 31
0.0
  0
LINE
  5
10707
330
10553
100
AcDbEntity
  8
1
  6
Continuous
100
AcDbLine
 10
241.5999999999999
 20
170.5
 30
0.0
 11
242.3999999999999
 21
170.5
 31
0.0
  0
ARC
  5
10708
330
10553
100
AcDbEntity
  8
1
  6
Continuous
100
AcDbCircle
 10
241.5999999999999
 20
172.75
 30
0.0
 40
2.25
100
AcDbArc
 50
90.0
 51
270.0
  0
ARC
  5
10709
330
10553
100
AcDbEntity
  8
1
  6
Continuous
100
AcDbCircle
 10
242.3999999999999
 20
172.75
 30
0.0
 40
2.25
100
AcDbArc
 50
270.0
 51
90.0
  0
LINE
  5
1070A
330
10553
100
AcDbEntity
  8
1
  6
Continuous
100
AcDbLine
 10
427.05
 20
172.35
 30
0.0
 11
427.05
 21
173.15
 31
0.0
  0
LINE
  5
1070B
330
10553
100
AcDbEntity
  8
4
  6
CENTER
100
AcDbLine
 10
429.3
 20
167.5
 30
0.0
 11
429.3
 21
178.0
 31
0.0
  0
LINE
  5
1070C
330
10553
100
AcDbEntity
  8
1
  6
Continuous
100
AcDbLine
 10
431.55
 20
172.35
 30
0.0
 11
431.55
 21
173.15
 31
0.0
  0
ARC
  5
1070D
330
10553
100
AcDbEntity
  8
1
  6
Continuous
100
AcDbCircle
 10
429.3
 20
172.35
 30
0.0
 40
2.25
100
AcDbArc
 50
180.0
 51
0.0
  0
ARC
  5
1070E
330
10553
100
AcDbEntity
  8
1
  6
Continuous
100
AcDbCircle
 10
429.3
 20
173.15
 30
0.0
 40
2.25
100
AcDbArc
 50
0.0
 51
180.0
  0
LINE
  5
1070F
330
10553
100
AcDbEntity
  8
1
  6
Continuous
100
AcDbLine
 10
439.7499999999998
 20
172.35
 30
0.0
 11
439.7499999999998
 21
173.15
 31
0.0
  0
LINE
  5
10710
330
10553
100
AcDbEntity
  8
4
  6
CENTER
100
AcDbLine
 10
442.0
 20
167.5
 30
0.0
 11
442.0
 21
178.0
 31
0.0
  0
LINE
  5
10711
330
10553
100
AcDbEntity
  8
1
  6
Continuous
100
AcDbLine
 10
444.2499999999998
 20
172.35
 30
0.0
 11
444.2499999999998
 21
173.15
 31
0.0
  0
ARC
  5
10712
330
10553
100
AcDbEntity
  8
1
  6
Continuous
100
AcDbCircle
 10
442.0
 20
172.35
 30
0.0
 40
2.25
100
AcDbArc
 50
180.0
 51
0.0
  0
ARC
  5
10713
330
10553
100
AcDbEntity
  8
1
  6
Continuous
100
AcDbCircle
 10
442.0
 20
173.15
 30
0.0
 40
2.25
100
AcDbArc
 50
0.0
 51
180.0
  0
LINE
  5
10714
330
10553
100
AcDbEntity
  8
1
  6
Continuous
100
AcDbLine
 10
335.8
 20
186.3499999999999
 30
0.0
 11
343.3
 21
186.3499999999999
 31
0.0
  0
LINE
  5
10715
330
10553
100
AcDbEntity
  8
1
  6
Continuous
100
AcDbLine
 10
335.8
 20
185.85
 30
0.0
 11
343.3
 21
185.85
 31
0.0
  0
ARC
  5
10716
330
10553
100
AcDbEntity
  8
1
  6
Continuous
100
AcDbCircle
 10
339.55
 20
186.4187499999999
 30
0.0
 40
2.38125
100
AcDbArc
 50
358.3455609999999
 51
21.665296
  0
ARC
  5
10717
330
10553
100
AcDbEntity
  8
1
  6
Continuous
100
AcDbCircle
 10
339.55
 20
186.4187499999999
 30
0.0
 40
2.38125
100
AcDbArc
 50
323.430279
 51
346.18161
  0
LINE
  5
10718
330
10553
100
AcDbEntity
  8
1
  6
Continuous
100
AcDbLine
 10
335.8
 20
186.3499999999999
 30
0.0
 11
335.8
 21
185.0
 31
0.0
  0
ARC
  5
10719
330
10553
100
AcDbEntity
  8
1
  6
Continuous
100
AcDbCircle
 10
339.55
 20
186.4187499999999
 30
0.0
 40
2.38125
100
AcDbArc
 50
193.81839
 51
216.5697209999999
  0
ARC
  5
1071A
330
10553
100
AcDbEntity
  8
1
  6
Continuous
100
AcDbCircle
 10
339.55
 20
186.4187499999999
 30
0.0
 40
2.38125
100
AcDbArc
 50
158.3347039999999
 51
181.6544389999999
  0
LINE
  5
1071B
330
10553
100
AcDbEntity
  8
1
  6
Continuous
100
AcDbLine
 10
343.3
 20
186.3499999999999
 30
0.0
 11
343.3
 21
185.0
 31
0.0
  0
ARC
  5
1071C
330
10553
100
AcDbEntity
  8
1
  6
Continuous
100
AcDbCircle
 10
339.55
 20
159.08125
 30
0.0
 40
2.38125
100
AcDbArc
 50
13.81839
 51
36.569721
  0
ARC
  5
1071D
330
10553
100
AcDbEntity
  8
1
  6
Continuous
100
AcDbCircle
 10
339.55
 20
159.08125
 30
0.0
 40
2.38125
100
AcDbArc
 50
338.3347039999998
 51
1.654438999999999
  0
ARC
  5
1071E
330
10553
100
AcDbEntity
  8
1
  6
Continuous
100
AcDbCircle
 10
339.55
 20
159.08125
 30
0.0
 40
2.38125
100
AcDbArc
 50
178.345561
 51
201.6652959999999
  0
ARC
  5
1071F
330
10553
100
AcDbEntity
  8
1
  6
Continuous
100
AcDbCircle
 10
339.55
 20
159.08125
 30
0.0
 40
2.38125
100
AcDbArc
 50
143.430279
 51
166.18161
  0
LINE
  5
10720
330
10553
100
AcDbEntity
  8
1
  6
Continuous
100
AcDbLine
 10
335.8
 20
159.15
 30
0.0
 11
343.3
 21
159.15
 31
0.0
  0
LINE
  5
10721
330
10553
100
AcDbEntity
  8
1
  6
Continuous
100
AcDbLine
 10
335.8
 20
159.6499999999998
 30
0.0
 11
343.3
 21
159.6499999999998
 31
0.0
  0
LINE
  5
10722
330
10553
100
AcDbEntity
  8
1
  6
Continuous
100
AcDbLine
 10
343.3
 20
159.15
 30
0.0
 11
343.3
 21
160.4999999999998
 31
0.0
  0
LINE
  5
10723
330
10553
100
AcDbEntity
  8
1
  6
Continuous
100
AcDbLine
 10
335.8
 20
159.15
 30
0.0
 11
335.8
 21
160.4999999999998
 31
0.0
  0
LINE
  5
10724
330
10553
100
AcDbEntity
  8
1
  6
Continuous
100
AcDbLine
 10
501.7
 20
185.85
 30
0.0
 11
512.2
 21
185.85
 31
0.0
  0
LINE
  5
10725
330
10553
100
AcDbEntity
  8
1
  6
Continuous
100
AcDbLine
 10
501.7
 20
186.3499999999999
 30
0.0
 11
512.2
 21
186.3499999999999
 31
0.0
  0
LINE
  5
10726
330
10553
100
AcDbEntity
  8
1
  6
Continuous
100
AcDbLine
 10
501.7
 20
186.3499999999999
 30
0.0
 11
501.7
 21
185.85
 31
0.0
  0
LINE
  5
10727
330
10553
100
AcDbEntity
  8
1
  6
Continuous
100
AcDbLine
 10
512.2
 20
186.3499999999999
 30
0.0
 11
512.2
 21
185.85
 31
0.0
  0
ARC
  5
10728
330
10553
100
AcDbEntity
  8
1
  6
Continuous
100
AcDbCircle
 10
506.9499999999998
 20
186.4187499999999
 30
0.0
 40
2.38125
100
AcDbArc
 50
193.81839
 51
346.18161
  0
ARC
  5
10729
330
10553
100
AcDbEntity
  8
1
  6
Continuous
100
AcDbCircle
 10
506.9499999999998
 20
186.4187499999999
 30
0.0
 40
2.38125
100
AcDbArc
 50
358.3455609999999
 51
21.665296
  0
ARC
  5
1072A
330
10553
100
AcDbEntity
  8
1
  6
Continuous
100
AcDbCircle
 10
506.9499999999998
 20
186.4187499999999
 30
0.0
 40
2.38125
100
AcDbArc
 50
158.3347039999999
 51
181.6544389999999
  0
LINE
  5
1072B
330
10553
100
AcDbEntity
  8
1
  6
Continuous
100
AcDbLine
 10
501.7
 20
159.6499999999998
 30
0.0
 11
512.2
 21
159.6499999999998
 31
0.0
  0
LINE
  5
1072C
330
10553
100
AcDbEntity
  8
1
  6
Continuous
100
AcDbLine
 10
501.7
 20
159.15
 30
0.0
 11
512.2
 21
159.15
 31
0.0
  0
LINE
  5
1072D
330
10553
100
AcDbEntity
  8
1
  6
Continuous
100
AcDbLine
 10
501.7
 20
159.15
 30
0.0
 11
501.7
 21
159.6499999999998
 31
0.0
  0
LINE
  5
1072E
330
10553
100
AcDbEntity
  8
1
  6
Continuous
100
AcDbLine
 10
512.2
 20
159.15
 30
0.0
 11
512.2
 21
159.6499999999998
 31
0.0
  0
ARC
  5
1072F
330
10553
100
AcDbEntity
  8
1
  6
Continuous
100
AcDbCircle
 10
506.9499999999998
 20
159.08125
 30
0.0
 40
2.38125
100
AcDbArc
 50
338.3347039999998
 51
1.654438999999999
  0
ARC
  5
10730
330
10553
100
AcDbEntity
  8
1
  6
Continuous
100
AcDbCircle
 10
506.9499999999998
 20
159.08125
 30
0.0
 40
2.38125
100
AcDbArc
 50
178.345561
 51
201.6652959999999
  0
LINE
  5
10731
330
10553
100
AcDbEntity
  8
1
  6
Continuous
100
AcDbLine
 10
522.6499999999998
 20
185.85
 30
0.0
 11
522.6499999999998
 21
159.6499999999998
 31
0.0
  0
LINE
  5
10732
330
10553
100
AcDbEntity
  8
1
  6
Continuous
100
AcDbLine
 10
497.25
 20
185.85
 30
0.0
 11
497.25
 21
182.2499999999998
 31
0.0
  0
LINE
  5
10733
330
10553
100
AcDbEntity
  8
1
  6
Continuous
100
AcDbLine
 10
503.95
 20
185.85
 30
0.0
 11
503.95
 21
182.2499999999998
 31
0.0
  0
LINE
  5
10734
330
10553
100
AcDbEntity
  8
1
  6
Continuous
100
AcDbLine
 10
455.27902
 20
178.5
 30
0.0
 11
522.6499999999998
 21
178.5
 31
0.0
  0
LINE
  5
10735
330
10553
100
AcDbEntity
  8
1
  6
Continuous
100
AcDbLine
 10
497.25
 20
182.2499999999998
 30
0.0
 11
503.95
 21
182.2499999999998
 31
0.0
  0
LINE
  5
10736
330
10553
100
AcDbEntity
  8
1
  6
Continuous
100
AcDbLine
 10
455.27902
 20
167.0
 30
0.0
 11
522.6499999999998
 21
167.0
 31
0.0
  0
LINE
  5
10737
330
10553
100
AcDbEntity
  8
1
  6
Continuous
100
AcDbLine
 10
497.25
 20
163.25
 30
0.0
 11
503.95
 21
163.25
 31
0.0
  0
LINE
  5
10738
330
10553
100
AcDbEntity
  8
1
  6
Continuous
100
AcDbLine
 10
503.95
 20
159.6499999999998
 30
0.0
 11
503.95
 21
163.25
 31
0.0
  0
LINE
  5
10739
330
10553
100
AcDbEntity
  8
1
  6
Continuous
100
AcDbLine
 10
497.25
 20
159.6499999999998
 30
0.0
 11
497.25
 21
163.25
 31
0.0
  0
ARC
  5
1073A
330
10553
100
AcDbEntity
  8
1
  6
Continuous
100
AcDbCircle
 10
506.9499999999998
 20
159.08125
 30
0.0
 40
2.38125
100
AcDbArc
 50
13.81839
 51
166.18161
  0
ARC
  5
1073B
330
10553
100
AcDbEntity
  8
1
  6
Continuous
100
AcDbCircle
 10
494.2499999999998
 20
159.08125
 30
0.0
 40
2.38125
100
AcDbArc
 50
13.81839
 51
166.18161
  0
ARC
  5
1073C
330
10553
100
AcDbEntity
  8
1
  6
Continuous
100
AcDbCircle
 10
481.55
 20
159.08125
 30
0.0
 40
2.38125
100
AcDbArc
 50
13.81839
 51
166.18161
  0
ARC
  5
1073D
330
10553
100
AcDbEntity
  8
1
  6
Continuous
100
AcDbCircle
 10
468.85
 20
159.08125
 30
0.0
 40
2.38125
100
AcDbArc
 50
13.81839
 51
166.18161
  0
ARC
  5
1073E
330
10553
100
AcDbEntity
  8
1
  6
Continuous
100
AcDbCircle
 10
456.1499999999998
 20
159.08125
 30
0.0
 40
2.38125
100
AcDbArc
 50
13.81839
 51
110.9133329999999
  0
CIRCLE
  5
1073F
330
10553
100
AcDbEntity
  8
1
  6
Continuous
100
AcDbCircle
 10
487.8999999999998
 20
172.75
 30
0.0
 40
2.0
  0
CIRCLE
  5
10740
330
10553
100
AcDbEntity
  8
1
  6
Continuous
100
AcDbCircle
 10
475.1999999999998
 20
172.75
 30
0.0
 40
2.0
  0
CIRCLE
  5
10741
330
10553
100
AcDbEntity
  8
1
  6
Continuous
100
AcDbCircle
 10
500.6
 20
172.75
 30
0.0
 40
2.0
  0
LINE
  5
10742
330
10553
100
AcDbEntity
  8
1
  6
Continuous
100
AcDbLine
 10
491.25
 20
185.85
 30
0.0
 11
491.25
 21
182.2499999999998
 31
0.0
  0
LINE
  5
10743
330
10553
100
AcDbEntity
  8
1
  6
Continuous
100
AcDbLine
 10
484.55
 20
185.85
 30
0.0
 11
484.55
 21
182.2499999999998
 31
0.0
  0
LINE
  5
10744
330
10553
100
AcDbEntity
  8
1
  6
Continuous
100
AcDbLine
 10
484.55
 20
182.2499999999998
 30
0.0
 11
491.25
 21
182.2499999999998
 31
0.0
  0
LINE
  5
10745
330
10553
100
AcDbEntity
  8
1
  6
Continuous
100
AcDbLine
 10
484.55
 20
159.6499999999998
 30
0.0
 11
484.55
 21
163.25
 31
0.0
  0
LINE
  5
10746
330
10553
100
AcDbEntity
  8
1
  6
Continuous
100
AcDbLine
 10
491.25
 20
159.6499999999998
 30
0.0
 11
491.25
 21
163.25
 31
0.0
  0
LINE
  5
10747
330
10553
100
AcDbEntity
  8
1
  6
Continuous
100
AcDbLine
 10
484.55
 20
163.25
 30
0.0
 11
491.25
 21
163.25
 31
0.0
  0
LINE
  5
10748
330
10553
100
AcDbEntity
  8
1
  6
Continuous
100
AcDbLine
 10
471.85
 20
163.25
 30
0.0
 11
478.5499999999998
 21
163.25
 31
0.0
  0
LINE
  5
10749
330
10553
100
AcDbEntity
  8
1
  6
Continuous
100
AcDbLine
 10
478.5499999999998
 20
159.6499999999998
 30
0.0
 11
478.5499999999998
 21
163.25
 31
0.0
  0
LINE
  5
1074A
330
10553
100
AcDbEntity
  8
1
  6
Continuous
100
AcDbLine
 10
471.85
 20
159.6499999999998
 30
0.0
 11
471.85
 21
163.25
 31
0.0
  0
LINE
  5
1074B
330
10553
100
AcDbEntity
  8
1
  6
Continuous
100
AcDbLine
 10
471.85
 20
185.85
 30
0.0
 11
471.85
 21
182.2499999999998
 31
0.0
  0
LINE
  5
1074C
330
10553
100
AcDbEntity
  8
1
  6
Continuous
100
AcDbLine
 10
478.5499999999998
 20
185.85
 30
0.0
 11
478.5499999999998
 21
182.2499999999998
 31
0.0
  0
LINE
  5
1074D
330
10553
100
AcDbEntity
  8
1
  6
Continuous
100
AcDbLine
 10
471.85
 20
182.2499999999998
 30
0.0
 11
478.5499999999998
 21
182.2499999999998
 31
0.0
  0
LINE
  5
1074E
330
10553
100
AcDbEntity
  8
1
  6
Continuous
100
AcDbLine
 10
465.85
 20
185.85
 30
0.0
 11
465.85
 21
182.2499999999998
 31
0.0
  0
LINE
  5
1074F
330
10553
100
AcDbEntity
  8
1
  6
Continuous
100
AcDbLine
 10
459.1499999999999
 20
185.85
 30
0.0
 11
459.1499999999999
 21
182.2499999999998
 31
0.0
  0
LINE
  5
10750
330
10553
100
AcDbEntity
  8
1
  6
Continuous
100
AcDbLine
 10
459.1499999999999
 20
182.2499999999998
 30
0.0
 11
465.85
 21
182.2499999999998
 31
0.0
  0
LINE
  5
10751
330
10553
100
AcDbEntity
  8
1
  6
Continuous
100
AcDbLine
 10
459.1499999999999
 20
163.25
 30
0.0
 11
465.85
 21
163.25
 31
0.0
  0
LINE
  5
10752
330
10553
100
AcDbEntity
  8
1
  6
Continuous
100
AcDbLine
 10
459.1499999999999
 20
159.6499999999998
 30
0.0
 11
459.1499999999999
 21
163.25
 31
0.0
  0
LINE
  5
10753
330
10553
100
AcDbEntity
  8
1
  6
Continuous
100
AcDbLine
 10
465.85
 20
159.6499999999998
 30
0.0
 11
465.85
 21
163.25
 31
0.0
  0
LINE
  5
10754
330
10553
100
AcDbEntity
  8
1
  6
Continuous
100
AcDbLine
 10
453.15
 20
185.85
 30
0.0
 11
453.15
 21
185.0
 31
0.0
  0
LINE
  5
10755
330
10553
100
AcDbEntity
  8
1
  6
Continuous
100
AcDbLine
 10
357.55
 20
185.85
 30
0.0
 11
357.55
 21
185.0
 31
0.0
  0
LINE
  5
10756
330
10553
100
AcDbEntity
  8
1
  6
Continuous
100
AcDbLine
 10
351.55
 20
185.85
 30
0.0
 11
351.55
 21
185.0
 31
0.0
  0
LINE
  5
10757
330
10553
100
AcDbEntity
  8
1
  6
Continuous
100
AcDbLine
 10
357.55
 20
159.6499999999998
 30
0.0
 11
357.55
 21
160.4999999999998
 31
0.0
  0
LINE
  5
10758
330
10553
100
AcDbEntity
  8
1
  6
Continuous
100
AcDbLine
 10
351.55
 20
159.6499999999998
 30
0.0
 11
351.55
 21
160.4999999999998
 31
0.0
  0
LINE
  5
10759
330
10553
100
AcDbEntity
  8
1
  6
Continuous
100
AcDbLine
 10
298.7999999999999
 20
169.0
 30
0.0
 11
298.7999999999999
 21
176.5
 31
0.0
  0
ARC
  5
1075A
330
10553
100
AcDbEntity
  8
1
  6
Continuous
100
AcDbCircle
 10
301.3
 20
169.0
 30
0.0
 40
2.5
100
AcDbArc
 50
180.0
 51
0.0
  0
ARC
  5
1075B
330
10553
100
AcDbEntity
  8
1
  6
Continuous
100
AcDbCircle
 10
301.3
 20
176.5
 30
0.0
 40
2.5
100
AcDbArc
 50
0.0
 51
180.0
  0
LINE
  5
1075C
330
10553
100
AcDbEntity
  8
1
  6
Continuous
100
AcDbLine
 10
303.8
 20
169.0
 30
0.0
 11
303.8
 21
176.5
 31
0.0
  0
LINE
  5
1075D
330
10553
100
AcDbEntity
  8
1
  6
Continuous
100
AcDbLine
 10
522.6499999999998
 20
176.75
 30
0.0
 11
527.6499999999998
 21
176.75
 31
0.0
  0
LINE
  5
1075E
330
10553
100
AcDbEntity
  8
1
  6
Continuous
100
AcDbLine
 10
522.6499999999998
 20
168.75
 30
0.0
 11
527.6499999999998
 21
168.75
 31
0.0
  0
LINE
  5
1075F
330
10553
100
AcDbEntity
  8
1
  6
Continuous
100
AcDbLine
 10
522.6499999999998
 20
174.75
 30
0.0
 11
527.6499999999998
 21
174.75
 31
0.0
  0
LINE
  5
10760
330
10553
100
AcDbEntity
  8
1
  6
Continuous
100
AcDbLine
 10
522.6499999999998
 20
170.75
 30
0.0
 11
527.6499999999998
 21
170.75
 31
0.0
  0
LINE
  5
10761
330
10553
100
AcDbEntity
  8
1
  6
Continuous
100
AcDbLine
 10
527.6499999999998
 20
176.75
 30
0.0
 11
527.6499999999998
 21
174.9499999999999
 31
0.0
  0
LINE
  5
10762
330
10553
100
AcDbEntity
  8
1
  6
Continuous
100
AcDbLine
 10
525.15
 20
174.9499999999999
 30
0.0
 11
525.15
 21
174.75
 31
0.0
  0
LINE
  5
10763
330
10553
100
AcDbEntity
  8
1
  6
Continuous
100
AcDbLine
 10
525.15
 20
174.9499999999999
 30
0.0
 11
527.6499999999998
 21
174.9499999999999
 31
0.0
  0
LINE
  5
10764
330
10553
100
AcDbEntity
  8
1
  6
Continuous
100
AcDbLine
 10
525.15
 20
170.55
 30
0.0
 11
527.6499999999998
 21
170.55
 31
0.0
  0
LINE
  5
10765
330
10553
100
AcDbEntity
  8
1
  6
Continuous
100
AcDbLine
 10
525.15
 20
170.75
 30
0.0
 11
525.15
 21
170.55
 31
0.0
  0
LINE
  5
10766
330
10553
100
AcDbEntity
  8
1
  6
Continuous
100
AcDbLine
 10
527.6499999999998
 20
170.55
 30
0.0
 11
527.6499999999998
 21
168.75
 31
0.0
  0
LINE
  5
10767
330
10553
100
AcDbEntity
  8
1
  6
Continuous
100
AcDbLine
 10
527.6499999999998
 20
174.75
 30
0.0
 11
527.6499999999998
 21
170.75
 31
0.0
  0
LINE
  5
10768
330
10553
100
AcDbEntity
  8
4
  6
CENTER
100
AcDbLine
 10
653.7999999999998
 20
163.75
 30
0.0
 11
653.7999999999998
 21
181.75
 31
0.0
  0
CIRCLE
  5
10769
330
10553
100
AcDbEntity
  8
1
  6
Continuous
100
AcDbCircle
 10
653.7999999999998
 20
172.75
 30
0.0
 40
6.0
  0
LINE
  5
1076A
330
10553
100
AcDbEntity
  8
1
  6
Continuous
100
AcDbLine
 10
642.5646239999998
 20
179.095575
 30
0.0
 11
653.9999240000001
 21
180.3137309999999
 31
0.0
  0
LINE
  5
1076B
330
10553
100
AcDbEntity
  8
1
  6
Continuous
100
AcDbLine
 10
650.563991
 20
165.365676
 30
0.0
 11
655.5358599999997
 21
165.8953089999999
 31
0.0
  0
LINE
  5
1076C
330
10553
100
AcDbEntity
  8
1
  6
Continuous
100
AcDbLine
 10
641.599192
 20
169.277458
 30
0.0
 11
640.787729
 21
176.894974
 31
0.0
  0
LINE
  5
1076D
330
10553
100
AcDbEntity
  8
1
  6
Continuous
100
AcDbLine
 10
676.544157
 20
171.65304
 30
0.0
 11
675.474389
 21
181.6953649999999
 31
0.0
  0
LINE
  5
1076E
330
10553
100
AcDbEntity
  8
1
  6
Continuous
100
AcDbLine
 10
672.281328
 20
169.187623
 30
0.0
 11
674.7672619999997
 21
169.4524389999999
 31
0.0
  0
LINE
  5
1076F
330
10553
100
AcDbEntity
  8
1
  6
Continuous
100
AcDbLine
 10
643.026621
 20
167.5696969999999
 30
0.0
 11
650.563991
 21
165.365676
 31
0.0
  0
ARC
  5
10770
330
10553
100
AcDbEntity
  8
1
  6
Continuous
100
AcDbCircle
 10
643.58794
 20
169.489312
 30
0.0
 40
2.0
100
AcDbArc
 50
186.080556
 51
253.700421
  0
LINE
  5
10771
330
10553
100
AcDbEntity
  8
1
  6
Continuous
100
AcDbLine
 10
675.3
 20
164.1
 30
0.0
 11
675.3
 21
169.5849589999999
 31
0.0
  0
LINE
  5
10772
330
10553
100
AcDbEntity
  8
1
  6
Continuous
100
AcDbLine
 10
660.2999999999998
 20
164.1
 30
0.0
 11
660.2999999999998
 21
167.459404
 31
0.0
  0
LINE
  5
10773
330
10553
100
AcDbEntity
  8
1
  6
Continuous
100
AcDbLine
 10
661.2999999999998
 20
163.1
 30
0.0
 11
674.2999999999998
 21
163.1
 31
0.0
  0
ARC
  5
10774
330
10553
100
AcDbEntity
  8
1
  6
Continuous
100
AcDbCircle
 10
674.2999999999998
 20
164.1
 30
0.0
 40
1.0
100
AcDbArc
 50
270.0
 51
0.0
  0
ARC
  5
10775
330
10553
100
AcDbEntity
  8
1
  6
Continuous
100
AcDbCircle
 10
661.2999999999998
 20
164.1
 30
0.0
 40
1.0
100
AcDbArc
 50
180.0
 51
270.0
  0
LINE
  5
10776
330
10553
100
AcDbEntity
  8
1
  6
Continuous
100
AcDbLine
 10
662.337588
 20
168.1283559999999
 30
0.0
 11
655.5358599999997
 21
165.8953089999999
 31
0.0
  0
LINE
  5
10777
330
10553
100
AcDbEntity
  8
1
  6
Continuous
100
AcDbLine
 10
662.337588
 20
168.1283559999999
 30
0.0
 11
662.761295
 21
164.1508609999999
 31
0.0
  0
LINE
  5
10778
330
10553
100
AcDbEntity
  8
1
  6
Continuous
100
AcDbLine
 10
672.281328
 20
169.187623
 30
0.0
 11
672.7050339999998
 21
165.2101269999998
 31
0.0
  0
ARC
  5
10779
330
10553
100
AcDbEntity
  8
1
  6
Continuous
100
AcDbCircle
 10
674.5554089999999
 20
171.441187
 30
0.0
 40
2.0
100
AcDbArc
 50
276.080556
 51
6.080555999999999
  0
LINE
  5
1077A
330
10553
100
AcDbEntity
  8
1
  6
Continuous
100
AcDbLine
 10
653.9999240000001
 20
180.3137309999999
 30
0.0
 11
658.2952
 21
177.754316
 31
0.0
  0
LINE
  5
1077B
330
10553
100
AcDbEntity
  8
1
  6
Continuous
100
AcDbLine
 10
658.2952
 20
177.754316
 30
0.0
 11
661.2783219999998
 21
178.072096
 31
0.0
  0
LINE
  5
1077C
330
10553
100
AcDbEntity
  8
1
  6
Continuous
100
AcDbLine
 10
661.0808259999997
 20
179.926062
 30
0.0
 11
661.2783219999998
 21
178.072096
 31
0.0
  0
LINE
  5
1077D
330
10553
100
AcDbEntity
  8
1
  6
Continuous
100
AcDbLine
 10
662.761295
 20
164.1508609999999
 30
0.0
 11
672.7050339999998
 21
165.2101269999998
 31
0.0
  0
LINE
  5
1077E
330
10553
100
AcDbEntity
  8
1
  6
Continuous
100
AcDbLine
 10
670.936059
 20
181.8161719999999
 30
0.0
 11
661.2783219999998
 21
178.072096
 31
0.0
  0
ARC
  5
1077F
330
10553
100
AcDbEntity
  8
1
  6
Continuous
100
AcDbCircle
 10
642.776477
 20
177.106827
 30
0.0
 40
2.0
100
AcDbArc
 50
96.080556
 51
186.080556
  0
LINE
  5
10780
330
10553
100
AcDbEntity
  8
1
  6
Continuous
100
AcDbLine
 10
670.936059
 20
181.8161719999999
 30
0.0
 11
675.6967440000002
 21
179.608032
 31
0.0
  0
ARC
  5
10781
330
10553
100
AcDbEntity
  8
1
  6
Continuous
100
AcDbCircle
 10
670.936059
 20
181.8161719999999
 30
0.0
 40
1.8
100
AcDbArc
 50
65.1168
 51
111.190132
  0
LINE
  5
10782
330
10553
100
AcDbEntity
  8
1
  6
Continuous
100
AcDbLine
 10
670.285424
 20
183.4944669999999
 30
0.0
 11
661.0808259999997
 21
179.926062
 31
0.0
  0
LINE
  5
10783
330
10553
100
AcDbEntity
  8
1
  6
Continuous
100
AcDbLine
 10
671.693445
 20
183.4490729999999
 30
0.0
 11
675.474389
 21
181.6953649999999
 31
0.0
  0
LINE
  5
10784
330
10553
100
AcDbEntity
  8
1
  6
Continuous
100
AcDbLine
 10
301.3
 20
176.547908
 30
0.0
 11
301.3
 21
168.9520919999999
 31
0.0
  0
LINE
  5
10785
330
10553
100
AcDbEntity
  8
1
  6
Continuous
100
AcDbLine
 10
301.960356
 20
177.4884619999999
 30
0.0
 11
303.3162469999999
 21
177.9780889999999
 31
0.0
  0
ARC
  5
10786
330
10553
100
AcDbEntity
  8
1
  6
Continuous
100
AcDbCircle
 10
302.3
 20
176.547908
 30
0.0
 40
1.0
100
AcDbArc
 50
109.855214
 51
180.0
  0
ARC
  5
10787
330
10553
100
AcDbEntity
  8
1
  6
Continuous
100
AcDbCircle
 10
302.3
 20
168.9520919999999
 30
0.0
 40
1.0
100
AcDbArc
 50
180.0
 51
250.144786
  0
LINE
  5
10788
330
10553
100
AcDbEntity
  8
1
  6
Continuous
100
AcDbLine
 10
301.960356
 20
168.011538
 30
0.0
 11
303.3162469999999
 21
167.521911
 31
0.0
  0
LINE
  5
10789
330
10553
100
AcDbEntity
  8
1
  6
Continuous
100
AcDbLine
 10
324.3
 20
399.5
 30
0.0
 11
836.2999999999997
 21
399.5
 31
0.0
  0
LINE
  5
1078A
330
10553
100
AcDbEntity
  8
1
  6
Continuous
100
AcDbLine
 10
324.3
 20
434.7999999999998
 30
0.0
 11
836.2999999999997
 21
434.7999999999998
 31
0.0
  0
LINE
  5
1078B
330
10553
100
AcDbEntity
  8
4
  6
CENTER
100
AcDbLine
 10
97.5
 20
417.1499999999999
 30
0.0
 11
841.2999999999996
 21
417.1499999999999
 31
0.0
  0
LINE
  5
1078C
330
10553
100
AcDbEntity
  8
1
  6
Continuous
100
AcDbLine
 10
102.2999999999999
 20
404.8999999999998
 30
0.0
 11
324.3
 21
404.8999999999998
 31
0.0
  0
LINE
  5
1078D
330
10553
100
AcDbEntity
  8
1
  6
Continuous
100
AcDbLine
 10
102.2999999999999
 20
429.3999999999998
 30
0.0
 11
324.3
 21
429.3999999999998
 31
0.0
  0
LINE
  5
1078E
330
10553
100
AcDbEntity
  8
1
  6
Continuous
100
AcDbLine
 10
102.2999999999999
 20
404.8999999999998
 30
0.0
 11
102.2999999999999
 21
429.3999999999998
 31
0.0
  0
LINE
  5
1078F
330
10553
100
AcDbEntity
  8
1
  6
Continuous
100
AcDbLine
 10
115.9499999999999
 20
416.75
 30
0.0
 11
115.9499999999999
 21
417.55
 31
0.0
  0
LINE
  5
10790
330
10553
100
AcDbEntity
  8
4
  6
CENTER
100
AcDbLine
 10
118.2
 20
411.8999999999998
 30
0.0
 11
118.2
 21
422.4
 31
0.0
  0
LINE
  5
10791
330
10553
100
AcDbEntity
  8
1
  6
Continuous
100
AcDbLine
 10
120.45
 20
416.75
 30
0.0
 11
120.45
 21
417.55
 31
0.0
  0
ARC
  5
10792
330
10553
100
AcDbEntity
  8
1
  6
Continuous
100
AcDbCircle
 10
118.2
 20
416.75
 30
0.0
 40
2.25
100
AcDbArc
 50
180.0
 51
0.0
  0
ARC
  5
10793
330
10553
100
AcDbEntity
  8
1
  6
Continuous
100
AcDbCircle
 10
118.2
 20
417.55
 30
0.0
 40
2.25
100
AcDbArc
 50
0.0
 51
180.0
  0
ARC
  5
10794
330
10553
100
AcDbEntity
  8
1
  6
Continuous
100
AcDbCircle
 10
130.9
 20
417.55
 30
0.0
 40
2.25
100
AcDbArc
 50
0.0
 51
180.0
  0
ARC
  5
10795
330
10553
100
AcDbEntity
  8
1
  6
Continuous
100
AcDbCircle
 10
130.9
 20
416.75
 30
0.0
 40
2.25
100
AcDbArc
 50
180.0
 51
0.0
  0
LINE
  5
10796
330
10553
100
AcDbEntity
  8
1
  6
Continuous
100
AcDbLine
 10
133.15
 20
416.75
 30
0.0
 11
133.15
 21
417.55
 31
0.0
  0
LINE
  5
10797
330
10553
100
AcDbEntity
  8
4
  6
CENTER
100
AcDbLine
 10
130.9
 20
411.8999999999998
 30
0.0
 11
130.9
 21
422.4
 31
0.0
  0
LINE
  5
10798
330
10553
100
AcDbEntity
  8
1
  6
Continuous
100
AcDbLine
 10
128.6499999999997
 20
416.75
 30
0.0
 11
128.6499999999997
 21
417.55
 31
0.0
  0
ARC
  5
10799
330
10553
100
AcDbEntity
  8
1
  6
Continuous
100
AcDbCircle
 10
242.3999999999999
 20
417.1499999999999
 30
0.0
 40
2.25
100
AcDbArc
 50
270.0
 51
90.0
  0
ARC
  5
1079A
330
10553
100
AcDbEntity
  8
1
  6
Continuous
100
AcDbCircle
 10
241.5999999999999
 20
417.1499999999999
 30
0.0
 40
2.25
100
AcDbArc
 50
90.0
 51
270.0
  0
LINE
  5
1079B
330
10553
100
AcDbEntity
  8
1
  6
Continuous
100
AcDbLine
 10
241.5999999999999
 20
414.9
 30
0.0
 11
242.3999999999999
 21
414.9
 31
0.0
  0
LINE
  5
1079C
330
10553
100
AcDbEntity
  8
4
  6
CENTER
100
AcDbLine
 10
242.0
 20
411.8999999999998
 30
0.0
 11
242.0
 21
422.4
 31
0.0
  0
LINE
  5
1079D
330
10553
100
AcDbEntity
  8
1
  6
Continuous
100
AcDbLine
 10
241.5999999999999
 20
419.3999999999999
 30
0.0
 11
242.3999999999999
 21
419.3999999999999
 31
0.0
  0
LINE
  5
1079E
330
10553
100
AcDbEntity
  8
1
  6
Continuous
100
AcDbLine
 10
480.2999999999998
 20
424.65
 30
0.0
 11
480.2999999999998
 21
434.7999999999998
 31
0.0
  0
LINE
  5
1079F
330
10553
100
AcDbEntity
  8
1
  6
Continuous
100
AcDbLine
 10
324.3
 20
399.5
 30
0.0
 11
324.3
 21
434.7999999999998
 31
0.0
  0
LINE
  5
107A0
330
10553
100
AcDbEntity
  8
1
  6
Continuous
100
AcDbLine
 10
301.960356
 20
412.411538
 30
0.0
 11
310.3
 21
409.3999999999998
 31
0.0
  0
LINE
  5
107A1
330
10553
100
AcDbEntity
  8
1
  6
Continuous
100
AcDbLine
 10
301.960356
 20
421.8884619999998
 30
0.0
 11
310.3
 21
424.8999999999998
 31
0.0
  0
LINE
  5
107A2
330
10553
100
AcDbEntity
  8
1
  6
Continuous
100
AcDbLine
 10
301.3
 20
420.9479079999998
 30
0.0
 11
301.3
 21
413.3520919999998
 31
0.0
  0
ARC
  5
107A3
330
10553
100
AcDbEntity
  8
1
  6
Continuous
100
AcDbCircle
 10
302.3
 20
413.3520919999998
 30
0.0
 40
1.0
100
AcDbArc
 50
180.0
 51
250.144786
  0
ARC
  5
107A4
330
10553
100
AcDbEntity
  8
1
  6
Continuous
100
AcDbCircle
 10
302.3
 20
420.9479079999998
 30
0.0
 40
1.0
100
AcDbArc
 50
109.855214
 51
180.0
  0
ARC
  5
107A5
330
10553
100
AcDbEntity
  8
1
  6
Continuous
100
AcDbCircle
 10
301.3
 20
420.8999999999998
 30
0.0
 40
2.5
100
AcDbArc
 50
36.244746
 51
180.0
  0
ARC
  5
107A6
330
10553
100
AcDbEntity
  8
1
  6
Continuous
100
AcDbCircle
 10
301.3
 20
413.3999999999998
 30
0.0
 40
2.5
100
AcDbArc
 50
180.0
 51
323.7552539999999
  0
LINE
  5
107A7
330
10553
100
AcDbEntity
  8
1
  6
Continuous
100
AcDbLine
 10
298.7999999999999
 20
413.3999999999998
 30
0.0
 11
298.7999999999999
 21
420.8999999999998
 31
0.0
  0
ARC
  5
107A8
330
10553
100
AcDbEntity
  8
1
  6
Continuous
100
AcDbCircle
 10
508.8999999999998
 20
417.55
 30
0.0
 40
2.25
100
AcDbArc
 50
0.0
 51
180.0
  0
ARC
  5
107A9
330
10553
100
AcDbEntity
  8
1
  6
Continuous
100
AcDbCircle
 10
508.8999999999998
 20
416.75
 30
0.0
 40
2.25
100
AcDbArc
 50
180.0
 51
0.0
  0
LINE
  5
107AA
330
10553
100
AcDbEntity
  8
1
  6
Continuous
100
AcDbLine
 10
511.1499999999998
 20
416.75
 30
0.0
 11
511.1499999999998
 21
417.55
 31
0.0
  0
LINE
  5
107AB
330
10553
100
AcDbEntity
  8
4
  6
CENTER
100
AcDbLine
 10
429.3
 20
411.8999999999998
 30
0.0
 11
429.3
 21
422.4
 31
0.0
  0
LINE
  5
107AC
330
10553
100
AcDbEntity
  8
1
  6
Continuous
100
AcDbLine
 10
506.6499999999998
 20
416.75
 30
0.0
 11
506.6499999999998
 21
417.55
 31
0.0
  0
ARC
  5
107AD
330
10553
100
AcDbEntity
  8
1
  6
Continuous
100
AcDbCircle
 10
496.1999999999998
 20
417.55
 30
0.0
 40
2.25
100
AcDbArc
 50
0.0
 51
180.0
  0
ARC
  5
107AE
330
10553
100
AcDbEntity
  8
1
  6
Continuous
100
AcDbCircle
 10
496.1999999999998
 20
416.75
 30
0.0
 40
2.25
100
AcDbArc
 50
180.0
 51
0.0
  0
LINE
  5
107AF
330
10553
100
AcDbEntity
  8
1
  6
Continuous
100
AcDbLine
 10
498.4499999999998
 20
416.75
 30
0.0
 11
498.4499999999998
 21
417.55
 31
0.0
  0
LINE
  5
107B0
330
10553
100
AcDbEntity
  8
4
  6
CENTER
100
AcDbLine
 10
442.0
 20
411.8999999999998
 30
0.0
 11
442.0
 21
422.4
 31
0.0
  0
LINE
  5
107B1
330
10553
100
AcDbEntity
  8
1
  6
Continuous
100
AcDbLine
 10
493.9499999999998
 20
416.75
 30
0.0
 11
493.9499999999998
 21
417.55
 31
0.0
  0
LINE
  5
107B2
330
10553
100
AcDbEntity
  8
1
  6
Continuous
100
AcDbLine
 10
480.2999999999998
 20
409.6499999999998
 30
0.0
 11
480.2999999999998
 21
399.5
 31
0.0
  0
LINE
  5
107B3
330
10553
100
AcDbEntity
  8
1
  6
Continuous
100
AcDbLine
 10
482.8
 20
409.6499999999998
 30
0.0
 11
480.2999999999998
 21
409.6499999999998
 31
0.0
  0
LINE
  5
107B4
330
10553
100
AcDbEntity
  8
1
  6
Continuous
100
AcDbLine
 10
482.8
 20
409.6499999999998
 30
0.0
 11
482.8
 21
424.65
 31
0.0
  0
LINE
  5
107B5
330
10553
100
AcDbEntity
  8
1
  6
Continuous
100
AcDbLine
 10
482.8
 20
424.65
 30
0.0
 11
480.2999999999998
 21
424.65
 31
0.0
  0
LINE
  5
107B6
330
10553
100
AcDbEntity
  8
4
  6
CENTER
100
AcDbLine
 10
496.1999999999998
 20
422.4
 30
0.0
 11
496.1999999999998
 21
411.8999999999998
 31
0.0
  0
LINE
  5
107B7
330
10553
100
AcDbEntity
  8
4
  6
CENTER
100
AcDbLine
 10
508.8999999999998
 20
422.4
 30
0.0
 11
508.8999999999998
 21
411.8999999999998
 31
0.0
  0
LINE
  5
107B8
330
10553
100
AcDbEntity
  8
4
  6
CENTER
100
AcDbLine
 10
521.6
 20
422.4
 30
0.0
 11
521.6
 21
411.8999999999998
 31
0.0
  0
LINE
  5
107B9
330
10553
100
AcDbEntity
  8
3
  6
DASHED
100
AcDbLine
 10
680.2999999999998
 20
405.6499999999998
 30
0.0
 11
680.2999999999998
 21
428.65
 31
0.0
  0
LINE
  5
107BA
330
10553
100
AcDbEntity
  8
1
  6
Continuous
100
AcDbLine
 10
836.2999999999997
 20
405.6499999999998
 30
0.0
 11
836.2999999999997
 21
428.65
 31
0.0
  0
LINE
  5
107BB
330
10553
100
AcDbEntity
  8
4
  6
CENTER
100
AcDbLine
 10
607.2999999999998
 20
422.4
 30
0.0
 11
607.2999999999998
 21
411.8999999999998
 31
0.0
  0
LINE
  5
107BC
330
10553
100
AcDbEntity
  8
4
  6
CENTER
100
AcDbLine
 10
653.7999999999998
 20
408.15
 30
0.0
 11
653.7999999999998
 21
426.1499999999998
 31
0.0
  0
LINE
  5
107BD
330
10553
100
AcDbEntity
  8
3
  6
DASHED
100
AcDbLine
 10
678.071009
 20
404.3368169999998
 30
0.0
 11
679.946716
 21
402.004976
 31
0.0
  0
LINE
  5
107BE
330
10553
100
AcDbEntity
  8
3
  6
DASHED
100
AcDbLine
 10
680.2999999999998
 20
399.5
 30
0.0
 11
680.2999999999998
 21
401.0021309999998
 31
0.0
  0
ARC
  5
107BF
330
10553
100
AcDbEntity
  8
3
  6
DASHED
100
AcDbCircle
 10
678.7000000000001
 20
401.0021309999998
 30
0.0
 40
1.6
100
AcDbArc
 50
0.0
 51
38.812815
  0
LINE
  5
107C0
330
10553
100
AcDbEntity
  8
3
  6
DASHED
100
AcDbLine
 10
678.7000000000001
 20
405.6499999999998
 30
0.0
 11
680.2999999999998
 21
405.6499999999998
 31
0.0
  0
ARC
  5
107C1
330
10553
100
AcDbEntity
  8
3
  6
DASHED
100
AcDbCircle
 10
678.7000000000001
 20
404.8427709999998
 30
0.0
 40
0.8072289999999997
100
AcDbArc
 50
90.0
 51
218.812815
  0
ARC
  5
107C2
330
10553
100
AcDbEntity
  8
1
  6
Continuous
100
AcDbCircle
 10
807.2999999999996
 20
417.55
 30
0.0
 40
2.25
100
AcDbArc
 50
0.0
 51
180.0
  0
ARC
  5
107C3
330
10553
100
AcDbEntity
  8
1
  6
Continuous
100
AcDbCircle
 10
807.2999999999996
 20
416.75
 30
0.0
 40
2.25
100
AcDbArc
 50
180.0
 51
0.0
  0
LINE
  5
107C4
330
10553
100
AcDbEntity
  8
1
  6
Continuous
100
AcDbLine
 10
805.0499999999997
 20
417.55
 30
0.0
 11
805.0499999999997
 21
416.75
 31
0.0
  0
LINE
  5
107C5
330
10553
100
AcDbEntity
  8
4
  6
CENTER
100
AcDbLine
 10
807.2999999999996
 20
422.4
 30
0.0
 11
807.2999999999996
 21
411.8999999999998
 31
0.0
  0
LINE
  5
107C6
330
10553
100
AcDbEntity
  8
1
  6
Continuous
100
AcDbLine
 10
809.5499999999997
 20
417.55
 30
0.0
 11
809.5499999999997
 21
416.75
 31
0.0
  0
ARC
  5
107C7
330
10553
100
AcDbEntity
  8
1
  6
Continuous
100
AcDbCircle
 10
820.0
 20
417.55
 30
0.0
 40
2.25
100
AcDbArc
 50
0.0
 51
180.0
  0
ARC
  5
107C8
330
10553
100
AcDbEntity
  8
1
  6
Continuous
100
AcDbCircle
 10
820.0
 20
416.75
 30
0.0
 40
2.25
100
AcDbArc
 50
180.0
 51
0.0
  0
LINE
  5
107C9
330
10553
100
AcDbEntity
  8
4
  6
CENTER
100
AcDbLine
 10
820.0
 20
422.4
 30
0.0
 11
820.0
 21
411.8999999999998
 31
0.0
  0
LINE
  5
107CA
330
10553
100
AcDbEntity
  8
1
  6
Continuous
100
AcDbLine
 10
822.25
 20
417.55
 30
0.0
 11
822.25
 21
416.75
 31
0.0
  0
LINE
  5
107CB
330
10553
100
AcDbEntity
  8
1
  6
Continuous
100
AcDbLine
 10
817.75
 20
417.55
 30
0.0
 11
817.75
 21
416.75
 31
0.0
  0
LINE
  5
107CC
330
10553
100
AcDbEntity
  8
1
  6
Continuous
100
AcDbLine
 10
834.0710089999998
 20
404.3368169999998
 30
0.0
 11
835.9467160000001
 21
402.004976
 31
0.0
  0
ARC
  5
107CD
330
10553
100
AcDbEntity
  8
1
  6
Continuous
100
AcDbCircle
 10
834.7000000000001
 20
401.0021309999998
 30
0.0
 40
1.6
100
AcDbArc
 50
0.0
 51
38.812815
  0
LINE
  5
107CE
330
10553
100
AcDbEntity
  8
1
  6
Continuous
100
AcDbLine
 10
836.2999999999997
 20
399.5
 30
0.0
 11
836.2999999999997
 21
401.0021309999998
 31
0.0
  0
ARC
  5
107CF
330
10553
100
AcDbEntity
  8
1
  6
Continuous
100
AcDbCircle
 10
834.7000000000001
 20
404.8427709999998
 30
0.0
 40
0.8072289999999997
100
AcDbArc
 50
90.0
 51
218.812815
  0
LINE
  5
107D0
330
10553
100
AcDbEntity
  8
1
  6
Continuous
100
AcDbLine
 10
834.7000000000001
 20
405.6499999999998
 30
0.0
 11
836.2999999999997
 21
405.6499999999998
 31
0.0
  0
LINE
  5
107D1
330
10553
100
AcDbEntity
  8
3
  6
DASHED
100
AcDbLine
 10
678.7000000000001
 20
428.65
 30
0.0
 11
680.2999999999998
 21
428.65
 31
0.0
  0
ARC
  5
107D2
330
10553
100
AcDbEntity
  8
3
  6
DASHED
100
AcDbCircle
 10
678.7000000000001
 20
433.297869
 30
0.0
 40
1.6
100
AcDbArc
 50
321.187185
 51
0.0
  0
ARC
  5
107D3
330
10553
100
AcDbEntity
  8
3
  6
DASHED
100
AcDbCircle
 10
678.7000000000001
 20
429.4572289999998
 30
0.0
 40
0.8072289999999997
100
AcDbArc
 50
141.1871849999998
 51
270.0
  0
LINE
  5
107D4
330
10553
100
AcDbEntity
  8
3
  6
DASHED
100
AcDbLine
 10
678.071009
 20
429.963183
 30
0.0
 11
679.946716
 21
432.2950239999998
 31
0.0
  0
LINE
  5
107D5
330
10553
100
AcDbEntity
  8
3
  6
DASHED
100
AcDbLine
 10
680.2999999999998
 20
433.297869
 30
0.0
 11
680.2999999999998
 21
434.7999999999998
 31
0.0
  0
LINE
  5
107D6
330
10553
100
AcDbEntity
  8
1
  6
Continuous
100
AcDbLine
 10
836.2999999999997
 20
433.297869
 30
0.0
 11
836.2999999999997
 21
434.7999999999998
 31
0.0
  0
LINE
  5
107D7
330
10553
100
AcDbEntity
  8
1
  6
Continuous
100
AcDbLine
 10
834.0710089999998
 20
429.963183
 30
0.0
 11
835.9467160000001
 21
432.2950239999998
 31
0.0
  0
ARC
  5
107D8
330
10553
100
AcDbEntity
  8
1
  6
Continuous
100
AcDbCircle
 10
834.7000000000001
 20
429.4572289999998
 30
0.0
 40
0.8072289999999997
100
AcDbArc
 50
141.1871849999998
 51
270.0
  0
ARC
  5
107D9
330
10553
100
AcDbEntity
  8
1
  6
Continuous
100
AcDbCircle
 10
834.7000000000001
 20
433.297869
 30
0.0
 40
1.6
100
AcDbArc
 50
321.187185
 51
0.0
  0
LINE
  5
107DA
330
10553
100
AcDbEntity
  8
1
  6
Continuous
100
AcDbLine
 10
834.7000000000001
 20
428.65
 30
0.0
 11
836.2999999999997
 21
428.65
 31
0.0
  0
LINE
  5
107DB
330
10553
100
AcDbEntity
  8
3
  6
DASHED
100
AcDbLine
 10
324.3
 20
429.3999999999998
 30
0.0
 11
455.2999999999998
 21
429.3999999999998
 31
0.0
  0
LINE
  5
107DC
330
10553
100
AcDbEntity
  8
3
  6
DASHED
100
AcDbLine
 10
324.3
 20
404.8999999999998
 30
0.0
 11
455.2999999999998
 21
404.8999999999998
 31
0.0
  0
ARC
  5
107DD
330
10553
100
AcDbEntity
  8
1
  6
Continuous
100
AcDbCircle
 10
522.0
 20
417.1499999999999
 30
0.0
 40
2.25
100
AcDbArc
 50
270.0
 51
90.0
  0
ARC
  5
107DE
330
10553
100
AcDbEntity
  8
1
  6
Continuous
100
AcDbCircle
 10
521.2
 20
417.1499999999999
 30
0.0
 40
2.25
100
AcDbArc
 50
90.0
 51
270.0
  0
LINE
  5
107DF
330
10553
100
AcDbEntity
  8
1
  6
Continuous
100
AcDbLine
 10
522.0
 20
414.9
 30
0.0
 11
521.2
 21
414.9
 31
0.0
  0
LINE
  5
107E0
330
10553
100
AcDbEntity
  8
1
  6
Continuous
100
AcDbLine
 10
522.0
 20
419.3999999999999
 30
0.0
 11
521.2
 21
419.3999999999999
 31
0.0
  0
LINE
  5
107E1
330
10553
100
AcDbEntity
  8
1
  6
Continuous
100
AcDbLine
 10
607.7000000000001
 20
419.3999999999999
 30
0.0
 11
606.8999999999999
 21
419.3999999999999
 31
0.0
  0
LINE
  5
107E2
330
10553
100
AcDbEntity
  8
1
  6
Continuous
100
AcDbLine
 10
607.7000000000001
 20
414.9
 30
0.0
 11
606.8999999999999
 21
414.9
 31
0.0
  0
ARC
  5
107E3
330
10553
100
AcDbEntity
  8
1
  6
Continuous
100
AcDbCircle
 10
606.8999999999999
 20
417.1499999999999
 30
0.0
 40
2.25
100
AcDbArc
 50
90.0
 51
270.0
  0
ARC
  5
107E4
330
10553
100
AcDbEntity
  8
1
  6
Continuous
100
AcDbCircle
 10
607.7000000000001
 20
417.1499999999999
 30
0.0
 40
2.25
100
AcDbArc
 50
270.0
 51
90.0
  0
LINE
  5
107E5
330
10553
100
AcDbEntity
  8
1
  6
Continuous
100
AcDbLine
 10
310.3
 20
424.8999999999998
 30
0.0
 11
324.3
 21
424.8999999999998
 31
0.0
  0
LINE
  5
107E6
330
10553
100
AcDbEntity
  8
1
  6
Continuous
100
AcDbLine
 10
310.3
 20
409.3999999999998
 30
0.0
 11
324.3
 21
409.3999999999998
 31
0.0
  0
LINE
  5
107E7
330
10553
100
AcDbEntity
  8
1
  6
Continuous
100
AcDbLine
 10
305.3
 20
421.947908
 30
0.0
 11
305.3
 21
412.3520919999998
 31
0.0
  0
LINE
  5
107E8
330
10553
100
AcDbEntity
  8
1
  6
Continuous
100
AcDbLine
 10
320.3
 20
413.1499999999999
 30
0.0
 11
320.3
 21
421.15
 31
0.0
  0
LINE
  5
107E9
330
10553
100
AcDbEntity
  8
1
  6
Continuous
100
AcDbLine
 10
314.3
 20
421.15
 30
0.0
 11
324.3
 21
421.15
 31
0.0
  0
LINE
  5
107EA
330
10553
100
AcDbEntity
  8
1
  6
Continuous
100
AcDbLine
 10
314.3
 20
413.1499999999999
 30
0.0
 11
324.3
 21
413.1499999999999
 31
0.0
  0
LINE
  5
107EB
330
10553
100
AcDbEntity
  8
1
  6
Continuous
100
AcDbLine
 10
102.2999999999999
 20
427.2375
 30
0.0
 11
324.3
 21
427.2375
 31
0.0
  0
LINE
  5
107EC
330
10553
100
AcDbEntity
  8
1
  6
Continuous
100
AcDbLine
 10
102.2999999999999
 20
407.0624999999997
 30
0.0
 11
324.3
 21
407.0624999999997
 31
0.0
  0
LINE
  5
107ED
330
10553
100
AcDbEntity
  8
3
  6
DASHED
100
AcDbLine
 10
324.3
 20
427.2375
 30
0.0
 11
455.2999999999998
 21
427.2375
 31
0.0
  0
LINE
  5
107EE
330
10553
100
AcDbEntity
  8
3
  6
DASHED
100
AcDbLine
 10
324.3
 20
407.0624999999997
 30
0.0
 11
455.2999999999998
 21
407.0624999999997
 31
0.0
  0
LINE
  5
107EF
330
10553
100
AcDbEntity
  8
1
  6
Continuous
100
AcDbLine
 10
481.3
 20
409.6499999999998
 30
0.0
 11
481.3
 21
424.65
 31
0.0
  0
CIRCLE
  5
107F0
330
10553
100
AcDbEntity
  8
1
  6
Continuous
100
AcDbCircle
 10
452.3
 20
417.1499999999999
 30
0.0
 40
2.0
  0
LINE
  5
107F1
330
10553
100
AcDbEntity
  8
4
  6
CENTER
100
AcDbLine
 10
452.3
 20
427.187536
 30
0.0
 11
452.3
 21
407.7685309999997
 31
0.0
  0
CIRCLE
  5
107F2
330
10553
100
AcDbEntity
  8
1
  6
Continuous
100
AcDbCircle
 10
366.3
 20
417.1499999999999
 30
0.0
 40
6.25
  0
LINE
  5
107F3
330
10553
100
AcDbEntity
  8
4
  6
CENTER
100
AcDbLine
 10
366.3
 20
427.187536
 30
0.0
 11
366.3
 21
407.7685309999997
 31
0.0
  0
LINE
  5
107F4
330
10553
100
AcDbEntity
  8
4
  6
CENTER
100
AcDbLine
 10
500.6
 20
177.75
 30
0.0
 11
500.6
 21
167.75
 31
0.0
  0
LINE
  5
107F5
330
10553
100
AcDbEntity
  8
4
  6
CENTER
100
AcDbLine
 10
487.8999999999998
 20
177.75
 30
0.0
 11
487.8999999999998
 21
167.75
 31
0.0
  0
LINE
  5
107F6
330
10553
100
AcDbEntity
  8
4
  6
CENTER
100
AcDbLine
 10
475.1999999999998
 20
177.75
 30
0.0
 11
475.1999999999998
 21
167.75
 31
0.0
  0
LINE
  5
107F7
330
10553
100
AcDbEntity
  8
4
  6
CENTER
100
AcDbLine
 10
737.2
 20
177.75
 30
0.0
 11
737.2
 21
167.75
 31
0.0
  0
LINE
  5
107F8
330
10553
100
AcDbEntity
  8
4
  6
CENTER
100
AcDbLine
 10
724.5
 20
177.75
 30
0.0
 11
724.5
 21
167.75
 31
0.0
  0
LINE
  5
107F9
330
10553
100
AcDbEntity
  8
1
  6
Continuous
100
AcDbLine
 10
450.05
 20
179.75
 30
0.0
 11
453.8
 21
179.75
 31
0.0
  0
LINE
  5
107FA
330
10553
100
AcDbEntity
  8
1
  6
Continuous
100
AcDbLine
 10
450.05
 20
181.25
 30
0.0
 11
452.3
 21
181.25
 31
0.0
  0
LINE
  5
107FB
330
10553
100
AcDbEntity
  8
1
  6
Continuous
100
AcDbLine
 10
455.2999999999998
 20
182.8375
 30
0.0
 11
455.2999999999998
 21
185.0
 31
0.0
  0
ARC
  5
107FC
330
10553
100
AcDbEntity
  8
1
  6
Continuous
100
AcDbCircle
 10
453.8
 20
178.2499999999998
 30
0.0
 40
1.5
100
AcDbArc
 50
0.0
 51
90.0
  0
ARC
  5
107FD
330
10553
100
AcDbEntity
  8
1
  6
Continuous
100
AcDbCircle
 10
450.05
 20
180.4999999999998
 30
0.0
 40
0.75
100
AcDbArc
 50
90.0
 51
270.0
  0
LINE
  5
107FE
330
10553
100
AcDbEntity
  8
1
  6
Continuous
100
AcDbLine
 10
453.3
 20
182.2499999999998
 30
0.0
 11
453.3
 21
185.0
 31
0.0
  0
LINE
  5
107FF
330
10553
100
AcDbEntity
  8
1
  6
Continuous
100
AcDbLine
 10
453.3
 20
163.25
 30
0.0
 11
453.3
 21
160.4999999999998
 31
0.0
  0
LINE
  5
10800
330
10553
100
AcDbEntity
  8
1
  6
Continuous
100
AcDbLine
 10
450.05
 20
164.25
 30
0.0
 11
452.3
 21
164.25
 31
0.0
  0
ARC
  5
10801
330
10553
100
AcDbEntity
  8
1
  6
Continuous
100
AcDbCircle
 10
450.05
 20
165.0
 30
0.0
 40
0.75
100
AcDbArc
 50
90.0
 51
270.0
  0
LINE
  5
10802
330
10553
100
AcDbEntity
  8
1
  6
Continuous
100
AcDbLine
 10
450.05
 20
165.7499999999998
 30
0.0
 11
453.8
 21
165.7499999999998
 31
0.0
  0
ARC
  5
10803
330
10553
100
AcDbEntity
  8
1
  6
Continuous
100
AcDbCircle
 10
453.8
 20
167.25
 30
0.0
 40
1.5
100
AcDbArc
 50
270.0
 51
0.0
  0
LINE
  5
10804
330
10553
100
AcDbEntity
  8
1
  6
Continuous
100
AcDbLine
 10
455.2999999999998
 20
162.6624999999999
 30
0.0
 11
455.2999999999998
 21
160.4999999999998
 31
0.0
  0
ARC
  5
10805
330
10553
100
AcDbEntity
  8
1
  6
Continuous
100
AcDbCircle
 10
452.3
 20
182.2499999999998
 30
0.0
 40
1.0
100
AcDbArc
 50
270.0
 51
0.0
  0
ARC
  5
10806
330
10553
100
AcDbEntity
  8
1
  6
Continuous
100
AcDbCircle
 10
452.3
 20
163.25
 30
0.0
 40
1.0
100
AcDbArc
 50
0.0
 51
90.0
  0
LINE
  5
10807
330
10553
100
AcDbEntity
  8
3
  6
DASHED
100
AcDbLine
 10
455.2999999999998
 20
427.2375
 30
0.0
 11
455.2999999999998
 21
429.3999999999998
 31
0.0
  0
LINE
  5
10808
330
10553
100
AcDbEntity
  8
3
  6
DASHED
100
AcDbLine
 10
453.3
 20
426.6499999999998
 30
0.0
 11
453.3
 21
427.2375
 31
0.0
  0
ARC
  5
10809
330
10553
100
AcDbEntity
  8
3
  6
DASHED
100
AcDbCircle
 10
452.3
 20
426.6499999999998
 30
0.0
 40
1.0
100
AcDbArc
 50
270.0
 51
0.0
  0
LINE
  5
1080A
330
10553
100
AcDbEntity
  8
3
  6
DASHED
100
AcDbLine
 10
450.05
 20
425.6499999999999
 30
0.0
 11
452.3
 21
425.6499999999999
 31
0.0
  0
ARC
  5
1080B
330
10553
100
AcDbEntity
  8
3
  6
DASHED
100
AcDbCircle
 10
450.05
 20
424.8999999999998
 30
0.0
 40
0.75
100
AcDbArc
 50
90.0
 51
270.0
  0
LINE
  5
1080C
330
10553
100
AcDbEntity
  8
3
  6
DASHED
100
AcDbLine
 10
450.05
 20
424.15
 30
0.0
 11
453.8
 21
424.15
 31
0.0
  0
ARC
  5
1080D
330
10553
100
AcDbEntity
  8
3
  6
DASHED
100
AcDbCircle
 10
453.8
 20
422.6499999999998
 30
0.0
 40
1.5
100
AcDbArc
 50
0.0
 51
90.0
  0
LINE
  5
1080E
330
10553
100
AcDbEntity
  8
3
  6
DASHED
100
AcDbLine
 10
455.2999999999998
 20
411.65
 30
0.0
 11
455.2999999999998
 21
422.6499999999998
 31
0.0
  0
ARC
  5
1080F
330
10553
100
AcDbEntity
  8
3
  6
DASHED
100
AcDbCircle
 10
453.8
 20
411.65
 30
0.0
 40
1.5
100
AcDbArc
 50
270.0
 51
0.0
  0
LINE
  5
10810
330
10553
100
AcDbEntity
  8
3
  6
DASHED
100
AcDbLine
 10
450.05
 20
410.1499999999998
 30
0.0
 11
453.8
 21
410.1499999999998
 31
0.0
  0
LINE
  5
10811
330
10553
100
AcDbEntity
  8
3
  6
DASHED
100
AcDbLine
 10
450.05
 20
408.65
 30
0.0
 11
452.3
 21
408.65
 31
0.0
  0
ARC
  5
10812
330
10553
100
AcDbEntity
  8
3
  6
DASHED
100
AcDbCircle
 10
450.05
 20
409.3999999999998
 30
0.0
 40
0.75
100
AcDbArc
 50
90.0
 51
270.0
  0
ARC
  5
10813
330
10553
100
AcDbEntity
  8
3
  6
DASHED
100
AcDbCircle
 10
452.3
 20
407.65
 30
0.0
 40
1.0
100
AcDbArc
 50
0.0
 51
90.0
  0
LINE
  5
10814
330
10553
100
AcDbEntity
  8
3
  6
DASHED
100
AcDbLine
 10
453.3
 20
407.65
 30
0.0
 11
453.3
 21
407.0624999999997
 31
0.0
  0
LINE
  5
10815
330
10553
100
AcDbEntity
  8
3
  6
DASHED
100
AcDbLine
 10
455.2999999999998
 20
407.0624999999997
 30
0.0
 11
455.2999999999998
 21
404.8999999999998
 31
0.0
  0
LINE
  5
10816
330
10553
100
AcDbEntity
  8
1
  6
Continuous
100
AcDbLine
 10
453.3
 20
182.8375
 30
0.0
 11
455.2999999999998
 21
182.8375
 31
0.0
  0
LINE
  5
10817
330
10553
100
AcDbEntity
  8
1
  6
Continuous
100
AcDbLine
 10
453.3
 20
162.6624999999999
 30
0.0
 11
455.2999999999998
 21
162.6624999999999
 31
0.0
  0
LINE
  5
10818
330
10553
100
AcDbEntity
  8
3
  6
DASHED
100
AcDbLine
 10
481.3
 20
44.0
 30
0.0
 11
678.7000000000001
 21
44.0
 31
0.0
  0
LINE
  5
10819
330
10553
100
AcDbEntity
  8
1
  6
Continuous
100
AcDbLine
 10
480.2999999999998
 20
49.7
 30
0.0
 11
836.2999999999997
 21
49.7
 31
0.0
  0
LINE
  5
1081A
330
10553
100
AcDbEntity
  8
1
  6
Continuous
100
AcDbLine
 10
481.3
 20
50.5
 30
0.0
 11
678.7000000000001
 21
50.5
 31
0.0
  0
LINE
  5
1081B
330
10553
100
AcDbEntity
  8
1
  6
Continuous
100
AcDbLine
 10
324.3
 20
50.6
 30
0.0
 11
680.2999999999998
 21
50.6
 31
0.0
  0
LINE
  5
1081C
330
10553
100
AcDbEntity
  8
1
  6
Continuous
100
AcDbLine
 10
324.3
 20
59.29999999999999
 30
0.0
 11
680.2999999999998
 21
59.29999999999999
 31
0.0
  0
LINE
  5
1081D
330
10553
100
AcDbEntity
  8
1
  6
Continuous
100
AcDbLine
 10
480.2999999999998
 20
41.0
 30
0.0
 11
836.2999999999997
 21
41.0
 31
0.0
  0
LINE
  5
1081E
330
10553
100
AcDbEntity
  8
1
  6
Continuous
100
AcDbLine
 10
102.2999999999999
 20
60.1
 30
0.0
 11
455.2999999999998
 21
60.1
 31
0.0
  0
LINE
  5
1081F
330
10553
100
AcDbEntity
  8
1
  6
Continuous
100
AcDbLine
 10
102.2999999999999
 20
53.6
 30
0.0
 11
324.3
 21
53.6
 31
0.0
  0
LINE
  5
10820
330
10553
100
AcDbEntity
  8
1
  6
Continuous
100
AcDbLine
 10
102.2999999999999
 20
53.6
 30
0.0
 11
102.2999999999999
 21
60.1
 31
0.0
  0
LINE
  5
10821
330
10553
100
AcDbEntity
  8
4
  6
CENTER
100
AcDbLine
 10
118.2
 20
66.22528800000001
 30
0.0
 11
118.2
 21
55.725288
 31
0.0
  0
LINE
  5
10822
330
10553
100
AcDbEntity
  8
4
  6
CENTER
100
AcDbLine
 10
130.9
 20
66.22528800000001
 30
0.0
 11
130.9
 21
55.725288
 31
0.0
  0
LINE
  5
10823
330
10553
100
AcDbEntity
  8
4
  6
CENTER
100
AcDbLine
 10
242.0
 20
66.22528800000001
 30
0.0
 11
242.0
 21
55.725288
 31
0.0
  0
LINE
  5
10824
330
10553
100
AcDbEntity
  8
3
  6
DASHED
100
AcDbLine
 10
324.3
 20
53.6
 30
0.0
 11
455.2999999999998
 21
53.6
 31
0.0
  0
LINE
  5
10825
330
10553
100
AcDbEntity
  8
1
  6
Continuous
100
AcDbLine
 10
324.3
 20
50.6
 30
0.0
 11
324.3
 21
59.29999999999999
 31
0.0
  0
LINE
  5
10826
330
10553
100
AcDbEntity
  8
1
  6
Continuous
100
AcDbLine
 10
301.3
 20
52.6
 30
0.0
 11
305.3
 21
50.1
 31
0.0
  0
LINE
  5
10827
330
10553
100
AcDbEntity
  8
1
  6
Continuous
100
AcDbLine
 10
305.3
 20
50.1
 30
0.0
 11
324.3
 21
52.2
 31
0.0
  0
LINE
  5
10828
330
10553
100
AcDbEntity
  8
1
  6
Continuous
100
AcDbLine
 10
305.488337
 20
50.925688
 30
0.0
 11
324.3
 21
53.004872
 31
0.0
  0
LINE
  5
10829
330
10553
100
AcDbEntity
  8
1
  6
Continuous
100
AcDbLine
 10
301.7239990000001
 20
53.278399
 30
0.0
 11
305.488337
 21
50.925688
 31
0.0
  0
LINE
  5
1082A
330
10553
100
AcDbEntity
  8
1
  6
Continuous
100
AcDbLine
 10
301.3
 20
52.6
 30
0.0
 11
301.7239990000001
 21
53.278399
 31
0.0
  0
LINE
  5
1082B
330
10553
100
AcDbEntity
  8
4
  6
CENTER
100
AcDbLine
 10
429.3
 20
66.22528800000001
 30
0.0
 11
429.3
 21
55.725288
 31
0.0
  0
LINE
  5
1082C
330
10553
100
AcDbEntity
  8
4
  6
CENTER
100
AcDbLine
 10
442.0
 20
66.22528800000001
 30
0.0
 11
442.0
 21
55.725288
 31
0.0
  0
LINE
  5
1082D
330
10553
100
AcDbEntity
  8
3
  6
DASHED
100
AcDbLine
 10
455.2999999999998
 20
59.29999999999999
 30
0.0
 11
455.2999999999998
 21
53.6
 31
0.0
  0
LINE
  5
1082E
330
10553
100
AcDbEntity
  8
1
  6
Continuous
100
AcDbLine
 10
455.2999999999998
 20
60.1
 30
0.0
 11
455.2999999999998
 21
59.29999999999999
 31
0.0
  0
LINE
  5
1082F
330
10553
100
AcDbEntity
  8
3
  6
DASHED
100
AcDbLine
 10
481.3
 20
49.7
 30
0.0
 11
481.3
 21
44.0
 31
0.0
  0
LINE
  5
10830
330
10553
100
AcDbEntity
  8
1
  6
Continuous
100
AcDbLine
 10
481.3
 20
50.5
 30
0.0
 11
481.3
 21
49.7
 31
0.0
  0
LINE
  5
10831
330
10553
100
AcDbEntity
  8
1
  6
Continuous
100
AcDbLine
 10
480.2999999999998
 20
49.7
 30
0.0
 11
480.2999999999998
 21
41.0
 31
0.0
  0
LINE
  5
10832
330
10553
100
AcDbEntity
  8
4
  6
CENTER
100
AcDbLine
 10
508.8999999999998
 20
36.504411
 30
0.0
 11
508.8999999999998
 21
47.00441099999999
 31
0.0
  0
LINE
  5
10833
330
10553
100
AcDbEntity
  8
4
  6
CENTER
100
AcDbLine
 10
496.1999999999998
 20
36.504411
 30
0.0
 11
496.1999999999998
 21
47.00441099999999
 31
0.0
  0
LINE
  5
10834
330
10553
100
AcDbEntity
  8
4
  6
CENTER
100
AcDbLine
 10
521.6
 20
36.504411
 30
0.0
 11
521.6
 21
47.00441099999999
 31
0.0
  0
LINE
  5
10835
330
10553
100
AcDbEntity
  8
4
  6
CENTER
100
AcDbLine
 10
653.7999999999998
 20
56.58743900000001
 30
0.0
 11
653.7999999999998
 21
45.05084599999999
 31
0.0
  0
LINE
  5
10836
330
10553
100
AcDbEntity
  8
4
  6
CENTER
100
AcDbLine
 10
607.2999999999998
 20
36.504411
 30
0.0
 11
607.2999999999998
 21
47.00441099999999
 31
0.0
  0
LINE
  5
10837
330
10553
100
AcDbEntity
  8
1
  6
Continuous
100
AcDbLine
 10
680.2999999999998
 20
50.6
 30
0.0
 11
680.2999999999998
 21
59.29999999999999
 31
0.0
  0
LINE
  5
10838
330
10553
100
AcDbEntity
  8
1
  6
Continuous
100
AcDbLine
 10
678.7000000000001
 20
50.5
 30
0.0
 11
678.7000000000001
 21
49.7
 31
0.0
  0
LINE
  5
10839
330
10553
100
AcDbEntity
  8
3
  6
DASHED
100
AcDbLine
 10
678.7000000000001
 20
44.0
 30
0.0
 11
678.7000000000001
 21
49.7
 31
0.0
  0
LINE
  5
1083A
330
10553
100
AcDbEntity
  8
4
  6
CENTER
100
AcDbLine
 10
820.0
 20
36.504411
 30
0.0
 11
820.0
 21
47.00441099999999
 31
0.0
  0
LINE
  5
1083B
330
10553
100
AcDbEntity
  8
4
  6
CENTER
100
AcDbLine
 10
807.2999999999996
 20
36.504411
 30
0.0
 11
807.2999999999996
 21
47.00441099999999
 31
0.0
  0
LINE
  5
1083C
330
10553
100
AcDbEntity
  8
1
  6
Continuous
100
AcDbLine
 10
836.2999999999997
 20
49.7
 30
0.0
 11
836.2999999999997
 21
41.0
 31
0.0
  0
CIRCLE
  5
1083D
330
10553
100
AcDbEntity
  8
1
  6
Continuous
100
AcDbCircle
 10
686.3999999999997
 20
172.75
 30
0.0
 40
2.0
  0
LINE
  5
1083E
330
10553
100
AcDbEntity
  8
1
  6
Continuous
100
AcDbLine
 10
683.0499999999998
 20
182.2499999999998
 30
0.0
 11
689.7499999999999
 21
182.2499999999998
 31
0.0
  0
LINE
  5
1083F
330
10553
100
AcDbEntity
  8
1
  6
Continuous
100
AcDbLine
 10
683.0499999999998
 20
163.25
 30
0.0
 11
689.7499999999999
 21
163.25
 31
0.0
  0
LINE
  5
10840
330
10553
100
AcDbEntity
  8
4
  6
CENTER
100
AcDbLine
 10
686.3999999999997
 20
177.75
 30
0.0
 11
686.3999999999997
 21
167.75
 31
0.0
  0
LINE
  5
10841
330
10553
100
AcDbEntity
  8
1
  6
Continuous
100
AcDbLine
 10
685.2999999999998
 20
159.15
 30
0.0
 11
685.2999999999998
 21
159.6499999999998
 31
0.0
  0
ARC
  5
10842
330
10553
100
AcDbEntity
  8
1
  6
Continuous
100
AcDbCircle
 10
680.0499999999998
 20
159.08125
 30
0.0
 40
2.38125
100
AcDbArc
 50
338.3347039999998
 51
1.654438999999999
  0
ARC
  5
10843
330
10553
100
AcDbEntity
  8
1
  6
Continuous
100
AcDbCircle
 10
680.0499999999998
 20
159.08125
 30
0.0
 40
2.38125
100
AcDbArc
 50
13.81839
 51
83.97358999999999
  0
LINE
  5
10844
330
10553
100
AcDbEntity
  8
1
  6
Continuous
100
AcDbLine
 10
683.0499999999998
 20
159.6499999999998
 30
0.0
 11
683.0499999999998
 21
163.25
 31
0.0
  0
LINE
  5
10845
330
10553
100
AcDbEntity
  8
1
  6
Continuous
100
AcDbLine
 10
678.7039160000001
 20
159.15
 30
0.0
 11
685.2999999999998
 21
159.15
 31
0.0
  0
LINE
  5
10846
330
10553
100
AcDbEntity
  8
1
  6
Continuous
100
AcDbLine
 10
678.3017219999997
 20
159.6499999999998
 30
0.0
 11
685.2999999999998
 21
159.6499999999998
 31
0.0
  0
LINE
  5
10847
330
10553
100
AcDbEntity
  8
1
  6
Continuous
100
AcDbLine
 10
685.2999999999998
 20
186.3499999999999
 30
0.0
 11
685.2999999999998
 21
185.85
 31
0.0
  0
ARC
  5
10848
330
10553
100
AcDbEntity
  8
1
  6
Continuous
100
AcDbCircle
 10
680.0499999999998
 20
186.4187499999999
 30
0.0
 40
2.38125
100
AcDbArc
 50
207.45797
 51
245.6107499999998
  0
ARC
  5
10849
330
10553
100
AcDbEntity
  8
1
  6
Continuous
100
AcDbCircle
 10
680.0499999999998
 20
186.4187499999999
 30
0.0
 40
2.38125
100
AcDbArc
 50
358.3455609999999
 51
21.665296
  0
LINE
  5
1084A
330
10553
100
AcDbEntity
  8
1
  6
Continuous
100
AcDbLine
 10
683.0499999999998
 20
185.85
 30
0.0
 11
683.0499999999998
 21
182.2499999999998
 31
0.0
  0
LINE
  5
1084B
330
10553
100
AcDbEntity
  8
1
  6
Continuous
100
AcDbLine
 10
678.3017219999997
 20
185.85
 30
0.0
 11
685.2999999999998
 21
185.85
 31
0.0
  0
LINE
  5
1084C
330
10553
100
AcDbEntity
  8
1
  6
Continuous
100
AcDbLine
 10
678.7039160000001
 20
186.3499999999999
 30
0.0
 11
685.2999999999998
 21
186.3499999999999
 31
0.0
  0
LINE
  5
1084D
330
10553
100
AcDbEntity
  8
4
  6
CENTER
100
AcDbLine
 10
699.1
 20
177.75
 30
0.0
 11
699.1
 21
167.75
 31
0.0
  0
ARC
  5
1084E
330
10553
100
AcDbEntity
  8
1
  6
Continuous
100
AcDbCircle
 10
705.4500000000001
 20
159.08125
 30
0.0
 40
2.38125
100
AcDbArc
 50
13.81839
 51
166.18161
  0
LINE
  5
1084F
330
10553
100
AcDbEntity
  8
1
  6
Continuous
100
AcDbLine
 10
700.2000000000001
 20
159.6499999999998
 30
0.0
 11
710.7000000000001
 21
159.6499999999998
 31
0.0
  0
LINE
  5
10850
330
10553
100
AcDbEntity
  8
1
  6
Continuous
100
AcDbLine
 10
700.2000000000001
 20
159.15
 30
0.0
 11
710.7000000000001
 21
159.15
 31
0.0
  0
ARC
  5
10851
330
10553
100
AcDbEntity
  8
1
  6
Continuous
100
AcDbCircle
 10
705.4500000000001
 20
159.08125
 30
0.0
 40
2.38125
100
AcDbArc
 50
178.345561
 51
201.6652959999999
  0
LINE
  5
10852
330
10553
100
AcDbEntity
  8
1
  6
Continuous
100
AcDbLine
 10
702.4500000000001
 20
159.6499999999998
 30
0.0
 11
702.4500000000001
 21
163.25
 31
0.0
  0
ARC
  5
10853
330
10553
100
AcDbEntity
  8
1
  6
Continuous
100
AcDbCircle
 10
692.75
 20
159.08125
 30
0.0
 40
2.38125
100
AcDbArc
 50
178.345561
 51
201.6652959999999
  0
ARC
  5
10854
330
10553
100
AcDbEntity
  8
1
  6
Continuous
100
AcDbCircle
 10
692.75
 20
159.08125
 30
0.0
 40
2.38125
100
AcDbArc
 50
338.3347039999998
 51
1.654438999999999
  0
ARC
  5
10855
330
10553
100
AcDbEntity
  8
1
  6
Continuous
100
AcDbCircle
 10
692.75
 20
159.08125
 30
0.0
 40
2.38125
100
AcDbArc
 50
13.81839
 51
166.18161
  0
LINE
  5
10856
330
10553
100
AcDbEntity
  8
1
  6
Continuous
100
AcDbLine
 10
698.0
 20
159.15
 30
0.0
 11
698.0
 21
159.6499999999998
 31
0.0
  0
LINE
  5
10857
330
10553
100
AcDbEntity
  8
1
  6
Continuous
100
AcDbLine
 10
700.2000000000001
 20
159.15
 30
0.0
 11
700.2000000000001
 21
159.6499999999998
 31
0.0
  0
LINE
  5
10858
330
10553
100
AcDbEntity
  8
1
  6
Continuous
100
AcDbLine
 10
687.5
 20
159.15
 30
0.0
 11
687.5
 21
159.6499999999998
 31
0.0
  0
LINE
  5
10859
330
10553
100
AcDbEntity
  8
1
  6
Continuous
100
AcDbLine
 10
687.5
 20
159.15
 30
0.0
 11
698.0
 21
159.15
 31
0.0
  0
LINE
  5
1085A
330
10553
100
AcDbEntity
  8
1
  6
Continuous
100
AcDbLine
 10
687.5
 20
159.6499999999998
 30
0.0
 11
698.0
 21
159.6499999999998
 31
0.0
  0
LINE
  5
1085B
330
10553
100
AcDbEntity
  8
1
  6
Continuous
100
AcDbLine
 10
695.75
 20
159.6499999999998
 30
0.0
 11
695.75
 21
163.25
 31
0.0
  0
LINE
  5
1085C
330
10553
100
AcDbEntity
  8
1
  6
Continuous
100
AcDbLine
 10
689.7499999999999
 20
159.6499999999998
 30
0.0
 11
689.7499999999999
 21
163.25
 31
0.0
  0
LINE
  5
1085D
330
10553
100
AcDbEntity
  8
1
  6
Continuous
100
AcDbLine
 10
695.75
 20
163.25
 30
0.0
 11
702.4500000000001
 21
163.25
 31
0.0
  0
ARC
  5
1085E
330
10553
100
AcDbEntity
  8
1
  6
Continuous
100
AcDbCircle
 10
705.4500000000001
 20
159.08125
 30
0.0
 40
2.38125
100
AcDbArc
 50
338.3347039999998
 51
1.654438999999999
  0
LINE
  5
1085F
330
10553
100
AcDbEntity
  8
1
  6
Continuous
100
AcDbLine
 10
710.7000000000001
 20
159.15
 30
0.0
 11
710.7000000000001
 21
159.6499999999998
 31
0.0
  0
ARC
  5
10860
330
10553
100
AcDbEntity
  8
1
  6
Continuous
100
AcDbCircle
 10
705.4500000000001
 20
186.4187499999999
 30
0.0
 40
2.38125
100
AcDbArc
 50
193.81839
 51
346.18161
  0
LINE
  5
10861
330
10553
100
AcDbEntity
  8
1
  6
Continuous
100
AcDbLine
 10
700.2000000000001
 20
186.3499999999999
 30
0.0
 11
710.7000000000001
 21
186.3499999999999
 31
0.0
  0
LINE
  5
10862
330
10553
100
AcDbEntity
  8
1
  6
Continuous
100
AcDbLine
 10
700.2000000000001
 20
185.85
 30
0.0
 11
710.7000000000001
 21
185.85
 31
0.0
  0
ARC
  5
10863
330
10553
100
AcDbEntity
  8
1
  6
Continuous
100
AcDbCircle
 10
705.4500000000001
 20
186.4187499999999
 30
0.0
 40
2.38125
100
AcDbArc
 50
158.3347039999999
 51
181.6544389999999
  0
LINE
  5
10864
330
10553
100
AcDbEntity
  8
1
  6
Continuous
100
AcDbLine
 10
702.4500000000001
 20
185.85
 30
0.0
 11
702.4500000000001
 21
182.2499999999998
 31
0.0
  0
LINE
  5
10865
330
10553
100
AcDbEntity
  8
1
  6
Continuous
100
AcDbLine
 10
687.5
 20
185.85
 30
0.0
 11
698.0
 21
185.85
 31
0.0
  0
LINE
  5
10866
330
10553
100
AcDbEntity
  8
1
  6
Continuous
100
AcDbLine
 10
687.5
 20
186.3499999999999
 30
0.0
 11
698.0
 21
186.3499999999999
 31
0.0
  0
LINE
  5
10867
330
10553
100
AcDbEntity
  8
1
  6
Continuous
100
AcDbLine
 10
687.5
 20
186.3499999999999
 30
0.0
 11
687.5
 21
185.85
 31
0.0
  0
LINE
  5
10868
330
10553
100
AcDbEntity
  8
1
  6
Continuous
100
AcDbLine
 10
700.2000000000001
 20
186.3499999999999
 30
0.0
 11
700.2000000000001
 21
185.85
 31
0.0
  0
LINE
  5
10869
330
10553
100
AcDbEntity
  8
1
  6
Continuous
100
AcDbLine
 10
698.0
 20
186.3499999999999
 30
0.0
 11
698.0
 21
185.85
 31
0.0
  0
ARC
  5
1086A
330
10553
100
AcDbEntity
  8
1
  6
Continuous
100
AcDbCircle
 10
692.75
 20
186.4187499999999
 30
0.0
 40
2.38125
100
AcDbArc
 50
193.81839
 51
346.18161
  0
ARC
  5
1086B
330
10553
100
AcDbEntity
  8
1
  6
Continuous
100
AcDbCircle
 10
692.75
 20
186.4187499999999
 30
0.0
 40
2.38125
100
AcDbArc
 50
358.3455609999999
 51
21.665296
  0
ARC
  5
1086C
330
10553
100
AcDbEntity
  8
1
  6
Continuous
100
AcDbCircle
 10
692.75
 20
186.4187499999999
 30
0.0
 40
2.38125
100
AcDbArc
 50
158.3347039999999
 51
181.6544389999999
  0
LINE
  5
1086D
330
10553
100
AcDbEntity
  8
1
  6
Continuous
100
AcDbLine
 10
695.75
 20
185.85
 30
0.0
 11
695.75
 21
182.2499999999998
 31
0.0
  0
LINE
  5
1086E
330
10553
100
AcDbEntity
  8
1
  6
Continuous
100
AcDbLine
 10
689.7499999999999
 20
185.85
 30
0.0
 11
689.7499999999999
 21
182.2499999999998
 31
0.0
  0
CIRCLE
  5
1086F
330
10553
100
AcDbEntity
  8
1
  6
Continuous
100
AcDbCircle
 10
699.1
 20
172.75
 30
0.0
 40
2.0
  0
LINE
  5
10870
330
10553
100
AcDbEntity
  8
1
  6
Continuous
100
AcDbLine
 10
695.75
 20
182.2499999999998
 30
0.0
 11
702.4500000000001
 21
182.2499999999998
 31
0.0
  0
LINE
  5
10871
330
10553
100
AcDbEntity
  8
1
  6
Continuous
100
AcDbLine
 10
710.7000000000001
 20
186.3499999999999
 30
0.0
 11
710.7000000000001
 21
185.85
 31
0.0
  0
ARC
  5
10872
330
10553
100
AcDbEntity
  8
1
  6
Continuous
100
AcDbCircle
 10
705.4500000000001
 20
186.4187499999999
 30
0.0
 40
2.38125
100
AcDbArc
 50
358.3455609999999
 51
21.665296
  0
LINE
  5
10873
330
10553
100
AcDbEntity
  8
1
  6
Continuous
100
AcDbLine
 10
708.4500000000002
 20
182.2499999999998
 30
0.0
 11
715.1499999999997
 21
182.2499999999998
 31
0.0
  0
LINE
  5
10874
330
10553
100
AcDbEntity
  8
1
  6
Continuous
100
AcDbLine
 10
708.4500000000002
 20
185.85
 30
0.0
 11
708.4500000000002
 21
182.2499999999998
 31
0.0
  0
LINE
  5
10875
330
10553
100
AcDbEntity
  8
1
  6
Continuous
100
AcDbLine
 10
708.4500000000002
 20
163.25
 30
0.0
 11
715.1499999999997
 21
163.25
 31
0.0
  0
LINE
  5
10876
330
10553
100
AcDbEntity
  8
1
  6
Continuous
100
AcDbLine
 10
708.4500000000002
 20
159.6499999999998
 30
0.0
 11
708.4500000000002
 21
163.25
 31
0.0
  0
LINE
  5
10877
330
10553
100
AcDbEntity
  8
4
  6
CENTER
100
AcDbLine
 10
711.7999999999998
 20
177.75
 30
0.0
 11
711.7999999999998
 21
167.75
 31
0.0
  0
CIRCLE
  5
10878
330
10553
100
AcDbEntity
  8
1
  6
Continuous
100
AcDbCircle
 10
711.7999999999998
 20
172.75
 30
0.0
 40
2.0
  0
ARC
  5
10879
330
10553
100
AcDbEntity
  8
1
  6
Continuous
100
AcDbCircle
 10
680.0499999999998
 20
159.08125
 30
0.0
 40
2.38125
100
AcDbArc
 50
114.3892499999999
 51
152.54203
  0
ARC
  5
1087A
330
10553
100
AcDbEntity
  8
1
  6
Continuous
100
AcDbCircle
 10
680.0499999999998
 20
186.4187499999999
 30
0.0
 40
2.38125
100
AcDbArc
 50
276.02641
 51
346.18161
  0
ARC
  5
1087B
330
10553
100
AcDbEntity
  8
1
  6
Continuous
100
AcDbCircle
 10
367.2499999999998
 20
186.4187499999999
 30
0.0
 40
2.38125
100
AcDbArc
 50
158.3347039999999
 51
181.6544389999999
  0
ARC
  5
1087C
330
10553
100
AcDbEntity
  8
1
  6
Continuous
100
AcDbCircle
 10
367.2499999999998
 20
186.4187499999999
 30
0.0
 40
2.38125
100
AcDbArc
 50
193.81839
 51
216.5697209999999
  0
ARC
  5
1087D
330
10553
100
AcDbEntity
  8
1
  6
Continuous
100
AcDbCircle
 10
367.2499999999998
 20
186.4187499999999
 30
0.0
 40
2.38125
100
AcDbArc
 50
323.430279
 51
346.18161
  0
ARC
  5
1087E
330
10553
100
AcDbEntity
  8
1
  6
Continuous
100
AcDbCircle
 10
367.2499999999998
 20
186.4187499999999
 30
0.0
 40
2.38125
100
AcDbArc
 50
358.3455609999999
 51
21.665296
  0
LINE
  5
1087F
330
10553
100
AcDbEntity
  8
1
  6
Continuous
100
AcDbLine
 10
372.5
 20
186.3499999999999
 30
0.0
 11
372.5
 21
185.85
 31
0.0
  0
LINE
  5
10880
330
10553
100
AcDbEntity
  8
1
  6
Continuous
100
AcDbLine
 10
370.25
 20
185.85
 30
0.0
 11
370.25
 21
185.0
 31
0.0
  0
LINE
  5
10881
330
10553
100
AcDbEntity
  8
1
  6
Continuous
100
AcDbLine
 10
364.25
 20
185.85
 30
0.0
 11
364.25
 21
185.0
 31
0.0
  0
LINE
  5
10882
330
10553
100
AcDbEntity
  8
1
  6
Continuous
100
AcDbLine
 10
362.0
 20
186.3499999999999
 30
0.0
 11
362.0
 21
185.85
 31
0.0
  0
LINE
  5
10883
330
10553
100
AcDbEntity
  8
1
  6
Continuous
100
AcDbLine
 10
362.0
 20
185.85
 30
0.0
 11
372.5
 21
185.85
 31
0.0
  0
LINE
  5
10884
330
10553
100
AcDbEntity
  8
1
  6
Continuous
100
AcDbLine
 10
362.0
 20
186.3499999999999
 30
0.0
 11
372.5
 21
186.3499999999999
 31
0.0
  0
ARC
  5
10885
330
10553
100
AcDbEntity
  8
1
  6
Continuous
100
AcDbCircle
 10
367.2499999999998
 20
159.08125
 30
0.0
 40
2.38125
100
AcDbArc
 50
338.3347039999998
 51
1.654438999999999
  0
ARC
  5
10886
330
10553
100
AcDbEntity
  8
1
  6
Continuous
100
AcDbCircle
 10
367.2499999999998
 20
159.08125
 30
0.0
 40
2.38125
100
AcDbArc
 50
13.81839
 51
36.569721
  0
ARC
  5
10887
330
10553
100
AcDbEntity
  8
1
  6
Continuous
100
AcDbCircle
 10
367.2499999999998
 20
159.08125
 30
0.0
 40
2.38125
100
AcDbArc
 50
143.430279
 51
166.18161
  0
ARC
  5
10888
330
10553
100
AcDbEntity
  8
1
  6
Continuous
100
AcDbCircle
 10
367.2499999999998
 20
159.08125
 30
0.0
 40
2.38125
100
AcDbArc
 50
178.345561
 51
201.6652959999999
  0
LINE
  5
10889
330
10553
100
AcDbEntity
  8
1
  6
Continuous
100
AcDbLine
 10
372.5
 20
159.15
 30
0.0
 11
372.5
 21
159.6499999999998
 31
0.0
  0
LINE
  5
1088A
330
10553
100
AcDbEntity
  8
1
  6
Continuous
100
AcDbLine
 10
370.25
 20
159.6499999999998
 30
0.0
 11
370.25
 21
160.4999999999998
 31
0.0
  0
LINE
  5
1088B
330
10553
100
AcDbEntity
  8
1
  6
Continuous
100
AcDbLine
 10
364.25
 20
159.6499999999998
 30
0.0
 11
364.25
 21
160.4999999999998
 31
0.0
  0
LINE
  5
1088C
330
10553
100
AcDbEntity
  8
1
  6
Continuous
100
AcDbLine
 10
362.0
 20
159.15
 30
0.0
 11
362.0
 21
159.6499999999998
 31
0.0
  0
LINE
  5
1088D
330
10553
100
AcDbEntity
  8
1
  6
Continuous
100
AcDbLine
 10
362.0
 20
159.15
 30
0.0
 11
372.5
 21
159.15
 31
0.0
  0
LINE
  5
1088E
330
10553
100
AcDbEntity
  8
1
  6
Continuous
100
AcDbLine
 10
362.0
 20
159.6499999999998
 30
0.0
 11
372.5
 21
159.6499999999998
 31
0.0
  0
ARC
  5
1088F
330
10553
100
AcDbEntity
  8
1
  6
Continuous
100
AcDbCircle
 10
379.95
 20
186.4187499999999
 30
0.0
 40
2.38125
100
AcDbArc
 50
158.3347039999999
 51
181.6544389999999
  0
ARC
  5
10890
330
10553
100
AcDbEntity
  8
1
  6
Continuous
100
AcDbCircle
 10
379.95
 20
186.4187499999999
 30
0.0
 40
2.38125
100
AcDbArc
 50
193.81839
 51
216.5697209999999
  0
ARC
  5
10891
330
10553
100
AcDbEntity
  8
1
  6
Continuous
100
AcDbCircle
 10
379.95
 20
186.4187499999999
 30
0.0
 40
2.38125
100
AcDbArc
 50
323.430279
 51
346.18161
  0
ARC
  5
10892
330
10553
100
AcDbEntity
  8
1
  6
Continuous
100
AcDbCircle
 10
379.95
 20
186.4187499999999
 30
0.0
 40
2.38125
100
AcDbArc
 50
358.3455609999999
 51
21.665296
  0
LINE
  5
10893
330
10553
100
AcDbEntity
  8
1
  6
Continuous
100
AcDbLine
 10
385.1999999999999
 20
186.3499999999999
 30
0.0
 11
385.1999999999999
 21
185.85
 31
0.0
  0
LINE
  5
10894
330
10553
100
AcDbEntity
  8
1
  6
Continuous
100
AcDbLine
 10
382.9499999999999
 20
185.85
 30
0.0
 11
382.9499999999999
 21
185.0
 31
0.0
  0
LINE
  5
10895
330
10553
100
AcDbEntity
  8
1
  6
Continuous
100
AcDbLine
 10
376.9499999999999
 20
185.85
 30
0.0
 11
376.9499999999999
 21
185.0
 31
0.0
  0
LINE
  5
10896
330
10553
100
AcDbEntity
  8
1
  6
Continuous
100
AcDbLine
 10
374.6999999999999
 20
186.3499999999999
 30
0.0
 11
374.6999999999999
 21
185.85
 31
0.0
  0
LINE
  5
10897
330
10553
100
AcDbEntity
  8
1
  6
Continuous
100
AcDbLine
 10
374.6999999999999
 20
185.85
 30
0.0
 11
385.1999999999999
 21
185.85
 31
0.0
  0
LINE
  5
10898
330
10553
100
AcDbEntity
  8
1
  6
Continuous
100
AcDbLine
 10
374.6999999999999
 20
186.3499999999999
 30
0.0
 11
385.1999999999999
 21
186.3499999999999
 31
0.0
  0
LINE
  5
10899
330
10553
100
AcDbEntity
  8
1
  6
Continuous
100
AcDbLine
 10
387.3999999999999
 20
186.3499999999999
 30
0.0
 11
397.8999999999999
 21
186.3499999999999
 31
0.0
  0
LINE
  5
1089A
330
10553
100
AcDbEntity
  8
1
  6
Continuous
100
AcDbLine
 10
387.3999999999999
 20
185.85
 30
0.0
 11
397.8999999999999
 21
185.85
 31
0.0
  0
LINE
  5
1089B
330
10553
100
AcDbEntity
  8
1
  6
Continuous
100
AcDbLine
 10
387.3999999999999
 20
186.3499999999999
 30
0.0
 11
387.3999999999999
 21
185.85
 31
0.0
  0
LINE
  5
1089C
330
10553
100
AcDbEntity
  8
1
  6
Continuous
100
AcDbLine
 10
389.6499999999999
 20
185.85
 30
0.0
 11
389.6499999999999
 21
185.0
 31
0.0
  0
LINE
  5
1089D
330
10553
100
AcDbEntity
  8
1
  6
Continuous
100
AcDbLine
 10
395.6499999999999
 20
185.85
 30
0.0
 11
395.6499999999999
 21
185.0
 31
0.0
  0
LINE
  5
1089E
330
10553
100
AcDbEntity
  8
1
  6
Continuous
100
AcDbLine
 10
397.8999999999999
 20
186.3499999999999
 30
0.0
 11
397.8999999999999
 21
185.85
 31
0.0
  0
ARC
  5
1089F
330
10553
100
AcDbEntity
  8
1
  6
Continuous
100
AcDbCircle
 10
392.6499999999998
 20
186.4187499999999
 30
0.0
 40
2.38125
100
AcDbArc
 50
358.3455609999999
 51
21.665296
  0
ARC
  5
108A0
330
10553
100
AcDbEntity
  8
1
  6
Continuous
100
AcDbCircle
 10
392.6499999999998
 20
186.4187499999999
 30
0.0
 40
2.38125
100
AcDbArc
 50
323.430279
 51
346.18161
  0
ARC
  5
108A1
330
10553
100
AcDbEntity
  8
1
  6
Continuous
100
AcDbCircle
 10
392.6499999999998
 20
186.4187499999999
 30
0.0
 40
2.38125
100
AcDbArc
 50
193.81839
 51
216.5697209999999
  0
ARC
  5
108A2
330
10553
100
AcDbEntity
  8
1
  6
Continuous
100
AcDbCircle
 10
392.6499999999998
 20
186.4187499999999
 30
0.0
 40
2.38125
100
AcDbArc
 50
158.3347039999999
 51
181.6544389999999
  0
ARC
  5
108A3
330
10553
100
AcDbEntity
  8
1
  6
Continuous
100
AcDbCircle
 10
379.95
 20
159.08125
 30
0.0
 40
2.38125
100
AcDbArc
 50
338.3347039999998
 51
1.654438999999999
  0
ARC
  5
108A4
330
10553
100
AcDbEntity
  8
1
  6
Continuous
100
AcDbCircle
 10
379.95
 20
159.08125
 30
0.0
 40
2.38125
100
AcDbArc
 50
13.81839
 51
36.569721
  0
ARC
  5
108A5
330
10553
100
AcDbEntity
  8
1
  6
Continuous
100
AcDbCircle
 10
379.95
 20
159.08125
 30
0.0
 40
2.38125
100
AcDbArc
 50
143.430279
 51
166.18161
  0
ARC
  5
108A6
330
10553
100
AcDbEntity
  8
1
  6
Continuous
100
AcDbCircle
 10
379.95
 20
159.08125
 30
0.0
 40
2.38125
100
AcDbArc
 50
178.345561
 51
201.6652959999999
  0
LINE
  5
108A7
330
10553
100
AcDbEntity
  8
1
  6
Continuous
100
AcDbLine
 10
385.1999999999999
 20
159.15
 30
0.0
 11
385.1999999999999
 21
159.6499999999998
 31
0.0
  0
LINE
  5
108A8
330
10553
100
AcDbEntity
  8
1
  6
Continuous
100
AcDbLine
 10
382.9499999999999
 20
159.6499999999998
 30
0.0
 11
382.9499999999999
 21
160.4999999999998
 31
0.0
  0
LINE
  5
108A9
330
10553
100
AcDbEntity
  8
1
  6
Continuous
100
AcDbLine
 10
376.9499999999999
 20
159.6499999999998
 30
0.0
 11
376.9499999999999
 21
160.4999999999998
 31
0.0
  0
LINE
  5
108AA
330
10553
100
AcDbEntity
  8
1
  6
Continuous
100
AcDbLine
 10
374.6999999999999
 20
159.15
 30
0.0
 11
374.6999999999999
 21
159.6499999999998
 31
0.0
  0
LINE
  5
108AB
330
10553
100
AcDbEntity
  8
1
  6
Continuous
100
AcDbLine
 10
374.6999999999999
 20
159.15
 30
0.0
 11
385.1999999999999
 21
159.15
 31
0.0
  0
LINE
  5
108AC
330
10553
100
AcDbEntity
  8
1
  6
Continuous
100
AcDbLine
 10
374.6999999999999
 20
159.6499999999998
 30
0.0
 11
385.1999999999999
 21
159.6499999999998
 31
0.0
  0
LINE
  5
108AD
330
10553
100
AcDbEntity
  8
1
  6
Continuous
100
AcDbLine
 10
387.3999999999999
 20
159.6499999999998
 30
0.0
 11
397.8999999999999
 21
159.6499999999998
 31
0.0
  0
LINE
  5
108AE
330
10553
100
AcDbEntity
  8
1
  6
Continuous
100
AcDbLine
 10
387.3999999999999
 20
159.15
 30
0.0
 11
397.8999999999999
 21
159.15
 31
0.0
  0
LINE
  5
108AF
330
10553
100
AcDbEntity
  8
1
  6
Continuous
100
AcDbLine
 10
387.3999999999999
 20
159.15
 30
0.0
 11
387.3999999999999
 21
159.6499999999998
 31
0.0
  0
LINE
  5
108B0
330
10553
100
AcDbEntity
  8
1
  6
Continuous
100
AcDbLine
 10
389.6499999999999
 20
159.6499999999998
 30
0.0
 11
389.6499999999999
 21
160.4999999999998
 31
0.0
  0
LINE
  5
108B1
330
10553
100
AcDbEntity
  8
1
  6
Continuous
100
AcDbLine
 10
395.6499999999999
 20
159.6499999999998
 30
0.0
 11
395.6499999999999
 21
160.4999999999998
 31
0.0
  0
LINE
  5
108B2
330
10553
100
AcDbEntity
  8
1
  6
Continuous
100
AcDbLine
 10
397.8999999999999
 20
159.15
 30
0.0
 11
397.8999999999999
 21
159.6499999999998
 31
0.0
  0
ARC
  5
108B3
330
10553
100
AcDbEntity
  8
1
  6
Continuous
100
AcDbCircle
 10
392.6499999999998
 20
159.08125
 30
0.0
 40
2.38125
100
AcDbArc
 50
178.345561
 51
201.6652959999999
  0
ARC
  5
108B4
330
10553
100
AcDbEntity
  8
1
  6
Continuous
100
AcDbCircle
 10
392.6499999999998
 20
159.08125
 30
0.0
 40
2.38125
100
AcDbArc
 50
143.430279
 51
166.18161
  0
ARC
  5
108B5
330
10553
100
AcDbEntity
  8
1
  6
Continuous
100
AcDbCircle
 10
392.6499999999998
 20
159.08125
 30
0.0
 40
2.38125
100
AcDbArc
 50
13.81839
 51
36.569721
  0
ARC
  5
108B6
330
10553
100
AcDbEntity
  8
1
  6
Continuous
100
AcDbCircle
 10
392.6499999999998
 20
159.08125
 30
0.0
 40
2.38125
100
AcDbArc
 50
338.3347039999998
 51
1.654438999999999
  0
LINE
  5
108B7
330
10553
100
AcDbEntity
  8
1
  6
Continuous
100
AcDbLine
 10
400.1
 20
186.3499999999999
 30
0.0
 11
410.5999999999998
 21
186.3499999999999
 31
0.0
  0
LINE
  5
108B8
330
10553
100
AcDbEntity
  8
1
  6
Continuous
100
AcDbLine
 10
400.1
 20
185.85
 30
0.0
 11
410.5999999999998
 21
185.85
 31
0.0
  0
LINE
  5
108B9
330
10553
100
AcDbEntity
  8
1
  6
Continuous
100
AcDbLine
 10
400.1
 20
186.3499999999999
 30
0.0
 11
400.1
 21
185.85
 31
0.0
  0
LINE
  5
108BA
330
10553
100
AcDbEntity
  8
1
  6
Continuous
100
AcDbLine
 10
402.35
 20
185.85
 30
0.0
 11
402.35
 21
185.0
 31
0.0
  0
ARC
  5
108BB
330
10553
100
AcDbEntity
  8
1
  6
Continuous
100
AcDbCircle
 10
405.35
 20
186.4187499999999
 30
0.0
 40
2.38125
100
AcDbArc
 50
193.81839
 51
216.5697209999999
  0
ARC
  5
108BC
330
10553
100
AcDbEntity
  8
1
  6
Continuous
100
AcDbCircle
 10
405.35
 20
186.4187499999999
 30
0.0
 40
2.38125
100
AcDbArc
 50
158.3347039999999
 51
181.6544389999999
  0
LINE
  5
108BD
330
10553
100
AcDbEntity
  8
1
  6
Continuous
100
AcDbLine
 10
412.8
 20
185.85
 30
0.0
 11
423.3
 21
185.85
 31
0.0
  0
LINE
  5
108BE
330
10553
100
AcDbEntity
  8
1
  6
Continuous
100
AcDbLine
 10
412.8
 20
186.3499999999999
 30
0.0
 11
423.3
 21
186.3499999999999
 31
0.0
  0
ARC
  5
108BF
330
10553
100
AcDbEntity
  8
1
  6
Continuous
100
AcDbCircle
 10
418.05
 20
186.4187499999999
 30
0.0
 40
2.38125
100
AcDbArc
 50
158.3347039999999
 51
181.6544389999999
  0
ARC
  5
108C0
330
10553
100
AcDbEntity
  8
1
  6
Continuous
100
AcDbCircle
 10
418.05
 20
186.4187499999999
 30
0.0
 40
2.38125
100
AcDbArc
 50
193.81839
 51
216.5697209999999
  0
ARC
  5
108C1
330
10553
100
AcDbEntity
  8
1
  6
Continuous
100
AcDbCircle
 10
418.05
 20
186.4187499999999
 30
0.0
 40
2.38125
100
AcDbArc
 50
323.430279
 51
346.18161
  0
ARC
  5
108C2
330
10553
100
AcDbEntity
  8
1
  6
Continuous
100
AcDbCircle
 10
418.05
 20
186.4187499999999
 30
0.0
 40
2.38125
100
AcDbArc
 50
358.3455609999999
 51
21.665296
  0
LINE
  5
108C3
330
10553
100
AcDbEntity
  8
1
  6
Continuous
100
AcDbLine
 10
421.05
 20
185.85
 30
0.0
 11
421.05
 21
185.0
 31
0.0
  0
LINE
  5
108C4
330
10553
100
AcDbEntity
  8
1
  6
Continuous
100
AcDbLine
 10
415.05
 20
185.85
 30
0.0
 11
415.05
 21
185.0
 31
0.0
  0
LINE
  5
108C5
330
10553
100
AcDbEntity
  8
1
  6
Continuous
100
AcDbLine
 10
412.8
 20
186.3499999999999
 30
0.0
 11
412.8
 21
185.85
 31
0.0
  0
LINE
  5
108C6
330
10553
100
AcDbEntity
  8
1
  6
Continuous
100
AcDbLine
 10
408.3499999999999
 20
185.85
 30
0.0
 11
408.3499999999999
 21
185.0
 31
0.0
  0
LINE
  5
108C7
330
10553
100
AcDbEntity
  8
1
  6
Continuous
100
AcDbLine
 10
410.5999999999998
 20
186.3499999999999
 30
0.0
 11
410.5999999999998
 21
185.85
 31
0.0
  0
ARC
  5
108C8
330
10553
100
AcDbEntity
  8
1
  6
Continuous
100
AcDbCircle
 10
405.35
 20
186.4187499999999
 30
0.0
 40
2.38125
100
AcDbArc
 50
358.3455609999999
 51
21.665296
  0
ARC
  5
108C9
330
10553
100
AcDbEntity
  8
1
  6
Continuous
100
AcDbCircle
 10
405.35
 20
186.4187499999999
 30
0.0
 40
2.38125
100
AcDbArc
 50
323.430279
 51
346.18161
  0
LINE
  5
108CA
330
10553
100
AcDbEntity
  8
1
  6
Continuous
100
AcDbLine
 10
423.3
 20
186.3499999999999
 30
0.0
 11
423.3
 21
185.85
 31
0.0
  0
LINE
  5
108CB
330
10553
100
AcDbEntity
  8
1
  6
Continuous
100
AcDbLine
 10
400.1
 20
159.6499999999998
 30
0.0
 11
410.5999999999998
 21
159.6499999999998
 31
0.0
  0
LINE
  5
108CC
330
10553
100
AcDbEntity
  8
1
  6
Continuous
100
AcDbLine
 10
400.1
 20
159.15
 30
0.0
 11
410.5999999999998
 21
159.15
 31
0.0
  0
LINE
  5
108CD
330
10553
100
AcDbEntity
  8
1
  6
Continuous
100
AcDbLine
 10
400.1
 20
159.15
 30
0.0
 11
400.1
 21
159.6499999999998
 31
0.0
  0
LINE
  5
108CE
330
10553
100
AcDbEntity
  8
1
  6
Continuous
100
AcDbLine
 10
402.35
 20
159.6499999999998
 30
0.0
 11
402.35
 21
160.4999999999998
 31
0.0
  0
ARC
  5
108CF
330
10553
100
AcDbEntity
  8
1
  6
Continuous
100
AcDbCircle
 10
405.35
 20
159.08125
 30
0.0
 40
2.38125
100
AcDbArc
 50
178.345561
 51
201.6652959999999
  0
ARC
  5
108D0
330
10553
100
AcDbEntity
  8
1
  6
Continuous
100
AcDbCircle
 10
405.35
 20
159.08125
 30
0.0
 40
2.38125
100
AcDbArc
 50
143.430279
 51
166.18161
  0
LINE
  5
108D1
330
10553
100
AcDbEntity
  8
1
  6
Continuous
100
AcDbLine
 10
412.8
 20
159.15
 30
0.0
 11
423.3
 21
159.15
 31
0.0
  0
LINE
  5
108D2
330
10553
100
AcDbEntity
  8
1
  6
Continuous
100
AcDbLine
 10
412.8
 20
159.6499999999998
 30
0.0
 11
423.3
 21
159.6499999999998
 31
0.0
  0
ARC
  5
108D3
330
10553
100
AcDbEntity
  8
1
  6
Continuous
100
AcDbCircle
 10
418.05
 20
159.08125
 30
0.0
 40
2.38125
100
AcDbArc
 50
338.3347039999998
 51
1.654438999999999
  0
ARC
  5
108D4
330
10553
100
AcDbEntity
  8
1
  6
Continuous
100
AcDbCircle
 10
418.05
 20
159.08125
 30
0.0
 40
2.38125
100
AcDbArc
 50
13.81839
 51
36.569721
  0
ARC
  5
108D5
330
10553
100
AcDbEntity
  8
1
  6
Continuous
100
AcDbCircle
 10
418.05
 20
159.08125
 30
0.0
 40
2.38125
100
AcDbArc
 50
143.430279
 51
166.18161
  0
ARC
  5
108D6
330
10553
100
AcDbEntity
  8
1
  6
Continuous
100
AcDbCircle
 10
418.05
 20
159.08125
 30
0.0
 40
2.38125
100
AcDbArc
 50
178.345561
 51
201.6652959999999
  0
LINE
  5
108D7
330
10553
100
AcDbEntity
  8
1
  6
Continuous
100
AcDbLine
 10
421.05
 20
159.6499999999998
 30
0.0
 11
421.05
 21
160.4999999999998
 31
0.0
  0
LINE
  5
108D8
330
10553
100
AcDbEntity
  8
1
  6
Continuous
100
AcDbLine
 10
415.05
 20
159.6499999999998
 30
0.0
 11
415.05
 21
160.4999999999998
 31
0.0
  0
LINE
  5
108D9
330
10553
100
AcDbEntity
  8
1
  6
Continuous
100
AcDbLine
 10
412.8
 20
159.15
 30
0.0
 11
412.8
 21
159.6499999999998
 31
0.0
  0
LINE
  5
108DA
330
10553
100
AcDbEntity
  8
1
  6
Continuous
100
AcDbLine
 10
408.3499999999999
 20
159.6499999999998
 30
0.0
 11
408.3499999999999
 21
160.4999999999998
 31
0.0
  0
LINE
  5
108DB
330
10553
100
AcDbEntity
  8
1
  6
Continuous
100
AcDbLine
 10
410.5999999999998
 20
159.15
 30
0.0
 11
410.5999999999998
 21
159.6499999999998
 31
0.0
  0
ARC
  5
108DC
330
10553
100
AcDbEntity
  8
1
  6
Continuous
100
AcDbCircle
 10
405.35
 20
159.08125
 30
0.0
 40
2.38125
100
AcDbArc
 50
13.81839
 51
36.569721
  0
ARC
  5
108DD
330
10553
100
AcDbEntity
  8
1
  6
Continuous
100
AcDbCircle
 10
405.35
 20
159.08125
 30
0.0
 40
2.38125
100
AcDbArc
 50
338.3347039999998
 51
1.654438999999999
  0
LINE
  5
108DE
330
10553
100
AcDbEntity
  8
1
  6
Continuous
100
AcDbLine
 10
423.3
 20
159.15
 30
0.0
 11
423.3
 21
159.6499999999998
 31
0.0
  0
LINE
  5
108DF
330
10553
100
AcDbEntity
  8
1
  6
Continuous
100
AcDbLine
 10
438.1999999999998
 20
186.3499999999999
 30
0.0
 11
448.7
 21
186.3499999999999
 31
0.0
  0
LINE
  5
108E0
330
10553
100
AcDbEntity
  8
1
  6
Continuous
100
AcDbLine
 10
438.1999999999998
 20
185.85
 30
0.0
 11
448.7
 21
185.85
 31
0.0
  0
ARC
  5
108E1
330
10553
100
AcDbEntity
  8
1
  6
Continuous
100
AcDbCircle
 10
430.75
 20
186.4187499999999
 30
0.0
 40
2.38125
100
AcDbArc
 50
323.430279
 51
346.18161
  0
ARC
  5
108E2
330
10553
100
AcDbEntity
  8
1
  6
Continuous
100
AcDbCircle
 10
430.75
 20
186.4187499999999
 30
0.0
 40
2.38125
100
AcDbArc
 50
358.3455609999999
 51
21.665296
  0
LINE
  5
108E3
330
10553
100
AcDbEntity
  8
1
  6
Continuous
100
AcDbLine
 10
436.0
 20
186.3499999999999
 30
0.0
 11
436.0
 21
185.85
 31
0.0
  0
LINE
  5
108E4
330
10553
100
AcDbEntity
  8
1
  6
Continuous
100
AcDbLine
 10
433.75
 20
185.85
 30
0.0
 11
433.75
 21
185.0
 31
0.0
  0
LINE
  5
108E5
330
10553
100
AcDbEntity
  8
1
  6
Continuous
100
AcDbLine
 10
438.1999999999998
 20
186.3499999999999
 30
0.0
 11
438.1999999999998
 21
185.85
 31
0.0
  0
ARC
  5
108E6
330
10553
100
AcDbEntity
  8
1
  6
Continuous
100
AcDbCircle
 10
430.75
 20
186.4187499999999
 30
0.0
 40
2.38125
100
AcDbArc
 50
158.3347039999999
 51
181.6544389999999
  0
ARC
  5
108E7
330
10553
100
AcDbEntity
  8
1
  6
Continuous
100
AcDbCircle
 10
430.75
 20
186.4187499999999
 30
0.0
 40
2.38125
100
AcDbArc
 50
193.81839
 51
216.5697209999999
  0
LINE
  5
108E8
330
10553
100
AcDbEntity
  8
1
  6
Continuous
100
AcDbLine
 10
427.7499999999998
 20
185.85
 30
0.0
 11
427.7499999999998
 21
185.0
 31
0.0
  0
LINE
  5
108E9
330
10553
100
AcDbEntity
  8
1
  6
Continuous
100
AcDbLine
 10
425.4999999999998
 20
186.3499999999999
 30
0.0
 11
425.4999999999998
 21
185.85
 31
0.0
  0
LINE
  5
108EA
330
10553
100
AcDbEntity
  8
1
  6
Continuous
100
AcDbLine
 10
425.4999999999998
 20
185.85
 30
0.0
 11
436.0
 21
185.85
 31
0.0
  0
LINE
  5
108EB
330
10553
100
AcDbEntity
  8
1
  6
Continuous
100
AcDbLine
 10
425.4999999999998
 20
186.3499999999999
 30
0.0
 11
436.0
 21
186.3499999999999
 31
0.0
  0
LINE
  5
108EC
330
10553
100
AcDbEntity
  8
1
  6
Continuous
100
AcDbLine
 10
448.7
 20
186.3499999999999
 30
0.0
 11
448.7
 21
185.85
 31
0.0
  0
LINE
  5
108ED
330
10553
100
AcDbEntity
  8
1
  6
Continuous
100
AcDbLine
 10
440.4499999999998
 20
185.85
 30
0.0
 11
440.4499999999998
 21
185.0
 31
0.0
  0
LINE
  5
108EE
330
10553
100
AcDbEntity
  8
1
  6
Continuous
100
AcDbLine
 10
446.45
 20
185.85
 30
0.0
 11
446.45
 21
185.0
 31
0.0
  0
ARC
  5
108EF
330
10553
100
AcDbEntity
  8
1
  6
Continuous
100
AcDbCircle
 10
443.4499999999998
 20
186.4187499999999
 30
0.0
 40
2.38125
100
AcDbArc
 50
358.3455609999999
 51
21.665296
  0
ARC
  5
108F0
330
10553
100
AcDbEntity
  8
1
  6
Continuous
100
AcDbCircle
 10
443.4499999999998
 20
186.4187499999999
 30
0.0
 40
2.38125
100
AcDbArc
 50
323.430279
 51
346.18161
  0
ARC
  5
108F1
330
10553
100
AcDbEntity
  8
1
  6
Continuous
100
AcDbCircle
 10
443.4499999999998
 20
186.4187499999999
 30
0.0
 40
2.38125
100
AcDbArc
 50
193.81839
 51
216.5697209999999
  0
ARC
  5
108F2
330
10553
100
AcDbEntity
  8
1
  6
Continuous
100
AcDbCircle
 10
443.4499999999998
 20
186.4187499999999
 30
0.0
 40
2.38125
100
AcDbArc
 50
158.3347039999999
 51
181.6544389999999
  0
LINE
  5
108F3
330
10553
100
AcDbEntity
  8
1
  6
Continuous
100
AcDbLine
 10
438.1999999999998
 20
159.6499999999998
 30
0.0
 11
448.7
 21
159.6499999999998
 31
0.0
  0
LINE
  5
108F4
330
10553
100
AcDbEntity
  8
1
  6
Continuous
100
AcDbLine
 10
438.1999999999998
 20
159.15
 30
0.0
 11
448.7
 21
159.15
 31
0.0
  0
ARC
  5
108F5
330
10553
100
AcDbEntity
  8
1
  6
Continuous
100
AcDbCircle
 10
430.75
 20
159.08125
 30
0.0
 40
2.38125
100
AcDbArc
 50
338.3347039999998
 51
1.654438999999999
  0
ARC
  5
108F6
330
10553
100
AcDbEntity
  8
1
  6
Continuous
100
AcDbCircle
 10
430.75
 20
159.08125
 30
0.0
 40
2.38125
100
AcDbArc
 50
13.81839
 51
36.569721
  0
LINE
  5
108F7
330
10553
100
AcDbEntity
  8
1
  6
Continuous
100
AcDbLine
 10
436.0
 20
159.15
 30
0.0
 11
436.0
 21
159.6499999999998
 31
0.0
  0
LINE
  5
108F8
330
10553
100
AcDbEntity
  8
1
  6
Continuous
100
AcDbLine
 10
433.75
 20
159.6499999999998
 30
0.0
 11
433.75
 21
160.4999999999998
 31
0.0
  0
LINE
  5
108F9
330
10553
100
AcDbEntity
  8
1
  6
Continuous
100
AcDbLine
 10
438.1999999999998
 20
159.15
 30
0.0
 11
438.1999999999998
 21
159.6499999999998
 31
0.0
  0
ARC
  5
108FA
330
10553
100
AcDbEntity
  8
1
  6
Continuous
100
AcDbCircle
 10
430.75
 20
159.08125
 30
0.0
 40
2.38125
100
AcDbArc
 50
143.430279
 51
166.18161
  0
ARC
  5
108FB
330
10553
100
AcDbEntity
  8
1
  6
Continuous
100
AcDbCircle
 10
430.75
 20
159.08125
 30
0.0
 40
2.38125
100
AcDbArc
 50
178.345561
 51
201.6652959999999
  0
LINE
  5
108FC
330
10553
100
AcDbEntity
  8
1
  6
Continuous
100
AcDbLine
 10
427.7499999999998
 20
159.6499999999998
 30
0.0
 11
427.7499999999998
 21
160.4999999999998
 31
0.0
  0
LINE
  5
108FD
330
10553
100
AcDbEntity
  8
1
  6
Continuous
100
AcDbLine
 10
425.4999999999998
 20
159.15
 30
0.0
 11
425.4999999999998
 21
159.6499999999998
 31
0.0
  0
LINE
  5
108FE
330
10553
100
AcDbEntity
  8
1
  6
Continuous
100
AcDbLine
 10
425.4999999999998
 20
159.15
 30
0.0
 11
436.0
 21
159.15
 31
0.0
  0
LINE
  5
108FF
330
10553
100
AcDbEntity
  8
1
  6
Continuous
100
AcDbLine
 10
425.4999999999998
 20
159.6499999999998
 30
0.0
 11
436.0
 21
159.6499999999998
 31
0.0
  0
LINE
  5
10900
330
10553
100
AcDbEntity
  8
1
  6
Continuous
100
AcDbLine
 10
448.7
 20
159.15
 30
0.0
 11
448.7
 21
159.6499999999998
 31
0.0
  0
LINE
  5
10901
330
10553
100
AcDbEntity
  8
1
  6
Continuous
100
AcDbLine
 10
440.4499999999998
 20
159.6499999999998
 30
0.0
 11
440.4499999999998
 21
160.4999999999998
 31
0.0
  0
LINE
  5
10902
330
10553
100
AcDbEntity
  8
1
  6
Continuous
100
AcDbLine
 10
446.45
 20
159.6499999999998
 30
0.0
 11
446.45
 21
160.4999999999998
 31
0.0
  0
ARC
  5
10903
330
10553
100
AcDbEntity
  8
1
  6
Continuous
100
AcDbCircle
 10
443.4499999999998
 20
159.08125
 30
0.0
 40
2.38125
100
AcDbArc
 50
178.345561
 51
201.6652959999999
  0
ARC
  5
10904
330
10553
100
AcDbEntity
  8
1
  6
Continuous
100
AcDbCircle
 10
443.4499999999998
 20
159.08125
 30
0.0
 40
2.38125
100
AcDbArc
 50
143.430279
 51
166.18161
  0
ARC
  5
10905
330
10553
100
AcDbEntity
  8
1
  6
Continuous
100
AcDbCircle
 10
443.4499999999998
 20
159.08125
 30
0.0
 40
2.38125
100
AcDbArc
 50
13.81839
 51
36.569721
  0
ARC
  5
10906
330
10553
100
AcDbEntity
  8
1
  6
Continuous
100
AcDbCircle
 10
443.4499999999998
 20
159.08125
 30
0.0
 40
2.38125
100
AcDbArc
 50
338.3347039999998
 51
1.654438999999999
  0
LINE
  5
10907
330
10553
100
AcDbEntity
  8
4
  6
CENTER
100
AcDbLine
 10
462.5
 20
177.75
 30
0.0
 11
462.5
 21
167.75
 31
0.0
  0
CIRCLE
  5
10908
330
10553
100
AcDbEntity
  8
1
  6
Continuous
100
AcDbCircle
 10
462.5
 20
172.75
 30
0.0
 40
2.0
  0
LINE
  5
10909
330
10553
100
AcDbEntity
  8
1
  6
Continuous
100
AcDbLine
 10
514.4
 20
185.85
 30
0.0
 11
524.8999999999998
 21
185.85
 31
0.0
  0
LINE
  5
1090A
330
10553
100
AcDbEntity
  8
1
  6
Continuous
100
AcDbLine
 10
514.4
 20
186.3499999999999
 30
0.0
 11
524.8999999999998
 21
186.3499999999999
 31
0.0
  0
LINE
  5
1090B
330
10553
100
AcDbEntity
  8
1
  6
Continuous
100
AcDbLine
 10
514.4
 20
186.3499999999999
 30
0.0
 11
514.4
 21
185.85
 31
0.0
  0
LINE
  5
1090C
330
10553
100
AcDbEntity
  8
1
  6
Continuous
100
AcDbLine
 10
524.8999999999998
 20
186.3499999999999
 30
0.0
 11
524.8999999999998
 21
185.85
 31
0.0
  0
ARC
  5
1090D
330
10553
100
AcDbEntity
  8
1
  6
Continuous
100
AcDbCircle
 10
519.6499999999998
 20
186.4187499999999
 30
0.0
 40
2.38125
100
AcDbArc
 50
193.81839
 51
346.18161
  0
ARC
  5
1090E
330
10553
100
AcDbEntity
  8
1
  6
Continuous
100
AcDbCircle
 10
519.6499999999998
 20
186.4187499999999
 30
0.0
 40
2.38125
100
AcDbArc
 50
358.3455609999999
 51
21.665296
  0
ARC
  5
1090F
330
10553
100
AcDbEntity
  8
1
  6
Continuous
100
AcDbCircle
 10
519.6499999999998
 20
186.4187499999999
 30
0.0
 40
2.38125
100
AcDbArc
 50
158.3347039999999
 51
181.6544389999999
  0
LINE
  5
10910
330
10553
100
AcDbEntity
  8
1
  6
Continuous
100
AcDbLine
 10
516.65
 20
185.85
 30
0.0
 11
516.65
 21
182.2499999999998
 31
0.0
  0
LINE
  5
10911
330
10553
100
AcDbEntity
  8
1
  6
Continuous
100
AcDbLine
 10
509.9499999999999
 20
182.2499999999998
 30
0.0
 11
516.65
 21
182.2499999999998
 31
0.0
  0
LINE
  5
10912
330
10553
100
AcDbEntity
  8
1
  6
Continuous
100
AcDbLine
 10
509.9499999999999
 20
185.85
 30
0.0
 11
509.9499999999999
 21
182.2499999999998
 31
0.0
  0
LINE
  5
10913
330
10553
100
AcDbEntity
  8
1
  6
Continuous
100
AcDbLine
 10
509.9499999999999
 20
163.25
 30
0.0
 11
516.65
 21
163.25
 31
0.0
  0
LINE
  5
10914
330
10553
100
AcDbEntity
  8
1
  6
Continuous
100
AcDbLine
 10
516.65
 20
159.6499999999998
 30
0.0
 11
516.65
 21
163.25
 31
0.0
  0
LINE
  5
10915
330
10553
100
AcDbEntity
  8
1
  6
Continuous
100
AcDbLine
 10
509.9499999999999
 20
159.6499999999998
 30
0.0
 11
509.9499999999999
 21
163.25
 31
0.0
  0
LINE
  5
10916
330
10553
100
AcDbEntity
  8
1
  6
Continuous
100
AcDbLine
 10
514.4
 20
159.6499999999998
 30
0.0
 11
524.8999999999998
 21
159.6499999999998
 31
0.0
  0
LINE
  5
10917
330
10553
100
AcDbEntity
  8
1
  6
Continuous
100
AcDbLine
 10
514.4
 20
159.15
 30
0.0
 11
524.8999999999998
 21
159.15
 31
0.0
  0
LINE
  5
10918
330
10553
100
AcDbEntity
  8
1
  6
Continuous
100
AcDbLine
 10
514.4
 20
159.15
 30
0.0
 11
514.4
 21
159.6499999999998
 31
0.0
  0
LINE
  5
10919
330
10553
100
AcDbEntity
  8
1
  6
Continuous
100
AcDbLine
 10
524.8999999999998
 20
159.15
 30
0.0
 11
524.8999999999998
 21
159.6499999999998
 31
0.0
  0
ARC
  5
1091A
330
10553
100
AcDbEntity
  8
1
  6
Continuous
100
AcDbCircle
 10
519.6499999999998
 20
159.08125
 30
0.0
 40
2.38125
100
AcDbArc
 50
338.3347039999998
 51
1.654438999999999
  0
ARC
  5
1091B
330
10553
100
AcDbEntity
  8
1
  6
Continuous
100
AcDbCircle
 10
519.6499999999998
 20
159.08125
 30
0.0
 40
2.38125
100
AcDbArc
 50
178.345561
 51
201.6652959999999
  0
ARC
  5
1091C
330
10553
100
AcDbEntity
  8
1
  6
Continuous
100
AcDbCircle
 10
519.6499999999998
 20
159.08125
 30
0.0
 40
2.38125
100
AcDbArc
 50
13.81839
 51
166.18161
  0
LINE
  5
1091D
330
10553
100
AcDbEntity
  8
4
  6
CENTER
100
AcDbLine
 10
513.3
 20
177.75
 30
0.0
 11
513.3
 21
167.75
 31
0.0
  0
CIRCLE
  5
1091E
330
10553
100
AcDbEntity
  8
1
  6
Continuous
100
AcDbCircle
 10
513.3
 20
172.75
 30
0.0
 40
2.0
  0
LINE
  5
1091F
330
10553
100
AcDbEntity
  8
1
  6
Continuous
100
AcDbLine
 10
324.3
 20
294.8999999999998
 30
0.0
 11
680.2999999999998
 21
294.8999999999998
 31
0.0
  0
LINE
  5
10920
330
10553
100
AcDbEntity
  8
1
  6
Continuous
100
AcDbLine
 10
324.3
 20
286.2
 30
0.0
 11
680.2999999999998
 21
286.2
 31
0.0
  0
LINE
  5
10921
330
10553
100
AcDbEntity
  8
1
  6
Continuous
100
AcDbLine
 10
481.3
 20
295.0
 30
0.0
 11
678.7000000000001
 21
295.0
 31
0.0
  0
LINE
  5
10922
330
10553
100
AcDbEntity
  8
3
  6
DASHED
100
AcDbLine
 10
481.3
 20
301.5
 30
0.0
 11
678.7000000000001
 21
301.5
 31
0.0
  0
LINE
  5
10923
330
10553
100
AcDbEntity
  8
1
  6
Continuous
100
AcDbLine
 10
480.2999999999998
 20
304.4999999999999
 30
0.0
 11
836.2999999999997
 21
304.4999999999999
 31
0.0
  0
LINE
  5
10924
330
10553
100
AcDbEntity
  8
1
  6
Continuous
100
AcDbLine
 10
480.2999999999998
 20
295.8
 30
0.0
 11
836.2999999999997
 21
295.8
 31
0.0
  0
LINE
  5
10925
330
10553
100
AcDbEntity
  8
1
  6
Continuous
100
AcDbLine
 10
102.2999999999999
 20
291.9
 30
0.0
 11
324.3
 21
291.9
 31
0.0
  0
LINE
  5
10926
330
10553
100
AcDbEntity
  8
1
  6
Continuous
100
AcDbLine
 10
305.3
 20
295.3999999999999
 30
0.0
 11
324.3
 21
293.3
 31
0.0
  0
LINE
  5
10927
330
10553
100
AcDbEntity
  8
1
  6
Continuous
100
AcDbLine
 10
305.488337
 20
294.574312
 30
0.0
 11
324.3
 21
292.4951279999999
 31
0.0
  0
LINE
  5
10928
330
10553
100
AcDbEntity
  8
1
  6
Continuous
100
AcDbLine
 10
102.2999999999999
 20
285.3999999999999
 30
0.0
 11
455.2999999999998
 21
285.3999999999999
 31
0.0
  0
LINE
  5
10929
330
10553
100
AcDbEntity
  8
1
  6
Continuous
100
AcDbLine
 10
102.2999999999999
 20
291.9
 30
0.0
 11
102.2999999999999
 21
285.3999999999999
 31
0.0
  0
LINE
  5
1092A
330
10553
100
AcDbEntity
  8
4
  6
CENTER
100
AcDbLine
 10
118.2
 20
279.274712
 30
0.0
 11
118.2
 21
289.774712
 31
0.0
  0
LINE
  5
1092B
330
10553
100
AcDbEntity
  8
4
  6
CENTER
100
AcDbLine
 10
130.9
 20
279.274712
 30
0.0
 11
130.9
 21
289.774712
 31
0.0
  0
LINE
  5
1092C
330
10553
100
AcDbEntity
  8
4
  6
CENTER
100
AcDbLine
 10
242.0
 20
279.274712
 30
0.0
 11
242.0
 21
289.774712
 31
0.0
  0
LINE
  5
1092D
330
10553
100
AcDbEntity
  8
1
  6
Continuous
100
AcDbLine
 10
301.3
 20
292.8999999999998
 30
0.0
 11
305.3
 21
295.3999999999999
 31
0.0
  0
LINE
  5
1092E
330
10553
100
AcDbEntity
  8
1
  6
Continuous
100
AcDbLine
 10
301.7239990000001
 20
292.2216009999999
 30
0.0
 11
305.488337
 21
294.574312
 31
0.0
  0
LINE
  5
1092F
330
10553
100
AcDbEntity
  8
1
  6
Continuous
100
AcDbLine
 10
301.3
 20
292.8999999999998
 30
0.0
 11
301.7239990000001
 21
292.2216009999999
 31
0.0
  0
LINE
  5
10930
330
10553
100
AcDbEntity
  8
3
  6
DASHED
100
AcDbLine
 10
324.3
 20
291.9
 30
0.0
 11
455.2999999999998
 21
291.9
 31
0.0
  0
LINE
  5
10931
330
10553
100
AcDbEntity
  8
1
  6
Continuous
100
AcDbLine
 10
324.3
 20
294.8999999999998
 30
0.0
 11
324.3
 21
286.2
 31
0.0
  0
LINE
  5
10932
330
10553
100
AcDbEntity
  8
4
  6
CENTER
100
AcDbLine
 10
429.3
 20
279.274712
 30
0.0
 11
429.3
 21
289.774712
 31
0.0
  0
LINE
  5
10933
330
10553
100
AcDbEntity
  8
4
  6
CENTER
100
AcDbLine
 10
442.0
 20
279.274712
 30
0.0
 11
442.0
 21
289.774712
 31
0.0
  0
LINE
  5
10934
330
10553
100
AcDbEntity
  8
1
  6
Continuous
100
AcDbLine
 10
480.2999999999998
 20
295.8
 30
0.0
 11
480.2999999999998
 21
304.4999999999999
 31
0.0
  0
LINE
  5
10935
330
10553
100
AcDbEntity
  8
3
  6
DASHED
100
AcDbLine
 10
481.3
 20
295.8
 30
0.0
 11
481.3
 21
301.5
 31
0.0
  0
LINE
  5
10936
330
10553
100
AcDbEntity
  8
4
  6
CENTER
100
AcDbLine
 10
496.1999999999998
 20
308.995589
 30
0.0
 11
496.1999999999998
 21
298.495589
 31
0.0
  0
LINE
  5
10937
330
10553
100
AcDbEntity
  8
4
  6
CENTER
100
AcDbLine
 10
521.6
 20
308.995589
 30
0.0
 11
521.6
 21
298.495589
 31
0.0
  0
LINE
  5
10938
330
10553
100
AcDbEntity
  8
4
  6
CENTER
100
AcDbLine
 10
508.8999999999998
 20
308.995589
 30
0.0
 11
508.8999999999998
 21
298.495589
 31
0.0
  0
LINE
  5
10939
330
10553
100
AcDbEntity
  8
1
  6
Continuous
100
AcDbLine
 10
455.2999999999998
 20
285.3999999999999
 30
0.0
 11
455.2999999999998
 21
286.2
 31
0.0
  0
LINE
  5
1093A
330
10553
100
AcDbEntity
  8
3
  6
DASHED
100
AcDbLine
 10
455.2999999999998
 20
286.2
 30
0.0
 11
455.2999999999998
 21
291.9
 31
0.0
  0
LINE
  5
1093B
330
10553
100
AcDbEntity
  8
1
  6
Continuous
100
AcDbLine
 10
481.3
 20
295.0
 30
0.0
 11
481.3
 21
295.8
 31
0.0
  0
LINE
  5
1093C
330
10553
100
AcDbEntity
  8
4
  6
CENTER
100
AcDbLine
 10
653.7999999999998
 20
288.9125609999999
 30
0.0
 11
653.7999999999998
 21
300.449154
 31
0.0
  0
LINE
  5
1093D
330
10553
100
AcDbEntity
  8
4
  6
CENTER
100
AcDbLine
 10
607.2999999999998
 20
308.995589
 30
0.0
 11
607.2999999999998
 21
298.495589
 31
0.0
  0
LINE
  5
1093E
330
10553
100
AcDbEntity
  8
3
  6
DASHED
100
AcDbLine
 10
678.7000000000001
 20
301.5
 30
0.0
 11
678.7000000000001
 21
295.8
 31
0.0
  0
LINE
  5
1093F
330
10553
100
AcDbEntity
  8
1
  6
Continuous
100
AcDbLine
 10
678.7000000000001
 20
295.0
 30
0.0
 11
678.7000000000001
 21
295.8
 31
0.0
  0
LINE
  5
10940
330
10553
100
AcDbEntity
  8
1
  6
Continuous
100
AcDbLine
 10
680.2999999999998
 20
294.8999999999998
 30
0.0
 11
680.2999999999998
 21
286.2
 31
0.0
  0
LINE
  5
10941
330
10553
100
AcDbEntity
  8
4
  6
CENTER
100
AcDbLine
 10
807.2999999999996
 20
308.995589
 30
0.0
 11
807.2999999999996
 21
298.495589
 31
0.0
  0
LINE
  5
10942
330
10553
100
AcDbEntity
  8
1
  6
Continuous
100
AcDbLine
 10
836.2999999999997
 20
295.8
 30
0.0
 11
836.2999999999997
 21
304.4999999999999
 31
0.0
  0
LINE
  5
10943
330
10553
100
AcDbEntity
  8
4
  6
CENTER
100
AcDbLine
 10
820.0
 20
308.995589
 30
0.0
 11
820.0
 21
298.495589
 31
0.0
  0
LINE
  5
10944
330
10553
100
AcDbEntity
  8
4
  6
CENTER
100
AcDbLine
 10
416.6
 20
411.8999999999998
 30
0.0
 11
416.6
 21
422.4
 31
0.0
  0
LINE
  5
10945
330
10553
100
AcDbEntity
  8
4
  6
CENTER
100
AcDbLine
 10
416.6
 20
279.274712
 30
0.0
 11
416.6
 21
289.774712
 31
0.0
  0
LINE
  5
10946
330
10553
100
AcDbEntity
  8
4
  6
CENTER
100
AcDbLine
 10
416.6
 20
66.22528800000001
 30
0.0
 11
416.6
 21
55.725288
 31
0.0
  0
ARC
  5
10947
330
10553
100
AcDbEntity
  8
1
  6
Continuous
100
AcDbCircle
 10
417.0
 20
172.75
 30
0.0
 40
2.25
100
AcDbArc
 50
270.0
 51
90.0
  0
ARC
  5
10948
330
10553
100
AcDbEntity
  8
1
  6
Continuous
100
AcDbCircle
 10
416.1999999999999
 20
172.75
 30
0.0
 40
2.25
100
AcDbArc
 50
90.0
 51
270.0
  0
LINE
  5
10949
330
10553
100
AcDbEntity
  8
1
  6
Continuous
100
AcDbLine
 10
416.1999999999999
 20
170.5
 30
0.0
 11
417.0
 21
170.5
 31
0.0
  0
LINE
  5
1094A
330
10553
100
AcDbEntity
  8
4
  6
CENTER
100
AcDbLine
 10
416.6
 20
167.5
 30
0.0
 11
416.6
 21
178.0
 31
0.0
  0
LINE
  5
1094B
330
10553
100
AcDbEntity
  8
1
  6
Continuous
100
AcDbLine
 10
416.1999999999999
 20
175.0
 30
0.0
 11
417.0
 21
175.0
 31
0.0
  0
LINE
  5
1094C
330
10553
100
AcDbEntity
  8
5
  6
PHANTOM
100
AcDbLine
 10
480.2999999999998
 20
160.4999999999998
 30
0.0
 11
833.2999999999996
 21
160.4999999999998
 31
0.0
  0
LINE
  5
1094D
330
10553
100
AcDbEntity
  8
5
  6
PHANTOM
100
AcDbLine
 10
480.2999999999998
 20
185.0
 30
0.0
 11
833.2999999999996
 21
185.0
 31
0.0
  0
LINE
  5
1094E
330
10553
100
AcDbEntity
  8
5
  6
PHANTOM
100
AcDbLine
 10
480.2999999999998
 20
165.25
 30
0.0
 11
480.2999999999998
 21
180.25
 31
0.0
  0
ARC
  5
1094F
330
10553
100
AcDbEntity
  8
5
  6
PHANTOM
100
AcDbCircle
 10
508.8999999999998
 20
173.15
 30
0.0
 40
2.25
100
AcDbArc
 50
0.0
 51
180.0
  0
ARC
  5
10950
330
10553
100
AcDbEntity
  8
5
  6
PHANTOM
100
AcDbCircle
 10
508.8999999999998
 20
172.35
 30
0.0
 40
2.25
100
AcDbArc
 50
180.0
 51
0.0
  0
LINE
  5
10951
330
10553
100
AcDbEntity
  8
5
  6
PHANTOM
100
AcDbLine
 10
511.1499999999998
 20
172.35
 30
0.0
 11
511.1499999999998
 21
173.15
 31
0.0
  0
LINE
  5
10952
330
10553
100
AcDbEntity
  8
5
  6
PHANTOM
100
AcDbLine
 10
506.6499999999998
 20
172.35
 30
0.0
 11
506.6499999999998
 21
173.15
 31
0.0
  0
LINE
  5
10953
330
10553
100
AcDbEntity
  8
5
  6
PHANTOM
100
AcDbLine
 10
493.9499999999998
 20
172.35
 30
0.0
 11
493.9499999999998
 21
173.15
 31
0.0
  0
LINE
  5
10954
330
10553
100
AcDbEntity
  8
5
  6
PHANTOM
100
AcDbLine
 10
498.4499999999998
 20
172.35
 30
0.0
 11
498.4499999999998
 21
173.15
 31
0.0
  0
ARC
  5
10955
330
10553
100
AcDbEntity
  8
5
  6
PHANTOM
100
AcDbCircle
 10
496.1999999999998
 20
172.35
 30
0.0
 40
2.25
100
AcDbArc
 50
180.0
 51
0.0
  0
ARC
  5
10956
330
10553
100
AcDbEntity
  8
5
  6
PHANTOM
100
AcDbCircle
 10
496.1999999999998
 20
173.15
 30
0.0
 40
2.25
100
AcDbArc
 50
0.0
 51
180.0
  0
ARC
  5
10957
330
10553
100
AcDbEntity
  8
5
  6
PHANTOM
100
AcDbCircle
 10
620.3999999999997
 20
172.75
 30
0.0
 40
2.25
100
AcDbArc
 50
270.0
 51
90.0
  0
ARC
  5
10958
330
10553
100
AcDbEntity
  8
5
  6
PHANTOM
100
AcDbCircle
 10
619.6
 20
172.75
 30
0.0
 40
2.25
100
AcDbArc
 50
90.0
 51
270.0
  0
LINE
  5
10959
330
10553
100
AcDbEntity
  8
5
  6
PHANTOM
100
AcDbLine
 10
619.6
 20
170.5
 30
0.0
 11
620.3999999999997
 21
170.5
 31
0.0
  0
LINE
  5
1095A
330
10553
100
AcDbEntity
  8
4
  6
CENTER
100
AcDbLine
 10
620.0
 20
167.5
 30
0.0
 11
620.0
 21
178.0
 31
0.0
  0
LINE
  5
1095B
330
10553
100
AcDbEntity
  8
5
  6
PHANTOM
100
AcDbLine
 10
619.6
 20
175.0
 30
0.0
 11
620.3999999999997
 21
175.0
 31
0.0
  0
LINE
  5
1095C
330
10553
100
AcDbEntity
  8
5
  6
PHANTOM
100
AcDbLine
 10
681.7999999999998
 20
169.0
 30
0.0
 11
681.7999999999998
 21
176.5
 31
0.0
  0
ARC
  5
1095D
330
10553
100
AcDbEntity
  8
5
  6
PHANTOM
100
AcDbCircle
 10
679.2999999999998
 20
176.5
 30
0.0
 40
2.5
100
AcDbArc
 50
0.0
 51
180.0
  0
ARC
  5
1095E
330
10553
100
AcDbEntity
  8
5
  6
PHANTOM
100
AcDbCircle
 10
679.2999999999998
 20
169.0
 30
0.0
 40
2.5
100
AcDbArc
 50
180.0
 51
0.0
  0
LINE
  5
1095F
330
10553
100
AcDbEntity
  8
5
  6
PHANTOM
100
AcDbLine
 10
676.7999999999998
 20
169.0
 30
0.0
 11
676.7999999999998
 21
176.5
 31
0.0
  0
LINE
  5
10960
330
10553
100
AcDbEntity
  8
5
  6
PHANTOM
100
AcDbLine
 10
794.2000000000001
 20
175.0
 30
0.0
 11
795.0
 21
175.0
 31
0.0
  0
LINE
  5
10961
330
10553
100
AcDbEntity
  8
4
  6
CENTER
100
AcDbLine
 10
794.6
 20
167.5
 30
0.0
 11
794.6
 21
178.0
 31
0.0
  0
LINE
  5
10962
330
10553
100
AcDbEntity
  8
5
  6
PHANTOM
100
AcDbLine
 10
794.2000000000001
 20
170.5
 30
0.0
 11
795.0
 21
170.5
 31
0.0
  0
ARC
  5
10963
330
10553
100
AcDbEntity
  8
5
  6
PHANTOM
100
AcDbCircle
 10
794.2000000000001
 20
172.75
 30
0.0
 40
2.25
100
AcDbArc
 50
90.0
 51
270.0
  0
ARC
  5
10964
330
10553
100
AcDbEntity
  8
5
  6
PHANTOM
100
AcDbCircle
 10
795.0
 20
172.75
 30
0.0
 40
2.25
100
AcDbArc
 50
270.0
 51
90.0
  0
LINE
  5
10965
330
10553
100
AcDbEntity
  8
5
  6
PHANTOM
100
AcDbLine
 10
831.2999999999997
 20
182.2499999999998
 30
0.0
 11
831.2999999999997
 21
185.0
 31
0.0
  0
LINE
  5
10966
330
10553
100
AcDbEntity
  8
5
  6
PHANTOM
100
AcDbLine
 10
833.2999999999996
 20
182.8375
 30
0.0
 11
833.2999999999996
 21
185.0
 31
0.0
  0
LINE
  5
10967
330
10553
100
AcDbEntity
  8
5
  6
PHANTOM
100
AcDbLine
 10
831.2999999999997
 20
162.6624999999999
 30
0.0
 11
833.2999999999996
 21
162.6624999999999
 31
0.0
  0
LINE
  5
10968
330
10553
100
AcDbEntity
  8
5
  6
PHANTOM
100
AcDbLine
 10
831.2999999999997
 20
182.8375
 30
0.0
 11
833.2999999999996
 21
182.8375
 31
0.0
  0
ARC
  5
10969
330
10553
100
AcDbEntity
  8
5
  6
PHANTOM
100
AcDbCircle
 10
830.2999999999999
 20
163.25
 30
0.0
 40
1.0
100
AcDbArc
 50
0.0
 51
90.0
  0
ARC
  5
1096A
330
10553
100
AcDbEntity
  8
5
  6
PHANTOM
100
AcDbCircle
 10
830.2999999999999
 20
182.2499999999998
 30
0.0
 40
1.0
100
AcDbArc
 50
270.0
 51
0.0
  0
LINE
  5
1096B
330
10553
100
AcDbEntity
  8
5
  6
PHANTOM
100
AcDbLine
 10
833.2999999999996
 20
162.6624999999999
 30
0.0
 11
833.2999999999996
 21
160.4999999999998
 31
0.0
  0
ARC
  5
1096C
330
10553
100
AcDbEntity
  8
5
  6
PHANTOM
100
AcDbCircle
 10
831.7999999999997
 20
167.25
 30
0.0
 40
1.5
100
AcDbArc
 50
270.0
 51
0.0
  0
LINE
  5
1096D
330
10553
100
AcDbEntity
  8
5
  6
PHANTOM
100
AcDbLine
 10
828.0499999999998
 20
165.7499999999998
 30
0.0
 11
831.7999999999997
 21
165.7499999999998
 31
0.0
  0
ARC
  5
1096E
330
10553
100
AcDbEntity
  8
5
  6
PHANTOM
100
AcDbCircle
 10
828.0499999999998
 20
165.0
 30
0.0
 40
0.75
100
AcDbArc
 50
90.0
 51
270.0
  0
LINE
  5
1096F
330
10553
100
AcDbEntity
  8
5
  6
PHANTOM
100
AcDbLine
 10
828.0499999999998
 20
164.25
 30
0.0
 11
830.2999999999999
 21
164.25
 31
0.0
  0
LINE
  5
10970
330
10553
100
AcDbEntity
  8
5
  6
PHANTOM
100
AcDbLine
 10
831.2999999999997
 20
163.25
 30
0.0
 11
831.2999999999997
 21
160.4999999999998
 31
0.0
  0
ARC
  5
10971
330
10553
100
AcDbEntity
  8
5
  6
PHANTOM
100
AcDbCircle
 10
828.0499999999998
 20
180.4999999999998
 30
0.0
 40
0.75
100
AcDbArc
 50
90.0
 51
270.0
  0
ARC
  5
10972
330
10553
100
AcDbEntity
  8
5
  6
PHANTOM
100
AcDbCircle
 10
831.7999999999997
 20
178.2499999999998
 30
0.0
 40
1.5
100
AcDbArc
 50
0.0
 51
90.0
  0
LINE
  5
10973
330
10553
100
AcDbEntity
  8
5
  6
PHANTOM
100
AcDbLine
 10
828.0499999999998
 20
181.25
 30
0.0
 11
830.2999999999999
 21
181.25
 31
0.0
  0
LINE
  5
10974
330
10553
100
AcDbEntity
  8
5
  6
PHANTOM
100
AcDbLine
 10
828.0499999999998
 20
179.75
 30
0.0
 11
831.7999999999997
 21
179.75
 31
0.0
  0
LINE
  5
10975
330
10553
100
AcDbEntity
  8
5
  6
PHANTOM
100
AcDbLine
 10
833.2999999999996
 20
167.25
 30
0.0
 11
833.2999999999996
 21
178.2499999999998
 31
0.0
  0
ENDSEC
  0
SECTION
  2
OBJECTS
  0
DICTIONARY
  5
10541
330
0
100
AcDbDictionary
281
     1
  3
ACAD_CIP_PREVIOUS_PRODUCT_INFO
350
109D5
  3
ACAD_COLOR
350
109B7
  3
ACAD_DETAILVIEWSTYLE
350
109D0
  3
ACAD_GROUP
350
10542
  3
ACAD_LAYOUT
350
1054E
  3
ACAD_MATERIAL
350
10985
  3
ACAD_MLEADERSTYLE
350
109CC
  3
ACAD_MLINESTYLE
350
1054B
  3
ACAD_PLOTSETTINGS
350
1054D
  3
ACAD_PLOTSTYLENAME
350
10983
  3
ACAD_SCALELIST
350
109BA
  3
ACAD_SECTIONVIEWSTYLE
350
109CE
  3
ACAD_TABLESTYLE
350
109B8
  3
ACAD_VISUALSTYLE
350
1099E
  3
ACDB_RECOMPOSE_DATA
350
109F3
  3
AcDbVariableDictionary
350
109E6
  3
DWGPROPS
350
109F4
  0
DICTIONARY
  5
109D6
330
10545
100
AcDbDictionary
280
     1
281
     1
  3
ADSK_XREC_LAYER_RECONCILED
360
109D7
  0
DICTIONARY
  5
109D8
330
1055B
100
AcDbDictionary
280
     1
281
     1
  3
ADSK_XREC_LAYER_RECONCILED
360
109D9
  0
DICTIONARY
  5
109DA
330
1055C
100
AcDbDictionary
280
     1
281
     1
  3
ADSK_XREC_LAYER_RECONCILED
360
109DB
  0
DICTIONARY
  5
109DC
330
1055D
100
AcDbDictionary
280
     1
281
     1
  3
ADSK_XREC_LAYER_RECONCILED
360
109DD
  0
DICTIONARY
  5
109DE
330
1055E
100
AcDbDictionary
280
     1
281
     1
  3
ADSK_XREC_LAYER_RECONCILED
360
109DF
  0
DICTIONARY
  5
109E0
330
1055F
100
AcDbDictionary
280
     1
281
     1
  3
ADSK_XREC_LAYER_RECONCILED
360
109E1
  0
DICTIONARY
  5
109E2
330
10560
100
AcDbDictionary
280
     1
281
     1
  3
ADSK_XREC_LAYER_RECONCILED
360
109E3
  0
DICTIONARY
  5
109E4
330
10561
100
AcDbDictionary
280
     1
281
     1
  3
ADSK_XREC_LAYER_RECONCILED
360
109E5
  0
DICTIONARY
  5
1097E
330
10553
100
AcDbDictionary
281
     1
  3
ACAD_LAYOUTSELFREF
350
1097F
  0
DICTIONARY
  5
1097C
330
1054F
100
AcDbDictionary
281
     1
  3
ACAD_LAYOUTSELFREF
350
1097D
  0
XRECORD
  5
109D5
102
{ACAD_REACTORS
330
10541
102
}
330
10541
100
AcDbXrecord
280
     1
300
ACDLT
300
2014
300
ACDLT_F_S
  0
DICTIONARY
  5
109B7
102
{ACAD_REACTORS
330
10541
102
}
330
10541
100
AcDbDictionary
281
     1
  0
DICTIONARY
  5
109D0
102
{ACAD_REACTORS
330
10541
102
}
330
10541
100
AcDbDictionary
281
     1
  3
Imperial24
350
109D1
  0
DICTIONARY
  5
10542
102
{ACAD_REACTORS
330
10541
102
}
330
10541
100
AcDbDictionary
281
     1
  0
DICTIONARY
  5
1054E
102
{ACAD_REACTORS
330
10541
102
}
330
10541
100
AcDbDictionary
281
     1
  3
Model
350
109D2
  3
レイアウト1
350
109D3
  0
DICTIONARY
  5
10985
102
{ACAD_REACTORS
330
10541
102
}
330
10541
100
AcDbDictionary
281
     1
  3
ByBlock
350
1098E
  3
ByLayer
350
10986
  3
Global
350
10996
  0
DICTIONARY
  5
109CC
102
{ACAD_REACTORS
330
10541
102
}
330
10541
100
AcDbDictionary
281
     1
  3
Standard
350
109CD
  0
DICTIONARY
  5
1054B
102
{ACAD_REACTORS
330
10541
102
}
330
10541
100
AcDbDictionary
281
     1
  3
STANDARD
350
1054C
  0
DICTIONARY
  5
1054D
102
{ACAD_REACTORS
330
10541
102
}
330
10541
100
AcDbDictionary
281
     1
  0
ACDBDICTIONARYWDFLT
  5
10983
102
{ACAD_REACTORS
330
10541
102
}
330
10541
100
AcDbDictionary
281
     1
  3
Normal
350
10984
100
AcDbDictionaryWithDefault
340
10984
  0
DICTIONARY
  5
109BA
102
{ACAD_REACTORS
330
10541
102
}
330
10541
100
AcDbDictionary
281
     1
  3
A0
350
109BB
  3
A1
350
109BC
  3
A2
350
109BD
  3
A3
350
109BE
  3
A4
350
109BF
  3
A5
350
109C0
  3
A6
350
109C1
  3
A7
350
109C2
  3
A8
350
109C3
  3
A9
350
109C4
  3
B0
350
109C5
  3
B1
350
109C6
  3
B2
350
109C7
  3
B3
350
109C8
  3
B4
350
109C9
  3
B5
350
109CA
  3
B6
350
109CB
  0
DICTIONARY
  5
109CE
102
{ACAD_REACTORS
330
10541
102
}
330
10541
100
AcDbDictionary
281
     1
  3
Imperial24
350
109CF
  0
DICTIONARY
  5
109B8
102
{ACAD_REACTORS
330
10541
102
}
330
10541
100
AcDbDictionary
281
     1
  3
Standard
350
109B9
  0
DICTIONARY
  5
1099E
102
{ACAD_REACTORS
330
10541
102
}
330
10541
100
AcDbDictionary
281
     1
  3
2dWireframe
350
109A4
  3
Basic
350
109A3
  3
Brighten
350
109AA
  3
ColorChange
350
109AE
  3
Conceptual
350
109A7
  3
Dim
350
109A9
  3
EdgeColorOff
350
109B6
  3
Facepattern
350
109AD
  3
Flat
350
1099F
  3
FlatWithEdges
350
109A0
  3
Gouraud
350
109A1
  3
GouraudWithEdges
350
109A2
  3
Hidden
350
109A6
  3
JitterOff
350
109B4
  3
Linepattern
350
109AC
  3
OverhangOff
350
109B5
  3
Realistic
350
109A8
  3
Shaded
350
109B3
  3
Shaded with edges
350
109B2
  3
Shades of Gray
350
109AF
  3
Sketchy
350
109B0
  3
Thicken
350
109AB
  3
Wireframe
350
109A5
  3
X-Ray
350
109B1
  0
XRECORD
  5
109F3
102
{ACAD_REACTORS
330
10541
102
}
330
10541
100
AcDbXrecord
280
     1
 90
        1
330
109B9
  0
DICTIONARY
  5
109E6
102
{ACAD_REACTORS
330
10541
102
}
330
10541
100
AcDbDictionary
281
     1
  3
CANNOSCALE
350
109EB
  3
CMLEADERSTYLE
350
109E8
  3
CTABLESTYLE
350
109E7
  3
CVIEWDETAILSTYLE
350
109E9
  3
CVIEWSECTIONSTYLE
350
109EA
  3
DIMASSOC
350
109EE
  3
INDEXCTL
350
109ED
  3
SORTENTS
350
109EC
  3
XCLIPFRAME
350
109EF
  0
XRECORD
  5
109F4
102
{ACAD_REACTORS
330
10541
102
}
330
10541
100
AcDbXrecord
280
     1
  1
DWGPROPS COOKIE
  2

  3

  4

  6

  7

  8
Yoshitsune
  9

300
=
301
=
302
=
303
=
304
=
305
=
306
=
307
=
308
=
309
=
 40
0.0000132060185185
 41
2451301.78822662
 42
2457192.659581389
  1

 90
        0
  0
XRECORD
  5
109D7
102
{ACAD_REACTORS
330
109D6
102
}
330
109D6
100
AcDbXrecord
280
     1
290
     1
  0
XRECORD
  5
109D9
102
{ACAD_REACTORS
330
109D8
102
}
330
109D8
100
AcDbXrecord
280
     1
290
     1
  0
XRECORD
  5
109DB
102
{ACAD_REACTORS
330
109DA
102
}
330
109DA
100
AcDbXrecord
280
     1
290
     1
  0
XRECORD
  5
109DD
102
{ACAD_REACTORS
330
109DC
102
}
330
109DC
100
AcDbXrecord
280
     1
290
     1
  0
XRECORD
  5
109DF
102
{ACAD_REACTORS
330
109DE
102
}
330
109DE
100
AcDbXrecord
280
     1
290
     1
  0
XRECORD
  5
109E1
102
{ACAD_REACTORS
330
109E0
102
}
330
109E0
100
AcDbXrecord
280
     1
290
     1
  0
XRECORD
  5
109E3
102
{ACAD_REACTORS
330
109E2
102
}
330
109E2
100
AcDbXrecord
280
     1
290
     1
  0
XRECORD
  5
109E5
102
{ACAD_REACTORS
330
109E4
102
}
330
109E4
100
AcDbXrecord
280
     1
290
     1
  0
XRECORD
  5
1097F
102
{ACAD_REACTORS
330
1097E
102
}
330
1097E
100
AcDbXrecord
280
     1
340
10553
  0
XRECORD
  5
1097D
102
{ACAD_REACTORS
330
1097C
102
}
330
1097C
100
AcDbXrecord
280
     1
340
1054F
  0
ACDBDETAILVIEWSTYLE
  5
109D1
102
{ACAD_XDICTIONARY
360
10A2C
102
}
102
{ACAD_REACTORS
330
109D0
102
}
330
109D0
100
AcDbModelDocViewStyle
 70
     0
  3
Imperial24
290
     0
100
AcDbDetailViewStyle
 70
     0
 71
     0
 90
        3
 71
     1
340
10546
 40
0.24
340
0
 40
0.24
300

 40
0.36
280
     3
 71
     2
340
1054A
 90
       25
 71
     3
340
10546
 40
0.24
 90
        1
 40
0.75
 90
        1
300
%<\AcVar ViewType \f "%tc1">% %<\AcVar ViewDetailId>%\PSCALE %<\AcVar ViewScale \f "%sn">%
 71
     4
340
1054A
 90
       25
340
1054A
 90
       25
280
     0
  0
LAYOUT
  5
109D2
102
{ACAD_XDICTIONARY
360
10A2E
102
}
102
{ACAD_REACTORS
330
1054E
102
}
330
1054E
100
AcDbPlotSettings
  1

  2
Canon LBP9100C
  4

  6

 40
0.0
 41
0.0
 42
0.0
 43
0.0
 44
0.0
 45
0.0
 46
0.0
 47
0.0
 48
0.0
 49
0.0
140
0.0
141
0.0
142
1.0
143
1.0
 70
  1712
 72
     0
 73
     0
 74
     0
  7

 75
     0
147
1.0
148
0.0
149
0.0
100
AcDbLayout
  1
Model
 70
     1
 71
     0
 10
0.0
 20
0.0
 11
12.0
 21
9.0
 12
0.0
 22
0.0
 32
0.0
 14
0.0
 24
0.0
 34
0.0
 15
0.0
 25
0.0
 35
0.0
146
0.0
 13
0.0
 23
0.0
 33
0.0
 16
1.0
 26
0.0
 36
0.0
 17
0.0
 27
1.0
 37
0.0
 76
     0
330
10553
331
1097B
  0
LAYOUT
  5
109D3
102
{ACAD_XDICTIONARY
360
10A30
102
}
102
{ACAD_REACTORS
330
1054E
102
}
330
1054E
100
AcDbPlotSettings
  1

  2
Canon LBP9100C
  4

  6

 40
0.0
 41
0.0
 42
0.0
 43
0.0
 44
0.0
 45
0.0
 46
0.0
 47
0.0
 48
0.0
 49
0.0
140
0.0
141
0.0
142
1.0
143
1.0
 70
   688
 72
     0
 73
     0
 74
     5
  7

 75
    16
147
1.0
148
0.0
149
0.0
100
AcDbLayout
  1
レイアウト1
 70
     0
 71
     1
 10
0.0
 20
0.0
 11
420.0
 21
297.0
 12
0.0
 22
0.0
 32
0.0
 14
1.000000000000000E+20
 24
1.000000000000000E+20
 34
1.000000000000000E+20
 15
-1.000000000000000E+20
 25
-1.000000000000000E+20
 35
-1.000000000000000E+20
146
0.0
 13
0.0
 23
0.0
 33
0.0
 16
1.0
 26
0.0
 36
0.0
 17
0.0
 27
1.0
 37
0.0
 76
     0
330
1054F
  0
MATERIAL
  5
1098E
102
{ACAD_XDICTIONARY
360
1098F
102
}
102
{ACAD_REACTORS
330
10985
102
}
330
10985
100
AcDbMaterial
  1
ByBlock
 72
     0
 43
0.0208333333333333
 43
0.0
 43
0.0
 43
0.0
 43
0.0
 43
0.0208333333333333
 43
0.0
 43
0.0
 43
0.0
 43
0.0
 43
1.0
 43
0.0
 43
0.0
 43
0.0
 43
0.0
 43
1.0
 77
     0
 47
0.0208333333333333
 47
0.0
 47
0.0
 47
0.0
 47
0.0
 47
0.0208333333333333
 47
0.0
 47
0.0
 47
0.0
 47
0.0
 47
1.0
 47
0.0
 47
0.0
 47
0.0
 47
0.0
 47
1.0
171
     0
 49
0.0208333333333333
 49
0.0
 49
0.0
 49
0.0
 49
0.0
 49
0.0208333333333333
 49
0.0
 49
0.0
 49
0.0
 49
0.0
 49
1.0
 49
0.0
 49
0.0
 49
0.0
 49
0.0
 49
1.0
175
     0
142
0.0208333333333333
142
0.0
142
0.0
142
0.0
142
0.0
142
0.0208333333333333
142
0.0
142
0.0
142
0.0
142
0.0
142
1.0
142
0.0
142
0.0
142
0.0
142
0.0
142
1.0
179
     0
144
0.0208333333333333
144
0.0
144
0.0
144
0.0
144
0.0
144
0.0208333333333333
144
0.0
144
0.0
144
0.0
144
0.0
144
1.0
144
0.0
144
0.0
144
0.0
144
0.0
144
1.0
147
0.0208333333333333
147
0.0
147
0.0
147
0.0
147
0.0
147
0.0208333333333333
147
0.0
147
0.0
147
0.0
147
0.0
147
1.0
147
0.0
147
0.0
147
0.0
147
0.0
147
1.0
  0
MATERIAL
  5
10986
102
{ACAD_XDICTIONARY
360
10987
102
}
102
{ACAD_REACTORS
330
10985
102
}
330
10985
100
AcDbMaterial
  1
ByLayer
 72
     0
 43
0.0208333333333333
 43
0.0
 43
0.0
 43
0.0
 43
0.0
 43
0.0208333333333333
 43
0.0
 43
0.0
 43
0.0
 43
0.0
 43
1.0
 43
0.0
 43
0.0
 43
0.0
 43
0.0
 43
1.0
 77
     0
 47
0.0208333333333333
 47
0.0
 47
0.0
 47
0.0
 47
0.0
 47
0.0208333333333333
 47
0.0
 47
0.0
 47
0.0
 47
0.0
 47
1.0
 47
0.0
 47
0.0
 47
0.0
 47
0.0
 47
1.0
171
     0
 49
0.0208333333333333
 49
0.0
 49
0.0
 49
0.0
 49
0.0
 49
0.0208333333333333
 49
0.0
 49
0.0
 49
0.0
 49
0.0
 49
1.0
 49
0.0
 49
0.0
 49
0.0
 49
0.0
 49
1.0
175
     0
142
0.0208333333333333
142
0.0
142
0.0
142
0.0
142
0.0
142
0.0208333333333333
142
0.0
142
0.0
142
0.0
142
0.0
142
1.0
142
0.0
142
0.0
142
0.0
142
0.0
142
1.0
179
     0
144
0.0208333333333333
144
0.0
144
0.0
144
0.0
144
0.0
144
0.0208333333333333
144
0.0
144
0.0
144
0.0
144
0.0
144
1.0
144
0.0
144
0.0
144
0.0
144
0.0
144
1.0
147
0.0208333333333333
147
0.0
147
0.0
147
0.0
147
0.0
147
0.0208333333333333
147
0.0
147
0.0
147
0.0
147
0.0
147
1.0
147
0.0
147
0.0
147
0.0
147
0.0
147
1.0
  0
MATERIAL
  5
10996
102
{ACAD_XDICTIONARY
360
10997
102
}
102
{ACAD_REACTORS
330
10985
102
}
330
10985
100
AcDbMaterial
  1
Global
 72
     0
 43
0.0208333333333333
 43
0.0
 43
0.0
 43
0.0
 43
0.0
 43
0.0208333333333333
 43
0.0
 43
0.0
 43
0.0
 43
0.0
 43
1.0
 43
0.0
 43
0.0
 43
0.0
 43
0.0
 43
1.0
 77
     0
 47
0.0208333333333333
 47
0.0
 47
0.0
 47
0.0
 47
0.0
 47
0.0208333333333333
 47
0.0
 47
0.0
 47
0.0
 47
0.0
 47
1.0
 47
0.0
 47
0.0
 47
0.0
 47
0.0
 47
1.0
171
     0
 49
0.0208333333333333
 49
0.0
 49
0.0
 49
0.0
 49
0.0
 49
0.0208333333333333
 49
0.0
 49
0.0
 49
0.0
 49
0.0
 49
1.0
 49
0.0
 49
0.0
 49
0.0
 49
0.0
 49
1.0
175
     0
142
0.0208333333333333
142
0.0
142
0.0
142
0.0
142
0.0
142
0.0208333333333333
142
0.0
142
0.0
142
0.0
142
0.0
142
1.0
142
0.0
142
0.0
142
0.0
142
0.0
142
1.0
179
     0
144
0.0208333333333333
144
0.0
144
0.0
144
0.0
144
0.0
144
0.0208333333333333
144
0.0
144
0.0
144
0.0
144
0.0
144
1.0
144
0.0
144
0.0
144
0.0
144
0.0
144
1.0
147
0.0208333333333333
147
0.0
147
0.0
147
0.0
147
0.0
147
0.0208333333333333
147
0.0
147
0.0
147
0.0
147
0.0
147
1.0
147
0.0
147
0.0
147
0.0
147
0.0
147
1.0
  0
MLEADERSTYLE
  5
109CD
102
{ACAD_REACTORS
330
109CC
102
}
330
109CC
100
AcDbMLeaderStyle
170
     2
171
     1
172
     0
 90
        2
 40
0.0
 41
0.0
173
     1
 91
-1056964608
340
10548
 92
       -2
290
     1
 42
0.09
291
     1
 43
0.36
  3
Standard
 44
0.18
300

342
10546
174
     1
178
     6
175
     1
176
     0
 93
-1056964608
 45
0.18
292
     0
297
     0
 46
0.18
 94
-1056964608
 47
1.0
 49
1.0
140
1.0
293
     1
141
0.0
294
     1
177
     0
142
1.0
295
     0
296
     0
143
0.125
1001
ACAD_MLEADERVER
1070
     2
  0
MLINESTYLE
  5
1054C
102
{ACAD_REACTORS
330
1054B
102
}
330
1054B
100
AcDbMlineStyle
  2
STANDARD
 70
     0
  3

 62
   256
 51
90.0
 52
90.0
 71
     2
 49
0.5
 62
   256
  6
BYLAYER
 49
-0.5
 62
   256
  6
BYLAYER
  0
ACDBPLACEHOLDER
  5
10984
102
{ACAD_REACTORS
330
10983
102
}
330
10983
  0
SCALE
  5
109BB
102
{ACAD_REACTORS
330
109BA
102
}
330
109BA
100
AcDbScale
 70
     0
300
1:1
140
1.0
141
1.0
290
     1
  0
SCALE
  5
109BC
102
{ACAD_REACTORS
330
109BA
102
}
330
109BA
100
AcDbScale
 70
     0
300
1/128" = 1'-0"
140
0.0078125
141
12.0
290
     0
  0
SCALE
  5
109BD
102
{ACAD_REACTORS
330
109BA
102
}
330
109BA
100
AcDbScale
 70
     0
300
1/64" = 1'-0"
140
0.015625
141
12.0
290
     0
  0
SCALE
  5
109BE
102
{ACAD_REACTORS
330
109BA
102
}
330
109BA
100
AcDbScale
 70
     0
300
1/32" = 1'-0"
140
0.03125
141
12.0
290
     0
  0
SCALE
  5
109BF
102
{ACAD_REACTORS
330
109BA
102
}
330
109BA
100
AcDbScale
 70
     0
300
1/16" = 1'-0"
140
0.0625
141
12.0
290
     0
  0
SCALE
  5
109C0
102
{ACAD_REACTORS
330
109BA
102
}
330
109BA
100
AcDbScale
 70
     0
300
3/32" = 1'-0"
140
0.09375
141
12.0
290
     0
  0
SCALE
  5
109C1
102
{ACAD_REACTORS
330
109BA
102
}
330
109BA
100
AcDbScale
 70
     0
300
1/8" = 1'-0"
140
0.125
141
12.0
290
     0
  0
SCALE
  5
109C2
102
{ACAD_REACTORS
330
109BA
102
}
330
109BA
100
AcDbScale
 70
     0
300
3/16" = 1'-0"
140
0.1875
141
12.0
290
     0
  0
SCALE
  5
109C3
102
{ACAD_REACTORS
330
109BA
102
}
330
109BA
100
AcDbScale
 70
     0
300
1/4" = 1'-0"
140
0.25
141
12.0
290
     0
  0
SCALE
  5
109C4
102
{ACAD_REACTORS
330
109BA
102
}
330
109BA
100
AcDbScale
 70
     0
300
3/8" = 1'-0"
140
0.375
141
12.0
290
     0
  0
SCALE
  5
109C5
102
{ACAD_REACTORS
330
109BA
102
}
330
109BA
100
AcDbScale
 70
     0
300
1/2" = 1'-0"
140
0.5
141
12.0
290
     0
  0
SCALE
  5
109C6
102
{ACAD_REACTORS
330
109BA
102
}
330
109BA
100
AcDbScale
 70
     0
300
3/4" = 1'-0"
140
0.75
141
12.0
290
     0
  0
SCALE
  5
109C7
102
{ACAD_REACTORS
330
109BA
102
}
330
109BA
100
AcDbScale
 70
     0
300
1" = 1'-0"
140
1.0
141
12.0
290
     0
  0
SCALE
  5
109C8
102
{ACAD_REACTORS
330
109BA
102
}
330
109BA
100
AcDbScale
 70
     0
300
1-1/2" = 1'-0"
140
1.5
141
12.0
290
     0
  0
SCALE
  5
109C9
102
{ACAD_REACTORS
330
109BA
102
}
330
109BA
100
AcDbScale
 70
     0
300
3" = 1'-0"
140
3.0
141
12.0
290
     0
  0
SCALE
  5
109CA
102
{ACAD_REACTORS
330
109BA
102
}
330
109BA
100
AcDbScale
 70
     0
300
6" = 1'-0"
140
6.0
141
12.0
290
     0
  0
SCALE
  5
109CB
102
{ACAD_REACTORS
330
109BA
102
}
330
109BA
100
AcDbScale
 70
     0
300
1'-0" = 1'-0"
140
12.0
141
12.0
290
     0
  0
ACDBSECTIONVIEWSTYLE
  5
109CF
102
{ACAD_XDICTIONARY
360
10A2A
102
}
102
{ACAD_REACTORS
330
109CE
102
}
330
109CE
100
AcDbModelDocViewStyle
 70
     0
  3
Imperial24
290
     0
100
AcDbSectionViewStyle
 70
     0
 71
     0
 90
       78
 71
     1
340
10546
 40
0.24
340
0
340
0
 40
0.24
300
I, O, Q, S, X, Z
 40
0.48
 90
        3
 40
0.18
 90
        1
 71
     2
340
1054A
 90
       25
340
1054A
 90
       50
 40
0.24
 40
0.0
 40
0.24
 71
     3
340
10546
 40
0.24
 90
        1
 40
0.75
 90
        1
300
%<\AcVar ViewType \f "%tc1">% %<\AcVar ViewSectionStartId>%-%<\AcVar ViewSectionEndId>%\PSCALE %<\AcVar ViewScale \f "%sn">%
 71
     4
300
ANSI31
 40
1.0
 90
        0
290
     0
290
     0
 90
        6
 40
0.0
 40
1.570796326794896
 40
0.2617993877991494
 40
1.308996938995747
 40
-0.2617993877991494
 40
1.832595714594046
  0
TABLESTYLE
  5
109B9
102
{ACAD_XDICTIONARY
360
109F1
102
}
102
{ACAD_REACTORS
330
109B8
102
}
330
109B8
100
AcDbTableStyle
  3
Standard
 70
     0
 71
     0
 40
0.06
 41
0.06
280
     0
281
     0
  7
STANDARD
140
0.18
170
     2
 62
     0
 63
     7
283
     0
274
    -2
284
     1
 64
     0
275
    -2
285
     1
 65
     0
276
    -2
286
     1
 66
     0
277
    -2
287
     1
 67
     0
278
    -2
288
     1
 68
     0
279
    -2
289
     1
 69
     0
  7
STANDARD
140
0.25
170
     5
 62
     0
 63
     7
283
     0
274
    -2
284
     1
 64
     0
275
    -2
285
     1
 65
     0
276
    -2
286
     1
 66
     0
277
    -2
287
     1
 67
     0
278
    -2
288
     1
 68
     0
279
    -2
289
     1
 69
     0
  7
STANDARD
140
0.18
170
     5
 62
     0
 63
     7
283
     0
274
    -2
284
     1
 64
     0
275
    -2
285
     1
 65
     0
276
    -2
286
     1
 66
     0
277
    -2
287
     1
 67
     0
278
    -2
288
     1
 68
     0
279
    -2
289
     1
 69
     0
  0
VISUALSTYLE
  5
109A4
102
{ACAD_XDICTIONARY
360
10A02
102
}
102
{ACAD_REACTORS
330
1099E
102
}
330
1099E
100
AcDbVisualStyle
  2
2dWireframe
 70
     4
 71
     0
 72
     2
 73
     0
 90
        0
 40
-0.6
 41
-30.0
 62
     5
 63
     7
 74
     1
 91
        4
 64
     7
 65
   257
 75
     1
175
     1
 42
1.0
 92
        0
 66
   257
 43
1.0
 76
     1
 77
     6
 78
     2
 67
     7
 79
     5
170
     0
171
     0
290
     0
174
     0
 93
        1
 44
0.0
173
     0
291
     0
 45
0.0
1001
ACAD
1000
AcDbSavedByObjectVersion
1070
     0
  0
VISUALSTYLE
  5
109A3
102
{ACAD_XDICTIONARY
360
10A00
102
}
102
{ACAD_REACTORS
330
1099E
102
}
330
1099E
100
AcDbVisualStyle
  2
Basic
 70
     7
 71
     1
 72
     0
 73
     1
 90
        0
 40
-0.6
 41
-30.0
 62
     5
 63
     7
 74
     0
 91
        4
 64
     7
 65
   257
 75
     1
175
     1
 42
1.0
 92
        8
 66
     7
 43
1.0
 76
     1
 77
     6
 78
     2
 67
     7
 79
     5
170
     0
171
     0
290
     0
174
     0
 93
        1
 44
0.0
173
     0
291
     1
 45
0.0
1001
ACAD
1000
AcDbSavedByObjectVersion
1070
     0
  0
VISUALSTYLE
  5
109AA
102
{ACAD_XDICTIONARY
360
10A0E
102
}
102
{ACAD_REACTORS
330
1099E
102
}
330
1099E
100
AcDbVisualStyle
  2
Brighten
 70
    12
 71
     2
 72
     2
 73
     0
 90
        0
 40
-0.6
 41
-30.0
 62
     5
 63
     7
 74
     1
 91
        4
 64
     7
 65
   257
 75
     1
175
     1
 42
1.0
 92
        8
 66
     7
 43
1.0
 76
     1
 77
     6
 78
     2
 67
     7
 79
     5
170
     0
171
     0
290
     0
174
     0
 93
        1
 44
50.0
173
     0
291
     1
 45
0.0
1001
ACAD
1000
AcDbSavedByObjectVersion
1070
     0
  0
VISUALSTYLE
  5
109AE
102
{ACAD_XDICTIONARY
360
10A16
102
}
102
{ACAD_REACTORS
330
1099E
102
}
330
1099E
100
AcDbVisualStyle
  2
ColorChange
 70
    16
 71
     2
 72
     2
 73
     3
 90
        0
 40
-0.6
 41
-30.0
 62
     5
 63
     8
 74
     1
 91
        4
 64
     7
 65
   257
 75
     1
175
     1
 42
1.0
 92
        8
 66
     8
 43
1.0
 76
     1
 77
     6
 78
     2
 67
     7
 79
     5
170
     0
171
     0
290
     0
174
     0
 93
        1
 44
0.0
173
     0
291
     1
 45
0.0
1001
ACAD
1000
AcDbSavedByObjectVersion
1070
     0
  0
VISUALSTYLE
  5
109A7
102
{ACAD_XDICTIONARY
360
10A08
102
}
102
{ACAD_REACTORS
330
1099E
102
}
330
1099E
100
AcDbVisualStyle
  2
Conceptual
 70
     9
 71
     3
 72
     2
 73
     0
 90
        0
 40
-0.6
 41
-30.0
 62
     5
 63
     7
 74
     2
 91
        2
 64
     7
 65
   257
 75
     1
175
     1
 42
179.0
 92
        8
 66
     7
 43
1.0
 76
     1
 77
     6
 78
     2
 67
     7
 79
     3
170
     0
171
     0
290
     0
174
     0
 93
        1
 44
0.0
173
     0
291
     0
 45
0.0
1001
ACAD
1000
AcDbSavedByObjectVersion
1070
     0
  0
VISUALSTYLE
  5
109A9
102
{ACAD_XDICTIONARY
360
10A0C
102
}
102
{ACAD_REACTORS
330
1099E
102
}
330
1099E
100
AcDbVisualStyle
  2
Dim
 70
    11
 71
     2
 72
     2
 73
     0
 90
        0
 40
-0.6
 41
-30.0
 62
     5
 63
     7
 74
     1
 91
        4
 64
     7
 65
   257
 75
     1
175
     1
 42
1.0
 92
        8
 66
     7
 43
1.0
 76
     1
 77
     6
 78
     2
 67
     7
 79
     5
170
     0
171
     0
290
     0
174
     0
 93
        1
 44
-50.0
173
     0
291
     1
 45
0.0
1001
ACAD
1000
AcDbSavedByObjectVersion
1070
     0
  0
VISUALSTYLE
  5
109B6
102
{ACAD_XDICTIONARY
360
10A26
102
}
102
{ACAD_REACTORS
330
1099E
102
}
330
1099E
100
AcDbVisualStyle
  2
EdgeColorOff
 70
    22
 71
     2
 72
     2
 73
     0
 90
        0
 40
-0.6
 41
-30.0
 62
     5
 63
     7
 74
     1
 91
        4
 64
     7
 65
   257
 75
     1
175
     1
 42
1.0
 92
        8
 66
     7
 43
1.0
 76
     1
 77
     6
 78
     2
 67
     7
 79
     5
170
     0
171
     0
290
     0
174
     0
 93
        1
 44
0.0
173
     0
291
     1
 45
0.0
1001
ACAD
1000
AcDbSavedByObjectVersion
1070
     0
  0
VISUALSTYLE
  5
109AD
102
{ACAD_XDICTIONARY
360
10A14
102
}
102
{ACAD_REACTORS
330
1099E
102
}
330
1099E
100
AcDbVisualStyle
  2
Facepattern
 70
    15
 71
     2
 72
     2
 73
     0
 90
        0
 40
-0.6
 41
-30.0
 62
     5
 63
     7
 74
     1
 91
        4
 64
     7
 65
   257
 75
     1
175
     1
 42
1.0
 92
        8
 66
     7
 43
1.0
 76
     1
 77
     6
 78
     2
 67
     7
 79
     5
170
     0
171
     0
290
     0
174
     0
 93
        1
 44
0.0
173
     0
291
     1
 45
0.0
1001
ACAD
1000
AcDbSavedByObjectVersion
1070
     0
  0
VISUALSTYLE
  5
1099F
102
{ACAD_XDICTIONARY
360
109F8
102
}
102
{ACAD_REACTORS
330
1099E
102
}
330
1099E
100
AcDbVisualStyle
  2
Flat
 70
     0
 71
     2
 72
     1
 73
     1
 90
        2
 40
-0.6
 41
30.0
 62
     5
 63
     7
 74
     0
 91
        0
 64
     7
 65
   257
 75
     1
175
     1
 42
1.0
 92
        8
 66
     7
 43
1.0
 76
     1
 77
     6
 78
     2
 67
     7
 79
     5
170
     0
171
     0
290
     0
174
     0
 93
       13
 44
0.0
173
     0
291
     1
 45
0.0
1001
ACAD
1000
AcDbSavedByObjectVersion
1070
     0
  0
VISUALSTYLE
  5
109A0
102
{ACAD_XDICTIONARY
360
109FA
102
}
102
{ACAD_REACTORS
330
1099E
102
}
330
1099E
100
AcDbVisualStyle
  2
FlatWithEdges
 70
     1
 71
     2
 72
     1
 73
     1
 90
        2
 40
-0.6
 41
30.0
 62
     5
 63
     7
 74
     1
 91
        0
 64
     7
 65
   257
 75
     1
175
     1
 42
1.0
 92
        0
 66
   257
 43
1.0
 76
     1
 77
     6
 78
     2
 67
     7
 79
     5
170
     0
171
     0
290
     0
174
     0
 93
       13
 44
0.0
173
     0
291
     1
 45
0.0
1001
ACAD
1000
AcDbSavedByObjectVersion
1070
     0
  0
VISUALSTYLE
  5
109A1
102
{ACAD_XDICTIONARY
360
109FC
102
}
102
{ACAD_REACTORS
330
1099E
102
}
330
1099E
100
AcDbVisualStyle
  2
Gouraud
 70
     2
 71
     2
 72
     2
 73
     1
 90
        2
 40
-0.6
 41
30.0
 62
     5
 63
     7
 74
     0
 91
        0
 64
     7
 65
   257
 75
     1
175
     1
 42
1.0
 92
        0
 66
     7
 43
1.0
 76
     1
 77
     6
 78
     2
 67
     7
 79
     5
170
     0
171
     0
290
     0
174
     0
 93
       13
 44
0.0
173
     0
291
     1
 45
0.0
1001
ACAD
1000
AcDbSavedByObjectVersion
1070
     0
  0
VISUALSTYLE
  5
109A2
102
{ACAD_XDICTIONARY
360
109FE
102
}
102
{ACAD_REACTORS
330
1099E
102
}
330
1099E
100
AcDbVisualStyle
  2
GouraudWithEdges
 70
     3
 71
     2
 72
     2
 73
     1
 90
        2
 40
-0.6
 41
30.0
 62
     5
 63
     7
 74
     1
 91
        0
 64
     7
 65
   257
 75
     1
175
     1
 42
1.0
 92
        0
 66
   257
 43
1.0
 76
     1
 77
     6
 78
     2
 67
     7
 79
     5
170
     0
171
     0
290
     0
174
     0
 93
       13
 44
0.0
173
     0
291
     1
 45
0.0
1001
ACAD
1000
AcDbSavedByObjectVersion
1070
     0
  0
VISUALSTYLE
  5
109A6
102
{ACAD_XDICTIONARY
360
10A06
102
}
102
{ACAD_REACTORS
330
1099E
102
}
330
1099E
100
AcDbVisualStyle
  2
Hidden
 70
     6
 71
     1
 72
     2
 73
     2
 90
        0
 40
-0.6
 41
-30.0
 62
     5
 63
     7
 74
     2
 91
        2
 64
     7
 65
   257
 75
     2
175
     1
 42
40.0
 92
        0
 66
   257
 43
1.0
 76
     1
 77
     6
 78
     2
 67
     7
 79
     3
170
     0
171
     0
290
     0
174
     0
 93
        1
 44
0.0
173
     0
291
     0
 45
0.0
1001
ACAD
1000
AcDbSavedByObjectVersion
1070
     0
  0
VISUALSTYLE
  5
109B4
102
{ACAD_XDICTIONARY
360
10A22
102
}
102
{ACAD_REACTORS
330
1099E
102
}
330
1099E
100
AcDbVisualStyle
  2
JitterOff
 70
    20
 71
     2
 72
     2
 73
     0
 90
        0
 40
-0.6
 41
-30.0
 62
     5
 63
     7
 74
     1
 91
        4
 64
     7
 65
   257
 75
     1
175
     1
 42
1.0
 92
       10
 66
     7
 43
1.0
 76
     1
 77
     6
 78
     2
 67
     7
 79
     5
170
     0
171
     0
290
     0
174
     0
 93
        1
 44
0.0
173
     0
291
     1
 45
0.0
1001
ACAD
1000
AcDbSavedByObjectVersion
1070
     0
  0
VISUALSTYLE
  5
109AC
102
{ACAD_XDICTIONARY
360
10A12
102
}
102
{ACAD_REACTORS
330
1099E
102
}
330
1099E
100
AcDbVisualStyle
  2
Linepattern
 70
    14
 71
     2
 72
     2
 73
     0
 90
        0
 40
-0.6
 41
-30.0
 62
     5
 63
     7
 74
     1
 91
        4
 64
     7
 65
   257
 75
     7
175
     7
 42
1.0
 92
        8
 66
     7
 43
1.0
 76
     1
 77
     6
 78
     2
 67
     7
 79
     5
170
     0
171
     0
290
     0
174
     0
 93
        1
 44
0.0
173
     0
291
     1
 45
0.0
1001
ACAD
1000
AcDbSavedByObjectVersion
1070
     0
  0
VISUALSTYLE
  5
109B5
102
{ACAD_XDICTIONARY
360
10A24
102
}
102
{ACAD_REACTORS
330
1099E
102
}
330
1099E
100
AcDbVisualStyle
  2
OverhangOff
 70
    21
 71
     2
 72
     2
 73
     0
 90
        0
 40
-0.6
 41
-30.0
 62
     5
 63
     7
 74
     1
 91
        4
 64
     7
 65
   257
 75
     1
175
     1
 42
1.0
 92
        9
 66
     7
 43
1.0
 76
     1
 77
     6
 78
     2
 67
     7
 79
     5
170
     0
171
     0
290
     0
174
     0
 93
        1
 44
0.0
173
     0
291
     1
 45
0.0
1001
ACAD
1000
AcDbSavedByObjectVersion
1070
     0
  0
VISUALSTYLE
  5
109A8
102
{ACAD_XDICTIONARY
360
10A0A
102
}
102
{ACAD_REACTORS
330
1099E
102
}
330
1099E
100
AcDbVisualStyle
  2
Realistic
 70
     8
 71
     2
 72
     3
 73
     0
 90
        2
 40
-0.6
 41
30.0
 62
     5
 63
     7
 74
     0
 91
        0
 64
     7
 65
   257
 75
     1
175
     1
 42
1.0
 92
        8
 66
   257
 43
1.0
 76
     1
 77
     6
 78
     2
 67
     7
 79
     3
170
     0
171
     0
290
     0
174
     0
 93
       13
 44
0.0
173
     0
291
     0
 45
0.0
1001
ACAD
1000
AcDbSavedByObjectVersion
1070
     0
  0
VISUALSTYLE
  5
109B3
102
{ACAD_XDICTIONARY
360
10A20
102
}
102
{ACAD_REACTORS
330
1099E
102
}
330
1099E
100
AcDbVisualStyle
  2
Shaded
 70
    27
 71
     2
 72
     2
 73
     1
 90
        2
 40
-0.6
 41
30.0
 62
     5
 63
     7
 74
     0
 91
        4
 64
     7
 65
   257
 75
     1
175
     1
 42
1.0
 92
        8
 66
   257
 43
1.0
 76
     1
 77
     6
 78
     2
 67
     8
 79
     3
170
     0
171
     0
290
     0
174
     0
 93
        5
 44
0.0
173
     0
291
     0
 45
0.0
1001
ACAD
1000
AcDbSavedByObjectVersion
1070
     0
  0
VISUALSTYLE
  5
109B2
102
{ACAD_XDICTIONARY
360
10A1E
102
}
102
{ACAD_REACTORS
330
1099E
102
}
330
1099E
100
AcDbVisualStyle
  2
Shaded with edges
 70
    26
 71
     2
 72
     2
 73
     1
 90
        2
 40
-0.6
 41
30.0
 62
     5
 63
     7
 74
     1
 91
       10
 64
     7
 65
   257
 75
     2
175
     1
 42
1.0
 92
        8
 66
   257
 43
1.0
 76
     1
 77
     6
 78
     2
 67
     7
 79
     3
170
     0
171
     0
290
     0
174
     0
 93
        5
 44
0.0
173
     0
291
     0
 45
0.0
1001
ACAD
1000
AcDbSavedByObjectVersion
1070
     0
  0
VISUALSTYLE
  5
109AF
102
{ACAD_XDICTIONARY
360
10A18
102
}
102
{ACAD_REACTORS
330
1099E
102
}
330
1099E
100
AcDbVisualStyle
  2
Shades of Gray
 70
    23
 71
     2
 72
     2
 73
     3
 90
        0
 40
-0.6
 41
-30.0
 62
     5
 63
     7
 74
     2
 91
        2
 64
     7
 65
     7
 75
     1
175
     1
 42
40.0
 92
        8
 66
     7
 43
1.0
 76
     1
 77
     6
 78
     2
 67
     7
 79
     3
170
     0
171
     0
290
     0
174
     0
 93
        1
 44
0.0
173
     0
291
     0
 45
0.0
1001
ACAD
1000
AcDbSavedByObjectVersion
1070
     0
  0
VISUALSTYLE
  5
109B0
102
{ACAD_XDICTIONARY
360
10A1A
102
}
102
{ACAD_REACTORS
330
1099E
102
}
330
1099E
100
AcDbVisualStyle
  2
Sketchy
 70
    24
 71
     1
 72
     2
 73
     2
 90
        0
 40
-0.6
 41
-30.0
 62
     5
 63
     7
 74
     2
 91
        2
 64
     7
 65
     7
 75
     1
175
     1
 42
40.0
 92
       11
 66
     7
 43
1.0
 76
     1
 77
     6
 78
     2
 67
     7
 79
     6
170
     0
171
     0
290
     0
174
     0
 93
        1
 44
0.0
173
     0
291
     0
 45
0.0
1001
ACAD
1000
AcDbSavedByObjectVersion
1070
     0
  0
VISUALSTYLE
  5
109AB
102
{ACAD_XDICTIONARY
360
10A10
102
}
102
{ACAD_REACTORS
330
1099E
102
}
330
1099E
100
AcDbVisualStyle
  2
Thicken
 70
    13
 71
     2
 72
     2
 73
     0
 90
        0
 40
-0.6
 41
-30.0
 62
     5
 63
     7
 74
     1
 91
        4
 64
     7
 65
   257
 75
     1
175
     1
 42
1.0
 92
       12
 66
     7
 43
1.0
 76
     1
 77
     6
 78
     2
 67
     7
 79
     5
170
     0
171
     0
290
     0
174
     0
 93
        1
 44
0.0
173
     0
291
     1
 45
0.0
1001
ACAD
1000
AcDbSavedByObjectVersion
1070
     0
  0
VISUALSTYLE
  5
109A5
102
{ACAD_XDICTIONARY
360
10A04
102
}
102
{ACAD_REACTORS
330
1099E
102
}
330
1099E
100
AcDbVisualStyle
  2
Wireframe
 70
     5
 71
     0
 72
     2
 73
     0
 90
        0
 40
-0.6
 41
-30.0
 62
     5
 63
     7
 74
     1
 91
        4
 64
     7
 65
   257
 75
     1
175
     1
 42
1.0
 92
        0
 66
   257
 43
1.0
 76
     1
 77
     6
 78
     2
 67
     7
 79
     3
170
     0
171
     0
290
     0
174
     0
 93
        1
 44
0.0
173
     0
291
     0
 45
0.0
1001
ACAD
1000
AcDbSavedByObjectVersion
1070
     0
  0
VISUALSTYLE
  5
109B1
102
{ACAD_XDICTIONARY
360
10A1C
102
}
102
{ACAD_REACTORS
330
1099E
102
}
330
1099E
100
AcDbVisualStyle
  2
X-Ray
 70
    25
 71
     2
 72
     2
 73
     1
 90
        1
 40
0.5
 41
-30.0
 62
     5
 63
     7
 74
     1
 91
        0
 64
     7
 65
   257
 75
     1
175
     1
 42
1.0
 92
        8
 66
     7
 43
1.0
 76
     1
 77
     6
 78
     2
 67
     7
 79
     3
170
     0
171
     0
290
     0
174
     0
 93
       13
 44
0.0
173
     0
291
     0
 45
0.0
1001
ACAD
1000
AcDbSavedByObjectVersion
1070
     0
  0
DICTIONARYVAR
  5
109EB
102
{ACAD_REACTORS
330
109E6
102
}
330
109E6
100
DictionaryVariables
280
     0
  1
1:1
  0
DICTIONARYVAR
  5
109E8
102
{ACAD_REACTORS
330
109E6
102
}
330
109E6
100
DictionaryVariables
280
     0
  1
STANDARD
  0
DICTIONARYVAR
  5
109E7
102
{ACAD_REACTORS
330
109E6
102
}
330
109E6
100
DictionaryVariables
280
     0
  1
STANDARD
  0
DICTIONARYVAR
  5
109E9
102
{ACAD_REACTORS
330
109E6
102
}
330
109E6
100
DictionaryVariables
280
     0
  1
Imperial24
  0
DICTIONARYVAR
  5
109EA
102
{ACAD_REACTORS
330
109E6
102
}
330
109E6
100
DictionaryVariables
280
     0
  1
Imperial24
  0
DICTIONARYVAR
  5
109EE
102
{ACAD_REACTORS
330
109E6
102
}
330
109E6
100
DictionaryVariables
280
     0
  1
1
  0
DICTIONARYVAR
  5
109ED
102
{ACAD_REACTORS
330
109E6
102
}
330
109E6
100
DictionaryVariables
280
     0
  1
0
  0
DICTIONARYVAR
  5
109EC
102
{ACAD_REACTORS
330
109E6
102
}
330
109E6
100
DictionaryVariables
280
     0
  1
127
  0
DICTIONARYVAR
  5
109EF
102
{ACAD_REACTORS
330
109E6
102
}
330
109E6
100
DictionaryVariables
280
     0
  1
2
  0
DICTIONARY
  5
10A2C
330
109D1
100
AcDbDictionary
280
     1
281
     1
  3
ACAD_XREC_ROUNDTRIP
360
10A2D
  0
DICTIONARY
  5
10A2E
330
109D2
100
AcDbDictionary
280
     1
281
     1
  3
ACAD_XREC_ROUNDTRIP
360
10A2F
  0
DICTIONARY
  5
10A30
330
109D3
100
AcDbDictionary
280
     1
281
     1
  3
ACAD_XREC_ROUNDTRIP
360
10A31
  0
DICTIONARY
  5
1098F
330
1098E
100
AcDbDictionary
280
     1
281
     1
  3
ACAD_XREC_ROUNDTRIP
360
109F6
  3
BUMPTILE
360
10991
  3
DIFFUSETILE
360
10990
  3
OPACITYTILE
360
10994
  3
REFLECTIONTILE
360
10993
  3
REFRACTIONTILE
360
10995
  3
SPECULARTILE
360
10992
  0
DICTIONARY
  5
10987
330
10986
100
AcDbDictionary
280
     1
281
     1
  3
ACAD_XREC_ROUNDTRIP
360
109F5
  3
BUMPTILE
360
10989
  3
DIFFUSETILE
360
10988
  3
OPACITYTILE
360
1098C
  3
REFLECTIONTILE
360
1098B
  3
REFRACTIONTILE
360
1098D
  3
SPECULARTILE
360
1098A
  0
DICTIONARY
  5
10997
330
10996
100
AcDbDictionary
280
     1
281
     1
  3
ACAD_XREC_ROUNDTRIP
360
109F7
  3
BUMPTILE
360
10999
  3
DIFFUSETILE
360
10998
  3
OPACITYTILE
360
1099C
  3
REFLECTIONTILE
360
1099B
  3
REFRACTIONTILE
360
1099D
  3
SPECULARTILE
360
1099A
  0
DICTIONARY
  5
10A2A
330
109CF
100
AcDbDictionary
280
     1
281
     1
  3
ACAD_XREC_ROUNDTRIP
360
10A2B
  0
DICTIONARY
  5
109F1
330
109B9
100
AcDbDictionary
280
     1
281
     1
  3
ACAD_ROUNDTRIP_2008_TABLESTYLE_CELLSTYLEMAP
360
109F2
  3
ACAD_XREC_ROUNDTRIP
360
10A28
  0
DICTIONARY
  5
10A02
330
109A4
100
AcDbDictionary
280
     1
281
     1
  3
ACAD_XREC_ROUNDTRIP
360
10A03
  0
DICTIONARY
  5
10A00
330
109A3
100
AcDbDictionary
280
     1
281
     1
  3
ACAD_XREC_ROUNDTRIP
360
10A01
  0
DICTIONARY
  5
10A0E
330
109AA
100
AcDbDictionary
280
     1
281
     1
  3
ACAD_XREC_ROUNDTRIP
360
10A0F
  0
DICTIONARY
  5
10A16
330
109AE
100
AcDbDictionary
280
     1
281
     1
  3
ACAD_XREC_ROUNDTRIP
360
10A17
  0
DICTIONARY
  5
10A08
330
109A7
100
AcDbDictionary
280
     1
281
     1
  3
ACAD_XREC_ROUNDTRIP
360
10A09
  0
DICTIONARY
  5
10A0C
330
109A9
100
AcDbDictionary
280
     1
281
     1
  3
ACAD_XREC_ROUNDTRIP
360
10A0D
  0
DICTIONARY
  5
10A26
330
109B6
100
AcDbDictionary
280
     1
281
     1
  3
ACAD_XREC_ROUNDTRIP
360
10A27
  0
DICTIONARY
  5
10A14
330
109AD
100
AcDbDictionary
280
     1
281
     1
  3
ACAD_XREC_ROUNDTRIP
360
10A15
  0
DICTIONARY
  5
109F8
330
1099F
100
AcDbDictionary
280
     1
281
     1
  3
ACAD_XREC_ROUNDTRIP
360
109F9
  0
DICTIONARY
  5
109FA
330
109A0
100
AcDbDictionary
280
     1
281
     1
  3
ACAD_XREC_ROUNDTRIP
360
109FB
  0
DICTIONARY
  5
109FC
330
109A1
100
AcDbDictionary
280
     1
281
     1
  3
ACAD_XREC_ROUNDTRIP
360
109FD
  0
DICTIONARY
  5
109FE
330
109A2
100
AcDbDictionary
280
     1
281
     1
  3
ACAD_XREC_ROUNDTRIP
360
109FF
  0
DICTIONARY
  5
10A06
330
109A6
100
AcDbDictionary
280
     1
281
     1
  3
ACAD_XREC_ROUNDTRIP
360
10A07
  0
DICTIONARY
  5
10A22
330
109B4
100
AcDbDictionary
280
     1
281
     1
  3
ACAD_XREC_ROUNDTRIP
360
10A23
  0
DICTIONARY
  5
10A12
330
109AC
100
AcDbDictionary
280
     1
281
     1
  3
ACAD_XREC_ROUNDTRIP
360
10A13
  0
DICTIONARY
  5
10A24
330
109B5
100
AcDbDictionary
280
     1
281
     1
  3
ACAD_XREC_ROUNDTRIP
360
10A25
  0
DICTIONARY
  5
10A0A
330
109A8
100
AcDbDictionary
280
     1
281
     1
  3
ACAD_XREC_ROUNDTRIP
360
10A0B
  0
DICTIONARY
  5
10A20
330
109B3
100
AcDbDictionary
280
     1
281
     1
  3
ACAD_XREC_ROUNDTRIP
360
10A21
  0
DICTIONARY
  5
10A1E
330
109B2
100
AcDbDictionary
280
     1
281
     1
  3
ACAD_XREC_ROUNDTRIP
360
10A1F
  0
DICTIONARY
  5
10A18
330
109AF
100
AcDbDictionary
280
     1
281
     1
  3
ACAD_XREC_ROUNDTRIP
360
10A19
  0
DICTIONARY
  5
10A1A
330
109B0
100
AcDbDictionary
280
     1
281
     1
  3
ACAD_XREC_ROUNDTRIP
360
10A1B
  0
DICTIONARY
  5
10A10
330
109AB
100
AcDbDictionary
280
     1
281
     1
  3
ACAD_XREC_ROUNDTRIP
360
10A11
  0
DICTIONARY
  5
10A04
330
109A5
100
AcDbDictionary
280
     1
281
     1
  3
ACAD_XREC_ROUNDTRIP
360
10A05
  0
DICTIONARY
  5
10A1C
330
109B1
100
AcDbDictionary
280
     1
281
     1
  3
ACAD_XREC_ROUNDTRIP
360
10A1D
  0
XRECORD
  5
10A2D
102
{ACAD_REACTORS
330
10A2C
102
}
330
10A2C
100
AcDbXrecord
280
     1
102
DISPLAYNAME
  1
Imperial24
102
FLAGS
 90
        0
  0
XRECORD
  5
10A2F
102
{ACAD_REACTORS
330
10A2E
102
}
330
10A2E
100
AcDbXrecord
280
     1
102
SHADEPLOT
 70
     0
102
SHADEPLOTRESLEVEL
 70
     2
102
SHADEPLOTCUSTOMDPI
 70
   300
  0
XRECORD
  5
10A31
102
{ACAD_REACTORS
330
10A30
102
}
330
10A30
100
AcDbXrecord
280
     1
102
SHADEPLOT
 70
     0
102
SHADEPLOTRESLEVEL
 70
     2
102
SHADEPLOTCUSTOMDPI
 70
   300
  0
XRECORD
  5
109F6
102
{ACAD_REACTORS
330
1098F
102
}
330
1098F
100
AcDbXrecord
280
     1
102
MATERIAL
148
0.0
149
0.0
149
0.0
 93
        0
 94
      127
282
     0
 72
     0
 77
     0
171
     0
175
     0
179
     0
273
     0
  0
XRECORD
  5
10991
102
{ACAD_REACTORS
330
1098F
102
}
330
1098F
100
AcDbXrecord
280
     1
270
     1
271
     1
  0
XRECORD
  5
10990
102
{ACAD_REACTORS
330
1098F
102
}
330
1098F
100
AcDbXrecord
280
     1
270
     1
271
     1
  0
XRECORD
  5
10994
102
{ACAD_REACTORS
330
1098F
102
}
330
1098F
100
AcDbXrecord
280
     1
270
     1
271
     1
  0
XRECORD
  5
10993
102
{ACAD_REACTORS
330
1098F
102
}
330
1098F
100
AcDbXrecord
280
     1
270
     1
271
     1
  0
XRECORD
  5
10995
102
{ACAD_REACTORS
330
1098F
102
}
330
1098F
100
AcDbXrecord
280
     1
270
     1
271
     1
  0
XRECORD
  5
10992
102
{ACAD_REACTORS
330
1098F
102
}
330
1098F
100
AcDbXrecord
280
     1
270
     1
271
     1
  0
XRECORD
  5
109F5
102
{ACAD_REACTORS
330
10987
102
}
330
10987
100
AcDbXrecord
280
     1
102
MATERIAL
148
0.0
149
0.0
149
0.0
 93
        0
 94
      127
282
     0
 72
     0
 77
     0
171
     0
175
     0
179
     0
273
     0
  0
XRECORD
  5
10989
102
{ACAD_REACTORS
330
10987
102
}
330
10987
100
AcDbXrecord
280
     1
270
     1
271
     1
  0
XRECORD
  5
10988
102
{ACAD_REACTORS
330
10987
102
}
330
10987
100
AcDbXrecord
280
     1
270
     1
271
     1
  0
XRECORD
  5
1098C
102
{ACAD_REACTORS
330
10987
102
}
330
10987
100
AcDbXrecord
280
     1
270
     1
271
     1
  0
XRECORD
  5
1098B
102
{ACAD_REACTORS
330
10987
102
}
330
10987
100
AcDbXrecord
280
     1
270
     1
271
     1
  0
XRECORD
  5
1098D
102
{ACAD_REACTORS
330
10987
102
}
330
10987
100
AcDbXrecord
280
     1
270
     1
271
     1
  0
XRECORD
  5
1098A
102
{ACAD_REACTORS
330
10987
102
}
330
10987
100
AcDbXrecord
280
     1
270
     1
271
     1
  0
XRECORD
  5
109F7
102
{ACAD_REACTORS
330
10997
102
}
330
10997
100
AcDbXrecord
280
     1
102
MATERIAL
148
0.0
149
0.0
149
0.0
 93
        0
 94
      127
282
     0
 72
     0
 77
     0
171
     0
175
     0
179
     0
273
     0
  0
XRECORD
  5
10999
102
{ACAD_REACTORS
330
10997
102
}
330
10997
100
AcDbXrecord
280
     1
270
     1
271
     1
  0
XRECORD
  5
10998
102
{ACAD_REACTORS
330
10997
102
}
330
10997
100
AcDbXrecord
280
     1
270
     1
271
     1
  0
XRECORD
  5
1099C
102
{ACAD_REACTORS
330
10997
102
}
330
10997
100
AcDbXrecord
280
     1
270
     1
271
     1
  0
XRECORD
  5
1099B
102
{ACAD_REACTORS
330
10997
102
}
330
10997
100
AcDbXrecord
280
     1
270
     1
271
     1
  0
XRECORD
  5
1099D
102
{ACAD_REACTORS
330
10997
102
}
330
10997
100
AcDbXrecord
280
     1
270
     1
271
     1
  0
XRECORD
  5
1099A
102
{ACAD_REACTORS
330
10997
102
}
330
10997
100
AcDbXrecord
280
     1
270
     1
271
     1
  0
XRECORD
  5
10A2B
102
{ACAD_REACTORS
330
10A2A
102
}
330
10A2A
100
AcDbXrecord
280
     1
102
DISPLAYNAME
  1
Imperial24
102
FLAGS
 90
        0
  0
CELLSTYLEMAP
  5
109F2
102
{ACAD_REACTORS
330
109F1
102
}
330
109F1
100
AcDbCellStyleMap
 90
        3
300
CELLSTYLE
  1
TABLEFORMAT_BEGIN
 90
        5
170
     1
 91
        0
 92
    32768
 62
   257
 93
        1
300
CONTENTFORMAT
  1
CONTENTFORMAT_BEGIN
 90
        0
 91
        0
 92
      512
 93
        0
300

 40
0.0
140
1.0
 94
        5
 62
     0
340
10546
144
0.25
309
CONTENTFORMAT_END
171
     0
 94
        0
309
TABLEFORMAT_END
  1
CELLSTYLE_BEGIN
 90
        1
 91
        1
300
_TITLE
309
CELLSTYLE_END
300
CELLSTYLE
  1
TABLEFORMAT_BEGIN
 90
        5
170
     1
 91
        0
 92
        0
 62
   257
 93
        1
300
CONTENTFORMAT
  1
CONTENTFORMAT_BEGIN
 90
        0
 91
        0
 92
      512
 93
        0
300

 40
0.0
140
1.0
 94
        5
 62
     0
340
10546
144
0.18
309
CONTENTFORMAT_END
171
     0
 94
        0
309
TABLEFORMAT_END
  1
CELLSTYLE_BEGIN
 90
        2
 91
        1
300
_HEADER
309
CELLSTYLE_END
300
CELLSTYLE
  1
TABLEFORMAT_BEGIN
 90
        5
170
     1
 91
        0
 92
        0
 62
   257
 93
        1
300
CONTENTFORMAT
  1
CONTENTFORMAT_BEGIN
 90
        0
 91
        0
 92
      512
 93
        0
300

 40
0.0
140
1.0
 94
        2
 62
     0
340
10546
144
0.18
309
CONTENTFORMAT_END
171
     0
 94
        0
309
TABLEFORMAT_END
  1
CELLSTYLE_BEGIN
 90
        3
 91
        2
300
_DATA
309
CELLSTYLE_END
  0
XRECORD
  5
10A28
102
{ACAD_REACTORS
330
109F1
102
}
330
109F1
100
AcDbXrecord
280
     1
102
ACAD_ROUNDTRIP_PRE2007_TABLESTYLE
 90
      512
 91
        0
  1

 92
      512
 93
        0
  2

 94
      512
 95
        0
  3

  0
XRECORD
  5
10A03
102
{ACAD_REACTORS
330
10A02
102
}
330
10A02
100
AcDbXrecord
280
     1
102
RTVSPost2010Prop28
280
     1
102
RTVSPost2010PropOp28
 70
     1
102
RTVSPost2010Prop29
280
     1
102
RTVSPost2010PropOp29
 70
     1
102
RTVSPost2010Prop30
280
     0
102
RTVSPost2010PropOp30
 70
     1
102
RTVSPost2010Prop31
280
     0
102
RTVSPost2010PropOp31
 70
     1
102
RTVSPost2010Prop32
280
     0
102
RTVSPost2010PropOp32
 70
     1
102
RTVSPost2010Prop33
280
     0
102
RTVSPost2010PropOp33
 70
     1
102
RTVSPost2010Prop34
280
     0
102
RTVSPost2010PropOp34
 70
     1
102
RTVSPost2010Prop35
280
     0
102
RTVSPost2010PropOp35
 70
     1
102
RTVSPost2010Prop36
280
     0
102
RTVSPost2010PropOp36
 70
     1
102
RTVSPost2010Prop37
 90
       50
102
RTVSPost2010PropOp37
 70
     1
102
RTVSPost2010Prop38
140
0.0
102
RTVSPost2010PropOp38
 70
     1
102
RTVSPost2010Prop39
140
1.0
102
RTVSPost2010PropOp39
 70
     1
102
RTVSPost2010Prop40
 90
        0
102
RTVSPost2010PropOp40
 70
     1
102
RTVSPost2010Prop41ColorIndex
 90
       18
102
RTVSPost2010Prop41ColorRGB
 90
        0
102
RTVSPost2010PropOp41
 70
     1
102
RTVSPost2010Prop42
 90
       50
102
RTVSPost2010PropOp42
 70
     1
102
RTVSPost2010Prop43
 90
        3
102
RTVSPost2010PropOp43
 70
     1
102
RTVSPost2010Prop44ColorIndex
 90
        5
102
RTVSPost2010Prop44ColorRGB
 90
      255
102
RTVSPost2010PropOp44
 70
     1
102
RTVSPost2010Prop45
280
     0
102
RTVSPost2010PropOp45
 70
     1
102
RTVSPost2010Prop46
 90
       50
102
RTVSPost2010PropOp46
 70
     1
102
RTVSPost2010Prop47
 90
       50
102
RTVSPost2010PropOp47
 70
     1
102
RTVSPost2010Prop48
 90
       50
102
RTVSPost2010PropOp48
 70
     1
102
RTVSPost2010Prop49
280
     0
102
RTVSPost2010PropOp49
 70
     1
102
RTVSPost2010Prop50
 90
       50
102
RTVSPost2010PropOp50
 70
     1
102
RTVSPost2010Prop51ColorIndex
 90
      256
102
RTVSPost2010Prop51ColorRGB
 90
-16777216
102
RTVSPost2010PropOp51
 70
     0
102
RTVSPost2010Prop52
140
1.0
102
RTVSPost2010PropOp52
 70
     0
102
RTVSPost2010Prop53
 90
        2
102
RTVSPost2010PropOp53
 70
     1
102
RTVSPost2010Prop54
  1
strokes_ogs.tif
102
RTVSPost2010PropOp54
 70
     1
102
RTVSPost2010Prop55
280
     0
102
RTVSPost2010PropOp55
 70
     1
102
RTVSPost2010Prop56
140
1.0
102
RTVSPost2010PropOp56
 70
     1
102
RTVSPost2010Prop57
140
1.0
102
RTVSPost2010PropOp57
 70
     1
102
RTVSPropertyOp0
 70
     1
102
RTVSPropertyOp1
 70
     1
102
RTVSPropertyOp2
 70
     1
102
RTVSPropertyOp3
 70
     1
102
RTVSPropertyOp4
 70
     1
102
RTVSPropertyOp5
 70
     1
102
RTVSPropertyOp6
 70
     1
102
RTVSPropertyOp7
 70
     1
102
RTVSPropertyOp8
 70
     1
102
RTVSPropertyOp9
 70
     1
102
RTVSPropertyOp10
 70
     1
102
RTVSPropertyOp11
 70
     1
102
RTVSPropertyOp12
 70
     1
102
RTVSPropertyOp13
 70
     1
102
RTVSPropertyOp14
 70
     1
102
RTVSPropertyOp15
 70
     1
102
RTVSPropertyOp16
 70
     1
102
RTVSPropertyOp17
 70
     1
102
RTVSPropertyOp18
 70
     1
102
RTVSPropertyOp19
 70
     1
102
RTVSPropertyOp20
 70
     1
102
RTVSPropertyOp21
 70
     1
102
RTVSPropertyOp22
 70
     1
102
RTVSPropertyOp23
 70
     1
102
RTVSPropertyOp24
 70
     1
102
RTVSPropertyOp25
 70
     1
102
RTVSPropertyOp26
 70
     1
102
RTVSPropertyOp27
 70
     1
102
RTVSPropertyOp28
 70
     1
102
RTVSPropertyOp29
 70
     1
102
RTVSPropertyOp30
 70
     1
102
RTVSPropertyOp31
 70
     1
102
RTVSPropertyOp32
 70
     1
102
RTVSPropertyOp33
 70
     1
102
RTVSPropertyOp34
 70
     1
102
RTVSPropertyOp35
 70
     1
102
RTVSPropertyOp36
 70
     1
102
RTVSPropertyOp37
 70
     1
102
RTVSPropertyOp38
 70
     1
102
RTVSPropertyOp39
 70
     1
102
RTVSPropertyOp40
 70
     1
102
RTVSPropertyOp41
 70
     1
102
RTVSPropertyOp42
 70
     1
102
RTVSPropertyOp43
 70
     1
102
RTVSPropertyOp44
 70
     1
102
RTVSPropertyOp45
 70
     1
102
RTVSPropertyOp46
 70
     1
102
RTVSPropertyOp47
 70
     1
102
RTVSPropertyOp48
 70
     1
102
RTVSPropertyOp49
 70
     1
102
RTVSPropertyOp50
 70
     1
102
RTVSPropertyOp51
 70
     0
102
RTVSPropertyOp52
 70
     0
102
RTVSPropertyOp53
 70
     1
102
RTVSPropertyOp54
 70
     1
102
RTVSPropertyOp55
 70
     1
102
RTVSPropertyOp56
 70
     1
102
RTVSPropertyOp57
 70
     1
102
RTVSPropertyOp58
 70
     1
102
RTVSPropertyOp59
 70
     1
102
RTVSPropertyOp60
 70
     1
102
RTVSPropertyOp61
 70
     1
102
RTVSPropertyOp62
 70
     1
  0
XRECORD
  5
10A01
102
{ACAD_REACTORS
330
10A00
102
}
330
10A00
100
AcDbXrecord
280
     1
102
RTVSPost2010Prop28
280
     0
102
RTVSPost2010PropOp28
 70
     1
102
RTVSPost2010Prop29
280
     1
102
RTVSPost2010PropOp29
 70
     1
102
RTVSPost2010Prop30
280
     1
102
RTVSPost2010PropOp30
 70
     1
102
RTVSPost2010Prop31
280
     0
102
RTVSPost2010PropOp31
 70
     1
102
RTVSPost2010Prop32
280
     0
102
RTVSPost2010PropOp32
 70
     1
102
RTVSPost2010Prop33
280
     0
102
RTVSPost2010PropOp33
 70
     1
102
RTVSPost2010Prop34
280
     0
102
RTVSPost2010PropOp34
 70
     1
102
RTVSPost2010Prop35
280
     0
102
RTVSPost2010PropOp35
 70
     1
102
RTVSPost2010Prop36
280
     0
102
RTVSPost2010PropOp36
 70
     1
102
RTVSPost2010Prop37
 90
       50
102
RTVSPost2010PropOp37
 70
     1
102
RTVSPost2010Prop38
140
0.0
102
RTVSPost2010PropOp38
 70
     1
102
RTVSPost2010Prop39
140
1.0
102
RTVSPost2010PropOp39
 70
     1
102
RTVSPost2010Prop40
 90
        0
102
RTVSPost2010PropOp40
 70
     1
102
RTVSPost2010Prop41ColorIndex
 90
       18
102
RTVSPost2010Prop41ColorRGB
 90
        0
102
RTVSPost2010PropOp41
 70
     1
102
RTVSPost2010Prop42
 90
       50
102
RTVSPost2010PropOp42
 70
     1
102
RTVSPost2010Prop43
 90
        3
102
RTVSPost2010PropOp43
 70
     1
102
RTVSPost2010Prop44ColorIndex
 90
        5
102
RTVSPost2010Prop44ColorRGB
 90
      255
102
RTVSPost2010PropOp44
 70
     1
102
RTVSPost2010Prop45
280
     0
102
RTVSPost2010PropOp45
 70
     1
102
RTVSPost2010Prop46
 90
       50
102
RTVSPost2010PropOp46
 70
     1
102
RTVSPost2010Prop47
 90
       50
102
RTVSPost2010PropOp47
 70
     1
102
RTVSPost2010Prop48
 90
       50
102
RTVSPost2010PropOp48
 70
     1
102
RTVSPost2010Prop49
280
     0
102
RTVSPost2010PropOp49
 70
     1
102
RTVSPost2010Prop50
 90
       50
102
RTVSPost2010PropOp50
 70
     1
102
RTVSPost2010Prop51ColorIndex
 90
      256
102
RTVSPost2010Prop51ColorRGB
 90
-16777216
102
RTVSPost2010PropOp51
 70
     0
102
RTVSPost2010Prop52
140
1.0
102
RTVSPost2010PropOp52
 70
     0
102
RTVSPost2010Prop53
 90
        2
102
RTVSPost2010PropOp53
 70
     1
102
RTVSPost2010Prop54
  1
strokes_ogs.tif
102
RTVSPost2010PropOp54
 70
     1
102
RTVSPost2010Prop55
280
     0
102
RTVSPost2010PropOp55
 70
     1
102
RTVSPost2010Prop56
140
1.0
102
RTVSPost2010PropOp56
 70
     1
102
RTVSPost2010Prop57
140
1.0
102
RTVSPost2010PropOp57
 70
     1
102
RTVSPropertyOp0
 70
     1
102
RTVSPropertyOp1
 70
     1
102
RTVSPropertyOp2
 70
     1
102
RTVSPropertyOp3
 70
     1
102
RTVSPropertyOp4
 70
     1
102
RTVSPropertyOp5
 70
     1
102
RTVSPropertyOp6
 70
     1
102
RTVSPropertyOp7
 70
     1
102
RTVSPropertyOp8
 70
     1
102
RTVSPropertyOp9
 70
     1
102
RTVSPropertyOp10
 70
     1
102
RTVSPropertyOp11
 70
     1
102
RTVSPropertyOp12
 70
     1
102
RTVSPropertyOp13
 70
     1
102
RTVSPropertyOp14
 70
     1
102
RTVSPropertyOp15
 70
     1
102
RTVSPropertyOp16
 70
     1
102
RTVSPropertyOp17
 70
     1
102
RTVSPropertyOp18
 70
     1
102
RTVSPropertyOp19
 70
     1
102
RTVSPropertyOp20
 70
     1
102
RTVSPropertyOp21
 70
     1
102
RTVSPropertyOp22
 70
     1
102
RTVSPropertyOp23
 70
     1
102
RTVSPropertyOp24
 70
     1
102
RTVSPropertyOp25
 70
     1
102
RTVSPropertyOp26
 70
     1
102
RTVSPropertyOp27
 70
     1
102
RTVSPropertyOp28
 70
     1
102
RTVSPropertyOp29
 70
     1
102
RTVSPropertyOp30
 70
     1
102
RTVSPropertyOp31
 70
     1
102
RTVSPropertyOp32
 70
     1
102
RTVSPropertyOp33
 70
     1
102
RTVSPropertyOp34
 70
     1
102
RTVSPropertyOp35
 70
     1
102
RTVSPropertyOp36
 70
     1
102
RTVSPropertyOp37
 70
     1
102
RTVSPropertyOp38
 70
     1
102
RTVSPropertyOp39
 70
     1
102
RTVSPropertyOp40
 70
     1
102
RTVSPropertyOp41
 70
     1
102
RTVSPropertyOp42
 70
     1
102
RTVSPropertyOp43
 70
     1
102
RTVSPropertyOp44
 70
     1
102
RTVSPropertyOp45
 70
     1
102
RTVSPropertyOp46
 70
     1
102
RTVSPropertyOp47
 70
     1
102
RTVSPropertyOp48
 70
     1
102
RTVSPropertyOp49
 70
     1
102
RTVSPropertyOp50
 70
     1
102
RTVSPropertyOp51
 70
     0
102
RTVSPropertyOp52
 70
     0
102
RTVSPropertyOp53
 70
     1
102
RTVSPropertyOp54
 70
     1
102
RTVSPropertyOp55
 70
     1
102
RTVSPropertyOp56
 70
     1
102
RTVSPropertyOp57
 70
     1
102
RTVSPropertyOp58
 70
     1
102
RTVSPropertyOp59
 70
     1
102
RTVSPropertyOp60
 70
     1
102
RTVSPropertyOp61
 70
     1
102
RTVSPropertyOp62
 70
     1
  0
XRECORD
  5
10A0F
102
{ACAD_REACTORS
330
10A0E
102
}
330
10A0E
100
AcDbXrecord
280
     1
102
RTVSPost2010Prop28
280
     0
102
RTVSPost2010PropOp28
 70
     1
102
RTVSPost2010Prop29
280
     1
102
RTVSPost2010PropOp29
 70
     1
102
RTVSPost2010Prop30
280
     1
102
RTVSPost2010PropOp30
 70
     1
102
RTVSPost2010Prop31
280
     0
102
RTVSPost2010PropOp31
 70
     1
102
RTVSPost2010Prop32
280
     0
102
RTVSPost2010PropOp32
 70
     1
102
RTVSPost2010Prop33
280
     0
102
RTVSPost2010PropOp33
 70
     1
102
RTVSPost2010Prop34
280
     0
102
RTVSPost2010PropOp34
 70
     1
102
RTVSPost2010Prop35
280
     0
102
RTVSPost2010PropOp35
 70
     1
102
RTVSPost2010Prop36
280
     0
102
RTVSPost2010PropOp36
 70
     1
102
RTVSPost2010Prop37
 90
       50
102
RTVSPost2010PropOp37
 70
     1
102
RTVSPost2010Prop38
140
0.0
102
RTVSPost2010PropOp38
 70
     1
102
RTVSPost2010Prop39
140
1.0
102
RTVSPost2010PropOp39
 70
     1
102
RTVSPost2010Prop40
 90
        0
102
RTVSPost2010PropOp40
 70
     1
102
RTVSPost2010Prop41ColorIndex
 90
       18
102
RTVSPost2010Prop41ColorRGB
 90
        0
102
RTVSPost2010PropOp41
 70
     1
102
RTVSPost2010Prop42
 90
       50
102
RTVSPost2010PropOp42
 70
     1
102
RTVSPost2010Prop43
 90
        3
102
RTVSPost2010PropOp43
 70
     1
102
RTVSPost2010Prop44ColorIndex
 90
        5
102
RTVSPost2010Prop44ColorRGB
 90
      255
102
RTVSPost2010PropOp44
 70
     1
102
RTVSPost2010Prop45
280
     0
102
RTVSPost2010PropOp45
 70
     1
102
RTVSPost2010Prop46
 90
       50
102
RTVSPost2010PropOp46
 70
     1
102
RTVSPost2010Prop47
 90
       50
102
RTVSPost2010PropOp47
 70
     1
102
RTVSPost2010Prop48
 90
       50
102
RTVSPost2010PropOp48
 70
     1
102
RTVSPost2010Prop49
280
     0
102
RTVSPost2010PropOp49
 70
     1
102
RTVSPost2010Prop50
 90
       50
102
RTVSPost2010PropOp50
 70
     1
102
RTVSPost2010Prop51ColorIndex
 90
      256
102
RTVSPost2010Prop51ColorRGB
 90
-16777216
102
RTVSPost2010PropOp51
 70
     0
102
RTVSPost2010Prop52
140
1.0
102
RTVSPost2010PropOp52
 70
     0
102
RTVSPost2010Prop53
 90
        2
102
RTVSPost2010PropOp53
 70
     1
102
RTVSPost2010Prop54
  1
strokes_ogs.tif
102
RTVSPost2010PropOp54
 70
     1
102
RTVSPost2010Prop55
280
     0
102
RTVSPost2010PropOp55
 70
     1
102
RTVSPost2010Prop56
140
1.0
102
RTVSPost2010PropOp56
 70
     1
102
RTVSPost2010Prop57
140
1.0
102
RTVSPost2010PropOp57
 70
     1
102
RTVSPropertyOp0
 70
     1
102
RTVSPropertyOp1
 70
     1
102
RTVSPropertyOp2
 70
     1
102
RTVSPropertyOp3
 70
     1
102
RTVSPropertyOp4
 70
     1
102
RTVSPropertyOp5
 70
     1
102
RTVSPropertyOp6
 70
     1
102
RTVSPropertyOp7
 70
     1
102
RTVSPropertyOp8
 70
     1
102
RTVSPropertyOp9
 70
     1
102
RTVSPropertyOp10
 70
     1
102
RTVSPropertyOp11
 70
     1
102
RTVSPropertyOp12
 70
     1
102
RTVSPropertyOp13
 70
     1
102
RTVSPropertyOp14
 70
     1
102
RTVSPropertyOp15
 70
     1
102
RTVSPropertyOp16
 70
     1
102
RTVSPropertyOp17
 70
     1
102
RTVSPropertyOp18
 70
     1
102
RTVSPropertyOp19
 70
     1
102
RTVSPropertyOp20
 70
     1
102
RTVSPropertyOp21
 70
     1
102
RTVSPropertyOp22
 70
     1
102
RTVSPropertyOp23
 70
     1
102
RTVSPropertyOp24
 70
     1
102
RTVSPropertyOp25
 70
     1
102
RTVSPropertyOp26
 70
     1
102
RTVSPropertyOp27
 70
     1
102
RTVSPropertyOp28
 70
     1
102
RTVSPropertyOp29
 70
     1
102
RTVSPropertyOp30
 70
     1
102
RTVSPropertyOp31
 70
     1
102
RTVSPropertyOp32
 70
     1
102
RTVSPropertyOp33
 70
     1
102
RTVSPropertyOp34
 70
     1
102
RTVSPropertyOp35
 70
     1
102
RTVSPropertyOp36
 70
     1
102
RTVSPropertyOp37
 70
     1
102
RTVSPropertyOp38
 70
     1
102
RTVSPropertyOp39
 70
     1
102
RTVSPropertyOp40
 70
     1
102
RTVSPropertyOp41
 70
     1
102
RTVSPropertyOp42
 70
     1
102
RTVSPropertyOp43
 70
     1
102
RTVSPropertyOp44
 70
     1
102
RTVSPropertyOp45
 70
     1
102
RTVSPropertyOp46
 70
     1
102
RTVSPropertyOp47
 70
     1
102
RTVSPropertyOp48
 70
     1
102
RTVSPropertyOp49
 70
     1
102
RTVSPropertyOp50
 70
     1
102
RTVSPropertyOp51
 70
     0
102
RTVSPropertyOp52
 70
     0
102
RTVSPropertyOp53
 70
     1
102
RTVSPropertyOp54
 70
     1
102
RTVSPropertyOp55
 70
     1
102
RTVSPropertyOp56
 70
     1
102
RTVSPropertyOp57
 70
     1
102
RTVSPropertyOp58
 70
     1
102
RTVSPropertyOp59
 70
     1
102
RTVSPropertyOp60
 70
     1
102
RTVSPropertyOp61
 70
     1
102
RTVSPropertyOp62
 70
     1
  0
XRECORD
  5
10A17
102
{ACAD_REACTORS
330
10A16
102
}
330
10A16
100
AcDbXrecord
280
     1
102
RTVSPost2010Prop28
280
     0
102
RTVSPost2010PropOp28
 70
     1
102
RTVSPost2010Prop29
280
     1
102
RTVSPost2010PropOp29
 70
     1
102
RTVSPost2010Prop30
280
     1
102
RTVSPost2010PropOp30
 70
     1
102
RTVSPost2010Prop31
280
     0
102
RTVSPost2010PropOp31
 70
     1
102
RTVSPost2010Prop32
280
     0
102
RTVSPost2010PropOp32
 70
     1
102
RTVSPost2010Prop33
280
     0
102
RTVSPost2010PropOp33
 70
     1
102
RTVSPost2010Prop34
280
     0
102
RTVSPost2010PropOp34
 70
     1
102
RTVSPost2010Prop35
280
     0
102
RTVSPost2010PropOp35
 70
     1
102
RTVSPost2010Prop36
280
     0
102
RTVSPost2010PropOp36
 70
     1
102
RTVSPost2010Prop37
 90
       50
102
RTVSPost2010PropOp37
 70
     1
102
RTVSPost2010Prop38
140
0.0
102
RTVSPost2010PropOp38
 70
     1
102
RTVSPost2010Prop39
140
1.0
102
RTVSPost2010PropOp39
 70
     1
102
RTVSPost2010Prop40
 90
        0
102
RTVSPost2010PropOp40
 70
     1
102
RTVSPost2010Prop41ColorIndex
 90
       18
102
RTVSPost2010Prop41ColorRGB
 90
        0
102
RTVSPost2010PropOp41
 70
     1
102
RTVSPost2010Prop42
 90
       50
102
RTVSPost2010PropOp42
 70
     1
102
RTVSPost2010Prop43
 90
        3
102
RTVSPost2010PropOp43
 70
     1
102
RTVSPost2010Prop44ColorIndex
 90
        5
102
RTVSPost2010Prop44ColorRGB
 90
      255
102
RTVSPost2010PropOp44
 70
     1
102
RTVSPost2010Prop45
280
     0
102
RTVSPost2010PropOp45
 70
     1
102
RTVSPost2010Prop46
 90
       50
102
RTVSPost2010PropOp46
 70
     1
102
RTVSPost2010Prop47
 90
       50
102
RTVSPost2010PropOp47
 70
     1
102
RTVSPost2010Prop48
 90
       50
102
RTVSPost2010PropOp48
 70
     1
102
RTVSPost2010Prop49
280
     0
102
RTVSPost2010PropOp49
 70
     1
102
RTVSPost2010Prop50
 90
       50
102
RTVSPost2010PropOp50
 70
     1
102
RTVSPost2010Prop51ColorIndex
 90
      256
102
RTVSPost2010Prop51ColorRGB
 90
-16777216
102
RTVSPost2010PropOp51
 70
     0
102
RTVSPost2010Prop52
140
1.0
102
RTVSPost2010PropOp52
 70
     0
102
RTVSPost2010Prop53
 90
        2
102
RTVSPost2010PropOp53
 70
     1
102
RTVSPost2010Prop54
  1
strokes_ogs.tif
102
RTVSPost2010PropOp54
 70
     1
102
RTVSPost2010Prop55
280
     0
102
RTVSPost2010PropOp55
 70
     1
102
RTVSPost2010Prop56
140
1.0
102
RTVSPost2010PropOp56
 70
     1
102
RTVSPost2010Prop57
140
1.0
102
RTVSPost2010PropOp57
 70
     1
102
RTVSPropertyOp0
 70
     1
102
RTVSPropertyOp1
 70
     1
102
RTVSPropertyOp2
 70
     1
102
RTVSPropertyOp3
 70
     1
102
RTVSPropertyOp4
 70
     1
102
RTVSPropertyOp5
 70
     1
102
RTVSPropertyOp6
 70
     1
102
RTVSPropertyOp7
 70
     1
102
RTVSPropertyOp8
 70
     1
102
RTVSPropertyOp9
 70
     1
102
RTVSPropertyOp10
 70
     1
102
RTVSPropertyOp11
 70
     1
102
RTVSPropertyOp12
 70
     1
102
RTVSPropertyOp13
 70
     1
102
RTVSPropertyOp14
 70
     1
102
RTVSPropertyOp15
 70
     1
102
RTVSPropertyOp16
 70
     1
102
RTVSPropertyOp17
 70
     1
102
RTVSPropertyOp18
 70
     1
102
RTVSPropertyOp19
 70
     1
102
RTVSPropertyOp20
 70
     1
102
RTVSPropertyOp21
 70
     1
102
RTVSPropertyOp22
 70
     1
102
RTVSPropertyOp23
 70
     1
102
RTVSPropertyOp24
 70
     1
102
RTVSPropertyOp25
 70
     1
102
RTVSPropertyOp26
 70
     1
102
RTVSPropertyOp27
 70
     1
102
RTVSPropertyOp28
 70
     1
102
RTVSPropertyOp29
 70
     1
102
RTVSPropertyOp30
 70
     1
102
RTVSPropertyOp31
 70
     1
102
RTVSPropertyOp32
 70
     1
102
RTVSPropertyOp33
 70
     1
102
RTVSPropertyOp34
 70
     1
102
RTVSPropertyOp35
 70
     1
102
RTVSPropertyOp36
 70
     1
102
RTVSPropertyOp37
 70
     1
102
RTVSPropertyOp38
 70
     1
102
RTVSPropertyOp39
 70
     1
102
RTVSPropertyOp40
 70
     1
102
RTVSPropertyOp41
 70
     1
102
RTVSPropertyOp42
 70
     1
102
RTVSPropertyOp43
 70
     1
102
RTVSPropertyOp44
 70
     1
102
RTVSPropertyOp45
 70
     1
102
RTVSPropertyOp46
 70
     1
102
RTVSPropertyOp47
 70
     1
102
RTVSPropertyOp48
 70
     1
102
RTVSPropertyOp49
 70
     1
102
RTVSPropertyOp50
 70
     1
102
RTVSPropertyOp51
 70
     0
102
RTVSPropertyOp52
 70
     0
102
RTVSPropertyOp53
 70
     1
102
RTVSPropertyOp54
 70
     1
102
RTVSPropertyOp55
 70
     1
102
RTVSPropertyOp56
 70
     1
102
RTVSPropertyOp57
 70
     1
102
RTVSPropertyOp58
 70
     1
102
RTVSPropertyOp59
 70
     1
102
RTVSPropertyOp60
 70
     1
102
RTVSPropertyOp61
 70
     1
102
RTVSPropertyOp62
 70
     1
  0
XRECORD
  5
10A09
102
{ACAD_REACTORS
330
10A08
102
}
330
10A08
100
AcDbXrecord
280
     1
102
RTVSPost2010Prop28
280
     0
102
RTVSPost2010PropOp28
 70
     1
102
RTVSPost2010Prop29
280
     1
102
RTVSPost2010PropOp29
 70
     1
102
RTVSPost2010Prop30
280
     1
102
RTVSPost2010PropOp30
 70
     1
102
RTVSPost2010Prop31
280
     0
102
RTVSPost2010PropOp31
 70
     1
102
RTVSPost2010Prop32
280
     0
102
RTVSPost2010PropOp32
 70
     1
102
RTVSPost2010Prop33
280
     0
102
RTVSPost2010PropOp33
 70
     1
102
RTVSPost2010Prop34
280
     0
102
RTVSPost2010PropOp34
 70
     1
102
RTVSPost2010Prop35
280
     0
102
RTVSPost2010PropOp35
 70
     1
102
RTVSPost2010Prop36
280
     0
102
RTVSPost2010PropOp36
 70
     1
102
RTVSPost2010Prop37
 90
       50
102
RTVSPost2010PropOp37
 70
     1
102
RTVSPost2010Prop38
140
0.0
102
RTVSPost2010PropOp38
 70
     1
102
RTVSPost2010Prop39
140
1.0
102
RTVSPost2010PropOp39
 70
     1
102
RTVSPost2010Prop40
 90
        0
102
RTVSPost2010PropOp40
 70
     1
102
RTVSPost2010Prop41ColorIndex
 90
       18
102
RTVSPost2010Prop41ColorRGB
 90
        0
102
RTVSPost2010PropOp41
 70
     1
102
RTVSPost2010Prop42
 90
       50
102
RTVSPost2010PropOp42
 70
     1
102
RTVSPost2010Prop43
 90
        3
102
RTVSPost2010PropOp43
 70
     1
102
RTVSPost2010Prop44ColorIndex
 90
        5
102
RTVSPost2010Prop44ColorRGB
 90
      255
102
RTVSPost2010PropOp44
 70
     1
102
RTVSPost2010Prop45
280
     0
102
RTVSPost2010PropOp45
 70
     1
102
RTVSPost2010Prop46
 90
       50
102
RTVSPost2010PropOp46
 70
     1
102
RTVSPost2010Prop47
 90
       50
102
RTVSPost2010PropOp47
 70
     1
102
RTVSPost2010Prop48
 90
       50
102
RTVSPost2010PropOp48
 70
     1
102
RTVSPost2010Prop49
280
     0
102
RTVSPost2010PropOp49
 70
     1
102
RTVSPost2010Prop50
 90
       50
102
RTVSPost2010PropOp50
 70
     1
102
RTVSPost2010Prop51ColorIndex
 90
      256
102
RTVSPost2010Prop51ColorRGB
 90
-16777216
102
RTVSPost2010PropOp51
 70
     0
102
RTVSPost2010Prop52
140
1.0
102
RTVSPost2010PropOp52
 70
     0
102
RTVSPost2010Prop53
 90
        2
102
RTVSPost2010PropOp53
 70
     1
102
RTVSPost2010Prop54
  1
strokes_ogs.tif
102
RTVSPost2010PropOp54
 70
     1
102
RTVSPost2010Prop55
280
     0
102
RTVSPost2010PropOp55
 70
     1
102
RTVSPost2010Prop56
140
1.0
102
RTVSPost2010PropOp56
 70
     1
102
RTVSPost2010Prop57
140
1.0
102
RTVSPost2010PropOp57
 70
     1
102
RTVSPropertyOp0
 70
     1
102
RTVSPropertyOp1
 70
     1
102
RTVSPropertyOp2
 70
     1
102
RTVSPropertyOp3
 70
     1
102
RTVSPropertyOp4
 70
     1
102
RTVSPropertyOp5
 70
     1
102
RTVSPropertyOp6
 70
     1
102
RTVSPropertyOp7
 70
     1
102
RTVSPropertyOp8
 70
     1
102
RTVSPropertyOp9
 70
     1
102
RTVSPropertyOp10
 70
     1
102
RTVSPropertyOp11
 70
     1
102
RTVSPropertyOp12
 70
     1
102
RTVSPropertyOp13
 70
     1
102
RTVSPropertyOp14
 70
     1
102
RTVSPropertyOp15
 70
     1
102
RTVSPropertyOp16
 70
     1
102
RTVSPropertyOp17
 70
     1
102
RTVSPropertyOp18
 70
     1
102
RTVSPropertyOp19
 70
     1
102
RTVSPropertyOp20
 70
     1
102
RTVSPropertyOp21
 70
     1
102
RTVSPropertyOp22
 70
     1
102
RTVSPropertyOp23
 70
     1
102
RTVSPropertyOp24
 70
     1
102
RTVSPropertyOp25
 70
     1
102
RTVSPropertyOp26
 70
     1
102
RTVSPropertyOp27
 70
     1
102
RTVSPropertyOp28
 70
     1
102
RTVSPropertyOp29
 70
     1
102
RTVSPropertyOp30
 70
     1
102
RTVSPropertyOp31
 70
     1
102
RTVSPropertyOp32
 70
     1
102
RTVSPropertyOp33
 70
     1
102
RTVSPropertyOp34
 70
     1
102
RTVSPropertyOp35
 70
     1
102
RTVSPropertyOp36
 70
     1
102
RTVSPropertyOp37
 70
     1
102
RTVSPropertyOp38
 70
     1
102
RTVSPropertyOp39
 70
     1
102
RTVSPropertyOp40
 70
     1
102
RTVSPropertyOp41
 70
     1
102
RTVSPropertyOp42
 70
     1
102
RTVSPropertyOp43
 70
     1
102
RTVSPropertyOp44
 70
     1
102
RTVSPropertyOp45
 70
     1
102
RTVSPropertyOp46
 70
     1
102
RTVSPropertyOp47
 70
     1
102
RTVSPropertyOp48
 70
     1
102
RTVSPropertyOp49
 70
     1
102
RTVSPropertyOp50
 70
     1
102
RTVSPropertyOp51
 70
     0
102
RTVSPropertyOp52
 70
     0
102
RTVSPropertyOp53
 70
     1
102
RTVSPropertyOp54
 70
     1
102
RTVSPropertyOp55
 70
     1
102
RTVSPropertyOp56
 70
     1
102
RTVSPropertyOp57
 70
     1
102
RTVSPropertyOp58
 70
     1
102
RTVSPropertyOp59
 70
     1
102
RTVSPropertyOp60
 70
     1
102
RTVSPropertyOp61
 70
     1
102
RTVSPropertyOp62
 70
     1
  0
XRECORD
  5
10A0D
102
{ACAD_REACTORS
330
10A0C
102
}
330
10A0C
100
AcDbXrecord
280
     1
102
RTVSPost2010Prop28
280
     0
102
RTVSPost2010PropOp28
 70
     1
102
RTVSPost2010Prop29
280
     1
102
RTVSPost2010PropOp29
 70
     1
102
RTVSPost2010Prop30
280
     1
102
RTVSPost2010PropOp30
 70
     1
102
RTVSPost2010Prop31
280
     0
102
RTVSPost2010PropOp31
 70
     1
102
RTVSPost2010Prop32
280
     0
102
RTVSPost2010PropOp32
 70
     1
102
RTVSPost2010Prop33
280
     0
102
RTVSPost2010PropOp33
 70
     1
102
RTVSPost2010Prop34
280
     0
102
RTVSPost2010PropOp34
 70
     1
102
RTVSPost2010Prop35
280
     0
102
RTVSPost2010PropOp35
 70
     1
102
RTVSPost2010Prop36
280
     0
102
RTVSPost2010PropOp36
 70
     1
102
RTVSPost2010Prop37
 90
       50
102
RTVSPost2010PropOp37
 70
     1
102
RTVSPost2010Prop38
140
0.0
102
RTVSPost2010PropOp38
 70
     1
102
RTVSPost2010Prop39
140
1.0
102
RTVSPost2010PropOp39
 70
     1
102
RTVSPost2010Prop40
 90
        0
102
RTVSPost2010PropOp40
 70
     1
102
RTVSPost2010Prop41ColorIndex
 90
       18
102
RTVSPost2010Prop41ColorRGB
 90
        0
102
RTVSPost2010PropOp41
 70
     1
102
RTVSPost2010Prop42
 90
       50
102
RTVSPost2010PropOp42
 70
     1
102
RTVSPost2010Prop43
 90
        3
102
RTVSPost2010PropOp43
 70
     1
102
RTVSPost2010Prop44ColorIndex
 90
        5
102
RTVSPost2010Prop44ColorRGB
 90
      255
102
RTVSPost2010PropOp44
 70
     1
102
RTVSPost2010Prop45
280
     0
102
RTVSPost2010PropOp45
 70
     1
102
RTVSPost2010Prop46
 90
       50
102
RTVSPost2010PropOp46
 70
     1
102
RTVSPost2010Prop47
 90
       50
102
RTVSPost2010PropOp47
 70
     1
102
RTVSPost2010Prop48
 90
       50
102
RTVSPost2010PropOp48
 70
     1
102
RTVSPost2010Prop49
280
     0
102
RTVSPost2010PropOp49
 70
     1
102
RTVSPost2010Prop50
 90
       50
102
RTVSPost2010PropOp50
 70
     1
102
RTVSPost2010Prop51ColorIndex
 90
      256
102
RTVSPost2010Prop51ColorRGB
 90
-16777216
102
RTVSPost2010PropOp51
 70
     0
102
RTVSPost2010Prop52
140
1.0
102
RTVSPost2010PropOp52
 70
     0
102
RTVSPost2010Prop53
 90
        2
102
RTVSPost2010PropOp53
 70
     1
102
RTVSPost2010Prop54
  1
strokes_ogs.tif
102
RTVSPost2010PropOp54
 70
     1
102
RTVSPost2010Prop55
280
     0
102
RTVSPost2010PropOp55
 70
     1
102
RTVSPost2010Prop56
140
1.0
102
RTVSPost2010PropOp56
 70
     1
102
RTVSPost2010Prop57
140
1.0
102
RTVSPost2010PropOp57
 70
     1
102
RTVSPropertyOp0
 70
     1
102
RTVSPropertyOp1
 70
     1
102
RTVSPropertyOp2
 70
     1
102
RTVSPropertyOp3
 70
     1
102
RTVSPropertyOp4
 70
     1
102
RTVSPropertyOp5
 70
     1
102
RTVSPropertyOp6
 70
     1
102
RTVSPropertyOp7
 70
     1
102
RTVSPropertyOp8
 70
     1
102
RTVSPropertyOp9
 70
     1
102
RTVSPropertyOp10
 70
     1
102
RTVSPropertyOp11
 70
     1
102
RTVSPropertyOp12
 70
     1
102
RTVSPropertyOp13
 70
     1
102
RTVSPropertyOp14
 70
     1
102
RTVSPropertyOp15
 70
     1
102
RTVSPropertyOp16
 70
     1
102
RTVSPropertyOp17
 70
     1
102
RTVSPropertyOp18
 70
     1
102
RTVSPropertyOp19
 70
     1
102
RTVSPropertyOp20
 70
     1
102
RTVSPropertyOp21
 70
     1
102
RTVSPropertyOp22
 70
     1
102
RTVSPropertyOp23
 70
     1
102
RTVSPropertyOp24
 70
     1
102
RTVSPropertyOp25
 70
     1
102
RTVSPropertyOp26
 70
     1
102
RTVSPropertyOp27
 70
     1
102
RTVSPropertyOp28
 70
     1
102
RTVSPropertyOp29
 70
     1
102
RTVSPropertyOp30
 70
     1
102
RTVSPropertyOp31
 70
     1
102
RTVSPropertyOp32
 70
     1
102
RTVSPropertyOp33
 70
     1
102
RTVSPropertyOp34
 70
     1
102
RTVSPropertyOp35
 70
     1
102
RTVSPropertyOp36
 70
     1
102
RTVSPropertyOp37
 70
     1
102
RTVSPropertyOp38
 70
     1
102
RTVSPropertyOp39
 70
     1
102
RTVSPropertyOp40
 70
     1
102
RTVSPropertyOp41
 70
     1
102
RTVSPropertyOp42
 70
     1
102
RTVSPropertyOp43
 70
     1
102
RTVSPropertyOp44
 70
     1
102
RTVSPropertyOp45
 70
     1
102
RTVSPropertyOp46
 70
     1
102
RTVSPropertyOp47
 70
     1
102
RTVSPropertyOp48
 70
     1
102
RTVSPropertyOp49
 70
     1
102
RTVSPropertyOp50
 70
     1
102
RTVSPropertyOp51
 70
     0
102
RTVSPropertyOp52
 70
     0
102
RTVSPropertyOp53
 70
     1
102
RTVSPropertyOp54
 70
     1
102
RTVSPropertyOp55
 70
     1
102
RTVSPropertyOp56
 70
     1
102
RTVSPropertyOp57
 70
     1
102
RTVSPropertyOp58
 70
     1
102
RTVSPropertyOp59
 70
     1
102
RTVSPropertyOp60
 70
     1
102
RTVSPropertyOp61
 70
     1
102
RTVSPropertyOp62
 70
     1
  0
XRECORD
  5
10A27
102
{ACAD_REACTORS
330
10A26
102
}
330
10A26
100
AcDbXrecord
280
     1
102
RTVSPost2010Prop28
280
     0
102
RTVSPost2010PropOp28
 70
     1
102
RTVSPost2010Prop29
280
     1
102
RTVSPost2010PropOp29
 70
     1
102
RTVSPost2010Prop30
280
     1
102
RTVSPost2010PropOp30
 70
     1
102
RTVSPost2010Prop31
280
     0
102
RTVSPost2010PropOp31
 70
     1
102
RTVSPost2010Prop32
280
     0
102
RTVSPost2010PropOp32
 70
     1
102
RTVSPost2010Prop33
280
     0
102
RTVSPost2010PropOp33
 70
     1
102
RTVSPost2010Prop34
280
     0
102
RTVSPost2010PropOp34
 70
     1
102
RTVSPost2010Prop35
280
     0
102
RTVSPost2010PropOp35
 70
     1
102
RTVSPost2010Prop36
280
     0
102
RTVSPost2010PropOp36
 70
     1
102
RTVSPost2010Prop37
 90
       50
102
RTVSPost2010PropOp37
 70
     0
102
RTVSPost2010Prop38
140
0.0
102
RTVSPost2010PropOp38
 70
     0
102
RTVSPost2010Prop39
140
1.0
102
RTVSPost2010PropOp39
 70
     0
102
RTVSPost2010Prop40
 90
        0
102
RTVSPost2010PropOp40
 70
     0
102
RTVSPost2010Prop41ColorIndex
 90
       18
102
RTVSPost2010Prop41ColorRGB
 90
        0
102
RTVSPost2010PropOp41
 70
     0
102
RTVSPost2010Prop42
 90
       50
102
RTVSPost2010PropOp42
 70
     0
102
RTVSPost2010Prop43
 90
        3
102
RTVSPost2010PropOp43
 70
     0
102
RTVSPost2010Prop44ColorIndex
 90
        5
102
RTVSPost2010Prop44ColorRGB
 90
      255
102
RTVSPost2010PropOp44
 70
     0
102
RTVSPost2010Prop45
280
     0
102
RTVSPost2010PropOp45
 70
     1
102
RTVSPost2010Prop46
 90
       50
102
RTVSPost2010PropOp46
 70
     0
102
RTVSPost2010Prop47
 90
       50
102
RTVSPost2010PropOp47
 70
     0
102
RTVSPost2010Prop48
 90
       50
102
RTVSPost2010PropOp48
 70
     0
102
RTVSPost2010Prop49
280
     0
102
RTVSPost2010PropOp49
 70
     1
102
RTVSPost2010Prop50
 90
       50
102
RTVSPost2010PropOp50
 70
     0
102
RTVSPost2010Prop51ColorIndex
 90
      256
102
RTVSPost2010Prop51ColorRGB
 90
-16777216
102
RTVSPost2010PropOp51
 70
     0
102
RTVSPost2010Prop52
140
1.0
102
RTVSPost2010PropOp52
 70
     0
102
RTVSPost2010Prop53
 90
        2
102
RTVSPost2010PropOp53
 70
     0
102
RTVSPost2010Prop54
  1
strokes_ogs.tif
102
RTVSPost2010PropOp54
 70
     0
102
RTVSPost2010Prop55
280
     0
102
RTVSPost2010PropOp55
 70
     1
102
RTVSPost2010Prop56
140
1.0
102
RTVSPost2010PropOp56
 70
     0
102
RTVSPost2010Prop57
140
1.0
102
RTVSPost2010PropOp57
 70
     0
102
RTVSPropertyOp0
 70
     0
102
RTVSPropertyOp1
 70
     0
102
RTVSPropertyOp2
 70
     0
102
RTVSPropertyOp3
 70
     0
102
RTVSPropertyOp4
 70
     0
102
RTVSPropertyOp5
 70
     0
102
RTVSPropertyOp6
 70
     0
102
RTVSPropertyOp7
 70
     0
102
RTVSPropertyOp8
 70
     0
102
RTVSPropertyOp9
 70
     0
102
RTVSPropertyOp10
 70
     0
102
RTVSPropertyOp11
 70
     0
102
RTVSPropertyOp12
 70
     0
102
RTVSPropertyOp13
 70
     0
102
RTVSPropertyOp14
 70
     2
102
RTVSPropertyOp15
 70
     0
102
RTVSPropertyOp16
 70
     0
102
RTVSPropertyOp17
 70
     0
102
RTVSPropertyOp18
 70
     0
102
RTVSPropertyOp19
 70
     0
102
RTVSPropertyOp20
 70
     0
102
RTVSPropertyOp21
 70
     0
102
RTVSPropertyOp22
 70
     0
102
RTVSPropertyOp23
 70
     0
102
RTVSPropertyOp24
 70
     0
102
RTVSPropertyOp25
 70
     0
102
RTVSPropertyOp26
 70
     0
102
RTVSPropertyOp27
 70
     0
102
RTVSPropertyOp28
 70
     1
102
RTVSPropertyOp29
 70
     1
102
RTVSPropertyOp30
 70
     1
102
RTVSPropertyOp31
 70
     1
102
RTVSPropertyOp32
 70
     1
102
RTVSPropertyOp33
 70
     1
102
RTVSPropertyOp34
 70
     1
102
RTVSPropertyOp35
 70
     1
102
RTVSPropertyOp36
 70
     1
102
RTVSPropertyOp37
 70
     0
102
RTVSPropertyOp38
 70
     0
102
RTVSPropertyOp39
 70
     0
102
RTVSPropertyOp40
 70
     0
102
RTVSPropertyOp41
 70
     0
102
RTVSPropertyOp42
 70
     0
102
RTVSPropertyOp43
 70
     0
102
RTVSPropertyOp44
 70
     0
102
RTVSPropertyOp45
 70
     1
102
RTVSPropertyOp46
 70
     0
102
RTVSPropertyOp47
 70
     0
102
RTVSPropertyOp48
 70
     0
102
RTVSPropertyOp49
 70
     1
102
RTVSPropertyOp50
 70
     0
102
RTVSPropertyOp51
 70
     0
102
RTVSPropertyOp52
 70
     0
102
RTVSPropertyOp53
 70
     0
102
RTVSPropertyOp54
 70
     0
102
RTVSPropertyOp55
 70
     1
102
RTVSPropertyOp56
 70
     0
102
RTVSPropertyOp57
 70
     0
102
RTVSPropertyOp58
 70
     0
102
RTVSPropertyOp59
 70
     0
102
RTVSPropertyOp60
 70
     0
102
RTVSPropertyOp61
 70
     0
102
RTVSPropertyOp62
 70
     0
  0
XRECORD
  5
10A15
102
{ACAD_REACTORS
330
10A14
102
}
330
10A14
100
AcDbXrecord
280
     1
102
RTVSPost2010Prop28
280
     0
102
RTVSPost2010PropOp28
 70
     1
102
RTVSPost2010Prop29
280
     1
102
RTVSPost2010PropOp29
 70
     1
102
RTVSPost2010Prop30
280
     1
102
RTVSPost2010PropOp30
 70
     1
102
RTVSPost2010Prop31
280
     0
102
RTVSPost2010PropOp31
 70
     1
102
RTVSPost2010Prop32
280
     0
102
RTVSPost2010PropOp32
 70
     1
102
RTVSPost2010Prop33
280
     0
102
RTVSPost2010PropOp33
 70
     1
102
RTVSPost2010Prop34
280
     0
102
RTVSPost2010PropOp34
 70
     1
102
RTVSPost2010Prop35
280
     0
102
RTVSPost2010PropOp35
 70
     1
102
RTVSPost2010Prop36
280
     0
102
RTVSPost2010PropOp36
 70
     1
102
RTVSPost2010Prop37
 90
       50
102
RTVSPost2010PropOp37
 70
     1
102
RTVSPost2010Prop38
140
0.0
102
RTVSPost2010PropOp38
 70
     1
102
RTVSPost2010Prop39
140
1.0
102
RTVSPost2010PropOp39
 70
     1
102
RTVSPost2010Prop40
 90
        0
102
RTVSPost2010PropOp40
 70
     1
102
RTVSPost2010Prop41ColorIndex
 90
       18
102
RTVSPost2010Prop41ColorRGB
 90
        0
102
RTVSPost2010PropOp41
 70
     1
102
RTVSPost2010Prop42
 90
       50
102
RTVSPost2010PropOp42
 70
     1
102
RTVSPost2010Prop43
 90
        3
102
RTVSPost2010PropOp43
 70
     1
102
RTVSPost2010Prop44ColorIndex
 90
        5
102
RTVSPost2010Prop44ColorRGB
 90
      255
102
RTVSPost2010PropOp44
 70
     1
102
RTVSPost2010Prop45
280
     0
102
RTVSPost2010PropOp45
 70
     1
102
RTVSPost2010Prop46
 90
       50
102
RTVSPost2010PropOp46
 70
     1
102
RTVSPost2010Prop47
 90
       50
102
RTVSPost2010PropOp47
 70
     1
102
RTVSPost2010Prop48
 90
       50
102
RTVSPost2010PropOp48
 70
     1
102
RTVSPost2010Prop49
280
     0
102
RTVSPost2010PropOp49
 70
     1
102
RTVSPost2010Prop50
 90
       50
102
RTVSPost2010PropOp50
 70
     1
102
RTVSPost2010Prop51ColorIndex
 90
      256
102
RTVSPost2010Prop51ColorRGB
 90
-16777216
102
RTVSPost2010PropOp51
 70
     0
102
RTVSPost2010Prop52
140
1.0
102
RTVSPost2010PropOp52
 70
     0
102
RTVSPost2010Prop53
 90
        2
102
RTVSPost2010PropOp53
 70
     1
102
RTVSPost2010Prop54
  1
strokes_ogs.tif
102
RTVSPost2010PropOp54
 70
     1
102
RTVSPost2010Prop55
280
     0
102
RTVSPost2010PropOp55
 70
     1
102
RTVSPost2010Prop56
140
1.0
102
RTVSPost2010PropOp56
 70
     1
102
RTVSPost2010Prop57
140
1.0
102
RTVSPost2010PropOp57
 70
     1
102
RTVSPropertyOp0
 70
     1
102
RTVSPropertyOp1
 70
     1
102
RTVSPropertyOp2
 70
     1
102
RTVSPropertyOp3
 70
     1
102
RTVSPropertyOp4
 70
     1
102
RTVSPropertyOp5
 70
     1
102
RTVSPropertyOp6
 70
     1
102
RTVSPropertyOp7
 70
     1
102
RTVSPropertyOp8
 70
     1
102
RTVSPropertyOp9
 70
     1
102
RTVSPropertyOp10
 70
     1
102
RTVSPropertyOp11
 70
     1
102
RTVSPropertyOp12
 70
     1
102
RTVSPropertyOp13
 70
     1
102
RTVSPropertyOp14
 70
     1
102
RTVSPropertyOp15
 70
     1
102
RTVSPropertyOp16
 70
     1
102
RTVSPropertyOp17
 70
     1
102
RTVSPropertyOp18
 70
     1
102
RTVSPropertyOp19
 70
     1
102
RTVSPropertyOp20
 70
     1
102
RTVSPropertyOp21
 70
     1
102
RTVSPropertyOp22
 70
     1
102
RTVSPropertyOp23
 70
     1
102
RTVSPropertyOp24
 70
     1
102
RTVSPropertyOp25
 70
     1
102
RTVSPropertyOp26
 70
     1
102
RTVSPropertyOp27
 70
     1
102
RTVSPropertyOp28
 70
     1
102
RTVSPropertyOp29
 70
     1
102
RTVSPropertyOp30
 70
     1
102
RTVSPropertyOp31
 70
     1
102
RTVSPropertyOp32
 70
     1
102
RTVSPropertyOp33
 70
     1
102
RTVSPropertyOp34
 70
     1
102
RTVSPropertyOp35
 70
     1
102
RTVSPropertyOp36
 70
     1
102
RTVSPropertyOp37
 70
     1
102
RTVSPropertyOp38
 70
     1
102
RTVSPropertyOp39
 70
     1
102
RTVSPropertyOp40
 70
     1
102
RTVSPropertyOp41
 70
     1
102
RTVSPropertyOp42
 70
     1
102
RTVSPropertyOp43
 70
     1
102
RTVSPropertyOp44
 70
     1
102
RTVSPropertyOp45
 70
     1
102
RTVSPropertyOp46
 70
     1
102
RTVSPropertyOp47
 70
     1
102
RTVSPropertyOp48
 70
     1
102
RTVSPropertyOp49
 70
     1
102
RTVSPropertyOp50
 70
     1
102
RTVSPropertyOp51
 70
     0
102
RTVSPropertyOp52
 70
     0
102
RTVSPropertyOp53
 70
     1
102
RTVSPropertyOp54
 70
     1
102
RTVSPropertyOp55
 70
     1
102
RTVSPropertyOp56
 70
     1
102
RTVSPropertyOp57
 70
     1
102
RTVSPropertyOp58
 70
     1
102
RTVSPropertyOp59
 70
     1
102
RTVSPropertyOp60
 70
     1
102
RTVSPropertyOp61
 70
     1
102
RTVSPropertyOp62
 70
     1
  0
XRECORD
  5
109F9
102
{ACAD_REACTORS
330
109F8
102
}
330
109F8
100
AcDbXrecord
280
     1
102
RTVSPost2010Prop28
280
     0
102
RTVSPost2010PropOp28
 70
     1
102
RTVSPost2010Prop29
280
     1
102
RTVSPost2010PropOp29
 70
     1
102
RTVSPost2010Prop30
280
     1
102
RTVSPost2010PropOp30
 70
     1
102
RTVSPost2010Prop31
280
     0
102
RTVSPost2010PropOp31
 70
     1
102
RTVSPost2010Prop32
280
     0
102
RTVSPost2010PropOp32
 70
     1
102
RTVSPost2010Prop33
280
     0
102
RTVSPost2010PropOp33
 70
     1
102
RTVSPost2010Prop34
280
     0
102
RTVSPost2010PropOp34
 70
     1
102
RTVSPost2010Prop35
280
     0
102
RTVSPost2010PropOp35
 70
     1
102
RTVSPost2010Prop36
280
     0
102
RTVSPost2010PropOp36
 70
     1
102
RTVSPost2010Prop37
 90
       50
102
RTVSPost2010PropOp37
 70
     1
102
RTVSPost2010Prop38
140
0.0
102
RTVSPost2010PropOp38
 70
     1
102
RTVSPost2010Prop39
140
1.0
102
RTVSPost2010PropOp39
 70
     1
102
RTVSPost2010Prop40
 90
        0
102
RTVSPost2010PropOp40
 70
     1
102
RTVSPost2010Prop41ColorIndex
 90
       18
102
RTVSPost2010Prop41ColorRGB
 90
        0
102
RTVSPost2010PropOp41
 70
     1
102
RTVSPost2010Prop42
 90
       50
102
RTVSPost2010PropOp42
 70
     1
102
RTVSPost2010Prop43
 90
        3
102
RTVSPost2010PropOp43
 70
     1
102
RTVSPost2010Prop44ColorIndex
 90
        5
102
RTVSPost2010Prop44ColorRGB
 90
      255
102
RTVSPost2010PropOp44
 70
     1
102
RTVSPost2010Prop45
280
     0
102
RTVSPost2010PropOp45
 70
     1
102
RTVSPost2010Prop46
 90
       50
102
RTVSPost2010PropOp46
 70
     1
102
RTVSPost2010Prop47
 90
       50
102
RTVSPost2010PropOp47
 70
     1
102
RTVSPost2010Prop48
 90
       50
102
RTVSPost2010PropOp48
 70
     1
102
RTVSPost2010Prop49
280
     0
102
RTVSPost2010PropOp49
 70
     1
102
RTVSPost2010Prop50
 90
       50
102
RTVSPost2010PropOp50
 70
     1
102
RTVSPost2010Prop51ColorIndex
 90
      256
102
RTVSPost2010Prop51ColorRGB
 90
-16777216
102
RTVSPost2010PropOp51
 70
     0
102
RTVSPost2010Prop52
140
1.0
102
RTVSPost2010PropOp52
 70
     0
102
RTVSPost2010Prop53
 90
        2
102
RTVSPost2010PropOp53
 70
     1
102
RTVSPost2010Prop54
  1
strokes_ogs.tif
102
RTVSPost2010PropOp54
 70
     1
102
RTVSPost2010Prop55
280
     0
102
RTVSPost2010PropOp55
 70
     1
102
RTVSPost2010Prop56
140
1.0
102
RTVSPost2010PropOp56
 70
     1
102
RTVSPost2010Prop57
140
1.0
102
RTVSPost2010PropOp57
 70
     1
102
RTVSPropertyOp0
 70
     1
102
RTVSPropertyOp1
 70
     1
102
RTVSPropertyOp2
 70
     1
102
RTVSPropertyOp3
 70
     1
102
RTVSPropertyOp4
 70
     1
102
RTVSPropertyOp5
 70
     1
102
RTVSPropertyOp6
 70
     1
102
RTVSPropertyOp7
 70
     1
102
RTVSPropertyOp8
 70
     1
102
RTVSPropertyOp9
 70
     1
102
RTVSPropertyOp10
 70
     1
102
RTVSPropertyOp11
 70
     1
102
RTVSPropertyOp12
 70
     1
102
RTVSPropertyOp13
 70
     1
102
RTVSPropertyOp14
 70
     1
102
RTVSPropertyOp15
 70
     1
102
RTVSPropertyOp16
 70
     1
102
RTVSPropertyOp17
 70
     1
102
RTVSPropertyOp18
 70
     1
102
RTVSPropertyOp19
 70
     1
102
RTVSPropertyOp20
 70
     1
102
RTVSPropertyOp21
 70
     1
102
RTVSPropertyOp22
 70
     1
102
RTVSPropertyOp23
 70
     1
102
RTVSPropertyOp24
 70
     1
102
RTVSPropertyOp25
 70
     1
102
RTVSPropertyOp26
 70
     1
102
RTVSPropertyOp27
 70
     1
102
RTVSPropertyOp28
 70
     1
102
RTVSPropertyOp29
 70
     1
102
RTVSPropertyOp30
 70
     1
102
RTVSPropertyOp31
 70
     1
102
RTVSPropertyOp32
 70
     1
102
RTVSPropertyOp33
 70
     1
102
RTVSPropertyOp34
 70
     1
102
RTVSPropertyOp35
 70
     1
102
RTVSPropertyOp36
 70
     1
102
RTVSPropertyOp37
 70
     1
102
RTVSPropertyOp38
 70
     1
102
RTVSPropertyOp39
 70
     1
102
RTVSPropertyOp40
 70
     1
102
RTVSPropertyOp41
 70
     1
102
RTVSPropertyOp42
 70
     1
102
RTVSPropertyOp43
 70
     1
102
RTVSPropertyOp44
 70
     1
102
RTVSPropertyOp45
 70
     1
102
RTVSPropertyOp46
 70
     1
102
RTVSPropertyOp47
 70
     1
102
RTVSPropertyOp48
 70
     1
102
RTVSPropertyOp49
 70
     1
102
RTVSPropertyOp50
 70
     1
102
RTVSPropertyOp51
 70
     0
102
RTVSPropertyOp52
 70
     0
102
RTVSPropertyOp53
 70
     1
102
RTVSPropertyOp54
 70
     1
102
RTVSPropertyOp55
 70
     1
102
RTVSPropertyOp56
 70
     1
102
RTVSPropertyOp57
 70
     1
102
RTVSPropertyOp58
 70
     1
102
RTVSPropertyOp59
 70
     1
102
RTVSPropertyOp60
 70
     1
102
RTVSPropertyOp61
 70
     1
102
RTVSPropertyOp62
 70
     1
  0
XRECORD
  5
109FB
102
{ACAD_REACTORS
330
109FA
102
}
330
109FA
100
AcDbXrecord
280
     1
102
RTVSPost2010Prop28
280
     0
102
RTVSPost2010PropOp28
 70
     1
102
RTVSPost2010Prop29
280
     1
102
RTVSPost2010PropOp29
 70
     1
102
RTVSPost2010Prop30
280
     1
102
RTVSPost2010PropOp30
 70
     1
102
RTVSPost2010Prop31
280
     0
102
RTVSPost2010PropOp31
 70
     1
102
RTVSPost2010Prop32
280
     0
102
RTVSPost2010PropOp32
 70
     1
102
RTVSPost2010Prop33
280
     0
102
RTVSPost2010PropOp33
 70
     1
102
RTVSPost2010Prop34
280
     0
102
RTVSPost2010PropOp34
 70
     1
102
RTVSPost2010Prop35
280
     0
102
RTVSPost2010PropOp35
 70
     1
102
RTVSPost2010Prop36
280
     0
102
RTVSPost2010PropOp36
 70
     1
102
RTVSPost2010Prop37
 90
       50
102
RTVSPost2010PropOp37
 70
     1
102
RTVSPost2010Prop38
140
0.0
102
RTVSPost2010PropOp38
 70
     1
102
RTVSPost2010Prop39
140
1.0
102
RTVSPost2010PropOp39
 70
     1
102
RTVSPost2010Prop40
 90
        0
102
RTVSPost2010PropOp40
 70
     1
102
RTVSPost2010Prop41ColorIndex
 90
       18
102
RTVSPost2010Prop41ColorRGB
 90
        0
102
RTVSPost2010PropOp41
 70
     1
102
RTVSPost2010Prop42
 90
       50
102
RTVSPost2010PropOp42
 70
     1
102
RTVSPost2010Prop43
 90
        3
102
RTVSPost2010PropOp43
 70
     1
102
RTVSPost2010Prop44ColorIndex
 90
        5
102
RTVSPost2010Prop44ColorRGB
 90
      255
102
RTVSPost2010PropOp44
 70
     1
102
RTVSPost2010Prop45
280
     0
102
RTVSPost2010PropOp45
 70
     1
102
RTVSPost2010Prop46
 90
       50
102
RTVSPost2010PropOp46
 70
     1
102
RTVSPost2010Prop47
 90
       50
102
RTVSPost2010PropOp47
 70
     1
102
RTVSPost2010Prop48
 90
       50
102
RTVSPost2010PropOp48
 70
     1
102
RTVSPost2010Prop49
280
     0
102
RTVSPost2010PropOp49
 70
     1
102
RTVSPost2010Prop50
 90
       50
102
RTVSPost2010PropOp50
 70
     1
102
RTVSPost2010Prop51ColorIndex
 90
      256
102
RTVSPost2010Prop51ColorRGB
 90
-16777216
102
RTVSPost2010PropOp51
 70
     0
102
RTVSPost2010Prop52
140
1.0
102
RTVSPost2010PropOp52
 70
     0
102
RTVSPost2010Prop53
 90
        2
102
RTVSPost2010PropOp53
 70
     1
102
RTVSPost2010Prop54
  1
strokes_ogs.tif
102
RTVSPost2010PropOp54
 70
     1
102
RTVSPost2010Prop55
280
     0
102
RTVSPost2010PropOp55
 70
     1
102
RTVSPost2010Prop56
140
1.0
102
RTVSPost2010PropOp56
 70
     1
102
RTVSPost2010Prop57
140
1.0
102
RTVSPost2010PropOp57
 70
     1
102
RTVSPropertyOp0
 70
     1
102
RTVSPropertyOp1
 70
     1
102
RTVSPropertyOp2
 70
     1
102
RTVSPropertyOp3
 70
     1
102
RTVSPropertyOp4
 70
     1
102
RTVSPropertyOp5
 70
     1
102
RTVSPropertyOp6
 70
     1
102
RTVSPropertyOp7
 70
     1
102
RTVSPropertyOp8
 70
     1
102
RTVSPropertyOp9
 70
     1
102
RTVSPropertyOp10
 70
     1
102
RTVSPropertyOp11
 70
     1
102
RTVSPropertyOp12
 70
     1
102
RTVSPropertyOp13
 70
     1
102
RTVSPropertyOp14
 70
     1
102
RTVSPropertyOp15
 70
     1
102
RTVSPropertyOp16
 70
     1
102
RTVSPropertyOp17
 70
     1
102
RTVSPropertyOp18
 70
     1
102
RTVSPropertyOp19
 70
     1
102
RTVSPropertyOp20
 70
     1
102
RTVSPropertyOp21
 70
     1
102
RTVSPropertyOp22
 70
     1
102
RTVSPropertyOp23
 70
     1
102
RTVSPropertyOp24
 70
     1
102
RTVSPropertyOp25
 70
     1
102
RTVSPropertyOp26
 70
     1
102
RTVSPropertyOp27
 70
     1
102
RTVSPropertyOp28
 70
     1
102
RTVSPropertyOp29
 70
     1
102
RTVSPropertyOp30
 70
     1
102
RTVSPropertyOp31
 70
     1
102
RTVSPropertyOp32
 70
     1
102
RTVSPropertyOp33
 70
     1
102
RTVSPropertyOp34
 70
     1
102
RTVSPropertyOp35
 70
     1
102
RTVSPropertyOp36
 70
     1
102
RTVSPropertyOp37
 70
     1
102
RTVSPropertyOp38
 70
     1
102
RTVSPropertyOp39
 70
     1
102
RTVSPropertyOp40
 70
     1
102
RTVSPropertyOp41
 70
     1
102
RTVSPropertyOp42
 70
     1
102
RTVSPropertyOp43
 70
     1
102
RTVSPropertyOp44
 70
     1
102
RTVSPropertyOp45
 70
     1
102
RTVSPropertyOp46
 70
     1
102
RTVSPropertyOp47
 70
     1
102
RTVSPropertyOp48
 70
     1
102
RTVSPropertyOp49
 70
     1
102
RTVSPropertyOp50
 70
     1
102
RTVSPropertyOp51
 70
     0
102
RTVSPropertyOp52
 70
     0
102
RTVSPropertyOp53
 70
     1
102
RTVSPropertyOp54
 70
     1
102
RTVSPropertyOp55
 70
     1
102
RTVSPropertyOp56
 70
     1
102
RTVSPropertyOp57
 70
     1
102
RTVSPropertyOp58
 70
     1
102
RTVSPropertyOp59
 70
     1
102
RTVSPropertyOp60
 70
     1
102
RTVSPropertyOp61
 70
     1
102
RTVSPropertyOp62
 70
     1
  0
XRECORD
  5
109FD
102
{ACAD_REACTORS
330
109FC
102
}
330
109FC
100
AcDbXrecord
280
     1
102
RTVSPost2010Prop28
280
     0
102
RTVSPost2010PropOp28
 70
     1
102
RTVSPost2010Prop29
280
     1
102
RTVSPost2010PropOp29
 70
     1
102
RTVSPost2010Prop30
280
     1
102
RTVSPost2010PropOp30
 70
     1
102
RTVSPost2010Prop31
280
     0
102
RTVSPost2010PropOp31
 70
     1
102
RTVSPost2010Prop32
280
     0
102
RTVSPost2010PropOp32
 70
     1
102
RTVSPost2010Prop33
280
     0
102
RTVSPost2010PropOp33
 70
     1
102
RTVSPost2010Prop34
280
     0
102
RTVSPost2010PropOp34
 70
     1
102
RTVSPost2010Prop35
280
     0
102
RTVSPost2010PropOp35
 70
     1
102
RTVSPost2010Prop36
280
     0
102
RTVSPost2010PropOp36
 70
     1
102
RTVSPost2010Prop37
 90
       50
102
RTVSPost2010PropOp37
 70
     1
102
RTVSPost2010Prop38
140
0.0
102
RTVSPost2010PropOp38
 70
     1
102
RTVSPost2010Prop39
140
1.0
102
RTVSPost2010PropOp39
 70
     1
102
RTVSPost2010Prop40
 90
        0
102
RTVSPost2010PropOp40
 70
     1
102
RTVSPost2010Prop41ColorIndex
 90
       18
102
RTVSPost2010Prop41ColorRGB
 90
        0
102
RTVSPost2010PropOp41
 70
     1
102
RTVSPost2010Prop42
 90
       50
102
RTVSPost2010PropOp42
 70
     1
102
RTVSPost2010Prop43
 90
        3
102
RTVSPost2010PropOp43
 70
     1
102
RTVSPost2010Prop44ColorIndex
 90
        5
102
RTVSPost2010Prop44ColorRGB
 90
      255
102
RTVSPost2010PropOp44
 70
     1
102
RTVSPost2010Prop45
280
     0
102
RTVSPost2010PropOp45
 70
     1
102
RTVSPost2010Prop46
 90
       50
102
RTVSPost2010PropOp46
 70
     1
102
RTVSPost2010Prop47
 90
       50
102
RTVSPost2010PropOp47
 70
     1
102
RTVSPost2010Prop48
 90
       50
102
RTVSPost2010PropOp48
 70
     1
102
RTVSPost2010Prop49
280
     0
102
RTVSPost2010PropOp49
 70
     1
102
RTVSPost2010Prop50
 90
       50
102
RTVSPost2010PropOp50
 70
     1
102
RTVSPost2010Prop51ColorIndex
 90
      256
102
RTVSPost2010Prop51ColorRGB
 90
-16777216
102
RTVSPost2010PropOp51
 70
     0
102
RTVSPost2010Prop52
140
1.0
102
RTVSPost2010PropOp52
 70
     0
102
RTVSPost2010Prop53
 90
        2
102
RTVSPost2010PropOp53
 70
     1
102
RTVSPost2010Prop54
  1
strokes_ogs.tif
102
RTVSPost2010PropOp54
 70
     1
102
RTVSPost2010Prop55
280
     0
102
RTVSPost2010PropOp55
 70
     1
102
RTVSPost2010Prop56
140
1.0
102
RTVSPost2010PropOp56
 70
     1
102
RTVSPost2010Prop57
140
1.0
102
RTVSPost2010PropOp57
 70
     1
102
RTVSPropertyOp0
 70
     1
102
RTVSPropertyOp1
 70
     1
102
RTVSPropertyOp2
 70
     1
102
RTVSPropertyOp3
 70
     1
102
RTVSPropertyOp4
 70
     1
102
RTVSPropertyOp5
 70
     1
102
RTVSPropertyOp6
 70
     1
102
RTVSPropertyOp7
 70
     1
102
RTVSPropertyOp8
 70
     1
102
RTVSPropertyOp9
 70
     1
102
RTVSPropertyOp10
 70
     1
102
RTVSPropertyOp11
 70
     1
102
RTVSPropertyOp12
 70
     1
102
RTVSPropertyOp13
 70
     1
102
RTVSPropertyOp14
 70
     1
102
RTVSPropertyOp15
 70
     1
102
RTVSPropertyOp16
 70
     1
102
RTVSPropertyOp17
 70
     1
102
RTVSPropertyOp18
 70
     1
102
RTVSPropertyOp19
 70
     1
102
RTVSPropertyOp20
 70
     1
102
RTVSPropertyOp21
 70
     1
102
RTVSPropertyOp22
 70
     1
102
RTVSPropertyOp23
 70
     1
102
RTVSPropertyOp24
 70
     1
102
RTVSPropertyOp25
 70
     1
102
RTVSPropertyOp26
 70
     1
102
RTVSPropertyOp27
 70
     1
102
RTVSPropertyOp28
 70
     1
102
RTVSPropertyOp29
 70
     1
102
RTVSPropertyOp30
 70
     1
102
RTVSPropertyOp31
 70
     1
102
RTVSPropertyOp32
 70
     1
102
RTVSPropertyOp33
 70
     1
102
RTVSPropertyOp34
 70
     1
102
RTVSPropertyOp35
 70
     1
102
RTVSPropertyOp36
 70
     1
102
RTVSPropertyOp37
 70
     1
102
RTVSPropertyOp38
 70
     1
102
RTVSPropertyOp39
 70
     1
102
RTVSPropertyOp40
 70
     1
102
RTVSPropertyOp41
 70
     1
102
RTVSPropertyOp42
 70
     1
102
RTVSPropertyOp43
 70
     1
102
RTVSPropertyOp44
 70
     1
102
RTVSPropertyOp45
 70
     1
102
RTVSPropertyOp46
 70
     1
102
RTVSPropertyOp47
 70
     1
102
RTVSPropertyOp48
 70
     1
102
RTVSPropertyOp49
 70
     1
102
RTVSPropertyOp50
 70
     1
102
RTVSPropertyOp51
 70
     0
102
RTVSPropertyOp52
 70
     0
102
RTVSPropertyOp53
 70
     1
102
RTVSPropertyOp54
 70
     1
102
RTVSPropertyOp55
 70
     1
102
RTVSPropertyOp56
 70
     1
102
RTVSPropertyOp57
 70
     1
102
RTVSPropertyOp58
 70
     1
102
RTVSPropertyOp59
 70
     1
102
RTVSPropertyOp60
 70
     1
102
RTVSPropertyOp61
 70
     1
102
RTVSPropertyOp62
 70
     1
  0
XRECORD
  5
109FF
102
{ACAD_REACTORS
330
109FE
102
}
330
109FE
100
AcDbXrecord
280
     1
102
RTVSPost2010Prop28
280
     0
102
RTVSPost2010PropOp28
 70
     1
102
RTVSPost2010Prop29
280
     1
102
RTVSPost2010PropOp29
 70
     1
102
RTVSPost2010Prop30
280
     1
102
RTVSPost2010PropOp30
 70
     1
102
RTVSPost2010Prop31
280
     0
102
RTVSPost2010PropOp31
 70
     1
102
RTVSPost2010Prop32
280
     0
102
RTVSPost2010PropOp32
 70
     1
102
RTVSPost2010Prop33
280
     0
102
RTVSPost2010PropOp33
 70
     1
102
RTVSPost2010Prop34
280
     0
102
RTVSPost2010PropOp34
 70
     1
102
RTVSPost2010Prop35
280
     0
102
RTVSPost2010PropOp35
 70
     1
102
RTVSPost2010Prop36
280
     0
102
RTVSPost2010PropOp36
 70
     1
102
RTVSPost2010Prop37
 90
       50
102
RTVSPost2010PropOp37
 70
     1
102
RTVSPost2010Prop38
140
0.0
102
RTVSPost2010PropOp38
 70
     1
102
RTVSPost2010Prop39
140
1.0
102
RTVSPost2010PropOp39
 70
     1
102
RTVSPost2010Prop40
 90
        0
102
RTVSPost2010PropOp40
 70
     1
102
RTVSPost2010Prop41ColorIndex
 90
       18
102
RTVSPost2010Prop41ColorRGB
 90
        0
102
RTVSPost2010PropOp41
 70
     1
102
RTVSPost2010Prop42
 90
       50
102
RTVSPost2010PropOp42
 70
     1
102
RTVSPost2010Prop43
 90
        3
102
RTVSPost2010PropOp43
 70
     1
102
RTVSPost2010Prop44ColorIndex
 90
        5
102
RTVSPost2010Prop44ColorRGB
 90
      255
102
RTVSPost2010PropOp44
 70
     1
102
RTVSPost2010Prop45
280
     0
102
RTVSPost2010PropOp45
 70
     1
102
RTVSPost2010Prop46
 90
       50
102
RTVSPost2010PropOp46
 70
     1
102
RTVSPost2010Prop47
 90
       50
102
RTVSPost2010PropOp47
 70
     1
102
RTVSPost2010Prop48
 90
       50
102
RTVSPost2010PropOp48
 70
     1
102
RTVSPost2010Prop49
280
     0
102
RTVSPost2010PropOp49
 70
     1
102
RTVSPost2010Prop50
 90
       50
102
RTVSPost2010PropOp50
 70
     1
102
RTVSPost2010Prop51ColorIndex
 90
      256
102
RTVSPost2010Prop51ColorRGB
 90
-16777216
102
RTVSPost2010PropOp51
 70
     0
102
RTVSPost2010Prop52
140
1.0
102
RTVSPost2010PropOp52
 70
     0
102
RTVSPost2010Prop53
 90
        2
102
RTVSPost2010PropOp53
 70
     1
102
RTVSPost2010Prop54
  1
strokes_ogs.tif
102
RTVSPost2010PropOp54
 70
     1
102
RTVSPost2010Prop55
280
     0
102
RTVSPost2010PropOp55
 70
     1
102
RTVSPost2010Prop56
140
1.0
102
RTVSPost2010PropOp56
 70
     1
102
RTVSPost2010Prop57
140
1.0
102
RTVSPost2010PropOp57
 70
     1
102
RTVSPropertyOp0
 70
     1
102
RTVSPropertyOp1
 70
     1
102
RTVSPropertyOp2
 70
     1
102
RTVSPropertyOp3
 70
     1
102
RTVSPropertyOp4
 70
     1
102
RTVSPropertyOp5
 70
     1
102
RTVSPropertyOp6
 70
     1
102
RTVSPropertyOp7
 70
     1
102
RTVSPropertyOp8
 70
     1
102
RTVSPropertyOp9
 70
     1
102
RTVSPropertyOp10
 70
     1
102
RTVSPropertyOp11
 70
     1
102
RTVSPropertyOp12
 70
     1
102
RTVSPropertyOp13
 70
     1
102
RTVSPropertyOp14
 70
     1
102
RTVSPropertyOp15
 70
     1
102
RTVSPropertyOp16
 70
     1
102
RTVSPropertyOp17
 70
     1
102
RTVSPropertyOp18
 70
     1
102
RTVSPropertyOp19
 70
     1
102
RTVSPropertyOp20
 70
     1
102
RTVSPropertyOp21
 70
     1
102
RTVSPropertyOp22
 70
     1
102
RTVSPropertyOp23
 70
     1
102
RTVSPropertyOp24
 70
     1
102
RTVSPropertyOp25
 70
     1
102
RTVSPropertyOp26
 70
     1
102
RTVSPropertyOp27
 70
     1
102
RTVSPropertyOp28
 70
     1
102
RTVSPropertyOp29
 70
     1
102
RTVSPropertyOp30
 70
     1
102
RTVSPropertyOp31
 70
     1
102
RTVSPropertyOp32
 70
     1
102
RTVSPropertyOp33
 70
     1
102
RTVSPropertyOp34
 70
     1
102
RTVSPropertyOp35
 70
     1
102
RTVSPropertyOp36
 70
     1
102
RTVSPropertyOp37
 70
     1
102
RTVSPropertyOp38
 70
     1
102
RTVSPropertyOp39
 70
     1
102
RTVSPropertyOp40
 70
     1
102
RTVSPropertyOp41
 70
     1
102
RTVSPropertyOp42
 70
     1
102
RTVSPropertyOp43
 70
     1
102
RTVSPropertyOp44
 70
     1
102
RTVSPropertyOp45
 70
     1
102
RTVSPropertyOp46
 70
     1
102
RTVSPropertyOp47
 70
     1
102
RTVSPropertyOp48
 70
     1
102
RTVSPropertyOp49
 70
     1
102
RTVSPropertyOp50
 70
     1
102
RTVSPropertyOp51
 70
     0
102
RTVSPropertyOp52
 70
     0
102
RTVSPropertyOp53
 70
     1
102
RTVSPropertyOp54
 70
     1
102
RTVSPropertyOp55
 70
     1
102
RTVSPropertyOp56
 70
     1
102
RTVSPropertyOp57
 70
     1
102
RTVSPropertyOp58
 70
     1
102
RTVSPropertyOp59
 70
     1
102
RTVSPropertyOp60
 70
     1
102
RTVSPropertyOp61
 70
     1
102
RTVSPropertyOp62
 70
     1
  0
XRECORD
  5
10A07
102
{ACAD_REACTORS
330
10A06
102
}
330
10A06
100
AcDbXrecord
280
     1
102
RTVSPost2010Prop28
280
     0
102
RTVSPost2010PropOp28
 70
     1
102
RTVSPost2010Prop29
280
     1
102
RTVSPost2010PropOp29
 70
     1
102
RTVSPost2010Prop30
280
     1
102
RTVSPost2010PropOp30
 70
     1
102
RTVSPost2010Prop31
280
     0
102
RTVSPost2010PropOp31
 70
     1
102
RTVSPost2010Prop32
280
     0
102
RTVSPost2010PropOp32
 70
     1
102
RTVSPost2010Prop33
280
     0
102
RTVSPost2010PropOp33
 70
     1
102
RTVSPost2010Prop34
280
     0
102
RTVSPost2010PropOp34
 70
     1
102
RTVSPost2010Prop35
280
     0
102
RTVSPost2010PropOp35
 70
     1
102
RTVSPost2010Prop36
280
     0
102
RTVSPost2010PropOp36
 70
     1
102
RTVSPost2010Prop37
 90
       50
102
RTVSPost2010PropOp37
 70
     1
102
RTVSPost2010Prop38
140
0.0
102
RTVSPost2010PropOp38
 70
     1
102
RTVSPost2010Prop39
140
1.0
102
RTVSPost2010PropOp39
 70
     1
102
RTVSPost2010Prop40
 90
        0
102
RTVSPost2010PropOp40
 70
     1
102
RTVSPost2010Prop41ColorIndex
 90
       18
102
RTVSPost2010Prop41ColorRGB
 90
        0
102
RTVSPost2010PropOp41
 70
     1
102
RTVSPost2010Prop42
 90
       50
102
RTVSPost2010PropOp42
 70
     1
102
RTVSPost2010Prop43
 90
        3
102
RTVSPost2010PropOp43
 70
     1
102
RTVSPost2010Prop44ColorIndex
 90
        5
102
RTVSPost2010Prop44ColorRGB
 90
      255
102
RTVSPost2010PropOp44
 70
     1
102
RTVSPost2010Prop45
280
     0
102
RTVSPost2010PropOp45
 70
     1
102
RTVSPost2010Prop46
 90
       50
102
RTVSPost2010PropOp46
 70
     1
102
RTVSPost2010Prop47
 90
       50
102
RTVSPost2010PropOp47
 70
     1
102
RTVSPost2010Prop48
 90
       50
102
RTVSPost2010PropOp48
 70
     1
102
RTVSPost2010Prop49
280
     0
102
RTVSPost2010PropOp49
 70
     1
102
RTVSPost2010Prop50
 90
       50
102
RTVSPost2010PropOp50
 70
     1
102
RTVSPost2010Prop51ColorIndex
 90
      256
102
RTVSPost2010Prop51ColorRGB
 90
-16777216
102
RTVSPost2010PropOp51
 70
     0
102
RTVSPost2010Prop52
140
1.0
102
RTVSPost2010PropOp52
 70
     0
102
RTVSPost2010Prop53
 90
        2
102
RTVSPost2010PropOp53
 70
     1
102
RTVSPost2010Prop54
  1
strokes_ogs.tif
102
RTVSPost2010PropOp54
 70
     1
102
RTVSPost2010Prop55
280
     0
102
RTVSPost2010PropOp55
 70
     1
102
RTVSPost2010Prop56
140
1.0
102
RTVSPost2010PropOp56
 70
     1
102
RTVSPost2010Prop57
140
1.0
102
RTVSPost2010PropOp57
 70
     1
102
RTVSPropertyOp0
 70
     1
102
RTVSPropertyOp1
 70
     1
102
RTVSPropertyOp2
 70
     1
102
RTVSPropertyOp3
 70
     1
102
RTVSPropertyOp4
 70
     1
102
RTVSPropertyOp5
 70
     1
102
RTVSPropertyOp6
 70
     1
102
RTVSPropertyOp7
 70
     1
102
RTVSPropertyOp8
 70
     1
102
RTVSPropertyOp9
 70
     1
102
RTVSPropertyOp10
 70
     1
102
RTVSPropertyOp11
 70
     1
102
RTVSPropertyOp12
 70
     1
102
RTVSPropertyOp13
 70
     1
102
RTVSPropertyOp14
 70
     1
102
RTVSPropertyOp15
 70
     1
102
RTVSPropertyOp16
 70
     1
102
RTVSPropertyOp17
 70
     1
102
RTVSPropertyOp18
 70
     1
102
RTVSPropertyOp19
 70
     1
102
RTVSPropertyOp20
 70
     1
102
RTVSPropertyOp21
 70
     1
102
RTVSPropertyOp22
 70
     1
102
RTVSPropertyOp23
 70
     1
102
RTVSPropertyOp24
 70
     1
102
RTVSPropertyOp25
 70
     1
102
RTVSPropertyOp26
 70
     1
102
RTVSPropertyOp27
 70
     1
102
RTVSPropertyOp28
 70
     1
102
RTVSPropertyOp29
 70
     1
102
RTVSPropertyOp30
 70
     1
102
RTVSPropertyOp31
 70
     1
102
RTVSPropertyOp32
 70
     1
102
RTVSPropertyOp33
 70
     1
102
RTVSPropertyOp34
 70
     1
102
RTVSPropertyOp35
 70
     1
102
RTVSPropertyOp36
 70
     1
102
RTVSPropertyOp37
 70
     1
102
RTVSPropertyOp38
 70
     1
102
RTVSPropertyOp39
 70
     1
102
RTVSPropertyOp40
 70
     1
102
RTVSPropertyOp41
 70
     1
102
RTVSPropertyOp42
 70
     1
102
RTVSPropertyOp43
 70
     1
102
RTVSPropertyOp44
 70
     1
102
RTVSPropertyOp45
 70
     1
102
RTVSPropertyOp46
 70
     1
102
RTVSPropertyOp47
 70
     1
102
RTVSPropertyOp48
 70
     1
102
RTVSPropertyOp49
 70
     1
102
RTVSPropertyOp50
 70
     1
102
RTVSPropertyOp51
 70
     0
102
RTVSPropertyOp52
 70
     0
102
RTVSPropertyOp53
 70
     1
102
RTVSPropertyOp54
 70
     1
102
RTVSPropertyOp55
 70
     1
102
RTVSPropertyOp56
 70
     1
102
RTVSPropertyOp57
 70
     1
102
RTVSPropertyOp58
 70
     1
102
RTVSPropertyOp59
 70
     1
102
RTVSPropertyOp60
 70
     1
102
RTVSPropertyOp61
 70
     1
102
RTVSPropertyOp62
 70
     1
  0
XRECORD
  5
10A23
102
{ACAD_REACTORS
330
10A22
102
}
330
10A22
100
AcDbXrecord
280
     1
102
RTVSPost2010Prop28
280
     0
102
RTVSPost2010PropOp28
 70
     1
102
RTVSPost2010Prop29
280
     1
102
RTVSPost2010PropOp29
 70
     1
102
RTVSPost2010Prop30
280
     1
102
RTVSPost2010PropOp30
 70
     1
102
RTVSPost2010Prop31
280
     0
102
RTVSPost2010PropOp31
 70
     1
102
RTVSPost2010Prop32
280
     0
102
RTVSPost2010PropOp32
 70
     1
102
RTVSPost2010Prop33
280
     0
102
RTVSPost2010PropOp33
 70
     1
102
RTVSPost2010Prop34
280
     0
102
RTVSPost2010PropOp34
 70
     1
102
RTVSPost2010Prop35
280
     0
102
RTVSPost2010PropOp35
 70
     1
102
RTVSPost2010Prop36
280
     0
102
RTVSPost2010PropOp36
 70
     1
102
RTVSPost2010Prop37
 90
       50
102
RTVSPost2010PropOp37
 70
     0
102
RTVSPost2010Prop38
140
0.0
102
RTVSPost2010PropOp38
 70
     0
102
RTVSPost2010Prop39
140
1.0
102
RTVSPost2010PropOp39
 70
     0
102
RTVSPost2010Prop40
 90
        0
102
RTVSPost2010PropOp40
 70
     0
102
RTVSPost2010Prop41ColorIndex
 90
       18
102
RTVSPost2010Prop41ColorRGB
 90
        0
102
RTVSPost2010PropOp41
 70
     0
102
RTVSPost2010Prop42
 90
       50
102
RTVSPost2010PropOp42
 70
     0
102
RTVSPost2010Prop43
 90
        3
102
RTVSPost2010PropOp43
 70
     0
102
RTVSPost2010Prop44ColorIndex
 90
        5
102
RTVSPost2010Prop44ColorRGB
 90
      255
102
RTVSPost2010PropOp44
 70
     0
102
RTVSPost2010Prop45
280
     0
102
RTVSPost2010PropOp45
 70
     1
102
RTVSPost2010Prop46
 90
       50
102
RTVSPost2010PropOp46
 70
     0
102
RTVSPost2010Prop47
 90
       50
102
RTVSPost2010PropOp47
 70
     0
102
RTVSPost2010Prop48
 90
       50
102
RTVSPost2010PropOp48
 70
     0
102
RTVSPost2010Prop49
280
     0
102
RTVSPost2010PropOp49
 70
     1
102
RTVSPost2010Prop50
 90
       50
102
RTVSPost2010PropOp50
 70
     0
102
RTVSPost2010Prop51ColorIndex
 90
      256
102
RTVSPost2010Prop51ColorRGB
 90
-16777216
102
RTVSPost2010PropOp51
 70
     0
102
RTVSPost2010Prop52
140
1.0
102
RTVSPost2010PropOp52
 70
     0
102
RTVSPost2010Prop53
 90
        2
102
RTVSPost2010PropOp53
 70
     0
102
RTVSPost2010Prop54
  1
strokes_ogs.tif
102
RTVSPost2010PropOp54
 70
     0
102
RTVSPost2010Prop55
280
     0
102
RTVSPost2010PropOp55
 70
     1
102
RTVSPost2010Prop56
140
1.0
102
RTVSPost2010PropOp56
 70
     0
102
RTVSPost2010Prop57
140
1.0
102
RTVSPost2010PropOp57
 70
     0
102
RTVSPropertyOp0
 70
     0
102
RTVSPropertyOp1
 70
     0
102
RTVSPropertyOp2
 70
     0
102
RTVSPropertyOp3
 70
     0
102
RTVSPropertyOp4
 70
     0
102
RTVSPropertyOp5
 70
     0
102
RTVSPropertyOp6
 70
     0
102
RTVSPropertyOp7
 70
     0
102
RTVSPropertyOp8
 70
     0
102
RTVSPropertyOp9
 70
     0
102
RTVSPropertyOp10
 70
     0
102
RTVSPropertyOp11
 70
     0
102
RTVSPropertyOp12
 70
     0
102
RTVSPropertyOp13
 70
     0
102
RTVSPropertyOp14
 70
     2
102
RTVSPropertyOp15
 70
     0
102
RTVSPropertyOp16
 70
     0
102
RTVSPropertyOp17
 70
     0
102
RTVSPropertyOp18
 70
     0
102
RTVSPropertyOp19
 70
     0
102
RTVSPropertyOp20
 70
     0
102
RTVSPropertyOp21
 70
     0
102
RTVSPropertyOp22
 70
     0
102
RTVSPropertyOp23
 70
     0
102
RTVSPropertyOp24
 70
     0
102
RTVSPropertyOp25
 70
     0
102
RTVSPropertyOp26
 70
     0
102
RTVSPropertyOp27
 70
     0
102
RTVSPropertyOp28
 70
     1
102
RTVSPropertyOp29
 70
     1
102
RTVSPropertyOp30
 70
     1
102
RTVSPropertyOp31
 70
     1
102
RTVSPropertyOp32
 70
     1
102
RTVSPropertyOp33
 70
     1
102
RTVSPropertyOp34
 70
     1
102
RTVSPropertyOp35
 70
     1
102
RTVSPropertyOp36
 70
     1
102
RTVSPropertyOp37
 70
     0
102
RTVSPropertyOp38
 70
     0
102
RTVSPropertyOp39
 70
     0
102
RTVSPropertyOp40
 70
     0
102
RTVSPropertyOp41
 70
     0
102
RTVSPropertyOp42
 70
     0
102
RTVSPropertyOp43
 70
     0
102
RTVSPropertyOp44
 70
     0
102
RTVSPropertyOp45
 70
     1
102
RTVSPropertyOp46
 70
     0
102
RTVSPropertyOp47
 70
     0
102
RTVSPropertyOp48
 70
     0
102
RTVSPropertyOp49
 70
     1
102
RTVSPropertyOp50
 70
     0
102
RTVSPropertyOp51
 70
     0
102
RTVSPropertyOp52
 70
     0
102
RTVSPropertyOp53
 70
     0
102
RTVSPropertyOp54
 70
     0
102
RTVSPropertyOp55
 70
     1
102
RTVSPropertyOp56
 70
     0
102
RTVSPropertyOp57
 70
     0
102
RTVSPropertyOp58
 70
     0
102
RTVSPropertyOp59
 70
     0
102
RTVSPropertyOp60
 70
     0
102
RTVSPropertyOp61
 70
     0
102
RTVSPropertyOp62
 70
     0
  0
XRECORD
  5
10A13
102
{ACAD_REACTORS
330
10A12
102
}
330
10A12
100
AcDbXrecord
280
     1
102
RTVSPost2010Prop28
280
     0
102
RTVSPost2010PropOp28
 70
     1
102
RTVSPost2010Prop29
280
     1
102
RTVSPost2010PropOp29
 70
     1
102
RTVSPost2010Prop30
280
     1
102
RTVSPost2010PropOp30
 70
     1
102
RTVSPost2010Prop31
280
     0
102
RTVSPost2010PropOp31
 70
     1
102
RTVSPost2010Prop32
280
     0
102
RTVSPost2010PropOp32
 70
     1
102
RTVSPost2010Prop33
280
     0
102
RTVSPost2010PropOp33
 70
     1
102
RTVSPost2010Prop34
280
     0
102
RTVSPost2010PropOp34
 70
     1
102
RTVSPost2010Prop35
280
     0
102
RTVSPost2010PropOp35
 70
     1
102
RTVSPost2010Prop36
280
     0
102
RTVSPost2010PropOp36
 70
     1
102
RTVSPost2010Prop37
 90
       50
102
RTVSPost2010PropOp37
 70
     1
102
RTVSPost2010Prop38
140
0.0
102
RTVSPost2010PropOp38
 70
     1
102
RTVSPost2010Prop39
140
1.0
102
RTVSPost2010PropOp39
 70
     1
102
RTVSPost2010Prop40
 90
        0
102
RTVSPost2010PropOp40
 70
     1
102
RTVSPost2010Prop41ColorIndex
 90
       18
102
RTVSPost2010Prop41ColorRGB
 90
        0
102
RTVSPost2010PropOp41
 70
     1
102
RTVSPost2010Prop42
 90
       50
102
RTVSPost2010PropOp42
 70
     1
102
RTVSPost2010Prop43
 90
        3
102
RTVSPost2010PropOp43
 70
     1
102
RTVSPost2010Prop44ColorIndex
 90
        5
102
RTVSPost2010Prop44ColorRGB
 90
      255
102
RTVSPost2010PropOp44
 70
     1
102
RTVSPost2010Prop45
280
     0
102
RTVSPost2010PropOp45
 70
     1
102
RTVSPost2010Prop46
 90
       50
102
RTVSPost2010PropOp46
 70
     1
102
RTVSPost2010Prop47
 90
       50
102
RTVSPost2010PropOp47
 70
     1
102
RTVSPost2010Prop48
 90
       50
102
RTVSPost2010PropOp48
 70
     1
102
RTVSPost2010Prop49
280
     0
102
RTVSPost2010PropOp49
 70
     1
102
RTVSPost2010Prop50
 90
       50
102
RTVSPost2010PropOp50
 70
     1
102
RTVSPost2010Prop51ColorIndex
 90
      256
102
RTVSPost2010Prop51ColorRGB
 90
-16777216
102
RTVSPost2010PropOp51
 70
     0
102
RTVSPost2010Prop52
140
1.0
102
RTVSPost2010PropOp52
 70
     0
102
RTVSPost2010Prop53
 90
        2
102
RTVSPost2010PropOp53
 70
     1
102
RTVSPost2010Prop54
  1
strokes_ogs.tif
102
RTVSPost2010PropOp54
 70
     1
102
RTVSPost2010Prop55
280
     0
102
RTVSPost2010PropOp55
 70
     1
102
RTVSPost2010Prop56
140
1.0
102
RTVSPost2010PropOp56
 70
     1
102
RTVSPost2010Prop57
140
1.0
102
RTVSPost2010PropOp57
 70
     1
102
RTVSPropertyOp0
 70
     1
102
RTVSPropertyOp1
 70
     1
102
RTVSPropertyOp2
 70
     1
102
RTVSPropertyOp3
 70
     1
102
RTVSPropertyOp4
 70
     1
102
RTVSPropertyOp5
 70
     1
102
RTVSPropertyOp6
 70
     1
102
RTVSPropertyOp7
 70
     1
102
RTVSPropertyOp8
 70
     1
102
RTVSPropertyOp9
 70
     1
102
RTVSPropertyOp10
 70
     1
102
RTVSPropertyOp11
 70
     1
102
RTVSPropertyOp12
 70
     1
102
RTVSPropertyOp13
 70
     1
102
RTVSPropertyOp14
 70
     1
102
RTVSPropertyOp15
 70
     1
102
RTVSPropertyOp16
 70
     1
102
RTVSPropertyOp17
 70
     1
102
RTVSPropertyOp18
 70
     1
102
RTVSPropertyOp19
 70
     1
102
RTVSPropertyOp20
 70
     1
102
RTVSPropertyOp21
 70
     1
102
RTVSPropertyOp22
 70
     1
102
RTVSPropertyOp23
 70
     1
102
RTVSPropertyOp24
 70
     1
102
RTVSPropertyOp25
 70
     1
102
RTVSPropertyOp26
 70
     1
102
RTVSPropertyOp27
 70
     1
102
RTVSPropertyOp28
 70
     1
102
RTVSPropertyOp29
 70
     1
102
RTVSPropertyOp30
 70
     1
102
RTVSPropertyOp31
 70
     1
102
RTVSPropertyOp32
 70
     1
102
RTVSPropertyOp33
 70
     1
102
RTVSPropertyOp34
 70
     1
102
RTVSPropertyOp35
 70
     1
102
RTVSPropertyOp36
 70
     1
102
RTVSPropertyOp37
 70
     1
102
RTVSPropertyOp38
 70
     1
102
RTVSPropertyOp39
 70
     1
102
RTVSPropertyOp40
 70
     1
102
RTVSPropertyOp41
 70
     1
102
RTVSPropertyOp42
 70
     1
102
RTVSPropertyOp43
 70
     1
102
RTVSPropertyOp44
 70
     1
102
RTVSPropertyOp45
 70
     1
102
RTVSPropertyOp46
 70
     1
102
RTVSPropertyOp47
 70
     1
102
RTVSPropertyOp48
 70
     1
102
RTVSPropertyOp49
 70
     1
102
RTVSPropertyOp50
 70
     1
102
RTVSPropertyOp51
 70
     0
102
RTVSPropertyOp52
 70
     0
102
RTVSPropertyOp53
 70
     1
102
RTVSPropertyOp54
 70
     1
102
RTVSPropertyOp55
 70
     1
102
RTVSPropertyOp56
 70
     1
102
RTVSPropertyOp57
 70
     1
102
RTVSPropertyOp58
 70
     1
102
RTVSPropertyOp59
 70
     1
102
RTVSPropertyOp60
 70
     1
102
RTVSPropertyOp61
 70
     1
102
RTVSPropertyOp62
 70
     1
  0
XRECORD
  5
10A25
102
{ACAD_REACTORS
330
10A24
102
}
330
10A24
100
AcDbXrecord
280
     1
102
RTVSPost2010Prop28
280
     0
102
RTVSPost2010PropOp28
 70
     1
102
RTVSPost2010Prop29
280
     1
102
RTVSPost2010PropOp29
 70
     1
102
RTVSPost2010Prop30
280
     1
102
RTVSPost2010PropOp30
 70
     1
102
RTVSPost2010Prop31
280
     0
102
RTVSPost2010PropOp31
 70
     1
102
RTVSPost2010Prop32
280
     0
102
RTVSPost2010PropOp32
 70
     1
102
RTVSPost2010Prop33
280
     0
102
RTVSPost2010PropOp33
 70
     1
102
RTVSPost2010Prop34
280
     0
102
RTVSPost2010PropOp34
 70
     1
102
RTVSPost2010Prop35
280
     0
102
RTVSPost2010PropOp35
 70
     1
102
RTVSPost2010Prop36
280
     0
102
RTVSPost2010PropOp36
 70
     1
102
RTVSPost2010Prop37
 90
       50
102
RTVSPost2010PropOp37
 70
     0
102
RTVSPost2010Prop38
140
0.0
102
RTVSPost2010PropOp38
 70
     0
102
RTVSPost2010Prop39
140
1.0
102
RTVSPost2010PropOp39
 70
     0
102
RTVSPost2010Prop40
 90
        0
102
RTVSPost2010PropOp40
 70
     0
102
RTVSPost2010Prop41ColorIndex
 90
       18
102
RTVSPost2010Prop41ColorRGB
 90
        0
102
RTVSPost2010PropOp41
 70
     0
102
RTVSPost2010Prop42
 90
       50
102
RTVSPost2010PropOp42
 70
     0
102
RTVSPost2010Prop43
 90
        3
102
RTVSPost2010PropOp43
 70
     0
102
RTVSPost2010Prop44ColorIndex
 90
        5
102
RTVSPost2010Prop44ColorRGB
 90
      255
102
RTVSPost2010PropOp44
 70
     0
102
RTVSPost2010Prop45
280
     0
102
RTVSPost2010PropOp45
 70
     1
102
RTVSPost2010Prop46
 90
       50
102
RTVSPost2010PropOp46
 70
     0
102
RTVSPost2010Prop47
 90
       50
102
RTVSPost2010PropOp47
 70
     0
102
RTVSPost2010Prop48
 90
       50
102
RTVSPost2010PropOp48
 70
     0
102
RTVSPost2010Prop49
280
     0
102
RTVSPost2010PropOp49
 70
     1
102
RTVSPost2010Prop50
 90
       50
102
RTVSPost2010PropOp50
 70
     0
102
RTVSPost2010Prop51ColorIndex
 90
      256
102
RTVSPost2010Prop51ColorRGB
 90
-16777216
102
RTVSPost2010PropOp51
 70
     0
102
RTVSPost2010Prop52
140
1.0
102
RTVSPost2010PropOp52
 70
     0
102
RTVSPost2010Prop53
 90
        2
102
RTVSPost2010PropOp53
 70
     0
102
RTVSPost2010Prop54
  1
strokes_ogs.tif
102
RTVSPost2010PropOp54
 70
     0
102
RTVSPost2010Prop55
280
     0
102
RTVSPost2010PropOp55
 70
     1
102
RTVSPost2010Prop56
140
1.0
102
RTVSPost2010PropOp56
 70
     0
102
RTVSPost2010Prop57
140
1.0
102
RTVSPost2010PropOp57
 70
     0
102
RTVSPropertyOp0
 70
     0
102
RTVSPropertyOp1
 70
     0
102
RTVSPropertyOp2
 70
     0
102
RTVSPropertyOp3
 70
     0
102
RTVSPropertyOp4
 70
     0
102
RTVSPropertyOp5
 70
     0
102
RTVSPropertyOp6
 70
     0
102
RTVSPropertyOp7
 70
     0
102
RTVSPropertyOp8
 70
     0
102
RTVSPropertyOp9
 70
     0
102
RTVSPropertyOp10
 70
     0
102
RTVSPropertyOp11
 70
     0
102
RTVSPropertyOp12
 70
     0
102
RTVSPropertyOp13
 70
     0
102
RTVSPropertyOp14
 70
     2
102
RTVSPropertyOp15
 70
     0
102
RTVSPropertyOp16
 70
     0
102
RTVSPropertyOp17
 70
     0
102
RTVSPropertyOp18
 70
     0
102
RTVSPropertyOp19
 70
     0
102
RTVSPropertyOp20
 70
     0
102
RTVSPropertyOp21
 70
     0
102
RTVSPropertyOp22
 70
     0
102
RTVSPropertyOp23
 70
     0
102
RTVSPropertyOp24
 70
     0
102
RTVSPropertyOp25
 70
     0
102
RTVSPropertyOp26
 70
     0
102
RTVSPropertyOp27
 70
     0
102
RTVSPropertyOp28
 70
     1
102
RTVSPropertyOp29
 70
     1
102
RTVSPropertyOp30
 70
     1
102
RTVSPropertyOp31
 70
     1
102
RTVSPropertyOp32
 70
     1
102
RTVSPropertyOp33
 70
     1
102
RTVSPropertyOp34
 70
     1
102
RTVSPropertyOp35
 70
     1
102
RTVSPropertyOp36
 70
     1
102
RTVSPropertyOp37
 70
     0
102
RTVSPropertyOp38
 70
     0
102
RTVSPropertyOp39
 70
     0
102
RTVSPropertyOp40
 70
     0
102
RTVSPropertyOp41
 70
     0
102
RTVSPropertyOp42
 70
     0
102
RTVSPropertyOp43
 70
     0
102
RTVSPropertyOp44
 70
     0
102
RTVSPropertyOp45
 70
     1
102
RTVSPropertyOp46
 70
     0
102
RTVSPropertyOp47
 70
     0
102
RTVSPropertyOp48
 70
     0
102
RTVSPropertyOp49
 70
     1
102
RTVSPropertyOp50
 70
     0
102
RTVSPropertyOp51
 70
     0
102
RTVSPropertyOp52
 70
     0
102
RTVSPropertyOp53
 70
     0
102
RTVSPropertyOp54
 70
     0
102
RTVSPropertyOp55
 70
     1
102
RTVSPropertyOp56
 70
     0
102
RTVSPropertyOp57
 70
     0
102
RTVSPropertyOp58
 70
     0
102
RTVSPropertyOp59
 70
     0
102
RTVSPropertyOp60
 70
     0
102
RTVSPropertyOp61
 70
     0
102
RTVSPropertyOp62
 70
     0
  0
XRECORD
  5
10A0B
102
{ACAD_REACTORS
330
10A0A
102
}
330
10A0A
100
AcDbXrecord
280
     1
102
RTVSPost2010Prop28
280
     0
102
RTVSPost2010PropOp28
 70
     1
102
RTVSPost2010Prop29
280
     1
102
RTVSPost2010PropOp29
 70
     1
102
RTVSPost2010Prop30
280
     1
102
RTVSPost2010PropOp30
 70
     1
102
RTVSPost2010Prop31
280
     0
102
RTVSPost2010PropOp31
 70
     1
102
RTVSPost2010Prop32
280
     0
102
RTVSPost2010PropOp32
 70
     1
102
RTVSPost2010Prop33
280
     0
102
RTVSPost2010PropOp33
 70
     1
102
RTVSPost2010Prop34
280
     0
102
RTVSPost2010PropOp34
 70
     1
102
RTVSPost2010Prop35
280
     0
102
RTVSPost2010PropOp35
 70
     1
102
RTVSPost2010Prop36
280
     0
102
RTVSPost2010PropOp36
 70
     1
102
RTVSPost2010Prop37
 90
       50
102
RTVSPost2010PropOp37
 70
     1
102
RTVSPost2010Prop38
140
0.0
102
RTVSPost2010PropOp38
 70
     1
102
RTVSPost2010Prop39
140
1.0
102
RTVSPost2010PropOp39
 70
     1
102
RTVSPost2010Prop40
 90
        0
102
RTVSPost2010PropOp40
 70
     1
102
RTVSPost2010Prop41ColorIndex
 90
       18
102
RTVSPost2010Prop41ColorRGB
 90
        0
102
RTVSPost2010PropOp41
 70
     1
102
RTVSPost2010Prop42
 90
       50
102
RTVSPost2010PropOp42
 70
     1
102
RTVSPost2010Prop43
 90
        3
102
RTVSPost2010PropOp43
 70
     1
102
RTVSPost2010Prop44ColorIndex
 90
        5
102
RTVSPost2010Prop44ColorRGB
 90
      255
102
RTVSPost2010PropOp44
 70
     1
102
RTVSPost2010Prop45
280
     0
102
RTVSPost2010PropOp45
 70
     1
102
RTVSPost2010Prop46
 90
       50
102
RTVSPost2010PropOp46
 70
     1
102
RTVSPost2010Prop47
 90
       50
102
RTVSPost2010PropOp47
 70
     1
102
RTVSPost2010Prop48
 90
       50
102
RTVSPost2010PropOp48
 70
     1
102
RTVSPost2010Prop49
280
     0
102
RTVSPost2010PropOp49
 70
     1
102
RTVSPost2010Prop50
 90
       50
102
RTVSPost2010PropOp50
 70
     1
102
RTVSPost2010Prop51ColorIndex
 90
      256
102
RTVSPost2010Prop51ColorRGB
 90
-16777216
102
RTVSPost2010PropOp51
 70
     0
102
RTVSPost2010Prop52
140
1.0
102
RTVSPost2010PropOp52
 70
     0
102
RTVSPost2010Prop53
 90
        2
102
RTVSPost2010PropOp53
 70
     1
102
RTVSPost2010Prop54
  1
strokes_ogs.tif
102
RTVSPost2010PropOp54
 70
     1
102
RTVSPost2010Prop55
280
     0
102
RTVSPost2010PropOp55
 70
     1
102
RTVSPost2010Prop56
140
1.0
102
RTVSPost2010PropOp56
 70
     1
102
RTVSPost2010Prop57
140
1.0
102
RTVSPost2010PropOp57
 70
     1
102
RTVSPropertyOp0
 70
     1
102
RTVSPropertyOp1
 70
     1
102
RTVSPropertyOp2
 70
     1
102
RTVSPropertyOp3
 70
     1
102
RTVSPropertyOp4
 70
     1
102
RTVSPropertyOp5
 70
     1
102
RTVSPropertyOp6
 70
     1
102
RTVSPropertyOp7
 70
     1
102
RTVSPropertyOp8
 70
     1
102
RTVSPropertyOp9
 70
     1
102
RTVSPropertyOp10
 70
     1
102
RTVSPropertyOp11
 70
     1
102
RTVSPropertyOp12
 70
     1
102
RTVSPropertyOp13
 70
     1
102
RTVSPropertyOp14
 70
     1
102
RTVSPropertyOp15
 70
     1
102
RTVSPropertyOp16
 70
     1
102
RTVSPropertyOp17
 70
     1
102
RTVSPropertyOp18
 70
     1
102
RTVSPropertyOp19
 70
     1
102
RTVSPropertyOp20
 70
     1
102
RTVSPropertyOp21
 70
     1
102
RTVSPropertyOp22
 70
     1
102
RTVSPropertyOp23
 70
     1
102
RTVSPropertyOp24
 70
     1
102
RTVSPropertyOp25
 70
     1
102
RTVSPropertyOp26
 70
     1
102
RTVSPropertyOp27
 70
     1
102
RTVSPropertyOp28
 70
     1
102
RTVSPropertyOp29
 70
     1
102
RTVSPropertyOp30
 70
     1
102
RTVSPropertyOp31
 70
     1
102
RTVSPropertyOp32
 70
     1
102
RTVSPropertyOp33
 70
     1
102
RTVSPropertyOp34
 70
     1
102
RTVSPropertyOp35
 70
     1
102
RTVSPropertyOp36
 70
     1
102
RTVSPropertyOp37
 70
     1
102
RTVSPropertyOp38
 70
     1
102
RTVSPropertyOp39
 70
     1
102
RTVSPropertyOp40
 70
     1
102
RTVSPropertyOp41
 70
     1
102
RTVSPropertyOp42
 70
     1
102
RTVSPropertyOp43
 70
     1
102
RTVSPropertyOp44
 70
     1
102
RTVSPropertyOp45
 70
     1
102
RTVSPropertyOp46
 70
     1
102
RTVSPropertyOp47
 70
     1
102
RTVSPropertyOp48
 70
     1
102
RTVSPropertyOp49
 70
     1
102
RTVSPropertyOp50
 70
     1
102
RTVSPropertyOp51
 70
     0
102
RTVSPropertyOp52
 70
     0
102
RTVSPropertyOp53
 70
     1
102
RTVSPropertyOp54
 70
     1
102
RTVSPropertyOp55
 70
     1
102
RTVSPropertyOp56
 70
     1
102
RTVSPropertyOp57
 70
     1
102
RTVSPropertyOp58
 70
     1
102
RTVSPropertyOp59
 70
     1
102
RTVSPropertyOp60
 70
     1
102
RTVSPropertyOp61
 70
     1
102
RTVSPropertyOp62
 70
     1
  0
XRECORD
  5
10A21
102
{ACAD_REACTORS
330
10A20
102
}
330
10A20
100
AcDbXrecord
280
     1
102
RTVSPost2010Prop28
280
     0
102
RTVSPost2010PropOp28
 70
     1
102
RTVSPost2010Prop29
280
     1
102
RTVSPost2010PropOp29
 70
     1
102
RTVSPost2010Prop30
280
     1
102
RTVSPost2010PropOp30
 70
     1
102
RTVSPost2010Prop31
280
     0
102
RTVSPost2010PropOp31
 70
     1
102
RTVSPost2010Prop32
280
     0
102
RTVSPost2010PropOp32
 70
     1
102
RTVSPost2010Prop33
280
     0
102
RTVSPost2010PropOp33
 70
     1
102
RTVSPost2010Prop34
280
     0
102
RTVSPost2010PropOp34
 70
     1
102
RTVSPost2010Prop35
280
     0
102
RTVSPost2010PropOp35
 70
     1
102
RTVSPost2010Prop36
280
     0
102
RTVSPost2010PropOp36
 70
     1
102
RTVSPost2010Prop37
 90
       50
102
RTVSPost2010PropOp37
 70
     1
102
RTVSPost2010Prop38
140
0.0
102
RTVSPost2010PropOp38
 70
     1
102
RTVSPost2010Prop39
140
1.0
102
RTVSPost2010PropOp39
 70
     1
102
RTVSPost2010Prop40
 90
        0
102
RTVSPost2010PropOp40
 70
     1
102
RTVSPost2010Prop41ColorIndex
 90
       18
102
RTVSPost2010Prop41ColorRGB
 90
        0
102
RTVSPost2010PropOp41
 70
     1
102
RTVSPost2010Prop42
 90
       50
102
RTVSPost2010PropOp42
 70
     1
102
RTVSPost2010Prop43
 90
        3
102
RTVSPost2010PropOp43
 70
     1
102
RTVSPost2010Prop44ColorIndex
 90
        5
102
RTVSPost2010Prop44ColorRGB
 90
      255
102
RTVSPost2010PropOp44
 70
     1
102
RTVSPost2010Prop45
280
     0
102
RTVSPost2010PropOp45
 70
     1
102
RTVSPost2010Prop46
 90
       50
102
RTVSPost2010PropOp46
 70
     1
102
RTVSPost2010Prop47
 90
       50
102
RTVSPost2010PropOp47
 70
     1
102
RTVSPost2010Prop48
 90
       50
102
RTVSPost2010PropOp48
 70
     1
102
RTVSPost2010Prop49
280
     0
102
RTVSPost2010PropOp49
 70
     1
102
RTVSPost2010Prop50
 90
       50
102
RTVSPost2010PropOp50
 70
     1
102
RTVSPost2010Prop51ColorIndex
 90
      256
102
RTVSPost2010Prop51ColorRGB
 90
-16777216
102
RTVSPost2010PropOp51
 70
     0
102
RTVSPost2010Prop52
140
1.0
102
RTVSPost2010PropOp52
 70
     0
102
RTVSPost2010Prop53
 90
        2
102
RTVSPost2010PropOp53
 70
     1
102
RTVSPost2010Prop54
  1
strokes_ogs.tif
102
RTVSPost2010PropOp54
 70
     1
102
RTVSPost2010Prop55
280
     0
102
RTVSPost2010PropOp55
 70
     1
102
RTVSPost2010Prop56
140
1.0
102
RTVSPost2010PropOp56
 70
     1
102
RTVSPost2010Prop57
140
1.0
102
RTVSPost2010PropOp57
 70
     1
102
RTVSPropertyOp0
 70
     1
102
RTVSPropertyOp1
 70
     1
102
RTVSPropertyOp2
 70
     1
102
RTVSPropertyOp3
 70
     1
102
RTVSPropertyOp4
 70
     1
102
RTVSPropertyOp5
 70
     1
102
RTVSPropertyOp6
 70
     1
102
RTVSPropertyOp7
 70
     1
102
RTVSPropertyOp8
 70
     1
102
RTVSPropertyOp9
 70
     1
102
RTVSPropertyOp10
 70
     1
102
RTVSPropertyOp11
 70
     1
102
RTVSPropertyOp12
 70
     1
102
RTVSPropertyOp13
 70
     1
102
RTVSPropertyOp14
 70
     1
102
RTVSPropertyOp15
 70
     1
102
RTVSPropertyOp16
 70
     1
102
RTVSPropertyOp17
 70
     1
102
RTVSPropertyOp18
 70
     1
102
RTVSPropertyOp19
 70
     1
102
RTVSPropertyOp20
 70
     1
102
RTVSPropertyOp21
 70
     1
102
RTVSPropertyOp22
 70
     1
102
RTVSPropertyOp23
 70
     1
102
RTVSPropertyOp24
 70
     1
102
RTVSPropertyOp25
 70
     1
102
RTVSPropertyOp26
 70
     1
102
RTVSPropertyOp27
 70
     1
102
RTVSPropertyOp28
 70
     1
102
RTVSPropertyOp29
 70
     1
102
RTVSPropertyOp30
 70
     1
102
RTVSPropertyOp31
 70
     1
102
RTVSPropertyOp32
 70
     1
102
RTVSPropertyOp33
 70
     1
102
RTVSPropertyOp34
 70
     1
102
RTVSPropertyOp35
 70
     1
102
RTVSPropertyOp36
 70
     1
102
RTVSPropertyOp37
 70
     1
102
RTVSPropertyOp38
 70
     1
102
RTVSPropertyOp39
 70
     1
102
RTVSPropertyOp40
 70
     1
102
RTVSPropertyOp41
 70
     1
102
RTVSPropertyOp42
 70
     1
102
RTVSPropertyOp43
 70
     1
102
RTVSPropertyOp44
 70
     1
102
RTVSPropertyOp45
 70
     1
102
RTVSPropertyOp46
 70
     1
102
RTVSPropertyOp47
 70
     1
102
RTVSPropertyOp48
 70
     1
102
RTVSPropertyOp49
 70
     1
102
RTVSPropertyOp50
 70
     1
102
RTVSPropertyOp51
 70
     0
102
RTVSPropertyOp52
 70
     0
102
RTVSPropertyOp53
 70
     1
102
RTVSPropertyOp54
 70
     1
102
RTVSPropertyOp55
 70
     1
102
RTVSPropertyOp56
 70
     1
102
RTVSPropertyOp57
 70
     1
102
RTVSPropertyOp58
 70
     1
102
RTVSPropertyOp59
 70
     1
102
RTVSPropertyOp60
 70
     1
102
RTVSPropertyOp61
 70
     1
102
RTVSPropertyOp62
 70
     1
  0
XRECORD
  5
10A1F
102
{ACAD_REACTORS
330
10A1E
102
}
330
10A1E
100
AcDbXrecord
280
     1
102
RTVSPost2010Prop28
280
     0
102
RTVSPost2010PropOp28
 70
     1
102
RTVSPost2010Prop29
280
     1
102
RTVSPost2010PropOp29
 70
     1
102
RTVSPost2010Prop30
280
     1
102
RTVSPost2010PropOp30
 70
     1
102
RTVSPost2010Prop31
280
     0
102
RTVSPost2010PropOp31
 70
     1
102
RTVSPost2010Prop32
280
     0
102
RTVSPost2010PropOp32
 70
     1
102
RTVSPost2010Prop33
280
     0
102
RTVSPost2010PropOp33
 70
     1
102
RTVSPost2010Prop34
280
     0
102
RTVSPost2010PropOp34
 70
     1
102
RTVSPost2010Prop35
280
     0
102
RTVSPost2010PropOp35
 70
     1
102
RTVSPost2010Prop36
280
     0
102
RTVSPost2010PropOp36
 70
     1
102
RTVSPost2010Prop37
 90
       50
102
RTVSPost2010PropOp37
 70
     1
102
RTVSPost2010Prop38
140
0.0
102
RTVSPost2010PropOp38
 70
     1
102
RTVSPost2010Prop39
140
1.0
102
RTVSPost2010PropOp39
 70
     1
102
RTVSPost2010Prop40
 90
        0
102
RTVSPost2010PropOp40
 70
     1
102
RTVSPost2010Prop41ColorIndex
 90
       18
102
RTVSPost2010Prop41ColorRGB
 90
        0
102
RTVSPost2010PropOp41
 70
     1
102
RTVSPost2010Prop42
 90
       50
102
RTVSPost2010PropOp42
 70
     1
102
RTVSPost2010Prop43
 90
        3
102
RTVSPost2010PropOp43
 70
     1
102
RTVSPost2010Prop44ColorIndex
 90
        5
102
RTVSPost2010Prop44ColorRGB
 90
      255
102
RTVSPost2010PropOp44
 70
     1
102
RTVSPost2010Prop45
280
     0
102
RTVSPost2010PropOp45
 70
     1
102
RTVSPost2010Prop46
 90
       50
102
RTVSPost2010PropOp46
 70
     1
102
RTVSPost2010Prop47
 90
       50
102
RTVSPost2010PropOp47
 70
     1
102
RTVSPost2010Prop48
 90
       50
102
RTVSPost2010PropOp48
 70
     1
102
RTVSPost2010Prop49
280
     0
102
RTVSPost2010PropOp49
 70
     1
102
RTVSPost2010Prop50
 90
       50
102
RTVSPost2010PropOp50
 70
     1
102
RTVSPost2010Prop51ColorIndex
 90
      256
102
RTVSPost2010Prop51ColorRGB
 90
-16777216
102
RTVSPost2010PropOp51
 70
     0
102
RTVSPost2010Prop52
140
1.0
102
RTVSPost2010PropOp52
 70
     0
102
RTVSPost2010Prop53
 90
        2
102
RTVSPost2010PropOp53
 70
     1
102
RTVSPost2010Prop54
  1
strokes_ogs.tif
102
RTVSPost2010PropOp54
 70
     1
102
RTVSPost2010Prop55
280
     0
102
RTVSPost2010PropOp55
 70
     1
102
RTVSPost2010Prop56
140
1.0
102
RTVSPost2010PropOp56
 70
     1
102
RTVSPost2010Prop57
140
1.0
102
RTVSPost2010PropOp57
 70
     1
102
RTVSPropertyOp0
 70
     1
102
RTVSPropertyOp1
 70
     1
102
RTVSPropertyOp2
 70
     1
102
RTVSPropertyOp3
 70
     1
102
RTVSPropertyOp4
 70
     1
102
RTVSPropertyOp5
 70
     1
102
RTVSPropertyOp6
 70
     1
102
RTVSPropertyOp7
 70
     1
102
RTVSPropertyOp8
 70
     1
102
RTVSPropertyOp9
 70
     1
102
RTVSPropertyOp10
 70
     1
102
RTVSPropertyOp11
 70
     1
102
RTVSPropertyOp12
 70
     1
102
RTVSPropertyOp13
 70
     1
102
RTVSPropertyOp14
 70
     1
102
RTVSPropertyOp15
 70
     1
102
RTVSPropertyOp16
 70
     1
102
RTVSPropertyOp17
 70
     1
102
RTVSPropertyOp18
 70
     1
102
RTVSPropertyOp19
 70
     1
102
RTVSPropertyOp20
 70
     1
102
RTVSPropertyOp21
 70
     1
102
RTVSPropertyOp22
 70
     1
102
RTVSPropertyOp23
 70
     1
102
RTVSPropertyOp24
 70
     1
102
RTVSPropertyOp25
 70
     1
102
RTVSPropertyOp26
 70
     1
102
RTVSPropertyOp27
 70
     1
102
RTVSPropertyOp28
 70
     1
102
RTVSPropertyOp29
 70
     1
102
RTVSPropertyOp30
 70
     1
102
RTVSPropertyOp31
 70
     1
102
RTVSPropertyOp32
 70
     1
102
RTVSPropertyOp33
 70
     1
102
RTVSPropertyOp34
 70
     1
102
RTVSPropertyOp35
 70
     1
102
RTVSPropertyOp36
 70
     1
102
RTVSPropertyOp37
 70
     1
102
RTVSPropertyOp38
 70
     1
102
RTVSPropertyOp39
 70
     1
102
RTVSPropertyOp40
 70
     1
102
RTVSPropertyOp41
 70
     1
102
RTVSPropertyOp42
 70
     1
102
RTVSPropertyOp43
 70
     1
102
RTVSPropertyOp44
 70
     1
102
RTVSPropertyOp45
 70
     1
102
RTVSPropertyOp46
 70
     1
102
RTVSPropertyOp47
 70
     1
102
RTVSPropertyOp48
 70
     1
102
RTVSPropertyOp49
 70
     1
102
RTVSPropertyOp50
 70
     1
102
RTVSPropertyOp51
 70
     0
102
RTVSPropertyOp52
 70
     0
102
RTVSPropertyOp53
 70
     1
102
RTVSPropertyOp54
 70
     1
102
RTVSPropertyOp55
 70
     1
102
RTVSPropertyOp56
 70
     1
102
RTVSPropertyOp57
 70
     1
102
RTVSPropertyOp58
 70
     1
102
RTVSPropertyOp59
 70
     1
102
RTVSPropertyOp60
 70
     1
102
RTVSPropertyOp61
 70
     1
102
RTVSPropertyOp62
 70
     1
  0
XRECORD
  5
10A19
102
{ACAD_REACTORS
330
10A18
102
}
330
10A18
100
AcDbXrecord
280
     1
102
RTVSPost2010Prop28
280
     0
102
RTVSPost2010PropOp28
 70
     1
102
RTVSPost2010Prop29
280
     1
102
RTVSPost2010PropOp29
 70
     1
102
RTVSPost2010Prop30
280
     1
102
RTVSPost2010PropOp30
 70
     1
102
RTVSPost2010Prop31
280
     0
102
RTVSPost2010PropOp31
 70
     1
102
RTVSPost2010Prop32
280
     0
102
RTVSPost2010PropOp32
 70
     1
102
RTVSPost2010Prop33
280
     0
102
RTVSPost2010PropOp33
 70
     1
102
RTVSPost2010Prop34
280
     0
102
RTVSPost2010PropOp34
 70
     1
102
RTVSPost2010Prop35
280
     0
102
RTVSPost2010PropOp35
 70
     1
102
RTVSPost2010Prop36
280
     0
102
RTVSPost2010PropOp36
 70
     1
102
RTVSPost2010Prop37
 90
       50
102
RTVSPost2010PropOp37
 70
     1
102
RTVSPost2010Prop38
140
0.0
102
RTVSPost2010PropOp38
 70
     1
102
RTVSPost2010Prop39
140
1.0
102
RTVSPost2010PropOp39
 70
     1
102
RTVSPost2010Prop40
 90
        0
102
RTVSPost2010PropOp40
 70
     1
102
RTVSPost2010Prop41ColorIndex
 90
       18
102
RTVSPost2010Prop41ColorRGB
 90
        0
102
RTVSPost2010PropOp41
 70
     1
102
RTVSPost2010Prop42
 90
       50
102
RTVSPost2010PropOp42
 70
     1
102
RTVSPost2010Prop43
 90
        3
102
RTVSPost2010PropOp43
 70
     1
102
RTVSPost2010Prop44ColorIndex
 90
        5
102
RTVSPost2010Prop44ColorRGB
 90
      255
102
RTVSPost2010PropOp44
 70
     1
102
RTVSPost2010Prop45
280
     0
102
RTVSPost2010PropOp45
 70
     1
102
RTVSPost2010Prop46
 90
       50
102
RTVSPost2010PropOp46
 70
     1
102
RTVSPost2010Prop47
 90
       50
102
RTVSPost2010PropOp47
 70
     1
102
RTVSPost2010Prop48
 90
       50
102
RTVSPost2010PropOp48
 70
     1
102
RTVSPost2010Prop49
280
     0
102
RTVSPost2010PropOp49
 70
     1
102
RTVSPost2010Prop50
 90
       50
102
RTVSPost2010PropOp50
 70
     1
102
RTVSPost2010Prop51ColorIndex
 90
      256
102
RTVSPost2010Prop51ColorRGB
 90
-16777216
102
RTVSPost2010PropOp51
 70
     0
102
RTVSPost2010Prop52
140
1.0
102
RTVSPost2010PropOp52
 70
     0
102
RTVSPost2010Prop53
 90
        2
102
RTVSPost2010PropOp53
 70
     1
102
RTVSPost2010Prop54
  1
strokes_ogs.tif
102
RTVSPost2010PropOp54
 70
     1
102
RTVSPost2010Prop55
280
     0
102
RTVSPost2010PropOp55
 70
     1
102
RTVSPost2010Prop56
140
1.0
102
RTVSPost2010PropOp56
 70
     1
102
RTVSPost2010Prop57
140
1.0
102
RTVSPost2010PropOp57
 70
     1
102
RTVSPropertyOp0
 70
     1
102
RTVSPropertyOp1
 70
     1
102
RTVSPropertyOp2
 70
     1
102
RTVSPropertyOp3
 70
     1
102
RTVSPropertyOp4
 70
     1
102
RTVSPropertyOp5
 70
     1
102
RTVSPropertyOp6
 70
     1
102
RTVSPropertyOp7
 70
     1
102
RTVSPropertyOp8
 70
     1
102
RTVSPropertyOp9
 70
     1
102
RTVSPropertyOp10
 70
     1
102
RTVSPropertyOp11
 70
     1
102
RTVSPropertyOp12
 70
     1
102
RTVSPropertyOp13
 70
     1
102
RTVSPropertyOp14
 70
     1
102
RTVSPropertyOp15
 70
     1
102
RTVSPropertyOp16
 70
     1
102
RTVSPropertyOp17
 70
     1
102
RTVSPropertyOp18
 70
     1
102
RTVSPropertyOp19
 70
     1
102
RTVSPropertyOp20
 70
     1
102
RTVSPropertyOp21
 70
     1
102
RTVSPropertyOp22
 70
     1
102
RTVSPropertyOp23
 70
     1
102
RTVSPropertyOp24
 70
     1
102
RTVSPropertyOp25
 70
     1
102
RTVSPropertyOp26
 70
     1
102
RTVSPropertyOp27
 70
     1
102
RTVSPropertyOp28
 70
     1
102
RTVSPropertyOp29
 70
     1
102
RTVSPropertyOp30
 70
     1
102
RTVSPropertyOp31
 70
     1
102
RTVSPropertyOp32
 70
     1
102
RTVSPropertyOp33
 70
     1
102
RTVSPropertyOp34
 70
     1
102
RTVSPropertyOp35
 70
     1
102
RTVSPropertyOp36
 70
     1
102
RTVSPropertyOp37
 70
     1
102
RTVSPropertyOp38
 70
     1
102
RTVSPropertyOp39
 70
     1
102
RTVSPropertyOp40
 70
     1
102
RTVSPropertyOp41
 70
     1
102
RTVSPropertyOp42
 70
     1
102
RTVSPropertyOp43
 70
     1
102
RTVSPropertyOp44
 70
     1
102
RTVSPropertyOp45
 70
     1
102
RTVSPropertyOp46
 70
     1
102
RTVSPropertyOp47
 70
     1
102
RTVSPropertyOp48
 70
     1
102
RTVSPropertyOp49
 70
     1
102
RTVSPropertyOp50
 70
     1
102
RTVSPropertyOp51
 70
     0
102
RTVSPropertyOp52
 70
     0
102
RTVSPropertyOp53
 70
     1
102
RTVSPropertyOp54
 70
     1
102
RTVSPropertyOp55
 70
     1
102
RTVSPropertyOp56
 70
     1
102
RTVSPropertyOp57
 70
     1
102
RTVSPropertyOp58
 70
     1
102
RTVSPropertyOp59
 70
     1
102
RTVSPropertyOp60
 70
     1
102
RTVSPropertyOp61
 70
     1
102
RTVSPropertyOp62
 70
     1
  0
XRECORD
  5
10A1B
102
{ACAD_REACTORS
330
10A1A
102
}
330
10A1A
100
AcDbXrecord
280
     1
102
RTVSPost2010Prop28
280
     0
102
RTVSPost2010PropOp28
 70
     1
102
RTVSPost2010Prop29
280
     1
102
RTVSPost2010PropOp29
 70
     1
102
RTVSPost2010Prop30
280
     1
102
RTVSPost2010PropOp30
 70
     1
102
RTVSPost2010Prop31
280
     0
102
RTVSPost2010PropOp31
 70
     1
102
RTVSPost2010Prop32
280
     0
102
RTVSPost2010PropOp32
 70
     1
102
RTVSPost2010Prop33
280
     0
102
RTVSPost2010PropOp33
 70
     1
102
RTVSPost2010Prop34
280
     0
102
RTVSPost2010PropOp34
 70
     1
102
RTVSPost2010Prop35
280
     0
102
RTVSPost2010PropOp35
 70
     1
102
RTVSPost2010Prop36
280
     0
102
RTVSPost2010PropOp36
 70
     1
102
RTVSPost2010Prop37
 90
       50
102
RTVSPost2010PropOp37
 70
     1
102
RTVSPost2010Prop38
140
0.0
102
RTVSPost2010PropOp38
 70
     1
102
RTVSPost2010Prop39
140
1.0
102
RTVSPost2010PropOp39
 70
     1
102
RTVSPost2010Prop40
 90
        0
102
RTVSPost2010PropOp40
 70
     1
102
RTVSPost2010Prop41ColorIndex
 90
       18
102
RTVSPost2010Prop41ColorRGB
 90
        0
102
RTVSPost2010PropOp41
 70
     1
102
RTVSPost2010Prop42
 90
       50
102
RTVSPost2010PropOp42
 70
     1
102
RTVSPost2010Prop43
 90
        3
102
RTVSPost2010PropOp43
 70
     1
102
RTVSPost2010Prop44ColorIndex
 90
        5
102
RTVSPost2010Prop44ColorRGB
 90
      255
102
RTVSPost2010PropOp44
 70
     1
102
RTVSPost2010Prop45
280
     0
102
RTVSPost2010PropOp45
 70
     1
102
RTVSPost2010Prop46
 90
       50
102
RTVSPost2010PropOp46
 70
     1
102
RTVSPost2010Prop47
 90
       50
102
RTVSPost2010PropOp47
 70
     1
102
RTVSPost2010Prop48
 90
       50
102
RTVSPost2010PropOp48
 70
     1
102
RTVSPost2010Prop49
280
     0
102
RTVSPost2010PropOp49
 70
     1
102
RTVSPost2010Prop50
 90
       50
102
RTVSPost2010PropOp50
 70
     1
102
RTVSPost2010Prop51ColorIndex
 90
      256
102
RTVSPost2010Prop51ColorRGB
 90
-16777216
102
RTVSPost2010PropOp51
 70
     0
102
RTVSPost2010Prop52
140
1.0
102
RTVSPost2010PropOp52
 70
     0
102
RTVSPost2010Prop53
 90
        2
102
RTVSPost2010PropOp53
 70
     1
102
RTVSPost2010Prop54
  1
strokes_ogs.tif
102
RTVSPost2010PropOp54
 70
     1
102
RTVSPost2010Prop55
280
     0
102
RTVSPost2010PropOp55
 70
     1
102
RTVSPost2010Prop56
140
1.0
102
RTVSPost2010PropOp56
 70
     1
102
RTVSPost2010Prop57
140
1.0
102
RTVSPost2010PropOp57
 70
     1
102
RTVSPropertyOp0
 70
     1
102
RTVSPropertyOp1
 70
     1
102
RTVSPropertyOp2
 70
     1
102
RTVSPropertyOp3
 70
     1
102
RTVSPropertyOp4
 70
     1
102
RTVSPropertyOp5
 70
     1
102
RTVSPropertyOp6
 70
     1
102
RTVSPropertyOp7
 70
     1
102
RTVSPropertyOp8
 70
     1
102
RTVSPropertyOp9
 70
     1
102
RTVSPropertyOp10
 70
     1
102
RTVSPropertyOp11
 70
     1
102
RTVSPropertyOp12
 70
     1
102
RTVSPropertyOp13
 70
     1
102
RTVSPropertyOp14
 70
     1
102
RTVSPropertyOp15
 70
     1
102
RTVSPropertyOp16
 70
     1
102
RTVSPropertyOp17
 70
     1
102
RTVSPropertyOp18
 70
     1
102
RTVSPropertyOp19
 70
     1
102
RTVSPropertyOp20
 70
     1
102
RTVSPropertyOp21
 70
     1
102
RTVSPropertyOp22
 70
     1
102
RTVSPropertyOp23
 70
     1
102
RTVSPropertyOp24
 70
     1
102
RTVSPropertyOp25
 70
     1
102
RTVSPropertyOp26
 70
     1
102
RTVSPropertyOp27
 70
     1
102
RTVSPropertyOp28
 70
     1
102
RTVSPropertyOp29
 70
     1
102
RTVSPropertyOp30
 70
     1
102
RTVSPropertyOp31
 70
     1
102
RTVSPropertyOp32
 70
     1
102
RTVSPropertyOp33
 70
     1
102
RTVSPropertyOp34
 70
     1
102
RTVSPropertyOp35
 70
     1
102
RTVSPropertyOp36
 70
     1
102
RTVSPropertyOp37
 70
     1
102
RTVSPropertyOp38
 70
     1
102
RTVSPropertyOp39
 70
     1
102
RTVSPropertyOp40
 70
     1
102
RTVSPropertyOp41
 70
     1
102
RTVSPropertyOp42
 70
     1
102
RTVSPropertyOp43
 70
     1
102
RTVSPropertyOp44
 70
     1
102
RTVSPropertyOp45
 70
     1
102
RTVSPropertyOp46
 70
     1
102
RTVSPropertyOp47
 70
     1
102
RTVSPropertyOp48
 70
     1
102
RTVSPropertyOp49
 70
     1
102
RTVSPropertyOp50
 70
     1
102
RTVSPropertyOp51
 70
     0
102
RTVSPropertyOp52
 70
     0
102
RTVSPropertyOp53
 70
     1
102
RTVSPropertyOp54
 70
     1
102
RTVSPropertyOp55
 70
     1
102
RTVSPropertyOp56
 70
     1
102
RTVSPropertyOp57
 70
     1
102
RTVSPropertyOp58
 70
     1
102
RTVSPropertyOp59
 70
     1
102
RTVSPropertyOp60
 70
     1
102
RTVSPropertyOp61
 70
     1
102
RTVSPropertyOp62
 70
     1
  0
XRECORD
  5
10A11
102
{ACAD_REACTORS
330
10A10
102
}
330
10A10
100
AcDbXrecord
280
     1
102
RTVSPost2010Prop28
280
     0
102
RTVSPost2010PropOp28
 70
     1
102
RTVSPost2010Prop29
280
     1
102
RTVSPost2010PropOp29
 70
     1
102
RTVSPost2010Prop30
280
     1
102
RTVSPost2010PropOp30
 70
     1
102
RTVSPost2010Prop31
280
     0
102
RTVSPost2010PropOp31
 70
     1
102
RTVSPost2010Prop32
280
     0
102
RTVSPost2010PropOp32
 70
     1
102
RTVSPost2010Prop33
280
     0
102
RTVSPost2010PropOp33
 70
     1
102
RTVSPost2010Prop34
280
     0
102
RTVSPost2010PropOp34
 70
     1
102
RTVSPost2010Prop35
280
     0
102
RTVSPost2010PropOp35
 70
     1
102
RTVSPost2010Prop36
280
     0
102
RTVSPost2010PropOp36
 70
     1
102
RTVSPost2010Prop37
 90
       50
102
RTVSPost2010PropOp37
 70
     1
102
RTVSPost2010Prop38
140
0.0
102
RTVSPost2010PropOp38
 70
     1
102
RTVSPost2010Prop39
140
1.0
102
RTVSPost2010PropOp39
 70
     1
102
RTVSPost2010Prop40
 90
        0
102
RTVSPost2010PropOp40
 70
     1
102
RTVSPost2010Prop41ColorIndex
 90
       18
102
RTVSPost2010Prop41ColorRGB
 90
        0
102
RTVSPost2010PropOp41
 70
     1
102
RTVSPost2010Prop42
 90
       50
102
RTVSPost2010PropOp42
 70
     1
102
RTVSPost2010Prop43
 90
        3
102
RTVSPost2010PropOp43
 70
     1
102
RTVSPost2010Prop44ColorIndex
 90
        5
102
RTVSPost2010Prop44ColorRGB
 90
      255
102
RTVSPost2010PropOp44
 70
     1
102
RTVSPost2010Prop45
280
     0
102
RTVSPost2010PropOp45
 70
     1
102
RTVSPost2010Prop46
 90
       50
102
RTVSPost2010PropOp46
 70
     1
102
RTVSPost2010Prop47
 90
       50
102
RTVSPost2010PropOp47
 70
     1
102
RTVSPost2010Prop48
 90
       50
102
RTVSPost2010PropOp48
 70
     1
102
RTVSPost2010Prop49
280
     0
102
RTVSPost2010PropOp49
 70
     1
102
RTVSPost2010Prop50
 90
       50
102
RTVSPost2010PropOp50
 70
     1
102
RTVSPost2010Prop51ColorIndex
 90
      256
102
RTVSPost2010Prop51ColorRGB
 90
-16777216
102
RTVSPost2010PropOp51
 70
     0
102
RTVSPost2010Prop52
140
1.0
102
RTVSPost2010PropOp52
 70
     0
102
RTVSPost2010Prop53
 90
        2
102
RTVSPost2010PropOp53
 70
     1
102
RTVSPost2010Prop54
  1
strokes_ogs.tif
102
RTVSPost2010PropOp54
 70
     1
102
RTVSPost2010Prop55
280
     0
102
RTVSPost2010PropOp55
 70
     1
102
RTVSPost2010Prop56
140
1.0
102
RTVSPost2010PropOp56
 70
     1
102
RTVSPost2010Prop57
140
1.0
102
RTVSPost2010PropOp57
 70
     1
102
RTVSPropertyOp0
 70
     1
102
RTVSPropertyOp1
 70
     1
102
RTVSPropertyOp2
 70
     1
102
RTVSPropertyOp3
 70
     1
102
RTVSPropertyOp4
 70
     1
102
RTVSPropertyOp5
 70
     1
102
RTVSPropertyOp6
 70
     1
102
RTVSPropertyOp7
 70
     1
102
RTVSPropertyOp8
 70
     1
102
RTVSPropertyOp9
 70
     1
102
RTVSPropertyOp10
 70
     1
102
RTVSPropertyOp11
 70
     1
102
RTVSPropertyOp12
 70
     1
102
RTVSPropertyOp13
 70
     1
102
RTVSPropertyOp14
 70
     1
102
RTVSPropertyOp15
 70
     1
102
RTVSPropertyOp16
 70
     1
102
RTVSPropertyOp17
 70
     1
102
RTVSPropertyOp18
 70
     1
102
RTVSPropertyOp19
 70
     1
102
RTVSPropertyOp20
 70
     1
102
RTVSPropertyOp21
 70
     1
102
RTVSPropertyOp22
 70
     1
102
RTVSPropertyOp23
 70
     1
102
RTVSPropertyOp24
 70
     1
102
RTVSPropertyOp25
 70
     1
102
RTVSPropertyOp26
 70
     1
102
RTVSPropertyOp27
 70
     1
102
RTVSPropertyOp28
 70
     1
102
RTVSPropertyOp29
 70
     1
102
RTVSPropertyOp30
 70
     1
102
RTVSPropertyOp31
 70
     1
102
RTVSPropertyOp32
 70
     1
102
RTVSPropertyOp33
 70
     1
102
RTVSPropertyOp34
 70
     1
102
RTVSPropertyOp35
 70
     1
102
RTVSPropertyOp36
 70
     1
102
RTVSPropertyOp37
 70
     1
102
RTVSPropertyOp38
 70
     1
102
RTVSPropertyOp39
 70
     1
102
RTVSPropertyOp40
 70
     1
102
RTVSPropertyOp41
 70
     1
102
RTVSPropertyOp42
 70
     1
102
RTVSPropertyOp43
 70
     1
102
RTVSPropertyOp44
 70
     1
102
RTVSPropertyOp45
 70
     1
102
RTVSPropertyOp46
 70
     1
102
RTVSPropertyOp47
 70
     1
102
RTVSPropertyOp48
 70
     1
102
RTVSPropertyOp49
 70
     1
102
RTVSPropertyOp50
 70
     1
102
RTVSPropertyOp51
 70
     0
102
RTVSPropertyOp52
 70
     0
102
RTVSPropertyOp53
 70
     1
102
RTVSPropertyOp54
 70
     1
102
RTVSPropertyOp55
 70
     1
102
RTVSPropertyOp56
 70
     1
102
RTVSPropertyOp57
 70
     1
102
RTVSPropertyOp58
 70
     1
102
RTVSPropertyOp59
 70
     1
102
RTVSPropertyOp60
 70
     1
102
RTVSPropertyOp61
 70
     1
102
RTVSPropertyOp62
 70
     1
  0
XRECORD
  5
10A05
102
{ACAD_REACTORS
330
10A04
102
}
330
10A04
100
AcDbXrecord
280
     1
102
RTVSPost2010Prop28
280
     0
102
RTVSPost2010PropOp28
 70
     1
102
RTVSPost2010Prop29
280
     1
102
RTVSPost2010PropOp29
 70
     1
102
RTVSPost2010Prop30
280
     1
102
RTVSPost2010PropOp30
 70
     1
102
RTVSPost2010Prop31
280
     0
102
RTVSPost2010PropOp31
 70
     1
102
RTVSPost2010Prop32
280
     0
102
RTVSPost2010PropOp32
 70
     1
102
RTVSPost2010Prop33
280
     0
102
RTVSPost2010PropOp33
 70
     1
102
RTVSPost2010Prop34
280
     0
102
RTVSPost2010PropOp34
 70
     1
102
RTVSPost2010Prop35
280
     0
102
RTVSPost2010PropOp35
 70
     1
102
RTVSPost2010Prop36
280
     0
102
RTVSPost2010PropOp36
 70
     1
102
RTVSPost2010Prop37
 90
       50
102
RTVSPost2010PropOp37
 70
     1
102
RTVSPost2010Prop38
140
0.0
102
RTVSPost2010PropOp38
 70
     1
102
RTVSPost2010Prop39
140
1.0
102
RTVSPost2010PropOp39
 70
     1
102
RTVSPost2010Prop40
 90
        0
102
RTVSPost2010PropOp40
 70
     1
102
RTVSPost2010Prop41ColorIndex
 90
       18
102
RTVSPost2010Prop41ColorRGB
 90
        0
102
RTVSPost2010PropOp41
 70
     1
102
RTVSPost2010Prop42
 90
       50
102
RTVSPost2010PropOp42
 70
     1
102
RTVSPost2010Prop43
 90
        3
102
RTVSPost2010PropOp43
 70
     1
102
RTVSPost2010Prop44ColorIndex
 90
        5
102
RTVSPost2010Prop44ColorRGB
 90
      255
102
RTVSPost2010PropOp44
 70
     1
102
RTVSPost2010Prop45
280
     0
102
RTVSPost2010PropOp45
 70
     1
102
RTVSPost2010Prop46
 90
       50
102
RTVSPost2010PropOp46
 70
     1
102
RTVSPost2010Prop47
 90
       50
102
RTVSPost2010PropOp47
 70
     1
102
RTVSPost2010Prop48
 90
       50
102
RTVSPost2010PropOp48
 70
     1
102
RTVSPost2010Prop49
280
     0
102
RTVSPost2010PropOp49
 70
     1
102
RTVSPost2010Prop50
 90
       50
102
RTVSPost2010PropOp50
 70
     1
102
RTVSPost2010Prop51ColorIndex
 90
      256
102
RTVSPost2010Prop51ColorRGB
 90
-16777216
102
RTVSPost2010PropOp51
 70
     0
102
RTVSPost2010Prop52
140
1.0
102
RTVSPost2010PropOp52
 70
     0
102
RTVSPost2010Prop53
 90
        2
102
RTVSPost2010PropOp53
 70
     1
102
RTVSPost2010Prop54
  1
strokes_ogs.tif
102
RTVSPost2010PropOp54
 70
     1
102
RTVSPost2010Prop55
280
     0
102
RTVSPost2010PropOp55
 70
     1
102
RTVSPost2010Prop56
140
1.0
102
RTVSPost2010PropOp56
 70
     1
102
RTVSPost2010Prop57
140
1.0
102
RTVSPost2010PropOp57
 70
     1
102
RTVSPropertyOp0
 70
     1
102
RTVSPropertyOp1
 70
     1
102
RTVSPropertyOp2
 70
     1
102
RTVSPropertyOp3
 70
     1
102
RTVSPropertyOp4
 70
     1
102
RTVSPropertyOp5
 70
     1
102
RTVSPropertyOp6
 70
     1
102
RTVSPropertyOp7
 70
     1
102
RTVSPropertyOp8
 70
     1
102
RTVSPropertyOp9
 70
     1
102
RTVSPropertyOp10
 70
     1
102
RTVSPropertyOp11
 70
     1
102
RTVSPropertyOp12
 70
     1
102
RTVSPropertyOp13
 70
     1
102
RTVSPropertyOp14
 70
     1
102
RTVSPropertyOp15
 70
     1
102
RTVSPropertyOp16
 70
     1
102
RTVSPropertyOp17
 70
     1
102
RTVSPropertyOp18
 70
     1
102
RTVSPropertyOp19
 70
     1
102
RTVSPropertyOp20
 70
     1
102
RTVSPropertyOp21
 70
     1
102
RTVSPropertyOp22
 70
     1
102
RTVSPropertyOp23
 70
     1
102
RTVSPropertyOp24
 70
     1
102
RTVSPropertyOp25
 70
     1
102
RTVSPropertyOp26
 70
     1
102
RTVSPropertyOp27
 70
     1
102
RTVSPropertyOp28
 70
     1
102
RTVSPropertyOp29
 70
     1
102
RTVSPropertyOp30
 70
     1
102
RTVSPropertyOp31
 70
     1
102
RTVSPropertyOp32
 70
     1
102
RTVSPropertyOp33
 70
     1
102
RTVSPropertyOp34
 70
     1
102
RTVSPropertyOp35
 70
     1
102
RTVSPropertyOp36
 70
     1
102
RTVSPropertyOp37
 70
     1
102
RTVSPropertyOp38
 70
     1
102
RTVSPropertyOp39
 70
     1
102
RTVSPropertyOp40
 70
     1
102
RTVSPropertyOp41
 70
     1
102
RTVSPropertyOp42
 70
     1
102
RTVSPropertyOp43
 70
     1
102
RTVSPropertyOp44
 70
     1
102
RTVSPropertyOp45
 70
     1
102
RTVSPropertyOp46
 70
     1
102
RTVSPropertyOp47
 70
     1
102
RTVSPropertyOp48
 70
     1
102
RTVSPropertyOp49
 70
     1
102
RTVSPropertyOp50
 70
     1
102
RTVSPropertyOp51
 70
     0
102
RTVSPropertyOp52
 70
     0
102
RTVSPropertyOp53
 70
     1
102
RTVSPropertyOp54
 70
     1
102
RTVSPropertyOp55
 70
     1
102
RTVSPropertyOp56
 70
     1
102
RTVSPropertyOp57
 70
     1
102
RTVSPropertyOp58
 70
     1
102
RTVSPropertyOp59
 70
     1
102
RTVSPropertyOp60
 70
     1
102
RTVSPropertyOp61
 70
     1
102
RTVSPropertyOp62
 70
     1
  0
XRECORD
  5
10A1D
102
{ACAD_REACTORS
330
10A1C
102
}
330
10A1C
100
AcDbXrecord
280
     1
102
RTVSPost2010Prop28
280
     0
102
RTVSPost2010PropOp28
 70
     1
102
RTVSPost2010Prop29
280
     1
102
RTVSPost2010PropOp29
 70
     1
102
RTVSPost2010Prop30
280
     1
102
RTVSPost2010PropOp30
 70
     1
102
RTVSPost2010Prop31
280
     0
102
RTVSPost2010PropOp31
 70
     1
102
RTVSPost2010Prop32
280
     0
102
RTVSPost2010PropOp32
 70
     1
102
RTVSPost2010Prop33
280
     0
102
RTVSPost2010PropOp33
 70
     1
102
RTVSPost2010Prop34
280
     0
102
RTVSPost2010PropOp34
 70
     1
102
RTVSPost2010Prop35
280
     0
102
RTVSPost2010PropOp35
 70
     1
102
RTVSPost2010Prop36
280
     0
102
RTVSPost2010PropOp36
 70
     1
102
RTVSPost2010Prop37
 90
       50
102
RTVSPost2010PropOp37
 70
     1
102
RTVSPost2010Prop38
140
0.0
102
RTVSPost2010PropOp38
 70
     1
102
RTVSPost2010Prop39
140
1.0
102
RTVSPost2010PropOp39
 70
     1
102
RTVSPost2010Prop40
 90
        0
102
RTVSPost2010PropOp40
 70
     1
102
RTVSPost2010Prop41ColorIndex
 90
       18
102
RTVSPost2010Prop41ColorRGB
 90
        0
102
RTVSPost2010PropOp41
 70
     1
102
RTVSPost2010Prop42
 90
       50
102
RTVSPost2010PropOp42
 70
     1
102
RTVSPost2010Prop43
 90
        3
102
RTVSPost2010PropOp43
 70
     1
102
RTVSPost2010Prop44ColorIndex
 90
        5
102
RTVSPost2010Prop44ColorRGB
 90
      255
102
RTVSPost2010PropOp44
 70
     1
102
RTVSPost2010Prop45
280
     0
102
RTVSPost2010PropOp45
 70
     1
102
RTVSPost2010Prop46
 90
       50
102
RTVSPost2010PropOp46
 70
     1
102
RTVSPost2010Prop47
 90
       50
102
RTVSPost2010PropOp47
 70
     1
102
RTVSPost2010Prop48
 90
       50
102
RTVSPost2010PropOp48
 70
     1
102
RTVSPost2010Prop49
280
     0
102
RTVSPost2010PropOp49
 70
     1
102
RTVSPost2010Prop50
 90
       50
102
RTVSPost2010PropOp50
 70
     1
102
RTVSPost2010Prop51ColorIndex
 90
      256
102
RTVSPost2010Prop51ColorRGB
 90
-16777216
102
RTVSPost2010PropOp51
 70
     0
102
RTVSPost2010Prop52
140
1.0
102
RTVSPost2010PropOp52
 70
     0
102
RTVSPost2010Prop53
 90
        2
102
RTVSPost2010PropOp53
 70
     1
102
RTVSPost2010Prop54
  1
strokes_ogs.tif
102
RTVSPost2010PropOp54
 70
     1
102
RTVSPost2010Prop55
280
     0
102
RTVSPost2010PropOp55
 70
     1
102
RTVSPost2010Prop56
140
1.0
102
RTVSPost2010PropOp56
 70
     1
102
RTVSPost2010Prop57
140
1.0
102
RTVSPost2010PropOp57
 70
     1
102
RTVSPropertyOp0
 70
     1
102
RTVSPropertyOp1
 70
     1
102
RTVSPropertyOp2
 70
     1
102
RTVSPropertyOp3
 70
     1
102
RTVSPropertyOp4
 70
     1
102
RTVSPropertyOp5
 70
     1
102
RTVSPropertyOp6
 70
     1
102
RTVSPropertyOp7
 70
     1
102
RTVSPropertyOp8
 70
     1
102
RTVSPropertyOp9
 70
     1
102
RTVSPropertyOp10
 70
     1
102
RTVSPropertyOp11
 70
     1
102
RTVSPropertyOp12
 70
     1
102
RTVSPropertyOp13
 70
     1
102
RTVSPropertyOp14
 70
     1
102
RTVSPropertyOp15
 70
     1
102
RTVSPropertyOp16
 70
     1
102
RTVSPropertyOp17
 70
     1
102
RTVSPropertyOp18
 70
     1
102
RTVSPropertyOp19
 70
     1
102
RTVSPropertyOp20
 70
     1
102
RTVSPropertyOp21
 70
     1
102
RTVSPropertyOp22
 70
     1
102
RTVSPropertyOp23
 70
     1
102
RTVSPropertyOp24
 70
     1
102
RTVSPropertyOp25
 70
     1
102
RTVSPropertyOp26
 70
     1
102
RTVSPropertyOp27
 70
     1
102
RTVSPropertyOp28
 70
     1
102
RTVSPropertyOp29
 70
     1
102
RTVSPropertyOp30
 70
     1
102
RTVSPropertyOp31
 70
     1
102
RTVSPropertyOp32
 70
     1
102
RTVSPropertyOp33
 70
     1
102
RTVSPropertyOp34
 70
     1
102
RTVSPropertyOp35
 70
     1
102
RTVSPropertyOp36
 70
     1
102
RTVSPropertyOp37
 70
     1
102
RTVSPropertyOp38
 70
     1
102
RTVSPropertyOp39
 70
     1
102
RTVSPropertyOp40
 70
     1
102
RTVSPropertyOp41
 70
     1
102
RTVSPropertyOp42
 70
     1
102
RTVSPropertyOp43
 70
     1
102
RTVSPropertyOp44
 70
     1
102
RTVSPropertyOp45
 70
     1
102
RTVSPropertyOp46
 70
     1
102
RTVSPropertyOp47
 70
     1
102
RTVSPropertyOp48
 70
     1
102
RTVSPropertyOp49
 70
     1
102
RTVSPropertyOp50
 70
     1
102
RTVSPropertyOp51
 70
     0
102
RTVSPropertyOp52
 70
     0
102
RTVSPropertyOp53
 70
     1
102
RTVSPropertyOp54
 70
     1
102
RTVSPropertyOp55
 70
     1
102
RTVSPropertyOp56
 70
     1
102
RTVSPropertyOp57
 70
     1
102
RTVSPropertyOp58
 70
     1
102
RTVSPropertyOp59
 70
     1
102
RTVSPropertyOp60
 70
     1
102
RTVSPropertyOp61
 70
     1
102
RTVSPropertyOp62
 70
     1
  0
ENDSEC
  0
EOF
