  0
SECTION
  2
HEADER
  9
$ACADVER
  1
AC1015
  9
$DWGCODEPAGE
  3
ANSI_932
  9
$LTSCALE
 40
20.0
  9
$FILLMODE
 70
     1
  9
$CLAYER
  8
0
  9
$PDMODE
 70
     0
  9
$SPLFRAME
 70
     0
  9
$SPLINETYPE
 70
     6
  9
$SPLINESEGS
 70
     8
  9
$DIMASZ
 40
2.000000
  9
$DIMEXE
 40
1.500000
  9
$DIMEXO
 40
0.800000
  9
$DIMTAD
 70
     1
  9
$DIMTIH
 70
     0
  9
$DIMTOH
 70
     0
  9
$DIMTVP
 40
0.500000
  9
$DIMTXT
 40
3.100000
  9
$EXTMIN
 10
0.000000
 20
0.000000
 30
0.000000
  9
$EXTMAX
 10
297.000000
 20
420.000000
 30
0.000000
  9
$MEASUREMENT
 70
  1
  9
$LIMMIN
 10
0.000000
 20
0.000000
  9
$LIMMAX
 10
297.000000
 20
420.000000
  9
$HANDSEED
  5
162
  9
$LWDISPLAY
290
     0
  9
$DIMBLK
  1
_OPEN
  9
$DIMDEC
 70
     2
  9
$DIMADEC
 70
     2
  9
$DIMAUNIT
 70
     0
  9
$DIMZIN
 70
     8
  9
$DIMAZIN
 70
     2
  9
$DIMTOFL
 70
     1
  0
ENDSEC
  0
SECTION
  2
CLASSES
  0
ENDSEC
  0
SECTION
  2
TABLES
  0
TABLE
  2
VPORT
  5
132
100
AcDbSymbolTable
 70
     1
  0
VPORT
  5
133
100
AcDbSymbolTableRecord
100
AcDbViewportTableRecord
  2
*ACTIVE
 70
     0
 12
138.045098
 22
199.220083
 40
378.440167
 41
0.676699
  0
ENDTAB
  0
TABLE
  2
LTYPE
  5
134
100
AcDbSymbolTable
 70
     2
  0
LTYPE
  5
135
100
AcDbSymbolTableRecord
100
AcDbLinetypeTableRecord
  2
BYBLOCK
 70
     0
  3

 72
    65
 73
     0
 40
0.0
  0
LTYPE
  5
136
100
AcDbSymbolTableRecord
100
AcDbLinetypeTableRecord
  2
BYLAYER
 70
     0
  3

 72
    65
 73
     0
 40
0.0
  0
LTYPE
  5
137
100
AcDbSymbolTableRecord
100
AcDbLinetypeTableRecord
  2
CONTINUOUS
 70
     0
  3
Solid line (NEC CAE2D for Win R16.0 : 2021.03.03)
 72
    65
 73
     0
 40
0.0
  0
LTYPE
  5
138
100
AcDbSymbolTableRecord
100
AcDbLinetypeTableRecord
  2
CENTER
 70
     0
  3
____ _ ____ _ ____ _ ____ _ ____ _ ____
 72
    65
 73
     4
 40
2.0
 49
1.25
 74
     0
 49
-0.25
 74
     0
 49
0.25
 74
     0
 49
-0.25
 74
     0
  0
ENDTAB
  0
TABLE
  2
LAYER
  5
139
100
AcDbSymbolTable
 70
    10
  0
LAYER
  5
13A
100
AcDbSymbolTableRecord
100
AcDbLayerTableRecord
  2
0
 70
     0
 62
     7
  6
CONTINUOUS
370
    -3
390

  0
LAYER
  5
13B
100
AcDbSymbolTableRecord
100
AcDbLayerTableRecord
  2
DXF0
 70
     0
 62
     7
  6
CONTINUOUS
370
    -3
390

  0
LAYER
  5
13C
100
AcDbSymbolTableRecord
100
AcDbLayerTableRecord
  2
4
 70
     0
 62
     1
  6
CONTINUOUS
370
    -3
390

  0
LAYER
  5
13D
100
AcDbSymbolTableRecord
100
AcDbLayerTableRecord
  2
5
 70
     0
 62
     6
  6
CONTINUOUS
370
    -3
390

  0
LAYER
  5
13E
100
AcDbSymbolTableRecord
100
AcDbLayerTableRecord
  2
1
 70
     0
 62
     7
  6
CONTINUOUS
370
    -3
390

  0
LAYER
  5
13F
100
AcDbSymbolTableRecord
100
AcDbLayerTableRecord
  2
2
 70
     0
 62
     4
  6
CONTINUOUS
370
    -3
390

  0
LAYER
  5
140
100
AcDbSymbolTableRecord
100
AcDbLayerTableRecord
  2
3
 70
     0
 62
     2
  6
CONTINUOUS
370
    -3
390

  0
LAYER
  5
141
100
AcDbSymbolTableRecord
100
AcDbLayerTableRecord
  2
6
 70
     0
 62
     5
  6
CONTINUOUS
370
    -3
390

  0
LAYER
  5
142
100
AcDbSymbolTableRecord
100
AcDbLayerTableRecord
  2
7
 70
     0
 62
     7
  6
CONTINUOUS
370
    -3
390

  0
LAYER
  5
143
100
AcDbSymbolTableRecord
100
AcDbLayerTableRecord
  2
DXF1023
 70
     0
 62
    16
  6
CONTINUOUS
370
    -3
390

  0
ENDTAB
  0
TABLE
  2
STYLE
  5
144
100
AcDbSymbolTable
 70
     4
  0
STYLE
  5
145
100
AcDbSymbolTableRecord
100
AcDbTextStyleTableRecord
  2
STANDARD
 70
    64
 40
0.0
 41
1.0
 50
0.0
 71
     0
 42
3.000000000000000
  3
TXT
  4

  0
STYLE
  5
146
100
AcDbSymbolTableRecord
100
AcDbTextStyleTableRecord
  2
ANKTATE
 70
    68
 40
0.0
 41
1.0
 50
0.0
 71
     0
 42
3.000000000000000
  3
TXT
  4

  0
STYLE
  5
147
100
AcDbSymbolTableRecord
100
AcDbTextStyleTableRecord
  2
KNJYOKO
 70
    64
 40
0.0
 41
1.0
 50
0.0
 71
     0
 42
3.000000000000000
  3
TXT
  4
BIGFONT
  0
STYLE
  5
148
100
AcDbSymbolTableRecord
100
AcDbTextStyleTableRecord
  2
KNJTATE
 70
    68
 40
0.0
 41
1.0
 50
0.0
 71
     0
 42
3.000000000000000
  3
TXT
  4
BIGFONT
  0
ENDTAB
  0
TABLE
  2
VIEW
  5
149
100
AcDbSymbolTable
 70
     0
  0
ENDTAB
  0
TABLE
  2
UCS
  5
14A
100
AcDbSymbolTable
 70
     0
  0
ENDTAB
  0
TABLE
  2
APPID
  5
14B
100
AcDbSymbolTable
 70
     1
  0
APPID
  5
14C
100
AcDbSymbolTableRecord
100
AcDbRegAppTableRecord
  2
ACAD
 70
     0
  0
ENDTAB
  0
TABLE
  2
DIMSTYLE
  5
14D
100
AcDbSymbolTable
 70
     2
100
AcDbDimStyleTable
  0
DIMSTYLE
105
14E
100
AcDbSymbolTableRecord
100
AcDbDimStyleTableRecord
  2
STANDARD
 70
     0
 41
2.000000
 44
1.500000
 42
0.800000
145
0.661290
140
3.100000
144
1.000000
146
0.645161
340
145
  0
DIMSTYLE
105
14F
100
AcDbSymbolTableRecord
100
AcDbDimStyleTableRecord
  2
DXF001
 70
     0
 41
2.000000
 44
1.500000
 42
0.800000
145
0.661290
140
3.100000
144
1.000000
146
0.645161
 77
     1
 73
     0
 74
     0
271
     2
179
     2
275
     0
 78
     8
 79
     2
172
     1
340
145
  0
ENDTAB
  0
TABLE
  2
BLOCK_RECORD
  5
150
100
AcDbSymbolTable
 70
    12
  0
BLOCK_RECORD
  5
151
100
AcDbSymbolTableRecord
100
AcDbBlockTableRecord
  2
*MODEL_SPACE
  0
BLOCK_RECORD
  5
152
100
AcDbSymbolTableRecord
100
AcDbBlockTableRecord
  2
*PAPER_SPACE
  0
BLOCK_RECORD
  5
153
100
AcDbSymbolTableRecord
100
AcDbBlockTableRecord
  2
*PAPER_SPACE0
  0
BLOCK_RECORD
  5
1
100
AcDbSymbolTableRecord
100
AcDbBlockTableRecord
  2
_NONE
  0
BLOCK_RECORD
  5
4
100
AcDbSymbolTableRecord
100
AcDbBlockTableRecord
  2
_CLOSED
  0
BLOCK_RECORD
  5
B
100
AcDbSymbolTableRecord
100
AcDbBlockTableRecord
  2
_DOT
  0
BLOCK_RECORD
  5
13
100
AcDbSymbolTableRecord
100
AcDbBlockTableRecord
  2
_OPEN
  0
BLOCK_RECORD
  5
19
100
AcDbSymbolTableRecord
100
AcDbBlockTableRecord
  2
_ORIGIN
  0
BLOCK_RECORD
  5
1E
100
AcDbSymbolTableRecord
100
AcDbBlockTableRecord
  2
_OPEN30
  0
BLOCK_RECORD
  5
24
100
AcDbSymbolTableRecord
100
AcDbBlockTableRecord
  2
_BOXFILLED
  0
BLOCK_RECORD
  5
29
100
AcDbSymbolTableRecord
100
AcDbBlockTableRecord
  2
_BOXBLANK
  0
BLOCK_RECORD
  5
31
100
AcDbSymbolTableRecord
100
AcDbBlockTableRecord
  2
_OBLIQUE
  0
BLOCK_RECORD
  5
35
100
AcDbSymbolTableRecord
100
AcDbBlockTableRecord
  2
_OPEN90
  0
BLOCK_RECORD
  5
3B
100
AcDbSymbolTableRecord
100
AcDbBlockTableRecord
  2
_CLOSEDBLANK
  0
BLOCK_RECORD
  5
41
100
AcDbSymbolTableRecord
100
AcDbBlockTableRecord
  2
_DOTBLANK
  0
ENDTAB
  0
ENDSEC
  0
SECTION
  2
BLOCKS
  0
BLOCK
  5
154
100
AcDbEntity
  8
0
100
AcDbBlockBegin
  2
*MODEL_SPACE
 70
     0
 10
0.0
 20
0.0
 30
0.0
  3
*MODEL_SPACE
  1

  0
ENDBLK
  5
155
100
AcDbEntity
  8
0
100
AcDbBlockEnd
  0
BLOCK
  5
156
100
AcDbEntity
  8
0
100
AcDbBlockBegin
  2
*PAPER_SPACE
 70
     0
 10
0.0
 20
0.0
 30
0.0
  3
*PAPER_SPACE
  1

  0
ENDBLK
  5
157
100
AcDbEntity
  8
0
100
AcDbBlockEnd
  0
BLOCK
  5
158
100
AcDbEntity
  8
0
100
AcDbBlockBegin
  2
*PAPER_SPACE0
 70
     0
 10
0.0
 20
0.0
 30
0.0
  3
*PAPER_SPACE0
  1

  0
ENDBLK
  5
159
100
AcDbEntity
  8
0
100
AcDbBlockEnd
  0
BLOCK
  5
2
330
1
100
AcDbEntity
  8
0
100
AcDbBlockBegin
  2
_NONE
 70
     0
 10
0.0
 20
0.0
 30
0.0
  3
_NONE
  1

  0
ENDBLK
  5
3
330
1
100
AcDbEntity
  8
0
100
AcDbBlockEnd
  0
BLOCK
  5
5
330
4
100
AcDbEntity
  8
0
100
AcDbBlockBegin
  2
_CLOSED
 70
     0
 10
0.0
 20
0.0
 30
0.0
  3
_CLOSED
  1

  0
LINE
  5
6
330
4
100
AcDbEntity
  8
0
  6
BYBLOCK
 62
     0
370
    -2
100
AcDbLine
 10
-1.0
 20
0.166667
 30
0.0
 11
0.0
 21
0.0
 31
0.0
  0
LINE
  5
7
330
4
100
AcDbEntity
  8
0
  6
BYBLOCK
 62
     0
370
    -2
100
AcDbLine
 10
0.0
 20
0.0
 30
0.0
 11
-1.0
 21
-0.166667
 31
0.0
  0
LINE
  5
8
330
4
100
AcDbEntity
  8
0
  6
BYBLOCK
 62
     0
370
    -2
100
AcDbLine
 10
-1.0
 20
0.166667
 30
0.0
 11
-1.0
 21
-0.166667
 31
0.0
  0
LINE
  5
9
330
4
100
AcDbEntity
  8
0
  6
BYBLOCK
 62
     0
370
    -2
100
AcDbLine
 10
0.0
 20
0.0
 30
0.0
 11
-1.0
 21
0.0
 31
0.0
  0
ENDBLK
  5
A
330
4
100
AcDbEntity
  8
0
100
AcDbBlockEnd
  0
BLOCK
  5
C
330
B
100
AcDbEntity
  8
0
100
AcDbBlockBegin
  2
_DOT
 70
     0
 10
0.0
 20
0.0
 30
0.0
  3
_DOT
  1

  0
POLYLINE
  5
D
330
B
100
AcDbEntity
  8
0
  6
BYBLOCK
 62
     0
370
    -2
100
AcDb2dPolyline
 66
     1
 10
0.0
 20
0.0
 30
0.0
 70
     1
 40
0.5
 41
0.5
  0
VERTEX
  5
E
330
B
100
AcDbEntity
  8
0
  6
BYBLOCK
 62
     0
370
    -2
100
AcDbVertex
100
AcDb2dVertex
 10
-0.25
 20
0.0
 30
0.0
 42
1.0
  0
VERTEX
  5
F
330
B
100
AcDbEntity
  8
0
  6
BYBLOCK
 62
     0
370
    -2
100
AcDbVertex
100
AcDb2dVertex
 10
0.25
 20
0.0
 30
0.0
 42
1.0
  0
SEQEND
  5
10
330
B
100
AcDbEntity
  8
0
  6
BYBLOCK
 62
     0
370
    -2
  0
LINE
  5
11
330
B
100
AcDbEntity
  8
0
  6
BYBLOCK
 62
     0
370
    -2
100
AcDbLine
 10
-0.5
 20
0.0
 30
0.0
 11
-1.0
 21
0.0
 31
0.0
  0
ENDBLK
  5
12
330
B
100
AcDbEntity
  8
0
100
AcDbBlockEnd
  0
BLOCK
  5
14
330
13
100
AcDbEntity
  8
0
100
AcDbBlockBegin
  2
_OPEN
 70
     0
 10
0.0
 20
0.0
 30
0.0
  3
_OPEN
  1

  0
LINE
  5
15
330
13
100
AcDbEntity
  8
0
  6
BYBLOCK
 62
     0
370
    -2
100
AcDbLine
 10
-1.0
 20
0.166667
 30
0.0
 11
0.0
 21
0.0
 31
0.0
  0
LINE
  5
16
330
13
100
AcDbEntity
  8
0
  6
BYBLOCK
 62
     0
370
    -2
100
AcDbLine
 10
0.0
 20
0.0
 30
0.0
 11
-1.0
 21
-0.166667
 31
0.0
  0
LINE
  5
17
330
13
100
AcDbEntity
  8
0
  6
BYBLOCK
 62
     0
370
    -2
100
AcDbLine
 10
0.0
 20
0.0
 30
0.0
 11
-1.0
 21
0.0
 31
0.0
  0
ENDBLK
  5
18
330
13
100
AcDbEntity
  8
0
100
AcDbBlockEnd
  0
BLOCK
  5
1A
330
19
100
AcDbEntity
  8
0
100
AcDbBlockBegin
  2
_ORIGIN
 70
     0
 10
0.0
 20
0.0
 30
0.0
  3
_ORIGIN
  1

  0
CIRCLE
  5
1B
330
19
100
AcDbEntity
  8
0
  6
BYBLOCK
 62
     0
370
    -2
100
AcDbCircle
 10
0.0
 20
0.0
 30
0.0
 40
0.5
  0
LINE
  5
1C
330
19
100
AcDbEntity
  8
0
  6
BYBLOCK
 62
     0
370
    -2
100
AcDbLine
 10
0.0
 20
0.0
 30
0.0
 11
-1.0
 21
0.0
 31
0.0
  0
ENDBLK
  5
1D
330
19
100
AcDbEntity
  8
0
100
AcDbBlockEnd
  0
BLOCK
  5
1F
330
1E
100
AcDbEntity
  8
0
100
AcDbBlockBegin
  2
_OPEN30
 70
     0
 10
0.0
 20
0.0
 30
0.0
  3
_OPEN30
  1

  0
LINE
  5
20
330
1E
100
AcDbEntity
  8
0
  6
BYBLOCK
 62
     0
370
    -2
100
AcDbLine
 10
-1.0
 20
0.267949
 30
0.0
 11
0.0
 21
0.0
 31
0.0
  0
LINE
  5
21
330
1E
100
AcDbEntity
  8
0
  6
BYBLOCK
 62
     0
370
    -2
100
AcDbLine
 10
0.0
 20
0.0
 30
0.0
 11
-1.0
 21
-0.267949
 31
0.0
  0
LINE
  5
22
330
1E
100
AcDbEntity
  8
0
  6
BYBLOCK
 62
     0
370
    -2
100
AcDbLine
 10
0.0
 20
0.0
 30
0.0
 11
-1.0
 21
0.0
 31
0.0
  0
ENDBLK
  5
23
330
1E
100
AcDbEntity
  8
0
100
AcDbBlockEnd
  0
BLOCK
  5
25
330
24
100
AcDbEntity
  8
0
100
AcDbBlockBegin
  2
_BOXFILLED
 70
     0
 10
0.0
 20
0.0
 30
0.0
  3
_BOXFILLED
  1

  0
SOLID
  5
26
330
24
100
AcDbEntity
  8
0
  6
BYBLOCK
 62
     0
370
    -2
100
AcDbTrace
 10
-0.5
 20
0.5
 30
0.0
 11
0.5
 21
0.5
 31
0.0
 12
-0.5
 22
-0.5
 32
0.0
 13
0.5
 23
-0.5
 33
0.0
  0
LINE
  5
27
330
24
100
AcDbEntity
  8
0
  6
BYBLOCK
 62
     0
370
    -2
100
AcDbLine
 10
-0.5
 20
0.0
 30
0.0
 11
-1.0
 21
0.0
 31
0.0
  0
ENDBLK
  5
28
330
24
100
AcDbEntity
  8
0
100
AcDbBlockEnd
  0
BLOCK
  5
2A
330
29
100
AcDbEntity
  8
0
100
AcDbBlockBegin
  2
_BOXBLANK
 70
     0
 10
0.0
 20
0.0
 30
0.0
  3
_BOXBLANK
  1

  0
LINE
  5
2B
330
29
100
AcDbEntity
  8
0
  6
BYBLOCK
 62
     0
370
    -2
100
AcDbLine
 10
-0.5
 20
-0.5
 30
0.0
 11
0.5
 21
-0.5
 31
0.0
  0
LINE
  5
2C
330
29
100
AcDbEntity
  8
0
  6
BYBLOCK
 62
     0
370
    -2
100
AcDbLine
 10
0.5
 20
-0.5
 30
0.0
 11
0.5
 21
0.5
 31
0.0
  0
LINE
  5
2D
330
29
100
AcDbEntity
  8
0
  6
BYBLOCK
 62
     0
370
    -2
100
AcDbLine
 10
0.5
 20
0.5
 30
0.0
 11
-0.5
 21
0.5
 31
0.0
  0
LINE
  5
2E
330
29
100
AcDbEntity
  8
0
  6
BYBLOCK
 62
     0
370
    -2
100
AcDbLine
 10
-0.5
 20
0.5
 30
0.0
 11
-0.5
 21
-0.5
 31
0.0
  0
LINE
  5
2F
330
29
100
AcDbEntity
  8
0
  6
BYBLOCK
 62
     0
370
    -2
100
AcDbLine
 10
-0.5
 20
0.0
 30
0.0
 11
-1.0
 21
0.0
 31
0.0
  0
ENDBLK
  5
30
330
29
100
AcDbEntity
  8
0
100
AcDbBlockEnd
  0
BLOCK
  5
32
330
31
100
AcDbEntity
  8
0
100
AcDbBlockBegin
  2
_OBLIQUE
 70
     0
 10
0.0
 20
0.0
 30
0.0
  3
_OBLIQUE
  1

  0
LINE
  5
33
330
31
100
AcDbEntity
  8
0
  6
BYBLOCK
 62
     0
370
    -2
100
AcDbLine
 10
-0.5
 20
-0.5
 30
0.0
 11
0.5
 21
0.5
 31
0.0
  0
ENDBLK
  5
34
330
31
100
AcDbEntity
  8
0
100
AcDbBlockEnd
  0
BLOCK
  5
36
330
35
100
AcDbEntity
  8
0
100
AcDbBlockBegin
  2
_OPEN90
 70
     0
 10
0.0
 20
0.0
 30
0.0
  3
_OPEN90
  1

  0
LINE
  5
37
330
35
100
AcDbEntity
  8
0
  6
BYBLOCK
 62
     0
370
    -2
100
AcDbLine
 10
-0.5
 20
0.5
 30
0.0
 11
0.0
 21
0.0
 31
0.0
  0
LINE
  5
38
330
35
100
AcDbEntity
  8
0
  6
BYBLOCK
 62
     0
370
    -2
100
AcDbLine
 10
0.0
 20
0.0
 30
0.0
 11
-0.5
 21
-0.5
 31
0.0
  0
LINE
  5
39
330
35
100
AcDbEntity
  8
0
  6
BYBLOCK
 62
     0
370
    -2
100
AcDbLine
 10
0.0
 20
0.0
 30
0.0
 11
-1.0
 21
0.0
 31
0.0
  0
ENDBLK
  5
3A
330
35
100
AcDbEntity
  8
0
100
AcDbBlockEnd
  0
BLOCK
  5
3C
330
3B
100
AcDbEntity
  8
0
100
AcDbBlockBegin
  2
_CLOSEDBLANK
 70
     0
 10
0.0
 20
0.0
 30
0.0
  3
_CLOSEDBLANK
  1

  0
LINE
  5
3D
330
3B
100
AcDbEntity
  8
0
  6
BYBLOCK
 62
     0
370
    -2
100
AcDbLine
 10
-1.0
 20
0.1666666666666666
 30
0.0
 11
0.0
 21
0.0
 31
0.0
  0
LINE
  5
3E
330
3B
100
AcDbEntity
  8
0
  6
BYBLOCK
 62
     0
370
    -2
100
AcDbLine
 10
0.0
 20
0.0
 30
0.0
 11
-1.0
 21
-0.1666666666666666
 31
0.0
  0
LINE
  5
3F
330
3B
100
AcDbEntity
  8
0
  6
BYBLOCK
 62
     0
370
    -2
100
AcDbLine
 10
-1.0
 20
0.1666666666666666
 30
0.0
 11
-1.0
 21
-0.1666666666666666
 31
0.0
  0
ENDBLK
  5
40
330
3B
100
AcDbEntity
  8
0
100
AcDbBlockEnd
  0
BLOCK
  5
42
330
41
100
AcDbEntity
  8
0
100
AcDbBlockBegin
  2
_DOTBLANK
 70
     0
 10
0.0
 20
0.0
 30
0.0
  3
_DOTBLANK
  1

  0
CIRCLE
  5
43
330
41
100
AcDbEntity
  8
0
  6
BYBLOCK
 62
     0
370
    -2
100
AcDbCircle
 10
0.0
 20
0.0
 30
0.0
 40
0.5
  0
LINE
  5
44
330
41
100
AcDbEntity
  8
0
  6
BYBLOCK
 62
     0
370
    -2
100
AcDbLine
 10
-0.5
 20
0.0
 30
0.0
 11
-1.0
 21
0.0
 31
0.0
  0
ENDBLK
  5
45
330
41
100
AcDbEntity
  8
0
100
AcDbBlockEnd
  0
ENDSEC
  0
SECTION
  2
ENTITIES
  0
MTEXT
  5
46
100
AcDbEntity
  8
7
  6
CONTINUOUS
 62
7
100
AcDbMText
 10
10.00000000000000
 20
18.00000000000000
 30
0.000000000000000
 40
3.000000000000000
 41
0.000000000000000
 44
0.6739999771118164
 71
     7
 72
     1
  1
{\H0.94x;{TYPE No.TM-170R-G}}
 11
1.000000000000000
 21
0.000000000000000
 31
0.000000000000000
  7
STANDARD
  0
LINE
  5
47
100
AcDbEntity
  8
4
  6
CENTER
 62
1
100
AcDbLine
 10
67.56862700000001
 20
388.4401669999999
 30
0.000000000000000
 11
67.56862700000001
 21
312.4401669999999
 31
0.000000000000000
  0
LINE
  5
48
100
AcDbEntity
  8
4
  6
CENTER
 62
1
100
AcDbLine
 10
29.56862700000000
 20
350.4401670000000
 30
0.000000000000000
 11
105.5686270000000
 21
350.4401670000000
 31
0.000000000000000
  0
LINE
  5
49
100
AcDbEntity
  8
1
  6
CONTINUOUS
 62
7
100
AcDbLine
 10
60.64683000000000
 20
362.4401669999999
 30
0.000000000000000
 11
74.49042400000000
 21
362.4401669999999
 31
0.000000000000000
  0
LINE
  5
4A
100
AcDbEntity
  8
1
  6
CONTINUOUS
 62
7
100
AcDbLine
 10
81.41862700000001
 20
350.4401669999999
 30
0.000000000000000
 11
74.49042400000002
 21
362.4401669999999
 31
0.000000000000000
  0
LINE
  5
4B
100
AcDbEntity
  8
1
  6
CONTINUOUS
 62
7
100
AcDbLine
 10
81.41862700000000
 20
350.4401670000000
 30
0.000000000000000
 11
74.49042399999998
 21
338.4401669999999
 31
0.000000000000000
  0
LINE
  5
4C
100
AcDbEntity
  8
1
  6
CONTINUOUS
 62
7
100
AcDbLine
 10
53.71862700000000
 20
350.4401669999999
 30
0.000000000000000
 11
60.64682999999999
 21
362.4401669999999
 31
0.000000000000000
  0
LINE
  5
4D
100
AcDbEntity
  8
1
  6
CONTINUOUS
 62
7
100
AcDbLine
 10
53.71862700000003
 20
350.4401670000000
 30
0.000000000000000
 11
60.64682999999999
 21
338.4401669999999
 31
0.000000000000000
  0
LINE
  5
4E
100
AcDbEntity
  8
1
  6
CONTINUOUS
 62
7
100
AcDbLine
 10
60.64683000000000
 20
338.4401669999999
 30
0.000000000000000
 11
74.49042400000000
 21
338.4401669999999
 31
0.000000000000000
  0
CIRCLE
  5
4F
100
AcDbEntity
  8
1
  6
CONTINUOUS
 62
7
100
AcDbCircle
 10
67.56862700000001
 20
350.4401670000000
 30
0.000000000000000
 40
8.000000000000000
  0
CIRCLE
  5
50
100
AcDbEntity
  8
2
  6
CONTINUOUS
 62
4
100
AcDbCircle
 10
67.56862700000001
 20
350.4401670000000
 30
0.000000000000000
 40
6.917500000000000
  0
CIRCLE
  5
51
100
AcDbEntity
  8
1
  6
CONTINUOUS
 62
7
100
AcDbCircle
 10
67.56862700000001
 20
350.4401670000000
 30
0.000000000000000
 40
13.85000000000000
  0
LINE
  5
52
100
AcDbEntity
  8
1
  6
CONTINUOUS
 62
7
100
AcDbLine
 10
37.56862700000000
 20
162.5836720000000
 30
0.000000000000000
 11
97.56862700000001
 21
162.5836720000000
 31
0.000000000000000
  0
LINE
  5
53
100
AcDbEntity
  8
1
  6
CONTINUOUS
 62
7
100
AcDbLine
 10
53.71862700000001
 20
197.5836720000000
 30
0.000000000000000
 11
81.41862700000000
 21
197.5836720000000
 31
0.000000000000000
  0
LINE
  5
54
100
AcDbEntity
  8
1
  6
CONTINUOUS
 62
7
100
AcDbLine
 10
37.56862700000000
 20
168.5836720000000
 30
0.000000000000000
 11
37.56862700000000
 21
162.5836720000000
 31
0.000000000000000
  0
LINE
  5
55
100
AcDbEntity
  8
1
  6
CONTINUOUS
 62
7
100
AcDbLine
 10
97.56862700000001
 20
168.5836720000000
 30
0.000000000000000
 11
97.56862700000001
 21
162.5836720000000
 31
0.000000000000000
  0
LINE
  5
56
100
AcDbEntity
  8
1
  6
CONTINUOUS
 62
7
100
AcDbLine
 10
65.05577300000000
 20
168.5836720000000
 30
0.000000000000000
 11
70.08148100000001
 21
168.5836720000000
 31
0.000000000000000
  0
LINE
  5
57
100
AcDbEntity
  8
1
  6
CONTINUOUS
 62
7
100
AcDbLine
 10
53.71862700000001
 20
187.5836720000000
 30
0.000000000000000
 11
81.41862700000000
 21
187.5836720000000
 31
0.000000000000000
  0
LINE
  5
58
100
AcDbEntity
  8
1
  6
CONTINUOUS
 62
7
100
AcDbLine
 10
53.71862700000001
 20
197.5836720000000
 30
0.000000000000000
 11
53.71862700000001
 21
187.5836720000000
 31
0.000000000000000
  0
LINE
  5
59
100
AcDbEntity
  8
1
  6
CONTINUOUS
 62
7
100
AcDbLine
 10
81.41862700000000
 20
197.5836720000000
 30
0.000000000000000
 11
81.41862700000000
 21
187.5836720000000
 31
0.000000000000000
  0
LINE
  5
5A
100
AcDbEntity
  8
1
  6
CONTINUOUS
 62
7
100
AcDbLine
 10
74.49042400000000
 20
197.5836720000000
 30
0.000000000000000
 11
74.49042400000000
 21
187.5836720000000
 31
0.000000000000000
  0
LINE
  5
5B
100
AcDbEntity
  8
1
  6
CONTINUOUS
 62
7
100
AcDbLine
 10
60.64362700000000
 20
197.5836720000000
 30
0.000000000000000
 11
60.64362700000000
 21
187.5836720000000
 31
0.000000000000000
  0
LINE
  5
5C
100
AcDbEntity
  8
1
  6
CONTINUOUS
 62
7
100
AcDbLine
 10
81.41862699999999
 20
187.5836720000000
 30
0.000000000000000
 11
97.56862699999999
 21
168.5836720000000
 31
0.000000000000000
  0
LINE
  5
5D
100
AcDbEntity
  8
1
  6
CONTINUOUS
 62
7
100
AcDbLine
 10
53.71862700000001
 20
187.5836720000000
 30
0.000000000000000
 11
37.56862700000000
 21
168.5836720000000
 31
0.000000000000000
  0
ARC
  5
5E
100
AcDbEntity
  8
1
  6
CONTINUOUS
 62
7
100
AcDbCircle
 10
99.78567600000000
 20
166.9903210000000
 30
0.000000000000000
 40
5.315584999999998
100
AcDbArc
 50
137.4679219999999
 51
162.5573639999998
  0
LINE
  5
5F
100
AcDbEntity
  8
1
  6
CONTINUOUS
 62
7
100
AcDbLine
 10
92.20166000000000
 20
168.5836720000000
 30
0.000000000000000
 11
94.71451500000001
 21
168.5836720000000
 31
0.000000000000000
  0
LINE
  5
60
100
AcDbEntity
  8
1
  6
CONTINUOUS
 62
7
100
AcDbLine
 10
80.33971800000000
 20
168.5836720000000
 30
0.000000000000000
 11
84.69210999999999
 21
168.5836720000000
 31
0.000000000000000
  0
LINE
  5
61
100
AcDbEntity
  8
2
  6
CONTINUOUS
 62
4
100
AcDbLine
 10
60.65112700000000
 20
203.5836720000000
 30
0.000000000000000
 11
60.65112700000000
 21
266.6661720000000
 31
0.000000000000000
  0
LINE
  5
62
100
AcDbEntity
  8
2
  6
CONTINUOUS
 62
4
100
AcDbLine
 10
74.48612699999998
 20
203.5836720000000
 30
0.000000000000000
 11
74.48612699999998
 21
266.6661720000000
 31
0.000000000000000
  0
LINE
  5
63
100
AcDbEntity
  8
1
  6
CONTINUOUS
 62
7
100
AcDbLine
 10
59.56862700000000
 20
200.0836720000000
 30
0.000000000000000
 11
59.56862700000000
 21
265.5836719999999
 31
0.000000000000000
  0
LINE
  5
64
100
AcDbEntity
  8
1
  6
CONTINUOUS
 62
7
100
AcDbLine
 10
75.56862700000001
 20
200.0836720000000
 30
0.000000000000000
 11
75.56862700000001
 21
265.5836719999999
 31
0.000000000000000
  0
LINE
  5
65
100
AcDbEntity
  8
1
  6
CONTINUOUS
 62
7
100
AcDbLine
 10
59.56862700000000
 20
203.5836720000000
 30
0.000000000000000
 11
75.56862700000001
 21
203.5836720000000
 31
0.000000000000000
  0
LINE
  5
66
100
AcDbEntity
  8
2
  6
CONTINUOUS
 62
4
100
AcDbLine
 10
60.65112699999999
 20
203.5836720000000
 30
0.000000000000000
 11
59.56862699999998
 21
201.7087270000000
 31
0.000000000000000
  0
LINE
  5
67
100
AcDbEntity
  8
2
  6
CONTINUOUS
 62
4
100
AcDbLine
 10
74.48612700000000
 20
203.5836720000000
 30
0.000000000000000
 11
75.56862699999999
 21
201.7087270000000
 31
0.000000000000000
  0
LINE
  5
68
100
AcDbEntity
  8
1
  6
CONTINUOUS
 62
7
100
AcDbLine
 10
59.56862700000000
 20
265.5836719999999
 30
0.000000000000000
 11
75.56862700000001
 21
265.5836719999999
 31
0.000000000000000
  0
LINE
  5
69
100
AcDbEntity
  8
1
  6
CONTINUOUS
 62
7
100
AcDbLine
 10
61.56862700000000
 20
267.5836719999999
 30
0.000000000000000
 11
73.56862700000001
 21
267.5836719999999
 31
0.000000000000000
  0
LINE
  5
6A
100
AcDbEntity
  8
1
  6
CONTINUOUS
 62
7
100
AcDbLine
 10
59.56862699999998
 20
265.5836719999999
 30
0.000000000000000
 11
61.56862699999998
 21
267.5836719999999
 31
0.000000000000000
  0
LINE
  5
6B
100
AcDbEntity
  8
1
  6
CONTINUOUS
 62
7
100
AcDbLine
 10
73.56862699999999
 20
267.5836719999999
 30
0.000000000000000
 11
75.56862700000001
 21
265.5836719999999
 31
0.000000000000000
  0
ARC
  5
6C
100
AcDbEntity
  8
1
  6
CONTINUOUS
 62
7
100
AcDbCircle
 10
78.06862700000001
 20
200.0836720000000
 30
0.000000000000000
 40
2.500000000000000
100
AcDbArc
 50
180.0000000000000
 51
270.0000000000000
  0
ARC
  5
6D
100
AcDbEntity
  8
1
  6
CONTINUOUS
 62
7
100
AcDbCircle
 10
57.06862700000000
 20
200.0836720000000
 30
0.000000000000000
 40
2.500000000000000
100
AcDbArc
 50
270.0000000000000
 51
360.0000000000000
  0
CIRCLE
  5
6E
100
AcDbEntity
  8
1
  6
CONTINUOUS
 62
7
100
AcDbCircle
 10
67.56862700000001
 20
89.20254799999998
 30
0.000000000000000
 40
5.900000000000000
  0
ARC
  5
6F
100
AcDbEntity
  8
1
  6
CONTINUOUS
 62
7
100
AcDbCircle
 10
67.56862700000001
 20
89.20254799999998
 30
0.000000000000000
 40
2.500000000000000
100
AcDbArc
 50
305.3279999999999
 51
324.6720000000000
  0
ARC
  5
70
100
AcDbEntity
  8
1
  6
CONTINUOUS
 62
7
100
AcDbCircle
 10
67.56862700000001
 20
89.20254799999998
 30
0.000000000000000
 40
2.500000000000000
100
AcDbArc
 50
215.3280000000000
 51
234.6719999999999
  0
ARC
  5
71
100
AcDbEntity
  8
1
  6
CONTINUOUS
 62
7
100
AcDbCircle
 10
67.56862700000001
 20
89.20254799999998
 30
0.000000000000000
 40
2.500000000000000
100
AcDbArc
 50
125.3284000000000
 51
144.6716000000000
  0
ARC
  5
72
100
AcDbEntity
  8
1
  6
CONTINUOUS
 62
7
100
AcDbCircle
 10
67.56862700000001
 20
89.20254799999998
 30
0.000000000000000
 40
2.500000000000000
100
AcDbArc
 50
35.32800000000001
 51
54.67156000000000
  0
LINE
  5
73
100
AcDbEntity
  8
1
  6
CONTINUOUS
 62
7
100
AcDbLine
 10
67.56933399999998
 20
88.17229300000001
 30
0.000000000000000
 11
68.21209399999998
 21
87.93824099999999
 31
0.000000000000000
  0
LINE
  5
74
100
AcDbEntity
  8
1
  6
CONTINUOUS
 62
7
100
AcDbLine
 10
68.21209400000001
 20
87.93824100000000
 30
0.000000000000000
 11
69.01465999999999
 21
87.16254499999998
 31
0.000000000000000
  0
LINE
  5
75
100
AcDbEntity
  8
1
  6
CONTINUOUS
 62
7
100
AcDbLine
 10
68.59958899999999
 20
89.20254799999998
 30
0.000000000000000
 11
68.83364100000000
 21
88.55978800000000
 31
0.000000000000000
  0
LINE
  5
76
100
AcDbEntity
  8
1
  6
CONTINUOUS
 62
7
100
AcDbLine
 10
68.83364100000000
 20
88.55978800000000
 30
0.000000000000000
 11
69.60863000000001
 21
87.75651499999998
 31
0.000000000000000
  0
LINE
  5
77
100
AcDbEntity
  8
1
  6
CONTINUOUS
 62
7
100
AcDbLine
 10
66.53837200000000
 20
89.20325500000000
 30
0.000000000000000
 11
66.30431999999998
 21
88.55908100000001
 31
0.000000000000000
  0
LINE
  5
78
100
AcDbEntity
  8
1
  6
CONTINUOUS
 62
7
100
AcDbLine
 10
66.30431999999996
 20
88.55908099999998
 30
0.000000000000000
 11
65.52933099999998
 21
87.75722199999997
 31
0.000000000000000
  0
LINE
  5
79
100
AcDbEntity
  8
1
  6
CONTINUOUS
 62
7
100
AcDbLine
 10
67.56933400000003
 20
88.17229300000004
 30
0.000000000000000
 11
66.92586700000001
 21
87.93753400000000
 31
0.000000000000000
  0
LINE
  5
7A
100
AcDbEntity
  8
1
  6
CONTINUOUS
 62
7
100
AcDbLine
 10
66.92586700000003
 20
87.93753400000000
 30
0.000000000000000
 11
66.12330100000001
 21
87.16325200000000
 31
0.000000000000000
  0
LINE
  5
7B
100
AcDbEntity
  8
1
  6
CONTINUOUS
 62
7
100
AcDbLine
 10
67.56862700000002
 20
90.23351000000000
 30
0.000000000000000
 11
66.92586700000001
 21
90.46756200000000
 31
0.000000000000000
  0
LINE
  5
7C
100
AcDbEntity
  8
1
  6
CONTINUOUS
 62
7
100
AcDbLine
 10
66.92586700000003
 20
90.46756200000002
 30
0.000000000000000
 11
66.12330100000000
 21
91.24184400000001
 31
0.000000000000000
  0
LINE
  5
7D
100
AcDbEntity
  8
1
  6
CONTINUOUS
 62
7
100
AcDbLine
 10
66.53837200000001
 20
89.20325500000001
 30
0.000000000000000
 11
66.30431999999999
 21
89.84601500000004
 31
0.000000000000000
  0
LINE
  5
7E
100
AcDbEntity
  8
1
  6
CONTINUOUS
 62
7
100
AcDbLine
 10
66.30431999999998
 20
89.84601500000001
 30
0.000000000000000
 11
65.52933099999998
 21
90.64787400000000
 31
0.000000000000000
  0
LINE
  5
7F
100
AcDbEntity
  8
1
  6
CONTINUOUS
 62
7
100
AcDbLine
 10
67.56862700000002
 20
90.23351000000000
 30
0.000000000000000
 11
68.21280100000001
 21
90.46756200000002
 31
0.000000000000000
  0
LINE
  5
80
100
AcDbEntity
  8
1
  6
CONTINUOUS
 62
7
100
AcDbLine
 10
68.21280100000001
 20
90.46756200000002
 30
0.000000000000000
 11
69.01466000000001
 21
91.24255100000002
 31
0.000000000000000
  0
LINE
  5
81
100
AcDbEntity
  8
1
  6
CONTINUOUS
 62
7
100
AcDbLine
 10
68.83434800000001
 20
89.84601500000001
 30
0.000000000000000
 11
69.60863000000001
 21
90.64858099999999
 31
0.000000000000000
  0
LINE
  5
82
100
AcDbEntity
  8
1
  6
CONTINUOUS
 62
7
100
AcDbLine
 10
68.59958899999998
 20
89.20254799999996
 30
0.000000000000000
 11
68.83434799999998
 21
89.84601499999999
 31
0.000000000000000
  0
LINE
  5
83
100
AcDbEntity
  8
1
  6
CONTINUOUS
 62
7
100
AcDbLine
 10
46.07723000000000
 20
157.5836720000000
 30
0.000000000000000
 11
89.06002400000000
 21
157.5836720000000
 31
0.000000000000000
  0
LINE
  5
84
100
AcDbEntity
  8
1
  6
CONTINUOUS
 62
7
100
AcDbLine
 10
91.99719800000000
 20
162.5836720000000
 30
0.000000000000000
 11
90.98307199999996
 21
159.0342300000000
 31
0.000000000000000
  0
LINE
  5
85
100
AcDbEntity
  8
1
  6
CONTINUOUS
 62
7
100
AcDbLine
 10
43.14005599999999
 20
162.5836720000000
 30
0.000000000000000
 11
44.15418199999998
 21
159.0342300000000
 31
0.000000000000000
  0
ARC
  5
86
100
AcDbEntity
  8
1
  6
CONTINUOUS
 62
7
100
AcDbCircle
 10
89.06002400000000
 20
159.5836720000000
 30
0.000000000000000
 40
2.000000000000000
100
AcDbArc
 50
270.0000000000000
 51
344.0546040000000
  0
ARC
  5
87
100
AcDbEntity
  8
1
  6
CONTINUOUS
 62
7
100
AcDbCircle
 10
46.07723000000000
 20
159.5836720000000
 30
0.000000000000000
 40
2.000000000000000
100
AcDbArc
 50
195.9453959999999
 51
270.0000000000000
  0
CIRCLE
  5
88
100
AcDbEntity
  8
1
  6
CONTINUOUS
 62
7
100
AcDbCircle
 10
67.56862700000001
 20
350.4401670000000
 30
0.000000000000000
 40
6.000000000000000
  0
LINE
  5
89
100
AcDbEntity
  8
4
  6
CENTER
 62
1
100
AcDbLine
 10
67.56862700000001
 20
279.2075270000000
 30
0.000000000000000
 11
67.56862700000001
 21
149.5836719999998
 31
0.000000000000000
  0
LINE
  5
8A
100
AcDbEntity
  8
4
  6
CENTER
 62
1
100
AcDbLine
 10
67.56862700000001
 20
127.2025479999998
 30
0.000000000000000
 11
67.56862700000001
 21
51.20254800000000
 31
0.000000000000000
  0
LINE
  5
8B
100
AcDbEntity
  8
4
  6
CENTER
 62
1
100
AcDbLine
 10
29.56862700000000
 20
89.20254799999998
 30
0.000000000000000
 11
105.5686270000000
 21
89.20254799999998
 31
0.000000000000000
  0
CIRCLE
  5
8C
100
AcDbEntity
  8
1
  6
CONTINUOUS
 62
7
100
AcDbCircle
 10
67.56862700000001
 20
89.20254799999998
 30
0.000000000000000
 40
7.000000000000000
  0
CIRCLE
  5
8D
100
AcDbEntity
  8
1
  6
CONTINUOUS
 62
7
100
AcDbCircle
 10
67.56862700000001
 20
89.20254799999998
 30
0.000000000000000
 40
23.00000000000000
  0
CIRCLE
  5
8E
100
AcDbEntity
  8
1
  6
CONTINUOUS
 62
7
100
AcDbCircle
 10
67.56862700000001
 20
89.20254799999998
 30
0.000000000000000
 40
25.00000000000000
  0
CIRCLE
  5
8F
100
AcDbEntity
  8
1
  6
CONTINUOUS
 62
7
100
AcDbCircle
 10
67.56862700000001
 20
89.20254799999998
 30
0.000000000000000
 40
26.00000000000000
  0
LINE
  5
90
100
AcDbEntity
  8
1
  6
CONTINUOUS
 62
7
100
AcDbLine
 10
222.2401960000000
 20
187.5836720000000
 30
0.000000000000000
 11
249.9401959999999
 21
187.5836720000000
 31
0.000000000000000
  0
LINE
  5
91
100
AcDbEntity
  8
1
  6
CONTINUOUS
 62
7
100
AcDbLine
 10
224.0901959999999
 20
197.5836720000000
 30
0.000000000000000
 11
248.0901960000000
 21
197.5836720000000
 31
0.000000000000000
  0
LINE
  5
92
100
AcDbEntity
  8
1
  6
CONTINUOUS
 62
7
100
AcDbLine
 10
224.0901959999999
 20
197.5836720000000
 30
0.000000000000000
 11
224.0901959999999
 21
187.5836720000000
 31
0.000000000000000
  0
LINE
  5
93
100
AcDbEntity
  8
1
  6
CONTINUOUS
 62
7
100
AcDbLine
 10
248.0901960000000
 20
197.5836720000000
 30
0.000000000000000
 11
248.0901960000000
 21
187.5836720000000
 31
0.000000000000000
  0
LINE
  5
94
100
AcDbEntity
  8
1
  6
CONTINUOUS
 62
7
100
AcDbLine
 10
236.0901960000000
 20
197.5836720000000
 30
0.000000000000000
 11
236.0901960000000
 21
187.5836720000000
 31
0.000000000000000
  0
LINE
  5
95
100
AcDbEntity
  8
1
  6
CONTINUOUS
 62
7
100
AcDbLine
 10
63.95863099999999
 20
194.1078550000000
 30
0.000000000000000
 11
63.95863099999999
 21
191.7124689999999
 31
0.000000000000000
  0
LINE
  5
96
100
AcDbEntity
  8
1
  6
CONTINUOUS
 62
7
100
AcDbLine
 10
64.51349499999999
 20
191.5590919999999
 30
0.000000000000000
 11
64.51349499999999
 21
193.6082520000000
 31
0.000000000000000
  0
LINE
  5
97
100
AcDbEntity
  8
1
  6
CONTINUOUS
 62
7
100
AcDbLine
 10
65.06948600000000
 20
193.9544780000000
 30
0.000000000000000
 11
65.06948600000000
 21
191.2139939999999
 31
0.000000000000000
  0
LINE
  5
98
100
AcDbEntity
  8
1
  6
CONTINUOUS
 62
7
100
AcDbLine
 10
66.18034100000000
 20
193.2507490000000
 30
0.000000000000000
 11
66.18034100000000
 21
194.3108540000000
 31
0.000000000000000
  0
LINE
  5
99
100
AcDbEntity
  8
1
  6
CONTINUOUS
 62
7
100
AcDbLine
 10
67.29119500000000
 20
192.5842360000000
 30
0.000000000000000
 11
66.73633199999999
 21
192.5842360000000
 31
0.000000000000000
  0
ARC
  5
9A
100
AcDbEntity
  8
1
  6
CONTINUOUS
 62
7
100
AcDbCircle
 10
64.23606300000000
 20
192.5842360000000
 30
0.000000000000000
 40
1.431648999999999
100
AcDbArc
 50
125.5376999999999
 51
166.5373999999999
  0
ARC
  5
9B
100
AcDbEntity
  8
1
  6
CONTINUOUS
 62
7
100
AcDbCircle
 10
64.23606300000000
 20
192.5842360000000
 30
0.000000000000000
 40
1.431648999999999
100
AcDbArc
 50
180.0000000000000
 51
234.4619999999999
  0
ARC
  5
9C
100
AcDbEntity
  8
1
  6
CONTINUOUS
 62
7
100
AcDbCircle
 10
64.79205400000001
 20
193.6082520000000
 30
0.000000000000000
 40
0.2778260000000000
100
AcDbArc
 50
116.0144000000000
 51
180.0000000000000
  0
ARC
  5
9D
100
AcDbEntity
  8
1
  6
CONTINUOUS
 62
7
100
AcDbCircle
 10
67.56862700000001
 20
187.9175180000000
 30
0.000000000000000
 40
6.610656999999998
100
AcDbArc
 50
112.9439999999999
 51
116.0144000000000
  0
ARC
  5
9E
100
AcDbEntity
  8
1
  6
CONTINUOUS
 62
7
100
AcDbCircle
 10
65.01422500000000
 20
193.9544780000000
 30
0.000000000000000
 40
0.05556500000000000
100
AcDbArc
 50
0.000000000000000
 51
112.9439999999999
  0
ARC
  5
9F
100
AcDbEntity
  8
1
  6
CONTINUOUS
 62
7
100
AcDbCircle
 10
64.79205400000001
 20
191.5590919999999
 30
0.000000000000000
 40
0.2778260000000000
100
AcDbArc
 50
180.0000000000000
 51
243.9859999999999
  0
ARC
  5
A0
100
AcDbEntity
  8
1
  6
CONTINUOUS
 62
7
100
AcDbCircle
 10
66.12508000000001
 20
194.3108540000000
 30
0.000000000000000
 40
0.05556500000000000
100
AcDbArc
 50
0.000000000000000
 51
102.7288999999999
  0
ARC
  5
A1
100
AcDbEntity
  8
1
  6
CONTINUOUS
 62
7
100
AcDbCircle
 10
67.56862700000001
 20
187.9175180000000
 30
0.000000000000000
 40
6.610656999999998
100
AcDbArc
 50
102.7288999999999
 51
103.2680999999999
  0
ARC
  5
A2
100
AcDbEntity
  8
1
  6
CONTINUOUS
 62
7
100
AcDbCircle
 10
67.56862700000001
 20
187.9175180000000
 30
0.000000000000000
 40
6.610656999999998
100
AcDbArc
 50
103.2680999999999
 51
105.2575000000000
  0
ARC
  5
A3
100
AcDbEntity
  8
1
  6
CONTINUOUS
 62
7
100
AcDbCircle
 10
65.90290899999999
 20
194.0266550000000
 30
0.000000000000000
 40
0.2778260000000000
100
AcDbArc
 50
105.2575000000000
 51
180.0000000000000
  0
ARC
  5
A4
100
AcDbEntity
  8
1
  6
CONTINUOUS
 62
7
100
AcDbCircle
 10
65.90290899999999
 20
191.1406889999999
 30
0.000000000000000
 40
0.2778260000000000
100
AcDbArc
 50
180.0000000000000
 51
254.7419999999999
  0
ARC
  5
A5
100
AcDbEntity
  8
1
  6
CONTINUOUS
 62
7
100
AcDbCircle
 10
67.56862700000001
 20
197.2498249999999
 30
0.000000000000000
 40
6.610656999999998
100
AcDbArc
 50
254.7419999999999
 51
254.7940000000000
  0
ARC
  5
A6
100
AcDbEntity
  8
1
  6
CONTINUOUS
 62
7
100
AcDbCircle
 10
67.56862700000001
 20
197.2498249999999
 30
0.000000000000000
 40
6.610656999999998
100
AcDbArc
 50
254.7940000000000
 51
257.2709999999998
  0
ARC
  5
A7
100
AcDbEntity
  8
1
  6
CONTINUOUS
 62
7
100
AcDbCircle
 10
66.12508000000001
 20
190.8564899999998
 30
0.000000000000000
 40
0.05556500000000000
100
AcDbArc
 50
257.2709999999998
 51
360.0000000000000
  0
LINE
  5
A8
100
AcDbEntity
  8
1
  6
CONTINUOUS
 62
7
100
AcDbLine
 10
65.62434900000000
 20
194.0266550000000
 30
0.000000000000000
 11
65.62434900000000
 21
191.1406889999999
 31
0.000000000000000
  0
LINE
  5
A9
100
AcDbEntity
  8
1
  6
CONTINUOUS
 62
7
100
AcDbLine
 10
66.18034100000000
 20
190.8564899999998
 30
0.000000000000000
 11
66.18034100000000
 21
191.9177230000000
 31
0.000000000000000
  0
LINE
  5
AA
100
AcDbEntity
  8
1
  6
CONTINUOUS
 62
7
100
AcDbLine
 10
66.73633199999999
 20
194.4755080000000
 30
0.000000000000000
 11
66.73633199999999
 21
190.6918360000000
 31
0.000000000000000
  0
LINE
  5
AB
100
AcDbEntity
  8
1
  6
CONTINUOUS
 62
7
100
AcDbLine
 10
67.29119500000000
 20
194.5217470000000
 30
0.000000000000000
 11
67.29119500000000
 21
190.6455970000000
 31
0.000000000000000
  0
ARC
  5
AC
100
AcDbEntity
  8
1
  6
CONTINUOUS
 62
7
100
AcDbCircle
 10
65.01422500000000
 20
191.2139939999999
 30
0.000000000000000
 40
0.05556500000000000
100
AcDbArc
 50
247.0559999999999
 51
360.0000000000000
  0
ARC
  5
AD
100
AcDbEntity
  8
1
  6
CONTINUOUS
 62
7
100
AcDbCircle
 10
67.56862700000001
 20
197.2498249999999
 30
0.000000000000000
 40
6.610656999999998
100
AcDbArc
 50
243.9859999999999
 51
247.0559999999999
  0
ARC
  5
AE
100
AcDbEntity
  8
1
  6
CONTINUOUS
 62
7
100
AcDbCircle
 10
67.56862700000001
 20
187.9175180000000
 30
0.000000000000000
 40
6.610656999999998
100
AcDbArc
 50
79.89600000000000
 51
82.20700000000001
  0
ARC
  5
AF
100
AcDbEntity
  8
1
  6
CONTINUOUS
 62
7
100
AcDbCircle
 10
67.56862700000001
 20
197.2498249999999
 30
0.000000000000000
 40
6.610656999999998
100
AcDbArc
 50
277.7930000000001
 51
280.1040000000000
  0
ARC
  5
B0
100
AcDbEntity
  8
1
  6
CONTINUOUS
 62
7
100
AcDbCircle
 10
68.45843800000000
 20
194.4123529999999
 30
0.000000000000000
 40
0.05556500000000000
100
AcDbArc
 50
82.20700000000001
 51
180.0000000000000
  0
ARC
  5
B1
100
AcDbEntity
  8
1
  6
CONTINUOUS
 62
7
100
AcDbCircle
 10
68.45843800000000
 20
190.7549910000000
 30
0.000000000000000
 40
0.05556500000000000
100
AcDbArc
 50
180.0000000000000
 51
277.7930000000001
  0
LINE
  5
B2
100
AcDbEntity
  8
1
  6
CONTINUOUS
 62
7
100
AcDbLine
 10
67.84718599999999
 20
194.5217470000000
 30
0.000000000000000
 11
67.84718599999999
 21
190.6455970000000
 31
0.000000000000000
  0
LINE
  5
B3
100
AcDbEntity
  8
1
  6
CONTINUOUS
 62
7
100
AcDbLine
 10
68.40205000000000
 20
194.4123529999999
 30
0.000000000000000
 11
68.40205000000000
 21
190.7549910000000
 31
0.000000000000000
  0
LINE
  5
B4
100
AcDbEntity
  8
1
  6
CONTINUOUS
 62
7
100
AcDbLine
 10
68.95804100000001
 20
193.2507490000000
 30
0.000000000000000
 11
68.95804100000001
 21
194.1518379999999
 31
0.000000000000000
  0
LINE
  5
B5
100
AcDbEntity
  8
1
  6
CONTINUOUS
 62
7
100
AcDbLine
 10
68.95804100000001
 20
192.5842360000000
 30
0.000000000000000
 11
68.68060899999999
 21
192.5842360000000
 31
0.000000000000000
  0
LINE
  5
B6
100
AcDbEntity
  8
1
  6
CONTINUOUS
 62
7
100
AcDbLine
 10
70.06889600000000
 20
194.1484539999999
 30
0.000000000000000
 11
70.06889600000000
 21
192.8616669999999
 31
0.000000000000000
  0
LINE
  5
B7
100
AcDbEntity
  8
1
  6
CONTINUOUS
 62
7
100
AcDbLine
 10
70.62488700000000
 20
192.8616669999999
 30
0.000000000000000
 11
70.62488700000000
 21
194.0480830000000
 31
0.000000000000000
  0
LINE
  5
B8
100
AcDbEntity
  8
1
  6
CONTINUOUS
 62
7
100
AcDbLine
 10
70.34632800000000
 20
192.5842360000000
 30
0.000000000000000
 11
70.34632800000000
 21
191.2512099999999
 31
0.000000000000000
  0
LINE
  5
B9
100
AcDbEntity
  8
1
  6
CONTINUOUS
 62
7
100
AcDbLine
 10
70.90683000000000
 20
191.5444309999998
 30
0.000000000000000
 11
71.53499799999999
 21
193.8856839999999
 31
0.000000000000000
  0
LINE
  5
BA
100
AcDbEntity
  8
1
  6
CONTINUOUS
 62
7
100
AcDbLine
 10
72.33346100000000
 20
192.5842360000000
 30
0.000000000000000
 11
71.18538900000000
 21
192.5842360000000
 31
0.000000000000000
  0
ARC
  5
BB
100
AcDbEntity
  8
1
  6
CONTINUOUS
 62
7
100
AcDbCircle
 10
70.34632800000000
 20
192.8616669999999
 30
0.000000000000000
 40
0.2778260000000000
100
AcDbArc
 50
180.0000000000000
 51
360.0000000000000
  0
ARC
  5
BC
100
AcDbEntity
  8
1
  6
CONTINUOUS
 62
7
100
AcDbCircle
 10
70.90231899999998
 20
192.5842360000000
 30
0.000000000000000
 40
1.431648999999999
100
AcDbArc
 50
332.2500000000000
 51
414.4620000000000
  0
ARC
  5
BD
100
AcDbEntity
  8
1
  6
CONTINUOUS
 62
7
100
AcDbCircle
 10
70.90231899999998
 20
192.5842360000000
 30
0.000000000000000
 40
1.431648999999999
100
AcDbArc
 50
305.5379999999999
 51
315.6990000000000
  0
ARC
  5
BE
100
AcDbEntity
  8
1
  6
CONTINUOUS
 62
7
100
AcDbCircle
 10
68.68060899999999
 20
194.1518379999999
 30
0.000000000000000
 40
0.2778260000000000
100
AcDbArc
 50
0.000000000000000
 51
79.89600000000000
  0
ARC
  5
BF
100
AcDbEntity
  8
1
  6
CONTINUOUS
 62
7
100
AcDbCircle
 10
68.68060899999999
 20
191.0155059999999
 30
0.000000000000000
 40
0.2778260000000000
100
AcDbArc
 50
280.1040000000000
 51
360.0000000000000
  0
LINE
  5
C0
100
AcDbEntity
  8
1
  6
CONTINUOUS
 62
7
100
AcDbLine
 10
68.95804100000001
 20
191.0155059999999
 30
0.000000000000000
 11
68.95804100000001
 21
192.5842360000000
 31
0.000000000000000
  0
LINE
  5
C1
100
AcDbEntity
  8
1
  6
CONTINUOUS
 62
7
100
AcDbLine
 10
69.51290500000000
 20
194.4100970000000
 30
0.000000000000000
 11
69.51290500000000
 21
190.9320510000000
 31
0.000000000000000
  0
ARC
  5
C2
100
AcDbEntity
  8
1
  6
CONTINUOUS
 62
7
100
AcDbCircle
 10
67.56862700000001
 20
197.2498249999999
 30
0.000000000000000
 40
7.166163000000000
100
AcDbArc
 50
234.4619999999999
 51
305.5379999999999
  0
ARC
  5
C3
100
AcDbEntity
  8
1
  6
CONTINUOUS
 62
7
100
AcDbCircle
 10
67.56862700000001
 20
187.9175180000000
 30
0.000000000000000
 40
7.166163000000000
100
AcDbArc
 50
54.46200000000001
 51
125.5376999999999
  0
ARC
  5
C4
100
AcDbEntity
  8
1
  6
CONTINUOUS
 62
7
100
AcDbCircle
 10
57.73350300000000
 20
313.7349860000000
 30
0.000000000000000
 40
10.00000000000000
100
AcDbArc
 50
42.92658800000000
 51
107.0734120000000
  0
ARC
  5
C5
100
AcDbEntity
  8
1
  6
CONTINUOUS
 62
7
100
AcDbCircle
 10
40.69856900000000
 20
323.5701090000000
 30
0.000000000000000
 40
10.00000000000000
100
AcDbArc
 50
12.92658800000000
 51
77.07341200000000
  0
ARC
  5
C6
100
AcDbEntity
  8
1
  6
CONTINUOUS
 62
7
100
AcDbCircle
 10
30.86344600000000
 20
340.6050430000000
 30
0.000000000000000
 40
10.00000000000000
100
AcDbArc
 50
342.9265879999999
 51
407.0734120000000
  0
ARC
  5
C7
100
AcDbEntity
  8
1
  6
CONTINUOUS
 62
7
100
AcDbCircle
 10
104.2738080000000
 20
340.6050430000000
 30
0.000000000000000
 40
10.00000000000000
100
AcDbArc
 50
132.9265880000000
 51
197.0734119999999
  0
ARC
  5
C8
100
AcDbEntity
  8
1
  6
CONTINUOUS
 62
7
100
AcDbCircle
 10
94.43868499999996
 20
323.5701090000000
 30
0.000000000000000
 40
10.00000000000000
100
AcDbArc
 50
102.9265880000000
 51
167.0734119999999
  0
ARC
  5
C9
100
AcDbEntity
  8
1
  6
CONTINUOUS
 62
7
100
AcDbCircle
 10
77.40375100000000
 20
313.7349860000000
 30
0.000000000000000
 40
10.00000000000000
100
AcDbArc
 50
72.92658799999997
 51
137.0734119999999
  0
ARC
  5
CA
100
AcDbEntity
  8
1
  6
CONTINUOUS
 62
7
100
AcDbCircle
 10
57.73350300000000
 20
387.1453490000000
 30
0.000000000000000
 40
10.00000000000000
100
AcDbArc
 50
252.9265880000000
 51
317.0734120000000
  0
ARC
  5
CB
100
AcDbEntity
  8
1
  6
CONTINUOUS
 62
7
100
AcDbCircle
 10
40.69856900000000
 20
377.3102249999998
 30
0.000000000000000
 40
10.00000000000000
100
AcDbArc
 50
282.9265879999999
 51
347.0734120000001
  0
ARC
  5
CC
100
AcDbEntity
  8
1
  6
CONTINUOUS
 62
7
100
AcDbCircle
 10
30.86344600000000
 20
360.2752909999999
 30
0.000000000000000
 40
10.00000000000000
100
AcDbArc
 50
312.9265879999999
 51
377.0734120000000
  0
ARC
  5
CD
100
AcDbEntity
  8
1
  6
CONTINUOUS
 62
7
100
AcDbCircle
 10
104.2738080000000
 20
360.2752909999999
 30
0.000000000000000
 40
10.00000000000000
100
AcDbArc
 50
162.9265879999999
 51
227.0734119999999
  0
ARC
  5
CE
100
AcDbEntity
  8
1
  6
CONTINUOUS
 62
7
100
AcDbCircle
 10
94.43868499999996
 20
377.3102249999998
 30
0.000000000000000
 40
10.00000000000000
100
AcDbArc
 50
192.9265879999999
 51
257.0734120000000
  0
ARC
  5
CF
100
AcDbEntity
  8
1
  6
CONTINUOUS
 62
7
100
AcDbCircle
 10
77.40375100000000
 20
387.1453490000000
 30
0.000000000000000
 40
10.00000000000000
100
AcDbArc
 50
222.9265880000000
 51
287.0734120000000
  0
LINE
  5
D0
100
AcDbEntity
  8
4
  6
CENTER
 62
1
100
AcDbLine
 10
236.0901960000000
 20
279.2075270000000
 30
0.000000000000000
 11
236.0901960000000
 21
149.5836719999998
 31
0.000000000000000
  0
LINE
  5
D1
100
AcDbEntity
  8
1
  6
CONTINUOUS
 62
7
100
AcDbLine
 10
222.2401960000000
 20
187.5836720000000
 30
0.000000000000000
 11
206.0901959999999
 21
168.5836720000000
 31
0.000000000000000
  0
LINE
  5
D2
100
AcDbEntity
  8
1
  6
CONTINUOUS
 62
7
100
AcDbLine
 10
249.9401959999999
 20
187.5836720000000
 30
0.000000000000000
 11
266.0901959999999
 21
168.5836720000000
 31
0.000000000000000
  0
LINE
  5
D3
100
AcDbEntity
  8
1
  6
CONTINUOUS
 62
7
100
AcDbLine
 10
214.5987990000000
 20
157.5836720000000
 30
0.000000000000000
 11
257.5815930000000
 21
157.5836720000000
 31
0.000000000000000
  0
LINE
  5
D4
100
AcDbEntity
  8
1
  6
CONTINUOUS
 62
7
100
AcDbLine
 10
206.0901959999999
 20
162.5836720000000
 30
0.000000000000000
 11
266.0901959999999
 21
162.5836720000000
 31
0.000000000000000
  0
ARC
  5
D5
100
AcDbEntity
  8
1
  6
CONTINUOUS
 62
7
100
AcDbCircle
 10
214.5987990000000
 20
159.5836720000000
 30
0.000000000000000
 40
2.000000000000000
100
AcDbArc
 50
195.9453959999999
 51
270.0000000000000
  0
LINE
  5
D6
100
AcDbEntity
  8
1
  6
CONTINUOUS
 62
7
100
AcDbLine
 10
211.6616239999999
 20
162.5836720000000
 30
0.000000000000000
 11
212.6757510000000
 21
159.0342300000000
 31
0.000000000000000
  0
LINE
  5
D7
100
AcDbEntity
  8
1
  6
CONTINUOUS
 62
7
100
AcDbLine
 10
206.0901959999999
 20
168.5836720000000
 30
0.000000000000000
 11
206.0901959999999
 21
162.5836720000000
 31
0.000000000000000
  0
ARC
  5
D8
100
AcDbEntity
  8
1
  6
CONTINUOUS
 62
7
100
AcDbCircle
 10
257.5815930000000
 20
159.5836720000000
 30
0.000000000000000
 40
2.000000000000000
100
AcDbArc
 50
270.0000000000000
 51
344.0546040000000
  0
LINE
  5
D9
100
AcDbEntity
  8
1
  6
CONTINUOUS
 62
7
100
AcDbLine
 10
260.5187669999997
 20
162.5836720000000
 30
0.000000000000000
 11
259.5046409999999
 21
159.0342300000000
 31
0.000000000000000
  0
LINE
  5
DA
100
AcDbEntity
  8
1
  6
CONTINUOUS
 62
7
100
AcDbLine
 10
266.0901959999999
 20
168.5836720000000
 30
0.000000000000000
 11
266.0901959999999
 21
162.5836720000000
 31
0.000000000000000
  0
LINE
  5
DB
100
AcDbEntity
  8
1
  6
CONTINUOUS
 62
7
100
AcDbLine
 10
244.0901960000000
 20
200.0836720000000
 30
0.000000000000000
 11
244.0901960000000
 21
265.5836719999999
 31
0.000000000000000
  0
LINE
  5
DC
100
AcDbEntity
  8
1
  6
CONTINUOUS
 62
7
100
AcDbLine
 10
228.0901960000000
 20
200.0836720000000
 30
0.000000000000000
 11
228.0901960000000
 21
265.5836719999999
 31
0.000000000000000
  0
LINE
  5
DD
100
AcDbEntity
  8
2
  6
CONTINUOUS
 62
4
100
AcDbLine
 10
243.0076960000000
 20
203.5836720000000
 30
0.000000000000000
 11
243.0076960000000
 21
266.6661720000000
 31
0.000000000000000
  0
LINE
  5
DE
100
AcDbEntity
  8
2
  6
CONTINUOUS
 62
4
100
AcDbLine
 10
229.1726960000000
 20
203.5836720000000
 30
0.000000000000000
 11
229.1726960000000
 21
266.6661720000000
 31
0.000000000000000
  0
LINE
  5
DF
100
AcDbEntity
  8
1
  6
CONTINUOUS
 62
7
100
AcDbLine
 10
228.0901960000000
 20
203.5836720000000
 30
0.000000000000000
 11
244.0901960000000
 21
203.5836720000000
 31
0.000000000000000
  0
ARC
  5
E0
100
AcDbEntity
  8
1
  6
CONTINUOUS
 62
7
100
AcDbCircle
 10
225.5901960000000
 20
200.0836720000000
 30
0.000000000000000
 40
2.500000000000000
100
AcDbArc
 50
270.0000000000000
 51
360.0000000000000
  0
LINE
  5
E1
100
AcDbEntity
  8
2
  6
CONTINUOUS
 62
4
100
AcDbLine
 10
229.1726960000001
 20
203.5836720000001
 30
0.000000000000000
 11
228.0901960000000
 21
201.7087270000000
 31
0.000000000000000
  0
ARC
  5
E2
100
AcDbEntity
  8
1
  6
CONTINUOUS
 62
7
100
AcDbCircle
 10
246.5901960000000
 20
200.0836720000000
 30
0.000000000000000
 40
2.500000000000000
100
AcDbArc
 50
180.0000000000000
 51
270.0000000000000
  0
LINE
  5
E3
100
AcDbEntity
  8
2
  6
CONTINUOUS
 62
4
100
AcDbLine
 10
243.0076960000001
 20
203.5836720000000
 30
0.000000000000000
 11
244.0901960000000
 21
201.7087270000001
 31
0.000000000000000
  0
LINE
  5
E4
100
AcDbEntity
  8
1
  6
CONTINUOUS
 62
7
100
AcDbLine
 10
230.0901960000000
 20
267.5836719999999
 30
0.000000000000000
 11
242.0901960000000
 21
267.5836719999999
 31
0.000000000000000
  0
LINE
  5
E5
100
AcDbEntity
  8
1
  6
CONTINUOUS
 62
7
100
AcDbLine
 10
228.0901960000000
 20
265.5836719999999
 30
0.000000000000000
 11
244.0901960000000
 21
265.5836719999999
 31
0.000000000000000
  0
LINE
  5
E6
100
AcDbEntity
  8
1
  6
CONTINUOUS
 62
7
100
AcDbLine
 10
228.0901959999999
 20
265.5836719999999
 30
0.000000000000000
 11
230.0901959999999
 21
267.5836719999999
 31
0.000000000000000
  0
LINE
  5
E7
100
AcDbEntity
  8
1
  6
CONTINUOUS
 62
7
100
AcDbLine
 10
242.0901960000000
 20
267.5836719999999
 30
0.000000000000000
 11
244.0901960000000
 21
265.5836719999999
 31
0.000000000000000
  0
ARC
  5
E8
100
AcDbEntity
  8
1
  6
CONTINUOUS
 62
7
100
AcDbCircle
 10
67.56862700000001
 20
350.4401670000000
 30
0.000000000000000
 40
30.00000000000000
100
AcDbArc
 50
55.19517200000001
 51
64.80482800000000
  0
ARC
  5
E9
100
AcDbEntity
  8
1
  6
CONTINUOUS
 62
7
100
AcDbCircle
 10
67.56862700000001
 20
350.4401670000000
 30
0.000000000000000
 40
30.00000000000000
100
AcDbArc
 50
85.19517200000001
 51
94.80482800000000
  0
ARC
  5
EA
100
AcDbEntity
  8
1
  6
CONTINUOUS
 62
7
100
AcDbCircle
 10
67.56862700000001
 20
350.4401670000000
 30
0.000000000000000
 40
30.00000000000000
100
AcDbArc
 50
115.1951720000000
 51
124.8048280000000
  0
ARC
  5
EB
100
AcDbEntity
  8
1
  6
CONTINUOUS
 62
7
100
AcDbCircle
 10
67.56862700000001
 20
350.4401670000000
 30
0.000000000000000
 40
30.00000000000000
100
AcDbArc
 50
145.1951719999998
 51
154.8048279999999
  0
ARC
  5
EC
100
AcDbEntity
  8
1
  6
CONTINUOUS
 62
7
100
AcDbCircle
 10
67.56862700000001
 20
350.4401670000000
 30
0.000000000000000
 40
30.00000000000000
100
AcDbArc
 50
175.1951719999999
 51
184.8048280000000
  0
ARC
  5
ED
100
AcDbEntity
  8
1
  6
CONTINUOUS
 62
7
100
AcDbCircle
 10
67.56862700000001
 20
350.4401670000000
 30
0.000000000000000
 40
30.00000000000000
100
AcDbArc
 50
205.1951720000000
 51
214.8048280000000
  0
ARC
  5
EE
100
AcDbEntity
  8
1
  6
CONTINUOUS
 62
7
100
AcDbCircle
 10
67.56862700000001
 20
350.4401670000000
 30
0.000000000000000
 40
30.00000000000000
100
AcDbArc
 50
235.1951720000000
 51
244.8048280000000
  0
ARC
  5
EF
100
AcDbEntity
  8
1
  6
CONTINUOUS
 62
7
100
AcDbCircle
 10
67.56862700000001
 20
350.4401670000000
 30
0.000000000000000
 40
30.00000000000000
100
AcDbArc
 50
265.1951720000000
 51
274.8048279999998
  0
ARC
  5
F0
100
AcDbEntity
  8
1
  6
CONTINUOUS
 62
7
100
AcDbCircle
 10
67.56862700000001
 20
350.4401670000000
 30
0.000000000000000
 40
30.00000000000000
100
AcDbArc
 50
295.1951720000000
 51
304.8048279999998
  0
ARC
  5
F1
100
AcDbEntity
  8
1
  6
CONTINUOUS
 62
7
100
AcDbCircle
 10
67.56862700000001
 20
350.4401670000000
 30
0.000000000000000
 40
30.00000000000000
100
AcDbArc
 50
325.1951720000000
 51
334.8048279999998
  0
ARC
  5
F2
100
AcDbEntity
  8
1
  6
CONTINUOUS
 62
7
100
AcDbCircle
 10
67.56862700000001
 20
350.4401670000000
 30
0.000000000000000
 40
30.00000000000000
100
AcDbArc
 50
355.1951720000000
 51
364.8048280000000
  0
ARC
  5
F3
100
AcDbEntity
  8
1
  6
CONTINUOUS
 62
7
100
AcDbCircle
 10
67.56862700000001
 20
350.4401670000000
 30
0.000000000000000
 40
30.00000000000000
100
AcDbArc
 50
25.19517200000000
 51
34.80482799999999
  0
ARC
  5
F4
100
AcDbEntity
  8
1
  6
CONTINUOUS
 62
7
100
AcDbCircle
 10
94.43868499999996
 20
62.33249000000000
 30
0.000000000000000
 40
10.00000000000000
100
AcDbArc
 50
102.9265880000000
 51
167.0734119999999
  0
ARC
  5
F5
100
AcDbEntity
  8
1
  6
CONTINUOUS
 62
7
100
AcDbCircle
 10
77.40375100000000
 20
52.49736699999999
 30
0.000000000000000
 40
10.00000000000000
100
AcDbArc
 50
72.92658799999997
 51
137.0734119999999
  0
ARC
  5
F6
100
AcDbEntity
  8
1
  6
CONTINUOUS
 62
7
100
AcDbCircle
 10
67.56862700000001
 20
89.20254799999998
 30
0.000000000000000
 40
30.00000000000000
100
AcDbArc
 50
265.1951720000000
 51
274.8048279999998
  0
ARC
  5
F7
100
AcDbEntity
  8
1
  6
CONTINUOUS
 62
7
100
AcDbCircle
 10
67.56862700000001
 20
89.20254799999998
 30
0.000000000000000
 40
30.00000000000000
100
AcDbArc
 50
295.1951720000000
 51
304.8048279999998
  0
ARC
  5
F8
100
AcDbEntity
  8
1
  6
CONTINUOUS
 62
7
100
AcDbCircle
 10
67.56862700000001
 20
89.20254799999998
 30
0.000000000000000
 40
30.00000000000000
100
AcDbArc
 50
355.1951720000000
 51
364.8048280000000
  0
ARC
  5
F9
100
AcDbEntity
  8
1
  6
CONTINUOUS
 62
7
100
AcDbCircle
 10
104.2738080000000
 20
79.36742399999999
 30
0.000000000000000
 40
10.00000000000000
100
AcDbArc
 50
132.9265880000000
 51
197.0734119999999
  0
ARC
  5
FA
100
AcDbEntity
  8
1
  6
CONTINUOUS
 62
7
100
AcDbCircle
 10
67.56862700000001
 20
89.20254799999998
 30
0.000000000000000
 40
30.00000000000000
100
AcDbArc
 50
325.1951720000000
 51
334.8048279999998
  0
ARC
  5
FB
100
AcDbEntity
  8
1
  6
CONTINUOUS
 62
7
100
AcDbCircle
 10
104.2738080000000
 20
99.03767200000000
 30
0.000000000000000
 40
10.00000000000000
100
AcDbArc
 50
162.9265879999999
 51
227.0734119999999
  0
ARC
  5
FC
100
AcDbEntity
  8
1
  6
CONTINUOUS
 62
7
100
AcDbCircle
 10
94.43868499999996
 20
116.0726060000000
 30
0.000000000000000
 40
10.00000000000000
100
AcDbArc
 50
192.9265879999999
 51
257.0734120000000
  0
ARC
  5
FD
100
AcDbEntity
  8
1
  6
CONTINUOUS
 62
7
100
AcDbCircle
 10
67.56862700000001
 20
89.20254799999998
 30
0.000000000000000
 40
30.00000000000000
100
AcDbArc
 50
55.19517200000001
 51
64.80482800000000
  0
ARC
  5
FE
100
AcDbEntity
  8
1
  6
CONTINUOUS
 62
7
100
AcDbCircle
 10
67.56862700000001
 20
89.20254799999998
 30
0.000000000000000
 40
30.00000000000000
100
AcDbArc
 50
25.19517200000000
 51
34.80482799999999
  0
ARC
  5
FF
100
AcDbEntity
  8
1
  6
CONTINUOUS
 62
7
100
AcDbCircle
 10
77.40375100000000
 20
125.9077290000000
 30
0.000000000000000
 40
10.00000000000000
100
AcDbArc
 50
222.9265880000000
 51
287.0734120000000
  0
ARC
  5
100
100
AcDbEntity
  8
1
  6
CONTINUOUS
 62
7
100
AcDbCircle
 10
67.56862700000001
 20
89.20254799999998
 30
0.000000000000000
 40
30.00000000000000
100
AcDbArc
 50
85.19517200000001
 51
94.80482800000000
  0
ARC
  5
101
100
AcDbEntity
  8
1
  6
CONTINUOUS
 62
7
100
AcDbCircle
 10
57.73350300000000
 20
125.9077290000000
 30
0.000000000000000
 40
10.00000000000000
100
AcDbArc
 50
252.9265880000000
 51
317.0734120000000
  0
ARC
  5
102
100
AcDbEntity
  8
1
  6
CONTINUOUS
 62
7
100
AcDbCircle
 10
40.69856900000000
 20
116.0726060000000
 30
0.000000000000000
 40
10.00000000000000
100
AcDbArc
 50
282.9265879999999
 51
347.0734120000001
  0
ARC
  5
103
100
AcDbEntity
  8
1
  6
CONTINUOUS
 62
7
100
AcDbCircle
 10
67.56862700000001
 20
89.20254799999998
 30
0.000000000000000
 40
30.00000000000000
100
AcDbArc
 50
115.1951720000000
 51
124.8048280000000
  0
ARC
  5
104
100
AcDbEntity
  8
1
  6
CONTINUOUS
 62
7
100
AcDbCircle
 10
67.56862700000001
 20
89.20254799999998
 30
0.000000000000000
 40
30.00000000000000
100
AcDbArc
 50
175.1951719999999
 51
184.8048280000000
  0
ARC
  5
105
100
AcDbEntity
  8
1
  6
CONTINUOUS
 62
7
100
AcDbCircle
 10
67.56862700000001
 20
89.20254799999998
 30
0.000000000000000
 40
30.00000000000000
100
AcDbArc
 50
145.1951719999998
 51
154.8048279999999
  0
ARC
  5
106
100
AcDbEntity
  8
1
  6
CONTINUOUS
 62
7
100
AcDbCircle
 10
30.86344600000000
 20
99.03767200000000
 30
0.000000000000000
 40
10.00000000000000
100
AcDbArc
 50
312.9265879999999
 51
377.0734120000000
  0
ARC
  5
107
100
AcDbEntity
  8
1
  6
CONTINUOUS
 62
7
100
AcDbCircle
 10
57.73350300000000
 20
52.49736699999999
 30
0.000000000000000
 40
10.00000000000000
100
AcDbArc
 50
42.92658800000000
 51
107.0734120000000
  0
ARC
  5
108
100
AcDbEntity
  8
1
  6
CONTINUOUS
 62
7
100
AcDbCircle
 10
40.69856900000000
 20
62.33249000000000
 30
0.000000000000000
 40
10.00000000000000
100
AcDbArc
 50
12.92658800000000
 51
77.07341200000000
  0
ARC
  5
109
100
AcDbEntity
  8
1
  6
CONTINUOUS
 62
7
100
AcDbCircle
 10
67.56862700000001
 20
89.20254799999998
 30
0.000000000000000
 40
30.00000000000000
100
AcDbArc
 50
205.1951720000000
 51
214.8048280000000
  0
ARC
  5
10A
100
AcDbEntity
  8
1
  6
CONTINUOUS
 62
7
100
AcDbCircle
 10
67.56862700000001
 20
89.20254799999998
 30
0.000000000000000
 40
30.00000000000000
100
AcDbArc
 50
235.1951720000000
 51
244.8048280000000
  0
ARC
  5
10B
100
AcDbEntity
  8
1
  6
CONTINUOUS
 62
7
100
AcDbCircle
 10
30.86344600000000
 20
79.36742399999999
 30
0.000000000000000
 40
10.00000000000000
100
AcDbArc
 50
342.9265879999999
 51
407.0734120000000
  0
LINE
  5
10C
100
AcDbEntity
  8
1
  6
CONTINUOUS
 62
7
100
AcDbLine
 10
94.71451500000001
 20
168.5836720000000
 30
0.000000000000000
 11
94.71451500000001
 21
162.5836720000000
 31
0.000000000000000
  0
LINE
  5
10D
100
AcDbEntity
  8
1
  6
CONTINUOUS
 62
7
100
AcDbLine
 10
92.20166000000000
 20
168.5836720000000
 30
0.000000000000000
 11
92.20166000000000
 21
162.5836720000000
 31
0.000000000000000
  0
LINE
  5
10E
100
AcDbEntity
  8
1
  6
CONTINUOUS
 62
7
100
AcDbLine
 10
84.69210999999999
 20
168.5836720000000
 30
0.000000000000000
 11
84.69210999999999
 21
162.5836720000000
 31
0.000000000000000
  0
LINE
  5
10F
100
AcDbEntity
  8
1
  6
CONTINUOUS
 62
7
100
AcDbLine
 10
80.33971800000000
 20
168.5836720000000
 30
0.000000000000000
 11
80.33971800000000
 21
162.5836720000000
 31
0.000000000000000
  0
LINE
  5
110
100
AcDbEntity
  8
1
  6
CONTINUOUS
 62
7
100
AcDbLine
 10
70.08148100000001
 20
168.5836720000000
 30
0.000000000000000
 11
70.08148100000001
 21
162.5836720000000
 31
0.000000000000000
  0
ARC
  5
111
100
AcDbEntity
  8
1
  6
CONTINUOUS
 62
7
100
AcDbCircle
 10
75.21060000000000
 20
163.0067080000000
 30
0.000000000000000
 40
7.576964000000000
100
AcDbArc
 50
47.39534099999999
 51
132.6046590000000
  0
ARC
  5
112
100
AcDbEntity
  8
1
  6
CONTINUOUS
 62
7
100
AcDbCircle
 10
88.44688499999998
 20
166.0590870000000
 30
0.000000000000000
 40
4.524583999999999
100
AcDbArc
 50
33.91555700000000
 51
146.0844430000000
  0
ARC
  5
113
100
AcDbEntity
  8
1
  6
CONTINUOUS
 62
7
100
AcDbCircle
 10
59.92665399999999
 20
163.0067080000000
 30
0.000000000000000
 40
7.576964000000000
100
AcDbArc
 50
47.39534099999999
 51
132.6046590000000
  0
LINE
  5
114
100
AcDbEntity
  8
1
  6
CONTINUOUS
 62
7
100
AcDbLine
 10
65.05577300000000
 20
168.5836720000000
 30
0.000000000000000
 11
65.05577300000000
 21
162.5836720000000
 31
0.000000000000000
  0
ARC
  5
115
100
AcDbEntity
  8
1
  6
CONTINUOUS
 62
7
100
AcDbCircle
 10
46.69036900000000
 20
166.0590870000000
 30
0.000000000000000
 40
4.524583999999999
100
AcDbArc
 50
33.91555700000000
 51
146.0844430000000
  0
LINE
  5
116
100
AcDbEntity
  8
1
  6
CONTINUOUS
 62
7
100
AcDbLine
 10
50.44514400000000
 20
168.5836720000000
 30
0.000000000000000
 11
50.44514400000000
 21
162.5836720000000
 31
0.000000000000000
  0
LINE
  5
117
100
AcDbEntity
  8
1
  6
CONTINUOUS
 62
7
100
AcDbLine
 10
54.79753600000000
 20
168.5836720000000
 30
0.000000000000000
 11
50.44514400000000
 21
168.5836720000000
 31
0.000000000000000
  0
LINE
  5
118
100
AcDbEntity
  8
1
  6
CONTINUOUS
 62
7
100
AcDbLine
 10
54.79753600000000
 20
168.5836720000000
 30
0.000000000000000
 11
54.79753600000000
 21
162.5836720000000
 31
0.000000000000000
  0
ARC
  5
119
100
AcDbEntity
  8
1
  6
CONTINUOUS
 62
7
100
AcDbCircle
 10
35.35157800000001
 20
166.9903210000000
 30
0.000000000000000
 40
5.315584999999998
100
AcDbArc
 50
17.44263600000000
 51
42.53207800000001
  0
LINE
  5
11A
100
AcDbEntity
  8
1
  6
CONTINUOUS
 62
7
100
AcDbLine
 10
42.93559400000000
 20
168.5836720000000
 30
0.000000000000000
 11
40.42273900000000
 21
168.5836720000000
 31
0.000000000000000
  0
LINE
  5
11B
100
AcDbEntity
  8
1
  6
CONTINUOUS
 62
7
100
AcDbLine
 10
40.42273900000000
 20
168.5836720000000
 30
0.000000000000000
 11
40.42273900000000
 21
162.5836720000000
 31
0.000000000000000
  0
LINE
  5
11C
100
AcDbEntity
  8
1
  6
CONTINUOUS
 62
7
100
AcDbLine
 10
42.93559400000000
 20
168.5836720000000
 30
0.000000000000000
 11
42.93559400000000
 21
162.5836720000000
 31
0.000000000000000
  0
ARC
  5
11D
100
AcDbEntity
  8
1
  6
CONTINUOUS
 62
7
100
AcDbCircle
 10
268.3072450000000
 20
166.9903210000000
 30
0.000000000000000
 40
5.315584999999998
100
AcDbArc
 50
137.4679219999999
 51
162.5573639999998
  0
ARC
  5
11E
100
AcDbEntity
  8
1
  6
CONTINUOUS
 62
7
100
AcDbCircle
 10
243.7321690000000
 20
163.0067080000000
 30
0.000000000000000
 40
7.576964000000000
100
AcDbArc
 50
47.39534099999999
 51
132.6046590000000
  0
LINE
  5
11F
100
AcDbEntity
  8
1
  6
CONTINUOUS
 62
7
100
AcDbLine
 10
233.5773419999999
 20
168.5836720000000
 30
0.000000000000000
 11
238.6030499999999
 21
168.5836720000000
 31
0.000000000000000
  0
LINE
  5
120
100
AcDbEntity
  8
1
  6
CONTINUOUS
 62
7
100
AcDbLine
 10
238.6030499999999
 20
168.5836720000000
 30
0.000000000000000
 11
238.6030499999999
 21
162.5836720000000
 31
0.000000000000000
  0
ARC
  5
121
100
AcDbEntity
  8
1
  6
CONTINUOUS
 62
7
100
AcDbCircle
 10
256.9684540000000
 20
166.0590870000000
 30
0.000000000000000
 40
4.524583999999999
100
AcDbArc
 50
33.91555700000000
 51
146.0844430000000
  0
LINE
  5
122
100
AcDbEntity
  8
1
  6
CONTINUOUS
 62
7
100
AcDbLine
 10
263.2360840000000
 20
168.5836720000000
 30
0.000000000000000
 11
263.2360840000000
 21
162.5836720000000
 31
0.000000000000000
  0
LINE
  5
123
100
AcDbEntity
  8
1
  6
CONTINUOUS
 62
7
100
AcDbLine
 10
260.7232290000000
 20
168.5836720000000
 30
0.000000000000000
 11
263.2360840000000
 21
168.5836720000000
 31
0.000000000000000
  0
LINE
  5
124
100
AcDbEntity
  8
1
  6
CONTINUOUS
 62
7
100
AcDbLine
 10
260.7232290000000
 20
168.5836720000000
 30
0.000000000000000
 11
260.7232290000000
 21
162.5836720000000
 31
0.000000000000000
  0
LINE
  5
125
100
AcDbEntity
  8
1
  6
CONTINUOUS
 62
7
100
AcDbLine
 10
253.2136790000000
 20
168.5836720000000
 30
0.000000000000000
 11
253.2136790000000
 21
162.5836720000000
 31
0.000000000000000
  0
LINE
  5
126
100
AcDbEntity
  8
1
  6
CONTINUOUS
 62
7
100
AcDbLine
 10
248.8612870000000
 20
168.5836720000000
 30
0.000000000000000
 11
253.2136790000000
 21
168.5836720000000
 31
0.000000000000000
  0
LINE
  5
127
100
AcDbEntity
  8
1
  6
CONTINUOUS
 62
7
100
AcDbLine
 10
248.8612870000000
 20
168.5836720000000
 30
0.000000000000000
 11
248.8612870000000
 21
162.5836720000000
 31
0.000000000000000
  0
ARC
  5
128
100
AcDbEntity
  8
1
  6
CONTINUOUS
 62
7
100
AcDbCircle
 10
228.4482230000000
 20
163.0067080000000
 30
0.000000000000000
 40
7.576964000000000
100
AcDbArc
 50
47.39534099999999
 51
132.6046590000000
  0
ARC
  5
129
100
AcDbEntity
  8
1
  6
CONTINUOUS
 62
7
100
AcDbCircle
 10
215.2119379999998
 20
166.0590870000000
 30
0.000000000000000
 40
4.524583999999999
100
AcDbArc
 50
33.91555700000000
 51
146.0844430000000
  0
LINE
  5
12A
100
AcDbEntity
  8
1
  6
CONTINUOUS
 62
7
100
AcDbLine
 10
211.4571619999999
 20
168.5836720000000
 30
0.000000000000000
 11
211.4571619999999
 21
162.5836720000000
 31
0.000000000000000
  0
LINE
  5
12B
100
AcDbEntity
  8
1
  6
CONTINUOUS
 62
7
100
AcDbLine
 10
208.9443080000000
 20
168.5836720000000
 30
0.000000000000000
 11
208.9443080000000
 21
162.5836720000000
 31
0.000000000000000
  0
LINE
  5
12C
100
AcDbEntity
  8
1
  6
CONTINUOUS
 62
7
100
AcDbLine
 10
211.4571619999999
 20
168.5836720000000
 30
0.000000000000000
 11
208.9443080000000
 21
168.5836720000000
 31
0.000000000000000
  0
ARC
  5
12D
100
AcDbEntity
  8
1
  6
CONTINUOUS
 62
7
100
AcDbCircle
 10
203.8731470000000
 20
166.9903210000000
 30
0.000000000000000
 40
5.315584999999998
100
AcDbArc
 50
17.44263600000000
 51
42.53207800000001
  0
LINE
  5
12E
100
AcDbEntity
  8
1
  6
CONTINUOUS
 62
7
100
AcDbLine
 10
223.3191040000000
 20
168.5836720000000
 30
0.000000000000000
 11
223.3191040000000
 21
162.5836720000000
 31
0.000000000000000
  0
LINE
  5
12F
100
AcDbEntity
  8
1
  6
CONTINUOUS
 62
7
100
AcDbLine
 10
223.3191040000000
 20
168.5836720000000
 30
0.000000000000000
 11
218.9667130000000
 21
168.5836720000000
 31
0.000000000000000
  0
LINE
  5
130
100
AcDbEntity
  8
1
  6
CONTINUOUS
 62
7
100
AcDbLine
 10
218.9667130000000
 20
168.5836720000000
 30
0.000000000000000
 11
218.9667130000000
 21
162.5836720000000
 31
0.000000000000000
  0
LINE
  5
131
100
AcDbEntity
  8
1
  6
CONTINUOUS
 62
7
100
AcDbLine
 10
233.5773419999999
 20
168.5836720000000
 30
0.000000000000000
 11
233.5773419999999
 21
162.5836720000000
 31
0.000000000000000
  0
ENDSEC
  0
SECTION
  2
OBJECTS
  0
DICTIONARY
  5
15A
100
AcDbDictionary
  3
ACAD_GROUP
350
15B
  3
ACAD_LAYOUT
350
15C
  3
ACAD_MLINESTYLE
350
15D
  0
DICTIONARY
  5
15B
102
{ACAD_REACTORS
330
15A
102
}
330
15A
100
AcDbDictionary
  0
DICTIONARY
  5
15C
102
{ACAD_REACTORS
330
15A
102
}
330
15A
100
AcDbDictionary
  3
Model
350
15E
  3
ﾚｲｱｳﾄ1
350
15F
  3
ﾚｲｱｳﾄ2
350
160
  0
DICTIONARY
  5
15D
102
{ACAD_REACTORS
330
15A
102
}
330
15A
100
AcDbDictionary
  3
STANDARD
350
161
  0
LAYOUT
  5
15E
102
{ACAD_REACTORS
330
15C
102
}
330
15C
100
AcDbPlotSettings
 70
11952
  4
A3
 44
297.000000
 45
420.000000
 73
  1
 72
  1
100
AcDbLayout
  1
Model
 71
0
330
151
  0
LAYOUT
  5
15F
102
{ACAD_REACTORS
330
15C
102
}
330
15C
100
AcDbPlotSettings
100
AcDbLayout
  1
ﾚｲｱｳﾄ1
 71
1
330
152
  0
LAYOUT
  5
160
102
{ACAD_REACTORS
330
15C
102
}
330
15C
100
AcDbPlotSettings
100
AcDbLayout
  1
ﾚｲｱｳﾄ2
 71
2
330
153
  0
MLINESTYLE
  5
161
102
{ACAD_REACTORS
330
15D
102
}
330
15D
100
AcDbMlineStyle
  2
STANDARD
 70
     0
  3

 62
   256
 51
90.00
 52
90.00
 71
     2
 49
0.50
 62
   256
  6
BYLAYER
 49
-0.50
 62
   256
  6
BYLAYER
  0
ENDSEC
  0
EOF
