  0
SECTION
  2
HEADER
  9
$ACADVER
  1
AC1015
  9
$ACADMAINTVER
 70
    20
  9
$DWGCODEPAGE
  3
ANSI_932
  9
$INSBASE
 10
0.0
 20
0.0
 30
0.0
  9
$EXTMIN
 10
10.0
 20
9.999999999999998
 30
0.0
  9
$EXTMAX
 10
444.1734529999997
 20
236.330916
 30
0.0
  9
$LIMMIN
 10
0.0
 20
0.0
  9
$LIMMAX
 10
495.0
 20
341.25
  9
$ORTHOMODE
 70
     1
  9
$REGENMODE
 70
     1
  9
$FILLMODE
 70
     1
  9
$QTEXTMODE
 70
     0
  9
$MIRRTEXT
 70
     1
  9
$LTSCALE
 40
20.0
  9
$ATTMODE
 70
     1
  9
$TEXTSIZE
 40
5.0
  9
$TRACEWID
 40
1.0
  9
$TEXTSTYLE
  7
STANDARD
  9
$CLAYER
  8
0
  9
$CELTYPE
  6
BYLAYER
  9
$CECOLOR
 62
   256
  9
$CELTSCALE
 40
1.0
  9
$DISPSILH
 70
     0
  9
$DIMSCALE
 40
1.0
  9
$DIMASZ
 40
2.5
  9
$DIMEXO
 40
1.0
  9
$DIMDLI
 40
10.0
  9
$DIMRND
 40
0.0
  9
$DIMDLE
 40
0.0
  9
$DIMEXE
 40
1.0
  9
$DIMTP
 40
0.0
  9
$DIMTM
 40
0.0
  9
$DIMTXT
 40
3.2
  9
$DIMCEN
 40
0.0
  9
$DIMTSZ
 40
0.0
  9
$DIMTOL
 70
     0
  9
$DIMLIM
 70
     0
  9
$DIMTIH
 70
     0
  9
$DIMTOH
 70
     0
  9
$DIMSE1
 70
     0
  9
$DIMSE2
 70
     0
  9
$DIMTAD
 70
     3
  9
$DIMZIN
 70
     8
  9
$DIMBLK
  1

  9
$DIMASO
 70
     1
  9
$DIMSHO
 70
     1
  9
$DIMPOST
  1

  9
$DIMAPOST
  1

  9
$DIMALT
 70
     0
  9
$DIMALTD
 70
     2
  9
$DIMALTF
 40
25.4
  9
$DIMLFAC
 40
1.0
  9
$DIMTOFL
 70
     1
  9
$DIMTVP
 40
0.0
  9
$DIMTIX
 70
     0
  9
$DIMSOXD
 70
     0
  9
$DIMSAH
 70
     1
  9
$DIMBLK1
  1

  9
$DIMBLK2
  1

  9
$DIMSTYLE
  2
STANDARD
  9
$DIMCLRD
 70
     0
  9
$DIMCLRE
 70
     0
  9
$DIMCLRT
 70
     0
  9
$DIMTFAC
 40
1.0
  9
$DIMGAP
 40
1.0
  9
$DIMJUST
 70
     0
  9
$DIMSD1
 70
     0
  9
$DIMSD2
 70
     0
  9
$DIMTOLJ
 70
     1
  9
$DIMTZIN
 70
     0
  9
$DIMALTZ
 70
     0
  9
$DIMALTTZ
 70
     0
  9
$DIMUPT
 70
     0
  9
$DIMDEC
 70
     4
  9
$DIMTDEC
 70
     4
  9
$DIMALTU
 70
     2
  9
$DIMALTTD
 70
     2
  9
$DIMTXSTY
  7
STANDARD
  9
$DIMAUNIT
 70
     0
  9
$DIMADEC
 70
     0
  9
$DIMALTRND
 40
0.0
  9
$DIMAZIN
 70
     0
  9
$DIMDSEP
 70
    46
  9
$DIMATFIT
 70
     3
  9
$DIMFRAC
 70
     0
  9
$DIMLDRBLK
  1

  9
$DIMLUNIT
 70
     2
  9
$DIMLWD
 70
    -2
  9
$DIMLWE
 70
    -2
  9
$DIMTMOVE
 70
     0
  9
$LUNITS
 70
     2
  9
$LUPREC
 70
     4
  9
$SKETCHINC
 40
1.0
  9
$FILLETRAD
 40
0.5
  9
$AUNITS
 70
     0
  9
$AUPREC
 70
     2
  9
$MENU
  1
.
  9
$ELEVATION
 40
0.0
  9
$PELEVATION
 40
0.0
  9
$THICKNESS
 40
0.0
  9
$LIMCHECK
 70
     0
  9
$CHAMFERA
 40
10.0
  9
$CHAMFERB
 40
10.0
  9
$CHAMFERC
 40
0.0
  9
$CHAMFERD
 40
0.0
  9
$SKPOLY
 70
     0
  9
$TDCREATE
 40
2451301.773273264
  9
$TDUCREATE
 40
2451301.398273264
  9
$TDUPDATE
 40
2457192.660783761
  9
$TDUUPDATE
 40
2457192.285783762
  9
$TDINDWG
 40
0.0000114236
  9
$TDUSRTIMER
 40
0.0000110995
  9
$USRTIMER
 70
     1
  9
$ANGBASE
 50
0.0
  9
$ANGDIR
 70
     0
  9
$PDMODE
 70
     0
  9
$PDSIZE
 40
0.0
  9
$PLINEWID
 40
0.0
  9
$SPLFRAME
 70
     0
  9
$SPLINETYPE
 70
     6
  9
$SPLINESEGS
 70
     8
  9
$HANDSEED
  5
A9B1
  9
$SURFTAB1
 70
     6
  9
$SURFTAB2
 70
     6
  9
$SURFTYPE
 70
     6
  9
$SURFU
 70
     6
  9
$SURFV
 70
     6
  9
$UCSBASE
  2

  9
$UCSNAME
  2

  9
$UCSORG
 10
0.0
 20
0.0
 30
0.0
  9
$UCSXDIR
 10
1.0
 20
0.0
 30
0.0
  9
$UCSYDIR
 10
0.0
 20
1.0
 30
0.0
  9
$UCSORTHOREF
  2

  9
$UCSORTHOVIEW
 70
     0
  9
$UCSORGTOP
 10
0.0
 20
0.0
 30
0.0
  9
$UCSORGBOTTOM
 10
0.0
 20
0.0
 30
0.0
  9
$UCSORGLEFT
 10
0.0
 20
0.0
 30
0.0
  9
$UCSORGRIGHT
 10
0.0
 20
0.0
 30
0.0
  9
$UCSORGFRONT
 10
0.0
 20
0.0
 30
0.0
  9
$UCSORGBACK
 10
0.0
 20
0.0
 30
0.0
  9
$PUCSBASE
  2

  9
$PUCSNAME
  2

  9
$PUCSORG
 10
0.0
 20
0.0
 30
0.0
  9
$PUCSXDIR
 10
1.0
 20
0.0
 30
0.0
  9
$PUCSYDIR
 10
0.0
 20
1.0
 30
0.0
  9
$PUCSORTHOREF
  2

  9
$PUCSORTHOVIEW
 70
     0
  9
$PUCSORGTOP
 10
0.0
 20
0.0
 30
0.0
  9
$PUCSORGBOTTOM
 10
0.0
 20
0.0
 30
0.0
  9
$PUCSORGLEFT
 10
0.0
 20
0.0
 30
0.0
  9
$PUCSORGRIGHT
 10
0.0
 20
0.0
 30
0.0
  9
$PUCSORGFRONT
 10
0.0
 20
0.0
 30
0.0
  9
$PUCSORGBACK
 10
0.0
 20
0.0
 30
0.0
  9
$USERI1
 70
     0
  9
$USERI2
 70
     0
  9
$USERI3
 70
     0
  9
$USERI4
 70
     0
  9
$USERI5
 70
     0
  9
$USERR1
 40
0.0
  9
$USERR2
 40
0.0
  9
$USERR3
 40
0.0
  9
$USERR4
 40
0.0
  9
$USERR5
 40
0.0
  9
$WORLDVIEW
 70
     1
  9
$SHADEDGE
 70
     3
  9
$SHADEDIF
 70
    70
  9
$TILEMODE
 70
     1
  9
$MAXACTVP
 70
    16
  9
$PINSBASE
 10
0.0
 20
0.0
 30
0.0
  9
$PLIMCHECK
 70
     0
  9
$PEXTMIN
 10
1.000000000000000E+20
 20
1.000000000000000E+20
 30
1.000000000000000E+20
  9
$PEXTMAX
 10
-1.000000000000000E+20
 20
-1.000000000000000E+20
 30
-1.000000000000000E+20
  9
$PLIMMIN
 10
0.0
 20
0.0
  9
$PLIMMAX
 10
420.0
 20
297.0
  9
$UNITMODE
 70
     0
  9
$VISRETAIN
 70
     0
  9
$PLINEGEN
 70
     0
  9
$PSLTSCALE
 70
     0
  9
$TREEDEPTH
 70
  3020
  9
$CMLSTYLE
  2
STANDARD
  9
$CMLJUST
 70
     0
  9
$CMLSCALE
 40
1.0
  9
$PROXYGRAPHICS
 70
     1
  9
$MEASUREMENT
 70
     0
  9
$CELWEIGHT
370
    -1
  9
$ENDCAPS
280
     0
  9
$JOINSTYLE
280
     0
  9
$LWDISPLAY
290
     0
  9
$INSUNITS
 70
     0
  9
$HYPERLINKBASE
  1

  9
$STYLESHEET
  1

  9
$XEDIT
290
     1
  9
$CEPSNTYPE
380
     0
  9
$PSTYLEMODE
290
     1
  9
$FINGERPRINTGUID
  2
{D84B4A38-E960-4B54-A27F-B1A11C8EDD27}
  9
$VERSIONGUID
  2
{7CD0944C-E88D-459F-A8B2-A3F819E43755}
  9
$EXTNAMES
290
     1
  9
$PSVPSCALE
 40
0.0
  9
$OLESTARTUP
290
     0
  0
ENDSEC
  0
SECTION
  2
CLASSES
  0
CLASS
  1
ACDBDICTIONARYWDFLT
  2
AcDbDictionaryWithDefault
  3
ObjectDBX Classes
 90
        0
280
     0
281
     0
  0
CLASS
  1
ACDBPLACEHOLDER
  2
AcDbPlaceHolder
  3
ObjectDBX Classes
 90
        0
280
     0
281
     0
  0
CLASS
  1
LAYOUT
  2
AcDbLayout
  3
ObjectDBX Classes
 90
        0
280
     0
281
     0
  0
CLASS
  1
DICTIONARYVAR
  2
AcDbDictionaryVar
  3
ObjectDBX Classes
 90
        0
280
     0
281
     0
  0
CLASS
  1
MATERIAL
  2
AcDbMaterial
  3
ObjectDBX Classes
 90
     1153
280
     0
281
     0
  0
CLASS
  1
VISUALSTYLE
  2
AcDbVisualStyle
  3
ObjectDBX Classes
 90
     4095
280
     0
281
     0
  0
CLASS
  1
TABLESTYLE
  2
AcDbTableStyle
  3
ObjectDBX Classes
 90
     4095
280
     0
281
     0
  0
CLASS
  1
SCALE
  2
AcDbScale
  3
ObjectDBX Classes
 90
     1153
280
     0
281
     0
  0
CLASS
  1
MLEADERSTYLE
  2
AcDbMLeaderStyle
  3
ACDB_MLEADERSTYLE_CLASS
 90
     4095
280
     0
281
     0
  0
CLASS
  1
ACDBSECTIONVIEWSTYLE
  2
AcDbSectionViewStyle
  3
ObjectDBX Classes
 90
     1025
280
     0
281
     0
  0
CLASS
  1
ACDBDETAILVIEWSTYLE
  2
AcDbDetailViewStyle
  3
ObjectDBX Classes
 90
     1025
280
     0
281
     0
  0
CLASS
  1
CELLSTYLEMAP
  2
AcDbCellStyleMap
  3
ObjectDBX Classes
 90
     1152
280
     0
281
     0
  0
ENDSEC
  0
SECTION
  2
TABLES
  0
TABLE
  2
VPORT
  5
A669
330
0
100
AcDbSymbolTable
 70
     1
  0
VPORT
  5
A8FA
330
A669
100
AcDbSymbolTableRecord
100
AcDbViewportTableRecord
  2
*ACTIVE
 70
     0
 10
0.0
 20
0.0
 11
1.0
 21
1.0
 12
301.8437197694562
 22
123.1626327278064
 13
0.0
 23
0.0
 14
10.0
 24
10.0
 15
10.0
 25
10.0
 16
0.0
 26
0.0
 36
1.0
 17
0.0
 27
0.0
 37
0.0
 40
249.5760264142805
 41
1.899603698811096
 42
50.0
 43
0.0
 44
0.0
 50
0.0
 51
0.0
 71
     0
 72
   100
 73
     1
 74
     0
 75
     0
 76
     0
 77
     0
 78
     0
281
     0
 65
     1
110
0.0
120
0.0
130
0.0
111
1.0
121
0.0
131
0.0
112
0.0
122
1.0
132
0.0
 79
     0
146
0.0
1001
ACAD_NAV_VCDISPLAY
1070
     3
  0
ENDTAB
  0
TABLE
  2
LTYPE
  5
A666
330
0
100
AcDbSymbolTable
 70
     4
  0
LTYPE
  5
A674
330
A666
100
AcDbSymbolTableRecord
100
AcDbLinetypeTableRecord
  2
BYBLOCK
 70
     0
  3

 72
    65
 73
     0
 40
0.0
  0
LTYPE
  5
A675
330
A666
100
AcDbSymbolTableRecord
100
AcDbLinetypeTableRecord
  2
BYLAYER
 70
     0
  3

 72
    65
 73
     0
 40
0.0
  0
LTYPE
  5
A676
330
A666
100
AcDbSymbolTableRecord
100
AcDbLinetypeTableRecord
  2
CONTINUOUS
 70
     0
  3
Solid line
 72
    65
 73
     0
 40
0.0
  0
LTYPE
  5
A684
330
A666
100
AcDbSymbolTableRecord
100
AcDbLinetypeTableRecord
  2
DASHED
 70
     0
  3
__ __ __ __ __ __ __ __ __ __ __ __ __ __ __ __
 72
    65
 73
     2
 40
0.75
 49
0.5
 74
     0
 49
-0.25
 74
     0
  0
LTYPE
  5
A685
330
A666
100
AcDbSymbolTableRecord
100
AcDbLinetypeTableRecord
  2
CENTER
 70
     0
  3
____ _ ____ _ ____ _ ____ _ ____ _ ____ _ ____ 
 72
    65
 73
     4
 40
2.0
 49
1.25
 74
     0
 49
-0.25
 74
     0
 49
0.25
 74
     0
 49
-0.25
 74
     0
  0
LTYPE
  5
A686
330
A666
100
AcDbSymbolTableRecord
100
AcDbLinetypeTableRecord
  2
PHANTOM
 70
     0
  3
______  __  __  ______  __  __  ______  __  __ 
 72
    65
 73
     6
 40
2.5
 49
1.25
 74
     0
 49
-0.25
 74
     0
 49
0.25
 74
     0
 49
-0.25
 74
     0
 49
0.25
 74
     0
 49
-0.25
 74
     0
  0
ENDTAB
  0
TABLE
  2
LAYER
  5
A663
330
0
100
AcDbSymbolTable
 70
     8
  0
LAYER
  5
A671
102
{ACAD_XDICTIONARY
360
A955
102
}
330
A663
100
AcDbSymbolTableRecord
100
AcDbLayerTableRecord
  2
0
 70
     0
 62
     7
  6
CONTINUOUS
370
    -3
390
A903
  0
LAYER
  5
A687
102
{ACAD_XDICTIONARY
360
A957
102
}
330
A663
100
AcDbSymbolTableRecord
100
AcDbLayerTableRecord
  2
4
 70
     0
 62
     1
  6
CENTER
370
    -3
390
A903
  0
LAYER
  5
A688
102
{ACAD_XDICTIONARY
360
A959
102
}
330
A663
100
AcDbSymbolTableRecord
100
AcDbLayerTableRecord
  2
5
 70
     0
 62
     6
  6
PHANTOM
370
    -3
390
A903
  0
LAYER
  5
A689
102
{ACAD_XDICTIONARY
360
A95B
102
}
330
A663
100
AcDbSymbolTableRecord
100
AcDbLayerTableRecord
  2
1
 70
     0
 62
     7
  6
CONTINUOUS
370
    -3
390
A903
  0
LAYER
  5
A68A
102
{ACAD_XDICTIONARY
360
A95D
102
}
330
A663
100
AcDbSymbolTableRecord
100
AcDbLayerTableRecord
  2
2
 70
     0
 62
     4
  6
CONTINUOUS
370
    -3
390
A903
  0
LAYER
  5
A68B
102
{ACAD_XDICTIONARY
360
A95F
102
}
330
A663
100
AcDbSymbolTableRecord
100
AcDbLayerTableRecord
  2
3
 70
     0
 62
     2
  6
DASHED
370
    -3
390
A903
  0
LAYER
  5
A68C
102
{ACAD_XDICTIONARY
360
A961
102
}
330
A663
100
AcDbSymbolTableRecord
100
AcDbLayerTableRecord
  2
6
 70
     0
 62
     5
  6
CONTINUOUS
370
    -3
390
A903
  0
LAYER
  5
A68D
102
{ACAD_XDICTIONARY
360
A963
102
}
330
A663
100
AcDbSymbolTableRecord
100
AcDbLayerTableRecord
  2
7
 70
     0
 62
     3
  6
CONTINUOUS
370
    -3
390
A903
  0
ENDTAB
  0
TABLE
  2
STYLE
  5
A664
330
0
100
AcDbSymbolTable
 70
     1
  0
STYLE
  5
A672
330
A664
100
AcDbSymbolTableRecord
100
AcDbTextStyleTableRecord
  2
STANDARD
 70
     0
 40
0.0
 41
1.0
 50
0.0
 71
     0
 42
5.0
  3
txt
  4

  0
ENDTAB
  0
TABLE
  2
VIEW
  5
A667
330
0
100
AcDbSymbolTable
 70
     0
  0
ENDTAB
  0
TABLE
  2
UCS
  5
A668
330
0
100
AcDbSymbolTable
 70
     0
  0
ENDTAB
  0
TABLE
  2
APPID
  5
A66A
330
0
100
AcDbSymbolTable
 70
     3
  0
APPID
  5
A673
330
A66A
100
AcDbSymbolTableRecord
100
AcDbRegAppTableRecord
  2
ACAD
 70
     0
  0
APPID
  5
A96F
330
A66A
100
AcDbSymbolTableRecord
100
AcDbRegAppTableRecord
  2
ACAD_NAV_VCDISPLAY
 70
     0
  0
APPID
  5
A9A8
330
A66A
100
AcDbSymbolTableRecord
100
AcDbRegAppTableRecord
  2
ACAD_MLEADERVER
 70
     0
  0
ENDTAB
  0
TABLE
  2
DIMSTYLE
  5
A66B
330
0
100
AcDbSymbolTable
 70
     1
100
AcDbDimStyleTable
 71
     0
  0
DIMSTYLE
105
A68F
330
A66B
100
AcDbSymbolTableRecord
100
AcDbDimStyleTableRecord
  2
STANDARD
 70
     0
 41
2.5
 42
1.0
 43
10.0
 44
1.0
 73
     0
 74
     0
 77
     3
 78
     8
140
3.2
141
0.0
147
1.0
172
     1
173
     1
284
     8
285
     8
286
     8
340
A672
  0
ENDTAB
  0
TABLE
  2
BLOCK_RECORD
  5
A662
330
0
100
AcDbSymbolTable
 70
     0
  0
BLOCK_RECORD
  5
A67F
102
{ACAD_XDICTIONARY
360
A8FD
102
}
330
A662
100
AcDbSymbolTableRecord
100
AcDbBlockTableRecord
  2
*MODEL_SPACE
340
A951
  0
BLOCK_RECORD
  5
A67B
102
{ACAD_XDICTIONARY
360
A8FB
102
}
330
A662
100
AcDbSymbolTableRecord
100
AcDbBlockTableRecord
  2
*PAPER_SPACE
340
A952
  0
ENDTAB
  0
ENDSEC
  0
SECTION
  2
BLOCKS
  0
BLOCK
  5
A680
330
A67F
100
AcDbEntity
  8
0
100
AcDbBlockBegin
  2
*MODEL_SPACE
 70
     0
 10
0.0
 20
0.0
 30
0.0
  3
*MODEL_SPACE
  1

  0
ENDBLK
  5
A681
330
A67F
100
AcDbEntity
  8
0
100
AcDbBlockEnd
  0
BLOCK
  5
A67C
330
A67B
100
AcDbEntity
 67
     1
  8
0
100
AcDbBlockBegin
  2
*PAPER_SPACE
 70
     0
 10
0.0
 20
0.0
 30
0.0
  3
*PAPER_SPACE
  1

  0
ENDBLK
  5
A67D
330
A67B
100
AcDbEntity
 67
     1
  8
0
100
AcDbBlockEnd
  0
ENDSEC
  0
SECTION
  2
ENTITIES
  0
TEXT
  5
A697
330
A67F
100
AcDbEntity
  8
7
  6
Continuous
100
AcDbText
 10
10.0
 20
18.0
 30
0.0
 40
3.0
  1
TYPE No.TM-193-2
100
AcDbText
  0
TEXT
  5
A698
330
A67F
100
AcDbEntity
  8
7
  6
Continuous
100
AcDbText
 10
10.0
 20
26.0
 30
0.0
 40
3.0
  1
CODE No.5782
100
AcDbText
  0
TEXT
  5
A699
330
A67F
100
AcDbEntity
  8
1
  6
Continuous
100
AcDbText
 10
10.0
 20
10.0
 30
0.0
 40
1.399999999999999
  1
LAYER
100
AcDbText
  0
TEXT
  5
A69A
330
A67F
100
AcDbEntity
  8
1
  6
Continuous
100
AcDbText
 10
17.97951099999998
 20
10.04873699999998
 30
0.0
 40
1.399999999999999
  1
1
100
AcDbText
  0
TEXT
  5
A69B
330
A67F
100
AcDbEntity
  8
7
  6
Continuous
100
AcDbText
 10
29.97951099999999
 20
10.04873699999998
 30
0.0
 40
1.399999999999999
  1
7
100
AcDbText
  0
TEXT
  5
A69C
330
A67F
100
AcDbEntity
  8
4
  6
CENTER
100
AcDbText
 10
23.97951099999999
 20
10.04873699999998
 30
0.0
 40
1.399999999999999
  1
4
100
AcDbText
  0
TEXT
  5
A69D
330
A67F
100
AcDbEntity
  8
3
  6
DASHED
100
AcDbText
 10
21.979511
 20
10.04873699999998
 30
0.0
 40
1.399999999999999
  1
3
100
AcDbText
  0
TEXT
  5
A69E
330
A67F
100
AcDbEntity
  8
2
  6
Continuous
100
AcDbText
 10
19.97951099999999
 20
10.04873699999998
 30
0.0
 40
1.399999999999999
  1
2
100
AcDbText
  0
TEXT
  5
A69F
330
A67F
100
AcDbEntity
  8
6
  6
Continuous
100
AcDbText
 10
27.979511
 20
10.04873699999998
 30
0.0
 40
1.399999999999999
  1
6
100
AcDbText
  0
TEXT
  5
A6A0
330
A67F
100
AcDbEntity
  8
5
  6
PHANTOM
100
AcDbText
 10
25.97951099999999
 20
10.04873699999998
 30
0.0
 40
1.399999999999999
  1
5
100
AcDbText
  0
LINE
  5
A6A1
330
A67F
100
AcDbEntity
  8
1
  6
Continuous
100
AcDbLine
 10
122.284374
 20
119.2779639999999
 30
0.0
 11
122.284374
 21
117.430922
 31
0.0
  0
LINE
  5
A6A2
330
A67F
100
AcDbEntity
  8
1
  6
Continuous
100
AcDbLine
 10
118.284374
 20
119.2779639999999
 30
0.0
 11
118.284374
 21
117.430922
 31
0.0
  0
LINE
  5
A6A3
330
A67F
100
AcDbEntity
  8
1
  6
Continuous
100
AcDbLine
 10
118.7843739999999
 20
127.7309099999999
 30
0.0
 11
118.7843739999999
 21
117.9309219999999
 31
0.0
  0
LINE
  5
A6A4
330
A67F
100
AcDbEntity
  8
1
  6
Continuous
100
AcDbLine
 10
121.7843739999999
 20
127.7309099999999
 30
0.0
 11
121.7843739999999
 21
117.9309219999999
 31
0.0
  0
LINE
  5
A6A5
330
A67F
100
AcDbEntity
  8
1
  6
Continuous
100
AcDbLine
 10
126.284374
 20
131.6309219999999
 30
0.0
 11
116.284374
 21
131.6309219999999
 31
0.0
  0
LINE
  5
A6A6
330
A67F
100
AcDbEntity
  8
1
  6
Continuous
100
AcDbLine
 10
126.284374
 20
133.6309219999999
 30
0.0
 11
116.284374
 21
133.6309219999999
 31
0.0
  0
LINE
  5
A6A7
330
A67F
100
AcDbEntity
  8
1
  6
Continuous
100
AcDbLine
 10
126.284374
 20
138.630922
 30
0.0
 11
116.284374
 21
138.630922
 31
0.0
  0
LINE
  5
A6A8
330
A67F
100
AcDbEntity
  8
1
  6
Continuous
100
AcDbLine
 10
116.284374
 20
138.630922
 30
0.0
 11
116.284374
 21
128.2309099999999
 31
0.0
  0
ARC
  5
A6A9
330
A67F
100
AcDbEntity
  8
1
  6
Continuous
100
AcDbCircle
 10
117.7843739999999
 20
119.2779639999999
 30
0.0
 40
0.5
100
AcDbArc
 50
0.0
 51
34.01935
  0
LINE
  5
A6AA
330
A67F
100
AcDbEntity
  8
1
  6
Continuous
100
AcDbLine
 10
118.1987989999998
 20
119.557701
 30
0.0
 11
117.01995
 21
121.304143
 31
0.0
  0
ARC
  5
A6AB
330
A67F
100
AcDbEntity
  8
1
  6
Continuous
100
AcDbCircle
 10
117.434374
 20
121.5838799999998
 30
0.0
 40
0.5
100
AcDbArc
 50
180.0
 51
214.01935
  0
LINE
  5
A6AC
330
A67F
100
AcDbEntity
  8
1
  6
Continuous
100
AcDbLine
 10
116.934374
 20
128.2309099999999
 30
0.0
 11
116.934374
 21
121.5838799999998
 31
0.0
  0
LINE
  5
A6AD
330
A67F
100
AcDbEntity
  8
1
  6
Continuous
100
AcDbLine
 10
126.284374
 20
140.1309219999999
 30
0.0
 11
126.284374
 21
128.2309099999999
 31
0.0
  0
LINE
  5
A6AE
330
A67F
100
AcDbEntity
  8
1
  6
Continuous
100
AcDbLine
 10
130.2843739999999
 20
135.6309219999999
 30
0.0
 11
130.2843739999999
 21
134.6309219999999
 31
0.0
  0
LINE
  5
A6AF
330
A67F
100
AcDbEntity
  8
1
  6
Continuous
100
AcDbLine
 10
130.2843739999999
 20
135.6309219999999
 30
0.0
 11
126.284374
 21
135.6309219999999
 31
0.0
  0
LINE
  5
A6B0
330
A67F
100
AcDbEntity
  8
1
  6
Continuous
100
AcDbLine
 10
120.284374
 20
141.8309219999999
 30
0.0
 11
121.9843739999999
 21
140.1309219999999
 31
0.0
  0
LINE
  5
A6B1
330
A67F
100
AcDbEntity
  8
1
  6
Continuous
100
AcDbLine
 10
126.284374
 20
140.1309219999999
 30
0.0
 11
121.9843739999999
 21
140.1309219999999
 31
0.0
  0
ARC
  5
A6B2
330
A67F
100
AcDbEntity
  8
1
  6
Continuous
100
AcDbCircle
 10
122.7843739999999
 20
119.2779639999999
 30
0.0
 40
0.5
100
AcDbArc
 50
145.98065
 51
180.0
  0
LINE
  5
A6B3
330
A67F
100
AcDbEntity
  8
1
  6
Continuous
100
AcDbLine
 10
122.36995
 20
119.557701
 30
0.0
 11
123.5487989999999
 21
121.304143
 31
0.0
  0
ARC
  5
A6B4
330
A67F
100
AcDbEntity
  8
1
  6
Continuous
100
AcDbCircle
 10
122.7843739999999
 20
119.2779639999999
 30
0.0
 40
0.5
100
AcDbArc
 50
145.98065
 51
180.0
  0
ARC
  5
A6B5
330
A67F
100
AcDbEntity
  8
1
  6
Continuous
100
AcDbCircle
 10
123.134374
 20
121.5838799999998
 30
0.0
 40
0.5
100
AcDbArc
 50
325.98065
 51
0.0
  0
LINE
  5
A6B6
330
A67F
100
AcDbEntity
  8
1
  6
Continuous
100
AcDbLine
 10
123.6343739999998
 20
128.2309099999999
 30
0.0
 11
123.6343739999998
 21
121.5838799999998
 31
0.0
  0
LINE
  5
A6B7
330
A67F
100
AcDbEntity
  8
1
  6
Continuous
100
AcDbLine
 10
121.7843739999999
 20
125.630922
 30
0.0
 11
118.7843739999999
 21
125.630922
 31
0.0
  0
LINE
  5
A6B8
330
A67F
100
AcDbEntity
  8
1
  6
Continuous
100
AcDbLine
 10
130.2843739999999
 20
134.6309219999999
 30
0.0
 11
126.284374
 21
134.6309219999999
 31
0.0
  0
LINE
  5
A6B9
330
A67F
100
AcDbEntity
  8
1
  6
Continuous
100
AcDbLine
 10
121.284374
 20
116.430922
 30
0.0
 11
119.284374
 21
116.430922
 31
0.0
  0
ARC
  5
A6BA
330
A67F
100
AcDbEntity
  8
1
  6
Continuous
100
AcDbCircle
 10
120.284374
 20
117.9309219999999
 30
0.0
 40
1.5
100
AcDbArc
 50
180.0
 51
0.0
  0
LINE
  5
A6BB
330
A67F
100
AcDbEntity
  8
1
  6
Continuous
100
AcDbLine
 10
120.284374
 20
153.030922
 30
0.0
 11
120.284374
 21
138.630922
 31
0.0
  0
LINE
  5
A6BC
330
A67F
100
AcDbEntity
  8
1
  6
Continuous
100
AcDbLine
 10
140.2843739999999
 20
137.130922
 30
0.0
 11
140.2843739999999
 21
136.430922
 31
0.0
  0
LINE
  5
A6BD
330
A67F
100
AcDbEntity
  8
1
  6
Continuous
100
AcDbLine
 10
140.2843739999999
 20
136.430922
 30
0.0
 11
126.284374
 21
136.430922
 31
0.0
  0
LINE
  5
A6BE
330
A67F
100
AcDbEntity
  8
1
  6
Continuous
100
AcDbLine
 10
139.7843739999999
 20
137.6309219999999
 30
0.0
 11
126.284374
 21
137.6309219999999
 31
0.0
  0
ARC
  5
A6BF
330
A67F
100
AcDbEntity
  8
1
  6
Continuous
100
AcDbCircle
 10
139.7843739999999
 20
137.130922
 30
0.0
 40
0.5
100
AcDbArc
 50
0.0
 51
90.0
  0
LINE
  5
A6C0
330
A67F
100
AcDbEntity
  8
1
  6
Continuous
100
AcDbLine
 10
116.284374
 20
136.430922
 30
0.0
 11
103.684374
 21
136.430922
 31
0.0
  0
LINE
  5
A6C1
330
A67F
100
AcDbEntity
  8
1
  6
Continuous
100
AcDbLine
 10
119.084374
 20
153.030922
 30
0.0
 11
119.084374
 21
138.630922
 31
0.0
  0
LINE
  5
A6C2
330
A67F
100
AcDbEntity
  8
1
  6
Continuous
100
AcDbLine
 10
116.284374
 20
137.6309219999999
 30
0.0
 11
103.684374
 21
137.6309219999999
 31
0.0
  0
LINE
  5
A6C3
330
A67F
100
AcDbEntity
  8
1
  6
Continuous
100
AcDbLine
 10
258.028914
 20
138.1309099999998
 30
0.0
 11
258.028914
 21
133.63091
 31
0.0
  0
LINE
  5
A6C4
330
A67F
100
AcDbEntity
  8
1
  6
Continuous
100
AcDbLine
 10
269.0289139999998
 20
138.1309099999998
 30
0.0
 11
269.0289139999998
 21
133.63091
 31
0.0
  0
LINE
  5
A6C5
330
A67F
100
AcDbEntity
  8
1
  6
Continuous
100
AcDbLine
 10
260.928914
 20
136.1309099999998
 30
0.0
 11
260.928914
 21
132.63091
 31
0.0
  0
LINE
  5
A6C6
330
A67F
100
AcDbEntity
  8
1
  6
Continuous
100
AcDbLine
 10
266.128914
 20
136.1309099999998
 30
0.0
 11
266.128914
 21
132.63091
 31
0.0
  0
LINE
  5
A6C7
330
A67F
100
AcDbEntity
  8
1
  6
Continuous
100
AcDbLine
 10
261.7789139999998
 20
136.43091
 30
0.0
 11
261.7789139999998
 21
132.63091
 31
0.0
  0
LINE
  5
A6C8
330
A67F
100
AcDbEntity
  8
1
  6
Continuous
100
AcDbLine
 10
265.2789139999998
 20
136.43091
 30
0.0
 11
265.2789139999998
 21
132.63091
 31
0.0
  0
LINE
  5
A6C9
330
A67F
100
AcDbEntity
  8
1
  6
Continuous
100
AcDbLine
 10
265.2789139999998
 20
135.63091
 30
0.0
 11
261.7789139999998
 21
135.63091
 31
0.0
  0
ARC
  5
A6CA
330
A67F
100
AcDbEntity
  8
1
  6
Continuous
100
AcDbCircle
 10
258.5289139999998
 20
138.1309099999998
 30
0.0
 40
0.5
100
AcDbArc
 50
90.0
 51
180.0
  0
LINE
  5
A6CB
330
A67F
100
AcDbEntity
  8
1
  6
Continuous
100
AcDbLine
 10
268.528914
 20
138.63091
 30
0.0
 11
264.7789139999998
 21
138.63091
 31
0.0
  0
ARC
  5
A6CC
330
A67F
100
AcDbEntity
  8
1
  6
Continuous
100
AcDbCircle
 10
268.528914
 20
138.1309099999998
 30
0.0
 40
0.5
100
AcDbArc
 50
0.0
 51
90.0
  0
ARC
  5
A6CD
330
A67F
100
AcDbEntity
  8
1
  6
Continuous
100
AcDbCircle
 10
259.7789139999998
 20
137.1309099999998
 30
0.0
 40
0.5
100
AcDbArc
 50
90.0
 51
180.0
  0
LINE
  5
A6CE
330
A67F
100
AcDbEntity
  8
1
  6
Continuous
100
AcDbLine
 10
267.2789139999998
 20
137.63091
 30
0.0
 11
259.7789139999998
 21
137.63091
 31
0.0
  0
LINE
  5
A6CF
330
A67F
100
AcDbEntity
  8
1
  6
Continuous
100
AcDbLine
 10
259.2789139999998
 20
137.1309099999998
 30
0.0
 11
259.2789139999998
 21
136.1309099999998
 31
0.0
  0
ARC
  5
A6D0
330
A67F
100
AcDbEntity
  8
1
  6
Continuous
100
AcDbCircle
 10
267.2789139999998
 20
137.1309099999998
 30
0.0
 40
0.5
100
AcDbArc
 50
0.0
 51
90.0
  0
LINE
  5
A6D1
330
A67F
100
AcDbEntity
  8
1
  6
Continuous
100
AcDbLine
 10
267.7789139999998
 20
137.1309099999998
 30
0.0
 11
267.7789139999998
 21
136.1309099999998
 31
0.0
  0
LINE
  5
A6D2
330
A67F
100
AcDbEntity
  8
1
  6
Continuous
100
AcDbLine
 10
260.928914
 20
136.1309099999998
 30
0.0
 11
259.2789139999998
 21
136.1309099999998
 31
0.0
  0
LINE
  5
A6D3
330
A67F
100
AcDbEntity
  8
1
  6
Continuous
100
AcDbLine
 10
267.7789139999998
 20
136.1309099999998
 30
0.0
 11
266.128914
 21
136.1309099999998
 31
0.0
  0
LINE
  5
A6D4
330
A67F
100
AcDbEntity
  8
1
  6
Continuous
100
AcDbLine
 10
264.7789139999998
 20
141.8309099999999
 30
0.0
 11
262.278914
 21
141.8309099999999
 31
0.0
  0
LINE
  5
A6D5
330
A67F
100
AcDbEntity
  8
1
  6
Continuous
100
AcDbLine
 10
262.278914
 20
141.8309099999999
 30
0.0
 11
262.278914
 21
138.63091
 31
0.0
  0
LINE
  5
A6D6
330
A67F
100
AcDbEntity
  8
1
  6
Continuous
100
AcDbLine
 10
264.7789139999998
 20
141.8309099999999
 30
0.0
 11
264.7789139999998
 21
138.63091
 31
0.0
  0
LINE
  5
A6D7
330
A67F
100
AcDbEntity
  8
1
  6
Continuous
100
AcDbLine
 10
264.7789139999998
 20
140.1309099999998
 30
0.0
 11
262.278914
 21
140.1309099999998
 31
0.0
  0
ARC
  5
A6D8
330
A67F
100
AcDbEntity
  8
1
  6
Continuous
100
AcDbCircle
 10
264.9789139999999
 20
131.13091
 30
0.0
 40
0.5
100
AcDbArc
 50
90.0
 51
180.0
  0
LINE
  5
A6D9
330
A67F
100
AcDbEntity
  8
1
  6
Continuous
100
AcDbLine
 10
264.4789139999999
 20
131.13091
 30
0.0
 11
264.4789139999999
 21
131.0809219999998
 31
0.0
  0
LINE
  5
A6DA
330
A67F
100
AcDbEntity
  8
1
  6
Continuous
100
AcDbLine
 10
266.128914
 20
131.63091
 30
0.0
 11
264.9789139999999
 21
131.63091
 31
0.0
  0
ARC
  5
A6DB
330
A67F
100
AcDbEntity
  8
1
  6
Continuous
100
AcDbCircle
 10
262.0789139999998
 20
131.13091
 30
0.0
 40
0.5
100
AcDbArc
 50
0.0
 51
90.0
  0
LINE
  5
A6DC
330
A67F
100
AcDbEntity
  8
1
  6
Continuous
100
AcDbLine
 10
262.578914
 20
131.13091
 30
0.0
 11
262.578914
 21
131.0809219999998
 31
0.0
  0
LINE
  5
A6DD
330
A67F
100
AcDbEntity
  8
1
  6
Continuous
100
AcDbLine
 10
262.0789139999998
 20
131.63091
 30
0.0
 11
260.928914
 21
131.63091
 31
0.0
  0
LINE
  5
A6DE
330
A67F
100
AcDbEntity
  8
1
  6
Continuous
100
AcDbLine
 10
260.928914
 20
131.63091
 30
0.0
 11
258.028914
 21
133.63091
 31
0.0
  0
LINE
  5
A6DF
330
A67F
100
AcDbEntity
  8
1
  6
Continuous
100
AcDbLine
 10
269.0289139999998
 20
133.63091
 30
0.0
 11
266.128914
 21
131.63091
 31
0.0
  0
LINE
  5
A6E0
330
A67F
100
AcDbEntity
  8
1
  6
Continuous
100
AcDbLine
 10
265.2789139999998
 20
134.63091
 30
0.0
 11
261.7789139999998
 21
134.63091
 31
0.0
  0
LINE
  5
A6E1
330
A67F
100
AcDbEntity
  8
1
  6
Continuous
100
AcDbLine
 10
266.128914
 20
132.63091
 30
0.0
 11
260.928914
 21
132.63091
 31
0.0
  0
LINE
  5
A6E2
330
A67F
100
AcDbEntity
  8
4
  6
CENTER
100
AcDbLine
 10
263.5289139999998
 20
173.930922
 30
0.0
 11
263.5289139999998
 21
111.43091
 31
0.0
  0
LINE
  5
A6E3
330
A67F
100
AcDbEntity
  8
1
  6
Continuous
100
AcDbLine
 10
126.320345
 20
217.330916
 30
0.0
 11
126.320345
 21
236.330916
 31
0.0
  0
LINE
  5
A6E4
330
A67F
100
AcDbEntity
  8
1
  6
Continuous
100
AcDbLine
 10
126.320345
 20
217.330916
 30
0.0
 11
116.3203449999999
 21
217.330916
 31
0.0
  0
LINE
  5
A6E5
330
A67F
100
AcDbEntity
  8
1
  6
Continuous
100
AcDbLine
 10
116.3203449999999
 20
217.330916
 30
0.0
 11
116.3203449999999
 21
222.830916
 31
0.0
  0
LINE
  5
A6E6
330
A67F
100
AcDbEntity
  8
1
  6
Continuous
100
AcDbLine
 10
126.320345
 20
236.330916
 30
0.0
 11
116.3203449999999
 21
236.330916
 31
0.0
  0
LINE
  5
A6E7
330
A67F
100
AcDbEntity
  8
4
  6
CENTER
100
AcDbLine
 10
208.972374
 20
226.830916
 30
0.0
 11
82.88437399999997
 21
226.830916
 31
0.0
  0
LINE
  5
A6E8
330
A67F
100
AcDbEntity
  8
1
  6
Continuous
100
AcDbLine
 10
126.320345
 20
231.580916
 30
0.0
 11
116.3203449999999
 21
231.580916
 31
0.0
  0
LINE
  5
A6E9
330
A67F
100
AcDbEntity
  8
1
  6
Continuous
100
AcDbLine
 10
126.320345
 20
222.0809159999999
 30
0.0
 11
116.3203449999999
 21
222.0809159999999
 31
0.0
  0
LINE
  5
A6EA
330
A67F
100
AcDbEntity
  8
1
  6
Continuous
100
AcDbLine
 10
126.320345
 20
234.330916
 30
0.0
 11
116.3203449999999
 21
234.330916
 31
0.0
  0
LINE
  5
A6EB
330
A67F
100
AcDbEntity
  8
1
  6
Continuous
100
AcDbLine
 10
126.320345
 20
219.330916
 30
0.0
 11
116.3203449999999
 21
219.330916
 31
0.0
  0
LINE
  5
A6EC
330
A67F
100
AcDbEntity
  8
1
  6
Continuous
100
AcDbLine
 10
120.284374
 20
222.830916
 30
0.0
 11
120.284374
 21
230.8309159999998
 31
0.0
  0
LINE
  5
A6ED
330
A67F
100
AcDbEntity
  8
1
  6
Continuous
100
AcDbLine
 10
121.9843739999999
 20
225.580916
 30
0.0
 11
121.9843739999999
 21
228.080916
 31
0.0
  0
LINE
  5
A6EE
330
A67F
100
AcDbEntity
  8
1
  6
Continuous
100
AcDbLine
 10
126.320345
 20
225.580916
 30
0.0
 11
120.284374
 21
225.580916
 31
0.0
  0
LINE
  5
A6EF
330
A67F
100
AcDbEntity
  8
1
  6
Continuous
100
AcDbLine
 10
126.320345
 20
228.080916
 30
0.0
 11
120.284374
 21
228.080916
 31
0.0
  0
LINE
  5
A6F0
330
A67F
100
AcDbEntity
  8
1
  6
Continuous
100
AcDbLine
 10
87.83437399999998
 20
222.830916
 30
0.0
 11
87.83437399999998
 21
230.8309159999998
 31
0.0
  0
LINE
  5
A6F1
330
A67F
100
AcDbEntity
  8
1
  6
Continuous
100
AcDbLine
 10
130.984374
 20
230.8309159999998
 30
0.0
 11
126.320345
 21
230.8309159999998
 31
0.0
  0
LINE
  5
A6F2
330
A67F
100
AcDbEntity
  8
1
  6
Continuous
100
AcDbLine
 10
130.984374
 20
222.830916
 30
0.0
 11
126.320345
 21
222.830916
 31
0.0
  0
LINE
  5
A6F3
330
A67F
100
AcDbEntity
  8
1
  6
Continuous
100
AcDbLine
 10
116.3203449999999
 20
230.8309159999998
 30
0.0
 11
116.3203449999999
 21
236.330916
 31
0.0
  0
LINE
  5
A6F4
330
A67F
100
AcDbEntity
  8
1
  6
Continuous
100
AcDbLine
 10
130.984374
 20
222.830916
 30
0.0
 11
138.5703739999998
 21
224.637175
 31
0.0
  0
LINE
  5
A6F5
330
A67F
100
AcDbEntity
  8
1
  6
Continuous
100
AcDbLine
 10
130.984374
 20
230.8309159999998
 30
0.0
 11
138.5703739999998
 21
229.0246569999999
 31
0.0
  0
ARC
  5
A6F6
330
A67F
100
AcDbEntity
  8
1
  6
Continuous
100
AcDbCircle
 10
138.0703739999999
 20
226.830916
 30
0.0
 40
2.25
100
AcDbArc
 50
282.839588
 51
77.16041199999998
  0
CIRCLE
  5
A6F7
330
A67F
100
AcDbEntity
  8
1
  6
Continuous
100
AcDbCircle
 10
132.484374
 20
226.830916
 30
0.0
 40
1.6
  0
LINE
  5
A6F8
330
A67F
100
AcDbEntity
  8
4
  6
CENTER
100
AcDbLine
 10
132.484374
 20
223.2445629999999
 30
0.0
 11
132.484374
 21
230.417269
 31
0.0
  0
LINE
  5
A6F9
330
A67F
100
AcDbEntity
  8
1
  6
Continuous
100
AcDbLine
 10
120.284374
 20
230.8309159999998
 30
0.0
 11
87.83437399999998
 21
230.8309159999998
 31
0.0
  0
LINE
  5
A6FA
330
A67F
100
AcDbEntity
  8
1
  6
Continuous
100
AcDbLine
 10
120.284374
 20
222.830916
 30
0.0
 11
87.83437399999998
 21
222.830916
 31
0.0
  0
LINE
  5
A6FB
330
A67F
100
AcDbEntity
  8
4
  6
CENTER
100
AcDbLine
 10
132.484374
 20
142.630922
 30
0.0
 11
132.484374
 21
131.430922
 31
0.0
  0
LINE
  5
A6FC
330
A67F
100
AcDbEntity
  8
1
  6
Continuous
100
AcDbLine
 10
108.734374
 20
224.830916
 30
0.0
 11
108.734374
 21
228.830916
 31
0.0
  0
LINE
  5
A6FD
330
A67F
100
AcDbEntity
  8
1
  6
Continuous
100
AcDbLine
 10
107.2343739999999
 20
224.830916
 30
0.0
 11
107.2343739999999
 21
228.830916
 31
0.0
  0
LINE
  5
A6FE
330
A67F
100
AcDbEntity
  8
1
  6
Continuous
100
AcDbLine
 10
107.2343739999999
 20
228.830916
 30
0.0
 11
108.734374
 21
228.830916
 31
0.0
  0
LINE
  5
A6FF
330
A67F
100
AcDbEntity
  8
1
  6
Continuous
100
AcDbLine
 10
107.2343739999999
 20
224.830916
 30
0.0
 11
108.734374
 21
224.830916
 31
0.0
  0
LINE
  5
A700
330
A67F
100
AcDbEntity
  8
1
  6
Continuous
100
AcDbLine
 10
111.634374
 20
224.830916
 30
0.0
 11
111.634374
 21
228.830916
 31
0.0
  0
LINE
  5
A701
330
A67F
100
AcDbEntity
  8
1
  6
Continuous
100
AcDbLine
 10
110.1343739999998
 20
228.830916
 30
0.0
 11
111.634374
 21
228.830916
 31
0.0
  0
LINE
  5
A702
330
A67F
100
AcDbEntity
  8
1
  6
Continuous
100
AcDbLine
 10
110.1343739999998
 20
224.830916
 30
0.0
 11
110.1343739999998
 21
228.830916
 31
0.0
  0
LINE
  5
A703
330
A67F
100
AcDbEntity
  8
1
  6
Continuous
100
AcDbLine
 10
110.1343739999998
 20
224.830916
 30
0.0
 11
111.634374
 21
224.830916
 31
0.0
  0
LINE
  5
A704
330
A67F
100
AcDbEntity
  8
1
  6
Continuous
100
AcDbLine
 10
112.634374
 20
224.830916
 30
0.0
 11
112.634374
 21
228.830916
 31
0.0
  0
LINE
  5
A705
330
A67F
100
AcDbEntity
  8
1
  6
Continuous
100
AcDbLine
 10
114.1343739999998
 20
224.830916
 30
0.0
 11
114.1343739999998
 21
228.830916
 31
0.0
  0
LINE
  5
A706
330
A67F
100
AcDbEntity
  8
1
  6
Continuous
100
AcDbLine
 10
112.634374
 20
224.830916
 30
0.0
 11
114.1343739999998
 21
224.830916
 31
0.0
  0
LINE
  5
A707
330
A67F
100
AcDbEntity
  8
1
  6
Continuous
100
AcDbLine
 10
112.634374
 20
228.830916
 30
0.0
 11
114.1343739999998
 21
228.830916
 31
0.0
  0
LINE
  5
A708
330
A67F
100
AcDbEntity
  8
1
  6
Continuous
100
AcDbLine
 10
116.7343739999999
 20
224.830916
 30
0.0
 11
116.7343739999999
 21
228.830916
 31
0.0
  0
LINE
  5
A709
330
A67F
100
AcDbEntity
  8
1
  6
Continuous
100
AcDbLine
 10
115.234374
 20
224.830916
 30
0.0
 11
115.234374
 21
228.830916
 31
0.0
  0
LINE
  5
A70A
330
A67F
100
AcDbEntity
  8
1
  6
Continuous
100
AcDbLine
 10
115.234374
 20
228.830916
 30
0.0
 11
116.7343739999999
 21
228.830916
 31
0.0
  0
LINE
  5
A70B
330
A67F
100
AcDbEntity
  8
1
  6
Continuous
100
AcDbLine
 10
115.234374
 20
224.830916
 30
0.0
 11
116.7343739999999
 21
224.830916
 31
0.0
  0
LINE
  5
A70C
330
A67F
100
AcDbEntity
  8
1
  6
Continuous
100
AcDbLine
 10
117.834374
 20
224.830916
 30
0.0
 11
117.834374
 21
228.830916
 31
0.0
  0
LINE
  5
A70D
330
A67F
100
AcDbEntity
  8
1
  6
Continuous
100
AcDbLine
 10
119.3343739999999
 20
224.830916
 30
0.0
 11
119.3343739999999
 21
228.830916
 31
0.0
  0
LINE
  5
A70E
330
A67F
100
AcDbEntity
  8
1
  6
Continuous
100
AcDbLine
 10
117.834374
 20
228.830916
 30
0.0
 11
119.3343739999999
 21
228.830916
 31
0.0
  0
LINE
  5
A70F
330
A67F
100
AcDbEntity
  8
1
  6
Continuous
100
AcDbLine
 10
117.834374
 20
224.830916
 30
0.0
 11
119.3343739999999
 21
224.830916
 31
0.0
  0
LINE
  5
A710
330
A67F
100
AcDbEntity
  8
1
  6
Continuous
100
AcDbLine
 10
120.234374
 20
224.830916
 30
0.0
 11
120.234374
 21
228.830916
 31
0.0
  0
LINE
  5
A711
330
A67F
100
AcDbEntity
  8
1
  6
Continuous
100
AcDbLine
 10
120.234374
 20
224.830916
 30
0.0
 11
120.284374
 21
224.830916
 31
0.0
  0
LINE
  5
A712
330
A67F
100
AcDbEntity
  8
1
  6
Continuous
100
AcDbLine
 10
120.234374
 20
228.830916
 30
0.0
 11
120.284374
 21
228.830916
 31
0.0
  0
LINE
  5
A713
330
A67F
100
AcDbEntity
  8
1
  6
Continuous
100
AcDbLine
 10
105.8343739999999
 20
224.830916
 30
0.0
 11
105.8343739999999
 21
228.830916
 31
0.0
  0
LINE
  5
A714
330
A67F
100
AcDbEntity
  8
1
  6
Continuous
100
AcDbLine
 10
104.334374
 20
224.830916
 30
0.0
 11
104.334374
 21
228.830916
 31
0.0
  0
LINE
  5
A715
330
A67F
100
AcDbEntity
  8
1
  6
Continuous
100
AcDbLine
 10
105.8343739999999
 20
224.830916
 30
0.0
 11
104.334374
 21
224.830916
 31
0.0
  0
LINE
  5
A716
330
A67F
100
AcDbEntity
  8
1
  6
Continuous
100
AcDbLine
 10
105.8343739999999
 20
228.830916
 30
0.0
 11
104.334374
 21
228.830916
 31
0.0
  0
LINE
  5
A717
330
A67F
100
AcDbEntity
  8
5
  6
PHANTOM
100
AcDbLine
 10
203.3343739999998
 20
137.6309219999999
 30
0.0
 11
126.284374
 21
137.6309219999999
 31
0.0
  0
LINE
  5
A718
330
A67F
100
AcDbEntity
  8
5
  6
PHANTOM
100
AcDbLine
 10
203.834374
 20
136.430922
 30
0.0
 11
126.284374
 21
136.430922
 31
0.0
  0
LINE
  5
A719
330
A67F
100
AcDbEntity
  8
4
  6
CENTER
100
AcDbLine
 10
120.284374
 20
126.6309219999999
 30
0.0
 11
120.284374
 21
111.43091
 31
0.0
  0
ARC
  5
A71A
330
A67F
100
AcDbEntity
  8
1
  6
Continuous
100
AcDbCircle
 10
138.0703739999999
 20
59.088538
 30
0.0
 40
2.25
100
AcDbArc
 50
282.839588
 51
77.16041199999998
  0
LINE
  5
A71B
330
A67F
100
AcDbEntity
  8
4
  6
CENTER
100
AcDbLine
 10
132.484374
 20
55.50218499999999
 30
0.0
 11
132.484374
 21
62.67489000000001
 31
0.0
  0
LINE
  5
A71C
330
A67F
100
AcDbEntity
  8
1
  6
Continuous
100
AcDbLine
 10
126.320345
 20
49.58853799999999
 30
0.0
 11
126.320345
 21
68.588538
 31
0.0
  0
LINE
  5
A71D
330
A67F
100
AcDbEntity
  8
4
  6
CENTER
100
AcDbLine
 10
208.972374
 20
59.088538
 30
0.0
 11
82.88434499999999
 21
59.088538
 31
0.0
  0
LINE
  5
A71E
330
A67F
100
AcDbEntity
  8
1
  6
Continuous
100
AcDbLine
 10
126.320345
 20
49.58853799999999
 30
0.0
 11
116.3203449999999
 21
49.58853799999999
 31
0.0
  0
LINE
  5
A71F
330
A67F
100
AcDbEntity
  8
1
  6
Continuous
100
AcDbLine
 10
130.984374
 20
55.088538
 30
0.0
 11
126.320345
 21
55.088538
 31
0.0
  0
LINE
  5
A720
330
A67F
100
AcDbEntity
  8
1
  6
Continuous
100
AcDbLine
 10
130.984374
 20
55.088538
 30
0.0
 11
138.5703739999998
 21
56.894796
 31
0.0
  0
CIRCLE
  5
A721
330
A67F
100
AcDbEntity
  8
1
  6
Continuous
100
AcDbCircle
 10
132.484374
 20
59.088538
 30
0.0
 40
1.6
  0
LINE
  5
A722
330
A67F
100
AcDbEntity
  8
1
  6
Continuous
100
AcDbLine
 10
126.320345
 20
68.588538
 30
0.0
 11
116.3203449999999
 21
68.588538
 31
0.0
  0
LINE
  5
A723
330
A67F
100
AcDbEntity
  8
1
  6
Continuous
100
AcDbLine
 10
116.3203449999999
 20
49.58853799999999
 30
0.0
 11
116.3203449999999
 21
68.588538
 31
0.0
  0
LINE
  5
A724
330
A67F
100
AcDbEntity
  8
1
  6
Continuous
100
AcDbLine
 10
130.984374
 20
63.088538
 30
0.0
 11
126.320345
 21
63.088538
 31
0.0
  0
LINE
  5
A725
330
A67F
100
AcDbEntity
  8
1
  6
Continuous
100
AcDbLine
 10
130.984374
 20
63.088538
 30
0.0
 11
138.5703739999998
 21
61.282279
 31
0.0
  0
ARC
  5
A726
330
A67F
100
AcDbEntity
  8
1
  6
Continuous
100
AcDbCircle
 10
35.43983499999999
 20
138.1309099999998
 30
0.0
 40
0.5
100
AcDbArc
 50
0.0
 51
90.0
  0
LINE
  5
A727
330
A67F
100
AcDbEntity
  8
1
  6
Continuous
100
AcDbLine
 10
28.689835
 20
136.43091
 30
0.0
 11
28.689835
 21
132.63091
 31
0.0
  0
LINE
  5
A728
330
A67F
100
AcDbEntity
  8
1
  6
Continuous
100
AcDbLine
 10
32.18983499999998
 20
136.43091
 30
0.0
 11
32.18983499999998
 21
132.63091
 31
0.0
  0
LINE
  5
A729
330
A67F
100
AcDbEntity
  8
1
  6
Continuous
100
AcDbLine
 10
27.83983499999999
 20
136.1309099999998
 30
0.0
 11
27.83983499999999
 21
132.63091
 31
0.0
  0
LINE
  5
A72A
330
A67F
100
AcDbEntity
  8
1
  6
Continuous
100
AcDbLine
 10
33.03983499999999
 20
136.1309099999998
 30
0.0
 11
33.03983499999999
 21
132.63091
 31
0.0
  0
LINE
  5
A72B
330
A67F
100
AcDbEntity
  8
1
  6
Continuous
100
AcDbLine
 10
24.93983500000001
 20
138.1309099999998
 30
0.0
 11
24.93983500000001
 21
133.63091
 31
0.0
  0
LINE
  5
A72C
330
A67F
100
AcDbEntity
  8
1
  6
Continuous
100
AcDbLine
 10
26.48983499999999
 20
134.3053099999999
 30
0.0
 11
27.83983499999999
 21
134.3053099999999
 31
0.0
  0
LINE
  5
A72D
330
A67F
100
AcDbEntity
  8
1
  6
Continuous
100
AcDbLine
 10
26.18983500000001
 20
137.1309099999998
 30
0.0
 11
26.18983500000001
 21
134.60531
 31
0.0
  0
ARC
  5
A72E
330
A67F
100
AcDbEntity
  8
1
  6
Continuous
100
AcDbCircle
 10
26.68983499999999
 20
137.1309099999998
 30
0.0
 40
0.5
100
AcDbArc
 50
119.9999999999999
 51
180.0
  0
ARC
  5
A72F
330
A67F
100
AcDbEntity
  8
1
  6
Continuous
100
AcDbCircle
 10
25.43983499999999
 20
138.1309099999998
 30
0.0
 40
0.5
100
AcDbArc
 50
90.0
 51
180.0
  0
LINE
  5
A730
330
A67F
100
AcDbEntity
  8
1
  6
Continuous
100
AcDbLine
 10
27.83983499999999
 20
132.63091
 30
0.0
 11
28.689835
 21
132.63091
 31
0.0
  0
LINE
  5
A731
330
A67F
100
AcDbEntity
  8
1
  6
Continuous
100
AcDbLine
 10
24.93983500000001
 20
133.63091
 30
0.0
 11
27.83983499999999
 21
131.63091
 31
0.0
  0
LINE
  5
A732
330
A67F
100
AcDbEntity
  8
1
  6
Continuous
100
AcDbLine
 10
31.88983499999999
 20
131.63091
 30
0.0
 11
33.03983499999999
 21
131.63091
 31
0.0
  0
LINE
  5
A733
330
A67F
100
AcDbEntity
  8
1
  6
Continuous
100
AcDbLine
 10
31.389835
 20
131.13091
 30
0.0
 11
31.389835
 21
131.03091
 31
0.0
  0
ARC
  5
A734
330
A67F
100
AcDbEntity
  8
1
  6
Continuous
100
AcDbCircle
 10
31.88983499999999
 20
131.13091
 30
0.0
 40
0.5
100
AcDbArc
 50
90.0
 51
180.0
  0
LINE
  5
A735
330
A67F
100
AcDbEntity
  8
1
  6
Continuous
100
AcDbLine
 10
27.83983499999999
 20
131.63091
 30
0.0
 11
28.98983499999999
 21
131.63091
 31
0.0
  0
LINE
  5
A736
330
A67F
100
AcDbEntity
  8
1
  6
Continuous
100
AcDbLine
 10
29.489835
 20
131.13091
 30
0.0
 11
29.489835
 21
131.03091
 31
0.0
  0
ARC
  5
A737
330
A67F
100
AcDbEntity
  8
1
  6
Continuous
100
AcDbCircle
 10
28.98983499999999
 20
131.13091
 30
0.0
 40
0.5
100
AcDbArc
 50
0.0
 51
90.0
  0
LINE
  5
A738
330
A67F
100
AcDbEntity
  8
1
  6
Continuous
100
AcDbLine
 10
35.93983499999997
 20
138.1309099999998
 30
0.0
 11
35.93983499999997
 21
133.63091
 31
0.0
  0
LINE
  5
A739
330
A67F
100
AcDbEntity
  8
1
  6
Continuous
100
AcDbLine
 10
34.68983499999998
 20
137.1309099999998
 30
0.0
 11
34.68983499999998
 21
134.60531
 31
0.0
  0
ARC
  5
A73A
330
A67F
100
AcDbEntity
  8
1
  6
Continuous
100
AcDbCircle
 10
34.18983499999999
 20
137.1309099999998
 30
0.0
 40
0.5
100
AcDbArc
 50
0.0
 51
60.0
  0
LINE
  5
A73B
330
A67F
100
AcDbEntity
  8
1
  6
Continuous
100
AcDbLine
 10
25.43983499999999
 20
138.63091
 30
0.0
 11
26.439835
 21
138.63091
 31
0.0
  0
LINE
  5
A73C
330
A67F
100
AcDbEntity
  8
1
  6
Continuous
100
AcDbLine
 10
33.03983499999999
 20
131.63091
 30
0.0
 11
35.93983499999997
 21
133.63091
 31
0.0
  0
LINE
  5
A73D
330
A67F
100
AcDbEntity
  8
1
  6
Continuous
100
AcDbLine
 10
267.5289139999998
 20
136.43091
 30
0.0
 11
259.5289139999998
 21
136.43091
 31
0.0
  0
LINE
  5
A73E
330
A67F
100
AcDbEntity
  8
1
  6
Continuous
100
AcDbLine
 10
267.5289139999998
 20
137.5639229999999
 30
0.0
 11
267.5289139999998
 21
136.43091
 31
0.0
  0
LINE
  5
A73F
330
A67F
100
AcDbEntity
  8
1
  6
Continuous
100
AcDbLine
 10
259.5289139999998
 20
137.5639229999999
 30
0.0
 11
259.5289139999998
 21
136.43091
 31
0.0
  0
LINE
  5
A740
330
A67F
100
AcDbEntity
  8
1
  6
Continuous
100
AcDbLine
 10
130.320345
 20
61.088538
 30
0.0
 11
126.320345
 21
61.088538
 31
0.0
  0
LINE
  5
A741
330
A67F
100
AcDbEntity
  8
1
  6
Continuous
100
AcDbLine
 10
130.320345
 20
57.08853799999999
 30
0.0
 11
126.320345
 21
57.08853799999999
 31
0.0
  0
LINE
  5
A742
330
A67F
100
AcDbEntity
  8
1
  6
Continuous
100
AcDbLine
 10
126.320345
 20
64.58853799999999
 30
0.0
 11
116.3203449999999
 21
64.58853799999999
 31
0.0
  0
LINE
  5
A743
330
A67F
100
AcDbEntity
  8
1
  6
Continuous
100
AcDbLine
 10
126.320345
 20
53.588538
 30
0.0
 11
116.3203449999999
 21
53.588538
 31
0.0
  0
LINE
  5
A744
330
A67F
100
AcDbEntity
  8
4
  6
CENTER
100
AcDbLine
 10
120.3203449999999
 20
49.58853799999999
 30
0.0
 11
120.3203449999999
 21
68.588538
 31
0.0
  0
LINE
  5
A745
330
A67F
100
AcDbEntity
  8
1
  6
Continuous
100
AcDbLine
 10
116.9703449999999
 20
58.138538
 30
0.0
 11
116.9703449999999
 21
60.038538
 31
0.0
  0
LINE
  5
A746
330
A67F
100
AcDbEntity
  8
1
  6
Continuous
100
AcDbLine
 10
123.670345
 20
58.138538
 30
0.0
 11
123.670345
 21
60.038538
 31
0.0
  0
LINE
  5
A747
330
A67F
100
AcDbEntity
  8
1
  6
Continuous
100
AcDbLine
 10
121.8203449999998
 20
64.088538
 30
0.0
 11
118.8203449999999
 21
64.088538
 31
0.0
  0
LINE
  5
A748
330
A67F
100
AcDbEntity
  8
1
  6
Continuous
100
AcDbLine
 10
121.8203449999998
 20
54.088538
 30
0.0
 11
118.8203449999999
 21
54.088538
 31
0.0
  0
LINE
  5
A749
330
A67F
100
AcDbEntity
  8
1
  6
Continuous
100
AcDbLine
 10
118.8203449999999
 20
54.088538
 30
0.0
 11
118.8203449999999
 21
58.138538
 31
0.0
  0
LINE
  5
A74A
330
A67F
100
AcDbEntity
  8
1
  6
Continuous
100
AcDbLine
 10
121.8203449999998
 20
54.088538
 30
0.0
 11
121.8203449999998
 21
58.138538
 31
0.0
  0
LINE
  5
A74B
330
A67F
100
AcDbEntity
  8
1
  6
Continuous
100
AcDbLine
 10
118.3203449999999
 20
58.138538
 30
0.0
 11
118.3203449999999
 21
60.038538
 31
0.0
  0
LINE
  5
A74C
330
A67F
100
AcDbEntity
  8
1
  6
Continuous
100
AcDbLine
 10
122.3203449999999
 20
58.138538
 30
0.0
 11
122.3203449999999
 21
60.038538
 31
0.0
  0
LINE
  5
A74D
330
A67F
100
AcDbEntity
  8
1
  6
Continuous
100
AcDbLine
 10
121.8203449999998
 20
60.038538
 30
0.0
 11
121.8203449999998
 21
64.088538
 31
0.0
  0
LINE
  5
A74E
330
A67F
100
AcDbEntity
  8
1
  6
Continuous
100
AcDbLine
 10
118.8203449999999
 20
60.038538
 30
0.0
 11
118.8203449999999
 21
64.088538
 31
0.0
  0
LINE
  5
A74F
330
A67F
100
AcDbEntity
  8
1
  6
Continuous
100
AcDbLine
 10
130.320345
 20
57.08853799999999
 30
0.0
 11
130.320345
 21
61.088538
 31
0.0
  0
LINE
  5
A750
330
A67F
100
AcDbEntity
  8
1
  6
Continuous
100
AcDbLine
 10
123.670345
 20
60.038538
 30
0.0
 11
121.8203449999998
 21
60.038538
 31
0.0
  0
LINE
  5
A751
330
A67F
100
AcDbEntity
  8
1
  6
Continuous
100
AcDbLine
 10
123.670345
 20
58.138538
 30
0.0
 11
121.8203449999998
 21
58.138538
 31
0.0
  0
LINE
  5
A752
330
A67F
100
AcDbEntity
  8
1
  6
Continuous
100
AcDbLine
 10
118.8203449999999
 20
60.038538
 30
0.0
 11
116.9703449999999
 21
60.038538
 31
0.0
  0
LINE
  5
A753
330
A67F
100
AcDbEntity
  8
1
  6
Continuous
100
AcDbLine
 10
118.8203449999999
 20
58.138538
 30
0.0
 11
116.9703449999999
 21
58.138538
 31
0.0
  0
ARC
  5
A754
330
A67F
100
AcDbEntity
  8
5
  6
PHANTOM
100
AcDbCircle
 10
114.0843739999999
 20
142.630922
 30
0.0
 40
5.0
100
AcDbArc
 50
0.0
 51
270.0
  0
LINE
  5
A755
330
A67F
100
AcDbEntity
  8
5
  6
PHANTOM
100
AcDbLine
 10
119.084374
 20
142.630922
 30
0.0
 11
119.084374
 21
138.630922
 31
0.0
  0
LINE
  5
A756
330
A67F
100
AcDbEntity
  8
5
  6
PHANTOM
100
AcDbLine
 10
114.0843739999999
 20
137.6309219999999
 30
0.0
 11
116.284374
 21
137.6309219999999
 31
0.0
  0
ARC
  5
A757
330
A67F
100
AcDbEntity
  8
5
  6
PHANTOM
100
AcDbCircle
 10
114.0843739999999
 20
142.630922
 30
0.0
 40
6.2
100
AcDbArc
 50
0.0
 51
270.0
  0
LINE
  5
A758
330
A67F
100
AcDbEntity
  8
5
  6
PHANTOM
100
AcDbLine
 10
120.284374
 20
142.630922
 30
0.0
 11
120.284374
 21
138.630922
 31
0.0
  0
LINE
  5
A759
330
A67F
100
AcDbEntity
  8
5
  6
PHANTOM
100
AcDbLine
 10
114.0843739999999
 20
136.430922
 30
0.0
 11
116.284374
 21
136.430922
 31
0.0
  0
LINE
  5
A75A
330
A67F
100
AcDbEntity
  8
1
  6
Continuous
100
AcDbLine
 10
33.03983499999999
 20
134.3053099999999
 30
0.0
 11
34.38983499999999
 21
134.3053099999999
 31
0.0
  0
LINE
  5
A75B
330
A67F
100
AcDbEntity
  8
1
  6
Continuous
100
AcDbLine
 10
28.689835
 20
133.93091
 30
0.0
 11
32.18983499999998
 21
133.93091
 31
0.0
  0
LINE
  5
A75C
330
A67F
100
AcDbEntity
  8
1
  6
Continuous
100
AcDbLine
 10
27.83983499999999
 20
136.1309099999998
 30
0.0
 11
26.18983500000001
 21
136.1309099999998
 31
0.0
  0
LINE
  5
A75D
330
A67F
100
AcDbEntity
  8
1
  6
Continuous
100
AcDbLine
 10
34.68983499999998
 20
136.1309099999998
 30
0.0
 11
33.03983499999999
 21
136.1309099999998
 31
0.0
  0
ARC
  5
A75E
330
A67F
100
AcDbEntity
  8
1
  6
Continuous
100
AcDbCircle
 10
34.38983499999999
 20
134.60531
 30
0.0
 40
0.3
100
AcDbArc
 50
270.0
 51
0.0
  0
ARC
  5
A75F
330
A67F
100
AcDbEntity
  8
1
  6
Continuous
100
AcDbCircle
 10
26.48983499999999
 20
134.60531
 30
0.0
 40
0.3
100
AcDbArc
 50
180.0
 51
270.0
  0
LINE
  5
A760
330
A67F
100
AcDbEntity
  8
1
  6
Continuous
100
AcDbLine
 10
100.8843739999998
 20
224.830916
 30
0.0
 11
100.8843739999998
 21
228.830916
 31
0.0
  0
LINE
  5
A761
330
A67F
100
AcDbEntity
  8
1
  6
Continuous
100
AcDbLine
 10
102.0343739999999
 20
224.830916
 30
0.0
 11
102.0343739999999
 21
228.830916
 31
0.0
  0
LINE
  5
A762
330
A67F
100
AcDbEntity
  8
1
  6
Continuous
100
AcDbLine
 10
103.534374
 20
224.830916
 30
0.0
 11
103.534374
 21
228.830916
 31
0.0
  0
LINE
  5
A763
330
A67F
100
AcDbEntity
  8
1
  6
Continuous
100
AcDbLine
 10
99.38437399999999
 20
224.830916
 30
0.0
 11
99.38437399999999
 21
228.830916
 31
0.0
  0
LINE
  5
A764
330
A67F
100
AcDbEntity
  8
1
  6
Continuous
100
AcDbLine
 10
88.78437400000001
 20
224.830916
 30
0.0
 11
88.78437400000001
 21
228.830916
 31
0.0
  0
LINE
  5
A765
330
A67F
100
AcDbEntity
  8
1
  6
Continuous
100
AcDbLine
 10
90.28437399999999
 20
224.830916
 30
0.0
 11
90.28437399999999
 21
228.830916
 31
0.0
  0
LINE
  5
A766
330
A67F
100
AcDbEntity
  8
1
  6
Continuous
100
AcDbLine
 10
92.88437399999999
 20
224.830916
 30
0.0
 11
92.88437399999999
 21
228.830916
 31
0.0
  0
LINE
  5
A767
330
A67F
100
AcDbEntity
  8
1
  6
Continuous
100
AcDbLine
 10
91.38437399999999
 20
224.830916
 30
0.0
 11
91.38437399999999
 21
228.830916
 31
0.0
  0
LINE
  5
A768
330
A67F
100
AcDbEntity
  8
1
  6
Continuous
100
AcDbLine
 10
93.984374
 20
224.830916
 30
0.0
 11
93.984374
 21
228.830916
 31
0.0
  0
LINE
  5
A769
330
A67F
100
AcDbEntity
  8
1
  6
Continuous
100
AcDbLine
 10
95.484374
 20
224.830916
 30
0.0
 11
95.484374
 21
228.830916
 31
0.0
  0
LINE
  5
A76A
330
A67F
100
AcDbEntity
  8
1
  6
Continuous
100
AcDbLine
 10
96.484374
 20
224.830916
 30
0.0
 11
96.484374
 21
228.830916
 31
0.0
  0
LINE
  5
A76B
330
A67F
100
AcDbEntity
  8
1
  6
Continuous
100
AcDbLine
 10
97.984374
 20
224.830916
 30
0.0
 11
97.984374
 21
228.830916
 31
0.0
  0
LINE
  5
A76C
330
A67F
100
AcDbEntity
  8
1
  6
Continuous
100
AcDbLine
 10
95.484374
 20
224.830916
 30
0.0
 11
93.984374
 21
224.830916
 31
0.0
  0
LINE
  5
A76D
330
A67F
100
AcDbEntity
  8
1
  6
Continuous
100
AcDbLine
 10
97.984374
 20
224.830916
 30
0.0
 11
96.484374
 21
224.830916
 31
0.0
  0
LINE
  5
A76E
330
A67F
100
AcDbEntity
  8
1
  6
Continuous
100
AcDbLine
 10
102.0343739999999
 20
224.830916
 30
0.0
 11
103.534374
 21
224.830916
 31
0.0
  0
LINE
  5
A76F
330
A67F
100
AcDbEntity
  8
1
  6
Continuous
100
AcDbLine
 10
100.8843739999998
 20
224.830916
 30
0.0
 11
99.38437399999999
 21
224.830916
 31
0.0
  0
LINE
  5
A770
330
A67F
100
AcDbEntity
  8
1
  6
Continuous
100
AcDbLine
 10
90.28437399999999
 20
224.830916
 30
0.0
 11
88.78437400000001
 21
224.830916
 31
0.0
  0
LINE
  5
A771
330
A67F
100
AcDbEntity
  8
1
  6
Continuous
100
AcDbLine
 10
92.88437399999999
 20
224.830916
 30
0.0
 11
91.38437399999999
 21
224.830916
 31
0.0
  0
LINE
  5
A772
330
A67F
100
AcDbEntity
  8
1
  6
Continuous
100
AcDbLine
 10
95.484374
 20
228.830916
 30
0.0
 11
93.984374
 21
228.830916
 31
0.0
  0
LINE
  5
A773
330
A67F
100
AcDbEntity
  8
1
  6
Continuous
100
AcDbLine
 10
97.984374
 20
228.830916
 30
0.0
 11
96.484374
 21
228.830916
 31
0.0
  0
LINE
  5
A774
330
A67F
100
AcDbEntity
  8
1
  6
Continuous
100
AcDbLine
 10
102.0343739999999
 20
228.830916
 30
0.0
 11
103.534374
 21
228.830916
 31
0.0
  0
LINE
  5
A775
330
A67F
100
AcDbEntity
  8
1
  6
Continuous
100
AcDbLine
 10
100.8843739999998
 20
228.830916
 30
0.0
 11
99.38437399999999
 21
228.830916
 31
0.0
  0
LINE
  5
A776
330
A67F
100
AcDbEntity
  8
1
  6
Continuous
100
AcDbLine
 10
90.28437399999999
 20
228.830916
 30
0.0
 11
88.78437400000001
 21
228.830916
 31
0.0
  0
LINE
  5
A777
330
A67F
100
AcDbEntity
  8
1
  6
Continuous
100
AcDbLine
 10
92.88437399999999
 20
228.830916
 30
0.0
 11
91.38437399999999
 21
228.830916
 31
0.0
  0
LINE
  5
A778
330
A67F
100
AcDbEntity
  8
1
  6
Continuous
100
AcDbLine
 10
87.88437399999997
 20
228.830916
 30
0.0
 11
87.83437399999998
 21
228.830916
 31
0.0
  0
LINE
  5
A779
330
A67F
100
AcDbEntity
  8
1
  6
Continuous
100
AcDbLine
 10
87.88437399999997
 20
224.830916
 30
0.0
 11
87.88437399999997
 21
228.830916
 31
0.0
  0
LINE
  5
A77A
330
A67F
100
AcDbEntity
  8
1
  6
Continuous
100
AcDbLine
 10
87.88437399999997
 20
224.830916
 30
0.0
 11
87.83437399999998
 21
224.830916
 31
0.0
  0
LINE
  5
A77B
330
A67F
100
AcDbEntity
  8
1
  6
Continuous
100
AcDbLine
 10
87.93434499999998
 20
57.08853799999999
 30
0.0
 11
87.93434499999998
 21
61.088538
 31
0.0
  0
LINE
  5
A77C
330
A67F
100
AcDbEntity
  8
1
  6
Continuous
100
AcDbLine
 10
98.03434500000001
 20
57.08853799999999
 30
0.0
 11
98.03434500000001
 21
61.088538
 31
0.0
  0
LINE
  5
A77D
330
A67F
100
AcDbEntity
  8
1
  6
Continuous
100
AcDbLine
 10
96.53434500000001
 20
57.08853799999999
 30
0.0
 11
96.53434500000001
 21
61.088538
 31
0.0
  0
LINE
  5
A77E
330
A67F
100
AcDbEntity
  8
1
  6
Continuous
100
AcDbLine
 10
95.53434499999999
 20
57.08853799999999
 30
0.0
 11
95.53434499999999
 21
61.088538
 31
0.0
  0
LINE
  5
A77F
330
A67F
100
AcDbEntity
  8
1
  6
Continuous
100
AcDbLine
 10
94.03434500000001
 20
57.08853799999999
 30
0.0
 11
94.03434500000001
 21
61.088538
 31
0.0
  0
LINE
  5
A780
330
A67F
100
AcDbEntity
  8
1
  6
Continuous
100
AcDbLine
 10
91.43434499999999
 20
57.08853799999999
 30
0.0
 11
91.43434499999999
 21
61.088538
 31
0.0
  0
LINE
  5
A781
330
A67F
100
AcDbEntity
  8
1
  6
Continuous
100
AcDbLine
 10
92.934345
 20
57.08853799999999
 30
0.0
 11
92.934345
 21
61.088538
 31
0.0
  0
LINE
  5
A782
330
A67F
100
AcDbEntity
  8
1
  6
Continuous
100
AcDbLine
 10
90.33434500000002
 20
57.08853799999999
 30
0.0
 11
90.33434500000002
 21
61.088538
 31
0.0
  0
LINE
  5
A783
330
A67F
100
AcDbEntity
  8
1
  6
Continuous
100
AcDbLine
 10
88.83434499999998
 20
57.08853799999999
 30
0.0
 11
88.83434499999998
 21
61.088538
 31
0.0
  0
LINE
  5
A784
330
A67F
100
AcDbEntity
  8
1
  6
Continuous
100
AcDbLine
 10
99.434345
 20
57.08853799999999
 30
0.0
 11
99.434345
 21
61.088538
 31
0.0
  0
LINE
  5
A785
330
A67F
100
AcDbEntity
  8
1
  6
Continuous
100
AcDbLine
 10
103.334345
 20
57.08853799999999
 30
0.0
 11
103.334345
 21
61.088538
 31
0.0
  0
LINE
  5
A786
330
A67F
100
AcDbEntity
  8
1
  6
Continuous
100
AcDbLine
 10
101.8343449999999
 20
57.08853799999999
 30
0.0
 11
101.8343449999999
 21
61.088538
 31
0.0
  0
LINE
  5
A787
330
A67F
100
AcDbEntity
  8
1
  6
Continuous
100
AcDbLine
 10
100.934345
 20
57.08853799999999
 30
0.0
 11
100.934345
 21
61.088538
 31
0.0
  0
LINE
  5
A788
330
A67F
100
AcDbEntity
  8
1
  6
Continuous
100
AcDbLine
 10
104.3703449999999
 20
57.08853799999999
 30
0.0
 11
104.3703449999999
 21
61.088538
 31
0.0
  0
LINE
  5
A789
330
A67F
100
AcDbEntity
  8
1
  6
Continuous
100
AcDbLine
 10
105.870345
 20
57.08853799999999
 30
0.0
 11
105.870345
 21
61.088538
 31
0.0
  0
LINE
  5
A78A
330
A67F
100
AcDbEntity
  8
1
  6
Continuous
100
AcDbLine
 10
115.2703449999999
 20
57.08853799999999
 30
0.0
 11
115.2703449999999
 21
61.088538
 31
0.0
  0
LINE
  5
A78B
330
A67F
100
AcDbEntity
  8
1
  6
Continuous
100
AcDbLine
 10
114.170345
 20
57.08853799999999
 30
0.0
 11
114.170345
 21
61.088538
 31
0.0
  0
LINE
  5
A78C
330
A67F
100
AcDbEntity
  8
1
  6
Continuous
100
AcDbLine
 10
112.6703449999999
 20
57.08853799999999
 30
0.0
 11
112.6703449999999
 21
61.088538
 31
0.0
  0
LINE
  5
A78D
330
A67F
100
AcDbEntity
  8
1
  6
Continuous
100
AcDbLine
 10
110.170345
 20
57.08853799999999
 30
0.0
 11
110.170345
 21
61.088538
 31
0.0
  0
LINE
  5
A78E
330
A67F
100
AcDbEntity
  8
1
  6
Continuous
100
AcDbLine
 10
111.6703449999999
 20
57.08853799999999
 30
0.0
 11
111.6703449999999
 21
61.088538
 31
0.0
  0
LINE
  5
A78F
330
A67F
100
AcDbEntity
  8
1
  6
Continuous
100
AcDbLine
 10
107.2703449999999
 20
57.08853799999999
 30
0.0
 11
107.2703449999999
 21
61.088538
 31
0.0
  0
LINE
  5
A790
330
A67F
100
AcDbEntity
  8
1
  6
Continuous
100
AcDbLine
 10
108.770345
 20
57.08853799999999
 30
0.0
 11
108.770345
 21
61.088538
 31
0.0
  0
LINE
  5
A791
330
A67F
100
AcDbEntity
  8
1
  6
Continuous
100
AcDbLine
 10
87.88434499999999
 20
55.088538
 30
0.0
 11
87.88434499999999
 21
63.088538
 31
0.0
  0
LINE
  5
A792
330
A67F
100
AcDbEntity
  8
1
  6
Continuous
100
AcDbLine
 10
100.934345
 20
57.08853799999999
 30
0.0
 11
99.434345
 21
57.08853799999999
 31
0.0
  0
LINE
  5
A793
330
A67F
100
AcDbEntity
  8
1
  6
Continuous
100
AcDbLine
 10
116.3203449999999
 20
55.088538
 30
0.0
 11
87.88434499999999
 21
55.088538
 31
0.0
  0
LINE
  5
A794
330
A67F
100
AcDbEntity
  8
1
  6
Continuous
100
AcDbLine
 10
87.93434499999998
 20
57.08853799999999
 30
0.0
 11
87.88434499999999
 21
57.08853799999999
 31
0.0
  0
LINE
  5
A795
330
A67F
100
AcDbEntity
  8
1
  6
Continuous
100
AcDbLine
 10
92.934345
 20
57.08853799999999
 30
0.0
 11
91.43434499999999
 21
57.08853799999999
 31
0.0
  0
LINE
  5
A796
330
A67F
100
AcDbEntity
  8
1
  6
Continuous
100
AcDbLine
 10
90.33434500000002
 20
57.08853799999999
 30
0.0
 11
88.83434499999998
 21
57.08853799999999
 31
0.0
  0
LINE
  5
A797
330
A67F
100
AcDbEntity
  8
1
  6
Continuous
100
AcDbLine
 10
98.03434500000001
 20
57.08853799999999
 30
0.0
 11
96.53434500000001
 21
57.08853799999999
 31
0.0
  0
LINE
  5
A798
330
A67F
100
AcDbEntity
  8
1
  6
Continuous
100
AcDbLine
 10
95.53434499999999
 20
57.08853799999999
 30
0.0
 11
94.03434500000001
 21
57.08853799999999
 31
0.0
  0
LINE
  5
A799
330
A67F
100
AcDbEntity
  8
1
  6
Continuous
100
AcDbLine
 10
101.8343449999999
 20
57.08853799999999
 30
0.0
 11
103.334345
 21
57.08853799999999
 31
0.0
  0
LINE
  5
A79A
330
A67F
100
AcDbEntity
  8
1
  6
Continuous
100
AcDbLine
 10
105.870345
 20
57.08853799999999
 30
0.0
 11
104.3703449999999
 21
57.08853799999999
 31
0.0
  0
LINE
  5
A79B
330
A67F
100
AcDbEntity
  8
1
  6
Continuous
100
AcDbLine
 10
112.6703449999999
 20
57.08853799999999
 30
0.0
 11
114.170345
 21
57.08853799999999
 31
0.0
  0
LINE
  5
A79C
330
A67F
100
AcDbEntity
  8
1
  6
Continuous
100
AcDbLine
 10
110.170345
 20
57.08853799999999
 30
0.0
 11
111.6703449999999
 21
57.08853799999999
 31
0.0
  0
LINE
  5
A79D
330
A67F
100
AcDbEntity
  8
1
  6
Continuous
100
AcDbLine
 10
107.2703449999999
 20
57.08853799999999
 30
0.0
 11
108.770345
 21
57.08853799999999
 31
0.0
  0
LINE
  5
A79E
330
A67F
100
AcDbEntity
  8
1
  6
Continuous
100
AcDbLine
 10
115.2703449999999
 20
57.08853799999999
 30
0.0
 11
116.3203449999999
 21
57.08853799999999
 31
0.0
  0
LINE
  5
A79F
330
A67F
100
AcDbEntity
  8
1
  6
Continuous
100
AcDbLine
 10
100.934345
 20
61.088538
 30
0.0
 11
99.434345
 21
61.088538
 31
0.0
  0
LINE
  5
A7A0
330
A67F
100
AcDbEntity
  8
1
  6
Continuous
100
AcDbLine
 10
116.3203449999999
 20
63.088538
 30
0.0
 11
87.88434499999999
 21
63.088538
 31
0.0
  0
LINE
  5
A7A1
330
A67F
100
AcDbEntity
  8
1
  6
Continuous
100
AcDbLine
 10
87.93434499999998
 20
61.088538
 30
0.0
 11
87.88434499999999
 21
61.088538
 31
0.0
  0
LINE
  5
A7A2
330
A67F
100
AcDbEntity
  8
1
  6
Continuous
100
AcDbLine
 10
92.934345
 20
61.088538
 30
0.0
 11
91.43434499999999
 21
61.088538
 31
0.0
  0
LINE
  5
A7A3
330
A67F
100
AcDbEntity
  8
1
  6
Continuous
100
AcDbLine
 10
90.33434500000002
 20
61.088538
 30
0.0
 11
88.83434499999998
 21
61.088538
 31
0.0
  0
LINE
  5
A7A4
330
A67F
100
AcDbEntity
  8
1
  6
Continuous
100
AcDbLine
 10
98.03434500000001
 20
61.088538
 30
0.0
 11
96.53434500000001
 21
61.088538
 31
0.0
  0
LINE
  5
A7A5
330
A67F
100
AcDbEntity
  8
1
  6
Continuous
100
AcDbLine
 10
95.53434499999999
 20
61.088538
 30
0.0
 11
94.03434500000001
 21
61.088538
 31
0.0
  0
LINE
  5
A7A6
330
A67F
100
AcDbEntity
  8
1
  6
Continuous
100
AcDbLine
 10
101.8343449999999
 20
61.088538
 30
0.0
 11
103.334345
 21
61.088538
 31
0.0
  0
LINE
  5
A7A7
330
A67F
100
AcDbEntity
  8
1
  6
Continuous
100
AcDbLine
 10
105.870345
 20
61.088538
 30
0.0
 11
104.3703449999999
 21
61.088538
 31
0.0
  0
LINE
  5
A7A8
330
A67F
100
AcDbEntity
  8
1
  6
Continuous
100
AcDbLine
 10
112.6703449999999
 20
61.088538
 30
0.0
 11
114.170345
 21
61.088538
 31
0.0
  0
LINE
  5
A7A9
330
A67F
100
AcDbEntity
  8
1
  6
Continuous
100
AcDbLine
 10
110.170345
 20
61.088538
 30
0.0
 11
111.6703449999999
 21
61.088538
 31
0.0
  0
LINE
  5
A7AA
330
A67F
100
AcDbEntity
  8
1
  6
Continuous
100
AcDbLine
 10
107.2703449999999
 20
61.088538
 30
0.0
 11
108.770345
 21
61.088538
 31
0.0
  0
LINE
  5
A7AB
330
A67F
100
AcDbEntity
  8
1
  6
Continuous
100
AcDbLine
 10
115.2703449999999
 20
61.088538
 30
0.0
 11
116.3203449999999
 21
61.088538
 31
0.0
  0
LINE
  5
A7AC
330
A67F
100
AcDbEntity
  8
1
  6
Continuous
100
AcDbLine
 10
265.5289139999998
 20
146.630922
 30
0.0
 11
261.5289139999998
 21
146.630922
 31
0.0
  0
LINE
  5
A7AD
330
A67F
100
AcDbEntity
  8
1
  6
Continuous
100
AcDbLine
 10
265.5289139999998
 20
145.1309219999999
 30
0.0
 11
261.5289139999998
 21
145.1309219999999
 31
0.0
  0
LINE
  5
A7AE
330
A67F
100
AcDbEntity
  8
1
  6
Continuous
100
AcDbLine
 10
265.5289139999998
 20
142.630922
 30
0.0
 11
261.5289139999998
 21
142.630922
 31
0.0
  0
LINE
  5
A7AF
330
A67F
100
AcDbEntity
  8
1
  6
Continuous
100
AcDbLine
 10
265.5289139999998
 20
148.030922
 30
0.0
 11
261.5289139999998
 21
148.030922
 31
0.0
  0
LINE
  5
A7B0
330
A67F
100
AcDbEntity
  8
1
  6
Continuous
100
AcDbLine
 10
265.5289139999998
 20
152.430922
 30
0.0
 11
261.5289139999998
 21
152.430922
 31
0.0
  0
LINE
  5
A7B1
330
A67F
100
AcDbEntity
  8
1
  6
Continuous
100
AcDbLine
 10
265.5289139999998
 20
150.930922
 30
0.0
 11
261.5289139999998
 21
150.930922
 31
0.0
  0
LINE
  5
A7B2
330
A67F
100
AcDbEntity
  8
1
  6
Continuous
100
AcDbLine
 10
265.5289139999998
 20
149.530922
 30
0.0
 11
261.5289139999998
 21
149.530922
 31
0.0
  0
LINE
  5
A7B3
330
A67F
100
AcDbEntity
  8
1
  6
Continuous
100
AcDbLine
 10
265.5289139999998
 20
153.430922
 30
0.0
 11
261.5289139999998
 21
153.430922
 31
0.0
  0
LINE
  5
A7B4
330
A67F
100
AcDbEntity
  8
1
  6
Continuous
100
AcDbLine
 10
265.5289139999998
 20
154.930922
 30
0.0
 11
261.5289139999998
 21
154.930922
 31
0.0
  0
LINE
  5
A7B5
330
A67F
100
AcDbEntity
  8
1
  6
Continuous
100
AcDbLine
 10
265.5289139999998
 20
168.8809219999999
 30
0.0
 11
261.5289139999998
 21
168.8809219999999
 31
0.0
  0
LINE
  5
A7B6
330
A67F
100
AcDbEntity
  8
1
  6
Continuous
100
AcDbLine
 10
265.5289139999998
 20
167.9809219999999
 30
0.0
 11
261.5289139999998
 21
167.9809219999999
 31
0.0
  0
LINE
  5
A7B7
330
A67F
100
AcDbEntity
  8
1
  6
Continuous
100
AcDbLine
 10
265.5289139999998
 20
166.4809219999999
 30
0.0
 11
261.5289139999998
 21
166.4809219999999
 31
0.0
  0
LINE
  5
A7B8
330
A67F
100
AcDbEntity
  8
1
  6
Continuous
100
AcDbLine
 10
265.5289139999998
 20
163.8809219999999
 30
0.0
 11
261.5289139999998
 21
163.8809219999999
 31
0.0
  0
LINE
  5
A7B9
330
A67F
100
AcDbEntity
  8
1
  6
Continuous
100
AcDbLine
 10
265.5289139999998
 20
165.380922
 30
0.0
 11
261.5289139999998
 21
165.380922
 31
0.0
  0
LINE
  5
A7BA
330
A67F
100
AcDbEntity
  8
1
  6
Continuous
100
AcDbLine
 10
265.5289139999998
 20
162.780922
 30
0.0
 11
261.5289139999998
 21
162.780922
 31
0.0
  0
LINE
  5
A7BB
330
A67F
100
AcDbEntity
  8
1
  6
Continuous
100
AcDbLine
 10
265.5289139999998
 20
161.280922
 30
0.0
 11
261.5289139999998
 21
161.280922
 31
0.0
  0
LINE
  5
A7BC
330
A67F
100
AcDbEntity
  8
1
  6
Continuous
100
AcDbLine
 10
265.5289139999998
 20
158.780922
 30
0.0
 11
261.5289139999998
 21
158.780922
 31
0.0
  0
LINE
  5
A7BD
330
A67F
100
AcDbEntity
  8
1
  6
Continuous
100
AcDbLine
 10
265.5289139999998
 20
160.280922
 30
0.0
 11
261.5289139999998
 21
160.280922
 31
0.0
  0
LINE
  5
A7BE
330
A67F
100
AcDbEntity
  8
1
  6
Continuous
100
AcDbLine
 10
265.5289139999998
 20
155.880922
 30
0.0
 11
261.5289139999998
 21
155.880922
 31
0.0
  0
LINE
  5
A7BF
330
A67F
100
AcDbEntity
  8
1
  6
Continuous
100
AcDbLine
 10
265.5289139999998
 20
157.380922
 30
0.0
 11
261.5289139999998
 21
157.380922
 31
0.0
  0
LINE
  5
A7C0
330
A67F
100
AcDbEntity
  8
1
  6
Continuous
100
AcDbLine
 10
267.5289139999998
 20
168.930922
 30
0.0
 11
259.5289139999998
 21
168.930922
 31
0.0
  0
LINE
  5
A7C1
330
A67F
100
AcDbEntity
  8
1
  6
Continuous
100
AcDbLine
 10
265.5289139999998
 20
149.530922
 30
0.0
 11
265.5289139999998
 21
148.030922
 31
0.0
  0
LINE
  5
A7C2
330
A67F
100
AcDbEntity
  8
1
  6
Continuous
100
AcDbLine
 10
267.5289139999998
 20
168.930922
 30
0.0
 11
267.5289139999998
 21
138.680922
 31
0.0
  0
LINE
  5
A7C3
330
A67F
100
AcDbEntity
  8
1
  6
Continuous
100
AcDbLine
 10
265.5289139999998
 20
146.630922
 30
0.0
 11
265.5289139999998
 21
142.630922
 31
0.0
  0
LINE
  5
A7C4
330
A67F
100
AcDbEntity
  8
1
  6
Continuous
100
AcDbLine
 10
265.5289139999998
 20
150.930922
 30
0.0
 11
265.5289139999998
 21
152.430922
 31
0.0
  0
LINE
  5
A7C5
330
A67F
100
AcDbEntity
  8
1
  6
Continuous
100
AcDbLine
 10
265.5289139999998
 20
154.930922
 30
0.0
 11
265.5289139999998
 21
153.430922
 31
0.0
  0
LINE
  5
A7C6
330
A67F
100
AcDbEntity
  8
1
  6
Continuous
100
AcDbLine
 10
265.5289139999998
 20
161.280922
 30
0.0
 11
265.5289139999998
 21
162.780922
 31
0.0
  0
LINE
  5
A7C7
330
A67F
100
AcDbEntity
  8
1
  6
Continuous
100
AcDbLine
 10
265.5289139999998
 20
158.780922
 30
0.0
 11
265.5289139999998
 21
160.280922
 31
0.0
  0
LINE
  5
A7C8
330
A67F
100
AcDbEntity
  8
1
  6
Continuous
100
AcDbLine
 10
265.5289139999998
 20
155.880922
 30
0.0
 11
265.5289139999998
 21
157.380922
 31
0.0
  0
LINE
  5
A7C9
330
A67F
100
AcDbEntity
  8
1
  6
Continuous
100
AcDbLine
 10
265.5289139999998
 20
168.8809219999999
 30
0.0
 11
265.5289139999998
 21
168.930922
 31
0.0
  0
LINE
  5
A7CA
330
A67F
100
AcDbEntity
  8
1
  6
Continuous
100
AcDbLine
 10
265.5289139999998
 20
166.4809219999999
 30
0.0
 11
265.5289139999998
 21
167.9809219999999
 31
0.0
  0
LINE
  5
A7CB
330
A67F
100
AcDbEntity
  8
1
  6
Continuous
100
AcDbLine
 10
265.5289139999998
 20
163.8809219999999
 30
0.0
 11
265.5289139999998
 21
165.380922
 31
0.0
  0
LINE
  5
A7CC
330
A67F
100
AcDbEntity
  8
1
  6
Continuous
100
AcDbLine
 10
261.5289139999998
 20
149.530922
 30
0.0
 11
261.5289139999998
 21
148.030922
 31
0.0
  0
LINE
  5
A7CD
330
A67F
100
AcDbEntity
  8
1
  6
Continuous
100
AcDbLine
 10
259.5289139999998
 20
168.930922
 30
0.0
 11
259.5289139999998
 21
138.680922
 31
0.0
  0
LINE
  5
A7CE
330
A67F
100
AcDbEntity
  8
1
  6
Continuous
100
AcDbLine
 10
261.5289139999998
 20
146.630922
 30
0.0
 11
261.5289139999998
 21
142.630922
 31
0.0
  0
LINE
  5
A7CF
330
A67F
100
AcDbEntity
  8
1
  6
Continuous
100
AcDbLine
 10
261.5289139999998
 20
150.930922
 30
0.0
 11
261.5289139999998
 21
152.430922
 31
0.0
  0
LINE
  5
A7D0
330
A67F
100
AcDbEntity
  8
1
  6
Continuous
100
AcDbLine
 10
261.5289139999998
 20
154.930922
 30
0.0
 11
261.5289139999998
 21
153.430922
 31
0.0
  0
LINE
  5
A7D1
330
A67F
100
AcDbEntity
  8
1
  6
Continuous
100
AcDbLine
 10
261.5289139999998
 20
161.280922
 30
0.0
 11
261.5289139999998
 21
162.780922
 31
0.0
  0
LINE
  5
A7D2
330
A67F
100
AcDbEntity
  8
1
  6
Continuous
100
AcDbLine
 10
261.5289139999998
 20
158.780922
 30
0.0
 11
261.5289139999998
 21
160.280922
 31
0.0
  0
LINE
  5
A7D3
330
A67F
100
AcDbEntity
  8
1
  6
Continuous
100
AcDbLine
 10
261.5289139999998
 20
155.880922
 30
0.0
 11
261.5289139999998
 21
157.380922
 31
0.0
  0
LINE
  5
A7D4
330
A67F
100
AcDbEntity
  8
1
  6
Continuous
100
AcDbLine
 10
261.5289139999998
 20
168.8809219999999
 30
0.0
 11
261.5289139999998
 21
168.930922
 31
0.0
  0
LINE
  5
A7D5
330
A67F
100
AcDbEntity
  8
1
  6
Continuous
100
AcDbLine
 10
261.5289139999998
 20
166.4809219999999
 30
0.0
 11
261.5289139999998
 21
167.9809219999999
 31
0.0
  0
LINE
  5
A7D6
330
A67F
100
AcDbEntity
  8
1
  6
Continuous
100
AcDbLine
 10
261.5289139999998
 20
163.8809219999999
 30
0.0
 11
261.5289139999998
 21
165.380922
 31
0.0
  0
LINE
  5
A7D7
330
A67F
100
AcDbEntity
  8
1
  6
Continuous
100
AcDbLine
 10
26.439835
 20
168.8809219999999
 30
0.0
 11
26.439835
 21
136.430922
 31
0.0
  0
LINE
  5
A7D8
330
A67F
100
AcDbEntity
  8
1
  6
Continuous
100
AcDbLine
 10
34.43983499999998
 20
168.8809219999999
 30
0.0
 11
34.43983499999998
 21
136.430922
 31
0.0
  0
LINE
  5
A7D9
330
A67F
100
AcDbEntity
  8
1
  6
Continuous
100
AcDbLine
 10
28.439835
 20
141.4809219999999
 30
0.0
 11
28.439835
 21
139.9809219999999
 31
0.0
  0
LINE
  5
A7DA
330
A67F
100
AcDbEntity
  8
1
  6
Continuous
100
AcDbLine
 10
28.439835
 20
136.4809219999999
 30
0.0
 11
28.439835
 21
136.430922
 31
0.0
  0
LINE
  5
A7DB
330
A67F
100
AcDbEntity
  8
1
  6
Continuous
100
AcDbLine
 10
28.439835
 20
138.8809219999999
 30
0.0
 11
28.439835
 21
137.380922
 31
0.0
  0
LINE
  5
A7DC
330
A67F
100
AcDbEntity
  8
1
  6
Continuous
100
AcDbLine
 10
32.43983499999998
 20
141.4809219999999
 30
0.0
 11
32.43983499999998
 21
139.9809219999999
 31
0.0
  0
LINE
  5
A7DD
330
A67F
100
AcDbEntity
  8
1
  6
Continuous
100
AcDbLine
 10
32.43983499999998
 20
136.4809219999999
 30
0.0
 11
32.43983499999998
 21
136.430922
 31
0.0
  0
LINE
  5
A7DE
330
A67F
100
AcDbEntity
  8
1
  6
Continuous
100
AcDbLine
 10
32.43983499999998
 20
138.8809219999999
 30
0.0
 11
32.43983499999998
 21
137.380922
 31
0.0
  0
LINE
  5
A7DF
330
A67F
100
AcDbEntity
  8
1
  6
Continuous
100
AcDbLine
 10
32.43983499999998
 20
136.4809219999999
 30
0.0
 11
28.439835
 21
136.4809219999999
 31
0.0
  0
LINE
  5
A7E0
330
A67F
100
AcDbEntity
  8
1
  6
Continuous
100
AcDbLine
 10
32.43983499999998
 20
139.9809219999999
 30
0.0
 11
28.439835
 21
139.9809219999999
 31
0.0
  0
LINE
  5
A7E1
330
A67F
100
AcDbEntity
  8
1
  6
Continuous
100
AcDbLine
 10
32.43983499999998
 20
141.4809219999999
 30
0.0
 11
28.439835
 21
141.4809219999999
 31
0.0
  0
LINE
  5
A7E2
330
A67F
100
AcDbEntity
  8
1
  6
Continuous
100
AcDbLine
 10
32.43983499999998
 20
138.8809219999999
 30
0.0
 11
28.439835
 21
138.8809219999999
 31
0.0
  0
LINE
  5
A7E3
330
A67F
100
AcDbEntity
  8
1
  6
Continuous
100
AcDbLine
 10
32.43983499999998
 20
137.380922
 30
0.0
 11
28.439835
 21
137.380922
 31
0.0
  0
LINE
  5
A7E4
330
A67F
100
AcDbEntity
  8
1
  6
Continuous
100
AcDbLine
 10
34.43983499999998
 20
136.430922
 30
0.0
 11
26.439835
 21
136.430922
 31
0.0
  0
LINE
  5
A7E5
330
A67F
100
AcDbEntity
  8
1
  6
Continuous
100
AcDbLine
 10
28.439835
 20
161.230922
 30
0.0
 11
28.439835
 21
162.7309219999999
 31
0.0
  0
LINE
  5
A7E6
330
A67F
100
AcDbEntity
  8
1
  6
Continuous
100
AcDbLine
 10
28.439835
 20
158.7309219999999
 30
0.0
 11
28.439835
 21
160.2309219999999
 31
0.0
  0
LINE
  5
A7E7
330
A67F
100
AcDbEntity
  8
1
  6
Continuous
100
AcDbLine
 10
28.439835
 20
155.8309219999999
 30
0.0
 11
28.439835
 21
157.3309219999998
 31
0.0
  0
LINE
  5
A7E8
330
A67F
100
AcDbEntity
  8
1
  6
Continuous
100
AcDbLine
 10
28.439835
 20
149.480922
 30
0.0
 11
28.439835
 21
147.9809219999999
 31
0.0
  0
LINE
  5
A7E9
330
A67F
100
AcDbEntity
  8
1
  6
Continuous
100
AcDbLine
 10
28.439835
 20
146.5809219999998
 30
0.0
 11
28.439835
 21
145.0809219999999
 31
0.0
  0
LINE
  5
A7EA
330
A67F
100
AcDbEntity
  8
1
  6
Continuous
100
AcDbLine
 10
28.439835
 20
144.080922
 30
0.0
 11
28.439835
 21
142.5809219999998
 31
0.0
  0
LINE
  5
A7EB
330
A67F
100
AcDbEntity
  8
1
  6
Continuous
100
AcDbLine
 10
28.439835
 20
150.3809219999999
 30
0.0
 11
28.439835
 21
151.880922
 31
0.0
  0
LINE
  5
A7EC
330
A67F
100
AcDbEntity
  8
1
  6
Continuous
100
AcDbLine
 10
28.439835
 20
154.430922
 30
0.0
 11
28.439835
 21
152.930922
 31
0.0
  0
LINE
  5
A7ED
330
A67F
100
AcDbEntity
  8
1
  6
Continuous
100
AcDbLine
 10
32.43983499999998
 20
161.230922
 30
0.0
 11
32.43983499999998
 21
162.7309219999999
 31
0.0
  0
LINE
  5
A7EE
330
A67F
100
AcDbEntity
  8
1
  6
Continuous
100
AcDbLine
 10
32.43983499999998
 20
158.7309219999999
 30
0.0
 11
32.43983499999998
 21
160.2309219999999
 31
0.0
  0
LINE
  5
A7EF
330
A67F
100
AcDbEntity
  8
1
  6
Continuous
100
AcDbLine
 10
32.43983499999998
 20
155.8309219999999
 30
0.0
 11
32.43983499999998
 21
157.3309219999998
 31
0.0
  0
LINE
  5
A7F0
330
A67F
100
AcDbEntity
  8
1
  6
Continuous
100
AcDbLine
 10
32.43983499999998
 20
149.480922
 30
0.0
 11
32.43983499999998
 21
147.9809219999999
 31
0.0
  0
LINE
  5
A7F1
330
A67F
100
AcDbEntity
  8
1
  6
Continuous
100
AcDbLine
 10
32.43983499999998
 20
146.5809219999998
 30
0.0
 11
32.43983499999998
 21
145.0809219999999
 31
0.0
  0
LINE
  5
A7F2
330
A67F
100
AcDbEntity
  8
1
  6
Continuous
100
AcDbLine
 10
32.43983499999998
 20
144.080922
 30
0.0
 11
32.43983499999998
 21
142.5809219999998
 31
0.0
  0
LINE
  5
A7F3
330
A67F
100
AcDbEntity
  8
1
  6
Continuous
100
AcDbLine
 10
32.43983499999998
 20
150.3809219999999
 30
0.0
 11
32.43983499999998
 21
151.880922
 31
0.0
  0
LINE
  5
A7F4
330
A67F
100
AcDbEntity
  8
1
  6
Continuous
100
AcDbLine
 10
32.43983499999998
 20
154.430922
 30
0.0
 11
32.43983499999998
 21
152.930922
 31
0.0
  0
LINE
  5
A7F5
330
A67F
100
AcDbEntity
  8
1
  6
Continuous
100
AcDbLine
 10
32.43983499999998
 20
146.5809219999998
 30
0.0
 11
28.439835
 21
146.5809219999998
 31
0.0
  0
LINE
  5
A7F6
330
A67F
100
AcDbEntity
  8
1
  6
Continuous
100
AcDbLine
 10
32.43983499999998
 20
145.0809219999999
 30
0.0
 11
28.439835
 21
145.0809219999999
 31
0.0
  0
LINE
  5
A7F7
330
A67F
100
AcDbEntity
  8
1
  6
Continuous
100
AcDbLine
 10
32.43983499999998
 20
144.080922
 30
0.0
 11
28.439835
 21
144.080922
 31
0.0
  0
LINE
  5
A7F8
330
A67F
100
AcDbEntity
  8
1
  6
Continuous
100
AcDbLine
 10
32.43983499999998
 20
142.5809219999998
 30
0.0
 11
28.439835
 21
142.5809219999998
 31
0.0
  0
LINE
  5
A7F9
330
A67F
100
AcDbEntity
  8
1
  6
Continuous
100
AcDbLine
 10
32.43983499999998
 20
147.9809219999999
 30
0.0
 11
28.439835
 21
147.9809219999999
 31
0.0
  0
LINE
  5
A7FA
330
A67F
100
AcDbEntity
  8
1
  6
Continuous
100
AcDbLine
 10
32.43983499999998
 20
151.880922
 30
0.0
 11
28.439835
 21
151.880922
 31
0.0
  0
LINE
  5
A7FB
330
A67F
100
AcDbEntity
  8
1
  6
Continuous
100
AcDbLine
 10
32.43983499999998
 20
150.3809219999999
 30
0.0
 11
28.439835
 21
150.3809219999999
 31
0.0
  0
LINE
  5
A7FC
330
A67F
100
AcDbEntity
  8
1
  6
Continuous
100
AcDbLine
 10
32.43983499999998
 20
149.480922
 30
0.0
 11
28.439835
 21
149.480922
 31
0.0
  0
LINE
  5
A7FD
330
A67F
100
AcDbEntity
  8
1
  6
Continuous
100
AcDbLine
 10
32.43983499999998
 20
152.930922
 30
0.0
 11
28.439835
 21
152.930922
 31
0.0
  0
LINE
  5
A7FE
330
A67F
100
AcDbEntity
  8
1
  6
Continuous
100
AcDbLine
 10
32.43983499999998
 20
154.430922
 30
0.0
 11
28.439835
 21
154.430922
 31
0.0
  0
LINE
  5
A7FF
330
A67F
100
AcDbEntity
  8
1
  6
Continuous
100
AcDbLine
 10
32.43983499999998
 20
162.7309219999999
 30
0.0
 11
28.439835
 21
162.7309219999999
 31
0.0
  0
LINE
  5
A800
330
A67F
100
AcDbEntity
  8
1
  6
Continuous
100
AcDbLine
 10
32.43983499999998
 20
161.230922
 30
0.0
 11
28.439835
 21
161.230922
 31
0.0
  0
LINE
  5
A801
330
A67F
100
AcDbEntity
  8
1
  6
Continuous
100
AcDbLine
 10
32.43983499999998
 20
158.7309219999999
 30
0.0
 11
28.439835
 21
158.7309219999999
 31
0.0
  0
LINE
  5
A802
330
A67F
100
AcDbEntity
  8
1
  6
Continuous
100
AcDbLine
 10
32.43983499999998
 20
160.2309219999999
 30
0.0
 11
28.439835
 21
160.2309219999999
 31
0.0
  0
LINE
  5
A803
330
A67F
100
AcDbEntity
  8
1
  6
Continuous
100
AcDbLine
 10
32.43983499999998
 20
155.8309219999999
 30
0.0
 11
28.439835
 21
155.8309219999999
 31
0.0
  0
LINE
  5
A804
330
A67F
100
AcDbEntity
  8
1
  6
Continuous
100
AcDbLine
 10
32.43983499999998
 20
157.3309219999998
 30
0.0
 11
28.439835
 21
157.3309219999998
 31
0.0
  0
LINE
  5
A805
330
A67F
100
AcDbEntity
  8
1
  6
Continuous
100
AcDbLine
 10
28.439835
 20
168.8309219999998
 30
0.0
 11
28.439835
 21
168.8809219999999
 31
0.0
  0
LINE
  5
A806
330
A67F
100
AcDbEntity
  8
1
  6
Continuous
100
AcDbLine
 10
28.439835
 20
166.4309219999998
 30
0.0
 11
28.439835
 21
167.930922
 31
0.0
  0
LINE
  5
A807
330
A67F
100
AcDbEntity
  8
1
  6
Continuous
100
AcDbLine
 10
28.439835
 20
163.830922
 30
0.0
 11
28.439835
 21
165.3309219999998
 31
0.0
  0
LINE
  5
A808
330
A67F
100
AcDbEntity
  8
1
  6
Continuous
100
AcDbLine
 10
32.43983499999998
 20
168.8309219999998
 30
0.0
 11
32.43983499999998
 21
168.8809219999999
 31
0.0
  0
LINE
  5
A809
330
A67F
100
AcDbEntity
  8
1
  6
Continuous
100
AcDbLine
 10
32.43983499999998
 20
166.4309219999998
 30
0.0
 11
32.43983499999998
 21
167.930922
 31
0.0
  0
LINE
  5
A80A
330
A67F
100
AcDbEntity
  8
1
  6
Continuous
100
AcDbLine
 10
32.43983499999998
 20
163.830922
 30
0.0
 11
32.43983499999998
 21
165.3309219999998
 31
0.0
  0
LINE
  5
A80B
330
A67F
100
AcDbEntity
  8
1
  6
Continuous
100
AcDbLine
 10
32.43983499999998
 20
168.8309219999998
 30
0.0
 11
28.439835
 21
168.8309219999998
 31
0.0
  0
LINE
  5
A80C
330
A67F
100
AcDbEntity
  8
1
  6
Continuous
100
AcDbLine
 10
32.43983499999998
 20
167.930922
 30
0.0
 11
28.439835
 21
167.930922
 31
0.0
  0
LINE
  5
A80D
330
A67F
100
AcDbEntity
  8
1
  6
Continuous
100
AcDbLine
 10
32.43983499999998
 20
166.4309219999998
 30
0.0
 11
28.439835
 21
166.4309219999998
 31
0.0
  0
LINE
  5
A80E
330
A67F
100
AcDbEntity
  8
1
  6
Continuous
100
AcDbLine
 10
32.43983499999998
 20
163.830922
 30
0.0
 11
28.439835
 21
163.830922
 31
0.0
  0
LINE
  5
A80F
330
A67F
100
AcDbEntity
  8
1
  6
Continuous
100
AcDbLine
 10
32.43983499999998
 20
165.3309219999998
 30
0.0
 11
28.439835
 21
165.3309219999998
 31
0.0
  0
LINE
  5
A810
330
A67F
100
AcDbEntity
  8
1
  6
Continuous
100
AcDbLine
 10
34.43983499999998
 20
168.8809219999999
 30
0.0
 11
26.439835
 21
168.8809219999999
 31
0.0
  0
LINE
  5
A811
330
A67F
100
AcDbEntity
  8
1
  6
Continuous
100
AcDbLine
 10
34.43983499999998
 20
138.63091
 30
0.0
 11
35.43983499999999
 21
138.63091
 31
0.0
  0
LINE
  5
A812
330
A67F
100
AcDbEntity
  8
5
  6
PHANTOM
100
AcDbLine
 10
116.3203449999999
 20
55.088538
 30
0.0
 11
107.920345
 21
55.088538
 31
0.0
  0
LINE
  5
A813
330
A67F
100
AcDbEntity
  8
5
  6
PHANTOM
100
AcDbLine
 10
116.3203449999999
 20
63.088538
 30
0.0
 11
107.920345
 21
63.088538
 31
0.0
  0
LINE
  5
A814
330
A67F
100
AcDbEntity
  8
1
  6
Continuous
100
AcDbLine
 10
107.970345
 20
57.08853799999999
 30
0.0
 11
107.920345
 21
57.08853799999999
 31
0.0
  0
LINE
  5
A815
330
A67F
100
AcDbEntity
  8
5
  6
PHANTOM
100
AcDbLine
 10
107.970345
 20
57.08853799999999
 30
0.0
 11
107.970345
 21
61.088538
 31
0.0
  0
LINE
  5
A816
330
A67F
100
AcDbEntity
  8
5
  6
PHANTOM
100
AcDbLine
 10
107.970345
 20
61.088538
 30
0.0
 11
107.920345
 21
61.088538
 31
0.0
  0
LINE
  5
A817
330
A67F
100
AcDbEntity
  8
5
  6
PHANTOM
100
AcDbLine
 10
107.920345
 20
55.088538
 30
0.0
 11
107.920345
 21
63.088538
 31
0.0
  0
LINE
  5
A818
330
A67F
100
AcDbEntity
  8
5
  6
PHANTOM
100
AcDbLine
 10
116.2703449999999
 20
61.088538
 30
0.0
 11
116.3203449999999
 21
61.088538
 31
0.0
  0
LINE
  5
A819
330
A67F
100
AcDbEntity
  8
1
  6
Continuous
100
AcDbLine
 10
116.2703449999999
 20
57.08853799999999
 30
0.0
 11
116.3203449999999
 21
57.08853799999999
 31
0.0
  0
LINE
  5
A81A
330
A67F
100
AcDbEntity
  8
5
  6
PHANTOM
100
AcDbLine
 10
116.2703449999999
 20
57.08853799999999
 30
0.0
 11
116.2703449999999
 21
61.088538
 31
0.0
  0
LINE
  5
A81B
330
A67F
100
AcDbEntity
  8
5
  6
PHANTOM
100
AcDbLine
 10
116.3203449999999
 20
55.088538
 30
0.0
 11
116.3203449999999
 21
63.088538
 31
0.0
  0
LINE
  5
A81C
330
A67F
100
AcDbEntity
  8
5
  6
PHANTOM
100
AcDbLine
 10
120.3343739999999
 20
222.830916
 30
0.0
 11
107.934374
 21
222.830916
 31
0.0
  0
LINE
  5
A81D
330
A67F
100
AcDbEntity
  8
5
  6
PHANTOM
100
AcDbLine
 10
120.3343739999999
 20
230.8309159999998
 30
0.0
 11
107.934374
 21
230.8309159999998
 31
0.0
  0
LINE
  5
A81E
330
A67F
100
AcDbEntity
  8
5
  6
PHANTOM
100
AcDbLine
 10
107.934374
 20
222.830916
 30
0.0
 11
107.934374
 21
230.8309159999998
 31
0.0
  0
LINE
  5
A81F
330
A67F
100
AcDbEntity
  8
5
  6
PHANTOM
100
AcDbLine
 10
107.984374
 20
228.830916
 30
0.0
 11
107.934374
 21
228.830916
 31
0.0
  0
LINE
  5
A820
330
A67F
100
AcDbEntity
  8
5
  6
PHANTOM
100
AcDbLine
 10
107.984374
 20
224.830916
 30
0.0
 11
107.984374
 21
228.830916
 31
0.0
  0
LINE
  5
A821
330
A67F
100
AcDbEntity
  8
1
  6
Continuous
100
AcDbLine
 10
107.984374
 20
224.830916
 30
0.0
 11
107.934374
 21
224.830916
 31
0.0
  0
LINE
  5
A822
330
A67F
100
AcDbEntity
  8
5
  6
PHANTOM
100
AcDbLine
 10
120.3343739999999
 20
222.830916
 30
0.0
 11
120.3343739999999
 21
230.8309159999998
 31
0.0
  0
LINE
  5
A823
330
A67F
100
AcDbEntity
  8
5
  6
PHANTOM
100
AcDbLine
 10
120.284374
 20
228.830916
 30
0.0
 11
120.3343739999999
 21
228.830916
 31
0.0
  0
LINE
  5
A824
330
A67F
100
AcDbEntity
  8
5
  6
PHANTOM
100
AcDbLine
 10
120.284374
 20
224.830916
 30
0.0
 11
120.284374
 21
228.830916
 31
0.0
  0
LINE
  5
A825
330
A67F
100
AcDbEntity
  8
1
  6
Continuous
100
AcDbLine
 10
120.284374
 20
224.830916
 30
0.0
 11
120.3343739999999
 21
224.830916
 31
0.0
  0
LINE
  5
A826
330
A67F
100
AcDbEntity
  8
5
  6
PHANTOM
100
AcDbLine
 10
34.43983499999998
 20
148.8309219999998
 30
0.0
 11
34.43983499999998
 21
136.430922
 31
0.0
  0
LINE
  5
A827
330
A67F
100
AcDbEntity
  8
5
  6
PHANTOM
100
AcDbLine
 10
26.439835
 20
148.8309219999998
 30
0.0
 11
26.439835
 21
136.430922
 31
0.0
  0
LINE
  5
A828
330
A67F
100
AcDbEntity
  8
5
  6
PHANTOM
100
AcDbLine
 10
34.43983499999998
 20
136.430922
 30
0.0
 11
26.439835
 21
136.430922
 31
0.0
  0
LINE
  5
A829
330
A67F
100
AcDbEntity
  8
5
  6
PHANTOM
100
AcDbLine
 10
28.439835
 20
136.4809219999999
 30
0.0
 11
28.439835
 21
136.430922
 31
0.0
  0
LINE
  5
A82A
330
A67F
100
AcDbEntity
  8
5
  6
PHANTOM
100
AcDbLine
 10
32.43983499999998
 20
136.4809219999999
 30
0.0
 11
28.439835
 21
136.4809219999999
 31
0.0
  0
LINE
  5
A82B
330
A67F
100
AcDbEntity
  8
5
  6
PHANTOM
100
AcDbLine
 10
34.43983499999998
 20
148.8309219999998
 30
0.0
 11
26.439835
 21
148.8309219999998
 31
0.0
  0
LINE
  5
A82C
330
A67F
100
AcDbEntity
  8
5
  6
PHANTOM
100
AcDbLine
 10
28.439835
 20
148.780922
 30
0.0
 11
28.439835
 21
148.8309219999998
 31
0.0
  0
LINE
  5
A82D
330
A67F
100
AcDbEntity
  8
5
  6
PHANTOM
100
AcDbLine
 10
32.43983499999998
 20
148.780922
 30
0.0
 11
28.439835
 21
148.780922
 31
0.0
  0
LINE
  5
A82E
330
A67F
100
AcDbEntity
  8
4
  6
CENTER
100
AcDbLine
 10
30.43983499999999
 20
173.880922
 30
0.0
 11
30.43983499999999
 21
111.43091
 31
0.0
  0
LINE
  5
A82F
330
A67F
100
AcDbEntity
  8
5
  6
PHANTOM
100
AcDbLine
 10
267.5289139999998
 20
149.530922
 30
0.0
 11
267.5289139999998
 21
138.63091
 31
0.0
  0
LINE
  5
A830
330
A67F
100
AcDbEntity
  8
5
  6
PHANTOM
100
AcDbLine
 10
259.5289139999998
 20
149.530922
 30
0.0
 11
259.5289139999998
 21
138.63091
 31
0.0
  0
LINE
  5
A831
330
A67F
100
AcDbEntity
  8
5
  6
PHANTOM
100
AcDbLine
 10
267.5289139999998
 20
149.530922
 30
0.0
 11
259.5289139999998
 21
149.530922
 31
0.0
  0
LINE
  5
A832
330
A67F
100
AcDbEntity
  8
5
  6
PHANTOM
100
AcDbLine
 10
261.5289139999998
 20
149.480922
 30
0.0
 11
261.5289139999998
 21
149.530922
 31
0.0
  0
LINE
  5
A833
330
A67F
100
AcDbEntity
  8
5
  6
PHANTOM
100
AcDbLine
 10
265.5289139999998
 20
149.480922
 30
0.0
 11
261.5289139999998
 21
149.480922
 31
0.0
  0
LINE
  5
A834
330
A67F
100
AcDbEntity
  8
5
  6
PHANTOM
100
AcDbLine
 10
116.2703449999999
 20
57.08853799999999
 30
0.0
 11
116.3203449999999
 21
57.08853799999999
 31
0.0
  0
LINE
  5
A835
330
A67F
100
AcDbEntity
  8
5
  6
PHANTOM
100
AcDbLine
 10
32.43983499999998
 20
136.4809219999999
 30
0.0
 11
32.43983499999998
 21
136.430922
 31
0.0
  0
LINE
  5
A836
330
A67F
100
AcDbEntity
  8
5
  6
PHANTOM
100
AcDbLine
 10
120.284374
 20
224.830916
 30
0.0
 11
120.3343739999999
 21
224.830916
 31
0.0
  0
LINE
  5
A837
330
A67F
100
AcDbEntity
  8
5
  6
PHANTOM
100
AcDbLine
 10
32.43983499999998
 20
148.780922
 30
0.0
 11
32.43983499999998
 21
148.8309219999998
 31
0.0
  0
LINE
  5
A838
330
A67F
100
AcDbEntity
  8
5
  6
PHANTOM
100
AcDbLine
 10
107.984374
 20
224.830916
 30
0.0
 11
107.934374
 21
224.830916
 31
0.0
  0
LINE
  5
A839
330
A67F
100
AcDbEntity
  8
5
  6
PHANTOM
100
AcDbLine
 10
107.970345
 20
57.08853799999999
 30
0.0
 11
107.920345
 21
57.08853799999999
 31
0.0
  0
LINE
  5
A83A
330
A67F
100
AcDbEntity
  8
5
  6
PHANTOM
100
AcDbLine
 10
265.5289139999998
 20
149.480922
 30
0.0
 11
265.5289139999998
 21
149.530922
 31
0.0
  0
LINE
  5
A83B
330
A67F
100
AcDbEntity
  8
4
  6
CENTER
100
AcDbLine
 10
125.284374
 20
142.630922
 30
0.0
 11
102.8843739999998
 21
142.630922
 31
0.0
  0
LINE
  5
A83C
330
A67F
100
AcDbEntity
  8
4
  6
CENTER
100
AcDbLine
 10
114.0843739999999
 20
153.8309219999999
 30
0.0
 11
114.0843739999999
 21
131.430922
 31
0.0
  0
ARC
  5
A83D
330
A67F
100
AcDbEntity
  8
1
  6
Continuous
100
AcDbCircle
 10
34.68983499999998
 20
125.13091
 30
0.0
 40
0.5
100
AcDbArc
 50
337.3801349999999
 51
90.0
  0
LINE
  5
A83E
330
A67F
100
AcDbEntity
  8
1
  6
Continuous
100
AcDbLine
 10
32.93983499999999
 20
127.2309099999999
 30
0.0
 11
32.93983499999999
 21
123.95091
 31
0.0
  0
LINE
  5
A83F
330
A67F
100
AcDbEntity
  8
1
  6
Continuous
100
AcDbLine
 10
27.93983499999999
 20
127.2309099999999
 30
0.0
 11
27.93983499999999
 21
123.95091
 31
0.0
  0
LINE
  5
A840
330
A67F
100
AcDbEntity
  8
1
  6
Continuous
100
AcDbLine
 10
31.389835
 20
129.0309099999997
 30
0.0
 11
31.389835
 21
116.711217
 31
0.0
  0
LINE
  5
A841
330
A67F
100
AcDbEntity
  8
1
  6
Continuous
100
AcDbLine
 10
29.489835
 20
129.0309099999997
 30
0.0
 11
29.489835
 21
116.711217
 31
0.0
  0
ARC
  5
A842
330
A67F
100
AcDbEntity
  8
1
  6
Continuous
100
AcDbCircle
 10
26.18983500000001
 20
125.13091
 30
0.0
 40
0.5
100
AcDbArc
 50
90.0
 51
202.6198649999999
  0
LINE
  5
A843
330
A67F
100
AcDbEntity
  8
1
  6
Continuous
100
AcDbLine
 10
32.93983499999999
 20
123.95091
 30
0.0
 11
32.35137299999998
 21
121.338603
 31
0.0
  0
LINE
  5
A844
330
A67F
100
AcDbEntity
  8
1
  6
Continuous
100
AcDbLine
 10
27.93983499999999
 20
123.95091
 30
0.0
 11
28.528296
 21
121.338603
 31
0.0
  0
ARC
  5
A845
330
A67F
100
AcDbEntity
  8
1
  6
Continuous
100
AcDbCircle
 10
31.88983499999999
 20
121.53091
 30
0.0
 40
0.5
100
AcDbArc
 50
180.0
 51
337.3801349999999
  0
ARC
  5
A846
330
A67F
100
AcDbEntity
  8
1
  6
Continuous
100
AcDbCircle
 10
28.98983499999999
 20
121.53091
 30
0.0
 40
0.5
100
AcDbArc
 50
202.6198649999999
 51
0.0
  0
ARC
  5
A847
330
A67F
100
AcDbEntity
  8
1
  6
Continuous
100
AcDbCircle
 10
30.43983499999999
 20
118.18091
 30
0.0
 40
1.75
100
AcDbArc
 50
202.6198649999999
 51
337.3801349999999
  0
LINE
  5
A848
330
A67F
100
AcDbEntity
  8
1
  6
Continuous
100
AcDbLine
 10
35.151373
 20
124.9386029999999
 30
0.0
 11
32.055219
 21
117.507833
 31
0.0
  0
LINE
  5
A849
330
A67F
100
AcDbEntity
  8
1
  6
Continuous
100
AcDbLine
 10
25.728296
 20
124.9386029999999
 30
0.0
 11
28.82445
 21
117.507833
 31
0.0
  0
LINE
  5
A84A
330
A67F
100
AcDbEntity
  8
1
  6
Continuous
100
AcDbLine
 10
31.88983499999999
 20
130.53091
 30
0.0
 11
35.939883
 21
130.53091
 31
0.0
  0
ARC
  5
A84B
330
A67F
100
AcDbEntity
  8
5
  6
PHANTOM
100
AcDbCircle
 10
30.43983499999999
 20
118.103882
 30
0.0
 40
11.399271
100
AcDbArc
 50
63.307248
 51
116.692752
  0
ARC
  5
A84C
330
A67F
100
AcDbEntity
  8
5
  6
PHANTOM
100
AcDbCircle
 10
30.43983499999999
 20
118.617761
 30
0.0
 40
11.913149
100
AcDbArc
 50
63.307248
 51
116.692752
  0
LINE
  5
A84D
330
A67F
100
AcDbEntity
  8
1
  6
Continuous
100
AcDbLine
 10
24.93988299999999
 20
129.53091
 30
0.0
 11
35.939883
 21
129.53091
 31
0.0
  0
ARC
  5
A84E
330
A67F
100
AcDbEntity
  8
1
  6
Continuous
100
AcDbCircle
 10
33.43983499999998
 20
127.2309099999999
 30
0.0
 40
0.5
100
AcDbArc
 50
90.0
 51
180.0
  0
LINE
  5
A84F
330
A67F
100
AcDbEntity
  8
1
  6
Continuous
100
AcDbLine
 10
33.93983499999999
 20
127.2309099999999
 30
0.0
 11
33.93983499999999
 21
125.63091
 31
0.0
  0
ARC
  5
A850
330
A67F
100
AcDbEntity
  8
1
  6
Continuous
100
AcDbCircle
 10
33.43983499999998
 20
127.2309099999999
 30
0.0
 40
0.5
100
AcDbArc
 50
0.0
 51
90.0
  0
LINE
  5
A851
330
A67F
100
AcDbEntity
  8
1
  6
Continuous
100
AcDbLine
 10
33.43983499999998
 20
127.7309099999999
 30
0.0
 11
33.43983499999998
 21
127.7309099999999
 31
0.0
  0
ARC
  5
A852
330
A67F
100
AcDbEntity
  8
1
  6
Continuous
100
AcDbCircle
 10
27.439835
 20
127.2309099999999
 30
0.0
 40
0.5
100
AcDbArc
 50
0.0
 51
90.0
  0
LINE
  5
A853
330
A67F
100
AcDbEntity
  8
1
  6
Continuous
100
AcDbLine
 10
27.439835
 20
127.7309099999999
 30
0.0
 11
27.439835
 21
127.7309099999999
 31
0.0
  0
ARC
  5
A854
330
A67F
100
AcDbEntity
  8
1
  6
Continuous
100
AcDbCircle
 10
31.88983499999999
 20
129.0309099999997
 30
0.0
 40
0.5
100
AcDbArc
 50
90.0
 51
180.0
  0
ARC
  5
A855
330
A67F
100
AcDbEntity
  8
1
  6
Continuous
100
AcDbCircle
 10
28.98983499999999
 20
129.0309099999997
 30
0.0
 40
0.5
100
AcDbArc
 50
0.0
 51
90.0
  0
LINE
  5
A856
330
A67F
100
AcDbEntity
  8
1
  6
Continuous
100
AcDbLine
 10
33.93983499999999
 20
125.63091
 30
0.0
 11
34.68983499999998
 21
125.63091
 31
0.0
  0
ARC
  5
A857
330
A67F
100
AcDbEntity
  8
5
  6
PHANTOM
100
AcDbCircle
 10
22.46948799999999
 20
127.303903
 30
0.0
 40
1.0
100
AcDbArc
 50
39.24469699999999
 51
321.7203099999999
  0
LINE
  5
A858
330
A67F
100
AcDbEntity
  8
5
  6
PHANTOM
100
AcDbLine
 10
25.08837699999999
 20
129.2613049999999
 30
0.0
 11
23.24393999999999
 21
127.936536
 31
0.0
  0
LINE
  5
A859
330
A67F
100
AcDbEntity
  8
5
  6
PHANTOM
100
AcDbLine
 10
25.31921399999999
 20
128.2883129999998
 30
0.0
 11
23.25448399999999
 21
126.684402
 31
0.0
  0
LINE
  5
A85A
330
A67F
100
AcDbEntity
  8
1
  6
Continuous
100
AcDbLine
 10
24.93988299999999
 20
129.53091
 30
0.0
 11
22.560674
 21
128.446934
 31
0.0
  0
LINE
  5
A85B
330
A67F
100
AcDbEntity
  8
1
  6
Continuous
100
AcDbLine
 10
24.93988299999999
 20
130.53091
 30
0.0
 11
22.83945399999999
 21
129.667686
 31
0.0
  0
ARC
  5
A85C
330
A67F
100
AcDbEntity
  8
1
  6
Continuous
100
AcDbCircle
 10
21.939883
 20
129.2309099999999
 30
0.0
 40
1.0
100
AcDbArc
 50
25.898322
 51
308.3739339999999
  0
LINE
  5
A85D
330
A67F
100
AcDbEntity
  8
1
  6
Continuous
100
AcDbLine
 10
26.93983499999999
 20
127.2309099999999
 30
0.0
 11
26.93983499999999
 21
125.63091
 31
0.0
  0
LINE
  5
A85E
330
A67F
100
AcDbEntity
  8
1
  6
Continuous
100
AcDbLine
 10
26.18983500000001
 20
125.63091
 30
0.0
 11
26.93983499999999
 21
125.63091
 31
0.0
  0
LINE
  5
A85F
330
A67F
100
AcDbEntity
  8
1
  6
Continuous
100
AcDbLine
 10
24.93988299999999
 20
130.53091
 30
0.0
 11
28.98983499999999
 21
130.53091
 31
0.0
  0
ARC
  5
A860
330
A67F
100
AcDbEntity
  8
1
  6
Continuous
100
AcDbCircle
 10
27.439835
 20
127.2309099999999
 30
0.0
 40
0.5
100
AcDbArc
 50
90.0
 51
180.0
  0
LINE
  5
A861
330
A67F
100
AcDbEntity
  8
1
  6
Continuous
100
AcDbLine
 10
35.939883
 20
130.53091
 30
0.0
 11
38.040313
 21
129.667686
 31
0.0
  0
LINE
  5
A862
330
A67F
100
AcDbEntity
  8
1
  6
Continuous
100
AcDbLine
 10
35.939883
 20
129.53091
 30
0.0
 11
38.319092
 21
128.446934
 31
0.0
  0
ARC
  5
A863
330
A67F
100
AcDbEntity
  8
1
  6
Continuous
100
AcDbCircle
 10
38.939883
 20
129.2309099999999
 30
0.0
 40
1.0
100
AcDbArc
 50
231.626066
 51
154.1016779999999
  0
ARC
  5
A864
330
A67F
100
AcDbEntity
  8
5
  6
PHANTOM
100
AcDbCircle
 10
38.410181
 20
127.303903
 30
0.0
 40
1.0
100
AcDbArc
 50
218.27969
 51
140.755303
  0
LINE
  5
A865
330
A67F
100
AcDbEntity
  8
5
  6
PHANTOM
100
AcDbLine
 10
35.56045499999999
 20
128.2883129999998
 30
0.0
 11
37.62518499999997
 21
126.684402
 31
0.0
  0
LINE
  5
A866
330
A67F
100
AcDbEntity
  8
5
  6
PHANTOM
100
AcDbLine
 10
35.79129299999999
 20
129.2613049999999
 30
0.0
 11
37.63573
 21
127.936536
 31
0.0
  0
ARC
  5
A867
330
A67F
100
AcDbEntity
  8
1
  6
Continuous
100
AcDbCircle
 10
31.88983499999999
 20
131.03091
 30
0.0
 40
0.5
100
AcDbArc
 50
180.0
 51
270.0
  0
ARC
  5
A868
330
A67F
100
AcDbEntity
  8
1
  6
Continuous
100
AcDbCircle
 10
28.98983499999999
 20
131.03091
 30
0.0
 40
0.5
100
AcDbArc
 50
270.0
 51
0.0
  0
LINE
  5
A869
330
A67F
100
AcDbEntity
  8
1
  6
Continuous
100
AcDbLine
 10
32.18983499999998
 20
132.63091
 30
0.0
 11
33.03983499999999
 21
132.63091
 31
0.0
  0
ARC
  5
A86A
330
A67F
100
AcDbEntity
  8
1
  6
Continuous
100
AcDbCircle
 10
267.7789139999998
 20
125.1809219999999
 30
0.0
 40
0.5
100
AcDbArc
 50
337.3801349999999
 51
90.0
  0
LINE
  5
A86B
330
A67F
100
AcDbEntity
  8
1
  6
Continuous
100
AcDbLine
 10
266.0289139999998
 20
127.280922
 30
0.0
 11
266.0289139999998
 21
124.000922
 31
0.0
  0
LINE
  5
A86C
330
A67F
100
AcDbEntity
  8
1
  6
Continuous
100
AcDbLine
 10
261.0289139999998
 20
127.280922
 30
0.0
 11
261.0289139999998
 21
124.000922
 31
0.0
  0
LINE
  5
A86D
330
A67F
100
AcDbEntity
  8
1
  6
Continuous
100
AcDbLine
 10
264.4789139999999
 20
129.0809219999998
 30
0.0
 11
264.4789139999999
 21
116.7612279999999
 31
0.0
  0
LINE
  5
A86E
330
A67F
100
AcDbEntity
  8
1
  6
Continuous
100
AcDbLine
 10
262.578914
 20
129.0809219999998
 30
0.0
 11
262.578914
 21
116.7612279999999
 31
0.0
  0
ARC
  5
A86F
330
A67F
100
AcDbEntity
  8
1
  6
Continuous
100
AcDbCircle
 10
259.2789139999998
 20
125.1809219999999
 30
0.0
 40
0.5
100
AcDbArc
 50
90.0
 51
202.6198649999999
  0
LINE
  5
A870
330
A67F
100
AcDbEntity
  8
1
  6
Continuous
100
AcDbLine
 10
266.0289139999998
 20
124.000922
 30
0.0
 11
265.4404519999999
 21
121.3886139999999
 31
0.0
  0
LINE
  5
A871
330
A67F
100
AcDbEntity
  8
1
  6
Continuous
100
AcDbLine
 10
261.0289139999998
 20
124.000922
 30
0.0
 11
261.6173749999999
 21
121.3886139999999
 31
0.0
  0
ARC
  5
A872
330
A67F
100
AcDbEntity
  8
1
  6
Continuous
100
AcDbCircle
 10
264.9789139999999
 20
121.580922
 30
0.0
 40
0.5
100
AcDbArc
 50
180.0
 51
337.3801349999999
  0
ARC
  5
A873
330
A67F
100
AcDbEntity
  8
1
  6
Continuous
100
AcDbCircle
 10
262.0789139999998
 20
121.580922
 30
0.0
 40
0.5
100
AcDbArc
 50
202.6198649999999
 51
0.0
  0
ARC
  5
A874
330
A67F
100
AcDbEntity
  8
1
  6
Continuous
100
AcDbCircle
 10
263.5289139999998
 20
118.230922
 30
0.0
 40
1.75
100
AcDbArc
 50
202.6198649999999
 51
337.3801349999999
  0
LINE
  5
A875
330
A67F
100
AcDbEntity
  8
1
  6
Continuous
100
AcDbLine
 10
268.2404519999999
 20
124.9886139999998
 30
0.0
 11
265.144298
 21
117.5578449999999
 31
0.0
  0
LINE
  5
A876
330
A67F
100
AcDbEntity
  8
1
  6
Continuous
100
AcDbLine
 10
258.817375
 20
124.9886139999998
 30
0.0
 11
261.913529
 21
117.5578449999999
 31
0.0
  0
LINE
  5
A877
330
A67F
100
AcDbEntity
  8
1
  6
Continuous
100
AcDbLine
 10
264.9789139999999
 20
130.5809219999999
 30
0.0
 11
269.0289619999999
 21
130.5809219999999
 31
0.0
  0
ARC
  5
A878
330
A67F
100
AcDbEntity
  8
5
  6
PHANTOM
100
AcDbCircle
 10
263.5289139999998
 20
118.153894
 30
0.0
 40
11.399271
100
AcDbArc
 50
63.307248
 51
116.692752
  0
ARC
  5
A879
330
A67F
100
AcDbEntity
  8
5
  6
PHANTOM
100
AcDbCircle
 10
263.5289139999998
 20
118.6677729999999
 30
0.0
 40
11.913149
100
AcDbArc
 50
63.307248
 51
116.692752
  0
LINE
  5
A87A
330
A67F
100
AcDbEntity
  8
1
  6
Continuous
100
AcDbLine
 10
258.0289619999999
 20
129.5809219999999
 30
0.0
 11
269.0289619999999
 21
129.5809219999999
 31
0.0
  0
ARC
  5
A87B
330
A67F
100
AcDbEntity
  8
1
  6
Continuous
100
AcDbCircle
 10
266.528914
 20
127.280922
 30
0.0
 40
0.5
100
AcDbArc
 50
90.0
 51
180.0
  0
LINE
  5
A87C
330
A67F
100
AcDbEntity
  8
1
  6
Continuous
100
AcDbLine
 10
267.0289139999998
 20
127.280922
 30
0.0
 11
267.0289139999998
 21
125.680922
 31
0.0
  0
ARC
  5
A87D
330
A67F
100
AcDbEntity
  8
1
  6
Continuous
100
AcDbCircle
 10
266.528914
 20
127.280922
 30
0.0
 40
0.5
100
AcDbArc
 50
0.0
 51
90.0
  0
LINE
  5
A87E
330
A67F
100
AcDbEntity
  8
1
  6
Continuous
100
AcDbLine
 10
266.528914
 20
127.7809219999999
 30
0.0
 11
266.528914
 21
127.7809219999999
 31
0.0
  0
ARC
  5
A87F
330
A67F
100
AcDbEntity
  8
1
  6
Continuous
100
AcDbCircle
 10
260.528914
 20
127.280922
 30
0.0
 40
0.5
100
AcDbArc
 50
0.0
 51
90.0
  0
LINE
  5
A880
330
A67F
100
AcDbEntity
  8
1
  6
Continuous
100
AcDbLine
 10
260.528914
 20
127.7809219999999
 30
0.0
 11
260.528914
 21
127.7809219999999
 31
0.0
  0
ARC
  5
A881
330
A67F
100
AcDbEntity
  8
1
  6
Continuous
100
AcDbCircle
 10
264.9789139999999
 20
129.0809219999998
 30
0.0
 40
0.5
100
AcDbArc
 50
90.0
 51
180.0
  0
ARC
  5
A882
330
A67F
100
AcDbEntity
  8
1
  6
Continuous
100
AcDbCircle
 10
262.0789139999998
 20
129.0809219999998
 30
0.0
 40
0.5
100
AcDbArc
 50
0.0
 51
90.0
  0
LINE
  5
A883
330
A67F
100
AcDbEntity
  8
1
  6
Continuous
100
AcDbLine
 10
267.0289139999998
 20
125.680922
 30
0.0
 11
267.7789139999998
 21
125.680922
 31
0.0
  0
ARC
  5
A884
330
A67F
100
AcDbEntity
  8
5
  6
PHANTOM
100
AcDbCircle
 10
255.5585669999999
 20
127.353914
 30
0.0
 40
1.0
100
AcDbArc
 50
39.24469699999999
 51
321.7203099999999
  0
LINE
  5
A885
330
A67F
100
AcDbEntity
  8
5
  6
PHANTOM
100
AcDbLine
 10
258.1774559999999
 20
129.311316
 30
0.0
 11
256.3330189999999
 21
127.9865479999999
 31
0.0
  0
LINE
  5
A886
330
A67F
100
AcDbEntity
  8
5
  6
PHANTOM
100
AcDbLine
 10
258.408293
 20
128.338324
 30
0.0
 11
256.3435629999998
 21
126.7344129999999
 31
0.0
  0
LINE
  5
A887
330
A67F
100
AcDbEntity
  8
1
  6
Continuous
100
AcDbLine
 10
258.0289619999999
 20
129.5809219999999
 30
0.0
 11
255.6497529999998
 21
128.496946
 31
0.0
  0
LINE
  5
A888
330
A67F
100
AcDbEntity
  8
1
  6
Continuous
100
AcDbLine
 10
258.0289619999999
 20
130.5809219999999
 30
0.0
 11
255.9285329999999
 21
129.7176969999999
 31
0.0
  0
ARC
  5
A889
330
A67F
100
AcDbEntity
  8
1
  6
Continuous
100
AcDbCircle
 10
255.028962
 20
129.280922
 30
0.0
 40
1.0
100
AcDbArc
 50
25.898322
 51
308.3739339999999
  0
LINE
  5
A88A
330
A67F
100
AcDbEntity
  8
1
  6
Continuous
100
AcDbLine
 10
260.028914
 20
127.280922
 30
0.0
 11
260.028914
 21
125.680922
 31
0.0
  0
LINE
  5
A88B
330
A67F
100
AcDbEntity
  8
1
  6
Continuous
100
AcDbLine
 10
259.2789139999998
 20
125.680922
 30
0.0
 11
260.028914
 21
125.680922
 31
0.0
  0
LINE
  5
A88C
330
A67F
100
AcDbEntity
  8
1
  6
Continuous
100
AcDbLine
 10
258.0289619999999
 20
130.5809219999999
 30
0.0
 11
262.0789139999998
 21
130.5809219999999
 31
0.0
  0
ARC
  5
A88D
330
A67F
100
AcDbEntity
  8
1
  6
Continuous
100
AcDbCircle
 10
260.528914
 20
127.280922
 30
0.0
 40
0.5
100
AcDbArc
 50
90.0
 51
180.0
  0
LINE
  5
A88E
330
A67F
100
AcDbEntity
  8
1
  6
Continuous
100
AcDbLine
 10
269.0289619999999
 20
130.5809219999999
 30
0.0
 11
271.129392
 21
129.7176969999999
 31
0.0
  0
LINE
  5
A88F
330
A67F
100
AcDbEntity
  8
1
  6
Continuous
100
AcDbLine
 10
269.0289619999999
 20
129.5809219999999
 30
0.0
 11
271.4081709999999
 21
128.496946
 31
0.0
  0
ARC
  5
A890
330
A67F
100
AcDbEntity
  8
1
  6
Continuous
100
AcDbCircle
 10
272.0289619999999
 20
129.280922
 30
0.0
 40
1.0
100
AcDbArc
 50
231.626066
 51
154.1016779999999
  0
ARC
  5
A891
330
A67F
100
AcDbEntity
  8
5
  6
PHANTOM
100
AcDbCircle
 10
271.4992599999998
 20
127.353914
 30
0.0
 40
1.0
100
AcDbArc
 50
218.27969
 51
140.755303
  0
LINE
  5
A892
330
A67F
100
AcDbEntity
  8
5
  6
PHANTOM
100
AcDbLine
 10
268.6495339999999
 20
128.338324
 30
0.0
 11
270.714264
 21
126.7344129999999
 31
0.0
  0
LINE
  5
A893
330
A67F
100
AcDbEntity
  8
5
  6
PHANTOM
100
AcDbLine
 10
268.880372
 20
129.311316
 30
0.0
 11
270.7248089999998
 21
127.9865479999999
 31
0.0
  0
ARC
  5
A894
330
A67F
100
AcDbEntity
  8
1
  6
Continuous
100
AcDbCircle
 10
264.9789139999999
 20
131.0809219999998
 30
0.0
 40
0.5
100
AcDbArc
 50
180.0
 51
270.0
  0
ARC
  5
A895
330
A67F
100
AcDbEntity
  8
1
  6
Continuous
100
AcDbCircle
 10
262.0789139999998
 20
131.0809219999998
 30
0.0
 40
0.5
100
AcDbArc
 50
270.0
 51
0.0
  0
LINE
  5
A896
330
A67F
100
AcDbEntity
  8
1
  6
Continuous
100
AcDbLine
 10
262.278914
 20
138.63091
 30
0.0
 11
258.5289139999998
 21
138.63091
 31
0.0
  0
LINE
  5
A897
330
A67F
100
AcDbEntity
  8
4
  6
CENTER
100
AcDbLine
 10
272.528914
 20
142.680922
 30
0.0
 11
254.5289139999999
 21
142.680922
 31
0.0
  0
LINE
  5
A898
330
A67F
100
AcDbEntity
  8
4
  6
CENTER
100
AcDbLine
 10
39.43983499999998
 20
142.680922
 30
0.0
 11
21.439835
 21
142.680922
 31
0.0
  0
LINE
  5
A899
330
A67F
100
AcDbEntity
  8
4
  6
CENTER
100
AcDbLine
 10
114.0843739999999
 20
68.088538
 30
0.0
 11
114.0843739999999
 21
50.088538
 31
0.0
  0
LINE
  5
A89A
330
A67F
100
AcDbEntity
  8
4
  6
CENTER
100
AcDbLine
 10
114.0843739999999
 20
235.830916
 30
0.0
 11
114.0843739999999
 21
217.8309159999999
 31
0.0
  0
ARC
  5
A89B
330
A67F
100
AcDbEntity
  8
1
  6
Continuous
100
AcDbCircle
 10
121.284374
 20
117.430922
 30
0.0
 40
1.0
100
AcDbArc
 50
270.0
 51
0.0
  0
ARC
  5
A89C
330
A67F
100
AcDbEntity
  8
1
  6
Continuous
100
AcDbCircle
 10
119.284374
 20
117.430922
 30
0.0
 40
1.0
100
AcDbArc
 50
180.0
 51
270.0
  0
LINE
  5
A89D
330
A67F
100
AcDbEntity
  8
1
  6
Continuous
100
AcDbLine
 10
116.284374
 20
130.53091
 30
0.0
 11
126.284374
 21
130.53091
 31
0.0
  0
LINE
  5
A89E
330
A67F
100
AcDbEntity
  8
1
  6
Continuous
100
AcDbLine
 10
116.284374
 20
130.2309099999999
 30
0.0
 11
126.284374
 21
130.2309099999999
 31
0.0
  0
LINE
  5
A89F
330
A67F
100
AcDbEntity
  8
1
  6
Continuous
100
AcDbLine
 10
116.284374
 20
128.2309099999999
 30
0.0
 11
126.284374
 21
128.2309099999999
 31
0.0
  0
LINE
  5
A8A0
330
A67F
100
AcDbEntity
  8
1
  6
Continuous
100
AcDbLine
 10
118.7843739999999
 20
127.7309099999999
 30
0.0
 11
121.7843739999999
 21
127.7309099999999
 31
0.0
  0
ARC
  5
A8A1
330
A67F
100
AcDbEntity
  8
1
  6
Continuous
100
AcDbCircle
 10
104.0843739999999
 20
152.6309219999999
 30
0.0
 40
15.0
100
AcDbArc
 50
0.0
 51
268.4923029999998
  0
ARC
  5
A8A2
330
A67F
100
AcDbEntity
  8
1
  6
Continuous
100
AcDbCircle
 10
104.0843739999999
 20
152.6309219999999
 30
0.0
 40
16.2
100
AcDbArc
 50
1.397388999999999
 51
270.0
  0
LINE
  5
A8A3
330
A67F
100
AcDbEntity
  8
4
  6
CENTER
100
AcDbLine
 10
82.88437399999997
 20
152.6309219999999
 30
0.0
 11
125.284374
 21
152.6309219999999
 31
0.0
  0
LINE
  5
A8A4
330
A67F
100
AcDbEntity
  8
4
  6
CENTER
100
AcDbLine
 10
104.0843739999999
 20
131.430922
 30
0.0
 11
104.0843739999999
 21
173.8309219999999
 31
0.0
  0
LINE
  5
A8A5
330
A67F
100
AcDbEntity
  8
4
  6
CENTER
100
AcDbLine
 10
39.43983499999998
 20
152.680922
 30
0.0
 11
21.439835
 21
152.680922
 31
0.0
  0
LINE
  5
A8A6
330
A67F
100
AcDbEntity
  8
4
  6
CENTER
100
AcDbLine
 10
272.528914
 20
152.680922
 30
0.0
 11
254.5289139999999
 21
152.680922
 31
0.0
  0
LINE
  5
A8A7
330
A67F
100
AcDbEntity
  8
4
  6
CENTER
100
AcDbLine
 10
104.0843739999999
 20
68.088538
 30
0.0
 11
104.0843739999999
 21
50.088538
 31
0.0
  0
LINE
  5
A8A8
330
A67F
100
AcDbEntity
  8
4
  6
CENTER
100
AcDbLine
 10
104.0843739999999
 20
235.830916
 30
0.0
 11
104.0843739999999
 21
217.8309159999999
 31
0.0
  0
LINE
  5
A8A9
330
A67F
100
AcDbEntity
  8
5
  6
PHANTOM
100
AcDbLine
 10
203.834374
 20
137.130922
 30
0.0
 11
203.834374
 21
136.430922
 31
0.0
  0
ARC
  5
A8AA
330
A67F
100
AcDbEntity
  8
5
  6
PHANTOM
100
AcDbCircle
 10
203.3343739999998
 20
137.130922
 30
0.0
 40
0.5
100
AcDbArc
 50
0.0
 51
90.0
  0
LINE
  5
A8AB
330
A67F
100
AcDbEntity
  8
5
  6
PHANTOM
100
AcDbLine
 10
194.534374
 20
230.8309159999998
 30
0.0
 11
202.1203739999999
 21
229.0246569999999
 31
0.0
  0
ARC
  5
A8AC
330
A67F
100
AcDbEntity
  8
5
  6
PHANTOM
100
AcDbCircle
 10
201.6203739999999
 20
226.830916
 30
0.0
 40
2.25
100
AcDbArc
 50
282.839588
 51
77.16041199999998
  0
LINE
  5
A8AD
330
A67F
100
AcDbEntity
  8
5
  6
PHANTOM
100
AcDbLine
 10
194.534374
 20
222.830916
 30
0.0
 11
202.1203739999999
 21
224.637175
 31
0.0
  0
LINE
  5
A8AE
330
A67F
100
AcDbEntity
  8
5
  6
PHANTOM
100
AcDbLine
 10
126.320345
 20
230.8309159999998
 30
0.0
 11
194.534374
 21
230.8309159999998
 31
0.0
  0
LINE
  5
A8AF
330
A67F
100
AcDbEntity
  8
5
  6
PHANTOM
100
AcDbLine
 10
126.320345
 20
222.830916
 30
0.0
 11
194.534374
 21
222.830916
 31
0.0
  0
LINE
  5
A8B0
330
A67F
100
AcDbEntity
  8
5
  6
PHANTOM
100
AcDbLine
 10
194.534374
 20
63.088538
 30
0.0
 11
202.1203739999999
 21
61.282279
 31
0.0
  0
ARC
  5
A8B1
330
A67F
100
AcDbEntity
  8
5
  6
PHANTOM
100
AcDbCircle
 10
201.6203739999999
 20
59.088538
 30
0.0
 40
2.25
100
AcDbArc
 50
282.839588
 51
77.16041199999998
  0
LINE
  5
A8B2
330
A67F
100
AcDbEntity
  8
5
  6
PHANTOM
100
AcDbLine
 10
194.534374
 20
55.088538
 30
0.0
 11
202.1203739999999
 21
56.894796
 31
0.0
  0
LINE
  5
A8B3
330
A67F
100
AcDbEntity
  8
5
  6
PHANTOM
100
AcDbLine
 10
126.320345
 20
63.088538
 30
0.0
 11
194.534374
 21
63.088538
 31
0.0
  0
LINE
  5
A8B4
330
A67F
100
AcDbEntity
  8
5
  6
PHANTOM
100
AcDbLine
 10
126.320345
 20
55.088538
 30
0.0
 11
194.664659
 21
55.088538
 31
0.0
  0
CIRCLE
  5
A8B5
330
A67F
100
AcDbEntity
  8
5
  6
PHANTOM
100
AcDbCircle
 10
196.0343739999999
 20
226.830916
 30
0.0
 40
1.6
  0
LINE
  5
A8B6
330
A67F
100
AcDbEntity
  8
4
  6
CENTER
100
AcDbLine
 10
196.0343739999999
 20
223.2445629999999
 30
0.0
 11
196.0343739999999
 21
230.417269
 31
0.0
  0
LINE
  5
A8B7
330
A67F
100
AcDbEntity
  8
4
  6
CENTER
100
AcDbLine
 10
196.0343739999999
 20
142.630922
 30
0.0
 11
196.0343739999999
 21
131.430922
 31
0.0
  0
CIRCLE
  5
A8B8
330
A67F
100
AcDbEntity
  8
1
  6
Continuous
100
AcDbCircle
 10
196.0343739999999
 20
59.088538
 30
0.0
 40
1.6
  0
LINE
  5
A8B9
330
A67F
100
AcDbEntity
  8
4
  6
CENTER
100
AcDbLine
 10
196.0343739999999
 20
55.50218499999999
 30
0.0
 11
196.0343739999999
 21
62.67489000000001
 31
0.0
  0
LINE
  5
A8BA
330
A67F
100
AcDbEntity
  8
5
  6
PHANTOM
100
AcDbLine
 10
323.2234529999999
 20
136.430922
 30
0.0
 11
400.7734529999998
 21
136.430922
 31
0.0
  0
LINE
  5
A8BB
330
A67F
100
AcDbEntity
  8
5
  6
PHANTOM
100
AcDbLine
 10
323.723453
 20
137.6309219999999
 30
0.0
 11
400.7734529999998
 21
137.6309219999999
 31
0.0
  0
LINE
  5
A8BC
330
A67F
100
AcDbEntity
  8
1
  6
Continuous
100
AcDbLine
 10
387.2734529999998
 20
137.6309219999999
 30
0.0
 11
400.7734529999998
 21
137.6309219999999
 31
0.0
  0
LINE
  5
A8BD
330
A67F
100
AcDbEntity
  8
1
  6
Continuous
100
AcDbLine
 10
386.7734529999999
 20
136.430922
 30
0.0
 11
400.7734529999998
 21
136.430922
 31
0.0
  0
LINE
  5
A8BE
330
A67F
100
AcDbEntity
  8
1
  6
Continuous
100
AcDbLine
 10
396.7734529999999
 20
134.6309219999999
 30
0.0
 11
400.7734529999998
 21
134.6309219999999
 31
0.0
  0
LINE
  5
A8BF
330
A67F
100
AcDbEntity
  8
1
  6
Continuous
100
AcDbLine
 10
396.7734529999999
 20
135.6309219999999
 30
0.0
 11
400.7734529999998
 21
135.6309219999999
 31
0.0
  0
LINE
  5
A8C0
330
A67F
100
AcDbEntity
  8
4
  6
CENTER
100
AcDbLine
 10
422.9734529999998
 20
131.430922
 30
0.0
 11
422.9734529999998
 21
173.8309219999999
 31
0.0
  0
LINE
  5
A8C1
330
A67F
100
AcDbEntity
  8
4
  6
CENTER
100
AcDbLine
 10
412.973453
 20
153.8309219999999
 30
0.0
 11
412.973453
 21
131.430922
 31
0.0
  0
LINE
  5
A8C2
330
A67F
100
AcDbEntity
  8
1
  6
Continuous
100
AcDbLine
 10
400.7734529999998
 20
140.1309219999999
 30
0.0
 11
400.7734529999998
 21
128.2309099999999
 31
0.0
  0
LINE
  5
A8C3
330
A67F
100
AcDbEntity
  8
1
  6
Continuous
100
AcDbLine
 10
410.773453
 20
138.630922
 30
0.0
 11
410.773453
 21
128.2309099999999
 31
0.0
  0
LINE
  5
A8C4
330
A67F
100
AcDbEntity
  8
1
  6
Continuous
100
AcDbLine
 10
408.2734529999998
 20
127.7309099999999
 30
0.0
 11
405.2734529999998
 21
127.7309099999999
 31
0.0
  0
LINE
  5
A8C5
330
A67F
100
AcDbEntity
  8
1
  6
Continuous
100
AcDbLine
 10
410.773453
 20
128.2309099999999
 30
0.0
 11
400.7734529999998
 21
128.2309099999999
 31
0.0
  0
LINE
  5
A8C6
330
A67F
100
AcDbEntity
  8
1
  6
Continuous
100
AcDbLine
 10
410.773453
 20
130.2309099999999
 30
0.0
 11
400.7734529999998
 21
130.2309099999999
 31
0.0
  0
LINE
  5
A8C7
330
A67F
100
AcDbEntity
  8
1
  6
Continuous
100
AcDbLine
 10
410.773453
 20
130.53091
 30
0.0
 11
400.7734529999998
 21
130.53091
 31
0.0
  0
ARC
  5
A8C8
330
A67F
100
AcDbEntity
  8
1
  6
Continuous
100
AcDbCircle
 10
407.7734529999998
 20
117.430922
 30
0.0
 40
1.0
100
AcDbArc
 50
270.0
 51
0.0
  0
ARC
  5
A8C9
330
A67F
100
AcDbEntity
  8
1
  6
Continuous
100
AcDbCircle
 10
405.7734529999998
 20
117.430922
 30
0.0
 40
1.0
100
AcDbArc
 50
180.0
 51
270.0
  0
LINE
  5
A8CA
330
A67F
100
AcDbEntity
  8
4
  6
CENTER
100
AcDbLine
 10
406.773453
 20
126.6309219999999
 30
0.0
 11
406.773453
 21
111.43091
 31
0.0
  0
ARC
  5
A8CB
330
A67F
100
AcDbEntity
  8
1
  6
Continuous
100
AcDbCircle
 10
406.773453
 20
117.9309219999999
 30
0.0
 40
1.5
100
AcDbArc
 50
180.0
 51
0.0
  0
LINE
  5
A8CC
330
A67F
100
AcDbEntity
  8
1
  6
Continuous
100
AcDbLine
 10
405.7734529999998
 20
116.430922
 30
0.0
 11
407.7734529999998
 21
116.430922
 31
0.0
  0
LINE
  5
A8CD
330
A67F
100
AcDbEntity
  8
1
  6
Continuous
100
AcDbLine
 10
405.2734529999998
 20
125.630922
 30
0.0
 11
408.2734529999998
 21
125.630922
 31
0.0
  0
LINE
  5
A8CE
330
A67F
100
AcDbEntity
  8
1
  6
Continuous
100
AcDbLine
 10
403.4234529999998
 20
128.2309099999999
 30
0.0
 11
403.4234529999998
 21
121.5838799999998
 31
0.0
  0
ARC
  5
A8CF
330
A67F
100
AcDbEntity
  8
1
  6
Continuous
100
AcDbCircle
 10
403.9234529999998
 20
121.5838799999998
 30
0.0
 40
0.5
100
AcDbArc
 50
180.0
 51
214.01935
  0
ARC
  5
A8D0
330
A67F
100
AcDbEntity
  8
1
  6
Continuous
100
AcDbCircle
 10
404.2734529999998
 20
119.2779639999999
 30
0.0
 40
0.5
100
AcDbArc
 50
0.0
 51
34.01935
  0
LINE
  5
A8D1
330
A67F
100
AcDbEntity
  8
1
  6
Continuous
100
AcDbLine
 10
404.6878779999998
 20
119.557701
 30
0.0
 11
403.509029
 21
121.304143
 31
0.0
  0
ARC
  5
A8D2
330
A67F
100
AcDbEntity
  8
1
  6
Continuous
100
AcDbCircle
 10
404.2734529999998
 20
119.2779639999999
 30
0.0
 40
0.5
100
AcDbArc
 50
0.0
 51
34.01935
  0
LINE
  5
A8D3
330
A67F
100
AcDbEntity
  8
1
  6
Continuous
100
AcDbLine
 10
410.123453
 20
128.2309099999999
 30
0.0
 11
410.123453
 21
121.5838799999998
 31
0.0
  0
ARC
  5
A8D4
330
A67F
100
AcDbEntity
  8
1
  6
Continuous
100
AcDbCircle
 10
409.623453
 20
121.5838799999998
 30
0.0
 40
0.5
100
AcDbArc
 50
325.98065
 51
0.0
  0
LINE
  5
A8D5
330
A67F
100
AcDbEntity
  8
1
  6
Continuous
100
AcDbLine
 10
408.8590289999998
 20
119.557701
 30
0.0
 11
410.0378779999998
 21
121.304143
 31
0.0
  0
ARC
  5
A8D6
330
A67F
100
AcDbEntity
  8
1
  6
Continuous
100
AcDbCircle
 10
409.2734529999998
 20
119.2779639999999
 30
0.0
 40
0.5
100
AcDbArc
 50
145.98065
 51
180.0
  0
LINE
  5
A8D7
330
A67F
100
AcDbEntity
  8
1
  6
Continuous
100
AcDbLine
 10
400.7734529999998
 20
131.6309219999999
 30
0.0
 11
410.773453
 21
131.6309219999999
 31
0.0
  0
LINE
  5
A8D8
330
A67F
100
AcDbEntity
  8
1
  6
Continuous
100
AcDbLine
 10
405.2734529999998
 20
127.7309099999999
 30
0.0
 11
405.2734529999998
 21
117.9309219999999
 31
0.0
  0
LINE
  5
A8D9
330
A67F
100
AcDbEntity
  8
1
  6
Continuous
100
AcDbLine
 10
408.2734529999998
 20
127.7309099999999
 30
0.0
 11
408.2734529999998
 21
117.9309219999999
 31
0.0
  0
LINE
  5
A8DA
330
A67F
100
AcDbEntity
  8
1
  6
Continuous
100
AcDbLine
 10
408.7734529999998
 20
119.2779639999999
 30
0.0
 11
408.7734529999998
 21
117.430922
 31
0.0
  0
LINE
  5
A8DB
330
A67F
100
AcDbEntity
  8
1
  6
Continuous
100
AcDbLine
 10
404.7734529999998
 20
119.2779639999999
 30
0.0
 11
404.7734529999998
 21
117.430922
 31
0.0
  0
LINE
  5
A8DC
330
A67F
100
AcDbEntity
  8
4
  6
CENTER
100
AcDbLine
 10
444.1734529999997
 20
152.6309219999999
 30
0.0
 11
401.7734529999998
 21
152.6309219999999
 31
0.0
  0
ARC
  5
A8DD
330
A67F
100
AcDbEntity
  8
1
  6
Continuous
100
AcDbCircle
 10
422.9734529999998
 20
152.6309219999999
 30
0.0
 40
16.2
100
AcDbArc
 50
270.0
 51
178.602611
  0
ARC
  5
A8DE
330
A67F
100
AcDbEntity
  8
1
  6
Continuous
100
AcDbCircle
 10
422.9734529999998
 20
152.6309219999999
 30
0.0
 40
15.0
100
AcDbArc
 50
271.507697
 51
180.0
  0
LINE
  5
A8DF
330
A67F
100
AcDbEntity
  8
4
  6
CENTER
100
AcDbLine
 10
401.7734529999998
 20
142.630922
 30
0.0
 11
424.173453
 21
142.630922
 31
0.0
  0
ARC
  5
A8E0
330
A67F
100
AcDbEntity
  8
5
  6
PHANTOM
100
AcDbCircle
 10
412.973453
 20
142.630922
 30
0.0
 40
6.2
100
AcDbArc
 50
270.0
 51
180.0
  0
ARC
  5
A8E1
330
A67F
100
AcDbEntity
  8
5
  6
PHANTOM
100
AcDbCircle
 10
412.973453
 20
142.630922
 30
0.0
 40
5.0
100
AcDbArc
 50
270.0
 51
180.0
  0
LINE
  5
A8E2
330
A67F
100
AcDbEntity
  8
1
  6
Continuous
100
AcDbLine
 10
410.773453
 20
137.6309219999999
 30
0.0
 11
423.3734529999998
 21
137.6309219999999
 31
0.0
  0
LINE
  5
A8E3
330
A67F
100
AcDbEntity
  8
1
  6
Continuous
100
AcDbLine
 10
410.773453
 20
136.430922
 30
0.0
 11
423.3734529999998
 21
136.430922
 31
0.0
  0
LINE
  5
A8E4
330
A67F
100
AcDbEntity
  8
5
  6
PHANTOM
100
AcDbLine
 10
412.973453
 20
136.430922
 30
0.0
 11
410.773453
 21
136.430922
 31
0.0
  0
LINE
  5
A8E5
330
A67F
100
AcDbEntity
  8
5
  6
PHANTOM
100
AcDbLine
 10
406.773453
 20
142.630922
 30
0.0
 11
406.773453
 21
138.630922
 31
0.0
  0
LINE
  5
A8E6
330
A67F
100
AcDbEntity
  8
5
  6
PHANTOM
100
AcDbLine
 10
412.973453
 20
137.6309219999999
 30
0.0
 11
410.773453
 21
137.6309219999999
 31
0.0
  0
LINE
  5
A8E7
330
A67F
100
AcDbEntity
  8
5
  6
PHANTOM
100
AcDbLine
 10
407.973453
 20
142.630922
 30
0.0
 11
407.973453
 21
138.630922
 31
0.0
  0
LINE
  5
A8E8
330
A67F
100
AcDbEntity
  8
1
  6
Continuous
100
AcDbLine
 10
407.973453
 20
153.030922
 30
0.0
 11
407.973453
 21
138.630922
 31
0.0
  0
LINE
  5
A8E9
330
A67F
100
AcDbEntity
  8
1
  6
Continuous
100
AcDbLine
 10
406.773453
 20
153.030922
 30
0.0
 11
406.773453
 21
138.630922
 31
0.0
  0
LINE
  5
A8EA
330
A67F
100
AcDbEntity
  8
1
  6
Continuous
100
AcDbLine
 10
400.7734529999998
 20
140.1309219999999
 30
0.0
 11
405.0734529999998
 21
140.1309219999999
 31
0.0
  0
LINE
  5
A8EB
330
A67F
100
AcDbEntity
  8
1
  6
Continuous
100
AcDbLine
 10
406.773453
 20
141.8309219999999
 30
0.0
 11
405.0734529999998
 21
140.1309219999999
 31
0.0
  0
LINE
  5
A8EC
330
A67F
100
AcDbEntity
  8
1
  6
Continuous
100
AcDbLine
 10
400.7734529999998
 20
138.630922
 30
0.0
 11
410.773453
 21
138.630922
 31
0.0
  0
LINE
  5
A8ED
330
A67F
100
AcDbEntity
  8
1
  6
Continuous
100
AcDbLine
 10
400.7734529999998
 20
133.6309219999999
 30
0.0
 11
410.773453
 21
133.6309219999999
 31
0.0
  0
LINE
  5
A8EE
330
A67F
100
AcDbEntity
  8
4
  6
CENTER
100
AcDbLine
 10
394.5734529999999
 20
142.630922
 30
0.0
 11
394.5734529999999
 21
131.430922
 31
0.0
  0
ARC
  5
A8EF
330
A67F
100
AcDbEntity
  8
1
  6
Continuous
100
AcDbCircle
 10
387.2734529999998
 20
137.130922
 30
0.0
 40
0.5
100
AcDbArc
 50
90.0
 51
180.0
  0
LINE
  5
A8F0
330
A67F
100
AcDbEntity
  8
1
  6
Continuous
100
AcDbLine
 10
386.7734529999999
 20
137.130922
 30
0.0
 11
386.7734529999999
 21
136.430922
 31
0.0
  0
LINE
  5
A8F1
330
A67F
100
AcDbEntity
  8
1
  6
Continuous
100
AcDbLine
 10
396.7734529999999
 20
135.6309219999999
 30
0.0
 11
396.7734529999999
 21
134.6309219999999
 31
0.0
  0
LINE
  5
A8F2
330
A67F
100
AcDbEntity
  8
4
  6
CENTER
100
AcDbLine
 10
331.0234529999998
 20
142.630922
 30
0.0
 11
331.0234529999998
 21
131.430922
 31
0.0
  0
ARC
  5
A8F3
330
A67F
100
AcDbEntity
  8
5
  6
PHANTOM
100
AcDbCircle
 10
323.723453
 20
137.130922
 30
0.0
 40
0.5
100
AcDbArc
 50
90.0
 51
180.0
  0
LINE
  5
A8F4
330
A67F
100
AcDbEntity
  8
5
  6
PHANTOM
100
AcDbLine
 10
323.2234529999999
 20
137.130922
 30
0.0
 11
323.2234529999999
 21
136.430922
 31
0.0
  0
ENDSEC
  0
SECTION
  2
OBJECTS
  0
DICTIONARY
  5
A66D
330
0
100
AcDbDictionary
281
     1
  3
ACAD_CIP_PREVIOUS_PRODUCT_INFO
350
A954
  3
ACAD_COLOR
350
A936
  3
ACAD_DETAILVIEWSTYLE
350
A94F
  3
ACAD_GROUP
350
A66E
  3
ACAD_LAYOUT
350
A67A
  3
ACAD_MATERIAL
350
A904
  3
ACAD_MLEADERSTYLE
350
A94B
  3
ACAD_MLINESTYLE
350
A677
  3
ACAD_PLOTSETTINGS
350
A679
  3
ACAD_PLOTSTYLENAME
350
A902
  3
ACAD_SCALELIST
350
A939
  3
ACAD_SECTIONVIEWSTYLE
350
A94D
  3
ACAD_TABLESTYLE
350
A937
  3
ACAD_VISUALSTYLE
350
A91D
  3
ACDB_RECOMPOSE_DATA
350
A972
  3
AcDbVariableDictionary
350
A965
  3
DWGPROPS
350
A973
  0
DICTIONARY
  5
A955
330
A671
100
AcDbDictionary
280
     1
281
     1
  3
ADSK_XREC_LAYER_RECONCILED
360
A956
  0
DICTIONARY
  5
A957
330
A687
100
AcDbDictionary
280
     1
281
     1
  3
ADSK_XREC_LAYER_RECONCILED
360
A958
  0
DICTIONARY
  5
A959
330
A688
100
AcDbDictionary
280
     1
281
     1
  3
ADSK_XREC_LAYER_RECONCILED
360
A95A
  0
DICTIONARY
  5
A95B
330
A689
100
AcDbDictionary
280
     1
281
     1
  3
ADSK_XREC_LAYER_RECONCILED
360
A95C
  0
DICTIONARY
  5
A95D
330
A68A
100
AcDbDictionary
280
     1
281
     1
  3
ADSK_XREC_LAYER_RECONCILED
360
A95E
  0
DICTIONARY
  5
A95F
330
A68B
100
AcDbDictionary
280
     1
281
     1
  3
ADSK_XREC_LAYER_RECONCILED
360
A960
  0
DICTIONARY
  5
A961
330
A68C
100
AcDbDictionary
280
     1
281
     1
  3
ADSK_XREC_LAYER_RECONCILED
360
A962
  0
DICTIONARY
  5
A963
330
A68D
100
AcDbDictionary
280
     1
281
     1
  3
ADSK_XREC_LAYER_RECONCILED
360
A964
  0
DICTIONARY
  5
A8FD
330
A67F
100
AcDbDictionary
281
     1
  3
ACAD_LAYOUTSELFREF
350
A8FE
  0
DICTIONARY
  5
A8FB
330
A67B
100
AcDbDictionary
281
     1
  3
ACAD_LAYOUTSELFREF
350
A8FC
  0
XRECORD
  5
A954
102
{ACAD_REACTORS
330
A66D
102
}
330
A66D
100
AcDbXrecord
280
     1
300
ACDLT
300
2014
300
ACDLT_F_S
  0
DICTIONARY
  5
A936
102
{ACAD_REACTORS
330
A66D
102
}
330
A66D
100
AcDbDictionary
281
     1
  0
DICTIONARY
  5
A94F
102
{ACAD_REACTORS
330
A66D
102
}
330
A66D
100
AcDbDictionary
281
     1
  3
Imperial24
350
A950
  0
DICTIONARY
  5
A66E
102
{ACAD_REACTORS
330
A66D
102
}
330
A66D
100
AcDbDictionary
281
     1
  0
DICTIONARY
  5
A67A
102
{ACAD_REACTORS
330
A66D
102
}
330
A66D
100
AcDbDictionary
281
     1
  3
Model
350
A951
  3
レイアウト1
350
A952
  0
DICTIONARY
  5
A904
102
{ACAD_REACTORS
330
A66D
102
}
330
A66D
100
AcDbDictionary
281
     1
  3
ByBlock
350
A90D
  3
ByLayer
350
A905
  3
Global
350
A915
  0
DICTIONARY
  5
A94B
102
{ACAD_REACTORS
330
A66D
102
}
330
A66D
100
AcDbDictionary
281
     1
  3
Standard
350
A94C
  0
DICTIONARY
  5
A677
102
{ACAD_REACTORS
330
A66D
102
}
330
A66D
100
AcDbDictionary
281
     1
  3
STANDARD
350
A678
  0
DICTIONARY
  5
A679
102
{ACAD_REACTORS
330
A66D
102
}
330
A66D
100
AcDbDictionary
281
     1
  0
ACDBDICTIONARYWDFLT
  5
A902
102
{ACAD_REACTORS
330
A66D
102
}
330
A66D
100
AcDbDictionary
281
     1
  3
Normal
350
A903
100
AcDbDictionaryWithDefault
340
A903
  0
DICTIONARY
  5
A939
102
{ACAD_REACTORS
330
A66D
102
}
330
A66D
100
AcDbDictionary
281
     1
  3
A0
350
A93A
  3
A1
350
A93B
  3
A2
350
A93C
  3
A3
350
A93D
  3
A4
350
A93E
  3
A5
350
A93F
  3
A6
350
A940
  3
A7
350
A941
  3
A8
350
A942
  3
A9
350
A943
  3
B0
350
A944
  3
B1
350
A945
  3
B2
350
A946
  3
B3
350
A947
  3
B4
350
A948
  3
B5
350
A949
  3
B6
350
A94A
  0
DICTIONARY
  5
A94D
102
{ACAD_REACTORS
330
A66D
102
}
330
A66D
100
AcDbDictionary
281
     1
  3
Imperial24
350
A94E
  0
DICTIONARY
  5
A937
102
{ACAD_REACTORS
330
A66D
102
}
330
A66D
100
AcDbDictionary
281
     1
  3
Standard
350
A938
  0
DICTIONARY
  5
A91D
102
{ACAD_REACTORS
330
A66D
102
}
330
A66D
100
AcDbDictionary
281
     1
  3
2dWireframe
350
A923
  3
Basic
350
A922
  3
Brighten
350
A929
  3
ColorChange
350
A92D
  3
Conceptual
350
A926
  3
Dim
350
A928
  3
EdgeColorOff
350
A935
  3
Facepattern
350
A92C
  3
Flat
350
A91E
  3
FlatWithEdges
350
A91F
  3
Gouraud
350
A920
  3
GouraudWithEdges
350
A921
  3
Hidden
350
A925
  3
JitterOff
350
A933
  3
Linepattern
350
A92B
  3
OverhangOff
350
A934
  3
Realistic
350
A927
  3
Shaded
350
A932
  3
Shaded with edges
350
A931
  3
Shades of Gray
350
A92E
  3
Sketchy
350
A92F
  3
Thicken
350
A92A
  3
Wireframe
350
A924
  3
X-Ray
350
A930
  0
XRECORD
  5
A972
102
{ACAD_REACTORS
330
A66D
102
}
330
A66D
100
AcDbXrecord
280
     1
 90
        1
330
A938
  0
DICTIONARY
  5
A965
102
{ACAD_REACTORS
330
A66D
102
}
330
A66D
100
AcDbDictionary
281
     1
  3
CANNOSCALE
350
A96A
  3
CMLEADERSTYLE
350
A967
  3
CTABLESTYLE
350
A966
  3
CVIEWDETAILSTYLE
350
A968
  3
CVIEWSECTIONSTYLE
350
A969
  3
DIMASSOC
350
A96D
  3
INDEXCTL
350
A96C
  3
SORTENTS
350
A96B
  3
XCLIPFRAME
350
A96E
  0
XRECORD
  5
A973
102
{ACAD_REACTORS
330
A66D
102
}
330
A66D
100
AcDbXrecord
280
     1
  1
DWGPROPS COOKIE
  2

  3

  4

  6

  7

  8
Yoshitsune
  9

300
=
301
=
302
=
303
=
304
=
305
=
306
=
307
=
308
=
309
=
 40
0.0000107407407407
 41
2451301.773273264
 42
2457192.660783761
  1

 90
        0
  0
XRECORD
  5
A956
102
{ACAD_REACTORS
330
A955
102
}
330
A955
100
AcDbXrecord
280
     1
290
     1
  0
XRECORD
  5
A958
102
{ACAD_REACTORS
330
A957
102
}
330
A957
100
AcDbXrecord
280
     1
290
     1
  0
XRECORD
  5
A95A
102
{ACAD_REACTORS
330
A959
102
}
330
A959
100
AcDbXrecord
280
     1
290
     1
  0
XRECORD
  5
A95C
102
{ACAD_REACTORS
330
A95B
102
}
330
A95B
100
AcDbXrecord
280
     1
290
     1
  0
XRECORD
  5
A95E
102
{ACAD_REACTORS
330
A95D
102
}
330
A95D
100
AcDbXrecord
280
     1
290
     1
  0
XRECORD
  5
A960
102
{ACAD_REACTORS
330
A95F
102
}
330
A95F
100
AcDbXrecord
280
     1
290
     1
  0
XRECORD
  5
A962
102
{ACAD_REACTORS
330
A961
102
}
330
A961
100
AcDbXrecord
280
     1
290
     1
  0
XRECORD
  5
A964
102
{ACAD_REACTORS
330
A963
102
}
330
A963
100
AcDbXrecord
280
     1
290
     1
  0
XRECORD
  5
A8FE
102
{ACAD_REACTORS
330
A8FD
102
}
330
A8FD
100
AcDbXrecord
280
     1
340
A67F
  0
XRECORD
  5
A8FC
102
{ACAD_REACTORS
330
A8FB
102
}
330
A8FB
100
AcDbXrecord
280
     1
340
A67B
  0
ACDBDETAILVIEWSTYLE
  5
A950
102
{ACAD_XDICTIONARY
360
A9AB
102
}
102
{ACAD_REACTORS
330
A94F
102
}
330
A94F
100
AcDbModelDocViewStyle
 70
     0
  3
Imperial24
290
     0
100
AcDbDetailViewStyle
 70
     0
 71
     0
 90
        3
 71
     1
340
A672
 40
0.24
340
0
 40
0.24
300

 40
0.36
280
     3
 71
     2
340
A676
 90
       25
 71
     3
340
A672
 40
0.24
 90
        1
 40
0.75
 90
        1
300
%<\AcVar ViewType \f "%tc1">% %<\AcVar ViewDetailId>%\PSCALE %<\AcVar ViewScale \f "%sn">%
 71
     4
340
A676
 90
       25
340
A676
 90
       25
280
     0
  0
LAYOUT
  5
A951
102
{ACAD_XDICTIONARY
360
A9AD
102
}
102
{ACAD_REACTORS
330
A67A
102
}
330
A67A
100
AcDbPlotSettings
  1

  2
Canon LBP9100C
  4

  6

 40
0.0
 41
0.0
 42
0.0
 43
0.0
 44
0.0
 45
0.0
 46
0.0
 47
0.0
 48
0.0
 49
0.0
140
0.0
141
0.0
142
1.0
143
1.0
 70
  1712
 72
     0
 73
     0
 74
     0
  7

 75
     0
147
1.0
148
0.0
149
0.0
100
AcDbLayout
  1
Model
 70
     1
 71
     0
 10
0.0
 20
0.0
 11
12.0
 21
9.0
 12
0.0
 22
0.0
 32
0.0
 14
0.0
 24
0.0
 34
0.0
 15
0.0
 25
0.0
 35
0.0
146
0.0
 13
0.0
 23
0.0
 33
0.0
 16
1.0
 26
0.0
 36
0.0
 17
0.0
 27
1.0
 37
0.0
 76
     0
330
A67F
331
A8FA
  0
LAYOUT
  5
A952
102
{ACAD_XDICTIONARY
360
A9AF
102
}
102
{ACAD_REACTORS
330
A67A
102
}
330
A67A
100
AcDbPlotSettings
  1

  2
Canon LBP9100C
  4

  6

 40
0.0
 41
0.0
 42
0.0
 43
0.0
 44
0.0
 45
0.0
 46
0.0
 47
0.0
 48
0.0
 49
0.0
140
0.0
141
0.0
142
1.0
143
1.0
 70
   688
 72
     0
 73
     0
 74
     5
  7

 75
    16
147
1.0
148
0.0
149
0.0
100
AcDbLayout
  1
レイアウト1
 70
     0
 71
     1
 10
0.0
 20
0.0
 11
420.0
 21
297.0
 12
0.0
 22
0.0
 32
0.0
 14
1.000000000000000E+20
 24
1.000000000000000E+20
 34
1.000000000000000E+20
 15
-1.000000000000000E+20
 25
-1.000000000000000E+20
 35
-1.000000000000000E+20
146
0.0
 13
0.0
 23
0.0
 33
0.0
 16
1.0
 26
0.0
 36
0.0
 17
0.0
 27
1.0
 37
0.0
 76
     0
330
A67B
  0
MATERIAL
  5
A90D
102
{ACAD_XDICTIONARY
360
A90E
102
}
102
{ACAD_REACTORS
330
A904
102
}
330
A904
100
AcDbMaterial
  1
ByBlock
 72
     0
 43
0.0208333333333333
 43
0.0
 43
0.0
 43
0.0
 43
0.0
 43
0.0208333333333333
 43
0.0
 43
0.0
 43
0.0
 43
0.0
 43
1.0
 43
0.0
 43
0.0
 43
0.0
 43
0.0
 43
1.0
 77
     0
 47
0.0208333333333333
 47
0.0
 47
0.0
 47
0.0
 47
0.0
 47
0.0208333333333333
 47
0.0
 47
0.0
 47
0.0
 47
0.0
 47
1.0
 47
0.0
 47
0.0
 47
0.0
 47
0.0
 47
1.0
171
     0
 49
0.0208333333333333
 49
0.0
 49
0.0
 49
0.0
 49
0.0
 49
0.0208333333333333
 49
0.0
 49
0.0
 49
0.0
 49
0.0
 49
1.0
 49
0.0
 49
0.0
 49
0.0
 49
0.0
 49
1.0
175
     0
142
0.0208333333333333
142
0.0
142
0.0
142
0.0
142
0.0
142
0.0208333333333333
142
0.0
142
0.0
142
0.0
142
0.0
142
1.0
142
0.0
142
0.0
142
0.0
142
0.0
142
1.0
179
     0
144
0.0208333333333333
144
0.0
144
0.0
144
0.0
144
0.0
144
0.0208333333333333
144
0.0
144
0.0
144
0.0
144
0.0
144
1.0
144
0.0
144
0.0
144
0.0
144
0.0
144
1.0
147
0.0208333333333333
147
0.0
147
0.0
147
0.0
147
0.0
147
0.0208333333333333
147
0.0
147
0.0
147
0.0
147
0.0
147
1.0
147
0.0
147
0.0
147
0.0
147
0.0
147
1.0
  0
MATERIAL
  5
A905
102
{ACAD_XDICTIONARY
360
A906
102
}
102
{ACAD_REACTORS
330
A904
102
}
330
A904
100
AcDbMaterial
  1
ByLayer
 72
     0
 43
0.0208333333333333
 43
0.0
 43
0.0
 43
0.0
 43
0.0
 43
0.0208333333333333
 43
0.0
 43
0.0
 43
0.0
 43
0.0
 43
1.0
 43
0.0
 43
0.0
 43
0.0
 43
0.0
 43
1.0
 77
     0
 47
0.0208333333333333
 47
0.0
 47
0.0
 47
0.0
 47
0.0
 47
0.0208333333333333
 47
0.0
 47
0.0
 47
0.0
 47
0.0
 47
1.0
 47
0.0
 47
0.0
 47
0.0
 47
0.0
 47
1.0
171
     0
 49
0.0208333333333333
 49
0.0
 49
0.0
 49
0.0
 49
0.0
 49
0.0208333333333333
 49
0.0
 49
0.0
 49
0.0
 49
0.0
 49
1.0
 49
0.0
 49
0.0
 49
0.0
 49
0.0
 49
1.0
175
     0
142
0.0208333333333333
142
0.0
142
0.0
142
0.0
142
0.0
142
0.0208333333333333
142
0.0
142
0.0
142
0.0
142
0.0
142
1.0
142
0.0
142
0.0
142
0.0
142
0.0
142
1.0
179
     0
144
0.0208333333333333
144
0.0
144
0.0
144
0.0
144
0.0
144
0.0208333333333333
144
0.0
144
0.0
144
0.0
144
0.0
144
1.0
144
0.0
144
0.0
144
0.0
144
0.0
144
1.0
147
0.0208333333333333
147
0.0
147
0.0
147
0.0
147
0.0
147
0.0208333333333333
147
0.0
147
0.0
147
0.0
147
0.0
147
1.0
147
0.0
147
0.0
147
0.0
147
0.0
147
1.0
  0
MATERIAL
  5
A915
102
{ACAD_XDICTIONARY
360
A916
102
}
102
{ACAD_REACTORS
330
A904
102
}
330
A904
100
AcDbMaterial
  1
Global
 72
     0
 43
0.0208333333333333
 43
0.0
 43
0.0
 43
0.0
 43
0.0
 43
0.0208333333333333
 43
0.0
 43
0.0
 43
0.0
 43
0.0
 43
1.0
 43
0.0
 43
0.0
 43
0.0
 43
0.0
 43
1.0
 77
     0
 47
0.0208333333333333
 47
0.0
 47
0.0
 47
0.0
 47
0.0
 47
0.0208333333333333
 47
0.0
 47
0.0
 47
0.0
 47
0.0
 47
1.0
 47
0.0
 47
0.0
 47
0.0
 47
0.0
 47
1.0
171
     0
 49
0.0208333333333333
 49
0.0
 49
0.0
 49
0.0
 49
0.0
 49
0.0208333333333333
 49
0.0
 49
0.0
 49
0.0
 49
0.0
 49
1.0
 49
0.0
 49
0.0
 49
0.0
 49
0.0
 49
1.0
175
     0
142
0.0208333333333333
142
0.0
142
0.0
142
0.0
142
0.0
142
0.0208333333333333
142
0.0
142
0.0
142
0.0
142
0.0
142
1.0
142
0.0
142
0.0
142
0.0
142
0.0
142
1.0
179
     0
144
0.0208333333333333
144
0.0
144
0.0
144
0.0
144
0.0
144
0.0208333333333333
144
0.0
144
0.0
144
0.0
144
0.0
144
1.0
144
0.0
144
0.0
144
0.0
144
0.0
144
1.0
147
0.0208333333333333
147
0.0
147
0.0
147
0.0
147
0.0
147
0.0208333333333333
147
0.0
147
0.0
147
0.0
147
0.0
147
1.0
147
0.0
147
0.0
147
0.0
147
0.0
147
1.0
  0
MLEADERSTYLE
  5
A94C
102
{ACAD_REACTORS
330
A94B
102
}
330
A94B
100
AcDbMLeaderStyle
170
     2
171
     1
172
     0
 90
        2
 40
0.0
 41
0.0
173
     1
 91
-1056964608
340
A674
 92
       -2
290
     1
 42
0.09
291
     1
 43
0.36
  3
Standard
 44
0.18
300

342
A672
174
     1
178
     6
175
     1
176
     0
 93
-1056964608
 45
0.18
292
     0
297
     0
 46
0.18
 94
-1056964608
 47
1.0
 49
1.0
140
1.0
293
     1
141
0.0
294
     1
177
     0
142
1.0
295
     0
296
     0
143
0.125
1001
ACAD_MLEADERVER
1070
     2
  0
MLINESTYLE
  5
A678
102
{ACAD_REACTORS
330
A677
102
}
330
A677
100
AcDbMlineStyle
  2
STANDARD
 70
     0
  3

 62
   256
 51
90.0
 52
90.0
 71
     2
 49
0.5
 62
   256
  6
BYLAYER
 49
-0.5
 62
   256
  6
BYLAYER
  0
ACDBPLACEHOLDER
  5
A903
102
{ACAD_REACTORS
330
A902
102
}
330
A902
  0
SCALE
  5
A93A
102
{ACAD_REACTORS
330
A939
102
}
330
A939
100
AcDbScale
 70
     0
300
1:1
140
1.0
141
1.0
290
     1
  0
SCALE
  5
A93B
102
{ACAD_REACTORS
330
A939
102
}
330
A939
100
AcDbScale
 70
     0
300
1/128" = 1'-0"
140
0.0078125
141
12.0
290
     0
  0
SCALE
  5
A93C
102
{ACAD_REACTORS
330
A939
102
}
330
A939
100
AcDbScale
 70
     0
300
1/64" = 1'-0"
140
0.015625
141
12.0
290
     0
  0
SCALE
  5
A93D
102
{ACAD_REACTORS
330
A939
102
}
330
A939
100
AcDbScale
 70
     0
300
1/32" = 1'-0"
140
0.03125
141
12.0
290
     0
  0
SCALE
  5
A93E
102
{ACAD_REACTORS
330
A939
102
}
330
A939
100
AcDbScale
 70
     0
300
1/16" = 1'-0"
140
0.0625
141
12.0
290
     0
  0
SCALE
  5
A93F
102
{ACAD_REACTORS
330
A939
102
}
330
A939
100
AcDbScale
 70
     0
300
3/32" = 1'-0"
140
0.09375
141
12.0
290
     0
  0
SCALE
  5
A940
102
{ACAD_REACTORS
330
A939
102
}
330
A939
100
AcDbScale
 70
     0
300
1/8" = 1'-0"
140
0.125
141
12.0
290
     0
  0
SCALE
  5
A941
102
{ACAD_REACTORS
330
A939
102
}
330
A939
100
AcDbScale
 70
     0
300
3/16" = 1'-0"
140
0.1875
141
12.0
290
     0
  0
SCALE
  5
A942
102
{ACAD_REACTORS
330
A939
102
}
330
A939
100
AcDbScale
 70
     0
300
1/4" = 1'-0"
140
0.25
141
12.0
290
     0
  0
SCALE
  5
A943
102
{ACAD_REACTORS
330
A939
102
}
330
A939
100
AcDbScale
 70
     0
300
3/8" = 1'-0"
140
0.375
141
12.0
290
     0
  0
SCALE
  5
A944
102
{ACAD_REACTORS
330
A939
102
}
330
A939
100
AcDbScale
 70
     0
300
1/2" = 1'-0"
140
0.5
141
12.0
290
     0
  0
SCALE
  5
A945
102
{ACAD_REACTORS
330
A939
102
}
330
A939
100
AcDbScale
 70
     0
300
3/4" = 1'-0"
140
0.75
141
12.0
290
     0
  0
SCALE
  5
A946
102
{ACAD_REACTORS
330
A939
102
}
330
A939
100
AcDbScale
 70
     0
300
1" = 1'-0"
140
1.0
141
12.0
290
     0
  0
SCALE
  5
A947
102
{ACAD_REACTORS
330
A939
102
}
330
A939
100
AcDbScale
 70
     0
300
1-1/2" = 1'-0"
140
1.5
141
12.0
290
     0
  0
SCALE
  5
A948
102
{ACAD_REACTORS
330
A939
102
}
330
A939
100
AcDbScale
 70
     0
300
3" = 1'-0"
140
3.0
141
12.0
290
     0
  0
SCALE
  5
A949
102
{ACAD_REACTORS
330
A939
102
}
330
A939
100
AcDbScale
 70
     0
300
6" = 1'-0"
140
6.0
141
12.0
290
     0
  0
SCALE
  5
A94A
102
{ACAD_REACTORS
330
A939
102
}
330
A939
100
AcDbScale
 70
     0
300
1'-0" = 1'-0"
140
12.0
141
12.0
290
     0
  0
ACDBSECTIONVIEWSTYLE
  5
A94E
102
{ACAD_XDICTIONARY
360
A9A9
102
}
102
{ACAD_REACTORS
330
A94D
102
}
330
A94D
100
AcDbModelDocViewStyle
 70
     0
  3
Imperial24
290
     0
100
AcDbSectionViewStyle
 70
     0
 71
     0
 90
       78
 71
     1
340
A672
 40
0.24
340
0
340
0
 40
0.24
300
I, O, Q, S, X, Z
 40
0.48
 90
        3
 40
0.18
 90
        1
 71
     2
340
A676
 90
       25
340
A676
 90
       50
 40
0.24
 40
0.0
 40
0.24
 71
     3
340
A672
 40
0.24
 90
        1
 40
0.75
 90
        1
300
%<\AcVar ViewType \f "%tc1">% %<\AcVar ViewSectionStartId>%-%<\AcVar ViewSectionEndId>%\PSCALE %<\AcVar ViewScale \f "%sn">%
 71
     4
300
ANSI31
 40
1.0
 90
        0
290
     0
290
     0
 90
        6
 40
0.0
 40
1.570796326794896
 40
0.2617993877991494
 40
1.308996938995747
 40
-0.2617993877991494
 40
1.832595714594046
  0
TABLESTYLE
  5
A938
102
{ACAD_XDICTIONARY
360
A970
102
}
102
{ACAD_REACTORS
330
A937
102
}
330
A937
100
AcDbTableStyle
  3
Standard
 70
     0
 71
     0
 40
0.06
 41
0.06
280
     0
281
     0
  7
STANDARD
140
0.18
170
     2
 62
     0
 63
     7
283
     0
274
    -2
284
     1
 64
     0
275
    -2
285
     1
 65
     0
276
    -2
286
     1
 66
     0
277
    -2
287
     1
 67
     0
278
    -2
288
     1
 68
     0
279
    -2
289
     1
 69
     0
  7
STANDARD
140
0.25
170
     5
 62
     0
 63
     7
283
     0
274
    -2
284
     1
 64
     0
275
    -2
285
     1
 65
     0
276
    -2
286
     1
 66
     0
277
    -2
287
     1
 67
     0
278
    -2
288
     1
 68
     0
279
    -2
289
     1
 69
     0
  7
STANDARD
140
0.18
170
     5
 62
     0
 63
     7
283
     0
274
    -2
284
     1
 64
     0
275
    -2
285
     1
 65
     0
276
    -2
286
     1
 66
     0
277
    -2
287
     1
 67
     0
278
    -2
288
     1
 68
     0
279
    -2
289
     1
 69
     0
  0
VISUALSTYLE
  5
A923
102
{ACAD_XDICTIONARY
360
A981
102
}
102
{ACAD_REACTORS
330
A91D
102
}
330
A91D
100
AcDbVisualStyle
  2
2dWireframe
 70
     4
 71
     0
 72
     2
 73
     0
 90
        0
 40
-0.6
 41
-30.0
 62
     5
 63
     7
 74
     1
 91
        4
 64
     7
 65
   257
 75
     1
175
     1
 42
1.0
 92
        0
 66
   257
 43
1.0
 76
     1
 77
     6
 78
     2
 67
     7
 79
     5
170
     0
171
     0
290
     0
174
     0
 93
        1
 44
0.0
173
     0
291
     0
 45
0.0
1001
ACAD
1000
AcDbSavedByObjectVersion
1070
     0
  0
VISUALSTYLE
  5
A922
102
{ACAD_XDICTIONARY
360
A97F
102
}
102
{ACAD_REACTORS
330
A91D
102
}
330
A91D
100
AcDbVisualStyle
  2
Basic
 70
     7
 71
     1
 72
     0
 73
     1
 90
        0
 40
-0.6
 41
-30.0
 62
     5
 63
     7
 74
     0
 91
        4
 64
     7
 65
   257
 75
     1
175
     1
 42
1.0
 92
        8
 66
     7
 43
1.0
 76
     1
 77
     6
 78
     2
 67
     7
 79
     5
170
     0
171
     0
290
     0
174
     0
 93
        1
 44
0.0
173
     0
291
     1
 45
0.0
1001
ACAD
1000
AcDbSavedByObjectVersion
1070
     0
  0
VISUALSTYLE
  5
A929
102
{ACAD_XDICTIONARY
360
A98D
102
}
102
{ACAD_REACTORS
330
A91D
102
}
330
A91D
100
AcDbVisualStyle
  2
Brighten
 70
    12
 71
     2
 72
     2
 73
     0
 90
        0
 40
-0.6
 41
-30.0
 62
     5
 63
     7
 74
     1
 91
        4
 64
     7
 65
   257
 75
     1
175
     1
 42
1.0
 92
        8
 66
     7
 43
1.0
 76
     1
 77
     6
 78
     2
 67
     7
 79
     5
170
     0
171
     0
290
     0
174
     0
 93
        1
 44
50.0
173
     0
291
     1
 45
0.0
1001
ACAD
1000
AcDbSavedByObjectVersion
1070
     0
  0
VISUALSTYLE
  5
A92D
102
{ACAD_XDICTIONARY
360
A995
102
}
102
{ACAD_REACTORS
330
A91D
102
}
330
A91D
100
AcDbVisualStyle
  2
ColorChange
 70
    16
 71
     2
 72
     2
 73
     3
 90
        0
 40
-0.6
 41
-30.0
 62
     5
 63
     8
 74
     1
 91
        4
 64
     7
 65
   257
 75
     1
175
     1
 42
1.0
 92
        8
 66
     8
 43
1.0
 76
     1
 77
     6
 78
     2
 67
     7
 79
     5
170
     0
171
     0
290
     0
174
     0
 93
        1
 44
0.0
173
     0
291
     1
 45
0.0
1001
ACAD
1000
AcDbSavedByObjectVersion
1070
     0
  0
VISUALSTYLE
  5
A926
102
{ACAD_XDICTIONARY
360
A987
102
}
102
{ACAD_REACTORS
330
A91D
102
}
330
A91D
100
AcDbVisualStyle
  2
Conceptual
 70
     9
 71
     3
 72
     2
 73
     0
 90
        0
 40
-0.6
 41
-30.0
 62
     5
 63
     7
 74
     2
 91
        2
 64
     7
 65
   257
 75
     1
175
     1
 42
179.0
 92
        8
 66
     7
 43
1.0
 76
     1
 77
     6
 78
     2
 67
     7
 79
     3
170
     0
171
     0
290
     0
174
     0
 93
        1
 44
0.0
173
     0
291
     0
 45
0.0
1001
ACAD
1000
AcDbSavedByObjectVersion
1070
     0
  0
VISUALSTYLE
  5
A928
102
{ACAD_XDICTIONARY
360
A98B
102
}
102
{ACAD_REACTORS
330
A91D
102
}
330
A91D
100
AcDbVisualStyle
  2
Dim
 70
    11
 71
     2
 72
     2
 73
     0
 90
        0
 40
-0.6
 41
-30.0
 62
     5
 63
     7
 74
     1
 91
        4
 64
     7
 65
   257
 75
     1
175
     1
 42
1.0
 92
        8
 66
     7
 43
1.0
 76
     1
 77
     6
 78
     2
 67
     7
 79
     5
170
     0
171
     0
290
     0
174
     0
 93
        1
 44
-50.0
173
     0
291
     1
 45
0.0
1001
ACAD
1000
AcDbSavedByObjectVersion
1070
     0
  0
VISUALSTYLE
  5
A935
102
{ACAD_XDICTIONARY
360
A9A5
102
}
102
{ACAD_REACTORS
330
A91D
102
}
330
A91D
100
AcDbVisualStyle
  2
EdgeColorOff
 70
    22
 71
     2
 72
     2
 73
     0
 90
        0
 40
-0.6
 41
-30.0
 62
     5
 63
     7
 74
     1
 91
        4
 64
     7
 65
   257
 75
     1
175
     1
 42
1.0
 92
        8
 66
     7
 43
1.0
 76
     1
 77
     6
 78
     2
 67
     7
 79
     5
170
     0
171
     0
290
     0
174
     0
 93
        1
 44
0.0
173
     0
291
     1
 45
0.0
1001
ACAD
1000
AcDbSavedByObjectVersion
1070
     0
  0
VISUALSTYLE
  5
A92C
102
{ACAD_XDICTIONARY
360
A993
102
}
102
{ACAD_REACTORS
330
A91D
102
}
330
A91D
100
AcDbVisualStyle
  2
Facepattern
 70
    15
 71
     2
 72
     2
 73
     0
 90
        0
 40
-0.6
 41
-30.0
 62
     5
 63
     7
 74
     1
 91
        4
 64
     7
 65
   257
 75
     1
175
     1
 42
1.0
 92
        8
 66
     7
 43
1.0
 76
     1
 77
     6
 78
     2
 67
     7
 79
     5
170
     0
171
     0
290
     0
174
     0
 93
        1
 44
0.0
173
     0
291
     1
 45
0.0
1001
ACAD
1000
AcDbSavedByObjectVersion
1070
     0
  0
VISUALSTYLE
  5
A91E
102
{ACAD_XDICTIONARY
360
A977
102
}
102
{ACAD_REACTORS
330
A91D
102
}
330
A91D
100
AcDbVisualStyle
  2
Flat
 70
     0
 71
     2
 72
     1
 73
     1
 90
        2
 40
-0.6
 41
30.0
 62
     5
 63
     7
 74
     0
 91
        0
 64
     7
 65
   257
 75
     1
175
     1
 42
1.0
 92
        8
 66
     7
 43
1.0
 76
     1
 77
     6
 78
     2
 67
     7
 79
     5
170
     0
171
     0
290
     0
174
     0
 93
       13
 44
0.0
173
     0
291
     1
 45
0.0
1001
ACAD
1000
AcDbSavedByObjectVersion
1070
     0
  0
VISUALSTYLE
  5
A91F
102
{ACAD_XDICTIONARY
360
A979
102
}
102
{ACAD_REACTORS
330
A91D
102
}
330
A91D
100
AcDbVisualStyle
  2
FlatWithEdges
 70
     1
 71
     2
 72
     1
 73
     1
 90
        2
 40
-0.6
 41
30.0
 62
     5
 63
     7
 74
     1
 91
        0
 64
     7
 65
   257
 75
     1
175
     1
 42
1.0
 92
        0
 66
   257
 43
1.0
 76
     1
 77
     6
 78
     2
 67
     7
 79
     5
170
     0
171
     0
290
     0
174
     0
 93
       13
 44
0.0
173
     0
291
     1
 45
0.0
1001
ACAD
1000
AcDbSavedByObjectVersion
1070
     0
  0
VISUALSTYLE
  5
A920
102
{ACAD_XDICTIONARY
360
A97B
102
}
102
{ACAD_REACTORS
330
A91D
102
}
330
A91D
100
AcDbVisualStyle
  2
Gouraud
 70
     2
 71
     2
 72
     2
 73
     1
 90
        2
 40
-0.6
 41
30.0
 62
     5
 63
     7
 74
     0
 91
        0
 64
     7
 65
   257
 75
     1
175
     1
 42
1.0
 92
        0
 66
     7
 43
1.0
 76
     1
 77
     6
 78
     2
 67
     7
 79
     5
170
     0
171
     0
290
     0
174
     0
 93
       13
 44
0.0
173
     0
291
     1
 45
0.0
1001
ACAD
1000
AcDbSavedByObjectVersion
1070
     0
  0
VISUALSTYLE
  5
A921
102
{ACAD_XDICTIONARY
360
A97D
102
}
102
{ACAD_REACTORS
330
A91D
102
}
330
A91D
100
AcDbVisualStyle
  2
GouraudWithEdges
 70
     3
 71
     2
 72
     2
 73
     1
 90
        2
 40
-0.6
 41
30.0
 62
     5
 63
     7
 74
     1
 91
        0
 64
     7
 65
   257
 75
     1
175
     1
 42
1.0
 92
        0
 66
   257
 43
1.0
 76
     1
 77
     6
 78
     2
 67
     7
 79
     5
170
     0
171
     0
290
     0
174
     0
 93
       13
 44
0.0
173
     0
291
     1
 45
0.0
1001
ACAD
1000
AcDbSavedByObjectVersion
1070
     0
  0
VISUALSTYLE
  5
A925
102
{ACAD_XDICTIONARY
360
A985
102
}
102
{ACAD_REACTORS
330
A91D
102
}
330
A91D
100
AcDbVisualStyle
  2
Hidden
 70
     6
 71
     1
 72
     2
 73
     2
 90
        0
 40
-0.6
 41
-30.0
 62
     5
 63
     7
 74
     2
 91
        2
 64
     7
 65
   257
 75
     2
175
     1
 42
40.0
 92
        0
 66
   257
 43
1.0
 76
     1
 77
     6
 78
     2
 67
     7
 79
     3
170
     0
171
     0
290
     0
174
     0
 93
        1
 44
0.0
173
     0
291
     0
 45
0.0
1001
ACAD
1000
AcDbSavedByObjectVersion
1070
     0
  0
VISUALSTYLE
  5
A933
102
{ACAD_XDICTIONARY
360
A9A1
102
}
102
{ACAD_REACTORS
330
A91D
102
}
330
A91D
100
AcDbVisualStyle
  2
JitterOff
 70
    20
 71
     2
 72
     2
 73
     0
 90
        0
 40
-0.6
 41
-30.0
 62
     5
 63
     7
 74
     1
 91
        4
 64
     7
 65
   257
 75
     1
175
     1
 42
1.0
 92
       10
 66
     7
 43
1.0
 76
     1
 77
     6
 78
     2
 67
     7
 79
     5
170
     0
171
     0
290
     0
174
     0
 93
        1
 44
0.0
173
     0
291
     1
 45
0.0
1001
ACAD
1000
AcDbSavedByObjectVersion
1070
     0
  0
VISUALSTYLE
  5
A92B
102
{ACAD_XDICTIONARY
360
A991
102
}
102
{ACAD_REACTORS
330
A91D
102
}
330
A91D
100
AcDbVisualStyle
  2
Linepattern
 70
    14
 71
     2
 72
     2
 73
     0
 90
        0
 40
-0.6
 41
-30.0
 62
     5
 63
     7
 74
     1
 91
        4
 64
     7
 65
   257
 75
     7
175
     7
 42
1.0
 92
        8
 66
     7
 43
1.0
 76
     1
 77
     6
 78
     2
 67
     7
 79
     5
170
     0
171
     0
290
     0
174
     0
 93
        1
 44
0.0
173
     0
291
     1
 45
0.0
1001
ACAD
1000
AcDbSavedByObjectVersion
1070
     0
  0
VISUALSTYLE
  5
A934
102
{ACAD_XDICTIONARY
360
A9A3
102
}
102
{ACAD_REACTORS
330
A91D
102
}
330
A91D
100
AcDbVisualStyle
  2
OverhangOff
 70
    21
 71
     2
 72
     2
 73
     0
 90
        0
 40
-0.6
 41
-30.0
 62
     5
 63
     7
 74
     1
 91
        4
 64
     7
 65
   257
 75
     1
175
     1
 42
1.0
 92
        9
 66
     7
 43
1.0
 76
     1
 77
     6
 78
     2
 67
     7
 79
     5
170
     0
171
     0
290
     0
174
     0
 93
        1
 44
0.0
173
     0
291
     1
 45
0.0
1001
ACAD
1000
AcDbSavedByObjectVersion
1070
     0
  0
VISUALSTYLE
  5
A927
102
{ACAD_XDICTIONARY
360
A989
102
}
102
{ACAD_REACTORS
330
A91D
102
}
330
A91D
100
AcDbVisualStyle
  2
Realistic
 70
     8
 71
     2
 72
     3
 73
     0
 90
        2
 40
-0.6
 41
30.0
 62
     5
 63
     7
 74
     0
 91
        0
 64
     7
 65
   257
 75
     1
175
     1
 42
1.0
 92
        8
 66
   257
 43
1.0
 76
     1
 77
     6
 78
     2
 67
     7
 79
     3
170
     0
171
     0
290
     0
174
     0
 93
       13
 44
0.0
173
     0
291
     0
 45
0.0
1001
ACAD
1000
AcDbSavedByObjectVersion
1070
     0
  0
VISUALSTYLE
  5
A932
102
{ACAD_XDICTIONARY
360
A99F
102
}
102
{ACAD_REACTORS
330
A91D
102
}
330
A91D
100
AcDbVisualStyle
  2
Shaded
 70
    27
 71
     2
 72
     2
 73
     1
 90
        2
 40
-0.6
 41
30.0
 62
     5
 63
     7
 74
     0
 91
        4
 64
     7
 65
   257
 75
     1
175
     1
 42
1.0
 92
        8
 66
   257
 43
1.0
 76
     1
 77
     6
 78
     2
 67
     8
 79
     3
170
     0
171
     0
290
     0
174
     0
 93
        5
 44
0.0
173
     0
291
     0
 45
0.0
1001
ACAD
1000
AcDbSavedByObjectVersion
1070
     0
  0
VISUALSTYLE
  5
A931
102
{ACAD_XDICTIONARY
360
A99D
102
}
102
{ACAD_REACTORS
330
A91D
102
}
330
A91D
100
AcDbVisualStyle
  2
Shaded with edges
 70
    26
 71
     2
 72
     2
 73
     1
 90
        2
 40
-0.6
 41
30.0
 62
     5
 63
     7
 74
     1
 91
       10
 64
     7
 65
   257
 75
     2
175
     1
 42
1.0
 92
        8
 66
   257
 43
1.0
 76
     1
 77
     6
 78
     2
 67
     7
 79
     3
170
     0
171
     0
290
     0
174
     0
 93
        5
 44
0.0
173
     0
291
     0
 45
0.0
1001
ACAD
1000
AcDbSavedByObjectVersion
1070
     0
  0
VISUALSTYLE
  5
A92E
102
{ACAD_XDICTIONARY
360
A997
102
}
102
{ACAD_REACTORS
330
A91D
102
}
330
A91D
100
AcDbVisualStyle
  2
Shades of Gray
 70
    23
 71
     2
 72
     2
 73
     3
 90
        0
 40
-0.6
 41
-30.0
 62
     5
 63
     7
 74
     2
 91
        2
 64
     7
 65
     7
 75
     1
175
     1
 42
40.0
 92
        8
 66
     7
 43
1.0
 76
     1
 77
     6
 78
     2
 67
     7
 79
     3
170
     0
171
     0
290
     0
174
     0
 93
        1
 44
0.0
173
     0
291
     0
 45
0.0
1001
ACAD
1000
AcDbSavedByObjectVersion
1070
     0
  0
VISUALSTYLE
  5
A92F
102
{ACAD_XDICTIONARY
360
A999
102
}
102
{ACAD_REACTORS
330
A91D
102
}
330
A91D
100
AcDbVisualStyle
  2
Sketchy
 70
    24
 71
     1
 72
     2
 73
     2
 90
        0
 40
-0.6
 41
-30.0
 62
     5
 63
     7
 74
     2
 91
        2
 64
     7
 65
     7
 75
     1
175
     1
 42
40.0
 92
       11
 66
     7
 43
1.0
 76
     1
 77
     6
 78
     2
 67
     7
 79
     6
170
     0
171
     0
290
     0
174
     0
 93
        1
 44
0.0
173
     0
291
     0
 45
0.0
1001
ACAD
1000
AcDbSavedByObjectVersion
1070
     0
  0
VISUALSTYLE
  5
A92A
102
{ACAD_XDICTIONARY
360
A98F
102
}
102
{ACAD_REACTORS
330
A91D
102
}
330
A91D
100
AcDbVisualStyle
  2
Thicken
 70
    13
 71
     2
 72
     2
 73
     0
 90
        0
 40
-0.6
 41
-30.0
 62
     5
 63
     7
 74
     1
 91
        4
 64
     7
 65
   257
 75
     1
175
     1
 42
1.0
 92
       12
 66
     7
 43
1.0
 76
     1
 77
     6
 78
     2
 67
     7
 79
     5
170
     0
171
     0
290
     0
174
     0
 93
        1
 44
0.0
173
     0
291
     1
 45
0.0
1001
ACAD
1000
AcDbSavedByObjectVersion
1070
     0
  0
VISUALSTYLE
  5
A924
102
{ACAD_XDICTIONARY
360
A983
102
}
102
{ACAD_REACTORS
330
A91D
102
}
330
A91D
100
AcDbVisualStyle
  2
Wireframe
 70
     5
 71
     0
 72
     2
 73
     0
 90
        0
 40
-0.6
 41
-30.0
 62
     5
 63
     7
 74
     1
 91
        4
 64
     7
 65
   257
 75
     1
175
     1
 42
1.0
 92
        0
 66
   257
 43
1.0
 76
     1
 77
     6
 78
     2
 67
     7
 79
     3
170
     0
171
     0
290
     0
174
     0
 93
        1
 44
0.0
173
     0
291
     0
 45
0.0
1001
ACAD
1000
AcDbSavedByObjectVersion
1070
     0
  0
VISUALSTYLE
  5
A930
102
{ACAD_XDICTIONARY
360
A99B
102
}
102
{ACAD_REACTORS
330
A91D
102
}
330
A91D
100
AcDbVisualStyle
  2
X-Ray
 70
    25
 71
     2
 72
     2
 73
     1
 90
        1
 40
0.5
 41
-30.0
 62
     5
 63
     7
 74
     1
 91
        0
 64
     7
 65
   257
 75
     1
175
     1
 42
1.0
 92
        8
 66
     7
 43
1.0
 76
     1
 77
     6
 78
     2
 67
     7
 79
     3
170
     0
171
     0
290
     0
174
     0
 93
       13
 44
0.0
173
     0
291
     0
 45
0.0
1001
ACAD
1000
AcDbSavedByObjectVersion
1070
     0
  0
DICTIONARYVAR
  5
A96A
102
{ACAD_REACTORS
330
A965
102
}
330
A965
100
DictionaryVariables
280
     0
  1
1:1
  0
DICTIONARYVAR
  5
A967
102
{ACAD_REACTORS
330
A965
102
}
330
A965
100
DictionaryVariables
280
     0
  1
STANDARD
  0
DICTIONARYVAR
  5
A966
102
{ACAD_REACTORS
330
A965
102
}
330
A965
100
DictionaryVariables
280
     0
  1
STANDARD
  0
DICTIONARYVAR
  5
A968
102
{ACAD_REACTORS
330
A965
102
}
330
A965
100
DictionaryVariables
280
     0
  1
Imperial24
  0
DICTIONARYVAR
  5
A969
102
{ACAD_REACTORS
330
A965
102
}
330
A965
100
DictionaryVariables
280
     0
  1
Imperial24
  0
DICTIONARYVAR
  5
A96D
102
{ACAD_REACTORS
330
A965
102
}
330
A965
100
DictionaryVariables
280
     0
  1
1
  0
DICTIONARYVAR
  5
A96C
102
{ACAD_REACTORS
330
A965
102
}
330
A965
100
DictionaryVariables
280
     0
  1
0
  0
DICTIONARYVAR
  5
A96B
102
{ACAD_REACTORS
330
A965
102
}
330
A965
100
DictionaryVariables
280
     0
  1
127
  0
DICTIONARYVAR
  5
A96E
102
{ACAD_REACTORS
330
A965
102
}
330
A965
100
DictionaryVariables
280
     0
  1
2
  0
DICTIONARY
  5
A9AB
330
A950
100
AcDbDictionary
280
     1
281
     1
  3
ACAD_XREC_ROUNDTRIP
360
A9AC
  0
DICTIONARY
  5
A9AD
330
A951
100
AcDbDictionary
280
     1
281
     1
  3
ACAD_XREC_ROUNDTRIP
360
A9AE
  0
DICTIONARY
  5
A9AF
330
A952
100
AcDbDictionary
280
     1
281
     1
  3
ACAD_XREC_ROUNDTRIP
360
A9B0
  0
DICTIONARY
  5
A90E
330
A90D
100
AcDbDictionary
280
     1
281
     1
  3
ACAD_XREC_ROUNDTRIP
360
A975
  3
BUMPTILE
360
A910
  3
DIFFUSETILE
360
A90F
  3
OPACITYTILE
360
A913
  3
REFLECTIONTILE
360
A912
  3
REFRACTIONTILE
360
A914
  3
SPECULARTILE
360
A911
  0
DICTIONARY
  5
A906
330
A905
100
AcDbDictionary
280
     1
281
     1
  3
ACAD_XREC_ROUNDTRIP
360
A974
  3
BUMPTILE
360
A908
  3
DIFFUSETILE
360
A907
  3
OPACITYTILE
360
A90B
  3
REFLECTIONTILE
360
A90A
  3
REFRACTIONTILE
360
A90C
  3
SPECULARTILE
360
A909
  0
DICTIONARY
  5
A916
330
A915
100
AcDbDictionary
280
     1
281
     1
  3
ACAD_XREC_ROUNDTRIP
360
A976
  3
BUMPTILE
360
A918
  3
DIFFUSETILE
360
A917
  3
OPACITYTILE
360
A91B
  3
REFLECTIONTILE
360
A91A
  3
REFRACTIONTILE
360
A91C
  3
SPECULARTILE
360
A919
  0
DICTIONARY
  5
A9A9
330
A94E
100
AcDbDictionary
280
     1
281
     1
  3
ACAD_XREC_ROUNDTRIP
360
A9AA
  0
DICTIONARY
  5
A970
330
A938
100
AcDbDictionary
280
     1
281
     1
  3
ACAD_ROUNDTRIP_2008_TABLESTYLE_CELLSTYLEMAP
360
A971
  3
ACAD_XREC_ROUNDTRIP
360
A9A7
  0
DICTIONARY
  5
A981
330
A923
100
AcDbDictionary
280
     1
281
     1
  3
ACAD_XREC_ROUNDTRIP
360
A982
  0
DICTIONARY
  5
A97F
330
A922
100
AcDbDictionary
280
     1
281
     1
  3
ACAD_XREC_ROUNDTRIP
360
A980
  0
DICTIONARY
  5
A98D
330
A929
100
AcDbDictionary
280
     1
281
     1
  3
ACAD_XREC_ROUNDTRIP
360
A98E
  0
DICTIONARY
  5
A995
330
A92D
100
AcDbDictionary
280
     1
281
     1
  3
ACAD_XREC_ROUNDTRIP
360
A996
  0
DICTIONARY
  5
A987
330
A926
100
AcDbDictionary
280
     1
281
     1
  3
ACAD_XREC_ROUNDTRIP
360
A988
  0
DICTIONARY
  5
A98B
330
A928
100
AcDbDictionary
280
     1
281
     1
  3
ACAD_XREC_ROUNDTRIP
360
A98C
  0
DICTIONARY
  5
A9A5
330
A935
100
AcDbDictionary
280
     1
281
     1
  3
ACAD_XREC_ROUNDTRIP
360
A9A6
  0
DICTIONARY
  5
A993
330
A92C
100
AcDbDictionary
280
     1
281
     1
  3
ACAD_XREC_ROUNDTRIP
360
A994
  0
DICTIONARY
  5
A977
330
A91E
100
AcDbDictionary
280
     1
281
     1
  3
ACAD_XREC_ROUNDTRIP
360
A978
  0
DICTIONARY
  5
A979
330
A91F
100
AcDbDictionary
280
     1
281
     1
  3
ACAD_XREC_ROUNDTRIP
360
A97A
  0
DICTIONARY
  5
A97B
330
A920
100
AcDbDictionary
280
     1
281
     1
  3
ACAD_XREC_ROUNDTRIP
360
A97C
  0
DICTIONARY
  5
A97D
330
A921
100
AcDbDictionary
280
     1
281
     1
  3
ACAD_XREC_ROUNDTRIP
360
A97E
  0
DICTIONARY
  5
A985
330
A925
100
AcDbDictionary
280
     1
281
     1
  3
ACAD_XREC_ROUNDTRIP
360
A986
  0
DICTIONARY
  5
A9A1
330
A933
100
AcDbDictionary
280
     1
281
     1
  3
ACAD_XREC_ROUNDTRIP
360
A9A2
  0
DICTIONARY
  5
A991
330
A92B
100
AcDbDictionary
280
     1
281
     1
  3
ACAD_XREC_ROUNDTRIP
360
A992
  0
DICTIONARY
  5
A9A3
330
A934
100
AcDbDictionary
280
     1
281
     1
  3
ACAD_XREC_ROUNDTRIP
360
A9A4
  0
DICTIONARY
  5
A989
330
A927
100
AcDbDictionary
280
     1
281
     1
  3
ACAD_XREC_ROUNDTRIP
360
A98A
  0
DICTIONARY
  5
A99F
330
A932
100
AcDbDictionary
280
     1
281
     1
  3
ACAD_XREC_ROUNDTRIP
360
A9A0
  0
DICTIONARY
  5
A99D
330
A931
100
AcDbDictionary
280
     1
281
     1
  3
ACAD_XREC_ROUNDTRIP
360
A99E
  0
DICTIONARY
  5
A997
330
A92E
100
AcDbDictionary
280
     1
281
     1
  3
ACAD_XREC_ROUNDTRIP
360
A998
  0
DICTIONARY
  5
A999
330
A92F
100
AcDbDictionary
280
     1
281
     1
  3
ACAD_XREC_ROUNDTRIP
360
A99A
  0
DICTIONARY
  5
A98F
330
A92A
100
AcDbDictionary
280
     1
281
     1
  3
ACAD_XREC_ROUNDTRIP
360
A990
  0
DICTIONARY
  5
A983
330
A924
100
AcDbDictionary
280
     1
281
     1
  3
ACAD_XREC_ROUNDTRIP
360
A984
  0
DICTIONARY
  5
A99B
330
A930
100
AcDbDictionary
280
     1
281
     1
  3
ACAD_XREC_ROUNDTRIP
360
A99C
  0
XRECORD
  5
A9AC
102
{ACAD_REACTORS
330
A9AB
102
}
330
A9AB
100
AcDbXrecord
280
     1
102
DISPLAYNAME
  1
Imperial24
102
FLAGS
 90
        0
  0
XRECORD
  5
A9AE
102
{ACAD_REACTORS
330
A9AD
102
}
330
A9AD
100
AcDbXrecord
280
     1
102
SHADEPLOT
 70
     0
102
SHADEPLOTRESLEVEL
 70
     2
102
SHADEPLOTCUSTOMDPI
 70
   300
  0
XRECORD
  5
A9B0
102
{ACAD_REACTORS
330
A9AF
102
}
330
A9AF
100
AcDbXrecord
280
     1
102
SHADEPLOT
 70
     0
102
SHADEPLOTRESLEVEL
 70
     2
102
SHADEPLOTCUSTOMDPI
 70
   300
  0
XRECORD
  5
A975
102
{ACAD_REACTORS
330
A90E
102
}
330
A90E
100
AcDbXrecord
280
     1
102
MATERIAL
148
0.0
149
0.0
149
0.0
 93
        0
 94
      127
282
     0
 72
     0
 77
     0
171
     0
175
     0
179
     0
273
     0
  0
XRECORD
  5
A910
102
{ACAD_REACTORS
330
A90E
102
}
330
A90E
100
AcDbXrecord
280
     1
270
     1
271
     1
  0
XRECORD
  5
A90F
102
{ACAD_REACTORS
330
A90E
102
}
330
A90E
100
AcDbXrecord
280
     1
270
     1
271
     1
  0
XRECORD
  5
A913
102
{ACAD_REACTORS
330
A90E
102
}
330
A90E
100
AcDbXrecord
280
     1
270
     1
271
     1
  0
XRECORD
  5
A912
102
{ACAD_REACTORS
330
A90E
102
}
330
A90E
100
AcDbXrecord
280
     1
270
     1
271
     1
  0
XRECORD
  5
A914
102
{ACAD_REACTORS
330
A90E
102
}
330
A90E
100
AcDbXrecord
280
     1
270
     1
271
     1
  0
XRECORD
  5
A911
102
{ACAD_REACTORS
330
A90E
102
}
330
A90E
100
AcDbXrecord
280
     1
270
     1
271
     1
  0
XRECORD
  5
A974
102
{ACAD_REACTORS
330
A906
102
}
330
A906
100
AcDbXrecord
280
     1
102
MATERIAL
148
0.0
149
0.0
149
0.0
 93
        0
 94
      127
282
     0
 72
     0
 77
     0
171
     0
175
     0
179
     0
273
     0
  0
XRECORD
  5
A908
102
{ACAD_REACTORS
330
A906
102
}
330
A906
100
AcDbXrecord
280
     1
270
     1
271
     1
  0
XRECORD
  5
A907
102
{ACAD_REACTORS
330
A906
102
}
330
A906
100
AcDbXrecord
280
     1
270
     1
271
     1
  0
XRECORD
  5
A90B
102
{ACAD_REACTORS
330
A906
102
}
330
A906
100
AcDbXrecord
280
     1
270
     1
271
     1
  0
XRECORD
  5
A90A
102
{ACAD_REACTORS
330
A906
102
}
330
A906
100
AcDbXrecord
280
     1
270
     1
271
     1
  0
XRECORD
  5
A90C
102
{ACAD_REACTORS
330
A906
102
}
330
A906
100
AcDbXrecord
280
     1
270
     1
271
     1
  0
XRECORD
  5
A909
102
{ACAD_REACTORS
330
A906
102
}
330
A906
100
AcDbXrecord
280
     1
270
     1
271
     1
  0
XRECORD
  5
A976
102
{ACAD_REACTORS
330
A916
102
}
330
A916
100
AcDbXrecord
280
     1
102
MATERIAL
148
0.0
149
0.0
149
0.0
 93
        0
 94
      127
282
     0
 72
     0
 77
     0
171
     0
175
     0
179
     0
273
     0
  0
XRECORD
  5
A918
102
{ACAD_REACTORS
330
A916
102
}
330
A916
100
AcDbXrecord
280
     1
270
     1
271
     1
  0
XRECORD
  5
A917
102
{ACAD_REACTORS
330
A916
102
}
330
A916
100
AcDbXrecord
280
     1
270
     1
271
     1
  0
XRECORD
  5
A91B
102
{ACAD_REACTORS
330
A916
102
}
330
A916
100
AcDbXrecord
280
     1
270
     1
271
     1
  0
XRECORD
  5
A91A
102
{ACAD_REACTORS
330
A916
102
}
330
A916
100
AcDbXrecord
280
     1
270
     1
271
     1
  0
XRECORD
  5
A91C
102
{ACAD_REACTORS
330
A916
102
}
330
A916
100
AcDbXrecord
280
     1
270
     1
271
     1
  0
XRECORD
  5
A919
102
{ACAD_REACTORS
330
A916
102
}
330
A916
100
AcDbXrecord
280
     1
270
     1
271
     1
  0
XRECORD
  5
A9AA
102
{ACAD_REACTORS
330
A9A9
102
}
330
A9A9
100
AcDbXrecord
280
     1
102
DISPLAYNAME
  1
Imperial24
102
FLAGS
 90
        0
  0
CELLSTYLEMAP
  5
A971
102
{ACAD_REACTORS
330
A970
102
}
330
A970
100
AcDbCellStyleMap
 90
        3
300
CELLSTYLE
  1
TABLEFORMAT_BEGIN
 90
        5
170
     1
 91
        0
 92
    32768
 62
   257
 93
        1
300
CONTENTFORMAT
  1
CONTENTFORMAT_BEGIN
 90
        0
 91
        0
 92
      512
 93
        0
300

 40
0.0
140
1.0
 94
        5
 62
     0
340
A672
144
0.25
309
CONTENTFORMAT_END
171
     0
 94
        0
309
TABLEFORMAT_END
  1
CELLSTYLE_BEGIN
 90
        1
 91
        1
300
_TITLE
309
CELLSTYLE_END
300
CELLSTYLE
  1
TABLEFORMAT_BEGIN
 90
        5
170
     1
 91
        0
 92
        0
 62
   257
 93
        1
300
CONTENTFORMAT
  1
CONTENTFORMAT_BEGIN
 90
        0
 91
        0
 92
      512
 93
        0
300

 40
0.0
140
1.0
 94
        5
 62
     0
340
A672
144
0.18
309
CONTENTFORMAT_END
171
     0
 94
        0
309
TABLEFORMAT_END
  1
CELLSTYLE_BEGIN
 90
        2
 91
        1
300
_HEADER
309
CELLSTYLE_END
300
CELLSTYLE
  1
TABLEFORMAT_BEGIN
 90
        5
170
     1
 91
        0
 92
        0
 62
   257
 93
        1
300
CONTENTFORMAT
  1
CONTENTFORMAT_BEGIN
 90
        0
 91
        0
 92
      512
 93
        0
300

 40
0.0
140
1.0
 94
        2
 62
     0
340
A672
144
0.18
309
CONTENTFORMAT_END
171
     0
 94
        0
309
TABLEFORMAT_END
  1
CELLSTYLE_BEGIN
 90
        3
 91
        2
300
_DATA
309
CELLSTYLE_END
  0
XRECORD
  5
A9A7
102
{ACAD_REACTORS
330
A970
102
}
330
A970
100
AcDbXrecord
280
     1
102
ACAD_ROUNDTRIP_PRE2007_TABLESTYLE
 90
      512
 91
        0
  1

 92
      512
 93
        0
  2

 94
      512
 95
        0
  3

  0
XRECORD
  5
A982
102
{ACAD_REACTORS
330
A981
102
}
330
A981
100
AcDbXrecord
280
     1
102
RTVSPost2010Prop28
280
     1
102
RTVSPost2010PropOp28
 70
     1
102
RTVSPost2010Prop29
280
     1
102
RTVSPost2010PropOp29
 70
     1
102
RTVSPost2010Prop30
280
     0
102
RTVSPost2010PropOp30
 70
     1
102
RTVSPost2010Prop31
280
     0
102
RTVSPost2010PropOp31
 70
     1
102
RTVSPost2010Prop32
280
     0
102
RTVSPost2010PropOp32
 70
     1
102
RTVSPost2010Prop33
280
     0
102
RTVSPost2010PropOp33
 70
     1
102
RTVSPost2010Prop34
280
     0
102
RTVSPost2010PropOp34
 70
     1
102
RTVSPost2010Prop35
280
     0
102
RTVSPost2010PropOp35
 70
     1
102
RTVSPost2010Prop36
280
     0
102
RTVSPost2010PropOp36
 70
     1
102
RTVSPost2010Prop37
 90
       50
102
RTVSPost2010PropOp37
 70
     1
102
RTVSPost2010Prop38
140
0.0
102
RTVSPost2010PropOp38
 70
     1
102
RTVSPost2010Prop39
140
1.0
102
RTVSPost2010PropOp39
 70
     1
102
RTVSPost2010Prop40
 90
        0
102
RTVSPost2010PropOp40
 70
     1
102
RTVSPost2010Prop41ColorIndex
 90
       18
102
RTVSPost2010Prop41ColorRGB
 90
        0
102
RTVSPost2010PropOp41
 70
     1
102
RTVSPost2010Prop42
 90
       50
102
RTVSPost2010PropOp42
 70
     1
102
RTVSPost2010Prop43
 90
        3
102
RTVSPost2010PropOp43
 70
     1
102
RTVSPost2010Prop44ColorIndex
 90
        5
102
RTVSPost2010Prop44ColorRGB
 90
      255
102
RTVSPost2010PropOp44
 70
     1
102
RTVSPost2010Prop45
280
     0
102
RTVSPost2010PropOp45
 70
     1
102
RTVSPost2010Prop46
 90
       50
102
RTVSPost2010PropOp46
 70
     1
102
RTVSPost2010Prop47
 90
       50
102
RTVSPost2010PropOp47
 70
     1
102
RTVSPost2010Prop48
 90
       50
102
RTVSPost2010PropOp48
 70
     1
102
RTVSPost2010Prop49
280
     0
102
RTVSPost2010PropOp49
 70
     1
102
RTVSPost2010Prop50
 90
       50
102
RTVSPost2010PropOp50
 70
     1
102
RTVSPost2010Prop51ColorIndex
 90
      256
102
RTVSPost2010Prop51ColorRGB
 90
-16777216
102
RTVSPost2010PropOp51
 70
     0
102
RTVSPost2010Prop52
140
1.0
102
RTVSPost2010PropOp52
 70
     0
102
RTVSPost2010Prop53
 90
        2
102
RTVSPost2010PropOp53
 70
     1
102
RTVSPost2010Prop54
  1
strokes_ogs.tif
102
RTVSPost2010PropOp54
 70
     1
102
RTVSPost2010Prop55
280
     0
102
RTVSPost2010PropOp55
 70
     1
102
RTVSPost2010Prop56
140
1.0
102
RTVSPost2010PropOp56
 70
     1
102
RTVSPost2010Prop57
140
1.0
102
RTVSPost2010PropOp57
 70
     1
102
RTVSPropertyOp0
 70
     1
102
RTVSPropertyOp1
 70
     1
102
RTVSPropertyOp2
 70
     1
102
RTVSPropertyOp3
 70
     1
102
RTVSPropertyOp4
 70
     1
102
RTVSPropertyOp5
 70
     1
102
RTVSPropertyOp6
 70
     1
102
RTVSPropertyOp7
 70
     1
102
RTVSPropertyOp8
 70
     1
102
RTVSPropertyOp9
 70
     1
102
RTVSPropertyOp10
 70
     1
102
RTVSPropertyOp11
 70
     1
102
RTVSPropertyOp12
 70
     1
102
RTVSPropertyOp13
 70
     1
102
RTVSPropertyOp14
 70
     1
102
RTVSPropertyOp15
 70
     1
102
RTVSPropertyOp16
 70
     1
102
RTVSPropertyOp17
 70
     1
102
RTVSPropertyOp18
 70
     1
102
RTVSPropertyOp19
 70
     1
102
RTVSPropertyOp20
 70
     1
102
RTVSPropertyOp21
 70
     1
102
RTVSPropertyOp22
 70
     1
102
RTVSPropertyOp23
 70
     1
102
RTVSPropertyOp24
 70
     1
102
RTVSPropertyOp25
 70
     1
102
RTVSPropertyOp26
 70
     1
102
RTVSPropertyOp27
 70
     1
102
RTVSPropertyOp28
 70
     1
102
RTVSPropertyOp29
 70
     1
102
RTVSPropertyOp30
 70
     1
102
RTVSPropertyOp31
 70
     1
102
RTVSPropertyOp32
 70
     1
102
RTVSPropertyOp33
 70
     1
102
RTVSPropertyOp34
 70
     1
102
RTVSPropertyOp35
 70
     1
102
RTVSPropertyOp36
 70
     1
102
RTVSPropertyOp37
 70
     1
102
RTVSPropertyOp38
 70
     1
102
RTVSPropertyOp39
 70
     1
102
RTVSPropertyOp40
 70
     1
102
RTVSPropertyOp41
 70
     1
102
RTVSPropertyOp42
 70
     1
102
RTVSPropertyOp43
 70
     1
102
RTVSPropertyOp44
 70
     1
102
RTVSPropertyOp45
 70
     1
102
RTVSPropertyOp46
 70
     1
102
RTVSPropertyOp47
 70
     1
102
RTVSPropertyOp48
 70
     1
102
RTVSPropertyOp49
 70
     1
102
RTVSPropertyOp50
 70
     1
102
RTVSPropertyOp51
 70
     0
102
RTVSPropertyOp52
 70
     0
102
RTVSPropertyOp53
 70
     1
102
RTVSPropertyOp54
 70
     1
102
RTVSPropertyOp55
 70
     1
102
RTVSPropertyOp56
 70
     1
102
RTVSPropertyOp57
 70
     1
102
RTVSPropertyOp58
 70
     1
102
RTVSPropertyOp59
 70
     1
102
RTVSPropertyOp60
 70
     1
102
RTVSPropertyOp61
 70
     1
102
RTVSPropertyOp62
 70
     1
  0
XRECORD
  5
A980
102
{ACAD_REACTORS
330
A97F
102
}
330
A97F
100
AcDbXrecord
280
     1
102
RTVSPost2010Prop28
280
     0
102
RTVSPost2010PropOp28
 70
     1
102
RTVSPost2010Prop29
280
     1
102
RTVSPost2010PropOp29
 70
     1
102
RTVSPost2010Prop30
280
     1
102
RTVSPost2010PropOp30
 70
     1
102
RTVSPost2010Prop31
280
     0
102
RTVSPost2010PropOp31
 70
     1
102
RTVSPost2010Prop32
280
     0
102
RTVSPost2010PropOp32
 70
     1
102
RTVSPost2010Prop33
280
     0
102
RTVSPost2010PropOp33
 70
     1
102
RTVSPost2010Prop34
280
     0
102
RTVSPost2010PropOp34
 70
     1
102
RTVSPost2010Prop35
280
     0
102
RTVSPost2010PropOp35
 70
     1
102
RTVSPost2010Prop36
280
     0
102
RTVSPost2010PropOp36
 70
     1
102
RTVSPost2010Prop37
 90
       50
102
RTVSPost2010PropOp37
 70
     1
102
RTVSPost2010Prop38
140
0.0
102
RTVSPost2010PropOp38
 70
     1
102
RTVSPost2010Prop39
140
1.0
102
RTVSPost2010PropOp39
 70
     1
102
RTVSPost2010Prop40
 90
        0
102
RTVSPost2010PropOp40
 70
     1
102
RTVSPost2010Prop41ColorIndex
 90
       18
102
RTVSPost2010Prop41ColorRGB
 90
        0
102
RTVSPost2010PropOp41
 70
     1
102
RTVSPost2010Prop42
 90
       50
102
RTVSPost2010PropOp42
 70
     1
102
RTVSPost2010Prop43
 90
        3
102
RTVSPost2010PropOp43
 70
     1
102
RTVSPost2010Prop44ColorIndex
 90
        5
102
RTVSPost2010Prop44ColorRGB
 90
      255
102
RTVSPost2010PropOp44
 70
     1
102
RTVSPost2010Prop45
280
     0
102
RTVSPost2010PropOp45
 70
     1
102
RTVSPost2010Prop46
 90
       50
102
RTVSPost2010PropOp46
 70
     1
102
RTVSPost2010Prop47
 90
       50
102
RTVSPost2010PropOp47
 70
     1
102
RTVSPost2010Prop48
 90
       50
102
RTVSPost2010PropOp48
 70
     1
102
RTVSPost2010Prop49
280
     0
102
RTVSPost2010PropOp49
 70
     1
102
RTVSPost2010Prop50
 90
       50
102
RTVSPost2010PropOp50
 70
     1
102
RTVSPost2010Prop51ColorIndex
 90
      256
102
RTVSPost2010Prop51ColorRGB
 90
-16777216
102
RTVSPost2010PropOp51
 70
     0
102
RTVSPost2010Prop52
140
1.0
102
RTVSPost2010PropOp52
 70
     0
102
RTVSPost2010Prop53
 90
        2
102
RTVSPost2010PropOp53
 70
     1
102
RTVSPost2010Prop54
  1
strokes_ogs.tif
102
RTVSPost2010PropOp54
 70
     1
102
RTVSPost2010Prop55
280
     0
102
RTVSPost2010PropOp55
 70
     1
102
RTVSPost2010Prop56
140
1.0
102
RTVSPost2010PropOp56
 70
     1
102
RTVSPost2010Prop57
140
1.0
102
RTVSPost2010PropOp57
 70
     1
102
RTVSPropertyOp0
 70
     1
102
RTVSPropertyOp1
 70
     1
102
RTVSPropertyOp2
 70
     1
102
RTVSPropertyOp3
 70
     1
102
RTVSPropertyOp4
 70
     1
102
RTVSPropertyOp5
 70
     1
102
RTVSPropertyOp6
 70
     1
102
RTVSPropertyOp7
 70
     1
102
RTVSPropertyOp8
 70
     1
102
RTVSPropertyOp9
 70
     1
102
RTVSPropertyOp10
 70
     1
102
RTVSPropertyOp11
 70
     1
102
RTVSPropertyOp12
 70
     1
102
RTVSPropertyOp13
 70
     1
102
RTVSPropertyOp14
 70
     1
102
RTVSPropertyOp15
 70
     1
102
RTVSPropertyOp16
 70
     1
102
RTVSPropertyOp17
 70
     1
102
RTVSPropertyOp18
 70
     1
102
RTVSPropertyOp19
 70
     1
102
RTVSPropertyOp20
 70
     1
102
RTVSPropertyOp21
 70
     1
102
RTVSPropertyOp22
 70
     1
102
RTVSPropertyOp23
 70
     1
102
RTVSPropertyOp24
 70
     1
102
RTVSPropertyOp25
 70
     1
102
RTVSPropertyOp26
 70
     1
102
RTVSPropertyOp27
 70
     1
102
RTVSPropertyOp28
 70
     1
102
RTVSPropertyOp29
 70
     1
102
RTVSPropertyOp30
 70
     1
102
RTVSPropertyOp31
 70
     1
102
RTVSPropertyOp32
 70
     1
102
RTVSPropertyOp33
 70
     1
102
RTVSPropertyOp34
 70
     1
102
RTVSPropertyOp35
 70
     1
102
RTVSPropertyOp36
 70
     1
102
RTVSPropertyOp37
 70
     1
102
RTVSPropertyOp38
 70
     1
102
RTVSPropertyOp39
 70
     1
102
RTVSPropertyOp40
 70
     1
102
RTVSPropertyOp41
 70
     1
102
RTVSPropertyOp42
 70
     1
102
RTVSPropertyOp43
 70
     1
102
RTVSPropertyOp44
 70
     1
102
RTVSPropertyOp45
 70
     1
102
RTVSPropertyOp46
 70
     1
102
RTVSPropertyOp47
 70
     1
102
RTVSPropertyOp48
 70
     1
102
RTVSPropertyOp49
 70
     1
102
RTVSPropertyOp50
 70
     1
102
RTVSPropertyOp51
 70
     0
102
RTVSPropertyOp52
 70
     0
102
RTVSPropertyOp53
 70
     1
102
RTVSPropertyOp54
 70
     1
102
RTVSPropertyOp55
 70
     1
102
RTVSPropertyOp56
 70
     1
102
RTVSPropertyOp57
 70
     1
102
RTVSPropertyOp58
 70
     1
102
RTVSPropertyOp59
 70
     1
102
RTVSPropertyOp60
 70
     1
102
RTVSPropertyOp61
 70
     1
102
RTVSPropertyOp62
 70
     1
  0
XRECORD
  5
A98E
102
{ACAD_REACTORS
330
A98D
102
}
330
A98D
100
AcDbXrecord
280
     1
102
RTVSPost2010Prop28
280
     0
102
RTVSPost2010PropOp28
 70
     1
102
RTVSPost2010Prop29
280
     1
102
RTVSPost2010PropOp29
 70
     1
102
RTVSPost2010Prop30
280
     1
102
RTVSPost2010PropOp30
 70
     1
102
RTVSPost2010Prop31
280
     0
102
RTVSPost2010PropOp31
 70
     1
102
RTVSPost2010Prop32
280
     0
102
RTVSPost2010PropOp32
 70
     1
102
RTVSPost2010Prop33
280
     0
102
RTVSPost2010PropOp33
 70
     1
102
RTVSPost2010Prop34
280
     0
102
RTVSPost2010PropOp34
 70
     1
102
RTVSPost2010Prop35
280
     0
102
RTVSPost2010PropOp35
 70
     1
102
RTVSPost2010Prop36
280
     0
102
RTVSPost2010PropOp36
 70
     1
102
RTVSPost2010Prop37
 90
       50
102
RTVSPost2010PropOp37
 70
     1
102
RTVSPost2010Prop38
140
0.0
102
RTVSPost2010PropOp38
 70
     1
102
RTVSPost2010Prop39
140
1.0
102
RTVSPost2010PropOp39
 70
     1
102
RTVSPost2010Prop40
 90
        0
102
RTVSPost2010PropOp40
 70
     1
102
RTVSPost2010Prop41ColorIndex
 90
       18
102
RTVSPost2010Prop41ColorRGB
 90
        0
102
RTVSPost2010PropOp41
 70
     1
102
RTVSPost2010Prop42
 90
       50
102
RTVSPost2010PropOp42
 70
     1
102
RTVSPost2010Prop43
 90
        3
102
RTVSPost2010PropOp43
 70
     1
102
RTVSPost2010Prop44ColorIndex
 90
        5
102
RTVSPost2010Prop44ColorRGB
 90
      255
102
RTVSPost2010PropOp44
 70
     1
102
RTVSPost2010Prop45
280
     0
102
RTVSPost2010PropOp45
 70
     1
102
RTVSPost2010Prop46
 90
       50
102
RTVSPost2010PropOp46
 70
     1
102
RTVSPost2010Prop47
 90
       50
102
RTVSPost2010PropOp47
 70
     1
102
RTVSPost2010Prop48
 90
       50
102
RTVSPost2010PropOp48
 70
     1
102
RTVSPost2010Prop49
280
     0
102
RTVSPost2010PropOp49
 70
     1
102
RTVSPost2010Prop50
 90
       50
102
RTVSPost2010PropOp50
 70
     1
102
RTVSPost2010Prop51ColorIndex
 90
      256
102
RTVSPost2010Prop51ColorRGB
 90
-16777216
102
RTVSPost2010PropOp51
 70
     0
102
RTVSPost2010Prop52
140
1.0
102
RTVSPost2010PropOp52
 70
     0
102
RTVSPost2010Prop53
 90
        2
102
RTVSPost2010PropOp53
 70
     1
102
RTVSPost2010Prop54
  1
strokes_ogs.tif
102
RTVSPost2010PropOp54
 70
     1
102
RTVSPost2010Prop55
280
     0
102
RTVSPost2010PropOp55
 70
     1
102
RTVSPost2010Prop56
140
1.0
102
RTVSPost2010PropOp56
 70
     1
102
RTVSPost2010Prop57
140
1.0
102
RTVSPost2010PropOp57
 70
     1
102
RTVSPropertyOp0
 70
     1
102
RTVSPropertyOp1
 70
     1
102
RTVSPropertyOp2
 70
     1
102
RTVSPropertyOp3
 70
     1
102
RTVSPropertyOp4
 70
     1
102
RTVSPropertyOp5
 70
     1
102
RTVSPropertyOp6
 70
     1
102
RTVSPropertyOp7
 70
     1
102
RTVSPropertyOp8
 70
     1
102
RTVSPropertyOp9
 70
     1
102
RTVSPropertyOp10
 70
     1
102
RTVSPropertyOp11
 70
     1
102
RTVSPropertyOp12
 70
     1
102
RTVSPropertyOp13
 70
     1
102
RTVSPropertyOp14
 70
     1
102
RTVSPropertyOp15
 70
     1
102
RTVSPropertyOp16
 70
     1
102
RTVSPropertyOp17
 70
     1
102
RTVSPropertyOp18
 70
     1
102
RTVSPropertyOp19
 70
     1
102
RTVSPropertyOp20
 70
     1
102
RTVSPropertyOp21
 70
     1
102
RTVSPropertyOp22
 70
     1
102
RTVSPropertyOp23
 70
     1
102
RTVSPropertyOp24
 70
     1
102
RTVSPropertyOp25
 70
     1
102
RTVSPropertyOp26
 70
     1
102
RTVSPropertyOp27
 70
     1
102
RTVSPropertyOp28
 70
     1
102
RTVSPropertyOp29
 70
     1
102
RTVSPropertyOp30
 70
     1
102
RTVSPropertyOp31
 70
     1
102
RTVSPropertyOp32
 70
     1
102
RTVSPropertyOp33
 70
     1
102
RTVSPropertyOp34
 70
     1
102
RTVSPropertyOp35
 70
     1
102
RTVSPropertyOp36
 70
     1
102
RTVSPropertyOp37
 70
     1
102
RTVSPropertyOp38
 70
     1
102
RTVSPropertyOp39
 70
     1
102
RTVSPropertyOp40
 70
     1
102
RTVSPropertyOp41
 70
     1
102
RTVSPropertyOp42
 70
     1
102
RTVSPropertyOp43
 70
     1
102
RTVSPropertyOp44
 70
     1
102
RTVSPropertyOp45
 70
     1
102
RTVSPropertyOp46
 70
     1
102
RTVSPropertyOp47
 70
     1
102
RTVSPropertyOp48
 70
     1
102
RTVSPropertyOp49
 70
     1
102
RTVSPropertyOp50
 70
     1
102
RTVSPropertyOp51
 70
     0
102
RTVSPropertyOp52
 70
     0
102
RTVSPropertyOp53
 70
     1
102
RTVSPropertyOp54
 70
     1
102
RTVSPropertyOp55
 70
     1
102
RTVSPropertyOp56
 70
     1
102
RTVSPropertyOp57
 70
     1
102
RTVSPropertyOp58
 70
     1
102
RTVSPropertyOp59
 70
     1
102
RTVSPropertyOp60
 70
     1
102
RTVSPropertyOp61
 70
     1
102
RTVSPropertyOp62
 70
     1
  0
XRECORD
  5
A996
102
{ACAD_REACTORS
330
A995
102
}
330
A995
100
AcDbXrecord
280
     1
102
RTVSPost2010Prop28
280
     0
102
RTVSPost2010PropOp28
 70
     1
102
RTVSPost2010Prop29
280
     1
102
RTVSPost2010PropOp29
 70
     1
102
RTVSPost2010Prop30
280
     1
102
RTVSPost2010PropOp30
 70
     1
102
RTVSPost2010Prop31
280
     0
102
RTVSPost2010PropOp31
 70
     1
102
RTVSPost2010Prop32
280
     0
102
RTVSPost2010PropOp32
 70
     1
102
RTVSPost2010Prop33
280
     0
102
RTVSPost2010PropOp33
 70
     1
102
RTVSPost2010Prop34
280
     0
102
RTVSPost2010PropOp34
 70
     1
102
RTVSPost2010Prop35
280
     0
102
RTVSPost2010PropOp35
 70
     1
102
RTVSPost2010Prop36
280
     0
102
RTVSPost2010PropOp36
 70
     1
102
RTVSPost2010Prop37
 90
       50
102
RTVSPost2010PropOp37
 70
     1
102
RTVSPost2010Prop38
140
0.0
102
RTVSPost2010PropOp38
 70
     1
102
RTVSPost2010Prop39
140
1.0
102
RTVSPost2010PropOp39
 70
     1
102
RTVSPost2010Prop40
 90
        0
102
RTVSPost2010PropOp40
 70
     1
102
RTVSPost2010Prop41ColorIndex
 90
       18
102
RTVSPost2010Prop41ColorRGB
 90
        0
102
RTVSPost2010PropOp41
 70
     1
102
RTVSPost2010Prop42
 90
       50
102
RTVSPost2010PropOp42
 70
     1
102
RTVSPost2010Prop43
 90
        3
102
RTVSPost2010PropOp43
 70
     1
102
RTVSPost2010Prop44ColorIndex
 90
        5
102
RTVSPost2010Prop44ColorRGB
 90
      255
102
RTVSPost2010PropOp44
 70
     1
102
RTVSPost2010Prop45
280
     0
102
RTVSPost2010PropOp45
 70
     1
102
RTVSPost2010Prop46
 90
       50
102
RTVSPost2010PropOp46
 70
     1
102
RTVSPost2010Prop47
 90
       50
102
RTVSPost2010PropOp47
 70
     1
102
RTVSPost2010Prop48
 90
       50
102
RTVSPost2010PropOp48
 70
     1
102
RTVSPost2010Prop49
280
     0
102
RTVSPost2010PropOp49
 70
     1
102
RTVSPost2010Prop50
 90
       50
102
RTVSPost2010PropOp50
 70
     1
102
RTVSPost2010Prop51ColorIndex
 90
      256
102
RTVSPost2010Prop51ColorRGB
 90
-16777216
102
RTVSPost2010PropOp51
 70
     0
102
RTVSPost2010Prop52
140
1.0
102
RTVSPost2010PropOp52
 70
     0
102
RTVSPost2010Prop53
 90
        2
102
RTVSPost2010PropOp53
 70
     1
102
RTVSPost2010Prop54
  1
strokes_ogs.tif
102
RTVSPost2010PropOp54
 70
     1
102
RTVSPost2010Prop55
280
     0
102
RTVSPost2010PropOp55
 70
     1
102
RTVSPost2010Prop56
140
1.0
102
RTVSPost2010PropOp56
 70
     1
102
RTVSPost2010Prop57
140
1.0
102
RTVSPost2010PropOp57
 70
     1
102
RTVSPropertyOp0
 70
     1
102
RTVSPropertyOp1
 70
     1
102
RTVSPropertyOp2
 70
     1
102
RTVSPropertyOp3
 70
     1
102
RTVSPropertyOp4
 70
     1
102
RTVSPropertyOp5
 70
     1
102
RTVSPropertyOp6
 70
     1
102
RTVSPropertyOp7
 70
     1
102
RTVSPropertyOp8
 70
     1
102
RTVSPropertyOp9
 70
     1
102
RTVSPropertyOp10
 70
     1
102
RTVSPropertyOp11
 70
     1
102
RTVSPropertyOp12
 70
     1
102
RTVSPropertyOp13
 70
     1
102
RTVSPropertyOp14
 70
     1
102
RTVSPropertyOp15
 70
     1
102
RTVSPropertyOp16
 70
     1
102
RTVSPropertyOp17
 70
     1
102
RTVSPropertyOp18
 70
     1
102
RTVSPropertyOp19
 70
     1
102
RTVSPropertyOp20
 70
     1
102
RTVSPropertyOp21
 70
     1
102
RTVSPropertyOp22
 70
     1
102
RTVSPropertyOp23
 70
     1
102
RTVSPropertyOp24
 70
     1
102
RTVSPropertyOp25
 70
     1
102
RTVSPropertyOp26
 70
     1
102
RTVSPropertyOp27
 70
     1
102
RTVSPropertyOp28
 70
     1
102
RTVSPropertyOp29
 70
     1
102
RTVSPropertyOp30
 70
     1
102
RTVSPropertyOp31
 70
     1
102
RTVSPropertyOp32
 70
     1
102
RTVSPropertyOp33
 70
     1
102
RTVSPropertyOp34
 70
     1
102
RTVSPropertyOp35
 70
     1
102
RTVSPropertyOp36
 70
     1
102
RTVSPropertyOp37
 70
     1
102
RTVSPropertyOp38
 70
     1
102
RTVSPropertyOp39
 70
     1
102
RTVSPropertyOp40
 70
     1
102
RTVSPropertyOp41
 70
     1
102
RTVSPropertyOp42
 70
     1
102
RTVSPropertyOp43
 70
     1
102
RTVSPropertyOp44
 70
     1
102
RTVSPropertyOp45
 70
     1
102
RTVSPropertyOp46
 70
     1
102
RTVSPropertyOp47
 70
     1
102
RTVSPropertyOp48
 70
     1
102
RTVSPropertyOp49
 70
     1
102
RTVSPropertyOp50
 70
     1
102
RTVSPropertyOp51
 70
     0
102
RTVSPropertyOp52
 70
     0
102
RTVSPropertyOp53
 70
     1
102
RTVSPropertyOp54
 70
     1
102
RTVSPropertyOp55
 70
     1
102
RTVSPropertyOp56
 70
     1
102
RTVSPropertyOp57
 70
     1
102
RTVSPropertyOp58
 70
     1
102
RTVSPropertyOp59
 70
     1
102
RTVSPropertyOp60
 70
     1
102
RTVSPropertyOp61
 70
     1
102
RTVSPropertyOp62
 70
     1
  0
XRECORD
  5
A988
102
{ACAD_REACTORS
330
A987
102
}
330
A987
100
AcDbXrecord
280
     1
102
RTVSPost2010Prop28
280
     0
102
RTVSPost2010PropOp28
 70
     1
102
RTVSPost2010Prop29
280
     1
102
RTVSPost2010PropOp29
 70
     1
102
RTVSPost2010Prop30
280
     1
102
RTVSPost2010PropOp30
 70
     1
102
RTVSPost2010Prop31
280
     0
102
RTVSPost2010PropOp31
 70
     1
102
RTVSPost2010Prop32
280
     0
102
RTVSPost2010PropOp32
 70
     1
102
RTVSPost2010Prop33
280
     0
102
RTVSPost2010PropOp33
 70
     1
102
RTVSPost2010Prop34
280
     0
102
RTVSPost2010PropOp34
 70
     1
102
RTVSPost2010Prop35
280
     0
102
RTVSPost2010PropOp35
 70
     1
102
RTVSPost2010Prop36
280
     0
102
RTVSPost2010PropOp36
 70
     1
102
RTVSPost2010Prop37
 90
       50
102
RTVSPost2010PropOp37
 70
     1
102
RTVSPost2010Prop38
140
0.0
102
RTVSPost2010PropOp38
 70
     1
102
RTVSPost2010Prop39
140
1.0
102
RTVSPost2010PropOp39
 70
     1
102
RTVSPost2010Prop40
 90
        0
102
RTVSPost2010PropOp40
 70
     1
102
RTVSPost2010Prop41ColorIndex
 90
       18
102
RTVSPost2010Prop41ColorRGB
 90
        0
102
RTVSPost2010PropOp41
 70
     1
102
RTVSPost2010Prop42
 90
       50
102
RTVSPost2010PropOp42
 70
     1
102
RTVSPost2010Prop43
 90
        3
102
RTVSPost2010PropOp43
 70
     1
102
RTVSPost2010Prop44ColorIndex
 90
        5
102
RTVSPost2010Prop44ColorRGB
 90
      255
102
RTVSPost2010PropOp44
 70
     1
102
RTVSPost2010Prop45
280
     0
102
RTVSPost2010PropOp45
 70
     1
102
RTVSPost2010Prop46
 90
       50
102
RTVSPost2010PropOp46
 70
     1
102
RTVSPost2010Prop47
 90
       50
102
RTVSPost2010PropOp47
 70
     1
102
RTVSPost2010Prop48
 90
       50
102
RTVSPost2010PropOp48
 70
     1
102
RTVSPost2010Prop49
280
     0
102
RTVSPost2010PropOp49
 70
     1
102
RTVSPost2010Prop50
 90
       50
102
RTVSPost2010PropOp50
 70
     1
102
RTVSPost2010Prop51ColorIndex
 90
      256
102
RTVSPost2010Prop51ColorRGB
 90
-16777216
102
RTVSPost2010PropOp51
 70
     0
102
RTVSPost2010Prop52
140
1.0
102
RTVSPost2010PropOp52
 70
     0
102
RTVSPost2010Prop53
 90
        2
102
RTVSPost2010PropOp53
 70
     1
102
RTVSPost2010Prop54
  1
strokes_ogs.tif
102
RTVSPost2010PropOp54
 70
     1
102
RTVSPost2010Prop55
280
     0
102
RTVSPost2010PropOp55
 70
     1
102
RTVSPost2010Prop56
140
1.0
102
RTVSPost2010PropOp56
 70
     1
102
RTVSPost2010Prop57
140
1.0
102
RTVSPost2010PropOp57
 70
     1
102
RTVSPropertyOp0
 70
     1
102
RTVSPropertyOp1
 70
     1
102
RTVSPropertyOp2
 70
     1
102
RTVSPropertyOp3
 70
     1
102
RTVSPropertyOp4
 70
     1
102
RTVSPropertyOp5
 70
     1
102
RTVSPropertyOp6
 70
     1
102
RTVSPropertyOp7
 70
     1
102
RTVSPropertyOp8
 70
     1
102
RTVSPropertyOp9
 70
     1
102
RTVSPropertyOp10
 70
     1
102
RTVSPropertyOp11
 70
     1
102
RTVSPropertyOp12
 70
     1
102
RTVSPropertyOp13
 70
     1
102
RTVSPropertyOp14
 70
     1
102
RTVSPropertyOp15
 70
     1
102
RTVSPropertyOp16
 70
     1
102
RTVSPropertyOp17
 70
     1
102
RTVSPropertyOp18
 70
     1
102
RTVSPropertyOp19
 70
     1
102
RTVSPropertyOp20
 70
     1
102
RTVSPropertyOp21
 70
     1
102
RTVSPropertyOp22
 70
     1
102
RTVSPropertyOp23
 70
     1
102
RTVSPropertyOp24
 70
     1
102
RTVSPropertyOp25
 70
     1
102
RTVSPropertyOp26
 70
     1
102
RTVSPropertyOp27
 70
     1
102
RTVSPropertyOp28
 70
     1
102
RTVSPropertyOp29
 70
     1
102
RTVSPropertyOp30
 70
     1
102
RTVSPropertyOp31
 70
     1
102
RTVSPropertyOp32
 70
     1
102
RTVSPropertyOp33
 70
     1
102
RTVSPropertyOp34
 70
     1
102
RTVSPropertyOp35
 70
     1
102
RTVSPropertyOp36
 70
     1
102
RTVSPropertyOp37
 70
     1
102
RTVSPropertyOp38
 70
     1
102
RTVSPropertyOp39
 70
     1
102
RTVSPropertyOp40
 70
     1
102
RTVSPropertyOp41
 70
     1
102
RTVSPropertyOp42
 70
     1
102
RTVSPropertyOp43
 70
     1
102
RTVSPropertyOp44
 70
     1
102
RTVSPropertyOp45
 70
     1
102
RTVSPropertyOp46
 70
     1
102
RTVSPropertyOp47
 70
     1
102
RTVSPropertyOp48
 70
     1
102
RTVSPropertyOp49
 70
     1
102
RTVSPropertyOp50
 70
     1
102
RTVSPropertyOp51
 70
     0
102
RTVSPropertyOp52
 70
     0
102
RTVSPropertyOp53
 70
     1
102
RTVSPropertyOp54
 70
     1
102
RTVSPropertyOp55
 70
     1
102
RTVSPropertyOp56
 70
     1
102
RTVSPropertyOp57
 70
     1
102
RTVSPropertyOp58
 70
     1
102
RTVSPropertyOp59
 70
     1
102
RTVSPropertyOp60
 70
     1
102
RTVSPropertyOp61
 70
     1
102
RTVSPropertyOp62
 70
     1
  0
XRECORD
  5
A98C
102
{ACAD_REACTORS
330
A98B
102
}
330
A98B
100
AcDbXrecord
280
     1
102
RTVSPost2010Prop28
280
     0
102
RTVSPost2010PropOp28
 70
     1
102
RTVSPost2010Prop29
280
     1
102
RTVSPost2010PropOp29
 70
     1
102
RTVSPost2010Prop30
280
     1
102
RTVSPost2010PropOp30
 70
     1
102
RTVSPost2010Prop31
280
     0
102
RTVSPost2010PropOp31
 70
     1
102
RTVSPost2010Prop32
280
     0
102
RTVSPost2010PropOp32
 70
     1
102
RTVSPost2010Prop33
280
     0
102
RTVSPost2010PropOp33
 70
     1
102
RTVSPost2010Prop34
280
     0
102
RTVSPost2010PropOp34
 70
     1
102
RTVSPost2010Prop35
280
     0
102
RTVSPost2010PropOp35
 70
     1
102
RTVSPost2010Prop36
280
     0
102
RTVSPost2010PropOp36
 70
     1
102
RTVSPost2010Prop37
 90
       50
102
RTVSPost2010PropOp37
 70
     1
102
RTVSPost2010Prop38
140
0.0
102
RTVSPost2010PropOp38
 70
     1
102
RTVSPost2010Prop39
140
1.0
102
RTVSPost2010PropOp39
 70
     1
102
RTVSPost2010Prop40
 90
        0
102
RTVSPost2010PropOp40
 70
     1
102
RTVSPost2010Prop41ColorIndex
 90
       18
102
RTVSPost2010Prop41ColorRGB
 90
        0
102
RTVSPost2010PropOp41
 70
     1
102
RTVSPost2010Prop42
 90
       50
102
RTVSPost2010PropOp42
 70
     1
102
RTVSPost2010Prop43
 90
        3
102
RTVSPost2010PropOp43
 70
     1
102
RTVSPost2010Prop44ColorIndex
 90
        5
102
RTVSPost2010Prop44ColorRGB
 90
      255
102
RTVSPost2010PropOp44
 70
     1
102
RTVSPost2010Prop45
280
     0
102
RTVSPost2010PropOp45
 70
     1
102
RTVSPost2010Prop46
 90
       50
102
RTVSPost2010PropOp46
 70
     1
102
RTVSPost2010Prop47
 90
       50
102
RTVSPost2010PropOp47
 70
     1
102
RTVSPost2010Prop48
 90
       50
102
RTVSPost2010PropOp48
 70
     1
102
RTVSPost2010Prop49
280
     0
102
RTVSPost2010PropOp49
 70
     1
102
RTVSPost2010Prop50
 90
       50
102
RTVSPost2010PropOp50
 70
     1
102
RTVSPost2010Prop51ColorIndex
 90
      256
102
RTVSPost2010Prop51ColorRGB
 90
-16777216
102
RTVSPost2010PropOp51
 70
     0
102
RTVSPost2010Prop52
140
1.0
102
RTVSPost2010PropOp52
 70
     0
102
RTVSPost2010Prop53
 90
        2
102
RTVSPost2010PropOp53
 70
     1
102
RTVSPost2010Prop54
  1
strokes_ogs.tif
102
RTVSPost2010PropOp54
 70
     1
102
RTVSPost2010Prop55
280
     0
102
RTVSPost2010PropOp55
 70
     1
102
RTVSPost2010Prop56
140
1.0
102
RTVSPost2010PropOp56
 70
     1
102
RTVSPost2010Prop57
140
1.0
102
RTVSPost2010PropOp57
 70
     1
102
RTVSPropertyOp0
 70
     1
102
RTVSPropertyOp1
 70
     1
102
RTVSPropertyOp2
 70
     1
102
RTVSPropertyOp3
 70
     1
102
RTVSPropertyOp4
 70
     1
102
RTVSPropertyOp5
 70
     1
102
RTVSPropertyOp6
 70
     1
102
RTVSPropertyOp7
 70
     1
102
RTVSPropertyOp8
 70
     1
102
RTVSPropertyOp9
 70
     1
102
RTVSPropertyOp10
 70
     1
102
RTVSPropertyOp11
 70
     1
102
RTVSPropertyOp12
 70
     1
102
RTVSPropertyOp13
 70
     1
102
RTVSPropertyOp14
 70
     1
102
RTVSPropertyOp15
 70
     1
102
RTVSPropertyOp16
 70
     1
102
RTVSPropertyOp17
 70
     1
102
RTVSPropertyOp18
 70
     1
102
RTVSPropertyOp19
 70
     1
102
RTVSPropertyOp20
 70
     1
102
RTVSPropertyOp21
 70
     1
102
RTVSPropertyOp22
 70
     1
102
RTVSPropertyOp23
 70
     1
102
RTVSPropertyOp24
 70
     1
102
RTVSPropertyOp25
 70
     1
102
RTVSPropertyOp26
 70
     1
102
RTVSPropertyOp27
 70
     1
102
RTVSPropertyOp28
 70
     1
102
RTVSPropertyOp29
 70
     1
102
RTVSPropertyOp30
 70
     1
102
RTVSPropertyOp31
 70
     1
102
RTVSPropertyOp32
 70
     1
102
RTVSPropertyOp33
 70
     1
102
RTVSPropertyOp34
 70
     1
102
RTVSPropertyOp35
 70
     1
102
RTVSPropertyOp36
 70
     1
102
RTVSPropertyOp37
 70
     1
102
RTVSPropertyOp38
 70
     1
102
RTVSPropertyOp39
 70
     1
102
RTVSPropertyOp40
 70
     1
102
RTVSPropertyOp41
 70
     1
102
RTVSPropertyOp42
 70
     1
102
RTVSPropertyOp43
 70
     1
102
RTVSPropertyOp44
 70
     1
102
RTVSPropertyOp45
 70
     1
102
RTVSPropertyOp46
 70
     1
102
RTVSPropertyOp47
 70
     1
102
RTVSPropertyOp48
 70
     1
102
RTVSPropertyOp49
 70
     1
102
RTVSPropertyOp50
 70
     1
102
RTVSPropertyOp51
 70
     0
102
RTVSPropertyOp52
 70
     0
102
RTVSPropertyOp53
 70
     1
102
RTVSPropertyOp54
 70
     1
102
RTVSPropertyOp55
 70
     1
102
RTVSPropertyOp56
 70
     1
102
RTVSPropertyOp57
 70
     1
102
RTVSPropertyOp58
 70
     1
102
RTVSPropertyOp59
 70
     1
102
RTVSPropertyOp60
 70
     1
102
RTVSPropertyOp61
 70
     1
102
RTVSPropertyOp62
 70
     1
  0
XRECORD
  5
A9A6
102
{ACAD_REACTORS
330
A9A5
102
}
330
A9A5
100
AcDbXrecord
280
     1
102
RTVSPost2010Prop28
280
     0
102
RTVSPost2010PropOp28
 70
     1
102
RTVSPost2010Prop29
280
     1
102
RTVSPost2010PropOp29
 70
     1
102
RTVSPost2010Prop30
280
     1
102
RTVSPost2010PropOp30
 70
     1
102
RTVSPost2010Prop31
280
     0
102
RTVSPost2010PropOp31
 70
     1
102
RTVSPost2010Prop32
280
     0
102
RTVSPost2010PropOp32
 70
     1
102
RTVSPost2010Prop33
280
     0
102
RTVSPost2010PropOp33
 70
     1
102
RTVSPost2010Prop34
280
     0
102
RTVSPost2010PropOp34
 70
     1
102
RTVSPost2010Prop35
280
     0
102
RTVSPost2010PropOp35
 70
     1
102
RTVSPost2010Prop36
280
     0
102
RTVSPost2010PropOp36
 70
     1
102
RTVSPost2010Prop37
 90
       50
102
RTVSPost2010PropOp37
 70
     0
102
RTVSPost2010Prop38
140
0.0
102
RTVSPost2010PropOp38
 70
     0
102
RTVSPost2010Prop39
140
1.0
102
RTVSPost2010PropOp39
 70
     0
102
RTVSPost2010Prop40
 90
        0
102
RTVSPost2010PropOp40
 70
     0
102
RTVSPost2010Prop41ColorIndex
 90
       18
102
RTVSPost2010Prop41ColorRGB
 90
        0
102
RTVSPost2010PropOp41
 70
     0
102
RTVSPost2010Prop42
 90
       50
102
RTVSPost2010PropOp42
 70
     0
102
RTVSPost2010Prop43
 90
        3
102
RTVSPost2010PropOp43
 70
     0
102
RTVSPost2010Prop44ColorIndex
 90
        5
102
RTVSPost2010Prop44ColorRGB
 90
      255
102
RTVSPost2010PropOp44
 70
     0
102
RTVSPost2010Prop45
280
     0
102
RTVSPost2010PropOp45
 70
     1
102
RTVSPost2010Prop46
 90
       50
102
RTVSPost2010PropOp46
 70
     0
102
RTVSPost2010Prop47
 90
       50
102
RTVSPost2010PropOp47
 70
     0
102
RTVSPost2010Prop48
 90
       50
102
RTVSPost2010PropOp48
 70
     0
102
RTVSPost2010Prop49
280
     0
102
RTVSPost2010PropOp49
 70
     1
102
RTVSPost2010Prop50
 90
       50
102
RTVSPost2010PropOp50
 70
     0
102
RTVSPost2010Prop51ColorIndex
 90
      256
102
RTVSPost2010Prop51ColorRGB
 90
-16777216
102
RTVSPost2010PropOp51
 70
     0
102
RTVSPost2010Prop52
140
1.0
102
RTVSPost2010PropOp52
 70
     0
102
RTVSPost2010Prop53
 90
        2
102
RTVSPost2010PropOp53
 70
     0
102
RTVSPost2010Prop54
  1
strokes_ogs.tif
102
RTVSPost2010PropOp54
 70
     0
102
RTVSPost2010Prop55
280
     0
102
RTVSPost2010PropOp55
 70
     1
102
RTVSPost2010Prop56
140
1.0
102
RTVSPost2010PropOp56
 70
     0
102
RTVSPost2010Prop57
140
1.0
102
RTVSPost2010PropOp57
 70
     0
102
RTVSPropertyOp0
 70
     0
102
RTVSPropertyOp1
 70
     0
102
RTVSPropertyOp2
 70
     0
102
RTVSPropertyOp3
 70
     0
102
RTVSPropertyOp4
 70
     0
102
RTVSPropertyOp5
 70
     0
102
RTVSPropertyOp6
 70
     0
102
RTVSPropertyOp7
 70
     0
102
RTVSPropertyOp8
 70
     0
102
RTVSPropertyOp9
 70
     0
102
RTVSPropertyOp10
 70
     0
102
RTVSPropertyOp11
 70
     0
102
RTVSPropertyOp12
 70
     0
102
RTVSPropertyOp13
 70
     0
102
RTVSPropertyOp14
 70
     2
102
RTVSPropertyOp15
 70
     0
102
RTVSPropertyOp16
 70
     0
102
RTVSPropertyOp17
 70
     0
102
RTVSPropertyOp18
 70
     0
102
RTVSPropertyOp19
 70
     0
102
RTVSPropertyOp20
 70
     0
102
RTVSPropertyOp21
 70
     0
102
RTVSPropertyOp22
 70
     0
102
RTVSPropertyOp23
 70
     0
102
RTVSPropertyOp24
 70
     0
102
RTVSPropertyOp25
 70
     0
102
RTVSPropertyOp26
 70
     0
102
RTVSPropertyOp27
 70
     0
102
RTVSPropertyOp28
 70
     1
102
RTVSPropertyOp29
 70
     1
102
RTVSPropertyOp30
 70
     1
102
RTVSPropertyOp31
 70
     1
102
RTVSPropertyOp32
 70
     1
102
RTVSPropertyOp33
 70
     1
102
RTVSPropertyOp34
 70
     1
102
RTVSPropertyOp35
 70
     1
102
RTVSPropertyOp36
 70
     1
102
RTVSPropertyOp37
 70
     0
102
RTVSPropertyOp38
 70
     0
102
RTVSPropertyOp39
 70
     0
102
RTVSPropertyOp40
 70
     0
102
RTVSPropertyOp41
 70
     0
102
RTVSPropertyOp42
 70
     0
102
RTVSPropertyOp43
 70
     0
102
RTVSPropertyOp44
 70
     0
102
RTVSPropertyOp45
 70
     1
102
RTVSPropertyOp46
 70
     0
102
RTVSPropertyOp47
 70
     0
102
RTVSPropertyOp48
 70
     0
102
RTVSPropertyOp49
 70
     1
102
RTVSPropertyOp50
 70
     0
102
RTVSPropertyOp51
 70
     0
102
RTVSPropertyOp52
 70
     0
102
RTVSPropertyOp53
 70
     0
102
RTVSPropertyOp54
 70
     0
102
RTVSPropertyOp55
 70
     1
102
RTVSPropertyOp56
 70
     0
102
RTVSPropertyOp57
 70
     0
102
RTVSPropertyOp58
 70
     0
102
RTVSPropertyOp59
 70
     0
102
RTVSPropertyOp60
 70
     0
102
RTVSPropertyOp61
 70
     0
102
RTVSPropertyOp62
 70
     0
  0
XRECORD
  5
A994
102
{ACAD_REACTORS
330
A993
102
}
330
A993
100
AcDbXrecord
280
     1
102
RTVSPost2010Prop28
280
     0
102
RTVSPost2010PropOp28
 70
     1
102
RTVSPost2010Prop29
280
     1
102
RTVSPost2010PropOp29
 70
     1
102
RTVSPost2010Prop30
280
     1
102
RTVSPost2010PropOp30
 70
     1
102
RTVSPost2010Prop31
280
     0
102
RTVSPost2010PropOp31
 70
     1
102
RTVSPost2010Prop32
280
     0
102
RTVSPost2010PropOp32
 70
     1
102
RTVSPost2010Prop33
280
     0
102
RTVSPost2010PropOp33
 70
     1
102
RTVSPost2010Prop34
280
     0
102
RTVSPost2010PropOp34
 70
     1
102
RTVSPost2010Prop35
280
     0
102
RTVSPost2010PropOp35
 70
     1
102
RTVSPost2010Prop36
280
     0
102
RTVSPost2010PropOp36
 70
     1
102
RTVSPost2010Prop37
 90
       50
102
RTVSPost2010PropOp37
 70
     1
102
RTVSPost2010Prop38
140
0.0
102
RTVSPost2010PropOp38
 70
     1
102
RTVSPost2010Prop39
140
1.0
102
RTVSPost2010PropOp39
 70
     1
102
RTVSPost2010Prop40
 90
        0
102
RTVSPost2010PropOp40
 70
     1
102
RTVSPost2010Prop41ColorIndex
 90
       18
102
RTVSPost2010Prop41ColorRGB
 90
        0
102
RTVSPost2010PropOp41
 70
     1
102
RTVSPost2010Prop42
 90
       50
102
RTVSPost2010PropOp42
 70
     1
102
RTVSPost2010Prop43
 90
        3
102
RTVSPost2010PropOp43
 70
     1
102
RTVSPost2010Prop44ColorIndex
 90
        5
102
RTVSPost2010Prop44ColorRGB
 90
      255
102
RTVSPost2010PropOp44
 70
     1
102
RTVSPost2010Prop45
280
     0
102
RTVSPost2010PropOp45
 70
     1
102
RTVSPost2010Prop46
 90
       50
102
RTVSPost2010PropOp46
 70
     1
102
RTVSPost2010Prop47
 90
       50
102
RTVSPost2010PropOp47
 70
     1
102
RTVSPost2010Prop48
 90
       50
102
RTVSPost2010PropOp48
 70
     1
102
RTVSPost2010Prop49
280
     0
102
RTVSPost2010PropOp49
 70
     1
102
RTVSPost2010Prop50
 90
       50
102
RTVSPost2010PropOp50
 70
     1
102
RTVSPost2010Prop51ColorIndex
 90
      256
102
RTVSPost2010Prop51ColorRGB
 90
-16777216
102
RTVSPost2010PropOp51
 70
     0
102
RTVSPost2010Prop52
140
1.0
102
RTVSPost2010PropOp52
 70
     0
102
RTVSPost2010Prop53
 90
        2
102
RTVSPost2010PropOp53
 70
     1
102
RTVSPost2010Prop54
  1
strokes_ogs.tif
102
RTVSPost2010PropOp54
 70
     1
102
RTVSPost2010Prop55
280
     0
102
RTVSPost2010PropOp55
 70
     1
102
RTVSPost2010Prop56
140
1.0
102
RTVSPost2010PropOp56
 70
     1
102
RTVSPost2010Prop57
140
1.0
102
RTVSPost2010PropOp57
 70
     1
102
RTVSPropertyOp0
 70
     1
102
RTVSPropertyOp1
 70
     1
102
RTVSPropertyOp2
 70
     1
102
RTVSPropertyOp3
 70
     1
102
RTVSPropertyOp4
 70
     1
102
RTVSPropertyOp5
 70
     1
102
RTVSPropertyOp6
 70
     1
102
RTVSPropertyOp7
 70
     1
102
RTVSPropertyOp8
 70
     1
102
RTVSPropertyOp9
 70
     1
102
RTVSPropertyOp10
 70
     1
102
RTVSPropertyOp11
 70
     1
102
RTVSPropertyOp12
 70
     1
102
RTVSPropertyOp13
 70
     1
102
RTVSPropertyOp14
 70
     1
102
RTVSPropertyOp15
 70
     1
102
RTVSPropertyOp16
 70
     1
102
RTVSPropertyOp17
 70
     1
102
RTVSPropertyOp18
 70
     1
102
RTVSPropertyOp19
 70
     1
102
RTVSPropertyOp20
 70
     1
102
RTVSPropertyOp21
 70
     1
102
RTVSPropertyOp22
 70
     1
102
RTVSPropertyOp23
 70
     1
102
RTVSPropertyOp24
 70
     1
102
RTVSPropertyOp25
 70
     1
102
RTVSPropertyOp26
 70
     1
102
RTVSPropertyOp27
 70
     1
102
RTVSPropertyOp28
 70
     1
102
RTVSPropertyOp29
 70
     1
102
RTVSPropertyOp30
 70
     1
102
RTVSPropertyOp31
 70
     1
102
RTVSPropertyOp32
 70
     1
102
RTVSPropertyOp33
 70
     1
102
RTVSPropertyOp34
 70
     1
102
RTVSPropertyOp35
 70
     1
102
RTVSPropertyOp36
 70
     1
102
RTVSPropertyOp37
 70
     1
102
RTVSPropertyOp38
 70
     1
102
RTVSPropertyOp39
 70
     1
102
RTVSPropertyOp40
 70
     1
102
RTVSPropertyOp41
 70
     1
102
RTVSPropertyOp42
 70
     1
102
RTVSPropertyOp43
 70
     1
102
RTVSPropertyOp44
 70
     1
102
RTVSPropertyOp45
 70
     1
102
RTVSPropertyOp46
 70
     1
102
RTVSPropertyOp47
 70
     1
102
RTVSPropertyOp48
 70
     1
102
RTVSPropertyOp49
 70
     1
102
RTVSPropertyOp50
 70
     1
102
RTVSPropertyOp51
 70
     0
102
RTVSPropertyOp52
 70
     0
102
RTVSPropertyOp53
 70
     1
102
RTVSPropertyOp54
 70
     1
102
RTVSPropertyOp55
 70
     1
102
RTVSPropertyOp56
 70
     1
102
RTVSPropertyOp57
 70
     1
102
RTVSPropertyOp58
 70
     1
102
RTVSPropertyOp59
 70
     1
102
RTVSPropertyOp60
 70
     1
102
RTVSPropertyOp61
 70
     1
102
RTVSPropertyOp62
 70
     1
  0
XRECORD
  5
A978
102
{ACAD_REACTORS
330
A977
102
}
330
A977
100
AcDbXrecord
280
     1
102
RTVSPost2010Prop28
280
     0
102
RTVSPost2010PropOp28
 70
     1
102
RTVSPost2010Prop29
280
     1
102
RTVSPost2010PropOp29
 70
     1
102
RTVSPost2010Prop30
280
     1
102
RTVSPost2010PropOp30
 70
     1
102
RTVSPost2010Prop31
280
     0
102
RTVSPost2010PropOp31
 70
     1
102
RTVSPost2010Prop32
280
     0
102
RTVSPost2010PropOp32
 70
     1
102
RTVSPost2010Prop33
280
     0
102
RTVSPost2010PropOp33
 70
     1
102
RTVSPost2010Prop34
280
     0
102
RTVSPost2010PropOp34
 70
     1
102
RTVSPost2010Prop35
280
     0
102
RTVSPost2010PropOp35
 70
     1
102
RTVSPost2010Prop36
280
     0
102
RTVSPost2010PropOp36
 70
     1
102
RTVSPost2010Prop37
 90
       50
102
RTVSPost2010PropOp37
 70
     1
102
RTVSPost2010Prop38
140
0.0
102
RTVSPost2010PropOp38
 70
     1
102
RTVSPost2010Prop39
140
1.0
102
RTVSPost2010PropOp39
 70
     1
102
RTVSPost2010Prop40
 90
        0
102
RTVSPost2010PropOp40
 70
     1
102
RTVSPost2010Prop41ColorIndex
 90
       18
102
RTVSPost2010Prop41ColorRGB
 90
        0
102
RTVSPost2010PropOp41
 70
     1
102
RTVSPost2010Prop42
 90
       50
102
RTVSPost2010PropOp42
 70
     1
102
RTVSPost2010Prop43
 90
        3
102
RTVSPost2010PropOp43
 70
     1
102
RTVSPost2010Prop44ColorIndex
 90
        5
102
RTVSPost2010Prop44ColorRGB
 90
      255
102
RTVSPost2010PropOp44
 70
     1
102
RTVSPost2010Prop45
280
     0
102
RTVSPost2010PropOp45
 70
     1
102
RTVSPost2010Prop46
 90
       50
102
RTVSPost2010PropOp46
 70
     1
102
RTVSPost2010Prop47
 90
       50
102
RTVSPost2010PropOp47
 70
     1
102
RTVSPost2010Prop48
 90
       50
102
RTVSPost2010PropOp48
 70
     1
102
RTVSPost2010Prop49
280
     0
102
RTVSPost2010PropOp49
 70
     1
102
RTVSPost2010Prop50
 90
       50
102
RTVSPost2010PropOp50
 70
     1
102
RTVSPost2010Prop51ColorIndex
 90
      256
102
RTVSPost2010Prop51ColorRGB
 90
-16777216
102
RTVSPost2010PropOp51
 70
     0
102
RTVSPost2010Prop52
140
1.0
102
RTVSPost2010PropOp52
 70
     0
102
RTVSPost2010Prop53
 90
        2
102
RTVSPost2010PropOp53
 70
     1
102
RTVSPost2010Prop54
  1
strokes_ogs.tif
102
RTVSPost2010PropOp54
 70
     1
102
RTVSPost2010Prop55
280
     0
102
RTVSPost2010PropOp55
 70
     1
102
RTVSPost2010Prop56
140
1.0
102
RTVSPost2010PropOp56
 70
     1
102
RTVSPost2010Prop57
140
1.0
102
RTVSPost2010PropOp57
 70
     1
102
RTVSPropertyOp0
 70
     1
102
RTVSPropertyOp1
 70
     1
102
RTVSPropertyOp2
 70
     1
102
RTVSPropertyOp3
 70
     1
102
RTVSPropertyOp4
 70
     1
102
RTVSPropertyOp5
 70
     1
102
RTVSPropertyOp6
 70
     1
102
RTVSPropertyOp7
 70
     1
102
RTVSPropertyOp8
 70
     1
102
RTVSPropertyOp9
 70
     1
102
RTVSPropertyOp10
 70
     1
102
RTVSPropertyOp11
 70
     1
102
RTVSPropertyOp12
 70
     1
102
RTVSPropertyOp13
 70
     1
102
RTVSPropertyOp14
 70
     1
102
RTVSPropertyOp15
 70
     1
102
RTVSPropertyOp16
 70
     1
102
RTVSPropertyOp17
 70
     1
102
RTVSPropertyOp18
 70
     1
102
RTVSPropertyOp19
 70
     1
102
RTVSPropertyOp20
 70
     1
102
RTVSPropertyOp21
 70
     1
102
RTVSPropertyOp22
 70
     1
102
RTVSPropertyOp23
 70
     1
102
RTVSPropertyOp24
 70
     1
102
RTVSPropertyOp25
 70
     1
102
RTVSPropertyOp26
 70
     1
102
RTVSPropertyOp27
 70
     1
102
RTVSPropertyOp28
 70
     1
102
RTVSPropertyOp29
 70
     1
102
RTVSPropertyOp30
 70
     1
102
RTVSPropertyOp31
 70
     1
102
RTVSPropertyOp32
 70
     1
102
RTVSPropertyOp33
 70
     1
102
RTVSPropertyOp34
 70
     1
102
RTVSPropertyOp35
 70
     1
102
RTVSPropertyOp36
 70
     1
102
RTVSPropertyOp37
 70
     1
102
RTVSPropertyOp38
 70
     1
102
RTVSPropertyOp39
 70
     1
102
RTVSPropertyOp40
 70
     1
102
RTVSPropertyOp41
 70
     1
102
RTVSPropertyOp42
 70
     1
102
RTVSPropertyOp43
 70
     1
102
RTVSPropertyOp44
 70
     1
102
RTVSPropertyOp45
 70
     1
102
RTVSPropertyOp46
 70
     1
102
RTVSPropertyOp47
 70
     1
102
RTVSPropertyOp48
 70
     1
102
RTVSPropertyOp49
 70
     1
102
RTVSPropertyOp50
 70
     1
102
RTVSPropertyOp51
 70
     0
102
RTVSPropertyOp52
 70
     0
102
RTVSPropertyOp53
 70
     1
102
RTVSPropertyOp54
 70
     1
102
RTVSPropertyOp55
 70
     1
102
RTVSPropertyOp56
 70
     1
102
RTVSPropertyOp57
 70
     1
102
RTVSPropertyOp58
 70
     1
102
RTVSPropertyOp59
 70
     1
102
RTVSPropertyOp60
 70
     1
102
RTVSPropertyOp61
 70
     1
102
RTVSPropertyOp62
 70
     1
  0
XRECORD
  5
A97A
102
{ACAD_REACTORS
330
A979
102
}
330
A979
100
AcDbXrecord
280
     1
102
RTVSPost2010Prop28
280
     0
102
RTVSPost2010PropOp28
 70
     1
102
RTVSPost2010Prop29
280
     1
102
RTVSPost2010PropOp29
 70
     1
102
RTVSPost2010Prop30
280
     1
102
RTVSPost2010PropOp30
 70
     1
102
RTVSPost2010Prop31
280
     0
102
RTVSPost2010PropOp31
 70
     1
102
RTVSPost2010Prop32
280
     0
102
RTVSPost2010PropOp32
 70
     1
102
RTVSPost2010Prop33
280
     0
102
RTVSPost2010PropOp33
 70
     1
102
RTVSPost2010Prop34
280
     0
102
RTVSPost2010PropOp34
 70
     1
102
RTVSPost2010Prop35
280
     0
102
RTVSPost2010PropOp35
 70
     1
102
RTVSPost2010Prop36
280
     0
102
RTVSPost2010PropOp36
 70
     1
102
RTVSPost2010Prop37
 90
       50
102
RTVSPost2010PropOp37
 70
     1
102
RTVSPost2010Prop38
140
0.0
102
RTVSPost2010PropOp38
 70
     1
102
RTVSPost2010Prop39
140
1.0
102
RTVSPost2010PropOp39
 70
     1
102
RTVSPost2010Prop40
 90
        0
102
RTVSPost2010PropOp40
 70
     1
102
RTVSPost2010Prop41ColorIndex
 90
       18
102
RTVSPost2010Prop41ColorRGB
 90
        0
102
RTVSPost2010PropOp41
 70
     1
102
RTVSPost2010Prop42
 90
       50
102
RTVSPost2010PropOp42
 70
     1
102
RTVSPost2010Prop43
 90
        3
102
RTVSPost2010PropOp43
 70
     1
102
RTVSPost2010Prop44ColorIndex
 90
        5
102
RTVSPost2010Prop44ColorRGB
 90
      255
102
RTVSPost2010PropOp44
 70
     1
102
RTVSPost2010Prop45
280
     0
102
RTVSPost2010PropOp45
 70
     1
102
RTVSPost2010Prop46
 90
       50
102
RTVSPost2010PropOp46
 70
     1
102
RTVSPost2010Prop47
 90
       50
102
RTVSPost2010PropOp47
 70
     1
102
RTVSPost2010Prop48
 90
       50
102
RTVSPost2010PropOp48
 70
     1
102
RTVSPost2010Prop49
280
     0
102
RTVSPost2010PropOp49
 70
     1
102
RTVSPost2010Prop50
 90
       50
102
RTVSPost2010PropOp50
 70
     1
102
RTVSPost2010Prop51ColorIndex
 90
      256
102
RTVSPost2010Prop51ColorRGB
 90
-16777216
102
RTVSPost2010PropOp51
 70
     0
102
RTVSPost2010Prop52
140
1.0
102
RTVSPost2010PropOp52
 70
     0
102
RTVSPost2010Prop53
 90
        2
102
RTVSPost2010PropOp53
 70
     1
102
RTVSPost2010Prop54
  1
strokes_ogs.tif
102
RTVSPost2010PropOp54
 70
     1
102
RTVSPost2010Prop55
280
     0
102
RTVSPost2010PropOp55
 70
     1
102
RTVSPost2010Prop56
140
1.0
102
RTVSPost2010PropOp56
 70
     1
102
RTVSPost2010Prop57
140
1.0
102
RTVSPost2010PropOp57
 70
     1
102
RTVSPropertyOp0
 70
     1
102
RTVSPropertyOp1
 70
     1
102
RTVSPropertyOp2
 70
     1
102
RTVSPropertyOp3
 70
     1
102
RTVSPropertyOp4
 70
     1
102
RTVSPropertyOp5
 70
     1
102
RTVSPropertyOp6
 70
     1
102
RTVSPropertyOp7
 70
     1
102
RTVSPropertyOp8
 70
     1
102
RTVSPropertyOp9
 70
     1
102
RTVSPropertyOp10
 70
     1
102
RTVSPropertyOp11
 70
     1
102
RTVSPropertyOp12
 70
     1
102
RTVSPropertyOp13
 70
     1
102
RTVSPropertyOp14
 70
     1
102
RTVSPropertyOp15
 70
     1
102
RTVSPropertyOp16
 70
     1
102
RTVSPropertyOp17
 70
     1
102
RTVSPropertyOp18
 70
     1
102
RTVSPropertyOp19
 70
     1
102
RTVSPropertyOp20
 70
     1
102
RTVSPropertyOp21
 70
     1
102
RTVSPropertyOp22
 70
     1
102
RTVSPropertyOp23
 70
     1
102
RTVSPropertyOp24
 70
     1
102
RTVSPropertyOp25
 70
     1
102
RTVSPropertyOp26
 70
     1
102
RTVSPropertyOp27
 70
     1
102
RTVSPropertyOp28
 70
     1
102
RTVSPropertyOp29
 70
     1
102
RTVSPropertyOp30
 70
     1
102
RTVSPropertyOp31
 70
     1
102
RTVSPropertyOp32
 70
     1
102
RTVSPropertyOp33
 70
     1
102
RTVSPropertyOp34
 70
     1
102
RTVSPropertyOp35
 70
     1
102
RTVSPropertyOp36
 70
     1
102
RTVSPropertyOp37
 70
     1
102
RTVSPropertyOp38
 70
     1
102
RTVSPropertyOp39
 70
     1
102
RTVSPropertyOp40
 70
     1
102
RTVSPropertyOp41
 70
     1
102
RTVSPropertyOp42
 70
     1
102
RTVSPropertyOp43
 70
     1
102
RTVSPropertyOp44
 70
     1
102
RTVSPropertyOp45
 70
     1
102
RTVSPropertyOp46
 70
     1
102
RTVSPropertyOp47
 70
     1
102
RTVSPropertyOp48
 70
     1
102
RTVSPropertyOp49
 70
     1
102
RTVSPropertyOp50
 70
     1
102
RTVSPropertyOp51
 70
     0
102
RTVSPropertyOp52
 70
     0
102
RTVSPropertyOp53
 70
     1
102
RTVSPropertyOp54
 70
     1
102
RTVSPropertyOp55
 70
     1
102
RTVSPropertyOp56
 70
     1
102
RTVSPropertyOp57
 70
     1
102
RTVSPropertyOp58
 70
     1
102
RTVSPropertyOp59
 70
     1
102
RTVSPropertyOp60
 70
     1
102
RTVSPropertyOp61
 70
     1
102
RTVSPropertyOp62
 70
     1
  0
XRECORD
  5
A97C
102
{ACAD_REACTORS
330
A97B
102
}
330
A97B
100
AcDbXrecord
280
     1
102
RTVSPost2010Prop28
280
     0
102
RTVSPost2010PropOp28
 70
     1
102
RTVSPost2010Prop29
280
     1
102
RTVSPost2010PropOp29
 70
     1
102
RTVSPost2010Prop30
280
     1
102
RTVSPost2010PropOp30
 70
     1
102
RTVSPost2010Prop31
280
     0
102
RTVSPost2010PropOp31
 70
     1
102
RTVSPost2010Prop32
280
     0
102
RTVSPost2010PropOp32
 70
     1
102
RTVSPost2010Prop33
280
     0
102
RTVSPost2010PropOp33
 70
     1
102
RTVSPost2010Prop34
280
     0
102
RTVSPost2010PropOp34
 70
     1
102
RTVSPost2010Prop35
280
     0
102
RTVSPost2010PropOp35
 70
     1
102
RTVSPost2010Prop36
280
     0
102
RTVSPost2010PropOp36
 70
     1
102
RTVSPost2010Prop37
 90
       50
102
RTVSPost2010PropOp37
 70
     1
102
RTVSPost2010Prop38
140
0.0
102
RTVSPost2010PropOp38
 70
     1
102
RTVSPost2010Prop39
140
1.0
102
RTVSPost2010PropOp39
 70
     1
102
RTVSPost2010Prop40
 90
        0
102
RTVSPost2010PropOp40
 70
     1
102
RTVSPost2010Prop41ColorIndex
 90
       18
102
RTVSPost2010Prop41ColorRGB
 90
        0
102
RTVSPost2010PropOp41
 70
     1
102
RTVSPost2010Prop42
 90
       50
102
RTVSPost2010PropOp42
 70
     1
102
RTVSPost2010Prop43
 90
        3
102
RTVSPost2010PropOp43
 70
     1
102
RTVSPost2010Prop44ColorIndex
 90
        5
102
RTVSPost2010Prop44ColorRGB
 90
      255
102
RTVSPost2010PropOp44
 70
     1
102
RTVSPost2010Prop45
280
     0
102
RTVSPost2010PropOp45
 70
     1
102
RTVSPost2010Prop46
 90
       50
102
RTVSPost2010PropOp46
 70
     1
102
RTVSPost2010Prop47
 90
       50
102
RTVSPost2010PropOp47
 70
     1
102
RTVSPost2010Prop48
 90
       50
102
RTVSPost2010PropOp48
 70
     1
102
RTVSPost2010Prop49
280
     0
102
RTVSPost2010PropOp49
 70
     1
102
RTVSPost2010Prop50
 90
       50
102
RTVSPost2010PropOp50
 70
     1
102
RTVSPost2010Prop51ColorIndex
 90
      256
102
RTVSPost2010Prop51ColorRGB
 90
-16777216
102
RTVSPost2010PropOp51
 70
     0
102
RTVSPost2010Prop52
140
1.0
102
RTVSPost2010PropOp52
 70
     0
102
RTVSPost2010Prop53
 90
        2
102
RTVSPost2010PropOp53
 70
     1
102
RTVSPost2010Prop54
  1
strokes_ogs.tif
102
RTVSPost2010PropOp54
 70
     1
102
RTVSPost2010Prop55
280
     0
102
RTVSPost2010PropOp55
 70
     1
102
RTVSPost2010Prop56
140
1.0
102
RTVSPost2010PropOp56
 70
     1
102
RTVSPost2010Prop57
140
1.0
102
RTVSPost2010PropOp57
 70
     1
102
RTVSPropertyOp0
 70
     1
102
RTVSPropertyOp1
 70
     1
102
RTVSPropertyOp2
 70
     1
102
RTVSPropertyOp3
 70
     1
102
RTVSPropertyOp4
 70
     1
102
RTVSPropertyOp5
 70
     1
102
RTVSPropertyOp6
 70
     1
102
RTVSPropertyOp7
 70
     1
102
RTVSPropertyOp8
 70
     1
102
RTVSPropertyOp9
 70
     1
102
RTVSPropertyOp10
 70
     1
102
RTVSPropertyOp11
 70
     1
102
RTVSPropertyOp12
 70
     1
102
RTVSPropertyOp13
 70
     1
102
RTVSPropertyOp14
 70
     1
102
RTVSPropertyOp15
 70
     1
102
RTVSPropertyOp16
 70
     1
102
RTVSPropertyOp17
 70
     1
102
RTVSPropertyOp18
 70
     1
102
RTVSPropertyOp19
 70
     1
102
RTVSPropertyOp20
 70
     1
102
RTVSPropertyOp21
 70
     1
102
RTVSPropertyOp22
 70
     1
102
RTVSPropertyOp23
 70
     1
102
RTVSPropertyOp24
 70
     1
102
RTVSPropertyOp25
 70
     1
102
RTVSPropertyOp26
 70
     1
102
RTVSPropertyOp27
 70
     1
102
RTVSPropertyOp28
 70
     1
102
RTVSPropertyOp29
 70
     1
102
RTVSPropertyOp30
 70
     1
102
RTVSPropertyOp31
 70
     1
102
RTVSPropertyOp32
 70
     1
102
RTVSPropertyOp33
 70
     1
102
RTVSPropertyOp34
 70
     1
102
RTVSPropertyOp35
 70
     1
102
RTVSPropertyOp36
 70
     1
102
RTVSPropertyOp37
 70
     1
102
RTVSPropertyOp38
 70
     1
102
RTVSPropertyOp39
 70
     1
102
RTVSPropertyOp40
 70
     1
102
RTVSPropertyOp41
 70
     1
102
RTVSPropertyOp42
 70
     1
102
RTVSPropertyOp43
 70
     1
102
RTVSPropertyOp44
 70
     1
102
RTVSPropertyOp45
 70
     1
102
RTVSPropertyOp46
 70
     1
102
RTVSPropertyOp47
 70
     1
102
RTVSPropertyOp48
 70
     1
102
RTVSPropertyOp49
 70
     1
102
RTVSPropertyOp50
 70
     1
102
RTVSPropertyOp51
 70
     0
102
RTVSPropertyOp52
 70
     0
102
RTVSPropertyOp53
 70
     1
102
RTVSPropertyOp54
 70
     1
102
RTVSPropertyOp55
 70
     1
102
RTVSPropertyOp56
 70
     1
102
RTVSPropertyOp57
 70
     1
102
RTVSPropertyOp58
 70
     1
102
RTVSPropertyOp59
 70
     1
102
RTVSPropertyOp60
 70
     1
102
RTVSPropertyOp61
 70
     1
102
RTVSPropertyOp62
 70
     1
  0
XRECORD
  5
A97E
102
{ACAD_REACTORS
330
A97D
102
}
330
A97D
100
AcDbXrecord
280
     1
102
RTVSPost2010Prop28
280
     0
102
RTVSPost2010PropOp28
 70
     1
102
RTVSPost2010Prop29
280
     1
102
RTVSPost2010PropOp29
 70
     1
102
RTVSPost2010Prop30
280
     1
102
RTVSPost2010PropOp30
 70
     1
102
RTVSPost2010Prop31
280
     0
102
RTVSPost2010PropOp31
 70
     1
102
RTVSPost2010Prop32
280
     0
102
RTVSPost2010PropOp32
 70
     1
102
RTVSPost2010Prop33
280
     0
102
RTVSPost2010PropOp33
 70
     1
102
RTVSPost2010Prop34
280
     0
102
RTVSPost2010PropOp34
 70
     1
102
RTVSPost2010Prop35
280
     0
102
RTVSPost2010PropOp35
 70
     1
102
RTVSPost2010Prop36
280
     0
102
RTVSPost2010PropOp36
 70
     1
102
RTVSPost2010Prop37
 90
       50
102
RTVSPost2010PropOp37
 70
     1
102
RTVSPost2010Prop38
140
0.0
102
RTVSPost2010PropOp38
 70
     1
102
RTVSPost2010Prop39
140
1.0
102
RTVSPost2010PropOp39
 70
     1
102
RTVSPost2010Prop40
 90
        0
102
RTVSPost2010PropOp40
 70
     1
102
RTVSPost2010Prop41ColorIndex
 90
       18
102
RTVSPost2010Prop41ColorRGB
 90
        0
102
RTVSPost2010PropOp41
 70
     1
102
RTVSPost2010Prop42
 90
       50
102
RTVSPost2010PropOp42
 70
     1
102
RTVSPost2010Prop43
 90
        3
102
RTVSPost2010PropOp43
 70
     1
102
RTVSPost2010Prop44ColorIndex
 90
        5
102
RTVSPost2010Prop44ColorRGB
 90
      255
102
RTVSPost2010PropOp44
 70
     1
102
RTVSPost2010Prop45
280
     0
102
RTVSPost2010PropOp45
 70
     1
102
RTVSPost2010Prop46
 90
       50
102
RTVSPost2010PropOp46
 70
     1
102
RTVSPost2010Prop47
 90
       50
102
RTVSPost2010PropOp47
 70
     1
102
RTVSPost2010Prop48
 90
       50
102
RTVSPost2010PropOp48
 70
     1
102
RTVSPost2010Prop49
280
     0
102
RTVSPost2010PropOp49
 70
     1
102
RTVSPost2010Prop50
 90
       50
102
RTVSPost2010PropOp50
 70
     1
102
RTVSPost2010Prop51ColorIndex
 90
      256
102
RTVSPost2010Prop51ColorRGB
 90
-16777216
102
RTVSPost2010PropOp51
 70
     0
102
RTVSPost2010Prop52
140
1.0
102
RTVSPost2010PropOp52
 70
     0
102
RTVSPost2010Prop53
 90
        2
102
RTVSPost2010PropOp53
 70
     1
102
RTVSPost2010Prop54
  1
strokes_ogs.tif
102
RTVSPost2010PropOp54
 70
     1
102
RTVSPost2010Prop55
280
     0
102
RTVSPost2010PropOp55
 70
     1
102
RTVSPost2010Prop56
140
1.0
102
RTVSPost2010PropOp56
 70
     1
102
RTVSPost2010Prop57
140
1.0
102
RTVSPost2010PropOp57
 70
     1
102
RTVSPropertyOp0
 70
     1
102
RTVSPropertyOp1
 70
     1
102
RTVSPropertyOp2
 70
     1
102
RTVSPropertyOp3
 70
     1
102
RTVSPropertyOp4
 70
     1
102
RTVSPropertyOp5
 70
     1
102
RTVSPropertyOp6
 70
     1
102
RTVSPropertyOp7
 70
     1
102
RTVSPropertyOp8
 70
     1
102
RTVSPropertyOp9
 70
     1
102
RTVSPropertyOp10
 70
     1
102
RTVSPropertyOp11
 70
     1
102
RTVSPropertyOp12
 70
     1
102
RTVSPropertyOp13
 70
     1
102
RTVSPropertyOp14
 70
     1
102
RTVSPropertyOp15
 70
     1
102
RTVSPropertyOp16
 70
     1
102
RTVSPropertyOp17
 70
     1
102
RTVSPropertyOp18
 70
     1
102
RTVSPropertyOp19
 70
     1
102
RTVSPropertyOp20
 70
     1
102
RTVSPropertyOp21
 70
     1
102
RTVSPropertyOp22
 70
     1
102
RTVSPropertyOp23
 70
     1
102
RTVSPropertyOp24
 70
     1
102
RTVSPropertyOp25
 70
     1
102
RTVSPropertyOp26
 70
     1
102
RTVSPropertyOp27
 70
     1
102
RTVSPropertyOp28
 70
     1
102
RTVSPropertyOp29
 70
     1
102
RTVSPropertyOp30
 70
     1
102
RTVSPropertyOp31
 70
     1
102
RTVSPropertyOp32
 70
     1
102
RTVSPropertyOp33
 70
     1
102
RTVSPropertyOp34
 70
     1
102
RTVSPropertyOp35
 70
     1
102
RTVSPropertyOp36
 70
     1
102
RTVSPropertyOp37
 70
     1
102
RTVSPropertyOp38
 70
     1
102
RTVSPropertyOp39
 70
     1
102
RTVSPropertyOp40
 70
     1
102
RTVSPropertyOp41
 70
     1
102
RTVSPropertyOp42
 70
     1
102
RTVSPropertyOp43
 70
     1
102
RTVSPropertyOp44
 70
     1
102
RTVSPropertyOp45
 70
     1
102
RTVSPropertyOp46
 70
     1
102
RTVSPropertyOp47
 70
     1
102
RTVSPropertyOp48
 70
     1
102
RTVSPropertyOp49
 70
     1
102
RTVSPropertyOp50
 70
     1
102
RTVSPropertyOp51
 70
     0
102
RTVSPropertyOp52
 70
     0
102
RTVSPropertyOp53
 70
     1
102
RTVSPropertyOp54
 70
     1
102
RTVSPropertyOp55
 70
     1
102
RTVSPropertyOp56
 70
     1
102
RTVSPropertyOp57
 70
     1
102
RTVSPropertyOp58
 70
     1
102
RTVSPropertyOp59
 70
     1
102
RTVSPropertyOp60
 70
     1
102
RTVSPropertyOp61
 70
     1
102
RTVSPropertyOp62
 70
     1
  0
XRECORD
  5
A986
102
{ACAD_REACTORS
330
A985
102
}
330
A985
100
AcDbXrecord
280
     1
102
RTVSPost2010Prop28
280
     0
102
RTVSPost2010PropOp28
 70
     1
102
RTVSPost2010Prop29
280
     1
102
RTVSPost2010PropOp29
 70
     1
102
RTVSPost2010Prop30
280
     1
102
RTVSPost2010PropOp30
 70
     1
102
RTVSPost2010Prop31
280
     0
102
RTVSPost2010PropOp31
 70
     1
102
RTVSPost2010Prop32
280
     0
102
RTVSPost2010PropOp32
 70
     1
102
RTVSPost2010Prop33
280
     0
102
RTVSPost2010PropOp33
 70
     1
102
RTVSPost2010Prop34
280
     0
102
RTVSPost2010PropOp34
 70
     1
102
RTVSPost2010Prop35
280
     0
102
RTVSPost2010PropOp35
 70
     1
102
RTVSPost2010Prop36
280
     0
102
RTVSPost2010PropOp36
 70
     1
102
RTVSPost2010Prop37
 90
       50
102
RTVSPost2010PropOp37
 70
     1
102
RTVSPost2010Prop38
140
0.0
102
RTVSPost2010PropOp38
 70
     1
102
RTVSPost2010Prop39
140
1.0
102
RTVSPost2010PropOp39
 70
     1
102
RTVSPost2010Prop40
 90
        0
102
RTVSPost2010PropOp40
 70
     1
102
RTVSPost2010Prop41ColorIndex
 90
       18
102
RTVSPost2010Prop41ColorRGB
 90
        0
102
RTVSPost2010PropOp41
 70
     1
102
RTVSPost2010Prop42
 90
       50
102
RTVSPost2010PropOp42
 70
     1
102
RTVSPost2010Prop43
 90
        3
102
RTVSPost2010PropOp43
 70
     1
102
RTVSPost2010Prop44ColorIndex
 90
        5
102
RTVSPost2010Prop44ColorRGB
 90
      255
102
RTVSPost2010PropOp44
 70
     1
102
RTVSPost2010Prop45
280
     0
102
RTVSPost2010PropOp45
 70
     1
102
RTVSPost2010Prop46
 90
       50
102
RTVSPost2010PropOp46
 70
     1
102
RTVSPost2010Prop47
 90
       50
102
RTVSPost2010PropOp47
 70
     1
102
RTVSPost2010Prop48
 90
       50
102
RTVSPost2010PropOp48
 70
     1
102
RTVSPost2010Prop49
280
     0
102
RTVSPost2010PropOp49
 70
     1
102
RTVSPost2010Prop50
 90
       50
102
RTVSPost2010PropOp50
 70
     1
102
RTVSPost2010Prop51ColorIndex
 90
      256
102
RTVSPost2010Prop51ColorRGB
 90
-16777216
102
RTVSPost2010PropOp51
 70
     0
102
RTVSPost2010Prop52
140
1.0
102
RTVSPost2010PropOp52
 70
     0
102
RTVSPost2010Prop53
 90
        2
102
RTVSPost2010PropOp53
 70
     1
102
RTVSPost2010Prop54
  1
strokes_ogs.tif
102
RTVSPost2010PropOp54
 70
     1
102
RTVSPost2010Prop55
280
     0
102
RTVSPost2010PropOp55
 70
     1
102
RTVSPost2010Prop56
140
1.0
102
RTVSPost2010PropOp56
 70
     1
102
RTVSPost2010Prop57
140
1.0
102
RTVSPost2010PropOp57
 70
     1
102
RTVSPropertyOp0
 70
     1
102
RTVSPropertyOp1
 70
     1
102
RTVSPropertyOp2
 70
     1
102
RTVSPropertyOp3
 70
     1
102
RTVSPropertyOp4
 70
     1
102
RTVSPropertyOp5
 70
     1
102
RTVSPropertyOp6
 70
     1
102
RTVSPropertyOp7
 70
     1
102
RTVSPropertyOp8
 70
     1
102
RTVSPropertyOp9
 70
     1
102
RTVSPropertyOp10
 70
     1
102
RTVSPropertyOp11
 70
     1
102
RTVSPropertyOp12
 70
     1
102
RTVSPropertyOp13
 70
     1
102
RTVSPropertyOp14
 70
     1
102
RTVSPropertyOp15
 70
     1
102
RTVSPropertyOp16
 70
     1
102
RTVSPropertyOp17
 70
     1
102
RTVSPropertyOp18
 70
     1
102
RTVSPropertyOp19
 70
     1
102
RTVSPropertyOp20
 70
     1
102
RTVSPropertyOp21
 70
     1
102
RTVSPropertyOp22
 70
     1
102
RTVSPropertyOp23
 70
     1
102
RTVSPropertyOp24
 70
     1
102
RTVSPropertyOp25
 70
     1
102
RTVSPropertyOp26
 70
     1
102
RTVSPropertyOp27
 70
     1
102
RTVSPropertyOp28
 70
     1
102
RTVSPropertyOp29
 70
     1
102
RTVSPropertyOp30
 70
     1
102
RTVSPropertyOp31
 70
     1
102
RTVSPropertyOp32
 70
     1
102
RTVSPropertyOp33
 70
     1
102
RTVSPropertyOp34
 70
     1
102
RTVSPropertyOp35
 70
     1
102
RTVSPropertyOp36
 70
     1
102
RTVSPropertyOp37
 70
     1
102
RTVSPropertyOp38
 70
     1
102
RTVSPropertyOp39
 70
     1
102
RTVSPropertyOp40
 70
     1
102
RTVSPropertyOp41
 70
     1
102
RTVSPropertyOp42
 70
     1
102
RTVSPropertyOp43
 70
     1
102
RTVSPropertyOp44
 70
     1
102
RTVSPropertyOp45
 70
     1
102
RTVSPropertyOp46
 70
     1
102
RTVSPropertyOp47
 70
     1
102
RTVSPropertyOp48
 70
     1
102
RTVSPropertyOp49
 70
     1
102
RTVSPropertyOp50
 70
     1
102
RTVSPropertyOp51
 70
     0
102
RTVSPropertyOp52
 70
     0
102
RTVSPropertyOp53
 70
     1
102
RTVSPropertyOp54
 70
     1
102
RTVSPropertyOp55
 70
     1
102
RTVSPropertyOp56
 70
     1
102
RTVSPropertyOp57
 70
     1
102
RTVSPropertyOp58
 70
     1
102
RTVSPropertyOp59
 70
     1
102
RTVSPropertyOp60
 70
     1
102
RTVSPropertyOp61
 70
     1
102
RTVSPropertyOp62
 70
     1
  0
XRECORD
  5
A9A2
102
{ACAD_REACTORS
330
A9A1
102
}
330
A9A1
100
AcDbXrecord
280
     1
102
RTVSPost2010Prop28
280
     0
102
RTVSPost2010PropOp28
 70
     1
102
RTVSPost2010Prop29
280
     1
102
RTVSPost2010PropOp29
 70
     1
102
RTVSPost2010Prop30
280
     1
102
RTVSPost2010PropOp30
 70
     1
102
RTVSPost2010Prop31
280
     0
102
RTVSPost2010PropOp31
 70
     1
102
RTVSPost2010Prop32
280
     0
102
RTVSPost2010PropOp32
 70
     1
102
RTVSPost2010Prop33
280
     0
102
RTVSPost2010PropOp33
 70
     1
102
RTVSPost2010Prop34
280
     0
102
RTVSPost2010PropOp34
 70
     1
102
RTVSPost2010Prop35
280
     0
102
RTVSPost2010PropOp35
 70
     1
102
RTVSPost2010Prop36
280
     0
102
RTVSPost2010PropOp36
 70
     1
102
RTVSPost2010Prop37
 90
       50
102
RTVSPost2010PropOp37
 70
     0
102
RTVSPost2010Prop38
140
0.0
102
RTVSPost2010PropOp38
 70
     0
102
RTVSPost2010Prop39
140
1.0
102
RTVSPost2010PropOp39
 70
     0
102
RTVSPost2010Prop40
 90
        0
102
RTVSPost2010PropOp40
 70
     0
102
RTVSPost2010Prop41ColorIndex
 90
       18
102
RTVSPost2010Prop41ColorRGB
 90
        0
102
RTVSPost2010PropOp41
 70
     0
102
RTVSPost2010Prop42
 90
       50
102
RTVSPost2010PropOp42
 70
     0
102
RTVSPost2010Prop43
 90
        3
102
RTVSPost2010PropOp43
 70
     0
102
RTVSPost2010Prop44ColorIndex
 90
        5
102
RTVSPost2010Prop44ColorRGB
 90
      255
102
RTVSPost2010PropOp44
 70
     0
102
RTVSPost2010Prop45
280
     0
102
RTVSPost2010PropOp45
 70
     1
102
RTVSPost2010Prop46
 90
       50
102
RTVSPost2010PropOp46
 70
     0
102
RTVSPost2010Prop47
 90
       50
102
RTVSPost2010PropOp47
 70
     0
102
RTVSPost2010Prop48
 90
       50
102
RTVSPost2010PropOp48
 70
     0
102
RTVSPost2010Prop49
280
     0
102
RTVSPost2010PropOp49
 70
     1
102
RTVSPost2010Prop50
 90
       50
102
RTVSPost2010PropOp50
 70
     0
102
RTVSPost2010Prop51ColorIndex
 90
      256
102
RTVSPost2010Prop51ColorRGB
 90
-16777216
102
RTVSPost2010PropOp51
 70
     0
102
RTVSPost2010Prop52
140
1.0
102
RTVSPost2010PropOp52
 70
     0
102
RTVSPost2010Prop53
 90
        2
102
RTVSPost2010PropOp53
 70
     0
102
RTVSPost2010Prop54
  1
strokes_ogs.tif
102
RTVSPost2010PropOp54
 70
     0
102
RTVSPost2010Prop55
280
     0
102
RTVSPost2010PropOp55
 70
     1
102
RTVSPost2010Prop56
140
1.0
102
RTVSPost2010PropOp56
 70
     0
102
RTVSPost2010Prop57
140
1.0
102
RTVSPost2010PropOp57
 70
     0
102
RTVSPropertyOp0
 70
     0
102
RTVSPropertyOp1
 70
     0
102
RTVSPropertyOp2
 70
     0
102
RTVSPropertyOp3
 70
     0
102
RTVSPropertyOp4
 70
     0
102
RTVSPropertyOp5
 70
     0
102
RTVSPropertyOp6
 70
     0
102
RTVSPropertyOp7
 70
     0
102
RTVSPropertyOp8
 70
     0
102
RTVSPropertyOp9
 70
     0
102
RTVSPropertyOp10
 70
     0
102
RTVSPropertyOp11
 70
     0
102
RTVSPropertyOp12
 70
     0
102
RTVSPropertyOp13
 70
     0
102
RTVSPropertyOp14
 70
     2
102
RTVSPropertyOp15
 70
     0
102
RTVSPropertyOp16
 70
     0
102
RTVSPropertyOp17
 70
     0
102
RTVSPropertyOp18
 70
     0
102
RTVSPropertyOp19
 70
     0
102
RTVSPropertyOp20
 70
     0
102
RTVSPropertyOp21
 70
     0
102
RTVSPropertyOp22
 70
     0
102
RTVSPropertyOp23
 70
     0
102
RTVSPropertyOp24
 70
     0
102
RTVSPropertyOp25
 70
     0
102
RTVSPropertyOp26
 70
     0
102
RTVSPropertyOp27
 70
     0
102
RTVSPropertyOp28
 70
     1
102
RTVSPropertyOp29
 70
     1
102
RTVSPropertyOp30
 70
     1
102
RTVSPropertyOp31
 70
     1
102
RTVSPropertyOp32
 70
     1
102
RTVSPropertyOp33
 70
     1
102
RTVSPropertyOp34
 70
     1
102
RTVSPropertyOp35
 70
     1
102
RTVSPropertyOp36
 70
     1
102
RTVSPropertyOp37
 70
     0
102
RTVSPropertyOp38
 70
     0
102
RTVSPropertyOp39
 70
     0
102
RTVSPropertyOp40
 70
     0
102
RTVSPropertyOp41
 70
     0
102
RTVSPropertyOp42
 70
     0
102
RTVSPropertyOp43
 70
     0
102
RTVSPropertyOp44
 70
     0
102
RTVSPropertyOp45
 70
     1
102
RTVSPropertyOp46
 70
     0
102
RTVSPropertyOp47
 70
     0
102
RTVSPropertyOp48
 70
     0
102
RTVSPropertyOp49
 70
     1
102
RTVSPropertyOp50
 70
     0
102
RTVSPropertyOp51
 70
     0
102
RTVSPropertyOp52
 70
     0
102
RTVSPropertyOp53
 70
     0
102
RTVSPropertyOp54
 70
     0
102
RTVSPropertyOp55
 70
     1
102
RTVSPropertyOp56
 70
     0
102
RTVSPropertyOp57
 70
     0
102
RTVSPropertyOp58
 70
     0
102
RTVSPropertyOp59
 70
     0
102
RTVSPropertyOp60
 70
     0
102
RTVSPropertyOp61
 70
     0
102
RTVSPropertyOp62
 70
     0
  0
XRECORD
  5
A992
102
{ACAD_REACTORS
330
A991
102
}
330
A991
100
AcDbXrecord
280
     1
102
RTVSPost2010Prop28
280
     0
102
RTVSPost2010PropOp28
 70
     1
102
RTVSPost2010Prop29
280
     1
102
RTVSPost2010PropOp29
 70
     1
102
RTVSPost2010Prop30
280
     1
102
RTVSPost2010PropOp30
 70
     1
102
RTVSPost2010Prop31
280
     0
102
RTVSPost2010PropOp31
 70
     1
102
RTVSPost2010Prop32
280
     0
102
RTVSPost2010PropOp32
 70
     1
102
RTVSPost2010Prop33
280
     0
102
RTVSPost2010PropOp33
 70
     1
102
RTVSPost2010Prop34
280
     0
102
RTVSPost2010PropOp34
 70
     1
102
RTVSPost2010Prop35
280
     0
102
RTVSPost2010PropOp35
 70
     1
102
RTVSPost2010Prop36
280
     0
102
RTVSPost2010PropOp36
 70
     1
102
RTVSPost2010Prop37
 90
       50
102
RTVSPost2010PropOp37
 70
     1
102
RTVSPost2010Prop38
140
0.0
102
RTVSPost2010PropOp38
 70
     1
102
RTVSPost2010Prop39
140
1.0
102
RTVSPost2010PropOp39
 70
     1
102
RTVSPost2010Prop40
 90
        0
102
RTVSPost2010PropOp40
 70
     1
102
RTVSPost2010Prop41ColorIndex
 90
       18
102
RTVSPost2010Prop41ColorRGB
 90
        0
102
RTVSPost2010PropOp41
 70
     1
102
RTVSPost2010Prop42
 90
       50
102
RTVSPost2010PropOp42
 70
     1
102
RTVSPost2010Prop43
 90
        3
102
RTVSPost2010PropOp43
 70
     1
102
RTVSPost2010Prop44ColorIndex
 90
        5
102
RTVSPost2010Prop44ColorRGB
 90
      255
102
RTVSPost2010PropOp44
 70
     1
102
RTVSPost2010Prop45
280
     0
102
RTVSPost2010PropOp45
 70
     1
102
RTVSPost2010Prop46
 90
       50
102
RTVSPost2010PropOp46
 70
     1
102
RTVSPost2010Prop47
 90
       50
102
RTVSPost2010PropOp47
 70
     1
102
RTVSPost2010Prop48
 90
       50
102
RTVSPost2010PropOp48
 70
     1
102
RTVSPost2010Prop49
280
     0
102
RTVSPost2010PropOp49
 70
     1
102
RTVSPost2010Prop50
 90
       50
102
RTVSPost2010PropOp50
 70
     1
102
RTVSPost2010Prop51ColorIndex
 90
      256
102
RTVSPost2010Prop51ColorRGB
 90
-16777216
102
RTVSPost2010PropOp51
 70
     0
102
RTVSPost2010Prop52
140
1.0
102
RTVSPost2010PropOp52
 70
     0
102
RTVSPost2010Prop53
 90
        2
102
RTVSPost2010PropOp53
 70
     1
102
RTVSPost2010Prop54
  1
strokes_ogs.tif
102
RTVSPost2010PropOp54
 70
     1
102
RTVSPost2010Prop55
280
     0
102
RTVSPost2010PropOp55
 70
     1
102
RTVSPost2010Prop56
140
1.0
102
RTVSPost2010PropOp56
 70
     1
102
RTVSPost2010Prop57
140
1.0
102
RTVSPost2010PropOp57
 70
     1
102
RTVSPropertyOp0
 70
     1
102
RTVSPropertyOp1
 70
     1
102
RTVSPropertyOp2
 70
     1
102
RTVSPropertyOp3
 70
     1
102
RTVSPropertyOp4
 70
     1
102
RTVSPropertyOp5
 70
     1
102
RTVSPropertyOp6
 70
     1
102
RTVSPropertyOp7
 70
     1
102
RTVSPropertyOp8
 70
     1
102
RTVSPropertyOp9
 70
     1
102
RTVSPropertyOp10
 70
     1
102
RTVSPropertyOp11
 70
     1
102
RTVSPropertyOp12
 70
     1
102
RTVSPropertyOp13
 70
     1
102
RTVSPropertyOp14
 70
     1
102
RTVSPropertyOp15
 70
     1
102
RTVSPropertyOp16
 70
     1
102
RTVSPropertyOp17
 70
     1
102
RTVSPropertyOp18
 70
     1
102
RTVSPropertyOp19
 70
     1
102
RTVSPropertyOp20
 70
     1
102
RTVSPropertyOp21
 70
     1
102
RTVSPropertyOp22
 70
     1
102
RTVSPropertyOp23
 70
     1
102
RTVSPropertyOp24
 70
     1
102
RTVSPropertyOp25
 70
     1
102
RTVSPropertyOp26
 70
     1
102
RTVSPropertyOp27
 70
     1
102
RTVSPropertyOp28
 70
     1
102
RTVSPropertyOp29
 70
     1
102
RTVSPropertyOp30
 70
     1
102
RTVSPropertyOp31
 70
     1
102
RTVSPropertyOp32
 70
     1
102
RTVSPropertyOp33
 70
     1
102
RTVSPropertyOp34
 70
     1
102
RTVSPropertyOp35
 70
     1
102
RTVSPropertyOp36
 70
     1
102
RTVSPropertyOp37
 70
     1
102
RTVSPropertyOp38
 70
     1
102
RTVSPropertyOp39
 70
     1
102
RTVSPropertyOp40
 70
     1
102
RTVSPropertyOp41
 70
     1
102
RTVSPropertyOp42
 70
     1
102
RTVSPropertyOp43
 70
     1
102
RTVSPropertyOp44
 70
     1
102
RTVSPropertyOp45
 70
     1
102
RTVSPropertyOp46
 70
     1
102
RTVSPropertyOp47
 70
     1
102
RTVSPropertyOp48
 70
     1
102
RTVSPropertyOp49
 70
     1
102
RTVSPropertyOp50
 70
     1
102
RTVSPropertyOp51
 70
     0
102
RTVSPropertyOp52
 70
     0
102
RTVSPropertyOp53
 70
     1
102
RTVSPropertyOp54
 70
     1
102
RTVSPropertyOp55
 70
     1
102
RTVSPropertyOp56
 70
     1
102
RTVSPropertyOp57
 70
     1
102
RTVSPropertyOp58
 70
     1
102
RTVSPropertyOp59
 70
     1
102
RTVSPropertyOp60
 70
     1
102
RTVSPropertyOp61
 70
     1
102
RTVSPropertyOp62
 70
     1
  0
XRECORD
  5
A9A4
102
{ACAD_REACTORS
330
A9A3
102
}
330
A9A3
100
AcDbXrecord
280
     1
102
RTVSPost2010Prop28
280
     0
102
RTVSPost2010PropOp28
 70
     1
102
RTVSPost2010Prop29
280
     1
102
RTVSPost2010PropOp29
 70
     1
102
RTVSPost2010Prop30
280
     1
102
RTVSPost2010PropOp30
 70
     1
102
RTVSPost2010Prop31
280
     0
102
RTVSPost2010PropOp31
 70
     1
102
RTVSPost2010Prop32
280
     0
102
RTVSPost2010PropOp32
 70
     1
102
RTVSPost2010Prop33
280
     0
102
RTVSPost2010PropOp33
 70
     1
102
RTVSPost2010Prop34
280
     0
102
RTVSPost2010PropOp34
 70
     1
102
RTVSPost2010Prop35
280
     0
102
RTVSPost2010PropOp35
 70
     1
102
RTVSPost2010Prop36
280
     0
102
RTVSPost2010PropOp36
 70
     1
102
RTVSPost2010Prop37
 90
       50
102
RTVSPost2010PropOp37
 70
     0
102
RTVSPost2010Prop38
140
0.0
102
RTVSPost2010PropOp38
 70
     0
102
RTVSPost2010Prop39
140
1.0
102
RTVSPost2010PropOp39
 70
     0
102
RTVSPost2010Prop40
 90
        0
102
RTVSPost2010PropOp40
 70
     0
102
RTVSPost2010Prop41ColorIndex
 90
       18
102
RTVSPost2010Prop41ColorRGB
 90
        0
102
RTVSPost2010PropOp41
 70
     0
102
RTVSPost2010Prop42
 90
       50
102
RTVSPost2010PropOp42
 70
     0
102
RTVSPost2010Prop43
 90
        3
102
RTVSPost2010PropOp43
 70
     0
102
RTVSPost2010Prop44ColorIndex
 90
        5
102
RTVSPost2010Prop44ColorRGB
 90
      255
102
RTVSPost2010PropOp44
 70
     0
102
RTVSPost2010Prop45
280
     0
102
RTVSPost2010PropOp45
 70
     1
102
RTVSPost2010Prop46
 90
       50
102
RTVSPost2010PropOp46
 70
     0
102
RTVSPost2010Prop47
 90
       50
102
RTVSPost2010PropOp47
 70
     0
102
RTVSPost2010Prop48
 90
       50
102
RTVSPost2010PropOp48
 70
     0
102
RTVSPost2010Prop49
280
     0
102
RTVSPost2010PropOp49
 70
     1
102
RTVSPost2010Prop50
 90
       50
102
RTVSPost2010PropOp50
 70
     0
102
RTVSPost2010Prop51ColorIndex
 90
      256
102
RTVSPost2010Prop51ColorRGB
 90
-16777216
102
RTVSPost2010PropOp51
 70
     0
102
RTVSPost2010Prop52
140
1.0
102
RTVSPost2010PropOp52
 70
     0
102
RTVSPost2010Prop53
 90
        2
102
RTVSPost2010PropOp53
 70
     0
102
RTVSPost2010Prop54
  1
strokes_ogs.tif
102
RTVSPost2010PropOp54
 70
     0
102
RTVSPost2010Prop55
280
     0
102
RTVSPost2010PropOp55
 70
     1
102
RTVSPost2010Prop56
140
1.0
102
RTVSPost2010PropOp56
 70
     0
102
RTVSPost2010Prop57
140
1.0
102
RTVSPost2010PropOp57
 70
     0
102
RTVSPropertyOp0
 70
     0
102
RTVSPropertyOp1
 70
     0
102
RTVSPropertyOp2
 70
     0
102
RTVSPropertyOp3
 70
     0
102
RTVSPropertyOp4
 70
     0
102
RTVSPropertyOp5
 70
     0
102
RTVSPropertyOp6
 70
     0
102
RTVSPropertyOp7
 70
     0
102
RTVSPropertyOp8
 70
     0
102
RTVSPropertyOp9
 70
     0
102
RTVSPropertyOp10
 70
     0
102
RTVSPropertyOp11
 70
     0
102
RTVSPropertyOp12
 70
     0
102
RTVSPropertyOp13
 70
     0
102
RTVSPropertyOp14
 70
     2
102
RTVSPropertyOp15
 70
     0
102
RTVSPropertyOp16
 70
     0
102
RTVSPropertyOp17
 70
     0
102
RTVSPropertyOp18
 70
     0
102
RTVSPropertyOp19
 70
     0
102
RTVSPropertyOp20
 70
     0
102
RTVSPropertyOp21
 70
     0
102
RTVSPropertyOp22
 70
     0
102
RTVSPropertyOp23
 70
     0
102
RTVSPropertyOp24
 70
     0
102
RTVSPropertyOp25
 70
     0
102
RTVSPropertyOp26
 70
     0
102
RTVSPropertyOp27
 70
     0
102
RTVSPropertyOp28
 70
     1
102
RTVSPropertyOp29
 70
     1
102
RTVSPropertyOp30
 70
     1
102
RTVSPropertyOp31
 70
     1
102
RTVSPropertyOp32
 70
     1
102
RTVSPropertyOp33
 70
     1
102
RTVSPropertyOp34
 70
     1
102
RTVSPropertyOp35
 70
     1
102
RTVSPropertyOp36
 70
     1
102
RTVSPropertyOp37
 70
     0
102
RTVSPropertyOp38
 70
     0
102
RTVSPropertyOp39
 70
     0
102
RTVSPropertyOp40
 70
     0
102
RTVSPropertyOp41
 70
     0
102
RTVSPropertyOp42
 70
     0
102
RTVSPropertyOp43
 70
     0
102
RTVSPropertyOp44
 70
     0
102
RTVSPropertyOp45
 70
     1
102
RTVSPropertyOp46
 70
     0
102
RTVSPropertyOp47
 70
     0
102
RTVSPropertyOp48
 70
     0
102
RTVSPropertyOp49
 70
     1
102
RTVSPropertyOp50
 70
     0
102
RTVSPropertyOp51
 70
     0
102
RTVSPropertyOp52
 70
     0
102
RTVSPropertyOp53
 70
     0
102
RTVSPropertyOp54
 70
     0
102
RTVSPropertyOp55
 70
     1
102
RTVSPropertyOp56
 70
     0
102
RTVSPropertyOp57
 70
     0
102
RTVSPropertyOp58
 70
     0
102
RTVSPropertyOp59
 70
     0
102
RTVSPropertyOp60
 70
     0
102
RTVSPropertyOp61
 70
     0
102
RTVSPropertyOp62
 70
     0
  0
XRECORD
  5
A98A
102
{ACAD_REACTORS
330
A989
102
}
330
A989
100
AcDbXrecord
280
     1
102
RTVSPost2010Prop28
280
     0
102
RTVSPost2010PropOp28
 70
     1
102
RTVSPost2010Prop29
280
     1
102
RTVSPost2010PropOp29
 70
     1
102
RTVSPost2010Prop30
280
     1
102
RTVSPost2010PropOp30
 70
     1
102
RTVSPost2010Prop31
280
     0
102
RTVSPost2010PropOp31
 70
     1
102
RTVSPost2010Prop32
280
     0
102
RTVSPost2010PropOp32
 70
     1
102
RTVSPost2010Prop33
280
     0
102
RTVSPost2010PropOp33
 70
     1
102
RTVSPost2010Prop34
280
     0
102
RTVSPost2010PropOp34
 70
     1
102
RTVSPost2010Prop35
280
     0
102
RTVSPost2010PropOp35
 70
     1
102
RTVSPost2010Prop36
280
     0
102
RTVSPost2010PropOp36
 70
     1
102
RTVSPost2010Prop37
 90
       50
102
RTVSPost2010PropOp37
 70
     1
102
RTVSPost2010Prop38
140
0.0
102
RTVSPost2010PropOp38
 70
     1
102
RTVSPost2010Prop39
140
1.0
102
RTVSPost2010PropOp39
 70
     1
102
RTVSPost2010Prop40
 90
        0
102
RTVSPost2010PropOp40
 70
     1
102
RTVSPost2010Prop41ColorIndex
 90
       18
102
RTVSPost2010Prop41ColorRGB
 90
        0
102
RTVSPost2010PropOp41
 70
     1
102
RTVSPost2010Prop42
 90
       50
102
RTVSPost2010PropOp42
 70
     1
102
RTVSPost2010Prop43
 90
        3
102
RTVSPost2010PropOp43
 70
     1
102
RTVSPost2010Prop44ColorIndex
 90
        5
102
RTVSPost2010Prop44ColorRGB
 90
      255
102
RTVSPost2010PropOp44
 70
     1
102
RTVSPost2010Prop45
280
     0
102
RTVSPost2010PropOp45
 70
     1
102
RTVSPost2010Prop46
 90
       50
102
RTVSPost2010PropOp46
 70
     1
102
RTVSPost2010Prop47
 90
       50
102
RTVSPost2010PropOp47
 70
     1
102
RTVSPost2010Prop48
 90
       50
102
RTVSPost2010PropOp48
 70
     1
102
RTVSPost2010Prop49
280
     0
102
RTVSPost2010PropOp49
 70
     1
102
RTVSPost2010Prop50
 90
       50
102
RTVSPost2010PropOp50
 70
     1
102
RTVSPost2010Prop51ColorIndex
 90
      256
102
RTVSPost2010Prop51ColorRGB
 90
-16777216
102
RTVSPost2010PropOp51
 70
     0
102
RTVSPost2010Prop52
140
1.0
102
RTVSPost2010PropOp52
 70
     0
102
RTVSPost2010Prop53
 90
        2
102
RTVSPost2010PropOp53
 70
     1
102
RTVSPost2010Prop54
  1
strokes_ogs.tif
102
RTVSPost2010PropOp54
 70
     1
102
RTVSPost2010Prop55
280
     0
102
RTVSPost2010PropOp55
 70
     1
102
RTVSPost2010Prop56
140
1.0
102
RTVSPost2010PropOp56
 70
     1
102
RTVSPost2010Prop57
140
1.0
102
RTVSPost2010PropOp57
 70
     1
102
RTVSPropertyOp0
 70
     1
102
RTVSPropertyOp1
 70
     1
102
RTVSPropertyOp2
 70
     1
102
RTVSPropertyOp3
 70
     1
102
RTVSPropertyOp4
 70
     1
102
RTVSPropertyOp5
 70
     1
102
RTVSPropertyOp6
 70
     1
102
RTVSPropertyOp7
 70
     1
102
RTVSPropertyOp8
 70
     1
102
RTVSPropertyOp9
 70
     1
102
RTVSPropertyOp10
 70
     1
102
RTVSPropertyOp11
 70
     1
102
RTVSPropertyOp12
 70
     1
102
RTVSPropertyOp13
 70
     1
102
RTVSPropertyOp14
 70
     1
102
RTVSPropertyOp15
 70
     1
102
RTVSPropertyOp16
 70
     1
102
RTVSPropertyOp17
 70
     1
102
RTVSPropertyOp18
 70
     1
102
RTVSPropertyOp19
 70
     1
102
RTVSPropertyOp20
 70
     1
102
RTVSPropertyOp21
 70
     1
102
RTVSPropertyOp22
 70
     1
102
RTVSPropertyOp23
 70
     1
102
RTVSPropertyOp24
 70
     1
102
RTVSPropertyOp25
 70
     1
102
RTVSPropertyOp26
 70
     1
102
RTVSPropertyOp27
 70
     1
102
RTVSPropertyOp28
 70
     1
102
RTVSPropertyOp29
 70
     1
102
RTVSPropertyOp30
 70
     1
102
RTVSPropertyOp31
 70
     1
102
RTVSPropertyOp32
 70
     1
102
RTVSPropertyOp33
 70
     1
102
RTVSPropertyOp34
 70
     1
102
RTVSPropertyOp35
 70
     1
102
RTVSPropertyOp36
 70
     1
102
RTVSPropertyOp37
 70
     1
102
RTVSPropertyOp38
 70
     1
102
RTVSPropertyOp39
 70
     1
102
RTVSPropertyOp40
 70
     1
102
RTVSPropertyOp41
 70
     1
102
RTVSPropertyOp42
 70
     1
102
RTVSPropertyOp43
 70
     1
102
RTVSPropertyOp44
 70
     1
102
RTVSPropertyOp45
 70
     1
102
RTVSPropertyOp46
 70
     1
102
RTVSPropertyOp47
 70
     1
102
RTVSPropertyOp48
 70
     1
102
RTVSPropertyOp49
 70
     1
102
RTVSPropertyOp50
 70
     1
102
RTVSPropertyOp51
 70
     0
102
RTVSPropertyOp52
 70
     0
102
RTVSPropertyOp53
 70
     1
102
RTVSPropertyOp54
 70
     1
102
RTVSPropertyOp55
 70
     1
102
RTVSPropertyOp56
 70
     1
102
RTVSPropertyOp57
 70
     1
102
RTVSPropertyOp58
 70
     1
102
RTVSPropertyOp59
 70
     1
102
RTVSPropertyOp60
 70
     1
102
RTVSPropertyOp61
 70
     1
102
RTVSPropertyOp62
 70
     1
  0
XRECORD
  5
A9A0
102
{ACAD_REACTORS
330
A99F
102
}
330
A99F
100
AcDbXrecord
280
     1
102
RTVSPost2010Prop28
280
     0
102
RTVSPost2010PropOp28
 70
     1
102
RTVSPost2010Prop29
280
     1
102
RTVSPost2010PropOp29
 70
     1
102
RTVSPost2010Prop30
280
     1
102
RTVSPost2010PropOp30
 70
     1
102
RTVSPost2010Prop31
280
     0
102
RTVSPost2010PropOp31
 70
     1
102
RTVSPost2010Prop32
280
     0
102
RTVSPost2010PropOp32
 70
     1
102
RTVSPost2010Prop33
280
     0
102
RTVSPost2010PropOp33
 70
     1
102
RTVSPost2010Prop34
280
     0
102
RTVSPost2010PropOp34
 70
     1
102
RTVSPost2010Prop35
280
     0
102
RTVSPost2010PropOp35
 70
     1
102
RTVSPost2010Prop36
280
     0
102
RTVSPost2010PropOp36
 70
     1
102
RTVSPost2010Prop37
 90
       50
102
RTVSPost2010PropOp37
 70
     1
102
RTVSPost2010Prop38
140
0.0
102
RTVSPost2010PropOp38
 70
     1
102
RTVSPost2010Prop39
140
1.0
102
RTVSPost2010PropOp39
 70
     1
102
RTVSPost2010Prop40
 90
        0
102
RTVSPost2010PropOp40
 70
     1
102
RTVSPost2010Prop41ColorIndex
 90
       18
102
RTVSPost2010Prop41ColorRGB
 90
        0
102
RTVSPost2010PropOp41
 70
     1
102
RTVSPost2010Prop42
 90
       50
102
RTVSPost2010PropOp42
 70
     1
102
RTVSPost2010Prop43
 90
        3
102
RTVSPost2010PropOp43
 70
     1
102
RTVSPost2010Prop44ColorIndex
 90
        5
102
RTVSPost2010Prop44ColorRGB
 90
      255
102
RTVSPost2010PropOp44
 70
     1
102
RTVSPost2010Prop45
280
     0
102
RTVSPost2010PropOp45
 70
     1
102
RTVSPost2010Prop46
 90
       50
102
RTVSPost2010PropOp46
 70
     1
102
RTVSPost2010Prop47
 90
       50
102
RTVSPost2010PropOp47
 70
     1
102
RTVSPost2010Prop48
 90
       50
102
RTVSPost2010PropOp48
 70
     1
102
RTVSPost2010Prop49
280
     0
102
RTVSPost2010PropOp49
 70
     1
102
RTVSPost2010Prop50
 90
       50
102
RTVSPost2010PropOp50
 70
     1
102
RTVSPost2010Prop51ColorIndex
 90
      256
102
RTVSPost2010Prop51ColorRGB
 90
-16777216
102
RTVSPost2010PropOp51
 70
     0
102
RTVSPost2010Prop52
140
1.0
102
RTVSPost2010PropOp52
 70
     0
102
RTVSPost2010Prop53
 90
        2
102
RTVSPost2010PropOp53
 70
     1
102
RTVSPost2010Prop54
  1
strokes_ogs.tif
102
RTVSPost2010PropOp54
 70
     1
102
RTVSPost2010Prop55
280
     0
102
RTVSPost2010PropOp55
 70
     1
102
RTVSPost2010Prop56
140
1.0
102
RTVSPost2010PropOp56
 70
     1
102
RTVSPost2010Prop57
140
1.0
102
RTVSPost2010PropOp57
 70
     1
102
RTVSPropertyOp0
 70
     1
102
RTVSPropertyOp1
 70
     1
102
RTVSPropertyOp2
 70
     1
102
RTVSPropertyOp3
 70
     1
102
RTVSPropertyOp4
 70
     1
102
RTVSPropertyOp5
 70
     1
102
RTVSPropertyOp6
 70
     1
102
RTVSPropertyOp7
 70
     1
102
RTVSPropertyOp8
 70
     1
102
RTVSPropertyOp9
 70
     1
102
RTVSPropertyOp10
 70
     1
102
RTVSPropertyOp11
 70
     1
102
RTVSPropertyOp12
 70
     1
102
RTVSPropertyOp13
 70
     1
102
RTVSPropertyOp14
 70
     1
102
RTVSPropertyOp15
 70
     1
102
RTVSPropertyOp16
 70
     1
102
RTVSPropertyOp17
 70
     1
102
RTVSPropertyOp18
 70
     1
102
RTVSPropertyOp19
 70
     1
102
RTVSPropertyOp20
 70
     1
102
RTVSPropertyOp21
 70
     1
102
RTVSPropertyOp22
 70
     1
102
RTVSPropertyOp23
 70
     1
102
RTVSPropertyOp24
 70
     1
102
RTVSPropertyOp25
 70
     1
102
RTVSPropertyOp26
 70
     1
102
RTVSPropertyOp27
 70
     1
102
RTVSPropertyOp28
 70
     1
102
RTVSPropertyOp29
 70
     1
102
RTVSPropertyOp30
 70
     1
102
RTVSPropertyOp31
 70
     1
102
RTVSPropertyOp32
 70
     1
102
RTVSPropertyOp33
 70
     1
102
RTVSPropertyOp34
 70
     1
102
RTVSPropertyOp35
 70
     1
102
RTVSPropertyOp36
 70
     1
102
RTVSPropertyOp37
 70
     1
102
RTVSPropertyOp38
 70
     1
102
RTVSPropertyOp39
 70
     1
102
RTVSPropertyOp40
 70
     1
102
RTVSPropertyOp41
 70
     1
102
RTVSPropertyOp42
 70
     1
102
RTVSPropertyOp43
 70
     1
102
RTVSPropertyOp44
 70
     1
102
RTVSPropertyOp45
 70
     1
102
RTVSPropertyOp46
 70
     1
102
RTVSPropertyOp47
 70
     1
102
RTVSPropertyOp48
 70
     1
102
RTVSPropertyOp49
 70
     1
102
RTVSPropertyOp50
 70
     1
102
RTVSPropertyOp51
 70
     0
102
RTVSPropertyOp52
 70
     0
102
RTVSPropertyOp53
 70
     1
102
RTVSPropertyOp54
 70
     1
102
RTVSPropertyOp55
 70
     1
102
RTVSPropertyOp56
 70
     1
102
RTVSPropertyOp57
 70
     1
102
RTVSPropertyOp58
 70
     1
102
RTVSPropertyOp59
 70
     1
102
RTVSPropertyOp60
 70
     1
102
RTVSPropertyOp61
 70
     1
102
RTVSPropertyOp62
 70
     1
  0
XRECORD
  5
A99E
102
{ACAD_REACTORS
330
A99D
102
}
330
A99D
100
AcDbXrecord
280
     1
102
RTVSPost2010Prop28
280
     0
102
RTVSPost2010PropOp28
 70
     1
102
RTVSPost2010Prop29
280
     1
102
RTVSPost2010PropOp29
 70
     1
102
RTVSPost2010Prop30
280
     1
102
RTVSPost2010PropOp30
 70
     1
102
RTVSPost2010Prop31
280
     0
102
RTVSPost2010PropOp31
 70
     1
102
RTVSPost2010Prop32
280
     0
102
RTVSPost2010PropOp32
 70
     1
102
RTVSPost2010Prop33
280
     0
102
RTVSPost2010PropOp33
 70
     1
102
RTVSPost2010Prop34
280
     0
102
RTVSPost2010PropOp34
 70
     1
102
RTVSPost2010Prop35
280
     0
102
RTVSPost2010PropOp35
 70
     1
102
RTVSPost2010Prop36
280
     0
102
RTVSPost2010PropOp36
 70
     1
102
RTVSPost2010Prop37
 90
       50
102
RTVSPost2010PropOp37
 70
     1
102
RTVSPost2010Prop38
140
0.0
102
RTVSPost2010PropOp38
 70
     1
102
RTVSPost2010Prop39
140
1.0
102
RTVSPost2010PropOp39
 70
     1
102
RTVSPost2010Prop40
 90
        0
102
RTVSPost2010PropOp40
 70
     1
102
RTVSPost2010Prop41ColorIndex
 90
       18
102
RTVSPost2010Prop41ColorRGB
 90
        0
102
RTVSPost2010PropOp41
 70
     1
102
RTVSPost2010Prop42
 90
       50
102
RTVSPost2010PropOp42
 70
     1
102
RTVSPost2010Prop43
 90
        3
102
RTVSPost2010PropOp43
 70
     1
102
RTVSPost2010Prop44ColorIndex
 90
        5
102
RTVSPost2010Prop44ColorRGB
 90
      255
102
RTVSPost2010PropOp44
 70
     1
102
RTVSPost2010Prop45
280
     0
102
RTVSPost2010PropOp45
 70
     1
102
RTVSPost2010Prop46
 90
       50
102
RTVSPost2010PropOp46
 70
     1
102
RTVSPost2010Prop47
 90
       50
102
RTVSPost2010PropOp47
 70
     1
102
RTVSPost2010Prop48
 90
       50
102
RTVSPost2010PropOp48
 70
     1
102
RTVSPost2010Prop49
280
     0
102
RTVSPost2010PropOp49
 70
     1
102
RTVSPost2010Prop50
 90
       50
102
RTVSPost2010PropOp50
 70
     1
102
RTVSPost2010Prop51ColorIndex
 90
      256
102
RTVSPost2010Prop51ColorRGB
 90
-16777216
102
RTVSPost2010PropOp51
 70
     0
102
RTVSPost2010Prop52
140
1.0
102
RTVSPost2010PropOp52
 70
     0
102
RTVSPost2010Prop53
 90
        2
102
RTVSPost2010PropOp53
 70
     1
102
RTVSPost2010Prop54
  1
strokes_ogs.tif
102
RTVSPost2010PropOp54
 70
     1
102
RTVSPost2010Prop55
280
     0
102
RTVSPost2010PropOp55
 70
     1
102
RTVSPost2010Prop56
140
1.0
102
RTVSPost2010PropOp56
 70
     1
102
RTVSPost2010Prop57
140
1.0
102
RTVSPost2010PropOp57
 70
     1
102
RTVSPropertyOp0
 70
     1
102
RTVSPropertyOp1
 70
     1
102
RTVSPropertyOp2
 70
     1
102
RTVSPropertyOp3
 70
     1
102
RTVSPropertyOp4
 70
     1
102
RTVSPropertyOp5
 70
     1
102
RTVSPropertyOp6
 70
     1
102
RTVSPropertyOp7
 70
     1
102
RTVSPropertyOp8
 70
     1
102
RTVSPropertyOp9
 70
     1
102
RTVSPropertyOp10
 70
     1
102
RTVSPropertyOp11
 70
     1
102
RTVSPropertyOp12
 70
     1
102
RTVSPropertyOp13
 70
     1
102
RTVSPropertyOp14
 70
     1
102
RTVSPropertyOp15
 70
     1
102
RTVSPropertyOp16
 70
     1
102
RTVSPropertyOp17
 70
     1
102
RTVSPropertyOp18
 70
     1
102
RTVSPropertyOp19
 70
     1
102
RTVSPropertyOp20
 70
     1
102
RTVSPropertyOp21
 70
     1
102
RTVSPropertyOp22
 70
     1
102
RTVSPropertyOp23
 70
     1
102
RTVSPropertyOp24
 70
     1
102
RTVSPropertyOp25
 70
     1
102
RTVSPropertyOp26
 70
     1
102
RTVSPropertyOp27
 70
     1
102
RTVSPropertyOp28
 70
     1
102
RTVSPropertyOp29
 70
     1
102
RTVSPropertyOp30
 70
     1
102
RTVSPropertyOp31
 70
     1
102
RTVSPropertyOp32
 70
     1
102
RTVSPropertyOp33
 70
     1
102
RTVSPropertyOp34
 70
     1
102
RTVSPropertyOp35
 70
     1
102
RTVSPropertyOp36
 70
     1
102
RTVSPropertyOp37
 70
     1
102
RTVSPropertyOp38
 70
     1
102
RTVSPropertyOp39
 70
     1
102
RTVSPropertyOp40
 70
     1
102
RTVSPropertyOp41
 70
     1
102
RTVSPropertyOp42
 70
     1
102
RTVSPropertyOp43
 70
     1
102
RTVSPropertyOp44
 70
     1
102
RTVSPropertyOp45
 70
     1
102
RTVSPropertyOp46
 70
     1
102
RTVSPropertyOp47
 70
     1
102
RTVSPropertyOp48
 70
     1
102
RTVSPropertyOp49
 70
     1
102
RTVSPropertyOp50
 70
     1
102
RTVSPropertyOp51
 70
     0
102
RTVSPropertyOp52
 70
     0
102
RTVSPropertyOp53
 70
     1
102
RTVSPropertyOp54
 70
     1
102
RTVSPropertyOp55
 70
     1
102
RTVSPropertyOp56
 70
     1
102
RTVSPropertyOp57
 70
     1
102
RTVSPropertyOp58
 70
     1
102
RTVSPropertyOp59
 70
     1
102
RTVSPropertyOp60
 70
     1
102
RTVSPropertyOp61
 70
     1
102
RTVSPropertyOp62
 70
     1
  0
XRECORD
  5
A998
102
{ACAD_REACTORS
330
A997
102
}
330
A997
100
AcDbXrecord
280
     1
102
RTVSPost2010Prop28
280
     0
102
RTVSPost2010PropOp28
 70
     1
102
RTVSPost2010Prop29
280
     1
102
RTVSPost2010PropOp29
 70
     1
102
RTVSPost2010Prop30
280
     1
102
RTVSPost2010PropOp30
 70
     1
102
RTVSPost2010Prop31
280
     0
102
RTVSPost2010PropOp31
 70
     1
102
RTVSPost2010Prop32
280
     0
102
RTVSPost2010PropOp32
 70
     1
102
RTVSPost2010Prop33
280
     0
102
RTVSPost2010PropOp33
 70
     1
102
RTVSPost2010Prop34
280
     0
102
RTVSPost2010PropOp34
 70
     1
102
RTVSPost2010Prop35
280
     0
102
RTVSPost2010PropOp35
 70
     1
102
RTVSPost2010Prop36
280
     0
102
RTVSPost2010PropOp36
 70
     1
102
RTVSPost2010Prop37
 90
       50
102
RTVSPost2010PropOp37
 70
     1
102
RTVSPost2010Prop38
140
0.0
102
RTVSPost2010PropOp38
 70
     1
102
RTVSPost2010Prop39
140
1.0
102
RTVSPost2010PropOp39
 70
     1
102
RTVSPost2010Prop40
 90
        0
102
RTVSPost2010PropOp40
 70
     1
102
RTVSPost2010Prop41ColorIndex
 90
       18
102
RTVSPost2010Prop41ColorRGB
 90
        0
102
RTVSPost2010PropOp41
 70
     1
102
RTVSPost2010Prop42
 90
       50
102
RTVSPost2010PropOp42
 70
     1
102
RTVSPost2010Prop43
 90
        3
102
RTVSPost2010PropOp43
 70
     1
102
RTVSPost2010Prop44ColorIndex
 90
        5
102
RTVSPost2010Prop44ColorRGB
 90
      255
102
RTVSPost2010PropOp44
 70
     1
102
RTVSPost2010Prop45
280
     0
102
RTVSPost2010PropOp45
 70
     1
102
RTVSPost2010Prop46
 90
       50
102
RTVSPost2010PropOp46
 70
     1
102
RTVSPost2010Prop47
 90
       50
102
RTVSPost2010PropOp47
 70
     1
102
RTVSPost2010Prop48
 90
       50
102
RTVSPost2010PropOp48
 70
     1
102
RTVSPost2010Prop49
280
     0
102
RTVSPost2010PropOp49
 70
     1
102
RTVSPost2010Prop50
 90
       50
102
RTVSPost2010PropOp50
 70
     1
102
RTVSPost2010Prop51ColorIndex
 90
      256
102
RTVSPost2010Prop51ColorRGB
 90
-16777216
102
RTVSPost2010PropOp51
 70
     0
102
RTVSPost2010Prop52
140
1.0
102
RTVSPost2010PropOp52
 70
     0
102
RTVSPost2010Prop53
 90
        2
102
RTVSPost2010PropOp53
 70
     1
102
RTVSPost2010Prop54
  1
strokes_ogs.tif
102
RTVSPost2010PropOp54
 70
     1
102
RTVSPost2010Prop55
280
     0
102
RTVSPost2010PropOp55
 70
     1
102
RTVSPost2010Prop56
140
1.0
102
RTVSPost2010PropOp56
 70
     1
102
RTVSPost2010Prop57
140
1.0
102
RTVSPost2010PropOp57
 70
     1
102
RTVSPropertyOp0
 70
     1
102
RTVSPropertyOp1
 70
     1
102
RTVSPropertyOp2
 70
     1
102
RTVSPropertyOp3
 70
     1
102
RTVSPropertyOp4
 70
     1
102
RTVSPropertyOp5
 70
     1
102
RTVSPropertyOp6
 70
     1
102
RTVSPropertyOp7
 70
     1
102
RTVSPropertyOp8
 70
     1
102
RTVSPropertyOp9
 70
     1
102
RTVSPropertyOp10
 70
     1
102
RTVSPropertyOp11
 70
     1
102
RTVSPropertyOp12
 70
     1
102
RTVSPropertyOp13
 70
     1
102
RTVSPropertyOp14
 70
     1
102
RTVSPropertyOp15
 70
     1
102
RTVSPropertyOp16
 70
     1
102
RTVSPropertyOp17
 70
     1
102
RTVSPropertyOp18
 70
     1
102
RTVSPropertyOp19
 70
     1
102
RTVSPropertyOp20
 70
     1
102
RTVSPropertyOp21
 70
     1
102
RTVSPropertyOp22
 70
     1
102
RTVSPropertyOp23
 70
     1
102
RTVSPropertyOp24
 70
     1
102
RTVSPropertyOp25
 70
     1
102
RTVSPropertyOp26
 70
     1
102
RTVSPropertyOp27
 70
     1
102
RTVSPropertyOp28
 70
     1
102
RTVSPropertyOp29
 70
     1
102
RTVSPropertyOp30
 70
     1
102
RTVSPropertyOp31
 70
     1
102
RTVSPropertyOp32
 70
     1
102
RTVSPropertyOp33
 70
     1
102
RTVSPropertyOp34
 70
     1
102
RTVSPropertyOp35
 70
     1
102
RTVSPropertyOp36
 70
     1
102
RTVSPropertyOp37
 70
     1
102
RTVSPropertyOp38
 70
     1
102
RTVSPropertyOp39
 70
     1
102
RTVSPropertyOp40
 70
     1
102
RTVSPropertyOp41
 70
     1
102
RTVSPropertyOp42
 70
     1
102
RTVSPropertyOp43
 70
     1
102
RTVSPropertyOp44
 70
     1
102
RTVSPropertyOp45
 70
     1
102
RTVSPropertyOp46
 70
     1
102
RTVSPropertyOp47
 70
     1
102
RTVSPropertyOp48
 70
     1
102
RTVSPropertyOp49
 70
     1
102
RTVSPropertyOp50
 70
     1
102
RTVSPropertyOp51
 70
     0
102
RTVSPropertyOp52
 70
     0
102
RTVSPropertyOp53
 70
     1
102
RTVSPropertyOp54
 70
     1
102
RTVSPropertyOp55
 70
     1
102
RTVSPropertyOp56
 70
     1
102
RTVSPropertyOp57
 70
     1
102
RTVSPropertyOp58
 70
     1
102
RTVSPropertyOp59
 70
     1
102
RTVSPropertyOp60
 70
     1
102
RTVSPropertyOp61
 70
     1
102
RTVSPropertyOp62
 70
     1
  0
XRECORD
  5
A99A
102
{ACAD_REACTORS
330
A999
102
}
330
A999
100
AcDbXrecord
280
     1
102
RTVSPost2010Prop28
280
     0
102
RTVSPost2010PropOp28
 70
     1
102
RTVSPost2010Prop29
280
     1
102
RTVSPost2010PropOp29
 70
     1
102
RTVSPost2010Prop30
280
     1
102
RTVSPost2010PropOp30
 70
     1
102
RTVSPost2010Prop31
280
     0
102
RTVSPost2010PropOp31
 70
     1
102
RTVSPost2010Prop32
280
     0
102
RTVSPost2010PropOp32
 70
     1
102
RTVSPost2010Prop33
280
     0
102
RTVSPost2010PropOp33
 70
     1
102
RTVSPost2010Prop34
280
     0
102
RTVSPost2010PropOp34
 70
     1
102
RTVSPost2010Prop35
280
     0
102
RTVSPost2010PropOp35
 70
     1
102
RTVSPost2010Prop36
280
     0
102
RTVSPost2010PropOp36
 70
     1
102
RTVSPost2010Prop37
 90
       50
102
RTVSPost2010PropOp37
 70
     1
102
RTVSPost2010Prop38
140
0.0
102
RTVSPost2010PropOp38
 70
     1
102
RTVSPost2010Prop39
140
1.0
102
RTVSPost2010PropOp39
 70
     1
102
RTVSPost2010Prop40
 90
        0
102
RTVSPost2010PropOp40
 70
     1
102
RTVSPost2010Prop41ColorIndex
 90
       18
102
RTVSPost2010Prop41ColorRGB
 90
        0
102
RTVSPost2010PropOp41
 70
     1
102
RTVSPost2010Prop42
 90
       50
102
RTVSPost2010PropOp42
 70
     1
102
RTVSPost2010Prop43
 90
        3
102
RTVSPost2010PropOp43
 70
     1
102
RTVSPost2010Prop44ColorIndex
 90
        5
102
RTVSPost2010Prop44ColorRGB
 90
      255
102
RTVSPost2010PropOp44
 70
     1
102
RTVSPost2010Prop45
280
     0
102
RTVSPost2010PropOp45
 70
     1
102
RTVSPost2010Prop46
 90
       50
102
RTVSPost2010PropOp46
 70
     1
102
RTVSPost2010Prop47
 90
       50
102
RTVSPost2010PropOp47
 70
     1
102
RTVSPost2010Prop48
 90
       50
102
RTVSPost2010PropOp48
 70
     1
102
RTVSPost2010Prop49
280
     0
102
RTVSPost2010PropOp49
 70
     1
102
RTVSPost2010Prop50
 90
       50
102
RTVSPost2010PropOp50
 70
     1
102
RTVSPost2010Prop51ColorIndex
 90
      256
102
RTVSPost2010Prop51ColorRGB
 90
-16777216
102
RTVSPost2010PropOp51
 70
     0
102
RTVSPost2010Prop52
140
1.0
102
RTVSPost2010PropOp52
 70
     0
102
RTVSPost2010Prop53
 90
        2
102
RTVSPost2010PropOp53
 70
     1
102
RTVSPost2010Prop54
  1
strokes_ogs.tif
102
RTVSPost2010PropOp54
 70
     1
102
RTVSPost2010Prop55
280
     0
102
RTVSPost2010PropOp55
 70
     1
102
RTVSPost2010Prop56
140
1.0
102
RTVSPost2010PropOp56
 70
     1
102
RTVSPost2010Prop57
140
1.0
102
RTVSPost2010PropOp57
 70
     1
102
RTVSPropertyOp0
 70
     1
102
RTVSPropertyOp1
 70
     1
102
RTVSPropertyOp2
 70
     1
102
RTVSPropertyOp3
 70
     1
102
RTVSPropertyOp4
 70
     1
102
RTVSPropertyOp5
 70
     1
102
RTVSPropertyOp6
 70
     1
102
RTVSPropertyOp7
 70
     1
102
RTVSPropertyOp8
 70
     1
102
RTVSPropertyOp9
 70
     1
102
RTVSPropertyOp10
 70
     1
102
RTVSPropertyOp11
 70
     1
102
RTVSPropertyOp12
 70
     1
102
RTVSPropertyOp13
 70
     1
102
RTVSPropertyOp14
 70
     1
102
RTVSPropertyOp15
 70
     1
102
RTVSPropertyOp16
 70
     1
102
RTVSPropertyOp17
 70
     1
102
RTVSPropertyOp18
 70
     1
102
RTVSPropertyOp19
 70
     1
102
RTVSPropertyOp20
 70
     1
102
RTVSPropertyOp21
 70
     1
102
RTVSPropertyOp22
 70
     1
102
RTVSPropertyOp23
 70
     1
102
RTVSPropertyOp24
 70
     1
102
RTVSPropertyOp25
 70
     1
102
RTVSPropertyOp26
 70
     1
102
RTVSPropertyOp27
 70
     1
102
RTVSPropertyOp28
 70
     1
102
RTVSPropertyOp29
 70
     1
102
RTVSPropertyOp30
 70
     1
102
RTVSPropertyOp31
 70
     1
102
RTVSPropertyOp32
 70
     1
102
RTVSPropertyOp33
 70
     1
102
RTVSPropertyOp34
 70
     1
102
RTVSPropertyOp35
 70
     1
102
RTVSPropertyOp36
 70
     1
102
RTVSPropertyOp37
 70
     1
102
RTVSPropertyOp38
 70
     1
102
RTVSPropertyOp39
 70
     1
102
RTVSPropertyOp40
 70
     1
102
RTVSPropertyOp41
 70
     1
102
RTVSPropertyOp42
 70
     1
102
RTVSPropertyOp43
 70
     1
102
RTVSPropertyOp44
 70
     1
102
RTVSPropertyOp45
 70
     1
102
RTVSPropertyOp46
 70
     1
102
RTVSPropertyOp47
 70
     1
102
RTVSPropertyOp48
 70
     1
102
RTVSPropertyOp49
 70
     1
102
RTVSPropertyOp50
 70
     1
102
RTVSPropertyOp51
 70
     0
102
RTVSPropertyOp52
 70
     0
102
RTVSPropertyOp53
 70
     1
102
RTVSPropertyOp54
 70
     1
102
RTVSPropertyOp55
 70
     1
102
RTVSPropertyOp56
 70
     1
102
RTVSPropertyOp57
 70
     1
102
RTVSPropertyOp58
 70
     1
102
RTVSPropertyOp59
 70
     1
102
RTVSPropertyOp60
 70
     1
102
RTVSPropertyOp61
 70
     1
102
RTVSPropertyOp62
 70
     1
  0
XRECORD
  5
A990
102
{ACAD_REACTORS
330
A98F
102
}
330
A98F
100
AcDbXrecord
280
     1
102
RTVSPost2010Prop28
280
     0
102
RTVSPost2010PropOp28
 70
     1
102
RTVSPost2010Prop29
280
     1
102
RTVSPost2010PropOp29
 70
     1
102
RTVSPost2010Prop30
280
     1
102
RTVSPost2010PropOp30
 70
     1
102
RTVSPost2010Prop31
280
     0
102
RTVSPost2010PropOp31
 70
     1
102
RTVSPost2010Prop32
280
     0
102
RTVSPost2010PropOp32
 70
     1
102
RTVSPost2010Prop33
280
     0
102
RTVSPost2010PropOp33
 70
     1
102
RTVSPost2010Prop34
280
     0
102
RTVSPost2010PropOp34
 70
     1
102
RTVSPost2010Prop35
280
     0
102
RTVSPost2010PropOp35
 70
     1
102
RTVSPost2010Prop36
280
     0
102
RTVSPost2010PropOp36
 70
     1
102
RTVSPost2010Prop37
 90
       50
102
RTVSPost2010PropOp37
 70
     1
102
RTVSPost2010Prop38
140
0.0
102
RTVSPost2010PropOp38
 70
     1
102
RTVSPost2010Prop39
140
1.0
102
RTVSPost2010PropOp39
 70
     1
102
RTVSPost2010Prop40
 90
        0
102
RTVSPost2010PropOp40
 70
     1
102
RTVSPost2010Prop41ColorIndex
 90
       18
102
RTVSPost2010Prop41ColorRGB
 90
        0
102
RTVSPost2010PropOp41
 70
     1
102
RTVSPost2010Prop42
 90
       50
102
RTVSPost2010PropOp42
 70
     1
102
RTVSPost2010Prop43
 90
        3
102
RTVSPost2010PropOp43
 70
     1
102
RTVSPost2010Prop44ColorIndex
 90
        5
102
RTVSPost2010Prop44ColorRGB
 90
      255
102
RTVSPost2010PropOp44
 70
     1
102
RTVSPost2010Prop45
280
     0
102
RTVSPost2010PropOp45
 70
     1
102
RTVSPost2010Prop46
 90
       50
102
RTVSPost2010PropOp46
 70
     1
102
RTVSPost2010Prop47
 90
       50
102
RTVSPost2010PropOp47
 70
     1
102
RTVSPost2010Prop48
 90
       50
102
RTVSPost2010PropOp48
 70
     1
102
RTVSPost2010Prop49
280
     0
102
RTVSPost2010PropOp49
 70
     1
102
RTVSPost2010Prop50
 90
       50
102
RTVSPost2010PropOp50
 70
     1
102
RTVSPost2010Prop51ColorIndex
 90
      256
102
RTVSPost2010Prop51ColorRGB
 90
-16777216
102
RTVSPost2010PropOp51
 70
     0
102
RTVSPost2010Prop52
140
1.0
102
RTVSPost2010PropOp52
 70
     0
102
RTVSPost2010Prop53
 90
        2
102
RTVSPost2010PropOp53
 70
     1
102
RTVSPost2010Prop54
  1
strokes_ogs.tif
102
RTVSPost2010PropOp54
 70
     1
102
RTVSPost2010Prop55
280
     0
102
RTVSPost2010PropOp55
 70
     1
102
RTVSPost2010Prop56
140
1.0
102
RTVSPost2010PropOp56
 70
     1
102
RTVSPost2010Prop57
140
1.0
102
RTVSPost2010PropOp57
 70
     1
102
RTVSPropertyOp0
 70
     1
102
RTVSPropertyOp1
 70
     1
102
RTVSPropertyOp2
 70
     1
102
RTVSPropertyOp3
 70
     1
102
RTVSPropertyOp4
 70
     1
102
RTVSPropertyOp5
 70
     1
102
RTVSPropertyOp6
 70
     1
102
RTVSPropertyOp7
 70
     1
102
RTVSPropertyOp8
 70
     1
102
RTVSPropertyOp9
 70
     1
102
RTVSPropertyOp10
 70
     1
102
RTVSPropertyOp11
 70
     1
102
RTVSPropertyOp12
 70
     1
102
RTVSPropertyOp13
 70
     1
102
RTVSPropertyOp14
 70
     1
102
RTVSPropertyOp15
 70
     1
102
RTVSPropertyOp16
 70
     1
102
RTVSPropertyOp17
 70
     1
102
RTVSPropertyOp18
 70
     1
102
RTVSPropertyOp19
 70
     1
102
RTVSPropertyOp20
 70
     1
102
RTVSPropertyOp21
 70
     1
102
RTVSPropertyOp22
 70
     1
102
RTVSPropertyOp23
 70
     1
102
RTVSPropertyOp24
 70
     1
102
RTVSPropertyOp25
 70
     1
102
RTVSPropertyOp26
 70
     1
102
RTVSPropertyOp27
 70
     1
102
RTVSPropertyOp28
 70
     1
102
RTVSPropertyOp29
 70
     1
102
RTVSPropertyOp30
 70
     1
102
RTVSPropertyOp31
 70
     1
102
RTVSPropertyOp32
 70
     1
102
RTVSPropertyOp33
 70
     1
102
RTVSPropertyOp34
 70
     1
102
RTVSPropertyOp35
 70
     1
102
RTVSPropertyOp36
 70
     1
102
RTVSPropertyOp37
 70
     1
102
RTVSPropertyOp38
 70
     1
102
RTVSPropertyOp39
 70
     1
102
RTVSPropertyOp40
 70
     1
102
RTVSPropertyOp41
 70
     1
102
RTVSPropertyOp42
 70
     1
102
RTVSPropertyOp43
 70
     1
102
RTVSPropertyOp44
 70
     1
102
RTVSPropertyOp45
 70
     1
102
RTVSPropertyOp46
 70
     1
102
RTVSPropertyOp47
 70
     1
102
RTVSPropertyOp48
 70
     1
102
RTVSPropertyOp49
 70
     1
102
RTVSPropertyOp50
 70
     1
102
RTVSPropertyOp51
 70
     0
102
RTVSPropertyOp52
 70
     0
102
RTVSPropertyOp53
 70
     1
102
RTVSPropertyOp54
 70
     1
102
RTVSPropertyOp55
 70
     1
102
RTVSPropertyOp56
 70
     1
102
RTVSPropertyOp57
 70
     1
102
RTVSPropertyOp58
 70
     1
102
RTVSPropertyOp59
 70
     1
102
RTVSPropertyOp60
 70
     1
102
RTVSPropertyOp61
 70
     1
102
RTVSPropertyOp62
 70
     1
  0
XRECORD
  5
A984
102
{ACAD_REACTORS
330
A983
102
}
330
A983
100
AcDbXrecord
280
     1
102
RTVSPost2010Prop28
280
     0
102
RTVSPost2010PropOp28
 70
     1
102
RTVSPost2010Prop29
280
     1
102
RTVSPost2010PropOp29
 70
     1
102
RTVSPost2010Prop30
280
     1
102
RTVSPost2010PropOp30
 70
     1
102
RTVSPost2010Prop31
280
     0
102
RTVSPost2010PropOp31
 70
     1
102
RTVSPost2010Prop32
280
     0
102
RTVSPost2010PropOp32
 70
     1
102
RTVSPost2010Prop33
280
     0
102
RTVSPost2010PropOp33
 70
     1
102
RTVSPost2010Prop34
280
     0
102
RTVSPost2010PropOp34
 70
     1
102
RTVSPost2010Prop35
280
     0
102
RTVSPost2010PropOp35
 70
     1
102
RTVSPost2010Prop36
280
     0
102
RTVSPost2010PropOp36
 70
     1
102
RTVSPost2010Prop37
 90
       50
102
RTVSPost2010PropOp37
 70
     1
102
RTVSPost2010Prop38
140
0.0
102
RTVSPost2010PropOp38
 70
     1
102
RTVSPost2010Prop39
140
1.0
102
RTVSPost2010PropOp39
 70
     1
102
RTVSPost2010Prop40
 90
        0
102
RTVSPost2010PropOp40
 70
     1
102
RTVSPost2010Prop41ColorIndex
 90
       18
102
RTVSPost2010Prop41ColorRGB
 90
        0
102
RTVSPost2010PropOp41
 70
     1
102
RTVSPost2010Prop42
 90
       50
102
RTVSPost2010PropOp42
 70
     1
102
RTVSPost2010Prop43
 90
        3
102
RTVSPost2010PropOp43
 70
     1
102
RTVSPost2010Prop44ColorIndex
 90
        5
102
RTVSPost2010Prop44ColorRGB
 90
      255
102
RTVSPost2010PropOp44
 70
     1
102
RTVSPost2010Prop45
280
     0
102
RTVSPost2010PropOp45
 70
     1
102
RTVSPost2010Prop46
 90
       50
102
RTVSPost2010PropOp46
 70
     1
102
RTVSPost2010Prop47
 90
       50
102
RTVSPost2010PropOp47
 70
     1
102
RTVSPost2010Prop48
 90
       50
102
RTVSPost2010PropOp48
 70
     1
102
RTVSPost2010Prop49
280
     0
102
RTVSPost2010PropOp49
 70
     1
102
RTVSPost2010Prop50
 90
       50
102
RTVSPost2010PropOp50
 70
     1
102
RTVSPost2010Prop51ColorIndex
 90
      256
102
RTVSPost2010Prop51ColorRGB
 90
-16777216
102
RTVSPost2010PropOp51
 70
     0
102
RTVSPost2010Prop52
140
1.0
102
RTVSPost2010PropOp52
 70
     0
102
RTVSPost2010Prop53
 90
        2
102
RTVSPost2010PropOp53
 70
     1
102
RTVSPost2010Prop54
  1
strokes_ogs.tif
102
RTVSPost2010PropOp54
 70
     1
102
RTVSPost2010Prop55
280
     0
102
RTVSPost2010PropOp55
 70
     1
102
RTVSPost2010Prop56
140
1.0
102
RTVSPost2010PropOp56
 70
     1
102
RTVSPost2010Prop57
140
1.0
102
RTVSPost2010PropOp57
 70
     1
102
RTVSPropertyOp0
 70
     1
102
RTVSPropertyOp1
 70
     1
102
RTVSPropertyOp2
 70
     1
102
RTVSPropertyOp3
 70
     1
102
RTVSPropertyOp4
 70
     1
102
RTVSPropertyOp5
 70
     1
102
RTVSPropertyOp6
 70
     1
102
RTVSPropertyOp7
 70
     1
102
RTVSPropertyOp8
 70
     1
102
RTVSPropertyOp9
 70
     1
102
RTVSPropertyOp10
 70
     1
102
RTVSPropertyOp11
 70
     1
102
RTVSPropertyOp12
 70
     1
102
RTVSPropertyOp13
 70
     1
102
RTVSPropertyOp14
 70
     1
102
RTVSPropertyOp15
 70
     1
102
RTVSPropertyOp16
 70
     1
102
RTVSPropertyOp17
 70
     1
102
RTVSPropertyOp18
 70
     1
102
RTVSPropertyOp19
 70
     1
102
RTVSPropertyOp20
 70
     1
102
RTVSPropertyOp21
 70
     1
102
RTVSPropertyOp22
 70
     1
102
RTVSPropertyOp23
 70
     1
102
RTVSPropertyOp24
 70
     1
102
RTVSPropertyOp25
 70
     1
102
RTVSPropertyOp26
 70
     1
102
RTVSPropertyOp27
 70
     1
102
RTVSPropertyOp28
 70
     1
102
RTVSPropertyOp29
 70
     1
102
RTVSPropertyOp30
 70
     1
102
RTVSPropertyOp31
 70
     1
102
RTVSPropertyOp32
 70
     1
102
RTVSPropertyOp33
 70
     1
102
RTVSPropertyOp34
 70
     1
102
RTVSPropertyOp35
 70
     1
102
RTVSPropertyOp36
 70
     1
102
RTVSPropertyOp37
 70
     1
102
RTVSPropertyOp38
 70
     1
102
RTVSPropertyOp39
 70
     1
102
RTVSPropertyOp40
 70
     1
102
RTVSPropertyOp41
 70
     1
102
RTVSPropertyOp42
 70
     1
102
RTVSPropertyOp43
 70
     1
102
RTVSPropertyOp44
 70
     1
102
RTVSPropertyOp45
 70
     1
102
RTVSPropertyOp46
 70
     1
102
RTVSPropertyOp47
 70
     1
102
RTVSPropertyOp48
 70
     1
102
RTVSPropertyOp49
 70
     1
102
RTVSPropertyOp50
 70
     1
102
RTVSPropertyOp51
 70
     0
102
RTVSPropertyOp52
 70
     0
102
RTVSPropertyOp53
 70
     1
102
RTVSPropertyOp54
 70
     1
102
RTVSPropertyOp55
 70
     1
102
RTVSPropertyOp56
 70
     1
102
RTVSPropertyOp57
 70
     1
102
RTVSPropertyOp58
 70
     1
102
RTVSPropertyOp59
 70
     1
102
RTVSPropertyOp60
 70
     1
102
RTVSPropertyOp61
 70
     1
102
RTVSPropertyOp62
 70
     1
  0
XRECORD
  5
A99C
102
{ACAD_REACTORS
330
A99B
102
}
330
A99B
100
AcDbXrecord
280
     1
102
RTVSPost2010Prop28
280
     0
102
RTVSPost2010PropOp28
 70
     1
102
RTVSPost2010Prop29
280
     1
102
RTVSPost2010PropOp29
 70
     1
102
RTVSPost2010Prop30
280
     1
102
RTVSPost2010PropOp30
 70
     1
102
RTVSPost2010Prop31
280
     0
102
RTVSPost2010PropOp31
 70
     1
102
RTVSPost2010Prop32
280
     0
102
RTVSPost2010PropOp32
 70
     1
102
RTVSPost2010Prop33
280
     0
102
RTVSPost2010PropOp33
 70
     1
102
RTVSPost2010Prop34
280
     0
102
RTVSPost2010PropOp34
 70
     1
102
RTVSPost2010Prop35
280
     0
102
RTVSPost2010PropOp35
 70
     1
102
RTVSPost2010Prop36
280
     0
102
RTVSPost2010PropOp36
 70
     1
102
RTVSPost2010Prop37
 90
       50
102
RTVSPost2010PropOp37
 70
     1
102
RTVSPost2010Prop38
140
0.0
102
RTVSPost2010PropOp38
 70
     1
102
RTVSPost2010Prop39
140
1.0
102
RTVSPost2010PropOp39
 70
     1
102
RTVSPost2010Prop40
 90
        0
102
RTVSPost2010PropOp40
 70
     1
102
RTVSPost2010Prop41ColorIndex
 90
       18
102
RTVSPost2010Prop41ColorRGB
 90
        0
102
RTVSPost2010PropOp41
 70
     1
102
RTVSPost2010Prop42
 90
       50
102
RTVSPost2010PropOp42
 70
     1
102
RTVSPost2010Prop43
 90
        3
102
RTVSPost2010PropOp43
 70
     1
102
RTVSPost2010Prop44ColorIndex
 90
        5
102
RTVSPost2010Prop44ColorRGB
 90
      255
102
RTVSPost2010PropOp44
 70
     1
102
RTVSPost2010Prop45
280
     0
102
RTVSPost2010PropOp45
 70
     1
102
RTVSPost2010Prop46
 90
       50
102
RTVSPost2010PropOp46
 70
     1
102
RTVSPost2010Prop47
 90
       50
102
RTVSPost2010PropOp47
 70
     1
102
RTVSPost2010Prop48
 90
       50
102
RTVSPost2010PropOp48
 70
     1
102
RTVSPost2010Prop49
280
     0
102
RTVSPost2010PropOp49
 70
     1
102
RTVSPost2010Prop50
 90
       50
102
RTVSPost2010PropOp50
 70
     1
102
RTVSPost2010Prop51ColorIndex
 90
      256
102
RTVSPost2010Prop51ColorRGB
 90
-16777216
102
RTVSPost2010PropOp51
 70
     0
102
RTVSPost2010Prop52
140
1.0
102
RTVSPost2010PropOp52
 70
     0
102
RTVSPost2010Prop53
 90
        2
102
RTVSPost2010PropOp53
 70
     1
102
RTVSPost2010Prop54
  1
strokes_ogs.tif
102
RTVSPost2010PropOp54
 70
     1
102
RTVSPost2010Prop55
280
     0
102
RTVSPost2010PropOp55
 70
     1
102
RTVSPost2010Prop56
140
1.0
102
RTVSPost2010PropOp56
 70
     1
102
RTVSPost2010Prop57
140
1.0
102
RTVSPost2010PropOp57
 70
     1
102
RTVSPropertyOp0
 70
     1
102
RTVSPropertyOp1
 70
     1
102
RTVSPropertyOp2
 70
     1
102
RTVSPropertyOp3
 70
     1
102
RTVSPropertyOp4
 70
     1
102
RTVSPropertyOp5
 70
     1
102
RTVSPropertyOp6
 70
     1
102
RTVSPropertyOp7
 70
     1
102
RTVSPropertyOp8
 70
     1
102
RTVSPropertyOp9
 70
     1
102
RTVSPropertyOp10
 70
     1
102
RTVSPropertyOp11
 70
     1
102
RTVSPropertyOp12
 70
     1
102
RTVSPropertyOp13
 70
     1
102
RTVSPropertyOp14
 70
     1
102
RTVSPropertyOp15
 70
     1
102
RTVSPropertyOp16
 70
     1
102
RTVSPropertyOp17
 70
     1
102
RTVSPropertyOp18
 70
     1
102
RTVSPropertyOp19
 70
     1
102
RTVSPropertyOp20
 70
     1
102
RTVSPropertyOp21
 70
     1
102
RTVSPropertyOp22
 70
     1
102
RTVSPropertyOp23
 70
     1
102
RTVSPropertyOp24
 70
     1
102
RTVSPropertyOp25
 70
     1
102
RTVSPropertyOp26
 70
     1
102
RTVSPropertyOp27
 70
     1
102
RTVSPropertyOp28
 70
     1
102
RTVSPropertyOp29
 70
     1
102
RTVSPropertyOp30
 70
     1
102
RTVSPropertyOp31
 70
     1
102
RTVSPropertyOp32
 70
     1
102
RTVSPropertyOp33
 70
     1
102
RTVSPropertyOp34
 70
     1
102
RTVSPropertyOp35
 70
     1
102
RTVSPropertyOp36
 70
     1
102
RTVSPropertyOp37
 70
     1
102
RTVSPropertyOp38
 70
     1
102
RTVSPropertyOp39
 70
     1
102
RTVSPropertyOp40
 70
     1
102
RTVSPropertyOp41
 70
     1
102
RTVSPropertyOp42
 70
     1
102
RTVSPropertyOp43
 70
     1
102
RTVSPropertyOp44
 70
     1
102
RTVSPropertyOp45
 70
     1
102
RTVSPropertyOp46
 70
     1
102
RTVSPropertyOp47
 70
     1
102
RTVSPropertyOp48
 70
     1
102
RTVSPropertyOp49
 70
     1
102
RTVSPropertyOp50
 70
     1
102
RTVSPropertyOp51
 70
     0
102
RTVSPropertyOp52
 70
     0
102
RTVSPropertyOp53
 70
     1
102
RTVSPropertyOp54
 70
     1
102
RTVSPropertyOp55
 70
     1
102
RTVSPropertyOp56
 70
     1
102
RTVSPropertyOp57
 70
     1
102
RTVSPropertyOp58
 70
     1
102
RTVSPropertyOp59
 70
     1
102
RTVSPropertyOp60
 70
     1
102
RTVSPropertyOp61
 70
     1
102
RTVSPropertyOp62
 70
     1
  0
ENDSEC
  0
EOF
