  0
SECTION
  2
HEADER
  9
$ACADVER
  1
AC1015
  9
$ACADMAINTVER
 70
    20
  9
$DWGCODEPAGE
  3
ANSI_932
  9
$INSBASE
 10
0.0
 20
0.0
 30
0.0
  9
$EXTMIN
 10
10.0
 20
9.999999999999998
 30
0.0
  9
$EXTMAX
 10
630.963588
 20
259.939724
 30
0.0
  9
$LIMMIN
 10
0.0
 20
0.0
  9
$LIMMAX
 10
792.0
 20
546.0
  9
$ORTHOMODE
 70
     1
  9
$REGENMODE
 70
     1
  9
$FILLMODE
 70
     1
  9
$QTEXTMODE
 70
     0
  9
$MIRRTEXT
 70
     1
  9
$LTSCALE
 40
20.0
  9
$ATTMODE
 70
     1
  9
$TEXTSIZE
 40
5.0
  9
$TRACEWID
 40
1.0
  9
$TEXTSTYLE
  7
STANDARD
  9
$CLAYER
  8
0
  9
$CELTYPE
  6
BYLAYER
  9
$CECOLOR
 62
   256
  9
$CELTSCALE
 40
1.0
  9
$DISPSILH
 70
     0
  9
$DIMSCALE
 40
1.0
  9
$DIMASZ
 40
2.5
  9
$DIMEXO
 40
1.0
  9
$DIMDLI
 40
10.0
  9
$DIMRND
 40
0.0
  9
$DIMDLE
 40
0.0
  9
$DIMEXE
 40
1.0
  9
$DIMTP
 40
0.0
  9
$DIMTM
 40
0.0
  9
$DIMTXT
 40
3.2
  9
$DIMCEN
 40
0.0
  9
$DIMTSZ
 40
0.0
  9
$DIMTOL
 70
     0
  9
$DIMLIM
 70
     0
  9
$DIMTIH
 70
     0
  9
$DIMTOH
 70
     0
  9
$DIMSE1
 70
     0
  9
$DIMSE2
 70
     0
  9
$DIMTAD
 70
     3
  9
$DIMZIN
 70
     8
  9
$DIMBLK
  1

  9
$DIMASO
 70
     1
  9
$DIMSHO
 70
     1
  9
$DIMPOST
  1

  9
$DIMAPOST
  1

  9
$DIMALT
 70
     0
  9
$DIMALTD
 70
     2
  9
$DIMALTF
 40
25.4
  9
$DIMLFAC
 40
1.0
  9
$DIMTOFL
 70
     1
  9
$DIMTVP
 40
0.0
  9
$DIMTIX
 70
     0
  9
$DIMSOXD
 70
     0
  9
$DIMSAH
 70
     1
  9
$DIMBLK1
  1

  9
$DIMBLK2
  1

  9
$DIMSTYLE
  2
STANDARD
  9
$DIMCLRD
 70
     0
  9
$DIMCLRE
 70
     0
  9
$DIMCLRT
 70
     0
  9
$DIMTFAC
 40
1.0
  9
$DIMGAP
 40
1.0
  9
$DIMJUST
 70
     0
  9
$DIMSD1
 70
     0
  9
$DIMSD2
 70
     0
  9
$DIMTOLJ
 70
     1
  9
$DIMTZIN
 70
     0
  9
$DIMALTZ
 70
     0
  9
$DIMALTTZ
 70
     0
  9
$DIMUPT
 70
     0
  9
$DIMDEC
 70
     4
  9
$DIMTDEC
 70
     4
  9
$DIMALTU
 70
     2
  9
$DIMALTTD
 70
     2
  9
$DIMTXSTY
  7
STANDARD
  9
$DIMAUNIT
 70
     0
  9
$DIMADEC
 70
     0
  9
$DIMALTRND
 40
0.0
  9
$DIMAZIN
 70
     0
  9
$DIMDSEP
 70
    46
  9
$DIMATFIT
 70
     3
  9
$DIMFRAC
 70
     0
  9
$DIMLDRBLK
  1

  9
$DIMLUNIT
 70
     2
  9
$DIMLWD
 70
    -2
  9
$DIMLWE
 70
    -2
  9
$DIMTMOVE
 70
     0
  9
$LUNITS
 70
     2
  9
$LUPREC
 70
     4
  9
$SKETCHINC
 40
1.0
  9
$FILLETRAD
 40
0.5
  9
$AUNITS
 70
     0
  9
$AUPREC
 70
     2
  9
$MENU
  1
.
  9
$ELEVATION
 40
0.0
  9
$PELEVATION
 40
0.0
  9
$THICKNESS
 40
0.0
  9
$LIMCHECK
 70
     0
  9
$CHAMFERA
 40
10.0
  9
$CHAMFERB
 40
10.0
  9
$CHAMFERC
 40
0.0
  9
$CHAMFERD
 40
0.0
  9
$SKPOLY
 70
     0
  9
$TDCREATE
 40
2451301.775368866
  9
$TDUCREATE
 40
2451301.400368866
  9
$TDUPDATE
 40
2457192.660804213
  9
$TDUUPDATE
 40
2457192.285804213
  9
$TDINDWG
 40
0.0000126968
  9
$TDUSRTIMER
 40
0.0000121991
  9
$USRTIMER
 70
     1
  9
$ANGBASE
 50
0.0
  9
$ANGDIR
 70
     0
  9
$PDMODE
 70
     0
  9
$PDSIZE
 40
0.0
  9
$PLINEWID
 40
0.0
  9
$SPLFRAME
 70
     0
  9
$SPLINETYPE
 70
     6
  9
$SPLINESEGS
 70
     8
  9
$HANDSEED
  5
AA11
  9
$SURFTAB1
 70
     6
  9
$SURFTAB2
 70
     6
  9
$SURFTYPE
 70
     6
  9
$SURFU
 70
     6
  9
$SURFV
 70
     6
  9
$UCSBASE
  2

  9
$UCSNAME
  2

  9
$UCSORG
 10
0.0
 20
0.0
 30
0.0
  9
$UCSXDIR
 10
1.0
 20
0.0
 30
0.0
  9
$UCSYDIR
 10
0.0
 20
1.0
 30
0.0
  9
$UCSORTHOREF
  2

  9
$UCSORTHOVIEW
 70
     0
  9
$UCSORGTOP
 10
0.0
 20
0.0
 30
0.0
  9
$UCSORGBOTTOM
 10
0.0
 20
0.0
 30
0.0
  9
$UCSORGLEFT
 10
0.0
 20
0.0
 30
0.0
  9
$UCSORGRIGHT
 10
0.0
 20
0.0
 30
0.0
  9
$UCSORGFRONT
 10
0.0
 20
0.0
 30
0.0
  9
$UCSORGBACK
 10
0.0
 20
0.0
 30
0.0
  9
$PUCSBASE
  2

  9
$PUCSNAME
  2

  9
$PUCSORG
 10
0.0
 20
0.0
 30
0.0
  9
$PUCSXDIR
 10
1.0
 20
0.0
 30
0.0
  9
$PUCSYDIR
 10
0.0
 20
1.0
 30
0.0
  9
$PUCSORTHOREF
  2

  9
$PUCSORTHOVIEW
 70
     0
  9
$PUCSORGTOP
 10
0.0
 20
0.0
 30
0.0
  9
$PUCSORGBOTTOM
 10
0.0
 20
0.0
 30
0.0
  9
$PUCSORGLEFT
 10
0.0
 20
0.0
 30
0.0
  9
$PUCSORGRIGHT
 10
0.0
 20
0.0
 30
0.0
  9
$PUCSORGFRONT
 10
0.0
 20
0.0
 30
0.0
  9
$PUCSORGBACK
 10
0.0
 20
0.0
 30
0.0
  9
$USERI1
 70
     0
  9
$USERI2
 70
     0
  9
$USERI3
 70
     0
  9
$USERI4
 70
     0
  9
$USERI5
 70
     0
  9
$USERR1
 40
0.0
  9
$USERR2
 40
0.0
  9
$USERR3
 40
0.0
  9
$USERR4
 40
0.0
  9
$USERR5
 40
0.0
  9
$WORLDVIEW
 70
     1
  9
$SHADEDGE
 70
     3
  9
$SHADEDIF
 70
    70
  9
$TILEMODE
 70
     1
  9
$MAXACTVP
 70
    16
  9
$PINSBASE
 10
0.0
 20
0.0
 30
0.0
  9
$PLIMCHECK
 70
     0
  9
$PEXTMIN
 10
1.000000000000000E+20
 20
1.000000000000000E+20
 30
1.000000000000000E+20
  9
$PEXTMAX
 10
-1.000000000000000E+20
 20
-1.000000000000000E+20
 30
-1.000000000000000E+20
  9
$PLIMMIN
 10
0.0
 20
0.0
  9
$PLIMMAX
 10
420.0
 20
297.0
  9
$UNITMODE
 70
     0
  9
$VISRETAIN
 70
     0
  9
$PLINEGEN
 70
     0
  9
$PSLTSCALE
 70
     0
  9
$TREEDEPTH
 70
  3020
  9
$CMLSTYLE
  2
STANDARD
  9
$CMLJUST
 70
     0
  9
$CMLSCALE
 40
1.0
  9
$PROXYGRAPHICS
 70
     1
  9
$MEASUREMENT
 70
     0
  9
$CELWEIGHT
370
    -1
  9
$ENDCAPS
280
     0
  9
$JOINSTYLE
280
     0
  9
$LWDISPLAY
290
     0
  9
$INSUNITS
 70
     0
  9
$HYPERLINKBASE
  1

  9
$STYLESHEET
  1

  9
$XEDIT
290
     1
  9
$CEPSNTYPE
380
     0
  9
$PSTYLEMODE
290
     1
  9
$FINGERPRINTGUID
  2
{2F89133F-274E-4C1C-BFB2-ADAE5007596C}
  9
$VERSIONGUID
  2
{3F252711-08C3-4B96-ACC8-D63BE8039ACC}
  9
$EXTNAMES
290
     1
  9
$PSVPSCALE
 40
0.0
  9
$OLESTARTUP
290
     0
  0
ENDSEC
  0
SECTION
  2
CLASSES
  0
CLASS
  1
ACDBDICTIONARYWDFLT
  2
AcDbDictionaryWithDefault
  3
ObjectDBX Classes
 90
        0
280
     0
281
     0
  0
CLASS
  1
ACDBPLACEHOLDER
  2
AcDbPlaceHolder
  3
ObjectDBX Classes
 90
        0
280
     0
281
     0
  0
CLASS
  1
LAYOUT
  2
AcDbLayout
  3
ObjectDBX Classes
 90
        0
280
     0
281
     0
  0
CLASS
  1
DICTIONARYVAR
  2
AcDbDictionaryVar
  3
ObjectDBX Classes
 90
        0
280
     0
281
     0
  0
CLASS
  1
MATERIAL
  2
AcDbMaterial
  3
ObjectDBX Classes
 90
     1153
280
     0
281
     0
  0
CLASS
  1
VISUALSTYLE
  2
AcDbVisualStyle
  3
ObjectDBX Classes
 90
     4095
280
     0
281
     0
  0
CLASS
  1
TABLESTYLE
  2
AcDbTableStyle
  3
ObjectDBX Classes
 90
     4095
280
     0
281
     0
  0
CLASS
  1
SCALE
  2
AcDbScale
  3
ObjectDBX Classes
 90
     1153
280
     0
281
     0
  0
CLASS
  1
MLEADERSTYLE
  2
AcDbMLeaderStyle
  3
ACDB_MLEADERSTYLE_CLASS
 90
     4095
280
     0
281
     0
  0
CLASS
  1
ACDBSECTIONVIEWSTYLE
  2
AcDbSectionViewStyle
  3
ObjectDBX Classes
 90
     1025
280
     0
281
     0
  0
CLASS
  1
ACDBDETAILVIEWSTYLE
  2
AcDbDetailViewStyle
  3
ObjectDBX Classes
 90
     1025
280
     0
281
     0
  0
CLASS
  1
CELLSTYLEMAP
  2
AcDbCellStyleMap
  3
ObjectDBX Classes
 90
     1152
280
     0
281
     0
  0
ENDSEC
  0
SECTION
  2
TABLES
  0
TABLE
  2
VPORT
  5
A64E
330
0
100
AcDbSymbolTable
 70
     1
  0
VPORT
  5
A95A
330
A64E
100
AcDbSymbolTableRecord
100
AcDbViewportTableRecord
  2
*ACTIVE
 70
     0
 10
0.0
 20
0.0
 11
1.0
 21
1.0
 12
427.3966312948765
 22
134.9712077756076
 13
0.0
 23
0.0
 14
10.0
 24
10.0
 15
10.0
 25
10.0
 16
0.0
 26
0.0
 36
1.0
 17
0.0
 27
0.0
 37
0.0
 40
356.9825031339929
 41
1.899603698811096
 42
50.0
 43
0.0
 44
0.0
 50
0.0
 51
0.0
 71
     0
 72
   100
 73
     1
 74
     0
 75
     0
 76
     0
 77
     0
 78
     0
281
     0
 65
     1
110
0.0
120
0.0
130
0.0
111
1.0
121
0.0
131
0.0
112
0.0
122
1.0
132
0.0
 79
     0
146
0.0
1001
ACAD_NAV_VCDISPLAY
1070
     3
  0
ENDTAB
  0
TABLE
  2
LTYPE
  5
A64B
330
0
100
AcDbSymbolTable
 70
     4
  0
LTYPE
  5
A659
330
A64B
100
AcDbSymbolTableRecord
100
AcDbLinetypeTableRecord
  2
BYBLOCK
 70
     0
  3

 72
    65
 73
     0
 40
0.0
  0
LTYPE
  5
A65A
330
A64B
100
AcDbSymbolTableRecord
100
AcDbLinetypeTableRecord
  2
BYLAYER
 70
     0
  3

 72
    65
 73
     0
 40
0.0
  0
LTYPE
  5
A65B
330
A64B
100
AcDbSymbolTableRecord
100
AcDbLinetypeTableRecord
  2
CONTINUOUS
 70
     0
  3
Solid line
 72
    65
 73
     0
 40
0.0
  0
LTYPE
  5
A669
330
A64B
100
AcDbSymbolTableRecord
100
AcDbLinetypeTableRecord
  2
DASHED
 70
     0
  3
__ __ __ __ __ __ __ __ __ __ __ __ __ __ __ __
 72
    65
 73
     2
 40
0.75
 49
0.5
 74
     0
 49
-0.25
 74
     0
  0
LTYPE
  5
A66A
330
A64B
100
AcDbSymbolTableRecord
100
AcDbLinetypeTableRecord
  2
CENTER
 70
     0
  3
____ _ ____ _ ____ _ ____ _ ____ _ ____ _ ____ 
 72
    65
 73
     4
 40
2.0
 49
1.25
 74
     0
 49
-0.25
 74
     0
 49
0.25
 74
     0
 49
-0.25
 74
     0
  0
LTYPE
  5
A66B
330
A64B
100
AcDbSymbolTableRecord
100
AcDbLinetypeTableRecord
  2
PHANTOM
 70
     0
  3
______  __  __  ______  __  __  ______  __  __ 
 72
    65
 73
     6
 40
2.5
 49
1.25
 74
     0
 49
-0.25
 74
     0
 49
0.25
 74
     0
 49
-0.25
 74
     0
 49
0.25
 74
     0
 49
-0.25
 74
     0
  0
ENDTAB
  0
TABLE
  2
LAYER
  5
A648
330
0
100
AcDbSymbolTable
 70
     8
  0
LAYER
  5
A656
102
{ACAD_XDICTIONARY
360
A9B5
102
}
330
A648
100
AcDbSymbolTableRecord
100
AcDbLayerTableRecord
  2
0
 70
     0
 62
     7
  6
CONTINUOUS
370
    -3
390
A963
  0
LAYER
  5
A66C
102
{ACAD_XDICTIONARY
360
A9B7
102
}
330
A648
100
AcDbSymbolTableRecord
100
AcDbLayerTableRecord
  2
4
 70
     0
 62
     1
  6
CENTER
370
    -3
390
A963
  0
LAYER
  5
A66D
102
{ACAD_XDICTIONARY
360
A9B9
102
}
330
A648
100
AcDbSymbolTableRecord
100
AcDbLayerTableRecord
  2
5
 70
     0
 62
     6
  6
PHANTOM
370
    -3
390
A963
  0
LAYER
  5
A66E
102
{ACAD_XDICTIONARY
360
A9BB
102
}
330
A648
100
AcDbSymbolTableRecord
100
AcDbLayerTableRecord
  2
1
 70
     0
 62
     7
  6
CONTINUOUS
370
    -3
390
A963
  0
LAYER
  5
A66F
102
{ACAD_XDICTIONARY
360
A9BD
102
}
330
A648
100
AcDbSymbolTableRecord
100
AcDbLayerTableRecord
  2
2
 70
     0
 62
     4
  6
CONTINUOUS
370
    -3
390
A963
  0
LAYER
  5
A670
102
{ACAD_XDICTIONARY
360
A9BF
102
}
330
A648
100
AcDbSymbolTableRecord
100
AcDbLayerTableRecord
  2
3
 70
     0
 62
     2
  6
DASHED
370
    -3
390
A963
  0
LAYER
  5
A671
102
{ACAD_XDICTIONARY
360
A9C1
102
}
330
A648
100
AcDbSymbolTableRecord
100
AcDbLayerTableRecord
  2
6
 70
     0
 62
     5
  6
CONTINUOUS
370
    -3
390
A963
  0
LAYER
  5
A672
102
{ACAD_XDICTIONARY
360
A9C3
102
}
330
A648
100
AcDbSymbolTableRecord
100
AcDbLayerTableRecord
  2
7
 70
     0
 62
     3
  6
CONTINUOUS
370
    -3
390
A963
  0
ENDTAB
  0
TABLE
  2
STYLE
  5
A649
330
0
100
AcDbSymbolTable
 70
     1
  0
STYLE
  5
A657
330
A649
100
AcDbSymbolTableRecord
100
AcDbTextStyleTableRecord
  2
STANDARD
 70
     0
 40
0.0
 41
1.0
 50
0.0
 71
     0
 42
5.0
  3
txt
  4

  0
ENDTAB
  0
TABLE
  2
VIEW
  5
A64C
330
0
100
AcDbSymbolTable
 70
     0
  0
ENDTAB
  0
TABLE
  2
UCS
  5
A64D
330
0
100
AcDbSymbolTable
 70
     0
  0
ENDTAB
  0
TABLE
  2
APPID
  5
A64F
330
0
100
AcDbSymbolTable
 70
     3
  0
APPID
  5
A658
330
A64F
100
AcDbSymbolTableRecord
100
AcDbRegAppTableRecord
  2
ACAD
 70
     0
  0
APPID
  5
A9CF
330
A64F
100
AcDbSymbolTableRecord
100
AcDbRegAppTableRecord
  2
ACAD_NAV_VCDISPLAY
 70
     0
  0
APPID
  5
AA08
330
A64F
100
AcDbSymbolTableRecord
100
AcDbRegAppTableRecord
  2
ACAD_MLEADERVER
 70
     0
  0
ENDTAB
  0
TABLE
  2
DIMSTYLE
  5
A650
330
0
100
AcDbSymbolTable
 70
     1
100
AcDbDimStyleTable
 71
     0
  0
DIMSTYLE
105
A674
330
A650
100
AcDbSymbolTableRecord
100
AcDbDimStyleTableRecord
  2
STANDARD
 70
     0
 41
2.5
 42
1.0
 43
10.0
 44
1.0
 73
     0
 74
     0
 77
     3
 78
     8
140
3.2
141
0.0
147
1.0
172
     1
173
     1
284
     8
285
     8
286
     8
340
A657
  0
ENDTAB
  0
TABLE
  2
BLOCK_RECORD
  5
A647
330
0
100
AcDbSymbolTable
 70
     0
  0
BLOCK_RECORD
  5
A664
102
{ACAD_XDICTIONARY
360
A95D
102
}
330
A647
100
AcDbSymbolTableRecord
100
AcDbBlockTableRecord
  2
*MODEL_SPACE
340
A9B1
  0
BLOCK_RECORD
  5
A660
102
{ACAD_XDICTIONARY
360
A95B
102
}
330
A647
100
AcDbSymbolTableRecord
100
AcDbBlockTableRecord
  2
*PAPER_SPACE
340
A9B2
  0
ENDTAB
  0
ENDSEC
  0
SECTION
  2
BLOCKS
  0
BLOCK
  5
A665
330
A664
100
AcDbEntity
  8
0
100
AcDbBlockBegin
  2
*MODEL_SPACE
 70
     0
 10
0.0
 20
0.0
 30
0.0
  3
*MODEL_SPACE
  1

  0
ENDBLK
  5
A666
330
A664
100
AcDbEntity
  8
0
100
AcDbBlockEnd
  0
BLOCK
  5
A661
330
A660
100
AcDbEntity
 67
     1
  8
0
100
AcDbBlockBegin
  2
*PAPER_SPACE
 70
     0
 10
0.0
 20
0.0
 30
0.0
  3
*PAPER_SPACE
  1

  0
ENDBLK
  5
A662
330
A660
100
AcDbEntity
 67
     1
  8
0
100
AcDbBlockEnd
  0
ENDSEC
  0
SECTION
  2
ENTITIES
  0
TEXT
  5
A67C
330
A664
100
AcDbEntity
  8
7
  6
Continuous
100
AcDbText
 10
10.0
 20
18.0
 30
0.0
 40
3.0
  1
TYPE No.TM-193-4
100
AcDbText
  0
TEXT
  5
A67D
330
A664
100
AcDbEntity
  8
7
  6
Continuous
100
AcDbText
 10
10.0
 20
26.0
 30
0.0
 40
3.0
  1
CODE No.5784
100
AcDbText
  0
TEXT
  5
A67E
330
A664
100
AcDbEntity
  8
1
  6
Continuous
100
AcDbText
 10
10.0
 20
10.0
 30
0.0
 40
1.399999999999999
  1
LAYER
100
AcDbText
  0
TEXT
  5
A67F
330
A664
100
AcDbEntity
  8
1
  6
Continuous
100
AcDbText
 10
17.97951099999998
 20
10.04873699999998
 30
0.0
 40
1.399999999999999
  1
1
100
AcDbText
  0
TEXT
  5
A680
330
A664
100
AcDbEntity
  8
7
  6
Continuous
100
AcDbText
 10
29.97951099999999
 20
10.04873699999998
 30
0.0
 40
1.399999999999999
  1
7
100
AcDbText
  0
TEXT
  5
A681
330
A664
100
AcDbEntity
  8
4
  6
CENTER
100
AcDbText
 10
23.97951099999999
 20
10.04873699999998
 30
0.0
 40
1.399999999999999
  1
4
100
AcDbText
  0
TEXT
  5
A682
330
A664
100
AcDbEntity
  8
3
  6
DASHED
100
AcDbText
 10
21.979511
 20
10.04873699999998
 30
0.0
 40
1.399999999999999
  1
3
100
AcDbText
  0
TEXT
  5
A683
330
A664
100
AcDbEntity
  8
2
  6
Continuous
100
AcDbText
 10
19.97951099999999
 20
10.04873699999998
 30
0.0
 40
1.399999999999999
  1
2
100
AcDbText
  0
TEXT
  5
A684
330
A664
100
AcDbEntity
  8
6
  6
Continuous
100
AcDbText
 10
27.979511
 20
10.04873699999998
 30
0.0
 40
1.399999999999999
  1
6
100
AcDbText
  0
TEXT
  5
A685
330
A664
100
AcDbEntity
  8
5
  6
PHANTOM
100
AcDbText
 10
25.97951099999999
 20
10.04873699999998
 30
0.0
 40
1.399999999999999
  1
5
100
AcDbText
  0
LINE
  5
A686
330
A664
100
AcDbEntity
  8
1
  6
Continuous
100
AcDbLine
 10
150.201656
 20
121.495343
 30
0.0
 11
150.201656
 21
119.648301
 31
0.0
  0
LINE
  5
A687
330
A664
100
AcDbEntity
  8
1
  6
Continuous
100
AcDbLine
 10
146.201656
 20
121.495343
 30
0.0
 11
146.201656
 21
119.648301
 31
0.0
  0
LINE
  5
A688
330
A664
100
AcDbEntity
  8
1
  6
Continuous
100
AcDbLine
 10
146.701656
 20
129.9482889999999
 30
0.0
 11
146.701656
 21
120.148301
 31
0.0
  0
LINE
  5
A689
330
A664
100
AcDbEntity
  8
1
  6
Continuous
100
AcDbLine
 10
149.701656
 20
129.9482889999999
 30
0.0
 11
149.701656
 21
120.148301
 31
0.0
  0
LINE
  5
A68A
330
A664
100
AcDbEntity
  8
1
  6
Continuous
100
AcDbLine
 10
154.201656
 20
133.848301
 30
0.0
 11
144.201656
 21
133.848301
 31
0.0
  0
LINE
  5
A68B
330
A664
100
AcDbEntity
  8
1
  6
Continuous
100
AcDbLine
 10
154.201656
 20
135.848301
 30
0.0
 11
144.201656
 21
135.848301
 31
0.0
  0
LINE
  5
A68C
330
A664
100
AcDbEntity
  8
1
  6
Continuous
100
AcDbLine
 10
154.201656
 20
140.8483009999999
 30
0.0
 11
144.201656
 21
140.8483009999999
 31
0.0
  0
LINE
  5
A68D
330
A664
100
AcDbEntity
  8
1
  6
Continuous
100
AcDbLine
 10
144.201656
 20
140.8483009999999
 30
0.0
 11
144.201656
 21
130.4482889999998
 31
0.0
  0
ARC
  5
A68E
330
A664
100
AcDbEntity
  8
1
  6
Continuous
100
AcDbCircle
 10
145.701656
 20
121.495343
 30
0.0
 40
0.5
100
AcDbArc
 50
0.0
 51
34.01935
  0
LINE
  5
A68F
330
A664
100
AcDbEntity
  8
1
  6
Continuous
100
AcDbLine
 10
146.11608
 20
121.7750789999999
 30
0.0
 11
144.9372319999999
 21
123.5215219999999
 31
0.0
  0
ARC
  5
A690
330
A664
100
AcDbEntity
  8
1
  6
Continuous
100
AcDbCircle
 10
145.3516559999999
 20
123.801258
 30
0.0
 40
0.5
100
AcDbArc
 50
180.0
 51
214.01935
  0
LINE
  5
A691
330
A664
100
AcDbEntity
  8
1
  6
Continuous
100
AcDbLine
 10
144.8516559999999
 20
130.4482889999998
 30
0.0
 11
144.8516559999999
 21
123.801258
 31
0.0
  0
LINE
  5
A692
330
A664
100
AcDbEntity
  8
1
  6
Continuous
100
AcDbLine
 10
154.201656
 20
142.3483009999999
 30
0.0
 11
154.201656
 21
130.4482889999998
 31
0.0
  0
LINE
  5
A693
330
A664
100
AcDbEntity
  8
1
  6
Continuous
100
AcDbLine
 10
158.201656
 20
137.8483009999999
 30
0.0
 11
158.201656
 21
136.848301
 31
0.0
  0
LINE
  5
A694
330
A664
100
AcDbEntity
  8
1
  6
Continuous
100
AcDbLine
 10
158.201656
 20
137.8483009999999
 30
0.0
 11
154.201656
 21
137.8483009999999
 31
0.0
  0
LINE
  5
A695
330
A664
100
AcDbEntity
  8
1
  6
Continuous
100
AcDbLine
 10
148.201656
 20
144.048301
 30
0.0
 11
149.901656
 21
142.3483009999999
 31
0.0
  0
LINE
  5
A696
330
A664
100
AcDbEntity
  8
1
  6
Continuous
100
AcDbLine
 10
154.201656
 20
142.3483009999999
 30
0.0
 11
149.901656
 21
142.3483009999999
 31
0.0
  0
ARC
  5
A697
330
A664
100
AcDbEntity
  8
1
  6
Continuous
100
AcDbCircle
 10
150.701656
 20
121.495343
 30
0.0
 40
0.5
100
AcDbArc
 50
145.98065
 51
180.0
  0
LINE
  5
A698
330
A664
100
AcDbEntity
  8
1
  6
Continuous
100
AcDbLine
 10
150.2872319999999
 20
121.7750789999999
 30
0.0
 11
151.46608
 21
123.5215219999999
 31
0.0
  0
ARC
  5
A699
330
A664
100
AcDbEntity
  8
1
  6
Continuous
100
AcDbCircle
 10
150.701656
 20
121.495343
 30
0.0
 40
0.5
100
AcDbArc
 50
145.98065
 51
180.0
  0
ARC
  5
A69A
330
A664
100
AcDbEntity
  8
1
  6
Continuous
100
AcDbCircle
 10
151.051656
 20
123.801258
 30
0.0
 40
0.5
100
AcDbArc
 50
325.98065
 51
0.0
  0
LINE
  5
A69B
330
A664
100
AcDbEntity
  8
1
  6
Continuous
100
AcDbLine
 10
151.551656
 20
130.4482889999998
 30
0.0
 11
151.551656
 21
123.801258
 31
0.0
  0
LINE
  5
A69C
330
A664
100
AcDbEntity
  8
1
  6
Continuous
100
AcDbLine
 10
149.701656
 20
127.848301
 30
0.0
 11
146.701656
 21
127.848301
 31
0.0
  0
LINE
  5
A69D
330
A664
100
AcDbEntity
  8
1
  6
Continuous
100
AcDbLine
 10
158.201656
 20
136.848301
 30
0.0
 11
154.201656
 21
136.848301
 31
0.0
  0
LINE
  5
A69E
330
A664
100
AcDbEntity
  8
1
  6
Continuous
100
AcDbLine
 10
149.201656
 20
118.648301
 30
0.0
 11
147.201656
 21
118.648301
 31
0.0
  0
ARC
  5
A69F
330
A664
100
AcDbEntity
  8
1
  6
Continuous
100
AcDbCircle
 10
148.201656
 20
120.148301
 30
0.0
 40
1.5
100
AcDbArc
 50
180.0
 51
0.0
  0
LINE
  5
A6A0
330
A664
100
AcDbEntity
  8
1
  6
Continuous
100
AcDbLine
 10
148.201656
 20
166.1483009999998
 30
0.0
 11
148.201656
 21
140.8483009999999
 31
0.0
  0
LINE
  5
A6A1
330
A664
100
AcDbEntity
  8
1
  6
Continuous
100
AcDbLine
 10
168.201656
 20
139.3483009999999
 30
0.0
 11
168.201656
 21
138.648301
 31
0.0
  0
LINE
  5
A6A2
330
A664
100
AcDbEntity
  8
1
  6
Continuous
100
AcDbLine
 10
168.201656
 20
138.648301
 30
0.0
 11
154.201656
 21
138.648301
 31
0.0
  0
LINE
  5
A6A3
330
A664
100
AcDbEntity
  8
1
  6
Continuous
100
AcDbLine
 10
167.701656
 20
139.8483009999999
 30
0.0
 11
154.201656
 21
139.8483009999999
 31
0.0
  0
ARC
  5
A6A4
330
A664
100
AcDbEntity
  8
1
  6
Continuous
100
AcDbCircle
 10
167.701656
 20
139.3483009999999
 30
0.0
 40
0.5
100
AcDbArc
 50
0.0
 51
90.0
  0
LINE
  5
A6A5
330
A664
100
AcDbEntity
  8
1
  6
Continuous
100
AcDbLine
 10
144.201656
 20
138.648301
 30
0.0
 11
120.701656
 21
138.648301
 31
0.0
  0
LINE
  5
A6A6
330
A664
100
AcDbEntity
  8
1
  6
Continuous
100
AcDbLine
 10
147.0016559999999
 20
166.1483009999998
 30
0.0
 11
147.0016559999999
 21
140.8483009999999
 31
0.0
  0
LINE
  5
A6A7
330
A664
100
AcDbEntity
  8
1
  6
Continuous
100
AcDbLine
 10
144.201656
 20
139.8483009999999
 30
0.0
 11
120.701656
 21
139.8483009999999
 31
0.0
  0
LINE
  5
A6A8
330
A664
100
AcDbEntity
  8
1
  6
Continuous
100
AcDbLine
 10
355.946196
 20
140.348289
 30
0.0
 11
355.946196
 21
135.8482889999999
 31
0.0
  0
LINE
  5
A6A9
330
A664
100
AcDbEntity
  8
1
  6
Continuous
100
AcDbLine
 10
366.946196
 20
140.348289
 30
0.0
 11
366.946196
 21
135.8482889999999
 31
0.0
  0
LINE
  5
A6AA
330
A664
100
AcDbEntity
  8
1
  6
Continuous
100
AcDbLine
 10
358.846196
 20
138.348289
 30
0.0
 11
358.846196
 21
134.8482889999999
 31
0.0
  0
LINE
  5
A6AB
330
A664
100
AcDbEntity
  8
1
  6
Continuous
100
AcDbLine
 10
364.046196
 20
138.348289
 30
0.0
 11
364.046196
 21
134.8482889999999
 31
0.0
  0
LINE
  5
A6AC
330
A664
100
AcDbEntity
  8
1
  6
Continuous
100
AcDbLine
 10
359.6961959999999
 20
138.6482889999998
 30
0.0
 11
359.6961959999999
 21
134.8482889999999
 31
0.0
  0
LINE
  5
A6AD
330
A664
100
AcDbEntity
  8
1
  6
Continuous
100
AcDbLine
 10
363.1961959999999
 20
138.6482889999998
 30
0.0
 11
363.1961959999999
 21
134.8482889999999
 31
0.0
  0
LINE
  5
A6AE
330
A664
100
AcDbEntity
  8
1
  6
Continuous
100
AcDbLine
 10
363.1961959999999
 20
137.8482889999999
 30
0.0
 11
359.6961959999999
 21
137.8482889999999
 31
0.0
  0
ARC
  5
A6AF
330
A664
100
AcDbEntity
  8
1
  6
Continuous
100
AcDbCircle
 10
356.446196
 20
140.348289
 30
0.0
 40
0.5
100
AcDbArc
 50
90.0
 51
180.0
  0
LINE
  5
A6B0
330
A664
100
AcDbEntity
  8
1
  6
Continuous
100
AcDbLine
 10
366.446196
 20
140.8482889999999
 30
0.0
 11
362.696196
 21
140.8482889999999
 31
0.0
  0
ARC
  5
A6B1
330
A664
100
AcDbEntity
  8
1
  6
Continuous
100
AcDbCircle
 10
366.446196
 20
140.348289
 30
0.0
 40
0.5
100
AcDbArc
 50
0.0
 51
90.0
  0
ARC
  5
A6B2
330
A664
100
AcDbEntity
  8
1
  6
Continuous
100
AcDbCircle
 10
357.6961959999999
 20
139.348289
 30
0.0
 40
0.5
100
AcDbArc
 50
90.0
 51
180.0
  0
LINE
  5
A6B3
330
A664
100
AcDbEntity
  8
1
  6
Continuous
100
AcDbLine
 10
365.1961959999999
 20
139.8482889999999
 30
0.0
 11
357.6961959999999
 21
139.8482889999999
 31
0.0
  0
LINE
  5
A6B4
330
A664
100
AcDbEntity
  8
1
  6
Continuous
100
AcDbLine
 10
357.1961959999999
 20
139.348289
 30
0.0
 11
357.1961959999999
 21
138.348289
 31
0.0
  0
ARC
  5
A6B5
330
A664
100
AcDbEntity
  8
1
  6
Continuous
100
AcDbCircle
 10
365.1961959999999
 20
139.348289
 30
0.0
 40
0.5
100
AcDbArc
 50
0.0
 51
90.0
  0
LINE
  5
A6B6
330
A664
100
AcDbEntity
  8
1
  6
Continuous
100
AcDbLine
 10
365.6961959999999
 20
139.348289
 30
0.0
 11
365.6961959999999
 21
138.348289
 31
0.0
  0
LINE
  5
A6B7
330
A664
100
AcDbEntity
  8
1
  6
Continuous
100
AcDbLine
 10
358.846196
 20
138.348289
 30
0.0
 11
357.1961959999999
 21
138.348289
 31
0.0
  0
LINE
  5
A6B8
330
A664
100
AcDbEntity
  8
1
  6
Continuous
100
AcDbLine
 10
365.6961959999999
 20
138.348289
 30
0.0
 11
364.046196
 21
138.348289
 31
0.0
  0
LINE
  5
A6B9
330
A664
100
AcDbEntity
  8
1
  6
Continuous
100
AcDbLine
 10
362.696196
 20
144.048289
 30
0.0
 11
360.196196
 21
144.048289
 31
0.0
  0
LINE
  5
A6BA
330
A664
100
AcDbEntity
  8
1
  6
Continuous
100
AcDbLine
 10
360.196196
 20
144.048289
 30
0.0
 11
360.196196
 21
140.8482889999999
 31
0.0
  0
LINE
  5
A6BB
330
A664
100
AcDbEntity
  8
1
  6
Continuous
100
AcDbLine
 10
362.696196
 20
144.048289
 30
0.0
 11
362.696196
 21
140.8482889999999
 31
0.0
  0
LINE
  5
A6BC
330
A664
100
AcDbEntity
  8
1
  6
Continuous
100
AcDbLine
 10
362.696196
 20
142.348289
 30
0.0
 11
360.196196
 21
142.348289
 31
0.0
  0
ARC
  5
A6BD
330
A664
100
AcDbEntity
  8
1
  6
Continuous
100
AcDbCircle
 10
362.8961959999998
 20
133.3482889999999
 30
0.0
 40
0.5
100
AcDbArc
 50
90.0
 51
180.0
  0
LINE
  5
A6BE
330
A664
100
AcDbEntity
  8
1
  6
Continuous
100
AcDbLine
 10
362.3961959999999
 20
133.3482889999999
 30
0.0
 11
362.3961959999999
 21
133.248289
 31
0.0
  0
LINE
  5
A6BF
330
A664
100
AcDbEntity
  8
1
  6
Continuous
100
AcDbLine
 10
364.046196
 20
133.8482889999999
 30
0.0
 11
362.8961959999998
 21
133.8482889999999
 31
0.0
  0
ARC
  5
A6C0
330
A664
100
AcDbEntity
  8
1
  6
Continuous
100
AcDbCircle
 10
359.9961959999998
 20
133.3482889999999
 30
0.0
 40
0.5
100
AcDbArc
 50
0.0
 51
90.0
  0
LINE
  5
A6C1
330
A664
100
AcDbEntity
  8
1
  6
Continuous
100
AcDbLine
 10
360.496196
 20
133.3482889999999
 30
0.0
 11
360.496196
 21
133.248289
 31
0.0
  0
LINE
  5
A6C2
330
A664
100
AcDbEntity
  8
1
  6
Continuous
100
AcDbLine
 10
359.9961959999998
 20
133.8482889999999
 30
0.0
 11
358.846196
 21
133.8482889999999
 31
0.0
  0
LINE
  5
A6C3
330
A664
100
AcDbEntity
  8
1
  6
Continuous
100
AcDbLine
 10
358.846196
 20
133.8482889999999
 30
0.0
 11
355.946196
 21
135.8482889999999
 31
0.0
  0
LINE
  5
A6C4
330
A664
100
AcDbEntity
  8
1
  6
Continuous
100
AcDbLine
 10
366.946196
 20
135.8482889999999
 30
0.0
 11
364.046196
 21
133.8482889999999
 31
0.0
  0
LINE
  5
A6C5
330
A664
100
AcDbEntity
  8
1
  6
Continuous
100
AcDbLine
 10
363.1961959999999
 20
136.8482889999999
 30
0.0
 11
359.6961959999999
 21
136.8482889999999
 31
0.0
  0
LINE
  5
A6C6
330
A664
100
AcDbEntity
  8
1
  6
Continuous
100
AcDbLine
 10
364.046196
 20
134.8482889999999
 30
0.0
 11
358.846196
 21
134.8482889999999
 31
0.0
  0
LINE
  5
A6C7
330
A664
100
AcDbEntity
  8
4
  6
CENTER
100
AcDbLine
 10
361.4461959999999
 20
196.048301
 30
0.0
 11
361.4461959999999
 21
113.6482889999999
 31
0.0
  0
LINE
  5
A6C8
330
A664
100
AcDbEntity
  8
1
  6
Continuous
100
AcDbLine
 10
154.237627
 20
240.939724
 30
0.0
 11
154.237627
 21
259.939724
 31
0.0
  0
LINE
  5
A6C9
330
A664
100
AcDbEntity
  8
1
  6
Continuous
100
AcDbLine
 10
154.237627
 20
240.939724
 30
0.0
 11
144.237627
 21
240.939724
 31
0.0
  0
LINE
  5
A6CA
330
A664
100
AcDbEntity
  8
1
  6
Continuous
100
AcDbLine
 10
144.237627
 20
240.939724
 30
0.0
 11
144.237627
 21
246.439724
 31
0.0
  0
LINE
  5
A6CB
330
A664
100
AcDbEntity
  8
1
  6
Continuous
100
AcDbLine
 10
154.237627
 20
259.939724
 30
0.0
 11
144.237627
 21
259.939724
 31
0.0
  0
LINE
  5
A6CC
330
A664
100
AcDbEntity
  8
4
  6
CENTER
100
AcDbLine
 10
296.787656
 20
250.439724
 30
0.0
 11
90.80165599999999
 21
250.439724
 31
0.0
  0
LINE
  5
A6CD
330
A664
100
AcDbEntity
  8
1
  6
Continuous
100
AcDbLine
 10
154.237627
 20
255.189724
 30
0.0
 11
144.237627
 21
255.189724
 31
0.0
  0
LINE
  5
A6CE
330
A664
100
AcDbEntity
  8
1
  6
Continuous
100
AcDbLine
 10
154.237627
 20
245.6897239999999
 30
0.0
 11
144.237627
 21
245.6897239999999
 31
0.0
  0
LINE
  5
A6CF
330
A664
100
AcDbEntity
  8
1
  6
Continuous
100
AcDbLine
 10
154.237627
 20
257.939724
 30
0.0
 11
144.237627
 21
257.939724
 31
0.0
  0
LINE
  5
A6D0
330
A664
100
AcDbEntity
  8
1
  6
Continuous
100
AcDbLine
 10
154.237627
 20
242.939724
 30
0.0
 11
144.237627
 21
242.939724
 31
0.0
  0
LINE
  5
A6D1
330
A664
100
AcDbEntity
  8
1
  6
Continuous
100
AcDbLine
 10
148.201656
 20
246.439724
 30
0.0
 11
148.201656
 21
254.439724
 31
0.0
  0
LINE
  5
A6D2
330
A664
100
AcDbEntity
  8
1
  6
Continuous
100
AcDbLine
 10
149.901656
 20
249.189724
 30
0.0
 11
149.901656
 21
251.689724
 31
0.0
  0
LINE
  5
A6D3
330
A664
100
AcDbEntity
  8
1
  6
Continuous
100
AcDbLine
 10
154.237627
 20
249.189724
 30
0.0
 11
148.201656
 21
249.189724
 31
0.0
  0
LINE
  5
A6D4
330
A664
100
AcDbEntity
  8
1
  6
Continuous
100
AcDbLine
 10
154.237627
 20
251.689724
 30
0.0
 11
148.201656
 21
251.689724
 31
0.0
  0
LINE
  5
A6D5
330
A664
100
AcDbEntity
  8
1
  6
Continuous
100
AcDbLine
 10
95.80165599999999
 20
246.439724
 30
0.0
 11
95.80165599999999
 21
254.439724
 31
0.0
  0
LINE
  5
A6D6
330
A664
100
AcDbEntity
  8
1
  6
Continuous
100
AcDbLine
 10
158.901656
 20
254.439724
 30
0.0
 11
154.237627
 21
254.439724
 31
0.0
  0
LINE
  5
A6D7
330
A664
100
AcDbEntity
  8
1
  6
Continuous
100
AcDbLine
 10
158.901656
 20
246.439724
 30
0.0
 11
154.237627
 21
246.439724
 31
0.0
  0
LINE
  5
A6D8
330
A664
100
AcDbEntity
  8
1
  6
Continuous
100
AcDbLine
 10
144.237627
 20
254.439724
 30
0.0
 11
144.237627
 21
259.939724
 31
0.0
  0
LINE
  5
A6D9
330
A664
100
AcDbEntity
  8
1
  6
Continuous
100
AcDbLine
 10
158.901656
 20
246.439724
 30
0.0
 11
166.4876559999999
 21
248.2459829999999
 31
0.0
  0
LINE
  5
A6DA
330
A664
100
AcDbEntity
  8
1
  6
Continuous
100
AcDbLine
 10
158.901656
 20
254.439724
 30
0.0
 11
166.4876559999999
 21
252.6334649999999
 31
0.0
  0
ARC
  5
A6DB
330
A664
100
AcDbEntity
  8
1
  6
Continuous
100
AcDbCircle
 10
165.9876559999999
 20
250.439724
 30
0.0
 40
2.25
100
AcDbArc
 50
282.839588
 51
77.16041199999998
  0
CIRCLE
  5
A6DC
330
A664
100
AcDbEntity
  8
1
  6
Continuous
100
AcDbCircle
 10
160.4016559999998
 20
250.439724
 30
0.0
 40
1.6
  0
LINE
  5
A6DD
330
A664
100
AcDbEntity
  8
4
  6
CENTER
100
AcDbLine
 10
160.4016559999998
 20
246.8533709999999
 30
0.0
 11
160.4016559999998
 21
254.0260769999999
 31
0.0
  0
LINE
  5
A6DE
330
A664
100
AcDbEntity
  8
1
  6
Continuous
100
AcDbLine
 10
148.201656
 20
254.439724
 30
0.0
 11
95.80165599999999
 21
254.439724
 31
0.0
  0
LINE
  5
A6DF
330
A664
100
AcDbEntity
  8
1
  6
Continuous
100
AcDbLine
 10
148.201656
 20
246.439724
 30
0.0
 11
95.80165599999999
 21
246.439724
 31
0.0
  0
LINE
  5
A6E0
330
A664
100
AcDbEntity
  8
4
  6
CENTER
100
AcDbLine
 10
160.4016559999998
 20
144.8483009999999
 30
0.0
 11
160.4016559999998
 21
133.648301
 31
0.0
  0
LINE
  5
A6E1
330
A664
100
AcDbEntity
  8
1
  6
Continuous
100
AcDbLine
 10
137.151656
 20
248.439724
 30
0.0
 11
137.151656
 21
252.439724
 31
0.0
  0
LINE
  5
A6E2
330
A664
100
AcDbEntity
  8
1
  6
Continuous
100
AcDbLine
 10
135.6516559999998
 20
248.439724
 30
0.0
 11
135.6516559999998
 21
252.439724
 31
0.0
  0
LINE
  5
A6E3
330
A664
100
AcDbEntity
  8
1
  6
Continuous
100
AcDbLine
 10
135.6516559999998
 20
252.439724
 30
0.0
 11
137.151656
 21
252.439724
 31
0.0
  0
LINE
  5
A6E4
330
A664
100
AcDbEntity
  8
1
  6
Continuous
100
AcDbLine
 10
135.6516559999998
 20
248.439724
 30
0.0
 11
137.151656
 21
248.439724
 31
0.0
  0
LINE
  5
A6E5
330
A664
100
AcDbEntity
  8
1
  6
Continuous
100
AcDbLine
 10
140.0516559999998
 20
248.439724
 30
0.0
 11
140.0516559999998
 21
252.439724
 31
0.0
  0
LINE
  5
A6E6
330
A664
100
AcDbEntity
  8
1
  6
Continuous
100
AcDbLine
 10
138.551656
 20
252.439724
 30
0.0
 11
140.0516559999998
 21
252.439724
 31
0.0
  0
LINE
  5
A6E7
330
A664
100
AcDbEntity
  8
1
  6
Continuous
100
AcDbLine
 10
138.551656
 20
248.439724
 30
0.0
 11
138.551656
 21
252.439724
 31
0.0
  0
LINE
  5
A6E8
330
A664
100
AcDbEntity
  8
1
  6
Continuous
100
AcDbLine
 10
138.551656
 20
248.439724
 30
0.0
 11
140.0516559999998
 21
248.439724
 31
0.0
  0
LINE
  5
A6E9
330
A664
100
AcDbEntity
  8
1
  6
Continuous
100
AcDbLine
 10
141.051656
 20
248.439724
 30
0.0
 11
141.051656
 21
252.439724
 31
0.0
  0
LINE
  5
A6EA
330
A664
100
AcDbEntity
  8
1
  6
Continuous
100
AcDbLine
 10
142.551656
 20
248.439724
 30
0.0
 11
142.551656
 21
252.439724
 31
0.0
  0
LINE
  5
A6EB
330
A664
100
AcDbEntity
  8
1
  6
Continuous
100
AcDbLine
 10
141.051656
 20
248.439724
 30
0.0
 11
142.551656
 21
248.439724
 31
0.0
  0
LINE
  5
A6EC
330
A664
100
AcDbEntity
  8
1
  6
Continuous
100
AcDbLine
 10
141.051656
 20
252.439724
 30
0.0
 11
142.551656
 21
252.439724
 31
0.0
  0
LINE
  5
A6ED
330
A664
100
AcDbEntity
  8
1
  6
Continuous
100
AcDbLine
 10
145.1516559999998
 20
248.439724
 30
0.0
 11
145.1516559999998
 21
252.439724
 31
0.0
  0
LINE
  5
A6EE
330
A664
100
AcDbEntity
  8
1
  6
Continuous
100
AcDbLine
 10
143.651656
 20
248.439724
 30
0.0
 11
143.651656
 21
252.439724
 31
0.0
  0
LINE
  5
A6EF
330
A664
100
AcDbEntity
  8
1
  6
Continuous
100
AcDbLine
 10
143.651656
 20
252.439724
 30
0.0
 11
145.1516559999998
 21
252.439724
 31
0.0
  0
LINE
  5
A6F0
330
A664
100
AcDbEntity
  8
1
  6
Continuous
100
AcDbLine
 10
143.651656
 20
248.439724
 30
0.0
 11
145.1516559999998
 21
248.439724
 31
0.0
  0
LINE
  5
A6F1
330
A664
100
AcDbEntity
  8
1
  6
Continuous
100
AcDbLine
 10
146.251656
 20
248.439724
 30
0.0
 11
146.251656
 21
252.439724
 31
0.0
  0
LINE
  5
A6F2
330
A664
100
AcDbEntity
  8
1
  6
Continuous
100
AcDbLine
 10
147.7516559999999
 20
248.439724
 30
0.0
 11
147.7516559999999
 21
252.439724
 31
0.0
  0
LINE
  5
A6F3
330
A664
100
AcDbEntity
  8
1
  6
Continuous
100
AcDbLine
 10
146.251656
 20
252.439724
 30
0.0
 11
147.7516559999999
 21
252.439724
 31
0.0
  0
LINE
  5
A6F4
330
A664
100
AcDbEntity
  8
1
  6
Continuous
100
AcDbLine
 10
146.251656
 20
248.439724
 30
0.0
 11
147.7516559999999
 21
248.439724
 31
0.0
  0
LINE
  5
A6F5
330
A664
100
AcDbEntity
  8
1
  6
Continuous
100
AcDbLine
 10
148.151656
 20
248.439724
 30
0.0
 11
148.151656
 21
252.439724
 31
0.0
  0
LINE
  5
A6F6
330
A664
100
AcDbEntity
  8
1
  6
Continuous
100
AcDbLine
 10
148.151656
 20
248.439724
 30
0.0
 11
148.201656
 21
248.439724
 31
0.0
  0
LINE
  5
A6F7
330
A664
100
AcDbEntity
  8
1
  6
Continuous
100
AcDbLine
 10
148.151656
 20
252.439724
 30
0.0
 11
148.201656
 21
252.439724
 31
0.0
  0
LINE
  5
A6F8
330
A664
100
AcDbEntity
  8
1
  6
Continuous
100
AcDbLine
 10
95.85165600000001
 20
248.439724
 30
0.0
 11
95.85165600000001
 21
252.439724
 31
0.0
  0
LINE
  5
A6F9
330
A664
100
AcDbEntity
  8
1
  6
Continuous
100
AcDbLine
 10
95.85165600000001
 20
252.439724
 30
0.0
 11
95.80165599999999
 21
252.439724
 31
0.0
  0
LINE
  5
A6FA
330
A664
100
AcDbEntity
  8
1
  6
Continuous
100
AcDbLine
 10
95.85165600000001
 20
248.439724
 30
0.0
 11
95.80165599999999
 21
248.439724
 31
0.0
  0
LINE
  5
A6FB
330
A664
100
AcDbEntity
  8
1
  6
Continuous
100
AcDbLine
 10
134.2516559999999
 20
248.439724
 30
0.0
 11
134.2516559999999
 21
252.439724
 31
0.0
  0
LINE
  5
A6FC
330
A664
100
AcDbEntity
  8
1
  6
Continuous
100
AcDbLine
 10
102.951656
 20
248.439724
 30
0.0
 11
102.951656
 21
252.439724
 31
0.0
  0
LINE
  5
A6FD
330
A664
100
AcDbEntity
  8
1
  6
Continuous
100
AcDbLine
 10
101.451656
 20
248.439724
 30
0.0
 11
101.451656
 21
252.439724
 31
0.0
  0
LINE
  5
A6FE
330
A664
100
AcDbEntity
  8
1
  6
Continuous
100
AcDbLine
 10
98.851656
 20
248.439724
 30
0.0
 11
98.851656
 21
252.439724
 31
0.0
  0
LINE
  5
A6FF
330
A664
100
AcDbEntity
  8
1
  6
Continuous
100
AcDbLine
 10
100.351656
 20
248.439724
 30
0.0
 11
100.351656
 21
252.439724
 31
0.0
  0
LINE
  5
A700
330
A664
100
AcDbEntity
  8
1
  6
Continuous
100
AcDbLine
 10
97.75165600000001
 20
248.439724
 30
0.0
 11
97.75165600000001
 21
252.439724
 31
0.0
  0
LINE
  5
A701
330
A664
100
AcDbEntity
  8
1
  6
Continuous
100
AcDbLine
 10
96.25165600000002
 20
248.439724
 30
0.0
 11
96.25165600000002
 21
252.439724
 31
0.0
  0
LINE
  5
A702
330
A664
100
AcDbEntity
  8
1
  6
Continuous
100
AcDbLine
 10
134.2516559999999
 20
248.439724
 30
0.0
 11
132.751656
 21
248.439724
 31
0.0
  0
LINE
  5
A703
330
A664
100
AcDbEntity
  8
1
  6
Continuous
100
AcDbLine
 10
102.951656
 20
248.439724
 30
0.0
 11
101.451656
 21
248.439724
 31
0.0
  0
LINE
  5
A704
330
A664
100
AcDbEntity
  8
1
  6
Continuous
100
AcDbLine
 10
100.351656
 20
248.439724
 30
0.0
 11
98.851656
 21
248.439724
 31
0.0
  0
LINE
  5
A705
330
A664
100
AcDbEntity
  8
1
  6
Continuous
100
AcDbLine
 10
97.75165600000001
 20
248.439724
 30
0.0
 11
96.25165600000002
 21
248.439724
 31
0.0
  0
LINE
  5
A706
330
A664
100
AcDbEntity
  8
1
  6
Continuous
100
AcDbLine
 10
134.2516559999999
 20
252.439724
 30
0.0
 11
132.751656
 21
252.439724
 31
0.0
  0
LINE
  5
A707
330
A664
100
AcDbEntity
  8
1
  6
Continuous
100
AcDbLine
 10
102.951656
 20
252.439724
 30
0.0
 11
101.451656
 21
252.439724
 31
0.0
  0
LINE
  5
A708
330
A664
100
AcDbEntity
  8
1
  6
Continuous
100
AcDbLine
 10
100.351656
 20
252.439724
 30
0.0
 11
98.851656
 21
252.439724
 31
0.0
  0
LINE
  5
A709
330
A664
100
AcDbEntity
  8
1
  6
Continuous
100
AcDbLine
 10
97.75165600000001
 20
252.439724
 30
0.0
 11
96.25165600000002
 21
252.439724
 31
0.0
  0
LINE
  5
A70A
330
A664
100
AcDbEntity
  8
1
  6
Continuous
100
AcDbLine
 10
359.4461959999999
 20
149.6983009999999
 30
0.0
 11
363.4461959999999
 21
149.6983009999999
 31
0.0
  0
LINE
  5
A70B
330
A664
100
AcDbEntity
  8
1
  6
Continuous
100
AcDbLine
 10
359.4461959999999
 20
151.1983009999999
 30
0.0
 11
363.4461959999999
 21
151.1983009999999
 31
0.0
  0
LINE
  5
A70C
330
A664
100
AcDbEntity
  8
1
  6
Continuous
100
AcDbLine
 10
359.4461959999999
 20
151.1983009999999
 30
0.0
 11
359.4461959999999
 21
147.248289
 31
0.0
  0
LINE
  5
A70D
330
A664
100
AcDbEntity
  8
1
  6
Continuous
100
AcDbLine
 10
363.4461959999999
 20
151.1983009999999
 30
0.0
 11
363.4461959999999
 21
147.248289
 31
0.0
  0
LINE
  5
A70E
330
A664
100
AcDbEntity
  8
5
  6
PHANTOM
100
AcDbLine
 10
291.251656
 20
139.8483009999999
 30
0.0
 11
154.201656
 21
139.8483009999999
 31
0.0
  0
LINE
  5
A70F
330
A664
100
AcDbEntity
  8
5
  6
PHANTOM
100
AcDbLine
 10
291.7516560000001
 20
138.648301
 30
0.0
 11
154.201656
 21
138.648301
 31
0.0
  0
LINE
  5
A710
330
A664
100
AcDbEntity
  8
4
  6
CENTER
100
AcDbLine
 10
148.201656
 20
128.8483009999999
 30
0.0
 11
148.201656
 21
115.9768649999999
 31
0.0
  0
ARC
  5
A711
330
A664
100
AcDbEntity
  8
1
  6
Continuous
100
AcDbCircle
 10
165.9876559999999
 20
61.305916
 30
0.0
 40
2.25
100
AcDbArc
 50
282.839588
 51
77.16041199999998
  0
LINE
  5
A712
330
A664
100
AcDbEntity
  8
4
  6
CENTER
100
AcDbLine
 10
160.4016559999998
 20
57.719563
 30
0.0
 11
160.4016559999998
 21
64.892269
 31
0.0
  0
LINE
  5
A713
330
A664
100
AcDbEntity
  8
1
  6
Continuous
100
AcDbLine
 10
154.237627
 20
51.80591599999999
 30
0.0
 11
154.237627
 21
70.80591599999998
 31
0.0
  0
LINE
  5
A714
330
A664
100
AcDbEntity
  8
4
  6
CENTER
100
AcDbLine
 10
296.787656
 20
61.305916
 30
0.0
 11
90.801627
 21
61.305916
 31
0.0
  0
LINE
  5
A715
330
A664
100
AcDbEntity
  8
1
  6
Continuous
100
AcDbLine
 10
154.237627
 20
51.80591599999999
 30
0.0
 11
144.237627
 21
51.80591599999999
 31
0.0
  0
LINE
  5
A716
330
A664
100
AcDbEntity
  8
1
  6
Continuous
100
AcDbLine
 10
158.901656
 20
57.305916
 30
0.0
 11
154.237627
 21
57.305916
 31
0.0
  0
LINE
  5
A717
330
A664
100
AcDbEntity
  8
1
  6
Continuous
100
AcDbLine
 10
158.901656
 20
57.305916
 30
0.0
 11
166.4876559999999
 21
59.112175
 31
0.0
  0
CIRCLE
  5
A718
330
A664
100
AcDbEntity
  8
1
  6
Continuous
100
AcDbCircle
 10
160.4016559999998
 20
61.305916
 30
0.0
 40
1.6
  0
LINE
  5
A719
330
A664
100
AcDbEntity
  8
1
  6
Continuous
100
AcDbLine
 10
154.237627
 20
70.80591599999998
 30
0.0
 11
144.237627
 21
70.80591599999998
 31
0.0
  0
LINE
  5
A71A
330
A664
100
AcDbEntity
  8
1
  6
Continuous
100
AcDbLine
 10
144.237627
 20
51.80591599999999
 30
0.0
 11
144.237627
 21
70.80591599999998
 31
0.0
  0
LINE
  5
A71B
330
A664
100
AcDbEntity
  8
1
  6
Continuous
100
AcDbLine
 10
158.901656
 20
65.305916
 30
0.0
 11
154.237627
 21
65.305916
 31
0.0
  0
LINE
  5
A71C
330
A664
100
AcDbEntity
  8
1
  6
Continuous
100
AcDbLine
 10
158.901656
 20
65.305916
 30
0.0
 11
166.4876559999999
 21
63.49965699999999
 31
0.0
  0
LINE
  5
A71D
330
A664
100
AcDbEntity
  8
4
  6
CENTER
100
AcDbLine
 10
36.35711699999998
 20
196.048301
 30
0.0
 11
36.35711699999998
 21
113.6482889999999
 31
0.0
  0
ARC
  5
A71E
330
A664
100
AcDbEntity
  8
1
  6
Continuous
100
AcDbCircle
 10
41.35711699999997
 20
140.348289
 30
0.0
 40
0.5
100
AcDbArc
 50
0.0
 51
90.0
  0
LINE
  5
A71F
330
A664
100
AcDbEntity
  8
1
  6
Continuous
100
AcDbLine
 10
34.60711699999999
 20
138.6482889999998
 30
0.0
 11
34.60711699999999
 21
134.8482889999999
 31
0.0
  0
LINE
  5
A720
330
A664
100
AcDbEntity
  8
1
  6
Continuous
100
AcDbLine
 10
38.10711699999997
 20
138.6482889999998
 30
0.0
 11
38.10711699999997
 21
134.8482889999999
 31
0.0
  0
LINE
  5
A721
330
A664
100
AcDbEntity
  8
1
  6
Continuous
100
AcDbLine
 10
33.757117
 20
138.348289
 30
0.0
 11
33.757117
 21
134.8482889999999
 31
0.0
  0
LINE
  5
A722
330
A664
100
AcDbEntity
  8
1
  6
Continuous
100
AcDbLine
 10
38.95711699999999
 20
138.348289
 30
0.0
 11
38.95711699999999
 21
134.8482889999999
 31
0.0
  0
LINE
  5
A723
330
A664
100
AcDbEntity
  8
1
  6
Continuous
100
AcDbLine
 10
30.857117
 20
140.348289
 30
0.0
 11
30.857117
 21
135.8482889999999
 31
0.0
  0
LINE
  5
A724
330
A664
100
AcDbEntity
  8
1
  6
Continuous
100
AcDbLine
 10
32.407117
 20
136.5226889999999
 30
0.0
 11
33.757117
 21
136.5226889999999
 31
0.0
  0
LINE
  5
A725
330
A664
100
AcDbEntity
  8
1
  6
Continuous
100
AcDbLine
 10
32.10711699999999
 20
139.348289
 30
0.0
 11
32.10711699999999
 21
136.822689
 31
0.0
  0
ARC
  5
A726
330
A664
100
AcDbEntity
  8
1
  6
Continuous
100
AcDbCircle
 10
32.60711699999998
 20
139.348289
 30
0.0
 40
0.5
100
AcDbArc
 50
119.9999999999999
 51
180.0
  0
ARC
  5
A727
330
A664
100
AcDbEntity
  8
1
  6
Continuous
100
AcDbCircle
 10
31.35711699999999
 20
140.348289
 30
0.0
 40
0.5
100
AcDbArc
 50
90.0
 51
180.0
  0
LINE
  5
A728
330
A664
100
AcDbEntity
  8
1
  6
Continuous
100
AcDbLine
 10
33.757117
 20
134.8482889999999
 30
0.0
 11
34.60711699999999
 21
134.8482889999999
 31
0.0
  0
LINE
  5
A729
330
A664
100
AcDbEntity
  8
1
  6
Continuous
100
AcDbLine
 10
30.857117
 20
135.8482889999999
 30
0.0
 11
33.757117
 21
133.8482889999999
 31
0.0
  0
LINE
  5
A72A
330
A664
100
AcDbEntity
  8
1
  6
Continuous
100
AcDbLine
 10
37.80711699999999
 20
133.8482889999999
 30
0.0
 11
38.95711699999999
 21
133.8482889999999
 31
0.0
  0
LINE
  5
A72B
330
A664
100
AcDbEntity
  8
1
  6
Continuous
100
AcDbLine
 10
37.307117
 20
133.3482889999999
 30
0.0
 11
37.307117
 21
133.248289
 31
0.0
  0
ARC
  5
A72C
330
A664
100
AcDbEntity
  8
1
  6
Continuous
100
AcDbCircle
 10
37.80711699999999
 20
133.3482889999999
 30
0.0
 40
0.5
100
AcDbArc
 50
90.0
 51
180.0
  0
LINE
  5
A72D
330
A664
100
AcDbEntity
  8
1
  6
Continuous
100
AcDbLine
 10
33.757117
 20
133.8482889999999
 30
0.0
 11
34.907117
 21
133.8482889999999
 31
0.0
  0
LINE
  5
A72E
330
A664
100
AcDbEntity
  8
1
  6
Continuous
100
AcDbLine
 10
35.407117
 20
133.3482889999999
 30
0.0
 11
35.407117
 21
133.248289
 31
0.0
  0
ARC
  5
A72F
330
A664
100
AcDbEntity
  8
1
  6
Continuous
100
AcDbCircle
 10
34.907117
 20
133.3482889999999
 30
0.0
 40
0.5
100
AcDbArc
 50
0.0
 51
90.0
  0
LINE
  5
A730
330
A664
100
AcDbEntity
  8
1
  6
Continuous
100
AcDbLine
 10
41.85711699999997
 20
140.348289
 30
0.0
 11
41.85711699999997
 21
135.8482889999999
 31
0.0
  0
LINE
  5
A731
330
A664
100
AcDbEntity
  8
1
  6
Continuous
100
AcDbLine
 10
40.60711699999997
 20
139.348289
 30
0.0
 11
40.60711699999997
 21
136.822689
 31
0.0
  0
ARC
  5
A732
330
A664
100
AcDbEntity
  8
1
  6
Continuous
100
AcDbCircle
 10
40.10711699999997
 20
139.348289
 30
0.0
 40
0.5
100
AcDbArc
 50
0.0
 51
60.0
  0
LINE
  5
A733
330
A664
100
AcDbEntity
  8
1
  6
Continuous
100
AcDbLine
 10
31.35711699999999
 20
140.8482889999999
 30
0.0
 11
32.35711699999999
 21
140.8482889999999
 31
0.0
  0
LINE
  5
A734
330
A664
100
AcDbEntity
  8
1
  6
Continuous
100
AcDbLine
 10
38.95711699999999
 20
133.8482889999999
 30
0.0
 11
41.85711699999997
 21
135.8482889999999
 31
0.0
  0
LINE
  5
A735
330
A664
100
AcDbEntity
  8
1
  6
Continuous
100
AcDbLine
 10
365.4461959999999
 20
138.6482889999998
 30
0.0
 11
357.4461959999999
 21
138.6482889999998
 31
0.0
  0
LINE
  5
A736
330
A664
100
AcDbEntity
  8
1
  6
Continuous
100
AcDbLine
 10
365.4461959999999
 20
139.781302
 30
0.0
 11
365.4461959999999
 21
138.6482889999998
 31
0.0
  0
LINE
  5
A737
330
A664
100
AcDbEntity
  8
1
  6
Continuous
100
AcDbLine
 10
357.4461959999999
 20
139.781302
 30
0.0
 11
357.4461959999999
 21
138.6482889999998
 31
0.0
  0
LINE
  5
A738
330
A664
100
AcDbEntity
  8
1
  6
Continuous
100
AcDbLine
 10
32.35711699999999
 20
138.6482889999998
 30
0.0
 11
40.35711699999999
 21
138.6482889999998
 31
0.0
  0
LINE
  5
A739
330
A664
100
AcDbEntity
  8
1
  6
Continuous
100
AcDbLine
 10
158.237627
 20
63.305916
 30
0.0
 11
154.237627
 21
63.305916
 31
0.0
  0
LINE
  5
A73A
330
A664
100
AcDbEntity
  8
1
  6
Continuous
100
AcDbLine
 10
158.237627
 20
59.305916
 30
0.0
 11
154.237627
 21
59.305916
 31
0.0
  0
LINE
  5
A73B
330
A664
100
AcDbEntity
  8
1
  6
Continuous
100
AcDbLine
 10
154.237627
 20
66.80591599999999
 30
0.0
 11
144.237627
 21
66.80591599999999
 31
0.0
  0
LINE
  5
A73C
330
A664
100
AcDbEntity
  8
1
  6
Continuous
100
AcDbLine
 10
154.237627
 20
55.805916
 30
0.0
 11
144.237627
 21
55.805916
 31
0.0
  0
LINE
  5
A73D
330
A664
100
AcDbEntity
  8
4
  6
CENTER
100
AcDbLine
 10
148.237627
 20
51.80591599999999
 30
0.0
 11
148.237627
 21
70.80591599999998
 31
0.0
  0
LINE
  5
A73E
330
A664
100
AcDbEntity
  8
1
  6
Continuous
100
AcDbLine
 10
144.887627
 20
60.355916
 30
0.0
 11
144.887627
 21
62.25591600000001
 31
0.0
  0
LINE
  5
A73F
330
A664
100
AcDbEntity
  8
1
  6
Continuous
100
AcDbLine
 10
151.5876269999999
 20
60.355916
 30
0.0
 11
151.5876269999999
 21
62.25591600000001
 31
0.0
  0
LINE
  5
A740
330
A664
100
AcDbEntity
  8
1
  6
Continuous
100
AcDbLine
 10
149.737627
 20
66.30591599999999
 30
0.0
 11
146.737627
 21
66.30591599999999
 31
0.0
  0
LINE
  5
A741
330
A664
100
AcDbEntity
  8
1
  6
Continuous
100
AcDbLine
 10
149.737627
 20
56.305916
 30
0.0
 11
146.737627
 21
56.305916
 31
0.0
  0
LINE
  5
A742
330
A664
100
AcDbEntity
  8
1
  6
Continuous
100
AcDbLine
 10
146.737627
 20
56.305916
 30
0.0
 11
146.737627
 21
60.355916
 31
0.0
  0
LINE
  5
A743
330
A664
100
AcDbEntity
  8
1
  6
Continuous
100
AcDbLine
 10
149.737627
 20
56.305916
 30
0.0
 11
149.737627
 21
60.355916
 31
0.0
  0
LINE
  5
A744
330
A664
100
AcDbEntity
  8
1
  6
Continuous
100
AcDbLine
 10
146.237627
 20
60.355916
 30
0.0
 11
146.237627
 21
62.25591600000001
 31
0.0
  0
LINE
  5
A745
330
A664
100
AcDbEntity
  8
1
  6
Continuous
100
AcDbLine
 10
150.237627
 20
60.355916
 30
0.0
 11
150.237627
 21
62.25591600000001
 31
0.0
  0
LINE
  5
A746
330
A664
100
AcDbEntity
  8
1
  6
Continuous
100
AcDbLine
 10
149.737627
 20
62.25591600000001
 30
0.0
 11
149.737627
 21
66.30591599999999
 31
0.0
  0
LINE
  5
A747
330
A664
100
AcDbEntity
  8
1
  6
Continuous
100
AcDbLine
 10
146.737627
 20
62.25591600000001
 30
0.0
 11
146.737627
 21
66.30591599999999
 31
0.0
  0
LINE
  5
A748
330
A664
100
AcDbEntity
  8
1
  6
Continuous
100
AcDbLine
 10
158.237627
 20
59.305916
 30
0.0
 11
158.237627
 21
63.305916
 31
0.0
  0
LINE
  5
A749
330
A664
100
AcDbEntity
  8
1
  6
Continuous
100
AcDbLine
 10
151.5876269999999
 20
62.25591600000001
 30
0.0
 11
149.737627
 21
62.25591600000001
 31
0.0
  0
LINE
  5
A74A
330
A664
100
AcDbEntity
  8
1
  6
Continuous
100
AcDbLine
 10
151.5876269999999
 20
60.355916
 30
0.0
 11
149.737627
 21
60.355916
 31
0.0
  0
LINE
  5
A74B
330
A664
100
AcDbEntity
  8
1
  6
Continuous
100
AcDbLine
 10
146.737627
 20
62.25591600000001
 30
0.0
 11
144.887627
 21
62.25591600000001
 31
0.0
  0
LINE
  5
A74C
330
A664
100
AcDbEntity
  8
1
  6
Continuous
100
AcDbLine
 10
146.737627
 20
60.355916
 30
0.0
 11
144.887627
 21
60.355916
 31
0.0
  0
ARC
  5
A74D
330
A664
100
AcDbEntity
  8
5
  6
PHANTOM
100
AcDbCircle
 10
142.001656
 20
144.8483009999999
 30
0.0
 40
5.0
100
AcDbArc
 50
0.0
 51
270.0
  0
LINE
  5
A74E
330
A664
100
AcDbEntity
  8
5
  6
PHANTOM
100
AcDbLine
 10
147.0016559999999
 20
144.8483009999999
 30
0.0
 11
147.0016559999999
 21
140.8483009999999
 31
0.0
  0
LINE
  5
A74F
330
A664
100
AcDbEntity
  8
5
  6
PHANTOM
100
AcDbLine
 10
142.001656
 20
139.8483009999999
 30
0.0
 11
144.201656
 21
139.8483009999999
 31
0.0
  0
ARC
  5
A750
330
A664
100
AcDbEntity
  8
5
  6
PHANTOM
100
AcDbCircle
 10
142.001656
 20
144.8483009999999
 30
0.0
 40
6.2
100
AcDbArc
 50
0.0
 51
270.0
  0
LINE
  5
A751
330
A664
100
AcDbEntity
  8
5
  6
PHANTOM
100
AcDbLine
 10
148.201656
 20
144.8483009999999
 30
0.0
 11
148.201656
 21
140.8483009999999
 31
0.0
  0
LINE
  5
A752
330
A664
100
AcDbEntity
  8
5
  6
PHANTOM
100
AcDbLine
 10
142.001656
 20
138.648301
 30
0.0
 11
144.201656
 21
138.648301
 31
0.0
  0
LINE
  5
A753
330
A664
100
AcDbEntity
  8
1
  6
Continuous
100
AcDbLine
 10
38.95711699999999
 20
136.5226889999999
 30
0.0
 11
40.307117
 21
136.5226889999999
 31
0.0
  0
LINE
  5
A754
330
A664
100
AcDbEntity
  8
1
  6
Continuous
100
AcDbLine
 10
34.60711699999999
 20
136.1482889999998
 30
0.0
 11
38.10711699999997
 21
136.1482889999998
 31
0.0
  0
LINE
  5
A755
330
A664
100
AcDbEntity
  8
1
  6
Continuous
100
AcDbLine
 10
33.757117
 20
138.348289
 30
0.0
 11
32.10711699999999
 21
138.348289
 31
0.0
  0
LINE
  5
A756
330
A664
100
AcDbEntity
  8
1
  6
Continuous
100
AcDbLine
 10
40.60711699999997
 20
138.348289
 30
0.0
 11
38.95711699999999
 21
138.348289
 31
0.0
  0
ARC
  5
A757
330
A664
100
AcDbEntity
  8
1
  6
Continuous
100
AcDbCircle
 10
40.307117
 20
136.822689
 30
0.0
 40
0.3
100
AcDbArc
 50
270.0
 51
0.0
  0
ARC
  5
A758
330
A664
100
AcDbEntity
  8
1
  6
Continuous
100
AcDbCircle
 10
32.407117
 20
136.822689
 30
0.0
 40
0.3
100
AcDbArc
 50
180.0
 51
270.0
  0
LINE
  5
A759
330
A664
100
AcDbEntity
  8
1
  6
Continuous
100
AcDbLine
 10
40.35711699999999
 20
140.8482889999999
 30
0.0
 11
41.35711699999997
 21
140.8482889999999
 31
0.0
  0
LINE
  5
A75A
330
A664
100
AcDbEntity
  8
5
  6
PHANTOM
100
AcDbLine
 10
365.4462099999999
 20
151.04826
 30
0.0
 11
357.44621
 21
151.04826
 31
0.0
  0
LINE
  5
A75B
330
A664
100
AcDbEntity
  8
5
  6
PHANTOM
100
AcDbLine
 10
363.44621
 20
150.9982599999999
 30
0.0
 11
359.44621
 21
150.9982599999999
 31
0.0
  0
LINE
  5
A75C
330
A664
100
AcDbEntity
  8
5
  6
PHANTOM
100
AcDbLine
 10
365.4462099999999
 20
138.6482599999999
 30
0.0
 11
357.44621
 21
138.6482599999999
 31
0.0
  0
LINE
  5
A75D
330
A664
100
AcDbEntity
  8
5
  6
PHANTOM
100
AcDbLine
 10
365.4462099999999
 20
151.04826
 30
0.0
 11
365.4462099999999
 21
140.8482889999999
 31
0.0
  0
LINE
  5
A75E
330
A664
100
AcDbEntity
  8
5
  6
PHANTOM
100
AcDbLine
 10
357.44621
 20
151.04826
 30
0.0
 11
357.44621
 21
140.8482889999999
 31
0.0
  0
LINE
  5
A75F
330
A664
100
AcDbEntity
  8
5
  6
PHANTOM
100
AcDbLine
 10
359.44621
 20
150.9982599999999
 30
0.0
 11
359.44621
 21
151.04826
 31
0.0
  0
LINE
  5
A760
330
A664
100
AcDbEntity
  8
5
  6
PHANTOM
100
AcDbLine
 10
148.201656
 20
254.439724
 30
0.0
 11
135.801656
 21
254.439724
 31
0.0
  0
LINE
  5
A761
330
A664
100
AcDbEntity
  8
5
  6
PHANTOM
100
AcDbLine
 10
148.201656
 20
246.439724
 30
0.0
 11
135.801656
 21
246.439724
 31
0.0
  0
LINE
  5
A762
330
A664
100
AcDbEntity
  8
5
  6
PHANTOM
100
AcDbLine
 10
135.801656
 20
246.439724
 30
0.0
 11
135.801656
 21
254.439724
 31
0.0
  0
LINE
  5
A763
330
A664
100
AcDbEntity
  8
5
  6
PHANTOM
100
AcDbLine
 10
135.8516559999999
 20
248.439724
 30
0.0
 11
135.8516559999999
 21
252.439724
 31
0.0
  0
LINE
  5
A764
330
A664
100
AcDbEntity
  8
5
  6
PHANTOM
100
AcDbLine
 10
135.8516559999999
 20
252.439724
 30
0.0
 11
135.801656
 21
252.439724
 31
0.0
  0
LINE
  5
A765
330
A664
100
AcDbEntity
  8
5
  6
PHANTOM
100
AcDbLine
 10
148.201656
 20
246.439724
 30
0.0
 11
148.201656
 21
254.439724
 31
0.0
  0
LINE
  5
A766
330
A664
100
AcDbEntity
  8
5
  6
PHANTOM
100
AcDbLine
 10
148.151656
 20
248.439724
 30
0.0
 11
148.151656
 21
252.439724
 31
0.0
  0
LINE
  5
A767
330
A664
100
AcDbEntity
  8
5
  6
PHANTOM
100
AcDbLine
 10
148.151656
 20
252.439724
 30
0.0
 11
148.201656
 21
252.439724
 31
0.0
  0
LINE
  5
A768
330
A664
100
AcDbEntity
  8
5
  6
PHANTOM
100
AcDbLine
 10
144.237627
 20
57.305916
 30
0.0
 11
135.8376269999999
 21
57.305916
 31
0.0
  0
LINE
  5
A769
330
A664
100
AcDbEntity
  8
5
  6
PHANTOM
100
AcDbLine
 10
144.237627
 20
65.305916
 30
0.0
 11
135.8376269999999
 21
65.305916
 31
0.0
  0
LINE
  5
A76A
330
A664
100
AcDbEntity
  8
5
  6
PHANTOM
100
AcDbLine
 10
135.887627
 20
63.305916
 30
0.0
 11
135.8376269999999
 21
63.305916
 31
0.0
  0
LINE
  5
A76B
330
A664
100
AcDbEntity
  8
5
  6
PHANTOM
100
AcDbLine
 10
135.887627
 20
59.305916
 30
0.0
 11
135.887627
 21
63.305916
 31
0.0
  0
LINE
  5
A76C
330
A664
100
AcDbEntity
  8
5
  6
PHANTOM
100
AcDbLine
 10
135.8376269999999
 20
57.305916
 30
0.0
 11
135.8376269999999
 21
65.305916
 31
0.0
  0
LINE
  5
A76D
330
A664
100
AcDbEntity
  8
5
  6
PHANTOM
100
AcDbLine
 10
148.151656
 20
248.439724
 30
0.0
 11
148.201656
 21
248.439724
 31
0.0
  0
LINE
  5
A76E
330
A664
100
AcDbEntity
  8
5
  6
PHANTOM
100
AcDbLine
 10
40.35711699999999
 20
151.0482889999998
 30
0.0
 11
40.35711699999999
 21
138.6482889999998
 31
0.0
  0
LINE
  5
A76F
330
A664
100
AcDbEntity
  8
5
  6
PHANTOM
100
AcDbLine
 10
32.35711699999999
 20
151.0482889999998
 30
0.0
 11
32.35711699999999
 21
138.6482889999998
 31
0.0
  0
LINE
  5
A770
330
A664
100
AcDbEntity
  8
5
  6
PHANTOM
100
AcDbLine
 10
34.35711699999998
 20
138.6982889999998
 30
0.0
 11
34.35711699999998
 21
138.6482889999998
 31
0.0
  0
LINE
  5
A771
330
A664
100
AcDbEntity
  8
5
  6
PHANTOM
100
AcDbLine
 10
40.35711699999999
 20
138.6482889999998
 30
0.0
 11
32.35711699999999
 21
138.6482889999998
 31
0.0
  0
LINE
  5
A772
330
A664
100
AcDbEntity
  8
5
  6
PHANTOM
100
AcDbLine
 10
38.35711699999999
 20
138.6982889999998
 30
0.0
 11
34.35711699999998
 21
138.6982889999998
 31
0.0
  0
LINE
  5
A773
330
A664
100
AcDbEntity
  8
5
  6
PHANTOM
100
AcDbLine
 10
34.35711699999998
 20
150.998289
 30
0.0
 11
34.35711699999998
 21
151.0482889999998
 31
0.0
  0
LINE
  5
A774
330
A664
100
AcDbEntity
  8
5
  6
PHANTOM
100
AcDbLine
 10
40.35711699999999
 20
151.0482889999998
 30
0.0
 11
32.35711699999999
 21
151.0482889999998
 31
0.0
  0
LINE
  5
A775
330
A664
100
AcDbEntity
  8
5
  6
PHANTOM
100
AcDbLine
 10
38.35711699999999
 20
150.998289
 30
0.0
 11
34.35711699999998
 21
150.998289
 31
0.0
  0
LINE
  5
A776
330
A664
100
AcDbEntity
  8
5
  6
PHANTOM
100
AcDbLine
 10
38.35711699999999
 20
138.6982889999998
 30
0.0
 11
38.35711699999999
 21
138.6482889999998
 31
0.0
  0
LINE
  5
A777
330
A664
100
AcDbEntity
  8
5
  6
PHANTOM
100
AcDbLine
 10
135.8516559999999
 20
248.439724
 30
0.0
 11
135.801656
 21
248.439724
 31
0.0
  0
LINE
  5
A778
330
A664
100
AcDbEntity
  8
5
  6
PHANTOM
100
AcDbLine
 10
38.35711699999999
 20
150.998289
 30
0.0
 11
38.35711699999999
 21
151.0482889999998
 31
0.0
  0
LINE
  5
A779
330
A664
100
AcDbEntity
  8
5
  6
PHANTOM
100
AcDbLine
 10
363.44621
 20
150.9982599999999
 30
0.0
 11
363.44621
 21
151.04826
 31
0.0
  0
LINE
  5
A77A
330
A664
100
AcDbEntity
  8
5
  6
PHANTOM
100
AcDbLine
 10
135.887627
 20
59.305916
 30
0.0
 11
135.8376269999999
 21
59.305916
 31
0.0
  0
LINE
  5
A77B
330
A664
100
AcDbEntity
  8
4
  6
CENTER
100
AcDbLine
 10
132.633507
 20
144.8483009999999
 30
0.0
 11
151.5321679999999
 21
144.8483009999999
 31
0.0
  0
LINE
  5
A77C
330
A664
100
AcDbEntity
  8
4
  6
CENTER
100
AcDbLine
 10
142.001656
 20
135.480151
 30
0.0
 11
142.001656
 21
154.3788129999998
 31
0.0
  0
LINE
  5
A77D
330
A664
100
AcDbEntity
  8
1
  6
Continuous
100
AcDbLine
 10
105.4516559999999
 20
252.439724
 30
0.0
 11
103.951656
 21
252.439724
 31
0.0
  0
LINE
  5
A77E
330
A664
100
AcDbEntity
  8
1
  6
Continuous
100
AcDbLine
 10
105.4516559999999
 20
248.439724
 30
0.0
 11
103.951656
 21
248.439724
 31
0.0
  0
LINE
  5
A77F
330
A664
100
AcDbEntity
  8
1
  6
Continuous
100
AcDbLine
 10
105.4516559999999
 20
248.439724
 30
0.0
 11
105.4516559999999
 21
252.439724
 31
0.0
  0
LINE
  5
A780
330
A664
100
AcDbEntity
  8
1
  6
Continuous
100
AcDbLine
 10
103.951656
 20
248.439724
 30
0.0
 11
103.951656
 21
252.439724
 31
0.0
  0
LINE
  5
A781
330
A664
100
AcDbEntity
  8
1
  6
Continuous
100
AcDbLine
 10
107.951656
 20
252.439724
 30
0.0
 11
106.4516559999999
 21
252.439724
 31
0.0
  0
LINE
  5
A782
330
A664
100
AcDbEntity
  8
1
  6
Continuous
100
AcDbLine
 10
107.951656
 20
248.439724
 30
0.0
 11
106.4516559999999
 21
248.439724
 31
0.0
  0
LINE
  5
A783
330
A664
100
AcDbEntity
  8
1
  6
Continuous
100
AcDbLine
 10
107.951656
 20
248.439724
 30
0.0
 11
107.951656
 21
252.439724
 31
0.0
  0
LINE
  5
A784
330
A664
100
AcDbEntity
  8
1
  6
Continuous
100
AcDbLine
 10
106.4516559999999
 20
248.439724
 30
0.0
 11
106.4516559999999
 21
252.439724
 31
0.0
  0
LINE
  5
A785
330
A664
100
AcDbEntity
  8
1
  6
Continuous
100
AcDbLine
 10
110.4516559999999
 20
252.439724
 30
0.0
 11
108.951656
 21
252.439724
 31
0.0
  0
LINE
  5
A786
330
A664
100
AcDbEntity
  8
1
  6
Continuous
100
AcDbLine
 10
110.4516559999999
 20
248.439724
 30
0.0
 11
108.951656
 21
248.439724
 31
0.0
  0
LINE
  5
A787
330
A664
100
AcDbEntity
  8
1
  6
Continuous
100
AcDbLine
 10
110.4516559999999
 20
248.439724
 30
0.0
 11
110.4516559999999
 21
252.439724
 31
0.0
  0
LINE
  5
A788
330
A664
100
AcDbEntity
  8
1
  6
Continuous
100
AcDbLine
 10
108.951656
 20
248.439724
 30
0.0
 11
108.951656
 21
252.439724
 31
0.0
  0
LINE
  5
A789
330
A664
100
AcDbEntity
  8
1
  6
Continuous
100
AcDbLine
 10
112.951656
 20
252.439724
 30
0.0
 11
111.4516559999999
 21
252.439724
 31
0.0
  0
LINE
  5
A78A
330
A664
100
AcDbEntity
  8
1
  6
Continuous
100
AcDbLine
 10
112.951656
 20
248.439724
 30
0.0
 11
111.4516559999999
 21
248.439724
 31
0.0
  0
LINE
  5
A78B
330
A664
100
AcDbEntity
  8
1
  6
Continuous
100
AcDbLine
 10
112.951656
 20
248.439724
 30
0.0
 11
112.951656
 21
252.439724
 31
0.0
  0
LINE
  5
A78C
330
A664
100
AcDbEntity
  8
1
  6
Continuous
100
AcDbLine
 10
111.4516559999999
 20
248.439724
 30
0.0
 11
111.4516559999999
 21
252.439724
 31
0.0
  0
LINE
  5
A78D
330
A664
100
AcDbEntity
  8
1
  6
Continuous
100
AcDbLine
 10
115.451656
 20
252.439724
 30
0.0
 11
113.951656
 21
252.439724
 31
0.0
  0
LINE
  5
A78E
330
A664
100
AcDbEntity
  8
1
  6
Continuous
100
AcDbLine
 10
115.451656
 20
248.439724
 30
0.0
 11
113.951656
 21
248.439724
 31
0.0
  0
LINE
  5
A78F
330
A664
100
AcDbEntity
  8
1
  6
Continuous
100
AcDbLine
 10
115.451656
 20
248.439724
 30
0.0
 11
115.451656
 21
252.439724
 31
0.0
  0
LINE
  5
A790
330
A664
100
AcDbEntity
  8
1
  6
Continuous
100
AcDbLine
 10
113.951656
 20
248.439724
 30
0.0
 11
113.951656
 21
252.439724
 31
0.0
  0
LINE
  5
A791
330
A664
100
AcDbEntity
  8
1
  6
Continuous
100
AcDbLine
 10
117.9516559999999
 20
252.439724
 30
0.0
 11
116.451656
 21
252.439724
 31
0.0
  0
LINE
  5
A792
330
A664
100
AcDbEntity
  8
1
  6
Continuous
100
AcDbLine
 10
117.9516559999999
 20
248.439724
 30
0.0
 11
116.451656
 21
248.439724
 31
0.0
  0
LINE
  5
A793
330
A664
100
AcDbEntity
  8
1
  6
Continuous
100
AcDbLine
 10
117.9516559999999
 20
248.439724
 30
0.0
 11
117.9516559999999
 21
252.439724
 31
0.0
  0
LINE
  5
A794
330
A664
100
AcDbEntity
  8
1
  6
Continuous
100
AcDbLine
 10
116.451656
 20
248.439724
 30
0.0
 11
116.451656
 21
252.439724
 31
0.0
  0
LINE
  5
A795
330
A664
100
AcDbEntity
  8
1
  6
Continuous
100
AcDbLine
 10
120.451656
 20
252.439724
 30
0.0
 11
118.9516559999999
 21
252.439724
 31
0.0
  0
LINE
  5
A796
330
A664
100
AcDbEntity
  8
1
  6
Continuous
100
AcDbLine
 10
120.451656
 20
248.439724
 30
0.0
 11
118.9516559999999
 21
248.439724
 31
0.0
  0
LINE
  5
A797
330
A664
100
AcDbEntity
  8
1
  6
Continuous
100
AcDbLine
 10
120.451656
 20
248.439724
 30
0.0
 11
120.451656
 21
252.439724
 31
0.0
  0
LINE
  5
A798
330
A664
100
AcDbEntity
  8
1
  6
Continuous
100
AcDbLine
 10
118.9516559999999
 20
248.439724
 30
0.0
 11
118.9516559999999
 21
252.439724
 31
0.0
  0
LINE
  5
A799
330
A664
100
AcDbEntity
  8
1
  6
Continuous
100
AcDbLine
 10
123.1849079999999
 20
252.439724
 30
0.0
 11
121.684908
 21
252.439724
 31
0.0
  0
LINE
  5
A79A
330
A664
100
AcDbEntity
  8
1
  6
Continuous
100
AcDbLine
 10
123.1849079999999
 20
248.439724
 30
0.0
 11
121.684908
 21
248.439724
 31
0.0
  0
LINE
  5
A79B
330
A664
100
AcDbEntity
  8
1
  6
Continuous
100
AcDbLine
 10
123.1849079999999
 20
248.439724
 30
0.0
 11
123.1849079999999
 21
252.439724
 31
0.0
  0
LINE
  5
A79C
330
A664
100
AcDbEntity
  8
1
  6
Continuous
100
AcDbLine
 10
121.684908
 20
248.439724
 30
0.0
 11
121.684908
 21
252.439724
 31
0.0
  0
LINE
  5
A79D
330
A664
100
AcDbEntity
  8
1
  6
Continuous
100
AcDbLine
 10
124.684908
 20
248.439724
 30
0.0
 11
124.684908
 21
252.439724
 31
0.0
  0
LINE
  5
A79E
330
A664
100
AcDbEntity
  8
1
  6
Continuous
100
AcDbLine
 10
126.1849079999999
 20
248.439724
 30
0.0
 11
126.1849079999999
 21
252.439724
 31
0.0
  0
LINE
  5
A79F
330
A664
100
AcDbEntity
  8
1
  6
Continuous
100
AcDbLine
 10
126.1849079999999
 20
248.439724
 30
0.0
 11
124.684908
 21
248.439724
 31
0.0
  0
LINE
  5
A7A0
330
A664
100
AcDbEntity
  8
1
  6
Continuous
100
AcDbLine
 10
126.1849079999999
 20
252.439724
 30
0.0
 11
124.684908
 21
252.439724
 31
0.0
  0
LINE
  5
A7A1
330
A664
100
AcDbEntity
  8
1
  6
Continuous
100
AcDbLine
 10
127.1849079999999
 20
248.439724
 30
0.0
 11
127.1849079999999
 21
252.439724
 31
0.0
  0
LINE
  5
A7A2
330
A664
100
AcDbEntity
  8
1
  6
Continuous
100
AcDbLine
 10
128.684908
 20
248.439724
 30
0.0
 11
128.684908
 21
252.439724
 31
0.0
  0
LINE
  5
A7A3
330
A664
100
AcDbEntity
  8
1
  6
Continuous
100
AcDbLine
 10
128.684908
 20
248.439724
 30
0.0
 11
127.1849079999999
 21
248.439724
 31
0.0
  0
LINE
  5
A7A4
330
A664
100
AcDbEntity
  8
1
  6
Continuous
100
AcDbLine
 10
128.684908
 20
252.439724
 30
0.0
 11
127.1849079999999
 21
252.439724
 31
0.0
  0
LINE
  5
A7A5
330
A664
100
AcDbEntity
  8
1
  6
Continuous
100
AcDbLine
 10
129.684908
 20
248.439724
 30
0.0
 11
129.684908
 21
252.439724
 31
0.0
  0
LINE
  5
A7A6
330
A664
100
AcDbEntity
  8
1
  6
Continuous
100
AcDbLine
 10
131.184908
 20
248.439724
 30
0.0
 11
131.184908
 21
252.439724
 31
0.0
  0
LINE
  5
A7A7
330
A664
100
AcDbEntity
  8
1
  6
Continuous
100
AcDbLine
 10
131.184908
 20
248.439724
 30
0.0
 11
129.684908
 21
248.439724
 31
0.0
  0
LINE
  5
A7A8
330
A664
100
AcDbEntity
  8
1
  6
Continuous
100
AcDbLine
 10
131.184908
 20
252.439724
 30
0.0
 11
129.684908
 21
252.439724
 31
0.0
  0
LINE
  5
A7A9
330
A664
100
AcDbEntity
  8
1
  6
Continuous
100
AcDbLine
 10
132.751656
 20
252.439724
 30
0.0
 11
132.751656
 21
248.439724
 31
0.0
  0
LINE
  5
A7AA
330
A664
100
AcDbEntity
  8
1
  6
Continuous
100
AcDbLine
 10
357.4461959999999
 20
191.048301
 30
0.0
 11
357.4461959999999
 21
140.8483009999999
 31
0.0
  0
LINE
  5
A7AB
330
A664
100
AcDbEntity
  8
1
  6
Continuous
100
AcDbLine
 10
365.4461959999999
 20
191.048301
 30
0.0
 11
365.4461959999999
 21
140.8483009999999
 31
0.0
  0
LINE
  5
A7AC
330
A664
100
AcDbEntity
  8
1
  6
Continuous
100
AcDbLine
 10
363.4461959999999
 20
154.298301
 30
0.0
 11
359.4461959999999
 21
154.298301
 31
0.0
  0
LINE
  5
A7AD
330
A664
100
AcDbEntity
  8
1
  6
Continuous
100
AcDbLine
 10
363.4461959999999
 20
155.798301
 30
0.0
 11
359.4461959999999
 21
155.798301
 31
0.0
  0
LINE
  5
A7AE
330
A664
100
AcDbEntity
  8
1
  6
Continuous
100
AcDbLine
 10
363.4461959999999
 20
155.798301
 30
0.0
 11
363.4461959999999
 21
154.298301
 31
0.0
  0
LINE
  5
A7AF
330
A664
100
AcDbEntity
  8
1
  6
Continuous
100
AcDbLine
 10
359.4461959999999
 20
155.798301
 30
0.0
 11
359.4461959999999
 21
154.298301
 31
0.0
  0
LINE
  5
A7B0
330
A664
100
AcDbEntity
  8
1
  6
Continuous
100
AcDbLine
 10
363.4461959999999
 20
151.798301
 30
0.0
 11
359.4461959999999
 21
151.798301
 31
0.0
  0
LINE
  5
A7B1
330
A664
100
AcDbEntity
  8
1
  6
Continuous
100
AcDbLine
 10
363.4461959999999
 20
153.298301
 30
0.0
 11
359.4461959999999
 21
153.298301
 31
0.0
  0
LINE
  5
A7B2
330
A664
100
AcDbEntity
  8
1
  6
Continuous
100
AcDbLine
 10
363.4461959999999
 20
153.298301
 30
0.0
 11
363.4461959999999
 21
151.798301
 31
0.0
  0
LINE
  5
A7B3
330
A664
100
AcDbEntity
  8
1
  6
Continuous
100
AcDbLine
 10
359.4461959999999
 20
153.298301
 30
0.0
 11
359.4461959999999
 21
151.798301
 31
0.0
  0
LINE
  5
A7B4
330
A664
100
AcDbEntity
  8
1
  6
Continuous
100
AcDbLine
 10
363.4461959999999
 20
150.798301
 30
0.0
 11
363.4461959999999
 21
149.298301
 31
0.0
  0
LINE
  5
A7B5
330
A664
100
AcDbEntity
  8
1
  6
Continuous
100
AcDbLine
 10
359.4461959999999
 20
150.798301
 30
0.0
 11
359.4461959999999
 21
149.298301
 31
0.0
  0
LINE
  5
A7B6
330
A664
100
AcDbEntity
  8
1
  6
Continuous
100
AcDbLine
 10
363.4461959999999
 20
146.798301
 30
0.0
 11
359.4461959999999
 21
146.798301
 31
0.0
  0
LINE
  5
A7B7
330
A664
100
AcDbEntity
  8
1
  6
Continuous
100
AcDbLine
 10
363.4461959999999
 20
148.298301
 30
0.0
 11
363.4461959999999
 21
146.798301
 31
0.0
  0
LINE
  5
A7B8
330
A664
100
AcDbEntity
  8
1
  6
Continuous
100
AcDbLine
 10
359.4461959999999
 20
148.298301
 30
0.0
 11
359.4461959999999
 21
146.798301
 31
0.0
  0
LINE
  5
A7B9
330
A664
100
AcDbEntity
  8
1
  6
Continuous
100
AcDbLine
 10
359.4461959999999
 20
166.031553
 30
0.0
 11
359.4461959999999
 21
164.5315529999998
 31
0.0
  0
LINE
  5
A7BA
330
A664
100
AcDbEntity
  8
1
  6
Continuous
100
AcDbLine
 10
363.4461959999999
 20
166.031553
 30
0.0
 11
363.4461959999999
 21
164.5315529999998
 31
0.0
  0
LINE
  5
A7BB
330
A664
100
AcDbEntity
  8
1
  6
Continuous
100
AcDbLine
 10
363.4461959999999
 20
166.031553
 30
0.0
 11
359.4461959999999
 21
166.031553
 31
0.0
  0
LINE
  5
A7BC
330
A664
100
AcDbEntity
  8
1
  6
Continuous
100
AcDbLine
 10
363.4461959999999
 20
164.5315529999998
 30
0.0
 11
359.4461959999999
 21
164.5315529999998
 31
0.0
  0
LINE
  5
A7BD
330
A664
100
AcDbEntity
  8
1
  6
Continuous
100
AcDbLine
 10
363.4461959999999
 20
167.5315529999998
 30
0.0
 11
359.4461959999999
 21
167.5315529999998
 31
0.0
  0
LINE
  5
A7BE
330
A664
100
AcDbEntity
  8
1
  6
Continuous
100
AcDbLine
 10
363.4461959999999
 20
169.031553
 30
0.0
 11
359.4461959999999
 21
169.031553
 31
0.0
  0
LINE
  5
A7BF
330
A664
100
AcDbEntity
  8
1
  6
Continuous
100
AcDbLine
 10
363.4461959999999
 20
169.031553
 30
0.0
 11
363.4461959999999
 21
167.5315529999998
 31
0.0
  0
LINE
  5
A7C0
330
A664
100
AcDbEntity
  8
1
  6
Continuous
100
AcDbLine
 10
359.4461959999999
 20
169.031553
 30
0.0
 11
359.4461959999999
 21
167.5315529999998
 31
0.0
  0
LINE
  5
A7C1
330
A664
100
AcDbEntity
  8
1
  6
Continuous
100
AcDbLine
 10
363.4461959999999
 20
161.798301
 30
0.0
 11
359.4461959999999
 21
161.798301
 31
0.0
  0
LINE
  5
A7C2
330
A664
100
AcDbEntity
  8
1
  6
Continuous
100
AcDbLine
 10
363.4461959999999
 20
163.298301
 30
0.0
 11
359.4461959999999
 21
163.298301
 31
0.0
  0
LINE
  5
A7C3
330
A664
100
AcDbEntity
  8
1
  6
Continuous
100
AcDbLine
 10
363.4461959999999
 20
163.298301
 30
0.0
 11
363.4461959999999
 21
161.798301
 31
0.0
  0
LINE
  5
A7C4
330
A664
100
AcDbEntity
  8
1
  6
Continuous
100
AcDbLine
 10
359.4461959999999
 20
163.298301
 30
0.0
 11
359.4461959999999
 21
161.798301
 31
0.0
  0
LINE
  5
A7C5
330
A664
100
AcDbEntity
  8
1
  6
Continuous
100
AcDbLine
 10
363.4461959999999
 20
159.298301
 30
0.0
 11
359.4461959999999
 21
159.298301
 31
0.0
  0
LINE
  5
A7C6
330
A664
100
AcDbEntity
  8
1
  6
Continuous
100
AcDbLine
 10
363.4461959999999
 20
160.798301
 30
0.0
 11
359.4461959999999
 21
160.798301
 31
0.0
  0
LINE
  5
A7C7
330
A664
100
AcDbEntity
  8
1
  6
Continuous
100
AcDbLine
 10
363.4461959999999
 20
160.798301
 30
0.0
 11
363.4461959999999
 21
159.298301
 31
0.0
  0
LINE
  5
A7C8
330
A664
100
AcDbEntity
  8
1
  6
Continuous
100
AcDbLine
 10
359.4461959999999
 20
160.798301
 30
0.0
 11
359.4461959999999
 21
159.298301
 31
0.0
  0
LINE
  5
A7C9
330
A664
100
AcDbEntity
  8
1
  6
Continuous
100
AcDbLine
 10
363.4461959999999
 20
156.798301
 30
0.0
 11
359.4461959999999
 21
156.798301
 31
0.0
  0
LINE
  5
A7CA
330
A664
100
AcDbEntity
  8
1
  6
Continuous
100
AcDbLine
 10
363.4461959999999
 20
158.298301
 30
0.0
 11
359.4461959999999
 21
158.298301
 31
0.0
  0
LINE
  5
A7CB
330
A664
100
AcDbEntity
  8
1
  6
Continuous
100
AcDbLine
 10
363.4461959999999
 20
158.298301
 30
0.0
 11
363.4461959999999
 21
156.798301
 31
0.0
  0
LINE
  5
A7CC
330
A664
100
AcDbEntity
  8
1
  6
Continuous
100
AcDbLine
 10
359.4461959999999
 20
158.298301
 30
0.0
 11
359.4461959999999
 21
156.798301
 31
0.0
  0
LINE
  5
A7CD
330
A664
100
AcDbEntity
  8
1
  6
Continuous
100
AcDbLine
 10
363.4461959999999
 20
171.5315529999998
 30
0.0
 11
359.4461959999999
 21
171.5315529999998
 31
0.0
  0
LINE
  5
A7CE
330
A664
100
AcDbEntity
  8
1
  6
Continuous
100
AcDbLine
 10
363.4461959999999
 20
172.531553
 30
0.0
 11
359.4461959999999
 21
172.531553
 31
0.0
  0
LINE
  5
A7CF
330
A664
100
AcDbEntity
  8
1
  6
Continuous
100
AcDbLine
 10
363.4461959999999
 20
174.031553
 30
0.0
 11
359.4461959999999
 21
174.031553
 31
0.0
  0
LINE
  5
A7D0
330
A664
100
AcDbEntity
  8
1
  6
Continuous
100
AcDbLine
 10
363.4461959999999
 20
174.031553
 30
0.0
 11
363.4461959999999
 21
172.531553
 31
0.0
  0
LINE
  5
A7D1
330
A664
100
AcDbEntity
  8
1
  6
Continuous
100
AcDbLine
 10
359.4461959999999
 20
174.031553
 30
0.0
 11
359.4461959999999
 21
172.531553
 31
0.0
  0
LINE
  5
A7D2
330
A664
100
AcDbEntity
  8
1
  6
Continuous
100
AcDbLine
 10
363.4461959999999
 20
170.031553
 30
0.0
 11
359.4461959999999
 21
170.031553
 31
0.0
  0
LINE
  5
A7D3
330
A664
100
AcDbEntity
  8
1
  6
Continuous
100
AcDbLine
 10
363.4461959999999
 20
171.5315529999998
 30
0.0
 11
363.4461959999999
 21
170.031553
 31
0.0
  0
LINE
  5
A7D4
330
A664
100
AcDbEntity
  8
1
  6
Continuous
100
AcDbLine
 10
359.4461959999999
 20
171.5315529999998
 30
0.0
 11
359.4461959999999
 21
170.031553
 31
0.0
  0
LINE
  5
A7D5
330
A664
100
AcDbEntity
  8
1
  6
Continuous
100
AcDbLine
 10
359.4461959999999
 20
175.598301
 30
0.0
 11
363.4461959999999
 21
175.598301
 31
0.0
  0
LINE
  5
A7D6
330
A664
100
AcDbEntity
  8
1
  6
Continuous
100
AcDbLine
 10
363.4461959999999
 20
177.0983009999999
 30
0.0
 11
359.4461959999999
 21
177.0983009999999
 31
0.0
  0
LINE
  5
A7D7
330
A664
100
AcDbEntity
  8
1
  6
Continuous
100
AcDbLine
 10
363.4461959999999
 20
185.398301
 30
0.0
 11
359.4461959999999
 21
185.398301
 31
0.0
  0
LINE
  5
A7D8
330
A664
100
AcDbEntity
  8
1
  6
Continuous
100
AcDbLine
 10
363.4461959999999
 20
183.8983009999998
 30
0.0
 11
359.4461959999999
 21
183.8983009999998
 31
0.0
  0
LINE
  5
A7D9
330
A664
100
AcDbEntity
  8
1
  6
Continuous
100
AcDbLine
 10
363.4461959999999
 20
181.398301
 30
0.0
 11
359.4461959999999
 21
181.398301
 31
0.0
  0
LINE
  5
A7DA
330
A664
100
AcDbEntity
  8
1
  6
Continuous
100
AcDbLine
 10
363.4461959999999
 20
182.8983009999998
 30
0.0
 11
359.4461959999999
 21
182.8983009999998
 31
0.0
  0
LINE
  5
A7DB
330
A664
100
AcDbEntity
  8
1
  6
Continuous
100
AcDbLine
 10
363.4461959999999
 20
178.4983009999999
 30
0.0
 11
359.4461959999999
 21
178.4983009999999
 31
0.0
  0
LINE
  5
A7DC
330
A664
100
AcDbEntity
  8
1
  6
Continuous
100
AcDbLine
 10
363.4461959999999
 20
179.998301
 30
0.0
 11
359.4461959999999
 21
179.998301
 31
0.0
  0
LINE
  5
A7DD
330
A664
100
AcDbEntity
  8
1
  6
Continuous
100
AcDbLine
 10
363.4461959999999
 20
177.0983009999999
 30
0.0
 11
363.4461959999999
 21
175.598301
 31
0.0
  0
LINE
  5
A7DE
330
A664
100
AcDbEntity
  8
1
  6
Continuous
100
AcDbLine
 10
363.4461959999999
 20
183.8983009999998
 30
0.0
 11
363.4461959999999
 21
185.398301
 31
0.0
  0
LINE
  5
A7DF
330
A664
100
AcDbEntity
  8
1
  6
Continuous
100
AcDbLine
 10
363.4461959999999
 20
181.398301
 30
0.0
 11
363.4461959999999
 21
182.8983009999998
 31
0.0
  0
LINE
  5
A7E0
330
A664
100
AcDbEntity
  8
1
  6
Continuous
100
AcDbLine
 10
363.4461959999999
 20
178.4983009999999
 30
0.0
 11
363.4461959999999
 21
179.998301
 31
0.0
  0
LINE
  5
A7E1
330
A664
100
AcDbEntity
  8
1
  6
Continuous
100
AcDbLine
 10
359.4461959999999
 20
177.0983009999999
 30
0.0
 11
359.4461959999999
 21
175.598301
 31
0.0
  0
LINE
  5
A7E2
330
A664
100
AcDbEntity
  8
1
  6
Continuous
100
AcDbLine
 10
359.4461959999999
 20
183.8983009999998
 30
0.0
 11
359.4461959999999
 21
185.398301
 31
0.0
  0
LINE
  5
A7E3
330
A664
100
AcDbEntity
  8
1
  6
Continuous
100
AcDbLine
 10
359.4461959999999
 20
181.398301
 30
0.0
 11
359.4461959999999
 21
182.8983009999998
 31
0.0
  0
LINE
  5
A7E4
330
A664
100
AcDbEntity
  8
1
  6
Continuous
100
AcDbLine
 10
359.4461959999999
 20
178.4983009999999
 30
0.0
 11
359.4461959999999
 21
179.998301
 31
0.0
  0
LINE
  5
A7E5
330
A664
100
AcDbEntity
  8
1
  6
Continuous
100
AcDbLine
 10
363.4461959999999
 20
190.9983009999999
 30
0.0
 11
359.4461959999999
 21
190.9983009999999
 31
0.0
  0
LINE
  5
A7E6
330
A664
100
AcDbEntity
  8
1
  6
Continuous
100
AcDbLine
 10
363.4461959999999
 20
190.5983009999999
 30
0.0
 11
359.4461959999999
 21
190.5983009999999
 31
0.0
  0
LINE
  5
A7E7
330
A664
100
AcDbEntity
  8
1
  6
Continuous
100
AcDbLine
 10
363.4461959999999
 20
189.098301
 30
0.0
 11
359.4461959999999
 21
189.098301
 31
0.0
  0
LINE
  5
A7E8
330
A664
100
AcDbEntity
  8
1
  6
Continuous
100
AcDbLine
 10
363.4461959999999
 20
186.4983009999999
 30
0.0
 11
359.4461959999999
 21
186.4983009999999
 31
0.0
  0
LINE
  5
A7E9
330
A664
100
AcDbEntity
  8
1
  6
Continuous
100
AcDbLine
 10
363.4461959999999
 20
187.998301
 30
0.0
 11
359.4461959999999
 21
187.998301
 31
0.0
  0
LINE
  5
A7EA
330
A664
100
AcDbEntity
  8
1
  6
Continuous
100
AcDbLine
 10
363.4461959999999
 20
190.9983009999999
 30
0.0
 11
363.4461959999999
 21
191.048301
 31
0.0
  0
LINE
  5
A7EB
330
A664
100
AcDbEntity
  8
1
  6
Continuous
100
AcDbLine
 10
363.4461959999999
 20
189.098301
 30
0.0
 11
363.4461959999999
 21
190.5983009999999
 31
0.0
  0
LINE
  5
A7EC
330
A664
100
AcDbEntity
  8
1
  6
Continuous
100
AcDbLine
 10
363.4461959999999
 20
186.4983009999999
 30
0.0
 11
363.4461959999999
 21
187.998301
 31
0.0
  0
LINE
  5
A7ED
330
A664
100
AcDbEntity
  8
1
  6
Continuous
100
AcDbLine
 10
359.4461959999999
 20
190.9983009999999
 30
0.0
 11
359.4461959999999
 21
191.048301
 31
0.0
  0
LINE
  5
A7EE
330
A664
100
AcDbEntity
  8
1
  6
Continuous
100
AcDbLine
 10
359.4461959999999
 20
189.098301
 30
0.0
 11
359.4461959999999
 21
190.5983009999999
 31
0.0
  0
LINE
  5
A7EF
330
A664
100
AcDbEntity
  8
1
  6
Continuous
100
AcDbLine
 10
359.4461959999999
 20
186.4983009999999
 30
0.0
 11
359.4461959999999
 21
187.998301
 31
0.0
  0
LINE
  5
A7F0
330
A664
100
AcDbEntity
  8
1
  6
Continuous
100
AcDbLine
 10
365.4461959999999
 20
191.048301
 30
0.0
 11
357.4461959999999
 21
191.048301
 31
0.0
  0
LINE
  5
A7F1
330
A664
100
AcDbEntity
  8
1
  6
Continuous
100
AcDbLine
 10
115.451627
 20
63.305916
 30
0.0
 11
113.951627
 21
63.305916
 31
0.0
  0
LINE
  5
A7F2
330
A664
100
AcDbEntity
  8
1
  6
Continuous
100
AcDbLine
 10
115.451627
 20
59.305916
 30
0.0
 11
113.951627
 21
59.305916
 31
0.0
  0
LINE
  5
A7F3
330
A664
100
AcDbEntity
  8
1
  6
Continuous
100
AcDbLine
 10
144.237627
 20
57.305916
 30
0.0
 11
95.801627
 21
57.305916
 31
0.0
  0
LINE
  5
A7F4
330
A664
100
AcDbEntity
  8
1
  6
Continuous
100
AcDbLine
 10
144.237627
 20
65.305916
 30
0.0
 11
95.801627
 21
65.305916
 31
0.0
  0
LINE
  5
A7F5
330
A664
100
AcDbEntity
  8
1
  6
Continuous
100
AcDbLine
 10
113.951627
 20
59.305916
 30
0.0
 11
113.951627
 21
63.305916
 31
0.0
  0
LINE
  5
A7F6
330
A664
100
AcDbEntity
  8
1
  6
Continuous
100
AcDbLine
 10
97.75162700000002
 20
59.305916
 30
0.0
 11
97.75162700000002
 21
63.305916
 31
0.0
  0
LINE
  5
A7F7
330
A664
100
AcDbEntity
  8
1
  6
Continuous
100
AcDbLine
 10
100.3516269999998
 20
59.305916
 30
0.0
 11
100.3516269999998
 21
63.305916
 31
0.0
  0
LINE
  5
A7F8
330
A664
100
AcDbEntity
  8
1
  6
Continuous
100
AcDbLine
 10
98.85162700000002
 20
59.305916
 30
0.0
 11
98.85162700000002
 21
63.305916
 31
0.0
  0
LINE
  5
A7F9
330
A664
100
AcDbEntity
  8
1
  6
Continuous
100
AcDbLine
 10
101.451627
 20
59.305916
 30
0.0
 11
101.451627
 21
63.305916
 31
0.0
  0
LINE
  5
A7FA
330
A664
100
AcDbEntity
  8
1
  6
Continuous
100
AcDbLine
 10
102.951627
 20
59.305916
 30
0.0
 11
102.951627
 21
63.305916
 31
0.0
  0
LINE
  5
A7FB
330
A664
100
AcDbEntity
  8
1
  6
Continuous
100
AcDbLine
 10
105.451627
 20
59.305916
 30
0.0
 11
105.451627
 21
63.305916
 31
0.0
  0
LINE
  5
A7FC
330
A664
100
AcDbEntity
  8
1
  6
Continuous
100
AcDbLine
 10
103.951627
 20
59.305916
 30
0.0
 11
103.951627
 21
63.305916
 31
0.0
  0
LINE
  5
A7FD
330
A664
100
AcDbEntity
  8
1
  6
Continuous
100
AcDbLine
 10
107.951627
 20
59.305916
 30
0.0
 11
107.951627
 21
63.305916
 31
0.0
  0
LINE
  5
A7FE
330
A664
100
AcDbEntity
  8
1
  6
Continuous
100
AcDbLine
 10
106.4516269999999
 20
59.305916
 30
0.0
 11
106.4516269999999
 21
63.305916
 31
0.0
  0
LINE
  5
A7FF
330
A664
100
AcDbEntity
  8
1
  6
Continuous
100
AcDbLine
 10
110.4516269999999
 20
59.305916
 30
0.0
 11
110.4516269999999
 21
63.305916
 31
0.0
  0
LINE
  5
A800
330
A664
100
AcDbEntity
  8
1
  6
Continuous
100
AcDbLine
 10
108.951627
 20
59.305916
 30
0.0
 11
108.951627
 21
63.305916
 31
0.0
  0
LINE
  5
A801
330
A664
100
AcDbEntity
  8
1
  6
Continuous
100
AcDbLine
 10
112.951627
 20
59.305916
 30
0.0
 11
112.951627
 21
63.305916
 31
0.0
  0
LINE
  5
A802
330
A664
100
AcDbEntity
  8
1
  6
Continuous
100
AcDbLine
 10
111.4516269999999
 20
59.305916
 30
0.0
 11
111.4516269999999
 21
63.305916
 31
0.0
  0
LINE
  5
A803
330
A664
100
AcDbEntity
  8
1
  6
Continuous
100
AcDbLine
 10
96.25162700000002
 20
59.305916
 30
0.0
 11
96.25162700000002
 21
63.305916
 31
0.0
  0
LINE
  5
A804
330
A664
100
AcDbEntity
  8
1
  6
Continuous
100
AcDbLine
 10
95.85162699999999
 20
59.305916
 30
0.0
 11
95.85162699999999
 21
63.305916
 31
0.0
  0
LINE
  5
A805
330
A664
100
AcDbEntity
  8
1
  6
Continuous
100
AcDbLine
 10
95.801627
 20
57.305916
 30
0.0
 11
95.801627
 21
65.305916
 31
0.0
  0
LINE
  5
A806
330
A664
100
AcDbEntity
  8
1
  6
Continuous
100
AcDbLine
 10
95.85162699999999
 20
59.305916
 30
0.0
 11
95.801627
 21
59.305916
 31
0.0
  0
LINE
  5
A807
330
A664
100
AcDbEntity
  8
1
  6
Continuous
100
AcDbLine
 10
97.75162700000002
 20
59.305916
 30
0.0
 11
96.25162700000002
 21
59.305916
 31
0.0
  0
LINE
  5
A808
330
A664
100
AcDbEntity
  8
1
  6
Continuous
100
AcDbLine
 10
100.3516269999998
 20
59.305916
 30
0.0
 11
98.85162700000002
 21
59.305916
 31
0.0
  0
LINE
  5
A809
330
A664
100
AcDbEntity
  8
1
  6
Continuous
100
AcDbLine
 10
102.951627
 20
59.305916
 30
0.0
 11
101.451627
 21
59.305916
 31
0.0
  0
LINE
  5
A80A
330
A664
100
AcDbEntity
  8
1
  6
Continuous
100
AcDbLine
 10
105.451627
 20
59.305916
 30
0.0
 11
103.951627
 21
59.305916
 31
0.0
  0
LINE
  5
A80B
330
A664
100
AcDbEntity
  8
1
  6
Continuous
100
AcDbLine
 10
107.951627
 20
59.305916
 30
0.0
 11
106.4516269999999
 21
59.305916
 31
0.0
  0
LINE
  5
A80C
330
A664
100
AcDbEntity
  8
1
  6
Continuous
100
AcDbLine
 10
110.4516269999999
 20
59.305916
 30
0.0
 11
108.951627
 21
59.305916
 31
0.0
  0
LINE
  5
A80D
330
A664
100
AcDbEntity
  8
1
  6
Continuous
100
AcDbLine
 10
112.951627
 20
59.305916
 30
0.0
 11
111.4516269999999
 21
59.305916
 31
0.0
  0
LINE
  5
A80E
330
A664
100
AcDbEntity
  8
1
  6
Continuous
100
AcDbLine
 10
95.85162699999999
 20
63.305916
 30
0.0
 11
95.801627
 21
63.305916
 31
0.0
  0
LINE
  5
A80F
330
A664
100
AcDbEntity
  8
1
  6
Continuous
100
AcDbLine
 10
97.75162700000002
 20
63.305916
 30
0.0
 11
96.25162700000002
 21
63.305916
 31
0.0
  0
LINE
  5
A810
330
A664
100
AcDbEntity
  8
1
  6
Continuous
100
AcDbLine
 10
100.3516269999998
 20
63.305916
 30
0.0
 11
98.85162700000002
 21
63.305916
 31
0.0
  0
LINE
  5
A811
330
A664
100
AcDbEntity
  8
1
  6
Continuous
100
AcDbLine
 10
102.951627
 20
63.305916
 30
0.0
 11
101.451627
 21
63.305916
 31
0.0
  0
LINE
  5
A812
330
A664
100
AcDbEntity
  8
1
  6
Continuous
100
AcDbLine
 10
105.451627
 20
63.305916
 30
0.0
 11
103.951627
 21
63.305916
 31
0.0
  0
LINE
  5
A813
330
A664
100
AcDbEntity
  8
1
  6
Continuous
100
AcDbLine
 10
107.951627
 20
63.305916
 30
0.0
 11
106.4516269999999
 21
63.305916
 31
0.0
  0
LINE
  5
A814
330
A664
100
AcDbEntity
  8
1
  6
Continuous
100
AcDbLine
 10
110.4516269999999
 20
63.305916
 30
0.0
 11
108.951627
 21
63.305916
 31
0.0
  0
LINE
  5
A815
330
A664
100
AcDbEntity
  8
1
  6
Continuous
100
AcDbLine
 10
112.951627
 20
63.305916
 30
0.0
 11
111.4516269999999
 21
63.305916
 31
0.0
  0
LINE
  5
A816
330
A664
100
AcDbEntity
  8
1
  6
Continuous
100
AcDbLine
 10
137.187627
 20
59.305916
 30
0.0
 11
137.187627
 21
63.305916
 31
0.0
  0
LINE
  5
A817
330
A664
100
AcDbEntity
  8
1
  6
Continuous
100
AcDbLine
 10
135.6876269999999
 20
59.305916
 30
0.0
 11
135.6876269999999
 21
63.305916
 31
0.0
  0
LINE
  5
A818
330
A664
100
AcDbEntity
  8
1
  6
Continuous
100
AcDbLine
 10
140.0876269999999
 20
59.305916
 30
0.0
 11
140.0876269999999
 21
63.305916
 31
0.0
  0
LINE
  5
A819
330
A664
100
AcDbEntity
  8
1
  6
Continuous
100
AcDbLine
 10
138.587627
 20
59.305916
 30
0.0
 11
138.587627
 21
63.305916
 31
0.0
  0
LINE
  5
A81A
330
A664
100
AcDbEntity
  8
1
  6
Continuous
100
AcDbLine
 10
141.0876269999999
 20
59.305916
 30
0.0
 11
141.0876269999999
 21
63.305916
 31
0.0
  0
LINE
  5
A81B
330
A664
100
AcDbEntity
  8
1
  6
Continuous
100
AcDbLine
 10
142.587627
 20
59.305916
 30
0.0
 11
142.587627
 21
63.305916
 31
0.0
  0
LINE
  5
A81C
330
A664
100
AcDbEntity
  8
1
  6
Continuous
100
AcDbLine
 10
134.2876269999999
 20
59.305916
 30
0.0
 11
134.2876269999999
 21
63.305916
 31
0.0
  0
LINE
  5
A81D
330
A664
100
AcDbEntity
  8
1
  6
Continuous
100
AcDbLine
 10
132.7876269999999
 20
63.305916
 30
0.0
 11
132.7876269999999
 21
59.305916
 31
0.0
  0
LINE
  5
A81E
330
A664
100
AcDbEntity
  8
1
  6
Continuous
100
AcDbLine
 10
127.220879
 20
59.305916
 30
0.0
 11
127.220879
 21
63.305916
 31
0.0
  0
LINE
  5
A81F
330
A664
100
AcDbEntity
  8
1
  6
Continuous
100
AcDbLine
 10
131.2208789999999
 20
59.305916
 30
0.0
 11
131.2208789999999
 21
63.305916
 31
0.0
  0
LINE
  5
A820
330
A664
100
AcDbEntity
  8
1
  6
Continuous
100
AcDbLine
 10
129.720879
 20
59.305916
 30
0.0
 11
129.720879
 21
63.305916
 31
0.0
  0
LINE
  5
A821
330
A664
100
AcDbEntity
  8
1
  6
Continuous
100
AcDbLine
 10
128.720879
 20
59.305916
 30
0.0
 11
128.720879
 21
63.305916
 31
0.0
  0
LINE
  5
A822
330
A664
100
AcDbEntity
  8
1
  6
Continuous
100
AcDbLine
 10
115.451627
 20
59.305916
 30
0.0
 11
115.451627
 21
63.305916
 31
0.0
  0
LINE
  5
A823
330
A664
100
AcDbEntity
  8
1
  6
Continuous
100
AcDbLine
 10
117.951627
 20
59.305916
 30
0.0
 11
117.951627
 21
63.305916
 31
0.0
  0
LINE
  5
A824
330
A664
100
AcDbEntity
  8
1
  6
Continuous
100
AcDbLine
 10
116.451627
 20
59.305916
 30
0.0
 11
116.451627
 21
63.305916
 31
0.0
  0
LINE
  5
A825
330
A664
100
AcDbEntity
  8
1
  6
Continuous
100
AcDbLine
 10
120.451627
 20
59.305916
 30
0.0
 11
120.451627
 21
63.305916
 31
0.0
  0
LINE
  5
A826
330
A664
100
AcDbEntity
  8
1
  6
Continuous
100
AcDbLine
 10
118.951627
 20
59.305916
 30
0.0
 11
118.951627
 21
63.305916
 31
0.0
  0
LINE
  5
A827
330
A664
100
AcDbEntity
  8
1
  6
Continuous
100
AcDbLine
 10
123.451627
 20
59.305916
 30
0.0
 11
123.451627
 21
63.305916
 31
0.0
  0
LINE
  5
A828
330
A664
100
AcDbEntity
  8
1
  6
Continuous
100
AcDbLine
 10
121.9516269999999
 20
59.305916
 30
0.0
 11
121.9516269999999
 21
63.305916
 31
0.0
  0
LINE
  5
A829
330
A664
100
AcDbEntity
  8
1
  6
Continuous
100
AcDbLine
 10
126.220879
 20
59.305916
 30
0.0
 11
126.220879
 21
63.305916
 31
0.0
  0
LINE
  5
A82A
330
A664
100
AcDbEntity
  8
1
  6
Continuous
100
AcDbLine
 10
124.720879
 20
59.305916
 30
0.0
 11
124.720879
 21
63.305916
 31
0.0
  0
LINE
  5
A82B
330
A664
100
AcDbEntity
  8
1
  6
Continuous
100
AcDbLine
 10
128.720879
 20
59.305916
 30
0.0
 11
127.220879
 21
59.305916
 31
0.0
  0
LINE
  5
A82C
330
A664
100
AcDbEntity
  8
1
  6
Continuous
100
AcDbLine
 10
117.951627
 20
59.305916
 30
0.0
 11
116.451627
 21
59.305916
 31
0.0
  0
LINE
  5
A82D
330
A664
100
AcDbEntity
  8
1
  6
Continuous
100
AcDbLine
 10
120.451627
 20
59.305916
 30
0.0
 11
118.951627
 21
59.305916
 31
0.0
  0
LINE
  5
A82E
330
A664
100
AcDbEntity
  8
1
  6
Continuous
100
AcDbLine
 10
123.451627
 20
59.305916
 30
0.0
 11
121.9516269999999
 21
59.305916
 31
0.0
  0
LINE
  5
A82F
330
A664
100
AcDbEntity
  8
1
  6
Continuous
100
AcDbLine
 10
126.220879
 20
59.305916
 30
0.0
 11
124.720879
 21
59.305916
 31
0.0
  0
LINE
  5
A830
330
A664
100
AcDbEntity
  8
1
  6
Continuous
100
AcDbLine
 10
135.6876269999999
 20
59.305916
 30
0.0
 11
137.187627
 21
59.305916
 31
0.0
  0
LINE
  5
A831
330
A664
100
AcDbEntity
  8
1
  6
Continuous
100
AcDbLine
 10
138.587627
 20
59.305916
 30
0.0
 11
140.0876269999999
 21
59.305916
 31
0.0
  0
LINE
  5
A832
330
A664
100
AcDbEntity
  8
1
  6
Continuous
100
AcDbLine
 10
141.0876269999999
 20
59.305916
 30
0.0
 11
142.587627
 21
59.305916
 31
0.0
  0
LINE
  5
A833
330
A664
100
AcDbEntity
  8
1
  6
Continuous
100
AcDbLine
 10
134.2876269999999
 20
59.305916
 30
0.0
 11
132.7876269999999
 21
59.305916
 31
0.0
  0
LINE
  5
A834
330
A664
100
AcDbEntity
  8
1
  6
Continuous
100
AcDbLine
 10
131.2208789999999
 20
59.305916
 30
0.0
 11
129.720879
 21
59.305916
 31
0.0
  0
LINE
  5
A835
330
A664
100
AcDbEntity
  8
1
  6
Continuous
100
AcDbLine
 10
128.720879
 20
63.305916
 30
0.0
 11
127.220879
 21
63.305916
 31
0.0
  0
LINE
  5
A836
330
A664
100
AcDbEntity
  8
1
  6
Continuous
100
AcDbLine
 10
117.951627
 20
63.305916
 30
0.0
 11
116.451627
 21
63.305916
 31
0.0
  0
LINE
  5
A837
330
A664
100
AcDbEntity
  8
1
  6
Continuous
100
AcDbLine
 10
120.451627
 20
63.305916
 30
0.0
 11
118.951627
 21
63.305916
 31
0.0
  0
LINE
  5
A838
330
A664
100
AcDbEntity
  8
1
  6
Continuous
100
AcDbLine
 10
123.451627
 20
63.305916
 30
0.0
 11
121.9516269999999
 21
63.305916
 31
0.0
  0
LINE
  5
A839
330
A664
100
AcDbEntity
  8
1
  6
Continuous
100
AcDbLine
 10
126.220879
 20
63.305916
 30
0.0
 11
124.720879
 21
63.305916
 31
0.0
  0
LINE
  5
A83A
330
A664
100
AcDbEntity
  8
1
  6
Continuous
100
AcDbLine
 10
135.6876269999999
 20
63.305916
 30
0.0
 11
137.187627
 21
63.305916
 31
0.0
  0
LINE
  5
A83B
330
A664
100
AcDbEntity
  8
1
  6
Continuous
100
AcDbLine
 10
138.587627
 20
63.305916
 30
0.0
 11
140.0876269999999
 21
63.305916
 31
0.0
  0
LINE
  5
A83C
330
A664
100
AcDbEntity
  8
1
  6
Continuous
100
AcDbLine
 10
141.0876269999999
 20
63.305916
 30
0.0
 11
142.587627
 21
63.305916
 31
0.0
  0
LINE
  5
A83D
330
A664
100
AcDbEntity
  8
1
  6
Continuous
100
AcDbLine
 10
134.2876269999999
 20
63.305916
 30
0.0
 11
132.7876269999999
 21
63.305916
 31
0.0
  0
LINE
  5
A83E
330
A664
100
AcDbEntity
  8
1
  6
Continuous
100
AcDbLine
 10
131.2208789999999
 20
63.305916
 30
0.0
 11
129.720879
 21
63.305916
 31
0.0
  0
LINE
  5
A83F
330
A664
100
AcDbEntity
  8
1
  6
Continuous
100
AcDbLine
 10
143.6876269999999
 20
59.305916
 30
0.0
 11
143.6876269999999
 21
63.305916
 31
0.0
  0
LINE
  5
A840
330
A664
100
AcDbEntity
  8
1
  6
Continuous
100
AcDbLine
 10
143.6876269999999
 20
59.305916
 30
0.0
 11
144.237627
 21
59.305916
 31
0.0
  0
LINE
  5
A841
330
A664
100
AcDbEntity
  8
1
  6
Continuous
100
AcDbLine
 10
143.6876269999999
 20
63.305916
 30
0.0
 11
144.237627
 21
63.305916
 31
0.0
  0
LINE
  5
A842
330
A664
100
AcDbEntity
  8
1
  6
Continuous
100
AcDbLine
 10
32.35711699999999
 20
191.048301
 30
0.0
 11
32.35711699999999
 21
138.648301
 31
0.0
  0
LINE
  5
A843
330
A664
100
AcDbEntity
  8
1
  6
Continuous
100
AcDbLine
 10
40.35711699999999
 20
191.048301
 30
0.0
 11
40.35711699999999
 21
138.648301
 31
0.0
  0
LINE
  5
A844
330
A664
100
AcDbEntity
  8
1
  6
Continuous
100
AcDbLine
 10
38.35711699999999
 20
138.6983009999999
 30
0.0
 11
38.35711699999999
 21
138.648301
 31
0.0
  0
LINE
  5
A845
330
A664
100
AcDbEntity
  8
1
  6
Continuous
100
AcDbLine
 10
34.35711699999998
 20
138.6983009999999
 30
0.0
 11
34.35711699999998
 21
138.648301
 31
0.0
  0
LINE
  5
A846
330
A664
100
AcDbEntity
  8
1
  6
Continuous
100
AcDbLine
 10
38.35711699999999
 20
138.6983009999999
 30
0.0
 11
34.35711699999998
 21
138.6983009999999
 31
0.0
  0
LINE
  5
A847
330
A664
100
AcDbEntity
  8
1
  6
Continuous
100
AcDbLine
 10
38.35711699999999
 20
153.298301
 30
0.0
 11
38.35711699999999
 21
151.798301
 31
0.0
  0
LINE
  5
A848
330
A664
100
AcDbEntity
  8
1
  6
Continuous
100
AcDbLine
 10
38.35711699999999
 20
150.798301
 30
0.0
 11
38.35711699999999
 21
149.298301
 31
0.0
  0
LINE
  5
A849
330
A664
100
AcDbEntity
  8
1
  6
Continuous
100
AcDbLine
 10
38.35711699999999
 20
148.298301
 30
0.0
 11
38.35711699999999
 21
146.798301
 31
0.0
  0
LINE
  5
A84A
330
A664
100
AcDbEntity
  8
1
  6
Continuous
100
AcDbLine
 10
38.35711699999999
 20
145.798301
 30
0.0
 11
38.35711699999999
 21
144.298301
 31
0.0
  0
LINE
  5
A84B
330
A664
100
AcDbEntity
  8
1
  6
Continuous
100
AcDbLine
 10
38.35711699999999
 20
160.798301
 30
0.0
 11
38.35711699999999
 21
159.298301
 31
0.0
  0
LINE
  5
A84C
330
A664
100
AcDbEntity
  8
1
  6
Continuous
100
AcDbLine
 10
38.35711699999999
 20
155.798301
 30
0.0
 11
38.35711699999999
 21
154.298301
 31
0.0
  0
LINE
  5
A84D
330
A664
100
AcDbEntity
  8
1
  6
Continuous
100
AcDbLine
 10
38.35711699999999
 20
158.298301
 30
0.0
 11
38.35711699999999
 21
156.798301
 31
0.0
  0
LINE
  5
A84E
330
A664
100
AcDbEntity
  8
1
  6
Continuous
100
AcDbLine
 10
34.35711699999998
 20
153.298301
 30
0.0
 11
34.35711699999998
 21
151.798301
 31
0.0
  0
LINE
  5
A84F
330
A664
100
AcDbEntity
  8
1
  6
Continuous
100
AcDbLine
 10
34.35711699999998
 20
150.798301
 30
0.0
 11
34.35711699999998
 21
149.298301
 31
0.0
  0
LINE
  5
A850
330
A664
100
AcDbEntity
  8
1
  6
Continuous
100
AcDbLine
 10
34.35711699999998
 20
148.298301
 30
0.0
 11
34.35711699999998
 21
146.798301
 31
0.0
  0
LINE
  5
A851
330
A664
100
AcDbEntity
  8
1
  6
Continuous
100
AcDbLine
 10
34.35711699999998
 20
145.798301
 30
0.0
 11
34.35711699999998
 21
144.298301
 31
0.0
  0
LINE
  5
A852
330
A664
100
AcDbEntity
  8
1
  6
Continuous
100
AcDbLine
 10
34.35711699999998
 20
160.798301
 30
0.0
 11
34.35711699999998
 21
159.298301
 31
0.0
  0
LINE
  5
A853
330
A664
100
AcDbEntity
  8
1
  6
Continuous
100
AcDbLine
 10
34.35711699999998
 20
155.798301
 30
0.0
 11
34.35711699999998
 21
154.298301
 31
0.0
  0
LINE
  5
A854
330
A664
100
AcDbEntity
  8
1
  6
Continuous
100
AcDbLine
 10
34.35711699999998
 20
158.298301
 30
0.0
 11
34.35711699999998
 21
156.798301
 31
0.0
  0
LINE
  5
A855
330
A664
100
AcDbEntity
  8
1
  6
Continuous
100
AcDbLine
 10
38.35711699999999
 20
151.798301
 30
0.0
 11
34.35711699999998
 21
151.798301
 31
0.0
  0
LINE
  5
A856
330
A664
100
AcDbEntity
  8
1
  6
Continuous
100
AcDbLine
 10
38.35711699999999
 20
149.298301
 30
0.0
 11
34.35711699999998
 21
149.298301
 31
0.0
  0
LINE
  5
A857
330
A664
100
AcDbEntity
  8
1
  6
Continuous
100
AcDbLine
 10
38.35711699999999
 20
150.798301
 30
0.0
 11
34.35711699999998
 21
150.798301
 31
0.0
  0
LINE
  5
A858
330
A664
100
AcDbEntity
  8
1
  6
Continuous
100
AcDbLine
 10
38.35711699999999
 20
146.798301
 30
0.0
 11
34.35711699999998
 21
146.798301
 31
0.0
  0
LINE
  5
A859
330
A664
100
AcDbEntity
  8
1
  6
Continuous
100
AcDbLine
 10
38.35711699999999
 20
148.298301
 30
0.0
 11
34.35711699999998
 21
148.298301
 31
0.0
  0
LINE
  5
A85A
330
A664
100
AcDbEntity
  8
1
  6
Continuous
100
AcDbLine
 10
38.35711699999999
 20
145.798301
 30
0.0
 11
34.35711699999998
 21
145.798301
 31
0.0
  0
LINE
  5
A85B
330
A664
100
AcDbEntity
  8
1
  6
Continuous
100
AcDbLine
 10
38.35711699999999
 20
144.298301
 30
0.0
 11
34.35711699999998
 21
144.298301
 31
0.0
  0
LINE
  5
A85C
330
A664
100
AcDbEntity
  8
1
  6
Continuous
100
AcDbLine
 10
38.35711699999999
 20
143.1983009999999
 30
0.0
 11
34.35711699999998
 21
143.1983009999999
 31
0.0
  0
LINE
  5
A85D
330
A664
100
AcDbEntity
  8
1
  6
Continuous
100
AcDbLine
 10
38.35711699999999
 20
159.298301
 30
0.0
 11
34.35711699999998
 21
159.298301
 31
0.0
  0
LINE
  5
A85E
330
A664
100
AcDbEntity
  8
1
  6
Continuous
100
AcDbLine
 10
38.35711699999999
 20
160.798301
 30
0.0
 11
34.35711699999998
 21
160.798301
 31
0.0
  0
LINE
  5
A85F
330
A664
100
AcDbEntity
  8
1
  6
Continuous
100
AcDbLine
 10
38.35711699999999
 20
158.298301
 30
0.0
 11
34.35711699999998
 21
158.298301
 31
0.0
  0
LINE
  5
A860
330
A664
100
AcDbEntity
  8
1
  6
Continuous
100
AcDbLine
 10
38.35711699999999
 20
154.298301
 30
0.0
 11
34.35711699999998
 21
154.298301
 31
0.0
  0
LINE
  5
A861
330
A664
100
AcDbEntity
  8
1
  6
Continuous
100
AcDbLine
 10
38.35711699999999
 20
155.798301
 30
0.0
 11
34.35711699999998
 21
155.798301
 31
0.0
  0
LINE
  5
A862
330
A664
100
AcDbEntity
  8
1
  6
Continuous
100
AcDbLine
 10
38.35711699999999
 20
153.298301
 30
0.0
 11
34.35711699999998
 21
153.298301
 31
0.0
  0
LINE
  5
A863
330
A664
100
AcDbEntity
  8
1
  6
Continuous
100
AcDbLine
 10
38.35711699999999
 20
156.798301
 30
0.0
 11
34.35711699999998
 21
156.798301
 31
0.0
  0
LINE
  5
A864
330
A664
100
AcDbEntity
  8
1
  6
Continuous
100
AcDbLine
 10
38.35711699999999
 20
140.5983009999999
 30
0.0
 11
38.35711699999999
 21
139.098301
 31
0.0
  0
LINE
  5
A865
330
A664
100
AcDbEntity
  8
1
  6
Continuous
100
AcDbLine
 10
34.35711699999998
 20
140.5983009999999
 30
0.0
 11
34.35711699999998
 21
139.098301
 31
0.0
  0
LINE
  5
A866
330
A664
100
AcDbEntity
  8
1
  6
Continuous
100
AcDbLine
 10
38.35711699999999
 20
139.098301
 30
0.0
 11
34.35711699999998
 21
139.098301
 31
0.0
  0
LINE
  5
A867
330
A664
100
AcDbEntity
  8
1
  6
Continuous
100
AcDbLine
 10
38.35711699999999
 20
141.6983009999999
 30
0.0
 11
34.35711699999998
 21
141.6983009999999
 31
0.0
  0
LINE
  5
A868
330
A664
100
AcDbEntity
  8
1
  6
Continuous
100
AcDbLine
 10
38.35711699999999
 20
140.5983009999999
 30
0.0
 11
34.35711699999998
 21
140.5983009999999
 31
0.0
  0
LINE
  5
A869
330
A664
100
AcDbEntity
  8
1
  6
Continuous
100
AcDbLine
 10
38.35711699999999
 20
143.1983009999999
 30
0.0
 11
38.35711699999999
 21
141.6983009999999
 31
0.0
  0
LINE
  5
A86A
330
A664
100
AcDbEntity
  8
1
  6
Continuous
100
AcDbLine
 10
34.35711699999998
 20
143.1983009999999
 30
0.0
 11
34.35711699999998
 21
141.6983009999999
 31
0.0
  0
LINE
  5
A86B
330
A664
100
AcDbEntity
  8
1
  6
Continuous
100
AcDbLine
 10
38.35711699999999
 20
174.031553
 30
0.0
 11
38.35711699999999
 21
172.531553
 31
0.0
  0
LINE
  5
A86C
330
A664
100
AcDbEntity
  8
1
  6
Continuous
100
AcDbLine
 10
38.35711699999999
 20
177.0983009999999
 30
0.0
 11
38.35711699999999
 21
175.598301
 31
0.0
  0
LINE
  5
A86D
330
A664
100
AcDbEntity
  8
1
  6
Continuous
100
AcDbLine
 10
38.35711699999999
 20
178.4983009999999
 30
0.0
 11
38.35711699999999
 21
179.998301
 31
0.0
  0
LINE
  5
A86E
330
A664
100
AcDbEntity
  8
1
  6
Continuous
100
AcDbLine
 10
38.35711699999999
 20
169.031553
 30
0.0
 11
38.35711699999999
 21
167.5315529999998
 31
0.0
  0
LINE
  5
A86F
330
A664
100
AcDbEntity
  8
1
  6
Continuous
100
AcDbLine
 10
38.35711699999999
 20
171.5315529999998
 30
0.0
 11
38.35711699999999
 21
170.031553
 31
0.0
  0
LINE
  5
A870
330
A664
100
AcDbEntity
  8
1
  6
Continuous
100
AcDbLine
 10
34.35711699999998
 20
174.031553
 30
0.0
 11
34.35711699999998
 21
172.531553
 31
0.0
  0
LINE
  5
A871
330
A664
100
AcDbEntity
  8
1
  6
Continuous
100
AcDbLine
 10
34.35711699999998
 20
177.0983009999999
 30
0.0
 11
34.35711699999998
 21
175.598301
 31
0.0
  0
LINE
  5
A872
330
A664
100
AcDbEntity
  8
1
  6
Continuous
100
AcDbLine
 10
34.35711699999998
 20
178.4983009999999
 30
0.0
 11
34.35711699999998
 21
179.998301
 31
0.0
  0
LINE
  5
A873
330
A664
100
AcDbEntity
  8
1
  6
Continuous
100
AcDbLine
 10
34.35711699999998
 20
169.031553
 30
0.0
 11
34.35711699999998
 21
167.5315529999998
 31
0.0
  0
LINE
  5
A874
330
A664
100
AcDbEntity
  8
1
  6
Continuous
100
AcDbLine
 10
34.35711699999998
 20
171.5315529999998
 30
0.0
 11
34.35711699999998
 21
170.031553
 31
0.0
  0
LINE
  5
A875
330
A664
100
AcDbEntity
  8
1
  6
Continuous
100
AcDbLine
 10
38.35711699999999
 20
167.5315529999998
 30
0.0
 11
34.35711699999998
 21
167.5315529999998
 31
0.0
  0
LINE
  5
A876
330
A664
100
AcDbEntity
  8
1
  6
Continuous
100
AcDbLine
 10
38.35711699999999
 20
169.031553
 30
0.0
 11
34.35711699999998
 21
169.031553
 31
0.0
  0
LINE
  5
A877
330
A664
100
AcDbEntity
  8
1
  6
Continuous
100
AcDbLine
 10
38.35711699999999
 20
166.298301
 30
0.0
 11
34.35711699999998
 21
166.298301
 31
0.0
  0
LINE
  5
A878
330
A664
100
AcDbEntity
  8
1
  6
Continuous
100
AcDbLine
 10
38.35711699999999
 20
171.5315529999998
 30
0.0
 11
34.35711699999998
 21
171.5315529999998
 31
0.0
  0
LINE
  5
A879
330
A664
100
AcDbEntity
  8
1
  6
Continuous
100
AcDbLine
 10
38.35711699999999
 20
172.531553
 30
0.0
 11
34.35711699999998
 21
172.531553
 31
0.0
  0
LINE
  5
A87A
330
A664
100
AcDbEntity
  8
1
  6
Continuous
100
AcDbLine
 10
38.35711699999999
 20
174.031553
 30
0.0
 11
34.35711699999998
 21
174.031553
 31
0.0
  0
LINE
  5
A87B
330
A664
100
AcDbEntity
  8
1
  6
Continuous
100
AcDbLine
 10
38.35711699999999
 20
170.031553
 30
0.0
 11
34.35711699999998
 21
170.031553
 31
0.0
  0
LINE
  5
A87C
330
A664
100
AcDbEntity
  8
1
  6
Continuous
100
AcDbLine
 10
34.35711699999998
 20
175.598301
 30
0.0
 11
38.35711699999999
 21
175.598301
 31
0.0
  0
LINE
  5
A87D
330
A664
100
AcDbEntity
  8
1
  6
Continuous
100
AcDbLine
 10
38.35711699999999
 20
177.0983009999999
 30
0.0
 11
34.35711699999998
 21
177.0983009999999
 31
0.0
  0
LINE
  5
A87E
330
A664
100
AcDbEntity
  8
1
  6
Continuous
100
AcDbLine
 10
38.35711699999999
 20
178.4983009999999
 30
0.0
 11
34.35711699999998
 21
178.4983009999999
 31
0.0
  0
LINE
  5
A87F
330
A664
100
AcDbEntity
  8
1
  6
Continuous
100
AcDbLine
 10
38.35711699999999
 20
179.998301
 30
0.0
 11
34.35711699999998
 21
179.998301
 31
0.0
  0
LINE
  5
A880
330
A664
100
AcDbEntity
  8
1
  6
Continuous
100
AcDbLine
 10
38.35711699999999
 20
163.298301
 30
0.0
 11
38.35711699999999
 21
161.798301
 31
0.0
  0
LINE
  5
A881
330
A664
100
AcDbEntity
  8
1
  6
Continuous
100
AcDbLine
 10
34.35711699999998
 20
163.298301
 30
0.0
 11
34.35711699999998
 21
161.798301
 31
0.0
  0
LINE
  5
A882
330
A664
100
AcDbEntity
  8
1
  6
Continuous
100
AcDbLine
 10
38.35711699999999
 20
164.798301
 30
0.0
 11
34.35711699999998
 21
164.798301
 31
0.0
  0
LINE
  5
A883
330
A664
100
AcDbEntity
  8
1
  6
Continuous
100
AcDbLine
 10
38.35711699999999
 20
161.798301
 30
0.0
 11
34.35711699999998
 21
161.798301
 31
0.0
  0
LINE
  5
A884
330
A664
100
AcDbEntity
  8
1
  6
Continuous
100
AcDbLine
 10
38.35711699999999
 20
163.298301
 30
0.0
 11
34.35711699999998
 21
163.298301
 31
0.0
  0
LINE
  5
A885
330
A664
100
AcDbEntity
  8
1
  6
Continuous
100
AcDbLine
 10
38.35711699999999
 20
166.298301
 30
0.0
 11
38.35711699999999
 21
164.798301
 31
0.0
  0
LINE
  5
A886
330
A664
100
AcDbEntity
  8
1
  6
Continuous
100
AcDbLine
 10
34.35711699999998
 20
166.298301
 30
0.0
 11
34.35711699999998
 21
164.798301
 31
0.0
  0
LINE
  5
A887
330
A664
100
AcDbEntity
  8
1
  6
Continuous
100
AcDbLine
 10
38.35711699999999
 20
190.9983009999999
 30
0.0
 11
38.35711699999999
 21
191.048301
 31
0.0
  0
LINE
  5
A888
330
A664
100
AcDbEntity
  8
1
  6
Continuous
100
AcDbLine
 10
38.35711699999999
 20
189.098301
 30
0.0
 11
38.35711699999999
 21
190.5983009999999
 31
0.0
  0
LINE
  5
A889
330
A664
100
AcDbEntity
  8
1
  6
Continuous
100
AcDbLine
 10
38.35711699999999
 20
186.4983009999999
 30
0.0
 11
38.35711699999999
 21
187.998301
 31
0.0
  0
LINE
  5
A88A
330
A664
100
AcDbEntity
  8
1
  6
Continuous
100
AcDbLine
 10
38.35711699999999
 20
183.8983009999998
 30
0.0
 11
38.35711699999999
 21
185.398301
 31
0.0
  0
LINE
  5
A88B
330
A664
100
AcDbEntity
  8
1
  6
Continuous
100
AcDbLine
 10
34.35711699999998
 20
190.9983009999999
 30
0.0
 11
34.35711699999998
 21
191.048301
 31
0.0
  0
LINE
  5
A88C
330
A664
100
AcDbEntity
  8
1
  6
Continuous
100
AcDbLine
 10
34.35711699999998
 20
189.098301
 30
0.0
 11
34.35711699999998
 21
190.5983009999999
 31
0.0
  0
LINE
  5
A88D
330
A664
100
AcDbEntity
  8
1
  6
Continuous
100
AcDbLine
 10
34.35711699999998
 20
186.4983009999999
 30
0.0
 11
34.35711699999998
 21
187.998301
 31
0.0
  0
LINE
  5
A88E
330
A664
100
AcDbEntity
  8
1
  6
Continuous
100
AcDbLine
 10
34.35711699999998
 20
183.8983009999998
 30
0.0
 11
34.35711699999998
 21
185.398301
 31
0.0
  0
LINE
  5
A88F
330
A664
100
AcDbEntity
  8
1
  6
Continuous
100
AcDbLine
 10
38.35711699999999
 20
190.9983009999999
 30
0.0
 11
34.35711699999998
 21
190.9983009999999
 31
0.0
  0
LINE
  5
A890
330
A664
100
AcDbEntity
  8
1
  6
Continuous
100
AcDbLine
 10
38.35711699999999
 20
190.5983009999999
 30
0.0
 11
34.35711699999998
 21
190.5983009999999
 31
0.0
  0
LINE
  5
A891
330
A664
100
AcDbEntity
  8
1
  6
Continuous
100
AcDbLine
 10
38.35711699999999
 20
189.098301
 30
0.0
 11
34.35711699999998
 21
189.098301
 31
0.0
  0
LINE
  5
A892
330
A664
100
AcDbEntity
  8
1
  6
Continuous
100
AcDbLine
 10
38.35711699999999
 20
186.4983009999999
 30
0.0
 11
34.35711699999998
 21
186.4983009999999
 31
0.0
  0
LINE
  5
A893
330
A664
100
AcDbEntity
  8
1
  6
Continuous
100
AcDbLine
 10
38.35711699999999
 20
187.998301
 30
0.0
 11
34.35711699999998
 21
187.998301
 31
0.0
  0
LINE
  5
A894
330
A664
100
AcDbEntity
  8
1
  6
Continuous
100
AcDbLine
 10
40.35711699999999
 20
191.048301
 30
0.0
 11
32.35711699999999
 21
191.048301
 31
0.0
  0
LINE
  5
A895
330
A664
100
AcDbEntity
  8
1
  6
Continuous
100
AcDbLine
 10
38.35711699999999
 20
185.398301
 30
0.0
 11
34.35711699999998
 21
185.398301
 31
0.0
  0
LINE
  5
A896
330
A664
100
AcDbEntity
  8
1
  6
Continuous
100
AcDbLine
 10
38.35711699999999
 20
183.8983009999998
 30
0.0
 11
34.35711699999998
 21
183.8983009999998
 31
0.0
  0
LINE
  5
A897
330
A664
100
AcDbEntity
  8
1
  6
Continuous
100
AcDbLine
 10
38.35711699999999
 20
181.398301
 30
0.0
 11
38.35711699999999
 21
182.8983009999998
 31
0.0
  0
LINE
  5
A898
330
A664
100
AcDbEntity
  8
1
  6
Continuous
100
AcDbLine
 10
34.35711699999998
 20
181.398301
 30
0.0
 11
34.35711699999998
 21
182.8983009999998
 31
0.0
  0
LINE
  5
A899
330
A664
100
AcDbEntity
  8
1
  6
Continuous
100
AcDbLine
 10
38.35711699999999
 20
181.398301
 30
0.0
 11
34.35711699999998
 21
181.398301
 31
0.0
  0
LINE
  5
A89A
330
A664
100
AcDbEntity
  8
1
  6
Continuous
100
AcDbLine
 10
38.35711699999999
 20
182.8983009999998
 30
0.0
 11
34.35711699999998
 21
182.8983009999998
 31
0.0
  0
ARC
  5
A89B
330
A664
100
AcDbEntity
  8
1
  6
Continuous
100
AcDbCircle
 10
358.446196
 20
129.4482889999999
 30
0.0
 40
0.5
100
AcDbArc
 50
90.0
 51
180.0
  0
LINE
  5
A89C
330
A664
100
AcDbEntity
  8
1
  6
Continuous
100
AcDbLine
 10
356.7346569999998
 20
127.155981
 30
0.0
 11
359.830811
 21
119.725212
 31
0.0
  0
LINE
  5
A89D
330
A664
100
AcDbEntity
  8
1
  6
Continuous
100
AcDbLine
 10
355.9462439999999
 20
132.7482889999998
 30
0.0
 11
359.9961959999998
 21
132.7482889999998
 31
0.0
  0
LINE
  5
A89E
330
A664
100
AcDbEntity
  8
1
  6
Continuous
100
AcDbLine
 10
355.9462439999999
 20
131.7482889999998
 30
0.0
 11
366.9462439999999
 21
131.7482889999998
 31
0.0
  0
ARC
  5
A89F
330
A664
100
AcDbEntity
  8
5
  6
PHANTOM
100
AcDbCircle
 10
361.4461959999999
 20
120.8351399999999
 30
0.0
 40
11.913149
100
AcDbArc
 50
63.307248
 51
116.692752
  0
ARC
  5
A8A0
330
A664
100
AcDbEntity
  8
5
  6
PHANTOM
100
AcDbCircle
 10
361.4461959999999
 20
120.321261
 30
0.0
 40
11.399271
100
AcDbArc
 50
63.307248
 51
116.692752
  0
LINE
  5
A8A1
330
A664
100
AcDbEntity
  8
1
  6
Continuous
100
AcDbLine
 10
357.1961959999999
 20
127.848289
 30
0.0
 11
357.9461959999999
 21
127.848289
 31
0.0
  0
LINE
  5
A8A2
330
A664
100
AcDbEntity
  8
1
  6
Continuous
100
AcDbLine
 10
357.9461959999999
 20
129.4482889999999
 30
0.0
 11
357.9461959999999
 21
127.848289
 31
0.0
  0
ARC
  5
A8A3
330
A664
100
AcDbEntity
  8
1
  6
Continuous
100
AcDbCircle
 10
352.9462439999999
 20
131.4482889999998
 30
0.0
 40
1.0
100
AcDbArc
 50
25.898322
 51
308.3739339999999
  0
LINE
  5
A8A4
330
A664
100
AcDbEntity
  8
1
  6
Continuous
100
AcDbLine
 10
355.9462439999999
 20
132.7482889999998
 30
0.0
 11
353.845815
 21
131.8850649999999
 31
0.0
  0
LINE
  5
A8A5
330
A664
100
AcDbEntity
  8
1
  6
Continuous
100
AcDbLine
 10
355.9462439999999
 20
131.7482889999998
 30
0.0
 11
353.5670349999999
 21
130.6643129999999
 31
0.0
  0
LINE
  5
A8A6
330
A664
100
AcDbEntity
  8
5
  6
PHANTOM
100
AcDbLine
 10
356.325575
 20
130.5056909999999
 30
0.0
 11
354.260845
 21
128.901781
 31
0.0
  0
LINE
  5
A8A7
330
A664
100
AcDbEntity
  8
5
  6
PHANTOM
100
AcDbLine
 10
356.0947379999998
 20
131.4786839999999
 30
0.0
 11
354.2502999999999
 21
130.1539149999999
 31
0.0
  0
ARC
  5
A8A8
330
A664
100
AcDbEntity
  8
5
  6
PHANTOM
100
AcDbCircle
 10
353.4758489999999
 20
129.5212809999999
 30
0.0
 40
1.0
100
AcDbArc
 50
39.24469699999999
 51
321.7203099999999
  0
ARC
  5
A8A9
330
A664
100
AcDbEntity
  8
1
  6
Continuous
100
AcDbCircle
 10
357.1961959999999
 20
127.3482889999998
 30
0.0
 40
0.5
100
AcDbArc
 50
90.0
 51
202.6198649999999
  0
LINE
  5
A8AA
330
A664
100
AcDbEntity
  8
1
  6
Continuous
100
AcDbLine
 10
366.157734
 20
127.155981
 30
0.0
 11
363.06158
 21
119.725212
 31
0.0
  0
LINE
  5
A8AB
330
A664
100
AcDbEntity
  8
1
  6
Continuous
100
AcDbLine
 10
360.496196
 20
131.248289
 30
0.0
 11
360.496196
 21
118.928595
 31
0.0
  0
LINE
  5
A8AC
330
A664
100
AcDbEntity
  8
1
  6
Continuous
100
AcDbLine
 10
362.3961959999999
 20
131.248289
 30
0.0
 11
362.3961959999999
 21
118.928595
 31
0.0
  0
ARC
  5
A8AD
330
A664
100
AcDbEntity
  8
1
  6
Continuous
100
AcDbCircle
 10
361.4461959999999
 20
120.398289
 30
0.0
 40
1.75
100
AcDbArc
 50
202.6198649999999
 51
337.3801349999999
  0
LINE
  5
A8AE
330
A664
100
AcDbEntity
  8
5
  6
PHANTOM
100
AcDbLine
 10
366.797654
 20
131.4786839999999
 30
0.0
 11
368.6420909999998
 21
130.1539149999999
 31
0.0
  0
LINE
  5
A8AF
330
A664
100
AcDbEntity
  8
5
  6
PHANTOM
100
AcDbLine
 10
366.566816
 20
130.5056909999999
 30
0.0
 11
368.631546
 21
128.901781
 31
0.0
  0
ARC
  5
A8B0
330
A664
100
AcDbEntity
  8
5
  6
PHANTOM
100
AcDbCircle
 10
369.416542
 20
129.5212809999999
 30
0.0
 40
1.0
100
AcDbArc
 50
218.27969
 51
140.755303
  0
LINE
  5
A8B1
330
A664
100
AcDbEntity
  8
1
  6
Continuous
100
AcDbLine
 10
364.946196
 20
127.848289
 30
0.0
 11
365.6961959999999
 21
127.848289
 31
0.0
  0
ARC
  5
A8B2
330
A664
100
AcDbEntity
  8
1
  6
Continuous
100
AcDbCircle
 10
359.9961959999998
 20
131.248289
 30
0.0
 40
0.5
100
AcDbArc
 50
0.0
 51
90.0
  0
ARC
  5
A8B3
330
A664
100
AcDbEntity
  8
1
  6
Continuous
100
AcDbCircle
 10
362.8961959999998
 20
131.248289
 30
0.0
 40
0.5
100
AcDbArc
 50
90.0
 51
180.0
  0
LINE
  5
A8B4
330
A664
100
AcDbEntity
  8
1
  6
Continuous
100
AcDbLine
 10
358.446196
 20
129.9482889999999
 30
0.0
 11
358.446196
 21
129.9482889999999
 31
0.0
  0
ARC
  5
A8B5
330
A664
100
AcDbEntity
  8
1
  6
Continuous
100
AcDbCircle
 10
358.446196
 20
129.4482889999999
 30
0.0
 40
0.5
100
AcDbArc
 50
0.0
 51
90.0
  0
ARC
  5
A8B6
330
A664
100
AcDbEntity
  8
1
  6
Continuous
100
AcDbCircle
 10
359.9961959999998
 20
123.7482889999999
 30
0.0
 40
0.5
100
AcDbArc
 50
202.6198649999999
 51
0.0
  0
ARC
  5
A8B7
330
A664
100
AcDbEntity
  8
1
  6
Continuous
100
AcDbCircle
 10
362.8961959999998
 20
123.7482889999999
 30
0.0
 40
0.5
100
AcDbArc
 50
180.0
 51
337.3801349999999
  0
LINE
  5
A8B8
330
A664
100
AcDbEntity
  8
1
  6
Continuous
100
AcDbLine
 10
358.9461959999999
 20
126.1682889999999
 30
0.0
 11
359.5346569999999
 21
123.555981
 31
0.0
  0
LINE
  5
A8B9
330
A664
100
AcDbEntity
  8
1
  6
Continuous
100
AcDbLine
 10
363.9461959999999
 20
126.1682889999999
 30
0.0
 11
363.3577339999998
 21
123.555981
 31
0.0
  0
LINE
  5
A8BA
330
A664
100
AcDbEntity
  8
1
  6
Continuous
100
AcDbLine
 10
358.9461959999999
 20
129.4482889999999
 30
0.0
 11
358.9461959999999
 21
126.1682889999999
 31
0.0
  0
LINE
  5
A8BB
330
A664
100
AcDbEntity
  8
1
  6
Continuous
100
AcDbLine
 10
363.9461959999999
 20
129.4482889999999
 30
0.0
 11
363.9461959999999
 21
126.1682889999999
 31
0.0
  0
LINE
  5
A8BC
330
A664
100
AcDbEntity
  8
1
  6
Continuous
100
AcDbLine
 10
364.446196
 20
129.9482889999999
 30
0.0
 11
364.446196
 21
129.9482889999999
 31
0.0
  0
ARC
  5
A8BD
330
A664
100
AcDbEntity
  8
1
  6
Continuous
100
AcDbCircle
 10
364.446196
 20
129.4482889999999
 30
0.0
 40
0.5
100
AcDbArc
 50
0.0
 51
90.0
  0
ARC
  5
A8BE
330
A664
100
AcDbEntity
  8
1
  6
Continuous
100
AcDbCircle
 10
365.6961959999999
 20
127.3482889999998
 30
0.0
 40
0.5
100
AcDbArc
 50
337.3801349999999
 51
90.0
  0
LINE
  5
A8BF
330
A664
100
AcDbEntity
  8
1
  6
Continuous
100
AcDbLine
 10
364.946196
 20
129.4482889999999
 30
0.0
 11
364.946196
 21
127.848289
 31
0.0
  0
ARC
  5
A8C0
330
A664
100
AcDbEntity
  8
1
  6
Continuous
100
AcDbCircle
 10
364.446196
 20
129.4482889999999
 30
0.0
 40
0.5
100
AcDbArc
 50
90.0
 51
180.0
  0
ARC
  5
A8C1
330
A664
100
AcDbEntity
  8
1
  6
Continuous
100
AcDbCircle
 10
369.946244
 20
131.4482889999998
 30
0.0
 40
1.0
100
AcDbArc
 50
231.626066
 51
154.1016779999999
  0
LINE
  5
A8C2
330
A664
100
AcDbEntity
  8
1
  6
Continuous
100
AcDbLine
 10
366.9462439999999
 20
131.7482889999998
 30
0.0
 11
369.3254529999999
 21
130.6643129999999
 31
0.0
  0
LINE
  5
A8C3
330
A664
100
AcDbEntity
  8
1
  6
Continuous
100
AcDbLine
 10
366.9462439999999
 20
132.7482889999998
 30
0.0
 11
369.046673
 21
131.8850649999999
 31
0.0
  0
LINE
  5
A8C4
330
A664
100
AcDbEntity
  8
1
  6
Continuous
100
AcDbLine
 10
362.8961959999998
 20
132.7482889999998
 30
0.0
 11
366.9462439999999
 21
132.7482889999998
 31
0.0
  0
ARC
  5
A8C5
330
A664
100
AcDbEntity
  8
5
  6
PHANTOM
100
AcDbCircle
 10
44.327463
 20
129.5212809999999
 30
0.0
 40
1.0
100
AcDbArc
 50
218.27969
 51
140.755303
  0
LINE
  5
A8C6
330
A664
100
AcDbEntity
  8
5
  6
PHANTOM
100
AcDbLine
 10
41.477737
 20
130.5056909999999
 30
0.0
 11
43.542467
 21
128.901781
 31
0.0
  0
LINE
  5
A8C7
330
A664
100
AcDbEntity
  8
5
  6
PHANTOM
100
AcDbLine
 10
41.708575
 20
131.4786839999999
 30
0.0
 11
43.553012
 21
130.1539149999999
 31
0.0
  0
LINE
  5
A8C8
330
A664
100
AcDbEntity
  8
1
  6
Continuous
100
AcDbLine
 10
37.307117
 20
131.248289
 30
0.0
 11
37.307117
 21
118.928595
 31
0.0
  0
LINE
  5
A8C9
330
A664
100
AcDbEntity
  8
1
  6
Continuous
100
AcDbLine
 10
35.407117
 20
131.248289
 30
0.0
 11
35.407117
 21
118.928595
 31
0.0
  0
ARC
  5
A8CA
330
A664
100
AcDbEntity
  8
5
  6
PHANTOM
100
AcDbCircle
 10
28.38677
 20
129.5212809999999
 30
0.0
 40
1.0
100
AcDbArc
 50
39.24469699999999
 51
321.7203099999999
  0
LINE
  5
A8CB
330
A664
100
AcDbEntity
  8
5
  6
PHANTOM
100
AcDbLine
 10
31.005659
 20
131.4786839999999
 30
0.0
 11
29.161221
 21
130.1539149999999
 31
0.0
  0
LINE
  5
A8CC
330
A664
100
AcDbEntity
  8
5
  6
PHANTOM
100
AcDbLine
 10
31.236496
 20
130.5056909999999
 30
0.0
 11
29.17176599999999
 21
128.901781
 31
0.0
  0
ARC
  5
A8CD
330
A664
100
AcDbEntity
  8
1
  6
Continuous
100
AcDbCircle
 10
37.80711699999999
 20
123.7482889999999
 30
0.0
 40
0.5
100
AcDbArc
 50
180.0
 51
337.3801349999999
  0
ARC
  5
A8CE
330
A664
100
AcDbEntity
  8
1
  6
Continuous
100
AcDbCircle
 10
36.35711699999998
 20
120.398289
 30
0.0
 40
1.75
100
AcDbArc
 50
202.6198649999999
 51
337.3801349999999
  0
LINE
  5
A8CF
330
A664
100
AcDbEntity
  8
1
  6
Continuous
100
AcDbLine
 10
33.85711699999998
 20
129.4482889999999
 30
0.0
 11
33.85711699999998
 21
126.1682889999999
 31
0.0
  0
LINE
  5
A8D0
330
A664
100
AcDbEntity
  8
1
  6
Continuous
100
AcDbLine
 10
33.85711699999998
 20
126.1682889999999
 30
0.0
 11
34.44557800000001
 21
123.555981
 31
0.0
  0
ARC
  5
A8D1
330
A664
100
AcDbEntity
  8
1
  6
Continuous
100
AcDbCircle
 10
34.907117
 20
123.7482889999999
 30
0.0
 40
0.5
100
AcDbArc
 50
202.6198649999999
 51
0.0
  0
ARC
  5
A8D2
330
A664
100
AcDbEntity
  8
1
  6
Continuous
100
AcDbCircle
 10
33.35711699999999
 20
129.4482889999999
 30
0.0
 40
0.5
100
AcDbArc
 50
0.0
 51
90.0
  0
LINE
  5
A8D3
330
A664
100
AcDbEntity
  8
1
  6
Continuous
100
AcDbLine
 10
33.35711699999999
 20
129.9482889999999
 30
0.0
 11
33.35711699999999
 21
129.9482889999999
 31
0.0
  0
ARC
  5
A8D4
330
A664
100
AcDbEntity
  8
1
  6
Continuous
100
AcDbCircle
 10
32.10711699999999
 20
127.3482889999998
 30
0.0
 40
0.5
100
AcDbArc
 50
90.0
 51
202.6198649999999
  0
LINE
  5
A8D5
330
A664
100
AcDbEntity
  8
1
  6
Continuous
100
AcDbLine
 10
32.85711699999998
 20
129.4482889999999
 30
0.0
 11
32.85711699999998
 21
127.848289
 31
0.0
  0
LINE
  5
A8D6
330
A664
100
AcDbEntity
  8
1
  6
Continuous
100
AcDbLine
 10
32.10711699999999
 20
127.848289
 30
0.0
 11
32.85711699999998
 21
127.848289
 31
0.0
  0
LINE
  5
A8D7
330
A664
100
AcDbEntity
  8
1
  6
Continuous
100
AcDbLine
 10
31.64557800000001
 20
127.155981
 30
0.0
 11
34.741732
 21
119.725212
 31
0.0
  0
ARC
  5
A8D8
330
A664
100
AcDbEntity
  8
1
  6
Continuous
100
AcDbCircle
 10
33.35711699999999
 20
129.4482889999999
 30
0.0
 40
0.5
100
AcDbArc
 50
90.0
 51
180.0
  0
ARC
  5
A8D9
330
A664
100
AcDbEntity
  8
1
  6
Continuous
100
AcDbCircle
 10
39.35711699999997
 20
129.4482889999999
 30
0.0
 40
0.5
100
AcDbArc
 50
90.0
 51
180.0
  0
LINE
  5
A8DA
330
A664
100
AcDbEntity
  8
1
  6
Continuous
100
AcDbLine
 10
39.85711699999999
 20
129.4482889999999
 30
0.0
 11
39.85711699999999
 21
127.848289
 31
0.0
  0
ARC
  5
A8DB
330
A664
100
AcDbEntity
  8
1
  6
Continuous
100
AcDbCircle
 10
40.60711699999997
 20
127.3482889999998
 30
0.0
 40
0.5
100
AcDbArc
 50
337.3801349999999
 51
90.0
  0
ARC
  5
A8DC
330
A664
100
AcDbEntity
  8
1
  6
Continuous
100
AcDbCircle
 10
39.35711699999997
 20
129.4482889999999
 30
0.0
 40
0.5
100
AcDbArc
 50
0.0
 51
90.0
  0
LINE
  5
A8DD
330
A664
100
AcDbEntity
  8
1
  6
Continuous
100
AcDbLine
 10
39.35711699999997
 20
129.9482889999999
 30
0.0
 11
39.35711699999997
 21
129.9482889999999
 31
0.0
  0
LINE
  5
A8DE
330
A664
100
AcDbEntity
  8
1
  6
Continuous
100
AcDbLine
 10
38.85711699999998
 20
129.4482889999999
 30
0.0
 11
38.85711699999998
 21
126.1682889999999
 31
0.0
  0
LINE
  5
A8DF
330
A664
100
AcDbEntity
  8
1
  6
Continuous
100
AcDbLine
 10
38.85711699999998
 20
126.1682889999999
 30
0.0
 11
38.26865499999998
 21
123.555981
 31
0.0
  0
LINE
  5
A8E0
330
A664
100
AcDbEntity
  8
1
  6
Continuous
100
AcDbLine
 10
39.85711699999999
 20
127.848289
 30
0.0
 11
40.60711699999997
 21
127.848289
 31
0.0
  0
LINE
  5
A8E1
330
A664
100
AcDbEntity
  8
1
  6
Continuous
100
AcDbLine
 10
41.068655
 20
127.155981
 30
0.0
 11
37.972501
 21
119.725212
 31
0.0
  0
ARC
  5
A8E2
330
A664
100
AcDbEntity
  8
1
  6
Continuous
100
AcDbCircle
 10
37.80711699999999
 20
131.248289
 30
0.0
 40
0.5
100
AcDbArc
 50
90.0
 51
180.0
  0
ARC
  5
A8E3
330
A664
100
AcDbEntity
  8
5
  6
PHANTOM
100
AcDbCircle
 10
36.35711699999998
 20
120.321261
 30
0.0
 40
11.399271
100
AcDbArc
 50
63.307248
 51
116.692752
  0
ARC
  5
A8E4
330
A664
100
AcDbEntity
  8
5
  6
PHANTOM
100
AcDbCircle
 10
36.35711699999998
 20
120.8351399999999
 30
0.0
 40
11.913149
100
AcDbArc
 50
63.307248
 51
116.692752
  0
LINE
  5
A8E5
330
A664
100
AcDbEntity
  8
1
  6
Continuous
100
AcDbLine
 10
30.857165
 20
131.7482889999998
 30
0.0
 11
41.857165
 21
131.7482889999998
 31
0.0
  0
ARC
  5
A8E6
330
A664
100
AcDbEntity
  8
1
  6
Continuous
100
AcDbCircle
 10
34.907117
 20
131.248289
 30
0.0
 40
0.5
100
AcDbArc
 50
0.0
 51
90.0
  0
LINE
  5
A8E7
330
A664
100
AcDbEntity
  8
1
  6
Continuous
100
AcDbLine
 10
30.857165
 20
131.7482889999998
 30
0.0
 11
28.47795599999999
 21
130.6643129999999
 31
0.0
  0
LINE
  5
A8E8
330
A664
100
AcDbEntity
  8
1
  6
Continuous
100
AcDbLine
 10
30.857165
 20
132.7482889999998
 30
0.0
 11
28.756736
 21
131.8850649999999
 31
0.0
  0
ARC
  5
A8E9
330
A664
100
AcDbEntity
  8
1
  6
Continuous
100
AcDbCircle
 10
27.85716499999999
 20
131.4482889999998
 30
0.0
 40
1.0
100
AcDbArc
 50
25.898322
 51
308.3739339999999
  0
LINE
  5
A8EA
330
A664
100
AcDbEntity
  8
1
  6
Continuous
100
AcDbLine
 10
30.857165
 20
132.7482889999998
 30
0.0
 11
34.907117
 21
132.7482889999998
 31
0.0
  0
LINE
  5
A8EB
330
A664
100
AcDbEntity
  8
1
  6
Continuous
100
AcDbLine
 10
37.80711699999999
 20
132.7482889999998
 30
0.0
 11
41.857165
 21
132.7482889999998
 31
0.0
  0
LINE
  5
A8EC
330
A664
100
AcDbEntity
  8
1
  6
Continuous
100
AcDbLine
 10
41.857165
 20
132.7482889999998
 30
0.0
 11
43.957594
 21
131.8850649999999
 31
0.0
  0
LINE
  5
A8ED
330
A664
100
AcDbEntity
  8
1
  6
Continuous
100
AcDbLine
 10
41.857165
 20
131.7482889999998
 30
0.0
 11
44.23637399999999
 21
130.6643129999999
 31
0.0
  0
ARC
  5
A8EE
330
A664
100
AcDbEntity
  8
1
  6
Continuous
100
AcDbCircle
 10
44.857165
 20
131.4482889999998
 30
0.0
 40
1.0
100
AcDbArc
 50
231.626066
 51
154.1016779999999
  0
ARC
  5
A8EF
330
A664
100
AcDbEntity
  8
1
  6
Continuous
100
AcDbCircle
 10
37.80711699999999
 20
133.248289
 30
0.0
 40
0.5
100
AcDbArc
 50
180.0
 51
270.0
  0
ARC
  5
A8F0
330
A664
100
AcDbEntity
  8
1
  6
Continuous
100
AcDbCircle
 10
34.907117
 20
133.248289
 30
0.0
 40
0.5
100
AcDbArc
 50
270.0
 51
0.0
  0
ARC
  5
A8F1
330
A664
100
AcDbEntity
  8
1
  6
Continuous
100
AcDbCircle
 10
359.9961959999998
 20
133.248289
 30
0.0
 40
0.5
100
AcDbArc
 50
270.0
 51
0.0
  0
ARC
  5
A8F2
330
A664
100
AcDbEntity
  8
1
  6
Continuous
100
AcDbCircle
 10
362.8961959999998
 20
133.248289
 30
0.0
 40
0.5
100
AcDbArc
 50
180.0
 51
270.0
  0
LINE
  5
A8F3
330
A664
100
AcDbEntity
  8
1
  6
Continuous
100
AcDbLine
 10
360.196196
 20
140.8482889999999
 30
0.0
 11
356.446196
 21
140.8482889999999
 31
0.0
  0
LINE
  5
A8F4
330
A664
100
AcDbEntity
  8
1
  6
Continuous
100
AcDbLine
 10
38.10711699999997
 20
134.8482889999999
 30
0.0
 11
38.95711699999999
 21
134.8482889999999
 31
0.0
  0
LINE
  5
A8F5
330
A664
100
AcDbEntity
  8
1
  6
Continuous
100
AcDbLine
 10
144.201656
 20
132.7482889999998
 30
0.0
 11
154.201656
 21
132.7482889999998
 31
0.0
  0
LINE
  5
A8F6
330
A664
100
AcDbEntity
  8
1
  6
Continuous
100
AcDbLine
 10
144.201656
 20
132.4482889999998
 30
0.0
 11
154.201656
 21
132.4482889999998
 31
0.0
  0
LINE
  5
A8F7
330
A664
100
AcDbEntity
  8
1
  6
Continuous
100
AcDbLine
 10
144.201656
 20
130.4482889999998
 30
0.0
 11
154.201656
 21
130.4482889999998
 31
0.0
  0
LINE
  5
A8F8
330
A664
100
AcDbEntity
  8
1
  6
Continuous
100
AcDbLine
 10
146.701656
 20
129.9482889999999
 30
0.0
 11
149.701656
 21
129.9482889999999
 31
0.0
  0
ARC
  5
A8F9
330
A664
100
AcDbEntity
  8
1
  6
Continuous
100
AcDbCircle
 10
149.201656
 20
119.648301
 30
0.0
 40
1.0
100
AcDbArc
 50
270.0
 51
0.0
  0
ARC
  5
A8FA
330
A664
100
AcDbEntity
  8
1
  6
Continuous
100
AcDbCircle
 10
147.201656
 20
119.648301
 30
0.0
 40
1.0
100
AcDbArc
 50
180.0
 51
270.0
  0
LINE
  5
A8FB
330
A664
100
AcDbEntity
  8
4
  6
CENTER
100
AcDbLine
 10
45.35711699999999
 20
144.8483009999999
 30
0.0
 11
27.35711699999999
 21
144.8483009999999
 31
0.0
  0
LINE
  5
A8FC
330
A664
100
AcDbEntity
  8
4
  6
CENTER
100
AcDbLine
 10
370.4461959999999
 20
144.8483009999999
 30
0.0
 11
352.446196
 21
144.8483009999999
 31
0.0
  0
LINE
  5
A8FD
330
A664
100
AcDbEntity
  8
4
  6
CENTER
100
AcDbLine
 10
142.001656
 20
70.305916
 30
0.0
 11
142.001656
 21
52.305916
 31
0.0
  0
LINE
  5
A8FE
330
A664
100
AcDbEntity
  8
4
  6
CENTER
100
AcDbLine
 10
142.001656
 20
70.305916
 30
0.0
 11
142.001656
 21
52.305916
 31
0.0
  0
LINE
  5
A8FF
330
A664
100
AcDbEntity
  8
4
  6
CENTER
100
AcDbLine
 10
142.001656
 20
259.439724
 30
0.0
 11
142.001656
 21
241.439724
 31
0.0
  0
LINE
  5
A900
330
A664
100
AcDbEntity
  8
4
  6
CENTER
100
AcDbLine
 10
142.001656
 20
259.439724
 30
0.0
 11
142.001656
 21
241.439724
 31
0.0
  0
ARC
  5
A901
330
A664
100
AcDbEntity
  8
1
  6
Continuous
100
AcDbCircle
 10
122.001656
 20
164.8483009999999
 30
0.0
 40
25.0
100
AcDbArc
 50
2.906902
 51
267.093098
  0
ARC
  5
A902
330
A664
100
AcDbEntity
  8
1
  6
Continuous
100
AcDbCircle
 10
122.001656
 20
164.8483009999999
 30
0.0
 40
26.2
100
AcDbArc
 50
2.776736
 51
267.2232639999999
  0
LINE
  5
A903
330
A664
100
AcDbEntity
  8
4
  6
CENTER
100
AcDbLine
 10
92.00165600000001
 20
164.8483009999999
 30
0.0
 11
152.001656
 21
164.8483009999999
 31
0.0
  0
LINE
  5
A904
330
A664
100
AcDbEntity
  8
4
  6
CENTER
100
AcDbLine
 10
122.001656
 20
134.848301
 30
0.0
 11
122.001656
 21
194.8483009999999
 31
0.0
  0
LINE
  5
A905
330
A664
100
AcDbEntity
  8
4
  6
CENTER
100
AcDbLine
 10
122.001656
 20
259.439724
 30
0.0
 11
122.001656
 21
241.439724
 31
0.0
  0
LINE
  5
A906
330
A664
100
AcDbEntity
  8
4
  6
CENTER
100
AcDbLine
 10
122.001656
 20
70.305916
 30
0.0
 11
122.001656
 21
52.305916
 31
0.0
  0
LINE
  5
A907
330
A664
100
AcDbEntity
  8
4
  6
CENTER
100
AcDbLine
 10
45.35711699999999
 20
164.8483009999999
 30
0.0
 11
27.35711699999999
 21
164.8483009999999
 31
0.0
  0
LINE
  5
A908
330
A664
100
AcDbEntity
  8
4
  6
CENTER
100
AcDbLine
 10
370.4461959999999
 20
164.8483009999999
 30
0.0
 11
352.446196
 21
164.8483009999999
 31
0.0
  0
LINE
  5
A909
330
A664
100
AcDbEntity
  8
5
  6
PHANTOM
100
AcDbLine
 10
291.7516560000001
 20
139.3483009999999
 30
0.0
 11
291.7516560000001
 21
138.648301
 31
0.0
  0
ARC
  5
A90A
330
A664
100
AcDbEntity
  8
5
  6
PHANTOM
100
AcDbCircle
 10
291.251656
 20
139.3483009999999
 30
0.0
 40
0.5
100
AcDbArc
 50
0.0
 51
90.0
  0
LINE
  5
A90B
330
A664
100
AcDbEntity
  8
5
  6
PHANTOM
100
AcDbLine
 10
282.451656
 20
65.305916
 30
0.0
 11
290.0376560000001
 21
63.49965699999999
 31
0.0
  0
ARC
  5
A90C
330
A664
100
AcDbEntity
  8
5
  6
PHANTOM
100
AcDbCircle
 10
289.537656
 20
61.305916
 30
0.0
 40
2.25
100
AcDbArc
 50
282.839588
 51
77.16041199999998
  0
LINE
  5
A90D
330
A664
100
AcDbEntity
  8
5
  6
PHANTOM
100
AcDbLine
 10
282.451656
 20
57.305916
 30
0.0
 11
290.0376560000001
 21
59.112175
 31
0.0
  0
LINE
  5
A90E
330
A664
100
AcDbEntity
  8
5
  6
PHANTOM
100
AcDbLine
 10
154.237627
 20
65.305916
 30
0.0
 11
282.451656
 21
65.305916
 31
0.0
  0
LINE
  5
A90F
330
A664
100
AcDbEntity
  8
5
  6
PHANTOM
100
AcDbLine
 10
154.237627
 20
57.305916
 30
0.0
 11
282.451656
 21
57.305916
 31
0.0
  0
CIRCLE
  5
A910
330
A664
100
AcDbEntity
  8
5
  6
PHANTOM
100
AcDbCircle
 10
283.951656
 20
61.305916
 30
0.0
 40
1.6
  0
LINE
  5
A911
330
A664
100
AcDbEntity
  8
4
  6
CENTER
100
AcDbLine
 10
283.951656
 20
57.719563
 30
0.0
 11
283.951656
 21
64.892269
 31
0.0
  0
LINE
  5
A912
330
A664
100
AcDbEntity
  8
4
  6
CENTER
100
AcDbLine
 10
283.951656
 20
144.8483009999999
 30
0.0
 11
283.951656
 21
133.648301
 31
0.0
  0
CIRCLE
  5
A913
330
A664
100
AcDbEntity
  8
5
  6
PHANTOM
100
AcDbCircle
 10
283.951656
 20
250.439724
 30
0.0
 40
1.6
  0
LINE
  5
A914
330
A664
100
AcDbEntity
  8
5
  6
PHANTOM
100
AcDbLine
 10
282.451656
 20
254.439724
 30
0.0
 11
290.0376560000001
 21
252.6334649999999
 31
0.0
  0
LINE
  5
A915
330
A664
100
AcDbEntity
  8
5
  6
PHANTOM
100
AcDbLine
 10
282.451656
 20
246.439724
 30
0.0
 11
290.0376560000001
 21
248.2459829999999
 31
0.0
  0
LINE
  5
A916
330
A664
100
AcDbEntity
  8
4
  6
CENTER
100
AcDbLine
 10
283.951656
 20
246.8533709999999
 30
0.0
 11
283.951656
 21
254.0260769999999
 31
0.0
  0
ARC
  5
A917
330
A664
100
AcDbEntity
  8
5
  6
PHANTOM
100
AcDbCircle
 10
289.537656
 20
250.439724
 30
0.0
 40
2.25
100
AcDbArc
 50
282.839588
 51
77.16041199999998
  0
LINE
  5
A918
330
A664
100
AcDbEntity
  8
5
  6
PHANTOM
100
AcDbLine
 10
154.237627
 20
254.439724
 30
0.0
 11
282.451656
 21
254.439724
 31
0.0
  0
LINE
  5
A919
330
A664
100
AcDbEntity
  8
5
  6
PHANTOM
100
AcDbLine
 10
154.237627
 20
246.439724
 30
0.0
 11
282.630672
 21
246.439724
 31
0.0
  0
LINE
  5
A91A
330
A664
100
AcDbEntity
  8
5
  6
PHANTOM
100
AcDbLine
 10
431.2759509999998
 20
138.8128739999999
 30
0.0
 11
568.825568
 21
139.1373629999999
 31
0.0
  0
LINE
  5
A91B
330
A664
100
AcDbEntity
  8
5
  6
PHANTOM
100
AcDbLine
 10
431.7731189999998
 20
140.01405
 30
0.0
 11
568.8227379999997
 21
140.3373589999999
 31
0.0
  0
LINE
  5
A91C
330
A664
100
AcDbEntity
  8
4
  6
CENTER
100
AcDbLine
 10
601.0344429999999
 20
135.4133349999999
 30
0.0
 11
600.8929000000001
 21
195.4131679999999
 31
0.0
  0
ARC
  5
A91D
330
A664
100
AcDbEntity
  8
1
  6
Continuous
100
AcDbCircle
 10
600.9636709999997
 20
165.413252
 30
0.0
 40
26.2
100
AcDbArc
 50
272.9119
 51
177.358429
  0
ARC
  5
A91E
330
A664
100
AcDbEntity
  8
1
  6
Continuous
100
AcDbCircle
 10
600.9636709999997
 20
165.413252
 30
0.0
 40
25.0
100
AcDbArc
 50
273.0420669999999
 51
177.228262
  0
LINE
  5
A91F
330
A664
100
AcDbEntity
  8
4
  6
CENTER
100
AcDbLine
 10
630.963588
 20
165.484023
 30
0.0
 11
570.963755
 21
165.3424799999999
 31
0.0
  0
LINE
  5
A920
330
A664
100
AcDbEntity
  8
1
  6
Continuous
100
AcDbLine
 10
578.8227099999998
 20
140.3609499999998
 30
0.0
 11
602.3226440000001
 21
140.4163879999997
 31
0.0
  0
LINE
  5
A921
330
A664
100
AcDbEntity
  8
1
  6
Continuous
100
AcDbLine
 10
578.825541
 20
139.1609529999997
 30
0.0
 11
602.3254749999997
 21
139.2163909999998
 31
0.0
  0
LINE
  5
A922
330
A664
100
AcDbEntity
  8
1
  6
Continuous
100
AcDbLine
 10
568.8168400000002
 20
142.837352
 30
0.0
 11
568.844913
 21
130.937374
 31
0.0
  0
LINE
  5
A923
330
A664
100
AcDbEntity
  8
1
  6
Continuous
100
AcDbLine
 10
578.8203509999997
 20
141.360947
 30
0.0
 11
578.8448849999999
 21
130.9609649999998
 31
0.0
  0
ARC
  5
A924
330
A664
100
AcDbEntity
  8
1
  6
Continuous
100
AcDbCircle
 10
575.8703709999998
 20
120.153929
 30
0.0
 40
1.0
100
AcDbArc
 50
270.1351639999999
 51
0.135164
  0
ARC
  5
A925
330
A664
100
AcDbEntity
  8
1
  6
Continuous
100
AcDbCircle
 10
573.8703769999997
 20
120.149211
 30
0.0
 40
1.0
100
AcDbArc
 50
180.1351639999998
 51
270.1351639999999
  0
LINE
  5
A926
330
A664
100
AcDbEntity
  8
1
  6
Continuous
100
AcDbLine
 10
576.3460710000003
 20
130.4550679999999
 30
0.0
 11
573.34608
 21
130.4479909999998
 31
0.0
  0
LINE
  5
A927
330
A664
100
AcDbEntity
  8
1
  6
Continuous
100
AcDbLine
 10
578.8448849999999
 20
130.9609649999998
 30
0.0
 11
568.844913
 21
130.937374
 31
0.0
  0
LINE
  5
A928
330
A664
100
AcDbEntity
  8
4
  6
CENTER
100
AcDbLine
 10
574.8486709999999
 20
129.3515439999999
 30
0.0
 11
574.8790349999998
 21
116.4801439999999
 31
0.0
  0
ARC
  5
A929
330
A664
100
AcDbEntity
  8
1
  6
Continuous
100
AcDbCircle
 10
574.8691939999997
 20
120.651569
 30
0.0
 40
1.5
100
AcDbArc
 50
180.1351639999998
 51
0.135164
  0
LINE
  5
A92A
330
A664
100
AcDbEntity
  8
1
  6
Continuous
100
AcDbLine
 10
573.872736
 20
119.1492139999999
 30
0.0
 11
575.8727299999998
 21
119.153932
 31
0.0
  0
LINE
  5
A92B
330
A664
100
AcDbEntity
  8
1
  6
Continuous
100
AcDbLine
 10
573.351034
 20
128.3480089999999
 30
0.0
 11
576.3510250000003
 21
128.355086
 31
0.0
  0
LINE
  5
A92C
330
A664
100
AcDbEntity
  8
1
  6
Continuous
100
AcDbLine
 10
571.494905
 20
130.943626
 30
0.0
 11
571.510586
 21
124.2966129999998
 31
0.0
  0
ARC
  5
A92D
330
A664
100
AcDbEntity
  8
1
  6
Continuous
100
AcDbCircle
 10
572.010585
 20
124.297793
 30
0.0
 40
0.5
100
AcDbArc
 50
180.1351639999998
 51
214.154514
  0
ARC
  5
A92E
330
A664
100
AcDbEntity
  8
1
  6
Continuous
100
AcDbCircle
 10
572.366024
 20
121.992709
 30
0.0
 40
0.5
100
AcDbArc
 50
0.135164
 51
34.154514
  0
LINE
  5
A92F
330
A664
100
AcDbEntity
  8
1
  6
Continuous
100
AcDbLine
 10
572.7797870000001
 20
122.2734229999998
 30
0.0
 11
571.5968219999997
 21
124.017079
 31
0.0
  0
ARC
  5
A930
330
A664
100
AcDbEntity
  8
1
  6
Continuous
100
AcDbCircle
 10
572.366024
 20
121.992709
 30
0.0
 40
0.5
100
AcDbArc
 50
0.135164
 51
34.154514
  0
LINE
  5
A931
330
A664
100
AcDbEntity
  8
1
  6
Continuous
100
AcDbLine
 10
578.1948869999999
 20
130.959431
 30
0.0
 11
578.2105679999999
 21
124.3124189999999
 31
0.0
  0
ARC
  5
A932
330
A664
100
AcDbEntity
  8
1
  6
Continuous
100
AcDbCircle
 10
577.7105689999998
 20
124.3112389999998
 30
0.0
 40
0.5
100
AcDbArc
 50
326.115814
 51
0.135164
  0
LINE
  5
A933
330
A664
100
AcDbEntity
  8
1
  6
Continuous
100
AcDbLine
 10
576.9509269999997
 20
122.2832629999999
 30
0.0
 11
578.1256519999998
 21
124.032481
 31
0.0
  0
ARC
  5
A934
330
A664
100
AcDbEntity
  8
1
  6
Continuous
100
AcDbCircle
 10
577.3660099999997
 20
122.0045049999999
 30
0.0
 40
0.5
100
AcDbArc
 50
146.115814
 51
180.1351639999998
  0
LINE
  5
A935
330
A664
100
AcDbEntity
  8
1
  6
Continuous
100
AcDbLine
 10
573.34608
 20
130.4479909999998
 30
0.0
 11
573.3691989999997
 21
120.64803
 31
0.0
  0
LINE
  5
A936
330
A664
100
AcDbEntity
  8
1
  6
Continuous
100
AcDbLine
 10
576.3460710000003
 20
130.4550679999999
 30
0.0
 11
576.36919
 21
120.6551069999999
 31
0.0
  0
LINE
  5
A937
330
A664
100
AcDbEntity
  8
1
  6
Continuous
100
AcDbLine
 10
576.8660109999998
 20
122.0033249999999
 30
0.0
 11
576.8703679999998
 21
120.1562879999999
 31
0.0
  0
LINE
  5
A938
330
A664
100
AcDbEntity
  8
1
  6
Continuous
100
AcDbLine
 10
572.8660219999998
 20
121.9938889999999
 30
0.0
 11
572.8703789999997
 21
120.1468519999999
 31
0.0
  0
LINE
  5
A939
330
A664
100
AcDbEntity
  8
1
  6
Continuous
100
AcDbLine
 10
555.3227749999998
 20
140.3055119999999
 30
0.0
 11
568.8227379999997
 21
140.3373589999999
 31
0.0
  0
LINE
  5
A93A
330
A664
100
AcDbEntity
  8
1
  6
Continuous
100
AcDbLine
 10
554.8256069999998
 20
139.1043359999999
 30
0.0
 11
568.825568
 21
139.1373629999999
 31
0.0
  0
LINE
  5
A93B
330
A664
100
AcDbEntity
  8
4
  6
CENTER
100
AcDbLine
 10
581.0330079999999
 20
135.998003
 30
0.0
 11
580.988425
 21
154.896612
 31
0.0
  0
LINE
  5
A93C
330
A664
100
AcDbEntity
  8
1
  6
Continuous
100
AcDbLine
 10
575.960674
 20
166.6542709999999
 30
0.0
 11
576.0203579999997
 21
141.354342
 31
0.0
  0
LINE
  5
A93D
330
A664
100
AcDbEntity
  8
1
  6
Continuous
100
AcDbLine
 10
574.7606779999999
 20
166.651441
 30
0.0
 11
574.8203620000001
 21
141.3515109999999
 31
0.0
  0
LINE
  5
A93E
330
A664
100
AcDbEntity
  8
4
  6
CENTER
100
AcDbLine
 10
590.3790320000001
 20
145.388226
 30
0.0
 11
571.4804230000002
 21
145.3436429999999
 31
0.0
  0
LINE
  5
A93F
330
A664
100
AcDbEntity
  8
5
  6
PHANTOM
100
AcDbLine
 10
581.025535
 20
139.166143
 30
0.0
 11
578.825541
 21
139.1609529999997
 31
0.0
  0
ARC
  5
A940
330
A664
100
AcDbEntity
  8
5
  6
PHANTOM
100
AcDbCircle
 10
581.010908
 20
145.366126
 30
0.0
 40
6.2
100
AcDbArc
 50
270.1351639999999
 51
180.1351639999998
  0
LINE
  5
A941
330
A664
100
AcDbEntity
  8
5
  6
PHANTOM
100
AcDbLine
 10
581.022704
 20
140.36614
 30
0.0
 11
578.8227099999998
 21
140.3609499999998
 31
0.0
  0
ARC
  5
A942
330
A664
100
AcDbEntity
  8
5
  6
PHANTOM
100
AcDbCircle
 10
581.010908
 20
145.366126
 30
0.0
 40
5.0
100
AcDbArc
 50
270.1351639999999
 51
180.1351639999998
  0
LINE
  5
A943
330
A664
100
AcDbEntity
  8
1
  6
Continuous
100
AcDbLine
 10
578.8401669999998
 20
132.960959
 30
0.0
 11
568.840195
 21
132.937368
 31
0.0
  0
LINE
  5
A944
330
A664
100
AcDbEntity
  8
1
  6
Continuous
100
AcDbLine
 10
578.839459
 20
133.2609579999999
 30
0.0
 11
568.8394869999997
 21
133.237368
 31
0.0
  0
LINE
  5
A945
330
A664
100
AcDbEntity
  8
5
  6
PHANTOM
100
AcDbLine
 10
574.8109259999997
 20
145.3514999999999
 30
0.0
 11
574.8203620000001
 21
141.3515109999999
 31
0.0
  0
LINE
  5
A946
330
A664
100
AcDbEntity
  8
5
  6
PHANTOM
100
AcDbLine
 10
576.0109219999999
 20
145.354331
 30
0.0
 11
576.0203579999997
 21
141.354342
 31
0.0
  0
LINE
  5
A947
330
A664
100
AcDbEntity
  8
1
  6
Continuous
100
AcDbLine
 10
564.829826
 20
137.327931
 30
0.0
 11
568.8298150000001
 21
137.337368
 31
0.0
  0
LINE
  5
A948
330
A664
100
AcDbEntity
  8
1
  6
Continuous
100
AcDbLine
 10
568.8168400000002
 20
142.837352
 30
0.0
 11
573.1168280000003
 21
142.847496
 31
0.0
  0
LINE
  5
A949
330
A664
100
AcDbEntity
  8
1
  6
Continuous
100
AcDbLine
 10
574.812813
 20
144.551502
 30
0.0
 11
573.1168280000003
 21
142.847496
 31
0.0
  0
LINE
  5
A94A
330
A664
100
AcDbEntity
  8
1
  6
Continuous
100
AcDbLine
 10
564.8274669999998
 20
138.327929
 30
0.0
 11
568.8274559999999
 21
138.3373649999998
 31
0.0
  0
LINE
  5
A94B
330
A664
100
AcDbEntity
  8
1
  6
Continuous
100
AcDbLine
 10
564.8274669999998
 20
138.327929
 30
0.0
 11
564.829826
 21
137.327931
 31
0.0
  0
LINE
  5
A94C
330
A664
100
AcDbEntity
  8
1
  6
Continuous
100
AcDbLine
 10
568.820379
 20
141.337357
 30
0.0
 11
578.8203509999997
 21
141.360947
 31
0.0
  0
LINE
  5
A94D
330
A664
100
AcDbEntity
  8
1
  6
Continuous
100
AcDbLine
 10
568.832174
 20
136.3373709999999
 30
0.0
 11
578.8321459999997
 21
136.360961
 31
0.0
  0
LINE
  5
A94E
330
A664
100
AcDbEntity
  8
1
  6
Continuous
100
AcDbLine
 10
568.836892
 20
134.337376
 30
0.0
 11
578.8368639999998
 21
134.3609669999999
 31
0.0
  0
LINE
  5
A94F
330
A664
100
AcDbEntity
  8
4
  6
CENTER
100
AcDbLine
 10
562.6109599999998
 20
145.3227189999998
 30
0.0
 11
562.637381
 21
134.12275
 31
0.0
  0
ARC
  5
A950
330
A664
100
AcDbEntity
  8
1
  6
Continuous
100
AcDbCircle
 10
555.3239549999998
 20
139.8055129999999
 30
0.0
 40
0.5
100
AcDbArc
 50
90.135164
 51
180.1351639999998
  0
LINE
  5
A951
330
A664
100
AcDbEntity
  8
1
  6
Continuous
100
AcDbLine
 10
554.8239559999998
 20
139.804334
 30
0.0
 11
554.8256069999998
 21
139.1043359999999
 31
0.0
  0
LINE
  5
A952
330
A664
100
AcDbEntity
  8
4
  6
CENTER
100
AcDbLine
 10
439.0613029999998
 20
145.031257
 30
0.0
 11
439.0877249999999
 21
133.831289
 31
0.0
  0
ARC
  5
A953
330
A664
100
AcDbEntity
  8
5
  6
PHANTOM
100
AcDbCircle
 10
431.774298
 20
139.5140519999999
 30
0.0
 40
0.5
100
AcDbArc
 50
90.135164
 51
180.1351639999998
  0
LINE
  5
A954
330
A664
100
AcDbEntity
  8
5
  6
PHANTOM
100
AcDbLine
 10
431.2743
 20
139.5128719999999
 30
0.0
 11
431.2759509999998
 21
138.8128739999999
 31
0.0
  0
ENDSEC
  0
SECTION
  2
OBJECTS
  0
DICTIONARY
  5
A652
330
0
100
AcDbDictionary
281
     1
  3
ACAD_CIP_PREVIOUS_PRODUCT_INFO
350
A9B4
  3
ACAD_COLOR
350
A996
  3
ACAD_DETAILVIEWSTYLE
350
A9AF
  3
ACAD_GROUP
350
A653
  3
ACAD_LAYOUT
350
A65F
  3
ACAD_MATERIAL
350
A964
  3
ACAD_MLEADERSTYLE
350
A9AB
  3
ACAD_MLINESTYLE
350
A65C
  3
ACAD_PLOTSETTINGS
350
A65E
  3
ACAD_PLOTSTYLENAME
350
A962
  3
ACAD_SCALELIST
350
A999
  3
ACAD_SECTIONVIEWSTYLE
350
A9AD
  3
ACAD_TABLESTYLE
350
A997
  3
ACAD_VISUALSTYLE
350
A97D
  3
ACDB_RECOMPOSE_DATA
350
A9D2
  3
AcDbVariableDictionary
350
A9C5
  3
DWGPROPS
350
A9D3
  0
DICTIONARY
  5
A9B5
330
A656
100
AcDbDictionary
280
     1
281
     1
  3
ADSK_XREC_LAYER_RECONCILED
360
A9B6
  0
DICTIONARY
  5
A9B7
330
A66C
100
AcDbDictionary
280
     1
281
     1
  3
ADSK_XREC_LAYER_RECONCILED
360
A9B8
  0
DICTIONARY
  5
A9B9
330
A66D
100
AcDbDictionary
280
     1
281
     1
  3
ADSK_XREC_LAYER_RECONCILED
360
A9BA
  0
DICTIONARY
  5
A9BB
330
A66E
100
AcDbDictionary
280
     1
281
     1
  3
ADSK_XREC_LAYER_RECONCILED
360
A9BC
  0
DICTIONARY
  5
A9BD
330
A66F
100
AcDbDictionary
280
     1
281
     1
  3
ADSK_XREC_LAYER_RECONCILED
360
A9BE
  0
DICTIONARY
  5
A9BF
330
A670
100
AcDbDictionary
280
     1
281
     1
  3
ADSK_XREC_LAYER_RECONCILED
360
A9C0
  0
DICTIONARY
  5
A9C1
330
A671
100
AcDbDictionary
280
     1
281
     1
  3
ADSK_XREC_LAYER_RECONCILED
360
A9C2
  0
DICTIONARY
  5
A9C3
330
A672
100
AcDbDictionary
280
     1
281
     1
  3
ADSK_XREC_LAYER_RECONCILED
360
A9C4
  0
DICTIONARY
  5
A95D
330
A664
100
AcDbDictionary
281
     1
  3
ACAD_LAYOUTSELFREF
350
A95E
  0
DICTIONARY
  5
A95B
330
A660
100
AcDbDictionary
281
     1
  3
ACAD_LAYOUTSELFREF
350
A95C
  0
XRECORD
  5
A9B4
102
{ACAD_REACTORS
330
A652
102
}
330
A652
100
AcDbXrecord
280
     1
300
ACDLT
300
2014
300
ACDLT_F_S
  0
DICTIONARY
  5
A996
102
{ACAD_REACTORS
330
A652
102
}
330
A652
100
AcDbDictionary
281
     1
  0
DICTIONARY
  5
A9AF
102
{ACAD_REACTORS
330
A652
102
}
330
A652
100
AcDbDictionary
281
     1
  3
Imperial24
350
A9B0
  0
DICTIONARY
  5
A653
102
{ACAD_REACTORS
330
A652
102
}
330
A652
100
AcDbDictionary
281
     1
  0
DICTIONARY
  5
A65F
102
{ACAD_REACTORS
330
A652
102
}
330
A652
100
AcDbDictionary
281
     1
  3
Model
350
A9B1
  3
レイアウト1
350
A9B2
  0
DICTIONARY
  5
A964
102
{ACAD_REACTORS
330
A652
102
}
330
A652
100
AcDbDictionary
281
     1
  3
ByBlock
350
A96D
  3
ByLayer
350
A965
  3
Global
350
A975
  0
DICTIONARY
  5
A9AB
102
{ACAD_REACTORS
330
A652
102
}
330
A652
100
AcDbDictionary
281
     1
  3
Standard
350
A9AC
  0
DICTIONARY
  5
A65C
102
{ACAD_REACTORS
330
A652
102
}
330
A652
100
AcDbDictionary
281
     1
  3
STANDARD
350
A65D
  0
DICTIONARY
  5
A65E
102
{ACAD_REACTORS
330
A652
102
}
330
A652
100
AcDbDictionary
281
     1
  0
ACDBDICTIONARYWDFLT
  5
A962
102
{ACAD_REACTORS
330
A652
102
}
330
A652
100
AcDbDictionary
281
     1
  3
Normal
350
A963
100
AcDbDictionaryWithDefault
340
A963
  0
DICTIONARY
  5
A999
102
{ACAD_REACTORS
330
A652
102
}
330
A652
100
AcDbDictionary
281
     1
  3
A0
350
A99A
  3
A1
350
A99B
  3
A2
350
A99C
  3
A3
350
A99D
  3
A4
350
A99E
  3
A5
350
A99F
  3
A6
350
A9A0
  3
A7
350
A9A1
  3
A8
350
A9A2
  3
A9
350
A9A3
  3
B0
350
A9A4
  3
B1
350
A9A5
  3
B2
350
A9A6
  3
B3
350
A9A7
  3
B4
350
A9A8
  3
B5
350
A9A9
  3
B6
350
A9AA
  0
DICTIONARY
  5
A9AD
102
{ACAD_REACTORS
330
A652
102
}
330
A652
100
AcDbDictionary
281
     1
  3
Imperial24
350
A9AE
  0
DICTIONARY
  5
A997
102
{ACAD_REACTORS
330
A652
102
}
330
A652
100
AcDbDictionary
281
     1
  3
Standard
350
A998
  0
DICTIONARY
  5
A97D
102
{ACAD_REACTORS
330
A652
102
}
330
A652
100
AcDbDictionary
281
     1
  3
2dWireframe
350
A983
  3
Basic
350
A982
  3
Brighten
350
A989
  3
ColorChange
350
A98D
  3
Conceptual
350
A986
  3
Dim
350
A988
  3
EdgeColorOff
350
A995
  3
Facepattern
350
A98C
  3
Flat
350
A97E
  3
FlatWithEdges
350
A97F
  3
Gouraud
350
A980
  3
GouraudWithEdges
350
A981
  3
Hidden
350
A985
  3
JitterOff
350
A993
  3
Linepattern
350
A98B
  3
OverhangOff
350
A994
  3
Realistic
350
A987
  3
Shaded
350
A992
  3
Shaded with edges
350
A991
  3
Shades of Gray
350
A98E
  3
Sketchy
350
A98F
  3
Thicken
350
A98A
  3
Wireframe
350
A984
  3
X-Ray
350
A990
  0
XRECORD
  5
A9D2
102
{ACAD_REACTORS
330
A652
102
}
330
A652
100
AcDbXrecord
280
     1
 90
        1
330
A998
  0
DICTIONARY
  5
A9C5
102
{ACAD_REACTORS
330
A652
102
}
330
A652
100
AcDbDictionary
281
     1
  3
CANNOSCALE
350
A9CA
  3
CMLEADERSTYLE
350
A9C7
  3
CTABLESTYLE
350
A9C6
  3
CVIEWDETAILSTYLE
350
A9C8
  3
CVIEWSECTIONSTYLE
350
A9C9
  3
DIMASSOC
350
A9CD
  3
INDEXCTL
350
A9CC
  3
SORTENTS
350
A9CB
  3
XCLIPFRAME
350
A9CE
  0
XRECORD
  5
A9D3
102
{ACAD_REACTORS
330
A652
102
}
330
A652
100
AcDbXrecord
280
     1
  1
DWGPROPS COOKIE
  2

  3

  4

  6

  7

  8
Yoshitsune
  9

300
=
301
=
302
=
303
=
304
=
305
=
306
=
307
=
308
=
309
=
 40
0.0000119791666667
 41
2451301.775368866
 42
2457192.660804213
  1

 90
        0
  0
XRECORD
  5
A9B6
102
{ACAD_REACTORS
330
A9B5
102
}
330
A9B5
100
AcDbXrecord
280
     1
290
     1
  0
XRECORD
  5
A9B8
102
{ACAD_REACTORS
330
A9B7
102
}
330
A9B7
100
AcDbXrecord
280
     1
290
     1
  0
XRECORD
  5
A9BA
102
{ACAD_REACTORS
330
A9B9
102
}
330
A9B9
100
AcDbXrecord
280
     1
290
     1
  0
XRECORD
  5
A9BC
102
{ACAD_REACTORS
330
A9BB
102
}
330
A9BB
100
AcDbXrecord
280
     1
290
     1
  0
XRECORD
  5
A9BE
102
{ACAD_REACTORS
330
A9BD
102
}
330
A9BD
100
AcDbXrecord
280
     1
290
     1
  0
XRECORD
  5
A9C0
102
{ACAD_REACTORS
330
A9BF
102
}
330
A9BF
100
AcDbXrecord
280
     1
290
     1
  0
XRECORD
  5
A9C2
102
{ACAD_REACTORS
330
A9C1
102
}
330
A9C1
100
AcDbXrecord
280
     1
290
     1
  0
XRECORD
  5
A9C4
102
{ACAD_REACTORS
330
A9C3
102
}
330
A9C3
100
AcDbXrecord
280
     1
290
     1
  0
XRECORD
  5
A95E
102
{ACAD_REACTORS
330
A95D
102
}
330
A95D
100
AcDbXrecord
280
     1
340
A664
  0
XRECORD
  5
A95C
102
{ACAD_REACTORS
330
A95B
102
}
330
A95B
100
AcDbXrecord
280
     1
340
A660
  0
ACDBDETAILVIEWSTYLE
  5
A9B0
102
{ACAD_XDICTIONARY
360
AA0B
102
}
102
{ACAD_REACTORS
330
A9AF
102
}
330
A9AF
100
AcDbModelDocViewStyle
 70
     0
  3
Imperial24
290
     0
100
AcDbDetailViewStyle
 70
     0
 71
     0
 90
        3
 71
     1
340
A657
 40
0.24
340
0
 40
0.24
300

 40
0.36
280
     3
 71
     2
340
A65B
 90
       25
 71
     3
340
A657
 40
0.24
 90
        1
 40
0.75
 90
        1
300
%<\AcVar ViewType \f "%tc1">% %<\AcVar ViewDetailId>%\PSCALE %<\AcVar ViewScale \f "%sn">%
 71
     4
340
A65B
 90
       25
340
A65B
 90
       25
280
     0
  0
LAYOUT
  5
A9B1
102
{ACAD_XDICTIONARY
360
AA0D
102
}
102
{ACAD_REACTORS
330
A65F
102
}
330
A65F
100
AcDbPlotSettings
  1

  2
Canon LBP9100C
  4

  6

 40
0.0
 41
0.0
 42
0.0
 43
0.0
 44
0.0
 45
0.0
 46
0.0
 47
0.0
 48
0.0
 49
0.0
140
0.0
141
0.0
142
1.0
143
1.0
 70
  1712
 72
     0
 73
     0
 74
     0
  7

 75
     0
147
1.0
148
0.0
149
0.0
100
AcDbLayout
  1
Model
 70
     1
 71
     0
 10
0.0
 20
0.0
 11
12.0
 21
9.0
 12
0.0
 22
0.0
 32
0.0
 14
0.0
 24
0.0
 34
0.0
 15
0.0
 25
0.0
 35
0.0
146
0.0
 13
0.0
 23
0.0
 33
0.0
 16
1.0
 26
0.0
 36
0.0
 17
0.0
 27
1.0
 37
0.0
 76
     0
330
A664
331
A95A
  0
LAYOUT
  5
A9B2
102
{ACAD_XDICTIONARY
360
AA0F
102
}
102
{ACAD_REACTORS
330
A65F
102
}
330
A65F
100
AcDbPlotSettings
  1

  2
Canon LBP9100C
  4

  6

 40
0.0
 41
0.0
 42
0.0
 43
0.0
 44
0.0
 45
0.0
 46
0.0
 47
0.0
 48
0.0
 49
0.0
140
0.0
141
0.0
142
1.0
143
1.0
 70
   688
 72
     0
 73
     0
 74
     5
  7

 75
    16
147
1.0
148
0.0
149
0.0
100
AcDbLayout
  1
レイアウト1
 70
     0
 71
     1
 10
0.0
 20
0.0
 11
420.0
 21
297.0
 12
0.0
 22
0.0
 32
0.0
 14
1.000000000000000E+20
 24
1.000000000000000E+20
 34
1.000000000000000E+20
 15
-1.000000000000000E+20
 25
-1.000000000000000E+20
 35
-1.000000000000000E+20
146
0.0
 13
0.0
 23
0.0
 33
0.0
 16
1.0
 26
0.0
 36
0.0
 17
0.0
 27
1.0
 37
0.0
 76
     0
330
A660
  0
MATERIAL
  5
A96D
102
{ACAD_XDICTIONARY
360
A96E
102
}
102
{ACAD_REACTORS
330
A964
102
}
330
A964
100
AcDbMaterial
  1
ByBlock
 72
     0
 43
0.0208333333333333
 43
0.0
 43
0.0
 43
0.0
 43
0.0
 43
0.0208333333333333
 43
0.0
 43
0.0
 43
0.0
 43
0.0
 43
1.0
 43
0.0
 43
0.0
 43
0.0
 43
0.0
 43
1.0
 77
     0
 47
0.0208333333333333
 47
0.0
 47
0.0
 47
0.0
 47
0.0
 47
0.0208333333333333
 47
0.0
 47
0.0
 47
0.0
 47
0.0
 47
1.0
 47
0.0
 47
0.0
 47
0.0
 47
0.0
 47
1.0
171
     0
 49
0.0208333333333333
 49
0.0
 49
0.0
 49
0.0
 49
0.0
 49
0.0208333333333333
 49
0.0
 49
0.0
 49
0.0
 49
0.0
 49
1.0
 49
0.0
 49
0.0
 49
0.0
 49
0.0
 49
1.0
175
     0
142
0.0208333333333333
142
0.0
142
0.0
142
0.0
142
0.0
142
0.0208333333333333
142
0.0
142
0.0
142
0.0
142
0.0
142
1.0
142
0.0
142
0.0
142
0.0
142
0.0
142
1.0
179
     0
144
0.0208333333333333
144
0.0
144
0.0
144
0.0
144
0.0
144
0.0208333333333333
144
0.0
144
0.0
144
0.0
144
0.0
144
1.0
144
0.0
144
0.0
144
0.0
144
0.0
144
1.0
147
0.0208333333333333
147
0.0
147
0.0
147
0.0
147
0.0
147
0.0208333333333333
147
0.0
147
0.0
147
0.0
147
0.0
147
1.0
147
0.0
147
0.0
147
0.0
147
0.0
147
1.0
  0
MATERIAL
  5
A965
102
{ACAD_XDICTIONARY
360
A966
102
}
102
{ACAD_REACTORS
330
A964
102
}
330
A964
100
AcDbMaterial
  1
ByLayer
 72
     0
 43
0.0208333333333333
 43
0.0
 43
0.0
 43
0.0
 43
0.0
 43
0.0208333333333333
 43
0.0
 43
0.0
 43
0.0
 43
0.0
 43
1.0
 43
0.0
 43
0.0
 43
0.0
 43
0.0
 43
1.0
 77
     0
 47
0.0208333333333333
 47
0.0
 47
0.0
 47
0.0
 47
0.0
 47
0.0208333333333333
 47
0.0
 47
0.0
 47
0.0
 47
0.0
 47
1.0
 47
0.0
 47
0.0
 47
0.0
 47
0.0
 47
1.0
171
     0
 49
0.0208333333333333
 49
0.0
 49
0.0
 49
0.0
 49
0.0
 49
0.0208333333333333
 49
0.0
 49
0.0
 49
0.0
 49
0.0
 49
1.0
 49
0.0
 49
0.0
 49
0.0
 49
0.0
 49
1.0
175
     0
142
0.0208333333333333
142
0.0
142
0.0
142
0.0
142
0.0
142
0.0208333333333333
142
0.0
142
0.0
142
0.0
142
0.0
142
1.0
142
0.0
142
0.0
142
0.0
142
0.0
142
1.0
179
     0
144
0.0208333333333333
144
0.0
144
0.0
144
0.0
144
0.0
144
0.0208333333333333
144
0.0
144
0.0
144
0.0
144
0.0
144
1.0
144
0.0
144
0.0
144
0.0
144
0.0
144
1.0
147
0.0208333333333333
147
0.0
147
0.0
147
0.0
147
0.0
147
0.0208333333333333
147
0.0
147
0.0
147
0.0
147
0.0
147
1.0
147
0.0
147
0.0
147
0.0
147
0.0
147
1.0
  0
MATERIAL
  5
A975
102
{ACAD_XDICTIONARY
360
A976
102
}
102
{ACAD_REACTORS
330
A964
102
}
330
A964
100
AcDbMaterial
  1
Global
 72
     0
 43
0.0208333333333333
 43
0.0
 43
0.0
 43
0.0
 43
0.0
 43
0.0208333333333333
 43
0.0
 43
0.0
 43
0.0
 43
0.0
 43
1.0
 43
0.0
 43
0.0
 43
0.0
 43
0.0
 43
1.0
 77
     0
 47
0.0208333333333333
 47
0.0
 47
0.0
 47
0.0
 47
0.0
 47
0.0208333333333333
 47
0.0
 47
0.0
 47
0.0
 47
0.0
 47
1.0
 47
0.0
 47
0.0
 47
0.0
 47
0.0
 47
1.0
171
     0
 49
0.0208333333333333
 49
0.0
 49
0.0
 49
0.0
 49
0.0
 49
0.0208333333333333
 49
0.0
 49
0.0
 49
0.0
 49
0.0
 49
1.0
 49
0.0
 49
0.0
 49
0.0
 49
0.0
 49
1.0
175
     0
142
0.0208333333333333
142
0.0
142
0.0
142
0.0
142
0.0
142
0.0208333333333333
142
0.0
142
0.0
142
0.0
142
0.0
142
1.0
142
0.0
142
0.0
142
0.0
142
0.0
142
1.0
179
     0
144
0.0208333333333333
144
0.0
144
0.0
144
0.0
144
0.0
144
0.0208333333333333
144
0.0
144
0.0
144
0.0
144
0.0
144
1.0
144
0.0
144
0.0
144
0.0
144
0.0
144
1.0
147
0.0208333333333333
147
0.0
147
0.0
147
0.0
147
0.0
147
0.0208333333333333
147
0.0
147
0.0
147
0.0
147
0.0
147
1.0
147
0.0
147
0.0
147
0.0
147
0.0
147
1.0
  0
MLEADERSTYLE
  5
A9AC
102
{ACAD_REACTORS
330
A9AB
102
}
330
A9AB
100
AcDbMLeaderStyle
170
     2
171
     1
172
     0
 90
        2
 40
0.0
 41
0.0
173
     1
 91
-1056964608
340
A659
 92
       -2
290
     1
 42
0.09
291
     1
 43
0.36
  3
Standard
 44
0.18
300

342
A657
174
     1
178
     6
175
     1
176
     0
 93
-1056964608
 45
0.18
292
     0
297
     0
 46
0.18
 94
-1056964608
 47
1.0
 49
1.0
140
1.0
293
     1
141
0.0
294
     1
177
     0
142
1.0
295
     0
296
     0
143
0.125
1001
ACAD_MLEADERVER
1070
     2
  0
MLINESTYLE
  5
A65D
102
{ACAD_REACTORS
330
A65C
102
}
330
A65C
100
AcDbMlineStyle
  2
STANDARD
 70
     0
  3

 62
   256
 51
90.0
 52
90.0
 71
     2
 49
0.5
 62
   256
  6
BYLAYER
 49
-0.5
 62
   256
  6
BYLAYER
  0
ACDBPLACEHOLDER
  5
A963
102
{ACAD_REACTORS
330
A962
102
}
330
A962
  0
SCALE
  5
A99A
102
{ACAD_REACTORS
330
A999
102
}
330
A999
100
AcDbScale
 70
     0
300
1:1
140
1.0
141
1.0
290
     1
  0
SCALE
  5
A99B
102
{ACAD_REACTORS
330
A999
102
}
330
A999
100
AcDbScale
 70
     0
300
1/128" = 1'-0"
140
0.0078125
141
12.0
290
     0
  0
SCALE
  5
A99C
102
{ACAD_REACTORS
330
A999
102
}
330
A999
100
AcDbScale
 70
     0
300
1/64" = 1'-0"
140
0.015625
141
12.0
290
     0
  0
SCALE
  5
A99D
102
{ACAD_REACTORS
330
A999
102
}
330
A999
100
AcDbScale
 70
     0
300
1/32" = 1'-0"
140
0.03125
141
12.0
290
     0
  0
SCALE
  5
A99E
102
{ACAD_REACTORS
330
A999
102
}
330
A999
100
AcDbScale
 70
     0
300
1/16" = 1'-0"
140
0.0625
141
12.0
290
     0
  0
SCALE
  5
A99F
102
{ACAD_REACTORS
330
A999
102
}
330
A999
100
AcDbScale
 70
     0
300
3/32" = 1'-0"
140
0.09375
141
12.0
290
     0
  0
SCALE
  5
A9A0
102
{ACAD_REACTORS
330
A999
102
}
330
A999
100
AcDbScale
 70
     0
300
1/8" = 1'-0"
140
0.125
141
12.0
290
     0
  0
SCALE
  5
A9A1
102
{ACAD_REACTORS
330
A999
102
}
330
A999
100
AcDbScale
 70
     0
300
3/16" = 1'-0"
140
0.1875
141
12.0
290
     0
  0
SCALE
  5
A9A2
102
{ACAD_REACTORS
330
A999
102
}
330
A999
100
AcDbScale
 70
     0
300
1/4" = 1'-0"
140
0.25
141
12.0
290
     0
  0
SCALE
  5
A9A3
102
{ACAD_REACTORS
330
A999
102
}
330
A999
100
AcDbScale
 70
     0
300
3/8" = 1'-0"
140
0.375
141
12.0
290
     0
  0
SCALE
  5
A9A4
102
{ACAD_REACTORS
330
A999
102
}
330
A999
100
AcDbScale
 70
     0
300
1/2" = 1'-0"
140
0.5
141
12.0
290
     0
  0
SCALE
  5
A9A5
102
{ACAD_REACTORS
330
A999
102
}
330
A999
100
AcDbScale
 70
     0
300
3/4" = 1'-0"
140
0.75
141
12.0
290
     0
  0
SCALE
  5
A9A6
102
{ACAD_REACTORS
330
A999
102
}
330
A999
100
AcDbScale
 70
     0
300
1" = 1'-0"
140
1.0
141
12.0
290
     0
  0
SCALE
  5
A9A7
102
{ACAD_REACTORS
330
A999
102
}
330
A999
100
AcDbScale
 70
     0
300
1-1/2" = 1'-0"
140
1.5
141
12.0
290
     0
  0
SCALE
  5
A9A8
102
{ACAD_REACTORS
330
A999
102
}
330
A999
100
AcDbScale
 70
     0
300
3" = 1'-0"
140
3.0
141
12.0
290
     0
  0
SCALE
  5
A9A9
102
{ACAD_REACTORS
330
A999
102
}
330
A999
100
AcDbScale
 70
     0
300
6" = 1'-0"
140
6.0
141
12.0
290
     0
  0
SCALE
  5
A9AA
102
{ACAD_REACTORS
330
A999
102
}
330
A999
100
AcDbScale
 70
     0
300
1'-0" = 1'-0"
140
12.0
141
12.0
290
     0
  0
ACDBSECTIONVIEWSTYLE
  5
A9AE
102
{ACAD_XDICTIONARY
360
AA09
102
}
102
{ACAD_REACTORS
330
A9AD
102
}
330
A9AD
100
AcDbModelDocViewStyle
 70
     0
  3
Imperial24
290
     0
100
AcDbSectionViewStyle
 70
     0
 71
     0
 90
       78
 71
     1
340
A657
 40
0.24
340
0
340
0
 40
0.24
300
I, O, Q, S, X, Z
 40
0.48
 90
        3
 40
0.18
 90
        1
 71
     2
340
A65B
 90
       25
340
A65B
 90
       50
 40
0.24
 40
0.0
 40
0.24
 71
     3
340
A657
 40
0.24
 90
        1
 40
0.75
 90
        1
300
%<\AcVar ViewType \f "%tc1">% %<\AcVar ViewSectionStartId>%-%<\AcVar ViewSectionEndId>%\PSCALE %<\AcVar ViewScale \f "%sn">%
 71
     4
300
ANSI31
 40
1.0
 90
        0
290
     0
290
     0
 90
        6
 40
0.0
 40
1.570796326794896
 40
0.2617993877991494
 40
1.308996938995747
 40
-0.2617993877991494
 40
1.832595714594046
  0
TABLESTYLE
  5
A998
102
{ACAD_XDICTIONARY
360
A9D0
102
}
102
{ACAD_REACTORS
330
A997
102
}
330
A997
100
AcDbTableStyle
  3
Standard
 70
     0
 71
     0
 40
0.06
 41
0.06
280
     0
281
     0
  7
STANDARD
140
0.18
170
     2
 62
     0
 63
     7
283
     0
274
    -2
284
     1
 64
     0
275
    -2
285
     1
 65
     0
276
    -2
286
     1
 66
     0
277
    -2
287
     1
 67
     0
278
    -2
288
     1
 68
     0
279
    -2
289
     1
 69
     0
  7
STANDARD
140
0.25
170
     5
 62
     0
 63
     7
283
     0
274
    -2
284
     1
 64
     0
275
    -2
285
     1
 65
     0
276
    -2
286
     1
 66
     0
277
    -2
287
     1
 67
     0
278
    -2
288
     1
 68
     0
279
    -2
289
     1
 69
     0
  7
STANDARD
140
0.18
170
     5
 62
     0
 63
     7
283
     0
274
    -2
284
     1
 64
     0
275
    -2
285
     1
 65
     0
276
    -2
286
     1
 66
     0
277
    -2
287
     1
 67
     0
278
    -2
288
     1
 68
     0
279
    -2
289
     1
 69
     0
  0
VISUALSTYLE
  5
A983
102
{ACAD_XDICTIONARY
360
A9E1
102
}
102
{ACAD_REACTORS
330
A97D
102
}
330
A97D
100
AcDbVisualStyle
  2
2dWireframe
 70
     4
 71
     0
 72
     2
 73
     0
 90
        0
 40
-0.6
 41
-30.0
 62
     5
 63
     7
 74
     1
 91
        4
 64
     7
 65
   257
 75
     1
175
     1
 42
1.0
 92
        0
 66
   257
 43
1.0
 76
     1
 77
     6
 78
     2
 67
     7
 79
     5
170
     0
171
     0
290
     0
174
     0
 93
        1
 44
0.0
173
     0
291
     0
 45
0.0
1001
ACAD
1000
AcDbSavedByObjectVersion
1070
     0
  0
VISUALSTYLE
  5
A982
102
{ACAD_XDICTIONARY
360
A9DF
102
}
102
{ACAD_REACTORS
330
A97D
102
}
330
A97D
100
AcDbVisualStyle
  2
Basic
 70
     7
 71
     1
 72
     0
 73
     1
 90
        0
 40
-0.6
 41
-30.0
 62
     5
 63
     7
 74
     0
 91
        4
 64
     7
 65
   257
 75
     1
175
     1
 42
1.0
 92
        8
 66
     7
 43
1.0
 76
     1
 77
     6
 78
     2
 67
     7
 79
     5
170
     0
171
     0
290
     0
174
     0
 93
        1
 44
0.0
173
     0
291
     1
 45
0.0
1001
ACAD
1000
AcDbSavedByObjectVersion
1070
     0
  0
VISUALSTYLE
  5
A989
102
{ACAD_XDICTIONARY
360
A9ED
102
}
102
{ACAD_REACTORS
330
A97D
102
}
330
A97D
100
AcDbVisualStyle
  2
Brighten
 70
    12
 71
     2
 72
     2
 73
     0
 90
        0
 40
-0.6
 41
-30.0
 62
     5
 63
     7
 74
     1
 91
        4
 64
     7
 65
   257
 75
     1
175
     1
 42
1.0
 92
        8
 66
     7
 43
1.0
 76
     1
 77
     6
 78
     2
 67
     7
 79
     5
170
     0
171
     0
290
     0
174
     0
 93
        1
 44
50.0
173
     0
291
     1
 45
0.0
1001
ACAD
1000
AcDbSavedByObjectVersion
1070
     0
  0
VISUALSTYLE
  5
A98D
102
{ACAD_XDICTIONARY
360
A9F5
102
}
102
{ACAD_REACTORS
330
A97D
102
}
330
A97D
100
AcDbVisualStyle
  2
ColorChange
 70
    16
 71
     2
 72
     2
 73
     3
 90
        0
 40
-0.6
 41
-30.0
 62
     5
 63
     8
 74
     1
 91
        4
 64
     7
 65
   257
 75
     1
175
     1
 42
1.0
 92
        8
 66
     8
 43
1.0
 76
     1
 77
     6
 78
     2
 67
     7
 79
     5
170
     0
171
     0
290
     0
174
     0
 93
        1
 44
0.0
173
     0
291
     1
 45
0.0
1001
ACAD
1000
AcDbSavedByObjectVersion
1070
     0
  0
VISUALSTYLE
  5
A986
102
{ACAD_XDICTIONARY
360
A9E7
102
}
102
{ACAD_REACTORS
330
A97D
102
}
330
A97D
100
AcDbVisualStyle
  2
Conceptual
 70
     9
 71
     3
 72
     2
 73
     0
 90
        0
 40
-0.6
 41
-30.0
 62
     5
 63
     7
 74
     2
 91
        2
 64
     7
 65
   257
 75
     1
175
     1
 42
179.0
 92
        8
 66
     7
 43
1.0
 76
     1
 77
     6
 78
     2
 67
     7
 79
     3
170
     0
171
     0
290
     0
174
     0
 93
        1
 44
0.0
173
     0
291
     0
 45
0.0
1001
ACAD
1000
AcDbSavedByObjectVersion
1070
     0
  0
VISUALSTYLE
  5
A988
102
{ACAD_XDICTIONARY
360
A9EB
102
}
102
{ACAD_REACTORS
330
A97D
102
}
330
A97D
100
AcDbVisualStyle
  2
Dim
 70
    11
 71
     2
 72
     2
 73
     0
 90
        0
 40
-0.6
 41
-30.0
 62
     5
 63
     7
 74
     1
 91
        4
 64
     7
 65
   257
 75
     1
175
     1
 42
1.0
 92
        8
 66
     7
 43
1.0
 76
     1
 77
     6
 78
     2
 67
     7
 79
     5
170
     0
171
     0
290
     0
174
     0
 93
        1
 44
-50.0
173
     0
291
     1
 45
0.0
1001
ACAD
1000
AcDbSavedByObjectVersion
1070
     0
  0
VISUALSTYLE
  5
A995
102
{ACAD_XDICTIONARY
360
AA05
102
}
102
{ACAD_REACTORS
330
A97D
102
}
330
A97D
100
AcDbVisualStyle
  2
EdgeColorOff
 70
    22
 71
     2
 72
     2
 73
     0
 90
        0
 40
-0.6
 41
-30.0
 62
     5
 63
     7
 74
     1
 91
        4
 64
     7
 65
   257
 75
     1
175
     1
 42
1.0
 92
        8
 66
     7
 43
1.0
 76
     1
 77
     6
 78
     2
 67
     7
 79
     5
170
     0
171
     0
290
     0
174
     0
 93
        1
 44
0.0
173
     0
291
     1
 45
0.0
1001
ACAD
1000
AcDbSavedByObjectVersion
1070
     0
  0
VISUALSTYLE
  5
A98C
102
{ACAD_XDICTIONARY
360
A9F3
102
}
102
{ACAD_REACTORS
330
A97D
102
}
330
A97D
100
AcDbVisualStyle
  2
Facepattern
 70
    15
 71
     2
 72
     2
 73
     0
 90
        0
 40
-0.6
 41
-30.0
 62
     5
 63
     7
 74
     1
 91
        4
 64
     7
 65
   257
 75
     1
175
     1
 42
1.0
 92
        8
 66
     7
 43
1.0
 76
     1
 77
     6
 78
     2
 67
     7
 79
     5
170
     0
171
     0
290
     0
174
     0
 93
        1
 44
0.0
173
     0
291
     1
 45
0.0
1001
ACAD
1000
AcDbSavedByObjectVersion
1070
     0
  0
VISUALSTYLE
  5
A97E
102
{ACAD_XDICTIONARY
360
A9D7
102
}
102
{ACAD_REACTORS
330
A97D
102
}
330
A97D
100
AcDbVisualStyle
  2
Flat
 70
     0
 71
     2
 72
     1
 73
     1
 90
        2
 40
-0.6
 41
30.0
 62
     5
 63
     7
 74
     0
 91
        0
 64
     7
 65
   257
 75
     1
175
     1
 42
1.0
 92
        8
 66
     7
 43
1.0
 76
     1
 77
     6
 78
     2
 67
     7
 79
     5
170
     0
171
     0
290
     0
174
     0
 93
       13
 44
0.0
173
     0
291
     1
 45
0.0
1001
ACAD
1000
AcDbSavedByObjectVersion
1070
     0
  0
VISUALSTYLE
  5
A97F
102
{ACAD_XDICTIONARY
360
A9D9
102
}
102
{ACAD_REACTORS
330
A97D
102
}
330
A97D
100
AcDbVisualStyle
  2
FlatWithEdges
 70
     1
 71
     2
 72
     1
 73
     1
 90
        2
 40
-0.6
 41
30.0
 62
     5
 63
     7
 74
     1
 91
        0
 64
     7
 65
   257
 75
     1
175
     1
 42
1.0
 92
        0
 66
   257
 43
1.0
 76
     1
 77
     6
 78
     2
 67
     7
 79
     5
170
     0
171
     0
290
     0
174
     0
 93
       13
 44
0.0
173
     0
291
     1
 45
0.0
1001
ACAD
1000
AcDbSavedByObjectVersion
1070
     0
  0
VISUALSTYLE
  5
A980
102
{ACAD_XDICTIONARY
360
A9DB
102
}
102
{ACAD_REACTORS
330
A97D
102
}
330
A97D
100
AcDbVisualStyle
  2
Gouraud
 70
     2
 71
     2
 72
     2
 73
     1
 90
        2
 40
-0.6
 41
30.0
 62
     5
 63
     7
 74
     0
 91
        0
 64
     7
 65
   257
 75
     1
175
     1
 42
1.0
 92
        0
 66
     7
 43
1.0
 76
     1
 77
     6
 78
     2
 67
     7
 79
     5
170
     0
171
     0
290
     0
174
     0
 93
       13
 44
0.0
173
     0
291
     1
 45
0.0
1001
ACAD
1000
AcDbSavedByObjectVersion
1070
     0
  0
VISUALSTYLE
  5
A981
102
{ACAD_XDICTIONARY
360
A9DD
102
}
102
{ACAD_REACTORS
330
A97D
102
}
330
A97D
100
AcDbVisualStyle
  2
GouraudWithEdges
 70
     3
 71
     2
 72
     2
 73
     1
 90
        2
 40
-0.6
 41
30.0
 62
     5
 63
     7
 74
     1
 91
        0
 64
     7
 65
   257
 75
     1
175
     1
 42
1.0
 92
        0
 66
   257
 43
1.0
 76
     1
 77
     6
 78
     2
 67
     7
 79
     5
170
     0
171
     0
290
     0
174
     0
 93
       13
 44
0.0
173
     0
291
     1
 45
0.0
1001
ACAD
1000
AcDbSavedByObjectVersion
1070
     0
  0
VISUALSTYLE
  5
A985
102
{ACAD_XDICTIONARY
360
A9E5
102
}
102
{ACAD_REACTORS
330
A97D
102
}
330
A97D
100
AcDbVisualStyle
  2
Hidden
 70
     6
 71
     1
 72
     2
 73
     2
 90
        0
 40
-0.6
 41
-30.0
 62
     5
 63
     7
 74
     2
 91
        2
 64
     7
 65
   257
 75
     2
175
     1
 42
40.0
 92
        0
 66
   257
 43
1.0
 76
     1
 77
     6
 78
     2
 67
     7
 79
     3
170
     0
171
     0
290
     0
174
     0
 93
        1
 44
0.0
173
     0
291
     0
 45
0.0
1001
ACAD
1000
AcDbSavedByObjectVersion
1070
     0
  0
VISUALSTYLE
  5
A993
102
{ACAD_XDICTIONARY
360
AA01
102
}
102
{ACAD_REACTORS
330
A97D
102
}
330
A97D
100
AcDbVisualStyle
  2
JitterOff
 70
    20
 71
     2
 72
     2
 73
     0
 90
        0
 40
-0.6
 41
-30.0
 62
     5
 63
     7
 74
     1
 91
        4
 64
     7
 65
   257
 75
     1
175
     1
 42
1.0
 92
       10
 66
     7
 43
1.0
 76
     1
 77
     6
 78
     2
 67
     7
 79
     5
170
     0
171
     0
290
     0
174
     0
 93
        1
 44
0.0
173
     0
291
     1
 45
0.0
1001
ACAD
1000
AcDbSavedByObjectVersion
1070
     0
  0
VISUALSTYLE
  5
A98B
102
{ACAD_XDICTIONARY
360
A9F1
102
}
102
{ACAD_REACTORS
330
A97D
102
}
330
A97D
100
AcDbVisualStyle
  2
Linepattern
 70
    14
 71
     2
 72
     2
 73
     0
 90
        0
 40
-0.6
 41
-30.0
 62
     5
 63
     7
 74
     1
 91
        4
 64
     7
 65
   257
 75
     7
175
     7
 42
1.0
 92
        8
 66
     7
 43
1.0
 76
     1
 77
     6
 78
     2
 67
     7
 79
     5
170
     0
171
     0
290
     0
174
     0
 93
        1
 44
0.0
173
     0
291
     1
 45
0.0
1001
ACAD
1000
AcDbSavedByObjectVersion
1070
     0
  0
VISUALSTYLE
  5
A994
102
{ACAD_XDICTIONARY
360
AA03
102
}
102
{ACAD_REACTORS
330
A97D
102
}
330
A97D
100
AcDbVisualStyle
  2
OverhangOff
 70
    21
 71
     2
 72
     2
 73
     0
 90
        0
 40
-0.6
 41
-30.0
 62
     5
 63
     7
 74
     1
 91
        4
 64
     7
 65
   257
 75
     1
175
     1
 42
1.0
 92
        9
 66
     7
 43
1.0
 76
     1
 77
     6
 78
     2
 67
     7
 79
     5
170
     0
171
     0
290
     0
174
     0
 93
        1
 44
0.0
173
     0
291
     1
 45
0.0
1001
ACAD
1000
AcDbSavedByObjectVersion
1070
     0
  0
VISUALSTYLE
  5
A987
102
{ACAD_XDICTIONARY
360
A9E9
102
}
102
{ACAD_REACTORS
330
A97D
102
}
330
A97D
100
AcDbVisualStyle
  2
Realistic
 70
     8
 71
     2
 72
     3
 73
     0
 90
        2
 40
-0.6
 41
30.0
 62
     5
 63
     7
 74
     0
 91
        0
 64
     7
 65
   257
 75
     1
175
     1
 42
1.0
 92
        8
 66
   257
 43
1.0
 76
     1
 77
     6
 78
     2
 67
     7
 79
     3
170
     0
171
     0
290
     0
174
     0
 93
       13
 44
0.0
173
     0
291
     0
 45
0.0
1001
ACAD
1000
AcDbSavedByObjectVersion
1070
     0
  0
VISUALSTYLE
  5
A992
102
{ACAD_XDICTIONARY
360
A9FF
102
}
102
{ACAD_REACTORS
330
A97D
102
}
330
A97D
100
AcDbVisualStyle
  2
Shaded
 70
    27
 71
     2
 72
     2
 73
     1
 90
        2
 40
-0.6
 41
30.0
 62
     5
 63
     7
 74
     0
 91
        4
 64
     7
 65
   257
 75
     1
175
     1
 42
1.0
 92
        8
 66
   257
 43
1.0
 76
     1
 77
     6
 78
     2
 67
     8
 79
     3
170
     0
171
     0
290
     0
174
     0
 93
        5
 44
0.0
173
     0
291
     0
 45
0.0
1001
ACAD
1000
AcDbSavedByObjectVersion
1070
     0
  0
VISUALSTYLE
  5
A991
102
{ACAD_XDICTIONARY
360
A9FD
102
}
102
{ACAD_REACTORS
330
A97D
102
}
330
A97D
100
AcDbVisualStyle
  2
Shaded with edges
 70
    26
 71
     2
 72
     2
 73
     1
 90
        2
 40
-0.6
 41
30.0
 62
     5
 63
     7
 74
     1
 91
       10
 64
     7
 65
   257
 75
     2
175
     1
 42
1.0
 92
        8
 66
   257
 43
1.0
 76
     1
 77
     6
 78
     2
 67
     7
 79
     3
170
     0
171
     0
290
     0
174
     0
 93
        5
 44
0.0
173
     0
291
     0
 45
0.0
1001
ACAD
1000
AcDbSavedByObjectVersion
1070
     0
  0
VISUALSTYLE
  5
A98E
102
{ACAD_XDICTIONARY
360
A9F7
102
}
102
{ACAD_REACTORS
330
A97D
102
}
330
A97D
100
AcDbVisualStyle
  2
Shades of Gray
 70
    23
 71
     2
 72
     2
 73
     3
 90
        0
 40
-0.6
 41
-30.0
 62
     5
 63
     7
 74
     2
 91
        2
 64
     7
 65
     7
 75
     1
175
     1
 42
40.0
 92
        8
 66
     7
 43
1.0
 76
     1
 77
     6
 78
     2
 67
     7
 79
     3
170
     0
171
     0
290
     0
174
     0
 93
        1
 44
0.0
173
     0
291
     0
 45
0.0
1001
ACAD
1000
AcDbSavedByObjectVersion
1070
     0
  0
VISUALSTYLE
  5
A98F
102
{ACAD_XDICTIONARY
360
A9F9
102
}
102
{ACAD_REACTORS
330
A97D
102
}
330
A97D
100
AcDbVisualStyle
  2
Sketchy
 70
    24
 71
     1
 72
     2
 73
     2
 90
        0
 40
-0.6
 41
-30.0
 62
     5
 63
     7
 74
     2
 91
        2
 64
     7
 65
     7
 75
     1
175
     1
 42
40.0
 92
       11
 66
     7
 43
1.0
 76
     1
 77
     6
 78
     2
 67
     7
 79
     6
170
     0
171
     0
290
     0
174
     0
 93
        1
 44
0.0
173
     0
291
     0
 45
0.0
1001
ACAD
1000
AcDbSavedByObjectVersion
1070
     0
  0
VISUALSTYLE
  5
A98A
102
{ACAD_XDICTIONARY
360
A9EF
102
}
102
{ACAD_REACTORS
330
A97D
102
}
330
A97D
100
AcDbVisualStyle
  2
Thicken
 70
    13
 71
     2
 72
     2
 73
     0
 90
        0
 40
-0.6
 41
-30.0
 62
     5
 63
     7
 74
     1
 91
        4
 64
     7
 65
   257
 75
     1
175
     1
 42
1.0
 92
       12
 66
     7
 43
1.0
 76
     1
 77
     6
 78
     2
 67
     7
 79
     5
170
     0
171
     0
290
     0
174
     0
 93
        1
 44
0.0
173
     0
291
     1
 45
0.0
1001
ACAD
1000
AcDbSavedByObjectVersion
1070
     0
  0
VISUALSTYLE
  5
A984
102
{ACAD_XDICTIONARY
360
A9E3
102
}
102
{ACAD_REACTORS
330
A97D
102
}
330
A97D
100
AcDbVisualStyle
  2
Wireframe
 70
     5
 71
     0
 72
     2
 73
     0
 90
        0
 40
-0.6
 41
-30.0
 62
     5
 63
     7
 74
     1
 91
        4
 64
     7
 65
   257
 75
     1
175
     1
 42
1.0
 92
        0
 66
   257
 43
1.0
 76
     1
 77
     6
 78
     2
 67
     7
 79
     3
170
     0
171
     0
290
     0
174
     0
 93
        1
 44
0.0
173
     0
291
     0
 45
0.0
1001
ACAD
1000
AcDbSavedByObjectVersion
1070
     0
  0
VISUALSTYLE
  5
A990
102
{ACAD_XDICTIONARY
360
A9FB
102
}
102
{ACAD_REACTORS
330
A97D
102
}
330
A97D
100
AcDbVisualStyle
  2
X-Ray
 70
    25
 71
     2
 72
     2
 73
     1
 90
        1
 40
0.5
 41
-30.0
 62
     5
 63
     7
 74
     1
 91
        0
 64
     7
 65
   257
 75
     1
175
     1
 42
1.0
 92
        8
 66
     7
 43
1.0
 76
     1
 77
     6
 78
     2
 67
     7
 79
     3
170
     0
171
     0
290
     0
174
     0
 93
       13
 44
0.0
173
     0
291
     0
 45
0.0
1001
ACAD
1000
AcDbSavedByObjectVersion
1070
     0
  0
DICTIONARYVAR
  5
A9CA
102
{ACAD_REACTORS
330
A9C5
102
}
330
A9C5
100
DictionaryVariables
280
     0
  1
1:1
  0
DICTIONARYVAR
  5
A9C7
102
{ACAD_REACTORS
330
A9C5
102
}
330
A9C5
100
DictionaryVariables
280
     0
  1
STANDARD
  0
DICTIONARYVAR
  5
A9C6
102
{ACAD_REACTORS
330
A9C5
102
}
330
A9C5
100
DictionaryVariables
280
     0
  1
STANDARD
  0
DICTIONARYVAR
  5
A9C8
102
{ACAD_REACTORS
330
A9C5
102
}
330
A9C5
100
DictionaryVariables
280
     0
  1
Imperial24
  0
DICTIONARYVAR
  5
A9C9
102
{ACAD_REACTORS
330
A9C5
102
}
330
A9C5
100
DictionaryVariables
280
     0
  1
Imperial24
  0
DICTIONARYVAR
  5
A9CD
102
{ACAD_REACTORS
330
A9C5
102
}
330
A9C5
100
DictionaryVariables
280
     0
  1
1
  0
DICTIONARYVAR
  5
A9CC
102
{ACAD_REACTORS
330
A9C5
102
}
330
A9C5
100
DictionaryVariables
280
     0
  1
0
  0
DICTIONARYVAR
  5
A9CB
102
{ACAD_REACTORS
330
A9C5
102
}
330
A9C5
100
DictionaryVariables
280
     0
  1
127
  0
DICTIONARYVAR
  5
A9CE
102
{ACAD_REACTORS
330
A9C5
102
}
330
A9C5
100
DictionaryVariables
280
     0
  1
2
  0
DICTIONARY
  5
AA0B
330
A9B0
100
AcDbDictionary
280
     1
281
     1
  3
ACAD_XREC_ROUNDTRIP
360
AA0C
  0
DICTIONARY
  5
AA0D
330
A9B1
100
AcDbDictionary
280
     1
281
     1
  3
ACAD_XREC_ROUNDTRIP
360
AA0E
  0
DICTIONARY
  5
AA0F
330
A9B2
100
AcDbDictionary
280
     1
281
     1
  3
ACAD_XREC_ROUNDTRIP
360
AA10
  0
DICTIONARY
  5
A96E
330
A96D
100
AcDbDictionary
280
     1
281
     1
  3
ACAD_XREC_ROUNDTRIP
360
A9D5
  3
BUMPTILE
360
A970
  3
DIFFUSETILE
360
A96F
  3
OPACITYTILE
360
A973
  3
REFLECTIONTILE
360
A972
  3
REFRACTIONTILE
360
A974
  3
SPECULARTILE
360
A971
  0
DICTIONARY
  5
A966
330
A965
100
AcDbDictionary
280
     1
281
     1
  3
ACAD_XREC_ROUNDTRIP
360
A9D4
  3
BUMPTILE
360
A968
  3
DIFFUSETILE
360
A967
  3
OPACITYTILE
360
A96B
  3
REFLECTIONTILE
360
A96A
  3
REFRACTIONTILE
360
A96C
  3
SPECULARTILE
360
A969
  0
DICTIONARY
  5
A976
330
A975
100
AcDbDictionary
280
     1
281
     1
  3
ACAD_XREC_ROUNDTRIP
360
A9D6
  3
BUMPTILE
360
A978
  3
DIFFUSETILE
360
A977
  3
OPACITYTILE
360
A97B
  3
REFLECTIONTILE
360
A97A
  3
REFRACTIONTILE
360
A97C
  3
SPECULARTILE
360
A979
  0
DICTIONARY
  5
AA09
330
A9AE
100
AcDbDictionary
280
     1
281
     1
  3
ACAD_XREC_ROUNDTRIP
360
AA0A
  0
DICTIONARY
  5
A9D0
330
A998
100
AcDbDictionary
280
     1
281
     1
  3
ACAD_ROUNDTRIP_2008_TABLESTYLE_CELLSTYLEMAP
360
A9D1
  3
ACAD_XREC_ROUNDTRIP
360
AA07
  0
DICTIONARY
  5
A9E1
330
A983
100
AcDbDictionary
280
     1
281
     1
  3
ACAD_XREC_ROUNDTRIP
360
A9E2
  0
DICTIONARY
  5
A9DF
330
A982
100
AcDbDictionary
280
     1
281
     1
  3
ACAD_XREC_ROUNDTRIP
360
A9E0
  0
DICTIONARY
  5
A9ED
330
A989
100
AcDbDictionary
280
     1
281
     1
  3
ACAD_XREC_ROUNDTRIP
360
A9EE
  0
DICTIONARY
  5
A9F5
330
A98D
100
AcDbDictionary
280
     1
281
     1
  3
ACAD_XREC_ROUNDTRIP
360
A9F6
  0
DICTIONARY
  5
A9E7
330
A986
100
AcDbDictionary
280
     1
281
     1
  3
ACAD_XREC_ROUNDTRIP
360
A9E8
  0
DICTIONARY
  5
A9EB
330
A988
100
AcDbDictionary
280
     1
281
     1
  3
ACAD_XREC_ROUNDTRIP
360
A9EC
  0
DICTIONARY
  5
AA05
330
A995
100
AcDbDictionary
280
     1
281
     1
  3
ACAD_XREC_ROUNDTRIP
360
AA06
  0
DICTIONARY
  5
A9F3
330
A98C
100
AcDbDictionary
280
     1
281
     1
  3
ACAD_XREC_ROUNDTRIP
360
A9F4
  0
DICTIONARY
  5
A9D7
330
A97E
100
AcDbDictionary
280
     1
281
     1
  3
ACAD_XREC_ROUNDTRIP
360
A9D8
  0
DICTIONARY
  5
A9D9
330
A97F
100
AcDbDictionary
280
     1
281
     1
  3
ACAD_XREC_ROUNDTRIP
360
A9DA
  0
DICTIONARY
  5
A9DB
330
A980
100
AcDbDictionary
280
     1
281
     1
  3
ACAD_XREC_ROUNDTRIP
360
A9DC
  0
DICTIONARY
  5
A9DD
330
A981
100
AcDbDictionary
280
     1
281
     1
  3
ACAD_XREC_ROUNDTRIP
360
A9DE
  0
DICTIONARY
  5
A9E5
330
A985
100
AcDbDictionary
280
     1
281
     1
  3
ACAD_XREC_ROUNDTRIP
360
A9E6
  0
DICTIONARY
  5
AA01
330
A993
100
AcDbDictionary
280
     1
281
     1
  3
ACAD_XREC_ROUNDTRIP
360
AA02
  0
DICTIONARY
  5
A9F1
330
A98B
100
AcDbDictionary
280
     1
281
     1
  3
ACAD_XREC_ROUNDTRIP
360
A9F2
  0
DICTIONARY
  5
AA03
330
A994
100
AcDbDictionary
280
     1
281
     1
  3
ACAD_XREC_ROUNDTRIP
360
AA04
  0
DICTIONARY
  5
A9E9
330
A987
100
AcDbDictionary
280
     1
281
     1
  3
ACAD_XREC_ROUNDTRIP
360
A9EA
  0
DICTIONARY
  5
A9FF
330
A992
100
AcDbDictionary
280
     1
281
     1
  3
ACAD_XREC_ROUNDTRIP
360
AA00
  0
DICTIONARY
  5
A9FD
330
A991
100
AcDbDictionary
280
     1
281
     1
  3
ACAD_XREC_ROUNDTRIP
360
A9FE
  0
DICTIONARY
  5
A9F7
330
A98E
100
AcDbDictionary
280
     1
281
     1
  3
ACAD_XREC_ROUNDTRIP
360
A9F8
  0
DICTIONARY
  5
A9F9
330
A98F
100
AcDbDictionary
280
     1
281
     1
  3
ACAD_XREC_ROUNDTRIP
360
A9FA
  0
DICTIONARY
  5
A9EF
330
A98A
100
AcDbDictionary
280
     1
281
     1
  3
ACAD_XREC_ROUNDTRIP
360
A9F0
  0
DICTIONARY
  5
A9E3
330
A984
100
AcDbDictionary
280
     1
281
     1
  3
ACAD_XREC_ROUNDTRIP
360
A9E4
  0
DICTIONARY
  5
A9FB
330
A990
100
AcDbDictionary
280
     1
281
     1
  3
ACAD_XREC_ROUNDTRIP
360
A9FC
  0
XRECORD
  5
AA0C
102
{ACAD_REACTORS
330
AA0B
102
}
330
AA0B
100
AcDbXrecord
280
     1
102
DISPLAYNAME
  1
Imperial24
102
FLAGS
 90
        0
  0
XRECORD
  5
AA0E
102
{ACAD_REACTORS
330
AA0D
102
}
330
AA0D
100
AcDbXrecord
280
     1
102
SHADEPLOT
 70
     0
102
SHADEPLOTRESLEVEL
 70
     2
102
SHADEPLOTCUSTOMDPI
 70
   300
  0
XRECORD
  5
AA10
102
{ACAD_REACTORS
330
AA0F
102
}
330
AA0F
100
AcDbXrecord
280
     1
102
SHADEPLOT
 70
     0
102
SHADEPLOTRESLEVEL
 70
     2
102
SHADEPLOTCUSTOMDPI
 70
   300
  0
XRECORD
  5
A9D5
102
{ACAD_REACTORS
330
A96E
102
}
330
A96E
100
AcDbXrecord
280
     1
102
MATERIAL
148
0.0
149
0.0
149
0.0
 93
        0
 94
      127
282
     0
 72
     0
 77
     0
171
     0
175
     0
179
     0
273
     0
  0
XRECORD
  5
A970
102
{ACAD_REACTORS
330
A96E
102
}
330
A96E
100
AcDbXrecord
280
     1
270
     1
271
     1
  0
XRECORD
  5
A96F
102
{ACAD_REACTORS
330
A96E
102
}
330
A96E
100
AcDbXrecord
280
     1
270
     1
271
     1
  0
XRECORD
  5
A973
102
{ACAD_REACTORS
330
A96E
102
}
330
A96E
100
AcDbXrecord
280
     1
270
     1
271
     1
  0
XRECORD
  5
A972
102
{ACAD_REACTORS
330
A96E
102
}
330
A96E
100
AcDbXrecord
280
     1
270
     1
271
     1
  0
XRECORD
  5
A974
102
{ACAD_REACTORS
330
A96E
102
}
330
A96E
100
AcDbXrecord
280
     1
270
     1
271
     1
  0
XRECORD
  5
A971
102
{ACAD_REACTORS
330
A96E
102
}
330
A96E
100
AcDbXrecord
280
     1
270
     1
271
     1
  0
XRECORD
  5
A9D4
102
{ACAD_REACTORS
330
A966
102
}
330
A966
100
AcDbXrecord
280
     1
102
MATERIAL
148
0.0
149
0.0
149
0.0
 93
        0
 94
      127
282
     0
 72
     0
 77
     0
171
     0
175
     0
179
     0
273
     0
  0
XRECORD
  5
A968
102
{ACAD_REACTORS
330
A966
102
}
330
A966
100
AcDbXrecord
280
     1
270
     1
271
     1
  0
XRECORD
  5
A967
102
{ACAD_REACTORS
330
A966
102
}
330
A966
100
AcDbXrecord
280
     1
270
     1
271
     1
  0
XRECORD
  5
A96B
102
{ACAD_REACTORS
330
A966
102
}
330
A966
100
AcDbXrecord
280
     1
270
     1
271
     1
  0
XRECORD
  5
A96A
102
{ACAD_REACTORS
330
A966
102
}
330
A966
100
AcDbXrecord
280
     1
270
     1
271
     1
  0
XRECORD
  5
A96C
102
{ACAD_REACTORS
330
A966
102
}
330
A966
100
AcDbXrecord
280
     1
270
     1
271
     1
  0
XRECORD
  5
A969
102
{ACAD_REACTORS
330
A966
102
}
330
A966
100
AcDbXrecord
280
     1
270
     1
271
     1
  0
XRECORD
  5
A9D6
102
{ACAD_REACTORS
330
A976
102
}
330
A976
100
AcDbXrecord
280
     1
102
MATERIAL
148
0.0
149
0.0
149
0.0
 93
        0
 94
      127
282
     0
 72
     0
 77
     0
171
     0
175
     0
179
     0
273
     0
  0
XRECORD
  5
A978
102
{ACAD_REACTORS
330
A976
102
}
330
A976
100
AcDbXrecord
280
     1
270
     1
271
     1
  0
XRECORD
  5
A977
102
{ACAD_REACTORS
330
A976
102
}
330
A976
100
AcDbXrecord
280
     1
270
     1
271
     1
  0
XRECORD
  5
A97B
102
{ACAD_REACTORS
330
A976
102
}
330
A976
100
AcDbXrecord
280
     1
270
     1
271
     1
  0
XRECORD
  5
A97A
102
{ACAD_REACTORS
330
A976
102
}
330
A976
100
AcDbXrecord
280
     1
270
     1
271
     1
  0
XRECORD
  5
A97C
102
{ACAD_REACTORS
330
A976
102
}
330
A976
100
AcDbXrecord
280
     1
270
     1
271
     1
  0
XRECORD
  5
A979
102
{ACAD_REACTORS
330
A976
102
}
330
A976
100
AcDbXrecord
280
     1
270
     1
271
     1
  0
XRECORD
  5
AA0A
102
{ACAD_REACTORS
330
AA09
102
}
330
AA09
100
AcDbXrecord
280
     1
102
DISPLAYNAME
  1
Imperial24
102
FLAGS
 90
        0
  0
CELLSTYLEMAP
  5
A9D1
102
{ACAD_REACTORS
330
A9D0
102
}
330
A9D0
100
AcDbCellStyleMap
 90
        3
300
CELLSTYLE
  1
TABLEFORMAT_BEGIN
 90
        5
170
     1
 91
        0
 92
    32768
 62
   257
 93
        1
300
CONTENTFORMAT
  1
CONTENTFORMAT_BEGIN
 90
        0
 91
        0
 92
      512
 93
        0
300

 40
0.0
140
1.0
 94
        5
 62
     0
340
A657
144
0.25
309
CONTENTFORMAT_END
171
     0
 94
        0
309
TABLEFORMAT_END
  1
CELLSTYLE_BEGIN
 90
        1
 91
        1
300
_TITLE
309
CELLSTYLE_END
300
CELLSTYLE
  1
TABLEFORMAT_BEGIN
 90
        5
170
     1
 91
        0
 92
        0
 62
   257
 93
        1
300
CONTENTFORMAT
  1
CONTENTFORMAT_BEGIN
 90
        0
 91
        0
 92
      512
 93
        0
300

 40
0.0
140
1.0
 94
        5
 62
     0
340
A657
144
0.18
309
CONTENTFORMAT_END
171
     0
 94
        0
309
TABLEFORMAT_END
  1
CELLSTYLE_BEGIN
 90
        2
 91
        1
300
_HEADER
309
CELLSTYLE_END
300
CELLSTYLE
  1
TABLEFORMAT_BEGIN
 90
        5
170
     1
 91
        0
 92
        0
 62
   257
 93
        1
300
CONTENTFORMAT
  1
CONTENTFORMAT_BEGIN
 90
        0
 91
        0
 92
      512
 93
        0
300

 40
0.0
140
1.0
 94
        2
 62
     0
340
A657
144
0.18
309
CONTENTFORMAT_END
171
     0
 94
        0
309
TABLEFORMAT_END
  1
CELLSTYLE_BEGIN
 90
        3
 91
        2
300
_DATA
309
CELLSTYLE_END
  0
XRECORD
  5
AA07
102
{ACAD_REACTORS
330
A9D0
102
}
330
A9D0
100
AcDbXrecord
280
     1
102
ACAD_ROUNDTRIP_PRE2007_TABLESTYLE
 90
      512
 91
        0
  1

 92
      512
 93
        0
  2

 94
      512
 95
        0
  3

  0
XRECORD
  5
A9E2
102
{ACAD_REACTORS
330
A9E1
102
}
330
A9E1
100
AcDbXrecord
280
     1
102
RTVSPost2010Prop28
280
     1
102
RTVSPost2010PropOp28
 70
     1
102
RTVSPost2010Prop29
280
     1
102
RTVSPost2010PropOp29
 70
     1
102
RTVSPost2010Prop30
280
     0
102
RTVSPost2010PropOp30
 70
     1
102
RTVSPost2010Prop31
280
     0
102
RTVSPost2010PropOp31
 70
     1
102
RTVSPost2010Prop32
280
     0
102
RTVSPost2010PropOp32
 70
     1
102
RTVSPost2010Prop33
280
     0
102
RTVSPost2010PropOp33
 70
     1
102
RTVSPost2010Prop34
280
     0
102
RTVSPost2010PropOp34
 70
     1
102
RTVSPost2010Prop35
280
     0
102
RTVSPost2010PropOp35
 70
     1
102
RTVSPost2010Prop36
280
     0
102
RTVSPost2010PropOp36
 70
     1
102
RTVSPost2010Prop37
 90
       50
102
RTVSPost2010PropOp37
 70
     1
102
RTVSPost2010Prop38
140
0.0
102
RTVSPost2010PropOp38
 70
     1
102
RTVSPost2010Prop39
140
1.0
102
RTVSPost2010PropOp39
 70
     1
102
RTVSPost2010Prop40
 90
        0
102
RTVSPost2010PropOp40
 70
     1
102
RTVSPost2010Prop41ColorIndex
 90
       18
102
RTVSPost2010Prop41ColorRGB
 90
        0
102
RTVSPost2010PropOp41
 70
     1
102
RTVSPost2010Prop42
 90
       50
102
RTVSPost2010PropOp42
 70
     1
102
RTVSPost2010Prop43
 90
        3
102
RTVSPost2010PropOp43
 70
     1
102
RTVSPost2010Prop44ColorIndex
 90
        5
102
RTVSPost2010Prop44ColorRGB
 90
      255
102
RTVSPost2010PropOp44
 70
     1
102
RTVSPost2010Prop45
280
     0
102
RTVSPost2010PropOp45
 70
     1
102
RTVSPost2010Prop46
 90
       50
102
RTVSPost2010PropOp46
 70
     1
102
RTVSPost2010Prop47
 90
       50
102
RTVSPost2010PropOp47
 70
     1
102
RTVSPost2010Prop48
 90
       50
102
RTVSPost2010PropOp48
 70
     1
102
RTVSPost2010Prop49
280
     0
102
RTVSPost2010PropOp49
 70
     1
102
RTVSPost2010Prop50
 90
       50
102
RTVSPost2010PropOp50
 70
     1
102
RTVSPost2010Prop51ColorIndex
 90
      256
102
RTVSPost2010Prop51ColorRGB
 90
-16777216
102
RTVSPost2010PropOp51
 70
     0
102
RTVSPost2010Prop52
140
1.0
102
RTVSPost2010PropOp52
 70
     0
102
RTVSPost2010Prop53
 90
        2
102
RTVSPost2010PropOp53
 70
     1
102
RTVSPost2010Prop54
  1
strokes_ogs.tif
102
RTVSPost2010PropOp54
 70
     1
102
RTVSPost2010Prop55
280
     0
102
RTVSPost2010PropOp55
 70
     1
102
RTVSPost2010Prop56
140
1.0
102
RTVSPost2010PropOp56
 70
     1
102
RTVSPost2010Prop57
140
1.0
102
RTVSPost2010PropOp57
 70
     1
102
RTVSPropertyOp0
 70
     1
102
RTVSPropertyOp1
 70
     1
102
RTVSPropertyOp2
 70
     1
102
RTVSPropertyOp3
 70
     1
102
RTVSPropertyOp4
 70
     1
102
RTVSPropertyOp5
 70
     1
102
RTVSPropertyOp6
 70
     1
102
RTVSPropertyOp7
 70
     1
102
RTVSPropertyOp8
 70
     1
102
RTVSPropertyOp9
 70
     1
102
RTVSPropertyOp10
 70
     1
102
RTVSPropertyOp11
 70
     1
102
RTVSPropertyOp12
 70
     1
102
RTVSPropertyOp13
 70
     1
102
RTVSPropertyOp14
 70
     1
102
RTVSPropertyOp15
 70
     1
102
RTVSPropertyOp16
 70
     1
102
RTVSPropertyOp17
 70
     1
102
RTVSPropertyOp18
 70
     1
102
RTVSPropertyOp19
 70
     1
102
RTVSPropertyOp20
 70
     1
102
RTVSPropertyOp21
 70
     1
102
RTVSPropertyOp22
 70
     1
102
RTVSPropertyOp23
 70
     1
102
RTVSPropertyOp24
 70
     1
102
RTVSPropertyOp25
 70
     1
102
RTVSPropertyOp26
 70
     1
102
RTVSPropertyOp27
 70
     1
102
RTVSPropertyOp28
 70
     1
102
RTVSPropertyOp29
 70
     1
102
RTVSPropertyOp30
 70
     1
102
RTVSPropertyOp31
 70
     1
102
RTVSPropertyOp32
 70
     1
102
RTVSPropertyOp33
 70
     1
102
RTVSPropertyOp34
 70
     1
102
RTVSPropertyOp35
 70
     1
102
RTVSPropertyOp36
 70
     1
102
RTVSPropertyOp37
 70
     1
102
RTVSPropertyOp38
 70
     1
102
RTVSPropertyOp39
 70
     1
102
RTVSPropertyOp40
 70
     1
102
RTVSPropertyOp41
 70
     1
102
RTVSPropertyOp42
 70
     1
102
RTVSPropertyOp43
 70
     1
102
RTVSPropertyOp44
 70
     1
102
RTVSPropertyOp45
 70
     1
102
RTVSPropertyOp46
 70
     1
102
RTVSPropertyOp47
 70
     1
102
RTVSPropertyOp48
 70
     1
102
RTVSPropertyOp49
 70
     1
102
RTVSPropertyOp50
 70
     1
102
RTVSPropertyOp51
 70
     0
102
RTVSPropertyOp52
 70
     0
102
RTVSPropertyOp53
 70
     1
102
RTVSPropertyOp54
 70
     1
102
RTVSPropertyOp55
 70
     1
102
RTVSPropertyOp56
 70
     1
102
RTVSPropertyOp57
 70
     1
102
RTVSPropertyOp58
 70
     1
102
RTVSPropertyOp59
 70
     1
102
RTVSPropertyOp60
 70
     1
102
RTVSPropertyOp61
 70
     1
102
RTVSPropertyOp62
 70
     1
  0
XRECORD
  5
A9E0
102
{ACAD_REACTORS
330
A9DF
102
}
330
A9DF
100
AcDbXrecord
280
     1
102
RTVSPost2010Prop28
280
     0
102
RTVSPost2010PropOp28
 70
     1
102
RTVSPost2010Prop29
280
     1
102
RTVSPost2010PropOp29
 70
     1
102
RTVSPost2010Prop30
280
     1
102
RTVSPost2010PropOp30
 70
     1
102
RTVSPost2010Prop31
280
     0
102
RTVSPost2010PropOp31
 70
     1
102
RTVSPost2010Prop32
280
     0
102
RTVSPost2010PropOp32
 70
     1
102
RTVSPost2010Prop33
280
     0
102
RTVSPost2010PropOp33
 70
     1
102
RTVSPost2010Prop34
280
     0
102
RTVSPost2010PropOp34
 70
     1
102
RTVSPost2010Prop35
280
     0
102
RTVSPost2010PropOp35
 70
     1
102
RTVSPost2010Prop36
280
     0
102
RTVSPost2010PropOp36
 70
     1
102
RTVSPost2010Prop37
 90
       50
102
RTVSPost2010PropOp37
 70
     1
102
RTVSPost2010Prop38
140
0.0
102
RTVSPost2010PropOp38
 70
     1
102
RTVSPost2010Prop39
140
1.0
102
RTVSPost2010PropOp39
 70
     1
102
RTVSPost2010Prop40
 90
        0
102
RTVSPost2010PropOp40
 70
     1
102
RTVSPost2010Prop41ColorIndex
 90
       18
102
RTVSPost2010Prop41ColorRGB
 90
        0
102
RTVSPost2010PropOp41
 70
     1
102
RTVSPost2010Prop42
 90
       50
102
RTVSPost2010PropOp42
 70
     1
102
RTVSPost2010Prop43
 90
        3
102
RTVSPost2010PropOp43
 70
     1
102
RTVSPost2010Prop44ColorIndex
 90
        5
102
RTVSPost2010Prop44ColorRGB
 90
      255
102
RTVSPost2010PropOp44
 70
     1
102
RTVSPost2010Prop45
280
     0
102
RTVSPost2010PropOp45
 70
     1
102
RTVSPost2010Prop46
 90
       50
102
RTVSPost2010PropOp46
 70
     1
102
RTVSPost2010Prop47
 90
       50
102
RTVSPost2010PropOp47
 70
     1
102
RTVSPost2010Prop48
 90
       50
102
RTVSPost2010PropOp48
 70
     1
102
RTVSPost2010Prop49
280
     0
102
RTVSPost2010PropOp49
 70
     1
102
RTVSPost2010Prop50
 90
       50
102
RTVSPost2010PropOp50
 70
     1
102
RTVSPost2010Prop51ColorIndex
 90
      256
102
RTVSPost2010Prop51ColorRGB
 90
-16777216
102
RTVSPost2010PropOp51
 70
     0
102
RTVSPost2010Prop52
140
1.0
102
RTVSPost2010PropOp52
 70
     0
102
RTVSPost2010Prop53
 90
        2
102
RTVSPost2010PropOp53
 70
     1
102
RTVSPost2010Prop54
  1
strokes_ogs.tif
102
RTVSPost2010PropOp54
 70
     1
102
RTVSPost2010Prop55
280
     0
102
RTVSPost2010PropOp55
 70
     1
102
RTVSPost2010Prop56
140
1.0
102
RTVSPost2010PropOp56
 70
     1
102
RTVSPost2010Prop57
140
1.0
102
RTVSPost2010PropOp57
 70
     1
102
RTVSPropertyOp0
 70
     1
102
RTVSPropertyOp1
 70
     1
102
RTVSPropertyOp2
 70
     1
102
RTVSPropertyOp3
 70
     1
102
RTVSPropertyOp4
 70
     1
102
RTVSPropertyOp5
 70
     1
102
RTVSPropertyOp6
 70
     1
102
RTVSPropertyOp7
 70
     1
102
RTVSPropertyOp8
 70
     1
102
RTVSPropertyOp9
 70
     1
102
RTVSPropertyOp10
 70
     1
102
RTVSPropertyOp11
 70
     1
102
RTVSPropertyOp12
 70
     1
102
RTVSPropertyOp13
 70
     1
102
RTVSPropertyOp14
 70
     1
102
RTVSPropertyOp15
 70
     1
102
RTVSPropertyOp16
 70
     1
102
RTVSPropertyOp17
 70
     1
102
RTVSPropertyOp18
 70
     1
102
RTVSPropertyOp19
 70
     1
102
RTVSPropertyOp20
 70
     1
102
RTVSPropertyOp21
 70
     1
102
RTVSPropertyOp22
 70
     1
102
RTVSPropertyOp23
 70
     1
102
RTVSPropertyOp24
 70
     1
102
RTVSPropertyOp25
 70
     1
102
RTVSPropertyOp26
 70
     1
102
RTVSPropertyOp27
 70
     1
102
RTVSPropertyOp28
 70
     1
102
RTVSPropertyOp29
 70
     1
102
RTVSPropertyOp30
 70
     1
102
RTVSPropertyOp31
 70
     1
102
RTVSPropertyOp32
 70
     1
102
RTVSPropertyOp33
 70
     1
102
RTVSPropertyOp34
 70
     1
102
RTVSPropertyOp35
 70
     1
102
RTVSPropertyOp36
 70
     1
102
RTVSPropertyOp37
 70
     1
102
RTVSPropertyOp38
 70
     1
102
RTVSPropertyOp39
 70
     1
102
RTVSPropertyOp40
 70
     1
102
RTVSPropertyOp41
 70
     1
102
RTVSPropertyOp42
 70
     1
102
RTVSPropertyOp43
 70
     1
102
RTVSPropertyOp44
 70
     1
102
RTVSPropertyOp45
 70
     1
102
RTVSPropertyOp46
 70
     1
102
RTVSPropertyOp47
 70
     1
102
RTVSPropertyOp48
 70
     1
102
RTVSPropertyOp49
 70
     1
102
RTVSPropertyOp50
 70
     1
102
RTVSPropertyOp51
 70
     0
102
RTVSPropertyOp52
 70
     0
102
RTVSPropertyOp53
 70
     1
102
RTVSPropertyOp54
 70
     1
102
RTVSPropertyOp55
 70
     1
102
RTVSPropertyOp56
 70
     1
102
RTVSPropertyOp57
 70
     1
102
RTVSPropertyOp58
 70
     1
102
RTVSPropertyOp59
 70
     1
102
RTVSPropertyOp60
 70
     1
102
RTVSPropertyOp61
 70
     1
102
RTVSPropertyOp62
 70
     1
  0
XRECORD
  5
A9EE
102
{ACAD_REACTORS
330
A9ED
102
}
330
A9ED
100
AcDbXrecord
280
     1
102
RTVSPost2010Prop28
280
     0
102
RTVSPost2010PropOp28
 70
     1
102
RTVSPost2010Prop29
280
     1
102
RTVSPost2010PropOp29
 70
     1
102
RTVSPost2010Prop30
280
     1
102
RTVSPost2010PropOp30
 70
     1
102
RTVSPost2010Prop31
280
     0
102
RTVSPost2010PropOp31
 70
     1
102
RTVSPost2010Prop32
280
     0
102
RTVSPost2010PropOp32
 70
     1
102
RTVSPost2010Prop33
280
     0
102
RTVSPost2010PropOp33
 70
     1
102
RTVSPost2010Prop34
280
     0
102
RTVSPost2010PropOp34
 70
     1
102
RTVSPost2010Prop35
280
     0
102
RTVSPost2010PropOp35
 70
     1
102
RTVSPost2010Prop36
280
     0
102
RTVSPost2010PropOp36
 70
     1
102
RTVSPost2010Prop37
 90
       50
102
RTVSPost2010PropOp37
 70
     1
102
RTVSPost2010Prop38
140
0.0
102
RTVSPost2010PropOp38
 70
     1
102
RTVSPost2010Prop39
140
1.0
102
RTVSPost2010PropOp39
 70
     1
102
RTVSPost2010Prop40
 90
        0
102
RTVSPost2010PropOp40
 70
     1
102
RTVSPost2010Prop41ColorIndex
 90
       18
102
RTVSPost2010Prop41ColorRGB
 90
        0
102
RTVSPost2010PropOp41
 70
     1
102
RTVSPost2010Prop42
 90
       50
102
RTVSPost2010PropOp42
 70
     1
102
RTVSPost2010Prop43
 90
        3
102
RTVSPost2010PropOp43
 70
     1
102
RTVSPost2010Prop44ColorIndex
 90
        5
102
RTVSPost2010Prop44ColorRGB
 90
      255
102
RTVSPost2010PropOp44
 70
     1
102
RTVSPost2010Prop45
280
     0
102
RTVSPost2010PropOp45
 70
     1
102
RTVSPost2010Prop46
 90
       50
102
RTVSPost2010PropOp46
 70
     1
102
RTVSPost2010Prop47
 90
       50
102
RTVSPost2010PropOp47
 70
     1
102
RTVSPost2010Prop48
 90
       50
102
RTVSPost2010PropOp48
 70
     1
102
RTVSPost2010Prop49
280
     0
102
RTVSPost2010PropOp49
 70
     1
102
RTVSPost2010Prop50
 90
       50
102
RTVSPost2010PropOp50
 70
     1
102
RTVSPost2010Prop51ColorIndex
 90
      256
102
RTVSPost2010Prop51ColorRGB
 90
-16777216
102
RTVSPost2010PropOp51
 70
     0
102
RTVSPost2010Prop52
140
1.0
102
RTVSPost2010PropOp52
 70
     0
102
RTVSPost2010Prop53
 90
        2
102
RTVSPost2010PropOp53
 70
     1
102
RTVSPost2010Prop54
  1
strokes_ogs.tif
102
RTVSPost2010PropOp54
 70
     1
102
RTVSPost2010Prop55
280
     0
102
RTVSPost2010PropOp55
 70
     1
102
RTVSPost2010Prop56
140
1.0
102
RTVSPost2010PropOp56
 70
     1
102
RTVSPost2010Prop57
140
1.0
102
RTVSPost2010PropOp57
 70
     1
102
RTVSPropertyOp0
 70
     1
102
RTVSPropertyOp1
 70
     1
102
RTVSPropertyOp2
 70
     1
102
RTVSPropertyOp3
 70
     1
102
RTVSPropertyOp4
 70
     1
102
RTVSPropertyOp5
 70
     1
102
RTVSPropertyOp6
 70
     1
102
RTVSPropertyOp7
 70
     1
102
RTVSPropertyOp8
 70
     1
102
RTVSPropertyOp9
 70
     1
102
RTVSPropertyOp10
 70
     1
102
RTVSPropertyOp11
 70
     1
102
RTVSPropertyOp12
 70
     1
102
RTVSPropertyOp13
 70
     1
102
RTVSPropertyOp14
 70
     1
102
RTVSPropertyOp15
 70
     1
102
RTVSPropertyOp16
 70
     1
102
RTVSPropertyOp17
 70
     1
102
RTVSPropertyOp18
 70
     1
102
RTVSPropertyOp19
 70
     1
102
RTVSPropertyOp20
 70
     1
102
RTVSPropertyOp21
 70
     1
102
RTVSPropertyOp22
 70
     1
102
RTVSPropertyOp23
 70
     1
102
RTVSPropertyOp24
 70
     1
102
RTVSPropertyOp25
 70
     1
102
RTVSPropertyOp26
 70
     1
102
RTVSPropertyOp27
 70
     1
102
RTVSPropertyOp28
 70
     1
102
RTVSPropertyOp29
 70
     1
102
RTVSPropertyOp30
 70
     1
102
RTVSPropertyOp31
 70
     1
102
RTVSPropertyOp32
 70
     1
102
RTVSPropertyOp33
 70
     1
102
RTVSPropertyOp34
 70
     1
102
RTVSPropertyOp35
 70
     1
102
RTVSPropertyOp36
 70
     1
102
RTVSPropertyOp37
 70
     1
102
RTVSPropertyOp38
 70
     1
102
RTVSPropertyOp39
 70
     1
102
RTVSPropertyOp40
 70
     1
102
RTVSPropertyOp41
 70
     1
102
RTVSPropertyOp42
 70
     1
102
RTVSPropertyOp43
 70
     1
102
RTVSPropertyOp44
 70
     1
102
RTVSPropertyOp45
 70
     1
102
RTVSPropertyOp46
 70
     1
102
RTVSPropertyOp47
 70
     1
102
RTVSPropertyOp48
 70
     1
102
RTVSPropertyOp49
 70
     1
102
RTVSPropertyOp50
 70
     1
102
RTVSPropertyOp51
 70
     0
102
RTVSPropertyOp52
 70
     0
102
RTVSPropertyOp53
 70
     1
102
RTVSPropertyOp54
 70
     1
102
RTVSPropertyOp55
 70
     1
102
RTVSPropertyOp56
 70
     1
102
RTVSPropertyOp57
 70
     1
102
RTVSPropertyOp58
 70
     1
102
RTVSPropertyOp59
 70
     1
102
RTVSPropertyOp60
 70
     1
102
RTVSPropertyOp61
 70
     1
102
RTVSPropertyOp62
 70
     1
  0
XRECORD
  5
A9F6
102
{ACAD_REACTORS
330
A9F5
102
}
330
A9F5
100
AcDbXrecord
280
     1
102
RTVSPost2010Prop28
280
     0
102
RTVSPost2010PropOp28
 70
     1
102
RTVSPost2010Prop29
280
     1
102
RTVSPost2010PropOp29
 70
     1
102
RTVSPost2010Prop30
280
     1
102
RTVSPost2010PropOp30
 70
     1
102
RTVSPost2010Prop31
280
     0
102
RTVSPost2010PropOp31
 70
     1
102
RTVSPost2010Prop32
280
     0
102
RTVSPost2010PropOp32
 70
     1
102
RTVSPost2010Prop33
280
     0
102
RTVSPost2010PropOp33
 70
     1
102
RTVSPost2010Prop34
280
     0
102
RTVSPost2010PropOp34
 70
     1
102
RTVSPost2010Prop35
280
     0
102
RTVSPost2010PropOp35
 70
     1
102
RTVSPost2010Prop36
280
     0
102
RTVSPost2010PropOp36
 70
     1
102
RTVSPost2010Prop37
 90
       50
102
RTVSPost2010PropOp37
 70
     1
102
RTVSPost2010Prop38
140
0.0
102
RTVSPost2010PropOp38
 70
     1
102
RTVSPost2010Prop39
140
1.0
102
RTVSPost2010PropOp39
 70
     1
102
RTVSPost2010Prop40
 90
        0
102
RTVSPost2010PropOp40
 70
     1
102
RTVSPost2010Prop41ColorIndex
 90
       18
102
RTVSPost2010Prop41ColorRGB
 90
        0
102
RTVSPost2010PropOp41
 70
     1
102
RTVSPost2010Prop42
 90
       50
102
RTVSPost2010PropOp42
 70
     1
102
RTVSPost2010Prop43
 90
        3
102
RTVSPost2010PropOp43
 70
     1
102
RTVSPost2010Prop44ColorIndex
 90
        5
102
RTVSPost2010Prop44ColorRGB
 90
      255
102
RTVSPost2010PropOp44
 70
     1
102
RTVSPost2010Prop45
280
     0
102
RTVSPost2010PropOp45
 70
     1
102
RTVSPost2010Prop46
 90
       50
102
RTVSPost2010PropOp46
 70
     1
102
RTVSPost2010Prop47
 90
       50
102
RTVSPost2010PropOp47
 70
     1
102
RTVSPost2010Prop48
 90
       50
102
RTVSPost2010PropOp48
 70
     1
102
RTVSPost2010Prop49
280
     0
102
RTVSPost2010PropOp49
 70
     1
102
RTVSPost2010Prop50
 90
       50
102
RTVSPost2010PropOp50
 70
     1
102
RTVSPost2010Prop51ColorIndex
 90
      256
102
RTVSPost2010Prop51ColorRGB
 90
-16777216
102
RTVSPost2010PropOp51
 70
     0
102
RTVSPost2010Prop52
140
1.0
102
RTVSPost2010PropOp52
 70
     0
102
RTVSPost2010Prop53
 90
        2
102
RTVSPost2010PropOp53
 70
     1
102
RTVSPost2010Prop54
  1
strokes_ogs.tif
102
RTVSPost2010PropOp54
 70
     1
102
RTVSPost2010Prop55
280
     0
102
RTVSPost2010PropOp55
 70
     1
102
RTVSPost2010Prop56
140
1.0
102
RTVSPost2010PropOp56
 70
     1
102
RTVSPost2010Prop57
140
1.0
102
RTVSPost2010PropOp57
 70
     1
102
RTVSPropertyOp0
 70
     1
102
RTVSPropertyOp1
 70
     1
102
RTVSPropertyOp2
 70
     1
102
RTVSPropertyOp3
 70
     1
102
RTVSPropertyOp4
 70
     1
102
RTVSPropertyOp5
 70
     1
102
RTVSPropertyOp6
 70
     1
102
RTVSPropertyOp7
 70
     1
102
RTVSPropertyOp8
 70
     1
102
RTVSPropertyOp9
 70
     1
102
RTVSPropertyOp10
 70
     1
102
RTVSPropertyOp11
 70
     1
102
RTVSPropertyOp12
 70
     1
102
RTVSPropertyOp13
 70
     1
102
RTVSPropertyOp14
 70
     1
102
RTVSPropertyOp15
 70
     1
102
RTVSPropertyOp16
 70
     1
102
RTVSPropertyOp17
 70
     1
102
RTVSPropertyOp18
 70
     1
102
RTVSPropertyOp19
 70
     1
102
RTVSPropertyOp20
 70
     1
102
RTVSPropertyOp21
 70
     1
102
RTVSPropertyOp22
 70
     1
102
RTVSPropertyOp23
 70
     1
102
RTVSPropertyOp24
 70
     1
102
RTVSPropertyOp25
 70
     1
102
RTVSPropertyOp26
 70
     1
102
RTVSPropertyOp27
 70
     1
102
RTVSPropertyOp28
 70
     1
102
RTVSPropertyOp29
 70
     1
102
RTVSPropertyOp30
 70
     1
102
RTVSPropertyOp31
 70
     1
102
RTVSPropertyOp32
 70
     1
102
RTVSPropertyOp33
 70
     1
102
RTVSPropertyOp34
 70
     1
102
RTVSPropertyOp35
 70
     1
102
RTVSPropertyOp36
 70
     1
102
RTVSPropertyOp37
 70
     1
102
RTVSPropertyOp38
 70
     1
102
RTVSPropertyOp39
 70
     1
102
RTVSPropertyOp40
 70
     1
102
RTVSPropertyOp41
 70
     1
102
RTVSPropertyOp42
 70
     1
102
RTVSPropertyOp43
 70
     1
102
RTVSPropertyOp44
 70
     1
102
RTVSPropertyOp45
 70
     1
102
RTVSPropertyOp46
 70
     1
102
RTVSPropertyOp47
 70
     1
102
RTVSPropertyOp48
 70
     1
102
RTVSPropertyOp49
 70
     1
102
RTVSPropertyOp50
 70
     1
102
RTVSPropertyOp51
 70
     0
102
RTVSPropertyOp52
 70
     0
102
RTVSPropertyOp53
 70
     1
102
RTVSPropertyOp54
 70
     1
102
RTVSPropertyOp55
 70
     1
102
RTVSPropertyOp56
 70
     1
102
RTVSPropertyOp57
 70
     1
102
RTVSPropertyOp58
 70
     1
102
RTVSPropertyOp59
 70
     1
102
RTVSPropertyOp60
 70
     1
102
RTVSPropertyOp61
 70
     1
102
RTVSPropertyOp62
 70
     1
  0
XRECORD
  5
A9E8
102
{ACAD_REACTORS
330
A9E7
102
}
330
A9E7
100
AcDbXrecord
280
     1
102
RTVSPost2010Prop28
280
     0
102
RTVSPost2010PropOp28
 70
     1
102
RTVSPost2010Prop29
280
     1
102
RTVSPost2010PropOp29
 70
     1
102
RTVSPost2010Prop30
280
     1
102
RTVSPost2010PropOp30
 70
     1
102
RTVSPost2010Prop31
280
     0
102
RTVSPost2010PropOp31
 70
     1
102
RTVSPost2010Prop32
280
     0
102
RTVSPost2010PropOp32
 70
     1
102
RTVSPost2010Prop33
280
     0
102
RTVSPost2010PropOp33
 70
     1
102
RTVSPost2010Prop34
280
     0
102
RTVSPost2010PropOp34
 70
     1
102
RTVSPost2010Prop35
280
     0
102
RTVSPost2010PropOp35
 70
     1
102
RTVSPost2010Prop36
280
     0
102
RTVSPost2010PropOp36
 70
     1
102
RTVSPost2010Prop37
 90
       50
102
RTVSPost2010PropOp37
 70
     1
102
RTVSPost2010Prop38
140
0.0
102
RTVSPost2010PropOp38
 70
     1
102
RTVSPost2010Prop39
140
1.0
102
RTVSPost2010PropOp39
 70
     1
102
RTVSPost2010Prop40
 90
        0
102
RTVSPost2010PropOp40
 70
     1
102
RTVSPost2010Prop41ColorIndex
 90
       18
102
RTVSPost2010Prop41ColorRGB
 90
        0
102
RTVSPost2010PropOp41
 70
     1
102
RTVSPost2010Prop42
 90
       50
102
RTVSPost2010PropOp42
 70
     1
102
RTVSPost2010Prop43
 90
        3
102
RTVSPost2010PropOp43
 70
     1
102
RTVSPost2010Prop44ColorIndex
 90
        5
102
RTVSPost2010Prop44ColorRGB
 90
      255
102
RTVSPost2010PropOp44
 70
     1
102
RTVSPost2010Prop45
280
     0
102
RTVSPost2010PropOp45
 70
     1
102
RTVSPost2010Prop46
 90
       50
102
RTVSPost2010PropOp46
 70
     1
102
RTVSPost2010Prop47
 90
       50
102
RTVSPost2010PropOp47
 70
     1
102
RTVSPost2010Prop48
 90
       50
102
RTVSPost2010PropOp48
 70
     1
102
RTVSPost2010Prop49
280
     0
102
RTVSPost2010PropOp49
 70
     1
102
RTVSPost2010Prop50
 90
       50
102
RTVSPost2010PropOp50
 70
     1
102
RTVSPost2010Prop51ColorIndex
 90
      256
102
RTVSPost2010Prop51ColorRGB
 90
-16777216
102
RTVSPost2010PropOp51
 70
     0
102
RTVSPost2010Prop52
140
1.0
102
RTVSPost2010PropOp52
 70
     0
102
RTVSPost2010Prop53
 90
        2
102
RTVSPost2010PropOp53
 70
     1
102
RTVSPost2010Prop54
  1
strokes_ogs.tif
102
RTVSPost2010PropOp54
 70
     1
102
RTVSPost2010Prop55
280
     0
102
RTVSPost2010PropOp55
 70
     1
102
RTVSPost2010Prop56
140
1.0
102
RTVSPost2010PropOp56
 70
     1
102
RTVSPost2010Prop57
140
1.0
102
RTVSPost2010PropOp57
 70
     1
102
RTVSPropertyOp0
 70
     1
102
RTVSPropertyOp1
 70
     1
102
RTVSPropertyOp2
 70
     1
102
RTVSPropertyOp3
 70
     1
102
RTVSPropertyOp4
 70
     1
102
RTVSPropertyOp5
 70
     1
102
RTVSPropertyOp6
 70
     1
102
RTVSPropertyOp7
 70
     1
102
RTVSPropertyOp8
 70
     1
102
RTVSPropertyOp9
 70
     1
102
RTVSPropertyOp10
 70
     1
102
RTVSPropertyOp11
 70
     1
102
RTVSPropertyOp12
 70
     1
102
RTVSPropertyOp13
 70
     1
102
RTVSPropertyOp14
 70
     1
102
RTVSPropertyOp15
 70
     1
102
RTVSPropertyOp16
 70
     1
102
RTVSPropertyOp17
 70
     1
102
RTVSPropertyOp18
 70
     1
102
RTVSPropertyOp19
 70
     1
102
RTVSPropertyOp20
 70
     1
102
RTVSPropertyOp21
 70
     1
102
RTVSPropertyOp22
 70
     1
102
RTVSPropertyOp23
 70
     1
102
RTVSPropertyOp24
 70
     1
102
RTVSPropertyOp25
 70
     1
102
RTVSPropertyOp26
 70
     1
102
RTVSPropertyOp27
 70
     1
102
RTVSPropertyOp28
 70
     1
102
RTVSPropertyOp29
 70
     1
102
RTVSPropertyOp30
 70
     1
102
RTVSPropertyOp31
 70
     1
102
RTVSPropertyOp32
 70
     1
102
RTVSPropertyOp33
 70
     1
102
RTVSPropertyOp34
 70
     1
102
RTVSPropertyOp35
 70
     1
102
RTVSPropertyOp36
 70
     1
102
RTVSPropertyOp37
 70
     1
102
RTVSPropertyOp38
 70
     1
102
RTVSPropertyOp39
 70
     1
102
RTVSPropertyOp40
 70
     1
102
RTVSPropertyOp41
 70
     1
102
RTVSPropertyOp42
 70
     1
102
RTVSPropertyOp43
 70
     1
102
RTVSPropertyOp44
 70
     1
102
RTVSPropertyOp45
 70
     1
102
RTVSPropertyOp46
 70
     1
102
RTVSPropertyOp47
 70
     1
102
RTVSPropertyOp48
 70
     1
102
RTVSPropertyOp49
 70
     1
102
RTVSPropertyOp50
 70
     1
102
RTVSPropertyOp51
 70
     0
102
RTVSPropertyOp52
 70
     0
102
RTVSPropertyOp53
 70
     1
102
RTVSPropertyOp54
 70
     1
102
RTVSPropertyOp55
 70
     1
102
RTVSPropertyOp56
 70
     1
102
RTVSPropertyOp57
 70
     1
102
RTVSPropertyOp58
 70
     1
102
RTVSPropertyOp59
 70
     1
102
RTVSPropertyOp60
 70
     1
102
RTVSPropertyOp61
 70
     1
102
RTVSPropertyOp62
 70
     1
  0
XRECORD
  5
A9EC
102
{ACAD_REACTORS
330
A9EB
102
}
330
A9EB
100
AcDbXrecord
280
     1
102
RTVSPost2010Prop28
280
     0
102
RTVSPost2010PropOp28
 70
     1
102
RTVSPost2010Prop29
280
     1
102
RTVSPost2010PropOp29
 70
     1
102
RTVSPost2010Prop30
280
     1
102
RTVSPost2010PropOp30
 70
     1
102
RTVSPost2010Prop31
280
     0
102
RTVSPost2010PropOp31
 70
     1
102
RTVSPost2010Prop32
280
     0
102
RTVSPost2010PropOp32
 70
     1
102
RTVSPost2010Prop33
280
     0
102
RTVSPost2010PropOp33
 70
     1
102
RTVSPost2010Prop34
280
     0
102
RTVSPost2010PropOp34
 70
     1
102
RTVSPost2010Prop35
280
     0
102
RTVSPost2010PropOp35
 70
     1
102
RTVSPost2010Prop36
280
     0
102
RTVSPost2010PropOp36
 70
     1
102
RTVSPost2010Prop37
 90
       50
102
RTVSPost2010PropOp37
 70
     1
102
RTVSPost2010Prop38
140
0.0
102
RTVSPost2010PropOp38
 70
     1
102
RTVSPost2010Prop39
140
1.0
102
RTVSPost2010PropOp39
 70
     1
102
RTVSPost2010Prop40
 90
        0
102
RTVSPost2010PropOp40
 70
     1
102
RTVSPost2010Prop41ColorIndex
 90
       18
102
RTVSPost2010Prop41ColorRGB
 90
        0
102
RTVSPost2010PropOp41
 70
     1
102
RTVSPost2010Prop42
 90
       50
102
RTVSPost2010PropOp42
 70
     1
102
RTVSPost2010Prop43
 90
        3
102
RTVSPost2010PropOp43
 70
     1
102
RTVSPost2010Prop44ColorIndex
 90
        5
102
RTVSPost2010Prop44ColorRGB
 90
      255
102
RTVSPost2010PropOp44
 70
     1
102
RTVSPost2010Prop45
280
     0
102
RTVSPost2010PropOp45
 70
     1
102
RTVSPost2010Prop46
 90
       50
102
RTVSPost2010PropOp46
 70
     1
102
RTVSPost2010Prop47
 90
       50
102
RTVSPost2010PropOp47
 70
     1
102
RTVSPost2010Prop48
 90
       50
102
RTVSPost2010PropOp48
 70
     1
102
RTVSPost2010Prop49
280
     0
102
RTVSPost2010PropOp49
 70
     1
102
RTVSPost2010Prop50
 90
       50
102
RTVSPost2010PropOp50
 70
     1
102
RTVSPost2010Prop51ColorIndex
 90
      256
102
RTVSPost2010Prop51ColorRGB
 90
-16777216
102
RTVSPost2010PropOp51
 70
     0
102
RTVSPost2010Prop52
140
1.0
102
RTVSPost2010PropOp52
 70
     0
102
RTVSPost2010Prop53
 90
        2
102
RTVSPost2010PropOp53
 70
     1
102
RTVSPost2010Prop54
  1
strokes_ogs.tif
102
RTVSPost2010PropOp54
 70
     1
102
RTVSPost2010Prop55
280
     0
102
RTVSPost2010PropOp55
 70
     1
102
RTVSPost2010Prop56
140
1.0
102
RTVSPost2010PropOp56
 70
     1
102
RTVSPost2010Prop57
140
1.0
102
RTVSPost2010PropOp57
 70
     1
102
RTVSPropertyOp0
 70
     1
102
RTVSPropertyOp1
 70
     1
102
RTVSPropertyOp2
 70
     1
102
RTVSPropertyOp3
 70
     1
102
RTVSPropertyOp4
 70
     1
102
RTVSPropertyOp5
 70
     1
102
RTVSPropertyOp6
 70
     1
102
RTVSPropertyOp7
 70
     1
102
RTVSPropertyOp8
 70
     1
102
RTVSPropertyOp9
 70
     1
102
RTVSPropertyOp10
 70
     1
102
RTVSPropertyOp11
 70
     1
102
RTVSPropertyOp12
 70
     1
102
RTVSPropertyOp13
 70
     1
102
RTVSPropertyOp14
 70
     1
102
RTVSPropertyOp15
 70
     1
102
RTVSPropertyOp16
 70
     1
102
RTVSPropertyOp17
 70
     1
102
RTVSPropertyOp18
 70
     1
102
RTVSPropertyOp19
 70
     1
102
RTVSPropertyOp20
 70
     1
102
RTVSPropertyOp21
 70
     1
102
RTVSPropertyOp22
 70
     1
102
RTVSPropertyOp23
 70
     1
102
RTVSPropertyOp24
 70
     1
102
RTVSPropertyOp25
 70
     1
102
RTVSPropertyOp26
 70
     1
102
RTVSPropertyOp27
 70
     1
102
RTVSPropertyOp28
 70
     1
102
RTVSPropertyOp29
 70
     1
102
RTVSPropertyOp30
 70
     1
102
RTVSPropertyOp31
 70
     1
102
RTVSPropertyOp32
 70
     1
102
RTVSPropertyOp33
 70
     1
102
RTVSPropertyOp34
 70
     1
102
RTVSPropertyOp35
 70
     1
102
RTVSPropertyOp36
 70
     1
102
RTVSPropertyOp37
 70
     1
102
RTVSPropertyOp38
 70
     1
102
RTVSPropertyOp39
 70
     1
102
RTVSPropertyOp40
 70
     1
102
RTVSPropertyOp41
 70
     1
102
RTVSPropertyOp42
 70
     1
102
RTVSPropertyOp43
 70
     1
102
RTVSPropertyOp44
 70
     1
102
RTVSPropertyOp45
 70
     1
102
RTVSPropertyOp46
 70
     1
102
RTVSPropertyOp47
 70
     1
102
RTVSPropertyOp48
 70
     1
102
RTVSPropertyOp49
 70
     1
102
RTVSPropertyOp50
 70
     1
102
RTVSPropertyOp51
 70
     0
102
RTVSPropertyOp52
 70
     0
102
RTVSPropertyOp53
 70
     1
102
RTVSPropertyOp54
 70
     1
102
RTVSPropertyOp55
 70
     1
102
RTVSPropertyOp56
 70
     1
102
RTVSPropertyOp57
 70
     1
102
RTVSPropertyOp58
 70
     1
102
RTVSPropertyOp59
 70
     1
102
RTVSPropertyOp60
 70
     1
102
RTVSPropertyOp61
 70
     1
102
RTVSPropertyOp62
 70
     1
  0
XRECORD
  5
AA06
102
{ACAD_REACTORS
330
AA05
102
}
330
AA05
100
AcDbXrecord
280
     1
102
RTVSPost2010Prop28
280
     0
102
RTVSPost2010PropOp28
 70
     1
102
RTVSPost2010Prop29
280
     1
102
RTVSPost2010PropOp29
 70
     1
102
RTVSPost2010Prop30
280
     1
102
RTVSPost2010PropOp30
 70
     1
102
RTVSPost2010Prop31
280
     0
102
RTVSPost2010PropOp31
 70
     1
102
RTVSPost2010Prop32
280
     0
102
RTVSPost2010PropOp32
 70
     1
102
RTVSPost2010Prop33
280
     0
102
RTVSPost2010PropOp33
 70
     1
102
RTVSPost2010Prop34
280
     0
102
RTVSPost2010PropOp34
 70
     1
102
RTVSPost2010Prop35
280
     0
102
RTVSPost2010PropOp35
 70
     1
102
RTVSPost2010Prop36
280
     0
102
RTVSPost2010PropOp36
 70
     1
102
RTVSPost2010Prop37
 90
       50
102
RTVSPost2010PropOp37
 70
     0
102
RTVSPost2010Prop38
140
0.0
102
RTVSPost2010PropOp38
 70
     0
102
RTVSPost2010Prop39
140
1.0
102
RTVSPost2010PropOp39
 70
     0
102
RTVSPost2010Prop40
 90
        0
102
RTVSPost2010PropOp40
 70
     0
102
RTVSPost2010Prop41ColorIndex
 90
       18
102
RTVSPost2010Prop41ColorRGB
 90
        0
102
RTVSPost2010PropOp41
 70
     0
102
RTVSPost2010Prop42
 90
       50
102
RTVSPost2010PropOp42
 70
     0
102
RTVSPost2010Prop43
 90
        3
102
RTVSPost2010PropOp43
 70
     0
102
RTVSPost2010Prop44ColorIndex
 90
        5
102
RTVSPost2010Prop44ColorRGB
 90
      255
102
RTVSPost2010PropOp44
 70
     0
102
RTVSPost2010Prop45
280
     0
102
RTVSPost2010PropOp45
 70
     1
102
RTVSPost2010Prop46
 90
       50
102
RTVSPost2010PropOp46
 70
     0
102
RTVSPost2010Prop47
 90
       50
102
RTVSPost2010PropOp47
 70
     0
102
RTVSPost2010Prop48
 90
       50
102
RTVSPost2010PropOp48
 70
     0
102
RTVSPost2010Prop49
280
     0
102
RTVSPost2010PropOp49
 70
     1
102
RTVSPost2010Prop50
 90
       50
102
RTVSPost2010PropOp50
 70
     0
102
RTVSPost2010Prop51ColorIndex
 90
      256
102
RTVSPost2010Prop51ColorRGB
 90
-16777216
102
RTVSPost2010PropOp51
 70
     0
102
RTVSPost2010Prop52
140
1.0
102
RTVSPost2010PropOp52
 70
     0
102
RTVSPost2010Prop53
 90
        2
102
RTVSPost2010PropOp53
 70
     0
102
RTVSPost2010Prop54
  1
strokes_ogs.tif
102
RTVSPost2010PropOp54
 70
     0
102
RTVSPost2010Prop55
280
     0
102
RTVSPost2010PropOp55
 70
     1
102
RTVSPost2010Prop56
140
1.0
102
RTVSPost2010PropOp56
 70
     0
102
RTVSPost2010Prop57
140
1.0
102
RTVSPost2010PropOp57
 70
     0
102
RTVSPropertyOp0
 70
     0
102
RTVSPropertyOp1
 70
     0
102
RTVSPropertyOp2
 70
     0
102
RTVSPropertyOp3
 70
     0
102
RTVSPropertyOp4
 70
     0
102
RTVSPropertyOp5
 70
     0
102
RTVSPropertyOp6
 70
     0
102
RTVSPropertyOp7
 70
     0
102
RTVSPropertyOp8
 70
     0
102
RTVSPropertyOp9
 70
     0
102
RTVSPropertyOp10
 70
     0
102
RTVSPropertyOp11
 70
     0
102
RTVSPropertyOp12
 70
     0
102
RTVSPropertyOp13
 70
     0
102
RTVSPropertyOp14
 70
     2
102
RTVSPropertyOp15
 70
     0
102
RTVSPropertyOp16
 70
     0
102
RTVSPropertyOp17
 70
     0
102
RTVSPropertyOp18
 70
     0
102
RTVSPropertyOp19
 70
     0
102
RTVSPropertyOp20
 70
     0
102
RTVSPropertyOp21
 70
     0
102
RTVSPropertyOp22
 70
     0
102
RTVSPropertyOp23
 70
     0
102
RTVSPropertyOp24
 70
     0
102
RTVSPropertyOp25
 70
     0
102
RTVSPropertyOp26
 70
     0
102
RTVSPropertyOp27
 70
     0
102
RTVSPropertyOp28
 70
     1
102
RTVSPropertyOp29
 70
     1
102
RTVSPropertyOp30
 70
     1
102
RTVSPropertyOp31
 70
     1
102
RTVSPropertyOp32
 70
     1
102
RTVSPropertyOp33
 70
     1
102
RTVSPropertyOp34
 70
     1
102
RTVSPropertyOp35
 70
     1
102
RTVSPropertyOp36
 70
     1
102
RTVSPropertyOp37
 70
     0
102
RTVSPropertyOp38
 70
     0
102
RTVSPropertyOp39
 70
     0
102
RTVSPropertyOp40
 70
     0
102
RTVSPropertyOp41
 70
     0
102
RTVSPropertyOp42
 70
     0
102
RTVSPropertyOp43
 70
     0
102
RTVSPropertyOp44
 70
     0
102
RTVSPropertyOp45
 70
     1
102
RTVSPropertyOp46
 70
     0
102
RTVSPropertyOp47
 70
     0
102
RTVSPropertyOp48
 70
     0
102
RTVSPropertyOp49
 70
     1
102
RTVSPropertyOp50
 70
     0
102
RTVSPropertyOp51
 70
     0
102
RTVSPropertyOp52
 70
     0
102
RTVSPropertyOp53
 70
     0
102
RTVSPropertyOp54
 70
     0
102
RTVSPropertyOp55
 70
     1
102
RTVSPropertyOp56
 70
     0
102
RTVSPropertyOp57
 70
     0
102
RTVSPropertyOp58
 70
     0
102
RTVSPropertyOp59
 70
     0
102
RTVSPropertyOp60
 70
     0
102
RTVSPropertyOp61
 70
     0
102
RTVSPropertyOp62
 70
     0
  0
XRECORD
  5
A9F4
102
{ACAD_REACTORS
330
A9F3
102
}
330
A9F3
100
AcDbXrecord
280
     1
102
RTVSPost2010Prop28
280
     0
102
RTVSPost2010PropOp28
 70
     1
102
RTVSPost2010Prop29
280
     1
102
RTVSPost2010PropOp29
 70
     1
102
RTVSPost2010Prop30
280
     1
102
RTVSPost2010PropOp30
 70
     1
102
RTVSPost2010Prop31
280
     0
102
RTVSPost2010PropOp31
 70
     1
102
RTVSPost2010Prop32
280
     0
102
RTVSPost2010PropOp32
 70
     1
102
RTVSPost2010Prop33
280
     0
102
RTVSPost2010PropOp33
 70
     1
102
RTVSPost2010Prop34
280
     0
102
RTVSPost2010PropOp34
 70
     1
102
RTVSPost2010Prop35
280
     0
102
RTVSPost2010PropOp35
 70
     1
102
RTVSPost2010Prop36
280
     0
102
RTVSPost2010PropOp36
 70
     1
102
RTVSPost2010Prop37
 90
       50
102
RTVSPost2010PropOp37
 70
     1
102
RTVSPost2010Prop38
140
0.0
102
RTVSPost2010PropOp38
 70
     1
102
RTVSPost2010Prop39
140
1.0
102
RTVSPost2010PropOp39
 70
     1
102
RTVSPost2010Prop40
 90
        0
102
RTVSPost2010PropOp40
 70
     1
102
RTVSPost2010Prop41ColorIndex
 90
       18
102
RTVSPost2010Prop41ColorRGB
 90
        0
102
RTVSPost2010PropOp41
 70
     1
102
RTVSPost2010Prop42
 90
       50
102
RTVSPost2010PropOp42
 70
     1
102
RTVSPost2010Prop43
 90
        3
102
RTVSPost2010PropOp43
 70
     1
102
RTVSPost2010Prop44ColorIndex
 90
        5
102
RTVSPost2010Prop44ColorRGB
 90
      255
102
RTVSPost2010PropOp44
 70
     1
102
RTVSPost2010Prop45
280
     0
102
RTVSPost2010PropOp45
 70
     1
102
RTVSPost2010Prop46
 90
       50
102
RTVSPost2010PropOp46
 70
     1
102
RTVSPost2010Prop47
 90
       50
102
RTVSPost2010PropOp47
 70
     1
102
RTVSPost2010Prop48
 90
       50
102
RTVSPost2010PropOp48
 70
     1
102
RTVSPost2010Prop49
280
     0
102
RTVSPost2010PropOp49
 70
     1
102
RTVSPost2010Prop50
 90
       50
102
RTVSPost2010PropOp50
 70
     1
102
RTVSPost2010Prop51ColorIndex
 90
      256
102
RTVSPost2010Prop51ColorRGB
 90
-16777216
102
RTVSPost2010PropOp51
 70
     0
102
RTVSPost2010Prop52
140
1.0
102
RTVSPost2010PropOp52
 70
     0
102
RTVSPost2010Prop53
 90
        2
102
RTVSPost2010PropOp53
 70
     1
102
RTVSPost2010Prop54
  1
strokes_ogs.tif
102
RTVSPost2010PropOp54
 70
     1
102
RTVSPost2010Prop55
280
     0
102
RTVSPost2010PropOp55
 70
     1
102
RTVSPost2010Prop56
140
1.0
102
RTVSPost2010PropOp56
 70
     1
102
RTVSPost2010Prop57
140
1.0
102
RTVSPost2010PropOp57
 70
     1
102
RTVSPropertyOp0
 70
     1
102
RTVSPropertyOp1
 70
     1
102
RTVSPropertyOp2
 70
     1
102
RTVSPropertyOp3
 70
     1
102
RTVSPropertyOp4
 70
     1
102
RTVSPropertyOp5
 70
     1
102
RTVSPropertyOp6
 70
     1
102
RTVSPropertyOp7
 70
     1
102
RTVSPropertyOp8
 70
     1
102
RTVSPropertyOp9
 70
     1
102
RTVSPropertyOp10
 70
     1
102
RTVSPropertyOp11
 70
     1
102
RTVSPropertyOp12
 70
     1
102
RTVSPropertyOp13
 70
     1
102
RTVSPropertyOp14
 70
     1
102
RTVSPropertyOp15
 70
     1
102
RTVSPropertyOp16
 70
     1
102
RTVSPropertyOp17
 70
     1
102
RTVSPropertyOp18
 70
     1
102
RTVSPropertyOp19
 70
     1
102
RTVSPropertyOp20
 70
     1
102
RTVSPropertyOp21
 70
     1
102
RTVSPropertyOp22
 70
     1
102
RTVSPropertyOp23
 70
     1
102
RTVSPropertyOp24
 70
     1
102
RTVSPropertyOp25
 70
     1
102
RTVSPropertyOp26
 70
     1
102
RTVSPropertyOp27
 70
     1
102
RTVSPropertyOp28
 70
     1
102
RTVSPropertyOp29
 70
     1
102
RTVSPropertyOp30
 70
     1
102
RTVSPropertyOp31
 70
     1
102
RTVSPropertyOp32
 70
     1
102
RTVSPropertyOp33
 70
     1
102
RTVSPropertyOp34
 70
     1
102
RTVSPropertyOp35
 70
     1
102
RTVSPropertyOp36
 70
     1
102
RTVSPropertyOp37
 70
     1
102
RTVSPropertyOp38
 70
     1
102
RTVSPropertyOp39
 70
     1
102
RTVSPropertyOp40
 70
     1
102
RTVSPropertyOp41
 70
     1
102
RTVSPropertyOp42
 70
     1
102
RTVSPropertyOp43
 70
     1
102
RTVSPropertyOp44
 70
     1
102
RTVSPropertyOp45
 70
     1
102
RTVSPropertyOp46
 70
     1
102
RTVSPropertyOp47
 70
     1
102
RTVSPropertyOp48
 70
     1
102
RTVSPropertyOp49
 70
     1
102
RTVSPropertyOp50
 70
     1
102
RTVSPropertyOp51
 70
     0
102
RTVSPropertyOp52
 70
     0
102
RTVSPropertyOp53
 70
     1
102
RTVSPropertyOp54
 70
     1
102
RTVSPropertyOp55
 70
     1
102
RTVSPropertyOp56
 70
     1
102
RTVSPropertyOp57
 70
     1
102
RTVSPropertyOp58
 70
     1
102
RTVSPropertyOp59
 70
     1
102
RTVSPropertyOp60
 70
     1
102
RTVSPropertyOp61
 70
     1
102
RTVSPropertyOp62
 70
     1
  0
XRECORD
  5
A9D8
102
{ACAD_REACTORS
330
A9D7
102
}
330
A9D7
100
AcDbXrecord
280
     1
102
RTVSPost2010Prop28
280
     0
102
RTVSPost2010PropOp28
 70
     1
102
RTVSPost2010Prop29
280
     1
102
RTVSPost2010PropOp29
 70
     1
102
RTVSPost2010Prop30
280
     1
102
RTVSPost2010PropOp30
 70
     1
102
RTVSPost2010Prop31
280
     0
102
RTVSPost2010PropOp31
 70
     1
102
RTVSPost2010Prop32
280
     0
102
RTVSPost2010PropOp32
 70
     1
102
RTVSPost2010Prop33
280
     0
102
RTVSPost2010PropOp33
 70
     1
102
RTVSPost2010Prop34
280
     0
102
RTVSPost2010PropOp34
 70
     1
102
RTVSPost2010Prop35
280
     0
102
RTVSPost2010PropOp35
 70
     1
102
RTVSPost2010Prop36
280
     0
102
RTVSPost2010PropOp36
 70
     1
102
RTVSPost2010Prop37
 90
       50
102
RTVSPost2010PropOp37
 70
     1
102
RTVSPost2010Prop38
140
0.0
102
RTVSPost2010PropOp38
 70
     1
102
RTVSPost2010Prop39
140
1.0
102
RTVSPost2010PropOp39
 70
     1
102
RTVSPost2010Prop40
 90
        0
102
RTVSPost2010PropOp40
 70
     1
102
RTVSPost2010Prop41ColorIndex
 90
       18
102
RTVSPost2010Prop41ColorRGB
 90
        0
102
RTVSPost2010PropOp41
 70
     1
102
RTVSPost2010Prop42
 90
       50
102
RTVSPost2010PropOp42
 70
     1
102
RTVSPost2010Prop43
 90
        3
102
RTVSPost2010PropOp43
 70
     1
102
RTVSPost2010Prop44ColorIndex
 90
        5
102
RTVSPost2010Prop44ColorRGB
 90
      255
102
RTVSPost2010PropOp44
 70
     1
102
RTVSPost2010Prop45
280
     0
102
RTVSPost2010PropOp45
 70
     1
102
RTVSPost2010Prop46
 90
       50
102
RTVSPost2010PropOp46
 70
     1
102
RTVSPost2010Prop47
 90
       50
102
RTVSPost2010PropOp47
 70
     1
102
RTVSPost2010Prop48
 90
       50
102
RTVSPost2010PropOp48
 70
     1
102
RTVSPost2010Prop49
280
     0
102
RTVSPost2010PropOp49
 70
     1
102
RTVSPost2010Prop50
 90
       50
102
RTVSPost2010PropOp50
 70
     1
102
RTVSPost2010Prop51ColorIndex
 90
      256
102
RTVSPost2010Prop51ColorRGB
 90
-16777216
102
RTVSPost2010PropOp51
 70
     0
102
RTVSPost2010Prop52
140
1.0
102
RTVSPost2010PropOp52
 70
     0
102
RTVSPost2010Prop53
 90
        2
102
RTVSPost2010PropOp53
 70
     1
102
RTVSPost2010Prop54
  1
strokes_ogs.tif
102
RTVSPost2010PropOp54
 70
     1
102
RTVSPost2010Prop55
280
     0
102
RTVSPost2010PropOp55
 70
     1
102
RTVSPost2010Prop56
140
1.0
102
RTVSPost2010PropOp56
 70
     1
102
RTVSPost2010Prop57
140
1.0
102
RTVSPost2010PropOp57
 70
     1
102
RTVSPropertyOp0
 70
     1
102
RTVSPropertyOp1
 70
     1
102
RTVSPropertyOp2
 70
     1
102
RTVSPropertyOp3
 70
     1
102
RTVSPropertyOp4
 70
     1
102
RTVSPropertyOp5
 70
     1
102
RTVSPropertyOp6
 70
     1
102
RTVSPropertyOp7
 70
     1
102
RTVSPropertyOp8
 70
     1
102
RTVSPropertyOp9
 70
     1
102
RTVSPropertyOp10
 70
     1
102
RTVSPropertyOp11
 70
     1
102
RTVSPropertyOp12
 70
     1
102
RTVSPropertyOp13
 70
     1
102
RTVSPropertyOp14
 70
     1
102
RTVSPropertyOp15
 70
     1
102
RTVSPropertyOp16
 70
     1
102
RTVSPropertyOp17
 70
     1
102
RTVSPropertyOp18
 70
     1
102
RTVSPropertyOp19
 70
     1
102
RTVSPropertyOp20
 70
     1
102
RTVSPropertyOp21
 70
     1
102
RTVSPropertyOp22
 70
     1
102
RTVSPropertyOp23
 70
     1
102
RTVSPropertyOp24
 70
     1
102
RTVSPropertyOp25
 70
     1
102
RTVSPropertyOp26
 70
     1
102
RTVSPropertyOp27
 70
     1
102
RTVSPropertyOp28
 70
     1
102
RTVSPropertyOp29
 70
     1
102
RTVSPropertyOp30
 70
     1
102
RTVSPropertyOp31
 70
     1
102
RTVSPropertyOp32
 70
     1
102
RTVSPropertyOp33
 70
     1
102
RTVSPropertyOp34
 70
     1
102
RTVSPropertyOp35
 70
     1
102
RTVSPropertyOp36
 70
     1
102
RTVSPropertyOp37
 70
     1
102
RTVSPropertyOp38
 70
     1
102
RTVSPropertyOp39
 70
     1
102
RTVSPropertyOp40
 70
     1
102
RTVSPropertyOp41
 70
     1
102
RTVSPropertyOp42
 70
     1
102
RTVSPropertyOp43
 70
     1
102
RTVSPropertyOp44
 70
     1
102
RTVSPropertyOp45
 70
     1
102
RTVSPropertyOp46
 70
     1
102
RTVSPropertyOp47
 70
     1
102
RTVSPropertyOp48
 70
     1
102
RTVSPropertyOp49
 70
     1
102
RTVSPropertyOp50
 70
     1
102
RTVSPropertyOp51
 70
     0
102
RTVSPropertyOp52
 70
     0
102
RTVSPropertyOp53
 70
     1
102
RTVSPropertyOp54
 70
     1
102
RTVSPropertyOp55
 70
     1
102
RTVSPropertyOp56
 70
     1
102
RTVSPropertyOp57
 70
     1
102
RTVSPropertyOp58
 70
     1
102
RTVSPropertyOp59
 70
     1
102
RTVSPropertyOp60
 70
     1
102
RTVSPropertyOp61
 70
     1
102
RTVSPropertyOp62
 70
     1
  0
XRECORD
  5
A9DA
102
{ACAD_REACTORS
330
A9D9
102
}
330
A9D9
100
AcDbXrecord
280
     1
102
RTVSPost2010Prop28
280
     0
102
RTVSPost2010PropOp28
 70
     1
102
RTVSPost2010Prop29
280
     1
102
RTVSPost2010PropOp29
 70
     1
102
RTVSPost2010Prop30
280
     1
102
RTVSPost2010PropOp30
 70
     1
102
RTVSPost2010Prop31
280
     0
102
RTVSPost2010PropOp31
 70
     1
102
RTVSPost2010Prop32
280
     0
102
RTVSPost2010PropOp32
 70
     1
102
RTVSPost2010Prop33
280
     0
102
RTVSPost2010PropOp33
 70
     1
102
RTVSPost2010Prop34
280
     0
102
RTVSPost2010PropOp34
 70
     1
102
RTVSPost2010Prop35
280
     0
102
RTVSPost2010PropOp35
 70
     1
102
RTVSPost2010Prop36
280
     0
102
RTVSPost2010PropOp36
 70
     1
102
RTVSPost2010Prop37
 90
       50
102
RTVSPost2010PropOp37
 70
     1
102
RTVSPost2010Prop38
140
0.0
102
RTVSPost2010PropOp38
 70
     1
102
RTVSPost2010Prop39
140
1.0
102
RTVSPost2010PropOp39
 70
     1
102
RTVSPost2010Prop40
 90
        0
102
RTVSPost2010PropOp40
 70
     1
102
RTVSPost2010Prop41ColorIndex
 90
       18
102
RTVSPost2010Prop41ColorRGB
 90
        0
102
RTVSPost2010PropOp41
 70
     1
102
RTVSPost2010Prop42
 90
       50
102
RTVSPost2010PropOp42
 70
     1
102
RTVSPost2010Prop43
 90
        3
102
RTVSPost2010PropOp43
 70
     1
102
RTVSPost2010Prop44ColorIndex
 90
        5
102
RTVSPost2010Prop44ColorRGB
 90
      255
102
RTVSPost2010PropOp44
 70
     1
102
RTVSPost2010Prop45
280
     0
102
RTVSPost2010PropOp45
 70
     1
102
RTVSPost2010Prop46
 90
       50
102
RTVSPost2010PropOp46
 70
     1
102
RTVSPost2010Prop47
 90
       50
102
RTVSPost2010PropOp47
 70
     1
102
RTVSPost2010Prop48
 90
       50
102
RTVSPost2010PropOp48
 70
     1
102
RTVSPost2010Prop49
280
     0
102
RTVSPost2010PropOp49
 70
     1
102
RTVSPost2010Prop50
 90
       50
102
RTVSPost2010PropOp50
 70
     1
102
RTVSPost2010Prop51ColorIndex
 90
      256
102
RTVSPost2010Prop51ColorRGB
 90
-16777216
102
RTVSPost2010PropOp51
 70
     0
102
RTVSPost2010Prop52
140
1.0
102
RTVSPost2010PropOp52
 70
     0
102
RTVSPost2010Prop53
 90
        2
102
RTVSPost2010PropOp53
 70
     1
102
RTVSPost2010Prop54
  1
strokes_ogs.tif
102
RTVSPost2010PropOp54
 70
     1
102
RTVSPost2010Prop55
280
     0
102
RTVSPost2010PropOp55
 70
     1
102
RTVSPost2010Prop56
140
1.0
102
RTVSPost2010PropOp56
 70
     1
102
RTVSPost2010Prop57
140
1.0
102
RTVSPost2010PropOp57
 70
     1
102
RTVSPropertyOp0
 70
     1
102
RTVSPropertyOp1
 70
     1
102
RTVSPropertyOp2
 70
     1
102
RTVSPropertyOp3
 70
     1
102
RTVSPropertyOp4
 70
     1
102
RTVSPropertyOp5
 70
     1
102
RTVSPropertyOp6
 70
     1
102
RTVSPropertyOp7
 70
     1
102
RTVSPropertyOp8
 70
     1
102
RTVSPropertyOp9
 70
     1
102
RTVSPropertyOp10
 70
     1
102
RTVSPropertyOp11
 70
     1
102
RTVSPropertyOp12
 70
     1
102
RTVSPropertyOp13
 70
     1
102
RTVSPropertyOp14
 70
     1
102
RTVSPropertyOp15
 70
     1
102
RTVSPropertyOp16
 70
     1
102
RTVSPropertyOp17
 70
     1
102
RTVSPropertyOp18
 70
     1
102
RTVSPropertyOp19
 70
     1
102
RTVSPropertyOp20
 70
     1
102
RTVSPropertyOp21
 70
     1
102
RTVSPropertyOp22
 70
     1
102
RTVSPropertyOp23
 70
     1
102
RTVSPropertyOp24
 70
     1
102
RTVSPropertyOp25
 70
     1
102
RTVSPropertyOp26
 70
     1
102
RTVSPropertyOp27
 70
     1
102
RTVSPropertyOp28
 70
     1
102
RTVSPropertyOp29
 70
     1
102
RTVSPropertyOp30
 70
     1
102
RTVSPropertyOp31
 70
     1
102
RTVSPropertyOp32
 70
     1
102
RTVSPropertyOp33
 70
     1
102
RTVSPropertyOp34
 70
     1
102
RTVSPropertyOp35
 70
     1
102
RTVSPropertyOp36
 70
     1
102
RTVSPropertyOp37
 70
     1
102
RTVSPropertyOp38
 70
     1
102
RTVSPropertyOp39
 70
     1
102
RTVSPropertyOp40
 70
     1
102
RTVSPropertyOp41
 70
     1
102
RTVSPropertyOp42
 70
     1
102
RTVSPropertyOp43
 70
     1
102
RTVSPropertyOp44
 70
     1
102
RTVSPropertyOp45
 70
     1
102
RTVSPropertyOp46
 70
     1
102
RTVSPropertyOp47
 70
     1
102
RTVSPropertyOp48
 70
     1
102
RTVSPropertyOp49
 70
     1
102
RTVSPropertyOp50
 70
     1
102
RTVSPropertyOp51
 70
     0
102
RTVSPropertyOp52
 70
     0
102
RTVSPropertyOp53
 70
     1
102
RTVSPropertyOp54
 70
     1
102
RTVSPropertyOp55
 70
     1
102
RTVSPropertyOp56
 70
     1
102
RTVSPropertyOp57
 70
     1
102
RTVSPropertyOp58
 70
     1
102
RTVSPropertyOp59
 70
     1
102
RTVSPropertyOp60
 70
     1
102
RTVSPropertyOp61
 70
     1
102
RTVSPropertyOp62
 70
     1
  0
XRECORD
  5
A9DC
102
{ACAD_REACTORS
330
A9DB
102
}
330
A9DB
100
AcDbXrecord
280
     1
102
RTVSPost2010Prop28
280
     0
102
RTVSPost2010PropOp28
 70
     1
102
RTVSPost2010Prop29
280
     1
102
RTVSPost2010PropOp29
 70
     1
102
RTVSPost2010Prop30
280
     1
102
RTVSPost2010PropOp30
 70
     1
102
RTVSPost2010Prop31
280
     0
102
RTVSPost2010PropOp31
 70
     1
102
RTVSPost2010Prop32
280
     0
102
RTVSPost2010PropOp32
 70
     1
102
RTVSPost2010Prop33
280
     0
102
RTVSPost2010PropOp33
 70
     1
102
RTVSPost2010Prop34
280
     0
102
RTVSPost2010PropOp34
 70
     1
102
RTVSPost2010Prop35
280
     0
102
RTVSPost2010PropOp35
 70
     1
102
RTVSPost2010Prop36
280
     0
102
RTVSPost2010PropOp36
 70
     1
102
RTVSPost2010Prop37
 90
       50
102
RTVSPost2010PropOp37
 70
     1
102
RTVSPost2010Prop38
140
0.0
102
RTVSPost2010PropOp38
 70
     1
102
RTVSPost2010Prop39
140
1.0
102
RTVSPost2010PropOp39
 70
     1
102
RTVSPost2010Prop40
 90
        0
102
RTVSPost2010PropOp40
 70
     1
102
RTVSPost2010Prop41ColorIndex
 90
       18
102
RTVSPost2010Prop41ColorRGB
 90
        0
102
RTVSPost2010PropOp41
 70
     1
102
RTVSPost2010Prop42
 90
       50
102
RTVSPost2010PropOp42
 70
     1
102
RTVSPost2010Prop43
 90
        3
102
RTVSPost2010PropOp43
 70
     1
102
RTVSPost2010Prop44ColorIndex
 90
        5
102
RTVSPost2010Prop44ColorRGB
 90
      255
102
RTVSPost2010PropOp44
 70
     1
102
RTVSPost2010Prop45
280
     0
102
RTVSPost2010PropOp45
 70
     1
102
RTVSPost2010Prop46
 90
       50
102
RTVSPost2010PropOp46
 70
     1
102
RTVSPost2010Prop47
 90
       50
102
RTVSPost2010PropOp47
 70
     1
102
RTVSPost2010Prop48
 90
       50
102
RTVSPost2010PropOp48
 70
     1
102
RTVSPost2010Prop49
280
     0
102
RTVSPost2010PropOp49
 70
     1
102
RTVSPost2010Prop50
 90
       50
102
RTVSPost2010PropOp50
 70
     1
102
RTVSPost2010Prop51ColorIndex
 90
      256
102
RTVSPost2010Prop51ColorRGB
 90
-16777216
102
RTVSPost2010PropOp51
 70
     0
102
RTVSPost2010Prop52
140
1.0
102
RTVSPost2010PropOp52
 70
     0
102
RTVSPost2010Prop53
 90
        2
102
RTVSPost2010PropOp53
 70
     1
102
RTVSPost2010Prop54
  1
strokes_ogs.tif
102
RTVSPost2010PropOp54
 70
     1
102
RTVSPost2010Prop55
280
     0
102
RTVSPost2010PropOp55
 70
     1
102
RTVSPost2010Prop56
140
1.0
102
RTVSPost2010PropOp56
 70
     1
102
RTVSPost2010Prop57
140
1.0
102
RTVSPost2010PropOp57
 70
     1
102
RTVSPropertyOp0
 70
     1
102
RTVSPropertyOp1
 70
     1
102
RTVSPropertyOp2
 70
     1
102
RTVSPropertyOp3
 70
     1
102
RTVSPropertyOp4
 70
     1
102
RTVSPropertyOp5
 70
     1
102
RTVSPropertyOp6
 70
     1
102
RTVSPropertyOp7
 70
     1
102
RTVSPropertyOp8
 70
     1
102
RTVSPropertyOp9
 70
     1
102
RTVSPropertyOp10
 70
     1
102
RTVSPropertyOp11
 70
     1
102
RTVSPropertyOp12
 70
     1
102
RTVSPropertyOp13
 70
     1
102
RTVSPropertyOp14
 70
     1
102
RTVSPropertyOp15
 70
     1
102
RTVSPropertyOp16
 70
     1
102
RTVSPropertyOp17
 70
     1
102
RTVSPropertyOp18
 70
     1
102
RTVSPropertyOp19
 70
     1
102
RTVSPropertyOp20
 70
     1
102
RTVSPropertyOp21
 70
     1
102
RTVSPropertyOp22
 70
     1
102
RTVSPropertyOp23
 70
     1
102
RTVSPropertyOp24
 70
     1
102
RTVSPropertyOp25
 70
     1
102
RTVSPropertyOp26
 70
     1
102
RTVSPropertyOp27
 70
     1
102
RTVSPropertyOp28
 70
     1
102
RTVSPropertyOp29
 70
     1
102
RTVSPropertyOp30
 70
     1
102
RTVSPropertyOp31
 70
     1
102
RTVSPropertyOp32
 70
     1
102
RTVSPropertyOp33
 70
     1
102
RTVSPropertyOp34
 70
     1
102
RTVSPropertyOp35
 70
     1
102
RTVSPropertyOp36
 70
     1
102
RTVSPropertyOp37
 70
     1
102
RTVSPropertyOp38
 70
     1
102
RTVSPropertyOp39
 70
     1
102
RTVSPropertyOp40
 70
     1
102
RTVSPropertyOp41
 70
     1
102
RTVSPropertyOp42
 70
     1
102
RTVSPropertyOp43
 70
     1
102
RTVSPropertyOp44
 70
     1
102
RTVSPropertyOp45
 70
     1
102
RTVSPropertyOp46
 70
     1
102
RTVSPropertyOp47
 70
     1
102
RTVSPropertyOp48
 70
     1
102
RTVSPropertyOp49
 70
     1
102
RTVSPropertyOp50
 70
     1
102
RTVSPropertyOp51
 70
     0
102
RTVSPropertyOp52
 70
     0
102
RTVSPropertyOp53
 70
     1
102
RTVSPropertyOp54
 70
     1
102
RTVSPropertyOp55
 70
     1
102
RTVSPropertyOp56
 70
     1
102
RTVSPropertyOp57
 70
     1
102
RTVSPropertyOp58
 70
     1
102
RTVSPropertyOp59
 70
     1
102
RTVSPropertyOp60
 70
     1
102
RTVSPropertyOp61
 70
     1
102
RTVSPropertyOp62
 70
     1
  0
XRECORD
  5
A9DE
102
{ACAD_REACTORS
330
A9DD
102
}
330
A9DD
100
AcDbXrecord
280
     1
102
RTVSPost2010Prop28
280
     0
102
RTVSPost2010PropOp28
 70
     1
102
RTVSPost2010Prop29
280
     1
102
RTVSPost2010PropOp29
 70
     1
102
RTVSPost2010Prop30
280
     1
102
RTVSPost2010PropOp30
 70
     1
102
RTVSPost2010Prop31
280
     0
102
RTVSPost2010PropOp31
 70
     1
102
RTVSPost2010Prop32
280
     0
102
RTVSPost2010PropOp32
 70
     1
102
RTVSPost2010Prop33
280
     0
102
RTVSPost2010PropOp33
 70
     1
102
RTVSPost2010Prop34
280
     0
102
RTVSPost2010PropOp34
 70
     1
102
RTVSPost2010Prop35
280
     0
102
RTVSPost2010PropOp35
 70
     1
102
RTVSPost2010Prop36
280
     0
102
RTVSPost2010PropOp36
 70
     1
102
RTVSPost2010Prop37
 90
       50
102
RTVSPost2010PropOp37
 70
     1
102
RTVSPost2010Prop38
140
0.0
102
RTVSPost2010PropOp38
 70
     1
102
RTVSPost2010Prop39
140
1.0
102
RTVSPost2010PropOp39
 70
     1
102
RTVSPost2010Prop40
 90
        0
102
RTVSPost2010PropOp40
 70
     1
102
RTVSPost2010Prop41ColorIndex
 90
       18
102
RTVSPost2010Prop41ColorRGB
 90
        0
102
RTVSPost2010PropOp41
 70
     1
102
RTVSPost2010Prop42
 90
       50
102
RTVSPost2010PropOp42
 70
     1
102
RTVSPost2010Prop43
 90
        3
102
RTVSPost2010PropOp43
 70
     1
102
RTVSPost2010Prop44ColorIndex
 90
        5
102
RTVSPost2010Prop44ColorRGB
 90
      255
102
RTVSPost2010PropOp44
 70
     1
102
RTVSPost2010Prop45
280
     0
102
RTVSPost2010PropOp45
 70
     1
102
RTVSPost2010Prop46
 90
       50
102
RTVSPost2010PropOp46
 70
     1
102
RTVSPost2010Prop47
 90
       50
102
RTVSPost2010PropOp47
 70
     1
102
RTVSPost2010Prop48
 90
       50
102
RTVSPost2010PropOp48
 70
     1
102
RTVSPost2010Prop49
280
     0
102
RTVSPost2010PropOp49
 70
     1
102
RTVSPost2010Prop50
 90
       50
102
RTVSPost2010PropOp50
 70
     1
102
RTVSPost2010Prop51ColorIndex
 90
      256
102
RTVSPost2010Prop51ColorRGB
 90
-16777216
102
RTVSPost2010PropOp51
 70
     0
102
RTVSPost2010Prop52
140
1.0
102
RTVSPost2010PropOp52
 70
     0
102
RTVSPost2010Prop53
 90
        2
102
RTVSPost2010PropOp53
 70
     1
102
RTVSPost2010Prop54
  1
strokes_ogs.tif
102
RTVSPost2010PropOp54
 70
     1
102
RTVSPost2010Prop55
280
     0
102
RTVSPost2010PropOp55
 70
     1
102
RTVSPost2010Prop56
140
1.0
102
RTVSPost2010PropOp56
 70
     1
102
RTVSPost2010Prop57
140
1.0
102
RTVSPost2010PropOp57
 70
     1
102
RTVSPropertyOp0
 70
     1
102
RTVSPropertyOp1
 70
     1
102
RTVSPropertyOp2
 70
     1
102
RTVSPropertyOp3
 70
     1
102
RTVSPropertyOp4
 70
     1
102
RTVSPropertyOp5
 70
     1
102
RTVSPropertyOp6
 70
     1
102
RTVSPropertyOp7
 70
     1
102
RTVSPropertyOp8
 70
     1
102
RTVSPropertyOp9
 70
     1
102
RTVSPropertyOp10
 70
     1
102
RTVSPropertyOp11
 70
     1
102
RTVSPropertyOp12
 70
     1
102
RTVSPropertyOp13
 70
     1
102
RTVSPropertyOp14
 70
     1
102
RTVSPropertyOp15
 70
     1
102
RTVSPropertyOp16
 70
     1
102
RTVSPropertyOp17
 70
     1
102
RTVSPropertyOp18
 70
     1
102
RTVSPropertyOp19
 70
     1
102
RTVSPropertyOp20
 70
     1
102
RTVSPropertyOp21
 70
     1
102
RTVSPropertyOp22
 70
     1
102
RTVSPropertyOp23
 70
     1
102
RTVSPropertyOp24
 70
     1
102
RTVSPropertyOp25
 70
     1
102
RTVSPropertyOp26
 70
     1
102
RTVSPropertyOp27
 70
     1
102
RTVSPropertyOp28
 70
     1
102
RTVSPropertyOp29
 70
     1
102
RTVSPropertyOp30
 70
     1
102
RTVSPropertyOp31
 70
     1
102
RTVSPropertyOp32
 70
     1
102
RTVSPropertyOp33
 70
     1
102
RTVSPropertyOp34
 70
     1
102
RTVSPropertyOp35
 70
     1
102
RTVSPropertyOp36
 70
     1
102
RTVSPropertyOp37
 70
     1
102
RTVSPropertyOp38
 70
     1
102
RTVSPropertyOp39
 70
     1
102
RTVSPropertyOp40
 70
     1
102
RTVSPropertyOp41
 70
     1
102
RTVSPropertyOp42
 70
     1
102
RTVSPropertyOp43
 70
     1
102
RTVSPropertyOp44
 70
     1
102
RTVSPropertyOp45
 70
     1
102
RTVSPropertyOp46
 70
     1
102
RTVSPropertyOp47
 70
     1
102
RTVSPropertyOp48
 70
     1
102
RTVSPropertyOp49
 70
     1
102
RTVSPropertyOp50
 70
     1
102
RTVSPropertyOp51
 70
     0
102
RTVSPropertyOp52
 70
     0
102
RTVSPropertyOp53
 70
     1
102
RTVSPropertyOp54
 70
     1
102
RTVSPropertyOp55
 70
     1
102
RTVSPropertyOp56
 70
     1
102
RTVSPropertyOp57
 70
     1
102
RTVSPropertyOp58
 70
     1
102
RTVSPropertyOp59
 70
     1
102
RTVSPropertyOp60
 70
     1
102
RTVSPropertyOp61
 70
     1
102
RTVSPropertyOp62
 70
     1
  0
XRECORD
  5
A9E6
102
{ACAD_REACTORS
330
A9E5
102
}
330
A9E5
100
AcDbXrecord
280
     1
102
RTVSPost2010Prop28
280
     0
102
RTVSPost2010PropOp28
 70
     1
102
RTVSPost2010Prop29
280
     1
102
RTVSPost2010PropOp29
 70
     1
102
RTVSPost2010Prop30
280
     1
102
RTVSPost2010PropOp30
 70
     1
102
RTVSPost2010Prop31
280
     0
102
RTVSPost2010PropOp31
 70
     1
102
RTVSPost2010Prop32
280
     0
102
RTVSPost2010PropOp32
 70
     1
102
RTVSPost2010Prop33
280
     0
102
RTVSPost2010PropOp33
 70
     1
102
RTVSPost2010Prop34
280
     0
102
RTVSPost2010PropOp34
 70
     1
102
RTVSPost2010Prop35
280
     0
102
RTVSPost2010PropOp35
 70
     1
102
RTVSPost2010Prop36
280
     0
102
RTVSPost2010PropOp36
 70
     1
102
RTVSPost2010Prop37
 90
       50
102
RTVSPost2010PropOp37
 70
     1
102
RTVSPost2010Prop38
140
0.0
102
RTVSPost2010PropOp38
 70
     1
102
RTVSPost2010Prop39
140
1.0
102
RTVSPost2010PropOp39
 70
     1
102
RTVSPost2010Prop40
 90
        0
102
RTVSPost2010PropOp40
 70
     1
102
RTVSPost2010Prop41ColorIndex
 90
       18
102
RTVSPost2010Prop41ColorRGB
 90
        0
102
RTVSPost2010PropOp41
 70
     1
102
RTVSPost2010Prop42
 90
       50
102
RTVSPost2010PropOp42
 70
     1
102
RTVSPost2010Prop43
 90
        3
102
RTVSPost2010PropOp43
 70
     1
102
RTVSPost2010Prop44ColorIndex
 90
        5
102
RTVSPost2010Prop44ColorRGB
 90
      255
102
RTVSPost2010PropOp44
 70
     1
102
RTVSPost2010Prop45
280
     0
102
RTVSPost2010PropOp45
 70
     1
102
RTVSPost2010Prop46
 90
       50
102
RTVSPost2010PropOp46
 70
     1
102
RTVSPost2010Prop47
 90
       50
102
RTVSPost2010PropOp47
 70
     1
102
RTVSPost2010Prop48
 90
       50
102
RTVSPost2010PropOp48
 70
     1
102
RTVSPost2010Prop49
280
     0
102
RTVSPost2010PropOp49
 70
     1
102
RTVSPost2010Prop50
 90
       50
102
RTVSPost2010PropOp50
 70
     1
102
RTVSPost2010Prop51ColorIndex
 90
      256
102
RTVSPost2010Prop51ColorRGB
 90
-16777216
102
RTVSPost2010PropOp51
 70
     0
102
RTVSPost2010Prop52
140
1.0
102
RTVSPost2010PropOp52
 70
     0
102
RTVSPost2010Prop53
 90
        2
102
RTVSPost2010PropOp53
 70
     1
102
RTVSPost2010Prop54
  1
strokes_ogs.tif
102
RTVSPost2010PropOp54
 70
     1
102
RTVSPost2010Prop55
280
     0
102
RTVSPost2010PropOp55
 70
     1
102
RTVSPost2010Prop56
140
1.0
102
RTVSPost2010PropOp56
 70
     1
102
RTVSPost2010Prop57
140
1.0
102
RTVSPost2010PropOp57
 70
     1
102
RTVSPropertyOp0
 70
     1
102
RTVSPropertyOp1
 70
     1
102
RTVSPropertyOp2
 70
     1
102
RTVSPropertyOp3
 70
     1
102
RTVSPropertyOp4
 70
     1
102
RTVSPropertyOp5
 70
     1
102
RTVSPropertyOp6
 70
     1
102
RTVSPropertyOp7
 70
     1
102
RTVSPropertyOp8
 70
     1
102
RTVSPropertyOp9
 70
     1
102
RTVSPropertyOp10
 70
     1
102
RTVSPropertyOp11
 70
     1
102
RTVSPropertyOp12
 70
     1
102
RTVSPropertyOp13
 70
     1
102
RTVSPropertyOp14
 70
     1
102
RTVSPropertyOp15
 70
     1
102
RTVSPropertyOp16
 70
     1
102
RTVSPropertyOp17
 70
     1
102
RTVSPropertyOp18
 70
     1
102
RTVSPropertyOp19
 70
     1
102
RTVSPropertyOp20
 70
     1
102
RTVSPropertyOp21
 70
     1
102
RTVSPropertyOp22
 70
     1
102
RTVSPropertyOp23
 70
     1
102
RTVSPropertyOp24
 70
     1
102
RTVSPropertyOp25
 70
     1
102
RTVSPropertyOp26
 70
     1
102
RTVSPropertyOp27
 70
     1
102
RTVSPropertyOp28
 70
     1
102
RTVSPropertyOp29
 70
     1
102
RTVSPropertyOp30
 70
     1
102
RTVSPropertyOp31
 70
     1
102
RTVSPropertyOp32
 70
     1
102
RTVSPropertyOp33
 70
     1
102
RTVSPropertyOp34
 70
     1
102
RTVSPropertyOp35
 70
     1
102
RTVSPropertyOp36
 70
     1
102
RTVSPropertyOp37
 70
     1
102
RTVSPropertyOp38
 70
     1
102
RTVSPropertyOp39
 70
     1
102
RTVSPropertyOp40
 70
     1
102
RTVSPropertyOp41
 70
     1
102
RTVSPropertyOp42
 70
     1
102
RTVSPropertyOp43
 70
     1
102
RTVSPropertyOp44
 70
     1
102
RTVSPropertyOp45
 70
     1
102
RTVSPropertyOp46
 70
     1
102
RTVSPropertyOp47
 70
     1
102
RTVSPropertyOp48
 70
     1
102
RTVSPropertyOp49
 70
     1
102
RTVSPropertyOp50
 70
     1
102
RTVSPropertyOp51
 70
     0
102
RTVSPropertyOp52
 70
     0
102
RTVSPropertyOp53
 70
     1
102
RTVSPropertyOp54
 70
     1
102
RTVSPropertyOp55
 70
     1
102
RTVSPropertyOp56
 70
     1
102
RTVSPropertyOp57
 70
     1
102
RTVSPropertyOp58
 70
     1
102
RTVSPropertyOp59
 70
     1
102
RTVSPropertyOp60
 70
     1
102
RTVSPropertyOp61
 70
     1
102
RTVSPropertyOp62
 70
     1
  0
XRECORD
  5
AA02
102
{ACAD_REACTORS
330
AA01
102
}
330
AA01
100
AcDbXrecord
280
     1
102
RTVSPost2010Prop28
280
     0
102
RTVSPost2010PropOp28
 70
     1
102
RTVSPost2010Prop29
280
     1
102
RTVSPost2010PropOp29
 70
     1
102
RTVSPost2010Prop30
280
     1
102
RTVSPost2010PropOp30
 70
     1
102
RTVSPost2010Prop31
280
     0
102
RTVSPost2010PropOp31
 70
     1
102
RTVSPost2010Prop32
280
     0
102
RTVSPost2010PropOp32
 70
     1
102
RTVSPost2010Prop33
280
     0
102
RTVSPost2010PropOp33
 70
     1
102
RTVSPost2010Prop34
280
     0
102
RTVSPost2010PropOp34
 70
     1
102
RTVSPost2010Prop35
280
     0
102
RTVSPost2010PropOp35
 70
     1
102
RTVSPost2010Prop36
280
     0
102
RTVSPost2010PropOp36
 70
     1
102
RTVSPost2010Prop37
 90
       50
102
RTVSPost2010PropOp37
 70
     0
102
RTVSPost2010Prop38
140
0.0
102
RTVSPost2010PropOp38
 70
     0
102
RTVSPost2010Prop39
140
1.0
102
RTVSPost2010PropOp39
 70
     0
102
RTVSPost2010Prop40
 90
        0
102
RTVSPost2010PropOp40
 70
     0
102
RTVSPost2010Prop41ColorIndex
 90
       18
102
RTVSPost2010Prop41ColorRGB
 90
        0
102
RTVSPost2010PropOp41
 70
     0
102
RTVSPost2010Prop42
 90
       50
102
RTVSPost2010PropOp42
 70
     0
102
RTVSPost2010Prop43
 90
        3
102
RTVSPost2010PropOp43
 70
     0
102
RTVSPost2010Prop44ColorIndex
 90
        5
102
RTVSPost2010Prop44ColorRGB
 90
      255
102
RTVSPost2010PropOp44
 70
     0
102
RTVSPost2010Prop45
280
     0
102
RTVSPost2010PropOp45
 70
     1
102
RTVSPost2010Prop46
 90
       50
102
RTVSPost2010PropOp46
 70
     0
102
RTVSPost2010Prop47
 90
       50
102
RTVSPost2010PropOp47
 70
     0
102
RTVSPost2010Prop48
 90
       50
102
RTVSPost2010PropOp48
 70
     0
102
RTVSPost2010Prop49
280
     0
102
RTVSPost2010PropOp49
 70
     1
102
RTVSPost2010Prop50
 90
       50
102
RTVSPost2010PropOp50
 70
     0
102
RTVSPost2010Prop51ColorIndex
 90
      256
102
RTVSPost2010Prop51ColorRGB
 90
-16777216
102
RTVSPost2010PropOp51
 70
     0
102
RTVSPost2010Prop52
140
1.0
102
RTVSPost2010PropOp52
 70
     0
102
RTVSPost2010Prop53
 90
        2
102
RTVSPost2010PropOp53
 70
     0
102
RTVSPost2010Prop54
  1
strokes_ogs.tif
102
RTVSPost2010PropOp54
 70
     0
102
RTVSPost2010Prop55
280
     0
102
RTVSPost2010PropOp55
 70
     1
102
RTVSPost2010Prop56
140
1.0
102
RTVSPost2010PropOp56
 70
     0
102
RTVSPost2010Prop57
140
1.0
102
RTVSPost2010PropOp57
 70
     0
102
RTVSPropertyOp0
 70
     0
102
RTVSPropertyOp1
 70
     0
102
RTVSPropertyOp2
 70
     0
102
RTVSPropertyOp3
 70
     0
102
RTVSPropertyOp4
 70
     0
102
RTVSPropertyOp5
 70
     0
102
RTVSPropertyOp6
 70
     0
102
RTVSPropertyOp7
 70
     0
102
RTVSPropertyOp8
 70
     0
102
RTVSPropertyOp9
 70
     0
102
RTVSPropertyOp10
 70
     0
102
RTVSPropertyOp11
 70
     0
102
RTVSPropertyOp12
 70
     0
102
RTVSPropertyOp13
 70
     0
102
RTVSPropertyOp14
 70
     2
102
RTVSPropertyOp15
 70
     0
102
RTVSPropertyOp16
 70
     0
102
RTVSPropertyOp17
 70
     0
102
RTVSPropertyOp18
 70
     0
102
RTVSPropertyOp19
 70
     0
102
RTVSPropertyOp20
 70
     0
102
RTVSPropertyOp21
 70
     0
102
RTVSPropertyOp22
 70
     0
102
RTVSPropertyOp23
 70
     0
102
RTVSPropertyOp24
 70
     0
102
RTVSPropertyOp25
 70
     0
102
RTVSPropertyOp26
 70
     0
102
RTVSPropertyOp27
 70
     0
102
RTVSPropertyOp28
 70
     1
102
RTVSPropertyOp29
 70
     1
102
RTVSPropertyOp30
 70
     1
102
RTVSPropertyOp31
 70
     1
102
RTVSPropertyOp32
 70
     1
102
RTVSPropertyOp33
 70
     1
102
RTVSPropertyOp34
 70
     1
102
RTVSPropertyOp35
 70
     1
102
RTVSPropertyOp36
 70
     1
102
RTVSPropertyOp37
 70
     0
102
RTVSPropertyOp38
 70
     0
102
RTVSPropertyOp39
 70
     0
102
RTVSPropertyOp40
 70
     0
102
RTVSPropertyOp41
 70
     0
102
RTVSPropertyOp42
 70
     0
102
RTVSPropertyOp43
 70
     0
102
RTVSPropertyOp44
 70
     0
102
RTVSPropertyOp45
 70
     1
102
RTVSPropertyOp46
 70
     0
102
RTVSPropertyOp47
 70
     0
102
RTVSPropertyOp48
 70
     0
102
RTVSPropertyOp49
 70
     1
102
RTVSPropertyOp50
 70
     0
102
RTVSPropertyOp51
 70
     0
102
RTVSPropertyOp52
 70
     0
102
RTVSPropertyOp53
 70
     0
102
RTVSPropertyOp54
 70
     0
102
RTVSPropertyOp55
 70
     1
102
RTVSPropertyOp56
 70
     0
102
RTVSPropertyOp57
 70
     0
102
RTVSPropertyOp58
 70
     0
102
RTVSPropertyOp59
 70
     0
102
RTVSPropertyOp60
 70
     0
102
RTVSPropertyOp61
 70
     0
102
RTVSPropertyOp62
 70
     0
  0
XRECORD
  5
A9F2
102
{ACAD_REACTORS
330
A9F1
102
}
330
A9F1
100
AcDbXrecord
280
     1
102
RTVSPost2010Prop28
280
     0
102
RTVSPost2010PropOp28
 70
     1
102
RTVSPost2010Prop29
280
     1
102
RTVSPost2010PropOp29
 70
     1
102
RTVSPost2010Prop30
280
     1
102
RTVSPost2010PropOp30
 70
     1
102
RTVSPost2010Prop31
280
     0
102
RTVSPost2010PropOp31
 70
     1
102
RTVSPost2010Prop32
280
     0
102
RTVSPost2010PropOp32
 70
     1
102
RTVSPost2010Prop33
280
     0
102
RTVSPost2010PropOp33
 70
     1
102
RTVSPost2010Prop34
280
     0
102
RTVSPost2010PropOp34
 70
     1
102
RTVSPost2010Prop35
280
     0
102
RTVSPost2010PropOp35
 70
     1
102
RTVSPost2010Prop36
280
     0
102
RTVSPost2010PropOp36
 70
     1
102
RTVSPost2010Prop37
 90
       50
102
RTVSPost2010PropOp37
 70
     1
102
RTVSPost2010Prop38
140
0.0
102
RTVSPost2010PropOp38
 70
     1
102
RTVSPost2010Prop39
140
1.0
102
RTVSPost2010PropOp39
 70
     1
102
RTVSPost2010Prop40
 90
        0
102
RTVSPost2010PropOp40
 70
     1
102
RTVSPost2010Prop41ColorIndex
 90
       18
102
RTVSPost2010Prop41ColorRGB
 90
        0
102
RTVSPost2010PropOp41
 70
     1
102
RTVSPost2010Prop42
 90
       50
102
RTVSPost2010PropOp42
 70
     1
102
RTVSPost2010Prop43
 90
        3
102
RTVSPost2010PropOp43
 70
     1
102
RTVSPost2010Prop44ColorIndex
 90
        5
102
RTVSPost2010Prop44ColorRGB
 90
      255
102
RTVSPost2010PropOp44
 70
     1
102
RTVSPost2010Prop45
280
     0
102
RTVSPost2010PropOp45
 70
     1
102
RTVSPost2010Prop46
 90
       50
102
RTVSPost2010PropOp46
 70
     1
102
RTVSPost2010Prop47
 90
       50
102
RTVSPost2010PropOp47
 70
     1
102
RTVSPost2010Prop48
 90
       50
102
RTVSPost2010PropOp48
 70
     1
102
RTVSPost2010Prop49
280
     0
102
RTVSPost2010PropOp49
 70
     1
102
RTVSPost2010Prop50
 90
       50
102
RTVSPost2010PropOp50
 70
     1
102
RTVSPost2010Prop51ColorIndex
 90
      256
102
RTVSPost2010Prop51ColorRGB
 90
-16777216
102
RTVSPost2010PropOp51
 70
     0
102
RTVSPost2010Prop52
140
1.0
102
RTVSPost2010PropOp52
 70
     0
102
RTVSPost2010Prop53
 90
        2
102
RTVSPost2010PropOp53
 70
     1
102
RTVSPost2010Prop54
  1
strokes_ogs.tif
102
RTVSPost2010PropOp54
 70
     1
102
RTVSPost2010Prop55
280
     0
102
RTVSPost2010PropOp55
 70
     1
102
RTVSPost2010Prop56
140
1.0
102
RTVSPost2010PropOp56
 70
     1
102
RTVSPost2010Prop57
140
1.0
102
RTVSPost2010PropOp57
 70
     1
102
RTVSPropertyOp0
 70
     1
102
RTVSPropertyOp1
 70
     1
102
RTVSPropertyOp2
 70
     1
102
RTVSPropertyOp3
 70
     1
102
RTVSPropertyOp4
 70
     1
102
RTVSPropertyOp5
 70
     1
102
RTVSPropertyOp6
 70
     1
102
RTVSPropertyOp7
 70
     1
102
RTVSPropertyOp8
 70
     1
102
RTVSPropertyOp9
 70
     1
102
RTVSPropertyOp10
 70
     1
102
RTVSPropertyOp11
 70
     1
102
RTVSPropertyOp12
 70
     1
102
RTVSPropertyOp13
 70
     1
102
RTVSPropertyOp14
 70
     1
102
RTVSPropertyOp15
 70
     1
102
RTVSPropertyOp16
 70
     1
102
RTVSPropertyOp17
 70
     1
102
RTVSPropertyOp18
 70
     1
102
RTVSPropertyOp19
 70
     1
102
RTVSPropertyOp20
 70
     1
102
RTVSPropertyOp21
 70
     1
102
RTVSPropertyOp22
 70
     1
102
RTVSPropertyOp23
 70
     1
102
RTVSPropertyOp24
 70
     1
102
RTVSPropertyOp25
 70
     1
102
RTVSPropertyOp26
 70
     1
102
RTVSPropertyOp27
 70
     1
102
RTVSPropertyOp28
 70
     1
102
RTVSPropertyOp29
 70
     1
102
RTVSPropertyOp30
 70
     1
102
RTVSPropertyOp31
 70
     1
102
RTVSPropertyOp32
 70
     1
102
RTVSPropertyOp33
 70
     1
102
RTVSPropertyOp34
 70
     1
102
RTVSPropertyOp35
 70
     1
102
RTVSPropertyOp36
 70
     1
102
RTVSPropertyOp37
 70
     1
102
RTVSPropertyOp38
 70
     1
102
RTVSPropertyOp39
 70
     1
102
RTVSPropertyOp40
 70
     1
102
RTVSPropertyOp41
 70
     1
102
RTVSPropertyOp42
 70
     1
102
RTVSPropertyOp43
 70
     1
102
RTVSPropertyOp44
 70
     1
102
RTVSPropertyOp45
 70
     1
102
RTVSPropertyOp46
 70
     1
102
RTVSPropertyOp47
 70
     1
102
RTVSPropertyOp48
 70
     1
102
RTVSPropertyOp49
 70
     1
102
RTVSPropertyOp50
 70
     1
102
RTVSPropertyOp51
 70
     0
102
RTVSPropertyOp52
 70
     0
102
RTVSPropertyOp53
 70
     1
102
RTVSPropertyOp54
 70
     1
102
RTVSPropertyOp55
 70
     1
102
RTVSPropertyOp56
 70
     1
102
RTVSPropertyOp57
 70
     1
102
RTVSPropertyOp58
 70
     1
102
RTVSPropertyOp59
 70
     1
102
RTVSPropertyOp60
 70
     1
102
RTVSPropertyOp61
 70
     1
102
RTVSPropertyOp62
 70
     1
  0
XRECORD
  5
AA04
102
{ACAD_REACTORS
330
AA03
102
}
330
AA03
100
AcDbXrecord
280
     1
102
RTVSPost2010Prop28
280
     0
102
RTVSPost2010PropOp28
 70
     1
102
RTVSPost2010Prop29
280
     1
102
RTVSPost2010PropOp29
 70
     1
102
RTVSPost2010Prop30
280
     1
102
RTVSPost2010PropOp30
 70
     1
102
RTVSPost2010Prop31
280
     0
102
RTVSPost2010PropOp31
 70
     1
102
RTVSPost2010Prop32
280
     0
102
RTVSPost2010PropOp32
 70
     1
102
RTVSPost2010Prop33
280
     0
102
RTVSPost2010PropOp33
 70
     1
102
RTVSPost2010Prop34
280
     0
102
RTVSPost2010PropOp34
 70
     1
102
RTVSPost2010Prop35
280
     0
102
RTVSPost2010PropOp35
 70
     1
102
RTVSPost2010Prop36
280
     0
102
RTVSPost2010PropOp36
 70
     1
102
RTVSPost2010Prop37
 90
       50
102
RTVSPost2010PropOp37
 70
     0
102
RTVSPost2010Prop38
140
0.0
102
RTVSPost2010PropOp38
 70
     0
102
RTVSPost2010Prop39
140
1.0
102
RTVSPost2010PropOp39
 70
     0
102
RTVSPost2010Prop40
 90
        0
102
RTVSPost2010PropOp40
 70
     0
102
RTVSPost2010Prop41ColorIndex
 90
       18
102
RTVSPost2010Prop41ColorRGB
 90
        0
102
RTVSPost2010PropOp41
 70
     0
102
RTVSPost2010Prop42
 90
       50
102
RTVSPost2010PropOp42
 70
     0
102
RTVSPost2010Prop43
 90
        3
102
RTVSPost2010PropOp43
 70
     0
102
RTVSPost2010Prop44ColorIndex
 90
        5
102
RTVSPost2010Prop44ColorRGB
 90
      255
102
RTVSPost2010PropOp44
 70
     0
102
RTVSPost2010Prop45
280
     0
102
RTVSPost2010PropOp45
 70
     1
102
RTVSPost2010Prop46
 90
       50
102
RTVSPost2010PropOp46
 70
     0
102
RTVSPost2010Prop47
 90
       50
102
RTVSPost2010PropOp47
 70
     0
102
RTVSPost2010Prop48
 90
       50
102
RTVSPost2010PropOp48
 70
     0
102
RTVSPost2010Prop49
280
     0
102
RTVSPost2010PropOp49
 70
     1
102
RTVSPost2010Prop50
 90
       50
102
RTVSPost2010PropOp50
 70
     0
102
RTVSPost2010Prop51ColorIndex
 90
      256
102
RTVSPost2010Prop51ColorRGB
 90
-16777216
102
RTVSPost2010PropOp51
 70
     0
102
RTVSPost2010Prop52
140
1.0
102
RTVSPost2010PropOp52
 70
     0
102
RTVSPost2010Prop53
 90
        2
102
RTVSPost2010PropOp53
 70
     0
102
RTVSPost2010Prop54
  1
strokes_ogs.tif
102
RTVSPost2010PropOp54
 70
     0
102
RTVSPost2010Prop55
280
     0
102
RTVSPost2010PropOp55
 70
     1
102
RTVSPost2010Prop56
140
1.0
102
RTVSPost2010PropOp56
 70
     0
102
RTVSPost2010Prop57
140
1.0
102
RTVSPost2010PropOp57
 70
     0
102
RTVSPropertyOp0
 70
     0
102
RTVSPropertyOp1
 70
     0
102
RTVSPropertyOp2
 70
     0
102
RTVSPropertyOp3
 70
     0
102
RTVSPropertyOp4
 70
     0
102
RTVSPropertyOp5
 70
     0
102
RTVSPropertyOp6
 70
     0
102
RTVSPropertyOp7
 70
     0
102
RTVSPropertyOp8
 70
     0
102
RTVSPropertyOp9
 70
     0
102
RTVSPropertyOp10
 70
     0
102
RTVSPropertyOp11
 70
     0
102
RTVSPropertyOp12
 70
     0
102
RTVSPropertyOp13
 70
     0
102
RTVSPropertyOp14
 70
     2
102
RTVSPropertyOp15
 70
     0
102
RTVSPropertyOp16
 70
     0
102
RTVSPropertyOp17
 70
     0
102
RTVSPropertyOp18
 70
     0
102
RTVSPropertyOp19
 70
     0
102
RTVSPropertyOp20
 70
     0
102
RTVSPropertyOp21
 70
     0
102
RTVSPropertyOp22
 70
     0
102
RTVSPropertyOp23
 70
     0
102
RTVSPropertyOp24
 70
     0
102
RTVSPropertyOp25
 70
     0
102
RTVSPropertyOp26
 70
     0
102
RTVSPropertyOp27
 70
     0
102
RTVSPropertyOp28
 70
     1
102
RTVSPropertyOp29
 70
     1
102
RTVSPropertyOp30
 70
     1
102
RTVSPropertyOp31
 70
     1
102
RTVSPropertyOp32
 70
     1
102
RTVSPropertyOp33
 70
     1
102
RTVSPropertyOp34
 70
     1
102
RTVSPropertyOp35
 70
     1
102
RTVSPropertyOp36
 70
     1
102
RTVSPropertyOp37
 70
     0
102
RTVSPropertyOp38
 70
     0
102
RTVSPropertyOp39
 70
     0
102
RTVSPropertyOp40
 70
     0
102
RTVSPropertyOp41
 70
     0
102
RTVSPropertyOp42
 70
     0
102
RTVSPropertyOp43
 70
     0
102
RTVSPropertyOp44
 70
     0
102
RTVSPropertyOp45
 70
     1
102
RTVSPropertyOp46
 70
     0
102
RTVSPropertyOp47
 70
     0
102
RTVSPropertyOp48
 70
     0
102
RTVSPropertyOp49
 70
     1
102
RTVSPropertyOp50
 70
     0
102
RTVSPropertyOp51
 70
     0
102
RTVSPropertyOp52
 70
     0
102
RTVSPropertyOp53
 70
     0
102
RTVSPropertyOp54
 70
     0
102
RTVSPropertyOp55
 70
     1
102
RTVSPropertyOp56
 70
     0
102
RTVSPropertyOp57
 70
     0
102
RTVSPropertyOp58
 70
     0
102
RTVSPropertyOp59
 70
     0
102
RTVSPropertyOp60
 70
     0
102
RTVSPropertyOp61
 70
     0
102
RTVSPropertyOp62
 70
     0
  0
XRECORD
  5
A9EA
102
{ACAD_REACTORS
330
A9E9
102
}
330
A9E9
100
AcDbXrecord
280
     1
102
RTVSPost2010Prop28
280
     0
102
RTVSPost2010PropOp28
 70
     1
102
RTVSPost2010Prop29
280
     1
102
RTVSPost2010PropOp29
 70
     1
102
RTVSPost2010Prop30
280
     1
102
RTVSPost2010PropOp30
 70
     1
102
RTVSPost2010Prop31
280
     0
102
RTVSPost2010PropOp31
 70
     1
102
RTVSPost2010Prop32
280
     0
102
RTVSPost2010PropOp32
 70
     1
102
RTVSPost2010Prop33
280
     0
102
RTVSPost2010PropOp33
 70
     1
102
RTVSPost2010Prop34
280
     0
102
RTVSPost2010PropOp34
 70
     1
102
RTVSPost2010Prop35
280
     0
102
RTVSPost2010PropOp35
 70
     1
102
RTVSPost2010Prop36
280
     0
102
RTVSPost2010PropOp36
 70
     1
102
RTVSPost2010Prop37
 90
       50
102
RTVSPost2010PropOp37
 70
     1
102
RTVSPost2010Prop38
140
0.0
102
RTVSPost2010PropOp38
 70
     1
102
RTVSPost2010Prop39
140
1.0
102
RTVSPost2010PropOp39
 70
     1
102
RTVSPost2010Prop40
 90
        0
102
RTVSPost2010PropOp40
 70
     1
102
RTVSPost2010Prop41ColorIndex
 90
       18
102
RTVSPost2010Prop41ColorRGB
 90
        0
102
RTVSPost2010PropOp41
 70
     1
102
RTVSPost2010Prop42
 90
       50
102
RTVSPost2010PropOp42
 70
     1
102
RTVSPost2010Prop43
 90
        3
102
RTVSPost2010PropOp43
 70
     1
102
RTVSPost2010Prop44ColorIndex
 90
        5
102
RTVSPost2010Prop44ColorRGB
 90
      255
102
RTVSPost2010PropOp44
 70
     1
102
RTVSPost2010Prop45
280
     0
102
RTVSPost2010PropOp45
 70
     1
102
RTVSPost2010Prop46
 90
       50
102
RTVSPost2010PropOp46
 70
     1
102
RTVSPost2010Prop47
 90
       50
102
RTVSPost2010PropOp47
 70
     1
102
RTVSPost2010Prop48
 90
       50
102
RTVSPost2010PropOp48
 70
     1
102
RTVSPost2010Prop49
280
     0
102
RTVSPost2010PropOp49
 70
     1
102
RTVSPost2010Prop50
 90
       50
102
RTVSPost2010PropOp50
 70
     1
102
RTVSPost2010Prop51ColorIndex
 90
      256
102
RTVSPost2010Prop51ColorRGB
 90
-16777216
102
RTVSPost2010PropOp51
 70
     0
102
RTVSPost2010Prop52
140
1.0
102
RTVSPost2010PropOp52
 70
     0
102
RTVSPost2010Prop53
 90
        2
102
RTVSPost2010PropOp53
 70
     1
102
RTVSPost2010Prop54
  1
strokes_ogs.tif
102
RTVSPost2010PropOp54
 70
     1
102
RTVSPost2010Prop55
280
     0
102
RTVSPost2010PropOp55
 70
     1
102
RTVSPost2010Prop56
140
1.0
102
RTVSPost2010PropOp56
 70
     1
102
RTVSPost2010Prop57
140
1.0
102
RTVSPost2010PropOp57
 70
     1
102
RTVSPropertyOp0
 70
     1
102
RTVSPropertyOp1
 70
     1
102
RTVSPropertyOp2
 70
     1
102
RTVSPropertyOp3
 70
     1
102
RTVSPropertyOp4
 70
     1
102
RTVSPropertyOp5
 70
     1
102
RTVSPropertyOp6
 70
     1
102
RTVSPropertyOp7
 70
     1
102
RTVSPropertyOp8
 70
     1
102
RTVSPropertyOp9
 70
     1
102
RTVSPropertyOp10
 70
     1
102
RTVSPropertyOp11
 70
     1
102
RTVSPropertyOp12
 70
     1
102
RTVSPropertyOp13
 70
     1
102
RTVSPropertyOp14
 70
     1
102
RTVSPropertyOp15
 70
     1
102
RTVSPropertyOp16
 70
     1
102
RTVSPropertyOp17
 70
     1
102
RTVSPropertyOp18
 70
     1
102
RTVSPropertyOp19
 70
     1
102
RTVSPropertyOp20
 70
     1
102
RTVSPropertyOp21
 70
     1
102
RTVSPropertyOp22
 70
     1
102
RTVSPropertyOp23
 70
     1
102
RTVSPropertyOp24
 70
     1
102
RTVSPropertyOp25
 70
     1
102
RTVSPropertyOp26
 70
     1
102
RTVSPropertyOp27
 70
     1
102
RTVSPropertyOp28
 70
     1
102
RTVSPropertyOp29
 70
     1
102
RTVSPropertyOp30
 70
     1
102
RTVSPropertyOp31
 70
     1
102
RTVSPropertyOp32
 70
     1
102
RTVSPropertyOp33
 70
     1
102
RTVSPropertyOp34
 70
     1
102
RTVSPropertyOp35
 70
     1
102
RTVSPropertyOp36
 70
     1
102
RTVSPropertyOp37
 70
     1
102
RTVSPropertyOp38
 70
     1
102
RTVSPropertyOp39
 70
     1
102
RTVSPropertyOp40
 70
     1
102
RTVSPropertyOp41
 70
     1
102
RTVSPropertyOp42
 70
     1
102
RTVSPropertyOp43
 70
     1
102
RTVSPropertyOp44
 70
     1
102
RTVSPropertyOp45
 70
     1
102
RTVSPropertyOp46
 70
     1
102
RTVSPropertyOp47
 70
     1
102
RTVSPropertyOp48
 70
     1
102
RTVSPropertyOp49
 70
     1
102
RTVSPropertyOp50
 70
     1
102
RTVSPropertyOp51
 70
     0
102
RTVSPropertyOp52
 70
     0
102
RTVSPropertyOp53
 70
     1
102
RTVSPropertyOp54
 70
     1
102
RTVSPropertyOp55
 70
     1
102
RTVSPropertyOp56
 70
     1
102
RTVSPropertyOp57
 70
     1
102
RTVSPropertyOp58
 70
     1
102
RTVSPropertyOp59
 70
     1
102
RTVSPropertyOp60
 70
     1
102
RTVSPropertyOp61
 70
     1
102
RTVSPropertyOp62
 70
     1
  0
XRECORD
  5
AA00
102
{ACAD_REACTORS
330
A9FF
102
}
330
A9FF
100
AcDbXrecord
280
     1
102
RTVSPost2010Prop28
280
     0
102
RTVSPost2010PropOp28
 70
     1
102
RTVSPost2010Prop29
280
     1
102
RTVSPost2010PropOp29
 70
     1
102
RTVSPost2010Prop30
280
     1
102
RTVSPost2010PropOp30
 70
     1
102
RTVSPost2010Prop31
280
     0
102
RTVSPost2010PropOp31
 70
     1
102
RTVSPost2010Prop32
280
     0
102
RTVSPost2010PropOp32
 70
     1
102
RTVSPost2010Prop33
280
     0
102
RTVSPost2010PropOp33
 70
     1
102
RTVSPost2010Prop34
280
     0
102
RTVSPost2010PropOp34
 70
     1
102
RTVSPost2010Prop35
280
     0
102
RTVSPost2010PropOp35
 70
     1
102
RTVSPost2010Prop36
280
     0
102
RTVSPost2010PropOp36
 70
     1
102
RTVSPost2010Prop37
 90
       50
102
RTVSPost2010PropOp37
 70
     1
102
RTVSPost2010Prop38
140
0.0
102
RTVSPost2010PropOp38
 70
     1
102
RTVSPost2010Prop39
140
1.0
102
RTVSPost2010PropOp39
 70
     1
102
RTVSPost2010Prop40
 90
        0
102
RTVSPost2010PropOp40
 70
     1
102
RTVSPost2010Prop41ColorIndex
 90
       18
102
RTVSPost2010Prop41ColorRGB
 90
        0
102
RTVSPost2010PropOp41
 70
     1
102
RTVSPost2010Prop42
 90
       50
102
RTVSPost2010PropOp42
 70
     1
102
RTVSPost2010Prop43
 90
        3
102
RTVSPost2010PropOp43
 70
     1
102
RTVSPost2010Prop44ColorIndex
 90
        5
102
RTVSPost2010Prop44ColorRGB
 90
      255
102
RTVSPost2010PropOp44
 70
     1
102
RTVSPost2010Prop45
280
     0
102
RTVSPost2010PropOp45
 70
     1
102
RTVSPost2010Prop46
 90
       50
102
RTVSPost2010PropOp46
 70
     1
102
RTVSPost2010Prop47
 90
       50
102
RTVSPost2010PropOp47
 70
     1
102
RTVSPost2010Prop48
 90
       50
102
RTVSPost2010PropOp48
 70
     1
102
RTVSPost2010Prop49
280
     0
102
RTVSPost2010PropOp49
 70
     1
102
RTVSPost2010Prop50
 90
       50
102
RTVSPost2010PropOp50
 70
     1
102
RTVSPost2010Prop51ColorIndex
 90
      256
102
RTVSPost2010Prop51ColorRGB
 90
-16777216
102
RTVSPost2010PropOp51
 70
     0
102
RTVSPost2010Prop52
140
1.0
102
RTVSPost2010PropOp52
 70
     0
102
RTVSPost2010Prop53
 90
        2
102
RTVSPost2010PropOp53
 70
     1
102
RTVSPost2010Prop54
  1
strokes_ogs.tif
102
RTVSPost2010PropOp54
 70
     1
102
RTVSPost2010Prop55
280
     0
102
RTVSPost2010PropOp55
 70
     1
102
RTVSPost2010Prop56
140
1.0
102
RTVSPost2010PropOp56
 70
     1
102
RTVSPost2010Prop57
140
1.0
102
RTVSPost2010PropOp57
 70
     1
102
RTVSPropertyOp0
 70
     1
102
RTVSPropertyOp1
 70
     1
102
RTVSPropertyOp2
 70
     1
102
RTVSPropertyOp3
 70
     1
102
RTVSPropertyOp4
 70
     1
102
RTVSPropertyOp5
 70
     1
102
RTVSPropertyOp6
 70
     1
102
RTVSPropertyOp7
 70
     1
102
RTVSPropertyOp8
 70
     1
102
RTVSPropertyOp9
 70
     1
102
RTVSPropertyOp10
 70
     1
102
RTVSPropertyOp11
 70
     1
102
RTVSPropertyOp12
 70
     1
102
RTVSPropertyOp13
 70
     1
102
RTVSPropertyOp14
 70
     1
102
RTVSPropertyOp15
 70
     1
102
RTVSPropertyOp16
 70
     1
102
RTVSPropertyOp17
 70
     1
102
RTVSPropertyOp18
 70
     1
102
RTVSPropertyOp19
 70
     1
102
RTVSPropertyOp20
 70
     1
102
RTVSPropertyOp21
 70
     1
102
RTVSPropertyOp22
 70
     1
102
RTVSPropertyOp23
 70
     1
102
RTVSPropertyOp24
 70
     1
102
RTVSPropertyOp25
 70
     1
102
RTVSPropertyOp26
 70
     1
102
RTVSPropertyOp27
 70
     1
102
RTVSPropertyOp28
 70
     1
102
RTVSPropertyOp29
 70
     1
102
RTVSPropertyOp30
 70
     1
102
RTVSPropertyOp31
 70
     1
102
RTVSPropertyOp32
 70
     1
102
RTVSPropertyOp33
 70
     1
102
RTVSPropertyOp34
 70
     1
102
RTVSPropertyOp35
 70
     1
102
RTVSPropertyOp36
 70
     1
102
RTVSPropertyOp37
 70
     1
102
RTVSPropertyOp38
 70
     1
102
RTVSPropertyOp39
 70
     1
102
RTVSPropertyOp40
 70
     1
102
RTVSPropertyOp41
 70
     1
102
RTVSPropertyOp42
 70
     1
102
RTVSPropertyOp43
 70
     1
102
RTVSPropertyOp44
 70
     1
102
RTVSPropertyOp45
 70
     1
102
RTVSPropertyOp46
 70
     1
102
RTVSPropertyOp47
 70
     1
102
RTVSPropertyOp48
 70
     1
102
RTVSPropertyOp49
 70
     1
102
RTVSPropertyOp50
 70
     1
102
RTVSPropertyOp51
 70
     0
102
RTVSPropertyOp52
 70
     0
102
RTVSPropertyOp53
 70
     1
102
RTVSPropertyOp54
 70
     1
102
RTVSPropertyOp55
 70
     1
102
RTVSPropertyOp56
 70
     1
102
RTVSPropertyOp57
 70
     1
102
RTVSPropertyOp58
 70
     1
102
RTVSPropertyOp59
 70
     1
102
RTVSPropertyOp60
 70
     1
102
RTVSPropertyOp61
 70
     1
102
RTVSPropertyOp62
 70
     1
  0
XRECORD
  5
A9FE
102
{ACAD_REACTORS
330
A9FD
102
}
330
A9FD
100
AcDbXrecord
280
     1
102
RTVSPost2010Prop28
280
     0
102
RTVSPost2010PropOp28
 70
     1
102
RTVSPost2010Prop29
280
     1
102
RTVSPost2010PropOp29
 70
     1
102
RTVSPost2010Prop30
280
     1
102
RTVSPost2010PropOp30
 70
     1
102
RTVSPost2010Prop31
280
     0
102
RTVSPost2010PropOp31
 70
     1
102
RTVSPost2010Prop32
280
     0
102
RTVSPost2010PropOp32
 70
     1
102
RTVSPost2010Prop33
280
     0
102
RTVSPost2010PropOp33
 70
     1
102
RTVSPost2010Prop34
280
     0
102
RTVSPost2010PropOp34
 70
     1
102
RTVSPost2010Prop35
280
     0
102
RTVSPost2010PropOp35
 70
     1
102
RTVSPost2010Prop36
280
     0
102
RTVSPost2010PropOp36
 70
     1
102
RTVSPost2010Prop37
 90
       50
102
RTVSPost2010PropOp37
 70
     1
102
RTVSPost2010Prop38
140
0.0
102
RTVSPost2010PropOp38
 70
     1
102
RTVSPost2010Prop39
140
1.0
102
RTVSPost2010PropOp39
 70
     1
102
RTVSPost2010Prop40
 90
        0
102
RTVSPost2010PropOp40
 70
     1
102
RTVSPost2010Prop41ColorIndex
 90
       18
102
RTVSPost2010Prop41ColorRGB
 90
        0
102
RTVSPost2010PropOp41
 70
     1
102
RTVSPost2010Prop42
 90
       50
102
RTVSPost2010PropOp42
 70
     1
102
RTVSPost2010Prop43
 90
        3
102
RTVSPost2010PropOp43
 70
     1
102
RTVSPost2010Prop44ColorIndex
 90
        5
102
RTVSPost2010Prop44ColorRGB
 90
      255
102
RTVSPost2010PropOp44
 70
     1
102
RTVSPost2010Prop45
280
     0
102
RTVSPost2010PropOp45
 70
     1
102
RTVSPost2010Prop46
 90
       50
102
RTVSPost2010PropOp46
 70
     1
102
RTVSPost2010Prop47
 90
       50
102
RTVSPost2010PropOp47
 70
     1
102
RTVSPost2010Prop48
 90
       50
102
RTVSPost2010PropOp48
 70
     1
102
RTVSPost2010Prop49
280
     0
102
RTVSPost2010PropOp49
 70
     1
102
RTVSPost2010Prop50
 90
       50
102
RTVSPost2010PropOp50
 70
     1
102
RTVSPost2010Prop51ColorIndex
 90
      256
102
RTVSPost2010Prop51ColorRGB
 90
-16777216
102
RTVSPost2010PropOp51
 70
     0
102
RTVSPost2010Prop52
140
1.0
102
RTVSPost2010PropOp52
 70
     0
102
RTVSPost2010Prop53
 90
        2
102
RTVSPost2010PropOp53
 70
     1
102
RTVSPost2010Prop54
  1
strokes_ogs.tif
102
RTVSPost2010PropOp54
 70
     1
102
RTVSPost2010Prop55
280
     0
102
RTVSPost2010PropOp55
 70
     1
102
RTVSPost2010Prop56
140
1.0
102
RTVSPost2010PropOp56
 70
     1
102
RTVSPost2010Prop57
140
1.0
102
RTVSPost2010PropOp57
 70
     1
102
RTVSPropertyOp0
 70
     1
102
RTVSPropertyOp1
 70
     1
102
RTVSPropertyOp2
 70
     1
102
RTVSPropertyOp3
 70
     1
102
RTVSPropertyOp4
 70
     1
102
RTVSPropertyOp5
 70
     1
102
RTVSPropertyOp6
 70
     1
102
RTVSPropertyOp7
 70
     1
102
RTVSPropertyOp8
 70
     1
102
RTVSPropertyOp9
 70
     1
102
RTVSPropertyOp10
 70
     1
102
RTVSPropertyOp11
 70
     1
102
RTVSPropertyOp12
 70
     1
102
RTVSPropertyOp13
 70
     1
102
RTVSPropertyOp14
 70
     1
102
RTVSPropertyOp15
 70
     1
102
RTVSPropertyOp16
 70
     1
102
RTVSPropertyOp17
 70
     1
102
RTVSPropertyOp18
 70
     1
102
RTVSPropertyOp19
 70
     1
102
RTVSPropertyOp20
 70
     1
102
RTVSPropertyOp21
 70
     1
102
RTVSPropertyOp22
 70
     1
102
RTVSPropertyOp23
 70
     1
102
RTVSPropertyOp24
 70
     1
102
RTVSPropertyOp25
 70
     1
102
RTVSPropertyOp26
 70
     1
102
RTVSPropertyOp27
 70
     1
102
RTVSPropertyOp28
 70
     1
102
RTVSPropertyOp29
 70
     1
102
RTVSPropertyOp30
 70
     1
102
RTVSPropertyOp31
 70
     1
102
RTVSPropertyOp32
 70
     1
102
RTVSPropertyOp33
 70
     1
102
RTVSPropertyOp34
 70
     1
102
RTVSPropertyOp35
 70
     1
102
RTVSPropertyOp36
 70
     1
102
RTVSPropertyOp37
 70
     1
102
RTVSPropertyOp38
 70
     1
102
RTVSPropertyOp39
 70
     1
102
RTVSPropertyOp40
 70
     1
102
RTVSPropertyOp41
 70
     1
102
RTVSPropertyOp42
 70
     1
102
RTVSPropertyOp43
 70
     1
102
RTVSPropertyOp44
 70
     1
102
RTVSPropertyOp45
 70
     1
102
RTVSPropertyOp46
 70
     1
102
RTVSPropertyOp47
 70
     1
102
RTVSPropertyOp48
 70
     1
102
RTVSPropertyOp49
 70
     1
102
RTVSPropertyOp50
 70
     1
102
RTVSPropertyOp51
 70
     0
102
RTVSPropertyOp52
 70
     0
102
RTVSPropertyOp53
 70
     1
102
RTVSPropertyOp54
 70
     1
102
RTVSPropertyOp55
 70
     1
102
RTVSPropertyOp56
 70
     1
102
RTVSPropertyOp57
 70
     1
102
RTVSPropertyOp58
 70
     1
102
RTVSPropertyOp59
 70
     1
102
RTVSPropertyOp60
 70
     1
102
RTVSPropertyOp61
 70
     1
102
RTVSPropertyOp62
 70
     1
  0
XRECORD
  5
A9F8
102
{ACAD_REACTORS
330
A9F7
102
}
330
A9F7
100
AcDbXrecord
280
     1
102
RTVSPost2010Prop28
280
     0
102
RTVSPost2010PropOp28
 70
     1
102
RTVSPost2010Prop29
280
     1
102
RTVSPost2010PropOp29
 70
     1
102
RTVSPost2010Prop30
280
     1
102
RTVSPost2010PropOp30
 70
     1
102
RTVSPost2010Prop31
280
     0
102
RTVSPost2010PropOp31
 70
     1
102
RTVSPost2010Prop32
280
     0
102
RTVSPost2010PropOp32
 70
     1
102
RTVSPost2010Prop33
280
     0
102
RTVSPost2010PropOp33
 70
     1
102
RTVSPost2010Prop34
280
     0
102
RTVSPost2010PropOp34
 70
     1
102
RTVSPost2010Prop35
280
     0
102
RTVSPost2010PropOp35
 70
     1
102
RTVSPost2010Prop36
280
     0
102
RTVSPost2010PropOp36
 70
     1
102
RTVSPost2010Prop37
 90
       50
102
RTVSPost2010PropOp37
 70
     1
102
RTVSPost2010Prop38
140
0.0
102
RTVSPost2010PropOp38
 70
     1
102
RTVSPost2010Prop39
140
1.0
102
RTVSPost2010PropOp39
 70
     1
102
RTVSPost2010Prop40
 90
        0
102
RTVSPost2010PropOp40
 70
     1
102
RTVSPost2010Prop41ColorIndex
 90
       18
102
RTVSPost2010Prop41ColorRGB
 90
        0
102
RTVSPost2010PropOp41
 70
     1
102
RTVSPost2010Prop42
 90
       50
102
RTVSPost2010PropOp42
 70
     1
102
RTVSPost2010Prop43
 90
        3
102
RTVSPost2010PropOp43
 70
     1
102
RTVSPost2010Prop44ColorIndex
 90
        5
102
RTVSPost2010Prop44ColorRGB
 90
      255
102
RTVSPost2010PropOp44
 70
     1
102
RTVSPost2010Prop45
280
     0
102
RTVSPost2010PropOp45
 70
     1
102
RTVSPost2010Prop46
 90
       50
102
RTVSPost2010PropOp46
 70
     1
102
RTVSPost2010Prop47
 90
       50
102
RTVSPost2010PropOp47
 70
     1
102
RTVSPost2010Prop48
 90
       50
102
RTVSPost2010PropOp48
 70
     1
102
RTVSPost2010Prop49
280
     0
102
RTVSPost2010PropOp49
 70
     1
102
RTVSPost2010Prop50
 90
       50
102
RTVSPost2010PropOp50
 70
     1
102
RTVSPost2010Prop51ColorIndex
 90
      256
102
RTVSPost2010Prop51ColorRGB
 90
-16777216
102
RTVSPost2010PropOp51
 70
     0
102
RTVSPost2010Prop52
140
1.0
102
RTVSPost2010PropOp52
 70
     0
102
RTVSPost2010Prop53
 90
        2
102
RTVSPost2010PropOp53
 70
     1
102
RTVSPost2010Prop54
  1
strokes_ogs.tif
102
RTVSPost2010PropOp54
 70
     1
102
RTVSPost2010Prop55
280
     0
102
RTVSPost2010PropOp55
 70
     1
102
RTVSPost2010Prop56
140
1.0
102
RTVSPost2010PropOp56
 70
     1
102
RTVSPost2010Prop57
140
1.0
102
RTVSPost2010PropOp57
 70
     1
102
RTVSPropertyOp0
 70
     1
102
RTVSPropertyOp1
 70
     1
102
RTVSPropertyOp2
 70
     1
102
RTVSPropertyOp3
 70
     1
102
RTVSPropertyOp4
 70
     1
102
RTVSPropertyOp5
 70
     1
102
RTVSPropertyOp6
 70
     1
102
RTVSPropertyOp7
 70
     1
102
RTVSPropertyOp8
 70
     1
102
RTVSPropertyOp9
 70
     1
102
RTVSPropertyOp10
 70
     1
102
RTVSPropertyOp11
 70
     1
102
RTVSPropertyOp12
 70
     1
102
RTVSPropertyOp13
 70
     1
102
RTVSPropertyOp14
 70
     1
102
RTVSPropertyOp15
 70
     1
102
RTVSPropertyOp16
 70
     1
102
RTVSPropertyOp17
 70
     1
102
RTVSPropertyOp18
 70
     1
102
RTVSPropertyOp19
 70
     1
102
RTVSPropertyOp20
 70
     1
102
RTVSPropertyOp21
 70
     1
102
RTVSPropertyOp22
 70
     1
102
RTVSPropertyOp23
 70
     1
102
RTVSPropertyOp24
 70
     1
102
RTVSPropertyOp25
 70
     1
102
RTVSPropertyOp26
 70
     1
102
RTVSPropertyOp27
 70
     1
102
RTVSPropertyOp28
 70
     1
102
RTVSPropertyOp29
 70
     1
102
RTVSPropertyOp30
 70
     1
102
RTVSPropertyOp31
 70
     1
102
RTVSPropertyOp32
 70
     1
102
RTVSPropertyOp33
 70
     1
102
RTVSPropertyOp34
 70
     1
102
RTVSPropertyOp35
 70
     1
102
RTVSPropertyOp36
 70
     1
102
RTVSPropertyOp37
 70
     1
102
RTVSPropertyOp38
 70
     1
102
RTVSPropertyOp39
 70
     1
102
RTVSPropertyOp40
 70
     1
102
RTVSPropertyOp41
 70
     1
102
RTVSPropertyOp42
 70
     1
102
RTVSPropertyOp43
 70
     1
102
RTVSPropertyOp44
 70
     1
102
RTVSPropertyOp45
 70
     1
102
RTVSPropertyOp46
 70
     1
102
RTVSPropertyOp47
 70
     1
102
RTVSPropertyOp48
 70
     1
102
RTVSPropertyOp49
 70
     1
102
RTVSPropertyOp50
 70
     1
102
RTVSPropertyOp51
 70
     0
102
RTVSPropertyOp52
 70
     0
102
RTVSPropertyOp53
 70
     1
102
RTVSPropertyOp54
 70
     1
102
RTVSPropertyOp55
 70
     1
102
RTVSPropertyOp56
 70
     1
102
RTVSPropertyOp57
 70
     1
102
RTVSPropertyOp58
 70
     1
102
RTVSPropertyOp59
 70
     1
102
RTVSPropertyOp60
 70
     1
102
RTVSPropertyOp61
 70
     1
102
RTVSPropertyOp62
 70
     1
  0
XRECORD
  5
A9FA
102
{ACAD_REACTORS
330
A9F9
102
}
330
A9F9
100
AcDbXrecord
280
     1
102
RTVSPost2010Prop28
280
     0
102
RTVSPost2010PropOp28
 70
     1
102
RTVSPost2010Prop29
280
     1
102
RTVSPost2010PropOp29
 70
     1
102
RTVSPost2010Prop30
280
     1
102
RTVSPost2010PropOp30
 70
     1
102
RTVSPost2010Prop31
280
     0
102
RTVSPost2010PropOp31
 70
     1
102
RTVSPost2010Prop32
280
     0
102
RTVSPost2010PropOp32
 70
     1
102
RTVSPost2010Prop33
280
     0
102
RTVSPost2010PropOp33
 70
     1
102
RTVSPost2010Prop34
280
     0
102
RTVSPost2010PropOp34
 70
     1
102
RTVSPost2010Prop35
280
     0
102
RTVSPost2010PropOp35
 70
     1
102
RTVSPost2010Prop36
280
     0
102
RTVSPost2010PropOp36
 70
     1
102
RTVSPost2010Prop37
 90
       50
102
RTVSPost2010PropOp37
 70
     1
102
RTVSPost2010Prop38
140
0.0
102
RTVSPost2010PropOp38
 70
     1
102
RTVSPost2010Prop39
140
1.0
102
RTVSPost2010PropOp39
 70
     1
102
RTVSPost2010Prop40
 90
        0
102
RTVSPost2010PropOp40
 70
     1
102
RTVSPost2010Prop41ColorIndex
 90
       18
102
RTVSPost2010Prop41ColorRGB
 90
        0
102
RTVSPost2010PropOp41
 70
     1
102
RTVSPost2010Prop42
 90
       50
102
RTVSPost2010PropOp42
 70
     1
102
RTVSPost2010Prop43
 90
        3
102
RTVSPost2010PropOp43
 70
     1
102
RTVSPost2010Prop44ColorIndex
 90
        5
102
RTVSPost2010Prop44ColorRGB
 90
      255
102
RTVSPost2010PropOp44
 70
     1
102
RTVSPost2010Prop45
280
     0
102
RTVSPost2010PropOp45
 70
     1
102
RTVSPost2010Prop46
 90
       50
102
RTVSPost2010PropOp46
 70
     1
102
RTVSPost2010Prop47
 90
       50
102
RTVSPost2010PropOp47
 70
     1
102
RTVSPost2010Prop48
 90
       50
102
RTVSPost2010PropOp48
 70
     1
102
RTVSPost2010Prop49
280
     0
102
RTVSPost2010PropOp49
 70
     1
102
RTVSPost2010Prop50
 90
       50
102
RTVSPost2010PropOp50
 70
     1
102
RTVSPost2010Prop51ColorIndex
 90
      256
102
RTVSPost2010Prop51ColorRGB
 90
-16777216
102
RTVSPost2010PropOp51
 70
     0
102
RTVSPost2010Prop52
140
1.0
102
RTVSPost2010PropOp52
 70
     0
102
RTVSPost2010Prop53
 90
        2
102
RTVSPost2010PropOp53
 70
     1
102
RTVSPost2010Prop54
  1
strokes_ogs.tif
102
RTVSPost2010PropOp54
 70
     1
102
RTVSPost2010Prop55
280
     0
102
RTVSPost2010PropOp55
 70
     1
102
RTVSPost2010Prop56
140
1.0
102
RTVSPost2010PropOp56
 70
     1
102
RTVSPost2010Prop57
140
1.0
102
RTVSPost2010PropOp57
 70
     1
102
RTVSPropertyOp0
 70
     1
102
RTVSPropertyOp1
 70
     1
102
RTVSPropertyOp2
 70
     1
102
RTVSPropertyOp3
 70
     1
102
RTVSPropertyOp4
 70
     1
102
RTVSPropertyOp5
 70
     1
102
RTVSPropertyOp6
 70
     1
102
RTVSPropertyOp7
 70
     1
102
RTVSPropertyOp8
 70
     1
102
RTVSPropertyOp9
 70
     1
102
RTVSPropertyOp10
 70
     1
102
RTVSPropertyOp11
 70
     1
102
RTVSPropertyOp12
 70
     1
102
RTVSPropertyOp13
 70
     1
102
RTVSPropertyOp14
 70
     1
102
RTVSPropertyOp15
 70
     1
102
RTVSPropertyOp16
 70
     1
102
RTVSPropertyOp17
 70
     1
102
RTVSPropertyOp18
 70
     1
102
RTVSPropertyOp19
 70
     1
102
RTVSPropertyOp20
 70
     1
102
RTVSPropertyOp21
 70
     1
102
RTVSPropertyOp22
 70
     1
102
RTVSPropertyOp23
 70
     1
102
RTVSPropertyOp24
 70
     1
102
RTVSPropertyOp25
 70
     1
102
RTVSPropertyOp26
 70
     1
102
RTVSPropertyOp27
 70
     1
102
RTVSPropertyOp28
 70
     1
102
RTVSPropertyOp29
 70
     1
102
RTVSPropertyOp30
 70
     1
102
RTVSPropertyOp31
 70
     1
102
RTVSPropertyOp32
 70
     1
102
RTVSPropertyOp33
 70
     1
102
RTVSPropertyOp34
 70
     1
102
RTVSPropertyOp35
 70
     1
102
RTVSPropertyOp36
 70
     1
102
RTVSPropertyOp37
 70
     1
102
RTVSPropertyOp38
 70
     1
102
RTVSPropertyOp39
 70
     1
102
RTVSPropertyOp40
 70
     1
102
RTVSPropertyOp41
 70
     1
102
RTVSPropertyOp42
 70
     1
102
RTVSPropertyOp43
 70
     1
102
RTVSPropertyOp44
 70
     1
102
RTVSPropertyOp45
 70
     1
102
RTVSPropertyOp46
 70
     1
102
RTVSPropertyOp47
 70
     1
102
RTVSPropertyOp48
 70
     1
102
RTVSPropertyOp49
 70
     1
102
RTVSPropertyOp50
 70
     1
102
RTVSPropertyOp51
 70
     0
102
RTVSPropertyOp52
 70
     0
102
RTVSPropertyOp53
 70
     1
102
RTVSPropertyOp54
 70
     1
102
RTVSPropertyOp55
 70
     1
102
RTVSPropertyOp56
 70
     1
102
RTVSPropertyOp57
 70
     1
102
RTVSPropertyOp58
 70
     1
102
RTVSPropertyOp59
 70
     1
102
RTVSPropertyOp60
 70
     1
102
RTVSPropertyOp61
 70
     1
102
RTVSPropertyOp62
 70
     1
  0
XRECORD
  5
A9F0
102
{ACAD_REACTORS
330
A9EF
102
}
330
A9EF
100
AcDbXrecord
280
     1
102
RTVSPost2010Prop28
280
     0
102
RTVSPost2010PropOp28
 70
     1
102
RTVSPost2010Prop29
280
     1
102
RTVSPost2010PropOp29
 70
     1
102
RTVSPost2010Prop30
280
     1
102
RTVSPost2010PropOp30
 70
     1
102
RTVSPost2010Prop31
280
     0
102
RTVSPost2010PropOp31
 70
     1
102
RTVSPost2010Prop32
280
     0
102
RTVSPost2010PropOp32
 70
     1
102
RTVSPost2010Prop33
280
     0
102
RTVSPost2010PropOp33
 70
     1
102
RTVSPost2010Prop34
280
     0
102
RTVSPost2010PropOp34
 70
     1
102
RTVSPost2010Prop35
280
     0
102
RTVSPost2010PropOp35
 70
     1
102
RTVSPost2010Prop36
280
     0
102
RTVSPost2010PropOp36
 70
     1
102
RTVSPost2010Prop37
 90
       50
102
RTVSPost2010PropOp37
 70
     1
102
RTVSPost2010Prop38
140
0.0
102
RTVSPost2010PropOp38
 70
     1
102
RTVSPost2010Prop39
140
1.0
102
RTVSPost2010PropOp39
 70
     1
102
RTVSPost2010Prop40
 90
        0
102
RTVSPost2010PropOp40
 70
     1
102
RTVSPost2010Prop41ColorIndex
 90
       18
102
RTVSPost2010Prop41ColorRGB
 90
        0
102
RTVSPost2010PropOp41
 70
     1
102
RTVSPost2010Prop42
 90
       50
102
RTVSPost2010PropOp42
 70
     1
102
RTVSPost2010Prop43
 90
        3
102
RTVSPost2010PropOp43
 70
     1
102
RTVSPost2010Prop44ColorIndex
 90
        5
102
RTVSPost2010Prop44ColorRGB
 90
      255
102
RTVSPost2010PropOp44
 70
     1
102
RTVSPost2010Prop45
280
     0
102
RTVSPost2010PropOp45
 70
     1
102
RTVSPost2010Prop46
 90
       50
102
RTVSPost2010PropOp46
 70
     1
102
RTVSPost2010Prop47
 90
       50
102
RTVSPost2010PropOp47
 70
     1
102
RTVSPost2010Prop48
 90
       50
102
RTVSPost2010PropOp48
 70
     1
102
RTVSPost2010Prop49
280
     0
102
RTVSPost2010PropOp49
 70
     1
102
RTVSPost2010Prop50
 90
       50
102
RTVSPost2010PropOp50
 70
     1
102
RTVSPost2010Prop51ColorIndex
 90
      256
102
RTVSPost2010Prop51ColorRGB
 90
-16777216
102
RTVSPost2010PropOp51
 70
     0
102
RTVSPost2010Prop52
140
1.0
102
RTVSPost2010PropOp52
 70
     0
102
RTVSPost2010Prop53
 90
        2
102
RTVSPost2010PropOp53
 70
     1
102
RTVSPost2010Prop54
  1
strokes_ogs.tif
102
RTVSPost2010PropOp54
 70
     1
102
RTVSPost2010Prop55
280
     0
102
RTVSPost2010PropOp55
 70
     1
102
RTVSPost2010Prop56
140
1.0
102
RTVSPost2010PropOp56
 70
     1
102
RTVSPost2010Prop57
140
1.0
102
RTVSPost2010PropOp57
 70
     1
102
RTVSPropertyOp0
 70
     1
102
RTVSPropertyOp1
 70
     1
102
RTVSPropertyOp2
 70
     1
102
RTVSPropertyOp3
 70
     1
102
RTVSPropertyOp4
 70
     1
102
RTVSPropertyOp5
 70
     1
102
RTVSPropertyOp6
 70
     1
102
RTVSPropertyOp7
 70
     1
102
RTVSPropertyOp8
 70
     1
102
RTVSPropertyOp9
 70
     1
102
RTVSPropertyOp10
 70
     1
102
RTVSPropertyOp11
 70
     1
102
RTVSPropertyOp12
 70
     1
102
RTVSPropertyOp13
 70
     1
102
RTVSPropertyOp14
 70
     1
102
RTVSPropertyOp15
 70
     1
102
RTVSPropertyOp16
 70
     1
102
RTVSPropertyOp17
 70
     1
102
RTVSPropertyOp18
 70
     1
102
RTVSPropertyOp19
 70
     1
102
RTVSPropertyOp20
 70
     1
102
RTVSPropertyOp21
 70
     1
102
RTVSPropertyOp22
 70
     1
102
RTVSPropertyOp23
 70
     1
102
RTVSPropertyOp24
 70
     1
102
RTVSPropertyOp25
 70
     1
102
RTVSPropertyOp26
 70
     1
102
RTVSPropertyOp27
 70
     1
102
RTVSPropertyOp28
 70
     1
102
RTVSPropertyOp29
 70
     1
102
RTVSPropertyOp30
 70
     1
102
RTVSPropertyOp31
 70
     1
102
RTVSPropertyOp32
 70
     1
102
RTVSPropertyOp33
 70
     1
102
RTVSPropertyOp34
 70
     1
102
RTVSPropertyOp35
 70
     1
102
RTVSPropertyOp36
 70
     1
102
RTVSPropertyOp37
 70
     1
102
RTVSPropertyOp38
 70
     1
102
RTVSPropertyOp39
 70
     1
102
RTVSPropertyOp40
 70
     1
102
RTVSPropertyOp41
 70
     1
102
RTVSPropertyOp42
 70
     1
102
RTVSPropertyOp43
 70
     1
102
RTVSPropertyOp44
 70
     1
102
RTVSPropertyOp45
 70
     1
102
RTVSPropertyOp46
 70
     1
102
RTVSPropertyOp47
 70
     1
102
RTVSPropertyOp48
 70
     1
102
RTVSPropertyOp49
 70
     1
102
RTVSPropertyOp50
 70
     1
102
RTVSPropertyOp51
 70
     0
102
RTVSPropertyOp52
 70
     0
102
RTVSPropertyOp53
 70
     1
102
RTVSPropertyOp54
 70
     1
102
RTVSPropertyOp55
 70
     1
102
RTVSPropertyOp56
 70
     1
102
RTVSPropertyOp57
 70
     1
102
RTVSPropertyOp58
 70
     1
102
RTVSPropertyOp59
 70
     1
102
RTVSPropertyOp60
 70
     1
102
RTVSPropertyOp61
 70
     1
102
RTVSPropertyOp62
 70
     1
  0
XRECORD
  5
A9E4
102
{ACAD_REACTORS
330
A9E3
102
}
330
A9E3
100
AcDbXrecord
280
     1
102
RTVSPost2010Prop28
280
     0
102
RTVSPost2010PropOp28
 70
     1
102
RTVSPost2010Prop29
280
     1
102
RTVSPost2010PropOp29
 70
     1
102
RTVSPost2010Prop30
280
     1
102
RTVSPost2010PropOp30
 70
     1
102
RTVSPost2010Prop31
280
     0
102
RTVSPost2010PropOp31
 70
     1
102
RTVSPost2010Prop32
280
     0
102
RTVSPost2010PropOp32
 70
     1
102
RTVSPost2010Prop33
280
     0
102
RTVSPost2010PropOp33
 70
     1
102
RTVSPost2010Prop34
280
     0
102
RTVSPost2010PropOp34
 70
     1
102
RTVSPost2010Prop35
280
     0
102
RTVSPost2010PropOp35
 70
     1
102
RTVSPost2010Prop36
280
     0
102
RTVSPost2010PropOp36
 70
     1
102
RTVSPost2010Prop37
 90
       50
102
RTVSPost2010PropOp37
 70
     1
102
RTVSPost2010Prop38
140
0.0
102
RTVSPost2010PropOp38
 70
     1
102
RTVSPost2010Prop39
140
1.0
102
RTVSPost2010PropOp39
 70
     1
102
RTVSPost2010Prop40
 90
        0
102
RTVSPost2010PropOp40
 70
     1
102
RTVSPost2010Prop41ColorIndex
 90
       18
102
RTVSPost2010Prop41ColorRGB
 90
        0
102
RTVSPost2010PropOp41
 70
     1
102
RTVSPost2010Prop42
 90
       50
102
RTVSPost2010PropOp42
 70
     1
102
RTVSPost2010Prop43
 90
        3
102
RTVSPost2010PropOp43
 70
     1
102
RTVSPost2010Prop44ColorIndex
 90
        5
102
RTVSPost2010Prop44ColorRGB
 90
      255
102
RTVSPost2010PropOp44
 70
     1
102
RTVSPost2010Prop45
280
     0
102
RTVSPost2010PropOp45
 70
     1
102
RTVSPost2010Prop46
 90
       50
102
RTVSPost2010PropOp46
 70
     1
102
RTVSPost2010Prop47
 90
       50
102
RTVSPost2010PropOp47
 70
     1
102
RTVSPost2010Prop48
 90
       50
102
RTVSPost2010PropOp48
 70
     1
102
RTVSPost2010Prop49
280
     0
102
RTVSPost2010PropOp49
 70
     1
102
RTVSPost2010Prop50
 90
       50
102
RTVSPost2010PropOp50
 70
     1
102
RTVSPost2010Prop51ColorIndex
 90
      256
102
RTVSPost2010Prop51ColorRGB
 90
-16777216
102
RTVSPost2010PropOp51
 70
     0
102
RTVSPost2010Prop52
140
1.0
102
RTVSPost2010PropOp52
 70
     0
102
RTVSPost2010Prop53
 90
        2
102
RTVSPost2010PropOp53
 70
     1
102
RTVSPost2010Prop54
  1
strokes_ogs.tif
102
RTVSPost2010PropOp54
 70
     1
102
RTVSPost2010Prop55
280
     0
102
RTVSPost2010PropOp55
 70
     1
102
RTVSPost2010Prop56
140
1.0
102
RTVSPost2010PropOp56
 70
     1
102
RTVSPost2010Prop57
140
1.0
102
RTVSPost2010PropOp57
 70
     1
102
RTVSPropertyOp0
 70
     1
102
RTVSPropertyOp1
 70
     1
102
RTVSPropertyOp2
 70
     1
102
RTVSPropertyOp3
 70
     1
102
RTVSPropertyOp4
 70
     1
102
RTVSPropertyOp5
 70
     1
102
RTVSPropertyOp6
 70
     1
102
RTVSPropertyOp7
 70
     1
102
RTVSPropertyOp8
 70
     1
102
RTVSPropertyOp9
 70
     1
102
RTVSPropertyOp10
 70
     1
102
RTVSPropertyOp11
 70
     1
102
RTVSPropertyOp12
 70
     1
102
RTVSPropertyOp13
 70
     1
102
RTVSPropertyOp14
 70
     1
102
RTVSPropertyOp15
 70
     1
102
RTVSPropertyOp16
 70
     1
102
RTVSPropertyOp17
 70
     1
102
RTVSPropertyOp18
 70
     1
102
RTVSPropertyOp19
 70
     1
102
RTVSPropertyOp20
 70
     1
102
RTVSPropertyOp21
 70
     1
102
RTVSPropertyOp22
 70
     1
102
RTVSPropertyOp23
 70
     1
102
RTVSPropertyOp24
 70
     1
102
RTVSPropertyOp25
 70
     1
102
RTVSPropertyOp26
 70
     1
102
RTVSPropertyOp27
 70
     1
102
RTVSPropertyOp28
 70
     1
102
RTVSPropertyOp29
 70
     1
102
RTVSPropertyOp30
 70
     1
102
RTVSPropertyOp31
 70
     1
102
RTVSPropertyOp32
 70
     1
102
RTVSPropertyOp33
 70
     1
102
RTVSPropertyOp34
 70
     1
102
RTVSPropertyOp35
 70
     1
102
RTVSPropertyOp36
 70
     1
102
RTVSPropertyOp37
 70
     1
102
RTVSPropertyOp38
 70
     1
102
RTVSPropertyOp39
 70
     1
102
RTVSPropertyOp40
 70
     1
102
RTVSPropertyOp41
 70
     1
102
RTVSPropertyOp42
 70
     1
102
RTVSPropertyOp43
 70
     1
102
RTVSPropertyOp44
 70
     1
102
RTVSPropertyOp45
 70
     1
102
RTVSPropertyOp46
 70
     1
102
RTVSPropertyOp47
 70
     1
102
RTVSPropertyOp48
 70
     1
102
RTVSPropertyOp49
 70
     1
102
RTVSPropertyOp50
 70
     1
102
RTVSPropertyOp51
 70
     0
102
RTVSPropertyOp52
 70
     0
102
RTVSPropertyOp53
 70
     1
102
RTVSPropertyOp54
 70
     1
102
RTVSPropertyOp55
 70
     1
102
RTVSPropertyOp56
 70
     1
102
RTVSPropertyOp57
 70
     1
102
RTVSPropertyOp58
 70
     1
102
RTVSPropertyOp59
 70
     1
102
RTVSPropertyOp60
 70
     1
102
RTVSPropertyOp61
 70
     1
102
RTVSPropertyOp62
 70
     1
  0
XRECORD
  5
A9FC
102
{ACAD_REACTORS
330
A9FB
102
}
330
A9FB
100
AcDbXrecord
280
     1
102
RTVSPost2010Prop28
280
     0
102
RTVSPost2010PropOp28
 70
     1
102
RTVSPost2010Prop29
280
     1
102
RTVSPost2010PropOp29
 70
     1
102
RTVSPost2010Prop30
280
     1
102
RTVSPost2010PropOp30
 70
     1
102
RTVSPost2010Prop31
280
     0
102
RTVSPost2010PropOp31
 70
     1
102
RTVSPost2010Prop32
280
     0
102
RTVSPost2010PropOp32
 70
     1
102
RTVSPost2010Prop33
280
     0
102
RTVSPost2010PropOp33
 70
     1
102
RTVSPost2010Prop34
280
     0
102
RTVSPost2010PropOp34
 70
     1
102
RTVSPost2010Prop35
280
     0
102
RTVSPost2010PropOp35
 70
     1
102
RTVSPost2010Prop36
280
     0
102
RTVSPost2010PropOp36
 70
     1
102
RTVSPost2010Prop37
 90
       50
102
RTVSPost2010PropOp37
 70
     1
102
RTVSPost2010Prop38
140
0.0
102
RTVSPost2010PropOp38
 70
     1
102
RTVSPost2010Prop39
140
1.0
102
RTVSPost2010PropOp39
 70
     1
102
RTVSPost2010Prop40
 90
        0
102
RTVSPost2010PropOp40
 70
     1
102
RTVSPost2010Prop41ColorIndex
 90
       18
102
RTVSPost2010Prop41ColorRGB
 90
        0
102
RTVSPost2010PropOp41
 70
     1
102
RTVSPost2010Prop42
 90
       50
102
RTVSPost2010PropOp42
 70
     1
102
RTVSPost2010Prop43
 90
        3
102
RTVSPost2010PropOp43
 70
     1
102
RTVSPost2010Prop44ColorIndex
 90
        5
102
RTVSPost2010Prop44ColorRGB
 90
      255
102
RTVSPost2010PropOp44
 70
     1
102
RTVSPost2010Prop45
280
     0
102
RTVSPost2010PropOp45
 70
     1
102
RTVSPost2010Prop46
 90
       50
102
RTVSPost2010PropOp46
 70
     1
102
RTVSPost2010Prop47
 90
       50
102
RTVSPost2010PropOp47
 70
     1
102
RTVSPost2010Prop48
 90
       50
102
RTVSPost2010PropOp48
 70
     1
102
RTVSPost2010Prop49
280
     0
102
RTVSPost2010PropOp49
 70
     1
102
RTVSPost2010Prop50
 90
       50
102
RTVSPost2010PropOp50
 70
     1
102
RTVSPost2010Prop51ColorIndex
 90
      256
102
RTVSPost2010Prop51ColorRGB
 90
-16777216
102
RTVSPost2010PropOp51
 70
     0
102
RTVSPost2010Prop52
140
1.0
102
RTVSPost2010PropOp52
 70
     0
102
RTVSPost2010Prop53
 90
        2
102
RTVSPost2010PropOp53
 70
     1
102
RTVSPost2010Prop54
  1
strokes_ogs.tif
102
RTVSPost2010PropOp54
 70
     1
102
RTVSPost2010Prop55
280
     0
102
RTVSPost2010PropOp55
 70
     1
102
RTVSPost2010Prop56
140
1.0
102
RTVSPost2010PropOp56
 70
     1
102
RTVSPost2010Prop57
140
1.0
102
RTVSPost2010PropOp57
 70
     1
102
RTVSPropertyOp0
 70
     1
102
RTVSPropertyOp1
 70
     1
102
RTVSPropertyOp2
 70
     1
102
RTVSPropertyOp3
 70
     1
102
RTVSPropertyOp4
 70
     1
102
RTVSPropertyOp5
 70
     1
102
RTVSPropertyOp6
 70
     1
102
RTVSPropertyOp7
 70
     1
102
RTVSPropertyOp8
 70
     1
102
RTVSPropertyOp9
 70
     1
102
RTVSPropertyOp10
 70
     1
102
RTVSPropertyOp11
 70
     1
102
RTVSPropertyOp12
 70
     1
102
RTVSPropertyOp13
 70
     1
102
RTVSPropertyOp14
 70
     1
102
RTVSPropertyOp15
 70
     1
102
RTVSPropertyOp16
 70
     1
102
RTVSPropertyOp17
 70
     1
102
RTVSPropertyOp18
 70
     1
102
RTVSPropertyOp19
 70
     1
102
RTVSPropertyOp20
 70
     1
102
RTVSPropertyOp21
 70
     1
102
RTVSPropertyOp22
 70
     1
102
RTVSPropertyOp23
 70
     1
102
RTVSPropertyOp24
 70
     1
102
RTVSPropertyOp25
 70
     1
102
RTVSPropertyOp26
 70
     1
102
RTVSPropertyOp27
 70
     1
102
RTVSPropertyOp28
 70
     1
102
RTVSPropertyOp29
 70
     1
102
RTVSPropertyOp30
 70
     1
102
RTVSPropertyOp31
 70
     1
102
RTVSPropertyOp32
 70
     1
102
RTVSPropertyOp33
 70
     1
102
RTVSPropertyOp34
 70
     1
102
RTVSPropertyOp35
 70
     1
102
RTVSPropertyOp36
 70
     1
102
RTVSPropertyOp37
 70
     1
102
RTVSPropertyOp38
 70
     1
102
RTVSPropertyOp39
 70
     1
102
RTVSPropertyOp40
 70
     1
102
RTVSPropertyOp41
 70
     1
102
RTVSPropertyOp42
 70
     1
102
RTVSPropertyOp43
 70
     1
102
RTVSPropertyOp44
 70
     1
102
RTVSPropertyOp45
 70
     1
102
RTVSPropertyOp46
 70
     1
102
RTVSPropertyOp47
 70
     1
102
RTVSPropertyOp48
 70
     1
102
RTVSPropertyOp49
 70
     1
102
RTVSPropertyOp50
 70
     1
102
RTVSPropertyOp51
 70
     0
102
RTVSPropertyOp52
 70
     0
102
RTVSPropertyOp53
 70
     1
102
RTVSPropertyOp54
 70
     1
102
RTVSPropertyOp55
 70
     1
102
RTVSPropertyOp56
 70
     1
102
RTVSPropertyOp57
 70
     1
102
RTVSPropertyOp58
 70
     1
102
RTVSPropertyOp59
 70
     1
102
RTVSPropertyOp60
 70
     1
102
RTVSPropertyOp61
 70
     1
102
RTVSPropertyOp62
 70
     1
  0
ENDSEC
  0
EOF
