  0
SECTION
  2
HEADER
  9
$ACADVER
  1
AC1015
  9
$DWGCODEPAGE
  3
ANSI_932
  9
$LTSCALE
 40
20.0
  9
$FILLMODE
 70
     1
  9
$CLAYER
  8
0
  9
$PDMODE
 70
     0
  9
$SPLFRAME
 70
     0
  9
$SPLINETYPE
 70
     6
  9
$SPLINESEGS
 70
     8
  9
$DIMASZ
 40
2.000000
  9
$DIMEXE
 40
1.500000
  9
$DIMEXO
 40
0.800000
  9
$DIMTAD
 70
     1
  9
$DIMTIH
 70
     0
  9
$DIMTOH
 70
     0
  9
$DIMTVP
 40
0.500000
  9
$DIMTXT
 40
3.100000
  9
$EXTMIN
 10
0.000000
 20
0.000000
 30
0.000000
  9
$EXTMAX
 10
297.000000
 20
420.000000
 30
0.000000
  9
$MEASUREMENT
 70
  1
  9
$LIMMIN
 10
0.000000
 20
0.000000
  9
$LIMMAX
 10
297.000000
 20
420.000000
  9
$HANDSEED
  5
1E0
  9
$LWDISPLAY
290
     0
  9
$DIMBLK
  1
_OPEN
  9
$DIMDEC
 70
     2
  9
$DIMADEC
 70
     2
  9
$DIMAUNIT
 70
     0
  9
$DIMZIN
 70
     8
  9
$DIMAZIN
 70
     2
  9
$DIMTOFL
 70
     1
  0
ENDSEC
  0
SECTION
  2
CLASSES
  0
ENDSEC
  0
SECTION
  2
TABLES
  0
TABLE
  2
VPORT
  5
1AF
100
AcDbSymbolTable
 70
     1
  0
VPORT
  5
1B0
100
AcDbSymbolTableRecord
100
AcDbViewportTableRecord
  2
*ACTIVE
 70
     0
 12
248.250056
 22
281.500183
 40
527.000366
 41
0.904174
  0
ENDTAB
  0
TABLE
  2
LTYPE
  5
1B1
100
AcDbSymbolTable
 70
     3
  0
LTYPE
  5
1B2
100
AcDbSymbolTableRecord
100
AcDbLinetypeTableRecord
  2
BYBLOCK
 70
     0
  3

 72
    65
 73
     0
 40
0.0
  0
LTYPE
  5
1B3
100
AcDbSymbolTableRecord
100
AcDbLinetypeTableRecord
  2
BYLAYER
 70
     0
  3

 72
    65
 73
     0
 40
0.0
  0
LTYPE
  5
1B4
100
AcDbSymbolTableRecord
100
AcDbLinetypeTableRecord
  2
CONTINUOUS
 70
     0
  3
Solid line (NEC CAE2D for Win R16.0 : 2021.10.01)
 72
    65
 73
     0
 40
0.0
  0
LTYPE
  5
1B5
100
AcDbSymbolTableRecord
100
AcDbLinetypeTableRecord
  2
CENTER
 70
     0
  3
____ _ ____ _ ____ _ ____ _ ____ _ ____
 72
    65
 73
     4
 40
2.0
 49
1.25
 74
     0
 49
-0.25
 74
     0
 49
0.25
 74
     0
 49
-0.25
 74
     0
  0
LTYPE
  5
1B6
100
AcDbSymbolTableRecord
100
AcDbLinetypeTableRecord
  2
PHANTOM
 70
     0
  3
______  __  __  ______  __  __  ______ 
 72
    65
 73
     6
 40
2.5
 49
1.25
 74
     0
 49
-0.25
 74
     0
 49
0.25
 74
     0
 49
-0.25
 74
     0
 49
0.25
 74
     0
 49
-0.25
 74
     0
  0
ENDTAB
  0
TABLE
  2
LAYER
  5
1B7
100
AcDbSymbolTable
 70
    10
  0
LAYER
  5
1B8
100
AcDbSymbolTableRecord
100
AcDbLayerTableRecord
  2
0
 70
     0
 62
     7
  6
CONTINUOUS
370
    -3
390

  0
LAYER
  5
1B9
100
AcDbSymbolTableRecord
100
AcDbLayerTableRecord
  2
DXF0
 70
     0
 62
     7
  6
CONTINUOUS
370
    -3
390

  0
LAYER
  5
1BA
100
AcDbSymbolTableRecord
100
AcDbLayerTableRecord
  2
4
 70
     0
 62
     1
  6
CONTINUOUS
370
    -3
390

  0
LAYER
  5
1BB
100
AcDbSymbolTableRecord
100
AcDbLayerTableRecord
  2
5
 70
     0
 62
     6
  6
CONTINUOUS
370
    -3
390

  0
LAYER
  5
1BC
100
AcDbSymbolTableRecord
100
AcDbLayerTableRecord
  2
1
 70
     0
 62
     7
  6
CONTINUOUS
370
    -3
390

  0
LAYER
  5
1BD
100
AcDbSymbolTableRecord
100
AcDbLayerTableRecord
  2
2
 70
     0
 62
     4
  6
CONTINUOUS
370
    -3
390

  0
LAYER
  5
1BE
100
AcDbSymbolTableRecord
100
AcDbLayerTableRecord
  2
3
 70
     0
 62
     2
  6
CONTINUOUS
370
    -3
390

  0
LAYER
  5
1BF
100
AcDbSymbolTableRecord
100
AcDbLayerTableRecord
  2
6
 70
     0
 62
     5
  6
CONTINUOUS
370
    -3
390

  0
LAYER
  5
1C0
100
AcDbSymbolTableRecord
100
AcDbLayerTableRecord
  2
7
 70
     0
 62
     7
  6
CONTINUOUS
370
    -3
390

  0
LAYER
  5
1C1
100
AcDbSymbolTableRecord
100
AcDbLayerTableRecord
  2
DXF1023
 70
     0
 62
    16
  6
CONTINUOUS
370
    -3
390

  0
ENDTAB
  0
TABLE
  2
STYLE
  5
1C2
100
AcDbSymbolTable
 70
     4
  0
STYLE
  5
1C3
100
AcDbSymbolTableRecord
100
AcDbTextStyleTableRecord
  2
STANDARD
 70
    64
 40
0.0
 41
1.0
 50
0.0
 71
     0
 42
3.000000000000000
  3
TXT
  4

  0
STYLE
  5
1C4
100
AcDbSymbolTableRecord
100
AcDbTextStyleTableRecord
  2
ANKTATE
 70
    68
 40
0.0
 41
1.0
 50
0.0
 71
     0
 42
3.000000000000000
  3
TXT
  4

  0
STYLE
  5
1C5
100
AcDbSymbolTableRecord
100
AcDbTextStyleTableRecord
  2
KNJYOKO
 70
    64
 40
0.0
 41
1.0
 50
0.0
 71
     0
 42
3.000000000000000
  3
TXT
  4
BIGFONT
  0
STYLE
  5
1C6
100
AcDbSymbolTableRecord
100
AcDbTextStyleTableRecord
  2
KNJTATE
 70
    68
 40
0.0
 41
1.0
 50
0.0
 71
     0
 42
3.000000000000000
  3
TXT
  4
BIGFONT
  0
ENDTAB
  0
TABLE
  2
VIEW
  5
1C7
100
AcDbSymbolTable
 70
     0
  0
ENDTAB
  0
TABLE
  2
UCS
  5
1C8
100
AcDbSymbolTable
 70
     0
  0
ENDTAB
  0
TABLE
  2
APPID
  5
1C9
100
AcDbSymbolTable
 70
     1
  0
APPID
  5
1CA
100
AcDbSymbolTableRecord
100
AcDbRegAppTableRecord
  2
ACAD
 70
     0
  0
ENDTAB
  0
TABLE
  2
DIMSTYLE
  5
1CB
100
AcDbSymbolTable
 70
     2
100
AcDbDimStyleTable
  0
DIMSTYLE
105
1CC
100
AcDbSymbolTableRecord
100
AcDbDimStyleTableRecord
  2
STANDARD
 70
     0
 41
2.000000
 44
1.500000
 42
0.800000
145
0.661290
140
3.100000
144
1.000000
146
0.645161
340
1C3
  0
DIMSTYLE
105
1CD
100
AcDbSymbolTableRecord
100
AcDbDimStyleTableRecord
  2
DXF001
 70
     0
 41
2.000000
 44
1.500000
 42
0.800000
145
0.661290
140
3.100000
144
1.000000
146
0.645161
 77
     1
 73
     0
 74
     0
271
     2
179
     2
275
     0
 78
     8
 79
     2
172
     1
340
1C3
  0
ENDTAB
  0
TABLE
  2
BLOCK_RECORD
  5
1CE
100
AcDbSymbolTable
 70
    12
  0
BLOCK_RECORD
  5
1CF
100
AcDbSymbolTableRecord
100
AcDbBlockTableRecord
  2
*MODEL_SPACE
  0
BLOCK_RECORD
  5
1D0
100
AcDbSymbolTableRecord
100
AcDbBlockTableRecord
  2
*PAPER_SPACE
  0
BLOCK_RECORD
  5
1D1
100
AcDbSymbolTableRecord
100
AcDbBlockTableRecord
  2
*PAPER_SPACE0
  0
BLOCK_RECORD
  5
1
100
AcDbSymbolTableRecord
100
AcDbBlockTableRecord
  2
_NONE
  0
BLOCK_RECORD
  5
4
100
AcDbSymbolTableRecord
100
AcDbBlockTableRecord
  2
_CLOSED
  0
BLOCK_RECORD
  5
B
100
AcDbSymbolTableRecord
100
AcDbBlockTableRecord
  2
_DOT
  0
BLOCK_RECORD
  5
13
100
AcDbSymbolTableRecord
100
AcDbBlockTableRecord
  2
_OPEN
  0
BLOCK_RECORD
  5
19
100
AcDbSymbolTableRecord
100
AcDbBlockTableRecord
  2
_ORIGIN
  0
BLOCK_RECORD
  5
1E
100
AcDbSymbolTableRecord
100
AcDbBlockTableRecord
  2
_OPEN30
  0
BLOCK_RECORD
  5
24
100
AcDbSymbolTableRecord
100
AcDbBlockTableRecord
  2
_BOXFILLED
  0
BLOCK_RECORD
  5
29
100
AcDbSymbolTableRecord
100
AcDbBlockTableRecord
  2
_BOXBLANK
  0
BLOCK_RECORD
  5
31
100
AcDbSymbolTableRecord
100
AcDbBlockTableRecord
  2
_OBLIQUE
  0
BLOCK_RECORD
  5
35
100
AcDbSymbolTableRecord
100
AcDbBlockTableRecord
  2
_OPEN90
  0
BLOCK_RECORD
  5
3B
100
AcDbSymbolTableRecord
100
AcDbBlockTableRecord
  2
_CLOSEDBLANK
  0
BLOCK_RECORD
  5
41
100
AcDbSymbolTableRecord
100
AcDbBlockTableRecord
  2
_DOTBLANK
  0
ENDTAB
  0
ENDSEC
  0
SECTION
  2
BLOCKS
  0
BLOCK
  5
1D2
100
AcDbEntity
  8
0
100
AcDbBlockBegin
  2
*MODEL_SPACE
 70
     0
 10
0.0
 20
0.0
 30
0.0
  3
*MODEL_SPACE
  1

  0
ENDBLK
  5
1D3
100
AcDbEntity
  8
0
100
AcDbBlockEnd
  0
BLOCK
  5
1D4
100
AcDbEntity
  8
0
100
AcDbBlockBegin
  2
*PAPER_SPACE
 70
     0
 10
0.0
 20
0.0
 30
0.0
  3
*PAPER_SPACE
  1

  0
ENDBLK
  5
1D5
100
AcDbEntity
  8
0
100
AcDbBlockEnd
  0
BLOCK
  5
1D6
100
AcDbEntity
  8
0
100
AcDbBlockBegin
  2
*PAPER_SPACE0
 70
     0
 10
0.0
 20
0.0
 30
0.0
  3
*PAPER_SPACE0
  1

  0
ENDBLK
  5
1D7
100
AcDbEntity
  8
0
100
AcDbBlockEnd
  0
BLOCK
  5
2
330
1
100
AcDbEntity
  8
0
100
AcDbBlockBegin
  2
_NONE
 70
     0
 10
0.0
 20
0.0
 30
0.0
  3
_NONE
  1

  0
ENDBLK
  5
3
330
1
100
AcDbEntity
  8
0
100
AcDbBlockEnd
  0
BLOCK
  5
5
330
4
100
AcDbEntity
  8
0
100
AcDbBlockBegin
  2
_CLOSED
 70
     0
 10
0.0
 20
0.0
 30
0.0
  3
_CLOSED
  1

  0
LINE
  5
6
330
4
100
AcDbEntity
  8
0
  6
BYBLOCK
 62
     0
370
    -2
100
AcDbLine
 10
-1.0
 20
0.166667
 30
0.0
 11
0.0
 21
0.0
 31
0.0
  0
LINE
  5
7
330
4
100
AcDbEntity
  8
0
  6
BYBLOCK
 62
     0
370
    -2
100
AcDbLine
 10
0.0
 20
0.0
 30
0.0
 11
-1.0
 21
-0.166667
 31
0.0
  0
LINE
  5
8
330
4
100
AcDbEntity
  8
0
  6
BYBLOCK
 62
     0
370
    -2
100
AcDbLine
 10
-1.0
 20
0.166667
 30
0.0
 11
-1.0
 21
-0.166667
 31
0.0
  0
LINE
  5
9
330
4
100
AcDbEntity
  8
0
  6
BYBLOCK
 62
     0
370
    -2
100
AcDbLine
 10
0.0
 20
0.0
 30
0.0
 11
-1.0
 21
0.0
 31
0.0
  0
ENDBLK
  5
A
330
4
100
AcDbEntity
  8
0
100
AcDbBlockEnd
  0
BLOCK
  5
C
330
B
100
AcDbEntity
  8
0
100
AcDbBlockBegin
  2
_DOT
 70
     0
 10
0.0
 20
0.0
 30
0.0
  3
_DOT
  1

  0
POLYLINE
  5
D
330
B
100
AcDbEntity
  8
0
  6
BYBLOCK
 62
     0
370
    -2
100
AcDb2dPolyline
 66
     1
 10
0.0
 20
0.0
 30
0.0
 70
     1
 40
0.5
 41
0.5
  0
VERTEX
  5
E
330
B
100
AcDbEntity
  8
0
  6
BYBLOCK
 62
     0
370
    -2
100
AcDbVertex
100
AcDb2dVertex
 10
-0.25
 20
0.0
 30
0.0
 42
1.0
  0
VERTEX
  5
F
330
B
100
AcDbEntity
  8
0
  6
BYBLOCK
 62
     0
370
    -2
100
AcDbVertex
100
AcDb2dVertex
 10
0.25
 20
0.0
 30
0.0
 42
1.0
  0
SEQEND
  5
10
330
B
100
AcDbEntity
  8
0
  6
BYBLOCK
 62
     0
370
    -2
  0
LINE
  5
11
330
B
100
AcDbEntity
  8
0
  6
BYBLOCK
 62
     0
370
    -2
100
AcDbLine
 10
-0.5
 20
0.0
 30
0.0
 11
-1.0
 21
0.0
 31
0.0
  0
ENDBLK
  5
12
330
B
100
AcDbEntity
  8
0
100
AcDbBlockEnd
  0
BLOCK
  5
14
330
13
100
AcDbEntity
  8
0
100
AcDbBlockBegin
  2
_OPEN
 70
     0
 10
0.0
 20
0.0
 30
0.0
  3
_OPEN
  1

  0
LINE
  5
15
330
13
100
AcDbEntity
  8
0
  6
BYBLOCK
 62
     0
370
    -2
100
AcDbLine
 10
-1.0
 20
0.166667
 30
0.0
 11
0.0
 21
0.0
 31
0.0
  0
LINE
  5
16
330
13
100
AcDbEntity
  8
0
  6
BYBLOCK
 62
     0
370
    -2
100
AcDbLine
 10
0.0
 20
0.0
 30
0.0
 11
-1.0
 21
-0.166667
 31
0.0
  0
LINE
  5
17
330
13
100
AcDbEntity
  8
0
  6
BYBLOCK
 62
     0
370
    -2
100
AcDbLine
 10
0.0
 20
0.0
 30
0.0
 11
-1.0
 21
0.0
 31
0.0
  0
ENDBLK
  5
18
330
13
100
AcDbEntity
  8
0
100
AcDbBlockEnd
  0
BLOCK
  5
1A
330
19
100
AcDbEntity
  8
0
100
AcDbBlockBegin
  2
_ORIGIN
 70
     0
 10
0.0
 20
0.0
 30
0.0
  3
_ORIGIN
  1

  0
CIRCLE
  5
1B
330
19
100
AcDbEntity
  8
0
  6
BYBLOCK
 62
     0
370
    -2
100
AcDbCircle
 10
0.0
 20
0.0
 30
0.0
 40
0.5
  0
LINE
  5
1C
330
19
100
AcDbEntity
  8
0
  6
BYBLOCK
 62
     0
370
    -2
100
AcDbLine
 10
0.0
 20
0.0
 30
0.0
 11
-1.0
 21
0.0
 31
0.0
  0
ENDBLK
  5
1D
330
19
100
AcDbEntity
  8
0
100
AcDbBlockEnd
  0
BLOCK
  5
1F
330
1E
100
AcDbEntity
  8
0
100
AcDbBlockBegin
  2
_OPEN30
 70
     0
 10
0.0
 20
0.0
 30
0.0
  3
_OPEN30
  1

  0
LINE
  5
20
330
1E
100
AcDbEntity
  8
0
  6
BYBLOCK
 62
     0
370
    -2
100
AcDbLine
 10
-1.0
 20
0.267949
 30
0.0
 11
0.0
 21
0.0
 31
0.0
  0
LINE
  5
21
330
1E
100
AcDbEntity
  8
0
  6
BYBLOCK
 62
     0
370
    -2
100
AcDbLine
 10
0.0
 20
0.0
 30
0.0
 11
-1.0
 21
-0.267949
 31
0.0
  0
LINE
  5
22
330
1E
100
AcDbEntity
  8
0
  6
BYBLOCK
 62
     0
370
    -2
100
AcDbLine
 10
0.0
 20
0.0
 30
0.0
 11
-1.0
 21
0.0
 31
0.0
  0
ENDBLK
  5
23
330
1E
100
AcDbEntity
  8
0
100
AcDbBlockEnd
  0
BLOCK
  5
25
330
24
100
AcDbEntity
  8
0
100
AcDbBlockBegin
  2
_BOXFILLED
 70
     0
 10
0.0
 20
0.0
 30
0.0
  3
_BOXFILLED
  1

  0
SOLID
  5
26
330
24
100
AcDbEntity
  8
0
  6
BYBLOCK
 62
     0
370
    -2
100
AcDbTrace
 10
-0.5
 20
0.5
 30
0.0
 11
0.5
 21
0.5
 31
0.0
 12
-0.5
 22
-0.5
 32
0.0
 13
0.5
 23
-0.5
 33
0.0
  0
LINE
  5
27
330
24
100
AcDbEntity
  8
0
  6
BYBLOCK
 62
     0
370
    -2
100
AcDbLine
 10
-0.5
 20
0.0
 30
0.0
 11
-1.0
 21
0.0
 31
0.0
  0
ENDBLK
  5
28
330
24
100
AcDbEntity
  8
0
100
AcDbBlockEnd
  0
BLOCK
  5
2A
330
29
100
AcDbEntity
  8
0
100
AcDbBlockBegin
  2
_BOXBLANK
 70
     0
 10
0.0
 20
0.0
 30
0.0
  3
_BOXBLANK
  1

  0
LINE
  5
2B
330
29
100
AcDbEntity
  8
0
  6
BYBLOCK
 62
     0
370
    -2
100
AcDbLine
 10
-0.5
 20
-0.5
 30
0.0
 11
0.5
 21
-0.5
 31
0.0
  0
LINE
  5
2C
330
29
100
AcDbEntity
  8
0
  6
BYBLOCK
 62
     0
370
    -2
100
AcDbLine
 10
0.5
 20
-0.5
 30
0.0
 11
0.5
 21
0.5
 31
0.0
  0
LINE
  5
2D
330
29
100
AcDbEntity
  8
0
  6
BYBLOCK
 62
     0
370
    -2
100
AcDbLine
 10
0.5
 20
0.5
 30
0.0
 11
-0.5
 21
0.5
 31
0.0
  0
LINE
  5
2E
330
29
100
AcDbEntity
  8
0
  6
BYBLOCK
 62
     0
370
    -2
100
AcDbLine
 10
-0.5
 20
0.5
 30
0.0
 11
-0.5
 21
-0.5
 31
0.0
  0
LINE
  5
2F
330
29
100
AcDbEntity
  8
0
  6
BYBLOCK
 62
     0
370
    -2
100
AcDbLine
 10
-0.5
 20
0.0
 30
0.0
 11
-1.0
 21
0.0
 31
0.0
  0
ENDBLK
  5
30
330
29
100
AcDbEntity
  8
0
100
AcDbBlockEnd
  0
BLOCK
  5
32
330
31
100
AcDbEntity
  8
0
100
AcDbBlockBegin
  2
_OBLIQUE
 70
     0
 10
0.0
 20
0.0
 30
0.0
  3
_OBLIQUE
  1

  0
LINE
  5
33
330
31
100
AcDbEntity
  8
0
  6
BYBLOCK
 62
     0
370
    -2
100
AcDbLine
 10
-0.5
 20
-0.5
 30
0.0
 11
0.5
 21
0.5
 31
0.0
  0
ENDBLK
  5
34
330
31
100
AcDbEntity
  8
0
100
AcDbBlockEnd
  0
BLOCK
  5
36
330
35
100
AcDbEntity
  8
0
100
AcDbBlockBegin
  2
_OPEN90
 70
     0
 10
0.0
 20
0.0
 30
0.0
  3
_OPEN90
  1

  0
LINE
  5
37
330
35
100
AcDbEntity
  8
0
  6
BYBLOCK
 62
     0
370
    -2
100
AcDbLine
 10
-0.5
 20
0.5
 30
0.0
 11
0.0
 21
0.0
 31
0.0
  0
LINE
  5
38
330
35
100
AcDbEntity
  8
0
  6
BYBLOCK
 62
     0
370
    -2
100
AcDbLine
 10
0.0
 20
0.0
 30
0.0
 11
-0.5
 21
-0.5
 31
0.0
  0
LINE
  5
39
330
35
100
AcDbEntity
  8
0
  6
BYBLOCK
 62
     0
370
    -2
100
AcDbLine
 10
0.0
 20
0.0
 30
0.0
 11
-1.0
 21
0.0
 31
0.0
  0
ENDBLK
  5
3A
330
35
100
AcDbEntity
  8
0
100
AcDbBlockEnd
  0
BLOCK
  5
3C
330
3B
100
AcDbEntity
  8
0
100
AcDbBlockBegin
  2
_CLOSEDBLANK
 70
     0
 10
0.0
 20
0.0
 30
0.0
  3
_CLOSEDBLANK
  1

  0
LINE
  5
3D
330
3B
100
AcDbEntity
  8
0
  6
BYBLOCK
 62
     0
370
    -2
100
AcDbLine
 10
-1.0
 20
0.1666666666666666
 30
0.0
 11
0.0
 21
0.0
 31
0.0
  0
LINE
  5
3E
330
3B
100
AcDbEntity
  8
0
  6
BYBLOCK
 62
     0
370
    -2
100
AcDbLine
 10
0.0
 20
0.0
 30
0.0
 11
-1.0
 21
-0.1666666666666666
 31
0.0
  0
LINE
  5
3F
330
3B
100
AcDbEntity
  8
0
  6
BYBLOCK
 62
     0
370
    -2
100
AcDbLine
 10
-1.0
 20
0.1666666666666666
 30
0.0
 11
-1.0
 21
-0.1666666666666666
 31
0.0
  0
ENDBLK
  5
40
330
3B
100
AcDbEntity
  8
0
100
AcDbBlockEnd
  0
BLOCK
  5
42
330
41
100
AcDbEntity
  8
0
100
AcDbBlockBegin
  2
_DOTBLANK
 70
     0
 10
0.0
 20
0.0
 30
0.0
  3
_DOTBLANK
  1

  0
CIRCLE
  5
43
330
41
100
AcDbEntity
  8
0
  6
BYBLOCK
 62
     0
370
    -2
100
AcDbCircle
 10
0.0
 20
0.0
 30
0.0
 40
0.5
  0
LINE
  5
44
330
41
100
AcDbEntity
  8
0
  6
BYBLOCK
 62
     0
370
    -2
100
AcDbLine
 10
-0.5
 20
0.0
 30
0.0
 11
-1.0
 21
0.0
 31
0.0
  0
ENDBLK
  5
45
330
41
100
AcDbEntity
  8
0
100
AcDbBlockEnd
  0
ENDSEC
  0
SECTION
  2
ENTITIES
  0
LINE
  5
46
100
AcDbEntity
  8
4
  6
CENTER
 62
1
100
AcDbLine
 10
464.5000610000000
 20
426.0003659999998
 30
0.000000000000000
 11
478.2000430000000
 21
426.0003659999998
 31
0.000000000000000
  0
LINE
  5
47
100
AcDbEntity
  8
1
  6
CONTINUOUS
 62
7
100
AcDbLine
 10
470.0000610000000
 20
433.0003660000000
 30
0.000000000000000
 11
473.0000610000000
 21
433.0003660000000
 31
0.000000000000000
  0
LINE
  5
48
100
AcDbEntity
  8
1
  6
CONTINUOUS
 62
7
100
AcDbLine
 10
67.00000000000000
 20
130.0003659999999
 30
0.000000000000000
 11
31.00000000000000
 21
130.0003659999999
 31
0.000000000000000
  0
LINE
  5
49
100
AcDbEntity
  8
4
  6
CENTER
 62
1
100
AcDbLine
 10
166.4999540000000
 20
521.0003659999999
 30
0.000000000000000
 11
202.9999539999999
 21
521.0003659999999
 31
0.000000000000000
  0
LINE
  5
4A
100
AcDbEntity
  8
4
  6
CENTER
 62
1
100
AcDbLine
 10
64.00000000000000
 20
131.1503749999999
 30
0.000000000000000
 11
64.00000000000000
 21
140.8503719999998
 31
0.000000000000000
  0
LINE
  5
4B
100
AcDbEntity
  8
4
  6
CENTER
 62
1
100
AcDbLine
 10
34.00000000000000
 20
131.1503749999999
 30
0.000000000000000
 11
34.00000000000000
 21
140.8503719999998
 31
0.000000000000000
  0
LINE
  5
4C
100
AcDbEntity
  8
1
  6
CONTINUOUS
 62
7
100
AcDbLine
 10
39.50000000000000
 20
148.0003659999999
 30
0.000000000000000
 11
58.50000000000000
 21
148.0003659999999
 31
0.000000000000000
  0
LINE
  5
4D
100
AcDbEntity
  8
1
  6
CONTINUOUS
 62
7
100
AcDbLine
 10
192.9999540000000
 20
512.5003659999999
 30
0.000000000000000
 11
192.9999540000000
 21
529.5003659999999
 31
0.000000000000000
  0
LINE
  5
4E
100
AcDbEntity
  8
1
  6
CONTINUOUS
 62
7
100
AcDbLine
 10
38.14288299999998
 20
284.4543150000000
 30
0.000000000000000
 11
39.49999200000001
 21
284.9429020000000
 31
0.000000000000000
  0
LINE
  5
4F
100
AcDbEntity
  8
1
  6
CONTINUOUS
 62
7
100
AcDbLine
 10
475.2000429999998
 20
421.7683110000000
 30
0.000000000000000
 11
475.2000429999998
 21
430.2324220000000
 31
0.000000000000000
  0
LINE
  5
50
100
AcDbEntity
  8
1
  6
CONTINUOUS
 62
7
100
AcDbLine
 10
34.00000000000000
 20
446.0003659999999
 30
0.000000000000000
 11
34.00000000000000
 21
444.5003660000000
 31
0.000000000000000
  0
LINE
  5
51
100
AcDbEntity
  8
1
  6
CONTINUOUS
 62
7
100
AcDbLine
 10
38.31349600000000
 20
444.3803410000000
 30
0.000000000000000
 11
42.12749500000000
 21
424.6704710000000
 31
0.000000000000000
  0
LINE
  5
52
100
AcDbEntity
  8
1
  6
CONTINUOUS
 62
7
100
AcDbLine
 10
64.00000000000000
 20
444.5003660000000
 30
0.000000000000000
 11
64.00000000000000
 21
446.0003659999999
 31
0.000000000000000
  0
LINE
  5
53
100
AcDbEntity
  8
1
  6
CONTINUOUS
 62
7
100
AcDbLine
 10
55.87214999999999
 20
424.6686399999998
 30
0.000000000000000
 11
59.68650799999998
 21
444.3803410000000
 31
0.000000000000000
  0
LINE
  5
54
100
AcDbEntity
  8
1
  6
CONTINUOUS
 62
7
100
AcDbLine
 10
469.2500610000000
 20
431.5003660000000
 30
0.000000000000000
 11
469.0000610000000
 21
431.5003660000000
 31
0.000000000000000
  0
LINE
  5
55
100
AcDbEntity
  8
1
  6
CONTINUOUS
 62
7
100
AcDbLine
 10
469.2500610000000
 20
420.5003660000000
 30
0.000000000000000
 11
469.0000610000000
 21
420.5003660000000
 31
0.000000000000000
  0
LINE
  5
56
100
AcDbEntity
  8
1
  6
CONTINUOUS
 62
7
100
AcDbLine
 10
58.50000000000000
 20
148.0003659999999
 30
0.000000000000000
 11
58.50000000000000
 21
314.0003660000000
 31
0.000000000000000
  0
LINE
  5
57
100
AcDbEntity
  8
1
  6
CONTINUOUS
 62
7
100
AcDbLine
 10
39.50000000000000
 20
148.0003659999999
 30
0.000000000000000
 11
39.50000000000000
 21
314.0003660000000
 31
0.000000000000000
  0
LINE
  5
58
100
AcDbEntity
  8
1
  6
CONTINUOUS
 62
7
100
AcDbLine
 10
39.50000000000000
 20
314.0003660000000
 30
0.000000000000000
 11
58.50000000000000
 21
314.0003660000000
 31
0.000000000000000
  0
LINE
  5
59
100
AcDbEntity
  8
1
  6
CONTINUOUS
 62
7
100
AcDbLine
 10
55.00000000000000
 20
314.0003660000000
 30
0.000000000000000
 11
55.00000000000000
 21
429.6059269999998
 31
0.000000000000000
  0
LINE
  5
5A
100
AcDbEntity
  8
1
  6
CONTINUOUS
 62
7
100
AcDbLine
 10
43.00000000000000
 20
314.0003660000000
 30
0.000000000000000
 11
43.00000000000000
 21
429.6059269999998
 31
0.000000000000000
  0
LINE
  5
5B
100
AcDbEntity
  8
1
  6
CONTINUOUS
 62
7
100
AcDbLine
 10
64.00000000000000
 20
446.0003659999999
 30
0.000000000000000
 11
34.00000000000000
 21
446.0003659999999
 31
0.000000000000000
  0
LINE
  5
5C
100
AcDbEntity
  8
1
  6
CONTINUOUS
 62
7
100
AcDbLine
 10
64.00000000000000
 20
444.5003660000000
 30
0.000000000000000
 11
34.00000000000000
 21
444.5003660000000
 31
0.000000000000000
  0
LINE
  5
5D
100
AcDbEntity
  8
5
  6
PHANTOM
 62
1
100
AcDbLine
 10
34.00000000000000
 20
346.0003659999999
 30
0.000000000000000
 11
34.00000000000000
 21
344.5003659999999
 31
0.000000000000000
  0
LINE
  5
5E
100
AcDbEntity
  8
5
  6
PHANTOM
 62
1
100
AcDbLine
 10
38.31349200000000
 20
344.3803410000000
 30
0.000000000000000
 11
42.12749500000000
 21
324.6704710000001
 31
0.000000000000000
  0
LINE
  5
5F
100
AcDbEntity
  8
5
  6
PHANTOM
 62
1
100
AcDbLine
 10
64.00000000000000
 20
344.5003659999999
 30
0.000000000000000
 11
64.00000000000000
 21
346.0003659999999
 31
0.000000000000000
  0
LINE
  5
60
100
AcDbEntity
  8
5
  6
PHANTOM
 62
1
100
AcDbLine
 10
64.00000000000000
 20
346.0003659999999
 30
0.000000000000000
 11
34.00000000000000
 21
346.0003659999999
 31
0.000000000000000
  0
LINE
  5
61
100
AcDbEntity
  8
5
  6
PHANTOM
 62
1
100
AcDbLine
 10
64.00000000000000
 20
344.5003659999999
 30
0.000000000000000
 11
34.00000000000000
 21
344.5003659999999
 31
0.000000000000000
  0
LINE
  5
62
100
AcDbEntity
  8
5
  6
PHANTOM
 62
1
100
AcDbLine
 10
59.68650799999998
 20
344.3803410000000
 30
0.000000000000000
 11
55.87250899999998
 21
324.6705019999999
 31
0.000000000000000
  0
LINE
  5
63
100
AcDbEntity
  8
4
  6
CENTER
 62
1
100
AcDbLine
 10
59.00000000000000
 20
441.5003659999999
 30
0.000000000000000
 11
59.00000000000000
 21
449.0003660000000
 31
0.000000000000000
  0
LINE
  5
64
100
AcDbEntity
  8
4
  6
CENTER
 62
1
100
AcDbLine
 10
39.00000000000000
 20
441.5003659999999
 30
0.000000000000000
 11
39.00000000000000
 21
449.0003660000000
 31
0.000000000000000
  0
LINE
  5
65
100
AcDbEntity
  8
4
  6
CENTER
 62
1
100
AcDbLine
 10
59.00000000000000
 20
341.5003659999999
 30
0.000000000000000
 11
59.00000000000000
 21
349.0003659999999
 31
0.000000000000000
  0
LINE
  5
66
100
AcDbEntity
  8
4
  6
CENTER
 62
1
100
AcDbLine
 10
39.00000000000000
 20
341.5003659999999
 30
0.000000000000000
 11
39.00000000000000
 21
349.0003659999999
 31
0.000000000000000
  0
LINE
  5
67
100
AcDbEntity
  8
1
  6
CONTINUOUS
 62
7
100
AcDbLine
 10
474.0000610000000
 20
148.0003659999999
 30
0.000000000000000
 11
474.0000610000000
 21
314.0003660000000
 31
0.000000000000000
  0
LINE
  5
68
100
AcDbEntity
  8
1
  6
CONTINUOUS
 62
7
100
AcDbLine
 10
474.0000610000000
 20
148.0003659999999
 30
0.000000000000000
 11
464.0000610000000
 21
148.0003659999999
 31
0.000000000000000
  0
LINE
  5
69
100
AcDbEntity
  8
1
  6
CONTINUOUS
 62
7
100
AcDbLine
 10
474.0000610000000
 20
314.0003660000000
 30
0.000000000000000
 11
464.0000610000000
 21
314.0003660000000
 31
0.000000000000000
  0
LINE
  5
6A
100
AcDbEntity
  8
1
  6
CONTINUOUS
 62
7
100
AcDbLine
 10
461.5000610000000
 20
130.0003659999999
 30
0.000000000000000
 11
460.0000610000000
 21
130.0003659999999
 31
0.000000000000000
  0
LINE
  5
6B
100
AcDbEntity
  8
1
  6
CONTINUOUS
 62
7
100
AcDbLine
 10
461.5000610000000
 20
164.0003659999998
 30
0.000000000000000
 11
460.0000610000000
 21
164.0003659999998
 31
0.000000000000000
  0
LINE
  5
6C
100
AcDbEntity
  8
1
  6
CONTINUOUS
 62
7
100
AcDbLine
 10
460.0000610000000
 20
130.0003659999999
 30
0.000000000000000
 11
460.0000610000000
 21
164.0003659999998
 31
0.000000000000000
  0
LINE
  5
6D
100
AcDbEntity
  8
1
  6
CONTINUOUS
 62
7
100
AcDbLine
 10
461.5000610000000
 20
130.0003659999999
 30
0.000000000000000
 11
461.5000610000000
 21
164.0003659999998
 31
0.000000000000000
  0
LINE
  5
6E
100
AcDbEntity
  8
4
  6
CENTER
 62
1
100
AcDbLine
 10
22.00000000000000
 20
136.0003659999998
 30
0.000000000000000
 11
76.00000000000000
 21
136.0003659999998
 31
0.000000000000000
  0
LINE
  5
6F
100
AcDbEntity
  8
1
  6
CONTINUOUS
 62
7
100
AcDbLine
 10
193.9999540000000
 20
512.5003659999999
 30
0.000000000000000
 11
193.9999540000000
 21
529.5003659999999
 31
0.000000000000000
  0
LINE
  5
70
100
AcDbEntity
  8
1
  6
CONTINUOUS
 62
7
100
AcDbLine
 10
196.4999539999998
 20
497.0003659999998
 30
0.000000000000000
 11
197.9999540000000
 21
497.0003659999998
 31
0.000000000000000
  0
LINE
  5
71
100
AcDbEntity
  8
1
  6
CONTINUOUS
 62
7
100
AcDbLine
 10
196.4999539999998
 20
545.0003660000000
 30
0.000000000000000
 11
197.9999540000000
 21
545.0003660000000
 31
0.000000000000000
  0
LINE
  5
72
100
AcDbEntity
  8
1
  6
CONTINUOUS
 62
7
100
AcDbLine
 10
197.9999540000000
 20
545.0003660000000
 30
0.000000000000000
 11
197.9999540000000
 21
497.0003659999998
 31
0.000000000000000
  0
LINE
  5
73
100
AcDbEntity
  8
1
  6
CONTINUOUS
 62
7
100
AcDbLine
 10
196.4999539999998
 20
545.0003660000000
 30
0.000000000000000
 11
196.4999539999998
 21
497.0003659999998
 31
0.000000000000000
  0
LINE
  5
74
100
AcDbEntity
  8
4
  6
CENTER
 62
1
100
AcDbLine
 10
469.0000610000000
 20
145.0003659999999
 30
0.000000000000000
 11
469.0000610000000
 21
317.0003659999999
 31
0.000000000000000
  0
LINE
  5
75
100
AcDbEntity
  8
1
  6
CONTINUOUS
 62
7
100
AcDbLine
 10
470.8000489999998
 20
299.0003659999999
 30
0.000000000000000
 11
467.2000429999997
 21
299.0003659999999
 31
0.000000000000000
  0
LINE
  5
76
100
AcDbEntity
  8
1
  6
CONTINUOUS
 62
7
100
AcDbLine
 10
470.8000489999998
 20
281.0003659999999
 30
0.000000000000000
 11
467.2000429999997
 21
281.0003659999999
 31
0.000000000000000
  0
LINE
  5
77
100
AcDbEntity
  8
1
  6
CONTINUOUS
 62
7
100
AcDbLine
 10
470.8000489999998
 20
281.0003659999999
 30
0.000000000000000
 11
470.8000489999998
 21
299.0003659999999
 31
0.000000000000000
  0
LINE
  5
78
100
AcDbEntity
  8
1
  6
CONTINUOUS
 62
7
100
AcDbLine
 10
467.2000429999997
 20
281.0003659999999
 30
0.000000000000000
 11
467.2000429999997
 21
299.0003659999999
 31
0.000000000000000
  0
LINE
  5
79
100
AcDbEntity
  8
1
  6
CONTINUOUS
 62
7
100
AcDbLine
 10
470.0000610000000
 20
299.0003659999999
 30
0.000000000000000
 11
470.0000610000000
 21
281.0003659999999
 31
0.000000000000000
  0
LINE
  5
7A
100
AcDbEntity
  8
4
  6
CENTER
 62
1
100
AcDbLine
 10
456.9219359999998
 20
156.0003659999999
 30
0.000000000000000
 11
472.2500609999998
 21
156.0003659999999
 31
0.000000000000000
  0
LINE
  5
7B
100
AcDbEntity
  8
1
  6
CONTINUOUS
 62
7
100
AcDbLine
 10
469.9000550000000
 20
289.3813779999998
 30
0.000000000000000
 11
468.1000369999998
 21
289.3813779999998
 31
0.000000000000000
  0
LINE
  5
7C
100
AcDbEntity
  8
1
  6
CONTINUOUS
 62
7
100
AcDbLine
 10
469.9000550000000
 20
281.0003659999999
 30
0.000000000000000
 11
469.9000550000000
 21
289.3813779999998
 31
0.000000000000000
  0
LINE
  5
7D
100
AcDbEntity
  8
1
  6
CONTINUOUS
 62
7
100
AcDbLine
 10
468.1000369999998
 20
281.0003659999999
 30
0.000000000000000
 11
468.1000369999998
 21
289.3813779999998
 31
0.000000000000000
  0
LINE
  5
7E
100
AcDbEntity
  8
1
  6
CONTINUOUS
 62
7
100
AcDbLine
 10
464.0000610000000
 20
148.0003659999999
 30
0.000000000000000
 11
464.0000610000000
 21
314.0003660000000
 31
0.000000000000000
  0
LINE
  5
7F
100
AcDbEntity
  8
1
  6
CONTINUOUS
 62
7
100
AcDbLine
 10
470.0000610000000
 20
314.0003660000000
 30
0.000000000000000
 11
470.0000610000000
 21
433.0003660000000
 31
0.000000000000000
  0
LINE
  5
80
100
AcDbEntity
  8
1
  6
CONTINUOUS
 62
7
100
AcDbLine
 10
473.0000610000000
 20
314.0003660000000
 30
0.000000000000000
 11
473.0000610000000
 21
433.0003660000000
 31
0.000000000000000
  0
LINE
  5
81
100
AcDbEntity
  8
1
  6
CONTINUOUS
 62
7
100
AcDbLine
 10
190.4999540000000
 20
511.5003660000000
 30
0.000000000000000
 11
192.9999540000000
 21
511.5003660000000
 31
0.000000000000000
  0
LINE
  5
82
100
AcDbEntity
  8
1
  6
CONTINUOUS
 62
7
100
AcDbLine
 10
190.4999540000000
 20
512.5003659999999
 30
0.000000000000000
 11
192.9999540000000
 21
512.5003659999999
 31
0.000000000000000
  0
LINE
  5
83
100
AcDbEntity
  8
4
  6
CENTER
 62
1
100
AcDbLine
 10
35.54634099999999
 20
306.0003660000000
 30
0.000000000000000
 11
62.45365899999999
 21
306.0003660000000
 31
0.000000000000000
  0
LINE
  5
84
100
AcDbEntity
  8
1
  6
CONTINUOUS
 62
7
100
AcDbLine
 10
39.00000000000000
 20
302.7503659999999
 30
0.000000000000000
 11
39.50000000000000
 21
302.7503659999999
 31
0.000000000000000
  0
LINE
  5
85
100
AcDbEntity
  8
1
  6
CONTINUOUS
 62
7
100
AcDbLine
 10
39.00000000000000
 20
309.2503659999999
 30
0.000000000000000
 11
39.50000000000000
 21
309.2503659999999
 31
0.000000000000000
  0
LINE
  5
86
100
AcDbEntity
  8
1
  6
CONTINUOUS
 62
7
100
AcDbLine
 10
39.00000000000000
 20
302.7503659999999
 30
0.000000000000000
 11
39.00000000000000
 21
309.2503659999999
 31
0.000000000000000
  0
LINE
  5
87
100
AcDbEntity
  8
1
  6
CONTINUOUS
 62
7
100
AcDbLine
 10
38.54634100000000
 20
305.0003659999999
 30
0.000000000000000
 11
38.54634100000000
 21
307.0003659999999
 31
0.000000000000000
  0
LINE
  5
88
100
AcDbEntity
  8
1
  6
CONTINUOUS
 62
7
100
AcDbLine
 10
59.00000000000000
 20
302.7503659999999
 30
0.000000000000000
 11
58.50000000000000
 21
302.7503659999999
 31
0.000000000000000
  0
LINE
  5
89
100
AcDbEntity
  8
1
  6
CONTINUOUS
 62
7
100
AcDbLine
 10
59.00000000000000
 20
309.2503659999999
 30
0.000000000000000
 11
58.50000000000000
 21
309.2503659999999
 31
0.000000000000000
  0
LINE
  5
8A
100
AcDbEntity
  8
1
  6
CONTINUOUS
 62
7
100
AcDbLine
 10
59.00000000000000
 20
302.7503659999999
 30
0.000000000000000
 11
59.00000000000000
 21
309.2503659999999
 31
0.000000000000000
  0
LINE
  5
8B
100
AcDbEntity
  8
1
  6
CONTINUOUS
 62
7
100
AcDbLine
 10
59.45365899999998
 20
305.0003659999999
 30
0.000000000000000
 11
59.45365899999998
 21
307.0003659999999
 31
0.000000000000000
  0
LINE
  5
8C
100
AcDbEntity
  8
4
  6
CENTER
 62
1
100
AcDbLine
 10
464.2500609999998
 20
306.0003660000000
 30
0.000000000000000
 11
473.7500610000000
 21
306.0003660000000
 31
0.000000000000000
  0
LINE
  5
8D
100
AcDbEntity
  8
4
  6
CENTER
 62
1
100
AcDbLine
 10
188.9999539999998
 20
534.4539789999998
 30
0.000000000000000
 11
188.9999539999998
 21
507.5466920000000
 31
0.000000000000000
  0
LINE
  5
8E
100
AcDbEntity
  8
1
  6
CONTINUOUS
 62
7
100
AcDbLine
 10
192.2499540000000
 20
531.0003659999998
 30
0.000000000000000
 11
192.2499540000000
 21
530.5003659999998
 31
0.000000000000000
  0
LINE
  5
8F
100
AcDbEntity
  8
1
  6
CONTINUOUS
 62
7
100
AcDbLine
 10
192.2499540000000
 20
511.0003660000000
 30
0.000000000000000
 11
192.2499540000000
 21
511.5003660000000
 31
0.000000000000000
  0
LINE
  5
90
100
AcDbEntity
  8
1
  6
CONTINUOUS
 62
7
100
AcDbLine
 10
31.60310900000001
 20
142.0003659999999
 30
0.000000000000000
 11
31.00000000000000
 21
142.0003659999999
 31
0.000000000000000
  0
LINE
  5
91
100
AcDbEntity
  8
1
  6
CONTINUOUS
 62
7
100
AcDbLine
 10
63.69597199999998
 20
143.6944269999998
 30
0.000000000000000
 11
58.50000399999996
 21
154.6420900000000
 31
0.000000000000000
  0
LINE
  5
92
100
AcDbEntity
  8
1
  6
CONTINUOUS
 62
7
100
AcDbLine
 10
34.31333900000000
 20
143.7140349999999
 30
0.000000000000000
 11
39.50000000000000
 21
154.6420900000000
 31
0.000000000000000
  0
LINE
  5
93
100
AcDbEntity
  8
1
  6
CONTINUOUS
 62
7
100
AcDbLine
 10
190.4999540000000
 20
511.0003660000000
 30
0.000000000000000
 11
192.2499540000000
 21
511.0003660000000
 31
0.000000000000000
  0
LINE
  5
94
100
AcDbEntity
  8
4
  6
CENTER
 62
1
100
AcDbLine
 10
49.00000000000000
 20
125.0003659999999
 30
0.000000000000000
 11
49.00000000000000
 21
451.0003659999998
 31
0.000000000000000
  0
LINE
  5
95
100
AcDbEntity
  8
1
  6
CONTINUOUS
 62
7
100
AcDbLine
 10
469.0000610000000
 20
446.0003659999999
 30
0.000000000000000
 11
486.5000610000000
 21
446.0003659999999
 31
0.000000000000000
  0
LINE
  5
96
100
AcDbEntity
  8
1
  6
CONTINUOUS
 62
7
100
AcDbLine
 10
469.0000610000000
 20
444.5003660000000
 30
0.000000000000000
 11
486.5000610000000
 21
444.5003660000000
 31
0.000000000000000
  0
LINE
  5
97
100
AcDbEntity
  8
1
  6
CONTINUOUS
 62
7
100
AcDbLine
 10
467.5000610000000
 20
419.0003660000000
 30
0.000000000000000
 11
467.5000610000000
 21
444.5003660000000
 31
0.000000000000000
  0
LINE
  5
98
100
AcDbEntity
  8
1
  6
CONTINUOUS
 62
7
100
AcDbLine
 10
469.0000610000000
 20
419.0003660000000
 30
0.000000000000000
 11
469.0000610000000
 21
446.0003659999999
 31
0.000000000000000
  0
LINE
  5
99
100
AcDbEntity
  8
1
  6
CONTINUOUS
 62
7
100
AcDbLine
 10
467.5000610000000
 20
419.0003660000000
 30
0.000000000000000
 11
469.0000610000000
 21
419.0003660000000
 31
0.000000000000000
  0
LINE
  5
9A
100
AcDbEntity
  8
1
  6
CONTINUOUS
 62
7
100
AcDbLine
 10
486.5000610000000
 20
444.5003660000000
 30
0.000000000000000
 11
486.5000610000000
 21
446.0003659999999
 31
0.000000000000000
  0
LINE
  5
9B
100
AcDbEntity
  8
4
  6
CENTER
 62
1
100
AcDbLine
 10
478.0000610000000
 20
441.5003659999999
 30
0.000000000000000
 11
478.0000610000000
 21
449.0003660000000
 31
0.000000000000000
  0
LINE
  5
9C
100
AcDbEntity
  8
4
  6
CENTER
 62
1
100
AcDbLine
 10
457.0000610000000
 20
136.0003659999998
 30
0.000000000000000
 11
464.5000610000000
 21
136.0003659999998
 31
0.000000000000000
  0
LINE
  5
9D
100
AcDbEntity
  8
1
  6
CONTINUOUS
 62
7
100
AcDbLine
 10
460.0000610000000
 20
142.0003659999999
 30
0.000000000000000
 11
461.5000610000000
 21
142.0003659999999
 31
0.000000000000000
  0
LINE
  5
9E
100
AcDbEntity
  8
1
  6
CONTINUOUS
 62
7
100
AcDbLine
 10
190.4999540000000
 20
419.0003660000000
 30
0.000000000000000
 11
190.4999540000000
 21
444.5003660000000
 31
0.000000000000000
  0
LINE
  5
9F
100
AcDbEntity
  8
4
  6
CENTER
 62
1
100
AcDbLine
 10
193.7499540000000
 20
306.0003660000000
 30
0.000000000000000
 11
184.2499540000000
 21
306.0003660000000
 31
0.000000000000000
  0
LINE
  5
A0
100
AcDbEntity
  8
1
  6
CONTINUOUS
 62
7
100
AcDbLine
 10
184.9999539999998
 20
314.0003660000000
 30
0.000000000000000
 11
184.9999539999998
 21
433.0003660000000
 31
0.000000000000000
  0
LINE
  5
A1
100
AcDbEntity
  8
1
  6
CONTINUOUS
 62
7
100
AcDbLine
 10
187.9999540000000
 20
314.0003660000000
 30
0.000000000000000
 11
187.9999540000000
 21
433.0003660000000
 31
0.000000000000000
  0
LINE
  5
A2
100
AcDbEntity
  8
1
  6
CONTINUOUS
 62
7
100
AcDbLine
 10
193.9999540000000
 20
148.0003659999999
 30
0.000000000000000
 11
193.9999540000000
 21
314.0003660000000
 31
0.000000000000000
  0
LINE
  5
A3
100
AcDbEntity
  8
4
  6
CENTER
 62
1
100
AcDbLine
 10
200.2165989999999
 20
156.0003659999999
 30
0.000000000000000
 11
185.7499540000000
 21
156.0003659999999
 31
0.000000000000000
  0
LINE
  5
A4
100
AcDbEntity
  8
4
  6
CENTER
 62
1
100
AcDbLine
 10
188.9999539999998
 20
145.0003659999999
 30
0.000000000000000
 11
188.9999539999998
 21
317.0003659999999
 31
0.000000000000000
  0
LINE
  5
A5
100
AcDbEntity
  8
1
  6
CONTINUOUS
 62
7
100
AcDbLine
 10
196.4999539999998
 20
130.0003659999999
 30
0.000000000000000
 11
196.4999539999998
 21
164.0003659999998
 31
0.000000000000000
  0
LINE
  5
A6
100
AcDbEntity
  8
1
  6
CONTINUOUS
 62
7
100
AcDbLine
 10
197.9999540000000
 20
130.0003659999999
 30
0.000000000000000
 11
197.9999540000000
 21
164.0003659999998
 31
0.000000000000000
  0
LINE
  5
A7
100
AcDbEntity
  8
1
  6
CONTINUOUS
 62
7
100
AcDbLine
 10
196.4999539999998
 20
164.0003659999998
 30
0.000000000000000
 11
197.9999540000000
 21
164.0003659999998
 31
0.000000000000000
  0
LINE
  5
A8
100
AcDbEntity
  8
1
  6
CONTINUOUS
 62
7
100
AcDbLine
 10
196.4999539999998
 20
130.0003659999999
 30
0.000000000000000
 11
197.9999540000000
 21
130.0003659999999
 31
0.000000000000000
  0
LINE
  5
A9
100
AcDbEntity
  8
1
  6
CONTINUOUS
 62
7
100
AcDbLine
 10
183.9999539999998
 20
314.0003660000000
 30
0.000000000000000
 11
193.9999540000000
 21
314.0003660000000
 31
0.000000000000000
  0
LINE
  5
AA
100
AcDbEntity
  8
1
  6
CONTINUOUS
 62
7
100
AcDbLine
 10
183.9999539999998
 20
148.0003659999999
 30
0.000000000000000
 11
193.9999540000000
 21
148.0003659999999
 31
0.000000000000000
  0
LINE
  5
AB
100
AcDbEntity
  8
1
  6
CONTINUOUS
 62
7
100
AcDbLine
 10
183.9999539999998
 20
148.0003659999999
 30
0.000000000000000
 11
183.9999539999998
 21
314.0003660000000
 31
0.000000000000000
  0
LINE
  5
AC
100
AcDbEntity
  8
1
  6
CONTINUOUS
 62
7
100
AcDbLine
 10
188.7499540000000
 20
420.5003660000000
 30
0.000000000000000
 11
188.9999539999998
 21
420.5003660000000
 31
0.000000000000000
  0
LINE
  5
AD
100
AcDbEntity
  8
1
  6
CONTINUOUS
 62
7
100
AcDbLine
 10
188.7499540000000
 20
431.5003660000000
 30
0.000000000000000
 11
188.9999539999998
 21
431.5003660000000
 31
0.000000000000000
  0
LINE
  5
AE
100
AcDbEntity
  8
1
  6
CONTINUOUS
 62
7
100
AcDbLine
 10
188.9999539999998
 20
444.5003660000000
 30
0.000000000000000
 11
171.4999539999998
 21
444.5003660000000
 31
0.000000000000000
  0
LINE
  5
AF
100
AcDbEntity
  8
1
  6
CONTINUOUS
 62
7
100
AcDbLine
 10
182.7999570000000
 20
421.7683110000000
 30
0.000000000000000
 11
182.7999570000000
 21
430.2324220000000
 31
0.000000000000000
  0
LINE
  5
B0
100
AcDbEntity
  8
1
  6
CONTINUOUS
 62
7
100
AcDbLine
 10
187.9999540000000
 20
433.0003660000000
 30
0.000000000000000
 11
184.9999539999998
 21
433.0003660000000
 31
0.000000000000000
  0
LINE
  5
B1
100
AcDbEntity
  8
4
  6
CENTER
 62
1
100
AcDbLine
 10
193.4999539999998
 20
426.0003659999998
 30
0.000000000000000
 11
179.7999569999998
 21
426.0003659999998
 31
0.000000000000000
  0
LINE
  5
B2
100
AcDbEntity
  8
4
  6
CENTER
 62
1
100
AcDbLine
 10
179.9999539999998
 20
441.5003659999999
 30
0.000000000000000
 11
179.9999539999998
 21
449.0003660000000
 31
0.000000000000000
  0
LINE
  5
B3
100
AcDbEntity
  8
1
  6
CONTINUOUS
 62
7
100
AcDbLine
 10
171.4999539999998
 20
444.5003660000000
 30
0.000000000000000
 11
171.4999539999998
 21
446.0003659999999
 31
0.000000000000000
  0
LINE
  5
B4
100
AcDbEntity
  8
1
  6
CONTINUOUS
 62
7
100
AcDbLine
 10
190.4999540000000
 20
419.0003660000000
 30
0.000000000000000
 11
188.9999539999998
 21
419.0003660000000
 31
0.000000000000000
  0
LINE
  5
B5
100
AcDbEntity
  8
1
  6
CONTINUOUS
 62
7
100
AcDbLine
 10
188.9999539999998
 20
419.0003660000000
 30
0.000000000000000
 11
188.9999539999998
 21
446.0003659999999
 31
0.000000000000000
  0
LINE
  5
B6
100
AcDbEntity
  8
1
  6
CONTINUOUS
 62
7
100
AcDbLine
 10
188.9999539999998
 20
446.0003659999999
 30
0.000000000000000
 11
171.4999539999998
 21
446.0003659999999
 31
0.000000000000000
  0
LINE
  5
B7
100
AcDbEntity
  8
4
  6
CENTER
 62
1
100
AcDbLine
 10
200.9999539999999
 20
136.0003659999998
 30
0.000000000000000
 11
193.4999539999998
 21
136.0003659999998
 31
0.000000000000000
  0
LINE
  5
B8
100
AcDbEntity
  8
1
  6
CONTINUOUS
 62
7
100
AcDbLine
 10
197.9999540000000
 20
142.0003659999999
 30
0.000000000000000
 11
196.4999539999998
 21
142.0003659999999
 31
0.000000000000000
  0
LINE
  5
B9
100
AcDbEntity
  8
4
  6
CENTER
 62
1
100
AcDbLine
 10
328.9999080000000
 20
125.0003659999999
 30
0.000000000000000
 11
328.9999080000000
 21
451.0003659999998
 31
0.000000000000000
  0
LINE
  5
BA
100
AcDbEntity
  8
1
  6
CONTINUOUS
 62
7
100
AcDbLine
 10
343.6865539999997
 20
143.7140499999999
 30
0.000000000000000
 11
336.2265319999998
 21
159.4319610000000
 31
0.000000000000000
  0
LINE
  5
BB
100
AcDbEntity
  8
1
  6
CONTINUOUS
 62
7
100
AcDbLine
 10
314.3039550000000
 20
143.6944430000000
 30
0.000000000000000
 11
321.7726140000000
 21
159.4305730000001
 31
0.000000000000000
  0
LINE
  5
BC
100
AcDbEntity
  8
1
  6
CONTINUOUS
 62
7
100
AcDbLine
 10
346.3967900000000
 20
142.0003659999999
 30
0.000000000000000
 11
346.9999080000000
 21
142.0003659999999
 31
0.000000000000000
  0
LINE
  5
BD
100
AcDbEntity
  8
1
  6
CONTINUOUS
 62
7
100
AcDbLine
 10
318.5462339999999
 20
305.0003659999999
 30
0.000000000000000
 11
318.5462339999999
 21
307.0003659999999
 31
0.000000000000000
  0
LINE
  5
BE
100
AcDbEntity
  8
1
  6
CONTINUOUS
 62
7
100
AcDbLine
 10
318.9999080000000
 20
302.7503659999999
 30
0.000000000000000
 11
318.9999080000000
 21
309.2503659999999
 31
0.000000000000000
  0
LINE
  5
BF
100
AcDbEntity
  8
1
  6
CONTINUOUS
 62
7
100
AcDbLine
 10
318.9999080000000
 20
309.2503659999999
 30
0.000000000000000
 11
319.4999080000000
 21
309.2503659999999
 31
0.000000000000000
  0
LINE
  5
C0
100
AcDbEntity
  8
1
  6
CONTINUOUS
 62
7
100
AcDbLine
 10
318.9999080000000
 20
302.7503659999999
 30
0.000000000000000
 11
319.4999080000000
 21
302.7503659999999
 31
0.000000000000000
  0
LINE
  5
C1
100
AcDbEntity
  8
1
  6
CONTINUOUS
 62
7
100
AcDbLine
 10
339.4535520000000
 20
305.0003659999999
 30
0.000000000000000
 11
339.4535520000000
 21
307.0003659999999
 31
0.000000000000000
  0
LINE
  5
C2
100
AcDbEntity
  8
1
  6
CONTINUOUS
 62
7
100
AcDbLine
 10
338.9999079999999
 20
302.7503659999999
 30
0.000000000000000
 11
338.9999079999999
 21
309.2503659999999
 31
0.000000000000000
  0
LINE
  5
C3
100
AcDbEntity
  8
1
  6
CONTINUOUS
 62
7
100
AcDbLine
 10
338.9999079999999
 20
309.2503659999999
 30
0.000000000000000
 11
338.4999080000000
 21
309.2503659999999
 31
0.000000000000000
  0
LINE
  5
C4
100
AcDbEntity
  8
1
  6
CONTINUOUS
 62
7
100
AcDbLine
 10
338.9999079999999
 20
302.7503659999999
 30
0.000000000000000
 11
338.4999080000000
 21
302.7503659999999
 31
0.000000000000000
  0
LINE
  5
C5
100
AcDbEntity
  8
4
  6
CENTER
 62
1
100
AcDbLine
 10
342.4535520000000
 20
306.0003660000000
 30
0.000000000000000
 11
315.5462339999999
 21
306.0003660000000
 31
0.000000000000000
  0
LINE
  5
C6
100
AcDbEntity
  8
4
  6
CENTER
 62
1
100
AcDbLine
 10
338.9999079999999
 20
341.5003659999999
 30
0.000000000000000
 11
338.9999079999999
 21
349.0003659999999
 31
0.000000000000000
  0
LINE
  5
C7
100
AcDbEntity
  8
4
  6
CENTER
 62
1
100
AcDbLine
 10
318.9999080000000
 20
341.5003659999999
 30
0.000000000000000
 11
318.9999080000000
 21
349.0003659999999
 31
0.000000000000000
  0
LINE
  5
C8
100
AcDbEntity
  8
4
  6
CENTER
 62
1
100
AcDbLine
 10
338.9999079999999
 20
441.5003659999999
 30
0.000000000000000
 11
338.9999079999999
 21
449.0003660000000
 31
0.000000000000000
  0
LINE
  5
C9
100
AcDbEntity
  8
4
  6
CENTER
 62
1
100
AcDbLine
 10
318.9999080000000
 20
441.5003659999999
 30
0.000000000000000
 11
318.9999080000000
 21
449.0003660000000
 31
0.000000000000000
  0
LINE
  5
CA
100
AcDbEntity
  8
5
  6
PHANTOM
 62
1
100
AcDbLine
 10
313.9999079999999
 20
344.5003659999999
 30
0.000000000000000
 11
343.9999080000000
 21
344.5003659999999
 31
0.000000000000000
  0
LINE
  5
CB
100
AcDbEntity
  8
5
  6
PHANTOM
 62
1
100
AcDbLine
 10
313.9999079999999
 20
346.0003659999999
 30
0.000000000000000
 11
343.9999080000000
 21
346.0003659999999
 31
0.000000000000000
  0
LINE
  5
CC
100
AcDbEntity
  8
5
  6
PHANTOM
 62
1
100
AcDbLine
 10
313.9999079999999
 20
344.5003659999999
 30
0.000000000000000
 11
313.9999079999999
 21
346.0003659999999
 31
0.000000000000000
  0
LINE
  5
CD
100
AcDbEntity
  8
5
  6
PHANTOM
 62
1
100
AcDbLine
 10
339.6864009999998
 20
344.3803410000000
 30
0.000000000000000
 11
335.8724060000000
 21
324.6705020000000
 31
0.000000000000000
  0
LINE
  5
CE
100
AcDbEntity
  8
5
  6
PHANTOM
 62
1
100
AcDbLine
 10
343.9999080000000
 20
346.0003659999999
 30
0.000000000000000
 11
343.9999080000000
 21
344.5003659999999
 31
0.000000000000000
  0
LINE
  5
CF
100
AcDbEntity
  8
1
  6
CONTINUOUS
 62
7
100
AcDbLine
 10
313.9999079999999
 20
444.5003660000000
 30
0.000000000000000
 11
318.2901610000000
 21
444.5003660000000
 31
0.000000000000000
  0
LINE
  5
D0
100
AcDbEntity
  8
1
  6
CONTINUOUS
 62
7
100
AcDbLine
 10
313.9999079999999
 20
446.0003659999999
 30
0.000000000000000
 11
343.9999080000000
 21
446.0003659999999
 31
0.000000000000000
  0
LINE
  5
D1
100
AcDbEntity
  8
1
  6
CONTINUOUS
 62
7
100
AcDbLine
 10
334.9999079999999
 20
314.0003660000000
 30
0.000000000000000
 11
334.9999079999999
 21
422.3948360000000
 31
0.000000000000000
  0
LINE
  5
D2
100
AcDbEntity
  8
1
  6
CONTINUOUS
 62
7
100
AcDbLine
 10
322.9999080000000
 20
314.0003660000000
 30
0.000000000000000
 11
322.9999080000000
 21
422.3948360000000
 31
0.000000000000000
  0
LINE
  5
D3
100
AcDbEntity
  8
1
  6
CONTINUOUS
 62
7
100
AcDbLine
 10
338.4999080000000
 20
314.0003660000000
 30
0.000000000000000
 11
319.4999080000000
 21
314.0003660000000
 31
0.000000000000000
  0
LINE
  5
D4
100
AcDbEntity
  8
1
  6
CONTINUOUS
 62
7
100
AcDbLine
 10
338.4999080000000
 20
154.6420900000000
 30
0.000000000000000
 11
338.4999080000000
 21
314.0003660000000
 31
0.000000000000000
  0
LINE
  5
D5
100
AcDbEntity
  8
1
  6
CONTINUOUS
 62
7
100
AcDbLine
 10
319.4999080000000
 20
154.6420900000000
 30
0.000000000000000
 11
319.4999080000000
 21
314.0003660000000
 31
0.000000000000000
  0
LINE
  5
D6
100
AcDbEntity
  8
1
  6
CONTINUOUS
 62
7
100
AcDbLine
 10
322.1277469999998
 20
424.6686399999998
 30
0.000000000000000
 11
318.2350159999999
 21
444.7853699999999
 31
0.000000000000000
  0
LINE
  5
D7
100
AcDbEntity
  8
1
  6
CONTINUOUS
 62
7
100
AcDbLine
 10
313.9999079999999
 20
444.5003660000000
 30
0.000000000000000
 11
313.9999079999999
 21
446.0003659999999
 31
0.000000000000000
  0
LINE
  5
D8
100
AcDbEntity
  8
1
  6
CONTINUOUS
 62
7
100
AcDbLine
 10
339.7647710000000
 20
444.7853389999998
 30
0.000000000000000
 11
335.8724060000001
 21
424.6705019999998
 31
0.000000000000000
  0
LINE
  5
D9
100
AcDbEntity
  8
1
  6
CONTINUOUS
 62
7
100
AcDbLine
 10
343.9999080000000
 20
446.0003659999999
 30
0.000000000000000
 11
343.9999080000000
 21
444.5003660000000
 31
0.000000000000000
  0
LINE
  5
DA
100
AcDbEntity
  8
1
  6
CONTINUOUS
 62
7
100
AcDbLine
 10
339.8569950000000
 20
284.4543150000000
 30
0.000000000000000
 11
338.4999080000000
 21
284.9429020000000
 31
0.000000000000000
  0
LINE
  5
DB
100
AcDbEntity
  8
4
  6
CENTER
 62
1
100
AcDbLine
 10
343.9999080000000
 20
131.1503749999999
 30
0.000000000000000
 11
343.9999080000000
 21
140.8503719999998
 31
0.000000000000000
  0
LINE
  5
DC
100
AcDbEntity
  8
4
  6
CENTER
 62
1
100
AcDbLine
 10
313.9999079999999
 20
131.1503749999999
 30
0.000000000000000
 11
313.9999079999999
 21
140.8503719999998
 31
0.000000000000000
  0
LINE
  5
DD
100
AcDbEntity
  8
1
  6
CONTINUOUS
 62
7
100
AcDbLine
 10
310.9999080000000
 20
130.0003659999999
 30
0.000000000000000
 11
346.9999080000000
 21
130.0003659999999
 31
0.000000000000000
  0
LINE
  5
DE
100
AcDbEntity
  8
1
  6
CONTINUOUS
 62
7
100
AcDbLine
 10
339.7096560000000
 20
444.5003660000000
 30
0.000000000000000
 11
343.9999080000000
 21
444.5003660000000
 31
0.000000000000000
  0
LINE
  5
DF
100
AcDbEntity
  8
1
  6
CONTINUOUS
 62
7
100
AcDbLine
 10
330.4999079999999
 20
306.5003659999999
 30
0.000000000000000
 11
327.4999080000000
 21
306.5003659999999
 31
0.000000000000000
  0
LINE
  5
E0
100
AcDbEntity
  8
1
  6
CONTINUOUS
 62
7
100
AcDbLine
 10
330.9999080000000
 20
300.0003659999999
 30
0.000000000000000
 11
330.9999080000000
 21
306.0003660000000
 31
0.000000000000000
  0
LINE
  5
E1
100
AcDbEntity
  8
1
  6
CONTINUOUS
 62
7
100
AcDbLine
 10
326.9999080000000
 20
300.0003659999999
 30
0.000000000000000
 11
326.9999080000000
 21
306.0003660000000
 31
0.000000000000000
  0
LINE
  5
E2
100
AcDbEntity
  8
1
  6
CONTINUOUS
 62
7
100
AcDbLine
 10
330.4999079999999
 20
299.5003660000000
 30
0.000000000000000
 11
327.4999080000000
 21
299.5003660000000
 31
0.000000000000000
  0
LINE
  5
E3
100
AcDbEntity
  8
1
  6
CONTINUOUS
 62
7
100
AcDbLine
 10
174.4999540000000
 20
506.0003659999998
 30
0.000000000000000
 11
185.9999540000000
 21
506.0003659999998
 31
0.000000000000000
  0
LINE
  5
E4
100
AcDbEntity
  8
4
  6
CENTER
 62
1
100
AcDbLine
 10
179.9999539999998
 20
535.8503419999998
 30
0.000000000000000
 11
179.9999539999998
 21
526.1503299999999
 31
0.000000000000000
  0
LINE
  5
E5
100
AcDbEntity
  8
4
  6
CENTER
 62
1
100
AcDbLine
 10
172.7499540000000
 20
531.0003659999998
 30
0.000000000000000
 11
187.2499539999998
 21
531.0003659999998
 31
0.000000000000000
  0
LINE
  5
E6
100
AcDbEntity
  8
4
  6
CENTER
 62
1
100
AcDbLine
 10
179.9999539999998
 20
515.8503419999998
 30
0.000000000000000
 11
179.9999539999998
 21
506.1503300000000
 31
0.000000000000000
  0
LINE
  5
E7
100
AcDbEntity
  8
4
  6
CENTER
 62
1
100
AcDbLine
 10
172.7499540000000
 20
511.0003660000000
 30
0.000000000000000
 11
187.2499539999998
 21
511.0003660000000
 31
0.000000000000000
  0
LINE
  5
E8
100
AcDbEntity
  8
1
  6
CONTINUOUS
 62
7
100
AcDbLine
 10
190.4999540000000
 20
532.0003660000000
 30
0.000000000000000
 11
190.4999540000000
 21
510.0003659999998
 31
0.000000000000000
  0
LINE
  5
E9
100
AcDbEntity
  8
1
  6
CONTINUOUS
 62
7
100
AcDbLine
 10
185.9999540000000
 20
536.0003660000000
 30
0.000000000000000
 11
174.4999540000000
 21
536.0003660000000
 31
0.000000000000000
  0
LINE
  5
EA
100
AcDbEntity
  8
1
  6
CONTINUOUS
 62
7
100
AcDbLine
 10
171.4999539999998
 20
533.0003660000000
 30
0.000000000000000
 11
171.4999539999998
 21
509.0003659999998
 31
0.000000000000000
  0
LINE
  5
EB
100
AcDbEntity
  8
4
  6
CENTER
 62
1
100
AcDbLine
 10
200.9999539999999
 20
536.0003660000000
 30
0.000000000000000
 11
193.4999539999998
 21
536.0003660000000
 31
0.000000000000000
  0
LINE
  5
EC
100
AcDbEntity
  8
4
  6
CENTER
 62
1
100
AcDbLine
 10
200.9999539999999
 20
506.0003659999998
 30
0.000000000000000
 11
193.4999539999998
 21
506.0003659999998
 31
0.000000000000000
  0
LINE
  5
ED
100
AcDbEntity
  8
1
  6
CONTINUOUS
 62
7
100
AcDbLine
 10
197.9999540000000
 20
506.3043819999998
 30
0.000000000000000
 11
196.4999539999998
 21
506.3043819999998
 31
0.000000000000000
  0
LINE
  5
EE
100
AcDbEntity
  8
1
  6
CONTINUOUS
 62
7
100
AcDbLine
 10
197.9999540000000
 20
535.6870119999999
 30
0.000000000000000
 11
196.4999539999998
 21
535.6870119999999
 31
0.000000000000000
  0
LINE
  5
EF
100
AcDbEntity
  8
1
  6
CONTINUOUS
 62
7
100
AcDbLine
 10
185.7499540000000
 20
65.00000000000000
 30
0.000000000000000
 11
192.2499540000000
 21
65.00000000000000
 31
0.000000000000000
  0
LINE
  5
F0
100
AcDbEntity
  8
1
  6
CONTINUOUS
 62
7
100
AcDbLine
 10
187.9999540000000
 20
65.45365900000000
 30
0.000000000000000
 11
189.9999539999998
 21
65.45365900000000
 31
0.000000000000000
  0
LINE
  5
F1
100
AcDbEntity
  8
1
  6
CONTINUOUS
 62
7
100
AcDbLine
 10
192.2499540000000
 20
65.00000000000000
 30
0.000000000000000
 11
192.2499540000000
 21
64.50000000000000
 31
0.000000000000000
  0
LINE
  5
F2
100
AcDbEntity
  8
1
  6
CONTINUOUS
 62
7
100
AcDbLine
 10
185.7499540000000
 20
65.00000000000000
 30
0.000000000000000
 11
185.7499540000000
 21
64.50000000000000
 31
0.000000000000000
  0
LINE
  5
F3
100
AcDbEntity
  8
1
  6
CONTINUOUS
 62
7
100
AcDbLine
 10
187.9999540000000
 20
44.54634099999998
 30
0.000000000000000
 11
189.9999539999998
 21
44.54634099999998
 31
0.000000000000000
  0
LINE
  5
F4
100
AcDbEntity
  8
1
  6
CONTINUOUS
 62
7
100
AcDbLine
 10
185.7499540000000
 20
45.00000000000000
 30
0.000000000000000
 11
192.2499540000000
 21
45.00000000000000
 31
0.000000000000000
  0
LINE
  5
F5
100
AcDbEntity
  8
1
  6
CONTINUOUS
 62
7
100
AcDbLine
 10
192.2499540000000
 20
45.00000000000000
 30
0.000000000000000
 11
192.2499540000000
 21
45.49999999999999
 31
0.000000000000000
  0
LINE
  5
F6
100
AcDbEntity
  8
1
  6
CONTINUOUS
 62
7
100
AcDbLine
 10
185.7499540000000
 20
45.00000000000000
 30
0.000000000000000
 11
185.7499540000000
 21
45.49999999999999
 31
0.000000000000000
  0
LINE
  5
F7
100
AcDbEntity
  8
4
  6
CENTER
 62
1
100
AcDbLine
 10
188.9999539999998
 20
41.54634099999999
 30
0.000000000000000
 11
188.9999539999998
 21
68.45365900000000
 31
0.000000000000000
  0
LINE
  5
F8
100
AcDbEntity
  8
1
  6
CONTINUOUS
 62
7
100
AcDbLine
 10
184.9999539999998
 20
63.50000000000000
 30
0.000000000000000
 11
192.9999540000000
 21
63.50000000000000
 31
0.000000000000000
  0
LINE
  5
F9
100
AcDbEntity
  8
1
  6
CONTINUOUS
 62
7
100
AcDbLine
 10
184.9999539999998
 20
64.50000000000000
 30
0.000000000000000
 11
192.9999540000000
 21
64.50000000000000
 31
0.000000000000000
  0
LINE
  5
FA
100
AcDbEntity
  8
1
  6
CONTINUOUS
 62
7
100
AcDbLine
 10
184.9999539999998
 20
46.50000000000000
 30
0.000000000000000
 11
192.9999540000000
 21
46.50000000000000
 31
0.000000000000000
  0
LINE
  5
FB
100
AcDbEntity
  8
1
  6
CONTINUOUS
 62
7
100
AcDbLine
 10
184.9999539999998
 20
45.49999999999999
 30
0.000000000000000
 11
192.9999540000000
 21
45.49999999999999
 31
0.000000000000000
  0
LINE
  5
FC
100
AcDbEntity
  8
1
  6
CONTINUOUS
 62
7
100
AcDbLine
 10
196.4999539999998
 20
31.00000000000000
 30
0.000000000000000
 11
196.4999539999998
 21
79.00000000000000
 31
0.000000000000000
  0
LINE
  5
FD
100
AcDbEntity
  8
1
  6
CONTINUOUS
 62
7
100
AcDbLine
 10
197.9999540000000
 20
31.00000000000000
 30
0.000000000000000
 11
197.9999540000000
 21
79.00000000000000
 31
0.000000000000000
  0
LINE
  5
FE
100
AcDbEntity
  8
1
  6
CONTINUOUS
 62
7
100
AcDbLine
 10
196.4999539999998
 20
31.00000000000000
 30
0.000000000000000
 11
197.9999540000000
 21
31.00000000000000
 31
0.000000000000000
  0
LINE
  5
FF
100
AcDbEntity
  8
4
  6
CENTER
 62
1
100
AcDbLine
 10
200.9999539999999
 20
40.00000000000000
 30
0.000000000000000
 11
193.4999539999998
 21
40.00000000000000
 31
0.000000000000000
  0
LINE
  5
100
100
AcDbEntity
  8
1
  6
CONTINUOUS
 62
7
100
AcDbLine
 10
196.4999539999998
 20
79.00000000000000
 30
0.000000000000000
 11
197.9999540000000
 21
79.00000000000000
 31
0.000000000000000
  0
LINE
  5
101
100
AcDbEntity
  8
1
  6
CONTINUOUS
 62
7
100
AcDbLine
 10
193.9999540000000
 20
63.50000000000000
 30
0.000000000000000
 11
193.9999540000000
 21
46.50000000000000
 31
0.000000000000000
  0
LINE
  5
102
100
AcDbEntity
  8
1
  6
CONTINUOUS
 62
7
100
AcDbLine
 10
184.9999539999998
 20
63.50000000000000
 30
0.000000000000000
 11
184.9999539999998
 21
46.50000000000000
 31
0.000000000000000
  0
LINE
  5
103
100
AcDbEntity
  8
4
  6
CENTER
 62
1
100
AcDbLine
 10
200.9999539999999
 20
70.00000000000000
 30
0.000000000000000
 11
193.4999539999998
 21
70.00000000000000
 31
0.000000000000000
  0
LINE
  5
104
100
AcDbEntity
  8
1
  6
CONTINUOUS
 62
7
100
AcDbLine
 10
192.9999540000000
 20
63.50000000000000
 30
0.000000000000000
 11
192.9999540000000
 21
46.50000000000000
 31
0.000000000000000
  0
LINE
  5
105
100
AcDbEntity
  8
1
  6
CONTINUOUS
 62
7
100
AcDbLine
 10
183.9999539999998
 20
46.50000000000000
 30
0.000000000000000
 11
183.9999539999998
 21
63.50000000000000
 31
0.000000000000000
  0
LINE
  5
106
100
AcDbEntity
  8
1
  6
CONTINUOUS
 62
7
100
AcDbLine
 10
182.9999540000000
 20
59.23204800000000
 30
0.000000000000000
 11
182.9999540000000
 21
50.76794800000000
 31
0.000000000000000
  0
LINE
  5
107
100
AcDbEntity
  8
4
  6
CENTER
 62
1
100
AcDbLine
 10
166.4999540000000
 20
55.00000000000000
 30
0.000000000000000
 11
202.9999539999999
 21
55.00000000000000
 31
0.000000000000000
  0
LINE
  5
108
100
AcDbEntity
  8
1
  6
CONTINUOUS
 62
7
100
AcDbLine
 10
174.4999540000000
 20
70.00000000000000
 30
0.000000000000000
 11
185.9999540000000
 21
70.00000000000000
 31
0.000000000000000
  0
LINE
  5
109
100
AcDbEntity
  8
4
  6
CENTER
 62
1
100
AcDbLine
 10
179.9999539999998
 20
40.15000200000000
 30
0.000000000000000
 11
179.9999539999998
 21
49.84999800000000
 31
0.000000000000000
  0
LINE
  5
10A
100
AcDbEntity
  8
4
  6
CENTER
 62
1
100
AcDbLine
 10
172.7499540000000
 20
45.00000000000000
 30
0.000000000000000
 11
187.2499539999998
 21
45.00000000000000
 31
0.000000000000000
  0
LINE
  5
10B
100
AcDbEntity
  8
4
  6
CENTER
 62
1
100
AcDbLine
 10
179.9999539999998
 20
60.15000200000000
 30
0.000000000000000
 11
179.9999539999998
 21
69.84999800000000
 31
0.000000000000000
  0
LINE
  5
10C
100
AcDbEntity
  8
4
  6
CENTER
 62
1
100
AcDbLine
 10
172.7499540000000
 20
65.00000000000000
 30
0.000000000000000
 11
187.2499539999998
 21
65.00000000000000
 31
0.000000000000000
  0
LINE
  5
10D
100
AcDbEntity
  8
1
  6
CONTINUOUS
 62
7
100
AcDbLine
 10
190.4999540000000
 20
44.00000000000000
 30
0.000000000000000
 11
190.4999540000000
 21
44.60455300000000
 31
0.000000000000000
  0
LINE
  5
10E
100
AcDbEntity
  8
1
  6
CONTINUOUS
 62
7
100
AcDbLine
 10
185.9999540000000
 20
40.00000000000000
 30
0.000000000000000
 11
174.4999540000000
 21
40.00000000000000
 31
0.000000000000000
  0
LINE
  5
10F
100
AcDbEntity
  8
1
  6
CONTINUOUS
 62
7
100
AcDbLine
 10
171.4999539999998
 20
43.00000000000000
 30
0.000000000000000
 11
171.4999539999998
 21
67.00000000000000
 31
0.000000000000000
  0
LINE
  5
110
100
AcDbEntity
  8
1
  6
CONTINUOUS
 62
7
100
AcDbLine
 10
190.4999540000000
 20
65.39544699999999
 30
0.000000000000000
 11
190.4999540000000
 21
66.00000000000000
 31
0.000000000000000
  0
LINE
  5
111
100
AcDbEntity
  8
4
  6
CENTER
 62
1
100
AcDbLine
 10
319.9999079999999
 20
156.0003659999999
 30
0.000000000000000
 11
337.9999080000000
 21
156.0003659999999
 31
0.000000000000000
  0
LINE
  5
112
100
AcDbEntity
  8
4
  6
CENTER
 62
1
100
AcDbLine
 10
319.9999079999999
 20
438.0003659999998
 30
0.000000000000000
 11
337.9999080000000
 21
438.0003659999998
 31
0.000000000000000
  0
LINE
  5
113
100
AcDbEntity
  8
4
  6
CENTER
 62
1
100
AcDbLine
 10
319.9999079999999
 20
426.0003659999998
 30
0.000000000000000
 11
337.9999080000000
 21
426.0003659999998
 31
0.000000000000000
  0
LINE
  5
114
100
AcDbEntity
  8
4
  6
CENTER
 62
1
100
AcDbLine
 10
40.00000000000000
 20
438.0003659999998
 30
0.000000000000000
 11
58.00000000000000
 21
438.0003659999998
 31
0.000000000000000
  0
LINE
  5
115
100
AcDbEntity
  8
4
  6
CENTER
 62
1
100
AcDbLine
 10
40.00000000000000
 20
426.0003659999998
 30
0.000000000000000
 11
58.00000000000000
 21
426.0003659999998
 31
0.000000000000000
  0
LINE
  5
116
100
AcDbEntity
  8
1
  6
CONTINUOUS
 62
7
100
AcDbLine
 10
190.4999540000000
 20
531.0003659999998
 30
0.000000000000000
 11
192.2499540000000
 21
531.0003659999998
 31
0.000000000000000
  0
LINE
  5
117
100
AcDbEntity
  8
1
  6
CONTINUOUS
 62
7
100
AcDbLine
 10
190.4999540000000
 20
529.5003659999999
 30
0.000000000000000
 11
192.9999540000000
 21
529.5003659999999
 31
0.000000000000000
  0
LINE
  5
118
100
AcDbEntity
  8
1
  6
CONTINUOUS
 62
7
100
AcDbLine
 10
190.4999540000000
 20
530.5003659999998
 30
0.000000000000000
 11
192.9999540000000
 21
530.5003659999998
 31
0.000000000000000
  0
LINE
  5
119
100
AcDbEntity
  8
4
  6
CENTER
 62
1
100
AcDbLine
 10
40.00000000000000
 20
326.0003659999999
 30
0.000000000000000
 11
58.00000000000000
 21
326.0003659999999
 31
0.000000000000000
  0
LINE
  5
11A
100
AcDbEntity
  8
4
  6
CENTER
 62
1
100
AcDbLine
 10
319.9999079999999
 20
326.0003659999999
 30
0.000000000000000
 11
337.9999080000000
 21
326.0003659999999
 31
0.000000000000000
  0
LINE
  5
11B
100
AcDbEntity
  8
4
  6
CENTER
 62
1
100
AcDbLine
 10
355.9999080000000
 20
136.0003659999998
 30
0.000000000000000
 11
301.9999080000000
 21
136.0003659999998
 31
0.000000000000000
  0
LINE
  5
11C
100
AcDbEntity
  8
4
  6
CENTER
 62
1
100
AcDbLine
 10
41.50000000000000
 20
156.0003659999999
 30
0.000000000000000
 11
56.50000000000000
 21
156.0003659999999
 31
0.000000000000000
  0
LINE
  5
11D
100
AcDbEntity
  8
1
  6
CONTINUOUS
 62
7
100
AcDbLine
 10
188.9999539999998
 20
42.64360400000000
 30
0.000000000000000
 11
188.9999539999998
 21
44.54634099999998
 31
0.000000000000000
  0
LINE
  5
11E
100
AcDbEntity
  8
1
  6
CONTINUOUS
 62
7
100
AcDbLine
 10
188.9999539999998
 20
65.45365900000000
 30
0.000000000000000
 11
188.9999539999998
 21
67.35639200000000
 31
0.000000000000000
  0
CIRCLE
  5
11F
100
AcDbEntity
  8
1
  6
CONTINUOUS
 62
7
100
AcDbCircle
 10
49.00000000000000
 20
426.0003659999998
 30
0.000000000000000
 40
4.500000000000000
  0
ARC
  5
120
100
AcDbEntity
  8
1
  6
CONTINUOUS
 62
7
100
AcDbCircle
 10
462.5000609999998
 20
160.5003659999999
 30
0.000000000000000
 40
1.500000000000000
100
AcDbArc
 50
0.000000000000000
 51
90.00000300000002
  0
ARC
  5
121
100
AcDbEntity
  8
1
  6
CONTINUOUS
 62
7
100
AcDbCircle
 10
462.5000609999998
 20
151.5003659999998
 30
0.000000000000000
 40
1.500000000000000
100
AcDbArc
 50
269.9999969999999
 51
360.0000000000000
  0
ARC
  5
122
100
AcDbEntity
  8
1
  6
CONTINUOUS
 62
7
100
AcDbCircle
 10
462.5000609999998
 20
149.0003659999999
 30
0.000000000000000
 40
1.000000000000000
100
AcDbArc
 50
90.00000300000002
 51
180.0000050000000
  0
ARC
  5
123
100
AcDbEntity
  8
1
  6
CONTINUOUS
 62
7
100
AcDbCircle
 10
462.5000609999998
 20
163.0003659999998
 30
0.000000000000000
 40
1.000000000000000
100
AcDbArc
 50
179.9999909999999
 51
270.0000010000000
  0
CIRCLE
  5
124
100
AcDbEntity
  8
1
  6
CONTINUOUS
 62
7
100
AcDbCircle
 10
469.0000610000000
 20
156.0003659999999
 30
0.000000000000000
 40
1.750000000000000
  0
CIRCLE
  5
125
100
AcDbEntity
  8
1
  6
CONTINUOUS
 62
7
100
AcDbCircle
 10
469.0000610000000
 20
306.0003660000000
 30
0.000000000000000
 40
3.250000000000000
  0
ARC
  5
126
100
AcDbEntity
  8
1
  6
CONTINUOUS
 62
7
100
AcDbCircle
 10
192.9999540000000
 20
529.5003659999999
 30
0.000000000000000
 40
1.000000000000000
100
AcDbArc
 50
0.000000000000000
 51
90.00000300000002
  0
ARC
  5
127
100
AcDbEntity
  8
1
  6
CONTINUOUS
 62
7
100
AcDbCircle
 10
192.9999540000000
 20
512.5003659999999
 30
0.000000000000000
 40
1.000000000000000
100
AcDbArc
 50
269.9999969999999
 51
360.0000000000000
  0
ARC
  5
128
100
AcDbEntity
  8
1
  6
CONTINUOUS
 62
7
100
AcDbCircle
 10
40.70910300000000
 20
285.0018620000000
 30
0.000000000000000
 40
4.000000000000000
100
AcDbArc
 50
218.8130640000000
 51
252.4056349999999
  0
ARC
  5
129
100
AcDbEntity
  8
1
  6
CONTINUOUS
 62
7
100
AcDbCircle
 10
38.56631900000000
 20
283.2782290000000
 30
0.000000000000000
 40
1.250000000000000
100
AcDbArc
 50
109.8000929999999
 51
218.8130600000000
  0
ARC
  5
12A
100
AcDbEntity
  8
1
  6
CONTINUOUS
 62
7
100
AcDbCircle
 10
474.2000430000000
 20
423.5003660000000
 30
0.000000000000000
 40
2.000000000000000
100
AcDbArc
 50
233.1300970000000
 51
299.9999980000000
  0
ARC
  5
12B
100
AcDbEntity
  8
1
  6
CONTINUOUS
 62
7
100
AcDbCircle
 10
474.2000430000000
 20
428.5003660000000
 30
0.000000000000000
 40
2.000000000000000
100
AcDbArc
 50
60.00000200000001
 51
126.8699030000000
  0
ARC
  5
12C
100
AcDbEntity
  8
1
  6
CONTINUOUS
 62
7
100
AcDbCircle
 10
469.2500610000000
 20
430.7503660000000
 30
0.000000000000000
 40
0.7500000000000000
100
AcDbArc
 50
0.000000000000000
 51
90.00000300000002
  0
ARC
  5
12D
100
AcDbEntity
  8
1
  6
CONTINUOUS
 62
7
100
AcDbCircle
 10
469.2500610000000
 20
421.2503660000000
 30
0.000000000000000
 40
0.7500000000000000
100
AcDbArc
 50
269.9999969999999
 51
360.0000000000000
  0
ARC
  5
12E
100
AcDbEntity
  8
1
  6
CONTINUOUS
 62
7
100
AcDbCircle
 10
31.00000000000000
 20
136.0003659999998
 30
0.000000000000000
 40
6.000000000000000
100
AcDbArc
 50
90.00000300000002
 51
270.0000010000000
  0
ARC
  5
12F
100
AcDbEntity
  8
1
  6
CONTINUOUS
 62
7
100
AcDbCircle
 10
67.00000000000000
 20
136.0003659999998
 30
0.000000000000000
 40
6.000000000000000
100
AcDbArc
 50
269.9999969999999
 51
453.7830120000000
  0
ARC
  5
130
100
AcDbEntity
  8
1
  6
CONTINUOUS
 62
7
100
AcDbCircle
 10
49.00000000000000
 20
426.0003659999998
 30
0.000000000000000
 40
7.000000000000000
100
AcDbArc
 50
31.00272000000001
 51
148.9972850000000
  0
ARC
  5
131
100
AcDbEntity
  8
1
  6
CONTINUOUS
 62
7
100
AcDbCircle
 10
36.34991500000000
 20
444.0003660000000
 30
0.000000000000000
 40
2.000000000000000
100
AcDbArc
 50
10.95179499999999
 51
14.47751099999998
  0
ARC
  5
132
100
AcDbEntity
  8
1
  6
CONTINUOUS
 62
7
100
AcDbCircle
 10
61.65008499999999
 20
444.0003660000000
 30
0.000000000000000
 40
2.000000000000000
100
AcDbArc
 50
165.5224900000000
 51
169.0482059999999
  0
ARC
  5
133
100
AcDbEntity
  8
5
  6
PHANTOM
 62
1
100
AcDbCircle
 10
61.65008499999999
 20
344.0003659999999
 30
0.000000000000000
 40
2.000000000000000
100
AcDbArc
 50
165.5224900000000
 51
169.0482059999999
  0
CIRCLE
  5
134
100
AcDbEntity
  8
5
  6
PHANTOM
 62
1
100
AcDbCircle
 10
49.00000000000000
 20
326.0003659999999
 30
0.000000000000000
 40
4.500000000000000
  0
ARC
  5
135
100
AcDbEntity
  8
5
  6
PHANTOM
 62
1
100
AcDbCircle
 10
36.34991500000000
 20
344.0003659999999
 30
0.000000000000000
 40
2.000000000000000
100
AcDbArc
 50
10.95179499999999
 51
14.47751099999998
  0
ARC
  5
136
100
AcDbEntity
  8
5
  6
PHANTOM
 62
1
100
AcDbCircle
 10
49.00000000000000
 20
326.0003659999999
 30
0.000000000000000
 40
7.000000000000000
100
AcDbArc
 50
190.9517940000000
 51
349.0482049999999
  0
CIRCLE
  5
137
100
AcDbEntity
  8
1
  6
CONTINUOUS
 62
7
100
AcDbCircle
 10
49.00000000000000
 20
136.0003659999998
 30
0.000000000000000
 40
1.850000000000000
  0
ARC
  5
138
100
AcDbEntity
  8
1
  6
CONTINUOUS
 62
7
100
AcDbCircle
 10
49.31250000000000
 20
306.0003660000000
 30
0.000000000000000
 40
10.81250000000000
100
AcDbArc
 50
162.5076719999999
 51
174.6933850000000
  0
ARC
  5
139
100
AcDbEntity
  8
1
  6
CONTINUOUS
 62
7
100
AcDbCircle
 10
49.31250000000000
 20
306.0003660000000
 30
0.000000000000000
 40
10.81250000000000
100
AcDbArc
 50
185.3066150000000
 51
197.4923279999999
  0
ARC
  5
13A
100
AcDbEntity
  8
1
  6
CONTINUOUS
 62
7
100
AcDbCircle
 10
48.68750000000000
 20
306.0003660000000
 30
0.000000000000000
 40
10.81250000000000
100
AcDbArc
 50
5.306614999999998
 51
17.49232400000000
  0
ARC
  5
13B
100
AcDbEntity
  8
1
  6
CONTINUOUS
 62
7
100
AcDbCircle
 10
48.68750000000000
 20
306.0003660000000
 30
0.000000000000000
 40
10.81250000000000
100
AcDbArc
 50
342.5076760000000
 51
354.6933849999998
  0
CIRCLE
  5
13C
100
AcDbEntity
  8
1
  6
CONTINUOUS
 62
7
100
AcDbCircle
 10
469.0000610000000
 20
306.0003660000000
 30
0.000000000000000
 40
1.000000000000000
  0
ARC
  5
13D
100
AcDbEntity
  8
1
  6
CONTINUOUS
 62
7
100
AcDbCircle
 10
188.9999539999998
 20
520.6878660000000
 30
0.000000000000000
 40
10.81250000000000
100
AcDbArc
 50
72.50767600000000
 51
82.02573599999999
  0
ARC
  5
13E
100
AcDbEntity
  8
1
  6
CONTINUOUS
 62
7
100
AcDbCircle
 10
188.9999539999998
 20
521.3128659999998
 30
0.000000000000000
 40
10.81250000000000
100
AcDbArc
 50
277.9742640000000
 51
287.4923239999999
  0
ARC
  5
13F
100
AcDbEntity
  8
1
  6
CONTINUOUS
 62
7
100
AcDbCircle
 10
31.60310900000001
 20
145.0003659999999
 30
0.000000000000000
 40
3.000000000000000
100
AcDbArc
 50
269.9999969999999
 51
334.6100810000000
  0
ARC
  5
140
100
AcDbEntity
  8
1
  6
CONTINUOUS
 62
7
100
AcDbCircle
 10
66.40619699999999
 20
144.9807589999998
 30
0.000000000000000
 40
3.000000000000000
100
AcDbArc
 50
205.3899250000000
 51
273.7830070000000
  0
CIRCLE
  5
141
100
AcDbEntity
  8
5
  6
PHANTOM
 62
1
100
AcDbCircle
 10
49.00000000000000
 20
438.0003659999998
 30
0.000000000000000
 40
4.500000000000000
  0
ARC
  5
142
100
AcDbEntity
  8
1
  6
CONTINUOUS
 62
7
100
AcDbCircle
 10
49.00000000000000
 20
426.0003659999998
 30
0.000000000000000
 40
7.000000000000000
100
AcDbArc
 50
190.9517940000000
 51
211.0027149999999
  0
CIRCLE
  5
143
100
AcDbEntity
  8
1
  6
CONTINUOUS
 62
7
100
AcDbCircle
 10
188.9999539999998
 20
306.0003660000000
 30
0.000000000000000
 40
1.000000000000000
  0
ARC
  5
144
100
AcDbEntity
  8
1
  6
CONTINUOUS
 62
7
100
AcDbCircle
 10
188.7499540000000
 20
421.2503660000000
 30
0.000000000000000
 40
0.7500000000000000
100
AcDbArc
 50
180.0000050000000
 51
270.0000010000000
  0
ARC
  5
145
100
AcDbEntity
  8
1
  6
CONTINUOUS
 62
7
100
AcDbCircle
 10
188.7499540000000
 20
430.7503660000000
 30
0.000000000000000
 40
0.7500000000000000
100
AcDbArc
 50
90.00000300000002
 51
180.0000050000000
  0
ARC
  5
146
100
AcDbEntity
  8
1
  6
CONTINUOUS
 62
7
100
AcDbCircle
 10
183.7999570000000
 20
428.5003660000000
 30
0.000000000000000
 40
2.000000000000000
100
AcDbArc
 50
53.13010200000000
 51
120.0000029999998
  0
ARC
  5
147
100
AcDbEntity
  8
1
  6
CONTINUOUS
 62
7
100
AcDbCircle
 10
183.7999570000000
 20
423.5003660000000
 30
0.000000000000000
 40
2.000000000000000
100
AcDbArc
 50
239.9999970000000
 51
306.8698979999999
  0
CIRCLE
  5
148
100
AcDbEntity
  8
1
  6
CONTINUOUS
 62
7
100
AcDbCircle
 10
188.9999539999998
 20
306.0003660000000
 30
0.000000000000000
 40
3.250000000000000
  0
CIRCLE
  5
149
100
AcDbEntity
  8
1
  6
CONTINUOUS
 62
7
100
AcDbCircle
 10
188.9999539999998
 20
156.0003659999999
 30
0.000000000000000
 40
1.750000000000000
  0
ARC
  5
14A
100
AcDbEntity
  8
1
  6
CONTINUOUS
 62
7
100
AcDbCircle
 10
195.4999540000000
 20
163.0003659999998
 30
0.000000000000000
 40
1.000000000000000
100
AcDbArc
 50
269.9999969999999
 51
360.0000000000000
  0
ARC
  5
14B
100
AcDbEntity
  8
1
  6
CONTINUOUS
 62
7
100
AcDbCircle
 10
195.4999540000000
 20
149.0003659999999
 30
0.000000000000000
 40
1.000000000000000
100
AcDbArc
 50
0.000000000000000
 51
90.00000300000002
  0
ARC
  5
14C
100
AcDbEntity
  8
1
  6
CONTINUOUS
 62
7
100
AcDbCircle
 10
195.4999540000000
 20
151.5003659999998
 30
0.000000000000000
 40
1.500000000000000
100
AcDbArc
 50
180.0000050000000
 51
270.0000010000000
  0
ARC
  5
14D
100
AcDbEntity
  8
1
  6
CONTINUOUS
 62
7
100
AcDbCircle
 10
195.4999540000000
 20
160.5003659999999
 30
0.000000000000000
 40
1.500000000000000
100
AcDbArc
 50
90.00000300000002
 51
180.0000050000000
  0
CIRCLE
  5
14E
100
AcDbEntity
  8
5
  6
PHANTOM
 62
1
100
AcDbCircle
 10
328.9999080000000
 20
438.0003659999998
 30
0.000000000000000
 40
4.500000000000000
  0
ARC
  5
14F
100
AcDbEntity
  8
1
  6
CONTINUOUS
 62
7
100
AcDbCircle
 10
311.5936889999999
 20
144.9807589999998
 30
0.000000000000000
 40
3.000000000000000
100
AcDbArc
 50
266.2169950000001
 51
334.6100810000000
  0
ARC
  5
150
100
AcDbEntity
  8
1
  6
CONTINUOUS
 62
7
100
AcDbCircle
 10
346.3967900000000
 20
145.0003659999999
 30
0.000000000000000
 40
3.000000000000000
100
AcDbArc
 50
205.3899250000000
 51
269.9999969999999
  0
ARC
  5
151
100
AcDbEntity
  8
1
  6
CONTINUOUS
 62
7
100
AcDbCircle
 10
328.9999080000000
 20
156.0003659999999
 30
0.000000000000000
 40
8.000000000000000
100
AcDbArc
 50
25.37899499999999
 51
154.6100749999999
  0
ARC
  5
152
100
AcDbEntity
  8
1
  6
CONTINUOUS
 62
7
100
AcDbCircle
 10
329.3124080000000
 20
306.0003660000000
 30
0.000000000000000
 40
10.81250000000000
100
AcDbArc
 50
185.3066150000000
 51
197.4923279999999
  0
ARC
  5
153
100
AcDbEntity
  8
1
  6
CONTINUOUS
 62
7
100
AcDbCircle
 10
329.3124080000000
 20
306.0003660000000
 30
0.000000000000000
 40
10.81250000000000
100
AcDbArc
 50
162.5076719999999
 51
174.6933850000000
  0
ARC
  5
154
100
AcDbEntity
  8
1
  6
CONTINUOUS
 62
7
100
AcDbCircle
 10
328.6874080000000
 20
306.0003660000000
 30
0.000000000000000
 40
10.81250000000000
100
AcDbArc
 50
342.5076760000000
 51
354.6933849999998
  0
ARC
  5
155
100
AcDbEntity
  8
1
  6
CONTINUOUS
 62
7
100
AcDbCircle
 10
328.6874080000000
 20
306.0003660000000
 30
0.000000000000000
 40
10.81250000000000
100
AcDbArc
 50
5.306614999999998
 51
17.49232400000000
  0
CIRCLE
  5
156
100
AcDbEntity
  8
1
  6
CONTINUOUS
 62
7
100
AcDbCircle
 10
328.9999080000000
 20
136.0003659999998
 30
0.000000000000000
 40
1.850000000000000
  0
ARC
  5
157
100
AcDbEntity
  8
5
  6
PHANTOM
 62
1
100
AcDbCircle
 10
328.9999080000000
 20
326.0003659999999
 30
0.000000000000000
 40
7.000000000000000
100
AcDbArc
 50
190.9517940000000
 51
349.0482049999999
  0
ARC
  5
158
100
AcDbEntity
  8
5
  6
PHANTOM
 62
1
100
AcDbCircle
 10
341.6499940000000
 20
344.0003659999999
 30
0.000000000000000
 40
2.000000000000000
100
AcDbArc
 50
165.5224900000000
 51
169.0482059999999
  0
CIRCLE
  5
159
100
AcDbEntity
  8
5
  6
PHANTOM
 62
1
100
AcDbCircle
 10
328.9999080000000
 20
326.0003659999999
 30
0.000000000000000
 40
4.500000000000000
  0
ARC
  5
15A
100
AcDbEntity
  8
1
  6
CONTINUOUS
 62
7
100
AcDbCircle
 10
316.3498230000000
 20
444.0003660000000
 30
0.000000000000000
 40
2.000000000000000
100
AcDbArc
 50
10.95179499999999
 51
14.47751099999998
  0
ARC
  5
15B
100
AcDbEntity
  8
1
  6
CONTINUOUS
 62
7
100
AcDbCircle
 10
341.6499940000000
 20
444.0003660000000
 30
0.000000000000000
 40
2.000000000000000
100
AcDbArc
 50
165.5224900000000
 51
169.0482059999999
  0
ARC
  5
15C
100
AcDbEntity
  8
1
  6
CONTINUOUS
 62
7
100
AcDbCircle
 10
310.9999080000000
 20
136.0003659999998
 30
0.000000000000000
 40
6.000000000000000
100
AcDbArc
 50
86.21699300000004
 51
270.0000010000000
  0
ARC
  5
15D
100
AcDbEntity
  8
1
  6
CONTINUOUS
 62
7
100
AcDbCircle
 10
346.9999080000000
 20
136.0003659999998
 30
0.000000000000000
 40
6.000000000000000
100
AcDbArc
 50
269.9999969999999
 51
450.0000030000000
  0
ARC
  5
15E
100
AcDbEntity
  8
1
  6
CONTINUOUS
 62
7
100
AcDbCircle
 10
328.9999080000000
 20
426.0003659999998
 30
0.000000000000000
 40
7.000000000000000
100
AcDbArc
 50
190.9362070000000
 51
349.0482039999998
  0
ARC
  5
15F
100
AcDbEntity
  8
1
  6
CONTINUOUS
 62
7
100
AcDbCircle
 10
339.4335939999999
 20
283.2782290000000
 30
0.000000000000000
 40
1.250000000000000
100
AcDbArc
 50
321.1869340000000
 51
430.1999060000000
  0
ARC
  5
160
100
AcDbEntity
  8
1
  6
CONTINUOUS
 62
7
100
AcDbCircle
 10
337.2908020000000
 20
285.0018620000000
 30
0.000000000000000
 40
4.000000000000000
100
AcDbArc
 50
287.5943669999998
 51
321.1869340000000
  0
CIRCLE
  5
161
100
AcDbEntity
  8
1
  6
CONTINUOUS
 62
7
100
AcDbCircle
 10
328.9999080000000
 20
156.0003659999999
 30
0.000000000000000
 40
4.500000000000000
  0
CIRCLE
  5
162
100
AcDbEntity
  8
1
  6
CONTINUOUS
 62
7
100
AcDbCircle
 10
328.9999080000000
 20
426.0003659999998
 30
0.000000000000000
 40
4.500000000000000
  0
ARC
  5
163
100
AcDbEntity
  8
1
  6
CONTINUOUS
 62
7
100
AcDbCircle
 10
341.2374570000000
 20
444.5003660000000
 30
0.000000000000000
 40
1.500000000000000
100
AcDbArc
 50
90.00000300000002
 51
169.0482059999999
  0
ARC
  5
164
100
AcDbEntity
  8
1
  6
CONTINUOUS
 62
7
100
AcDbCircle
 10
316.7623290000000
 20
444.5003660000000
 30
0.000000000000000
 40
1.500000000000000
100
AcDbArc
 50
10.95179399999999
 51
90.00000300000002
  0
ARC
  5
165
100
AcDbEntity
  8
1
  6
CONTINUOUS
 62
7
100
AcDbCircle
 10
330.4999079999999
 20
306.0003660000000
 30
0.000000000000000
 40
0.5000000000000000
100
AcDbArc
 50
0.000000000000000
 51
90.00000300000002
  0
ARC
  5
166
100
AcDbEntity
  8
1
  6
CONTINUOUS
 62
7
100
AcDbCircle
 10
330.4999079999999
 20
300.0003659999999
 30
0.000000000000000
 40
0.5000000000000000
100
AcDbArc
 50
269.9999969999999
 51
360.0000000000000
  0
ARC
  5
167
100
AcDbEntity
  8
1
  6
CONTINUOUS
 62
7
100
AcDbCircle
 10
327.4999080000000
 20
300.0003659999999
 30
0.000000000000000
 40
0.5000000000000000
100
AcDbArc
 50
179.9999909999999
 51
270.0000010000000
  0
ARC
  5
168
100
AcDbEntity
  8
1
  6
CONTINUOUS
 62
7
100
AcDbCircle
 10
327.4999080000000
 20
306.0003660000000
 30
0.000000000000000
 40
0.5000000000000000
100
AcDbArc
 50
90.00000300000002
 51
180.0000050000000
  0
ARC
  5
169
100
AcDbEntity
  8
1
  6
CONTINUOUS
 62
7
100
AcDbCircle
 10
174.4999540000000
 20
509.0003659999998
 30
0.000000000000000
 40
3.000000000000000
100
AcDbArc
 50
179.9999909999999
 51
270.0000010000000
  0
ARC
  5
16A
100
AcDbEntity
  8
1
  6
CONTINUOUS
 62
7
100
AcDbCircle
 10
174.4999540000000
 20
533.0003660000000
 30
0.000000000000000
 40
3.000000000000000
100
AcDbArc
 50
90.00000300000002
 51
180.0000050000000
  0
ARC
  5
16B
100
AcDbEntity
  8
1
  6
CONTINUOUS
 62
7
100
AcDbCircle
 10
185.9999540000000
 20
509.0003659999998
 30
0.000000000000000
 40
3.000000000000000
100
AcDbArc
 50
269.9999969999999
 51
348.9529269999998
  0
ARC
  5
16C
100
AcDbEntity
  8
1
  6
CONTINUOUS
 62
7
100
AcDbCircle
 10
190.9073030000000
 20
533.9584349999999
 30
0.000000000000000
 40
2.000000000000000
100
AcDbArc
 50
191.0470749999999
 51
258.2480419999999
  0
ARC
  5
16D
100
AcDbEntity
  8
1
  6
CONTINUOUS
 62
7
100
AcDbCircle
 10
190.9073030000000
 20
508.0422360000000
 30
0.000000000000000
 40
2.000000000000000
100
AcDbArc
 50
101.7519579999998
 51
168.9529249999999
  0
ARC
  5
16E
100
AcDbEntity
  8
1
  6
CONTINUOUS
 62
7
100
AcDbCircle
 10
185.9999540000000
 20
533.0003660000000
 30
0.000000000000000
 40
3.000000000000000
100
AcDbArc
 50
11.04707300000000
 51
90.00000300000002
  0
ARC
  5
16F
100
AcDbEntity
  8
1
  6
CONTINUOUS
 62
7
100
AcDbCircle
 10
469.0000610000000
 20
444.5003660000000
 30
0.000000000000000
 40
1.500000000000000
100
AcDbArc
 50
90.00000300000002
 51
180.0000050000000
  0
ARC
  5
170
100
AcDbEntity
  8
1
  6
CONTINUOUS
 62
7
100
AcDbCircle
 10
188.9999539999998
 20
54.68750000000000
 30
0.000000000000000
 40
10.81250000000000
100
AcDbArc
 50
95.30661600000001
 51
107.4923220000000
  0
ARC
  5
171
100
AcDbEntity
  8
1
  6
CONTINUOUS
 62
7
100
AcDbCircle
 10
188.9999539999998
 20
54.68750000000000
 30
0.000000000000000
 40
10.81250000000000
100
AcDbArc
 50
72.50767600000000
 51
84.69338900000000
  0
ARC
  5
172
100
AcDbEntity
  8
1
  6
CONTINUOUS
 62
7
100
AcDbCircle
 10
188.9999539999998
 20
55.31250000000000
 30
0.000000000000000
 40
10.81250000000000
100
AcDbArc
 50
252.5076780000000
 51
264.6933839999999
  0
ARC
  5
173
100
AcDbEntity
  8
1
  6
CONTINUOUS
 62
7
100
AcDbCircle
 10
188.9999539999998
 20
55.31250000000000
 30
0.000000000000000
 40
10.81250000000000
100
AcDbArc
 50
275.3066170000000
 51
287.4923239999999
  0
ARC
  5
174
100
AcDbEntity
  8
1
  6
CONTINUOUS
 62
7
100
AcDbCircle
 10
192.9999540000000
 20
63.50000000000000
 30
0.000000000000000
 40
1.000000000000000
100
AcDbArc
 50
0.000000000000000
 51
90.00000300000002
  0
ARC
  5
175
100
AcDbEntity
  8
1
  6
CONTINUOUS
 62
7
100
AcDbCircle
 10
184.9999539999998
 20
63.50000000000000
 30
0.000000000000000
 40
1.000000000000000
100
AcDbArc
 50
90.00000300000002
 51
180.0000050000000
  0
ARC
  5
176
100
AcDbEntity
  8
1
  6
CONTINUOUS
 62
7
100
AcDbCircle
 10
184.9999539999998
 20
46.50000000000000
 30
0.000000000000000
 40
1.000000000000000
100
AcDbArc
 50
180.0000050000000
 51
270.0000010000000
  0
ARC
  5
177
100
AcDbEntity
  8
1
  6
CONTINUOUS
 62
7
100
AcDbCircle
 10
192.9999540000000
 20
46.50000000000000
 30
0.000000000000000
 40
1.000000000000000
100
AcDbArc
 50
269.9999969999999
 51
360.0000000000000
  0
ARC
  5
178
100
AcDbEntity
  8
1
  6
CONTINUOUS
 62
7
100
AcDbCircle
 10
183.9999539999998
 20
52.50000000000000
 30
0.000000000000000
 40
2.000000000000000
100
AcDbArc
 50
239.9999970000000
 51
269.9999969999999
  0
ARC
  5
179
100
AcDbEntity
  8
1
  6
CONTINUOUS
 62
7
100
AcDbCircle
 10
183.9999539999998
 20
57.50000000000000
 30
0.000000000000000
 40
2.000000000000000
100
AcDbArc
 50
90.00000300000002
 51
120.0000029999998
  0
ARC
  5
17A
100
AcDbEntity
  8
1
  6
CONTINUOUS
 62
7
100
AcDbCircle
 10
174.4999540000000
 20
67.00000000000000
 30
0.000000000000000
 40
3.000000000000000
100
AcDbArc
 50
90.00000300000002
 51
180.0000050000000
  0
ARC
  5
17B
100
AcDbEntity
  8
1
  6
CONTINUOUS
 62
7
100
AcDbCircle
 10
174.4999540000000
 20
43.00000000000000
 30
0.000000000000000
 40
3.000000000000000
100
AcDbArc
 50
180.0000050000000
 51
270.0000010000000
  0
ARC
  5
17C
100
AcDbEntity
  8
1
  6
CONTINUOUS
 62
7
100
AcDbCircle
 10
185.9999540000000
 20
67.00000000000000
 30
0.000000000000000
 40
3.000000000000000
100
AcDbArc
 50
11.04707300000000
 51
90.00000300000002
  0
ARC
  5
17D
100
AcDbEntity
  8
1
  6
CONTINUOUS
 62
7
100
AcDbCircle
 10
190.9073030000000
 20
42.04192400000000
 30
0.000000000000000
 40
2.000000000000000
100
AcDbArc
 50
101.7519579999998
 51
168.9529249999999
  0
ARC
  5
17E
100
AcDbEntity
  8
1
  6
CONTINUOUS
 62
7
100
AcDbCircle
 10
190.9073030000000
 20
67.95807600000001
 30
0.000000000000000
 40
2.000000000000000
100
AcDbArc
 50
191.0470749999999
 51
258.2480419999999
  0
ARC
  5
17F
100
AcDbEntity
  8
1
  6
CONTINUOUS
 62
7
100
AcDbCircle
 10
185.9999540000000
 20
43.00000000000000
 30
0.000000000000000
 40
3.000000000000000
100
AcDbArc
 50
269.9999969999999
 51
348.9529269999998
  0
ARC
  5
180
100
AcDbEntity
  8
1
  6
CONTINUOUS
 62
7
100
AcDbCircle
 10
49.00000000000000
 20
426.0003659999998
 30
0.000000000000000
 40
7.000000000000000
100
AcDbArc
 50
328.9972800000000
 51
349.0637920000000
  0
CIRCLE
  5
181
100
AcDbEntity
  8
1
  6
CONTINUOUS
 62
7
100
AcDbCircle
 10
328.9999080000000
 20
426.0003659999998
 30
0.000000000000000
 40
2.500000000000000
  0
CIRCLE
  5
182
100
AcDbEntity
  8
1
  6
CONTINUOUS
 62
7
100
AcDbCircle
 10
328.9999080000000
 20
156.0003659999999
 30
0.000000000000000
 40
2.500000000000000
  0
ARC
  5
183
100
AcDbEntity
  8
1
  6
CONTINUOUS
 62
7
100
AcDbCircle
 10
188.9999539999998
 20
444.5003660000000
 30
0.000000000000000
 40
1.500000000000000
100
AcDbArc
 50
0.000000000000000
 51
90.00000300000002
  0
ARC
  5
184
100
AcDbEntity
  8
1
  6
CONTINUOUS
 62
7
100
AcDbCircle
 10
195.4999540000000
 20
59.50000000000000
 30
0.000000000000000
 40
1.500000000000000
100
AcDbArc
 50
90.00000300000002
 51
180.0000050000000
  0
ARC
  5
185
100
AcDbEntity
  8
1
  6
CONTINUOUS
 62
7
100
AcDbCircle
 10
195.4999540000000
 20
62.00000000000000
 30
0.000000000000000
 40
1.000000000000000
100
AcDbArc
 50
269.9999969999999
 51
360.0000000000000
  0
ARC
  5
186
100
AcDbEntity
  8
1
  6
CONTINUOUS
 62
7
100
AcDbCircle
 10
195.4999540000000
 20
50.50000000000000
 30
0.000000000000000
 40
1.500000000000000
100
AcDbArc
 50
180.0000050000000
 51
270.0000010000000
  0
ARC
  5
187
100
AcDbEntity
  8
1
  6
CONTINUOUS
 62
7
100
AcDbCircle
 10
195.4999540000000
 20
48.00000000000000
 30
0.000000000000000
 40
1.000000000000000
100
AcDbArc
 50
0.000000000000000
 51
90.00000300000002
  0
ARC
  5
188
100
AcDbEntity
  8
1
  6
CONTINUOUS
 62
7
100
AcDbCircle
 10
195.4999540000000
 20
525.5003659999998
 30
0.000000000000000
 40
1.500000000000000
100
AcDbArc
 50
90.00000300000002
 51
180.0000050000000
  0
ARC
  5
189
100
AcDbEntity
  8
1
  6
CONTINUOUS
 62
7
100
AcDbCircle
 10
195.4999540000000
 20
528.0003660000000
 30
0.000000000000000
 40
1.000000000000000
100
AcDbArc
 50
269.9999969999999
 51
360.0000000000000
  0
ARC
  5
18A
100
AcDbEntity
  8
1
  6
CONTINUOUS
 62
7
100
AcDbCircle
 10
195.4999540000000
 20
516.5003659999999
 30
0.000000000000000
 40
1.500000000000000
100
AcDbArc
 50
180.0000050000000
 51
270.0000010000000
  0
ARC
  5
18B
100
AcDbEntity
  8
1
  6
CONTINUOUS
 62
7
100
AcDbCircle
 10
195.4999540000000
 20
514.0003659999998
 30
0.000000000000000
 40
1.000000000000000
100
AcDbArc
 50
0.000000000000000
 51
90.00000300000002
  0
MTEXT
  5
18C
100
AcDbEntity
  8
7
  6
CONTINUOUS
 62
7
100
AcDbMText
 10
10.00005000000000
 20
18.00000000000000
 30
0.000000000000000
 40
3.000000000000000
 41
0.000000000000000
 44
0.6739999771118164
 71
     7
 72
     1
  1
{\H0.94x;{TYPE No.TM-209-2}}
 11
1.000000000000000
 21
0.000000000000000
 31
0.000000000000000
  7
STANDARD
  0
ARC
  5
18D
100
AcDbEntity
  8
5
  6
PHANTOM
 62
1
100
AcDbCircle
 10
316.3498230000000
 20
344.0003659999999
 30
0.000000000000000
 40
2.000000000000000
100
AcDbArc
 50
10.95179399999999
 51
14.47751000000000
  0
LINE
  5
18E
100
AcDbEntity
  8
5
  6
PHANTOM
 62
1
100
AcDbLine
 10
318.3134160000000
 20
344.3803410000000
 30
0.000000000000000
 11
322.1274109999998
 21
324.6705020000000
 31
0.000000000000000
  0
LINE
  5
18F
100
AcDbEntity
  8
1
  6
CONTINUOUS
 62
7
100
AcDbLine
 10
31.59999999999999
 20
134.1503749999999
 30
0.000000000000000
 11
36.39999999999986
 21
134.1503749999999
 31
0.000000000000000
  0
ARC
  5
190
100
AcDbEntity
  8
1
  6
CONTINUOUS
 62
7
100
AcDbCircle
 10
31.59999999999999
 20
136.0003659999998
 30
0.000000000000000
 40
1.850000000000000
100
AcDbArc
 50
90.00000000000000
 51
270.0000000000000
  0
LINE
  5
191
100
AcDbEntity
  8
1
  6
CONTINUOUS
 62
7
100
AcDbLine
 10
31.59999999999999
 20
137.8503719999998
 30
0.000000000000000
 11
36.39999999999986
 21
137.8503719999998
 31
0.000000000000000
  0
ARC
  5
192
100
AcDbEntity
  8
1
  6
CONTINUOUS
 62
7
100
AcDbCircle
 10
36.39999999999986
 20
136.0003659999998
 30
0.000000000000000
 40
1.850000000000000
100
AcDbArc
 50
270.0000000000000
 51
450.0000000000000
  0
LINE
  5
193
100
AcDbEntity
  8
1
  6
CONTINUOUS
 62
7
100
AcDbLine
 10
61.59999999999999
 20
134.1503749999999
 30
0.000000000000000
 11
66.39999999999986
 21
134.1503749999999
 31
0.000000000000000
  0
LINE
  5
194
100
AcDbEntity
  8
1
  6
CONTINUOUS
 62
7
100
AcDbLine
 10
61.59999999999999
 20
137.8503719999998
 30
0.000000000000000
 11
66.39999999999986
 21
137.8503719999998
 31
0.000000000000000
  0
ARC
  5
195
100
AcDbEntity
  8
1
  6
CONTINUOUS
 62
7
100
AcDbCircle
 10
61.59999999999999
 20
136.0003659999998
 30
0.000000000000000
 40
1.850000000000000
100
AcDbArc
 50
90.00000000000000
 51
270.0000000000000
  0
ARC
  5
196
100
AcDbEntity
  8
1
  6
CONTINUOUS
 62
7
100
AcDbCircle
 10
66.39999999999986
 20
136.0003659999998
 30
0.000000000000000
 40
1.850000000000000
100
AcDbArc
 50
270.0000000000000
 51
450.0000000000000
  0
LINE
  5
197
100
AcDbEntity
  8
1
  6
CONTINUOUS
 62
7
100
AcDbLine
 10
311.5999080000000
 20
134.1503749999999
 30
0.000000000000000
 11
316.3999079999999
 21
134.1503749999999
 31
0.000000000000000
  0
ARC
  5
198
100
AcDbEntity
  8
1
  6
CONTINUOUS
 62
7
100
AcDbCircle
 10
311.5999080000000
 20
136.0003659999998
 30
0.000000000000000
 40
1.850000000000000
100
AcDbArc
 50
90.00000000000000
 51
270.0000000000000
  0
LINE
  5
199
100
AcDbEntity
  8
1
  6
CONTINUOUS
 62
7
100
AcDbLine
 10
311.5999080000000
 20
137.8503719999998
 30
0.000000000000000
 11
316.3999079999999
 21
137.8503719999998
 31
0.000000000000000
  0
ARC
  5
19A
100
AcDbEntity
  8
1
  6
CONTINUOUS
 62
7
100
AcDbCircle
 10
316.3999079999999
 20
136.0003659999998
 30
0.000000000000000
 40
1.850000000000000
100
AcDbArc
 50
270.0000000000000
 51
450.0000000000000
  0
LINE
  5
19B
100
AcDbEntity
  8
1
  6
CONTINUOUS
 62
7
100
AcDbLine
 10
341.5999080000000
 20
134.1503749999999
 30
0.000000000000000
 11
346.3999079999999
 21
134.1503749999999
 31
0.000000000000000
  0
LINE
  5
19C
100
AcDbEntity
  8
1
  6
CONTINUOUS
 62
7
100
AcDbLine
 10
341.5999080000000
 20
137.8503719999998
 30
0.000000000000000
 11
346.3999079999999
 21
137.8503719999998
 31
0.000000000000000
  0
ARC
  5
19D
100
AcDbEntity
  8
1
  6
CONTINUOUS
 62
7
100
AcDbCircle
 10
341.5999080000000
 20
136.0003659999998
 30
0.000000000000000
 40
1.850000000000000
100
AcDbArc
 50
90.00000000000000
 51
270.0000000000000
  0
ARC
  5
19E
100
AcDbEntity
  8
1
  6
CONTINUOUS
 62
7
100
AcDbCircle
 10
346.3999079999999
 20
136.0003659999998
 30
0.000000000000000
 40
1.850000000000000
100
AcDbArc
 50
270.0000000000000
 51
450.0000000000000
  0
LINE
  5
19F
100
AcDbEntity
  8
1
  6
CONTINUOUS
 62
7
100
AcDbLine
 10
182.3999539999997
 20
43.14999399999994
 30
0.000000000000000
 11
177.5999539999998
 21
43.14999399999994
 31
0.000000000000000
  0
ARC
  5
1A0
100
AcDbEntity
  8
1
  6
CONTINUOUS
 62
7
100
AcDbCircle
 10
182.3999539999997
 20
44.99999999999994
 30
0.000000000000000
 40
1.850000000000000
100
AcDbArc
 50
270.0000000000000
 51
450.0000000000000
  0
LINE
  5
1A1
100
AcDbEntity
  8
1
  6
CONTINUOUS
 62
7
100
AcDbLine
 10
182.3999539999997
 20
46.84999099999985
 30
0.000000000000000
 11
177.5999539999998
 21
46.84999099999985
 31
0.000000000000000
  0
ARC
  5
1A2
100
AcDbEntity
  8
1
  6
CONTINUOUS
 62
7
100
AcDbCircle
 10
177.5999539999999
 20
44.99999999999994
 30
0.000000000000000
 40
1.850000000000000
100
AcDbArc
 50
90.00000000000000
 51
270.0000000000000
  0
ARC
  5
1A3
100
AcDbEntity
  8
1
  6
CONTINUOUS
 62
7
100
AcDbCircle
 10
177.5999539999999
 20
64.99999999999993
 30
0.000000000000000
 40
1.850000000000000
100
AcDbArc
 50
90.00000000000000
 51
270.0000000000000
  0
LINE
  5
1A4
100
AcDbEntity
  8
1
  6
CONTINUOUS
 62
7
100
AcDbLine
 10
182.3999539999996
 20
63.14999399999993
 30
0.000000000000000
 11
177.5999539999998
 21
63.14999399999993
 31
0.000000000000000
  0
LINE
  5
1A5
100
AcDbEntity
  8
1
  6
CONTINUOUS
 62
7
100
AcDbLine
 10
182.3999539999996
 20
66.84999099999983
 30
0.000000000000000
 11
177.5999539999998
 21
66.84999099999983
 31
0.000000000000000
  0
ARC
  5
1A6
100
AcDbEntity
  8
1
  6
CONTINUOUS
 62
7
100
AcDbCircle
 10
182.3999539999997
 20
64.99999999999993
 30
0.000000000000000
 40
1.850000000000000
100
AcDbArc
 50
270.0000000000000
 51
450.0000000000000
  0
LINE
  5
1A7
100
AcDbEntity
  8
1
  6
CONTINUOUS
 62
7
100
AcDbLine
 10
182.3999539999996
 20
509.1503599999998
 30
0.000000000000000
 11
177.5999539999998
 21
509.1503599999998
 31
0.000000000000000
  0
ARC
  5
1A8
100
AcDbEntity
  8
1
  6
CONTINUOUS
 62
7
100
AcDbCircle
 10
182.3999539999997
 20
511.0003659999997
 30
0.000000000000000
 40
1.850000000000000
100
AcDbArc
 50
270.0000000000000
 51
450.0000000000000
  0
LINE
  5
1A9
100
AcDbEntity
  8
1
  6
CONTINUOUS
 62
7
100
AcDbLine
 10
182.3999539999996
 20
512.8503569999996
 30
0.000000000000000
 11
177.5999539999998
 21
512.8503569999996
 31
0.000000000000000
  0
ARC
  5
1AA
100
AcDbEntity
  8
1
  6
CONTINUOUS
 62
7
100
AcDbCircle
 10
177.5999539999998
 20
511.0003659999997
 30
0.000000000000000
 40
1.850000000000000
100
AcDbArc
 50
90.00000000000000
 51
270.0000000000000
  0
ARC
  5
1AB
100
AcDbEntity
  8
1
  6
CONTINUOUS
 62
7
100
AcDbCircle
 10
177.5999539999998
 20
531.0003659999996
 30
0.000000000000000
 40
1.850000000000000
100
AcDbArc
 50
90.00000000000000
 51
270.0000000000000
  0
LINE
  5
1AC
100
AcDbEntity
  8
1
  6
CONTINUOUS
 62
7
100
AcDbLine
 10
182.3999539999996
 20
529.1503599999998
 30
0.000000000000000
 11
177.5999539999998
 21
529.1503599999998
 31
0.000000000000000
  0
LINE
  5
1AD
100
AcDbEntity
  8
1
  6
CONTINUOUS
 62
7
100
AcDbLine
 10
182.3999539999996
 20
532.8503569999996
 30
0.000000000000000
 11
177.5999539999998
 21
532.8503569999996
 31
0.000000000000000
  0
ARC
  5
1AE
100
AcDbEntity
  8
1
  6
CONTINUOUS
 62
7
100
AcDbCircle
 10
182.3999539999997
 20
531.0003659999996
 30
0.000000000000000
 40
1.850000000000000
100
AcDbArc
 50
270.0000000000000
 51
450.0000000000000
  0
ENDSEC
  0
SECTION
  2
OBJECTS
  0
DICTIONARY
  5
1D8
100
AcDbDictionary
  3
ACAD_GROUP
350
1D9
  3
ACAD_LAYOUT
350
1DA
  3
ACAD_MLINESTYLE
350
1DB
  0
DICTIONARY
  5
1D9
102
{ACAD_REACTORS
330
1D8
102
}
330
1D8
100
AcDbDictionary
  0
DICTIONARY
  5
1DA
102
{ACAD_REACTORS
330
1D8
102
}
330
1D8
100
AcDbDictionary
  3
Model
350
1DC
  3
ﾚｲｱｳﾄ1
350
1DD
  3
ﾚｲｱｳﾄ2
350
1DE
  0
DICTIONARY
  5
1DB
102
{ACAD_REACTORS
330
1D8
102
}
330
1D8
100
AcDbDictionary
  3
STANDARD
350
1DF
  0
LAYOUT
  5
1DC
102
{ACAD_REACTORS
330
1DA
102
}
330
1DA
100
AcDbPlotSettings
 70
11952
  4
A3
 44
297.000000
 45
420.000000
 73
  1
 72
  1
100
AcDbLayout
  1
Model
 71
0
330
1CF
  0
LAYOUT
  5
1DD
102
{ACAD_REACTORS
330
1DA
102
}
330
1DA
100
AcDbPlotSettings
100
AcDbLayout
  1
ﾚｲｱｳﾄ1
 71
1
330
1D0
  0
LAYOUT
  5
1DE
102
{ACAD_REACTORS
330
1DA
102
}
330
1DA
100
AcDbPlotSettings
100
AcDbLayout
  1
ﾚｲｱｳﾄ2
 71
2
330
1D1
  0
MLINESTYLE
  5
1DF
102
{ACAD_REACTORS
330
1DB
102
}
330
1DB
100
AcDbMlineStyle
  2
STANDARD
 70
     0
  3

 62
   256
 51
90.00
 52
90.00
 71
     2
 49
0.50
 62
   256
  6
BYLAYER
 49
-0.50
 62
   256
  6
BYLAYER
  0
ENDSEC
  0
EOF
