  0
SECTION
  2
HEADER
  9
$ACADVER
  1
AC1015
  9
$ACADMAINTVER
 70
    20
  9
$DWGCODEPAGE
  3
ANSI_932
  9
$INSBASE
 10
0.0
 20
0.0
 30
0.0
  9
$EXTMIN
 10
10.0
 20
9.999999999999998
 30
0.0
  9
$EXTMAX
 10
982.5000000000001
 20
734.4999999999998
 30
0.0
  9
$LIMMIN
 10
0.0
 20
0.0
  9
$LIMMAX
 10
1108.8
 20
764.4
  9
$ORTHOMODE
 70
     1
  9
$REGENMODE
 70
     1
  9
$FILLMODE
 70
     1
  9
$QTEXTMODE
 70
     0
  9
$MIRRTEXT
 70
     1
  9
$LTSCALE
 40
20.0
  9
$ATTMODE
 70
     1
  9
$TEXTSIZE
 40
5.0
  9
$TRACEWID
 40
1.0
  9
$TEXTSTYLE
  7
STANDARD
  9
$CLAYER
  8
0
  9
$CELTYPE
  6
BYLAYER
  9
$CECOLOR
 62
   256
  9
$CELTSCALE
 40
1.0
  9
$DISPSILH
 70
     0
  9
$DIMSCALE
 40
1.0
  9
$DIMASZ
 40
2.5
  9
$DIMEXO
 40
1.0
  9
$DIMDLI
 40
10.0
  9
$DIMRND
 40
0.0
  9
$DIMDLE
 40
0.0
  9
$DIMEXE
 40
1.0
  9
$DIMTP
 40
0.0
  9
$DIMTM
 40
0.0
  9
$DIMTXT
 40
2.5
  9
$DIMCEN
 40
0.0
  9
$DIMTSZ
 40
0.0
  9
$DIMTOL
 70
     0
  9
$DIMLIM
 70
     0
  9
$DIMTIH
 70
     0
  9
$DIMTOH
 70
     0
  9
$DIMSE1
 70
     0
  9
$DIMSE2
 70
     0
  9
$DIMTAD
 70
     3
  9
$DIMZIN
 70
     8
  9
$DIMBLK
  1

  9
$DIMASO
 70
     1
  9
$DIMSHO
 70
     1
  9
$DIMPOST
  1

  9
$DIMAPOST
  1

  9
$DIMALT
 70
     0
  9
$DIMALTD
 70
     2
  9
$DIMALTF
 40
25.4
  9
$DIMLFAC
 40
1.0
  9
$DIMTOFL
 70
     1
  9
$DIMTVP
 40
0.0
  9
$DIMTIX
 70
     0
  9
$DIMSOXD
 70
     0
  9
$DIMSAH
 70
     1
  9
$DIMBLK1
  1

  9
$DIMBLK2
  1

  9
$DIMSTYLE
  2
STANDARD
  9
$DIMCLRD
 70
     0
  9
$DIMCLRE
 70
     0
  9
$DIMCLRT
 70
     0
  9
$DIMTFAC
 40
1.0
  9
$DIMGAP
 40
1.0
  9
$DIMJUST
 70
     0
  9
$DIMSD1
 70
     0
  9
$DIMSD2
 70
     0
  9
$DIMTOLJ
 70
     1
  9
$DIMTZIN
 70
     0
  9
$DIMALTZ
 70
     0
  9
$DIMALTTZ
 70
     0
  9
$DIMUPT
 70
     0
  9
$DIMDEC
 70
     4
  9
$DIMTDEC
 70
     4
  9
$DIMALTU
 70
     2
  9
$DIMALTTD
 70
     2
  9
$DIMTXSTY
  7
STANDARD
  9
$DIMAUNIT
 70
     0
  9
$DIMADEC
 70
     0
  9
$DIMALTRND
 40
0.0
  9
$DIMAZIN
 70
     0
  9
$DIMDSEP
 70
    46
  9
$DIMATFIT
 70
     3
  9
$DIMFRAC
 70
     0
  9
$DIMLDRBLK
  1

  9
$DIMLUNIT
 70
     2
  9
$DIMLWD
 70
    -2
  9
$DIMLWE
 70
    -2
  9
$DIMTMOVE
 70
     0
  9
$LUNITS
 70
     2
  9
$LUPREC
 70
     4
  9
$SKETCHINC
 40
1.0
  9
$FILLETRAD
 40
0.0
  9
$AUNITS
 70
     0
  9
$AUPREC
 70
     2
  9
$MENU
  1
.
  9
$ELEVATION
 40
0.0
  9
$PELEVATION
 40
0.0
  9
$THICKNESS
 40
0.0
  9
$LIMCHECK
 70
     0
  9
$CHAMFERA
 40
10.0
  9
$CHAMFERB
 40
10.0
  9
$CHAMFERC
 40
0.0
  9
$CHAMFERD
 40
0.0
  9
$SKPOLY
 70
     0
  9
$TDCREATE
 40
2451263.698167824
  9
$TDUCREATE
 40
2451263.323167824
  9
$TDUPDATE
 40
2457192.661597107
  9
$TDUUPDATE
 40
2457192.286597106
  9
$TDINDWG
 40
0.0000145718
  9
$TDUSRTIMER
 40
0.0000140856
  9
$USRTIMER
 70
     1
  9
$ANGBASE
 50
0.0
  9
$ANGDIR
 70
     0
  9
$PDMODE
 70
     0
  9
$PDSIZE
 40
0.0
  9
$PLINEWID
 40
0.0
  9
$SPLFRAME
 70
     0
  9
$SPLINETYPE
 70
     6
  9
$SPLINESEGS
 70
     8
  9
$HANDSEED
  5
13D4D
  9
$SURFTAB1
 70
     6
  9
$SURFTAB2
 70
     6
  9
$SURFTYPE
 70
     6
  9
$SURFU
 70
     6
  9
$SURFV
 70
     6
  9
$UCSBASE
  2

  9
$UCSNAME
  2

  9
$UCSORG
 10
0.0
 20
0.0
 30
0.0
  9
$UCSXDIR
 10
1.0
 20
0.0
 30
0.0
  9
$UCSYDIR
 10
0.0
 20
1.0
 30
0.0
  9
$UCSORTHOREF
  2

  9
$UCSORTHOVIEW
 70
     0
  9
$UCSORGTOP
 10
0.0
 20
0.0
 30
0.0
  9
$UCSORGBOTTOM
 10
0.0
 20
0.0
 30
0.0
  9
$UCSORGLEFT
 10
0.0
 20
0.0
 30
0.0
  9
$UCSORGRIGHT
 10
0.0
 20
0.0
 30
0.0
  9
$UCSORGFRONT
 10
0.0
 20
0.0
 30
0.0
  9
$UCSORGBACK
 10
0.0
 20
0.0
 30
0.0
  9
$PUCSBASE
  2

  9
$PUCSNAME
  2

  9
$PUCSORG
 10
0.0
 20
0.0
 30
0.0
  9
$PUCSXDIR
 10
1.0
 20
0.0
 30
0.0
  9
$PUCSYDIR
 10
0.0
 20
1.0
 30
0.0
  9
$PUCSORTHOREF
  2

  9
$PUCSORTHOVIEW
 70
     0
  9
$PUCSORGTOP
 10
0.0
 20
0.0
 30
0.0
  9
$PUCSORGBOTTOM
 10
0.0
 20
0.0
 30
0.0
  9
$PUCSORGLEFT
 10
0.0
 20
0.0
 30
0.0
  9
$PUCSORGRIGHT
 10
0.0
 20
0.0
 30
0.0
  9
$PUCSORGFRONT
 10
0.0
 20
0.0
 30
0.0
  9
$PUCSORGBACK
 10
0.0
 20
0.0
 30
0.0
  9
$USERI1
 70
     0
  9
$USERI2
 70
     0
  9
$USERI3
 70
     0
  9
$USERI4
 70
     0
  9
$USERI5
 70
     0
  9
$USERR1
 40
0.0
  9
$USERR2
 40
0.0
  9
$USERR3
 40
0.0
  9
$USERR4
 40
0.0
  9
$USERR5
 40
0.0
  9
$WORLDVIEW
 70
     1
  9
$SHADEDGE
 70
     3
  9
$SHADEDIF
 70
    70
  9
$TILEMODE
 70
     1
  9
$MAXACTVP
 70
    16
  9
$PINSBASE
 10
0.0
 20
0.0
 30
0.0
  9
$PLIMCHECK
 70
     0
  9
$PEXTMIN
 10
1.000000000000000E+20
 20
1.000000000000000E+20
 30
1.000000000000000E+20
  9
$PEXTMAX
 10
-1.000000000000000E+20
 20
-1.000000000000000E+20
 30
-1.000000000000000E+20
  9
$PLIMMIN
 10
0.0
 20
0.0
  9
$PLIMMAX
 10
420.0
 20
297.0
  9
$UNITMODE
 70
     0
  9
$VISRETAIN
 70
     0
  9
$PLINEGEN
 70
     0
  9
$PSLTSCALE
 70
     0
  9
$TREEDEPTH
 70
  3020
  9
$CMLSTYLE
  2
STANDARD
  9
$CMLJUST
 70
     0
  9
$CMLSCALE
 40
1.0
  9
$PROXYGRAPHICS
 70
     1
  9
$MEASUREMENT
 70
     0
  9
$CELWEIGHT
370
    -1
  9
$ENDCAPS
280
     0
  9
$JOINSTYLE
280
     0
  9
$LWDISPLAY
290
     0
  9
$INSUNITS
 70
     0
  9
$HYPERLINKBASE
  1

  9
$STYLESHEET
  1

  9
$XEDIT
290
     1
  9
$CEPSNTYPE
380
     0
  9
$PSTYLEMODE
290
     1
  9
$FINGERPRINTGUID
  2
{FE31762A-72F4-4E26-A8EC-B77ACA1F1984}
  9
$VERSIONGUID
  2
{15336C71-ECEE-4A6A-A7DE-0815027BE917}
  9
$EXTNAMES
290
     1
  9
$PSVPSCALE
 40
0.0
  9
$OLESTARTUP
290
     0
  0
ENDSEC
  0
SECTION
  2
CLASSES
  0
CLASS
  1
ACDBDICTIONARYWDFLT
  2
AcDbDictionaryWithDefault
  3
ObjectDBX Classes
 90
        0
280
     0
281
     0
  0
CLASS
  1
ACDBPLACEHOLDER
  2
AcDbPlaceHolder
  3
ObjectDBX Classes
 90
        0
280
     0
281
     0
  0
CLASS
  1
LAYOUT
  2
AcDbLayout
  3
ObjectDBX Classes
 90
        0
280
     0
281
     0
  0
CLASS
  1
DICTIONARYVAR
  2
AcDbDictionaryVar
  3
ObjectDBX Classes
 90
        0
280
     0
281
     0
  0
CLASS
  1
MATERIAL
  2
AcDbMaterial
  3
ObjectDBX Classes
 90
     1153
280
     0
281
     0
  0
CLASS
  1
VISUALSTYLE
  2
AcDbVisualStyle
  3
ObjectDBX Classes
 90
     4095
280
     0
281
     0
  0
CLASS
  1
TABLESTYLE
  2
AcDbTableStyle
  3
ObjectDBX Classes
 90
     4095
280
     0
281
     0
  0
CLASS
  1
SCALE
  2
AcDbScale
  3
ObjectDBX Classes
 90
     1153
280
     0
281
     0
  0
CLASS
  1
MLEADERSTYLE
  2
AcDbMLeaderStyle
  3
ACDB_MLEADERSTYLE_CLASS
 90
     4095
280
     0
281
     0
  0
CLASS
  1
ACDBSECTIONVIEWSTYLE
  2
AcDbSectionViewStyle
  3
ObjectDBX Classes
 90
     1025
280
     0
281
     0
  0
CLASS
  1
ACDBDETAILVIEWSTYLE
  2
AcDbDetailViewStyle
  3
ObjectDBX Classes
 90
     1025
280
     0
281
     0
  0
CLASS
  1
CELLSTYLEMAP
  2
AcDbCellStyleMap
  3
ObjectDBX Classes
 90
     1152
280
     0
281
     0
  0
ENDSEC
  0
SECTION
  2
TABLES
  0
TABLE
  2
VPORT
  5
13779
330
0
100
AcDbSymbolTable
 70
     1
  0
VPORT
  5
13C96
330
13779
100
AcDbSymbolTableRecord
100
AcDbViewportTableRecord
  2
*ACTIVE
 70
     0
 10
0.0
 20
0.0
 11
1.0
 21
1.0
 12
715.6961864396777
 22
372.2274370708821
 13
0.0
 23
0.0
 14
10.0
 24
10.0
 15
10.0
 25
10.0
 16
0.0
 26
0.0
 36
1.0
 17
0.0
 27
0.0
 37
0.0
 40
732.6601378091749
 41
1.899603698811096
 42
50.0
 43
0.0
 44
0.0
 50
0.0
 51
0.0
 71
     0
 72
   100
 73
     1
 74
     0
 75
     0
 76
     0
 77
     0
 78
     0
281
     0
 65
     1
110
0.0
120
0.0
130
0.0
111
1.0
121
0.0
131
0.0
112
0.0
122
1.0
132
0.0
 79
     0
146
0.0
1001
ACAD_NAV_VCDISPLAY
1070
     3
  0
ENDTAB
  0
TABLE
  2
LTYPE
  5
13776
330
0
100
AcDbSymbolTable
 70
     4
  0
LTYPE
  5
13784
330
13776
100
AcDbSymbolTableRecord
100
AcDbLinetypeTableRecord
  2
BYBLOCK
 70
     0
  3

 72
    65
 73
     0
 40
0.0
  0
LTYPE
  5
13785
330
13776
100
AcDbSymbolTableRecord
100
AcDbLinetypeTableRecord
  2
BYLAYER
 70
     0
  3

 72
    65
 73
     0
 40
0.0
  0
LTYPE
  5
13786
330
13776
100
AcDbSymbolTableRecord
100
AcDbLinetypeTableRecord
  2
CONTINUOUS
 70
     0
  3
Solid line
 72
    65
 73
     0
 40
0.0
  0
LTYPE
  5
13794
330
13776
100
AcDbSymbolTableRecord
100
AcDbLinetypeTableRecord
  2
DASHED
 70
     0
  3
__ __ __ __ __ __ __ __ __ __ __ __ __ __ __ __
 72
    65
 73
     2
 40
0.75
 49
0.5
 74
     0
 49
-0.25
 74
     0
  0
LTYPE
  5
13795
330
13776
100
AcDbSymbolTableRecord
100
AcDbLinetypeTableRecord
  2
CENTER
 70
     0
  3
____ _ ____ _ ____ _ ____ _ ____ _ ____ _ ____ 
 72
    65
 73
     4
 40
2.0
 49
1.25
 74
     0
 49
-0.25
 74
     0
 49
0.25
 74
     0
 49
-0.25
 74
     0
  0
LTYPE
  5
13796
330
13776
100
AcDbSymbolTableRecord
100
AcDbLinetypeTableRecord
  2
PHANTOM
 70
     0
  3
______  __  __  ______  __  __  ______  __  __ 
 72
    65
 73
     6
 40
2.5
 49
1.25
 74
     0
 49
-0.25
 74
     0
 49
0.25
 74
     0
 49
-0.25
 74
     0
 49
0.25
 74
     0
 49
-0.25
 74
     0
  0
ENDTAB
  0
TABLE
  2
LAYER
  5
13773
330
0
100
AcDbSymbolTable
 70
     8
  0
LAYER
  5
13781
102
{ACAD_XDICTIONARY
360
13CF1
102
}
330
13773
100
AcDbSymbolTableRecord
100
AcDbLayerTableRecord
  2
0
 70
     0
 62
     7
  6
CONTINUOUS
370
    -3
390
13C9F
  0
LAYER
  5
13797
102
{ACAD_XDICTIONARY
360
13CF3
102
}
330
13773
100
AcDbSymbolTableRecord
100
AcDbLayerTableRecord
  2
4
 70
     0
 62
     1
  6
CENTER
370
    -3
390
13C9F
  0
LAYER
  5
13798
102
{ACAD_XDICTIONARY
360
13CF5
102
}
330
13773
100
AcDbSymbolTableRecord
100
AcDbLayerTableRecord
  2
5
 70
     0
 62
     6
  6
PHANTOM
370
    -3
390
13C9F
  0
LAYER
  5
13799
102
{ACAD_XDICTIONARY
360
13CF7
102
}
330
13773
100
AcDbSymbolTableRecord
100
AcDbLayerTableRecord
  2
1
 70
     0
 62
     7
  6
CONTINUOUS
370
    -3
390
13C9F
  0
LAYER
  5
1379A
102
{ACAD_XDICTIONARY
360
13CF9
102
}
330
13773
100
AcDbSymbolTableRecord
100
AcDbLayerTableRecord
  2
2
 70
     0
 62
     4
  6
CONTINUOUS
370
    -3
390
13C9F
  0
LAYER
  5
1379B
102
{ACAD_XDICTIONARY
360
13CFB
102
}
330
13773
100
AcDbSymbolTableRecord
100
AcDbLayerTableRecord
  2
3
 70
     0
 62
     2
  6
DASHED
370
    -3
390
13C9F
  0
LAYER
  5
1379C
102
{ACAD_XDICTIONARY
360
13CFD
102
}
330
13773
100
AcDbSymbolTableRecord
100
AcDbLayerTableRecord
  2
6
 70
     0
 62
     5
  6
CONTINUOUS
370
    -3
390
13C9F
  0
LAYER
  5
1379D
102
{ACAD_XDICTIONARY
360
13CFF
102
}
330
13773
100
AcDbSymbolTableRecord
100
AcDbLayerTableRecord
  2
7
 70
     0
 62
     3
  6
CONTINUOUS
370
    -3
390
13C9F
  0
ENDTAB
  0
TABLE
  2
STYLE
  5
13774
330
0
100
AcDbSymbolTable
 70
     1
  0
STYLE
  5
13782
330
13774
100
AcDbSymbolTableRecord
100
AcDbTextStyleTableRecord
  2
STANDARD
 70
     0
 40
0.0
 41
1.0
 50
0.0
 71
     0
 42
5.0
  3
txt
  4

  0
ENDTAB
  0
TABLE
  2
VIEW
  5
13777
330
0
100
AcDbSymbolTable
 70
     0
  0
ENDTAB
  0
TABLE
  2
UCS
  5
13778
330
0
100
AcDbSymbolTable
 70
     0
  0
ENDTAB
  0
TABLE
  2
APPID
  5
1377A
330
0
100
AcDbSymbolTable
 70
     3
  0
APPID
  5
13783
330
1377A
100
AcDbSymbolTableRecord
100
AcDbRegAppTableRecord
  2
ACAD
 70
     0
  0
APPID
  5
13D0B
330
1377A
100
AcDbSymbolTableRecord
100
AcDbRegAppTableRecord
  2
ACAD_NAV_VCDISPLAY
 70
     0
  0
APPID
  5
13D44
330
1377A
100
AcDbSymbolTableRecord
100
AcDbRegAppTableRecord
  2
ACAD_MLEADERVER
 70
     0
  0
ENDTAB
  0
TABLE
  2
DIMSTYLE
  5
1377B
330
0
100
AcDbSymbolTable
 70
     1
100
AcDbDimStyleTable
 71
     0
  0
DIMSTYLE
105
1379F
330
1377B
100
AcDbSymbolTableRecord
100
AcDbDimStyleTableRecord
  2
STANDARD
 70
     0
 41
2.5
 42
1.0
 43
10.0
 44
1.0
 73
     0
 74
     0
 77
     3
 78
     8
140
2.5
141
0.0
147
1.0
172
     1
173
     1
284
     8
285
     8
286
     8
340
13782
  0
ENDTAB
  0
TABLE
  2
BLOCK_RECORD
  5
13772
330
0
100
AcDbSymbolTable
 70
     0
  0
BLOCK_RECORD
  5
1378F
102
{ACAD_XDICTIONARY
360
13C99
102
}
330
13772
100
AcDbSymbolTableRecord
100
AcDbBlockTableRecord
  2
*MODEL_SPACE
340
13CED
  0
BLOCK_RECORD
  5
1378B
102
{ACAD_XDICTIONARY
360
13C97
102
}
330
13772
100
AcDbSymbolTableRecord
100
AcDbBlockTableRecord
  2
*PAPER_SPACE
340
13CEE
  0
ENDTAB
  0
ENDSEC
  0
SECTION
  2
BLOCKS
  0
BLOCK
  5
13790
330
1378F
100
AcDbEntity
  8
0
100
AcDbBlockBegin
  2
*MODEL_SPACE
 70
     0
 10
0.0
 20
0.0
 30
0.0
  3
*MODEL_SPACE
  1

  0
ENDBLK
  5
13791
330
1378F
100
AcDbEntity
  8
0
100
AcDbBlockEnd
  0
BLOCK
  5
1378C
330
1378B
100
AcDbEntity
 67
     1
  8
0
100
AcDbBlockBegin
  2
*PAPER_SPACE
 70
     0
 10
0.0
 20
0.0
 30
0.0
  3
*PAPER_SPACE
  1

  0
ENDBLK
  5
1378D
330
1378B
100
AcDbEntity
 67
     1
  8
0
100
AcDbBlockEnd
  0
ENDSEC
  0
SECTION
  2
ENTITIES
  0
TEXT
  5
137A7
330
1378F
100
AcDbEntity
  8
7
  6
Continuous
100
AcDbText
 10
10.0
 20
18.0
 30
0.0
 40
3.0
  1
TYPE No.TM-211-4
100
AcDbText
  0
TEXT
  5
137A8
330
1378F
100
AcDbEntity
  8
7
  6
Continuous
100
AcDbText
 10
10.0
 20
26.0
 30
0.0
 40
3.0
  1
CODE No.5794
100
AcDbText
  0
TEXT
  5
137A9
330
1378F
100
AcDbEntity
  8
1
  6
Continuous
100
AcDbText
 10
10.0
 20
10.0
 30
0.0
 40
1.399999999999999
  1
LAYER
100
AcDbText
  0
TEXT
  5
137AA
330
1378F
100
AcDbEntity
  8
1
  6
Continuous
100
AcDbText
 10
17.97951099999998
 20
10.04873699999998
 30
0.0
 40
1.399999999999999
  1
1
100
AcDbText
  0
TEXT
  5
137AB
330
1378F
100
AcDbEntity
  8
7
  6
Continuous
100
AcDbText
 10
29.97951099999999
 20
10.04873699999998
 30
0.0
 40
1.399999999999999
  1
7
100
AcDbText
  0
TEXT
  5
137AC
330
1378F
100
AcDbEntity
  8
4
  6
CENTER
100
AcDbText
 10
23.97951099999999
 20
10.04873699999998
 30
0.0
 40
1.399999999999999
  1
4
100
AcDbText
  0
TEXT
  5
137AD
330
1378F
100
AcDbEntity
  8
3
  6
DASHED
100
AcDbText
 10
21.979511
 20
10.04873699999998
 30
0.0
 40
1.399999999999999
  1
3
100
AcDbText
  0
TEXT
  5
137AE
330
1378F
100
AcDbEntity
  8
2
  6
Continuous
100
AcDbText
 10
19.97951099999999
 20
10.04873699999998
 30
0.0
 40
1.399999999999999
  1
2
100
AcDbText
  0
TEXT
  5
137AF
330
1378F
100
AcDbEntity
  8
6
  6
Continuous
100
AcDbText
 10
27.979511
 20
10.04873699999998
 30
0.0
 40
1.399999999999999
  1
6
100
AcDbText
  0
TEXT
  5
137B0
330
1378F
100
AcDbEntity
  8
5
  6
PHANTOM
100
AcDbText
 10
25.97951099999999
 20
10.04873699999998
 30
0.0
 40
1.399999999999999
  1
5
100
AcDbText
  0
CIRCLE
  5
137B1
330
1378F
100
AcDbEntity
  8
1
  6
Continuous
100
AcDbCircle
 10
466.0
 20
319.5
 30
0.0
 40
5.0
  0
CIRCLE
  5
137B2
330
1378F
100
AcDbEntity
  8
1
  6
Continuous
100
AcDbCircle
 10
466.0
 20
319.5
 30
0.0
 40
3.0
  0
LINE
  5
137B3
330
1378F
100
AcDbEntity
  8
3
  6
DASHED
100
AcDbLine
 10
553.0
 20
307.0
 30
0.0
 11
535.5
 21
307.0
 31
0.0
  0
LINE
  5
137B4
330
1378F
100
AcDbEntity
  8
4
  6
CENTER
100
AcDbLine
 10
556.0
 20
317.0
 30
0.0
 11
509.25
 21
317.0
 31
0.0
  0
LINE
  5
137B5
330
1378F
100
AcDbEntity
  8
1
  6
Continuous
100
AcDbLine
 10
547.7639319999998
 20
331.0
 30
0.0
 11
111.0
 21
331.0
 31
0.0
  0
LINE
  5
137B6
330
1378F
100
AcDbEntity
  8
1
  6
Continuous
100
AcDbLine
 10
852.0
 20
329.4999999999999
 30
0.0
 11
534.5781950000001
 21
329.4999999999999
 31
0.0
  0
LINE
  5
137B7
330
1378F
100
AcDbEntity
  8
1
  6
Continuous
100
AcDbLine
 10
895.0
 20
303.5
 30
0.0
 11
519.0
 21
303.5
 31
0.0
  0
LINE
  5
137B8
330
1378F
100
AcDbEntity
  8
1
  6
Continuous
100
AcDbLine
 10
880.0
 20
332.0
 30
0.0
 11
852.0
 21
329.4999999999999
 31
0.0
  0
ARC
  5
137B9
330
1378F
100
AcDbEntity
  8
1
  6
Continuous
100
AcDbCircle
 10
893.5
 20
327.1145589999998
 30
0.0
 40
1.5
100
AcDbArc
 50
286.772393
 51
0.0
  0
LINE
  5
137BA
330
1378F
100
AcDbEntity
  8
1
  6
Continuous
100
AcDbLine
 10
895.0
 20
332.0
 30
0.0
 11
880.0
 21
332.0
 31
0.0
  0
LINE
  5
137BB
330
1378F
100
AcDbEntity
  8
1
  6
Continuous
100
AcDbLine
 10
895.0
 20
332.0
 30
0.0
 11
895.0
 21
327.1145589999998
 31
0.0
  0
LINE
  5
137BC
330
1378F
100
AcDbEntity
  8
1
  6
Continuous
100
AcDbLine
 10
893.9328559999999
 20
325.6783709999999
 30
0.0
 11
886.4228589999999
 21
323.414917
 31
0.0
  0
LINE
  5
137BD
330
1378F
100
AcDbEntity
  8
1
  6
Continuous
100
AcDbLine
 10
893.5
 20
319.5
 30
0.0
 11
887.0
 21
319.5
 31
0.0
  0
LINE
  5
137BE
330
1378F
100
AcDbEntity
  8
1
  6
Continuous
100
AcDbLine
 10
890.8581949999996
 20
314.619837
 30
0.0
 11
887.273397
 21
316.3944419999999
 31
0.0
  0
ARC
  5
137BF
330
1378F
100
AcDbEntity
  8
1
  6
Continuous
100
AcDbCircle
 10
881.0
 20
319.5
 30
0.0
 40
11.0
100
AcDbArc
 50
296.3370750000001
 51
333.6629249999999
  0
LINE
  5
137C0
330
1378F
100
AcDbEntity
  8
1
  6
Continuous
100
AcDbLine
 10
895.0
 20
318.0
 30
0.0
 11
895.0
 21
303.5
 31
0.0
  0
ARC
  5
137C1
330
1378F
100
AcDbEntity
  8
1
  6
Continuous
100
AcDbCircle
 10
893.5
 20
318.0
 30
0.0
 40
1.5
100
AcDbArc
 50
0.0
 51
90.0
  0
LINE
  5
137C2
330
1378F
100
AcDbEntity
  8
4
  6
CENTER
100
AcDbLine
 10
885.7499999999999
 20
319.5
 30
0.0
 11
864.25
 21
319.5
 31
0.0
  0
ARC
  5
137C3
330
1378F
100
AcDbEntity
  8
1
  6
Continuous
100
AcDbCircle
 10
887.0
 20
321.4999999999998
 30
0.0
 40
2.0
100
AcDbArc
 50
106.7723929999998
 51
270.0
  0
ARC
  5
137C4
330
1378F
100
AcDbEntity
  8
1
  6
Continuous
100
AcDbCircle
 10
881.0
 20
319.5
 30
0.0
 40
7.0
100
AcDbArc
 50
296.3370750000001
 51
333.6629249999999
  0
LINE
  5
137C5
330
1378F
100
AcDbEntity
  8
1
  6
Continuous
100
AcDbLine
 10
885.880163
 20
309.641805
 30
0.0
 11
884.1055579999999
 21
313.2266029999998
 31
0.0
  0
CIRCLE
  5
137C6
330
1378F
100
AcDbEntity
  8
1
  6
Continuous
100
AcDbCircle
 10
880.0
 20
319.5
 30
0.0
 40
2.399999999999999
  0
LINE
  5
137C7
330
1378F
100
AcDbEntity
  8
4
  6
CENTER
100
AcDbLine
 10
880.0
 20
325.2499999999999
 30
0.0
 11
880.0
 21
313.75
 31
0.0
  0
LINE
  5
137C8
330
1378F
100
AcDbEntity
  8
1
  6
Continuous
100
AcDbLine
 10
872.4
 20
320.5
 30
0.0
 11
872.4
 21
318.5
 31
0.0
  0
ARC
  5
137C9
330
1378F
100
AcDbEntity
  8
1
  6
Continuous
100
AcDbCircle
 10
870.0
 20
320.5
 30
0.0
 40
2.399999999999999
100
AcDbArc
 50
0.0
 51
180.0
  0
LINE
  5
137CA
330
1378F
100
AcDbEntity
  8
1
  6
Continuous
100
AcDbLine
 10
867.6
 20
320.5
 30
0.0
 11
867.6
 21
318.5
 31
0.0
  0
ARC
  5
137CB
330
1378F
100
AcDbEntity
  8
1
  6
Continuous
100
AcDbCircle
 10
870.0
 20
318.5
 30
0.0
 40
2.399999999999999
100
AcDbArc
 50
180.0
 51
0.0
  0
LINE
  5
137CC
330
1378F
100
AcDbEntity
  8
4
  6
CENTER
100
AcDbLine
 10
870.0
 20
326.25
 30
0.0
 11
870.0
 21
312.7499999999999
 31
0.0
  0
LINE
  5
137CD
330
1378F
100
AcDbEntity
  8
4
  6
CENTER
100
AcDbLine
 10
499.2499999999998
 20
319.5
 30
0.0
 11
520.75
 21
319.5
 31
0.0
  0
LINE
  5
137CE
330
1378F
100
AcDbEntity
  8
1
  6
Continuous
100
AcDbLine
 10
514.0
 20
303.5
 30
0.0
 11
451.0
 21
303.5
 31
0.0
  0
LINE
  5
137CF
330
1378F
100
AcDbEntity
  8
4
  6
CENTER
100
AcDbLine
 10
624.2499999999997
 20
319.5
 30
0.0
 11
635.7499999999999
 21
319.5
 31
0.0
  0
LINE
  5
137D0
330
1378F
100
AcDbEntity
  8
4
  6
CENTER
100
AcDbLine
 10
630.0
 20
325.2499999999999
 30
0.0
 11
630.0
 21
313.75
 31
0.0
  0
CIRCLE
  5
137D1
330
1378F
100
AcDbEntity
  8
1
  6
Continuous
100
AcDbCircle
 10
630.0
 20
319.5
 30
0.0
 40
2.399999999999999
  0
LINE
  5
137D2
330
1378F
100
AcDbEntity
  8
1
  6
Continuous
100
AcDbLine
 10
518.0
 20
305.0
 30
0.0
 11
514.0
 21
303.5
 31
0.0
  0
LINE
  5
137D3
330
1378F
100
AcDbEntity
  8
1
  6
Continuous
100
AcDbLine
 10
519.0
 20
305.0
 30
0.0
 11
519.0
 21
303.5
 31
0.0
  0
LINE
  5
137D4
330
1378F
100
AcDbEntity
  8
4
  6
CENTER
100
AcDbLine
 10
466.0
 20
334.5
 30
0.0
 11
466.0
 21
304.4999999999999
 31
0.0
  0
LINE
  5
137D5
330
1378F
100
AcDbEntity
  8
1
  6
Continuous
100
AcDbLine
 10
449.0
 20
327.4999999999999
 30
0.0
 11
449.0
 21
305.5
 31
0.0
  0
LINE
  5
137D6
330
1378F
100
AcDbEntity
  8
1
  6
Continuous
100
AcDbLine
 10
534.5781950000001
 20
329.4999999999999
 30
0.0
 11
499.5
 21
329.4999999999999
 31
0.0
  0
LINE
  5
137D7
330
1378F
100
AcDbEntity
  8
4
  6
CENTER
100
AcDbLine
 10
481.0
 20
319.5
 30
0.0
 11
451.0
 21
319.5
 31
0.0
  0
LINE
  5
137D8
330
1378F
100
AcDbEntity
  8
4
  6
CENTER
100
AcDbLine
 10
474.2499999999998
 20
311.5
 30
0.0
 11
485.7499999999998
 21
311.5
 31
0.0
  0
LINE
  5
137D9
330
1378F
100
AcDbEntity
  8
4
  6
CENTER
100
AcDbLine
 10
505.0
 20
324.8999999999999
 30
0.0
 11
505.0
 21
314.1
 31
0.0
  0
LINE
  5
137DA
330
1378F
100
AcDbEntity
  8
4
  6
CENTER
100
AcDbLine
 10
454.55
 20
311.2999999999999
 30
0.0
 11
454.55
 21
303.8
 31
0.0
  0
LINE
  5
137DB
330
1378F
100
AcDbEntity
  8
4
  6
CENTER
100
AcDbLine
 10
480.0
 20
317.2499999999998
 30
0.0
 11
480.0
 21
305.75
 31
0.0
  0
LINE
  5
137DC
330
1378F
100
AcDbEntity
  8
4
  6
CENTER
100
AcDbLine
 10
450.8
 20
307.55
 30
0.0
 11
458.3
 21
307.55
 31
0.0
  0
LINE
  5
137DD
330
1378F
100
AcDbEntity
  8
1
  6
Continuous
100
AcDbLine
 10
156.0
 20
307.0
 30
0.0
 11
127.0
 21
304.4999999999999
 31
0.0
  0
LINE
  5
137DE
330
1378F
100
AcDbEntity
  8
4
  6
CENTER
100
AcDbLine
 10
119.25
 20
317.0
 30
0.0
 11
140.7499999999998
 21
317.0
 31
0.0
  0
LINE
  5
137DF
330
1378F
100
AcDbEntity
  8
3
  6
DASHED
100
AcDbLine
 10
530.0
 20
307.0
 30
0.0
 11
449.0
 21
307.0
 31
0.0
  0
LINE
  5
137E0
330
1378F
100
AcDbEntity
  8
4
  6
CENTER
100
AcDbLine
 10
541.0
 20
332.0
 30
0.0
 11
541.0
 21
302.0
 31
0.0
  0
CIRCLE
  5
137E1
330
1378F
100
AcDbEntity
  8
1
  6
Continuous
100
AcDbCircle
 10
505.0
 20
319.5
 30
0.0
 40
2.399999999999999
  0
LINE
  5
137E2
330
1378F
100
AcDbEntity
  8
3
  6
DASHED
100
AcDbLine
 10
530.0
 20
308.4999999999999
 30
0.0
 11
530.0
 21
307.0
 31
0.0
  0
LINE
  5
137E3
330
1378F
100
AcDbEntity
  8
3
  6
DASHED
100
AcDbLine
 10
531.5
 20
308.4999999999999
 30
0.0
 11
535.5
 21
307.0
 31
0.0
  0
LINE
  5
137E4
330
1378F
100
AcDbEntity
  8
1
  6
Continuous
100
AcDbLine
 10
512.6
 20
320.5
 30
0.0
 11
512.6
 21
318.5
 31
0.0
  0
ARC
  5
137E5
330
1378F
100
AcDbEntity
  8
1
  6
Continuous
100
AcDbCircle
 10
515.0
 20
320.5
 30
0.0
 40
2.399999999999999
100
AcDbArc
 50
0.0
 51
180.0
  0
LINE
  5
137E6
330
1378F
100
AcDbEntity
  8
1
  6
Continuous
100
AcDbLine
 10
517.3999999999998
 20
320.5
 30
0.0
 11
517.3999999999998
 21
318.5
 31
0.0
  0
ARC
  5
137E7
330
1378F
100
AcDbEntity
  8
1
  6
Continuous
100
AcDbCircle
 10
515.0
 20
318.5
 30
0.0
 40
2.399999999999999
100
AcDbArc
 50
180.0
 51
0.0
  0
LINE
  5
137E8
330
1378F
100
AcDbEntity
  8
4
  6
CENTER
100
AcDbLine
 10
430.75
 20
317.0
 30
0.0
 11
409.25
 21
317.0
 31
0.0
  0
ARC
  5
137E9
330
1378F
100
AcDbEntity
  8
1
  6
Continuous
100
AcDbCircle
 10
415.0
 20
316.0
 30
0.0
 40
2.399999999999999
100
AcDbArc
 50
180.0
 51
0.0
  0
ARC
  5
137EA
330
1378F
100
AcDbEntity
  8
1
  6
Continuous
100
AcDbCircle
 10
415.0
 20
318.0
 30
0.0
 40
2.399999999999999
100
AcDbArc
 50
0.0
 51
180.0
  0
LINE
  5
137EB
330
1378F
100
AcDbEntity
  8
1
  6
Continuous
100
AcDbLine
 10
417.3999999999998
 20
318.0
 30
0.0
 11
417.3999999999998
 21
316.0
 31
0.0
  0
LINE
  5
137EC
330
1378F
100
AcDbEntity
  8
4
  6
CENTER
100
AcDbLine
 10
415.0
 20
323.75
 30
0.0
 11
415.0
 21
310.25
 31
0.0
  0
CIRCLE
  5
137ED
330
1378F
100
AcDbEntity
  8
1
  6
Continuous
100
AcDbCircle
 10
425.0
 20
317.0
 30
0.0
 40
2.399999999999999
  0
LINE
  5
137EE
330
1378F
100
AcDbEntity
  8
4
  6
CENTER
100
AcDbLine
 10
425.0
 20
322.75
 30
0.0
 11
425.0
 21
311.25
 31
0.0
  0
LINE
  5
137EF
330
1378F
100
AcDbEntity
  8
1
  6
Continuous
100
AcDbLine
 10
412.6
 20
318.0
 30
0.0
 11
412.6
 21
316.0
 31
0.0
  0
LINE
  5
137F0
330
1378F
100
AcDbEntity
  8
4
  6
CENTER
100
AcDbLine
 10
135.0
 20
323.75
 30
0.0
 11
135.0
 21
310.25
 31
0.0
  0
LINE
  5
137F1
330
1378F
100
AcDbEntity
  8
1
  6
Continuous
100
AcDbLine
 10
137.4
 20
318.0
 30
0.0
 11
137.4
 21
316.0
 31
0.0
  0
ARC
  5
137F2
330
1378F
100
AcDbEntity
  8
1
  6
Continuous
100
AcDbCircle
 10
135.0
 20
318.0
 30
0.0
 40
2.399999999999999
100
AcDbArc
 50
0.0
 51
180.0
  0
LINE
  5
137F3
330
1378F
100
AcDbEntity
  8
1
  6
Continuous
100
AcDbLine
 10
132.6
 20
318.0
 30
0.0
 11
132.6
 21
316.0
 31
0.0
  0
ARC
  5
137F4
330
1378F
100
AcDbEntity
  8
1
  6
Continuous
100
AcDbCircle
 10
135.0
 20
316.0
 30
0.0
 40
2.399999999999999
100
AcDbArc
 50
180.0
 51
0.0
  0
LINE
  5
137F5
330
1378F
100
AcDbEntity
  8
1
  6
Continuous
100
AcDbLine
 10
109.0
 20
318.5
 30
0.0
 11
109.0
 21
329.0
 31
0.0
  0
ARC
  5
137F6
330
1378F
100
AcDbEntity
  8
1
  6
Continuous
100
AcDbCircle
 10
111.0
 20
329.0
 30
0.0
 40
2.0
100
AcDbArc
 50
90.0
 51
180.0
  0
LINE
  5
137F7
330
1378F
100
AcDbEntity
  8
1
  6
Continuous
100
AcDbLine
 10
109.0
 20
304.4999999999999
 30
0.0
 11
109.0
 21
309.385441
 31
0.0
  0
LINE
  5
137F8
330
1378F
100
AcDbEntity
  8
1
  6
Continuous
100
AcDbLine
 10
110.4999999999999
 20
317.0
 30
0.0
 11
117.0
 21
317.0
 31
0.0
  0
LINE
  5
137F9
330
1378F
100
AcDbEntity
  8
1
  6
Continuous
100
AcDbLine
 10
110.0671439999999
 20
310.8216289999999
 30
0.0
 11
117.577141
 21
313.0850829999999
 31
0.0
  0
ARC
  5
137FA
330
1378F
100
AcDbEntity
  8
1
  6
Continuous
100
AcDbCircle
 10
117.0
 20
315.0
 30
0.0
 40
2.0
100
AcDbArc
 50
286.772393
 51
90.0
  0
LINE
  5
137FB
330
1378F
100
AcDbEntity
  8
4
  6
CENTER
100
AcDbLine
 10
125.0
 20
322.75
 30
0.0
 11
125.0
 21
311.25
 31
0.0
  0
CIRCLE
  5
137FC
330
1378F
100
AcDbEntity
  8
1
  6
Continuous
100
AcDbCircle
 10
125.0
 20
317.0
 30
0.0
 40
2.399999999999999
  0
ARC
  5
137FD
330
1378F
100
AcDbEntity
  8
1
  6
Continuous
100
AcDbCircle
 10
110.4999999999999
 20
318.5
 30
0.0
 40
1.5
100
AcDbArc
 50
180.0
 51
270.0
  0
ARC
  5
137FE
330
1378F
100
AcDbEntity
  8
1
  6
Continuous
100
AcDbCircle
 10
110.4999999999999
 20
309.385441
 30
0.0
 40
1.5
100
AcDbArc
 50
106.7723929999998
 51
180.0
  0
LINE
  5
137FF
330
1378F
100
AcDbEntity
  8
1
  6
Continuous
100
AcDbLine
 10
109.0
 20
304.4999999999999
 30
0.0
 11
127.0
 21
304.4999999999999
 31
0.0
  0
ARC
  5
13800
330
1378F
100
AcDbEntity
  8
1
  6
Continuous
100
AcDbCircle
 10
466.0
 20
319.5
 30
0.0
 40
11.0
100
AcDbArc
 50
65.38002299999999
 51
114.619977
  0
LINE
  5
13801
330
1378F
100
AcDbEntity
  8
1
  6
Continuous
100
AcDbLine
 10
895.0
 20
233.4999999999999
 30
0.0
 11
449.0
 21
233.4999999999999
 31
0.0
  0
LINE
  5
13802
330
1378F
100
AcDbEntity
  8
1
  6
Continuous
100
AcDbLine
 10
555.0
 20
221.0
 30
0.0
 11
109.0
 21
221.0
 31
0.0
  0
LINE
  5
13803
330
1378F
100
AcDbEntity
  8
1
  6
Continuous
100
AcDbLine
 10
895.0
 20
151.0
 30
0.0
 11
519.0
 21
151.0
 31
0.0
  0
LINE
  5
13804
330
1378F
100
AcDbEntity
  8
1
  6
Continuous
100
AcDbLine
 10
895.0
 20
149.5
 30
0.0
 11
518.0
 21
149.5
 31
0.0
  0
LINE
  5
13805
330
1378F
100
AcDbEntity
  8
1
  6
Continuous
100
AcDbLine
 10
852.0
 20
125.0
 30
0.0
 11
549.75
 21
125.0
 31
0.0
  0
LINE
  5
13806
330
1378F
100
AcDbEntity
  8
1
  6
Continuous
100
AcDbLine
 10
530.0
 20
147.5
 30
0.0
 11
156.0
 21
147.5
 31
0.0
  0
LINE
  5
13807
330
1378F
100
AcDbEntity
  8
1
  6
Continuous
100
AcDbLine
 10
547.7639319999998
 20
123.5
 30
0.0
 11
111.0
 21
123.5
 31
0.0
  0
LINE
  5
13808
330
1378F
100
AcDbEntity
  8
1
  6
Continuous
100
AcDbLine
 10
156.0
 20
147.5
 30
0.0
 11
127.0
 21
150.0
 31
0.0
  0
LINE
  5
13809
330
1378F
100
AcDbEntity
  8
1
  6
Continuous
100
AcDbLine
 10
109.0
 20
150.0
 30
0.0
 11
109.0
 21
145.114559
 31
0.0
  0
LINE
  5
1380A
330
1378F
100
AcDbEntity
  8
1
  6
Continuous
100
AcDbLine
 10
114.0
 20
150.0
 30
0.0
 11
114.0
 21
148.0
 31
0.0
  0
ARC
  5
1380B
330
1378F
100
AcDbEntity
  8
1
  6
Continuous
100
AcDbCircle
 10
115.5
 20
148.0
 30
0.0
 40
1.5
100
AcDbArc
 50
180.0
 51
270.0
  0
LINE
  5
1380C
330
1378F
100
AcDbEntity
  8
1
  6
Continuous
100
AcDbLine
 10
110.0671439999999
 20
143.678371
 30
0.0
 11
117.577141
 21
141.4149169999998
 31
0.0
  0
LINE
  5
1380D
330
1378F
100
AcDbEntity
  8
1
  6
Continuous
100
AcDbLine
 10
110.4999999999999
 20
137.5
 30
0.0
 11
117.0
 21
137.5
 31
0.0
  0
LINE
  5
1380E
330
1378F
100
AcDbEntity
  8
1
  6
Continuous
100
AcDbLine
 10
114.0
 20
148.5
 30
0.0
 11
126.9354649999998
 21
148.5
 31
0.0
  0
LINE
  5
1380F
330
1378F
100
AcDbEntity
  8
1
  6
Continuous
100
AcDbLine
 10
109.0
 20
136.0
 30
0.0
 11
109.0
 21
125.5
 31
0.0
  0
ARC
  5
13810
330
1378F
100
AcDbEntity
  8
1
  6
Continuous
100
AcDbCircle
 10
111.0
 20
125.5
 30
0.0
 40
2.0
100
AcDbArc
 50
180.0
 51
270.0
  0
ARC
  5
13811
330
1378F
100
AcDbEntity
  8
1
  6
Continuous
100
AcDbCircle
 10
110.4999999999999
 20
145.114559
 30
0.0
 40
1.5
100
AcDbArc
 50
180.0
 51
253.2276069999999
  0
ARC
  5
13812
330
1378F
100
AcDbEntity
  8
1
  6
Continuous
100
AcDbCircle
 10
110.4999999999999
 20
136.0
 30
0.0
 40
1.5
100
AcDbArc
 50
90.0
 51
180.0
  0
LINE
  5
13813
330
1378F
100
AcDbEntity
  8
4
  6
CENTER
100
AcDbLine
 10
119.25
 20
137.5
 30
0.0
 11
140.7499999999998
 21
137.5
 31
0.0
  0
LINE
  5
13814
330
1378F
100
AcDbEntity
  8
1
  6
Continuous
100
AcDbLine
 10
142.0
 20
146.5
 30
0.0
 11
115.5
 21
146.5
 31
0.0
  0
LINE
  5
13815
330
1378F
100
AcDbEntity
  8
1
  6
Continuous
100
AcDbLine
 10
143.198508
 20
147.0980139999998
 30
0.0
 11
126.9354649999998
 21
148.5
 31
0.0
  0
CIRCLE
  5
13816
330
1378F
100
AcDbEntity
  8
1
  6
Continuous
100
AcDbCircle
 10
125.0
 20
137.5
 30
0.0
 40
2.399999999999999
  0
LINE
  5
13817
330
1378F
100
AcDbEntity
  8
4
  6
CENTER
100
AcDbLine
 10
125.0
 20
131.75
 30
0.0
 11
125.0
 21
143.25
 31
0.0
  0
ARC
  5
13818
330
1378F
100
AcDbEntity
  8
1
  6
Continuous
100
AcDbCircle
 10
117.0
 20
139.5
 30
0.0
 40
2.0
100
AcDbArc
 50
270.0
 51
73.22760699999998
  0
ARC
  5
13819
330
1378F
100
AcDbEntity
  8
1
  6
Continuous
100
AcDbCircle
 10
135.0
 20
138.5
 30
0.0
 40
2.399999999999999
100
AcDbArc
 50
0.0
 51
180.0
  0
LINE
  5
1381A
330
1378F
100
AcDbEntity
  8
1
  6
Continuous
100
AcDbLine
 10
132.6
 20
136.4999999999998
 30
0.0
 11
132.6
 21
138.5
 31
0.0
  0
ARC
  5
1381B
330
1378F
100
AcDbEntity
  8
1
  6
Continuous
100
AcDbCircle
 10
135.0
 20
136.4999999999998
 30
0.0
 40
2.399999999999999
100
AcDbArc
 50
180.0
 51
0.0
  0
LINE
  5
1381C
330
1378F
100
AcDbEntity
  8
1
  6
Continuous
100
AcDbLine
 10
137.4
 20
136.4999999999998
 30
0.0
 11
137.4
 21
138.5
 31
0.0
  0
LINE
  5
1381D
330
1378F
100
AcDbEntity
  8
4
  6
CENTER
100
AcDbLine
 10
135.0
 20
130.75
 30
0.0
 11
135.0
 21
144.25
 31
0.0
  0
LINE
  5
1381E
330
1378F
100
AcDbEntity
  8
1
  6
Continuous
100
AcDbLine
 10
143.5
 20
148.5775859999999
 30
0.0
 11
143.5
 21
148.0
 31
0.0
  0
ARC
  5
1381F
330
1378F
100
AcDbEntity
  8
1
  6
Continuous
100
AcDbCircle
 10
142.0
 20
148.0
 30
0.0
 40
1.5
100
AcDbArc
 50
270.0
 51
0.0
  0
LINE
  5
13820
330
1378F
100
AcDbEntity
  8
1
  6
Continuous
100
AcDbLine
 10
109.0
 20
150.0
 30
0.0
 11
127.0
 21
150.0
 31
0.0
  0
LINE
  5
13821
330
1378F
100
AcDbEntity
  8
4
  6
CENTER
100
AcDbLine
 10
474.2499999999998
 20
143.0
 30
0.0
 11
485.7499999999998
 21
143.0
 31
0.0
  0
LINE
  5
13822
330
1378F
100
AcDbEntity
  8
4
  6
CENTER
100
AcDbLine
 10
481.0
 20
135.0
 30
0.0
 11
451.0
 21
135.0
 31
0.0
  0
LINE
  5
13823
330
1378F
100
AcDbEntity
  8
3
  6
DASHED
100
AcDbLine
 10
549.75
 20
125.0
 30
0.0
 11
499.5
 21
125.0
 31
0.0
  0
LINE
  5
13824
330
1378F
100
AcDbEntity
  8
1
  6
Continuous
100
AcDbLine
 10
514.0
 20
151.0
 30
0.0
 11
451.0
 21
151.0
 31
0.0
  0
ARC
  5
13825
330
1378F
100
AcDbEntity
  8
1
  6
Continuous
100
AcDbCircle
 10
415.0
 20
136.4999999999998
 30
0.0
 40
2.399999999999999
100
AcDbArc
 50
180.0
 51
0.0
  0
ARC
  5
13826
330
1378F
100
AcDbEntity
  8
1
  6
Continuous
100
AcDbCircle
 10
415.0
 20
138.5
 30
0.0
 40
2.399999999999999
100
AcDbArc
 50
0.0
 51
180.0
  0
LINE
  5
13827
330
1378F
100
AcDbEntity
  8
4
  6
CENTER
100
AcDbLine
 10
430.75
 20
137.5
 30
0.0
 11
409.25
 21
137.5
 31
0.0
  0
LINE
  5
13828
330
1378F
100
AcDbEntity
  8
1
  6
Continuous
100
AcDbLine
 10
412.6
 20
136.4999999999998
 30
0.0
 11
412.6
 21
138.5
 31
0.0
  0
LINE
  5
13829
330
1378F
100
AcDbEntity
  8
4
  6
CENTER
100
AcDbLine
 10
454.55
 20
143.1999999999999
 30
0.0
 11
454.55
 21
150.6999999999998
 31
0.0
  0
LINE
  5
1382A
330
1378F
100
AcDbEntity
  8
4
  6
CENTER
100
AcDbLine
 10
466.0
 20
120.0
 30
0.0
 11
466.0
 21
150.0
 31
0.0
  0
LINE
  5
1382B
330
1378F
100
AcDbEntity
  8
4
  6
CENTER
100
AcDbLine
 10
425.0
 20
131.75
 30
0.0
 11
425.0
 21
143.25
 31
0.0
  0
CIRCLE
  5
1382C
330
1378F
100
AcDbEntity
  8
1
  6
Continuous
100
AcDbCircle
 10
425.0
 20
137.5
 30
0.0
 40
2.399999999999999
  0
LINE
  5
1382D
330
1378F
100
AcDbEntity
  8
4
  6
CENTER
100
AcDbLine
 10
415.0
 20
130.75
 30
0.0
 11
415.0
 21
144.25
 31
0.0
  0
LINE
  5
1382E
330
1378F
100
AcDbEntity
  8
1
  6
Continuous
100
AcDbLine
 10
417.3999999999998
 20
136.4999999999998
 30
0.0
 11
417.3999999999998
 21
138.5
 31
0.0
  0
CIRCLE
  5
1382F
330
1378F
100
AcDbEntity
  8
3
  6
DASHED
100
AcDbCircle
 10
466.0
 20
135.0
 30
0.0
 40
11.0
  0
LINE
  5
13830
330
1378F
100
AcDbEntity
  8
3
  6
DASHED
100
AcDbLine
 10
449.0
 20
127.0
 30
0.0
 11
449.0
 21
147.5
 31
0.0
  0
LINE
  5
13831
330
1378F
100
AcDbEntity
  8
1
  6
Continuous
100
AcDbLine
 10
449.0
 20
149.0
 30
0.0
 11
449.0
 21
147.5
 31
0.0
  0
ARC
  5
13832
330
1378F
100
AcDbEntity
  8
1
  6
Continuous
100
AcDbCircle
 10
454.55
 20
146.9499999999999
 30
0.0
 40
1.75
100
AcDbArc
 50
18.317698
 51
161.6823019999999
  0
LINE
  5
13833
330
1378F
100
AcDbEntity
  8
4
  6
CENTER
100
AcDbLine
 10
450.8
 20
146.9499999999999
 30
0.0
 11
458.3
 21
146.9499999999999
 31
0.0
  0
LINE
  5
13834
330
1378F
100
AcDbEntity
  8
4
  6
CENTER
100
AcDbLine
 10
541.0
 20
122.5
 30
0.0
 11
541.0
 21
152.5
 31
0.0
  0
CIRCLE
  5
13835
330
1378F
100
AcDbEntity
  8
1
  6
Continuous
100
AcDbCircle
 10
525.0
 20
137.5
 30
0.0
 40
2.399999999999999
  0
LINE
  5
13836
330
1378F
100
AcDbEntity
  8
4
  6
CENTER
100
AcDbLine
 10
499.2499999999998
 20
135.0
 30
0.0
 11
520.75
 21
135.0
 31
0.0
  0
LINE
  5
13837
330
1378F
100
AcDbEntity
  8
4
  6
CENTER
100
AcDbLine
 10
556.0
 20
137.5
 30
0.0
 11
509.25
 21
137.5
 31
0.0
  0
LINE
  5
13838
330
1378F
100
AcDbEntity
  8
4
  6
CENTER
100
AcDbLine
 10
480.0
 20
137.25
 30
0.0
 11
480.0
 21
148.75
 31
0.0
  0
ARC
  5
13839
330
1378F
100
AcDbEntity
  8
1
  6
Continuous
100
AcDbCircle
 10
515.0
 20
138.5
 30
0.0
 40
2.399999999999999
100
AcDbArc
 50
0.0
 51
180.0
  0
LINE
  5
1383A
330
1378F
100
AcDbEntity
  8
1
  6
Continuous
100
AcDbLine
 10
517.3999999999998
 20
136.4999999999998
 30
0.0
 11
517.3999999999998
 21
138.5
 31
0.0
  0
ARC
  5
1383B
330
1378F
100
AcDbEntity
  8
1
  6
Continuous
100
AcDbCircle
 10
515.0
 20
136.4999999999998
 30
0.0
 40
2.399999999999999
100
AcDbArc
 50
180.0
 51
0.0
  0
LINE
  5
1383C
330
1378F
100
AcDbEntity
  8
1
  6
Continuous
100
AcDbLine
 10
512.6
 20
136.4999999999998
 30
0.0
 11
512.6
 21
138.5
 31
0.0
  0
LINE
  5
1383D
330
1378F
100
AcDbEntity
  8
4
  6
CENTER
100
AcDbLine
 10
525.0
 20
132.0999999999999
 30
0.0
 11
525.0
 21
142.9
 31
0.0
  0
LINE
  5
1383E
330
1378F
100
AcDbEntity
  8
1
  6
Continuous
100
AcDbLine
 10
549.5527860000001
 20
124.6055729999998
 30
0.0
 11
555.0
 21
135.4999999999998
 31
0.0
  0
ARC
  5
1383F
330
1378F
100
AcDbEntity
  8
3
  6
DASHED
100
AcDbCircle
 10
541.0
 20
137.5
 30
0.0
 40
11.0
100
AcDbArc
 50
114.619977
 51
65.38002299999999
  0
LINE
  5
13840
330
1378F
100
AcDbEntity
  8
1
  6
Continuous
100
AcDbLine
 10
553.0
 20
147.5
 30
0.0
 11
535.0
 21
147.5
 31
0.0
  0
ARC
  5
13841
330
1378F
100
AcDbEntity
  8
1
  6
Continuous
100
AcDbCircle
 10
541.0
 20
137.5
 30
0.0
 40
11.0
100
AcDbArc
 50
65.38002299999999
 51
114.619977
  0
CIRCLE
  5
13842
330
1378F
100
AcDbEntity
  8
1
  6
Continuous
100
AcDbCircle
 10
541.0
 20
137.5
 30
0.0
 40
3.0
  0
CIRCLE
  5
13843
330
1378F
100
AcDbEntity
  8
1
  6
Continuous
100
AcDbCircle
 10
541.0
 20
137.5
 30
0.0
 40
5.0
  0
LINE
  5
13844
330
1378F
100
AcDbEntity
  8
1
  6
Continuous
100
AcDbLine
 10
531.0
 20
146.0
 30
0.0
 11
535.0
 21
147.5
 31
0.0
  0
LINE
  5
13845
330
1378F
100
AcDbEntity
  8
1
  6
Continuous
100
AcDbLine
 10
530.0
 20
146.0
 30
0.0
 11
530.0
 21
147.5
 31
0.0
  0
LINE
  5
13846
330
1378F
100
AcDbEntity
  8
1
  6
Continuous
100
AcDbLine
 10
531.0
 20
146.0
 30
0.0
 11
530.0
 21
146.0
 31
0.0
  0
LINE
  5
13847
330
1378F
100
AcDbEntity
  8
1
  6
Continuous
100
AcDbLine
 10
519.0
 20
149.5
 30
0.0
 11
519.0
 21
151.0
 31
0.0
  0
LINE
  5
13848
330
1378F
100
AcDbEntity
  8
1
  6
Continuous
100
AcDbLine
 10
518.0
 20
149.5
 30
0.0
 11
514.0
 21
151.0
 31
0.0
  0
ARC
  5
13849
330
1378F
100
AcDbEntity
  8
1
  6
Continuous
100
AcDbCircle
 10
881.0
 20
135.0
 30
0.0
 40
11.0
100
AcDbArc
 50
26.33707499999999
 51
63.662925
  0
ARC
  5
1384A
330
1378F
100
AcDbEntity
  8
1
  6
Continuous
100
AcDbCircle
 10
881.0
 20
135.0
 30
0.0
 40
12.5
100
AcDbArc
 50
26.33707499999999
 51
63.662925
  0
LINE
  5
1384B
330
1378F
100
AcDbEntity
  8
1
  6
Continuous
100
AcDbLine
 10
892.202494
 20
140.54564
 30
0.0
 11
887.273397
 21
138.1055579999998
 31
0.0
  0
LINE
  5
1384C
330
1378F
100
AcDbEntity
  8
1
  6
Continuous
100
AcDbLine
 10
893.5
 20
135.0
 30
0.0
 11
887.0
 21
135.0
 31
0.0
  0
LINE
  5
1384D
330
1378F
100
AcDbEntity
  8
1
  6
Continuous
100
AcDbLine
 10
893.9328559999999
 20
128.821629
 30
0.0
 11
886.4228589999999
 21
131.0850829999999
 31
0.0
  0
LINE
  5
1384E
330
1378F
100
AcDbEntity
  8
1
  6
Continuous
100
AcDbLine
 10
895.0
 20
122.5
 30
0.0
 11
880.0
 21
122.5
 31
0.0
  0
CIRCLE
  5
1384F
330
1378F
100
AcDbEntity
  8
1
  6
Continuous
100
AcDbCircle
 10
630.0
 20
135.0
 30
0.0
 40
2.399999999999999
  0
CIRCLE
  5
13850
330
1378F
100
AcDbEntity
  8
1
  6
Continuous
100
AcDbCircle
 10
630.0
 20
135.0
 30
0.0
 40
3.75
  0
LINE
  5
13851
330
1378F
100
AcDbEntity
  8
4
  6
CENTER
100
AcDbLine
 10
630.0
 20
129.2499999999998
 30
0.0
 11
630.0
 21
140.7499999999998
 31
0.0
  0
LINE
  5
13852
330
1378F
100
AcDbEntity
  8
1
  6
Continuous
100
AcDbLine
 10
880.0
 20
122.5
 30
0.0
 11
852.0
 21
125.0
 31
0.0
  0
ARC
  5
13853
330
1378F
100
AcDbEntity
  8
1
  6
Continuous
100
AcDbCircle
 10
870.0
 20
134.0
 30
0.0
 40
3.75
100
AcDbArc
 50
180.0
 51
0.0
  0
ARC
  5
13854
330
1378F
100
AcDbEntity
  8
1
  6
Continuous
100
AcDbCircle
 10
870.0
 20
136.0
 30
0.0
 40
3.75
100
AcDbArc
 50
0.0
 51
180.0
  0
ARC
  5
13855
330
1378F
100
AcDbEntity
  8
1
  6
Continuous
100
AcDbCircle
 10
870.0
 20
136.0
 30
0.0
 40
2.399999999999999
100
AcDbArc
 50
0.0
 51
180.0
  0
ARC
  5
13856
330
1378F
100
AcDbEntity
  8
1
  6
Continuous
100
AcDbCircle
 10
870.0
 20
134.0
 30
0.0
 40
2.399999999999999
100
AcDbArc
 50
180.0
 51
0.0
  0
LINE
  5
13857
330
1378F
100
AcDbEntity
  8
4
  6
CENTER
100
AcDbLine
 10
870.0
 20
128.2499999999998
 30
0.0
 11
870.0
 21
141.7499999999998
 31
0.0
  0
LINE
  5
13858
330
1378F
100
AcDbEntity
  8
1
  6
Continuous
100
AcDbLine
 10
866.2499999999999
 20
134.0
 30
0.0
 11
866.2499999999999
 21
136.0
 31
0.0
  0
LINE
  5
13859
330
1378F
100
AcDbEntity
  8
1
  6
Continuous
100
AcDbLine
 10
867.6
 20
134.0
 30
0.0
 11
867.6
 21
136.0
 31
0.0
  0
LINE
  5
1385A
330
1378F
100
AcDbEntity
  8
1
  6
Continuous
100
AcDbLine
 10
873.75
 20
134.0
 30
0.0
 11
873.75
 21
136.0
 31
0.0
  0
LINE
  5
1385B
330
1378F
100
AcDbEntity
  8
1
  6
Continuous
100
AcDbLine
 10
872.4
 20
134.0
 30
0.0
 11
872.4
 21
136.0
 31
0.0
  0
LINE
  5
1385C
330
1378F
100
AcDbEntity
  8
4
  6
CENTER
100
AcDbLine
 10
880.0
 20
129.2499999999998
 30
0.0
 11
880.0
 21
140.7499999999998
 31
0.0
  0
CIRCLE
  5
1385D
330
1378F
100
AcDbEntity
  8
1
  6
Continuous
100
AcDbCircle
 10
880.0
 20
135.0
 30
0.0
 40
3.75
  0
CIRCLE
  5
1385E
330
1378F
100
AcDbEntity
  8
1
  6
Continuous
100
AcDbCircle
 10
880.0
 20
135.0
 30
0.0
 40
2.399999999999999
  0
LINE
  5
1385F
330
1378F
100
AcDbEntity
  8
1
  6
Continuous
100
AcDbLine
 10
886.5456400000001
 20
146.202494
 30
0.0
 11
884.1055579999999
 21
141.2733969999998
 31
0.0
  0
ARC
  5
13860
330
1378F
100
AcDbEntity
  8
1
  6
Continuous
100
AcDbCircle
 10
881.0
 20
135.0
 30
0.0
 40
7.0
100
AcDbArc
 50
26.33707499999999
 51
63.662925
  0
ARC
  5
13861
330
1378F
100
AcDbEntity
  8
1
  6
Continuous
100
AcDbCircle
 10
887.0
 20
133.0
 30
0.0
 40
2.0
100
AcDbArc
 50
90.0
 51
253.2276069999999
  0
LINE
  5
13862
330
1378F
100
AcDbEntity
  8
1
  6
Continuous
100
AcDbLine
 10
895.0
 20
136.4999999999998
 30
0.0
 11
895.0
 21
151.0
 31
0.0
  0
ARC
  5
13863
330
1378F
100
AcDbEntity
  8
1
  6
Continuous
100
AcDbCircle
 10
893.5
 20
127.3854409999999
 30
0.0
 40
1.5
100
AcDbArc
 50
0.0
 51
73.22760699999998
  0
LINE
  5
13864
330
1378F
100
AcDbEntity
  8
1
  6
Continuous
100
AcDbLine
 10
895.0
 20
122.5
 30
0.0
 11
895.0
 21
127.3854409999999
 31
0.0
  0
ARC
  5
13865
330
1378F
100
AcDbEntity
  8
1
  6
Continuous
100
AcDbCircle
 10
893.5
 20
136.4999999999998
 30
0.0
 40
1.5
100
AcDbArc
 50
270.0
 51
0.0
  0
ARC
  5
13866
330
1378F
100
AcDbEntity
  8
3
  6
DASHED
100
AcDbCircle
 10
466.0
 20
319.5
 30
0.0
 40
11.0
100
AcDbArc
 50
114.619977
 51
65.38002299999999
  0
LINE
  5
13867
330
1378F
100
AcDbEntity
  8
1
  6
Continuous
100
AcDbLine
 10
449.0
 20
307.0
 30
0.0
 11
156.0
 21
307.0
 31
0.0
  0
CIRCLE
  5
13868
330
1378F
100
AcDbEntity
  8
1
  6
Continuous
100
AcDbCircle
 10
454.55
 20
307.55
 30
0.0
 40
1.75
  0
CIRCLE
  5
13869
330
1378F
100
AcDbEntity
  8
1
  6
Continuous
100
AcDbCircle
 10
480.0
 20
311.5
 30
0.0
 40
2.399999999999999
  0
LINE
  5
1386A
330
1378F
100
AcDbEntity
  8
1
  6
Continuous
100
AcDbLine
 10
555.0
 20
135.4999999999998
 30
0.0
 11
555.0
 21
145.5
 31
0.0
  0
LINE
  5
1386B
330
1378F
100
AcDbEntity
  8
1
  6
Continuous
100
AcDbLine
 10
498.5
 20
328.0
 30
0.0
 11
494.5
 21
329.4999999999999
 31
0.0
  0
LINE
  5
1386C
330
1378F
100
AcDbEntity
  8
1
  6
Continuous
100
AcDbLine
 10
499.5
 20
329.4999999999999
 30
0.0
 11
499.5
 21
328.0
 31
0.0
  0
LINE
  5
1386D
330
1378F
100
AcDbEntity
  8
1
  6
Continuous
100
AcDbLine
 10
518.0
 20
305.0
 30
0.0
 11
519.0
 21
305.0
 31
0.0
  0
LINE
  5
1386E
330
1378F
100
AcDbEntity
  8
1
  6
Continuous
100
AcDbLine
 10
499.5
 20
328.0
 30
0.0
 11
498.5
 21
328.0
 31
0.0
  0
LINE
  5
1386F
330
1378F
100
AcDbEntity
  8
1
  6
Continuous
100
AcDbLine
 10
494.5
 20
329.4999999999999
 30
0.0
 11
451.0
 21
329.4999999999999
 31
0.0
  0
LINE
  5
13870
330
1378F
100
AcDbEntity
  8
1
  6
Continuous
100
AcDbLine
 10
418.75
 20
318.0
 30
0.0
 11
418.75
 21
316.0
 31
0.0
  0
LINE
  5
13871
330
1378F
100
AcDbEntity
  8
1
  6
Continuous
100
AcDbLine
 10
411.2499999999998
 20
318.0
 30
0.0
 11
411.2499999999998
 21
316.0
 31
0.0
  0
ARC
  5
13872
330
1378F
100
AcDbEntity
  8
1
  6
Continuous
100
AcDbCircle
 10
415.0
 20
316.0
 30
0.0
 40
3.75
100
AcDbArc
 50
180.0
 51
0.0
  0
CIRCLE
  5
13873
330
1378F
100
AcDbEntity
  8
1
  6
Continuous
100
AcDbCircle
 10
425.0
 20
317.0
 30
0.0
 40
3.75
  0
ARC
  5
13874
330
1378F
100
AcDbEntity
  8
1
  6
Continuous
100
AcDbCircle
 10
415.0
 20
318.0
 30
0.0
 40
3.75
100
AcDbArc
 50
0.0
 51
180.0
  0
CIRCLE
  5
13875
330
1378F
100
AcDbEntity
  8
1
  6
Continuous
100
AcDbCircle
 10
125.0
 20
317.0
 30
0.0
 40
3.75
  0
ARC
  5
13876
330
1378F
100
AcDbEntity
  8
1
  6
Continuous
100
AcDbCircle
 10
135.0
 20
318.0
 30
0.0
 40
3.75
100
AcDbArc
 50
0.0
 51
180.0
  0
LINE
  5
13877
330
1378F
100
AcDbEntity
  8
1
  6
Continuous
100
AcDbLine
 10
131.25
 20
318.0
 30
0.0
 11
131.25
 21
316.0
 31
0.0
  0
LINE
  5
13878
330
1378F
100
AcDbEntity
  8
1
  6
Continuous
100
AcDbLine
 10
138.7499999999998
 20
318.0
 30
0.0
 11
138.7499999999998
 21
316.0
 31
0.0
  0
ARC
  5
13879
330
1378F
100
AcDbEntity
  8
1
  6
Continuous
100
AcDbCircle
 10
135.0
 20
316.0
 30
0.0
 40
3.75
100
AcDbArc
 50
180.0
 51
0.0
  0
LINE
  5
1387A
330
1378F
100
AcDbEntity
  8
3
  6
DASHED
100
AcDbLine
 10
498.5
 20
126.5
 30
0.0
 11
499.5
 21
126.5
 31
0.0
  0
LINE
  5
1387B
330
1378F
100
AcDbEntity
  8
3
  6
DASHED
100
AcDbLine
 10
499.5
 20
126.5
 30
0.0
 11
550.4999999999999
 21
126.5
 31
0.0
  0
LINE
  5
1387C
330
1378F
100
AcDbEntity
  8
3
  6
DASHED
100
AcDbLine
 10
499.5
 20
125.0
 30
0.0
 11
499.5
 21
126.5
 31
0.0
  0
LINE
  5
1387D
330
1378F
100
AcDbEntity
  8
3
  6
DASHED
100
AcDbLine
 10
498.5
 20
126.5
 30
0.0
 11
494.5
 21
125.0
 31
0.0
  0
LINE
  5
1387E
330
1378F
100
AcDbEntity
  8
3
  6
DASHED
100
AcDbLine
 10
494.5
 20
125.0
 30
0.0
 11
451.0
 21
125.0
 31
0.0
  0
LINE
  5
1387F
330
1378F
100
AcDbEntity
  8
3
  6
DASHED
100
AcDbLine
 10
531.5
 20
308.4999999999999
 30
0.0
 11
476.0201059999998
 21
308.4999999999999
 31
0.0
  0
LINE
  5
13880
330
1378F
100
AcDbEntity
  8
3
  6
DASHED
100
AcDbLine
 10
472.7823299999998
 20
309.0
 30
0.0
 11
475.5323299999998
 21
307.0
 31
0.0
  0
LINE
  5
13881
330
1378F
100
AcDbEntity
  8
3
  6
DASHED
100
AcDbLine
 10
472.7823299999998
 20
309.0
 30
0.0
 11
470.0323299999998
 21
307.0
 31
0.0
  0
LINE
  5
13882
330
1378F
100
AcDbEntity
  8
3
  6
DASHED
100
AcDbLine
 10
473.664588
 20
310.2131039999998
 30
0.0
 11
476.0201059999998
 21
308.4999999999999
 31
0.0
  0
LINE
  5
13883
330
1378F
100
AcDbEntity
  8
3
  6
DASHED
100
AcDbLine
 10
471.9000719999998
 20
310.2131039999998
 30
0.0
 11
469.544554
 21
308.4999999999999
 31
0.0
  0
ARC
  5
13884
330
1378F
100
AcDbEntity
  8
3
  6
DASHED
100
AcDbCircle
 10
472.7823299999998
 20
309.0
 30
0.0
 40
1.5
100
AcDbArc
 50
53.972627
 51
126.0273729999997
  0
LINE
  5
13885
330
1378F
100
AcDbEntity
  8
1
  6
Continuous
100
AcDbLine
 10
893.5
 20
225.4999999999999
 30
0.0
 11
520.5
 21
225.4999999999999
 31
0.0
  0
LINE
  5
13886
330
1378F
100
AcDbEntity
  8
1
  6
Continuous
100
AcDbLine
 10
109.0
 20
221.0
 30
0.0
 11
109.0
 21
229.0
 31
0.0
  0
LINE
  5
13887
330
1378F
100
AcDbEntity
  8
1
  6
Continuous
100
AcDbLine
 10
449.0
 20
233.4999999999999
 30
0.0
 11
449.0
 21
232.0
 31
0.0
  0
LINE
  5
13888
330
1378F
100
AcDbEntity
  8
1
  6
Continuous
100
AcDbLine
 10
530.0
 20
221.0
 30
0.0
 11
530.0
 21
225.4999999999999
 31
0.0
  0
LINE
  5
13889
330
1378F
100
AcDbEntity
  8
1
  6
Continuous
100
AcDbLine
 10
519.0
 20
232.0
 30
0.0
 11
449.0
 21
232.0
 31
0.0
  0
LINE
  5
1388A
330
1378F
100
AcDbEntity
  8
1
  6
Continuous
100
AcDbLine
 10
156.0
 20
222.0
 30
0.0
 11
156.0
 21
228.0
 31
0.0
  0
LINE
  5
1388B
330
1378F
100
AcDbEntity
  8
1
  6
Continuous
100
AcDbLine
 10
143.5
 20
221.0
 30
0.0
 11
143.5
 21
224.0
 31
0.0
  0
LINE
  5
1388C
330
1378F
100
AcDbEntity
  8
1
  6
Continuous
100
AcDbLine
 10
143.5
 20
222.5
 30
0.0
 11
114.0
 21
222.5
 31
0.0
  0
LINE
  5
1388D
330
1378F
100
AcDbEntity
  8
1
  6
Continuous
100
AcDbLine
 10
142.0
 20
225.4999999999999
 30
0.0
 11
115.5
 21
225.4999999999999
 31
0.0
  0
LINE
  5
1388E
330
1378F
100
AcDbEntity
  8
1
  6
Continuous
100
AcDbLine
 10
114.0
 20
224.0
 30
0.0
 11
114.0
 21
221.0
 31
0.0
  0
ARC
  5
1388F
330
1378F
100
AcDbEntity
  8
1
  6
Continuous
100
AcDbCircle
 10
115.5
 20
224.0
 30
0.0
 40
1.5
100
AcDbArc
 50
90.0
 51
180.0
  0
ARC
  5
13890
330
1378F
100
AcDbEntity
  8
1
  6
Continuous
100
AcDbCircle
 10
142.0
 20
224.0
 30
0.0
 40
1.5
100
AcDbArc
 50
0.0
 51
90.0
  0
LINE
  5
13891
330
1378F
100
AcDbEntity
  8
1
  6
Continuous
100
AcDbLine
 10
555.0
 20
222.5
 30
0.0
 11
555.0
 21
221.0
 31
0.0
  0
LINE
  5
13892
330
1378F
100
AcDbEntity
  8
1
  6
Continuous
100
AcDbLine
 10
555.0
 20
222.5
 30
0.0
 11
530.0
 21
222.5
 31
0.0
  0
LINE
  5
13893
330
1378F
100
AcDbEntity
  8
4
  6
CENTER
100
AcDbLine
 10
541.0
 20
237.6235419999999
 30
0.0
 11
541.0
 21
217.1560739999999
 31
0.0
  0
LINE
  5
13894
330
1378F
100
AcDbEntity
  8
4
  6
CENTER
100
AcDbLine
 10
525.0
 20
218.0
 30
0.0
 11
525.0
 21
224.5
 31
0.0
  0
LINE
  5
13895
330
1378F
100
AcDbEntity
  8
4
  6
CENTER
100
AcDbLine
 10
515.0
 20
218.0
 30
0.0
 11
515.0
 21
224.5
 31
0.0
  0
LINE
  5
13896
330
1378F
100
AcDbEntity
  8
4
  6
CENTER
100
AcDbLine
 10
425.0
 20
218.0
 30
0.0
 11
425.0
 21
224.5
 31
0.0
  0
LINE
  5
13897
330
1378F
100
AcDbEntity
  8
4
  6
CENTER
100
AcDbLine
 10
415.0
 20
218.0
 30
0.0
 11
415.0
 21
224.5
 31
0.0
  0
LINE
  5
13898
330
1378F
100
AcDbEntity
  8
4
  6
CENTER
100
AcDbLine
 10
135.0
 20
218.0
 30
0.0
 11
135.0
 21
224.5
 31
0.0
  0
LINE
  5
13899
330
1378F
100
AcDbEntity
  8
4
  6
CENTER
100
AcDbLine
 10
125.0
 20
218.0
 30
0.0
 11
125.0
 21
224.5
 31
0.0
  0
LINE
  5
1389A
330
1378F
100
AcDbEntity
  8
1
  6
Continuous
100
AcDbLine
 10
519.0
 20
227.0
 30
0.0
 11
519.0
 21
233.4999999999999
 31
0.0
  0
LINE
  5
1389B
330
1378F
100
AcDbEntity
  8
1
  6
Continuous
100
AcDbLine
 10
499.5
 20
229.0
 30
0.0
 11
499.5
 21
232.0
 31
0.0
  0
LINE
  5
1389C
330
1378F
100
AcDbEntity
  8
1
  6
Continuous
100
AcDbLine
 10
518.0
 20
232.0
 30
0.0
 11
518.0
 21
233.4999999999999
 31
0.0
  0
LINE
  5
1389D
330
1378F
100
AcDbEntity
  8
1
  6
Continuous
100
AcDbLine
 10
514.0
 20
232.0
 30
0.0
 11
514.0
 21
233.4999999999999
 31
0.0
  0
ARC
  5
1389E
330
1378F
100
AcDbEntity
  8
1
  6
Continuous
100
AcDbCircle
 10
520.5
 20
227.0
 30
0.0
 40
1.5
100
AcDbArc
 50
180.0
 51
270.0
  0
LINE
  5
1389F
330
1378F
100
AcDbEntity
  8
1
  6
Continuous
100
AcDbLine
 10
547.0
 20
225.4999999999999
 30
0.0
 11
547.0
 21
223.4999999999998
 31
0.0
  0
LINE
  5
138A0
330
1378F
100
AcDbEntity
  8
1
  6
Continuous
100
AcDbLine
 10
535.0
 20
225.4999999999999
 30
0.0
 11
535.0
 21
223.4999999999998
 31
0.0
  0
LINE
  5
138A1
330
1378F
100
AcDbEntity
  8
1
  6
Continuous
100
AcDbLine
 10
547.0
 20
225.0
 30
0.0
 11
535.0
 21
225.0
 31
0.0
  0
LINE
  5
138A2
330
1378F
100
AcDbEntity
  8
1
  6
Continuous
100
AcDbLine
 10
547.0
 20
223.4999999999998
 30
0.0
 11
535.0
 21
223.4999999999998
 31
0.0
  0
LINE
  5
138A3
330
1378F
100
AcDbEntity
  8
1
  6
Continuous
100
AcDbLine
 10
546.7928929999999
 20
223.2071069999999
 30
0.0
 11
547.5
 21
222.5
 31
0.0
  0
LINE
  5
138A4
330
1378F
100
AcDbEntity
  8
1
  6
Continuous
100
AcDbLine
 10
535.207107
 20
223.2071069999999
 30
0.0
 11
534.4999999999998
 21
222.5
 31
0.0
  0
ARC
  5
138A5
330
1378F
100
AcDbEntity
  8
1
  6
Continuous
100
AcDbCircle
 10
535.914214
 20
222.5
 30
0.0
 40
1.0
100
AcDbArc
 50
90.0
 51
135.0
  0
ARC
  5
138A6
330
1378F
100
AcDbEntity
  8
1
  6
Continuous
100
AcDbCircle
 10
546.0857859999999
 20
222.5
 30
0.0
 40
1.0
100
AcDbArc
 50
45.0
 51
90.0
  0
LINE
  5
138A7
330
1378F
100
AcDbEntity
  8
4
  6
CENTER
100
AcDbLine
 10
505.0
 20
236.5
 30
0.0
 11
505.0
 21
230.0
 31
0.0
  0
LINE
  5
138A8
330
1378F
100
AcDbEntity
  8
4
  6
CENTER
100
AcDbLine
 10
515.0
 20
236.5
 30
0.0
 11
515.0
 21
230.0
 31
0.0
  0
LINE
  5
138A9
330
1378F
100
AcDbEntity
  8
4
  6
CENTER
100
AcDbLine
 10
630.0
 20
236.5
 30
0.0
 11
630.0
 21
230.0
 31
0.0
  0
LINE
  5
138AA
330
1378F
100
AcDbEntity
  8
4
  6
CENTER
100
AcDbLine
 10
870.0
 20
236.5
 30
0.0
 11
870.0
 21
230.0
 31
0.0
  0
LINE
  5
138AB
330
1378F
100
AcDbEntity
  8
4
  6
CENTER
100
AcDbLine
 10
880.0
 20
236.5
 30
0.0
 11
880.0
 21
230.0
 31
0.0
  0
LINE
  5
138AC
330
1378F
100
AcDbEntity
  8
1
  6
Continuous
100
AcDbLine
 10
895.0
 20
233.4999999999999
 30
0.0
 11
895.0
 21
227.0
 31
0.0
  0
LINE
  5
138AD
330
1378F
100
AcDbEntity
  8
4
  6
CENTER
100
AcDbLine
 10
466.0
 20
237.768529
 30
0.0
 11
466.0
 21
217.385748
 31
0.0
  0
LINE
  5
138AE
330
1378F
100
AcDbEntity
  8
1
  6
Continuous
100
AcDbLine
 10
472.0
 20
229.0
 30
0.0
 11
472.0
 21
231.0
 31
0.0
  0
LINE
  5
138AF
330
1378F
100
AcDbEntity
  8
1
  6
Continuous
100
AcDbLine
 10
472.0
 20
231.0
 30
0.0
 11
460.0
 21
231.0
 31
0.0
  0
LINE
  5
138B0
330
1378F
100
AcDbEntity
  8
1
  6
Continuous
100
AcDbLine
 10
460.0
 20
229.0
 30
0.0
 11
460.0
 21
231.0
 31
0.0
  0
ARC
  5
138B1
330
1378F
100
AcDbEntity
  8
1
  6
Continuous
100
AcDbCircle
 10
471.0857859999999
 20
232.0
 30
0.0
 40
1.0
100
AcDbArc
 50
270.0
 51
315.0
  0
LINE
  5
138B2
330
1378F
100
AcDbEntity
  8
1
  6
Continuous
100
AcDbLine
 10
471.792893
 20
231.2928929999999
 30
0.0
 11
472.5
 21
232.0
 31
0.0
  0
ARC
  5
138B3
330
1378F
100
AcDbEntity
  8
1
  6
Continuous
100
AcDbCircle
 10
460.9142139999998
 20
232.0
 30
0.0
 40
1.0
100
AcDbArc
 50
225.0
 51
270.0
  0
LINE
  5
138B4
330
1378F
100
AcDbEntity
  8
1
  6
Continuous
100
AcDbLine
 10
460.207107
 20
231.2928929999999
 30
0.0
 11
459.4999999999997
 21
232.0
 31
0.0
  0
LINE
  5
138B5
330
1378F
100
AcDbEntity
  8
3
  6
DASHED
100
AcDbLine
 10
552.0
 20
226.5
 30
0.0
 11
552.0
 21
231.4999999999999
 31
0.0
  0
LINE
  5
138B6
330
1378F
100
AcDbEntity
  8
3
  6
DASHED
100
AcDbLine
 10
552.0
 20
226.5
 30
0.0
 11
530.0
 21
226.5
 31
0.0
  0
LINE
  5
138B7
330
1378F
100
AcDbEntity
  8
3
  6
DASHED
100
AcDbLine
 10
552.0
 20
231.4999999999999
 30
0.0
 11
530.0
 21
231.4999999999999
 31
0.0
  0
LINE
  5
138B8
330
1378F
100
AcDbEntity
  8
3
  6
DASHED
100
AcDbLine
 10
547.0
 20
226.5
 30
0.0
 11
547.0
 21
225.4999999999999
 31
0.0
  0
LINE
  5
138B9
330
1378F
100
AcDbEntity
  8
3
  6
DASHED
100
AcDbLine
 10
535.0
 20
226.5
 30
0.0
 11
535.0
 21
225.4999999999999
 31
0.0
  0
LINE
  5
138BA
330
1378F
100
AcDbEntity
  8
3
  6
DASHED
100
AcDbLine
 10
477.0
 20
228.0
 30
0.0
 11
477.0
 21
223.0
 31
0.0
  0
LINE
  5
138BB
330
1378F
100
AcDbEntity
  8
3
  6
DASHED
100
AcDbLine
 10
470.0323299999998
 20
223.0
 30
0.0
 11
455.0
 21
223.0
 31
0.0
  0
LINE
  5
138BC
330
1378F
100
AcDbEntity
  8
3
  6
DASHED
100
AcDbLine
 10
477.0
 20
228.0
 30
0.0
 11
455.0
 21
228.0
 31
0.0
  0
LINE
  5
138BD
330
1378F
100
AcDbEntity
  8
1
  6
Continuous
100
AcDbLine
 10
472.0
 20
229.4999999999999
 30
0.0
 11
460.0
 21
229.4999999999999
 31
0.0
  0
LINE
  5
138BE
330
1378F
100
AcDbEntity
  8
3
  6
DASHED
100
AcDbLine
 10
472.0
 20
228.0
 30
0.0
 11
472.0
 21
229.0
 31
0.0
  0
LINE
  5
138BF
330
1378F
100
AcDbEntity
  8
3
  6
DASHED
100
AcDbLine
 10
460.0
 20
228.0
 30
0.0
 11
460.0
 21
229.0
 31
0.0
  0
LINE
  5
138C0
330
1378F
100
AcDbEntity
  8
3
  6
DASHED
100
AcDbLine
 10
455.0
 20
228.0
 30
0.0
 11
455.0
 21
223.0
 31
0.0
  0
LINE
  5
138C1
330
1378F
100
AcDbEntity
  8
4
  6
CENTER
100
AcDbLine
 10
454.55
 20
236.5
 30
0.0
 11
454.55
 21
230.0
 31
0.0
  0
LINE
  5
138C2
330
1378F
100
AcDbEntity
  8
4
  6
CENTER
100
AcDbLine
 10
480.0
 20
236.5
 30
0.0
 11
480.0
 21
230.0
 31
0.0
  0
LINE
  5
138C3
330
1378F
100
AcDbEntity
  8
1
  6
Continuous
100
AcDbLine
 10
109.0
 20
229.0
 30
0.0
 11
519.0
 21
229.0
 31
0.0
  0
LINE
  5
138C4
330
1378F
100
AcDbEntity
  8
1
  6
Continuous
100
AcDbLine
 10
475.5323299999998
 20
228.5
 30
0.0
 11
475.5323299999998
 21
223.0
 31
0.0
  0
LINE
  5
138C5
330
1378F
100
AcDbEntity
  8
1
  6
Continuous
100
AcDbLine
 10
472.7823299999998
 20
228.5
 30
0.0
 11
472.7823299999998
 21
223.0
 31
0.0
  0
LINE
  5
138C6
330
1378F
100
AcDbEntity
  8
1
  6
Continuous
100
AcDbLine
 10
470.0323299999998
 20
228.5
 30
0.0
 11
470.0323299999998
 21
223.0
 31
0.0
  0
LINE
  5
138C7
330
1378F
100
AcDbEntity
  8
1
  6
Continuous
100
AcDbLine
 10
475.5323299999998
 20
223.0
 30
0.0
 11
470.0323299999998
 21
223.0
 31
0.0
  0
LINE
  5
138C8
330
1378F
100
AcDbEntity
  8
1
  6
Continuous
100
AcDbLine
 10
475.5323299999998
 20
228.5
 30
0.0
 11
470.0323299999998
 21
228.5
 31
0.0
  0
LINE
  5
138C9
330
1378F
100
AcDbEntity
  8
3
  6
DASHED
100
AcDbLine
 10
477.0
 20
223.0
 30
0.0
 11
475.5323299999998
 21
223.0
 31
0.0
  0
LINE
  5
138CA
330
1378F
100
AcDbEntity
  8
1
  6
Continuous
100
AcDbLine
 10
895.0
 20
41.0
 30
0.0
 11
449.0
 21
41.0
 31
0.0
  0
LINE
  5
138CB
330
1378F
100
AcDbEntity
  8
1
  6
Continuous
100
AcDbLine
 10
893.5
 20
49.0
 30
0.0
 11
501.4999999999998
 21
49.0
 31
0.0
  0
LINE
  5
138CC
330
1378F
100
AcDbEntity
  8
1
  6
Continuous
100
AcDbLine
 10
555.0
 20
53.5
 30
0.0
 11
109.0
 21
53.5
 31
0.0
  0
LINE
  5
138CD
330
1378F
100
AcDbEntity
  8
1
  6
Continuous
100
AcDbLine
 10
142.0
 20
49.0
 30
0.0
 11
115.5
 21
49.0
 31
0.0
  0
LINE
  5
138CE
330
1378F
100
AcDbEntity
  8
1
  6
Continuous
100
AcDbLine
 10
555.0
 20
52.0
 30
0.0
 11
109.0
 21
52.0
 31
0.0
  0
LINE
  5
138CF
330
1378F
100
AcDbEntity
  8
1
  6
Continuous
100
AcDbLine
 10
109.0
 20
53.5
 30
0.0
 11
109.0
 21
45.49999999999999
 31
0.0
  0
ARC
  5
138D0
330
1378F
100
AcDbEntity
  8
1
  6
Continuous
100
AcDbCircle
 10
115.5
 20
50.5
 30
0.0
 40
1.5
100
AcDbArc
 50
180.0
 51
270.0
  0
LINE
  5
138D1
330
1378F
100
AcDbEntity
  8
1
  6
Continuous
100
AcDbLine
 10
114.0
 20
50.5
 30
0.0
 11
114.0
 21
52.0
 31
0.0
  0
LINE
  5
138D2
330
1378F
100
AcDbEntity
  8
4
  6
CENTER
100
AcDbLine
 10
125.0
 20
56.5
 30
0.0
 11
125.0
 21
50.0
 31
0.0
  0
ARC
  5
138D3
330
1378F
100
AcDbEntity
  8
1
  6
Continuous
100
AcDbCircle
 10
142.0
 20
50.5
 30
0.0
 40
1.5
100
AcDbArc
 50
270.0
 51
0.0
  0
LINE
  5
138D4
330
1378F
100
AcDbEntity
  8
4
  6
CENTER
100
AcDbLine
 10
135.0
 20
56.5
 30
0.0
 11
135.0
 21
50.0
 31
0.0
  0
LINE
  5
138D5
330
1378F
100
AcDbEntity
  8
1
  6
Continuous
100
AcDbLine
 10
143.5
 20
52.0
 30
0.0
 11
143.5
 21
50.5
 31
0.0
  0
LINE
  5
138D6
330
1378F
100
AcDbEntity
  8
1
  6
Continuous
100
AcDbLine
 10
156.0
 20
51.0
 30
0.0
 11
156.0
 21
46.5
 31
0.0
  0
LINE
  5
138D7
330
1378F
100
AcDbEntity
  8
1
  6
Continuous
100
AcDbLine
 10
499.5
 20
42.5
 30
0.0
 11
449.0
 21
42.5
 31
0.0
  0
LINE
  5
138D8
330
1378F
100
AcDbEntity
  8
4
  6
CENTER
100
AcDbLine
 10
415.0
 20
56.5
 30
0.0
 11
415.0
 21
50.0
 31
0.0
  0
LINE
  5
138D9
330
1378F
100
AcDbEntity
  8
4
  6
CENTER
100
AcDbLine
 10
425.0
 20
56.5
 30
0.0
 11
425.0
 21
50.0
 31
0.0
  0
LINE
  5
138DA
330
1378F
100
AcDbEntity
  8
1
  6
Continuous
100
AcDbLine
 10
449.0
 20
41.0
 30
0.0
 11
449.0
 21
42.5
 31
0.0
  0
LINE
  5
138DB
330
1378F
100
AcDbEntity
  8
1
  6
Continuous
100
AcDbLine
 10
477.0
 20
51.5
 30
0.0
 11
455.0
 21
51.5
 31
0.0
  0
LINE
  5
138DC
330
1378F
100
AcDbEntity
  8
1
  6
Continuous
100
AcDbLine
 10
472.0
 20
43.5
 30
0.0
 11
460.0
 21
43.5
 31
0.0
  0
LINE
  5
138DD
330
1378F
100
AcDbEntity
  8
1
  6
Continuous
100
AcDbLine
 10
477.0
 20
46.5
 30
0.0
 11
455.0
 21
46.5
 31
0.0
  0
LINE
  5
138DE
330
1378F
100
AcDbEntity
  8
1
  6
Continuous
100
AcDbLine
 10
472.0
 20
45.0
 30
0.0
 11
460.0
 21
45.0
 31
0.0
  0
ARC
  5
138DF
330
1378F
100
AcDbEntity
  8
1
  6
Continuous
100
AcDbCircle
 10
460.9142139999998
 20
42.5
 30
0.0
 40
1.0
100
AcDbArc
 50
90.0
 51
135.0
  0
LINE
  5
138E0
330
1378F
100
AcDbEntity
  8
1
  6
Continuous
100
AcDbLine
 10
460.207107
 20
43.207107
 30
0.0
 11
459.4999999999997
 21
42.5
 31
0.0
  0
LINE
  5
138E1
330
1378F
100
AcDbEntity
  8
1
  6
Continuous
100
AcDbLine
 10
460.0
 20
46.5
 30
0.0
 11
460.0
 21
43.5
 31
0.0
  0
LINE
  5
138E2
330
1378F
100
AcDbEntity
  8
4
  6
CENTER
100
AcDbLine
 10
454.55
 20
38.0
 30
0.0
 11
454.55
 21
44.5
 31
0.0
  0
LINE
  5
138E3
330
1378F
100
AcDbEntity
  8
4
  6
CENTER
100
AcDbLine
 10
466.0
 20
36.73147099999999
 30
0.0
 11
466.0
 21
57.114252
 31
0.0
  0
LINE
  5
138E4
330
1378F
100
AcDbEntity
  8
1
  6
Continuous
100
AcDbLine
 10
455.0
 20
46.5
 30
0.0
 11
455.0
 21
51.5
 31
0.0
  0
ARC
  5
138E5
330
1378F
100
AcDbEntity
  8
1
  6
Continuous
100
AcDbCircle
 10
471.0857859999999
 20
42.5
 30
0.0
 40
1.0
100
AcDbArc
 50
45.0
 51
90.0
  0
LINE
  5
138E6
330
1378F
100
AcDbEntity
  8
1
  6
Continuous
100
AcDbLine
 10
471.792893
 20
43.207107
 30
0.0
 11
472.5
 21
42.5
 31
0.0
  0
LINE
  5
138E7
330
1378F
100
AcDbEntity
  8
1
  6
Continuous
100
AcDbLine
 10
472.0
 20
46.5
 30
0.0
 11
472.0
 21
43.5
 31
0.0
  0
LINE
  5
138E8
330
1378F
100
AcDbEntity
  8
4
  6
CENTER
100
AcDbLine
 10
480.0
 20
38.0
 30
0.0
 11
480.0
 21
44.5
 31
0.0
  0
LINE
  5
138E9
330
1378F
100
AcDbEntity
  8
1
  6
Continuous
100
AcDbLine
 10
476.0201059999998
 20
46.0
 30
0.0
 11
472.0
 21
46.0
 31
0.0
  0
LINE
  5
138EA
330
1378F
100
AcDbEntity
  8
1
  6
Continuous
100
AcDbLine
 10
477.0
 20
46.5
 30
0.0
 11
477.0
 21
51.5
 31
0.0
  0
LINE
  5
138EB
330
1378F
100
AcDbEntity
  8
1
  6
Continuous
100
AcDbLine
 10
472.7823299999998
 20
46.0
 30
0.0
 11
472.7823299999998
 21
46.5
 31
0.0
  0
LINE
  5
138EC
330
1378F
100
AcDbEntity
  8
4
  6
CENTER
100
AcDbLine
 10
515.0
 20
56.5
 30
0.0
 11
515.0
 21
50.0
 31
0.0
  0
LINE
  5
138ED
330
1378F
100
AcDbEntity
  8
1
  6
Continuous
100
AcDbLine
 10
499.5
 20
47.0
 30
0.0
 11
499.5
 21
41.0
 31
0.0
  0
LINE
  5
138EE
330
1378F
100
AcDbEntity
  8
4
  6
CENTER
100
AcDbLine
 10
525.0
 20
56.5
 30
0.0
 11
525.0
 21
50.0
 31
0.0
  0
LINE
  5
138EF
330
1378F
100
AcDbEntity
  8
4
  6
CENTER
100
AcDbLine
 10
515.0
 20
38.0
 30
0.0
 11
515.0
 21
44.5
 31
0.0
  0
LINE
  5
138F0
330
1378F
100
AcDbEntity
  8
4
  6
CENTER
100
AcDbLine
 10
505.0
 20
38.0
 30
0.0
 11
505.0
 21
44.5
 31
0.0
  0
LINE
  5
138F1
330
1378F
100
AcDbEntity
  8
3
  6
DASHED
100
AcDbLine
 10
530.0
 20
49.0
 30
0.0
 11
530.0
 21
43.0
 31
0.0
  0
LINE
  5
138F2
330
1378F
100
AcDbEntity
  8
3
  6
DASHED
100
AcDbLine
 10
552.0
 20
48.0
 30
0.0
 11
530.0
 21
48.0
 31
0.0
  0
LINE
  5
138F3
330
1378F
100
AcDbEntity
  8
3
  6
DASHED
100
AcDbLine
 10
552.0
 20
43.0
 30
0.0
 11
530.0
 21
43.0
 31
0.0
  0
LINE
  5
138F4
330
1378F
100
AcDbEntity
  8
1
  6
Continuous
100
AcDbLine
 10
547.0
 20
49.5
 30
0.0
 11
535.0
 21
49.5
 31
0.0
  0
LINE
  5
138F5
330
1378F
100
AcDbEntity
  8
1
  6
Continuous
100
AcDbLine
 10
535.207107
 20
51.29289299999999
 30
0.0
 11
534.4999999999998
 21
52.0
 31
0.0
  0
ARC
  5
138F6
330
1378F
100
AcDbEntity
  8
1
  6
Continuous
100
AcDbCircle
 10
535.914214
 20
52.0
 30
0.0
 40
1.0
100
AcDbArc
 50
225.0
 51
270.0
  0
LINE
  5
138F7
330
1378F
100
AcDbEntity
  8
1
  6
Continuous
100
AcDbLine
 10
546.7928929999999
 20
51.29289299999999
 30
0.0
 11
547.5
 21
52.0
 31
0.0
  0
ARC
  5
138F8
330
1378F
100
AcDbEntity
  8
1
  6
Continuous
100
AcDbCircle
 10
546.0857859999999
 20
52.0
 30
0.0
 40
1.0
100
AcDbArc
 50
270.0
 51
315.0
  0
LINE
  5
138F9
330
1378F
100
AcDbEntity
  8
1
  6
Continuous
100
AcDbLine
 10
535.0
 20
49.0
 30
0.0
 11
535.0
 21
51.0
 31
0.0
  0
LINE
  5
138FA
330
1378F
100
AcDbEntity
  8
1
  6
Continuous
100
AcDbLine
 10
547.0
 20
51.0
 30
0.0
 11
535.0
 21
51.0
 31
0.0
  0
LINE
  5
138FB
330
1378F
100
AcDbEntity
  8
1
  6
Continuous
100
AcDbLine
 10
547.0
 20
49.0
 30
0.0
 11
547.0
 21
51.0
 31
0.0
  0
LINE
  5
138FC
330
1378F
100
AcDbEntity
  8
3
  6
DASHED
100
AcDbLine
 10
535.0
 20
48.0
 30
0.0
 11
535.0
 21
49.0
 31
0.0
  0
LINE
  5
138FD
330
1378F
100
AcDbEntity
  8
3
  6
DASHED
100
AcDbLine
 10
547.0
 20
48.0
 30
0.0
 11
547.0
 21
49.0
 31
0.0
  0
LINE
  5
138FE
330
1378F
100
AcDbEntity
  8
4
  6
CENTER
100
AcDbLine
 10
541.0
 20
36.876458
 30
0.0
 11
541.0
 21
57.343926
 31
0.0
  0
LINE
  5
138FF
330
1378F
100
AcDbEntity
  8
1
  6
Continuous
100
AcDbLine
 10
555.0
 20
52.0
 30
0.0
 11
555.0
 21
53.5
 31
0.0
  0
LINE
  5
13900
330
1378F
100
AcDbEntity
  8
3
  6
DASHED
100
AcDbLine
 10
552.0
 20
48.0
 30
0.0
 11
552.0
 21
43.0
 31
0.0
  0
LINE
  5
13901
330
1378F
100
AcDbEntity
  8
4
  6
CENTER
100
AcDbLine
 10
630.0
 20
38.0
 30
0.0
 11
630.0
 21
44.5
 31
0.0
  0
LINE
  5
13902
330
1378F
100
AcDbEntity
  8
4
  6
CENTER
100
AcDbLine
 10
870.0
 20
38.0
 30
0.0
 11
870.0
 21
44.5
 31
0.0
  0
LINE
  5
13903
330
1378F
100
AcDbEntity
  8
4
  6
CENTER
100
AcDbLine
 10
880.0
 20
38.0
 30
0.0
 11
880.0
 21
44.5
 31
0.0
  0
LINE
  5
13904
330
1378F
100
AcDbEntity
  8
1
  6
Continuous
100
AcDbLine
 10
895.0
 20
41.0
 30
0.0
 11
895.0
 21
47.5
 31
0.0
  0
LINE
  5
13905
330
1378F
100
AcDbEntity
  8
1
  6
Continuous
100
AcDbLine
 10
109.0
 20
45.49999999999999
 30
0.0
 11
460.0
 21
45.49999999999999
 31
0.0
  0
LINE
  5
13906
330
1378F
100
AcDbEntity
  8
1
  6
Continuous
100
AcDbLine
 10
476.0201059999998
 20
46.0
 30
0.0
 11
476.0201059999998
 21
46.5
 31
0.0
  0
LINE
  5
13907
330
1378F
100
AcDbEntity
  8
1
  6
Continuous
100
AcDbLine
 10
472.0
 20
45.49999999999999
 30
0.0
 11
499.5
 21
45.49999999999999
 31
0.0
  0
LINE
  5
13908
330
1378F
100
AcDbEntity
  8
1
  6
Continuous
100
AcDbLine
 10
530.0
 20
52.0
 30
0.0
 11
530.0
 21
49.0
 31
0.0
  0
LINE
  5
13909
330
1378F
100
AcDbEntity
  8
3
  6
DASHED
100
AcDbLine
 10
499.5
 20
45.49999999999999
 30
0.0
 11
528.0
 21
45.49999999999999
 31
0.0
  0
ARC
  5
1390A
330
1378F
100
AcDbEntity
  8
1
  6
Continuous
100
AcDbCircle
 10
36.0
 20
148.5
 30
0.0
 40
1.5
100
AcDbArc
 50
0.0
 51
90.0
  0
LINE
  5
1390B
330
1378F
100
AcDbEntity
  8
1
  6
Continuous
100
AcDbLine
 10
25.0
 20
124.0
 30
0.0
 11
25.0
 21
151.0
 31
0.0
  0
LINE
  5
1390C
330
1378F
100
AcDbEntity
  8
1
  6
Continuous
100
AcDbLine
 10
26.5
 20
122.5
 30
0.0
 11
26.5
 21
151.0
 31
0.0
  0
LINE
  5
1390D
330
1378F
100
AcDbEntity
  8
1
  6
Continuous
100
AcDbLine
 10
37.5
 20
123.5
 30
0.0
 11
37.5
 21
148.5
 31
0.0
  0
ARC
  5
1390E
330
1378F
100
AcDbEntity
  8
1
  6
Continuous
100
AcDbCircle
 10
26.5
 20
124.0
 30
0.0
 40
1.5
100
AcDbArc
 50
180.0
 51
270.0
  0
LINE
  5
1390F
330
1378F
100
AcDbEntity
  8
1
  6
Continuous
100
AcDbLine
 10
37.5
 20
123.5
 30
0.0
 11
36.0
 21
123.5
 31
0.0
  0
LINE
  5
13910
330
1378F
100
AcDbEntity
  8
1
  6
Continuous
100
AcDbLine
 10
36.0
 20
148.5
 30
0.0
 11
27.0
 21
148.5
 31
0.0
  0
LINE
  5
13911
330
1378F
100
AcDbEntity
  8
4
  6
CENTER
100
AcDbLine
 10
41.643621
 20
137.5
 30
0.0
 11
23.84947599999999
 21
137.5
 31
0.0
  0
LINE
  5
13912
330
1378F
100
AcDbEntity
  8
4
  6
CENTER
100
AcDbLine
 10
38.19373800000001
 20
135.0
 30
0.0
 11
20.0
 21
135.0
 31
0.0
  0
LINE
  5
13913
330
1378F
100
AcDbEntity
  8
1
  6
Continuous
100
AcDbLine
 10
36.0
 20
123.5
 30
0.0
 11
36.0
 21
148.5
 31
0.0
  0
LINE
  5
13914
330
1378F
100
AcDbEntity
  8
1
  6
Continuous
100
AcDbLine
 10
33.0
 20
151.0
 30
0.0
 11
25.0
 21
151.0
 31
0.0
  0
LINE
  5
13915
330
1378F
100
AcDbEntity
  8
1
  6
Continuous
100
AcDbLine
 10
29.5
 20
149.5
 30
0.0
 11
26.5
 21
149.5
 31
0.0
  0
LINE
  5
13916
330
1378F
100
AcDbEntity
  8
1
  6
Continuous
100
AcDbLine
 10
29.5
 20
150.0
 30
0.0
 11
36.0
 21
150.0
 31
0.0
  0
LINE
  5
13917
330
1378F
100
AcDbEntity
  8
1
  6
Continuous
100
AcDbLine
 10
33.0
 20
150.0
 30
0.0
 11
33.0
 21
151.0
 31
0.0
  0
LINE
  5
13918
330
1378F
100
AcDbEntity
  8
1
  6
Continuous
100
AcDbLine
 10
29.5
 20
146.0
 30
0.0
 11
29.5
 21
150.0
 31
0.0
  0
LINE
  5
13919
330
1378F
100
AcDbEntity
  8
1
  6
Continuous
100
AcDbLine
 10
37.5
 20
137.5
 30
0.0
 11
36.0
 21
137.5
 31
0.0
  0
LINE
  5
1391A
330
1378F
100
AcDbEntity
  8
1
  6
Continuous
100
AcDbLine
 10
36.0
 20
144.0
 30
0.0
 11
37.5
 21
144.0
 31
0.0
  0
LINE
  5
1391B
330
1378F
100
AcDbEntity
  8
1
  6
Continuous
100
AcDbLine
 10
25.0
 20
125.0
 30
0.0
 11
30.5
 21
125.0
 31
0.0
  0
LINE
  5
1391C
330
1378F
100
AcDbEntity
  8
1
  6
Continuous
100
AcDbLine
 10
36.0
 20
146.0
 30
0.0
 11
29.5
 21
146.0
 31
0.0
  0
LINE
  5
1391D
330
1378F
100
AcDbEntity
  8
1
  6
Continuous
100
AcDbLine
 10
127.0
 20
48.58615799999999
 30
0.0
 11
127.0
 21
45.98131
 31
0.0
  0
LINE
  5
1391E
330
1378F
100
AcDbEntity
  8
1
  6
Continuous
100
AcDbLine
 10
127.0
 20
226.4156869999999
 30
0.0
 11
127.0
 21
228.200516
 31
0.0
  0
LINE
  5
1391F
330
1378F
100
AcDbEntity
  8
1
  6
Continuous
100
AcDbLine
 10
880.0
 20
46.103955
 30
0.0
 11
880.0
 21
48.203194
 31
0.0
  0
LINE
  5
13920
330
1378F
100
AcDbEntity
  8
1
  6
Continuous
100
AcDbLine
 10
852.0
 20
42.5
 30
0.0
 11
852.0
 21
47.71568
 31
0.0
  0
ARC
  5
13921
330
1378F
100
AcDbEntity
  8
1
  6
Continuous
100
AcDbCircle
 10
893.5
 20
227.0
 30
0.0
 40
1.5
100
AcDbArc
 50
270.0
 51
0.0
  0
LINE
  5
13922
330
1378F
100
AcDbEntity
  8
1
  6
Continuous
100
AcDbLine
 10
895.0
 20
630.4999999999997
 30
0.0
 11
555.0
 21
630.4999999999997
 31
0.0
  0
LINE
  5
13923
330
1378F
100
AcDbEntity
  8
1
  6
Continuous
100
AcDbLine
 10
893.5
 20
629.0
 30
0.0
 11
520.5
 21
629.0
 31
0.0
  0
LINE
  5
13924
330
1378F
100
AcDbEntity
  8
1
  6
Continuous
100
AcDbLine
 10
852.0
 20
525.0
 30
0.0
 11
534.5781950000001
 21
525.0
 31
0.0
  0
LINE
  5
13925
330
1378F
100
AcDbEntity
  8
1
  6
Continuous
100
AcDbLine
 10
895.0
 20
551.0
 30
0.0
 11
519.0
 21
551.0
 31
0.0
  0
LINE
  5
13926
330
1378F
100
AcDbEntity
  8
1
  6
Continuous
100
AcDbLine
 10
895.0
 20
621.0
 30
0.0
 11
450.4999999999998
 21
621.0
 31
0.0
  0
LINE
  5
13927
330
1378F
100
AcDbEntity
  8
1
  6
Continuous
100
AcDbLine
 10
895.0
 20
703.5
 30
0.0
 11
519.0
 21
703.5
 31
0.0
  0
LINE
  5
13928
330
1378F
100
AcDbEntity
  8
1
  6
Continuous
100
AcDbLine
 10
895.0
 20
705.0
 30
0.0
 11
518.0
 21
705.0
 31
0.0
  0
LINE
  5
13929
330
1378F
100
AcDbEntity
  8
1
  6
Continuous
100
AcDbLine
 10
852.0
 20
729.4999999999999
 30
0.0
 11
549.578195
 21
729.4999999999999
 31
0.0
  0
LINE
  5
1392A
330
1378F
100
AcDbEntity
  8
1
  6
Continuous
100
AcDbLine
 10
852.2450479999999
 20
724.0
 30
0.0
 11
551.698246
 21
724.0
 31
0.0
  0
LINE
  5
1392B
330
1378F
100
AcDbEntity
  8
1
  6
Continuous
100
AcDbLine
 10
553.5
 20
633.4999999999999
 30
0.0
 11
109.0
 21
633.4999999999999
 31
0.0
  0
LINE
  5
1392C
330
1378F
100
AcDbEntity
  8
1
  6
Continuous
100
AcDbLine
 10
530.0
 20
707.0
 30
0.0
 11
156.0
 21
707.0
 31
0.0
  0
LINE
  5
1392D
330
1378F
100
AcDbEntity
  8
1
  6
Continuous
100
AcDbLine
 10
547.627489
 20
731.0
 30
0.0
 11
111.0
 21
731.0
 31
0.0
  0
LINE
  5
1392E
330
1378F
100
AcDbEntity
  8
1
  6
Continuous
100
AcDbLine
 10
109.0
 20
624.0
 30
0.0
 11
519.0
 21
624.0
 31
0.0
  0
LINE
  5
1392F
330
1378F
100
AcDbEntity
  8
1
  6
Continuous
100
AcDbLine
 10
547.627489
 20
523.5
 30
0.0
 11
111.0
 21
523.5
 31
0.0
  0
LINE
  5
13930
330
1378F
100
AcDbEntity
  8
1
  6
Continuous
100
AcDbLine
 10
450.4999999999998
 20
547.5
 30
0.0
 11
156.0
 21
547.5
 31
0.0
  0
LINE
  5
13931
330
1378F
100
AcDbEntity
  8
1
  6
Continuous
100
AcDbLine
 10
448.0
 20
542.4999999999998
 30
0.0
 11
155.784882
 21
542.4999999999998
 31
0.0
  0
LINE
  5
13932
330
1378F
100
AcDbEntity
  8
1
  6
Continuous
100
AcDbLine
 10
156.0
 20
547.5
 30
0.0
 11
127.0
 21
550.0
 31
0.0
  0
LINE
  5
13933
330
1378F
100
AcDbEntity
  8
4
  6
CENTER
100
AcDbLine
 10
119.25
 20
537.5
 30
0.0
 11
140.7499999999998
 21
537.5
 31
0.0
  0
LINE
  5
13934
330
1378F
100
AcDbEntity
  8
1
  6
Continuous
100
AcDbLine
 10
155.784882
 20
542.4999999999998
 30
0.0
 11
126.784882
 21
545.0
 31
0.0
  0
CIRCLE
  5
13935
330
1378F
100
AcDbEntity
  8
1
  6
Continuous
100
AcDbCircle
 10
125.0
 20
537.5
 30
0.0
 40
3.75
  0
LINE
  5
13936
330
1378F
100
AcDbEntity
  8
1
  6
Continuous
100
AcDbLine
 10
25.0
 20
523.5
 30
0.0
 11
25.0
 21
548.5
 31
0.0
  0
LINE
  5
13937
330
1378F
100
AcDbEntity
  8
1
  6
Continuous
100
AcDbLine
 10
26.5
 20
523.5
 30
0.0
 11
26.5
 21
548.5
 31
0.0
  0
LINE
  5
13938
330
1378F
100
AcDbEntity
  8
1
  6
Continuous
100
AcDbLine
 10
27.0
 20
524.0
 30
0.0
 11
27.0
 21
541.0
 31
0.0
  0
LINE
  5
13939
330
1378F
100
AcDbEntity
  8
1
  6
Continuous
100
AcDbLine
 10
28.0
 20
524.0
 30
0.0
 11
28.0
 21
541.0
 31
0.0
  0
LINE
  5
1393A
330
1378F
100
AcDbEntity
  8
1
  6
Continuous
100
AcDbLine
 10
37.5
 20
524.0
 30
0.0
 11
37.5
 21
551.0
 31
0.0
  0
LINE
  5
1393B
330
1378F
100
AcDbEntity
  8
1
  6
Continuous
100
AcDbLine
 10
29.5
 20
522.5
 30
0.0
 11
36.0
 21
522.5
 31
0.0
  0
LINE
  5
1393C
330
1378F
100
AcDbEntity
  8
1
  6
Continuous
100
AcDbLine
 10
37.5
 20
525.0
 30
0.0
 11
29.5
 21
525.0
 31
0.0
  0
LINE
  5
1393D
330
1378F
100
AcDbEntity
  8
1
  6
Continuous
100
AcDbLine
 10
25.0
 20
523.5
 30
0.0
 11
26.5
 21
523.5
 31
0.0
  0
ARC
  5
1393E
330
1378F
100
AcDbEntity
  8
1
  6
Continuous
100
AcDbCircle
 10
29.5
 20
524.0
 30
0.0
 40
1.5
100
AcDbArc
 50
180.0
 51
270.0
  0
LINE
  5
1393F
330
1378F
100
AcDbEntity
  8
1
  6
Continuous
100
AcDbLine
 10
27.0
 20
524.0
 30
0.0
 11
28.0
 21
524.0
 31
0.0
  0
ARC
  5
13940
330
1378F
100
AcDbEntity
  8
1
  6
Continuous
100
AcDbCircle
 10
29.5
 20
526.4999999999998
 30
0.0
 40
1.5
100
AcDbArc
 50
180.0
 51
270.0
  0
ARC
  5
13941
330
1378F
100
AcDbEntity
  8
1
  6
Continuous
100
AcDbCircle
 10
36.0
 20
524.0
 30
0.0
 40
1.5
100
AcDbArc
 50
270.0
 51
0.0
  0
LINE
  5
13942
330
1378F
100
AcDbEntity
  8
1
  6
Continuous
100
AcDbLine
 10
29.5
 20
551.0
 30
0.0
 11
37.5
 21
551.0
 31
0.0
  0
LINE
  5
13943
330
1378F
100
AcDbEntity
  8
1
  6
Continuous
100
AcDbLine
 10
33.0
 20
550.0
 30
0.0
 11
26.5
 21
550.0
 31
0.0
  0
LINE
  5
13944
330
1378F
100
AcDbEntity
  8
4
  6
CENTER
100
AcDbLine
 10
20.856379
 20
537.5
 30
0.0
 11
38.65052399999999
 21
537.5
 31
0.0
  0
LINE
  5
13945
330
1378F
100
AcDbEntity
  8
4
  6
CENTER
100
AcDbLine
 10
24.306262
 20
535.0
 30
0.0
 11
42.5
 21
535.0
 31
0.0
  0
LINE
  5
13946
330
1378F
100
AcDbEntity
  8
1
  6
Continuous
100
AcDbLine
 10
26.5
 20
548.5
 30
0.0
 11
33.0
 21
548.5
 31
0.0
  0
LINE
  5
13947
330
1378F
100
AcDbEntity
  8
1
  6
Continuous
100
AcDbLine
 10
37.5
 20
541.0
 30
0.0
 11
26.5
 21
541.0
 31
0.0
  0
LINE
  5
13948
330
1378F
100
AcDbEntity
  8
1
  6
Continuous
100
AcDbLine
 10
33.0
 20
544.5
 30
0.0
 11
26.5
 21
544.5
 31
0.0
  0
LINE
  5
13949
330
1378F
100
AcDbEntity
  8
1
  6
Continuous
100
AcDbLine
 10
26.5
 20
546.0
 30
0.0
 11
33.0
 21
546.0
 31
0.0
  0
LINE
  5
1394A
330
1378F
100
AcDbEntity
  8
1
  6
Continuous
100
AcDbLine
 10
29.5
 20
550.0
 30
0.0
 11
29.5
 21
551.0
 31
0.0
  0
LINE
  5
1394B
330
1378F
100
AcDbEntity
  8
1
  6
Continuous
100
AcDbLine
 10
25.0
 20
537.5
 30
0.0
 11
26.5
 21
537.5
 31
0.0
  0
LINE
  5
1394C
330
1378F
100
AcDbEntity
  8
1
  6
Continuous
100
AcDbLine
 10
26.5
 20
544.0
 30
0.0
 11
25.0
 21
544.0
 31
0.0
  0
LINE
  5
1394D
330
1378F
100
AcDbEntity
  8
1
  6
Continuous
100
AcDbLine
 10
27.0
 20
544.5
 30
0.0
 11
27.0
 21
546.0
 31
0.0
  0
ARC
  5
1394E
330
1378F
100
AcDbEntity
  8
1
  6
Continuous
100
AcDbCircle
 10
26.5
 20
548.5
 30
0.0
 40
1.5
100
AcDbArc
 50
90.0
 51
180.0
  0
LINE
  5
1394F
330
1378F
100
AcDbEntity
  8
1
  6
Continuous
100
AcDbLine
 10
34.118034
 20
549.5
 30
0.0
 11
36.0
 21
549.5
 31
0.0
  0
LINE
  5
13950
330
1378F
100
AcDbEntity
  8
1
  6
Continuous
100
AcDbLine
 10
34.5
 20
545.0
 30
0.0
 11
33.0
 21
545.0
 31
0.0
  0
LINE
  5
13951
330
1378F
100
AcDbEntity
  8
1
  6
Continuous
100
AcDbLine
 10
33.0
 20
541.0
 30
0.0
 11
33.0
 21
548.5
 31
0.0
  0
LINE
  5
13952
330
1378F
100
AcDbEntity
  8
1
  6
Continuous
100
AcDbLine
 10
33.0
 20
542.4999999999998
 30
0.0
 11
34.5
 21
542.4999999999998
 31
0.0
  0
LINE
  5
13953
330
1378F
100
AcDbEntity
  8
1
  6
Continuous
100
AcDbLine
 10
34.5
 20
542.4999999999998
 30
0.0
 11
34.5
 21
548.5
 31
0.0
  0
LINE
  5
13954
330
1378F
100
AcDbEntity
  8
1
  6
Continuous
100
AcDbLine
 10
32.0
 20
544.5
 30
0.0
 11
32.0
 21
546.0
 31
0.0
  0
LINE
  5
13955
330
1378F
100
AcDbEntity
  8
1
  6
Continuous
100
AcDbLine
 10
36.0
 20
541.0
 30
0.0
 11
36.0
 21
551.0
 31
0.0
  0
ARC
  5
13956
330
1378F
100
AcDbEntity
  8
1
  6
Continuous
100
AcDbCircle
 10
33.0
 20
548.5
 30
0.0
 40
1.5
100
AcDbArc
 50
0.0
 51
90.0
  0
LINE
  5
13957
330
1378F
100
AcDbEntity
  8
4
  6
CENTER
100
AcDbLine
 10
125.0
 20
531.7499999999999
 30
0.0
 11
125.0
 21
543.25
 31
0.0
  0
LINE
  5
13958
330
1378F
100
AcDbEntity
  8
1
  6
Continuous
100
AcDbLine
 10
109.0
 20
536.0
 30
0.0
 11
109.0
 21
525.4999999999999
 31
0.0
  0
ARC
  5
13959
330
1378F
100
AcDbEntity
  8
1
  6
Continuous
100
AcDbCircle
 10
111.0
 20
525.4999999999999
 30
0.0
 40
2.0
100
AcDbArc
 50
180.0
 51
270.0
  0
LINE
  5
1395A
330
1378F
100
AcDbEntity
  8
1
  6
Continuous
100
AcDbLine
 10
109.0
 20
550.0
 30
0.0
 11
127.0
 21
550.0
 31
0.0
  0
LINE
  5
1395B
330
1378F
100
AcDbEntity
  8
1
  6
Continuous
100
AcDbLine
 10
110.4999999999999
 20
537.5
 30
0.0
 11
117.0
 21
537.5
 31
0.0
  0
LINE
  5
1395C
330
1378F
100
AcDbEntity
  8
1
  6
Continuous
100
AcDbLine
 10
110.0671439999999
 20
543.6783709999998
 30
0.0
 11
117.577141
 21
541.4149169999998
 31
0.0
  0
LINE
  5
1395D
330
1378F
100
AcDbEntity
  8
1
  6
Continuous
100
AcDbLine
 10
110.4999999999999
 20
545.0
 30
0.0
 11
126.784882
 21
545.0
 31
0.0
  0
ARC
  5
1395E
330
1378F
100
AcDbEntity
  8
1
  6
Continuous
100
AcDbCircle
 10
110.4999999999999
 20
536.0
 30
0.0
 40
1.5
100
AcDbArc
 50
90.0
 51
180.0
  0
ARC
  5
1395F
330
1378F
100
AcDbEntity
  8
1
  6
Continuous
100
AcDbCircle
 10
110.4999999999999
 20
545.114559
 30
0.0
 40
1.5
100
AcDbArc
 50
180.0
 51
253.2276069999999
  0
ARC
  5
13960
330
1378F
100
AcDbEntity
  8
1
  6
Continuous
100
AcDbCircle
 10
110.4999999999999
 20
546.4999999999998
 30
0.0
 40
1.5
100
AcDbArc
 50
180.0
 51
270.0
  0
LINE
  5
13961
330
1378F
100
AcDbEntity
  8
1
  6
Continuous
100
AcDbLine
 10
109.0
 20
550.0
 30
0.0
 11
109.0
 21
545.114559
 31
0.0
  0
ARC
  5
13962
330
1378F
100
AcDbEntity
  8
1
  6
Continuous
100
AcDbCircle
 10
117.0
 20
539.5
 30
0.0
 40
2.0
100
AcDbArc
 50
270.0
 51
73.22760699999998
  0
CIRCLE
  5
13963
330
1378F
100
AcDbEntity
  8
1
  6
Continuous
100
AcDbCircle
 10
125.0
 20
537.5
 30
0.0
 40
2.399999999999999
  0
LINE
  5
13964
330
1378F
100
AcDbEntity
  8
4
  6
CENTER
100
AcDbLine
 10
135.0
 20
530.75
 30
0.0
 11
135.0
 21
544.2499999999999
 31
0.0
  0
ARC
  5
13965
330
1378F
100
AcDbEntity
  8
1
  6
Continuous
100
AcDbCircle
 10
135.0
 20
536.5
 30
0.0
 40
3.75
100
AcDbArc
 50
180.0
 51
0.0
  0
ARC
  5
13966
330
1378F
100
AcDbEntity
  8
1
  6
Continuous
100
AcDbCircle
 10
135.0
 20
538.4999999999998
 30
0.0
 40
3.75
100
AcDbArc
 50
0.0
 51
180.0
  0
LINE
  5
13967
330
1378F
100
AcDbEntity
  8
1
  6
Continuous
100
AcDbLine
 10
131.25
 20
536.5
 30
0.0
 11
131.25
 21
538.4999999999998
 31
0.0
  0
LINE
  5
13968
330
1378F
100
AcDbEntity
  8
1
  6
Continuous
100
AcDbLine
 10
137.4
 20
536.5
 30
0.0
 11
137.4
 21
538.4999999999998
 31
0.0
  0
ARC
  5
13969
330
1378F
100
AcDbEntity
  8
1
  6
Continuous
100
AcDbCircle
 10
135.0
 20
536.5
 30
0.0
 40
2.399999999999999
100
AcDbArc
 50
180.0
 51
0.0
  0
LINE
  5
1396A
330
1378F
100
AcDbEntity
  8
1
  6
Continuous
100
AcDbLine
 10
132.6
 20
536.5
 30
0.0
 11
132.6
 21
538.4999999999998
 31
0.0
  0
ARC
  5
1396B
330
1378F
100
AcDbEntity
  8
1
  6
Continuous
100
AcDbCircle
 10
135.0
 20
538.4999999999998
 30
0.0
 40
2.399999999999999
100
AcDbArc
 50
0.0
 51
180.0
  0
LINE
  5
1396C
330
1378F
100
AcDbEntity
  8
1
  6
Continuous
100
AcDbLine
 10
138.7499999999998
 20
536.5
 30
0.0
 11
138.7499999999998
 21
538.4999999999998
 31
0.0
  0
LINE
  5
1396D
330
1378F
100
AcDbEntity
  8
1
  6
Continuous
100
AcDbLine
 10
156.0
 20
707.0
 30
0.0
 11
127.0
 21
704.4999999999999
 31
0.0
  0
LINE
  5
1396E
330
1378F
100
AcDbEntity
  8
4
  6
CENTER
100
AcDbLine
 10
119.25
 20
717.0
 30
0.0
 11
140.7499999999998
 21
717.0
 31
0.0
  0
LINE
  5
1396F
330
1378F
100
AcDbEntity
  8
1
  6
Continuous
100
AcDbLine
 10
142.0
 20
708.0
 30
0.0
 11
115.5
 21
708.0
 31
0.0
  0
LINE
  5
13970
330
1378F
100
AcDbEntity
  8
1
  6
Continuous
100
AcDbLine
 10
143.198508
 20
707.4019859999999
 30
0.0
 11
126.9354649999998
 21
706.0
 31
0.0
  0
LINE
  5
13971
330
1378F
100
AcDbEntity
  8
1
  6
Continuous
100
AcDbLine
 10
143.5
 20
632.0
 30
0.0
 11
114.0
 21
632.0
 31
0.0
  0
LINE
  5
13972
330
1378F
100
AcDbEntity
  8
1
  6
Continuous
100
AcDbLine
 10
142.0
 20
629.0
 30
0.0
 11
115.5
 21
629.0
 31
0.0
  0
LINE
  5
13973
330
1378F
100
AcDbEntity
  8
1
  6
Continuous
100
AcDbLine
 10
109.0
 20
633.4999999999999
 30
0.0
 11
109.0
 21
624.0
 31
0.0
  0
LINE
  5
13974
330
1378F
100
AcDbEntity
  8
1
  6
Continuous
100
AcDbLine
 10
127.0
 20
628.084313
 30
0.0
 11
127.0
 21
624.799484
 31
0.0
  0
LINE
  5
13975
330
1378F
100
AcDbEntity
  8
1
  6
Continuous
100
AcDbLine
 10
114.0
 20
630.4999999999997
 30
0.0
 11
114.0
 21
633.4999999999999
 31
0.0
  0
ARC
  5
13976
330
1378F
100
AcDbEntity
  8
1
  6
Continuous
100
AcDbCircle
 10
115.5
 20
630.4999999999997
 30
0.0
 40
1.5
100
AcDbArc
 50
180.0
 51
270.0
  0
LINE
  5
13977
330
1378F
100
AcDbEntity
  8
4
  6
CENTER
100
AcDbLine
 10
125.0
 20
636.5
 30
0.0
 11
125.0
 21
630.0
 31
0.0
  0
ARC
  5
13978
330
1378F
100
AcDbEntity
  8
1
  6
Continuous
100
AcDbCircle
 10
115.5
 20
706.5
 30
0.0
 40
1.5
100
AcDbArc
 50
90.0
 51
180.0
  0
LINE
  5
13979
330
1378F
100
AcDbEntity
  8
1
  6
Continuous
100
AcDbLine
 10
109.0
 20
704.4999999999999
 30
0.0
 11
109.0
 21
709.385441
 31
0.0
  0
LINE
  5
1397A
330
1378F
100
AcDbEntity
  8
1
  6
Continuous
100
AcDbLine
 10
109.0
 20
704.4999999999999
 30
0.0
 11
127.0
 21
704.4999999999999
 31
0.0
  0
LINE
  5
1397B
330
1378F
100
AcDbEntity
  8
1
  6
Continuous
100
AcDbLine
 10
114.0
 20
706.0
 30
0.0
 11
126.9354649999998
 21
706.0
 31
0.0
  0
LINE
  5
1397C
330
1378F
100
AcDbEntity
  8
1
  6
Continuous
100
AcDbLine
 10
114.0
 20
704.4999999999999
 30
0.0
 11
114.0
 21
706.5
 31
0.0
  0
ARC
  5
1397D
330
1378F
100
AcDbEntity
  8
1
  6
Continuous
100
AcDbCircle
 10
111.0
 20
729.0
 30
0.0
 40
2.0
100
AcDbArc
 50
90.0
 51
180.0
  0
LINE
  5
1397E
330
1378F
100
AcDbEntity
  8
1
  6
Continuous
100
AcDbLine
 10
110.0671439999999
 20
710.821629
 30
0.0
 11
117.577141
 21
713.0850830000001
 31
0.0
  0
LINE
  5
1397F
330
1378F
100
AcDbEntity
  8
1
  6
Continuous
100
AcDbLine
 10
110.4999999999999
 20
717.0
 30
0.0
 11
117.0
 21
717.0
 31
0.0
  0
ARC
  5
13980
330
1378F
100
AcDbEntity
  8
1
  6
Continuous
100
AcDbCircle
 10
110.4999999999999
 20
709.385441
 30
0.0
 40
1.5
100
AcDbArc
 50
106.7723929999998
 51
180.0
  0
ARC
  5
13981
330
1378F
100
AcDbEntity
  8
1
  6
Continuous
100
AcDbCircle
 10
110.4999999999999
 20
718.5
 30
0.0
 40
1.5
100
AcDbArc
 50
180.0
 51
270.0
  0
LINE
  5
13982
330
1378F
100
AcDbEntity
  8
1
  6
Continuous
100
AcDbLine
 10
109.0
 20
718.5
 30
0.0
 11
109.0
 21
729.0
 31
0.0
  0
CIRCLE
  5
13983
330
1378F
100
AcDbEntity
  8
1
  6
Continuous
100
AcDbCircle
 10
125.0
 20
717.0
 30
0.0
 40
2.399999999999999
  0
LINE
  5
13984
330
1378F
100
AcDbEntity
  8
4
  6
CENTER
100
AcDbLine
 10
125.0
 20
722.75
 30
0.0
 11
125.0
 21
711.2499999999997
 31
0.0
  0
ARC
  5
13985
330
1378F
100
AcDbEntity
  8
1
  6
Continuous
100
AcDbCircle
 10
117.0
 20
715.0
 30
0.0
 40
2.0
100
AcDbArc
 50
286.772393
 51
90.0
  0
ARC
  5
13986
330
1378F
100
AcDbEntity
  8
1
  6
Continuous
100
AcDbCircle
 10
142.0
 20
630.4999999999997
 30
0.0
 40
1.5
100
AcDbArc
 50
270.0
 51
0.0
  0
LINE
  5
13987
330
1378F
100
AcDbEntity
  8
1
  6
Continuous
100
AcDbLine
 10
143.5
 20
633.4999999999999
 30
0.0
 11
143.5
 21
630.4999999999997
 31
0.0
  0
LINE
  5
13988
330
1378F
100
AcDbEntity
  8
4
  6
CENTER
100
AcDbLine
 10
135.0
 20
636.5
 30
0.0
 11
135.0
 21
630.0
 31
0.0
  0
LINE
  5
13989
330
1378F
100
AcDbEntity
  8
1
  6
Continuous
100
AcDbLine
 10
156.0
 20
632.5
 30
0.0
 11
156.0
 21
625.0
 31
0.0
  0
ARC
  5
1398A
330
1378F
100
AcDbEntity
  8
1
  6
Continuous
100
AcDbCircle
 10
142.0
 20
706.5
 30
0.0
 40
1.5
100
AcDbArc
 50
0.0
 51
90.0
  0
LINE
  5
1398B
330
1378F
100
AcDbEntity
  8
1
  6
Continuous
100
AcDbLine
 10
143.5
 20
705.922414
 30
0.0
 11
143.5
 21
706.5
 31
0.0
  0
ARC
  5
1398C
330
1378F
100
AcDbEntity
  8
1
  6
Continuous
100
AcDbCircle
 10
135.0
 20
716.0
 30
0.0
 40
2.399999999999999
100
AcDbArc
 50
180.0
 51
0.0
  0
LINE
  5
1398D
330
1378F
100
AcDbEntity
  8
1
  6
Continuous
100
AcDbLine
 10
132.6
 20
718.0
 30
0.0
 11
132.6
 21
716.0
 31
0.0
  0
ARC
  5
1398E
330
1378F
100
AcDbEntity
  8
1
  6
Continuous
100
AcDbCircle
 10
135.0
 20
718.0
 30
0.0
 40
2.399999999999999
100
AcDbArc
 50
0.0
 51
180.0
  0
LINE
  5
1398F
330
1378F
100
AcDbEntity
  8
1
  6
Continuous
100
AcDbLine
 10
137.4
 20
718.0
 30
0.0
 11
137.4
 21
716.0
 31
0.0
  0
LINE
  5
13990
330
1378F
100
AcDbEntity
  8
4
  6
CENTER
100
AcDbLine
 10
135.0
 20
723.7499999999998
 30
0.0
 11
135.0
 21
710.25
 31
0.0
  0
LINE
  5
13991
330
1378F
100
AcDbEntity
  8
4
  6
CENTER
100
AcDbLine
 10
556.0
 20
537.5
 30
0.0
 11
509.25
 21
537.5
 31
0.0
  0
LINE
  5
13992
330
1378F
100
AcDbEntity
  8
1
  6
Continuous
100
AcDbLine
 10
534.5781950000001
 20
525.0
 30
0.0
 11
499.5
 21
525.0
 31
0.0
  0
LINE
  5
13993
330
1378F
100
AcDbEntity
  8
4
  6
CENTER
100
AcDbLine
 10
499.2499999999998
 20
535.0
 30
0.0
 11
520.75
 21
535.0
 31
0.0
  0
LINE
  5
13994
330
1378F
100
AcDbEntity
  8
3
  6
DASHED
100
AcDbLine
 10
531.5
 20
546.0
 30
0.0
 11
535.5
 21
547.5
 31
0.0
  0
LINE
  5
13995
330
1378F
100
AcDbEntity
  8
1
  6
Continuous
100
AcDbLine
 10
518.0
 20
549.5
 30
0.0
 11
514.0
 21
551.0
 31
0.0
  0
LINE
  5
13996
330
1378F
100
AcDbEntity
  8
1
  6
Continuous
100
AcDbLine
 10
514.0
 20
551.0
 30
0.0
 11
452.5
 21
551.0
 31
0.0
  0
LINE
  5
13997
330
1378F
100
AcDbEntity
  8
4
  6
CENTER
100
AcDbLine
 10
481.0
 20
535.0
 30
0.0
 11
451.0
 21
535.0
 31
0.0
  0
LINE
  5
13998
330
1378F
100
AcDbEntity
  8
3
  6
DASHED
100
AcDbLine
 10
530.0
 20
547.5
 30
0.0
 11
450.4999999999998
 21
547.5
 31
0.0
  0
LINE
  5
13999
330
1378F
100
AcDbEntity
  8
1
  6
Continuous
100
AcDbLine
 10
494.5
 20
525.0
 30
0.0
 11
449.0
 21
525.0
 31
0.0
  0
LINE
  5
1399A
330
1378F
100
AcDbEntity
  8
3
  6
DASHED
100
AcDbLine
 10
528.5
 20
542.4999999999998
 30
0.0
 11
448.0
 21
542.4999999999998
 31
0.0
  0
LINE
  5
1399B
330
1378F
100
AcDbEntity
  8
4
  6
CENTER
100
AcDbLine
 10
450.8
 20
546.95
 30
0.0
 11
458.3
 21
546.95
 31
0.0
  0
CIRCLE
  5
1399C
330
1378F
100
AcDbEntity
  8
1
  6
Continuous
100
AcDbCircle
 10
454.55
 20
546.95
 30
0.0
 40
1.75
  0
LINE
  5
1399D
330
1378F
100
AcDbEntity
  8
4
  6
CENTER
100
AcDbLine
 10
425.0
 20
531.7499999999999
 30
0.0
 11
425.0
 21
543.25
 31
0.0
  0
LINE
  5
1399E
330
1378F
100
AcDbEntity
  8
1
  6
Continuous
100
AcDbLine
 10
449.0
 20
525.0
 30
0.0
 11
449.0
 21
541.0
 31
0.0
  0
LINE
  5
1399F
330
1378F
100
AcDbEntity
  8
4
  6
CENTER
100
AcDbLine
 10
415.0
 20
530.75
 30
0.0
 11
415.0
 21
544.2499999999999
 31
0.0
  0
LINE
  5
139A0
330
1378F
100
AcDbEntity
  8
4
  6
CENTER
100
AcDbLine
 10
430.75
 20
537.5
 30
0.0
 11
409.25
 21
537.5
 31
0.0
  0
CIRCLE
  5
139A1
330
1378F
100
AcDbEntity
  8
1
  6
Continuous
100
AcDbCircle
 10
425.0
 20
537.5
 30
0.0
 40
3.75
  0
ARC
  5
139A2
330
1378F
100
AcDbEntity
  8
1
  6
Continuous
100
AcDbCircle
 10
415.0
 20
538.4999999999998
 30
0.0
 40
3.75
100
AcDbArc
 50
0.0
 51
180.0
  0
ARC
  5
139A3
330
1378F
100
AcDbEntity
  8
1
  6
Continuous
100
AcDbCircle
 10
415.0
 20
536.5
 30
0.0
 40
3.75
100
AcDbArc
 50
180.0
 51
0.0
  0
LINE
  5
139A4
330
1378F
100
AcDbEntity
  8
1
  6
Continuous
100
AcDbLine
 10
411.2499999999998
 20
536.5
 30
0.0
 11
411.2499999999998
 21
538.4999999999998
 31
0.0
  0
ARC
  5
139A5
330
1378F
100
AcDbEntity
  8
1
  6
Continuous
100
AcDbCircle
 10
415.0
 20
538.4999999999998
 30
0.0
 40
2.399999999999999
100
AcDbArc
 50
0.0
 51
180.0
  0
ARC
  5
139A6
330
1378F
100
AcDbEntity
  8
1
  6
Continuous
100
AcDbCircle
 10
415.0
 20
536.5
 30
0.0
 40
2.399999999999999
100
AcDbArc
 50
180.0
 51
0.0
  0
LINE
  5
139A7
330
1378F
100
AcDbEntity
  8
1
  6
Continuous
100
AcDbLine
 10
417.3999999999998
 20
536.5
 30
0.0
 11
417.3999999999998
 21
538.4999999999998
 31
0.0
  0
LINE
  5
139A8
330
1378F
100
AcDbEntity
  8
1
  6
Continuous
100
AcDbLine
 10
412.6
 20
536.5
 30
0.0
 11
412.6
 21
538.4999999999998
 31
0.0
  0
LINE
  5
139A9
330
1378F
100
AcDbEntity
  8
1
  6
Continuous
100
AcDbLine
 10
418.75
 20
536.5
 30
0.0
 11
418.75
 21
538.4999999999998
 31
0.0
  0
CIRCLE
  5
139AA
330
1378F
100
AcDbEntity
  8
1
  6
Continuous
100
AcDbCircle
 10
425.0
 20
537.5
 30
0.0
 40
2.399999999999999
  0
LINE
  5
139AB
330
1378F
100
AcDbEntity
  8
1
  6
Continuous
100
AcDbLine
 10
448.0
 20
544.5
 30
0.0
 11
448.0
 21
541.0
 31
0.0
  0
LINE
  5
139AC
330
1378F
100
AcDbEntity
  8
1
  6
Continuous
100
AcDbLine
 10
450.4999999999998
 20
544.5
 30
0.0
 11
448.0
 21
544.5
 31
0.0
  0
LINE
  5
139AD
330
1378F
100
AcDbEntity
  8
1
  6
Continuous
100
AcDbLine
 10
450.4999999999998
 20
541.0
 30
0.0
 11
448.0
 21
541.0
 31
0.0
  0
LINE
  5
139AE
330
1378F
100
AcDbEntity
  8
1
  6
Continuous
100
AcDbLine
 10
450.4999999999998
 20
549.0
 30
0.0
 11
450.4999999999998
 21
541.0
 31
0.0
  0
LINE
  5
139AF
330
1378F
100
AcDbEntity
  8
4
  6
CENTER
100
AcDbLine
 10
505.0
 20
529.6
 30
0.0
 11
505.0
 21
540.3999999999999
 31
0.0
  0
LINE
  5
139B0
330
1378F
100
AcDbEntity
  8
4
  6
CENTER
100
AcDbLine
 10
515.0
 20
528.6
 30
0.0
 11
515.0
 21
543.914745
 31
0.0
  0
ARC
  5
139B1
330
1378F
100
AcDbEntity
  8
1
  6
Continuous
100
AcDbCircle
 10
515.0
 20
534.0
 30
0.0
 40
2.399999999999999
100
AcDbArc
 50
180.0
 51
0.0
  0
CIRCLE
  5
139B2
330
1378F
100
AcDbEntity
  8
1
  6
Continuous
100
AcDbCircle
 10
466.0
 20
535.0
 30
0.0
 40
3.0
  0
CIRCLE
  5
139B3
330
1378F
100
AcDbEntity
  8
1
  6
Continuous
100
AcDbCircle
 10
466.0
 20
535.0
 30
0.0
 40
5.0
  0
ARC
  5
139B4
330
1378F
100
AcDbEntity
  8
3
  6
DASHED
100
AcDbCircle
 10
466.0
 20
535.0
 30
0.0
 40
11.0
100
AcDbArc
 50
294.619977
 51
245.380023
  0
LINE
  5
139B5
330
1378F
100
AcDbEntity
  8
4
  6
CENTER
100
AcDbLine
 10
466.0
 20
520.0
 30
0.0
 11
466.0
 21
550.0
 31
0.0
  0
ARC
  5
139B6
330
1378F
100
AcDbEntity
  8
1
  6
Continuous
100
AcDbCircle
 10
466.0
 20
535.0
 30
0.0
 40
11.0
100
AcDbArc
 50
245.380023
 51
294.619977
  0
LINE
  5
139B7
330
1378F
100
AcDbEntity
  8
1
  6
Continuous
100
AcDbLine
 10
498.5
 20
526.4999999999998
 30
0.0
 11
494.5
 21
525.0
 31
0.0
  0
LINE
  5
139B8
330
1378F
100
AcDbEntity
  8
1
  6
Continuous
100
AcDbLine
 10
499.5
 20
525.0
 30
0.0
 11
499.5
 21
526.4999999999998
 31
0.0
  0
LINE
  5
139B9
330
1378F
100
AcDbEntity
  8
1
  6
Continuous
100
AcDbLine
 10
499.5
 20
526.4999999999998
 30
0.0
 11
498.5
 21
526.4999999999998
 31
0.0
  0
LINE
  5
139BA
330
1378F
100
AcDbEntity
  8
3
  6
DASHED
100
AcDbLine
 10
471.9000719999998
 20
544.2868959999998
 30
0.0
 11
469.544554
 21
546.0
 31
0.0
  0
LINE
  5
139BB
330
1378F
100
AcDbEntity
  8
4
  6
CENTER
100
AcDbLine
 10
454.55
 20
543.2
 30
0.0
 11
454.55
 21
550.7
 31
0.0
  0
LINE
  5
139BC
330
1378F
100
AcDbEntity
  8
4
  6
CENTER
100
AcDbLine
 10
474.2499999999998
 20
543.0
 30
0.0
 11
485.7499999999998
 21
543.0
 31
0.0
  0
LINE
  5
139BD
330
1378F
100
AcDbEntity
  8
3
  6
DASHED
100
AcDbLine
 10
473.664588
 20
544.2868959999998
 30
0.0
 11
476.0201059999998
 21
546.0
 31
0.0
  0
ARC
  5
139BE
330
1378F
100
AcDbEntity
  8
3
  6
DASHED
100
AcDbCircle
 10
472.7823299999998
 20
545.5
 30
0.0
 40
1.5
100
AcDbArc
 50
233.9726269999999
 51
306.027373
  0
LINE
  5
139BF
330
1378F
100
AcDbEntity
  8
4
  6
CENTER
100
AcDbLine
 10
480.0
 20
537.25
 30
0.0
 11
480.0
 21
548.7499999999998
 31
0.0
  0
CIRCLE
  5
139C0
330
1378F
100
AcDbEntity
  8
1
  6
Continuous
100
AcDbCircle
 10
480.0
 20
543.0
 30
0.0
 40
2.399999999999999
  0
CIRCLE
  5
139C1
330
1378F
100
AcDbEntity
  8
1
  6
Continuous
100
AcDbCircle
 10
505.0
 20
535.0
 30
0.0
 40
2.399999999999999
  0
LINE
  5
139C2
330
1378F
100
AcDbEntity
  8
3
  6
DASHED
100
AcDbLine
 10
531.5
 20
546.0
 30
0.0
 11
530.0
 21
546.0
 31
0.0
  0
LINE
  5
139C3
330
1378F
100
AcDbEntity
  8
3
  6
DASHED
100
AcDbLine
 10
530.0
 20
544.0
 30
0.0
 11
530.0
 21
547.5
 31
0.0
  0
LINE
  5
139C4
330
1378F
100
AcDbEntity
  8
1
  6
Continuous
100
AcDbLine
 10
512.6
 20
534.0
 30
0.0
 11
512.6
 21
536.0
 31
0.0
  0
LINE
  5
139C5
330
1378F
100
AcDbEntity
  8
1
  6
Continuous
100
AcDbLine
 10
517.3999999999998
 20
534.0
 30
0.0
 11
517.3999999999998
 21
536.0
 31
0.0
  0
ARC
  5
139C6
330
1378F
100
AcDbEntity
  8
1
  6
Continuous
100
AcDbCircle
 10
515.0
 20
536.0
 30
0.0
 40
2.399999999999999
100
AcDbArc
 50
0.0
 51
180.0
  0
ARC
  5
139C7
330
1378F
100
AcDbEntity
  8
3
  6
DASHED
100
AcDbCircle
 10
528.5
 20
544.0
 30
0.0
 40
1.5
100
AcDbArc
 50
270.0
 51
0.0
  0
LINE
  5
139C8
330
1378F
100
AcDbEntity
  8
3
  6
DASHED
100
AcDbLine
 10
553.691288
 20
531.5
 30
0.0
 11
554.063122
 21
532.464641
 31
0.0
  0
LINE
  5
139C9
330
1378F
100
AcDbEntity
  8
3
  6
DASHED
100
AcDbLine
 10
552.0837089999998
 20
531.5
 30
0.0
 11
552.6635019999998
 21
533.004144
 31
0.0
  0
LINE
  5
139CA
330
1378F
100
AcDbEntity
  8
4
  6
CENTER
100
AcDbLine
 10
541.0
 20
522.5
 30
0.0
 11
541.0
 21
552.5
 31
0.0
  0
ARC
  5
139CB
330
1378F
100
AcDbEntity
  8
1
  6
Continuous
100
AcDbCircle
 10
547.627489
 20
525.4999999999999
 30
0.0
 40
2.0
100
AcDbArc
 50
270.0
 51
338.920162
  0
LINE
  5
139CC
330
1378F
100
AcDbEntity
  8
3
  6
DASHED
100
AcDbLine
 10
553.335541
 20
527.7967559999998
 30
0.0
 11
551.06924
 21
528.8681839999997
 31
0.0
  0
LINE
  5
139CD
330
1378F
100
AcDbEntity
  8
3
  6
DASHED
100
AcDbLine
 10
554.597809
 20
531.0714289999999
 30
0.0
 11
553.691288
 21
531.5
 31
0.0
  0
LINE
  5
139CE
330
1378F
100
AcDbEntity
  8
3
  6
DASHED
100
AcDbLine
 10
553.335541
 20
527.7967559999998
 30
0.0
 11
554.597809
 21
531.0714289999999
 31
0.0
  0
LINE
  5
139CF
330
1378F
100
AcDbEntity
  8
3
  6
DASHED
100
AcDbLine
 10
553.691288
 20
531.5
 30
0.0
 11
552.0837089999998
 21
531.5
 31
0.0
  0
LINE
  5
139D0
330
1378F
100
AcDbEntity
  8
1
  6
Continuous
100
AcDbLine
 10
549.4936489999998
 20
524.780663
 30
0.0
 11
549.578195
 21
525.0
 31
0.0
  0
LINE
  5
139D1
330
1378F
100
AcDbEntity
  8
3
  6
DASHED
100
AcDbLine
 10
549.578195
 20
525.0
 30
0.0
 11
552.0837089999998
 21
531.5
 31
0.0
  0
LINE
  5
139D2
330
1378F
100
AcDbEntity
  8
3
  6
DASHED
100
AcDbLine
 10
551.4999999999998
 20
547.5
 30
0.0
 11
535.5
 21
547.5
 31
0.0
  0
LINE
  5
139D3
330
1378F
100
AcDbEntity
  8
1
  6
Continuous
100
AcDbLine
 10
519.0
 20
549.5
 30
0.0
 11
519.0
 21
551.0
 31
0.0
  0
LINE
  5
139D4
330
1378F
100
AcDbEntity
  8
1
  6
Continuous
100
AcDbLine
 10
518.0
 20
549.5
 30
0.0
 11
519.0
 21
549.5
 31
0.0
  0
LINE
  5
139D5
330
1378F
100
AcDbEntity
  8
3
  6
DASHED
100
AcDbLine
 10
555.0
 20
541.5
 30
0.0
 11
553.5
 21
541.5
 31
0.0
  0
ARC
  5
139D6
330
1378F
100
AcDbEntity
  8
3
  6
DASHED
100
AcDbCircle
 10
541.0
 20
537.5
 30
0.0
 40
14.0
100
AcDbArc
 50
338.920162
 51
0.0
  0
ARC
  5
139D7
330
1378F
100
AcDbEntity
  8
3
  6
DASHED
100
AcDbCircle
 10
551.4999999999998
 20
545.5
 30
0.0
 40
2.0
100
AcDbArc
 50
0.0
 51
90.0
  0
LINE
  5
139D8
330
1378F
100
AcDbEntity
  8
3
  6
DASHED
100
AcDbLine
 10
553.5
 20
537.5
 30
0.0
 11
553.5
 21
545.5
 31
0.0
  0
ARC
  5
139D9
330
1378F
100
AcDbEntity
  8
3
  6
DASHED
100
AcDbCircle
 10
541.0
 20
537.5
 30
0.0
 40
12.5
100
AcDbArc
 50
338.920162
 51
0.0
  0
LINE
  5
139DA
330
1378F
100
AcDbEntity
  8
3
  6
DASHED
100
AcDbLine
 10
555.0
 20
537.5
 30
0.0
 11
555.0
 21
541.5
 31
0.0
  0
LINE
  5
139DB
330
1378F
100
AcDbEntity
  8
4
  6
CENTER
100
AcDbLine
 10
630.0
 20
529.25
 30
0.0
 11
630.0
 21
540.7499999999998
 31
0.0
  0
CIRCLE
  5
139DC
330
1378F
100
AcDbEntity
  8
1
  6
Continuous
100
AcDbCircle
 10
630.0
 20
535.0
 30
0.0
 40
2.399999999999999
  0
LINE
  5
139DD
330
1378F
100
AcDbEntity
  8
3
  6
DASHED
100
AcDbLine
 10
549.578195
 20
729.4999999999999
 30
0.0
 11
499.5
 21
729.4999999999999
 31
0.0
  0
LINE
  5
139DE
330
1378F
100
AcDbEntity
  8
4
  6
CENTER
100
AcDbLine
 10
556.0
 20
717.0
 30
0.0
 11
509.25
 21
717.0
 31
0.0
  0
ARC
  5
139DF
330
1378F
100
AcDbEntity
  8
3
  6
DASHED
100
AcDbCircle
 10
541.0
 20
717.0
 30
0.0
 40
11.0
100
AcDbArc
 50
294.619977
 51
245.380023
  0
LINE
  5
139E0
330
1378F
100
AcDbEntity
  8
3
  6
DASHED
100
AcDbLine
 10
551.698246
 20
724.0
 30
0.0
 11
500.4999999999998
 21
724.0
 31
0.0
  0
LINE
  5
139E1
330
1378F
100
AcDbEntity
  8
4
  6
CENTER
100
AcDbLine
 10
499.2499999999998
 20
719.5
 30
0.0
 11
520.75
 21
719.5
 31
0.0
  0
LINE
  5
139E2
330
1378F
100
AcDbEntity
  8
1
  6
Continuous
100
AcDbLine
 10
531.0
 20
708.4999999999999
 30
0.0
 11
535.0
 21
707.0
 31
0.0
  0
LINE
  5
139E3
330
1378F
100
AcDbEntity
  8
1
  6
Continuous
100
AcDbLine
 10
518.0
 20
705.0
 30
0.0
 11
514.0
 21
703.5
 31
0.0
  0
LINE
  5
139E4
330
1378F
100
AcDbEntity
  8
1
  6
Continuous
100
AcDbLine
 10
553.5
 20
632.0
 30
0.0
 11
530.0
 21
632.0
 31
0.0
  0
LINE
  5
139E5
330
1378F
100
AcDbEntity
  8
1
  6
Continuous
100
AcDbLine
 10
519.0
 20
622.5
 30
0.0
 11
450.4999999999998
 21
622.5
 31
0.0
  0
LINE
  5
139E6
330
1378F
100
AcDbEntity
  8
4
  6
CENTER
100
AcDbLine
 10
415.0
 20
636.5
 30
0.0
 11
415.0
 21
630.0
 31
0.0
  0
LINE
  5
139E7
330
1378F
100
AcDbEntity
  8
4
  6
CENTER
100
AcDbLine
 10
425.0
 20
636.5
 30
0.0
 11
425.0
 21
630.0
 31
0.0
  0
LINE
  5
139E8
330
1378F
100
AcDbEntity
  8
1
  6
Continuous
100
AcDbLine
 10
449.0
 20
622.5
 30
0.0
 11
449.0
 21
624.0
 31
0.0
  0
LINE
  5
139E9
330
1378F
100
AcDbEntity
  8
1
  6
Continuous
100
AcDbLine
 10
450.4999999999998
 20
624.0
 30
0.0
 11
450.4999999999998
 21
621.0
 31
0.0
  0
ARC
  5
139EA
330
1378F
100
AcDbEntity
  8
1
  6
Continuous
100
AcDbCircle
 10
450.4999999999998
 20
622.5
 30
0.0
 40
1.5
100
AcDbArc
 50
180.0
 51
270.0
  0
LINE
  5
139EB
330
1378F
100
AcDbEntity
  8
3
  6
DASHED
100
AcDbLine
 10
450.4999999999998
 20
630.4999999999997
 30
0.0
 11
449.0
 21
630.4999999999997
 31
0.0
  0
LINE
  5
139EC
330
1378F
100
AcDbEntity
  8
3
  6
DASHED
100
AcDbLine
 10
450.4999999999998
 20
630.4999999999997
 30
0.0
 11
450.4999999999998
 21
624.0
 31
0.0
  0
LINE
  5
139ED
330
1378F
100
AcDbEntity
  8
3
  6
DASHED
100
AcDbLine
 10
449.0
 20
624.0
 30
0.0
 11
449.0
 21
630.4999999999997
 31
0.0
  0
LINE
  5
139EE
330
1378F
100
AcDbEntity
  8
4
  6
CENTER
100
AcDbLine
 10
505.0
 20
618.0
 30
0.0
 11
505.0
 21
624.5
 31
0.0
  0
LINE
  5
139EF
330
1378F
100
AcDbEntity
  8
4
  6
CENTER
100
AcDbLine
 10
515.0
 20
618.0
 30
0.0
 11
515.0
 21
624.5
 31
0.0
  0
LINE
  5
139F0
330
1378F
100
AcDbEntity
  8
4
  6
CENTER
100
AcDbLine
 10
480.0
 20
618.0
 30
0.0
 11
480.0
 21
624.5
 31
0.0
  0
LINE
  5
139F1
330
1378F
100
AcDbEntity
  8
4
  6
CENTER
100
AcDbLine
 10
454.55
 20
618.0
 30
0.0
 11
454.55
 21
624.5
 31
0.0
  0
LINE
  5
139F2
330
1378F
100
AcDbEntity
  8
4
  6
CENTER
100
AcDbLine
 10
466.0
 20
616.7314709999999
 30
0.0
 11
466.0
 21
637.1142519999997
 31
0.0
  0
LINE
  5
139F3
330
1378F
100
AcDbEntity
  8
1
  6
Continuous
100
AcDbLine
 10
475.5323299999998
 20
631.5
 30
0.0
 11
470.0323299999998
 21
631.5
 31
0.0
  0
LINE
  5
139F4
330
1378F
100
AcDbEntity
  8
1
  6
Continuous
100
AcDbLine
 10
475.5323299999998
 20
626.0
 30
0.0
 11
470.0323299999998
 21
626.0
 31
0.0
  0
LINE
  5
139F5
330
1378F
100
AcDbEntity
  8
3
  6
DASHED
100
AcDbLine
 10
477.0
 20
626.5
 30
0.0
 11
455.0
 21
626.5
 31
0.0
  0
LINE
  5
139F6
330
1378F
100
AcDbEntity
  8
1
  6
Continuous
100
AcDbLine
 10
472.0
 20
623.5
 30
0.0
 11
460.0
 21
623.5
 31
0.0
  0
LINE
  5
139F7
330
1378F
100
AcDbEntity
  8
3
  6
DASHED
100
AcDbLine
 10
472.0
 20
625.0
 30
0.0
 11
460.0
 21
625.0
 31
0.0
  0
LINE
  5
139F8
330
1378F
100
AcDbEntity
  8
1
  6
Continuous
100
AcDbLine
 10
470.0323299999998
 20
626.0
 30
0.0
 11
470.0323299999998
 21
631.5
 31
0.0
  0
LINE
  5
139F9
330
1378F
100
AcDbEntity
  8
1
  6
Continuous
100
AcDbLine
 10
460.207107
 20
623.2071069999998
 30
0.0
 11
459.4999999999997
 21
622.5
 31
0.0
  0
LINE
  5
139FA
330
1378F
100
AcDbEntity
  8
3
  6
DASHED
100
AcDbLine
 10
455.0
 20
626.5
 30
0.0
 11
455.0
 21
631.5
 31
0.0
  0
LINE
  5
139FB
330
1378F
100
AcDbEntity
  8
1
  6
Continuous
100
AcDbLine
 10
460.0
 20
624.0
 30
0.0
 11
460.0
 21
623.5
 31
0.0
  0
ARC
  5
139FC
330
1378F
100
AcDbEntity
  8
1
  6
Continuous
100
AcDbCircle
 10
460.9142139999998
 20
622.5
 30
0.0
 40
1.0
100
AcDbArc
 50
90.0
 51
135.0
  0
LINE
  5
139FD
330
1378F
100
AcDbEntity
  8
3
  6
DASHED
100
AcDbLine
 10
460.0
 20
626.5
 30
0.0
 11
460.0
 21
624.0
 31
0.0
  0
LINE
  5
139FE
330
1378F
100
AcDbEntity
  8
3
  6
DASHED
100
AcDbLine
 10
470.0323299999998
 20
631.5
 30
0.0
 11
455.0
 21
631.5
 31
0.0
  0
LINE
  5
139FF
330
1378F
100
AcDbEntity
  8
3
  6
DASHED
100
AcDbLine
 10
477.0
 20
631.5
 30
0.0
 11
475.5323299999998
 21
631.5
 31
0.0
  0
LINE
  5
13A00
330
1378F
100
AcDbEntity
  8
1
  6
Continuous
100
AcDbLine
 10
472.0
 20
624.0
 30
0.0
 11
472.0
 21
623.5
 31
0.0
  0
ARC
  5
13A01
330
1378F
100
AcDbEntity
  8
1
  6
Continuous
100
AcDbCircle
 10
471.0857859999999
 20
622.5
 30
0.0
 40
1.0
100
AcDbArc
 50
45.0
 51
90.0
  0
LINE
  5
13A02
330
1378F
100
AcDbEntity
  8
1
  6
Continuous
100
AcDbLine
 10
471.792893
 20
623.2071069999998
 30
0.0
 11
472.5
 21
622.5
 31
0.0
  0
LINE
  5
13A03
330
1378F
100
AcDbEntity
  8
3
  6
DASHED
100
AcDbLine
 10
472.0
 20
626.5
 30
0.0
 11
472.0
 21
624.0
 31
0.0
  0
LINE
  5
13A04
330
1378F
100
AcDbEntity
  8
1
  6
Continuous
100
AcDbLine
 10
475.5323299999998
 20
626.0
 30
0.0
 11
475.5323299999998
 21
631.5
 31
0.0
  0
LINE
  5
13A05
330
1378F
100
AcDbEntity
  8
1
  6
Continuous
100
AcDbLine
 10
472.7823299999998
 20
626.0
 30
0.0
 11
472.7823299999998
 21
631.5
 31
0.0
  0
LINE
  5
13A06
330
1378F
100
AcDbEntity
  8
3
  6
DASHED
100
AcDbLine
 10
477.0
 20
626.5
 30
0.0
 11
477.0
 21
631.5
 31
0.0
  0
LINE
  5
13A07
330
1378F
100
AcDbEntity
  8
4
  6
CENTER
100
AcDbLine
 10
515.0
 20
636.5
 30
0.0
 11
515.0
 21
630.0
 31
0.0
  0
LINE
  5
13A08
330
1378F
100
AcDbEntity
  8
1
  6
Continuous
100
AcDbLine
 10
499.5
 20
624.0
 30
0.0
 11
499.5
 21
622.5
 31
0.0
  0
LINE
  5
13A09
330
1378F
100
AcDbEntity
  8
1
  6
Continuous
100
AcDbLine
 10
530.0
 20
633.4999999999999
 30
0.0
 11
530.0
 21
629.0
 31
0.0
  0
LINE
  5
13A0A
330
1378F
100
AcDbEntity
  8
4
  6
CENTER
100
AcDbLine
 10
525.0
 20
636.5
 30
0.0
 11
525.0
 21
630.0
 31
0.0
  0
LINE
  5
13A0B
330
1378F
100
AcDbEntity
  8
1
  6
Continuous
100
AcDbLine
 10
514.0
 20
622.5
 30
0.0
 11
514.0
 21
621.0
 31
0.0
  0
LINE
  5
13A0C
330
1378F
100
AcDbEntity
  8
4
  6
CENTER
100
AcDbLine
 10
481.0
 20
719.5
 30
0.0
 11
451.0
 21
719.5
 31
0.0
  0
LINE
  5
13A0D
330
1378F
100
AcDbEntity
  8
1
  6
Continuous
100
AcDbLine
 10
514.0
 20
703.5
 30
0.0
 11
452.5
 21
703.5
 31
0.0
  0
LINE
  5
13A0E
330
1378F
100
AcDbEntity
  8
3
  6
DASHED
100
AcDbLine
 10
494.5
 20
729.4999999999999
 30
0.0
 11
449.0
 21
729.4999999999999
 31
0.0
  0
ARC
  5
13A0F
330
1378F
100
AcDbEntity
  8
1
  6
Continuous
100
AcDbCircle
 10
454.55
 20
707.5499999999998
 30
0.0
 40
1.75
100
AcDbArc
 50
198.317698
 51
341.6823019999999
  0
LINE
  5
13A10
330
1378F
100
AcDbEntity
  8
4
  6
CENTER
100
AcDbLine
 10
450.8
 20
707.5499999999998
 30
0.0
 11
458.3
 21
707.5499999999998
 31
0.0
  0
LINE
  5
13A11
330
1378F
100
AcDbEntity
  8
3
  6
DASHED
100
AcDbLine
 10
450.4999999999998
 20
710.0
 30
0.0
 11
450.4999999999998
 21
707.0
 31
0.0
  0
LINE
  5
13A12
330
1378F
100
AcDbEntity
  8
1
  6
Continuous
100
AcDbLine
 10
450.4999999999998
 20
705.4999999999997
 30
0.0
 11
450.4999999999998
 21
707.0
 31
0.0
  0
LINE
  5
13A13
330
1378F
100
AcDbEntity
  8
4
  6
CENTER
100
AcDbLine
 10
430.75
 20
717.0
 30
0.0
 11
409.25
 21
717.0
 31
0.0
  0
ARC
  5
13A14
330
1378F
100
AcDbEntity
  8
1
  6
Continuous
100
AcDbCircle
 10
415.0
 20
718.0
 30
0.0
 40
2.399999999999999
100
AcDbArc
 50
0.0
 51
180.0
  0
ARC
  5
13A15
330
1378F
100
AcDbEntity
  8
1
  6
Continuous
100
AcDbCircle
 10
415.0
 20
716.0
 30
0.0
 40
2.399999999999999
100
AcDbArc
 50
180.0
 51
0.0
  0
LINE
  5
13A16
330
1378F
100
AcDbEntity
  8
1
  6
Continuous
100
AcDbLine
 10
412.6
 20
718.0
 30
0.0
 11
412.6
 21
716.0
 31
0.0
  0
LINE
  5
13A17
330
1378F
100
AcDbEntity
  8
4
  6
CENTER
100
AcDbLine
 10
415.0
 20
723.7499999999998
 30
0.0
 11
415.0
 21
710.25
 31
0.0
  0
LINE
  5
13A18
330
1378F
100
AcDbEntity
  8
1
  6
Continuous
100
AcDbLine
 10
417.3999999999998
 20
718.0
 30
0.0
 11
417.3999999999998
 21
716.0
 31
0.0
  0
LINE
  5
13A19
330
1378F
100
AcDbEntity
  8
4
  6
CENTER
100
AcDbLine
 10
425.0
 20
722.75
 30
0.0
 11
425.0
 21
711.2499999999997
 31
0.0
  0
CIRCLE
  5
13A1A
330
1378F
100
AcDbEntity
  8
1
  6
Continuous
100
AcDbCircle
 10
425.0
 20
717.0
 30
0.0
 40
2.399999999999999
  0
LINE
  5
13A1B
330
1378F
100
AcDbEntity
  8
3
  6
DASHED
100
AcDbLine
 10
451.4999999999998
 20
713.4999999999997
 30
0.0
 11
448.0
 21
713.4999999999997
 31
0.0
  0
LINE
  5
13A1C
330
1378F
100
AcDbEntity
  8
3
  6
DASHED
100
AcDbLine
 10
451.4999999999998
 20
710.0
 30
0.0
 11
448.0
 21
710.0
 31
0.0
  0
LINE
  5
13A1D
330
1378F
100
AcDbEntity
  8
3
  6
DASHED
100
AcDbLine
 10
448.0
 20
710.0
 30
0.0
 11
448.0
 21
713.4999999999997
 31
0.0
  0
LINE
  5
13A1E
330
1378F
100
AcDbEntity
  8
3
  6
DASHED
100
AcDbLine
 10
451.4999999999998
 20
710.0
 30
0.0
 11
451.4999999999998
 21
713.4999999999997
 31
0.0
  0
LINE
  5
13A1F
330
1378F
100
AcDbEntity
  8
3
  6
DASHED
100
AcDbLine
 10
449.0
 20
729.4999999999999
 30
0.0
 11
449.0
 21
713.4999999999997
 31
0.0
  0
LINE
  5
13A20
330
1378F
100
AcDbEntity
  8
3
  6
DASHED
100
AcDbLine
 10
450.4999999999998
 20
729.4999999999999
 30
0.0
 11
450.4999999999998
 21
713.4999999999997
 31
0.0
  0
LINE
  5
13A21
330
1378F
100
AcDbEntity
  8
1
  6
Continuous
100
AcDbLine
 10
530.0
 20
708.4999999999999
 30
0.0
 11
530.0
 21
707.0
 31
0.0
  0
LINE
  5
13A22
330
1378F
100
AcDbEntity
  8
4
  6
CENTER
100
AcDbLine
 10
480.0
 20
717.25
 30
0.0
 11
480.0
 21
705.75
 31
0.0
  0
LINE
  5
13A23
330
1378F
100
AcDbEntity
  8
4
  6
CENTER
100
AcDbLine
 10
454.55
 20
711.2999999999998
 30
0.0
 11
454.55
 21
703.7999999999998
 31
0.0
  0
LINE
  5
13A24
330
1378F
100
AcDbEntity
  8
4
  6
CENTER
100
AcDbLine
 10
466.0
 20
734.4999999999998
 30
0.0
 11
466.0
 21
704.4999999999999
 31
0.0
  0
CIRCLE
  5
13A25
330
1378F
100
AcDbEntity
  8
3
  6
DASHED
100
AcDbCircle
 10
466.0
 20
719.5
 30
0.0
 40
11.0
  0
LINE
  5
13A26
330
1378F
100
AcDbEntity
  8
4
  6
CENTER
100
AcDbLine
 10
474.2499999999998
 20
711.5
 30
0.0
 11
485.7499999999998
 21
711.5
 31
0.0
  0
ARC
  5
13A27
330
1378F
100
AcDbEntity
  8
1
  6
Continuous
100
AcDbCircle
 10
515.0
 20
716.0
 30
0.0
 40
2.399999999999999
100
AcDbArc
 50
180.0
 51
0.0
  0
ARC
  5
13A28
330
1378F
100
AcDbEntity
  8
1
  6
Continuous
100
AcDbCircle
 10
515.0
 20
718.0
 30
0.0
 40
2.399999999999999
100
AcDbArc
 50
0.0
 51
180.0
  0
ARC
  5
13A29
330
1378F
100
AcDbEntity
  8
3
  6
DASHED
100
AcDbCircle
 10
500.723607
 20
727.5
 30
0.0
 40
0.5
100
AcDbArc
 50
318.189685
 51
90.0
  0
ARC
  5
13A2A
330
1378F
100
AcDbEntity
  8
3
  6
DASHED
100
AcDbCircle
 10
500.4999999999998
 20
728.0
 30
0.0
 40
1.0
100
AcDbArc
 50
318.189685
 51
67.380135
  0
LINE
  5
13A2B
330
1378F
100
AcDbEntity
  8
3
  6
DASHED
100
AcDbLine
 10
498.5
 20
728.0
 30
0.0
 11
499.5
 21
728.0
 31
0.0
  0
LINE
  5
13A2C
330
1378F
100
AcDbEntity
  8
3
  6
DASHED
100
AcDbLine
 10
499.5
 20
728.0
 30
0.0
 11
500.723607
 21
728.0
 31
0.0
  0
LINE
  5
13A2D
330
1378F
100
AcDbEntity
  8
3
  6
DASHED
100
AcDbLine
 10
499.5
 20
729.4999999999999
 30
0.0
 11
500.884615
 21
728.9230769999996
 31
0.0
  0
LINE
  5
13A2E
330
1378F
100
AcDbEntity
  8
3
  6
DASHED
100
AcDbLine
 10
499.5
 20
729.4999999999999
 30
0.0
 11
499.5
 21
728.0
 31
0.0
  0
LINE
  5
13A2F
330
1378F
100
AcDbEntity
  8
3
  6
DASHED
100
AcDbLine
 10
498.5
 20
728.0
 30
0.0
 11
494.5
 21
729.4999999999999
 31
0.0
  0
LINE
  5
13A30
330
1378F
100
AcDbEntity
  8
3
  6
DASHED
100
AcDbLine
 10
499.7546439999998
 20
725.6666669999997
 30
0.0
 11
501.2453559999998
 21
727.333333
 31
0.0
  0
LINE
  5
13A31
330
1378F
100
AcDbEntity
  8
1
  6
Continuous
100
AcDbLine
 10
512.6
 20
718.0
 30
0.0
 11
512.6
 21
716.0
 31
0.0
  0
ARC
  5
13A32
330
1378F
100
AcDbEntity
  8
3
  6
DASHED
100
AcDbCircle
 10
500.4999999999998
 20
725.0
 30
0.0
 40
1.0
100
AcDbArc
 50
138.1896849999999
 51
270.0
  0
CIRCLE
  5
13A33
330
1378F
100
AcDbEntity
  8
1
  6
Continuous
100
AcDbCircle
 10
525.0
 20
717.0
 30
0.0
 40
2.399999999999999
  0
LINE
  5
13A34
330
1378F
100
AcDbEntity
  8
1
  6
Continuous
100
AcDbLine
 10
517.3999999999998
 20
718.0
 30
0.0
 11
517.3999999999998
 21
716.0
 31
0.0
  0
LINE
  5
13A35
330
1378F
100
AcDbEntity
  8
1
  6
Continuous
100
AcDbLine
 10
531.0
 20
708.4999999999999
 30
0.0
 11
530.0
 21
708.4999999999999
 31
0.0
  0
LINE
  5
13A36
330
1378F
100
AcDbEntity
  8
4
  6
CENTER
100
AcDbLine
 10
541.0
 20
616.8764579999997
 30
0.0
 11
541.0
 21
637.343926
 31
0.0
  0
LINE
  5
13A37
330
1378F
100
AcDbEntity
  8
3
  6
DASHED
100
AcDbLine
 10
552.0
 20
628.0
 30
0.0
 11
530.0
 21
628.0
 31
0.0
  0
LINE
  5
13A38
330
1378F
100
AcDbEntity
  8
3
  6
DASHED
100
AcDbLine
 10
552.0
 20
623.0
 30
0.0
 11
530.0
 21
623.0
 31
0.0
  0
LINE
  5
13A39
330
1378F
100
AcDbEntity
  8
1
  6
Continuous
100
AcDbLine
 10
547.0
 20
629.4999999999999
 30
0.0
 11
535.0
 21
629.4999999999999
 31
0.0
  0
LINE
  5
13A3A
330
1378F
100
AcDbEntity
  8
1
  6
Continuous
100
AcDbLine
 10
547.0
 20
631.0
 30
0.0
 11
535.0
 21
631.0
 31
0.0
  0
LINE
  5
13A3B
330
1378F
100
AcDbEntity
  8
1
  6
Continuous
100
AcDbLine
 10
519.0
 20
627.5
 30
0.0
 11
519.0
 21
621.0
 31
0.0
  0
LINE
  5
13A3C
330
1378F
100
AcDbEntity
  8
1
  6
Continuous
100
AcDbLine
 10
518.0
 20
622.5
 30
0.0
 11
518.0
 21
621.0
 31
0.0
  0
ARC
  5
13A3D
330
1378F
100
AcDbEntity
  8
1
  6
Continuous
100
AcDbCircle
 10
520.5
 20
627.5
 30
0.0
 40
1.5
100
AcDbArc
 50
90.0
 51
180.0
  0
LINE
  5
13A3E
330
1378F
100
AcDbEntity
  8
1
  6
Continuous
100
AcDbLine
 10
535.0
 20
629.0
 30
0.0
 11
535.0
 21
631.0
 31
0.0
  0
LINE
  5
13A3F
330
1378F
100
AcDbEntity
  8
1
  6
Continuous
100
AcDbLine
 10
535.207107
 20
631.2928929999999
 30
0.0
 11
534.4999999999998
 21
632.0
 31
0.0
  0
ARC
  5
13A40
330
1378F
100
AcDbEntity
  8
1
  6
Continuous
100
AcDbCircle
 10
535.914214
 20
632.0
 30
0.0
 40
1.0
100
AcDbArc
 50
225.0
 51
270.0
  0
LINE
  5
13A41
330
1378F
100
AcDbEntity
  8
3
  6
DASHED
100
AcDbLine
 10
535.0
 20
628.0
 30
0.0
 11
535.0
 21
629.0
 31
0.0
  0
LINE
  5
13A42
330
1378F
100
AcDbEntity
  8
1
  6
Continuous
100
AcDbLine
 10
547.0
 20
629.0
 30
0.0
 11
547.0
 21
631.0
 31
0.0
  0
LINE
  5
13A43
330
1378F
100
AcDbEntity
  8
1
  6
Continuous
100
AcDbLine
 10
546.7928929999999
 20
631.2928929999999
 30
0.0
 11
547.5
 21
632.0
 31
0.0
  0
ARC
  5
13A44
330
1378F
100
AcDbEntity
  8
1
  6
Continuous
100
AcDbCircle
 10
546.0857859999999
 20
632.0
 30
0.0
 40
1.0
100
AcDbArc
 50
270.0
 51
315.0
  0
LINE
  5
13A45
330
1378F
100
AcDbEntity
  8
3
  6
DASHED
100
AcDbLine
 10
547.0
 20
628.0
 30
0.0
 11
547.0
 21
629.0
 31
0.0
  0
ARC
  5
13A46
330
1378F
100
AcDbEntity
  8
1
  6
Continuous
100
AcDbCircle
 10
553.5
 20
632.0
 30
0.0
 40
1.5
100
AcDbArc
 50
0.0
 51
90.0
  0
LINE
  5
13A47
330
1378F
100
AcDbEntity
  8
3
  6
DASHED
100
AcDbLine
 10
555.0
 20
624.0
 30
0.0
 11
553.5
 21
624.0
 31
0.0
  0
LINE
  5
13A48
330
1378F
100
AcDbEntity
  8
1
  6
Continuous
100
AcDbLine
 10
553.5
 20
629.0
 30
0.0
 11
553.5
 21
633.4999999999999
 31
0.0
  0
LINE
  5
13A49
330
1378F
100
AcDbEntity
  8
3
  6
DASHED
100
AcDbLine
 10
552.0
 20
628.0
 30
0.0
 11
552.0
 21
623.0
 31
0.0
  0
LINE
  5
13A4A
330
1378F
100
AcDbEntity
  8
3
  6
DASHED
100
AcDbLine
 10
553.5
 20
624.0
 30
0.0
 11
553.5
 21
629.0
 31
0.0
  0
LINE
  5
13A4B
330
1378F
100
AcDbEntity
  8
1
  6
Continuous
100
AcDbLine
 10
555.0
 20
629.0
 30
0.0
 11
555.0
 21
632.0
 31
0.0
  0
LINE
  5
13A4C
330
1378F
100
AcDbEntity
  8
3
  6
DASHED
100
AcDbLine
 10
555.0
 20
624.0
 30
0.0
 11
555.0
 21
629.0
 31
0.0
  0
LINE
  5
13A4D
330
1378F
100
AcDbEntity
  8
4
  6
CENTER
100
AcDbLine
 10
630.0
 20
618.0
 30
0.0
 11
630.0
 21
624.5
 31
0.0
  0
ARC
  5
13A4E
330
1378F
100
AcDbEntity
  8
1
  6
Continuous
100
AcDbCircle
 10
551.4999999999998
 20
709.0
 30
0.0
 40
2.0
100
AcDbArc
 50
270.0
 51
0.0
  0
LINE
  5
13A4F
330
1378F
100
AcDbEntity
  8
4
  6
CENTER
100
AcDbLine
 10
541.0
 20
732.0
 30
0.0
 11
541.0
 21
702.0
 31
0.0
  0
LINE
  5
13A50
330
1378F
100
AcDbEntity
  8
1
  6
Continuous
100
AcDbLine
 10
551.4999999999998
 20
707.0
 30
0.0
 11
535.0
 21
707.0
 31
0.0
  0
ARC
  5
13A51
330
1378F
100
AcDbEntity
  8
1
  6
Continuous
100
AcDbCircle
 10
541.0
 20
717.0
 30
0.0
 40
11.0
100
AcDbArc
 50
245.380023
 51
294.619977
  0
LINE
  5
13A52
330
1378F
100
AcDbEntity
  8
1
  6
Continuous
100
AcDbLine
 10
519.0
 20
705.0
 30
0.0
 11
519.0
 21
703.5
 31
0.0
  0
ARC
  5
13A53
330
1378F
100
AcDbEntity
  8
1
  6
Continuous
100
AcDbCircle
 10
547.627489
 20
729.0
 30
0.0
 40
2.0
100
AcDbArc
 50
21.07983799999999
 51
90.0
  0
CIRCLE
  5
13A54
330
1378F
100
AcDbEntity
  8
1
  6
Continuous
100
AcDbCircle
 10
541.0
 20
717.0
 30
0.0
 40
3.0
  0
CIRCLE
  5
13A55
330
1378F
100
AcDbEntity
  8
1
  6
Continuous
100
AcDbCircle
 10
541.0
 20
717.0
 30
0.0
 40
5.0
  0
ARC
  5
13A56
330
1378F
100
AcDbEntity
  8
1
  6
Continuous
100
AcDbCircle
 10
541.0
 20
717.0
 30
0.0
 40
14.0
100
AcDbArc
 50
0.0
 51
21.07983799999999
  0
LINE
  5
13A57
330
1378F
100
AcDbEntity
  8
1
  6
Continuous
100
AcDbLine
 10
555.0
 20
713.0
 30
0.0
 11
553.5
 21
713.0
 31
0.0
  0
LINE
  5
13A58
330
1378F
100
AcDbEntity
  8
1
  6
Continuous
100
AcDbLine
 10
553.5
 20
713.0
 30
0.0
 11
553.5
 21
709.0
 31
0.0
  0
LINE
  5
13A59
330
1378F
100
AcDbEntity
  8
1
  6
Continuous
100
AcDbLine
 10
553.691288
 20
723.0
 30
0.0
 11
552.0837089999998
 21
723.0
 31
0.0
  0
LINE
  5
13A5A
330
1378F
100
AcDbEntity
  8
1
  6
Continuous
100
AcDbLine
 10
553.691288
 20
723.0
 30
0.0
 11
554.063122
 21
722.0353589999997
 31
0.0
  0
LINE
  5
13A5B
330
1378F
100
AcDbEntity
  8
1
  6
Continuous
100
AcDbLine
 10
554.3775439999998
 20
724.0
 30
0.0
 11
554.597809
 21
723.428571
 31
0.0
  0
LINE
  5
13A5C
330
1378F
100
AcDbEntity
  8
1
  6
Continuous
100
AcDbLine
 10
554.597809
 20
723.428571
 30
0.0
 11
553.691288
 21
723.0
 31
0.0
  0
LINE
  5
13A5D
330
1378F
100
AcDbEntity
  8
1
  6
Continuous
100
AcDbLine
 10
555.0
 20
717.0
 30
0.0
 11
555.0
 21
713.0
 31
0.0
  0
LINE
  5
13A5E
330
1378F
100
AcDbEntity
  8
1
  6
Continuous
100
AcDbLine
 10
549.4936489999998
 20
729.719337
 30
0.0
 11
552.0837089999998
 21
723.0
 31
0.0
  0
LINE
  5
13A5F
330
1378F
100
AcDbEntity
  8
4
  6
CENTER
100
AcDbLine
 10
624.2499999999997
 20
719.5
 30
0.0
 11
635.7499999999999
 21
719.5
 31
0.0
  0
CIRCLE
  5
13A60
330
1378F
100
AcDbEntity
  8
1
  6
Continuous
100
AcDbCircle
 10
630.0
 20
719.5
 30
0.0
 40
3.75
  0
CIRCLE
  5
13A61
330
1378F
100
AcDbEntity
  8
1
  6
Continuous
100
AcDbCircle
 10
630.0
 20
719.5
 30
0.0
 40
2.399999999999999
  0
LINE
  5
13A62
330
1378F
100
AcDbEntity
  8
4
  6
CENTER
100
AcDbLine
 10
630.0
 20
725.25
 30
0.0
 11
630.0
 21
713.75
 31
0.0
  0
LINE
  5
13A63
330
1378F
100
AcDbEntity
  8
1
  6
Continuous
100
AcDbLine
 10
880.0
 20
522.5
 30
0.0
 11
852.0
 21
525.0
 31
0.0
  0
LINE
  5
13A64
330
1378F
100
AcDbEntity
  8
4
  6
CENTER
100
AcDbLine
 10
880.0
 20
529.25
 30
0.0
 11
880.0
 21
540.7499999999998
 31
0.0
  0
ARC
  5
13A65
330
1378F
100
AcDbEntity
  8
1
  6
Continuous
100
AcDbCircle
 10
887.0
 20
533.0
 30
0.0
 40
2.0
100
AcDbArc
 50
90.0
 51
253.2276069999999
  0
ARC
  5
13A66
330
1378F
100
AcDbEntity
  8
1
  6
Continuous
100
AcDbCircle
 10
870.0
 20
534.0
 30
0.0
 40
2.399999999999999
100
AcDbArc
 50
180.0
 51
0.0
  0
LINE
  5
13A67
330
1378F
100
AcDbEntity
  8
4
  6
CENTER
100
AcDbLine
 10
870.0
 20
528.2499999999998
 30
0.0
 11
870.0
 21
541.75
 31
0.0
  0
LINE
  5
13A68
330
1378F
100
AcDbEntity
  8
1
  6
Continuous
100
AcDbLine
 10
895.0
 20
522.5
 30
0.0
 11
880.0
 21
522.5
 31
0.0
  0
LINE
  5
13A69
330
1378F
100
AcDbEntity
  8
1
  6
Continuous
100
AcDbLine
 10
893.9328559999999
 20
528.821629
 30
0.0
 11
886.4228589999999
 21
531.085083
 31
0.0
  0
LINE
  5
13A6A
330
1378F
100
AcDbEntity
  8
1
  6
Continuous
100
AcDbLine
 10
895.0
 20
522.5
 30
0.0
 11
895.0
 21
527.385441
 31
0.0
  0
ARC
  5
13A6B
330
1378F
100
AcDbEntity
  8
1
  6
Continuous
100
AcDbCircle
 10
893.5
 20
527.385441
 30
0.0
 40
1.5
100
AcDbArc
 50
0.0
 51
73.22760699999998
  0
LINE
  5
13A6C
330
1378F
100
AcDbEntity
  8
1
  6
Continuous
100
AcDbLine
 10
893.5
 20
535.0
 30
0.0
 11
887.0
 21
535.0
 31
0.0
  0
LINE
  5
13A6D
330
1378F
100
AcDbEntity
  8
1
  6
Continuous
100
AcDbLine
 10
872.4
 20
534.0
 30
0.0
 11
872.4
 21
536.0
 31
0.0
  0
LINE
  5
13A6E
330
1378F
100
AcDbEntity
  8
1
  6
Continuous
100
AcDbLine
 10
867.6
 20
534.0
 30
0.0
 11
867.6
 21
536.0
 31
0.0
  0
ARC
  5
13A6F
330
1378F
100
AcDbEntity
  8
1
  6
Continuous
100
AcDbCircle
 10
870.0
 20
536.0
 30
0.0
 40
2.399999999999999
100
AcDbArc
 50
0.0
 51
180.0
  0
CIRCLE
  5
13A70
330
1378F
100
AcDbEntity
  8
1
  6
Continuous
100
AcDbCircle
 10
880.0
 20
535.0
 30
0.0
 40
2.399999999999999
  0
ARC
  5
13A71
330
1378F
100
AcDbEntity
  8
1
  6
Continuous
100
AcDbCircle
 10
881.0
 20
535.0
 30
0.0
 40
7.0
100
AcDbArc
 50
26.33707499999999
 51
63.662925
  0
LINE
  5
13A72
330
1378F
100
AcDbEntity
  8
1
  6
Continuous
100
AcDbLine
 10
890.8581949999996
 20
539.880163
 30
0.0
 11
887.273397
 21
538.1055579999999
 31
0.0
  0
LINE
  5
13A73
330
1378F
100
AcDbEntity
  8
1
  6
Continuous
100
AcDbLine
 10
885.880163
 20
544.858195
 30
0.0
 11
884.1055579999999
 21
541.2733969999997
 31
0.0
  0
ARC
  5
13A74
330
1378F
100
AcDbEntity
  8
1
  6
Continuous
100
AcDbCircle
 10
881.0
 20
535.0
 30
0.0
 40
11.0
100
AcDbArc
 50
26.33707499999999
 51
63.662925
  0
ARC
  5
13A75
330
1378F
100
AcDbEntity
  8
1
  6
Continuous
100
AcDbCircle
 10
893.5
 20
536.5
 30
0.0
 40
1.5
100
AcDbArc
 50
270.0
 51
0.0
  0
LINE
  5
13A76
330
1378F
100
AcDbEntity
  8
1
  6
Continuous
100
AcDbLine
 10
895.0
 20
536.5
 30
0.0
 11
895.0
 21
551.0
 31
0.0
  0
LINE
  5
13A77
330
1378F
100
AcDbEntity
  8
1
  6
Continuous
100
AcDbLine
 10
968.0
 20
531.5
 30
0.0
 11
968.0
 21
539.880163
 31
0.0
  0
LINE
  5
13A78
330
1378F
100
AcDbEntity
  8
1
  6
Continuous
100
AcDbLine
 10
967.0
 20
531.5
 30
0.0
 11
967.0
 21
539.880163
 31
0.0
  0
LINE
  5
13A79
330
1378F
100
AcDbEntity
  8
1
  6
Continuous
100
AcDbLine
 10
977.5
 20
523.5
 30
0.0
 11
977.5
 21
548.5
 31
0.0
  0
LINE
  5
13A7A
330
1378F
100
AcDbEntity
  8
1
  6
Continuous
100
AcDbLine
 10
966.5
 20
524.0
 30
0.0
 11
966.5
 21
549.5
 31
0.0
  0
LINE
  5
13A7B
330
1378F
100
AcDbEntity
  8
1
  6
Continuous
100
AcDbLine
 10
965.0
 20
524.0
 30
0.0
 11
965.0
 21
551.0
 31
0.0
  0
LINE
  5
13A7C
330
1378F
100
AcDbEntity
  8
1
  6
Continuous
100
AcDbLine
 10
977.5
 20
531.5
 30
0.0
 11
966.5
 21
531.5
 31
0.0
  0
LINE
  5
13A7D
330
1378F
100
AcDbEntity
  8
1
  6
Continuous
100
AcDbLine
 10
973.0
 20
527.7967559999998
 30
0.0
 11
966.5
 21
527.7967559999998
 31
0.0
  0
LINE
  5
13A7E
330
1378F
100
AcDbEntity
  8
1
  6
Continuous
100
AcDbLine
 10
973.0
 20
524.0
 30
0.0
 11
966.5
 21
524.0
 31
0.0
  0
LINE
  5
13A7F
330
1378F
100
AcDbEntity
  8
1
  6
Continuous
100
AcDbLine
 10
973.0
 20
522.5
 30
0.0
 11
966.5
 21
522.5
 31
0.0
  0
LINE
  5
13A80
330
1378F
100
AcDbEntity
  8
1
  6
Continuous
100
AcDbLine
 10
966.5
 20
526.4999999999998
 30
0.0
 11
973.0
 21
526.4999999999998
 31
0.0
  0
LINE
  5
13A81
330
1378F
100
AcDbEntity
  8
1
  6
Continuous
100
AcDbLine
 10
965.0
 20
528.5
 30
0.0
 11
966.5
 21
528.5
 31
0.0
  0
ARC
  5
13A82
330
1378F
100
AcDbEntity
  8
1
  6
Continuous
100
AcDbCircle
 10
966.5
 20
524.0
 30
0.0
 40
1.5
100
AcDbArc
 50
180.0
 51
270.0
  0
LINE
  5
13A83
330
1378F
100
AcDbEntity
  8
1
  6
Continuous
100
AcDbLine
 10
967.0
 20
526.4999999999998
 30
0.0
 11
967.0
 21
527.7967559999998
 31
0.0
  0
LINE
  5
13A84
330
1378F
100
AcDbEntity
  8
1
  6
Continuous
100
AcDbLine
 10
974.5
 20
528.0
 30
0.0
 11
973.0
 21
528.0
 31
0.0
  0
LINE
  5
13A85
330
1378F
100
AcDbEntity
  8
1
  6
Continuous
100
AcDbLine
 10
975.5
 20
531.5
 30
0.0
 11
976.0
 21
531.0
 31
0.0
  0
LINE
  5
13A86
330
1378F
100
AcDbEntity
  8
1
  6
Continuous
100
AcDbLine
 10
973.0
 20
530.4999999999998
 30
0.0
 11
974.5
 21
530.4999999999998
 31
0.0
  0
ARC
  5
13A87
330
1378F
100
AcDbEntity
  8
1
  6
Continuous
100
AcDbCircle
 10
973.0
 20
524.0
 30
0.0
 40
1.5
100
AcDbArc
 50
270.0
 51
0.0
  0
LINE
  5
13A88
330
1378F
100
AcDbEntity
  8
1
  6
Continuous
100
AcDbLine
 10
977.5
 20
523.5
 30
0.0
 11
976.0
 21
523.5
 31
0.0
  0
LINE
  5
13A89
330
1378F
100
AcDbEntity
  8
1
  6
Continuous
100
AcDbLine
 10
976.0
 20
523.5
 30
0.0
 11
976.0
 21
531.5
 31
0.0
  0
LINE
  5
13A8A
330
1378F
100
AcDbEntity
  8
1
  6
Continuous
100
AcDbLine
 10
973.0
 20
524.0
 30
0.0
 11
973.0
 21
531.5
 31
0.0
  0
LINE
  5
13A8B
330
1378F
100
AcDbEntity
  8
1
  6
Continuous
100
AcDbLine
 10
972.0
 20
526.4999999999998
 30
0.0
 11
972.0
 21
527.7967559999998
 31
0.0
  0
LINE
  5
13A8C
330
1378F
100
AcDbEntity
  8
1
  6
Continuous
100
AcDbLine
 10
974.5
 20
524.0
 30
0.0
 11
974.5
 21
530.4999999999998
 31
0.0
  0
LINE
  5
13A8D
330
1378F
100
AcDbEntity
  8
1
  6
Continuous
100
AcDbLine
 10
973.0
 20
549.5
 30
0.0
 11
966.5
 21
549.5
 31
0.0
  0
LINE
  5
13A8E
330
1378F
100
AcDbEntity
  8
1
  6
Continuous
100
AcDbLine
 10
973.0
 20
551.0
 30
0.0
 11
965.0
 21
551.0
 31
0.0
  0
LINE
  5
13A8F
330
1378F
100
AcDbEntity
  8
1
  6
Continuous
100
AcDbLine
 10
966.5
 20
546.202494
 30
0.0
 11
972.0
 21
546.202494
 31
0.0
  0
LINE
  5
13A90
330
1378F
100
AcDbEntity
  8
1
  6
Continuous
100
AcDbLine
 10
966.5
 20
540.54564
 30
0.0
 11
972.0
 21
540.54564
 31
0.0
  0
LINE
  5
13A91
330
1378F
100
AcDbEntity
  8
1
  6
Continuous
100
AcDbLine
 10
966.5
 20
539.880163
 30
0.0
 11
972.0
 21
539.880163
 31
0.0
  0
LINE
  5
13A92
330
1378F
100
AcDbEntity
  8
4
  6
CENTER
100
AcDbLine
 10
978.193738
 20
535.0
 30
0.0
 11
960.0
 21
535.0
 31
0.0
  0
LINE
  5
13A93
330
1378F
100
AcDbEntity
  8
4
  6
CENTER
100
AcDbLine
 10
981.643621
 20
537.5
 30
0.0
 11
963.849476
 21
537.5
 31
0.0
  0
LINE
  5
13A94
330
1378F
100
AcDbEntity
  8
1
  6
Continuous
100
AcDbLine
 10
972.0
 20
548.5
 30
0.0
 11
967.0
 21
548.5
 31
0.0
  0
ARC
  5
13A95
330
1378F
100
AcDbEntity
  8
1
  6
Continuous
100
AcDbCircle
 10
966.5
 20
549.5
 30
0.0
 40
1.5
100
AcDbArc
 50
90.0
 51
180.0
  0
LINE
  5
13A96
330
1378F
100
AcDbEntity
  8
1
  6
Continuous
100
AcDbLine
 10
966.5
 20
535.0
 30
0.0
 11
965.0
 21
535.0
 31
0.0
  0
LINE
  5
13A97
330
1378F
100
AcDbEntity
  8
1
  6
Continuous
100
AcDbLine
 10
967.0
 20
548.5
 30
0.0
 11
967.0
 21
546.202494
 31
0.0
  0
LINE
  5
13A98
330
1378F
100
AcDbEntity
  8
1
  6
Continuous
100
AcDbLine
 10
968.0
 20
548.5
 30
0.0
 11
968.0
 21
549.5
 31
0.0
  0
LINE
  5
13A99
330
1378F
100
AcDbEntity
  8
1
  6
Continuous
100
AcDbLine
 10
973.0
 20
549.5
 30
0.0
 11
973.0
 21
551.0
 31
0.0
  0
LINE
  5
13A9A
330
1378F
100
AcDbEntity
  8
1
  6
Continuous
100
AcDbLine
 10
973.0
 20
550.0
 30
0.0
 11
976.0
 21
550.0
 31
0.0
  0
LINE
  5
13A9B
330
1378F
100
AcDbEntity
  8
1
  6
Continuous
100
AcDbLine
 10
976.0
 20
546.0
 30
0.0
 11
972.0
 21
546.0
 31
0.0
  0
LINE
  5
13A9C
330
1378F
100
AcDbEntity
  8
1
  6
Continuous
100
AcDbLine
 10
976.0
 20
541.5
 30
0.0
 11
976.0
 21
547.5
 31
0.0
  0
LINE
  5
13A9D
330
1378F
100
AcDbEntity
  8
1
  6
Continuous
100
AcDbLine
 10
977.5
 20
541.5
 30
0.0
 11
972.0
 21
541.5
 31
0.0
  0
LINE
  5
13A9E
330
1378F
100
AcDbEntity
  8
1
  6
Continuous
100
AcDbLine
 10
972.0
 20
539.880163
 30
0.0
 11
972.0
 21
548.5
 31
0.0
  0
LINE
  5
13A9F
330
1378F
100
AcDbEntity
  8
1
  6
Continuous
100
AcDbLine
 10
977.5
 20
547.5
 30
0.0
 11
972.0
 21
547.5
 31
0.0
  0
ARC
  5
13AA0
330
1378F
100
AcDbEntity
  8
1
  6
Continuous
100
AcDbCircle
 10
976.0
 20
542.5857859999998
 30
0.0
 40
1.0
100
AcDbArc
 50
135.0
 51
180.0
  0
LINE
  5
13AA1
330
1378F
100
AcDbEntity
  8
1
  6
Continuous
100
AcDbLine
 10
975.2928930000001
 20
543.2928929999999
 30
0.0
 11
976.0
 21
544.0
 31
0.0
  0
LINE
  5
13AA2
330
1378F
100
AcDbEntity
  8
1
  6
Continuous
100
AcDbLine
 10
975.0
 20
541.5
 30
0.0
 11
975.0
 21
543.5
 31
0.0
  0
LINE
  5
13AA3
330
1378F
100
AcDbEntity
  8
1
  6
Continuous
100
AcDbLine
 10
973.4999999999999
 20
541.5
 30
0.0
 11
973.4999999999999
 21
543.5
 31
0.0
  0
LINE
  5
13AA4
330
1378F
100
AcDbEntity
  8
1
  6
Continuous
100
AcDbLine
 10
972.0
 20
543.5
 30
0.0
 11
975.0
 21
543.5
 31
0.0
  0
ARC
  5
13AA5
330
1378F
100
AcDbEntity
  8
1
  6
Continuous
100
AcDbCircle
 10
976.0
 20
548.5
 30
0.0
 40
1.5
100
AcDbArc
 50
0.0
 51
90.0
  0
LINE
  5
13AA6
330
1378F
100
AcDbEntity
  8
4
  6
CENTER
100
AcDbLine
 10
880.0
 20
618.0
 30
0.0
 11
880.0
 21
624.5
 31
0.0
  0
LINE
  5
13AA7
330
1378F
100
AcDbEntity
  8
4
  6
CENTER
100
AcDbLine
 10
870.0
 20
618.0
 30
0.0
 11
870.0
 21
624.5
 31
0.0
  0
LINE
  5
13AA8
330
1378F
100
AcDbEntity
  8
1
  6
Continuous
100
AcDbLine
 10
895.0
 20
621.0
 30
0.0
 11
895.0
 21
630.4999999999997
 31
0.0
  0
ARC
  5
13AA9
330
1378F
100
AcDbEntity
  8
1
  6
Continuous
100
AcDbCircle
 10
893.5
 20
627.5
 30
0.0
 40
1.5
100
AcDbArc
 50
0.0
 51
90.0
  0
LINE
  5
13AAA
330
1378F
100
AcDbEntity
  8
1
  6
Continuous
100
AcDbLine
 10
880.0
 20
732.0
 30
0.0
 11
852.0
 21
729.4999999999999
 31
0.0
  0
LINE
  5
13AAB
330
1378F
100
AcDbEntity
  8
1
  6
Continuous
100
AcDbLine
 10
880.245048
 20
726.5
 30
0.0
 11
852.2450479999999
 21
724.0
 31
0.0
  0
LINE
  5
13AAC
330
1378F
100
AcDbEntity
  8
1
  6
Continuous
100
AcDbLine
 10
895.0
 20
718.0
 30
0.0
 11
895.0
 21
703.5
 31
0.0
  0
ARC
  5
13AAD
330
1378F
100
AcDbEntity
  8
1
  6
Continuous
100
AcDbCircle
 10
881.0
 20
719.5
 30
0.0
 40
12.5
100
AcDbArc
 50
296.3370750000001
 51
333.6629249999999
  0
LINE
  5
13AAE
330
1378F
100
AcDbEntity
  8
1
  6
Continuous
100
AcDbLine
 10
894.0
 20
726.5
 30
0.0
 11
880.245048
 21
726.5
 31
0.0
  0
LINE
  5
13AAF
330
1378F
100
AcDbEntity
  8
1
  6
Continuous
100
AcDbLine
 10
895.0
 20
732.0
 30
0.0
 11
880.0
 21
732.0
 31
0.0
  0
LINE
  5
13AB0
330
1378F
100
AcDbEntity
  8
1
  6
Continuous
100
AcDbLine
 10
892.202494
 20
713.9543599999998
 30
0.0
 11
887.273397
 21
716.3944419999997
 31
0.0
  0
LINE
  5
13AB1
330
1378F
100
AcDbEntity
  8
1
  6
Continuous
100
AcDbLine
 10
893.5
 20
719.5
 30
0.0
 11
887.0
 21
719.5
 31
0.0
  0
LINE
  5
13AB2
330
1378F
100
AcDbEntity
  8
1
  6
Continuous
100
AcDbLine
 10
893.9328559999999
 20
725.6783709999997
 30
0.0
 11
886.4228589999999
 21
723.4149169999997
 31
0.0
  0
LINE
  5
13AB3
330
1378F
100
AcDbEntity
  8
4
  6
CENTER
100
AcDbLine
 10
885.7499999999999
 20
719.5
 30
0.0
 11
864.25
 21
719.5
 31
0.0
  0
ARC
  5
13AB4
330
1378F
100
AcDbEntity
  8
1
  6
Continuous
100
AcDbCircle
 10
870.0
 20
720.5
 30
0.0
 40
3.75
100
AcDbArc
 50
0.0
 51
180.0
  0
ARC
  5
13AB5
330
1378F
100
AcDbEntity
  8
1
  6
Continuous
100
AcDbCircle
 10
870.0
 20
718.5
 30
0.0
 40
3.75
100
AcDbArc
 50
180.0
 51
0.0
  0
ARC
  5
13AB6
330
1378F
100
AcDbEntity
  8
1
  6
Continuous
100
AcDbCircle
 10
870.0
 20
718.5
 30
0.0
 40
2.399999999999999
100
AcDbArc
 50
180.0
 51
0.0
  0
ARC
  5
13AB7
330
1378F
100
AcDbEntity
  8
1
  6
Continuous
100
AcDbCircle
 10
870.0
 20
720.5
 30
0.0
 40
2.399999999999999
100
AcDbArc
 50
0.0
 51
180.0
  0
LINE
  5
13AB8
330
1378F
100
AcDbEntity
  8
1
  6
Continuous
100
AcDbLine
 10
866.2499999999999
 20
720.5
 30
0.0
 11
866.2499999999999
 21
718.5
 31
0.0
  0
LINE
  5
13AB9
330
1378F
100
AcDbEntity
  8
1
  6
Continuous
100
AcDbLine
 10
867.6
 20
720.5
 30
0.0
 11
867.6
 21
718.5
 31
0.0
  0
LINE
  5
13ABA
330
1378F
100
AcDbEntity
  8
1
  6
Continuous
100
AcDbLine
 10
873.75
 20
720.5
 30
0.0
 11
873.75
 21
718.5
 31
0.0
  0
LINE
  5
13ABB
330
1378F
100
AcDbEntity
  8
1
  6
Continuous
100
AcDbLine
 10
872.4
 20
720.5
 30
0.0
 11
872.4
 21
718.5
 31
0.0
  0
LINE
  5
13ABC
330
1378F
100
AcDbEntity
  8
4
  6
CENTER
100
AcDbLine
 10
870.0
 20
726.25
 30
0.0
 11
870.0
 21
712.75
 31
0.0
  0
CIRCLE
  5
13ABD
330
1378F
100
AcDbEntity
  8
1
  6
Continuous
100
AcDbCircle
 10
880.0
 20
719.5
 30
0.0
 40
3.75
  0
CIRCLE
  5
13ABE
330
1378F
100
AcDbEntity
  8
1
  6
Continuous
100
AcDbCircle
 10
880.0
 20
719.5
 30
0.0
 40
2.399999999999999
  0
LINE
  5
13ABF
330
1378F
100
AcDbEntity
  8
4
  6
CENTER
100
AcDbLine
 10
880.0
 20
725.25
 30
0.0
 11
880.0
 21
713.75
 31
0.0
  0
LINE
  5
13AC0
330
1378F
100
AcDbEntity
  8
1
  6
Continuous
100
AcDbLine
 10
886.5456400000001
 20
708.2975059999996
 30
0.0
 11
884.1055579999999
 21
713.2266030000002
 31
0.0
  0
ARC
  5
13AC1
330
1378F
100
AcDbEntity
  8
1
  6
Continuous
100
AcDbCircle
 10
881.0
 20
719.5
 30
0.0
 40
7.0
100
AcDbArc
 50
296.3370750000001
 51
333.6629249999999
  0
ARC
  5
13AC2
330
1378F
100
AcDbEntity
  8
1
  6
Continuous
100
AcDbCircle
 10
887.0
 20
721.4999999999998
 30
0.0
 40
2.0
100
AcDbArc
 50
106.7723929999998
 51
270.0
  0
ARC
  5
13AC3
330
1378F
100
AcDbEntity
  8
1
  6
Continuous
100
AcDbCircle
 10
881.0
 20
719.5
 30
0.0
 40
11.0
100
AcDbArc
 50
296.3370750000001
 51
333.6629249999999
  0
LINE
  5
13AC4
330
1378F
100
AcDbEntity
  8
1
  6
Continuous
100
AcDbLine
 10
895.0
 20
732.0
 30
0.0
 11
895.0
 21
727.1145589999996
 31
0.0
  0
ARC
  5
13AC5
330
1378F
100
AcDbEntity
  8
1
  6
Continuous
100
AcDbCircle
 10
894.0
 20
730.4999999999998
 30
0.0
 40
1.0
100
AcDbArc
 50
112.6198649999998
 51
221.810315
  0
ARC
  5
13AC6
330
1378F
100
AcDbEntity
  8
1
  6
Continuous
100
AcDbCircle
 10
893.776393
 20
730.0
 30
0.0
 40
0.5
100
AcDbArc
 50
90.0
 51
221.810315
  0
ARC
  5
13AC7
330
1378F
100
AcDbEntity
  8
1
  6
Continuous
100
AcDbCircle
 10
893.5
 20
727.1145589999996
 30
0.0
 40
1.5
100
AcDbArc
 50
286.772393
 51
0.0
  0
ARC
  5
13AC8
330
1378F
100
AcDbEntity
  8
1
  6
Continuous
100
AcDbCircle
 10
894.0
 20
727.5
 30
0.0
 40
1.0
100
AcDbArc
 50
270.0
 51
41.810315
  0
LINE
  5
13AC9
330
1378F
100
AcDbEntity
  8
1
  6
Continuous
100
AcDbLine
 10
894.7453559999999
 20
728.1666669999999
 30
0.0
 11
893.2546439999999
 21
729.833333
 31
0.0
  0
ARC
  5
13ACA
330
1378F
100
AcDbEntity
  8
1
  6
Continuous
100
AcDbCircle
 10
893.5
 20
718.0
 30
0.0
 40
1.5
100
AcDbArc
 50
0.0
 51
90.0
  0
LINE
  5
13ACB
330
1378F
100
AcDbEntity
  8
1
  6
Continuous
100
AcDbLine
 10
895.0
 20
730.4999999999998
 30
0.0
 11
893.776393
 21
730.4999999999998
 31
0.0
  0
LINE
  5
13ACC
330
1378F
100
AcDbEntity
  8
1
  6
Continuous
100
AcDbLine
 10
895.0
 20
732.0
 30
0.0
 11
893.6153849999996
 21
731.4230769999997
 31
0.0
  0
LINE
  5
13ACD
330
1378F
100
AcDbEntity
  8
1
  6
Continuous
100
AcDbLine
 10
895.0
 20
444.0
 30
0.0
 11
499.5
 21
444.0
 31
0.0
  0
LINE
  5
13ACE
330
1378F
100
AcDbEntity
  8
1
  6
Continuous
100
AcDbLine
 10
895.0
 20
453.5
 30
0.0
 11
450.4999999999998
 21
453.5
 31
0.0
  0
LINE
  5
13ACF
330
1378F
100
AcDbEntity
  8
1
  6
Continuous
100
AcDbLine
 10
553.5
 20
441.0
 30
0.0
 11
109.0
 21
441.0
 31
0.0
  0
LINE
  5
13AD0
330
1378F
100
AcDbEntity
  8
1
  6
Continuous
100
AcDbLine
 10
109.0
 20
450.4999999999998
 30
0.0
 11
449.0
 21
450.4999999999998
 31
0.0
  0
LINE
  5
13AD1
330
1378F
100
AcDbEntity
  8
1
  6
Continuous
100
AcDbLine
 10
553.5
 20
442.4999999999998
 30
0.0
 11
109.0
 21
442.4999999999998
 31
0.0
  0
LINE
  5
13AD2
330
1378F
100
AcDbEntity
  8
1
  6
Continuous
100
AcDbLine
 10
109.0
 20
449.0
 30
0.0
 11
449.0
 21
449.0
 31
0.0
  0
LINE
  5
13AD3
330
1378F
100
AcDbEntity
  8
1
  6
Continuous
100
AcDbLine
 10
142.0
 20
445.5
 30
0.0
 11
115.5
 21
445.5
 31
0.0
  0
ARC
  5
13AD4
330
1378F
100
AcDbEntity
  8
1
  6
Continuous
100
AcDbCircle
 10
115.5
 20
444.0
 30
0.0
 40
1.5
100
AcDbArc
 50
90.0
 51
180.0
  0
LINE
  5
13AD5
330
1378F
100
AcDbEntity
  8
1
  6
Continuous
100
AcDbLine
 10
109.0
 20
441.0
 30
0.0
 11
109.0
 21
450.4999999999998
 31
0.0
  0
LINE
  5
13AD6
330
1378F
100
AcDbEntity
  8
4
  6
CENTER
100
AcDbLine
 10
125.0
 20
438.0
 30
0.0
 11
125.0
 21
444.5
 31
0.0
  0
LINE
  5
13AD7
330
1378F
100
AcDbEntity
  8
1
  6
Continuous
100
AcDbLine
 10
114.0
 20
444.0
 30
0.0
 11
114.0
 21
442.4999999999998
 31
0.0
  0
LINE
  5
13AD8
330
1378F
100
AcDbEntity
  8
1
  6
Continuous
100
AcDbLine
 10
127.0
 20
445.913842
 30
0.0
 11
127.0
 21
448.51869
 31
0.0
  0
LINE
  5
13AD9
330
1378F
100
AcDbEntity
  8
1
  6
Continuous
100
AcDbLine
 10
156.0
 20
443.5
 30
0.0
 11
156.0
 21
448.0
 31
0.0
  0
ARC
  5
13ADA
330
1378F
100
AcDbEntity
  8
1
  6
Continuous
100
AcDbCircle
 10
142.0
 20
444.0
 30
0.0
 40
1.5
100
AcDbArc
 50
0.0
 51
90.0
  0
LINE
  5
13ADB
330
1378F
100
AcDbEntity
  8
4
  6
CENTER
100
AcDbLine
 10
135.0
 20
438.0
 30
0.0
 11
135.0
 21
444.5
 31
0.0
  0
LINE
  5
13ADC
330
1378F
100
AcDbEntity
  8
1
  6
Continuous
100
AcDbLine
 10
143.5
 20
442.4999999999998
 30
0.0
 11
143.5
 21
444.0
 31
0.0
  0
LINE
  5
13ADD
330
1378F
100
AcDbEntity
  8
3
  6
DASHED
100
AcDbLine
 10
552.0
 20
451.4999999999998
 30
0.0
 11
530.0
 21
451.4999999999998
 31
0.0
  0
LINE
  5
13ADE
330
1378F
100
AcDbEntity
  8
3
  6
DASHED
100
AcDbLine
 10
552.0
 20
446.4999999999998
 30
0.0
 11
530.0
 21
446.4999999999998
 31
0.0
  0
LINE
  5
13ADF
330
1378F
100
AcDbEntity
  8
1
  6
Continuous
100
AcDbLine
 10
450.4999999999998
 20
449.0
 30
0.0
 11
460.0
 21
449.0
 31
0.0
  0
LINE
  5
13AE0
330
1378F
100
AcDbEntity
  8
1
  6
Continuous
100
AcDbLine
 10
450.4999999999998
 20
450.4999999999998
 30
0.0
 11
460.0
 21
450.4999999999998
 31
0.0
  0
LINE
  5
13AE1
330
1378F
100
AcDbEntity
  8
1
  6
Continuous
100
AcDbLine
 10
499.5
 20
452.0
 30
0.0
 11
450.4999999999998
 21
452.0
 31
0.0
  0
LINE
  5
13AE2
330
1378F
100
AcDbEntity
  8
1
  6
Continuous
100
AcDbLine
 10
449.0
 20
452.0
 30
0.0
 11
449.0
 21
444.0
 31
0.0
  0
LINE
  5
13AE3
330
1378F
100
AcDbEntity
  8
1
  6
Continuous
100
AcDbLine
 10
450.4999999999998
 20
444.0
 30
0.0
 11
450.4999999999998
 21
452.0
 31
0.0
  0
LINE
  5
13AE4
330
1378F
100
AcDbEntity
  8
1
  6
Continuous
100
AcDbLine
 10
451.4999999999998
 20
442.4999999999998
 30
0.0
 11
451.4999999999998
 21
448.1
 31
0.0
  0
LINE
  5
13AE5
330
1378F
100
AcDbEntity
  8
1
  6
Continuous
100
AcDbLine
 10
448.0
 20
442.4999999999998
 30
0.0
 11
448.0
 21
448.1
 31
0.0
  0
LINE
  5
13AE6
330
1378F
100
AcDbEntity
  8
4
  6
CENTER
100
AcDbLine
 10
425.0
 20
438.0
 30
0.0
 11
425.0
 21
444.5
 31
0.0
  0
LINE
  5
13AE7
330
1378F
100
AcDbEntity
  8
4
  6
CENTER
100
AcDbLine
 10
415.0
 20
438.0
 30
0.0
 11
415.0
 21
444.5
 31
0.0
  0
LINE
  5
13AE8
330
1378F
100
AcDbEntity
  8
1
  6
Continuous
100
AcDbLine
 10
450.4999999999998
 20
444.0
 30
0.0
 11
449.0
 21
444.0
 31
0.0
  0
ARC
  5
13AE9
330
1378F
100
AcDbEntity
  8
1
  6
Continuous
100
AcDbCircle
 10
450.4999999999998
 20
452.0
 30
0.0
 40
1.5
100
AcDbArc
 50
90.0
 51
180.0
  0
LINE
  5
13AEA
330
1378F
100
AcDbEntity
  8
1
  6
Continuous
100
AcDbLine
 10
451.4999999999998
 20
448.1
 30
0.0
 11
450.4999999999998
 21
448.1
 31
0.0
  0
LINE
  5
13AEB
330
1378F
100
AcDbEntity
  8
1
  6
Continuous
100
AcDbLine
 10
449.0
 20
448.1
 30
0.0
 11
448.0
 21
448.1
 31
0.0
  0
LINE
  5
13AEC
330
1378F
100
AcDbEntity
  8
1
  6
Continuous
100
AcDbLine
 10
499.5
 20
444.0
 30
0.0
 11
499.5
 21
453.5
 31
0.0
  0
LINE
  5
13AED
330
1378F
100
AcDbEntity
  8
3
  6
DASHED
100
AcDbLine
 10
530.0
 20
444.0
 30
0.0
 11
530.0
 21
451.4999999999998
 31
0.0
  0
LINE
  5
13AEE
330
1378F
100
AcDbEntity
  8
4
  6
CENTER
100
AcDbLine
 10
515.0
 20
438.0
 30
0.0
 11
515.0
 21
444.5
 31
0.0
  0
LINE
  5
13AEF
330
1378F
100
AcDbEntity
  8
4
  6
CENTER
100
AcDbLine
 10
525.0
 20
438.0
 30
0.0
 11
525.0
 21
444.5
 31
0.0
  0
LINE
  5
13AF0
330
1378F
100
AcDbEntity
  8
1
  6
Continuous
100
AcDbLine
 10
477.0
 20
448.0
 30
0.0
 11
477.0
 21
443.0
 31
0.0
  0
LINE
  5
13AF1
330
1378F
100
AcDbEntity
  8
1
  6
Continuous
100
AcDbLine
 10
455.0
 20
448.0
 30
0.0
 11
455.0
 21
443.0
 31
0.0
  0
LINE
  5
13AF2
330
1378F
100
AcDbEntity
  8
4
  6
CENTER
100
AcDbLine
 10
466.0
 20
457.7685289999998
 30
0.0
 11
466.0
 21
437.3857479999998
 31
0.0
  0
LINE
  5
13AF3
330
1378F
100
AcDbEntity
  8
1
  6
Continuous
100
AcDbLine
 10
477.0
 20
443.0
 30
0.0
 11
455.0
 21
443.0
 31
0.0
  0
LINE
  5
13AF4
330
1378F
100
AcDbEntity
  8
1
  6
Continuous
100
AcDbLine
 10
530.0
 20
442.4999999999998
 30
0.0
 11
530.0
 21
444.0
 31
0.0
  0
LINE
  5
13AF5
330
1378F
100
AcDbEntity
  8
1
  6
Continuous
100
AcDbLine
 10
472.0
 20
449.0
 30
0.0
 11
499.5
 21
449.0
 31
0.0
  0
LINE
  5
13AF6
330
1378F
100
AcDbEntity
  8
1
  6
Continuous
100
AcDbLine
 10
472.0
 20
450.4999999999998
 30
0.0
 11
499.5
 21
450.4999999999998
 31
0.0
  0
LINE
  5
13AF7
330
1378F
100
AcDbEntity
  8
1
  6
Continuous
100
AcDbLine
 10
477.0
 20
448.0
 30
0.0
 11
455.0
 21
448.0
 31
0.0
  0
LINE
  5
13AF8
330
1378F
100
AcDbEntity
  8
1
  6
Continuous
100
AcDbLine
 10
472.0
 20
451.0
 30
0.0
 11
460.0
 21
451.0
 31
0.0
  0
LINE
  5
13AF9
330
1378F
100
AcDbEntity
  8
1
  6
Continuous
100
AcDbLine
 10
472.0
 20
449.5
 30
0.0
 11
460.0
 21
449.5
 31
0.0
  0
LINE
  5
13AFA
330
1378F
100
AcDbEntity
  8
1
  6
Continuous
100
AcDbLine
 10
460.207107
 20
451.292893
 30
0.0
 11
459.4999999999997
 21
452.0
 31
0.0
  0
LINE
  5
13AFB
330
1378F
100
AcDbEntity
  8
4
  6
CENTER
100
AcDbLine
 10
454.55
 20
456.5
 30
0.0
 11
454.55
 21
450.0
 31
0.0
  0
ARC
  5
13AFC
330
1378F
100
AcDbEntity
  8
1
  6
Continuous
100
AcDbCircle
 10
460.9142139999998
 20
452.0
 30
0.0
 40
1.0
100
AcDbArc
 50
225.0
 51
270.0
  0
LINE
  5
13AFD
330
1378F
100
AcDbEntity
  8
1
  6
Continuous
100
AcDbLine
 10
460.0
 20
448.0
 30
0.0
 11
460.0
 21
451.0
 31
0.0
  0
LINE
  5
13AFE
330
1378F
100
AcDbEntity
  8
1
  6
Continuous
100
AcDbLine
 10
476.0201059999998
 20
448.5
 30
0.0
 11
472.0
 21
448.5
 31
0.0
  0
ARC
  5
13AFF
330
1378F
100
AcDbEntity
  8
1
  6
Continuous
100
AcDbCircle
 10
471.0857859999999
 20
452.0
 30
0.0
 40
1.0
100
AcDbArc
 50
270.0
 51
315.0
  0
LINE
  5
13B00
330
1378F
100
AcDbEntity
  8
1
  6
Continuous
100
AcDbLine
 10
471.792893
 20
451.292893
 30
0.0
 11
472.5
 21
452.0
 31
0.0
  0
LINE
  5
13B01
330
1378F
100
AcDbEntity
  8
1
  6
Continuous
100
AcDbLine
 10
472.0
 20
448.0
 30
0.0
 11
472.0
 21
451.0
 31
0.0
  0
LINE
  5
13B02
330
1378F
100
AcDbEntity
  8
1
  6
Continuous
100
AcDbLine
 10
472.7823299999998
 20
448.5
 30
0.0
 11
472.7823299999998
 21
448.0
 31
0.0
  0
LINE
  5
13B03
330
1378F
100
AcDbEntity
  8
4
  6
CENTER
100
AcDbLine
 10
480.0
 20
456.5
 30
0.0
 11
480.0
 21
450.0
 31
0.0
  0
LINE
  5
13B04
330
1378F
100
AcDbEntity
  8
1
  6
Continuous
100
AcDbLine
 10
476.0201059999998
 20
448.5
 30
0.0
 11
476.0201059999998
 21
448.0
 31
0.0
  0
LINE
  5
13B05
330
1378F
100
AcDbEntity
  8
3
  6
DASHED
100
AcDbLine
 10
499.5
 20
449.0
 30
0.0
 11
530.0
 21
449.0
 31
0.0
  0
LINE
  5
13B06
330
1378F
100
AcDbEntity
  8
4
  6
CENTER
100
AcDbLine
 10
505.0
 20
456.5
 30
0.0
 11
505.0
 21
450.0
 31
0.0
  0
LINE
  5
13B07
330
1378F
100
AcDbEntity
  8
4
  6
CENTER
100
AcDbLine
 10
515.0
 20
456.5
 30
0.0
 11
515.0
 21
450.0
 31
0.0
  0
LINE
  5
13B08
330
1378F
100
AcDbEntity
  8
3
  6
DASHED
100
AcDbLine
 10
553.5
 20
450.4999999999998
 30
0.0
 11
553.5
 21
444.0
 31
0.0
  0
LINE
  5
13B09
330
1378F
100
AcDbEntity
  8
3
  6
DASHED
100
AcDbLine
 10
555.0
 20
450.4999999999998
 30
0.0
 11
555.0
 21
444.0
 31
0.0
  0
LINE
  5
13B0A
330
1378F
100
AcDbEntity
  8
1
  6
Continuous
100
AcDbLine
 10
535.0
 20
444.0
 30
0.0
 11
535.0
 21
443.5
 31
0.0
  0
LINE
  5
13B0B
330
1378F
100
AcDbEntity
  8
1
  6
Continuous
100
AcDbLine
 10
547.0
 20
444.0
 30
0.0
 11
547.0
 21
443.5
 31
0.0
  0
LINE
  5
13B0C
330
1378F
100
AcDbEntity
  8
4
  6
CENTER
100
AcDbLine
 10
541.0
 20
457.6235419999998
 30
0.0
 11
541.0
 21
437.1560739999998
 31
0.0
  0
LINE
  5
13B0D
330
1378F
100
AcDbEntity
  8
1
  6
Continuous
100
AcDbLine
 10
547.0
 20
443.5
 30
0.0
 11
535.0
 21
443.5
 31
0.0
  0
LINE
  5
13B0E
330
1378F
100
AcDbEntity
  8
1
  6
Continuous
100
AcDbLine
 10
535.207107
 20
443.207107
 30
0.0
 11
534.4999999999998
 21
442.4999999999998
 31
0.0
  0
ARC
  5
13B0F
330
1378F
100
AcDbEntity
  8
1
  6
Continuous
100
AcDbCircle
 10
535.914214
 20
442.4999999999998
 30
0.0
 40
1.0
100
AcDbArc
 50
90.0
 51
135.0
  0
LINE
  5
13B10
330
1378F
100
AcDbEntity
  8
1
  6
Continuous
100
AcDbLine
 10
546.7928929999999
 20
443.207107
 30
0.0
 11
547.5
 21
442.4999999999998
 31
0.0
  0
ARC
  5
13B11
330
1378F
100
AcDbEntity
  8
1
  6
Continuous
100
AcDbCircle
 10
546.0857859999999
 20
442.4999999999998
 30
0.0
 40
1.0
100
AcDbArc
 50
45.0
 51
90.0
  0
ARC
  5
13B12
330
1378F
100
AcDbEntity
  8
1
  6
Continuous
100
AcDbCircle
 10
553.5
 20
442.4999999999998
 30
0.0
 40
1.5
100
AcDbArc
 50
270.0
 51
0.0
  0
LINE
  5
13B13
330
1378F
100
AcDbEntity
  8
1
  6
Continuous
100
AcDbLine
 10
553.5
 20
444.0
 30
0.0
 11
553.5
 21
442.4999999999998
 31
0.0
  0
LINE
  5
13B14
330
1378F
100
AcDbEntity
  8
1
  6
Continuous
100
AcDbLine
 10
555.0
 20
444.0
 30
0.0
 11
555.0
 21
442.4999999999998
 31
0.0
  0
LINE
  5
13B15
330
1378F
100
AcDbEntity
  8
3
  6
DASHED
100
AcDbLine
 10
547.0
 20
445.0
 30
0.0
 11
535.0
 21
445.0
 31
0.0
  0
LINE
  5
13B16
330
1378F
100
AcDbEntity
  8
3
  6
DASHED
100
AcDbLine
 10
535.0
 20
446.4999999999998
 30
0.0
 11
535.0
 21
444.0
 31
0.0
  0
LINE
  5
13B17
330
1378F
100
AcDbEntity
  8
3
  6
DASHED
100
AcDbLine
 10
547.0
 20
446.4999999999998
 30
0.0
 11
547.0
 21
444.0
 31
0.0
  0
LINE
  5
13B18
330
1378F
100
AcDbEntity
  8
3
  6
DASHED
100
AcDbLine
 10
555.0
 20
450.4999999999998
 30
0.0
 11
553.5
 21
450.4999999999998
 31
0.0
  0
LINE
  5
13B19
330
1378F
100
AcDbEntity
  8
3
  6
DASHED
100
AcDbLine
 10
552.0
 20
446.4999999999998
 30
0.0
 11
552.0
 21
451.4999999999998
 31
0.0
  0
LINE
  5
13B1A
330
1378F
100
AcDbEntity
  8
4
  6
CENTER
100
AcDbLine
 10
630.0
 20
456.5
 30
0.0
 11
630.0
 21
450.0
 31
0.0
  0
LINE
  5
13B1B
330
1378F
100
AcDbEntity
  8
1
  6
Continuous
100
AcDbLine
 10
852.0
 20
452.0
 30
0.0
 11
852.0
 21
445.5
 31
0.0
  0
LINE
  5
13B1C
330
1378F
100
AcDbEntity
  8
1
  6
Continuous
100
AcDbLine
 10
895.0
 20
453.5
 30
0.0
 11
895.0
 21
444.0
 31
0.0
  0
LINE
  5
13B1D
330
1378F
100
AcDbEntity
  8
4
  6
CENTER
100
AcDbLine
 10
870.0
 20
456.5
 30
0.0
 11
870.0
 21
450.0
 31
0.0
  0
LINE
  5
13B1E
330
1378F
100
AcDbEntity
  8
1
  6
Continuous
100
AcDbLine
 10
880.0
 20
448.4392169999998
 30
0.0
 11
880.0
 21
444.80161
 31
0.0
  0
LINE
  5
13B1F
330
1378F
100
AcDbEntity
  8
4
  6
CENTER
100
AcDbLine
 10
880.0
 20
456.5
 30
0.0
 11
880.0
 21
450.0
 31
0.0
  0
ARC
  5
13B20
330
1378F
100
AcDbEntity
  8
1
  6
Continuous
100
AcDbCircle
 10
553.0
 20
145.5
 30
0.0
 40
2.0
100
AcDbArc
 50
0.0
 51
90.0
  0
ARC
  5
13B21
330
1378F
100
AcDbEntity
  8
1
  6
Continuous
100
AcDbCircle
 10
547.7639319999998
 20
125.5
 30
0.0
 40
2.0
100
AcDbArc
 50
270.0
 51
333.434949
  0
ARC
  5
13B22
330
1378F
100
AcDbEntity
  8
1
  6
Continuous
100
AcDbCircle
 10
451.0
 20
149.0
 30
0.0
 40
2.0
100
AcDbArc
 50
90.0
 51
180.0
  0
ARC
  5
13B23
330
1378F
100
AcDbEntity
  8
1
  6
Continuous
100
AcDbCircle
 10
452.5
 20
549.0
 30
0.0
 40
2.0
100
AcDbArc
 50
90.0
 51
180.0
  0
ARC
  5
13B24
330
1378F
100
AcDbEntity
  8
1
  6
Continuous
100
AcDbCircle
 10
452.5
 20
705.4999999999997
 30
0.0
 40
2.0
100
AcDbArc
 50
180.0
 51
270.0
  0
LINE
  5
13B25
330
1378F
100
AcDbEntity
  8
1
  6
Continuous
100
AcDbLine
 10
852.0668310000001
 20
126.5
 30
0.0
 11
550.4999999999999
 21
126.5
 31
0.0
  0
LINE
  5
13B26
330
1378F
100
AcDbEntity
  8
1
  6
Continuous
100
AcDbLine
 10
880.066831
 20
124.0
 30
0.0
 11
852.0668310000001
 21
126.5
 31
0.0
  0
LINE
  5
13B27
330
1378F
100
AcDbEntity
  8
1
  6
Continuous
100
AcDbLine
 10
895.0
 20
124.0
 30
0.0
 11
880.066831
 21
124.0
 31
0.0
  0
ARC
  5
13B28
330
1378F
100
AcDbEntity
  8
3
  6
DASHED
100
AcDbCircle
 10
451.0
 20
127.0
 30
0.0
 40
2.0
100
AcDbArc
 50
180.0
 51
270.0
  0
LINE
  5
13B29
330
1378F
100
AcDbEntity
  8
1
  6
Continuous
100
AcDbLine
 10
109.0
 20
306.0
 30
0.0
 11
126.9354649999998
 21
306.0
 31
0.0
  0
LINE
  5
13B2A
330
1378F
100
AcDbEntity
  8
1
  6
Continuous
100
AcDbLine
 10
155.9354649999999
 20
308.4999999999999
 30
0.0
 11
126.9354649999998
 21
306.0
 31
0.0
  0
LINE
  5
13B2B
330
1378F
100
AcDbEntity
  8
1
  6
Continuous
100
AcDbLine
 10
449.0
 20
308.4999999999999
 30
0.0
 11
155.9354649999999
 21
308.4999999999999
 31
0.0
  0
LINE
  5
13B2C
330
1378F
100
AcDbEntity
  8
3
  6
DASHED
100
AcDbLine
 10
469.544554
 20
308.4999999999999
 30
0.0
 11
449.0
 21
308.4999999999999
 31
0.0
  0
LINE
  5
13B2D
330
1378F
100
AcDbEntity
  8
3
  6
DASHED
100
AcDbLine
 10
473.4698299999998
 20
308.4999999999999
 30
0.0
 11
472.0948299999998
 21
308.4999999999999
 31
0.0
  0
ARC
  5
13B2E
330
1378F
100
AcDbEntity
  8
1
  6
Continuous
100
AcDbCircle
 10
451.0
 20
305.5
 30
0.0
 40
2.0
100
AcDbArc
 50
180.0
 51
270.0
  0
ARC
  5
13B2F
330
1378F
100
AcDbEntity
  8
1
  6
Continuous
100
AcDbCircle
 10
451.0
 20
327.4999999999999
 30
0.0
 40
2.0
100
AcDbArc
 50
90.0
 51
180.0
  0
LINE
  5
13B30
330
1378F
100
AcDbEntity
  8
1
  6
Continuous
100
AcDbLine
 10
549.5527860000001
 20
329.894427
 30
0.0
 11
549.75
 21
329.4999999999999
 31
0.0
  0
ARC
  5
13B31
330
1378F
100
AcDbEntity
  8
1
  6
Continuous
100
AcDbCircle
 10
547.7639319999998
 20
329.0
 30
0.0
 40
2.0
100
AcDbArc
 50
26.565051
 51
90.0
  0
LINE
  5
13B32
330
1378F
100
AcDbEntity
  8
3
  6
DASHED
100
AcDbLine
 10
555.0
 20
319.0
 30
0.0
 11
555.0
 21
309.0
 31
0.0
  0
ARC
  5
13B33
330
1378F
100
AcDbEntity
  8
3
  6
DASHED
100
AcDbCircle
 10
553.0
 20
309.0
 30
0.0
 40
2.0
100
AcDbArc
 50
270.0
 51
0.0
  0
ARC
  5
13B34
330
1378F
100
AcDbEntity
  8
1
  6
Continuous
100
AcDbCircle
 10
501.4999999999998
 20
47.0
 30
0.0
 40
2.0
100
AcDbArc
 50
90.0
 51
180.0
  0
ARC
  5
13B35
330
1378F
100
AcDbEntity
  8
3
  6
DASHED
100
AcDbCircle
 10
528.0
 20
47.5
 30
0.0
 40
2.0
100
AcDbArc
 50
270.0
 51
0.0
  0
LINE
  5
13B36
330
1378F
100
AcDbEntity
  8
1
  6
Continuous
100
AcDbLine
 10
33.0
 20
122.5
 30
0.0
 11
33.0
 21
124.0
 31
0.0
  0
LINE
  5
13B37
330
1378F
100
AcDbEntity
  8
1
  6
Continuous
100
AcDbLine
 10
26.5
 20
122.5
 30
0.0
 11
33.0
 21
122.5
 31
0.0
  0
LINE
  5
13B38
330
1378F
100
AcDbEntity
  8
1
  6
Continuous
100
AcDbLine
 10
26.5
 20
126.5
 30
0.0
 11
30.5
 21
126.5
 31
0.0
  0
LINE
  5
13B39
330
1378F
100
AcDbEntity
  8
1
  6
Continuous
100
AcDbLine
 10
35.5
 20
124.0
 30
0.0
 11
30.5
 21
124.0
 31
0.0
  0
LINE
  5
13B3A
330
1378F
100
AcDbEntity
  8
1
  6
Continuous
100
AcDbLine
 10
35.5
 20
124.0
 30
0.0
 11
35.5
 21
146.0
 31
0.0
  0
LINE
  5
13B3B
330
1378F
100
AcDbEntity
  8
1
  6
Continuous
100
AcDbLine
 10
30.5
 20
124.0
 30
0.0
 11
30.5
 21
146.0
 31
0.0
  0
LINE
  5
13B3C
330
1378F
100
AcDbEntity
  8
1
  6
Continuous
100
AcDbLine
 10
29.0
 20
129.0
 30
0.0
 11
29.0
 21
141.0
 31
0.0
  0
LINE
  5
13B3D
330
1378F
100
AcDbEntity
  8
1
  6
Continuous
100
AcDbLine
 10
27.5
 20
129.0
 30
0.0
 11
27.5
 21
141.0
 31
0.0
  0
LINE
  5
13B3E
330
1378F
100
AcDbEntity
  8
1
  6
Continuous
100
AcDbLine
 10
30.5
 20
141.0
 30
0.0
 11
27.5
 21
141.0
 31
0.0
  0
ARC
  5
13B3F
330
1378F
100
AcDbEntity
  8
1
  6
Continuous
100
AcDbCircle
 10
26.5
 20
140.085786
 30
0.0
 40
1.0
100
AcDbArc
 50
0.0
 51
45.0
  0
LINE
  5
13B40
330
1378F
100
AcDbEntity
  8
1
  6
Continuous
100
AcDbLine
 10
27.207107
 20
140.7928929999999
 30
0.0
 11
26.5
 21
141.5
 31
0.0
  0
LINE
  5
13B41
330
1378F
100
AcDbEntity
  8
1
  6
Continuous
100
AcDbLine
 10
30.5
 20
129.0
 30
0.0
 11
27.5
 21
129.0
 31
0.0
  0
LINE
  5
13B42
330
1378F
100
AcDbEntity
  8
1
  6
Continuous
100
AcDbLine
 10
27.207107
 20
129.207107
 30
0.0
 11
26.5
 21
128.4999999999998
 31
0.0
  0
ARC
  5
13B43
330
1378F
100
AcDbEntity
  8
1
  6
Continuous
100
AcDbCircle
 10
26.5
 20
129.9142139999998
 30
0.0
 40
1.0
100
AcDbArc
 50
315.0
 51
0.0
  0
LINE
  5
13B44
330
1378F
100
AcDbEntity
  8
1
  6
Continuous
100
AcDbLine
 10
27.0
 20
141.0
 30
0.0
 11
27.0
 21
148.5
 31
0.0
  0
LINE
  5
13B45
330
1378F
100
AcDbEntity
  8
1
  6
Continuous
100
AcDbLine
 10
969.5
 20
122.5
 30
0.0
 11
969.5
 21
126.5
 31
0.0
  0
LINE
  5
13B46
330
1378F
100
AcDbEntity
  8
1
  6
Continuous
100
AcDbLine
 10
976.0
 20
124.0
 30
0.0
 11
976.0
 21
149.5
 31
0.0
  0
ARC
  5
13B47
330
1378F
100
AcDbEntity
  8
1
  6
Continuous
100
AcDbCircle
 10
976.0
 20
124.0
 30
0.0
 40
1.5
100
AcDbArc
 50
270.0
 51
0.0
  0
LINE
  5
13B48
330
1378F
100
AcDbEntity
  8
1
  6
Continuous
100
AcDbLine
 10
976.0
 20
122.5
 30
0.0
 11
969.5
 21
122.5
 31
0.0
  0
LINE
  5
13B49
330
1378F
100
AcDbEntity
  8
4
  6
CENTER
100
AcDbLine
 10
963.446672
 20
135.0
 30
0.0
 11
982.5000000000001
 21
135.0
 31
0.0
  0
LINE
  5
13B4A
330
1378F
100
AcDbEntity
  8
1
  6
Continuous
100
AcDbLine
 10
973.0
 20
148.5
 30
0.0
 11
973.0
 21
150.0
 31
0.0
  0
LINE
  5
13B4B
330
1378F
100
AcDbEntity
  8
1
  6
Continuous
100
AcDbLine
 10
967.0
 20
124.0
 30
0.0
 11
972.0
 21
124.0
 31
0.0
  0
LINE
  5
13B4C
330
1378F
100
AcDbEntity
  8
1
  6
Continuous
100
AcDbLine
 10
973.0
 20
149.5
 30
0.0
 11
976.0
 21
149.5
 31
0.0
  0
LINE
  5
13B4D
330
1378F
100
AcDbEntity
  8
1
  6
Continuous
100
AcDbLine
 10
977.5
 20
124.0
 30
0.0
 11
977.5
 21
151.0
 31
0.0
  0
LINE
  5
13B4E
330
1378F
100
AcDbEntity
  8
1
  6
Continuous
100
AcDbLine
 10
966.5
 20
123.5
 30
0.0
 11
966.5
 21
147.5
 31
0.0
  0
LINE
  5
13B4F
330
1378F
100
AcDbEntity
  8
1
  6
Continuous
100
AcDbLine
 10
965.0
 20
123.5
 30
0.0
 11
965.0
 21
148.5
 31
0.0
  0
LINE
  5
13B50
330
1378F
100
AcDbEntity
  8
1
  6
Continuous
100
AcDbLine
 10
965.0
 20
123.5
 30
0.0
 11
966.5
 21
123.5
 31
0.0
  0
LINE
  5
13B51
330
1378F
100
AcDbEntity
  8
1
  6
Continuous
100
AcDbLine
 10
966.5
 20
146.0
 30
0.0
 11
970.5
 21
146.0
 31
0.0
  0
LINE
  5
13B52
330
1378F
100
AcDbEntity
  8
1
  6
Continuous
100
AcDbLine
 10
973.0
 20
150.0
 30
0.0
 11
966.5
 21
150.0
 31
0.0
  0
LINE
  5
13B53
330
1378F
100
AcDbEntity
  8
1
  6
Continuous
100
AcDbLine
 10
969.5
 20
151.0
 30
0.0
 11
977.5
 21
151.0
 31
0.0
  0
ARC
  5
13B54
330
1378F
100
AcDbEntity
  8
1
  6
Continuous
100
AcDbCircle
 10
966.5
 20
148.5
 30
0.0
 40
1.5
100
AcDbArc
 50
90.0
 51
180.0
  0
LINE
  5
13B55
330
1378F
100
AcDbEntity
  8
1
  6
Continuous
100
AcDbLine
 10
969.5
 20
150.0
 30
0.0
 11
969.5
 21
151.0
 31
0.0
  0
LINE
  5
13B56
330
1378F
100
AcDbEntity
  8
4
  6
CENTER
100
AcDbLine
 10
960.8563789999999
 20
137.5
 30
0.0
 11
978.650524
 21
137.5
 31
0.0
  0
LINE
  5
13B57
330
1378F
100
AcDbEntity
  8
1
  6
Continuous
100
AcDbLine
 10
976.0
 20
124.0
 30
0.0
 11
969.5
 21
124.0
 31
0.0
  0
ARC
  5
13B58
330
1378F
100
AcDbEntity
  8
1
  6
Continuous
100
AcDbCircle
 10
976.0
 20
149.5
 30
0.0
 40
1.5
100
AcDbArc
 50
0.0
 51
90.0
  0
LINE
  5
13B59
330
1378F
100
AcDbEntity
  8
1
  6
Continuous
100
AcDbLine
 10
965.0
 20
147.5
 30
0.0
 11
970.5
 21
147.5
 31
0.0
  0
LINE
  5
13B5A
330
1378F
100
AcDbEntity
  8
1
  6
Continuous
100
AcDbLine
 10
969.0
 20
143.5
 30
0.0
 11
969.0
 21
131.4999999999998
 31
0.0
  0
ARC
  5
13B5B
330
1378F
100
AcDbEntity
  8
1
  6
Continuous
100
AcDbCircle
 10
966.5
 20
142.585786
 30
0.0
 40
1.0
100
AcDbArc
 50
0.0
 51
45.0
  0
LINE
  5
13B5C
330
1378F
100
AcDbEntity
  8
1
  6
Continuous
100
AcDbLine
 10
967.2071069999999
 20
143.2928929999999
 30
0.0
 11
966.5
 21
144.0
 31
0.0
  0
LINE
  5
13B5D
330
1378F
100
AcDbEntity
  8
1
  6
Continuous
100
AcDbLine
 10
967.2071069999999
 20
131.707107
 30
0.0
 11
966.5
 21
131.0
 31
0.0
  0
ARC
  5
13B5E
330
1378F
100
AcDbEntity
  8
1
  6
Continuous
100
AcDbCircle
 10
966.5
 20
132.4142139999999
 30
0.0
 40
1.0
100
AcDbArc
 50
315.0
 51
0.0
  0
LINE
  5
13B5F
330
1378F
100
AcDbEntity
  8
1
  6
Continuous
100
AcDbLine
 10
967.5
 20
143.5
 30
0.0
 11
967.5
 21
131.4999999999998
 31
0.0
  0
LINE
  5
13B60
330
1378F
100
AcDbEntity
  8
1
  6
Continuous
100
AcDbLine
 10
970.5
 20
143.5
 30
0.0
 11
967.5
 21
143.5
 31
0.0
  0
LINE
  5
13B61
330
1378F
100
AcDbEntity
  8
1
  6
Continuous
100
AcDbLine
 10
970.5
 20
131.4999999999998
 30
0.0
 11
967.5
 21
131.4999999999998
 31
0.0
  0
LINE
  5
13B62
330
1378F
100
AcDbEntity
  8
1
  6
Continuous
100
AcDbLine
 10
970.5
 20
148.5
 30
0.0
 11
970.5
 21
126.5
 31
0.0
  0
LINE
  5
13B63
330
1378F
100
AcDbEntity
  8
1
  6
Continuous
100
AcDbLine
 10
975.5
 20
148.5
 30
0.0
 11
970.5
 21
148.5
 31
0.0
  0
LINE
  5
13B64
330
1378F
100
AcDbEntity
  8
1
  6
Continuous
100
AcDbLine
 10
975.5
 20
148.5
 30
0.0
 11
975.5
 21
146.202494
 31
0.0
  0
LINE
  5
13B65
330
1378F
100
AcDbEntity
  8
1
  6
Continuous
100
AcDbLine
 10
976.0
 20
126.5
 30
0.0
 11
969.5
 21
126.5
 31
0.0
  0
LINE
  5
13B66
330
1378F
100
AcDbEntity
  8
1
  6
Continuous
100
AcDbLine
 10
976.0
 20
146.202494
 30
0.0
 11
970.5
 21
146.202494
 31
0.0
  0
LINE
  5
13B67
330
1378F
100
AcDbEntity
  8
1
  6
Continuous
100
AcDbLine
 10
976.0
 20
140.54564
 30
0.0
 11
970.5
 21
140.54564
 31
0.0
  0
LINE
  5
13B68
330
1378F
100
AcDbEntity
  8
1
  6
Continuous
100
AcDbLine
 10
976.0
 20
139.8801629999999
 30
0.0
 11
970.5
 21
139.8801629999999
 31
0.0
  0
LINE
  5
13B69
330
1378F
100
AcDbEntity
  8
1
  6
Continuous
100
AcDbLine
 10
975.5
 20
139.8801629999999
 30
0.0
 11
975.5
 21
126.5
 31
0.0
  0
LINE
  5
13B6A
330
1378F
100
AcDbEntity
  8
1
  6
Continuous
100
AcDbLine
 10
976.0
 20
135.0
 30
0.0
 11
977.5
 21
135.0
 31
0.0
  0
LINE
  5
13B6B
330
1378F
100
AcDbEntity
  8
1
  6
Continuous
100
AcDbLine
 10
977.5
 20
128.4999999999998
 30
0.0
 11
976.0
 21
128.4999999999998
 31
0.0
  0
LINE
  5
13B6C
330
1378F
100
AcDbEntity
  8
1
  6
Continuous
100
AcDbLine
 10
967.0
 20
143.5
 30
0.0
 11
967.0
 21
146.0
 31
0.0
  0
LINE
  5
13B6D
330
1378F
100
AcDbEntity
  8
1
  6
Continuous
100
AcDbLine
 10
967.0
 20
124.0
 30
0.0
 11
967.0
 21
131.4999999999998
 31
0.0
  0
LINE
  5
13B6E
330
1378F
100
AcDbEntity
  8
1
  6
Continuous
100
AcDbLine
 10
890.0
 20
522.5
 30
0.0
 11
890.0
 21
525.4999999999999
 31
0.0
  0
LINE
  5
13B6F
330
1378F
100
AcDbEntity
  8
1
  6
Continuous
100
AcDbLine
 10
863.4999999999999
 20
523.973214
 30
0.0
 11
863.4999999999999
 21
525.4999999999999
 31
0.0
  0
LINE
  5
13B70
330
1378F
100
AcDbEntity
  8
1
  6
Continuous
100
AcDbLine
 10
890.0
 20
524.0
 30
0.0
 11
880.0
 21
524.0
 31
0.0
  0
LINE
  5
13B71
330
1378F
100
AcDbEntity
  8
1
  6
Continuous
100
AcDbLine
 10
880.133398
 20
523.9940569999999
 30
0.0
 11
863.4999999999999
 21
525.4791809999998
 31
0.0
  0
LINE
  5
13B72
330
1378F
100
AcDbEntity
  8
1
  6
Continuous
100
AcDbLine
 10
888.4999999999999
 20
527.0
 30
0.0
 11
865.0
 21
527.0
 31
0.0
  0
ARC
  5
13B73
330
1378F
100
AcDbEntity
  8
1
  6
Continuous
100
AcDbCircle
 10
888.4999999999999
 20
525.4999999999999
 30
0.0
 40
1.5
100
AcDbArc
 50
0.0
 51
90.0
  0
ARC
  5
13B74
330
1378F
100
AcDbEntity
  8
1
  6
Continuous
100
AcDbCircle
 10
865.0
 20
525.4999999999999
 30
0.0
 40
1.5
100
AcDbArc
 50
90.0
 51
180.0
  0
LINE
  5
13B75
330
1378F
100
AcDbEntity
  8
1
  6
Continuous
100
AcDbLine
 10
863.4999999999999
 20
450.4999999999998
 30
0.0
 11
863.4999999999999
 21
453.5
 31
0.0
  0
LINE
  5
13B76
330
1378F
100
AcDbEntity
  8
1
  6
Continuous
100
AcDbLine
 10
890.0
 20
450.4999999999998
 30
0.0
 11
890.0
 21
453.5
 31
0.0
  0
LINE
  5
13B77
330
1378F
100
AcDbEntity
  8
1
  6
Continuous
100
AcDbLine
 10
890.0
 20
452.0
 30
0.0
 11
863.4999999999999
 21
452.0
 31
0.0
  0
LINE
  5
13B78
330
1378F
100
AcDbEntity
  8
1
  6
Continuous
100
AcDbLine
 10
888.4999999999999
 20
449.0
 30
0.0
 11
865.0
 21
449.0
 31
0.0
  0
ARC
  5
13B79
330
1378F
100
AcDbEntity
  8
1
  6
Continuous
100
AcDbCircle
 10
888.4999999999999
 20
450.4999999999998
 30
0.0
 40
1.5
100
AcDbArc
 50
270.0
 51
0.0
  0
ARC
  5
13B7A
330
1378F
100
AcDbEntity
  8
1
  6
Continuous
100
AcDbCircle
 10
865.0
 20
450.4999999999998
 30
0.0
 40
1.5
100
AcDbArc
 50
180.0
 51
270.0
  0
LINE
  5
13B7B
330
1378F
100
AcDbEntity
  8
1
  6
Continuous
100
AcDbLine
 10
880.133398
 20
330.505943
 30
0.0
 11
863.4999999999999
 21
329.020819
 31
0.0
  0
LINE
  5
13B7C
330
1378F
100
AcDbEntity
  8
1
  6
Continuous
100
AcDbLine
 10
888.4999999999999
 20
327.4999999999999
 30
0.0
 11
865.0
 21
327.4999999999999
 31
0.0
  0
LINE
  5
13B7D
330
1378F
100
AcDbEntity
  8
1
  6
Continuous
100
AcDbLine
 10
863.4999999999999
 20
330.5267859999998
 30
0.0
 11
863.4999999999999
 21
329.0
 31
0.0
  0
ARC
  5
13B7E
330
1378F
100
AcDbEntity
  8
1
  6
Continuous
100
AcDbCircle
 10
865.0
 20
329.0
 30
0.0
 40
1.5
100
AcDbArc
 50
180.0
 51
270.0
  0
LINE
  5
13B7F
330
1378F
100
AcDbEntity
  8
1
  6
Continuous
100
AcDbLine
 10
890.0
 20
332.0
 30
0.0
 11
890.0
 21
329.0
 31
0.0
  0
LINE
  5
13B80
330
1378F
100
AcDbEntity
  8
1
  6
Continuous
100
AcDbLine
 10
890.0
 20
330.5
 30
0.0
 11
880.0
 21
330.5
 31
0.0
  0
ARC
  5
13B81
330
1378F
100
AcDbEntity
  8
1
  6
Continuous
100
AcDbCircle
 10
888.4999999999999
 20
329.0
 30
0.0
 40
1.5
100
AcDbArc
 50
270.0
 51
0.0
  0
LINE
  5
13B82
330
1378F
100
AcDbEntity
  8
1
  6
Continuous
100
AcDbLine
 10
888.4999999999999
 20
127.0
 30
0.0
 11
865.0
 21
127.0
 31
0.0
  0
ARC
  5
13B83
330
1378F
100
AcDbEntity
  8
1
  6
Continuous
100
AcDbCircle
 10
865.0
 20
125.5
 30
0.0
 40
1.5
100
AcDbArc
 50
90.0
 51
180.0
  0
LINE
  5
13B84
330
1378F
100
AcDbEntity
  8
1
  6
Continuous
100
AcDbLine
 10
863.4999999999999
 20
125.479181
 30
0.0
 11
863.4999999999999
 21
125.5
 31
0.0
  0
ARC
  5
13B85
330
1378F
100
AcDbEntity
  8
1
  6
Continuous
100
AcDbCircle
 10
888.4999999999999
 20
125.5
 30
0.0
 40
1.5
100
AcDbArc
 50
0.0
 51
90.0
  0
LINE
  5
13B86
330
1378F
100
AcDbEntity
  8
1
  6
Continuous
100
AcDbLine
 10
890.0
 20
124.0
 30
0.0
 11
890.0
 21
125.5
 31
0.0
  0
LINE
  5
13B87
330
1378F
100
AcDbEntity
  8
1
  6
Continuous
100
AcDbLine
 10
890.0
 20
42.5
 30
0.0
 11
863.4999999999999
 21
42.5
 31
0.0
  0
LINE
  5
13B88
330
1378F
100
AcDbEntity
  8
1
  6
Continuous
100
AcDbLine
 10
888.4999999999999
 20
45.49999999999999
 30
0.0
 11
865.0
 21
45.49999999999999
 31
0.0
  0
LINE
  5
13B89
330
1378F
100
AcDbEntity
  8
1
  6
Continuous
100
AcDbLine
 10
863.4999999999999
 20
44.0
 30
0.0
 11
863.4999999999999
 21
41.0
 31
0.0
  0
ARC
  5
13B8A
330
1378F
100
AcDbEntity
  8
1
  6
Continuous
100
AcDbCircle
 10
865.0
 20
44.0
 30
0.0
 40
1.5
100
AcDbArc
 50
90.0
 51
180.0
  0
LINE
  5
13B8B
330
1378F
100
AcDbEntity
  8
1
  6
Continuous
100
AcDbLine
 10
890.0
 20
44.0
 30
0.0
 11
890.0
 21
41.0
 31
0.0
  0
ARC
  5
13B8C
330
1378F
100
AcDbEntity
  8
1
  6
Continuous
100
AcDbCircle
 10
888.4999999999999
 20
44.0
 30
0.0
 40
1.5
100
AcDbArc
 50
0.0
 51
90.0
  0
ARC
  5
13B8D
330
1378F
100
AcDbEntity
  8
1
  6
Continuous
100
AcDbCircle
 10
893.5
 20
47.5
 30
0.0
 40
1.5
100
AcDbArc
 50
0.0
 51
90.0
  0
LINE
  5
13B8E
330
1378F
100
AcDbEntity
  8
1
  6
Continuous
100
AcDbLine
 10
142.0
 20
308.0
 30
0.0
 11
115.5
 21
308.0
 31
0.0
  0
LINE
  5
13B8F
330
1378F
100
AcDbEntity
  8
1
  6
Continuous
100
AcDbLine
 10
114.0
 20
306.0
 30
0.0
 11
114.0
 21
306.4999999999999
 31
0.0
  0
ARC
  5
13B90
330
1378F
100
AcDbEntity
  8
1
  6
Continuous
100
AcDbCircle
 10
115.5
 20
306.4999999999999
 30
0.0
 40
1.5
100
AcDbArc
 50
90.0
 51
180.0
  0
ARC
  5
13B91
330
1378F
100
AcDbEntity
  8
1
  6
Continuous
100
AcDbCircle
 10
142.0
 20
306.4999999999999
 30
0.0
 40
1.5
100
AcDbArc
 50
36.964804
 51
90.0
  0
LINE
  5
13B92
330
1378F
100
AcDbEntity
  8
5
  6
PHANTOM
100
AcDbLine
 10
887.6274889999999
 20
521.0
 30
0.0
 11
451.0
 21
521.0
 31
0.0
  0
LINE
  5
13B93
330
1378F
100
AcDbEntity
  8
5
  6
PHANTOM
100
AcDbLine
 10
868.5
 20
540.0
 30
0.0
 11
495.7848819999998
 21
540.0
 31
0.0
  0
LINE
  5
13B94
330
1378F
100
AcDbEntity
  8
5
  6
PHANTOM
100
AcDbLine
 10
870.0
 20
545.0
 30
0.0
 11
496.0
 21
545.0
 31
0.0
  0
ARC
  5
13B95
330
1378F
100
AcDbEntity
  8
5
  6
PHANTOM
100
AcDbCircle
 10
475.0
 20
536.0
 30
0.0
 40
2.399999999999999
100
AcDbArc
 50
0.0
 51
180.0
  0
ARC
  5
13B96
330
1378F
100
AcDbEntity
  8
5
  6
PHANTOM
100
AcDbCircle
 10
475.0
 20
534.0
 30
0.0
 40
2.399999999999999
100
AcDbArc
 50
180.0
 51
0.0
  0
ARC
  5
13B97
330
1378F
100
AcDbEntity
  8
5
  6
PHANTOM
100
AcDbCircle
 10
475.0
 20
536.0
 30
0.0
 40
3.75
100
AcDbArc
 50
0.0
 51
180.0
  0
ARC
  5
13B98
330
1378F
100
AcDbEntity
  8
5
  6
PHANTOM
100
AcDbCircle
 10
475.0
 20
534.0
 30
0.0
 40
3.75
100
AcDbArc
 50
180.0
 51
0.0
  0
LINE
  5
13B99
330
1378F
100
AcDbEntity
  8
5
  6
PHANTOM
100
AcDbLine
 10
495.7848819999998
 20
540.0
 30
0.0
 11
466.7848819999998
 21
542.4999999999998
 31
0.0
  0
LINE
  5
13B9A
330
1378F
100
AcDbEntity
  8
5
  6
PHANTOM
100
AcDbLine
 10
496.0
 20
545.0
 30
0.0
 11
467.0
 21
547.5
 31
0.0
  0
ARC
  5
13B9B
330
1378F
100
AcDbEntity
  8
5
  6
PHANTOM
100
AcDbCircle
 10
451.0
 20
523.0
 30
0.0
 40
2.0
100
AcDbArc
 50
180.0
 51
270.0
  0
LINE
  5
13B9C
330
1378F
100
AcDbEntity
  8
5
  6
PHANTOM
100
AcDbLine
 10
450.0671439999998
 20
541.1783709999999
 30
0.0
 11
457.5771409999998
 21
538.9149169999998
 31
0.0
  0
LINE
  5
13B9D
330
1378F
100
AcDbEntity
  8
5
  6
PHANTOM
100
AcDbLine
 10
450.4999999999998
 20
535.0
 30
0.0
 11
457.0
 21
535.0
 31
0.0
  0
LINE
  5
13B9E
330
1378F
100
AcDbEntity
  8
5
  6
PHANTOM
100
AcDbLine
 10
449.0
 20
547.5
 30
0.0
 11
449.0
 21
542.6145589999999
 31
0.0
  0
ARC
  5
13B9F
330
1378F
100
AcDbEntity
  8
5
  6
PHANTOM
100
AcDbCircle
 10
450.4999999999998
 20
544.0
 30
0.0
 40
1.5
100
AcDbArc
 50
180.0
 51
270.0
  0
ARC
  5
13BA0
330
1378F
100
AcDbEntity
  8
5
  6
PHANTOM
100
AcDbCircle
 10
450.4999999999998
 20
542.6145589999999
 30
0.0
 40
1.5
100
AcDbArc
 50
180.0
 51
253.2276069999999
  0
ARC
  5
13BA1
330
1378F
100
AcDbEntity
  8
5
  6
PHANTOM
100
AcDbCircle
 10
450.4999999999998
 20
533.4999999999999
 30
0.0
 40
1.5
100
AcDbArc
 50
90.0
 51
180.0
  0
LINE
  5
13BA2
330
1378F
100
AcDbEntity
  8
5
  6
PHANTOM
100
AcDbLine
 10
449.0
 20
525.0
 30
0.0
 11
449.0
 21
523.0
 31
0.0
  0
LINE
  5
13BA3
330
1378F
100
AcDbEntity
  8
5
  6
PHANTOM
100
AcDbLine
 10
472.5999999999998
 20
534.0
 30
0.0
 11
472.5999999999998
 21
536.0
 31
0.0
  0
LINE
  5
13BA4
330
1378F
100
AcDbEntity
  8
5
  6
PHANTOM
100
AcDbLine
 10
471.25
 20
534.0
 30
0.0
 11
471.25
 21
536.0
 31
0.0
  0
CIRCLE
  5
13BA5
330
1378F
100
AcDbEntity
  8
5
  6
PHANTOM
100
AcDbCircle
 10
465.0
 20
535.0
 30
0.0
 40
2.399999999999999
  0
ARC
  5
13BA6
330
1378F
100
AcDbEntity
  8
5
  6
PHANTOM
100
AcDbCircle
 10
457.0
 20
537.0
 30
0.0
 40
2.0
100
AcDbArc
 50
270.0
 51
73.22760699999998
  0
LINE
  5
13BA7
330
1378F
100
AcDbEntity
  8
4
  6
CENTER
100
AcDbLine
 10
465.0
 20
529.25
 30
0.0
 11
465.0
 21
540.7499999999998
 31
0.0
  0
CIRCLE
  5
13BA8
330
1378F
100
AcDbEntity
  8
5
  6
PHANTOM
100
AcDbCircle
 10
465.0
 20
535.0
 30
0.0
 40
3.75
  0
LINE
  5
13BA9
330
1378F
100
AcDbEntity
  8
5
  6
PHANTOM
100
AcDbLine
 10
478.75
 20
534.0
 30
0.0
 11
478.75
 21
536.0
 31
0.0
  0
LINE
  5
13BAA
330
1378F
100
AcDbEntity
  8
5
  6
PHANTOM
100
AcDbLine
 10
477.4
 20
534.0
 30
0.0
 11
477.4
 21
536.0
 31
0.0
  0
LINE
  5
13BAB
330
1378F
100
AcDbEntity
  8
4
  6
CENTER
100
AcDbLine
 10
475.0
 20
528.2499999999998
 30
0.0
 11
475.0
 21
541.75
 31
0.0
  0
ARC
  5
13BAC
330
1378F
100
AcDbEntity
  8
5
  6
PHANTOM
100
AcDbCircle
 10
891.5
 20
543.0
 30
0.0
 40
2.0
100
AcDbArc
 50
0.0
 51
90.0
  0
LINE
  5
13BAD
330
1378F
100
AcDbEntity
  8
5
  6
PHANTOM
100
AcDbLine
 10
893.6912880000001
 20
529.0
 30
0.0
 11
892.083709
 21
529.0
 31
0.0
  0
LINE
  5
13BAE
330
1378F
100
AcDbEntity
  8
5
  6
PHANTOM
100
AcDbLine
 10
893.335541
 20
525.296756
 30
0.0
 11
891.06924
 21
526.3681839999998
 31
0.0
  0
LINE
  5
13BAF
330
1378F
100
AcDbEntity
  8
5
  6
PHANTOM
100
AcDbLine
 10
892.083709
 20
529.0
 30
0.0
 11
892.663502
 21
530.504144
 31
0.0
  0
LINE
  5
13BB0
330
1378F
100
AcDbEntity
  8
4
  6
CENTER
100
AcDbLine
 10
896.0
 20
535.0
 30
0.0
 11
849.2499999999999
 21
535.0
 31
0.0
  0
ARC
  5
13BB1
330
1378F
100
AcDbEntity
  8
5
  6
PHANTOM
100
AcDbCircle
 10
887.6274889999999
 20
523.0
 30
0.0
 40
2.0
100
AcDbArc
 50
270.0
 51
338.920162
  0
LINE
  5
13BB2
330
1378F
100
AcDbEntity
  8
4
  6
CENTER
100
AcDbLine
 10
881.0
 20
520.0
 30
0.0
 11
881.0
 21
550.0
 31
0.0
  0
ARC
  5
13BB3
330
1378F
100
AcDbEntity
  8
5
  6
PHANTOM
100
AcDbCircle
 10
868.5
 20
541.5
 30
0.0
 40
1.5
100
AcDbArc
 50
270.0
 51
0.0
  0
LINE
  5
13BB4
330
1378F
100
AcDbEntity
  8
5
  6
PHANTOM
100
AcDbLine
 10
891.5
 20
545.0
 30
0.0
 11
875.5
 21
545.0
 31
0.0
  0
LINE
  5
13BB5
330
1378F
100
AcDbEntity
  8
5
  6
PHANTOM
100
AcDbLine
 10
889.5781949999998
 20
522.5
 30
0.0
 11
892.083709
 21
529.0
 31
0.0
  0
LINE
  5
13BB6
330
1378F
100
AcDbEntity
  8
5
  6
PHANTOM
100
AcDbLine
 10
889.493649
 20
522.280663
 30
0.0
 11
889.5781949999998
 21
522.5
 31
0.0
  0
LINE
  5
13BB7
330
1378F
100
AcDbEntity
  8
5
  6
PHANTOM
100
AcDbLine
 10
870.0
 20
541.5
 30
0.0
 11
870.0
 21
545.0
 31
0.0
  0
LINE
  5
13BB8
330
1378F
100
AcDbEntity
  8
5
  6
PHANTOM
100
AcDbLine
 10
871.4999999999999
 20
543.5
 30
0.0
 11
870.5
 21
543.5
 31
0.0
  0
LINE
  5
13BB9
330
1378F
100
AcDbEntity
  8
5
  6
PHANTOM
100
AcDbLine
 10
871.4999999999999
 20
543.5
 30
0.0
 11
875.5
 21
545.0
 31
0.0
  0
LINE
  5
13BBA
330
1378F
100
AcDbEntity
  8
5
  6
PHANTOM
100
AcDbLine
 10
895.0
 20
535.0
 30
0.0
 11
895.0
 21
536.5
 31
0.0
  0
ARC
  5
13BBB
330
1378F
100
AcDbEntity
  8
5
  6
PHANTOM
100
AcDbCircle
 10
881.0
 20
535.0
 30
0.0
 40
12.5
100
AcDbArc
 50
338.920162
 51
0.0
  0
LINE
  5
13BBC
330
1378F
100
AcDbEntity
  8
5
  6
PHANTOM
100
AcDbLine
 10
893.5
 20
535.0
 30
0.0
 11
893.5
 21
543.0
 31
0.0
  0
ARC
  5
13BBD
330
1378F
100
AcDbEntity
  8
5
  6
PHANTOM
100
AcDbCircle
 10
881.0
 20
535.0
 30
0.0
 40
14.0
100
AcDbArc
 50
338.920162
 51
0.0
  0
LINE
  5
13BBE
330
1378F
100
AcDbEntity
  8
5
  6
PHANTOM
100
AcDbLine
 10
895.0
 20
539.0
 30
0.0
 11
893.5
 21
539.0
 31
0.0
  0
LINE
  5
13BBF
330
1378F
100
AcDbEntity
  8
5
  6
PHANTOM
100
AcDbLine
 10
893.335541
 20
525.296756
 30
0.0
 11
894.597809
 21
528.5714289999998
 31
0.0
  0
LINE
  5
13BC0
330
1378F
100
AcDbEntity
  8
5
  6
PHANTOM
100
AcDbLine
 10
894.597809
 20
528.5714289999998
 30
0.0
 11
893.6912880000001
 21
529.0
 31
0.0
  0
LINE
  5
13BC1
330
1378F
100
AcDbEntity
  8
5
  6
PHANTOM
100
AcDbLine
 10
893.6912880000001
 20
529.0
 30
0.0
 11
894.063122
 21
529.964641
 31
0.0
  0
LINE
  5
13BC2
330
1378F
100
AcDbEntity
  8
5
  6
PHANTOM
100
AcDbLine
 10
887.7639319999998
 20
121.0
 30
0.0
 11
451.0
 21
121.0
 31
0.0
  0
LINE
  5
13BC3
330
1378F
100
AcDbEntity
  8
5
  6
PHANTOM
100
AcDbLine
 10
870.0
 20
145.0
 30
0.0
 11
496.0
 21
145.0
 31
0.0
  0
ARC
  5
13BC4
330
1378F
100
AcDbEntity
  8
5
  6
PHANTOM
100
AcDbCircle
 10
451.0
 20
123.0
 30
0.0
 40
2.0
100
AcDbArc
 50
180.0
 51
270.0
  0
ARC
  5
13BC5
330
1378F
100
AcDbEntity
  8
5
  6
PHANTOM
100
AcDbCircle
 10
475.0
 20
134.0
 30
0.0
 40
2.399999999999999
100
AcDbArc
 50
180.0
 51
0.0
  0
ARC
  5
13BC6
330
1378F
100
AcDbEntity
  8
5
  6
PHANTOM
100
AcDbCircle
 10
475.0
 20
136.0
 30
0.0
 40
2.399999999999999
100
AcDbArc
 50
0.0
 51
180.0
  0
LINE
  5
13BC7
330
1378F
100
AcDbEntity
  8
5
  6
PHANTOM
100
AcDbLine
 10
483.1985079999998
 20
144.5980139999998
 30
0.0
 11
466.935465
 21
146.0
 31
0.0
  0
LINE
  5
13BC8
330
1378F
100
AcDbEntity
  8
5
  6
PHANTOM
100
AcDbLine
 10
482.0
 20
144.0
 30
0.0
 11
455.4999999999998
 21
144.0
 31
0.0
  0
LINE
  5
13BC9
330
1378F
100
AcDbEntity
  8
5
  6
PHANTOM
100
AcDbLine
 10
496.0
 20
145.0
 30
0.0
 11
467.0
 21
147.5
 31
0.0
  0
LINE
  5
13BCA
330
1378F
100
AcDbEntity
  8
5
  6
PHANTOM
100
AcDbLine
 10
450.4999999999998
 20
135.0
 30
0.0
 11
457.0
 21
135.0
 31
0.0
  0
LINE
  5
13BCB
330
1378F
100
AcDbEntity
  8
5
  6
PHANTOM
100
AcDbLine
 10
450.0671439999998
 20
141.1783709999999
 30
0.0
 11
457.5771409999998
 21
138.914917
 31
0.0
  0
ARC
  5
13BCC
330
1378F
100
AcDbEntity
  8
5
  6
PHANTOM
100
AcDbCircle
 10
450.4999999999998
 20
133.4999999999998
 30
0.0
 40
1.5
100
AcDbArc
 50
90.0
 51
180.0
  0
ARC
  5
13BCD
330
1378F
100
AcDbEntity
  8
5
  6
PHANTOM
100
AcDbCircle
 10
450.4999999999998
 20
142.614559
 30
0.0
 40
1.5
100
AcDbArc
 50
180.0
 51
253.2276069999999
  0
LINE
  5
13BCE
330
1378F
100
AcDbEntity
  8
5
  6
PHANTOM
100
AcDbLine
 10
449.0
 20
127.0
 30
0.0
 11
449.0
 21
123.0
 31
0.0
  0
LINE
  5
13BCF
330
1378F
100
AcDbEntity
  8
5
  6
PHANTOM
100
AcDbLine
 10
472.5999999999998
 20
134.0
 30
0.0
 11
472.5999999999998
 21
136.0
 31
0.0
  0
ARC
  5
13BD0
330
1378F
100
AcDbEntity
  8
5
  6
PHANTOM
100
AcDbCircle
 10
457.0
 20
137.0
 30
0.0
 40
2.0
100
AcDbArc
 50
270.0
 51
73.22760699999998
  0
LINE
  5
13BD1
330
1378F
100
AcDbEntity
  8
4
  6
CENTER
100
AcDbLine
 10
465.0
 20
129.2499999999998
 30
0.0
 11
465.0
 21
140.7499999999998
 31
0.0
  0
CIRCLE
  5
13BD2
330
1378F
100
AcDbEntity
  8
5
  6
PHANTOM
100
AcDbCircle
 10
465.0
 20
135.0
 30
0.0
 40
2.399999999999999
  0
LINE
  5
13BD3
330
1378F
100
AcDbEntity
  8
5
  6
PHANTOM
100
AcDbLine
 10
454.0
 20
146.0
 30
0.0
 11
466.935465
 21
146.0
 31
0.0
  0
ARC
  5
13BD4
330
1378F
100
AcDbEntity
  8
5
  6
PHANTOM
100
AcDbCircle
 10
455.4999999999998
 20
145.5
 30
0.0
 40
1.5
100
AcDbArc
 50
180.0
 51
270.0
  0
LINE
  5
13BD5
330
1378F
100
AcDbEntity
  8
5
  6
PHANTOM
100
AcDbLine
 10
454.0
 20
147.5
 30
0.0
 11
454.0
 21
145.5
 31
0.0
  0
ARC
  5
13BD6
330
1378F
100
AcDbEntity
  8
5
  6
PHANTOM
100
AcDbCircle
 10
482.0
 20
145.5
 30
0.0
 40
1.5
100
AcDbArc
 50
270.0
 51
0.0
  0
LINE
  5
13BD7
330
1378F
100
AcDbEntity
  8
5
  6
PHANTOM
100
AcDbLine
 10
483.4999999999998
 20
146.077586
 30
0.0
 11
483.4999999999998
 21
145.5
 31
0.0
  0
LINE
  5
13BD8
330
1378F
100
AcDbEntity
  8
4
  6
CENTER
100
AcDbLine
 10
475.0
 20
128.2499999999998
 30
0.0
 11
475.0
 21
141.7499999999998
 31
0.0
  0
LINE
  5
13BD9
330
1378F
100
AcDbEntity
  8
5
  6
PHANTOM
100
AcDbLine
 10
477.4
 20
134.0
 30
0.0
 11
477.4
 21
136.0
 31
0.0
  0
LINE
  5
13BDA
330
1378F
100
AcDbEntity
  8
4
  6
CENTER
100
AcDbLine
 10
881.0
 20
120.0
 30
0.0
 11
881.0
 21
150.0
 31
0.0
  0
LINE
  5
13BDB
330
1378F
100
AcDbEntity
  8
5
  6
PHANTOM
100
AcDbLine
 10
893.0
 20
145.0
 30
0.0
 11
875.0
 21
145.0
 31
0.0
  0
LINE
  5
13BDC
330
1378F
100
AcDbEntity
  8
5
  6
PHANTOM
100
AcDbLine
 10
889.5527859999999
 20
122.105573
 30
0.0
 11
895.0
 21
133.0
 31
0.0
  0
LINE
  5
13BDD
330
1378F
100
AcDbEntity
  8
4
  6
CENTER
100
AcDbLine
 10
896.0
 20
135.0
 30
0.0
 11
849.2499999999999
 21
135.0
 31
0.0
  0
LINE
  5
13BDE
330
1378F
100
AcDbEntity
  8
4
  6
CENTER
100
AcDbLine
 10
855.0
 20
128.2499999999998
 30
0.0
 11
855.0
 21
141.7499999999998
 31
0.0
  0
LINE
  5
13BDF
330
1378F
100
AcDbEntity
  8
4
  6
CENTER
100
AcDbLine
 10
865.0
 20
129.2499999999998
 30
0.0
 11
865.0
 21
140.7499999999998
 31
0.0
  0
LINE
  5
13BE0
330
1378F
100
AcDbEntity
  8
5
  6
PHANTOM
100
AcDbLine
 10
852.5999999999996
 20
134.0
 30
0.0
 11
852.5999999999996
 21
136.0
 31
0.0
  0
ARC
  5
13BE1
330
1378F
100
AcDbEntity
  8
5
  6
PHANTOM
100
AcDbCircle
 10
855.0
 20
134.0
 30
0.0
 40
2.399999999999999
100
AcDbArc
 50
180.0
 51
0.0
  0
LINE
  5
13BE2
330
1378F
100
AcDbEntity
  8
5
  6
PHANTOM
100
AcDbLine
 10
857.3999999999998
 20
134.0
 30
0.0
 11
857.3999999999998
 21
136.0
 31
0.0
  0
ARC
  5
13BE3
330
1378F
100
AcDbEntity
  8
5
  6
PHANTOM
100
AcDbCircle
 10
855.0
 20
136.0
 30
0.0
 40
2.399999999999999
100
AcDbArc
 50
0.0
 51
180.0
  0
CIRCLE
  5
13BE4
330
1378F
100
AcDbEntity
  8
5
  6
PHANTOM
100
AcDbCircle
 10
865.0
 20
135.0
 30
0.0
 40
2.399999999999999
  0
ARC
  5
13BE5
330
1378F
100
AcDbEntity
  8
5
  6
PHANTOM
100
AcDbCircle
 10
887.7639319999998
 20
123.0
 30
0.0
 40
2.0
100
AcDbArc
 50
270.0
 51
333.434949
  0
LINE
  5
13BE6
330
1378F
100
AcDbEntity
  8
5
  6
PHANTOM
100
AcDbLine
 10
871.0
 20
143.5
 30
0.0
 11
870.0
 21
143.5
 31
0.0
  0
LINE
  5
13BE7
330
1378F
100
AcDbEntity
  8
5
  6
PHANTOM
100
AcDbLine
 10
870.0
 20
143.5
 30
0.0
 11
870.0
 21
145.0
 31
0.0
  0
LINE
  5
13BE8
330
1378F
100
AcDbEntity
  8
5
  6
PHANTOM
100
AcDbLine
 10
871.0
 20
143.5
 30
0.0
 11
875.0
 21
145.0
 31
0.0
  0
CIRCLE
  5
13BE9
330
1378F
100
AcDbEntity
  8
5
  6
PHANTOM
100
AcDbCircle
 10
881.0
 20
135.0
 30
0.0
 40
5.0
  0
CIRCLE
  5
13BEA
330
1378F
100
AcDbEntity
  8
5
  6
PHANTOM
100
AcDbCircle
 10
881.0
 20
135.0
 30
0.0
 40
3.0
  0
ARC
  5
13BEB
330
1378F
100
AcDbEntity
  8
5
  6
PHANTOM
100
AcDbCircle
 10
881.0
 20
135.0
 30
0.0
 40
11.0
100
AcDbArc
 50
65.38002299999999
 51
114.619977
  0
ARC
  5
13BEC
330
1378F
100
AcDbEntity
  8
5
  6
PHANTOM
100
AcDbCircle
 10
881.0
 20
135.0
 30
0.0
 40
11.0
100
AcDbArc
 50
114.619977
 51
65.38002299999999
  0
ARC
  5
13BED
330
1378F
100
AcDbEntity
  8
5
  6
PHANTOM
100
AcDbCircle
 10
893.0
 20
143.0
 30
0.0
 40
2.0
100
AcDbArc
 50
0.0
 51
90.0
  0
LINE
  5
13BEE
330
1378F
100
AcDbEntity
  8
5
  6
PHANTOM
100
AcDbLine
 10
895.0
 20
133.0
 30
0.0
 11
895.0
 21
136.4999999999998
 31
0.0
  0
CIRCLE
  5
13BEF
330
1378F
100
AcDbEntity
  8
5
  6
PHANTOM
100
AcDbCircle
 10
881.0
 20
535.0
 30
0.0
 40
11.0
  0
LINE
  5
13BF0
330
1378F
100
AcDbEntity
  8
4
  6
CENTER
100
AcDbLine
 10
865.0
 20
529.25
 30
0.0
 11
865.0
 21
540.7499999999998
 31
0.0
  0
LINE
  5
13BF1
330
1378F
100
AcDbEntity
  8
4
  6
CENTER
100
AcDbLine
 10
855.0
 20
528.2499999999998
 30
0.0
 11
855.0
 21
541.75
 31
0.0
  0
LINE
  5
13BF2
330
1378F
100
AcDbEntity
  8
5
  6
PHANTOM
100
AcDbLine
 10
965.0
 20
145.0
 30
0.0
 11
973.0
 21
145.0
 31
0.0
  0
ARC
  5
13BF3
330
1378F
100
AcDbEntity
  8
5
  6
PHANTOM
100
AcDbCircle
 10
966.5
 20
146.0
 30
0.0
 40
1.5
100
AcDbArc
 50
90.0
 51
180.0
  0
LINE
  5
13BF4
330
1378F
100
AcDbEntity
  8
5
  6
PHANTOM
100
AcDbLine
 10
973.0
 20
147.5
 30
0.0
 11
970.5
 21
147.5
 31
0.0
  0
LINE
  5
13BF5
330
1378F
100
AcDbEntity
  8
5
  6
PHANTOM
100
AcDbLine
 10
965.0
 20
121.0
 30
0.0
 11
965.0
 21
123.5
 31
0.0
  0
LINE
  5
13BF6
330
1378F
100
AcDbEntity
  8
5
  6
PHANTOM
100
AcDbLine
 10
966.5
 20
121.0
 30
0.0
 11
966.5
 21
123.5
 31
0.0
  0
LINE
  5
13BF7
330
1378F
100
AcDbEntity
  8
5
  6
PHANTOM
100
AcDbLine
 10
973.0
 20
145.0
 30
0.0
 11
973.0
 21
147.5
 31
0.0
  0
LINE
  5
13BF8
330
1378F
100
AcDbEntity
  8
5
  6
PHANTOM
100
AcDbLine
 10
965.0
 20
121.0
 30
0.0
 11
966.5
 21
121.0
 31
0.0
  0
LINE
  5
13BF9
330
1378F
100
AcDbEntity
  8
5
  6
PHANTOM
100
AcDbLine
 10
29.5
 20
147.5
 30
0.0
 11
36.0
 21
147.5
 31
0.0
  0
LINE
  5
13BFA
330
1378F
100
AcDbEntity
  8
5
  6
PHANTOM
100
AcDbLine
 10
36.0
 20
121.0
 30
0.0
 11
36.0
 21
123.5
 31
0.0
  0
LINE
  5
13BFB
330
1378F
100
AcDbEntity
  8
5
  6
PHANTOM
100
AcDbLine
 10
37.5
 20
121.0
 30
0.0
 11
37.5
 21
123.5
 31
0.0
  0
ARC
  5
13BFC
330
1378F
100
AcDbEntity
  8
5
  6
PHANTOM
100
AcDbCircle
 10
36.0
 20
146.0
 30
0.0
 40
1.5
100
AcDbArc
 50
0.0
 51
90.0
  0
LINE
  5
13BFD
330
1378F
100
AcDbEntity
  8
5
  6
PHANTOM
100
AcDbLine
 10
29.5
 20
143.5
 30
0.0
 11
29.5
 21
146.0
 31
0.0
  0
LINE
  5
13BFE
330
1378F
100
AcDbEntity
  8
5
  6
PHANTOM
100
AcDbLine
 10
36.0
 20
143.5
 30
0.0
 11
29.5
 21
143.5
 31
0.0
  0
LINE
  5
13BFF
330
1378F
100
AcDbEntity
  8
5
  6
PHANTOM
100
AcDbLine
 10
37.5
 20
121.0
 30
0.0
 11
36.0
 21
121.0
 31
0.0
  0
LINE
  5
13C00
330
1378F
100
AcDbEntity
  8
1
  6
Continuous
100
AcDbLine
 10
27.0
 20
126.5
 30
0.0
 11
27.0
 21
129.0
 31
0.0
  0
LINE
  5
13C01
330
1378F
100
AcDbEntity
  8
5
  6
PHANTOM
100
AcDbLine
 10
977.5
 20
521.0
 30
0.0
 11
977.5
 21
523.5
 31
0.0
  0
ARC
  5
13C02
330
1378F
100
AcDbEntity
  8
5
  6
PHANTOM
100
AcDbCircle
 10
976.0
 20
546.0
 30
0.0
 40
1.5
100
AcDbArc
 50
0.0
 51
90.0
  0
LINE
  5
13C03
330
1378F
100
AcDbEntity
  8
5
  6
PHANTOM
100
AcDbLine
 10
977.5
 20
545.0
 30
0.0
 11
968.0
 21
545.0
 31
0.0
  0
LINE
  5
13C04
330
1378F
100
AcDbEntity
  8
5
  6
PHANTOM
100
AcDbLine
 10
976.0
 20
539.0
 30
0.0
 11
976.0
 21
541.5
 31
0.0
  0
LINE
  5
13C05
330
1378F
100
AcDbEntity
  8
5
  6
PHANTOM
100
AcDbLine
 10
968.0
 20
547.5
 30
0.0
 11
972.0
 21
547.5
 31
0.0
  0
LINE
  5
13C06
330
1378F
100
AcDbEntity
  8
5
  6
PHANTOM
100
AcDbLine
 10
977.5
 20
539.0
 30
0.0
 11
968.0
 21
539.0
 31
0.0
  0
LINE
  5
13C07
330
1378F
100
AcDbEntity
  8
5
  6
PHANTOM
100
AcDbLine
 10
968.0
 20
529.0
 30
0.0
 11
968.0
 21
531.5
 31
0.0
  0
LINE
  5
13C08
330
1378F
100
AcDbEntity
  8
5
  6
PHANTOM
100
AcDbLine
 10
976.0
 20
521.0
 30
0.0
 11
976.0
 21
523.5
 31
0.0
  0
LINE
  5
13C09
330
1378F
100
AcDbEntity
  8
5
  6
PHANTOM
100
AcDbLine
 10
977.5
 20
529.0
 30
0.0
 11
968.0
 21
529.0
 31
0.0
  0
LINE
  5
13C0A
330
1378F
100
AcDbEntity
  8
5
  6
PHANTOM
100
AcDbLine
 10
977.5
 20
521.0
 30
0.0
 11
976.0
 21
521.0
 31
0.0
  0
LINE
  5
13C0B
330
1378F
100
AcDbEntity
  8
5
  6
PHANTOM
100
AcDbLine
 10
968.0
 20
545.0
 30
0.0
 11
968.0
 21
547.5
 31
0.0
  0
LINE
  5
13C0C
330
1378F
100
AcDbEntity
  8
5
  6
PHANTOM
100
AcDbLine
 10
34.5
 20
540.0
 30
0.0
 11
34.5
 21
542.4999999999998
 31
0.0
  0
LINE
  5
13C0D
330
1378F
100
AcDbEntity
  8
5
  6
PHANTOM
100
AcDbLine
 10
33.0
 20
540.0
 30
0.0
 11
34.5
 21
540.0
 31
0.0
  0
ARC
  5
13C0E
330
1378F
100
AcDbEntity
  8
5
  6
PHANTOM
100
AcDbCircle
 10
33.0
 20
546.0
 30
0.0
 40
1.5
100
AcDbArc
 50
0.0
 51
90.0
  0
LINE
  5
13C0F
330
1378F
100
AcDbEntity
  8
5
  6
PHANTOM
100
AcDbLine
 10
33.0
 20
547.5
 30
0.0
 11
26.5
 21
547.5
 31
0.0
  0
LINE
  5
13C10
330
1378F
100
AcDbEntity
  8
5
  6
PHANTOM
100
AcDbLine
 10
33.0
 20
540.0
 30
0.0
 11
33.0
 21
541.0
 31
0.0
  0
LINE
  5
13C11
330
1378F
100
AcDbEntity
  8
5
  6
PHANTOM
100
AcDbLine
 10
26.5
 20
543.5
 30
0.0
 11
33.0
 21
543.5
 31
0.0
  0
LINE
  5
13C12
330
1378F
100
AcDbEntity
  8
5
  6
PHANTOM
100
AcDbLine
 10
26.5
 20
521.0
 30
0.0
 11
26.5
 21
523.5
 31
0.0
  0
LINE
  5
13C13
330
1378F
100
AcDbEntity
  8
5
  6
PHANTOM
100
AcDbLine
 10
25.0
 20
521.0
 30
0.0
 11
25.0
 21
523.5
 31
0.0
  0
ARC
  5
13C14
330
1378F
100
AcDbEntity
  8
5
  6
PHANTOM
100
AcDbCircle
 10
26.5
 20
546.0
 30
0.0
 40
1.5
100
AcDbArc
 50
90.0
 51
180.0
  0
LINE
  5
13C15
330
1378F
100
AcDbEntity
  8
5
  6
PHANTOM
100
AcDbLine
 10
25.0
 20
521.0
 30
0.0
 11
26.5
 21
521.0
 31
0.0
  0
LINE
  5
13C16
330
1378F
100
AcDbEntity
  8
4
  6
CENTER
100
AcDbLine
 10
225.0
 20
722.75
 30
0.0
 11
225.0
 21
711.2499999999997
 31
0.0
  0
CIRCLE
  5
13C17
330
1378F
100
AcDbEntity
  8
1
  6
Continuous
100
AcDbCircle
 10
225.0
 20
717.0
 30
0.0
 40
2.399999999999999
  0
LINE
  5
13C18
330
1378F
100
AcDbEntity
  8
4
  6
CENTER
100
AcDbLine
 10
219.2499999999999
 20
717.0
 30
0.0
 11
230.75
 21
717.0
 31
0.0
  0
LINE
  5
13C19
330
1378F
100
AcDbEntity
  8
4
  6
CENTER
100
AcDbLine
 10
225.0
 20
636.5
 30
0.0
 11
225.0
 21
630.0
 31
0.0
  0
LINE
  5
13C1A
330
1378F
100
AcDbEntity
  8
4
  6
CENTER
100
AcDbLine
 10
225.0
 20
438.0
 30
0.0
 11
225.0
 21
444.5
 31
0.0
  0
CIRCLE
  5
13C1B
330
1378F
100
AcDbEntity
  8
1
  6
Continuous
100
AcDbCircle
 10
225.0
 20
537.5
 30
0.0
 40
2.399999999999999
  0
CIRCLE
  5
13C1C
330
1378F
100
AcDbEntity
  8
1
  6
Continuous
100
AcDbCircle
 10
225.0
 20
537.5
 30
0.0
 40
3.75
  0
LINE
  5
13C1D
330
1378F
100
AcDbEntity
  8
4
  6
CENTER
100
AcDbLine
 10
225.0
 20
531.7499999999999
 30
0.0
 11
225.0
 21
543.25
 31
0.0
  0
LINE
  5
13C1E
330
1378F
100
AcDbEntity
  8
4
  6
CENTER
100
AcDbLine
 10
230.75
 20
537.5
 30
0.0
 11
219.2499999999999
 21
537.5
 31
0.0
  0
LINE
  5
13C1F
330
1378F
100
AcDbEntity
  8
4
  6
CENTER
100
AcDbLine
 10
755.0
 20
725.25
 30
0.0
 11
755.0
 21
713.75
 31
0.0
  0
CIRCLE
  5
13C20
330
1378F
100
AcDbEntity
  8
1
  6
Continuous
100
AcDbCircle
 10
755.0
 20
719.5
 30
0.0
 40
2.399999999999999
  0
CIRCLE
  5
13C21
330
1378F
100
AcDbEntity
  8
1
  6
Continuous
100
AcDbCircle
 10
755.0
 20
719.5
 30
0.0
 40
3.75
  0
LINE
  5
13C22
330
1378F
100
AcDbEntity
  8
4
  6
CENTER
100
AcDbLine
 10
749.2499999999998
 20
719.5
 30
0.0
 11
760.7499999999999
 21
719.5
 31
0.0
  0
LINE
  5
13C23
330
1378F
100
AcDbEntity
  8
4
  6
CENTER
100
AcDbLine
 10
755.0
 20
618.0
 30
0.0
 11
755.0
 21
624.5
 31
0.0
  0
LINE
  5
13C24
330
1378F
100
AcDbEntity
  8
4
  6
CENTER
100
AcDbLine
 10
755.0
 20
456.5
 30
0.0
 11
755.0
 21
450.0
 31
0.0
  0
CIRCLE
  5
13C25
330
1378F
100
AcDbEntity
  8
1
  6
Continuous
100
AcDbCircle
 10
755.0
 20
535.0
 30
0.0
 40
2.399999999999999
  0
LINE
  5
13C26
330
1378F
100
AcDbEntity
  8
4
  6
CENTER
100
AcDbLine
 10
755.0
 20
529.25
 30
0.0
 11
755.0
 21
540.7499999999998
 31
0.0
  0
CIRCLE
  5
13C27
330
1378F
100
AcDbEntity
  8
3
  6
DASHED
100
AcDbCircle
 10
541.0
 20
537.5
 30
0.0
 40
11.0
  0
LINE
  5
13C28
330
1378F
100
AcDbEntity
  8
3
  6
DASHED
100
AcDbLine
 10
487.9167019999998
 20
546.0
 30
0.0
 11
476.0201059999998
 21
546.0
 31
0.0
  0
LINE
  5
13C29
330
1378F
100
AcDbEntity
  8
3
  6
DASHED
100
AcDbLine
 10
472.7823299999998
 20
545.5
 30
0.0
 11
470.0323299999998
 21
547.5
 31
0.0
  0
LINE
  5
13C2A
330
1378F
100
AcDbEntity
  8
3
  6
DASHED
100
AcDbLine
 10
472.7823299999998
 20
545.5
 30
0.0
 11
475.5323299999998
 21
547.5
 31
0.0
  0
LINE
  5
13C2B
330
1378F
100
AcDbEntity
  8
3
  6
DASHED
100
AcDbLine
 10
469.544554
 20
546.0
 30
0.0
 11
450.4999999999998
 21
546.0
 31
0.0
  0
LINE
  5
13C2C
330
1378F
100
AcDbEntity
  8
3
  6
DASHED
100
AcDbLine
 10
530.0
 20
629.0
 30
0.0
 11
530.0
 21
623.0
 31
0.0
  0
LINE
  5
13C2D
330
1378F
100
AcDbEntity
  8
3
  6
DASHED
100
AcDbLine
 10
519.0
 20
624.0
 30
0.0
 11
530.0
 21
624.0
 31
0.0
  0
LINE
  5
13C2E
330
1378F
100
AcDbEntity
  8
1
  6
Continuous
100
AcDbLine
 10
553.5
 20
630.4999999999997
 30
0.0
 11
547.0
 21
630.4999999999997
 31
0.0
  0
LINE
  5
13C2F
330
1378F
100
AcDbEntity
  8
1
  6
Continuous
100
AcDbLine
 10
535.0
 20
630.4999999999997
 30
0.0
 11
530.0
 21
630.4999999999997
 31
0.0
  0
LINE
  5
13C30
330
1378F
100
AcDbEntity
  8
4
  6
CENTER
100
AcDbLine
 10
635.7499999999999
 20
535.0
 30
0.0
 11
624.2499999999997
 21
535.0
 31
0.0
  0
LINE
  5
13C31
330
1378F
100
AcDbEntity
  8
4
  6
CENTER
100
AcDbLine
 10
570.75
 20
535.0
 30
0.0
 11
559.25
 21
535.0
 31
0.0
  0
LINE
  5
13C32
330
1378F
100
AcDbEntity
  8
4
  6
CENTER
100
AcDbLine
 10
565.0
 20
529.25
 30
0.0
 11
565.0
 21
540.7499999999998
 31
0.0
  0
CIRCLE
  5
13C33
330
1378F
100
AcDbEntity
  8
5
  6
PHANTOM
100
AcDbCircle
 10
565.0
 20
535.0
 30
0.0
 40
3.75
  0
CIRCLE
  5
13C34
330
1378F
100
AcDbEntity
  8
5
  6
PHANTOM
100
AcDbCircle
 10
565.0
 20
535.0
 30
0.0
 40
2.399999999999999
  0
CIRCLE
  5
13C35
330
1378F
100
AcDbEntity
  8
5
  6
PHANTOM
100
AcDbCircle
 10
765.0
 20
535.0
 30
0.0
 40
2.399999999999999
  0
CIRCLE
  5
13C36
330
1378F
100
AcDbEntity
  8
5
  6
PHANTOM
100
AcDbCircle
 10
765.0
 20
535.0
 30
0.0
 40
3.75
  0
LINE
  5
13C37
330
1378F
100
AcDbEntity
  8
4
  6
CENTER
100
AcDbLine
 10
770.75
 20
535.0
 30
0.0
 11
749.2499999999998
 21
535.0
 31
0.0
  0
LINE
  5
13C38
330
1378F
100
AcDbEntity
  8
5
  6
PHANTOM
100
AcDbLine
 10
758.75
 20
534.0
 30
0.0
 11
758.75
 21
536.0
 31
0.0
  0
LINE
  5
13C39
330
1378F
100
AcDbEntity
  8
5
  6
PHANTOM
100
AcDbLine
 10
752.6
 20
534.0
 30
0.0
 11
752.6
 21
536.0
 31
0.0
  0
LINE
  5
13C3A
330
1378F
100
AcDbEntity
  8
5
  6
PHANTOM
100
AcDbLine
 10
757.3999999999998
 20
534.0
 30
0.0
 11
757.3999999999998
 21
536.0
 31
0.0
  0
ARC
  5
13C3B
330
1378F
100
AcDbEntity
  8
5
  6
PHANTOM
100
AcDbCircle
 10
755.0
 20
534.0
 30
0.0
 40
2.399999999999999
100
AcDbArc
 50
180.0
 51
0.0
  0
ARC
  5
13C3C
330
1378F
100
AcDbEntity
  8
5
  6
PHANTOM
100
AcDbCircle
 10
755.0
 20
536.0
 30
0.0
 40
2.399999999999999
100
AcDbArc
 50
0.0
 51
180.0
  0
LINE
  5
13C3D
330
1378F
100
AcDbEntity
  8
5
  6
PHANTOM
100
AcDbLine
 10
751.25
 20
534.0
 30
0.0
 11
751.25
 21
536.0
 31
0.0
  0
ARC
  5
13C3E
330
1378F
100
AcDbEntity
  8
5
  6
PHANTOM
100
AcDbCircle
 10
755.0
 20
534.0
 30
0.0
 40
3.75
100
AcDbArc
 50
180.0
 51
0.0
  0
ARC
  5
13C3F
330
1378F
100
AcDbEntity
  8
5
  6
PHANTOM
100
AcDbCircle
 10
755.0
 20
536.0
 30
0.0
 40
3.75
100
AcDbArc
 50
0.0
 51
180.0
  0
LINE
  5
13C40
330
1378F
100
AcDbEntity
  8
4
  6
CENTER
100
AcDbLine
 10
765.0
 20
529.25
 30
0.0
 11
765.0
 21
540.7499999999998
 31
0.0
  0
ARC
  5
13C41
330
1378F
100
AcDbEntity
  8
5
  6
PHANTOM
100
AcDbCircle
 10
855.0
 20
536.0
 30
0.0
 40
3.75
100
AcDbArc
 50
0.0
 51
180.0
  0
ARC
  5
13C42
330
1378F
100
AcDbEntity
  8
5
  6
PHANTOM
100
AcDbCircle
 10
855.0
 20
534.0
 30
0.0
 40
3.75
100
AcDbArc
 50
180.0
 51
0.0
  0
LINE
  5
13C43
330
1378F
100
AcDbEntity
  8
5
  6
PHANTOM
100
AcDbLine
 10
851.2499999999999
 20
534.0
 30
0.0
 11
851.2499999999999
 21
536.0
 31
0.0
  0
ARC
  5
13C44
330
1378F
100
AcDbEntity
  8
5
  6
PHANTOM
100
AcDbCircle
 10
855.0
 20
536.0
 30
0.0
 40
2.399999999999999
100
AcDbArc
 50
0.0
 51
180.0
  0
ARC
  5
13C45
330
1378F
100
AcDbEntity
  8
5
  6
PHANTOM
100
AcDbCircle
 10
855.0
 20
534.0
 30
0.0
 40
2.399999999999999
100
AcDbArc
 50
180.0
 51
0.0
  0
LINE
  5
13C46
330
1378F
100
AcDbEntity
  8
5
  6
PHANTOM
100
AcDbLine
 10
857.3999999999998
 20
534.0
 30
0.0
 11
857.3999999999998
 21
536.0
 31
0.0
  0
LINE
  5
13C47
330
1378F
100
AcDbEntity
  8
5
  6
PHANTOM
100
AcDbLine
 10
852.5999999999996
 20
534.0
 30
0.0
 11
852.5999999999996
 21
536.0
 31
0.0
  0
LINE
  5
13C48
330
1378F
100
AcDbEntity
  8
5
  6
PHANTOM
100
AcDbLine
 10
858.75
 20
534.0
 30
0.0
 11
858.75
 21
536.0
 31
0.0
  0
CIRCLE
  5
13C49
330
1378F
100
AcDbEntity
  8
5
  6
PHANTOM
100
AcDbCircle
 10
865.0
 20
535.0
 30
0.0
 40
3.75
  0
CIRCLE
  5
13C4A
330
1378F
100
AcDbEntity
  8
5
  6
PHANTOM
100
AcDbCircle
 10
865.0
 20
535.0
 30
0.0
 40
2.399999999999999
  0
LINE
  5
13C4B
330
1378F
100
AcDbEntity
  8
4
  6
CENTER
100
AcDbLine
 10
755.0
 20
236.5
 30
0.0
 11
755.0
 21
230.0
 31
0.0
  0
CIRCLE
  5
13C4C
330
1378F
100
AcDbEntity
  8
1
  6
Continuous
100
AcDbCircle
 10
755.0
 20
319.5
 30
0.0
 40
2.399999999999999
  0
LINE
  5
13C4D
330
1378F
100
AcDbEntity
  8
4
  6
CENTER
100
AcDbLine
 10
755.0
 20
325.2499999999999
 30
0.0
 11
755.0
 21
313.75
 31
0.0
  0
LINE
  5
13C4E
330
1378F
100
AcDbEntity
  8
4
  6
CENTER
100
AcDbLine
 10
749.2499999999998
 20
319.5
 30
0.0
 11
760.7499999999999
 21
319.5
 31
0.0
  0
LINE
  5
13C4F
330
1378F
100
AcDbEntity
  8
4
  6
CENTER
100
AcDbLine
 10
755.0
 20
129.2499999999998
 30
0.0
 11
755.0
 21
140.7499999999998
 31
0.0
  0
CIRCLE
  5
13C50
330
1378F
100
AcDbEntity
  8
1
  6
Continuous
100
AcDbCircle
 10
755.0
 20
135.0
 30
0.0
 40
3.75
  0
CIRCLE
  5
13C51
330
1378F
100
AcDbEntity
  8
1
  6
Continuous
100
AcDbCircle
 10
755.0
 20
135.0
 30
0.0
 40
2.399999999999999
  0
LINE
  5
13C52
330
1378F
100
AcDbEntity
  8
4
  6
CENTER
100
AcDbLine
 10
225.0
 20
218.0
 30
0.0
 11
225.0
 21
224.5
 31
0.0
  0
LINE
  5
13C53
330
1378F
100
AcDbEntity
  8
4
  6
CENTER
100
AcDbLine
 10
225.0
 20
322.75
 30
0.0
 11
225.0
 21
311.25
 31
0.0
  0
CIRCLE
  5
13C54
330
1378F
100
AcDbEntity
  8
1
  6
Continuous
100
AcDbCircle
 10
225.0
 20
317.0
 30
0.0
 40
3.75
  0
CIRCLE
  5
13C55
330
1378F
100
AcDbEntity
  8
1
  6
Continuous
100
AcDbCircle
 10
225.0
 20
317.0
 30
0.0
 40
2.399999999999999
  0
LINE
  5
13C56
330
1378F
100
AcDbEntity
  8
4
  6
CENTER
100
AcDbLine
 10
219.2499999999999
 20
317.0
 30
0.0
 11
230.75
 21
317.0
 31
0.0
  0
LINE
  5
13C57
330
1378F
100
AcDbEntity
  8
4
  6
CENTER
100
AcDbLine
 10
225.0
 20
56.5
 30
0.0
 11
225.0
 21
50.0
 31
0.0
  0
LINE
  5
13C58
330
1378F
100
AcDbEntity
  8
4
  6
CENTER
100
AcDbLine
 10
225.0
 20
131.75
 30
0.0
 11
225.0
 21
143.25
 31
0.0
  0
CIRCLE
  5
13C59
330
1378F
100
AcDbEntity
  8
1
  6
Continuous
100
AcDbCircle
 10
225.0
 20
137.5
 30
0.0
 40
2.399999999999999
  0
LINE
  5
13C5A
330
1378F
100
AcDbEntity
  8
4
  6
CENTER
100
AcDbLine
 10
230.75
 20
137.5
 30
0.0
 11
219.2499999999999
 21
137.5
 31
0.0
  0
CIRCLE
  5
13C5B
330
1378F
100
AcDbEntity
  8
3
  6
DASHED
100
AcDbCircle
 10
541.0
 20
317.0
 30
0.0
 40
11.0
  0
LINE
  5
13C5C
330
1378F
100
AcDbEntity
  8
3
  6
DASHED
100
AcDbLine
 10
549.75
 20
329.4999999999999
 30
0.0
 11
555.0
 21
319.0
 31
0.0
  0
LINE
  5
13C5D
330
1378F
100
AcDbEntity
  8
4
  6
CENTER
100
AcDbLine
 10
755.0
 20
38.0
 30
0.0
 11
755.0
 21
44.5
 31
0.0
  0
LINE
  5
13C5E
330
1378F
100
AcDbEntity
  8
3
  6
DASHED
100
AcDbLine
 10
530.0
 20
225.4999999999999
 30
0.0
 11
530.0
 21
231.4999999999999
 31
0.0
  0
ARC
  5
13C5F
330
1378F
100
AcDbEntity
  8
3
  6
DASHED
100
AcDbCircle
 10
528.0
 20
227.0
 30
0.0
 40
2.0
100
AcDbArc
 50
0.0
 51
90.0
  0
LINE
  5
13C60
330
1378F
100
AcDbEntity
  8
4
  6
CENTER
100
AcDbLine
 10
635.7499999999999
 20
135.0
 30
0.0
 11
624.2499999999997
 21
135.0
 31
0.0
  0
LINE
  5
13C61
330
1378F
100
AcDbEntity
  8
4
  6
CENTER
100
AcDbLine
 10
570.75
 20
135.0
 30
0.0
 11
559.25
 21
135.0
 31
0.0
  0
CIRCLE
  5
13C62
330
1378F
100
AcDbEntity
  8
5
  6
PHANTOM
100
AcDbCircle
 10
565.0
 20
135.0
 30
0.0
 40
2.399999999999999
  0
LINE
  5
13C63
330
1378F
100
AcDbEntity
  8
4
  6
CENTER
100
AcDbLine
 10
565.0
 20
129.2499999999998
 30
0.0
 11
565.0
 21
140.7499999999998
 31
0.0
  0
CIRCLE
  5
13C64
330
1378F
100
AcDbEntity
  8
5
  6
PHANTOM
100
AcDbCircle
 10
765.0
 20
135.0
 30
0.0
 40
2.399999999999999
  0
LINE
  5
13C65
330
1378F
100
AcDbEntity
  8
4
  6
CENTER
100
AcDbLine
 10
770.75
 20
135.0
 30
0.0
 11
749.2499999999998
 21
135.0
 31
0.0
  0
LINE
  5
13C66
330
1378F
100
AcDbEntity
  8
5
  6
PHANTOM
100
AcDbLine
 10
757.3999999999998
 20
134.0
 30
0.0
 11
757.3999999999998
 21
136.0
 31
0.0
  0
LINE
  5
13C67
330
1378F
100
AcDbEntity
  8
4
  6
CENTER
100
AcDbLine
 10
765.0
 20
129.2499999999998
 30
0.0
 11
765.0
 21
140.7499999999998
 31
0.0
  0
LINE
  5
13C68
330
1378F
100
AcDbEntity
  8
5
  6
PHANTOM
100
AcDbLine
 10
752.6
 20
134.0
 30
0.0
 11
752.6
 21
136.0
 31
0.0
  0
ARC
  5
13C69
330
1378F
100
AcDbEntity
  8
5
  6
PHANTOM
100
AcDbCircle
 10
755.0
 20
136.0
 30
0.0
 40
2.399999999999999
100
AcDbArc
 50
0.0
 51
180.0
  0
ARC
  5
13C6A
330
1378F
100
AcDbEntity
  8
5
  6
PHANTOM
100
AcDbCircle
 10
755.0
 20
134.0
 30
0.0
 40
2.399999999999999
100
AcDbArc
 50
180.0
 51
0.0
  0
LINE
  5
13C6B
330
1378F
100
AcDbEntity
  8
4
  6
CENTER
100
AcDbLine
 10
525.0
 20
722.4
 30
0.0
 11
525.0
 21
711.6
 31
0.0
  0
LINE
  5
13C6C
330
1378F
100
AcDbEntity
  8
4
  6
CENTER
100
AcDbLine
 10
515.0
 20
725.9
 30
0.0
 11
515.0
 21
710.7550149999998
 31
0.0
  0
LINE
  5
13C6D
330
1378F
100
AcDbEntity
  8
4
  6
CENTER
100
AcDbLine
 10
505.0
 20
724.8999999999997
 30
0.0
 11
505.0
 21
714.1
 31
0.0
  0
LINE
  5
13C6E
330
1378F
100
AcDbEntity
  8
4
  6
CENTER
100
AcDbLine
 10
525.0
 20
532.1
 30
0.0
 11
525.0
 21
542.9
 31
0.0
  0
LINE
  5
13C6F
330
1378F
100
AcDbEntity
  8
4
  6
CENTER
100
AcDbLine
 10
515.0
 20
325.7592049999999
 30
0.0
 11
515.0
 21
310.6
 31
0.0
  0
LINE
  5
13C70
330
1378F
100
AcDbEntity
  8
4
  6
CENTER
100
AcDbLine
 10
525.0
 20
322.3999999999999
 30
0.0
 11
525.0
 21
311.6
 31
0.0
  0
LINE
  5
13C71
330
1378F
100
AcDbEntity
  8
3
  6
DASHED
100
AcDbLine
 10
519.0
 20
229.0
 30
0.0
 11
528.0
 21
229.0
 31
0.0
  0
LINE
  5
13C72
330
1378F
100
AcDbEntity
  8
4
  6
CENTER
100
AcDbLine
 10
505.0
 20
129.6
 30
0.0
 11
505.0
 21
140.4
 31
0.0
  0
LINE
  5
13C73
330
1378F
100
AcDbEntity
  8
4
  6
CENTER
100
AcDbLine
 10
515.0
 20
128.6
 30
0.0
 11
515.0
 21
143.6508419999998
 31
0.0
  0
CIRCLE
  5
13C74
330
1378F
100
AcDbEntity
  8
1
  6
Continuous
100
AcDbCircle
 10
325.0
 20
717.0
 30
0.0
 40
2.399999999999999
  0
LINE
  5
13C75
330
1378F
100
AcDbEntity
  8
4
  6
CENTER
100
AcDbLine
 10
319.2499999999999
 20
717.0
 30
0.0
 11
330.75
 21
717.0
 31
0.0
  0
LINE
  5
13C76
330
1378F
100
AcDbEntity
  8
4
  6
CENTER
100
AcDbLine
 10
325.0
 20
722.75
 30
0.0
 11
325.0
 21
711.2499999999997
 31
0.0
  0
LINE
  5
13C77
330
1378F
100
AcDbEntity
  8
4
  6
CENTER
100
AcDbLine
 10
325.0
 20
636.5
 30
0.0
 11
325.0
 21
630.0
 31
0.0
  0
LINE
  5
13C78
330
1378F
100
AcDbEntity
  8
4
  6
CENTER
100
AcDbLine
 10
325.0
 20
438.0
 30
0.0
 11
325.0
 21
444.5
 31
0.0
  0
CIRCLE
  5
13C79
330
1378F
100
AcDbEntity
  8
1
  6
Continuous
100
AcDbCircle
 10
325.0
 20
537.5
 30
0.0
 40
2.399999999999999
  0
CIRCLE
  5
13C7A
330
1378F
100
AcDbEntity
  8
1
  6
Continuous
100
AcDbCircle
 10
325.0
 20
537.5
 30
0.0
 40
3.75
  0
LINE
  5
13C7B
330
1378F
100
AcDbEntity
  8
4
  6
CENTER
100
AcDbLine
 10
330.75
 20
537.5
 30
0.0
 11
319.2499999999999
 21
537.5
 31
0.0
  0
LINE
  5
13C7C
330
1378F
100
AcDbEntity
  8
4
  6
CENTER
100
AcDbLine
 10
325.0
 20
531.7499999999999
 30
0.0
 11
325.0
 21
543.25
 31
0.0
  0
CIRCLE
  5
13C7D
330
1378F
100
AcDbEntity
  8
1
  6
Continuous
100
AcDbCircle
 10
325.0
 20
317.0
 30
0.0
 40
3.75
  0
CIRCLE
  5
13C7E
330
1378F
100
AcDbEntity
  8
1
  6
Continuous
100
AcDbCircle
 10
325.0
 20
317.0
 30
0.0
 40
2.399999999999999
  0
LINE
  5
13C7F
330
1378F
100
AcDbEntity
  8
4
  6
CENTER
100
AcDbLine
 10
319.2499999999999
 20
317.0
 30
0.0
 11
330.75
 21
317.0
 31
0.0
  0
LINE
  5
13C80
330
1378F
100
AcDbEntity
  8
4
  6
CENTER
100
AcDbLine
 10
325.0
 20
322.75
 30
0.0
 11
325.0
 21
311.25
 31
0.0
  0
LINE
  5
13C81
330
1378F
100
AcDbEntity
  8
4
  6
CENTER
100
AcDbLine
 10
325.0
 20
218.0
 30
0.0
 11
325.0
 21
224.5
 31
0.0
  0
LINE
  5
13C82
330
1378F
100
AcDbEntity
  8
4
  6
CENTER
100
AcDbLine
 10
325.0
 20
56.5
 30
0.0
 11
325.0
 21
50.0
 31
0.0
  0
CIRCLE
  5
13C83
330
1378F
100
AcDbEntity
  8
1
  6
Continuous
100
AcDbCircle
 10
325.0
 20
137.5
 30
0.0
 40
2.399999999999999
  0
LINE
  5
13C84
330
1378F
100
AcDbEntity
  8
4
  6
CENTER
100
AcDbLine
 10
330.75
 20
137.5
 30
0.0
 11
319.2499999999999
 21
137.5
 31
0.0
  0
LINE
  5
13C85
330
1378F
100
AcDbEntity
  8
4
  6
CENTER
100
AcDbLine
 10
325.0
 20
131.75
 30
0.0
 11
325.0
 21
143.25
 31
0.0
  0
LINE
  5
13C86
330
1378F
100
AcDbEntity
  8
4
  6
CENTER
100
AcDbLine
 10
670.75
 20
535.0
 30
0.0
 11
659.25
 21
535.0
 31
0.0
  0
LINE
  5
13C87
330
1378F
100
AcDbEntity
  8
4
  6
CENTER
100
AcDbLine
 10
665.0
 20
529.25
 30
0.0
 11
665.0
 21
540.7499999999998
 31
0.0
  0
CIRCLE
  5
13C88
330
1378F
100
AcDbEntity
  8
5
  6
PHANTOM
100
AcDbCircle
 10
665.0
 20
535.0
 30
0.0
 40
3.75
  0
CIRCLE
  5
13C89
330
1378F
100
AcDbEntity
  8
5
  6
PHANTOM
100
AcDbCircle
 10
665.0
 20
535.0
 30
0.0
 40
2.399999999999999
  0
LINE
  5
13C8A
330
1378F
100
AcDbEntity
  8
4
  6
CENTER
100
AcDbLine
 10
670.75
 20
135.0
 30
0.0
 11
659.25
 21
135.0
 31
0.0
  0
CIRCLE
  5
13C8B
330
1378F
100
AcDbEntity
  8
5
  6
PHANTOM
100
AcDbCircle
 10
665.0
 20
135.0
 30
0.0
 40
2.399999999999999
  0
LINE
  5
13C8C
330
1378F
100
AcDbEntity
  8
4
  6
CENTER
100
AcDbLine
 10
665.0
 20
129.2499999999998
 30
0.0
 11
665.0
 21
140.7499999999998
 31
0.0
  0
LINE
  5
13C8D
330
1378F
100
AcDbEntity
  8
1
  6
Continuous
100
AcDbLine
 10
494.5
 20
453.5
 30
0.0
 11
494.5
 21
452.0
 31
0.0
  0
LINE
  5
13C8E
330
1378F
100
AcDbEntity
  8
1
  6
Continuous
100
AcDbLine
 10
498.5
 20
453.5
 30
0.0
 11
498.5
 21
452.0
 31
0.0
  0
LINE
  5
13C8F
330
1378F
100
AcDbEntity
  8
1
  6
Continuous
100
AcDbLine
 10
494.5
 20
42.5
 30
0.0
 11
494.5
 21
41.0
 31
0.0
  0
LINE
  5
13C90
330
1378F
100
AcDbEntity
  8
1
  6
Continuous
100
AcDbLine
 10
498.5
 20
42.5
 30
0.0
 11
498.5
 21
41.0
 31
0.0
  0
ENDSEC
  0
SECTION
  2
OBJECTS
  0
DICTIONARY
  5
1377D
330
0
100
AcDbDictionary
281
     1
  3
ACAD_CIP_PREVIOUS_PRODUCT_INFO
350
13CF0
  3
ACAD_COLOR
350
13CD2
  3
ACAD_DETAILVIEWSTYLE
350
13CEB
  3
ACAD_GROUP
350
1377E
  3
ACAD_LAYOUT
350
1378A
  3
ACAD_MATERIAL
350
13CA0
  3
ACAD_MLEADERSTYLE
350
13CE7
  3
ACAD_MLINESTYLE
350
13787
  3
ACAD_PLOTSETTINGS
350
13789
  3
ACAD_PLOTSTYLENAME
350
13C9E
  3
ACAD_SCALELIST
350
13CD5
  3
ACAD_SECTIONVIEWSTYLE
350
13CE9
  3
ACAD_TABLESTYLE
350
13CD3
  3
ACAD_VISUALSTYLE
350
13CB9
  3
ACDB_RECOMPOSE_DATA
350
13D0E
  3
AcDbVariableDictionary
350
13D01
  3
DWGPROPS
350
13D0F
  0
DICTIONARY
  5
13CF1
330
13781
100
AcDbDictionary
280
     1
281
     1
  3
ADSK_XREC_LAYER_RECONCILED
360
13CF2
  0
DICTIONARY
  5
13CF3
330
13797
100
AcDbDictionary
280
     1
281
     1
  3
ADSK_XREC_LAYER_RECONCILED
360
13CF4
  0
DICTIONARY
  5
13CF5
330
13798
100
AcDbDictionary
280
     1
281
     1
  3
ADSK_XREC_LAYER_RECONCILED
360
13CF6
  0
DICTIONARY
  5
13CF7
330
13799
100
AcDbDictionary
280
     1
281
     1
  3
ADSK_XREC_LAYER_RECONCILED
360
13CF8
  0
DICTIONARY
  5
13CF9
330
1379A
100
AcDbDictionary
280
     1
281
     1
  3
ADSK_XREC_LAYER_RECONCILED
360
13CFA
  0
DICTIONARY
  5
13CFB
330
1379B
100
AcDbDictionary
280
     1
281
     1
  3
ADSK_XREC_LAYER_RECONCILED
360
13CFC
  0
DICTIONARY
  5
13CFD
330
1379C
100
AcDbDictionary
280
     1
281
     1
  3
ADSK_XREC_LAYER_RECONCILED
360
13CFE
  0
DICTIONARY
  5
13CFF
330
1379D
100
AcDbDictionary
280
     1
281
     1
  3
ADSK_XREC_LAYER_RECONCILED
360
13D00
  0
DICTIONARY
  5
13C99
330
1378F
100
AcDbDictionary
281
     1
  3
ACAD_LAYOUTSELFREF
350
13C9A
  0
DICTIONARY
  5
13C97
330
1378B
100
AcDbDictionary
281
     1
  3
ACAD_LAYOUTSELFREF
350
13C98
  0
XRECORD
  5
13CF0
102
{ACAD_REACTORS
330
1377D
102
}
330
1377D
100
AcDbXrecord
280
     1
300
ACDLT
300
2014
300
ACDLT_F_S
  0
DICTIONARY
  5
13CD2
102
{ACAD_REACTORS
330
1377D
102
}
330
1377D
100
AcDbDictionary
281
     1
  0
DICTIONARY
  5
13CEB
102
{ACAD_REACTORS
330
1377D
102
}
330
1377D
100
AcDbDictionary
281
     1
  3
Imperial24
350
13CEC
  0
DICTIONARY
  5
1377E
102
{ACAD_REACTORS
330
1377D
102
}
330
1377D
100
AcDbDictionary
281
     1
  0
DICTIONARY
  5
1378A
102
{ACAD_REACTORS
330
1377D
102
}
330
1377D
100
AcDbDictionary
281
     1
  3
Model
350
13CED
  3
レイアウト1
350
13CEE
  0
DICTIONARY
  5
13CA0
102
{ACAD_REACTORS
330
1377D
102
}
330
1377D
100
AcDbDictionary
281
     1
  3
ByBlock
350
13CA9
  3
ByLayer
350
13CA1
  3
Global
350
13CB1
  0
DICTIONARY
  5
13CE7
102
{ACAD_REACTORS
330
1377D
102
}
330
1377D
100
AcDbDictionary
281
     1
  3
Standard
350
13CE8
  0
DICTIONARY
  5
13787
102
{ACAD_REACTORS
330
1377D
102
}
330
1377D
100
AcDbDictionary
281
     1
  3
STANDARD
350
13788
  0
DICTIONARY
  5
13789
102
{ACAD_REACTORS
330
1377D
102
}
330
1377D
100
AcDbDictionary
281
     1
  0
ACDBDICTIONARYWDFLT
  5
13C9E
102
{ACAD_REACTORS
330
1377D
102
}
330
1377D
100
AcDbDictionary
281
     1
  3
Normal
350
13C9F
100
AcDbDictionaryWithDefault
340
13C9F
  0
DICTIONARY
  5
13CD5
102
{ACAD_REACTORS
330
1377D
102
}
330
1377D
100
AcDbDictionary
281
     1
  3
A0
350
13CD6
  3
A1
350
13CD7
  3
A2
350
13CD8
  3
A3
350
13CD9
  3
A4
350
13CDA
  3
A5
350
13CDB
  3
A6
350
13CDC
  3
A7
350
13CDD
  3
A8
350
13CDE
  3
A9
350
13CDF
  3
B0
350
13CE0
  3
B1
350
13CE1
  3
B2
350
13CE2
  3
B3
350
13CE3
  3
B4
350
13CE4
  3
B5
350
13CE5
  3
B6
350
13CE6
  0
DICTIONARY
  5
13CE9
102
{ACAD_REACTORS
330
1377D
102
}
330
1377D
100
AcDbDictionary
281
     1
  3
Imperial24
350
13CEA
  0
DICTIONARY
  5
13CD3
102
{ACAD_REACTORS
330
1377D
102
}
330
1377D
100
AcDbDictionary
281
     1
  3
Standard
350
13CD4
  0
DICTIONARY
  5
13CB9
102
{ACAD_REACTORS
330
1377D
102
}
330
1377D
100
AcDbDictionary
281
     1
  3
2dWireframe
350
13CBF
  3
Basic
350
13CBE
  3
Brighten
350
13CC5
  3
ColorChange
350
13CC9
  3
Conceptual
350
13CC2
  3
Dim
350
13CC4
  3
EdgeColorOff
350
13CD1
  3
Facepattern
350
13CC8
  3
Flat
350
13CBA
  3
FlatWithEdges
350
13CBB
  3
Gouraud
350
13CBC
  3
GouraudWithEdges
350
13CBD
  3
Hidden
350
13CC1
  3
JitterOff
350
13CCF
  3
Linepattern
350
13CC7
  3
OverhangOff
350
13CD0
  3
Realistic
350
13CC3
  3
Shaded
350
13CCE
  3
Shaded with edges
350
13CCD
  3
Shades of Gray
350
13CCA
  3
Sketchy
350
13CCB
  3
Thicken
350
13CC6
  3
Wireframe
350
13CC0
  3
X-Ray
350
13CCC
  0
XRECORD
  5
13D0E
102
{ACAD_REACTORS
330
1377D
102
}
330
1377D
100
AcDbXrecord
280
     1
 90
        1
330
13CD4
  0
DICTIONARY
  5
13D01
102
{ACAD_REACTORS
330
1377D
102
}
330
1377D
100
AcDbDictionary
281
     1
  3
CANNOSCALE
350
13D06
  3
CMLEADERSTYLE
350
13D03
  3
CTABLESTYLE
350
13D02
  3
CVIEWDETAILSTYLE
350
13D04
  3
CVIEWSECTIONSTYLE
350
13D05
  3
DIMASSOC
350
13D09
  3
INDEXCTL
350
13D08
  3
SORTENTS
350
13D07
  3
XCLIPFRAME
350
13D0A
  0
XRECORD
  5
13D0F
102
{ACAD_REACTORS
330
1377D
102
}
330
1377D
100
AcDbXrecord
280
     1
  1
DWGPROPS COOKIE
  2

  3

  4

  6

  7

  8
Yoshitsune
  9

300
=
301
=
302
=
303
=
304
=
305
=
306
=
307
=
308
=
309
=
 40
0.0000138888888889
 41
2451263.698167824
 42
2457192.661597107
  1

 90
        0
  0
XRECORD
  5
13CF2
102
{ACAD_REACTORS
330
13CF1
102
}
330
13CF1
100
AcDbXrecord
280
     1
290
     1
  0
XRECORD
  5
13CF4
102
{ACAD_REACTORS
330
13CF3
102
}
330
13CF3
100
AcDbXrecord
280
     1
290
     1
  0
XRECORD
  5
13CF6
102
{ACAD_REACTORS
330
13CF5
102
}
330
13CF5
100
AcDbXrecord
280
     1
290
     1
  0
XRECORD
  5
13CF8
102
{ACAD_REACTORS
330
13CF7
102
}
330
13CF7
100
AcDbXrecord
280
     1
290
     1
  0
XRECORD
  5
13CFA
102
{ACAD_REACTORS
330
13CF9
102
}
330
13CF9
100
AcDbXrecord
280
     1
290
     1
  0
XRECORD
  5
13CFC
102
{ACAD_REACTORS
330
13CFB
102
}
330
13CFB
100
AcDbXrecord
280
     1
290
     1
  0
XRECORD
  5
13CFE
102
{ACAD_REACTORS
330
13CFD
102
}
330
13CFD
100
AcDbXrecord
280
     1
290
     1
  0
XRECORD
  5
13D00
102
{ACAD_REACTORS
330
13CFF
102
}
330
13CFF
100
AcDbXrecord
280
     1
290
     1
  0
XRECORD
  5
13C9A
102
{ACAD_REACTORS
330
13C99
102
}
330
13C99
100
AcDbXrecord
280
     1
340
1378F
  0
XRECORD
  5
13C98
102
{ACAD_REACTORS
330
13C97
102
}
330
13C97
100
AcDbXrecord
280
     1
340
1378B
  0
ACDBDETAILVIEWSTYLE
  5
13CEC
102
{ACAD_XDICTIONARY
360
13D47
102
}
102
{ACAD_REACTORS
330
13CEB
102
}
330
13CEB
100
AcDbModelDocViewStyle
 70
     0
  3
Imperial24
290
     0
100
AcDbDetailViewStyle
 70
     0
 71
     0
 90
        3
 71
     1
340
13782
 40
0.24
340
0
 40
0.24
300

 40
0.36
280
     3
 71
     2
340
13786
 90
       25
 71
     3
340
13782
 40
0.24
 90
        1
 40
0.75
 90
        1
300
%<\AcVar ViewType \f "%tc1">% %<\AcVar ViewDetailId>%\PSCALE %<\AcVar ViewScale \f "%sn">%
 71
     4
340
13786
 90
       25
340
13786
 90
       25
280
     0
  0
LAYOUT
  5
13CED
102
{ACAD_XDICTIONARY
360
13D49
102
}
102
{ACAD_REACTORS
330
1378A
102
}
330
1378A
100
AcDbPlotSettings
  1

  2
Canon LBP9100C
  4

  6

 40
0.0
 41
0.0
 42
0.0
 43
0.0
 44
0.0
 45
0.0
 46
0.0
 47
0.0
 48
0.0
 49
0.0
140
0.0
141
0.0
142
1.0
143
1.0
 70
  1712
 72
     0
 73
     0
 74
     0
  7

 75
     0
147
1.0
148
0.0
149
0.0
100
AcDbLayout
  1
Model
 70
     1
 71
     0
 10
0.0
 20
0.0
 11
12.0
 21
9.0
 12
0.0
 22
0.0
 32
0.0
 14
0.0
 24
0.0
 34
0.0
 15
0.0
 25
0.0
 35
0.0
146
0.0
 13
0.0
 23
0.0
 33
0.0
 16
1.0
 26
0.0
 36
0.0
 17
0.0
 27
1.0
 37
0.0
 76
     0
330
1378F
331
13C96
  0
LAYOUT
  5
13CEE
102
{ACAD_XDICTIONARY
360
13D4B
102
}
102
{ACAD_REACTORS
330
1378A
102
}
330
1378A
100
AcDbPlotSettings
  1

  2
Canon LBP9100C
  4

  6

 40
0.0
 41
0.0
 42
0.0
 43
0.0
 44
0.0
 45
0.0
 46
0.0
 47
0.0
 48
0.0
 49
0.0
140
0.0
141
0.0
142
1.0
143
1.0
 70
   688
 72
     0
 73
     0
 74
     5
  7

 75
    16
147
1.0
148
0.0
149
0.0
100
AcDbLayout
  1
レイアウト1
 70
     0
 71
     1
 10
0.0
 20
0.0
 11
420.0
 21
297.0
 12
0.0
 22
0.0
 32
0.0
 14
1.000000000000000E+20
 24
1.000000000000000E+20
 34
1.000000000000000E+20
 15
-1.000000000000000E+20
 25
-1.000000000000000E+20
 35
-1.000000000000000E+20
146
0.0
 13
0.0
 23
0.0
 33
0.0
 16
1.0
 26
0.0
 36
0.0
 17
0.0
 27
1.0
 37
0.0
 76
     0
330
1378B
  0
MATERIAL
  5
13CA9
102
{ACAD_XDICTIONARY
360
13CAA
102
}
102
{ACAD_REACTORS
330
13CA0
102
}
330
13CA0
100
AcDbMaterial
  1
ByBlock
 72
     0
 43
0.0208333333333333
 43
0.0
 43
0.0
 43
0.0
 43
0.0
 43
0.0208333333333333
 43
0.0
 43
0.0
 43
0.0
 43
0.0
 43
1.0
 43
0.0
 43
0.0
 43
0.0
 43
0.0
 43
1.0
 77
     0
 47
0.0208333333333333
 47
0.0
 47
0.0
 47
0.0
 47
0.0
 47
0.0208333333333333
 47
0.0
 47
0.0
 47
0.0
 47
0.0
 47
1.0
 47
0.0
 47
0.0
 47
0.0
 47
0.0
 47
1.0
171
     0
 49
0.0208333333333333
 49
0.0
 49
0.0
 49
0.0
 49
0.0
 49
0.0208333333333333
 49
0.0
 49
0.0
 49
0.0
 49
0.0
 49
1.0
 49
0.0
 49
0.0
 49
0.0
 49
0.0
 49
1.0
175
     0
142
0.0208333333333333
142
0.0
142
0.0
142
0.0
142
0.0
142
0.0208333333333333
142
0.0
142
0.0
142
0.0
142
0.0
142
1.0
142
0.0
142
0.0
142
0.0
142
0.0
142
1.0
179
     0
144
0.0208333333333333
144
0.0
144
0.0
144
0.0
144
0.0
144
0.0208333333333333
144
0.0
144
0.0
144
0.0
144
0.0
144
1.0
144
0.0
144
0.0
144
0.0
144
0.0
144
1.0
147
0.0208333333333333
147
0.0
147
0.0
147
0.0
147
0.0
147
0.0208333333333333
147
0.0
147
0.0
147
0.0
147
0.0
147
1.0
147
0.0
147
0.0
147
0.0
147
0.0
147
1.0
  0
MATERIAL
  5
13CA1
102
{ACAD_XDICTIONARY
360
13CA2
102
}
102
{ACAD_REACTORS
330
13CA0
102
}
330
13CA0
100
AcDbMaterial
  1
ByLayer
 72
     0
 43
0.0208333333333333
 43
0.0
 43
0.0
 43
0.0
 43
0.0
 43
0.0208333333333333
 43
0.0
 43
0.0
 43
0.0
 43
0.0
 43
1.0
 43
0.0
 43
0.0
 43
0.0
 43
0.0
 43
1.0
 77
     0
 47
0.0208333333333333
 47
0.0
 47
0.0
 47
0.0
 47
0.0
 47
0.0208333333333333
 47
0.0
 47
0.0
 47
0.0
 47
0.0
 47
1.0
 47
0.0
 47
0.0
 47
0.0
 47
0.0
 47
1.0
171
     0
 49
0.0208333333333333
 49
0.0
 49
0.0
 49
0.0
 49
0.0
 49
0.0208333333333333
 49
0.0
 49
0.0
 49
0.0
 49
0.0
 49
1.0
 49
0.0
 49
0.0
 49
0.0
 49
0.0
 49
1.0
175
     0
142
0.0208333333333333
142
0.0
142
0.0
142
0.0
142
0.0
142
0.0208333333333333
142
0.0
142
0.0
142
0.0
142
0.0
142
1.0
142
0.0
142
0.0
142
0.0
142
0.0
142
1.0
179
     0
144
0.0208333333333333
144
0.0
144
0.0
144
0.0
144
0.0
144
0.0208333333333333
144
0.0
144
0.0
144
0.0
144
0.0
144
1.0
144
0.0
144
0.0
144
0.0
144
0.0
144
1.0
147
0.0208333333333333
147
0.0
147
0.0
147
0.0
147
0.0
147
0.0208333333333333
147
0.0
147
0.0
147
0.0
147
0.0
147
1.0
147
0.0
147
0.0
147
0.0
147
0.0
147
1.0
  0
MATERIAL
  5
13CB1
102
{ACAD_XDICTIONARY
360
13CB2
102
}
102
{ACAD_REACTORS
330
13CA0
102
}
330
13CA0
100
AcDbMaterial
  1
Global
 72
     0
 43
0.0208333333333333
 43
0.0
 43
0.0
 43
0.0
 43
0.0
 43
0.0208333333333333
 43
0.0
 43
0.0
 43
0.0
 43
0.0
 43
1.0
 43
0.0
 43
0.0
 43
0.0
 43
0.0
 43
1.0
 77
     0
 47
0.0208333333333333
 47
0.0
 47
0.0
 47
0.0
 47
0.0
 47
0.0208333333333333
 47
0.0
 47
0.0
 47
0.0
 47
0.0
 47
1.0
 47
0.0
 47
0.0
 47
0.0
 47
0.0
 47
1.0
171
     0
 49
0.0208333333333333
 49
0.0
 49
0.0
 49
0.0
 49
0.0
 49
0.0208333333333333
 49
0.0
 49
0.0
 49
0.0
 49
0.0
 49
1.0
 49
0.0
 49
0.0
 49
0.0
 49
0.0
 49
1.0
175
     0
142
0.0208333333333333
142
0.0
142
0.0
142
0.0
142
0.0
142
0.0208333333333333
142
0.0
142
0.0
142
0.0
142
0.0
142
1.0
142
0.0
142
0.0
142
0.0
142
0.0
142
1.0
179
     0
144
0.0208333333333333
144
0.0
144
0.0
144
0.0
144
0.0
144
0.0208333333333333
144
0.0
144
0.0
144
0.0
144
0.0
144
1.0
144
0.0
144
0.0
144
0.0
144
0.0
144
1.0
147
0.0208333333333333
147
0.0
147
0.0
147
0.0
147
0.0
147
0.0208333333333333
147
0.0
147
0.0
147
0.0
147
0.0
147
1.0
147
0.0
147
0.0
147
0.0
147
0.0
147
1.0
  0
MLEADERSTYLE
  5
13CE8
102
{ACAD_REACTORS
330
13CE7
102
}
330
13CE7
100
AcDbMLeaderStyle
170
     2
171
     1
172
     0
 90
        2
 40
0.0
 41
0.0
173
     1
 91
-1056964608
340
13784
 92
       -2
290
     1
 42
0.09
291
     1
 43
0.36
  3
Standard
 44
0.18
300

342
13782
174
     1
178
     6
175
     1
176
     0
 93
-1056964608
 45
0.18
292
     0
297
     0
 46
0.18
 94
-1056964608
 47
1.0
 49
1.0
140
1.0
293
     1
141
0.0
294
     1
177
     0
142
1.0
295
     0
296
     0
143
0.125
1001
ACAD_MLEADERVER
1070
     2
  0
MLINESTYLE
  5
13788
102
{ACAD_REACTORS
330
13787
102
}
330
13787
100
AcDbMlineStyle
  2
STANDARD
 70
     0
  3

 62
   256
 51
90.0
 52
90.0
 71
     2
 49
0.5
 62
   256
  6
BYLAYER
 49
-0.5
 62
   256
  6
BYLAYER
  0
ACDBPLACEHOLDER
  5
13C9F
102
{ACAD_REACTORS
330
13C9E
102
}
330
13C9E
  0
SCALE
  5
13CD6
102
{ACAD_REACTORS
330
13CD5
102
}
330
13CD5
100
AcDbScale
 70
     0
300
1:1
140
1.0
141
1.0
290
     1
  0
SCALE
  5
13CD7
102
{ACAD_REACTORS
330
13CD5
102
}
330
13CD5
100
AcDbScale
 70
     0
300
1/128" = 1'-0"
140
0.0078125
141
12.0
290
     0
  0
SCALE
  5
13CD8
102
{ACAD_REACTORS
330
13CD5
102
}
330
13CD5
100
AcDbScale
 70
     0
300
1/64" = 1'-0"
140
0.015625
141
12.0
290
     0
  0
SCALE
  5
13CD9
102
{ACAD_REACTORS
330
13CD5
102
}
330
13CD5
100
AcDbScale
 70
     0
300
1/32" = 1'-0"
140
0.03125
141
12.0
290
     0
  0
SCALE
  5
13CDA
102
{ACAD_REACTORS
330
13CD5
102
}
330
13CD5
100
AcDbScale
 70
     0
300
1/16" = 1'-0"
140
0.0625
141
12.0
290
     0
  0
SCALE
  5
13CDB
102
{ACAD_REACTORS
330
13CD5
102
}
330
13CD5
100
AcDbScale
 70
     0
300
3/32" = 1'-0"
140
0.09375
141
12.0
290
     0
  0
SCALE
  5
13CDC
102
{ACAD_REACTORS
330
13CD5
102
}
330
13CD5
100
AcDbScale
 70
     0
300
1/8" = 1'-0"
140
0.125
141
12.0
290
     0
  0
SCALE
  5
13CDD
102
{ACAD_REACTORS
330
13CD5
102
}
330
13CD5
100
AcDbScale
 70
     0
300
3/16" = 1'-0"
140
0.1875
141
12.0
290
     0
  0
SCALE
  5
13CDE
102
{ACAD_REACTORS
330
13CD5
102
}
330
13CD5
100
AcDbScale
 70
     0
300
1/4" = 1'-0"
140
0.25
141
12.0
290
     0
  0
SCALE
  5
13CDF
102
{ACAD_REACTORS
330
13CD5
102
}
330
13CD5
100
AcDbScale
 70
     0
300
3/8" = 1'-0"
140
0.375
141
12.0
290
     0
  0
SCALE
  5
13CE0
102
{ACAD_REACTORS
330
13CD5
102
}
330
13CD5
100
AcDbScale
 70
     0
300
1/2" = 1'-0"
140
0.5
141
12.0
290
     0
  0
SCALE
  5
13CE1
102
{ACAD_REACTORS
330
13CD5
102
}
330
13CD5
100
AcDbScale
 70
     0
300
3/4" = 1'-0"
140
0.75
141
12.0
290
     0
  0
SCALE
  5
13CE2
102
{ACAD_REACTORS
330
13CD5
102
}
330
13CD5
100
AcDbScale
 70
     0
300
1" = 1'-0"
140
1.0
141
12.0
290
     0
  0
SCALE
  5
13CE3
102
{ACAD_REACTORS
330
13CD5
102
}
330
13CD5
100
AcDbScale
 70
     0
300
1-1/2" = 1'-0"
140
1.5
141
12.0
290
     0
  0
SCALE
  5
13CE4
102
{ACAD_REACTORS
330
13CD5
102
}
330
13CD5
100
AcDbScale
 70
     0
300
3" = 1'-0"
140
3.0
141
12.0
290
     0
  0
SCALE
  5
13CE5
102
{ACAD_REACTORS
330
13CD5
102
}
330
13CD5
100
AcDbScale
 70
     0
300
6" = 1'-0"
140
6.0
141
12.0
290
     0
  0
SCALE
  5
13CE6
102
{ACAD_REACTORS
330
13CD5
102
}
330
13CD5
100
AcDbScale
 70
     0
300
1'-0" = 1'-0"
140
12.0
141
12.0
290
     0
  0
ACDBSECTIONVIEWSTYLE
  5
13CEA
102
{ACAD_XDICTIONARY
360
13D45
102
}
102
{ACAD_REACTORS
330
13CE9
102
}
330
13CE9
100
AcDbModelDocViewStyle
 70
     0
  3
Imperial24
290
     0
100
AcDbSectionViewStyle
 70
     0
 71
     0
 90
       78
 71
     1
340
13782
 40
0.24
340
0
340
0
 40
0.24
300
I, O, Q, S, X, Z
 40
0.48
 90
        3
 40
0.18
 90
        1
 71
     2
340
13786
 90
       25
340
13786
 90
       50
 40
0.24
 40
0.0
 40
0.24
 71
     3
340
13782
 40
0.24
 90
        1
 40
0.75
 90
        1
300
%<\AcVar ViewType \f "%tc1">% %<\AcVar ViewSectionStartId>%-%<\AcVar ViewSectionEndId>%\PSCALE %<\AcVar ViewScale \f "%sn">%
 71
     4
300
ANSI31
 40
1.0
 90
        0
290
     0
290
     0
 90
        6
 40
0.0
 40
1.570796326794896
 40
0.2617993877991494
 40
1.308996938995747
 40
-0.2617993877991494
 40
1.832595714594046
  0
TABLESTYLE
  5
13CD4
102
{ACAD_XDICTIONARY
360
13D0C
102
}
102
{ACAD_REACTORS
330
13CD3
102
}
330
13CD3
100
AcDbTableStyle
  3
Standard
 70
     0
 71
     0
 40
0.06
 41
0.06
280
     0
281
     0
  7
STANDARD
140
0.18
170
     2
 62
     0
 63
     7
283
     0
274
    -2
284
     1
 64
     0
275
    -2
285
     1
 65
     0
276
    -2
286
     1
 66
     0
277
    -2
287
     1
 67
     0
278
    -2
288
     1
 68
     0
279
    -2
289
     1
 69
     0
  7
STANDARD
140
0.25
170
     5
 62
     0
 63
     7
283
     0
274
    -2
284
     1
 64
     0
275
    -2
285
     1
 65
     0
276
    -2
286
     1
 66
     0
277
    -2
287
     1
 67
     0
278
    -2
288
     1
 68
     0
279
    -2
289
     1
 69
     0
  7
STANDARD
140
0.18
170
     5
 62
     0
 63
     7
283
     0
274
    -2
284
     1
 64
     0
275
    -2
285
     1
 65
     0
276
    -2
286
     1
 66
     0
277
    -2
287
     1
 67
     0
278
    -2
288
     1
 68
     0
279
    -2
289
     1
 69
     0
  0
VISUALSTYLE
  5
13CBF
102
{ACAD_XDICTIONARY
360
13D1D
102
}
102
{ACAD_REACTORS
330
13CB9
102
}
330
13CB9
100
AcDbVisualStyle
  2
2dWireframe
 70
     4
 71
     0
 72
     2
 73
     0
 90
        0
 40
-0.6
 41
-30.0
 62
     5
 63
     7
 74
     1
 91
        4
 64
     7
 65
   257
 75
     1
175
     1
 42
1.0
 92
        0
 66
   257
 43
1.0
 76
     1
 77
     6
 78
     2
 67
     7
 79
     5
170
     0
171
     0
290
     0
174
     0
 93
        1
 44
0.0
173
     0
291
     0
 45
0.0
1001
ACAD
1000
AcDbSavedByObjectVersion
1070
     0
  0
VISUALSTYLE
  5
13CBE
102
{ACAD_XDICTIONARY
360
13D1B
102
}
102
{ACAD_REACTORS
330
13CB9
102
}
330
13CB9
100
AcDbVisualStyle
  2
Basic
 70
     7
 71
     1
 72
     0
 73
     1
 90
        0
 40
-0.6
 41
-30.0
 62
     5
 63
     7
 74
     0
 91
        4
 64
     7
 65
   257
 75
     1
175
     1
 42
1.0
 92
        8
 66
     7
 43
1.0
 76
     1
 77
     6
 78
     2
 67
     7
 79
     5
170
     0
171
     0
290
     0
174
     0
 93
        1
 44
0.0
173
     0
291
     1
 45
0.0
1001
ACAD
1000
AcDbSavedByObjectVersion
1070
     0
  0
VISUALSTYLE
  5
13CC5
102
{ACAD_XDICTIONARY
360
13D29
102
}
102
{ACAD_REACTORS
330
13CB9
102
}
330
13CB9
100
AcDbVisualStyle
  2
Brighten
 70
    12
 71
     2
 72
     2
 73
     0
 90
        0
 40
-0.6
 41
-30.0
 62
     5
 63
     7
 74
     1
 91
        4
 64
     7
 65
   257
 75
     1
175
     1
 42
1.0
 92
        8
 66
     7
 43
1.0
 76
     1
 77
     6
 78
     2
 67
     7
 79
     5
170
     0
171
     0
290
     0
174
     0
 93
        1
 44
50.0
173
     0
291
     1
 45
0.0
1001
ACAD
1000
AcDbSavedByObjectVersion
1070
     0
  0
VISUALSTYLE
  5
13CC9
102
{ACAD_XDICTIONARY
360
13D31
102
}
102
{ACAD_REACTORS
330
13CB9
102
}
330
13CB9
100
AcDbVisualStyle
  2
ColorChange
 70
    16
 71
     2
 72
     2
 73
     3
 90
        0
 40
-0.6
 41
-30.0
 62
     5
 63
     8
 74
     1
 91
        4
 64
     7
 65
   257
 75
     1
175
     1
 42
1.0
 92
        8
 66
     8
 43
1.0
 76
     1
 77
     6
 78
     2
 67
     7
 79
     5
170
     0
171
     0
290
     0
174
     0
 93
        1
 44
0.0
173
     0
291
     1
 45
0.0
1001
ACAD
1000
AcDbSavedByObjectVersion
1070
     0
  0
VISUALSTYLE
  5
13CC2
102
{ACAD_XDICTIONARY
360
13D23
102
}
102
{ACAD_REACTORS
330
13CB9
102
}
330
13CB9
100
AcDbVisualStyle
  2
Conceptual
 70
     9
 71
     3
 72
     2
 73
     0
 90
        0
 40
-0.6
 41
-30.0
 62
     5
 63
     7
 74
     2
 91
        2
 64
     7
 65
   257
 75
     1
175
     1
 42
179.0
 92
        8
 66
     7
 43
1.0
 76
     1
 77
     6
 78
     2
 67
     7
 79
     3
170
     0
171
     0
290
     0
174
     0
 93
        1
 44
0.0
173
     0
291
     0
 45
0.0
1001
ACAD
1000
AcDbSavedByObjectVersion
1070
     0
  0
VISUALSTYLE
  5
13CC4
102
{ACAD_XDICTIONARY
360
13D27
102
}
102
{ACAD_REACTORS
330
13CB9
102
}
330
13CB9
100
AcDbVisualStyle
  2
Dim
 70
    11
 71
     2
 72
     2
 73
     0
 90
        0
 40
-0.6
 41
-30.0
 62
     5
 63
     7
 74
     1
 91
        4
 64
     7
 65
   257
 75
     1
175
     1
 42
1.0
 92
        8
 66
     7
 43
1.0
 76
     1
 77
     6
 78
     2
 67
     7
 79
     5
170
     0
171
     0
290
     0
174
     0
 93
        1
 44
-50.0
173
     0
291
     1
 45
0.0
1001
ACAD
1000
AcDbSavedByObjectVersion
1070
     0
  0
VISUALSTYLE
  5
13CD1
102
{ACAD_XDICTIONARY
360
13D41
102
}
102
{ACAD_REACTORS
330
13CB9
102
}
330
13CB9
100
AcDbVisualStyle
  2
EdgeColorOff
 70
    22
 71
     2
 72
     2
 73
     0
 90
        0
 40
-0.6
 41
-30.0
 62
     5
 63
     7
 74
     1
 91
        4
 64
     7
 65
   257
 75
     1
175
     1
 42
1.0
 92
        8
 66
     7
 43
1.0
 76
     1
 77
     6
 78
     2
 67
     7
 79
     5
170
     0
171
     0
290
     0
174
     0
 93
        1
 44
0.0
173
     0
291
     1
 45
0.0
1001
ACAD
1000
AcDbSavedByObjectVersion
1070
     0
  0
VISUALSTYLE
  5
13CC8
102
{ACAD_XDICTIONARY
360
13D2F
102
}
102
{ACAD_REACTORS
330
13CB9
102
}
330
13CB9
100
AcDbVisualStyle
  2
Facepattern
 70
    15
 71
     2
 72
     2
 73
     0
 90
        0
 40
-0.6
 41
-30.0
 62
     5
 63
     7
 74
     1
 91
        4
 64
     7
 65
   257
 75
     1
175
     1
 42
1.0
 92
        8
 66
     7
 43
1.0
 76
     1
 77
     6
 78
     2
 67
     7
 79
     5
170
     0
171
     0
290
     0
174
     0
 93
        1
 44
0.0
173
     0
291
     1
 45
0.0
1001
ACAD
1000
AcDbSavedByObjectVersion
1070
     0
  0
VISUALSTYLE
  5
13CBA
102
{ACAD_XDICTIONARY
360
13D13
102
}
102
{ACAD_REACTORS
330
13CB9
102
}
330
13CB9
100
AcDbVisualStyle
  2
Flat
 70
     0
 71
     2
 72
     1
 73
     1
 90
        2
 40
-0.6
 41
30.0
 62
     5
 63
     7
 74
     0
 91
        0
 64
     7
 65
   257
 75
     1
175
     1
 42
1.0
 92
        8
 66
     7
 43
1.0
 76
     1
 77
     6
 78
     2
 67
     7
 79
     5
170
     0
171
     0
290
     0
174
     0
 93
       13
 44
0.0
173
     0
291
     1
 45
0.0
1001
ACAD
1000
AcDbSavedByObjectVersion
1070
     0
  0
VISUALSTYLE
  5
13CBB
102
{ACAD_XDICTIONARY
360
13D15
102
}
102
{ACAD_REACTORS
330
13CB9
102
}
330
13CB9
100
AcDbVisualStyle
  2
FlatWithEdges
 70
     1
 71
     2
 72
     1
 73
     1
 90
        2
 40
-0.6
 41
30.0
 62
     5
 63
     7
 74
     1
 91
        0
 64
     7
 65
   257
 75
     1
175
     1
 42
1.0
 92
        0
 66
   257
 43
1.0
 76
     1
 77
     6
 78
     2
 67
     7
 79
     5
170
     0
171
     0
290
     0
174
     0
 93
       13
 44
0.0
173
     0
291
     1
 45
0.0
1001
ACAD
1000
AcDbSavedByObjectVersion
1070
     0
  0
VISUALSTYLE
  5
13CBC
102
{ACAD_XDICTIONARY
360
13D17
102
}
102
{ACAD_REACTORS
330
13CB9
102
}
330
13CB9
100
AcDbVisualStyle
  2
Gouraud
 70
     2
 71
     2
 72
     2
 73
     1
 90
        2
 40
-0.6
 41
30.0
 62
     5
 63
     7
 74
     0
 91
        0
 64
     7
 65
   257
 75
     1
175
     1
 42
1.0
 92
        0
 66
     7
 43
1.0
 76
     1
 77
     6
 78
     2
 67
     7
 79
     5
170
     0
171
     0
290
     0
174
     0
 93
       13
 44
0.0
173
     0
291
     1
 45
0.0
1001
ACAD
1000
AcDbSavedByObjectVersion
1070
     0
  0
VISUALSTYLE
  5
13CBD
102
{ACAD_XDICTIONARY
360
13D19
102
}
102
{ACAD_REACTORS
330
13CB9
102
}
330
13CB9
100
AcDbVisualStyle
  2
GouraudWithEdges
 70
     3
 71
     2
 72
     2
 73
     1
 90
        2
 40
-0.6
 41
30.0
 62
     5
 63
     7
 74
     1
 91
        0
 64
     7
 65
   257
 75
     1
175
     1
 42
1.0
 92
        0
 66
   257
 43
1.0
 76
     1
 77
     6
 78
     2
 67
     7
 79
     5
170
     0
171
     0
290
     0
174
     0
 93
       13
 44
0.0
173
     0
291
     1
 45
0.0
1001
ACAD
1000
AcDbSavedByObjectVersion
1070
     0
  0
VISUALSTYLE
  5
13CC1
102
{ACAD_XDICTIONARY
360
13D21
102
}
102
{ACAD_REACTORS
330
13CB9
102
}
330
13CB9
100
AcDbVisualStyle
  2
Hidden
 70
     6
 71
     1
 72
     2
 73
     2
 90
        0
 40
-0.6
 41
-30.0
 62
     5
 63
     7
 74
     2
 91
        2
 64
     7
 65
   257
 75
     2
175
     1
 42
40.0
 92
        0
 66
   257
 43
1.0
 76
     1
 77
     6
 78
     2
 67
     7
 79
     3
170
     0
171
     0
290
     0
174
     0
 93
        1
 44
0.0
173
     0
291
     0
 45
0.0
1001
ACAD
1000
AcDbSavedByObjectVersion
1070
     0
  0
VISUALSTYLE
  5
13CCF
102
{ACAD_XDICTIONARY
360
13D3D
102
}
102
{ACAD_REACTORS
330
13CB9
102
}
330
13CB9
100
AcDbVisualStyle
  2
JitterOff
 70
    20
 71
     2
 72
     2
 73
     0
 90
        0
 40
-0.6
 41
-30.0
 62
     5
 63
     7
 74
     1
 91
        4
 64
     7
 65
   257
 75
     1
175
     1
 42
1.0
 92
       10
 66
     7
 43
1.0
 76
     1
 77
     6
 78
     2
 67
     7
 79
     5
170
     0
171
     0
290
     0
174
     0
 93
        1
 44
0.0
173
     0
291
     1
 45
0.0
1001
ACAD
1000
AcDbSavedByObjectVersion
1070
     0
  0
VISUALSTYLE
  5
13CC7
102
{ACAD_XDICTIONARY
360
13D2D
102
}
102
{ACAD_REACTORS
330
13CB9
102
}
330
13CB9
100
AcDbVisualStyle
  2
Linepattern
 70
    14
 71
     2
 72
     2
 73
     0
 90
        0
 40
-0.6
 41
-30.0
 62
     5
 63
     7
 74
     1
 91
        4
 64
     7
 65
   257
 75
     7
175
     7
 42
1.0
 92
        8
 66
     7
 43
1.0
 76
     1
 77
     6
 78
     2
 67
     7
 79
     5
170
     0
171
     0
290
     0
174
     0
 93
        1
 44
0.0
173
     0
291
     1
 45
0.0
1001
ACAD
1000
AcDbSavedByObjectVersion
1070
     0
  0
VISUALSTYLE
  5
13CD0
102
{ACAD_XDICTIONARY
360
13D3F
102
}
102
{ACAD_REACTORS
330
13CB9
102
}
330
13CB9
100
AcDbVisualStyle
  2
OverhangOff
 70
    21
 71
     2
 72
     2
 73
     0
 90
        0
 40
-0.6
 41
-30.0
 62
     5
 63
     7
 74
     1
 91
        4
 64
     7
 65
   257
 75
     1
175
     1
 42
1.0
 92
        9
 66
     7
 43
1.0
 76
     1
 77
     6
 78
     2
 67
     7
 79
     5
170
     0
171
     0
290
     0
174
     0
 93
        1
 44
0.0
173
     0
291
     1
 45
0.0
1001
ACAD
1000
AcDbSavedByObjectVersion
1070
     0
  0
VISUALSTYLE
  5
13CC3
102
{ACAD_XDICTIONARY
360
13D25
102
}
102
{ACAD_REACTORS
330
13CB9
102
}
330
13CB9
100
AcDbVisualStyle
  2
Realistic
 70
     8
 71
     2
 72
     3
 73
     0
 90
        2
 40
-0.6
 41
30.0
 62
     5
 63
     7
 74
     0
 91
        0
 64
     7
 65
   257
 75
     1
175
     1
 42
1.0
 92
        8
 66
   257
 43
1.0
 76
     1
 77
     6
 78
     2
 67
     7
 79
     3
170
     0
171
     0
290
     0
174
     0
 93
       13
 44
0.0
173
     0
291
     0
 45
0.0
1001
ACAD
1000
AcDbSavedByObjectVersion
1070
     0
  0
VISUALSTYLE
  5
13CCE
102
{ACAD_XDICTIONARY
360
13D3B
102
}
102
{ACAD_REACTORS
330
13CB9
102
}
330
13CB9
100
AcDbVisualStyle
  2
Shaded
 70
    27
 71
     2
 72
     2
 73
     1
 90
        2
 40
-0.6
 41
30.0
 62
     5
 63
     7
 74
     0
 91
        4
 64
     7
 65
   257
 75
     1
175
     1
 42
1.0
 92
        8
 66
   257
 43
1.0
 76
     1
 77
     6
 78
     2
 67
     8
 79
     3
170
     0
171
     0
290
     0
174
     0
 93
        5
 44
0.0
173
     0
291
     0
 45
0.0
1001
ACAD
1000
AcDbSavedByObjectVersion
1070
     0
  0
VISUALSTYLE
  5
13CCD
102
{ACAD_XDICTIONARY
360
13D39
102
}
102
{ACAD_REACTORS
330
13CB9
102
}
330
13CB9
100
AcDbVisualStyle
  2
Shaded with edges
 70
    26
 71
     2
 72
     2
 73
     1
 90
        2
 40
-0.6
 41
30.0
 62
     5
 63
     7
 74
     1
 91
       10
 64
     7
 65
   257
 75
     2
175
     1
 42
1.0
 92
        8
 66
   257
 43
1.0
 76
     1
 77
     6
 78
     2
 67
     7
 79
     3
170
     0
171
     0
290
     0
174
     0
 93
        5
 44
0.0
173
     0
291
     0
 45
0.0
1001
ACAD
1000
AcDbSavedByObjectVersion
1070
     0
  0
VISUALSTYLE
  5
13CCA
102
{ACAD_XDICTIONARY
360
13D33
102
}
102
{ACAD_REACTORS
330
13CB9
102
}
330
13CB9
100
AcDbVisualStyle
  2
Shades of Gray
 70
    23
 71
     2
 72
     2
 73
     3
 90
        0
 40
-0.6
 41
-30.0
 62
     5
 63
     7
 74
     2
 91
        2
 64
     7
 65
     7
 75
     1
175
     1
 42
40.0
 92
        8
 66
     7
 43
1.0
 76
     1
 77
     6
 78
     2
 67
     7
 79
     3
170
     0
171
     0
290
     0
174
     0
 93
        1
 44
0.0
173
     0
291
     0
 45
0.0
1001
ACAD
1000
AcDbSavedByObjectVersion
1070
     0
  0
VISUALSTYLE
  5
13CCB
102
{ACAD_XDICTIONARY
360
13D35
102
}
102
{ACAD_REACTORS
330
13CB9
102
}
330
13CB9
100
AcDbVisualStyle
  2
Sketchy
 70
    24
 71
     1
 72
     2
 73
     2
 90
        0
 40
-0.6
 41
-30.0
 62
     5
 63
     7
 74
     2
 91
        2
 64
     7
 65
     7
 75
     1
175
     1
 42
40.0
 92
       11
 66
     7
 43
1.0
 76
     1
 77
     6
 78
     2
 67
     7
 79
     6
170
     0
171
     0
290
     0
174
     0
 93
        1
 44
0.0
173
     0
291
     0
 45
0.0
1001
ACAD
1000
AcDbSavedByObjectVersion
1070
     0
  0
VISUALSTYLE
  5
13CC6
102
{ACAD_XDICTIONARY
360
13D2B
102
}
102
{ACAD_REACTORS
330
13CB9
102
}
330
13CB9
100
AcDbVisualStyle
  2
Thicken
 70
    13
 71
     2
 72
     2
 73
     0
 90
        0
 40
-0.6
 41
-30.0
 62
     5
 63
     7
 74
     1
 91
        4
 64
     7
 65
   257
 75
     1
175
     1
 42
1.0
 92
       12
 66
     7
 43
1.0
 76
     1
 77
     6
 78
     2
 67
     7
 79
     5
170
     0
171
     0
290
     0
174
     0
 93
        1
 44
0.0
173
     0
291
     1
 45
0.0
1001
ACAD
1000
AcDbSavedByObjectVersion
1070
     0
  0
VISUALSTYLE
  5
13CC0
102
{ACAD_XDICTIONARY
360
13D1F
102
}
102
{ACAD_REACTORS
330
13CB9
102
}
330
13CB9
100
AcDbVisualStyle
  2
Wireframe
 70
     5
 71
     0
 72
     2
 73
     0
 90
        0
 40
-0.6
 41
-30.0
 62
     5
 63
     7
 74
     1
 91
        4
 64
     7
 65
   257
 75
     1
175
     1
 42
1.0
 92
        0
 66
   257
 43
1.0
 76
     1
 77
     6
 78
     2
 67
     7
 79
     3
170
     0
171
     0
290
     0
174
     0
 93
        1
 44
0.0
173
     0
291
     0
 45
0.0
1001
ACAD
1000
AcDbSavedByObjectVersion
1070
     0
  0
VISUALSTYLE
  5
13CCC
102
{ACAD_XDICTIONARY
360
13D37
102
}
102
{ACAD_REACTORS
330
13CB9
102
}
330
13CB9
100
AcDbVisualStyle
  2
X-Ray
 70
    25
 71
     2
 72
     2
 73
     1
 90
        1
 40
0.5
 41
-30.0
 62
     5
 63
     7
 74
     1
 91
        0
 64
     7
 65
   257
 75
     1
175
     1
 42
1.0
 92
        8
 66
     7
 43
1.0
 76
     1
 77
     6
 78
     2
 67
     7
 79
     3
170
     0
171
     0
290
     0
174
     0
 93
       13
 44
0.0
173
     0
291
     0
 45
0.0
1001
ACAD
1000
AcDbSavedByObjectVersion
1070
     0
  0
DICTIONARYVAR
  5
13D06
102
{ACAD_REACTORS
330
13D01
102
}
330
13D01
100
DictionaryVariables
280
     0
  1
1:1
  0
DICTIONARYVAR
  5
13D03
102
{ACAD_REACTORS
330
13D01
102
}
330
13D01
100
DictionaryVariables
280
     0
  1
STANDARD
  0
DICTIONARYVAR
  5
13D02
102
{ACAD_REACTORS
330
13D01
102
}
330
13D01
100
DictionaryVariables
280
     0
  1
STANDARD
  0
DICTIONARYVAR
  5
13D04
102
{ACAD_REACTORS
330
13D01
102
}
330
13D01
100
DictionaryVariables
280
     0
  1
Imperial24
  0
DICTIONARYVAR
  5
13D05
102
{ACAD_REACTORS
330
13D01
102
}
330
13D01
100
DictionaryVariables
280
     0
  1
Imperial24
  0
DICTIONARYVAR
  5
13D09
102
{ACAD_REACTORS
330
13D01
102
}
330
13D01
100
DictionaryVariables
280
     0
  1
1
  0
DICTIONARYVAR
  5
13D08
102
{ACAD_REACTORS
330
13D01
102
}
330
13D01
100
DictionaryVariables
280
     0
  1
0
  0
DICTIONARYVAR
  5
13D07
102
{ACAD_REACTORS
330
13D01
102
}
330
13D01
100
DictionaryVariables
280
     0
  1
127
  0
DICTIONARYVAR
  5
13D0A
102
{ACAD_REACTORS
330
13D01
102
}
330
13D01
100
DictionaryVariables
280
     0
  1
2
  0
DICTIONARY
  5
13D47
330
13CEC
100
AcDbDictionary
280
     1
281
     1
  3
ACAD_XREC_ROUNDTRIP
360
13D48
  0
DICTIONARY
  5
13D49
330
13CED
100
AcDbDictionary
280
     1
281
     1
  3
ACAD_XREC_ROUNDTRIP
360
13D4A
  0
DICTIONARY
  5
13D4B
330
13CEE
100
AcDbDictionary
280
     1
281
     1
  3
ACAD_XREC_ROUNDTRIP
360
13D4C
  0
DICTIONARY
  5
13CAA
330
13CA9
100
AcDbDictionary
280
     1
281
     1
  3
ACAD_XREC_ROUNDTRIP
360
13D11
  3
BUMPTILE
360
13CAC
  3
DIFFUSETILE
360
13CAB
  3
OPACITYTILE
360
13CAF
  3
REFLECTIONTILE
360
13CAE
  3
REFRACTIONTILE
360
13CB0
  3
SPECULARTILE
360
13CAD
  0
DICTIONARY
  5
13CA2
330
13CA1
100
AcDbDictionary
280
     1
281
     1
  3
ACAD_XREC_ROUNDTRIP
360
13D10
  3
BUMPTILE
360
13CA4
  3
DIFFUSETILE
360
13CA3
  3
OPACITYTILE
360
13CA7
  3
REFLECTIONTILE
360
13CA6
  3
REFRACTIONTILE
360
13CA8
  3
SPECULARTILE
360
13CA5
  0
DICTIONARY
  5
13CB2
330
13CB1
100
AcDbDictionary
280
     1
281
     1
  3
ACAD_XREC_ROUNDTRIP
360
13D12
  3
BUMPTILE
360
13CB4
  3
DIFFUSETILE
360
13CB3
  3
OPACITYTILE
360
13CB7
  3
REFLECTIONTILE
360
13CB6
  3
REFRACTIONTILE
360
13CB8
  3
SPECULARTILE
360
13CB5
  0
DICTIONARY
  5
13D45
330
13CEA
100
AcDbDictionary
280
     1
281
     1
  3
ACAD_XREC_ROUNDTRIP
360
13D46
  0
DICTIONARY
  5
13D0C
330
13CD4
100
AcDbDictionary
280
     1
281
     1
  3
ACAD_ROUNDTRIP_2008_TABLESTYLE_CELLSTYLEMAP
360
13D0D
  3
ACAD_XREC_ROUNDTRIP
360
13D43
  0
DICTIONARY
  5
13D1D
330
13CBF
100
AcDbDictionary
280
     1
281
     1
  3
ACAD_XREC_ROUNDTRIP
360
13D1E
  0
DICTIONARY
  5
13D1B
330
13CBE
100
AcDbDictionary
280
     1
281
     1
  3
ACAD_XREC_ROUNDTRIP
360
13D1C
  0
DICTIONARY
  5
13D29
330
13CC5
100
AcDbDictionary
280
     1
281
     1
  3
ACAD_XREC_ROUNDTRIP
360
13D2A
  0
DICTIONARY
  5
13D31
330
13CC9
100
AcDbDictionary
280
     1
281
     1
  3
ACAD_XREC_ROUNDTRIP
360
13D32
  0
DICTIONARY
  5
13D23
330
13CC2
100
AcDbDictionary
280
     1
281
     1
  3
ACAD_XREC_ROUNDTRIP
360
13D24
  0
DICTIONARY
  5
13D27
330
13CC4
100
AcDbDictionary
280
     1
281
     1
  3
ACAD_XREC_ROUNDTRIP
360
13D28
  0
DICTIONARY
  5
13D41
330
13CD1
100
AcDbDictionary
280
     1
281
     1
  3
ACAD_XREC_ROUNDTRIP
360
13D42
  0
DICTIONARY
  5
13D2F
330
13CC8
100
AcDbDictionary
280
     1
281
     1
  3
ACAD_XREC_ROUNDTRIP
360
13D30
  0
DICTIONARY
  5
13D13
330
13CBA
100
AcDbDictionary
280
     1
281
     1
  3
ACAD_XREC_ROUNDTRIP
360
13D14
  0
DICTIONARY
  5
13D15
330
13CBB
100
AcDbDictionary
280
     1
281
     1
  3
ACAD_XREC_ROUNDTRIP
360
13D16
  0
DICTIONARY
  5
13D17
330
13CBC
100
AcDbDictionary
280
     1
281
     1
  3
ACAD_XREC_ROUNDTRIP
360
13D18
  0
DICTIONARY
  5
13D19
330
13CBD
100
AcDbDictionary
280
     1
281
     1
  3
ACAD_XREC_ROUNDTRIP
360
13D1A
  0
DICTIONARY
  5
13D21
330
13CC1
100
AcDbDictionary
280
     1
281
     1
  3
ACAD_XREC_ROUNDTRIP
360
13D22
  0
DICTIONARY
  5
13D3D
330
13CCF
100
AcDbDictionary
280
     1
281
     1
  3
ACAD_XREC_ROUNDTRIP
360
13D3E
  0
DICTIONARY
  5
13D2D
330
13CC7
100
AcDbDictionary
280
     1
281
     1
  3
ACAD_XREC_ROUNDTRIP
360
13D2E
  0
DICTIONARY
  5
13D3F
330
13CD0
100
AcDbDictionary
280
     1
281
     1
  3
ACAD_XREC_ROUNDTRIP
360
13D40
  0
DICTIONARY
  5
13D25
330
13CC3
100
AcDbDictionary
280
     1
281
     1
  3
ACAD_XREC_ROUNDTRIP
360
13D26
  0
DICTIONARY
  5
13D3B
330
13CCE
100
AcDbDictionary
280
     1
281
     1
  3
ACAD_XREC_ROUNDTRIP
360
13D3C
  0
DICTIONARY
  5
13D39
330
13CCD
100
AcDbDictionary
280
     1
281
     1
  3
ACAD_XREC_ROUNDTRIP
360
13D3A
  0
DICTIONARY
  5
13D33
330
13CCA
100
AcDbDictionary
280
     1
281
     1
  3
ACAD_XREC_ROUNDTRIP
360
13D34
  0
DICTIONARY
  5
13D35
330
13CCB
100
AcDbDictionary
280
     1
281
     1
  3
ACAD_XREC_ROUNDTRIP
360
13D36
  0
DICTIONARY
  5
13D2B
330
13CC6
100
AcDbDictionary
280
     1
281
     1
  3
ACAD_XREC_ROUNDTRIP
360
13D2C
  0
DICTIONARY
  5
13D1F
330
13CC0
100
AcDbDictionary
280
     1
281
     1
  3
ACAD_XREC_ROUNDTRIP
360
13D20
  0
DICTIONARY
  5
13D37
330
13CCC
100
AcDbDictionary
280
     1
281
     1
  3
ACAD_XREC_ROUNDTRIP
360
13D38
  0
XRECORD
  5
13D48
102
{ACAD_REACTORS
330
13D47
102
}
330
13D47
100
AcDbXrecord
280
     1
102
DISPLAYNAME
  1
Imperial24
102
FLAGS
 90
        0
  0
XRECORD
  5
13D4A
102
{ACAD_REACTORS
330
13D49
102
}
330
13D49
100
AcDbXrecord
280
     1
102
SHADEPLOT
 70
     0
102
SHADEPLOTRESLEVEL
 70
     2
102
SHADEPLOTCUSTOMDPI
 70
   300
  0
XRECORD
  5
13D4C
102
{ACAD_REACTORS
330
13D4B
102
}
330
13D4B
100
AcDbXrecord
280
     1
102
SHADEPLOT
 70
     0
102
SHADEPLOTRESLEVEL
 70
     2
102
SHADEPLOTCUSTOMDPI
 70
   300
  0
XRECORD
  5
13D11
102
{ACAD_REACTORS
330
13CAA
102
}
330
13CAA
100
AcDbXrecord
280
     1
102
MATERIAL
148
0.0
149
0.0
149
0.0
 93
        0
 94
      127
282
     0
 72
     0
 77
     0
171
     0
175
     0
179
     0
273
     0
  0
XRECORD
  5
13CAC
102
{ACAD_REACTORS
330
13CAA
102
}
330
13CAA
100
AcDbXrecord
280
     1
270
     1
271
     1
  0
XRECORD
  5
13CAB
102
{ACAD_REACTORS
330
13CAA
102
}
330
13CAA
100
AcDbXrecord
280
     1
270
     1
271
     1
  0
XRECORD
  5
13CAF
102
{ACAD_REACTORS
330
13CAA
102
}
330
13CAA
100
AcDbXrecord
280
     1
270
     1
271
     1
  0
XRECORD
  5
13CAE
102
{ACAD_REACTORS
330
13CAA
102
}
330
13CAA
100
AcDbXrecord
280
     1
270
     1
271
     1
  0
XRECORD
  5
13CB0
102
{ACAD_REACTORS
330
13CAA
102
}
330
13CAA
100
AcDbXrecord
280
     1
270
     1
271
     1
  0
XRECORD
  5
13CAD
102
{ACAD_REACTORS
330
13CAA
102
}
330
13CAA
100
AcDbXrecord
280
     1
270
     1
271
     1
  0
XRECORD
  5
13D10
102
{ACAD_REACTORS
330
13CA2
102
}
330
13CA2
100
AcDbXrecord
280
     1
102
MATERIAL
148
0.0
149
0.0
149
0.0
 93
        0
 94
      127
282
     0
 72
     0
 77
     0
171
     0
175
     0
179
     0
273
     0
  0
XRECORD
  5
13CA4
102
{ACAD_REACTORS
330
13CA2
102
}
330
13CA2
100
AcDbXrecord
280
     1
270
     1
271
     1
  0
XRECORD
  5
13CA3
102
{ACAD_REACTORS
330
13CA2
102
}
330
13CA2
100
AcDbXrecord
280
     1
270
     1
271
     1
  0
XRECORD
  5
13CA7
102
{ACAD_REACTORS
330
13CA2
102
}
330
13CA2
100
AcDbXrecord
280
     1
270
     1
271
     1
  0
XRECORD
  5
13CA6
102
{ACAD_REACTORS
330
13CA2
102
}
330
13CA2
100
AcDbXrecord
280
     1
270
     1
271
     1
  0
XRECORD
  5
13CA8
102
{ACAD_REACTORS
330
13CA2
102
}
330
13CA2
100
AcDbXrecord
280
     1
270
     1
271
     1
  0
XRECORD
  5
13CA5
102
{ACAD_REACTORS
330
13CA2
102
}
330
13CA2
100
AcDbXrecord
280
     1
270
     1
271
     1
  0
XRECORD
  5
13D12
102
{ACAD_REACTORS
330
13CB2
102
}
330
13CB2
100
AcDbXrecord
280
     1
102
MATERIAL
148
0.0
149
0.0
149
0.0
 93
        0
 94
      127
282
     0
 72
     0
 77
     0
171
     0
175
     0
179
     0
273
     0
  0
XRECORD
  5
13CB4
102
{ACAD_REACTORS
330
13CB2
102
}
330
13CB2
100
AcDbXrecord
280
     1
270
     1
271
     1
  0
XRECORD
  5
13CB3
102
{ACAD_REACTORS
330
13CB2
102
}
330
13CB2
100
AcDbXrecord
280
     1
270
     1
271
     1
  0
XRECORD
  5
13CB7
102
{ACAD_REACTORS
330
13CB2
102
}
330
13CB2
100
AcDbXrecord
280
     1
270
     1
271
     1
  0
XRECORD
  5
13CB6
102
{ACAD_REACTORS
330
13CB2
102
}
330
13CB2
100
AcDbXrecord
280
     1
270
     1
271
     1
  0
XRECORD
  5
13CB8
102
{ACAD_REACTORS
330
13CB2
102
}
330
13CB2
100
AcDbXrecord
280
     1
270
     1
271
     1
  0
XRECORD
  5
13CB5
102
{ACAD_REACTORS
330
13CB2
102
}
330
13CB2
100
AcDbXrecord
280
     1
270
     1
271
     1
  0
XRECORD
  5
13D46
102
{ACAD_REACTORS
330
13D45
102
}
330
13D45
100
AcDbXrecord
280
     1
102
DISPLAYNAME
  1
Imperial24
102
FLAGS
 90
        0
  0
CELLSTYLEMAP
  5
13D0D
102
{ACAD_REACTORS
330
13D0C
102
}
330
13D0C
100
AcDbCellStyleMap
 90
        3
300
CELLSTYLE
  1
TABLEFORMAT_BEGIN
 90
        5
170
     1
 91
        0
 92
    32768
 62
   257
 93
        1
300
CONTENTFORMAT
  1
CONTENTFORMAT_BEGIN
 90
        0
 91
        0
 92
      512
 93
        0
300

 40
0.0
140
1.0
 94
        5
 62
     0
340
13782
144
0.25
309
CONTENTFORMAT_END
171
     0
 94
        0
309
TABLEFORMAT_END
  1
CELLSTYLE_BEGIN
 90
        1
 91
        1
300
_TITLE
309
CELLSTYLE_END
300
CELLSTYLE
  1
TABLEFORMAT_BEGIN
 90
        5
170
     1
 91
        0
 92
        0
 62
   257
 93
        1
300
CONTENTFORMAT
  1
CONTENTFORMAT_BEGIN
 90
        0
 91
        0
 92
      512
 93
        0
300

 40
0.0
140
1.0
 94
        5
 62
     0
340
13782
144
0.18
309
CONTENTFORMAT_END
171
     0
 94
        0
309
TABLEFORMAT_END
  1
CELLSTYLE_BEGIN
 90
        2
 91
        1
300
_HEADER
309
CELLSTYLE_END
300
CELLSTYLE
  1
TABLEFORMAT_BEGIN
 90
        5
170
     1
 91
        0
 92
        0
 62
   257
 93
        1
300
CONTENTFORMAT
  1
CONTENTFORMAT_BEGIN
 90
        0
 91
        0
 92
      512
 93
        0
300

 40
0.0
140
1.0
 94
        2
 62
     0
340
13782
144
0.18
309
CONTENTFORMAT_END
171
     0
 94
        0
309
TABLEFORMAT_END
  1
CELLSTYLE_BEGIN
 90
        3
 91
        2
300
_DATA
309
CELLSTYLE_END
  0
XRECORD
  5
13D43
102
{ACAD_REACTORS
330
13D0C
102
}
330
13D0C
100
AcDbXrecord
280
     1
102
ACAD_ROUNDTRIP_PRE2007_TABLESTYLE
 90
      512
 91
        0
  1

 92
      512
 93
        0
  2

 94
      512
 95
        0
  3

  0
XRECORD
  5
13D1E
102
{ACAD_REACTORS
330
13D1D
102
}
330
13D1D
100
AcDbXrecord
280
     1
102
RTVSPost2010Prop28
280
     1
102
RTVSPost2010PropOp28
 70
     1
102
RTVSPost2010Prop29
280
     1
102
RTVSPost2010PropOp29
 70
     1
102
RTVSPost2010Prop30
280
     0
102
RTVSPost2010PropOp30
 70
     1
102
RTVSPost2010Prop31
280
     0
102
RTVSPost2010PropOp31
 70
     1
102
RTVSPost2010Prop32
280
     0
102
RTVSPost2010PropOp32
 70
     1
102
RTVSPost2010Prop33
280
     0
102
RTVSPost2010PropOp33
 70
     1
102
RTVSPost2010Prop34
280
     0
102
RTVSPost2010PropOp34
 70
     1
102
RTVSPost2010Prop35
280
     0
102
RTVSPost2010PropOp35
 70
     1
102
RTVSPost2010Prop36
280
     0
102
RTVSPost2010PropOp36
 70
     1
102
RTVSPost2010Prop37
 90
       50
102
RTVSPost2010PropOp37
 70
     1
102
RTVSPost2010Prop38
140
0.0
102
RTVSPost2010PropOp38
 70
     1
102
RTVSPost2010Prop39
140
1.0
102
RTVSPost2010PropOp39
 70
     1
102
RTVSPost2010Prop40
 90
        0
102
RTVSPost2010PropOp40
 70
     1
102
RTVSPost2010Prop41ColorIndex
 90
       18
102
RTVSPost2010Prop41ColorRGB
 90
        0
102
RTVSPost2010PropOp41
 70
     1
102
RTVSPost2010Prop42
 90
       50
102
RTVSPost2010PropOp42
 70
     1
102
RTVSPost2010Prop43
 90
        3
102
RTVSPost2010PropOp43
 70
     1
102
RTVSPost2010Prop44ColorIndex
 90
        5
102
RTVSPost2010Prop44ColorRGB
 90
      255
102
RTVSPost2010PropOp44
 70
     1
102
RTVSPost2010Prop45
280
     0
102
RTVSPost2010PropOp45
 70
     1
102
RTVSPost2010Prop46
 90
       50
102
RTVSPost2010PropOp46
 70
     1
102
RTVSPost2010Prop47
 90
       50
102
RTVSPost2010PropOp47
 70
     1
102
RTVSPost2010Prop48
 90
       50
102
RTVSPost2010PropOp48
 70
     1
102
RTVSPost2010Prop49
280
     0
102
RTVSPost2010PropOp49
 70
     1
102
RTVSPost2010Prop50
 90
       50
102
RTVSPost2010PropOp50
 70
     1
102
RTVSPost2010Prop51ColorIndex
 90
      256
102
RTVSPost2010Prop51ColorRGB
 90
-16777216
102
RTVSPost2010PropOp51
 70
     0
102
RTVSPost2010Prop52
140
1.0
102
RTVSPost2010PropOp52
 70
     0
102
RTVSPost2010Prop53
 90
        2
102
RTVSPost2010PropOp53
 70
     1
102
RTVSPost2010Prop54
  1
strokes_ogs.tif
102
RTVSPost2010PropOp54
 70
     1
102
RTVSPost2010Prop55
280
     0
102
RTVSPost2010PropOp55
 70
     1
102
RTVSPost2010Prop56
140
1.0
102
RTVSPost2010PropOp56
 70
     1
102
RTVSPost2010Prop57
140
1.0
102
RTVSPost2010PropOp57
 70
     1
102
RTVSPropertyOp0
 70
     1
102
RTVSPropertyOp1
 70
     1
102
RTVSPropertyOp2
 70
     1
102
RTVSPropertyOp3
 70
     1
102
RTVSPropertyOp4
 70
     1
102
RTVSPropertyOp5
 70
     1
102
RTVSPropertyOp6
 70
     1
102
RTVSPropertyOp7
 70
     1
102
RTVSPropertyOp8
 70
     1
102
RTVSPropertyOp9
 70
     1
102
RTVSPropertyOp10
 70
     1
102
RTVSPropertyOp11
 70
     1
102
RTVSPropertyOp12
 70
     1
102
RTVSPropertyOp13
 70
     1
102
RTVSPropertyOp14
 70
     1
102
RTVSPropertyOp15
 70
     1
102
RTVSPropertyOp16
 70
     1
102
RTVSPropertyOp17
 70
     1
102
RTVSPropertyOp18
 70
     1
102
RTVSPropertyOp19
 70
     1
102
RTVSPropertyOp20
 70
     1
102
RTVSPropertyOp21
 70
     1
102
RTVSPropertyOp22
 70
     1
102
RTVSPropertyOp23
 70
     1
102
RTVSPropertyOp24
 70
     1
102
RTVSPropertyOp25
 70
     1
102
RTVSPropertyOp26
 70
     1
102
RTVSPropertyOp27
 70
     1
102
RTVSPropertyOp28
 70
     1
102
RTVSPropertyOp29
 70
     1
102
RTVSPropertyOp30
 70
     1
102
RTVSPropertyOp31
 70
     1
102
RTVSPropertyOp32
 70
     1
102
RTVSPropertyOp33
 70
     1
102
RTVSPropertyOp34
 70
     1
102
RTVSPropertyOp35
 70
     1
102
RTVSPropertyOp36
 70
     1
102
RTVSPropertyOp37
 70
     1
102
RTVSPropertyOp38
 70
     1
102
RTVSPropertyOp39
 70
     1
102
RTVSPropertyOp40
 70
     1
102
RTVSPropertyOp41
 70
     1
102
RTVSPropertyOp42
 70
     1
102
RTVSPropertyOp43
 70
     1
102
RTVSPropertyOp44
 70
     1
102
RTVSPropertyOp45
 70
     1
102
RTVSPropertyOp46
 70
     1
102
RTVSPropertyOp47
 70
     1
102
RTVSPropertyOp48
 70
     1
102
RTVSPropertyOp49
 70
     1
102
RTVSPropertyOp50
 70
     1
102
RTVSPropertyOp51
 70
     0
102
RTVSPropertyOp52
 70
     0
102
RTVSPropertyOp53
 70
     1
102
RTVSPropertyOp54
 70
     1
102
RTVSPropertyOp55
 70
     1
102
RTVSPropertyOp56
 70
     1
102
RTVSPropertyOp57
 70
     1
102
RTVSPropertyOp58
 70
     1
102
RTVSPropertyOp59
 70
     1
102
RTVSPropertyOp60
 70
     1
102
RTVSPropertyOp61
 70
     1
102
RTVSPropertyOp62
 70
     1
  0
XRECORD
  5
13D1C
102
{ACAD_REACTORS
330
13D1B
102
}
330
13D1B
100
AcDbXrecord
280
     1
102
RTVSPost2010Prop28
280
     0
102
RTVSPost2010PropOp28
 70
     1
102
RTVSPost2010Prop29
280
     1
102
RTVSPost2010PropOp29
 70
     1
102
RTVSPost2010Prop30
280
     1
102
RTVSPost2010PropOp30
 70
     1
102
RTVSPost2010Prop31
280
     0
102
RTVSPost2010PropOp31
 70
     1
102
RTVSPost2010Prop32
280
     0
102
RTVSPost2010PropOp32
 70
     1
102
RTVSPost2010Prop33
280
     0
102
RTVSPost2010PropOp33
 70
     1
102
RTVSPost2010Prop34
280
     0
102
RTVSPost2010PropOp34
 70
     1
102
RTVSPost2010Prop35
280
     0
102
RTVSPost2010PropOp35
 70
     1
102
RTVSPost2010Prop36
280
     0
102
RTVSPost2010PropOp36
 70
     1
102
RTVSPost2010Prop37
 90
       50
102
RTVSPost2010PropOp37
 70
     1
102
RTVSPost2010Prop38
140
0.0
102
RTVSPost2010PropOp38
 70
     1
102
RTVSPost2010Prop39
140
1.0
102
RTVSPost2010PropOp39
 70
     1
102
RTVSPost2010Prop40
 90
        0
102
RTVSPost2010PropOp40
 70
     1
102
RTVSPost2010Prop41ColorIndex
 90
       18
102
RTVSPost2010Prop41ColorRGB
 90
        0
102
RTVSPost2010PropOp41
 70
     1
102
RTVSPost2010Prop42
 90
       50
102
RTVSPost2010PropOp42
 70
     1
102
RTVSPost2010Prop43
 90
        3
102
RTVSPost2010PropOp43
 70
     1
102
RTVSPost2010Prop44ColorIndex
 90
        5
102
RTVSPost2010Prop44ColorRGB
 90
      255
102
RTVSPost2010PropOp44
 70
     1
102
RTVSPost2010Prop45
280
     0
102
RTVSPost2010PropOp45
 70
     1
102
RTVSPost2010Prop46
 90
       50
102
RTVSPost2010PropOp46
 70
     1
102
RTVSPost2010Prop47
 90
       50
102
RTVSPost2010PropOp47
 70
     1
102
RTVSPost2010Prop48
 90
       50
102
RTVSPost2010PropOp48
 70
     1
102
RTVSPost2010Prop49
280
     0
102
RTVSPost2010PropOp49
 70
     1
102
RTVSPost2010Prop50
 90
       50
102
RTVSPost2010PropOp50
 70
     1
102
RTVSPost2010Prop51ColorIndex
 90
      256
102
RTVSPost2010Prop51ColorRGB
 90
-16777216
102
RTVSPost2010PropOp51
 70
     0
102
RTVSPost2010Prop52
140
1.0
102
RTVSPost2010PropOp52
 70
     0
102
RTVSPost2010Prop53
 90
        2
102
RTVSPost2010PropOp53
 70
     1
102
RTVSPost2010Prop54
  1
strokes_ogs.tif
102
RTVSPost2010PropOp54
 70
     1
102
RTVSPost2010Prop55
280
     0
102
RTVSPost2010PropOp55
 70
     1
102
RTVSPost2010Prop56
140
1.0
102
RTVSPost2010PropOp56
 70
     1
102
RTVSPost2010Prop57
140
1.0
102
RTVSPost2010PropOp57
 70
     1
102
RTVSPropertyOp0
 70
     1
102
RTVSPropertyOp1
 70
     1
102
RTVSPropertyOp2
 70
     1
102
RTVSPropertyOp3
 70
     1
102
RTVSPropertyOp4
 70
     1
102
RTVSPropertyOp5
 70
     1
102
RTVSPropertyOp6
 70
     1
102
RTVSPropertyOp7
 70
     1
102
RTVSPropertyOp8
 70
     1
102
RTVSPropertyOp9
 70
     1
102
RTVSPropertyOp10
 70
     1
102
RTVSPropertyOp11
 70
     1
102
RTVSPropertyOp12
 70
     1
102
RTVSPropertyOp13
 70
     1
102
RTVSPropertyOp14
 70
     1
102
RTVSPropertyOp15
 70
     1
102
RTVSPropertyOp16
 70
     1
102
RTVSPropertyOp17
 70
     1
102
RTVSPropertyOp18
 70
     1
102
RTVSPropertyOp19
 70
     1
102
RTVSPropertyOp20
 70
     1
102
RTVSPropertyOp21
 70
     1
102
RTVSPropertyOp22
 70
     1
102
RTVSPropertyOp23
 70
     1
102
RTVSPropertyOp24
 70
     1
102
RTVSPropertyOp25
 70
     1
102
RTVSPropertyOp26
 70
     1
102
RTVSPropertyOp27
 70
     1
102
RTVSPropertyOp28
 70
     1
102
RTVSPropertyOp29
 70
     1
102
RTVSPropertyOp30
 70
     1
102
RTVSPropertyOp31
 70
     1
102
RTVSPropertyOp32
 70
     1
102
RTVSPropertyOp33
 70
     1
102
RTVSPropertyOp34
 70
     1
102
RTVSPropertyOp35
 70
     1
102
RTVSPropertyOp36
 70
     1
102
RTVSPropertyOp37
 70
     1
102
RTVSPropertyOp38
 70
     1
102
RTVSPropertyOp39
 70
     1
102
RTVSPropertyOp40
 70
     1
102
RTVSPropertyOp41
 70
     1
102
RTVSPropertyOp42
 70
     1
102
RTVSPropertyOp43
 70
     1
102
RTVSPropertyOp44
 70
     1
102
RTVSPropertyOp45
 70
     1
102
RTVSPropertyOp46
 70
     1
102
RTVSPropertyOp47
 70
     1
102
RTVSPropertyOp48
 70
     1
102
RTVSPropertyOp49
 70
     1
102
RTVSPropertyOp50
 70
     1
102
RTVSPropertyOp51
 70
     0
102
RTVSPropertyOp52
 70
     0
102
RTVSPropertyOp53
 70
     1
102
RTVSPropertyOp54
 70
     1
102
RTVSPropertyOp55
 70
     1
102
RTVSPropertyOp56
 70
     1
102
RTVSPropertyOp57
 70
     1
102
RTVSPropertyOp58
 70
     1
102
RTVSPropertyOp59
 70
     1
102
RTVSPropertyOp60
 70
     1
102
RTVSPropertyOp61
 70
     1
102
RTVSPropertyOp62
 70
     1
  0
XRECORD
  5
13D2A
102
{ACAD_REACTORS
330
13D29
102
}
330
13D29
100
AcDbXrecord
280
     1
102
RTVSPost2010Prop28
280
     0
102
RTVSPost2010PropOp28
 70
     1
102
RTVSPost2010Prop29
280
     1
102
RTVSPost2010PropOp29
 70
     1
102
RTVSPost2010Prop30
280
     1
102
RTVSPost2010PropOp30
 70
     1
102
RTVSPost2010Prop31
280
     0
102
RTVSPost2010PropOp31
 70
     1
102
RTVSPost2010Prop32
280
     0
102
RTVSPost2010PropOp32
 70
     1
102
RTVSPost2010Prop33
280
     0
102
RTVSPost2010PropOp33
 70
     1
102
RTVSPost2010Prop34
280
     0
102
RTVSPost2010PropOp34
 70
     1
102
RTVSPost2010Prop35
280
     0
102
RTVSPost2010PropOp35
 70
     1
102
RTVSPost2010Prop36
280
     0
102
RTVSPost2010PropOp36
 70
     1
102
RTVSPost2010Prop37
 90
       50
102
RTVSPost2010PropOp37
 70
     1
102
RTVSPost2010Prop38
140
0.0
102
RTVSPost2010PropOp38
 70
     1
102
RTVSPost2010Prop39
140
1.0
102
RTVSPost2010PropOp39
 70
     1
102
RTVSPost2010Prop40
 90
        0
102
RTVSPost2010PropOp40
 70
     1
102
RTVSPost2010Prop41ColorIndex
 90
       18
102
RTVSPost2010Prop41ColorRGB
 90
        0
102
RTVSPost2010PropOp41
 70
     1
102
RTVSPost2010Prop42
 90
       50
102
RTVSPost2010PropOp42
 70
     1
102
RTVSPost2010Prop43
 90
        3
102
RTVSPost2010PropOp43
 70
     1
102
RTVSPost2010Prop44ColorIndex
 90
        5
102
RTVSPost2010Prop44ColorRGB
 90
      255
102
RTVSPost2010PropOp44
 70
     1
102
RTVSPost2010Prop45
280
     0
102
RTVSPost2010PropOp45
 70
     1
102
RTVSPost2010Prop46
 90
       50
102
RTVSPost2010PropOp46
 70
     1
102
RTVSPost2010Prop47
 90
       50
102
RTVSPost2010PropOp47
 70
     1
102
RTVSPost2010Prop48
 90
       50
102
RTVSPost2010PropOp48
 70
     1
102
RTVSPost2010Prop49
280
     0
102
RTVSPost2010PropOp49
 70
     1
102
RTVSPost2010Prop50
 90
       50
102
RTVSPost2010PropOp50
 70
     1
102
RTVSPost2010Prop51ColorIndex
 90
      256
102
RTVSPost2010Prop51ColorRGB
 90
-16777216
102
RTVSPost2010PropOp51
 70
     0
102
RTVSPost2010Prop52
140
1.0
102
RTVSPost2010PropOp52
 70
     0
102
RTVSPost2010Prop53
 90
        2
102
RTVSPost2010PropOp53
 70
     1
102
RTVSPost2010Prop54
  1
strokes_ogs.tif
102
RTVSPost2010PropOp54
 70
     1
102
RTVSPost2010Prop55
280
     0
102
RTVSPost2010PropOp55
 70
     1
102
RTVSPost2010Prop56
140
1.0
102
RTVSPost2010PropOp56
 70
     1
102
RTVSPost2010Prop57
140
1.0
102
RTVSPost2010PropOp57
 70
     1
102
RTVSPropertyOp0
 70
     1
102
RTVSPropertyOp1
 70
     1
102
RTVSPropertyOp2
 70
     1
102
RTVSPropertyOp3
 70
     1
102
RTVSPropertyOp4
 70
     1
102
RTVSPropertyOp5
 70
     1
102
RTVSPropertyOp6
 70
     1
102
RTVSPropertyOp7
 70
     1
102
RTVSPropertyOp8
 70
     1
102
RTVSPropertyOp9
 70
     1
102
RTVSPropertyOp10
 70
     1
102
RTVSPropertyOp11
 70
     1
102
RTVSPropertyOp12
 70
     1
102
RTVSPropertyOp13
 70
     1
102
RTVSPropertyOp14
 70
     1
102
RTVSPropertyOp15
 70
     1
102
RTVSPropertyOp16
 70
     1
102
RTVSPropertyOp17
 70
     1
102
RTVSPropertyOp18
 70
     1
102
RTVSPropertyOp19
 70
     1
102
RTVSPropertyOp20
 70
     1
102
RTVSPropertyOp21
 70
     1
102
RTVSPropertyOp22
 70
     1
102
RTVSPropertyOp23
 70
     1
102
RTVSPropertyOp24
 70
     1
102
RTVSPropertyOp25
 70
     1
102
RTVSPropertyOp26
 70
     1
102
RTVSPropertyOp27
 70
     1
102
RTVSPropertyOp28
 70
     1
102
RTVSPropertyOp29
 70
     1
102
RTVSPropertyOp30
 70
     1
102
RTVSPropertyOp31
 70
     1
102
RTVSPropertyOp32
 70
     1
102
RTVSPropertyOp33
 70
     1
102
RTVSPropertyOp34
 70
     1
102
RTVSPropertyOp35
 70
     1
102
RTVSPropertyOp36
 70
     1
102
RTVSPropertyOp37
 70
     1
102
RTVSPropertyOp38
 70
     1
102
RTVSPropertyOp39
 70
     1
102
RTVSPropertyOp40
 70
     1
102
RTVSPropertyOp41
 70
     1
102
RTVSPropertyOp42
 70
     1
102
RTVSPropertyOp43
 70
     1
102
RTVSPropertyOp44
 70
     1
102
RTVSPropertyOp45
 70
     1
102
RTVSPropertyOp46
 70
     1
102
RTVSPropertyOp47
 70
     1
102
RTVSPropertyOp48
 70
     1
102
RTVSPropertyOp49
 70
     1
102
RTVSPropertyOp50
 70
     1
102
RTVSPropertyOp51
 70
     0
102
RTVSPropertyOp52
 70
     0
102
RTVSPropertyOp53
 70
     1
102
RTVSPropertyOp54
 70
     1
102
RTVSPropertyOp55
 70
     1
102
RTVSPropertyOp56
 70
     1
102
RTVSPropertyOp57
 70
     1
102
RTVSPropertyOp58
 70
     1
102
RTVSPropertyOp59
 70
     1
102
RTVSPropertyOp60
 70
     1
102
RTVSPropertyOp61
 70
     1
102
RTVSPropertyOp62
 70
     1
  0
XRECORD
  5
13D32
102
{ACAD_REACTORS
330
13D31
102
}
330
13D31
100
AcDbXrecord
280
     1
102
RTVSPost2010Prop28
280
     0
102
RTVSPost2010PropOp28
 70
     1
102
RTVSPost2010Prop29
280
     1
102
RTVSPost2010PropOp29
 70
     1
102
RTVSPost2010Prop30
280
     1
102
RTVSPost2010PropOp30
 70
     1
102
RTVSPost2010Prop31
280
     0
102
RTVSPost2010PropOp31
 70
     1
102
RTVSPost2010Prop32
280
     0
102
RTVSPost2010PropOp32
 70
     1
102
RTVSPost2010Prop33
280
     0
102
RTVSPost2010PropOp33
 70
     1
102
RTVSPost2010Prop34
280
     0
102
RTVSPost2010PropOp34
 70
     1
102
RTVSPost2010Prop35
280
     0
102
RTVSPost2010PropOp35
 70
     1
102
RTVSPost2010Prop36
280
     0
102
RTVSPost2010PropOp36
 70
     1
102
RTVSPost2010Prop37
 90
       50
102
RTVSPost2010PropOp37
 70
     1
102
RTVSPost2010Prop38
140
0.0
102
RTVSPost2010PropOp38
 70
     1
102
RTVSPost2010Prop39
140
1.0
102
RTVSPost2010PropOp39
 70
     1
102
RTVSPost2010Prop40
 90
        0
102
RTVSPost2010PropOp40
 70
     1
102
RTVSPost2010Prop41ColorIndex
 90
       18
102
RTVSPost2010Prop41ColorRGB
 90
        0
102
RTVSPost2010PropOp41
 70
     1
102
RTVSPost2010Prop42
 90
       50
102
RTVSPost2010PropOp42
 70
     1
102
RTVSPost2010Prop43
 90
        3
102
RTVSPost2010PropOp43
 70
     1
102
RTVSPost2010Prop44ColorIndex
 90
        5
102
RTVSPost2010Prop44ColorRGB
 90
      255
102
RTVSPost2010PropOp44
 70
     1
102
RTVSPost2010Prop45
280
     0
102
RTVSPost2010PropOp45
 70
     1
102
RTVSPost2010Prop46
 90
       50
102
RTVSPost2010PropOp46
 70
     1
102
RTVSPost2010Prop47
 90
       50
102
RTVSPost2010PropOp47
 70
     1
102
RTVSPost2010Prop48
 90
       50
102
RTVSPost2010PropOp48
 70
     1
102
RTVSPost2010Prop49
280
     0
102
RTVSPost2010PropOp49
 70
     1
102
RTVSPost2010Prop50
 90
       50
102
RTVSPost2010PropOp50
 70
     1
102
RTVSPost2010Prop51ColorIndex
 90
      256
102
RTVSPost2010Prop51ColorRGB
 90
-16777216
102
RTVSPost2010PropOp51
 70
     0
102
RTVSPost2010Prop52
140
1.0
102
RTVSPost2010PropOp52
 70
     0
102
RTVSPost2010Prop53
 90
        2
102
RTVSPost2010PropOp53
 70
     1
102
RTVSPost2010Prop54
  1
strokes_ogs.tif
102
RTVSPost2010PropOp54
 70
     1
102
RTVSPost2010Prop55
280
     0
102
RTVSPost2010PropOp55
 70
     1
102
RTVSPost2010Prop56
140
1.0
102
RTVSPost2010PropOp56
 70
     1
102
RTVSPost2010Prop57
140
1.0
102
RTVSPost2010PropOp57
 70
     1
102
RTVSPropertyOp0
 70
     1
102
RTVSPropertyOp1
 70
     1
102
RTVSPropertyOp2
 70
     1
102
RTVSPropertyOp3
 70
     1
102
RTVSPropertyOp4
 70
     1
102
RTVSPropertyOp5
 70
     1
102
RTVSPropertyOp6
 70
     1
102
RTVSPropertyOp7
 70
     1
102
RTVSPropertyOp8
 70
     1
102
RTVSPropertyOp9
 70
     1
102
RTVSPropertyOp10
 70
     1
102
RTVSPropertyOp11
 70
     1
102
RTVSPropertyOp12
 70
     1
102
RTVSPropertyOp13
 70
     1
102
RTVSPropertyOp14
 70
     1
102
RTVSPropertyOp15
 70
     1
102
RTVSPropertyOp16
 70
     1
102
RTVSPropertyOp17
 70
     1
102
RTVSPropertyOp18
 70
     1
102
RTVSPropertyOp19
 70
     1
102
RTVSPropertyOp20
 70
     1
102
RTVSPropertyOp21
 70
     1
102
RTVSPropertyOp22
 70
     1
102
RTVSPropertyOp23
 70
     1
102
RTVSPropertyOp24
 70
     1
102
RTVSPropertyOp25
 70
     1
102
RTVSPropertyOp26
 70
     1
102
RTVSPropertyOp27
 70
     1
102
RTVSPropertyOp28
 70
     1
102
RTVSPropertyOp29
 70
     1
102
RTVSPropertyOp30
 70
     1
102
RTVSPropertyOp31
 70
     1
102
RTVSPropertyOp32
 70
     1
102
RTVSPropertyOp33
 70
     1
102
RTVSPropertyOp34
 70
     1
102
RTVSPropertyOp35
 70
     1
102
RTVSPropertyOp36
 70
     1
102
RTVSPropertyOp37
 70
     1
102
RTVSPropertyOp38
 70
     1
102
RTVSPropertyOp39
 70
     1
102
RTVSPropertyOp40
 70
     1
102
RTVSPropertyOp41
 70
     1
102
RTVSPropertyOp42
 70
     1
102
RTVSPropertyOp43
 70
     1
102
RTVSPropertyOp44
 70
     1
102
RTVSPropertyOp45
 70
     1
102
RTVSPropertyOp46
 70
     1
102
RTVSPropertyOp47
 70
     1
102
RTVSPropertyOp48
 70
     1
102
RTVSPropertyOp49
 70
     1
102
RTVSPropertyOp50
 70
     1
102
RTVSPropertyOp51
 70
     0
102
RTVSPropertyOp52
 70
     0
102
RTVSPropertyOp53
 70
     1
102
RTVSPropertyOp54
 70
     1
102
RTVSPropertyOp55
 70
     1
102
RTVSPropertyOp56
 70
     1
102
RTVSPropertyOp57
 70
     1
102
RTVSPropertyOp58
 70
     1
102
RTVSPropertyOp59
 70
     1
102
RTVSPropertyOp60
 70
     1
102
RTVSPropertyOp61
 70
     1
102
RTVSPropertyOp62
 70
     1
  0
XRECORD
  5
13D24
102
{ACAD_REACTORS
330
13D23
102
}
330
13D23
100
AcDbXrecord
280
     1
102
RTVSPost2010Prop28
280
     0
102
RTVSPost2010PropOp28
 70
     1
102
RTVSPost2010Prop29
280
     1
102
RTVSPost2010PropOp29
 70
     1
102
RTVSPost2010Prop30
280
     1
102
RTVSPost2010PropOp30
 70
     1
102
RTVSPost2010Prop31
280
     0
102
RTVSPost2010PropOp31
 70
     1
102
RTVSPost2010Prop32
280
     0
102
RTVSPost2010PropOp32
 70
     1
102
RTVSPost2010Prop33
280
     0
102
RTVSPost2010PropOp33
 70
     1
102
RTVSPost2010Prop34
280
     0
102
RTVSPost2010PropOp34
 70
     1
102
RTVSPost2010Prop35
280
     0
102
RTVSPost2010PropOp35
 70
     1
102
RTVSPost2010Prop36
280
     0
102
RTVSPost2010PropOp36
 70
     1
102
RTVSPost2010Prop37
 90
       50
102
RTVSPost2010PropOp37
 70
     1
102
RTVSPost2010Prop38
140
0.0
102
RTVSPost2010PropOp38
 70
     1
102
RTVSPost2010Prop39
140
1.0
102
RTVSPost2010PropOp39
 70
     1
102
RTVSPost2010Prop40
 90
        0
102
RTVSPost2010PropOp40
 70
     1
102
RTVSPost2010Prop41ColorIndex
 90
       18
102
RTVSPost2010Prop41ColorRGB
 90
        0
102
RTVSPost2010PropOp41
 70
     1
102
RTVSPost2010Prop42
 90
       50
102
RTVSPost2010PropOp42
 70
     1
102
RTVSPost2010Prop43
 90
        3
102
RTVSPost2010PropOp43
 70
     1
102
RTVSPost2010Prop44ColorIndex
 90
        5
102
RTVSPost2010Prop44ColorRGB
 90
      255
102
RTVSPost2010PropOp44
 70
     1
102
RTVSPost2010Prop45
280
     0
102
RTVSPost2010PropOp45
 70
     1
102
RTVSPost2010Prop46
 90
       50
102
RTVSPost2010PropOp46
 70
     1
102
RTVSPost2010Prop47
 90
       50
102
RTVSPost2010PropOp47
 70
     1
102
RTVSPost2010Prop48
 90
       50
102
RTVSPost2010PropOp48
 70
     1
102
RTVSPost2010Prop49
280
     0
102
RTVSPost2010PropOp49
 70
     1
102
RTVSPost2010Prop50
 90
       50
102
RTVSPost2010PropOp50
 70
     1
102
RTVSPost2010Prop51ColorIndex
 90
      256
102
RTVSPost2010Prop51ColorRGB
 90
-16777216
102
RTVSPost2010PropOp51
 70
     0
102
RTVSPost2010Prop52
140
1.0
102
RTVSPost2010PropOp52
 70
     0
102
RTVSPost2010Prop53
 90
        2
102
RTVSPost2010PropOp53
 70
     1
102
RTVSPost2010Prop54
  1
strokes_ogs.tif
102
RTVSPost2010PropOp54
 70
     1
102
RTVSPost2010Prop55
280
     0
102
RTVSPost2010PropOp55
 70
     1
102
RTVSPost2010Prop56
140
1.0
102
RTVSPost2010PropOp56
 70
     1
102
RTVSPost2010Prop57
140
1.0
102
RTVSPost2010PropOp57
 70
     1
102
RTVSPropertyOp0
 70
     1
102
RTVSPropertyOp1
 70
     1
102
RTVSPropertyOp2
 70
     1
102
RTVSPropertyOp3
 70
     1
102
RTVSPropertyOp4
 70
     1
102
RTVSPropertyOp5
 70
     1
102
RTVSPropertyOp6
 70
     1
102
RTVSPropertyOp7
 70
     1
102
RTVSPropertyOp8
 70
     1
102
RTVSPropertyOp9
 70
     1
102
RTVSPropertyOp10
 70
     1
102
RTVSPropertyOp11
 70
     1
102
RTVSPropertyOp12
 70
     1
102
RTVSPropertyOp13
 70
     1
102
RTVSPropertyOp14
 70
     1
102
RTVSPropertyOp15
 70
     1
102
RTVSPropertyOp16
 70
     1
102
RTVSPropertyOp17
 70
     1
102
RTVSPropertyOp18
 70
     1
102
RTVSPropertyOp19
 70
     1
102
RTVSPropertyOp20
 70
     1
102
RTVSPropertyOp21
 70
     1
102
RTVSPropertyOp22
 70
     1
102
RTVSPropertyOp23
 70
     1
102
RTVSPropertyOp24
 70
     1
102
RTVSPropertyOp25
 70
     1
102
RTVSPropertyOp26
 70
     1
102
RTVSPropertyOp27
 70
     1
102
RTVSPropertyOp28
 70
     1
102
RTVSPropertyOp29
 70
     1
102
RTVSPropertyOp30
 70
     1
102
RTVSPropertyOp31
 70
     1
102
RTVSPropertyOp32
 70
     1
102
RTVSPropertyOp33
 70
     1
102
RTVSPropertyOp34
 70
     1
102
RTVSPropertyOp35
 70
     1
102
RTVSPropertyOp36
 70
     1
102
RTVSPropertyOp37
 70
     1
102
RTVSPropertyOp38
 70
     1
102
RTVSPropertyOp39
 70
     1
102
RTVSPropertyOp40
 70
     1
102
RTVSPropertyOp41
 70
     1
102
RTVSPropertyOp42
 70
     1
102
RTVSPropertyOp43
 70
     1
102
RTVSPropertyOp44
 70
     1
102
RTVSPropertyOp45
 70
     1
102
RTVSPropertyOp46
 70
     1
102
RTVSPropertyOp47
 70
     1
102
RTVSPropertyOp48
 70
     1
102
RTVSPropertyOp49
 70
     1
102
RTVSPropertyOp50
 70
     1
102
RTVSPropertyOp51
 70
     0
102
RTVSPropertyOp52
 70
     0
102
RTVSPropertyOp53
 70
     1
102
RTVSPropertyOp54
 70
     1
102
RTVSPropertyOp55
 70
     1
102
RTVSPropertyOp56
 70
     1
102
RTVSPropertyOp57
 70
     1
102
RTVSPropertyOp58
 70
     1
102
RTVSPropertyOp59
 70
     1
102
RTVSPropertyOp60
 70
     1
102
RTVSPropertyOp61
 70
     1
102
RTVSPropertyOp62
 70
     1
  0
XRECORD
  5
13D28
102
{ACAD_REACTORS
330
13D27
102
}
330
13D27
100
AcDbXrecord
280
     1
102
RTVSPost2010Prop28
280
     0
102
RTVSPost2010PropOp28
 70
     1
102
RTVSPost2010Prop29
280
     1
102
RTVSPost2010PropOp29
 70
     1
102
RTVSPost2010Prop30
280
     1
102
RTVSPost2010PropOp30
 70
     1
102
RTVSPost2010Prop31
280
     0
102
RTVSPost2010PropOp31
 70
     1
102
RTVSPost2010Prop32
280
     0
102
RTVSPost2010PropOp32
 70
     1
102
RTVSPost2010Prop33
280
     0
102
RTVSPost2010PropOp33
 70
     1
102
RTVSPost2010Prop34
280
     0
102
RTVSPost2010PropOp34
 70
     1
102
RTVSPost2010Prop35
280
     0
102
RTVSPost2010PropOp35
 70
     1
102
RTVSPost2010Prop36
280
     0
102
RTVSPost2010PropOp36
 70
     1
102
RTVSPost2010Prop37
 90
       50
102
RTVSPost2010PropOp37
 70
     1
102
RTVSPost2010Prop38
140
0.0
102
RTVSPost2010PropOp38
 70
     1
102
RTVSPost2010Prop39
140
1.0
102
RTVSPost2010PropOp39
 70
     1
102
RTVSPost2010Prop40
 90
        0
102
RTVSPost2010PropOp40
 70
     1
102
RTVSPost2010Prop41ColorIndex
 90
       18
102
RTVSPost2010Prop41ColorRGB
 90
        0
102
RTVSPost2010PropOp41
 70
     1
102
RTVSPost2010Prop42
 90
       50
102
RTVSPost2010PropOp42
 70
     1
102
RTVSPost2010Prop43
 90
        3
102
RTVSPost2010PropOp43
 70
     1
102
RTVSPost2010Prop44ColorIndex
 90
        5
102
RTVSPost2010Prop44ColorRGB
 90
      255
102
RTVSPost2010PropOp44
 70
     1
102
RTVSPost2010Prop45
280
     0
102
RTVSPost2010PropOp45
 70
     1
102
RTVSPost2010Prop46
 90
       50
102
RTVSPost2010PropOp46
 70
     1
102
RTVSPost2010Prop47
 90
       50
102
RTVSPost2010PropOp47
 70
     1
102
RTVSPost2010Prop48
 90
       50
102
RTVSPost2010PropOp48
 70
     1
102
RTVSPost2010Prop49
280
     0
102
RTVSPost2010PropOp49
 70
     1
102
RTVSPost2010Prop50
 90
       50
102
RTVSPost2010PropOp50
 70
     1
102
RTVSPost2010Prop51ColorIndex
 90
      256
102
RTVSPost2010Prop51ColorRGB
 90
-16777216
102
RTVSPost2010PropOp51
 70
     0
102
RTVSPost2010Prop52
140
1.0
102
RTVSPost2010PropOp52
 70
     0
102
RTVSPost2010Prop53
 90
        2
102
RTVSPost2010PropOp53
 70
     1
102
RTVSPost2010Prop54
  1
strokes_ogs.tif
102
RTVSPost2010PropOp54
 70
     1
102
RTVSPost2010Prop55
280
     0
102
RTVSPost2010PropOp55
 70
     1
102
RTVSPost2010Prop56
140
1.0
102
RTVSPost2010PropOp56
 70
     1
102
RTVSPost2010Prop57
140
1.0
102
RTVSPost2010PropOp57
 70
     1
102
RTVSPropertyOp0
 70
     1
102
RTVSPropertyOp1
 70
     1
102
RTVSPropertyOp2
 70
     1
102
RTVSPropertyOp3
 70
     1
102
RTVSPropertyOp4
 70
     1
102
RTVSPropertyOp5
 70
     1
102
RTVSPropertyOp6
 70
     1
102
RTVSPropertyOp7
 70
     1
102
RTVSPropertyOp8
 70
     1
102
RTVSPropertyOp9
 70
     1
102
RTVSPropertyOp10
 70
     1
102
RTVSPropertyOp11
 70
     1
102
RTVSPropertyOp12
 70
     1
102
RTVSPropertyOp13
 70
     1
102
RTVSPropertyOp14
 70
     1
102
RTVSPropertyOp15
 70
     1
102
RTVSPropertyOp16
 70
     1
102
RTVSPropertyOp17
 70
     1
102
RTVSPropertyOp18
 70
     1
102
RTVSPropertyOp19
 70
     1
102
RTVSPropertyOp20
 70
     1
102
RTVSPropertyOp21
 70
     1
102
RTVSPropertyOp22
 70
     1
102
RTVSPropertyOp23
 70
     1
102
RTVSPropertyOp24
 70
     1
102
RTVSPropertyOp25
 70
     1
102
RTVSPropertyOp26
 70
     1
102
RTVSPropertyOp27
 70
     1
102
RTVSPropertyOp28
 70
     1
102
RTVSPropertyOp29
 70
     1
102
RTVSPropertyOp30
 70
     1
102
RTVSPropertyOp31
 70
     1
102
RTVSPropertyOp32
 70
     1
102
RTVSPropertyOp33
 70
     1
102
RTVSPropertyOp34
 70
     1
102
RTVSPropertyOp35
 70
     1
102
RTVSPropertyOp36
 70
     1
102
RTVSPropertyOp37
 70
     1
102
RTVSPropertyOp38
 70
     1
102
RTVSPropertyOp39
 70
     1
102
RTVSPropertyOp40
 70
     1
102
RTVSPropertyOp41
 70
     1
102
RTVSPropertyOp42
 70
     1
102
RTVSPropertyOp43
 70
     1
102
RTVSPropertyOp44
 70
     1
102
RTVSPropertyOp45
 70
     1
102
RTVSPropertyOp46
 70
     1
102
RTVSPropertyOp47
 70
     1
102
RTVSPropertyOp48
 70
     1
102
RTVSPropertyOp49
 70
     1
102
RTVSPropertyOp50
 70
     1
102
RTVSPropertyOp51
 70
     0
102
RTVSPropertyOp52
 70
     0
102
RTVSPropertyOp53
 70
     1
102
RTVSPropertyOp54
 70
     1
102
RTVSPropertyOp55
 70
     1
102
RTVSPropertyOp56
 70
     1
102
RTVSPropertyOp57
 70
     1
102
RTVSPropertyOp58
 70
     1
102
RTVSPropertyOp59
 70
     1
102
RTVSPropertyOp60
 70
     1
102
RTVSPropertyOp61
 70
     1
102
RTVSPropertyOp62
 70
     1
  0
XRECORD
  5
13D42
102
{ACAD_REACTORS
330
13D41
102
}
330
13D41
100
AcDbXrecord
280
     1
102
RTVSPost2010Prop28
280
     0
102
RTVSPost2010PropOp28
 70
     1
102
RTVSPost2010Prop29
280
     1
102
RTVSPost2010PropOp29
 70
     1
102
RTVSPost2010Prop30
280
     1
102
RTVSPost2010PropOp30
 70
     1
102
RTVSPost2010Prop31
280
     0
102
RTVSPost2010PropOp31
 70
     1
102
RTVSPost2010Prop32
280
     0
102
RTVSPost2010PropOp32
 70
     1
102
RTVSPost2010Prop33
280
     0
102
RTVSPost2010PropOp33
 70
     1
102
RTVSPost2010Prop34
280
     0
102
RTVSPost2010PropOp34
 70
     1
102
RTVSPost2010Prop35
280
     0
102
RTVSPost2010PropOp35
 70
     1
102
RTVSPost2010Prop36
280
     0
102
RTVSPost2010PropOp36
 70
     1
102
RTVSPost2010Prop37
 90
       50
102
RTVSPost2010PropOp37
 70
     0
102
RTVSPost2010Prop38
140
0.0
102
RTVSPost2010PropOp38
 70
     0
102
RTVSPost2010Prop39
140
1.0
102
RTVSPost2010PropOp39
 70
     0
102
RTVSPost2010Prop40
 90
        0
102
RTVSPost2010PropOp40
 70
     0
102
RTVSPost2010Prop41ColorIndex
 90
       18
102
RTVSPost2010Prop41ColorRGB
 90
        0
102
RTVSPost2010PropOp41
 70
     0
102
RTVSPost2010Prop42
 90
       50
102
RTVSPost2010PropOp42
 70
     0
102
RTVSPost2010Prop43
 90
        3
102
RTVSPost2010PropOp43
 70
     0
102
RTVSPost2010Prop44ColorIndex
 90
        5
102
RTVSPost2010Prop44ColorRGB
 90
      255
102
RTVSPost2010PropOp44
 70
     0
102
RTVSPost2010Prop45
280
     0
102
RTVSPost2010PropOp45
 70
     1
102
RTVSPost2010Prop46
 90
       50
102
RTVSPost2010PropOp46
 70
     0
102
RTVSPost2010Prop47
 90
       50
102
RTVSPost2010PropOp47
 70
     0
102
RTVSPost2010Prop48
 90
       50
102
RTVSPost2010PropOp48
 70
     0
102
RTVSPost2010Prop49
280
     0
102
RTVSPost2010PropOp49
 70
     1
102
RTVSPost2010Prop50
 90
       50
102
RTVSPost2010PropOp50
 70
     0
102
RTVSPost2010Prop51ColorIndex
 90
      256
102
RTVSPost2010Prop51ColorRGB
 90
-16777216
102
RTVSPost2010PropOp51
 70
     0
102
RTVSPost2010Prop52
140
1.0
102
RTVSPost2010PropOp52
 70
     0
102
RTVSPost2010Prop53
 90
        2
102
RTVSPost2010PropOp53
 70
     0
102
RTVSPost2010Prop54
  1
strokes_ogs.tif
102
RTVSPost2010PropOp54
 70
     0
102
RTVSPost2010Prop55
280
     0
102
RTVSPost2010PropOp55
 70
     1
102
RTVSPost2010Prop56
140
1.0
102
RTVSPost2010PropOp56
 70
     0
102
RTVSPost2010Prop57
140
1.0
102
RTVSPost2010PropOp57
 70
     0
102
RTVSPropertyOp0
 70
     0
102
RTVSPropertyOp1
 70
     0
102
RTVSPropertyOp2
 70
     0
102
RTVSPropertyOp3
 70
     0
102
RTVSPropertyOp4
 70
     0
102
RTVSPropertyOp5
 70
     0
102
RTVSPropertyOp6
 70
     0
102
RTVSPropertyOp7
 70
     0
102
RTVSPropertyOp8
 70
     0
102
RTVSPropertyOp9
 70
     0
102
RTVSPropertyOp10
 70
     0
102
RTVSPropertyOp11
 70
     0
102
RTVSPropertyOp12
 70
     0
102
RTVSPropertyOp13
 70
     0
102
RTVSPropertyOp14
 70
     2
102
RTVSPropertyOp15
 70
     0
102
RTVSPropertyOp16
 70
     0
102
RTVSPropertyOp17
 70
     0
102
RTVSPropertyOp18
 70
     0
102
RTVSPropertyOp19
 70
     0
102
RTVSPropertyOp20
 70
     0
102
RTVSPropertyOp21
 70
     0
102
RTVSPropertyOp22
 70
     0
102
RTVSPropertyOp23
 70
     0
102
RTVSPropertyOp24
 70
     0
102
RTVSPropertyOp25
 70
     0
102
RTVSPropertyOp26
 70
     0
102
RTVSPropertyOp27
 70
     0
102
RTVSPropertyOp28
 70
     1
102
RTVSPropertyOp29
 70
     1
102
RTVSPropertyOp30
 70
     1
102
RTVSPropertyOp31
 70
     1
102
RTVSPropertyOp32
 70
     1
102
RTVSPropertyOp33
 70
     1
102
RTVSPropertyOp34
 70
     1
102
RTVSPropertyOp35
 70
     1
102
RTVSPropertyOp36
 70
     1
102
RTVSPropertyOp37
 70
     0
102
RTVSPropertyOp38
 70
     0
102
RTVSPropertyOp39
 70
     0
102
RTVSPropertyOp40
 70
     0
102
RTVSPropertyOp41
 70
     0
102
RTVSPropertyOp42
 70
     0
102
RTVSPropertyOp43
 70
     0
102
RTVSPropertyOp44
 70
     0
102
RTVSPropertyOp45
 70
     1
102
RTVSPropertyOp46
 70
     0
102
RTVSPropertyOp47
 70
     0
102
RTVSPropertyOp48
 70
     0
102
RTVSPropertyOp49
 70
     1
102
RTVSPropertyOp50
 70
     0
102
RTVSPropertyOp51
 70
     0
102
RTVSPropertyOp52
 70
     0
102
RTVSPropertyOp53
 70
     0
102
RTVSPropertyOp54
 70
     0
102
RTVSPropertyOp55
 70
     1
102
RTVSPropertyOp56
 70
     0
102
RTVSPropertyOp57
 70
     0
102
RTVSPropertyOp58
 70
     0
102
RTVSPropertyOp59
 70
     0
102
RTVSPropertyOp60
 70
     0
102
RTVSPropertyOp61
 70
     0
102
RTVSPropertyOp62
 70
     0
  0
XRECORD
  5
13D30
102
{ACAD_REACTORS
330
13D2F
102
}
330
13D2F
100
AcDbXrecord
280
     1
102
RTVSPost2010Prop28
280
     0
102
RTVSPost2010PropOp28
 70
     1
102
RTVSPost2010Prop29
280
     1
102
RTVSPost2010PropOp29
 70
     1
102
RTVSPost2010Prop30
280
     1
102
RTVSPost2010PropOp30
 70
     1
102
RTVSPost2010Prop31
280
     0
102
RTVSPost2010PropOp31
 70
     1
102
RTVSPost2010Prop32
280
     0
102
RTVSPost2010PropOp32
 70
     1
102
RTVSPost2010Prop33
280
     0
102
RTVSPost2010PropOp33
 70
     1
102
RTVSPost2010Prop34
280
     0
102
RTVSPost2010PropOp34
 70
     1
102
RTVSPost2010Prop35
280
     0
102
RTVSPost2010PropOp35
 70
     1
102
RTVSPost2010Prop36
280
     0
102
RTVSPost2010PropOp36
 70
     1
102
RTVSPost2010Prop37
 90
       50
102
RTVSPost2010PropOp37
 70
     1
102
RTVSPost2010Prop38
140
0.0
102
RTVSPost2010PropOp38
 70
     1
102
RTVSPost2010Prop39
140
1.0
102
RTVSPost2010PropOp39
 70
     1
102
RTVSPost2010Prop40
 90
        0
102
RTVSPost2010PropOp40
 70
     1
102
RTVSPost2010Prop41ColorIndex
 90
       18
102
RTVSPost2010Prop41ColorRGB
 90
        0
102
RTVSPost2010PropOp41
 70
     1
102
RTVSPost2010Prop42
 90
       50
102
RTVSPost2010PropOp42
 70
     1
102
RTVSPost2010Prop43
 90
        3
102
RTVSPost2010PropOp43
 70
     1
102
RTVSPost2010Prop44ColorIndex
 90
        5
102
RTVSPost2010Prop44ColorRGB
 90
      255
102
RTVSPost2010PropOp44
 70
     1
102
RTVSPost2010Prop45
280
     0
102
RTVSPost2010PropOp45
 70
     1
102
RTVSPost2010Prop46
 90
       50
102
RTVSPost2010PropOp46
 70
     1
102
RTVSPost2010Prop47
 90
       50
102
RTVSPost2010PropOp47
 70
     1
102
RTVSPost2010Prop48
 90
       50
102
RTVSPost2010PropOp48
 70
     1
102
RTVSPost2010Prop49
280
     0
102
RTVSPost2010PropOp49
 70
     1
102
RTVSPost2010Prop50
 90
       50
102
RTVSPost2010PropOp50
 70
     1
102
RTVSPost2010Prop51ColorIndex
 90
      256
102
RTVSPost2010Prop51ColorRGB
 90
-16777216
102
RTVSPost2010PropOp51
 70
     0
102
RTVSPost2010Prop52
140
1.0
102
RTVSPost2010PropOp52
 70
     0
102
RTVSPost2010Prop53
 90
        2
102
RTVSPost2010PropOp53
 70
     1
102
RTVSPost2010Prop54
  1
strokes_ogs.tif
102
RTVSPost2010PropOp54
 70
     1
102
RTVSPost2010Prop55
280
     0
102
RTVSPost2010PropOp55
 70
     1
102
RTVSPost2010Prop56
140
1.0
102
RTVSPost2010PropOp56
 70
     1
102
RTVSPost2010Prop57
140
1.0
102
RTVSPost2010PropOp57
 70
     1
102
RTVSPropertyOp0
 70
     1
102
RTVSPropertyOp1
 70
     1
102
RTVSPropertyOp2
 70
     1
102
RTVSPropertyOp3
 70
     1
102
RTVSPropertyOp4
 70
     1
102
RTVSPropertyOp5
 70
     1
102
RTVSPropertyOp6
 70
     1
102
RTVSPropertyOp7
 70
     1
102
RTVSPropertyOp8
 70
     1
102
RTVSPropertyOp9
 70
     1
102
RTVSPropertyOp10
 70
     1
102
RTVSPropertyOp11
 70
     1
102
RTVSPropertyOp12
 70
     1
102
RTVSPropertyOp13
 70
     1
102
RTVSPropertyOp14
 70
     1
102
RTVSPropertyOp15
 70
     1
102
RTVSPropertyOp16
 70
     1
102
RTVSPropertyOp17
 70
     1
102
RTVSPropertyOp18
 70
     1
102
RTVSPropertyOp19
 70
     1
102
RTVSPropertyOp20
 70
     1
102
RTVSPropertyOp21
 70
     1
102
RTVSPropertyOp22
 70
     1
102
RTVSPropertyOp23
 70
     1
102
RTVSPropertyOp24
 70
     1
102
RTVSPropertyOp25
 70
     1
102
RTVSPropertyOp26
 70
     1
102
RTVSPropertyOp27
 70
     1
102
RTVSPropertyOp28
 70
     1
102
RTVSPropertyOp29
 70
     1
102
RTVSPropertyOp30
 70
     1
102
RTVSPropertyOp31
 70
     1
102
RTVSPropertyOp32
 70
     1
102
RTVSPropertyOp33
 70
     1
102
RTVSPropertyOp34
 70
     1
102
RTVSPropertyOp35
 70
     1
102
RTVSPropertyOp36
 70
     1
102
RTVSPropertyOp37
 70
     1
102
RTVSPropertyOp38
 70
     1
102
RTVSPropertyOp39
 70
     1
102
RTVSPropertyOp40
 70
     1
102
RTVSPropertyOp41
 70
     1
102
RTVSPropertyOp42
 70
     1
102
RTVSPropertyOp43
 70
     1
102
RTVSPropertyOp44
 70
     1
102
RTVSPropertyOp45
 70
     1
102
RTVSPropertyOp46
 70
     1
102
RTVSPropertyOp47
 70
     1
102
RTVSPropertyOp48
 70
     1
102
RTVSPropertyOp49
 70
     1
102
RTVSPropertyOp50
 70
     1
102
RTVSPropertyOp51
 70
     0
102
RTVSPropertyOp52
 70
     0
102
RTVSPropertyOp53
 70
     1
102
RTVSPropertyOp54
 70
     1
102
RTVSPropertyOp55
 70
     1
102
RTVSPropertyOp56
 70
     1
102
RTVSPropertyOp57
 70
     1
102
RTVSPropertyOp58
 70
     1
102
RTVSPropertyOp59
 70
     1
102
RTVSPropertyOp60
 70
     1
102
RTVSPropertyOp61
 70
     1
102
RTVSPropertyOp62
 70
     1
  0
XRECORD
  5
13D14
102
{ACAD_REACTORS
330
13D13
102
}
330
13D13
100
AcDbXrecord
280
     1
102
RTVSPost2010Prop28
280
     0
102
RTVSPost2010PropOp28
 70
     1
102
RTVSPost2010Prop29
280
     1
102
RTVSPost2010PropOp29
 70
     1
102
RTVSPost2010Prop30
280
     1
102
RTVSPost2010PropOp30
 70
     1
102
RTVSPost2010Prop31
280
     0
102
RTVSPost2010PropOp31
 70
     1
102
RTVSPost2010Prop32
280
     0
102
RTVSPost2010PropOp32
 70
     1
102
RTVSPost2010Prop33
280
     0
102
RTVSPost2010PropOp33
 70
     1
102
RTVSPost2010Prop34
280
     0
102
RTVSPost2010PropOp34
 70
     1
102
RTVSPost2010Prop35
280
     0
102
RTVSPost2010PropOp35
 70
     1
102
RTVSPost2010Prop36
280
     0
102
RTVSPost2010PropOp36
 70
     1
102
RTVSPost2010Prop37
 90
       50
102
RTVSPost2010PropOp37
 70
     1
102
RTVSPost2010Prop38
140
0.0
102
RTVSPost2010PropOp38
 70
     1
102
RTVSPost2010Prop39
140
1.0
102
RTVSPost2010PropOp39
 70
     1
102
RTVSPost2010Prop40
 90
        0
102
RTVSPost2010PropOp40
 70
     1
102
RTVSPost2010Prop41ColorIndex
 90
       18
102
RTVSPost2010Prop41ColorRGB
 90
        0
102
RTVSPost2010PropOp41
 70
     1
102
RTVSPost2010Prop42
 90
       50
102
RTVSPost2010PropOp42
 70
     1
102
RTVSPost2010Prop43
 90
        3
102
RTVSPost2010PropOp43
 70
     1
102
RTVSPost2010Prop44ColorIndex
 90
        5
102
RTVSPost2010Prop44ColorRGB
 90
      255
102
RTVSPost2010PropOp44
 70
     1
102
RTVSPost2010Prop45
280
     0
102
RTVSPost2010PropOp45
 70
     1
102
RTVSPost2010Prop46
 90
       50
102
RTVSPost2010PropOp46
 70
     1
102
RTVSPost2010Prop47
 90
       50
102
RTVSPost2010PropOp47
 70
     1
102
RTVSPost2010Prop48
 90
       50
102
RTVSPost2010PropOp48
 70
     1
102
RTVSPost2010Prop49
280
     0
102
RTVSPost2010PropOp49
 70
     1
102
RTVSPost2010Prop50
 90
       50
102
RTVSPost2010PropOp50
 70
     1
102
RTVSPost2010Prop51ColorIndex
 90
      256
102
RTVSPost2010Prop51ColorRGB
 90
-16777216
102
RTVSPost2010PropOp51
 70
     0
102
RTVSPost2010Prop52
140
1.0
102
RTVSPost2010PropOp52
 70
     0
102
RTVSPost2010Prop53
 90
        2
102
RTVSPost2010PropOp53
 70
     1
102
RTVSPost2010Prop54
  1
strokes_ogs.tif
102
RTVSPost2010PropOp54
 70
     1
102
RTVSPost2010Prop55
280
     0
102
RTVSPost2010PropOp55
 70
     1
102
RTVSPost2010Prop56
140
1.0
102
RTVSPost2010PropOp56
 70
     1
102
RTVSPost2010Prop57
140
1.0
102
RTVSPost2010PropOp57
 70
     1
102
RTVSPropertyOp0
 70
     1
102
RTVSPropertyOp1
 70
     1
102
RTVSPropertyOp2
 70
     1
102
RTVSPropertyOp3
 70
     1
102
RTVSPropertyOp4
 70
     1
102
RTVSPropertyOp5
 70
     1
102
RTVSPropertyOp6
 70
     1
102
RTVSPropertyOp7
 70
     1
102
RTVSPropertyOp8
 70
     1
102
RTVSPropertyOp9
 70
     1
102
RTVSPropertyOp10
 70
     1
102
RTVSPropertyOp11
 70
     1
102
RTVSPropertyOp12
 70
     1
102
RTVSPropertyOp13
 70
     1
102
RTVSPropertyOp14
 70
     1
102
RTVSPropertyOp15
 70
     1
102
RTVSPropertyOp16
 70
     1
102
RTVSPropertyOp17
 70
     1
102
RTVSPropertyOp18
 70
     1
102
RTVSPropertyOp19
 70
     1
102
RTVSPropertyOp20
 70
     1
102
RTVSPropertyOp21
 70
     1
102
RTVSPropertyOp22
 70
     1
102
RTVSPropertyOp23
 70
     1
102
RTVSPropertyOp24
 70
     1
102
RTVSPropertyOp25
 70
     1
102
RTVSPropertyOp26
 70
     1
102
RTVSPropertyOp27
 70
     1
102
RTVSPropertyOp28
 70
     1
102
RTVSPropertyOp29
 70
     1
102
RTVSPropertyOp30
 70
     1
102
RTVSPropertyOp31
 70
     1
102
RTVSPropertyOp32
 70
     1
102
RTVSPropertyOp33
 70
     1
102
RTVSPropertyOp34
 70
     1
102
RTVSPropertyOp35
 70
     1
102
RTVSPropertyOp36
 70
     1
102
RTVSPropertyOp37
 70
     1
102
RTVSPropertyOp38
 70
     1
102
RTVSPropertyOp39
 70
     1
102
RTVSPropertyOp40
 70
     1
102
RTVSPropertyOp41
 70
     1
102
RTVSPropertyOp42
 70
     1
102
RTVSPropertyOp43
 70
     1
102
RTVSPropertyOp44
 70
     1
102
RTVSPropertyOp45
 70
     1
102
RTVSPropertyOp46
 70
     1
102
RTVSPropertyOp47
 70
     1
102
RTVSPropertyOp48
 70
     1
102
RTVSPropertyOp49
 70
     1
102
RTVSPropertyOp50
 70
     1
102
RTVSPropertyOp51
 70
     0
102
RTVSPropertyOp52
 70
     0
102
RTVSPropertyOp53
 70
     1
102
RTVSPropertyOp54
 70
     1
102
RTVSPropertyOp55
 70
     1
102
RTVSPropertyOp56
 70
     1
102
RTVSPropertyOp57
 70
     1
102
RTVSPropertyOp58
 70
     1
102
RTVSPropertyOp59
 70
     1
102
RTVSPropertyOp60
 70
     1
102
RTVSPropertyOp61
 70
     1
102
RTVSPropertyOp62
 70
     1
  0
XRECORD
  5
13D16
102
{ACAD_REACTORS
330
13D15
102
}
330
13D15
100
AcDbXrecord
280
     1
102
RTVSPost2010Prop28
280
     0
102
RTVSPost2010PropOp28
 70
     1
102
RTVSPost2010Prop29
280
     1
102
RTVSPost2010PropOp29
 70
     1
102
RTVSPost2010Prop30
280
     1
102
RTVSPost2010PropOp30
 70
     1
102
RTVSPost2010Prop31
280
     0
102
RTVSPost2010PropOp31
 70
     1
102
RTVSPost2010Prop32
280
     0
102
RTVSPost2010PropOp32
 70
     1
102
RTVSPost2010Prop33
280
     0
102
RTVSPost2010PropOp33
 70
     1
102
RTVSPost2010Prop34
280
     0
102
RTVSPost2010PropOp34
 70
     1
102
RTVSPost2010Prop35
280
     0
102
RTVSPost2010PropOp35
 70
     1
102
RTVSPost2010Prop36
280
     0
102
RTVSPost2010PropOp36
 70
     1
102
RTVSPost2010Prop37
 90
       50
102
RTVSPost2010PropOp37
 70
     1
102
RTVSPost2010Prop38
140
0.0
102
RTVSPost2010PropOp38
 70
     1
102
RTVSPost2010Prop39
140
1.0
102
RTVSPost2010PropOp39
 70
     1
102
RTVSPost2010Prop40
 90
        0
102
RTVSPost2010PropOp40
 70
     1
102
RTVSPost2010Prop41ColorIndex
 90
       18
102
RTVSPost2010Prop41ColorRGB
 90
        0
102
RTVSPost2010PropOp41
 70
     1
102
RTVSPost2010Prop42
 90
       50
102
RTVSPost2010PropOp42
 70
     1
102
RTVSPost2010Prop43
 90
        3
102
RTVSPost2010PropOp43
 70
     1
102
RTVSPost2010Prop44ColorIndex
 90
        5
102
RTVSPost2010Prop44ColorRGB
 90
      255
102
RTVSPost2010PropOp44
 70
     1
102
RTVSPost2010Prop45
280
     0
102
RTVSPost2010PropOp45
 70
     1
102
RTVSPost2010Prop46
 90
       50
102
RTVSPost2010PropOp46
 70
     1
102
RTVSPost2010Prop47
 90
       50
102
RTVSPost2010PropOp47
 70
     1
102
RTVSPost2010Prop48
 90
       50
102
RTVSPost2010PropOp48
 70
     1
102
RTVSPost2010Prop49
280
     0
102
RTVSPost2010PropOp49
 70
     1
102
RTVSPost2010Prop50
 90
       50
102
RTVSPost2010PropOp50
 70
     1
102
RTVSPost2010Prop51ColorIndex
 90
      256
102
RTVSPost2010Prop51ColorRGB
 90
-16777216
102
RTVSPost2010PropOp51
 70
     0
102
RTVSPost2010Prop52
140
1.0
102
RTVSPost2010PropOp52
 70
     0
102
RTVSPost2010Prop53
 90
        2
102
RTVSPost2010PropOp53
 70
     1
102
RTVSPost2010Prop54
  1
strokes_ogs.tif
102
RTVSPost2010PropOp54
 70
     1
102
RTVSPost2010Prop55
280
     0
102
RTVSPost2010PropOp55
 70
     1
102
RTVSPost2010Prop56
140
1.0
102
RTVSPost2010PropOp56
 70
     1
102
RTVSPost2010Prop57
140
1.0
102
RTVSPost2010PropOp57
 70
     1
102
RTVSPropertyOp0
 70
     1
102
RTVSPropertyOp1
 70
     1
102
RTVSPropertyOp2
 70
     1
102
RTVSPropertyOp3
 70
     1
102
RTVSPropertyOp4
 70
     1
102
RTVSPropertyOp5
 70
     1
102
RTVSPropertyOp6
 70
     1
102
RTVSPropertyOp7
 70
     1
102
RTVSPropertyOp8
 70
     1
102
RTVSPropertyOp9
 70
     1
102
RTVSPropertyOp10
 70
     1
102
RTVSPropertyOp11
 70
     1
102
RTVSPropertyOp12
 70
     1
102
RTVSPropertyOp13
 70
     1
102
RTVSPropertyOp14
 70
     1
102
RTVSPropertyOp15
 70
     1
102
RTVSPropertyOp16
 70
     1
102
RTVSPropertyOp17
 70
     1
102
RTVSPropertyOp18
 70
     1
102
RTVSPropertyOp19
 70
     1
102
RTVSPropertyOp20
 70
     1
102
RTVSPropertyOp21
 70
     1
102
RTVSPropertyOp22
 70
     1
102
RTVSPropertyOp23
 70
     1
102
RTVSPropertyOp24
 70
     1
102
RTVSPropertyOp25
 70
     1
102
RTVSPropertyOp26
 70
     1
102
RTVSPropertyOp27
 70
     1
102
RTVSPropertyOp28
 70
     1
102
RTVSPropertyOp29
 70
     1
102
RTVSPropertyOp30
 70
     1
102
RTVSPropertyOp31
 70
     1
102
RTVSPropertyOp32
 70
     1
102
RTVSPropertyOp33
 70
     1
102
RTVSPropertyOp34
 70
     1
102
RTVSPropertyOp35
 70
     1
102
RTVSPropertyOp36
 70
     1
102
RTVSPropertyOp37
 70
     1
102
RTVSPropertyOp38
 70
     1
102
RTVSPropertyOp39
 70
     1
102
RTVSPropertyOp40
 70
     1
102
RTVSPropertyOp41
 70
     1
102
RTVSPropertyOp42
 70
     1
102
RTVSPropertyOp43
 70
     1
102
RTVSPropertyOp44
 70
     1
102
RTVSPropertyOp45
 70
     1
102
RTVSPropertyOp46
 70
     1
102
RTVSPropertyOp47
 70
     1
102
RTVSPropertyOp48
 70
     1
102
RTVSPropertyOp49
 70
     1
102
RTVSPropertyOp50
 70
     1
102
RTVSPropertyOp51
 70
     0
102
RTVSPropertyOp52
 70
     0
102
RTVSPropertyOp53
 70
     1
102
RTVSPropertyOp54
 70
     1
102
RTVSPropertyOp55
 70
     1
102
RTVSPropertyOp56
 70
     1
102
RTVSPropertyOp57
 70
     1
102
RTVSPropertyOp58
 70
     1
102
RTVSPropertyOp59
 70
     1
102
RTVSPropertyOp60
 70
     1
102
RTVSPropertyOp61
 70
     1
102
RTVSPropertyOp62
 70
     1
  0
XRECORD
  5
13D18
102
{ACAD_REACTORS
330
13D17
102
}
330
13D17
100
AcDbXrecord
280
     1
102
RTVSPost2010Prop28
280
     0
102
RTVSPost2010PropOp28
 70
     1
102
RTVSPost2010Prop29
280
     1
102
RTVSPost2010PropOp29
 70
     1
102
RTVSPost2010Prop30
280
     1
102
RTVSPost2010PropOp30
 70
     1
102
RTVSPost2010Prop31
280
     0
102
RTVSPost2010PropOp31
 70
     1
102
RTVSPost2010Prop32
280
     0
102
RTVSPost2010PropOp32
 70
     1
102
RTVSPost2010Prop33
280
     0
102
RTVSPost2010PropOp33
 70
     1
102
RTVSPost2010Prop34
280
     0
102
RTVSPost2010PropOp34
 70
     1
102
RTVSPost2010Prop35
280
     0
102
RTVSPost2010PropOp35
 70
     1
102
RTVSPost2010Prop36
280
     0
102
RTVSPost2010PropOp36
 70
     1
102
RTVSPost2010Prop37
 90
       50
102
RTVSPost2010PropOp37
 70
     1
102
RTVSPost2010Prop38
140
0.0
102
RTVSPost2010PropOp38
 70
     1
102
RTVSPost2010Prop39
140
1.0
102
RTVSPost2010PropOp39
 70
     1
102
RTVSPost2010Prop40
 90
        0
102
RTVSPost2010PropOp40
 70
     1
102
RTVSPost2010Prop41ColorIndex
 90
       18
102
RTVSPost2010Prop41ColorRGB
 90
        0
102
RTVSPost2010PropOp41
 70
     1
102
RTVSPost2010Prop42
 90
       50
102
RTVSPost2010PropOp42
 70
     1
102
RTVSPost2010Prop43
 90
        3
102
RTVSPost2010PropOp43
 70
     1
102
RTVSPost2010Prop44ColorIndex
 90
        5
102
RTVSPost2010Prop44ColorRGB
 90
      255
102
RTVSPost2010PropOp44
 70
     1
102
RTVSPost2010Prop45
280
     0
102
RTVSPost2010PropOp45
 70
     1
102
RTVSPost2010Prop46
 90
       50
102
RTVSPost2010PropOp46
 70
     1
102
RTVSPost2010Prop47
 90
       50
102
RTVSPost2010PropOp47
 70
     1
102
RTVSPost2010Prop48
 90
       50
102
RTVSPost2010PropOp48
 70
     1
102
RTVSPost2010Prop49
280
     0
102
RTVSPost2010PropOp49
 70
     1
102
RTVSPost2010Prop50
 90
       50
102
RTVSPost2010PropOp50
 70
     1
102
RTVSPost2010Prop51ColorIndex
 90
      256
102
RTVSPost2010Prop51ColorRGB
 90
-16777216
102
RTVSPost2010PropOp51
 70
     0
102
RTVSPost2010Prop52
140
1.0
102
RTVSPost2010PropOp52
 70
     0
102
RTVSPost2010Prop53
 90
        2
102
RTVSPost2010PropOp53
 70
     1
102
RTVSPost2010Prop54
  1
strokes_ogs.tif
102
RTVSPost2010PropOp54
 70
     1
102
RTVSPost2010Prop55
280
     0
102
RTVSPost2010PropOp55
 70
     1
102
RTVSPost2010Prop56
140
1.0
102
RTVSPost2010PropOp56
 70
     1
102
RTVSPost2010Prop57
140
1.0
102
RTVSPost2010PropOp57
 70
     1
102
RTVSPropertyOp0
 70
     1
102
RTVSPropertyOp1
 70
     1
102
RTVSPropertyOp2
 70
     1
102
RTVSPropertyOp3
 70
     1
102
RTVSPropertyOp4
 70
     1
102
RTVSPropertyOp5
 70
     1
102
RTVSPropertyOp6
 70
     1
102
RTVSPropertyOp7
 70
     1
102
RTVSPropertyOp8
 70
     1
102
RTVSPropertyOp9
 70
     1
102
RTVSPropertyOp10
 70
     1
102
RTVSPropertyOp11
 70
     1
102
RTVSPropertyOp12
 70
     1
102
RTVSPropertyOp13
 70
     1
102
RTVSPropertyOp14
 70
     1
102
RTVSPropertyOp15
 70
     1
102
RTVSPropertyOp16
 70
     1
102
RTVSPropertyOp17
 70
     1
102
RTVSPropertyOp18
 70
     1
102
RTVSPropertyOp19
 70
     1
102
RTVSPropertyOp20
 70
     1
102
RTVSPropertyOp21
 70
     1
102
RTVSPropertyOp22
 70
     1
102
RTVSPropertyOp23
 70
     1
102
RTVSPropertyOp24
 70
     1
102
RTVSPropertyOp25
 70
     1
102
RTVSPropertyOp26
 70
     1
102
RTVSPropertyOp27
 70
     1
102
RTVSPropertyOp28
 70
     1
102
RTVSPropertyOp29
 70
     1
102
RTVSPropertyOp30
 70
     1
102
RTVSPropertyOp31
 70
     1
102
RTVSPropertyOp32
 70
     1
102
RTVSPropertyOp33
 70
     1
102
RTVSPropertyOp34
 70
     1
102
RTVSPropertyOp35
 70
     1
102
RTVSPropertyOp36
 70
     1
102
RTVSPropertyOp37
 70
     1
102
RTVSPropertyOp38
 70
     1
102
RTVSPropertyOp39
 70
     1
102
RTVSPropertyOp40
 70
     1
102
RTVSPropertyOp41
 70
     1
102
RTVSPropertyOp42
 70
     1
102
RTVSPropertyOp43
 70
     1
102
RTVSPropertyOp44
 70
     1
102
RTVSPropertyOp45
 70
     1
102
RTVSPropertyOp46
 70
     1
102
RTVSPropertyOp47
 70
     1
102
RTVSPropertyOp48
 70
     1
102
RTVSPropertyOp49
 70
     1
102
RTVSPropertyOp50
 70
     1
102
RTVSPropertyOp51
 70
     0
102
RTVSPropertyOp52
 70
     0
102
RTVSPropertyOp53
 70
     1
102
RTVSPropertyOp54
 70
     1
102
RTVSPropertyOp55
 70
     1
102
RTVSPropertyOp56
 70
     1
102
RTVSPropertyOp57
 70
     1
102
RTVSPropertyOp58
 70
     1
102
RTVSPropertyOp59
 70
     1
102
RTVSPropertyOp60
 70
     1
102
RTVSPropertyOp61
 70
     1
102
RTVSPropertyOp62
 70
     1
  0
XRECORD
  5
13D1A
102
{ACAD_REACTORS
330
13D19
102
}
330
13D19
100
AcDbXrecord
280
     1
102
RTVSPost2010Prop28
280
     0
102
RTVSPost2010PropOp28
 70
     1
102
RTVSPost2010Prop29
280
     1
102
RTVSPost2010PropOp29
 70
     1
102
RTVSPost2010Prop30
280
     1
102
RTVSPost2010PropOp30
 70
     1
102
RTVSPost2010Prop31
280
     0
102
RTVSPost2010PropOp31
 70
     1
102
RTVSPost2010Prop32
280
     0
102
RTVSPost2010PropOp32
 70
     1
102
RTVSPost2010Prop33
280
     0
102
RTVSPost2010PropOp33
 70
     1
102
RTVSPost2010Prop34
280
     0
102
RTVSPost2010PropOp34
 70
     1
102
RTVSPost2010Prop35
280
     0
102
RTVSPost2010PropOp35
 70
     1
102
RTVSPost2010Prop36
280
     0
102
RTVSPost2010PropOp36
 70
     1
102
RTVSPost2010Prop37
 90
       50
102
RTVSPost2010PropOp37
 70
     1
102
RTVSPost2010Prop38
140
0.0
102
RTVSPost2010PropOp38
 70
     1
102
RTVSPost2010Prop39
140
1.0
102
RTVSPost2010PropOp39
 70
     1
102
RTVSPost2010Prop40
 90
        0
102
RTVSPost2010PropOp40
 70
     1
102
RTVSPost2010Prop41ColorIndex
 90
       18
102
RTVSPost2010Prop41ColorRGB
 90
        0
102
RTVSPost2010PropOp41
 70
     1
102
RTVSPost2010Prop42
 90
       50
102
RTVSPost2010PropOp42
 70
     1
102
RTVSPost2010Prop43
 90
        3
102
RTVSPost2010PropOp43
 70
     1
102
RTVSPost2010Prop44ColorIndex
 90
        5
102
RTVSPost2010Prop44ColorRGB
 90
      255
102
RTVSPost2010PropOp44
 70
     1
102
RTVSPost2010Prop45
280
     0
102
RTVSPost2010PropOp45
 70
     1
102
RTVSPost2010Prop46
 90
       50
102
RTVSPost2010PropOp46
 70
     1
102
RTVSPost2010Prop47
 90
       50
102
RTVSPost2010PropOp47
 70
     1
102
RTVSPost2010Prop48
 90
       50
102
RTVSPost2010PropOp48
 70
     1
102
RTVSPost2010Prop49
280
     0
102
RTVSPost2010PropOp49
 70
     1
102
RTVSPost2010Prop50
 90
       50
102
RTVSPost2010PropOp50
 70
     1
102
RTVSPost2010Prop51ColorIndex
 90
      256
102
RTVSPost2010Prop51ColorRGB
 90
-16777216
102
RTVSPost2010PropOp51
 70
     0
102
RTVSPost2010Prop52
140
1.0
102
RTVSPost2010PropOp52
 70
     0
102
RTVSPost2010Prop53
 90
        2
102
RTVSPost2010PropOp53
 70
     1
102
RTVSPost2010Prop54
  1
strokes_ogs.tif
102
RTVSPost2010PropOp54
 70
     1
102
RTVSPost2010Prop55
280
     0
102
RTVSPost2010PropOp55
 70
     1
102
RTVSPost2010Prop56
140
1.0
102
RTVSPost2010PropOp56
 70
     1
102
RTVSPost2010Prop57
140
1.0
102
RTVSPost2010PropOp57
 70
     1
102
RTVSPropertyOp0
 70
     1
102
RTVSPropertyOp1
 70
     1
102
RTVSPropertyOp2
 70
     1
102
RTVSPropertyOp3
 70
     1
102
RTVSPropertyOp4
 70
     1
102
RTVSPropertyOp5
 70
     1
102
RTVSPropertyOp6
 70
     1
102
RTVSPropertyOp7
 70
     1
102
RTVSPropertyOp8
 70
     1
102
RTVSPropertyOp9
 70
     1
102
RTVSPropertyOp10
 70
     1
102
RTVSPropertyOp11
 70
     1
102
RTVSPropertyOp12
 70
     1
102
RTVSPropertyOp13
 70
     1
102
RTVSPropertyOp14
 70
     1
102
RTVSPropertyOp15
 70
     1
102
RTVSPropertyOp16
 70
     1
102
RTVSPropertyOp17
 70
     1
102
RTVSPropertyOp18
 70
     1
102
RTVSPropertyOp19
 70
     1
102
RTVSPropertyOp20
 70
     1
102
RTVSPropertyOp21
 70
     1
102
RTVSPropertyOp22
 70
     1
102
RTVSPropertyOp23
 70
     1
102
RTVSPropertyOp24
 70
     1
102
RTVSPropertyOp25
 70
     1
102
RTVSPropertyOp26
 70
     1
102
RTVSPropertyOp27
 70
     1
102
RTVSPropertyOp28
 70
     1
102
RTVSPropertyOp29
 70
     1
102
RTVSPropertyOp30
 70
     1
102
RTVSPropertyOp31
 70
     1
102
RTVSPropertyOp32
 70
     1
102
RTVSPropertyOp33
 70
     1
102
RTVSPropertyOp34
 70
     1
102
RTVSPropertyOp35
 70
     1
102
RTVSPropertyOp36
 70
     1
102
RTVSPropertyOp37
 70
     1
102
RTVSPropertyOp38
 70
     1
102
RTVSPropertyOp39
 70
     1
102
RTVSPropertyOp40
 70
     1
102
RTVSPropertyOp41
 70
     1
102
RTVSPropertyOp42
 70
     1
102
RTVSPropertyOp43
 70
     1
102
RTVSPropertyOp44
 70
     1
102
RTVSPropertyOp45
 70
     1
102
RTVSPropertyOp46
 70
     1
102
RTVSPropertyOp47
 70
     1
102
RTVSPropertyOp48
 70
     1
102
RTVSPropertyOp49
 70
     1
102
RTVSPropertyOp50
 70
     1
102
RTVSPropertyOp51
 70
     0
102
RTVSPropertyOp52
 70
     0
102
RTVSPropertyOp53
 70
     1
102
RTVSPropertyOp54
 70
     1
102
RTVSPropertyOp55
 70
     1
102
RTVSPropertyOp56
 70
     1
102
RTVSPropertyOp57
 70
     1
102
RTVSPropertyOp58
 70
     1
102
RTVSPropertyOp59
 70
     1
102
RTVSPropertyOp60
 70
     1
102
RTVSPropertyOp61
 70
     1
102
RTVSPropertyOp62
 70
     1
  0
XRECORD
  5
13D22
102
{ACAD_REACTORS
330
13D21
102
}
330
13D21
100
AcDbXrecord
280
     1
102
RTVSPost2010Prop28
280
     0
102
RTVSPost2010PropOp28
 70
     1
102
RTVSPost2010Prop29
280
     1
102
RTVSPost2010PropOp29
 70
     1
102
RTVSPost2010Prop30
280
     1
102
RTVSPost2010PropOp30
 70
     1
102
RTVSPost2010Prop31
280
     0
102
RTVSPost2010PropOp31
 70
     1
102
RTVSPost2010Prop32
280
     0
102
RTVSPost2010PropOp32
 70
     1
102
RTVSPost2010Prop33
280
     0
102
RTVSPost2010PropOp33
 70
     1
102
RTVSPost2010Prop34
280
     0
102
RTVSPost2010PropOp34
 70
     1
102
RTVSPost2010Prop35
280
     0
102
RTVSPost2010PropOp35
 70
     1
102
RTVSPost2010Prop36
280
     0
102
RTVSPost2010PropOp36
 70
     1
102
RTVSPost2010Prop37
 90
       50
102
RTVSPost2010PropOp37
 70
     1
102
RTVSPost2010Prop38
140
0.0
102
RTVSPost2010PropOp38
 70
     1
102
RTVSPost2010Prop39
140
1.0
102
RTVSPost2010PropOp39
 70
     1
102
RTVSPost2010Prop40
 90
        0
102
RTVSPost2010PropOp40
 70
     1
102
RTVSPost2010Prop41ColorIndex
 90
       18
102
RTVSPost2010Prop41ColorRGB
 90
        0
102
RTVSPost2010PropOp41
 70
     1
102
RTVSPost2010Prop42
 90
       50
102
RTVSPost2010PropOp42
 70
     1
102
RTVSPost2010Prop43
 90
        3
102
RTVSPost2010PropOp43
 70
     1
102
RTVSPost2010Prop44ColorIndex
 90
        5
102
RTVSPost2010Prop44ColorRGB
 90
      255
102
RTVSPost2010PropOp44
 70
     1
102
RTVSPost2010Prop45
280
     0
102
RTVSPost2010PropOp45
 70
     1
102
RTVSPost2010Prop46
 90
       50
102
RTVSPost2010PropOp46
 70
     1
102
RTVSPost2010Prop47
 90
       50
102
RTVSPost2010PropOp47
 70
     1
102
RTVSPost2010Prop48
 90
       50
102
RTVSPost2010PropOp48
 70
     1
102
RTVSPost2010Prop49
280
     0
102
RTVSPost2010PropOp49
 70
     1
102
RTVSPost2010Prop50
 90
       50
102
RTVSPost2010PropOp50
 70
     1
102
RTVSPost2010Prop51ColorIndex
 90
      256
102
RTVSPost2010Prop51ColorRGB
 90
-16777216
102
RTVSPost2010PropOp51
 70
     0
102
RTVSPost2010Prop52
140
1.0
102
RTVSPost2010PropOp52
 70
     0
102
RTVSPost2010Prop53
 90
        2
102
RTVSPost2010PropOp53
 70
     1
102
RTVSPost2010Prop54
  1
strokes_ogs.tif
102
RTVSPost2010PropOp54
 70
     1
102
RTVSPost2010Prop55
280
     0
102
RTVSPost2010PropOp55
 70
     1
102
RTVSPost2010Prop56
140
1.0
102
RTVSPost2010PropOp56
 70
     1
102
RTVSPost2010Prop57
140
1.0
102
RTVSPost2010PropOp57
 70
     1
102
RTVSPropertyOp0
 70
     1
102
RTVSPropertyOp1
 70
     1
102
RTVSPropertyOp2
 70
     1
102
RTVSPropertyOp3
 70
     1
102
RTVSPropertyOp4
 70
     1
102
RTVSPropertyOp5
 70
     1
102
RTVSPropertyOp6
 70
     1
102
RTVSPropertyOp7
 70
     1
102
RTVSPropertyOp8
 70
     1
102
RTVSPropertyOp9
 70
     1
102
RTVSPropertyOp10
 70
     1
102
RTVSPropertyOp11
 70
     1
102
RTVSPropertyOp12
 70
     1
102
RTVSPropertyOp13
 70
     1
102
RTVSPropertyOp14
 70
     1
102
RTVSPropertyOp15
 70
     1
102
RTVSPropertyOp16
 70
     1
102
RTVSPropertyOp17
 70
     1
102
RTVSPropertyOp18
 70
     1
102
RTVSPropertyOp19
 70
     1
102
RTVSPropertyOp20
 70
     1
102
RTVSPropertyOp21
 70
     1
102
RTVSPropertyOp22
 70
     1
102
RTVSPropertyOp23
 70
     1
102
RTVSPropertyOp24
 70
     1
102
RTVSPropertyOp25
 70
     1
102
RTVSPropertyOp26
 70
     1
102
RTVSPropertyOp27
 70
     1
102
RTVSPropertyOp28
 70
     1
102
RTVSPropertyOp29
 70
     1
102
RTVSPropertyOp30
 70
     1
102
RTVSPropertyOp31
 70
     1
102
RTVSPropertyOp32
 70
     1
102
RTVSPropertyOp33
 70
     1
102
RTVSPropertyOp34
 70
     1
102
RTVSPropertyOp35
 70
     1
102
RTVSPropertyOp36
 70
     1
102
RTVSPropertyOp37
 70
     1
102
RTVSPropertyOp38
 70
     1
102
RTVSPropertyOp39
 70
     1
102
RTVSPropertyOp40
 70
     1
102
RTVSPropertyOp41
 70
     1
102
RTVSPropertyOp42
 70
     1
102
RTVSPropertyOp43
 70
     1
102
RTVSPropertyOp44
 70
     1
102
RTVSPropertyOp45
 70
     1
102
RTVSPropertyOp46
 70
     1
102
RTVSPropertyOp47
 70
     1
102
RTVSPropertyOp48
 70
     1
102
RTVSPropertyOp49
 70
     1
102
RTVSPropertyOp50
 70
     1
102
RTVSPropertyOp51
 70
     0
102
RTVSPropertyOp52
 70
     0
102
RTVSPropertyOp53
 70
     1
102
RTVSPropertyOp54
 70
     1
102
RTVSPropertyOp55
 70
     1
102
RTVSPropertyOp56
 70
     1
102
RTVSPropertyOp57
 70
     1
102
RTVSPropertyOp58
 70
     1
102
RTVSPropertyOp59
 70
     1
102
RTVSPropertyOp60
 70
     1
102
RTVSPropertyOp61
 70
     1
102
RTVSPropertyOp62
 70
     1
  0
XRECORD
  5
13D3E
102
{ACAD_REACTORS
330
13D3D
102
}
330
13D3D
100
AcDbXrecord
280
     1
102
RTVSPost2010Prop28
280
     0
102
RTVSPost2010PropOp28
 70
     1
102
RTVSPost2010Prop29
280
     1
102
RTVSPost2010PropOp29
 70
     1
102
RTVSPost2010Prop30
280
     1
102
RTVSPost2010PropOp30
 70
     1
102
RTVSPost2010Prop31
280
     0
102
RTVSPost2010PropOp31
 70
     1
102
RTVSPost2010Prop32
280
     0
102
RTVSPost2010PropOp32
 70
     1
102
RTVSPost2010Prop33
280
     0
102
RTVSPost2010PropOp33
 70
     1
102
RTVSPost2010Prop34
280
     0
102
RTVSPost2010PropOp34
 70
     1
102
RTVSPost2010Prop35
280
     0
102
RTVSPost2010PropOp35
 70
     1
102
RTVSPost2010Prop36
280
     0
102
RTVSPost2010PropOp36
 70
     1
102
RTVSPost2010Prop37
 90
       50
102
RTVSPost2010PropOp37
 70
     0
102
RTVSPost2010Prop38
140
0.0
102
RTVSPost2010PropOp38
 70
     0
102
RTVSPost2010Prop39
140
1.0
102
RTVSPost2010PropOp39
 70
     0
102
RTVSPost2010Prop40
 90
        0
102
RTVSPost2010PropOp40
 70
     0
102
RTVSPost2010Prop41ColorIndex
 90
       18
102
RTVSPost2010Prop41ColorRGB
 90
        0
102
RTVSPost2010PropOp41
 70
     0
102
RTVSPost2010Prop42
 90
       50
102
RTVSPost2010PropOp42
 70
     0
102
RTVSPost2010Prop43
 90
        3
102
RTVSPost2010PropOp43
 70
     0
102
RTVSPost2010Prop44ColorIndex
 90
        5
102
RTVSPost2010Prop44ColorRGB
 90
      255
102
RTVSPost2010PropOp44
 70
     0
102
RTVSPost2010Prop45
280
     0
102
RTVSPost2010PropOp45
 70
     1
102
RTVSPost2010Prop46
 90
       50
102
RTVSPost2010PropOp46
 70
     0
102
RTVSPost2010Prop47
 90
       50
102
RTVSPost2010PropOp47
 70
     0
102
RTVSPost2010Prop48
 90
       50
102
RTVSPost2010PropOp48
 70
     0
102
RTVSPost2010Prop49
280
     0
102
RTVSPost2010PropOp49
 70
     1
102
RTVSPost2010Prop50
 90
       50
102
RTVSPost2010PropOp50
 70
     0
102
RTVSPost2010Prop51ColorIndex
 90
      256
102
RTVSPost2010Prop51ColorRGB
 90
-16777216
102
RTVSPost2010PropOp51
 70
     0
102
RTVSPost2010Prop52
140
1.0
102
RTVSPost2010PropOp52
 70
     0
102
RTVSPost2010Prop53
 90
        2
102
RTVSPost2010PropOp53
 70
     0
102
RTVSPost2010Prop54
  1
strokes_ogs.tif
102
RTVSPost2010PropOp54
 70
     0
102
RTVSPost2010Prop55
280
     0
102
RTVSPost2010PropOp55
 70
     1
102
RTVSPost2010Prop56
140
1.0
102
RTVSPost2010PropOp56
 70
     0
102
RTVSPost2010Prop57
140
1.0
102
RTVSPost2010PropOp57
 70
     0
102
RTVSPropertyOp0
 70
     0
102
RTVSPropertyOp1
 70
     0
102
RTVSPropertyOp2
 70
     0
102
RTVSPropertyOp3
 70
     0
102
RTVSPropertyOp4
 70
     0
102
RTVSPropertyOp5
 70
     0
102
RTVSPropertyOp6
 70
     0
102
RTVSPropertyOp7
 70
     0
102
RTVSPropertyOp8
 70
     0
102
RTVSPropertyOp9
 70
     0
102
RTVSPropertyOp10
 70
     0
102
RTVSPropertyOp11
 70
     0
102
RTVSPropertyOp12
 70
     0
102
RTVSPropertyOp13
 70
     0
102
RTVSPropertyOp14
 70
     2
102
RTVSPropertyOp15
 70
     0
102
RTVSPropertyOp16
 70
     0
102
RTVSPropertyOp17
 70
     0
102
RTVSPropertyOp18
 70
     0
102
RTVSPropertyOp19
 70
     0
102
RTVSPropertyOp20
 70
     0
102
RTVSPropertyOp21
 70
     0
102
RTVSPropertyOp22
 70
     0
102
RTVSPropertyOp23
 70
     0
102
RTVSPropertyOp24
 70
     0
102
RTVSPropertyOp25
 70
     0
102
RTVSPropertyOp26
 70
     0
102
RTVSPropertyOp27
 70
     0
102
RTVSPropertyOp28
 70
     1
102
RTVSPropertyOp29
 70
     1
102
RTVSPropertyOp30
 70
     1
102
RTVSPropertyOp31
 70
     1
102
RTVSPropertyOp32
 70
     1
102
RTVSPropertyOp33
 70
     1
102
RTVSPropertyOp34
 70
     1
102
RTVSPropertyOp35
 70
     1
102
RTVSPropertyOp36
 70
     1
102
RTVSPropertyOp37
 70
     0
102
RTVSPropertyOp38
 70
     0
102
RTVSPropertyOp39
 70
     0
102
RTVSPropertyOp40
 70
     0
102
RTVSPropertyOp41
 70
     0
102
RTVSPropertyOp42
 70
     0
102
RTVSPropertyOp43
 70
     0
102
RTVSPropertyOp44
 70
     0
102
RTVSPropertyOp45
 70
     1
102
RTVSPropertyOp46
 70
     0
102
RTVSPropertyOp47
 70
     0
102
RTVSPropertyOp48
 70
     0
102
RTVSPropertyOp49
 70
     1
102
RTVSPropertyOp50
 70
     0
102
RTVSPropertyOp51
 70
     0
102
RTVSPropertyOp52
 70
     0
102
RTVSPropertyOp53
 70
     0
102
RTVSPropertyOp54
 70
     0
102
RTVSPropertyOp55
 70
     1
102
RTVSPropertyOp56
 70
     0
102
RTVSPropertyOp57
 70
     0
102
RTVSPropertyOp58
 70
     0
102
RTVSPropertyOp59
 70
     0
102
RTVSPropertyOp60
 70
     0
102
RTVSPropertyOp61
 70
     0
102
RTVSPropertyOp62
 70
     0
  0
XRECORD
  5
13D2E
102
{ACAD_REACTORS
330
13D2D
102
}
330
13D2D
100
AcDbXrecord
280
     1
102
RTVSPost2010Prop28
280
     0
102
RTVSPost2010PropOp28
 70
     1
102
RTVSPost2010Prop29
280
     1
102
RTVSPost2010PropOp29
 70
     1
102
RTVSPost2010Prop30
280
     1
102
RTVSPost2010PropOp30
 70
     1
102
RTVSPost2010Prop31
280
     0
102
RTVSPost2010PropOp31
 70
     1
102
RTVSPost2010Prop32
280
     0
102
RTVSPost2010PropOp32
 70
     1
102
RTVSPost2010Prop33
280
     0
102
RTVSPost2010PropOp33
 70
     1
102
RTVSPost2010Prop34
280
     0
102
RTVSPost2010PropOp34
 70
     1
102
RTVSPost2010Prop35
280
     0
102
RTVSPost2010PropOp35
 70
     1
102
RTVSPost2010Prop36
280
     0
102
RTVSPost2010PropOp36
 70
     1
102
RTVSPost2010Prop37
 90
       50
102
RTVSPost2010PropOp37
 70
     1
102
RTVSPost2010Prop38
140
0.0
102
RTVSPost2010PropOp38
 70
     1
102
RTVSPost2010Prop39
140
1.0
102
RTVSPost2010PropOp39
 70
     1
102
RTVSPost2010Prop40
 90
        0
102
RTVSPost2010PropOp40
 70
     1
102
RTVSPost2010Prop41ColorIndex
 90
       18
102
RTVSPost2010Prop41ColorRGB
 90
        0
102
RTVSPost2010PropOp41
 70
     1
102
RTVSPost2010Prop42
 90
       50
102
RTVSPost2010PropOp42
 70
     1
102
RTVSPost2010Prop43
 90
        3
102
RTVSPost2010PropOp43
 70
     1
102
RTVSPost2010Prop44ColorIndex
 90
        5
102
RTVSPost2010Prop44ColorRGB
 90
      255
102
RTVSPost2010PropOp44
 70
     1
102
RTVSPost2010Prop45
280
     0
102
RTVSPost2010PropOp45
 70
     1
102
RTVSPost2010Prop46
 90
       50
102
RTVSPost2010PropOp46
 70
     1
102
RTVSPost2010Prop47
 90
       50
102
RTVSPost2010PropOp47
 70
     1
102
RTVSPost2010Prop48
 90
       50
102
RTVSPost2010PropOp48
 70
     1
102
RTVSPost2010Prop49
280
     0
102
RTVSPost2010PropOp49
 70
     1
102
RTVSPost2010Prop50
 90
       50
102
RTVSPost2010PropOp50
 70
     1
102
RTVSPost2010Prop51ColorIndex
 90
      256
102
RTVSPost2010Prop51ColorRGB
 90
-16777216
102
RTVSPost2010PropOp51
 70
     0
102
RTVSPost2010Prop52
140
1.0
102
RTVSPost2010PropOp52
 70
     0
102
RTVSPost2010Prop53
 90
        2
102
RTVSPost2010PropOp53
 70
     1
102
RTVSPost2010Prop54
  1
strokes_ogs.tif
102
RTVSPost2010PropOp54
 70
     1
102
RTVSPost2010Prop55
280
     0
102
RTVSPost2010PropOp55
 70
     1
102
RTVSPost2010Prop56
140
1.0
102
RTVSPost2010PropOp56
 70
     1
102
RTVSPost2010Prop57
140
1.0
102
RTVSPost2010PropOp57
 70
     1
102
RTVSPropertyOp0
 70
     1
102
RTVSPropertyOp1
 70
     1
102
RTVSPropertyOp2
 70
     1
102
RTVSPropertyOp3
 70
     1
102
RTVSPropertyOp4
 70
     1
102
RTVSPropertyOp5
 70
     1
102
RTVSPropertyOp6
 70
     1
102
RTVSPropertyOp7
 70
     1
102
RTVSPropertyOp8
 70
     1
102
RTVSPropertyOp9
 70
     1
102
RTVSPropertyOp10
 70
     1
102
RTVSPropertyOp11
 70
     1
102
RTVSPropertyOp12
 70
     1
102
RTVSPropertyOp13
 70
     1
102
RTVSPropertyOp14
 70
     1
102
RTVSPropertyOp15
 70
     1
102
RTVSPropertyOp16
 70
     1
102
RTVSPropertyOp17
 70
     1
102
RTVSPropertyOp18
 70
     1
102
RTVSPropertyOp19
 70
     1
102
RTVSPropertyOp20
 70
     1
102
RTVSPropertyOp21
 70
     1
102
RTVSPropertyOp22
 70
     1
102
RTVSPropertyOp23
 70
     1
102
RTVSPropertyOp24
 70
     1
102
RTVSPropertyOp25
 70
     1
102
RTVSPropertyOp26
 70
     1
102
RTVSPropertyOp27
 70
     1
102
RTVSPropertyOp28
 70
     1
102
RTVSPropertyOp29
 70
     1
102
RTVSPropertyOp30
 70
     1
102
RTVSPropertyOp31
 70
     1
102
RTVSPropertyOp32
 70
     1
102
RTVSPropertyOp33
 70
     1
102
RTVSPropertyOp34
 70
     1
102
RTVSPropertyOp35
 70
     1
102
RTVSPropertyOp36
 70
     1
102
RTVSPropertyOp37
 70
     1
102
RTVSPropertyOp38
 70
     1
102
RTVSPropertyOp39
 70
     1
102
RTVSPropertyOp40
 70
     1
102
RTVSPropertyOp41
 70
     1
102
RTVSPropertyOp42
 70
     1
102
RTVSPropertyOp43
 70
     1
102
RTVSPropertyOp44
 70
     1
102
RTVSPropertyOp45
 70
     1
102
RTVSPropertyOp46
 70
     1
102
RTVSPropertyOp47
 70
     1
102
RTVSPropertyOp48
 70
     1
102
RTVSPropertyOp49
 70
     1
102
RTVSPropertyOp50
 70
     1
102
RTVSPropertyOp51
 70
     0
102
RTVSPropertyOp52
 70
     0
102
RTVSPropertyOp53
 70
     1
102
RTVSPropertyOp54
 70
     1
102
RTVSPropertyOp55
 70
     1
102
RTVSPropertyOp56
 70
     1
102
RTVSPropertyOp57
 70
     1
102
RTVSPropertyOp58
 70
     1
102
RTVSPropertyOp59
 70
     1
102
RTVSPropertyOp60
 70
     1
102
RTVSPropertyOp61
 70
     1
102
RTVSPropertyOp62
 70
     1
  0
XRECORD
  5
13D40
102
{ACAD_REACTORS
330
13D3F
102
}
330
13D3F
100
AcDbXrecord
280
     1
102
RTVSPost2010Prop28
280
     0
102
RTVSPost2010PropOp28
 70
     1
102
RTVSPost2010Prop29
280
     1
102
RTVSPost2010PropOp29
 70
     1
102
RTVSPost2010Prop30
280
     1
102
RTVSPost2010PropOp30
 70
     1
102
RTVSPost2010Prop31
280
     0
102
RTVSPost2010PropOp31
 70
     1
102
RTVSPost2010Prop32
280
     0
102
RTVSPost2010PropOp32
 70
     1
102
RTVSPost2010Prop33
280
     0
102
RTVSPost2010PropOp33
 70
     1
102
RTVSPost2010Prop34
280
     0
102
RTVSPost2010PropOp34
 70
     1
102
RTVSPost2010Prop35
280
     0
102
RTVSPost2010PropOp35
 70
     1
102
RTVSPost2010Prop36
280
     0
102
RTVSPost2010PropOp36
 70
     1
102
RTVSPost2010Prop37
 90
       50
102
RTVSPost2010PropOp37
 70
     0
102
RTVSPost2010Prop38
140
0.0
102
RTVSPost2010PropOp38
 70
     0
102
RTVSPost2010Prop39
140
1.0
102
RTVSPost2010PropOp39
 70
     0
102
RTVSPost2010Prop40
 90
        0
102
RTVSPost2010PropOp40
 70
     0
102
RTVSPost2010Prop41ColorIndex
 90
       18
102
RTVSPost2010Prop41ColorRGB
 90
        0
102
RTVSPost2010PropOp41
 70
     0
102
RTVSPost2010Prop42
 90
       50
102
RTVSPost2010PropOp42
 70
     0
102
RTVSPost2010Prop43
 90
        3
102
RTVSPost2010PropOp43
 70
     0
102
RTVSPost2010Prop44ColorIndex
 90
        5
102
RTVSPost2010Prop44ColorRGB
 90
      255
102
RTVSPost2010PropOp44
 70
     0
102
RTVSPost2010Prop45
280
     0
102
RTVSPost2010PropOp45
 70
     1
102
RTVSPost2010Prop46
 90
       50
102
RTVSPost2010PropOp46
 70
     0
102
RTVSPost2010Prop47
 90
       50
102
RTVSPost2010PropOp47
 70
     0
102
RTVSPost2010Prop48
 90
       50
102
RTVSPost2010PropOp48
 70
     0
102
RTVSPost2010Prop49
280
     0
102
RTVSPost2010PropOp49
 70
     1
102
RTVSPost2010Prop50
 90
       50
102
RTVSPost2010PropOp50
 70
     0
102
RTVSPost2010Prop51ColorIndex
 90
      256
102
RTVSPost2010Prop51ColorRGB
 90
-16777216
102
RTVSPost2010PropOp51
 70
     0
102
RTVSPost2010Prop52
140
1.0
102
RTVSPost2010PropOp52
 70
     0
102
RTVSPost2010Prop53
 90
        2
102
RTVSPost2010PropOp53
 70
     0
102
RTVSPost2010Prop54
  1
strokes_ogs.tif
102
RTVSPost2010PropOp54
 70
     0
102
RTVSPost2010Prop55
280
     0
102
RTVSPost2010PropOp55
 70
     1
102
RTVSPost2010Prop56
140
1.0
102
RTVSPost2010PropOp56
 70
     0
102
RTVSPost2010Prop57
140
1.0
102
RTVSPost2010PropOp57
 70
     0
102
RTVSPropertyOp0
 70
     0
102
RTVSPropertyOp1
 70
     0
102
RTVSPropertyOp2
 70
     0
102
RTVSPropertyOp3
 70
     0
102
RTVSPropertyOp4
 70
     0
102
RTVSPropertyOp5
 70
     0
102
RTVSPropertyOp6
 70
     0
102
RTVSPropertyOp7
 70
     0
102
RTVSPropertyOp8
 70
     0
102
RTVSPropertyOp9
 70
     0
102
RTVSPropertyOp10
 70
     0
102
RTVSPropertyOp11
 70
     0
102
RTVSPropertyOp12
 70
     0
102
RTVSPropertyOp13
 70
     0
102
RTVSPropertyOp14
 70
     2
102
RTVSPropertyOp15
 70
     0
102
RTVSPropertyOp16
 70
     0
102
RTVSPropertyOp17
 70
     0
102
RTVSPropertyOp18
 70
     0
102
RTVSPropertyOp19
 70
     0
102
RTVSPropertyOp20
 70
     0
102
RTVSPropertyOp21
 70
     0
102
RTVSPropertyOp22
 70
     0
102
RTVSPropertyOp23
 70
     0
102
RTVSPropertyOp24
 70
     0
102
RTVSPropertyOp25
 70
     0
102
RTVSPropertyOp26
 70
     0
102
RTVSPropertyOp27
 70
     0
102
RTVSPropertyOp28
 70
     1
102
RTVSPropertyOp29
 70
     1
102
RTVSPropertyOp30
 70
     1
102
RTVSPropertyOp31
 70
     1
102
RTVSPropertyOp32
 70
     1
102
RTVSPropertyOp33
 70
     1
102
RTVSPropertyOp34
 70
     1
102
RTVSPropertyOp35
 70
     1
102
RTVSPropertyOp36
 70
     1
102
RTVSPropertyOp37
 70
     0
102
RTVSPropertyOp38
 70
     0
102
RTVSPropertyOp39
 70
     0
102
RTVSPropertyOp40
 70
     0
102
RTVSPropertyOp41
 70
     0
102
RTVSPropertyOp42
 70
     0
102
RTVSPropertyOp43
 70
     0
102
RTVSPropertyOp44
 70
     0
102
RTVSPropertyOp45
 70
     1
102
RTVSPropertyOp46
 70
     0
102
RTVSPropertyOp47
 70
     0
102
RTVSPropertyOp48
 70
     0
102
RTVSPropertyOp49
 70
     1
102
RTVSPropertyOp50
 70
     0
102
RTVSPropertyOp51
 70
     0
102
RTVSPropertyOp52
 70
     0
102
RTVSPropertyOp53
 70
     0
102
RTVSPropertyOp54
 70
     0
102
RTVSPropertyOp55
 70
     1
102
RTVSPropertyOp56
 70
     0
102
RTVSPropertyOp57
 70
     0
102
RTVSPropertyOp58
 70
     0
102
RTVSPropertyOp59
 70
     0
102
RTVSPropertyOp60
 70
     0
102
RTVSPropertyOp61
 70
     0
102
RTVSPropertyOp62
 70
     0
  0
XRECORD
  5
13D26
102
{ACAD_REACTORS
330
13D25
102
}
330
13D25
100
AcDbXrecord
280
     1
102
RTVSPost2010Prop28
280
     0
102
RTVSPost2010PropOp28
 70
     1
102
RTVSPost2010Prop29
280
     1
102
RTVSPost2010PropOp29
 70
     1
102
RTVSPost2010Prop30
280
     1
102
RTVSPost2010PropOp30
 70
     1
102
RTVSPost2010Prop31
280
     0
102
RTVSPost2010PropOp31
 70
     1
102
RTVSPost2010Prop32
280
     0
102
RTVSPost2010PropOp32
 70
     1
102
RTVSPost2010Prop33
280
     0
102
RTVSPost2010PropOp33
 70
     1
102
RTVSPost2010Prop34
280
     0
102
RTVSPost2010PropOp34
 70
     1
102
RTVSPost2010Prop35
280
     0
102
RTVSPost2010PropOp35
 70
     1
102
RTVSPost2010Prop36
280
     0
102
RTVSPost2010PropOp36
 70
     1
102
RTVSPost2010Prop37
 90
       50
102
RTVSPost2010PropOp37
 70
     1
102
RTVSPost2010Prop38
140
0.0
102
RTVSPost2010PropOp38
 70
     1
102
RTVSPost2010Prop39
140
1.0
102
RTVSPost2010PropOp39
 70
     1
102
RTVSPost2010Prop40
 90
        0
102
RTVSPost2010PropOp40
 70
     1
102
RTVSPost2010Prop41ColorIndex
 90
       18
102
RTVSPost2010Prop41ColorRGB
 90
        0
102
RTVSPost2010PropOp41
 70
     1
102
RTVSPost2010Prop42
 90
       50
102
RTVSPost2010PropOp42
 70
     1
102
RTVSPost2010Prop43
 90
        3
102
RTVSPost2010PropOp43
 70
     1
102
RTVSPost2010Prop44ColorIndex
 90
        5
102
RTVSPost2010Prop44ColorRGB
 90
      255
102
RTVSPost2010PropOp44
 70
     1
102
RTVSPost2010Prop45
280
     0
102
RTVSPost2010PropOp45
 70
     1
102
RTVSPost2010Prop46
 90
       50
102
RTVSPost2010PropOp46
 70
     1
102
RTVSPost2010Prop47
 90
       50
102
RTVSPost2010PropOp47
 70
     1
102
RTVSPost2010Prop48
 90
       50
102
RTVSPost2010PropOp48
 70
     1
102
RTVSPost2010Prop49
280
     0
102
RTVSPost2010PropOp49
 70
     1
102
RTVSPost2010Prop50
 90
       50
102
RTVSPost2010PropOp50
 70
     1
102
RTVSPost2010Prop51ColorIndex
 90
      256
102
RTVSPost2010Prop51ColorRGB
 90
-16777216
102
RTVSPost2010PropOp51
 70
     0
102
RTVSPost2010Prop52
140
1.0
102
RTVSPost2010PropOp52
 70
     0
102
RTVSPost2010Prop53
 90
        2
102
RTVSPost2010PropOp53
 70
     1
102
RTVSPost2010Prop54
  1
strokes_ogs.tif
102
RTVSPost2010PropOp54
 70
     1
102
RTVSPost2010Prop55
280
     0
102
RTVSPost2010PropOp55
 70
     1
102
RTVSPost2010Prop56
140
1.0
102
RTVSPost2010PropOp56
 70
     1
102
RTVSPost2010Prop57
140
1.0
102
RTVSPost2010PropOp57
 70
     1
102
RTVSPropertyOp0
 70
     1
102
RTVSPropertyOp1
 70
     1
102
RTVSPropertyOp2
 70
     1
102
RTVSPropertyOp3
 70
     1
102
RTVSPropertyOp4
 70
     1
102
RTVSPropertyOp5
 70
     1
102
RTVSPropertyOp6
 70
     1
102
RTVSPropertyOp7
 70
     1
102
RTVSPropertyOp8
 70
     1
102
RTVSPropertyOp9
 70
     1
102
RTVSPropertyOp10
 70
     1
102
RTVSPropertyOp11
 70
     1
102
RTVSPropertyOp12
 70
     1
102
RTVSPropertyOp13
 70
     1
102
RTVSPropertyOp14
 70
     1
102
RTVSPropertyOp15
 70
     1
102
RTVSPropertyOp16
 70
     1
102
RTVSPropertyOp17
 70
     1
102
RTVSPropertyOp18
 70
     1
102
RTVSPropertyOp19
 70
     1
102
RTVSPropertyOp20
 70
     1
102
RTVSPropertyOp21
 70
     1
102
RTVSPropertyOp22
 70
     1
102
RTVSPropertyOp23
 70
     1
102
RTVSPropertyOp24
 70
     1
102
RTVSPropertyOp25
 70
     1
102
RTVSPropertyOp26
 70
     1
102
RTVSPropertyOp27
 70
     1
102
RTVSPropertyOp28
 70
     1
102
RTVSPropertyOp29
 70
     1
102
RTVSPropertyOp30
 70
     1
102
RTVSPropertyOp31
 70
     1
102
RTVSPropertyOp32
 70
     1
102
RTVSPropertyOp33
 70
     1
102
RTVSPropertyOp34
 70
     1
102
RTVSPropertyOp35
 70
     1
102
RTVSPropertyOp36
 70
     1
102
RTVSPropertyOp37
 70
     1
102
RTVSPropertyOp38
 70
     1
102
RTVSPropertyOp39
 70
     1
102
RTVSPropertyOp40
 70
     1
102
RTVSPropertyOp41
 70
     1
102
RTVSPropertyOp42
 70
     1
102
RTVSPropertyOp43
 70
     1
102
RTVSPropertyOp44
 70
     1
102
RTVSPropertyOp45
 70
     1
102
RTVSPropertyOp46
 70
     1
102
RTVSPropertyOp47
 70
     1
102
RTVSPropertyOp48
 70
     1
102
RTVSPropertyOp49
 70
     1
102
RTVSPropertyOp50
 70
     1
102
RTVSPropertyOp51
 70
     0
102
RTVSPropertyOp52
 70
     0
102
RTVSPropertyOp53
 70
     1
102
RTVSPropertyOp54
 70
     1
102
RTVSPropertyOp55
 70
     1
102
RTVSPropertyOp56
 70
     1
102
RTVSPropertyOp57
 70
     1
102
RTVSPropertyOp58
 70
     1
102
RTVSPropertyOp59
 70
     1
102
RTVSPropertyOp60
 70
     1
102
RTVSPropertyOp61
 70
     1
102
RTVSPropertyOp62
 70
     1
  0
XRECORD
  5
13D3C
102
{ACAD_REACTORS
330
13D3B
102
}
330
13D3B
100
AcDbXrecord
280
     1
102
RTVSPost2010Prop28
280
     0
102
RTVSPost2010PropOp28
 70
     1
102
RTVSPost2010Prop29
280
     1
102
RTVSPost2010PropOp29
 70
     1
102
RTVSPost2010Prop30
280
     1
102
RTVSPost2010PropOp30
 70
     1
102
RTVSPost2010Prop31
280
     0
102
RTVSPost2010PropOp31
 70
     1
102
RTVSPost2010Prop32
280
     0
102
RTVSPost2010PropOp32
 70
     1
102
RTVSPost2010Prop33
280
     0
102
RTVSPost2010PropOp33
 70
     1
102
RTVSPost2010Prop34
280
     0
102
RTVSPost2010PropOp34
 70
     1
102
RTVSPost2010Prop35
280
     0
102
RTVSPost2010PropOp35
 70
     1
102
RTVSPost2010Prop36
280
     0
102
RTVSPost2010PropOp36
 70
     1
102
RTVSPost2010Prop37
 90
       50
102
RTVSPost2010PropOp37
 70
     1
102
RTVSPost2010Prop38
140
0.0
102
RTVSPost2010PropOp38
 70
     1
102
RTVSPost2010Prop39
140
1.0
102
RTVSPost2010PropOp39
 70
     1
102
RTVSPost2010Prop40
 90
        0
102
RTVSPost2010PropOp40
 70
     1
102
RTVSPost2010Prop41ColorIndex
 90
       18
102
RTVSPost2010Prop41ColorRGB
 90
        0
102
RTVSPost2010PropOp41
 70
     1
102
RTVSPost2010Prop42
 90
       50
102
RTVSPost2010PropOp42
 70
     1
102
RTVSPost2010Prop43
 90
        3
102
RTVSPost2010PropOp43
 70
     1
102
RTVSPost2010Prop44ColorIndex
 90
        5
102
RTVSPost2010Prop44ColorRGB
 90
      255
102
RTVSPost2010PropOp44
 70
     1
102
RTVSPost2010Prop45
280
     0
102
RTVSPost2010PropOp45
 70
     1
102
RTVSPost2010Prop46
 90
       50
102
RTVSPost2010PropOp46
 70
     1
102
RTVSPost2010Prop47
 90
       50
102
RTVSPost2010PropOp47
 70
     1
102
RTVSPost2010Prop48
 90
       50
102
RTVSPost2010PropOp48
 70
     1
102
RTVSPost2010Prop49
280
     0
102
RTVSPost2010PropOp49
 70
     1
102
RTVSPost2010Prop50
 90
       50
102
RTVSPost2010PropOp50
 70
     1
102
RTVSPost2010Prop51ColorIndex
 90
      256
102
RTVSPost2010Prop51ColorRGB
 90
-16777216
102
RTVSPost2010PropOp51
 70
     0
102
RTVSPost2010Prop52
140
1.0
102
RTVSPost2010PropOp52
 70
     0
102
RTVSPost2010Prop53
 90
        2
102
RTVSPost2010PropOp53
 70
     1
102
RTVSPost2010Prop54
  1
strokes_ogs.tif
102
RTVSPost2010PropOp54
 70
     1
102
RTVSPost2010Prop55
280
     0
102
RTVSPost2010PropOp55
 70
     1
102
RTVSPost2010Prop56
140
1.0
102
RTVSPost2010PropOp56
 70
     1
102
RTVSPost2010Prop57
140
1.0
102
RTVSPost2010PropOp57
 70
     1
102
RTVSPropertyOp0
 70
     1
102
RTVSPropertyOp1
 70
     1
102
RTVSPropertyOp2
 70
     1
102
RTVSPropertyOp3
 70
     1
102
RTVSPropertyOp4
 70
     1
102
RTVSPropertyOp5
 70
     1
102
RTVSPropertyOp6
 70
     1
102
RTVSPropertyOp7
 70
     1
102
RTVSPropertyOp8
 70
     1
102
RTVSPropertyOp9
 70
     1
102
RTVSPropertyOp10
 70
     1
102
RTVSPropertyOp11
 70
     1
102
RTVSPropertyOp12
 70
     1
102
RTVSPropertyOp13
 70
     1
102
RTVSPropertyOp14
 70
     1
102
RTVSPropertyOp15
 70
     1
102
RTVSPropertyOp16
 70
     1
102
RTVSPropertyOp17
 70
     1
102
RTVSPropertyOp18
 70
     1
102
RTVSPropertyOp19
 70
     1
102
RTVSPropertyOp20
 70
     1
102
RTVSPropertyOp21
 70
     1
102
RTVSPropertyOp22
 70
     1
102
RTVSPropertyOp23
 70
     1
102
RTVSPropertyOp24
 70
     1
102
RTVSPropertyOp25
 70
     1
102
RTVSPropertyOp26
 70
     1
102
RTVSPropertyOp27
 70
     1
102
RTVSPropertyOp28
 70
     1
102
RTVSPropertyOp29
 70
     1
102
RTVSPropertyOp30
 70
     1
102
RTVSPropertyOp31
 70
     1
102
RTVSPropertyOp32
 70
     1
102
RTVSPropertyOp33
 70
     1
102
RTVSPropertyOp34
 70
     1
102
RTVSPropertyOp35
 70
     1
102
RTVSPropertyOp36
 70
     1
102
RTVSPropertyOp37
 70
     1
102
RTVSPropertyOp38
 70
     1
102
RTVSPropertyOp39
 70
     1
102
RTVSPropertyOp40
 70
     1
102
RTVSPropertyOp41
 70
     1
102
RTVSPropertyOp42
 70
     1
102
RTVSPropertyOp43
 70
     1
102
RTVSPropertyOp44
 70
     1
102
RTVSPropertyOp45
 70
     1
102
RTVSPropertyOp46
 70
     1
102
RTVSPropertyOp47
 70
     1
102
RTVSPropertyOp48
 70
     1
102
RTVSPropertyOp49
 70
     1
102
RTVSPropertyOp50
 70
     1
102
RTVSPropertyOp51
 70
     0
102
RTVSPropertyOp52
 70
     0
102
RTVSPropertyOp53
 70
     1
102
RTVSPropertyOp54
 70
     1
102
RTVSPropertyOp55
 70
     1
102
RTVSPropertyOp56
 70
     1
102
RTVSPropertyOp57
 70
     1
102
RTVSPropertyOp58
 70
     1
102
RTVSPropertyOp59
 70
     1
102
RTVSPropertyOp60
 70
     1
102
RTVSPropertyOp61
 70
     1
102
RTVSPropertyOp62
 70
     1
  0
XRECORD
  5
13D3A
102
{ACAD_REACTORS
330
13D39
102
}
330
13D39
100
AcDbXrecord
280
     1
102
RTVSPost2010Prop28
280
     0
102
RTVSPost2010PropOp28
 70
     1
102
RTVSPost2010Prop29
280
     1
102
RTVSPost2010PropOp29
 70
     1
102
RTVSPost2010Prop30
280
     1
102
RTVSPost2010PropOp30
 70
     1
102
RTVSPost2010Prop31
280
     0
102
RTVSPost2010PropOp31
 70
     1
102
RTVSPost2010Prop32
280
     0
102
RTVSPost2010PropOp32
 70
     1
102
RTVSPost2010Prop33
280
     0
102
RTVSPost2010PropOp33
 70
     1
102
RTVSPost2010Prop34
280
     0
102
RTVSPost2010PropOp34
 70
     1
102
RTVSPost2010Prop35
280
     0
102
RTVSPost2010PropOp35
 70
     1
102
RTVSPost2010Prop36
280
     0
102
RTVSPost2010PropOp36
 70
     1
102
RTVSPost2010Prop37
 90
       50
102
RTVSPost2010PropOp37
 70
     1
102
RTVSPost2010Prop38
140
0.0
102
RTVSPost2010PropOp38
 70
     1
102
RTVSPost2010Prop39
140
1.0
102
RTVSPost2010PropOp39
 70
     1
102
RTVSPost2010Prop40
 90
        0
102
RTVSPost2010PropOp40
 70
     1
102
RTVSPost2010Prop41ColorIndex
 90
       18
102
RTVSPost2010Prop41ColorRGB
 90
        0
102
RTVSPost2010PropOp41
 70
     1
102
RTVSPost2010Prop42
 90
       50
102
RTVSPost2010PropOp42
 70
     1
102
RTVSPost2010Prop43
 90
        3
102
RTVSPost2010PropOp43
 70
     1
102
RTVSPost2010Prop44ColorIndex
 90
        5
102
RTVSPost2010Prop44ColorRGB
 90
      255
102
RTVSPost2010PropOp44
 70
     1
102
RTVSPost2010Prop45
280
     0
102
RTVSPost2010PropOp45
 70
     1
102
RTVSPost2010Prop46
 90
       50
102
RTVSPost2010PropOp46
 70
     1
102
RTVSPost2010Prop47
 90
       50
102
RTVSPost2010PropOp47
 70
     1
102
RTVSPost2010Prop48
 90
       50
102
RTVSPost2010PropOp48
 70
     1
102
RTVSPost2010Prop49
280
     0
102
RTVSPost2010PropOp49
 70
     1
102
RTVSPost2010Prop50
 90
       50
102
RTVSPost2010PropOp50
 70
     1
102
RTVSPost2010Prop51ColorIndex
 90
      256
102
RTVSPost2010Prop51ColorRGB
 90
-16777216
102
RTVSPost2010PropOp51
 70
     0
102
RTVSPost2010Prop52
140
1.0
102
RTVSPost2010PropOp52
 70
     0
102
RTVSPost2010Prop53
 90
        2
102
RTVSPost2010PropOp53
 70
     1
102
RTVSPost2010Prop54
  1
strokes_ogs.tif
102
RTVSPost2010PropOp54
 70
     1
102
RTVSPost2010Prop55
280
     0
102
RTVSPost2010PropOp55
 70
     1
102
RTVSPost2010Prop56
140
1.0
102
RTVSPost2010PropOp56
 70
     1
102
RTVSPost2010Prop57
140
1.0
102
RTVSPost2010PropOp57
 70
     1
102
RTVSPropertyOp0
 70
     1
102
RTVSPropertyOp1
 70
     1
102
RTVSPropertyOp2
 70
     1
102
RTVSPropertyOp3
 70
     1
102
RTVSPropertyOp4
 70
     1
102
RTVSPropertyOp5
 70
     1
102
RTVSPropertyOp6
 70
     1
102
RTVSPropertyOp7
 70
     1
102
RTVSPropertyOp8
 70
     1
102
RTVSPropertyOp9
 70
     1
102
RTVSPropertyOp10
 70
     1
102
RTVSPropertyOp11
 70
     1
102
RTVSPropertyOp12
 70
     1
102
RTVSPropertyOp13
 70
     1
102
RTVSPropertyOp14
 70
     1
102
RTVSPropertyOp15
 70
     1
102
RTVSPropertyOp16
 70
     1
102
RTVSPropertyOp17
 70
     1
102
RTVSPropertyOp18
 70
     1
102
RTVSPropertyOp19
 70
     1
102
RTVSPropertyOp20
 70
     1
102
RTVSPropertyOp21
 70
     1
102
RTVSPropertyOp22
 70
     1
102
RTVSPropertyOp23
 70
     1
102
RTVSPropertyOp24
 70
     1
102
RTVSPropertyOp25
 70
     1
102
RTVSPropertyOp26
 70
     1
102
RTVSPropertyOp27
 70
     1
102
RTVSPropertyOp28
 70
     1
102
RTVSPropertyOp29
 70
     1
102
RTVSPropertyOp30
 70
     1
102
RTVSPropertyOp31
 70
     1
102
RTVSPropertyOp32
 70
     1
102
RTVSPropertyOp33
 70
     1
102
RTVSPropertyOp34
 70
     1
102
RTVSPropertyOp35
 70
     1
102
RTVSPropertyOp36
 70
     1
102
RTVSPropertyOp37
 70
     1
102
RTVSPropertyOp38
 70
     1
102
RTVSPropertyOp39
 70
     1
102
RTVSPropertyOp40
 70
     1
102
RTVSPropertyOp41
 70
     1
102
RTVSPropertyOp42
 70
     1
102
RTVSPropertyOp43
 70
     1
102
RTVSPropertyOp44
 70
     1
102
RTVSPropertyOp45
 70
     1
102
RTVSPropertyOp46
 70
     1
102
RTVSPropertyOp47
 70
     1
102
RTVSPropertyOp48
 70
     1
102
RTVSPropertyOp49
 70
     1
102
RTVSPropertyOp50
 70
     1
102
RTVSPropertyOp51
 70
     0
102
RTVSPropertyOp52
 70
     0
102
RTVSPropertyOp53
 70
     1
102
RTVSPropertyOp54
 70
     1
102
RTVSPropertyOp55
 70
     1
102
RTVSPropertyOp56
 70
     1
102
RTVSPropertyOp57
 70
     1
102
RTVSPropertyOp58
 70
     1
102
RTVSPropertyOp59
 70
     1
102
RTVSPropertyOp60
 70
     1
102
RTVSPropertyOp61
 70
     1
102
RTVSPropertyOp62
 70
     1
  0
XRECORD
  5
13D34
102
{ACAD_REACTORS
330
13D33
102
}
330
13D33
100
AcDbXrecord
280
     1
102
RTVSPost2010Prop28
280
     0
102
RTVSPost2010PropOp28
 70
     1
102
RTVSPost2010Prop29
280
     1
102
RTVSPost2010PropOp29
 70
     1
102
RTVSPost2010Prop30
280
     1
102
RTVSPost2010PropOp30
 70
     1
102
RTVSPost2010Prop31
280
     0
102
RTVSPost2010PropOp31
 70
     1
102
RTVSPost2010Prop32
280
     0
102
RTVSPost2010PropOp32
 70
     1
102
RTVSPost2010Prop33
280
     0
102
RTVSPost2010PropOp33
 70
     1
102
RTVSPost2010Prop34
280
     0
102
RTVSPost2010PropOp34
 70
     1
102
RTVSPost2010Prop35
280
     0
102
RTVSPost2010PropOp35
 70
     1
102
RTVSPost2010Prop36
280
     0
102
RTVSPost2010PropOp36
 70
     1
102
RTVSPost2010Prop37
 90
       50
102
RTVSPost2010PropOp37
 70
     1
102
RTVSPost2010Prop38
140
0.0
102
RTVSPost2010PropOp38
 70
     1
102
RTVSPost2010Prop39
140
1.0
102
RTVSPost2010PropOp39
 70
     1
102
RTVSPost2010Prop40
 90
        0
102
RTVSPost2010PropOp40
 70
     1
102
RTVSPost2010Prop41ColorIndex
 90
       18
102
RTVSPost2010Prop41ColorRGB
 90
        0
102
RTVSPost2010PropOp41
 70
     1
102
RTVSPost2010Prop42
 90
       50
102
RTVSPost2010PropOp42
 70
     1
102
RTVSPost2010Prop43
 90
        3
102
RTVSPost2010PropOp43
 70
     1
102
RTVSPost2010Prop44ColorIndex
 90
        5
102
RTVSPost2010Prop44ColorRGB
 90
      255
102
RTVSPost2010PropOp44
 70
     1
102
RTVSPost2010Prop45
280
     0
102
RTVSPost2010PropOp45
 70
     1
102
RTVSPost2010Prop46
 90
       50
102
RTVSPost2010PropOp46
 70
     1
102
RTVSPost2010Prop47
 90
       50
102
RTVSPost2010PropOp47
 70
     1
102
RTVSPost2010Prop48
 90
       50
102
RTVSPost2010PropOp48
 70
     1
102
RTVSPost2010Prop49
280
     0
102
RTVSPost2010PropOp49
 70
     1
102
RTVSPost2010Prop50
 90
       50
102
RTVSPost2010PropOp50
 70
     1
102
RTVSPost2010Prop51ColorIndex
 90
      256
102
RTVSPost2010Prop51ColorRGB
 90
-16777216
102
RTVSPost2010PropOp51
 70
     0
102
RTVSPost2010Prop52
140
1.0
102
RTVSPost2010PropOp52
 70
     0
102
RTVSPost2010Prop53
 90
        2
102
RTVSPost2010PropOp53
 70
     1
102
RTVSPost2010Prop54
  1
strokes_ogs.tif
102
RTVSPost2010PropOp54
 70
     1
102
RTVSPost2010Prop55
280
     0
102
RTVSPost2010PropOp55
 70
     1
102
RTVSPost2010Prop56
140
1.0
102
RTVSPost2010PropOp56
 70
     1
102
RTVSPost2010Prop57
140
1.0
102
RTVSPost2010PropOp57
 70
     1
102
RTVSPropertyOp0
 70
     1
102
RTVSPropertyOp1
 70
     1
102
RTVSPropertyOp2
 70
     1
102
RTVSPropertyOp3
 70
     1
102
RTVSPropertyOp4
 70
     1
102
RTVSPropertyOp5
 70
     1
102
RTVSPropertyOp6
 70
     1
102
RTVSPropertyOp7
 70
     1
102
RTVSPropertyOp8
 70
     1
102
RTVSPropertyOp9
 70
     1
102
RTVSPropertyOp10
 70
     1
102
RTVSPropertyOp11
 70
     1
102
RTVSPropertyOp12
 70
     1
102
RTVSPropertyOp13
 70
     1
102
RTVSPropertyOp14
 70
     1
102
RTVSPropertyOp15
 70
     1
102
RTVSPropertyOp16
 70
     1
102
RTVSPropertyOp17
 70
     1
102
RTVSPropertyOp18
 70
     1
102
RTVSPropertyOp19
 70
     1
102
RTVSPropertyOp20
 70
     1
102
RTVSPropertyOp21
 70
     1
102
RTVSPropertyOp22
 70
     1
102
RTVSPropertyOp23
 70
     1
102
RTVSPropertyOp24
 70
     1
102
RTVSPropertyOp25
 70
     1
102
RTVSPropertyOp26
 70
     1
102
RTVSPropertyOp27
 70
     1
102
RTVSPropertyOp28
 70
     1
102
RTVSPropertyOp29
 70
     1
102
RTVSPropertyOp30
 70
     1
102
RTVSPropertyOp31
 70
     1
102
RTVSPropertyOp32
 70
     1
102
RTVSPropertyOp33
 70
     1
102
RTVSPropertyOp34
 70
     1
102
RTVSPropertyOp35
 70
     1
102
RTVSPropertyOp36
 70
     1
102
RTVSPropertyOp37
 70
     1
102
RTVSPropertyOp38
 70
     1
102
RTVSPropertyOp39
 70
     1
102
RTVSPropertyOp40
 70
     1
102
RTVSPropertyOp41
 70
     1
102
RTVSPropertyOp42
 70
     1
102
RTVSPropertyOp43
 70
     1
102
RTVSPropertyOp44
 70
     1
102
RTVSPropertyOp45
 70
     1
102
RTVSPropertyOp46
 70
     1
102
RTVSPropertyOp47
 70
     1
102
RTVSPropertyOp48
 70
     1
102
RTVSPropertyOp49
 70
     1
102
RTVSPropertyOp50
 70
     1
102
RTVSPropertyOp51
 70
     0
102
RTVSPropertyOp52
 70
     0
102
RTVSPropertyOp53
 70
     1
102
RTVSPropertyOp54
 70
     1
102
RTVSPropertyOp55
 70
     1
102
RTVSPropertyOp56
 70
     1
102
RTVSPropertyOp57
 70
     1
102
RTVSPropertyOp58
 70
     1
102
RTVSPropertyOp59
 70
     1
102
RTVSPropertyOp60
 70
     1
102
RTVSPropertyOp61
 70
     1
102
RTVSPropertyOp62
 70
     1
  0
XRECORD
  5
13D36
102
{ACAD_REACTORS
330
13D35
102
}
330
13D35
100
AcDbXrecord
280
     1
102
RTVSPost2010Prop28
280
     0
102
RTVSPost2010PropOp28
 70
     1
102
RTVSPost2010Prop29
280
     1
102
RTVSPost2010PropOp29
 70
     1
102
RTVSPost2010Prop30
280
     1
102
RTVSPost2010PropOp30
 70
     1
102
RTVSPost2010Prop31
280
     0
102
RTVSPost2010PropOp31
 70
     1
102
RTVSPost2010Prop32
280
     0
102
RTVSPost2010PropOp32
 70
     1
102
RTVSPost2010Prop33
280
     0
102
RTVSPost2010PropOp33
 70
     1
102
RTVSPost2010Prop34
280
     0
102
RTVSPost2010PropOp34
 70
     1
102
RTVSPost2010Prop35
280
     0
102
RTVSPost2010PropOp35
 70
     1
102
RTVSPost2010Prop36
280
     0
102
RTVSPost2010PropOp36
 70
     1
102
RTVSPost2010Prop37
 90
       50
102
RTVSPost2010PropOp37
 70
     1
102
RTVSPost2010Prop38
140
0.0
102
RTVSPost2010PropOp38
 70
     1
102
RTVSPost2010Prop39
140
1.0
102
RTVSPost2010PropOp39
 70
     1
102
RTVSPost2010Prop40
 90
        0
102
RTVSPost2010PropOp40
 70
     1
102
RTVSPost2010Prop41ColorIndex
 90
       18
102
RTVSPost2010Prop41ColorRGB
 90
        0
102
RTVSPost2010PropOp41
 70
     1
102
RTVSPost2010Prop42
 90
       50
102
RTVSPost2010PropOp42
 70
     1
102
RTVSPost2010Prop43
 90
        3
102
RTVSPost2010PropOp43
 70
     1
102
RTVSPost2010Prop44ColorIndex
 90
        5
102
RTVSPost2010Prop44ColorRGB
 90
      255
102
RTVSPost2010PropOp44
 70
     1
102
RTVSPost2010Prop45
280
     0
102
RTVSPost2010PropOp45
 70
     1
102
RTVSPost2010Prop46
 90
       50
102
RTVSPost2010PropOp46
 70
     1
102
RTVSPost2010Prop47
 90
       50
102
RTVSPost2010PropOp47
 70
     1
102
RTVSPost2010Prop48
 90
       50
102
RTVSPost2010PropOp48
 70
     1
102
RTVSPost2010Prop49
280
     0
102
RTVSPost2010PropOp49
 70
     1
102
RTVSPost2010Prop50
 90
       50
102
RTVSPost2010PropOp50
 70
     1
102
RTVSPost2010Prop51ColorIndex
 90
      256
102
RTVSPost2010Prop51ColorRGB
 90
-16777216
102
RTVSPost2010PropOp51
 70
     0
102
RTVSPost2010Prop52
140
1.0
102
RTVSPost2010PropOp52
 70
     0
102
RTVSPost2010Prop53
 90
        2
102
RTVSPost2010PropOp53
 70
     1
102
RTVSPost2010Prop54
  1
strokes_ogs.tif
102
RTVSPost2010PropOp54
 70
     1
102
RTVSPost2010Prop55
280
     0
102
RTVSPost2010PropOp55
 70
     1
102
RTVSPost2010Prop56
140
1.0
102
RTVSPost2010PropOp56
 70
     1
102
RTVSPost2010Prop57
140
1.0
102
RTVSPost2010PropOp57
 70
     1
102
RTVSPropertyOp0
 70
     1
102
RTVSPropertyOp1
 70
     1
102
RTVSPropertyOp2
 70
     1
102
RTVSPropertyOp3
 70
     1
102
RTVSPropertyOp4
 70
     1
102
RTVSPropertyOp5
 70
     1
102
RTVSPropertyOp6
 70
     1
102
RTVSPropertyOp7
 70
     1
102
RTVSPropertyOp8
 70
     1
102
RTVSPropertyOp9
 70
     1
102
RTVSPropertyOp10
 70
     1
102
RTVSPropertyOp11
 70
     1
102
RTVSPropertyOp12
 70
     1
102
RTVSPropertyOp13
 70
     1
102
RTVSPropertyOp14
 70
     1
102
RTVSPropertyOp15
 70
     1
102
RTVSPropertyOp16
 70
     1
102
RTVSPropertyOp17
 70
     1
102
RTVSPropertyOp18
 70
     1
102
RTVSPropertyOp19
 70
     1
102
RTVSPropertyOp20
 70
     1
102
RTVSPropertyOp21
 70
     1
102
RTVSPropertyOp22
 70
     1
102
RTVSPropertyOp23
 70
     1
102
RTVSPropertyOp24
 70
     1
102
RTVSPropertyOp25
 70
     1
102
RTVSPropertyOp26
 70
     1
102
RTVSPropertyOp27
 70
     1
102
RTVSPropertyOp28
 70
     1
102
RTVSPropertyOp29
 70
     1
102
RTVSPropertyOp30
 70
     1
102
RTVSPropertyOp31
 70
     1
102
RTVSPropertyOp32
 70
     1
102
RTVSPropertyOp33
 70
     1
102
RTVSPropertyOp34
 70
     1
102
RTVSPropertyOp35
 70
     1
102
RTVSPropertyOp36
 70
     1
102
RTVSPropertyOp37
 70
     1
102
RTVSPropertyOp38
 70
     1
102
RTVSPropertyOp39
 70
     1
102
RTVSPropertyOp40
 70
     1
102
RTVSPropertyOp41
 70
     1
102
RTVSPropertyOp42
 70
     1
102
RTVSPropertyOp43
 70
     1
102
RTVSPropertyOp44
 70
     1
102
RTVSPropertyOp45
 70
     1
102
RTVSPropertyOp46
 70
     1
102
RTVSPropertyOp47
 70
     1
102
RTVSPropertyOp48
 70
     1
102
RTVSPropertyOp49
 70
     1
102
RTVSPropertyOp50
 70
     1
102
RTVSPropertyOp51
 70
     0
102
RTVSPropertyOp52
 70
     0
102
RTVSPropertyOp53
 70
     1
102
RTVSPropertyOp54
 70
     1
102
RTVSPropertyOp55
 70
     1
102
RTVSPropertyOp56
 70
     1
102
RTVSPropertyOp57
 70
     1
102
RTVSPropertyOp58
 70
     1
102
RTVSPropertyOp59
 70
     1
102
RTVSPropertyOp60
 70
     1
102
RTVSPropertyOp61
 70
     1
102
RTVSPropertyOp62
 70
     1
  0
XRECORD
  5
13D2C
102
{ACAD_REACTORS
330
13D2B
102
}
330
13D2B
100
AcDbXrecord
280
     1
102
RTVSPost2010Prop28
280
     0
102
RTVSPost2010PropOp28
 70
     1
102
RTVSPost2010Prop29
280
     1
102
RTVSPost2010PropOp29
 70
     1
102
RTVSPost2010Prop30
280
     1
102
RTVSPost2010PropOp30
 70
     1
102
RTVSPost2010Prop31
280
     0
102
RTVSPost2010PropOp31
 70
     1
102
RTVSPost2010Prop32
280
     0
102
RTVSPost2010PropOp32
 70
     1
102
RTVSPost2010Prop33
280
     0
102
RTVSPost2010PropOp33
 70
     1
102
RTVSPost2010Prop34
280
     0
102
RTVSPost2010PropOp34
 70
     1
102
RTVSPost2010Prop35
280
     0
102
RTVSPost2010PropOp35
 70
     1
102
RTVSPost2010Prop36
280
     0
102
RTVSPost2010PropOp36
 70
     1
102
RTVSPost2010Prop37
 90
       50
102
RTVSPost2010PropOp37
 70
     1
102
RTVSPost2010Prop38
140
0.0
102
RTVSPost2010PropOp38
 70
     1
102
RTVSPost2010Prop39
140
1.0
102
RTVSPost2010PropOp39
 70
     1
102
RTVSPost2010Prop40
 90
        0
102
RTVSPost2010PropOp40
 70
     1
102
RTVSPost2010Prop41ColorIndex
 90
       18
102
RTVSPost2010Prop41ColorRGB
 90
        0
102
RTVSPost2010PropOp41
 70
     1
102
RTVSPost2010Prop42
 90
       50
102
RTVSPost2010PropOp42
 70
     1
102
RTVSPost2010Prop43
 90
        3
102
RTVSPost2010PropOp43
 70
     1
102
RTVSPost2010Prop44ColorIndex
 90
        5
102
RTVSPost2010Prop44ColorRGB
 90
      255
102
RTVSPost2010PropOp44
 70
     1
102
RTVSPost2010Prop45
280
     0
102
RTVSPost2010PropOp45
 70
     1
102
RTVSPost2010Prop46
 90
       50
102
RTVSPost2010PropOp46
 70
     1
102
RTVSPost2010Prop47
 90
       50
102
RTVSPost2010PropOp47
 70
     1
102
RTVSPost2010Prop48
 90
       50
102
RTVSPost2010PropOp48
 70
     1
102
RTVSPost2010Prop49
280
     0
102
RTVSPost2010PropOp49
 70
     1
102
RTVSPost2010Prop50
 90
       50
102
RTVSPost2010PropOp50
 70
     1
102
RTVSPost2010Prop51ColorIndex
 90
      256
102
RTVSPost2010Prop51ColorRGB
 90
-16777216
102
RTVSPost2010PropOp51
 70
     0
102
RTVSPost2010Prop52
140
1.0
102
RTVSPost2010PropOp52
 70
     0
102
RTVSPost2010Prop53
 90
        2
102
RTVSPost2010PropOp53
 70
     1
102
RTVSPost2010Prop54
  1
strokes_ogs.tif
102
RTVSPost2010PropOp54
 70
     1
102
RTVSPost2010Prop55
280
     0
102
RTVSPost2010PropOp55
 70
     1
102
RTVSPost2010Prop56
140
1.0
102
RTVSPost2010PropOp56
 70
     1
102
RTVSPost2010Prop57
140
1.0
102
RTVSPost2010PropOp57
 70
     1
102
RTVSPropertyOp0
 70
     1
102
RTVSPropertyOp1
 70
     1
102
RTVSPropertyOp2
 70
     1
102
RTVSPropertyOp3
 70
     1
102
RTVSPropertyOp4
 70
     1
102
RTVSPropertyOp5
 70
     1
102
RTVSPropertyOp6
 70
     1
102
RTVSPropertyOp7
 70
     1
102
RTVSPropertyOp8
 70
     1
102
RTVSPropertyOp9
 70
     1
102
RTVSPropertyOp10
 70
     1
102
RTVSPropertyOp11
 70
     1
102
RTVSPropertyOp12
 70
     1
102
RTVSPropertyOp13
 70
     1
102
RTVSPropertyOp14
 70
     1
102
RTVSPropertyOp15
 70
     1
102
RTVSPropertyOp16
 70
     1
102
RTVSPropertyOp17
 70
     1
102
RTVSPropertyOp18
 70
     1
102
RTVSPropertyOp19
 70
     1
102
RTVSPropertyOp20
 70
     1
102
RTVSPropertyOp21
 70
     1
102
RTVSPropertyOp22
 70
     1
102
RTVSPropertyOp23
 70
     1
102
RTVSPropertyOp24
 70
     1
102
RTVSPropertyOp25
 70
     1
102
RTVSPropertyOp26
 70
     1
102
RTVSPropertyOp27
 70
     1
102
RTVSPropertyOp28
 70
     1
102
RTVSPropertyOp29
 70
     1
102
RTVSPropertyOp30
 70
     1
102
RTVSPropertyOp31
 70
     1
102
RTVSPropertyOp32
 70
     1
102
RTVSPropertyOp33
 70
     1
102
RTVSPropertyOp34
 70
     1
102
RTVSPropertyOp35
 70
     1
102
RTVSPropertyOp36
 70
     1
102
RTVSPropertyOp37
 70
     1
102
RTVSPropertyOp38
 70
     1
102
RTVSPropertyOp39
 70
     1
102
RTVSPropertyOp40
 70
     1
102
RTVSPropertyOp41
 70
     1
102
RTVSPropertyOp42
 70
     1
102
RTVSPropertyOp43
 70
     1
102
RTVSPropertyOp44
 70
     1
102
RTVSPropertyOp45
 70
     1
102
RTVSPropertyOp46
 70
     1
102
RTVSPropertyOp47
 70
     1
102
RTVSPropertyOp48
 70
     1
102
RTVSPropertyOp49
 70
     1
102
RTVSPropertyOp50
 70
     1
102
RTVSPropertyOp51
 70
     0
102
RTVSPropertyOp52
 70
     0
102
RTVSPropertyOp53
 70
     1
102
RTVSPropertyOp54
 70
     1
102
RTVSPropertyOp55
 70
     1
102
RTVSPropertyOp56
 70
     1
102
RTVSPropertyOp57
 70
     1
102
RTVSPropertyOp58
 70
     1
102
RTVSPropertyOp59
 70
     1
102
RTVSPropertyOp60
 70
     1
102
RTVSPropertyOp61
 70
     1
102
RTVSPropertyOp62
 70
     1
  0
XRECORD
  5
13D20
102
{ACAD_REACTORS
330
13D1F
102
}
330
13D1F
100
AcDbXrecord
280
     1
102
RTVSPost2010Prop28
280
     0
102
RTVSPost2010PropOp28
 70
     1
102
RTVSPost2010Prop29
280
     1
102
RTVSPost2010PropOp29
 70
     1
102
RTVSPost2010Prop30
280
     1
102
RTVSPost2010PropOp30
 70
     1
102
RTVSPost2010Prop31
280
     0
102
RTVSPost2010PropOp31
 70
     1
102
RTVSPost2010Prop32
280
     0
102
RTVSPost2010PropOp32
 70
     1
102
RTVSPost2010Prop33
280
     0
102
RTVSPost2010PropOp33
 70
     1
102
RTVSPost2010Prop34
280
     0
102
RTVSPost2010PropOp34
 70
     1
102
RTVSPost2010Prop35
280
     0
102
RTVSPost2010PropOp35
 70
     1
102
RTVSPost2010Prop36
280
     0
102
RTVSPost2010PropOp36
 70
     1
102
RTVSPost2010Prop37
 90
       50
102
RTVSPost2010PropOp37
 70
     1
102
RTVSPost2010Prop38
140
0.0
102
RTVSPost2010PropOp38
 70
     1
102
RTVSPost2010Prop39
140
1.0
102
RTVSPost2010PropOp39
 70
     1
102
RTVSPost2010Prop40
 90
        0
102
RTVSPost2010PropOp40
 70
     1
102
RTVSPost2010Prop41ColorIndex
 90
       18
102
RTVSPost2010Prop41ColorRGB
 90
        0
102
RTVSPost2010PropOp41
 70
     1
102
RTVSPost2010Prop42
 90
       50
102
RTVSPost2010PropOp42
 70
     1
102
RTVSPost2010Prop43
 90
        3
102
RTVSPost2010PropOp43
 70
     1
102
RTVSPost2010Prop44ColorIndex
 90
        5
102
RTVSPost2010Prop44ColorRGB
 90
      255
102
RTVSPost2010PropOp44
 70
     1
102
RTVSPost2010Prop45
280
     0
102
RTVSPost2010PropOp45
 70
     1
102
RTVSPost2010Prop46
 90
       50
102
RTVSPost2010PropOp46
 70
     1
102
RTVSPost2010Prop47
 90
       50
102
RTVSPost2010PropOp47
 70
     1
102
RTVSPost2010Prop48
 90
       50
102
RTVSPost2010PropOp48
 70
     1
102
RTVSPost2010Prop49
280
     0
102
RTVSPost2010PropOp49
 70
     1
102
RTVSPost2010Prop50
 90
       50
102
RTVSPost2010PropOp50
 70
     1
102
RTVSPost2010Prop51ColorIndex
 90
      256
102
RTVSPost2010Prop51ColorRGB
 90
-16777216
102
RTVSPost2010PropOp51
 70
     0
102
RTVSPost2010Prop52
140
1.0
102
RTVSPost2010PropOp52
 70
     0
102
RTVSPost2010Prop53
 90
        2
102
RTVSPost2010PropOp53
 70
     1
102
RTVSPost2010Prop54
  1
strokes_ogs.tif
102
RTVSPost2010PropOp54
 70
     1
102
RTVSPost2010Prop55
280
     0
102
RTVSPost2010PropOp55
 70
     1
102
RTVSPost2010Prop56
140
1.0
102
RTVSPost2010PropOp56
 70
     1
102
RTVSPost2010Prop57
140
1.0
102
RTVSPost2010PropOp57
 70
     1
102
RTVSPropertyOp0
 70
     1
102
RTVSPropertyOp1
 70
     1
102
RTVSPropertyOp2
 70
     1
102
RTVSPropertyOp3
 70
     1
102
RTVSPropertyOp4
 70
     1
102
RTVSPropertyOp5
 70
     1
102
RTVSPropertyOp6
 70
     1
102
RTVSPropertyOp7
 70
     1
102
RTVSPropertyOp8
 70
     1
102
RTVSPropertyOp9
 70
     1
102
RTVSPropertyOp10
 70
     1
102
RTVSPropertyOp11
 70
     1
102
RTVSPropertyOp12
 70
     1
102
RTVSPropertyOp13
 70
     1
102
RTVSPropertyOp14
 70
     1
102
RTVSPropertyOp15
 70
     1
102
RTVSPropertyOp16
 70
     1
102
RTVSPropertyOp17
 70
     1
102
RTVSPropertyOp18
 70
     1
102
RTVSPropertyOp19
 70
     1
102
RTVSPropertyOp20
 70
     1
102
RTVSPropertyOp21
 70
     1
102
RTVSPropertyOp22
 70
     1
102
RTVSPropertyOp23
 70
     1
102
RTVSPropertyOp24
 70
     1
102
RTVSPropertyOp25
 70
     1
102
RTVSPropertyOp26
 70
     1
102
RTVSPropertyOp27
 70
     1
102
RTVSPropertyOp28
 70
     1
102
RTVSPropertyOp29
 70
     1
102
RTVSPropertyOp30
 70
     1
102
RTVSPropertyOp31
 70
     1
102
RTVSPropertyOp32
 70
     1
102
RTVSPropertyOp33
 70
     1
102
RTVSPropertyOp34
 70
     1
102
RTVSPropertyOp35
 70
     1
102
RTVSPropertyOp36
 70
     1
102
RTVSPropertyOp37
 70
     1
102
RTVSPropertyOp38
 70
     1
102
RTVSPropertyOp39
 70
     1
102
RTVSPropertyOp40
 70
     1
102
RTVSPropertyOp41
 70
     1
102
RTVSPropertyOp42
 70
     1
102
RTVSPropertyOp43
 70
     1
102
RTVSPropertyOp44
 70
     1
102
RTVSPropertyOp45
 70
     1
102
RTVSPropertyOp46
 70
     1
102
RTVSPropertyOp47
 70
     1
102
RTVSPropertyOp48
 70
     1
102
RTVSPropertyOp49
 70
     1
102
RTVSPropertyOp50
 70
     1
102
RTVSPropertyOp51
 70
     0
102
RTVSPropertyOp52
 70
     0
102
RTVSPropertyOp53
 70
     1
102
RTVSPropertyOp54
 70
     1
102
RTVSPropertyOp55
 70
     1
102
RTVSPropertyOp56
 70
     1
102
RTVSPropertyOp57
 70
     1
102
RTVSPropertyOp58
 70
     1
102
RTVSPropertyOp59
 70
     1
102
RTVSPropertyOp60
 70
     1
102
RTVSPropertyOp61
 70
     1
102
RTVSPropertyOp62
 70
     1
  0
XRECORD
  5
13D38
102
{ACAD_REACTORS
330
13D37
102
}
330
13D37
100
AcDbXrecord
280
     1
102
RTVSPost2010Prop28
280
     0
102
RTVSPost2010PropOp28
 70
     1
102
RTVSPost2010Prop29
280
     1
102
RTVSPost2010PropOp29
 70
     1
102
RTVSPost2010Prop30
280
     1
102
RTVSPost2010PropOp30
 70
     1
102
RTVSPost2010Prop31
280
     0
102
RTVSPost2010PropOp31
 70
     1
102
RTVSPost2010Prop32
280
     0
102
RTVSPost2010PropOp32
 70
     1
102
RTVSPost2010Prop33
280
     0
102
RTVSPost2010PropOp33
 70
     1
102
RTVSPost2010Prop34
280
     0
102
RTVSPost2010PropOp34
 70
     1
102
RTVSPost2010Prop35
280
     0
102
RTVSPost2010PropOp35
 70
     1
102
RTVSPost2010Prop36
280
     0
102
RTVSPost2010PropOp36
 70
     1
102
RTVSPost2010Prop37
 90
       50
102
RTVSPost2010PropOp37
 70
     1
102
RTVSPost2010Prop38
140
0.0
102
RTVSPost2010PropOp38
 70
     1
102
RTVSPost2010Prop39
140
1.0
102
RTVSPost2010PropOp39
 70
     1
102
RTVSPost2010Prop40
 90
        0
102
RTVSPost2010PropOp40
 70
     1
102
RTVSPost2010Prop41ColorIndex
 90
       18
102
RTVSPost2010Prop41ColorRGB
 90
        0
102
RTVSPost2010PropOp41
 70
     1
102
RTVSPost2010Prop42
 90
       50
102
RTVSPost2010PropOp42
 70
     1
102
RTVSPost2010Prop43
 90
        3
102
RTVSPost2010PropOp43
 70
     1
102
RTVSPost2010Prop44ColorIndex
 90
        5
102
RTVSPost2010Prop44ColorRGB
 90
      255
102
RTVSPost2010PropOp44
 70
     1
102
RTVSPost2010Prop45
280
     0
102
RTVSPost2010PropOp45
 70
     1
102
RTVSPost2010Prop46
 90
       50
102
RTVSPost2010PropOp46
 70
     1
102
RTVSPost2010Prop47
 90
       50
102
RTVSPost2010PropOp47
 70
     1
102
RTVSPost2010Prop48
 90
       50
102
RTVSPost2010PropOp48
 70
     1
102
RTVSPost2010Prop49
280
     0
102
RTVSPost2010PropOp49
 70
     1
102
RTVSPost2010Prop50
 90
       50
102
RTVSPost2010PropOp50
 70
     1
102
RTVSPost2010Prop51ColorIndex
 90
      256
102
RTVSPost2010Prop51ColorRGB
 90
-16777216
102
RTVSPost2010PropOp51
 70
     0
102
RTVSPost2010Prop52
140
1.0
102
RTVSPost2010PropOp52
 70
     0
102
RTVSPost2010Prop53
 90
        2
102
RTVSPost2010PropOp53
 70
     1
102
RTVSPost2010Prop54
  1
strokes_ogs.tif
102
RTVSPost2010PropOp54
 70
     1
102
RTVSPost2010Prop55
280
     0
102
RTVSPost2010PropOp55
 70
     1
102
RTVSPost2010Prop56
140
1.0
102
RTVSPost2010PropOp56
 70
     1
102
RTVSPost2010Prop57
140
1.0
102
RTVSPost2010PropOp57
 70
     1
102
RTVSPropertyOp0
 70
     1
102
RTVSPropertyOp1
 70
     1
102
RTVSPropertyOp2
 70
     1
102
RTVSPropertyOp3
 70
     1
102
RTVSPropertyOp4
 70
     1
102
RTVSPropertyOp5
 70
     1
102
RTVSPropertyOp6
 70
     1
102
RTVSPropertyOp7
 70
     1
102
RTVSPropertyOp8
 70
     1
102
RTVSPropertyOp9
 70
     1
102
RTVSPropertyOp10
 70
     1
102
RTVSPropertyOp11
 70
     1
102
RTVSPropertyOp12
 70
     1
102
RTVSPropertyOp13
 70
     1
102
RTVSPropertyOp14
 70
     1
102
RTVSPropertyOp15
 70
     1
102
RTVSPropertyOp16
 70
     1
102
RTVSPropertyOp17
 70
     1
102
RTVSPropertyOp18
 70
     1
102
RTVSPropertyOp19
 70
     1
102
RTVSPropertyOp20
 70
     1
102
RTVSPropertyOp21
 70
     1
102
RTVSPropertyOp22
 70
     1
102
RTVSPropertyOp23
 70
     1
102
RTVSPropertyOp24
 70
     1
102
RTVSPropertyOp25
 70
     1
102
RTVSPropertyOp26
 70
     1
102
RTVSPropertyOp27
 70
     1
102
RTVSPropertyOp28
 70
     1
102
RTVSPropertyOp29
 70
     1
102
RTVSPropertyOp30
 70
     1
102
RTVSPropertyOp31
 70
     1
102
RTVSPropertyOp32
 70
     1
102
RTVSPropertyOp33
 70
     1
102
RTVSPropertyOp34
 70
     1
102
RTVSPropertyOp35
 70
     1
102
RTVSPropertyOp36
 70
     1
102
RTVSPropertyOp37
 70
     1
102
RTVSPropertyOp38
 70
     1
102
RTVSPropertyOp39
 70
     1
102
RTVSPropertyOp40
 70
     1
102
RTVSPropertyOp41
 70
     1
102
RTVSPropertyOp42
 70
     1
102
RTVSPropertyOp43
 70
     1
102
RTVSPropertyOp44
 70
     1
102
RTVSPropertyOp45
 70
     1
102
RTVSPropertyOp46
 70
     1
102
RTVSPropertyOp47
 70
     1
102
RTVSPropertyOp48
 70
     1
102
RTVSPropertyOp49
 70
     1
102
RTVSPropertyOp50
 70
     1
102
RTVSPropertyOp51
 70
     0
102
RTVSPropertyOp52
 70
     0
102
RTVSPropertyOp53
 70
     1
102
RTVSPropertyOp54
 70
     1
102
RTVSPropertyOp55
 70
     1
102
RTVSPropertyOp56
 70
     1
102
RTVSPropertyOp57
 70
     1
102
RTVSPropertyOp58
 70
     1
102
RTVSPropertyOp59
 70
     1
102
RTVSPropertyOp60
 70
     1
102
RTVSPropertyOp61
 70
     1
102
RTVSPropertyOp62
 70
     1
  0
ENDSEC
  0
EOF
