  0
SECTION
  2
HEADER
  9
$ACADVER
  1
AC1015
  9
$ACADMAINTVER
 70
    20
  9
$DWGCODEPAGE
  3
ANSI_932
  9
$INSBASE
 10
0.0
 20
0.0
 30
0.0
  9
$EXTMIN
 10
10.0
 20
9.999999999999998
 30
0.0
  9
$EXTMAX
 10
1162.5
 20
734.4999999999998
 30
0.0
  9
$LIMMIN
 10
0.0
 20
0.0
  9
$LIMMAX
 10
1267.2
 20
873.6
  9
$ORTHOMODE
 70
     1
  9
$REGENMODE
 70
     1
  9
$FILLMODE
 70
     1
  9
$QTEXTMODE
 70
     0
  9
$MIRRTEXT
 70
     1
  9
$LTSCALE
 40
20.0
  9
$ATTMODE
 70
     1
  9
$TEXTSIZE
 40
5.0
  9
$TRACEWID
 40
1.0
  9
$TEXTSTYLE
  7
STANDARD
  9
$CLAYER
  8
0
  9
$CELTYPE
  6
BYLAYER
  9
$CECOLOR
 62
   256
  9
$CELTSCALE
 40
1.0
  9
$DISPSILH
 70
     0
  9
$DIMSCALE
 40
1.0
  9
$DIMASZ
 40
2.5
  9
$DIMEXO
 40
1.0
  9
$DIMDLI
 40
10.0
  9
$DIMRND
 40
0.0
  9
$DIMDLE
 40
0.0
  9
$DIMEXE
 40
1.0
  9
$DIMTP
 40
0.0
  9
$DIMTM
 40
0.0
  9
$DIMTXT
 40
2.5
  9
$DIMCEN
 40
0.0
  9
$DIMTSZ
 40
0.0
  9
$DIMTOL
 70
     0
  9
$DIMLIM
 70
     0
  9
$DIMTIH
 70
     0
  9
$DIMTOH
 70
     0
  9
$DIMSE1
 70
     0
  9
$DIMSE2
 70
     0
  9
$DIMTAD
 70
     3
  9
$DIMZIN
 70
     8
  9
$DIMBLK
  1

  9
$DIMASO
 70
     1
  9
$DIMSHO
 70
     1
  9
$DIMPOST
  1

  9
$DIMAPOST
  1

  9
$DIMALT
 70
     0
  9
$DIMALTD
 70
     2
  9
$DIMALTF
 40
25.4
  9
$DIMLFAC
 40
1.0
  9
$DIMTOFL
 70
     1
  9
$DIMTVP
 40
0.0
  9
$DIMTIX
 70
     0
  9
$DIMSOXD
 70
     0
  9
$DIMSAH
 70
     1
  9
$DIMBLK1
  1

  9
$DIMBLK2
  1

  9
$DIMSTYLE
  2
STANDARD
  9
$DIMCLRD
 70
     0
  9
$DIMCLRE
 70
     0
  9
$DIMCLRT
 70
     0
  9
$DIMTFAC
 40
1.0
  9
$DIMGAP
 40
1.0
  9
$DIMJUST
 70
     0
  9
$DIMSD1
 70
     0
  9
$DIMSD2
 70
     0
  9
$DIMTOLJ
 70
     1
  9
$DIMTZIN
 70
     0
  9
$DIMALTZ
 70
     0
  9
$DIMALTTZ
 70
     0
  9
$DIMUPT
 70
     0
  9
$DIMDEC
 70
     4
  9
$DIMTDEC
 70
     4
  9
$DIMALTU
 70
     2
  9
$DIMALTTD
 70
     2
  9
$DIMTXSTY
  7
STANDARD
  9
$DIMAUNIT
 70
     0
  9
$DIMADEC
 70
     0
  9
$DIMALTRND
 40
0.0
  9
$DIMAZIN
 70
     0
  9
$DIMDSEP
 70
    46
  9
$DIMATFIT
 70
     3
  9
$DIMFRAC
 70
     0
  9
$DIMLDRBLK
  1

  9
$DIMLUNIT
 70
     2
  9
$DIMLWD
 70
    -2
  9
$DIMLWE
 70
    -2
  9
$DIMTMOVE
 70
     0
  9
$LUNITS
 70
     2
  9
$LUPREC
 70
     4
  9
$SKETCHINC
 40
1.0
  9
$FILLETRAD
 40
0.0
  9
$AUNITS
 70
     0
  9
$AUPREC
 70
     2
  9
$MENU
  1
.
  9
$ELEVATION
 40
0.0
  9
$PELEVATION
 40
0.0
  9
$THICKNESS
 40
0.0
  9
$LIMCHECK
 70
     0
  9
$CHAMFERA
 40
10.0
  9
$CHAMFERB
 40
10.0
  9
$CHAMFERC
 40
0.0
  9
$CHAMFERD
 40
0.0
  9
$SKPOLY
 70
     0
  9
$TDCREATE
 40
2451263.699261227
  9
$TDUCREATE
 40
2451263.324261227
  9
$TDUPDATE
 40
2457192.661620509
  9
$TDUUPDATE
 40
2457192.286620510
  9
$TDINDWG
 40
0.0000152315
  9
$TDUSRTIMER
 40
0.0000147569
  9
$USRTIMER
 70
     1
  9
$ANGBASE
 50
0.0
  9
$ANGDIR
 70
     0
  9
$PDMODE
 70
     0
  9
$PDSIZE
 40
0.0
  9
$PLINEWID
 40
0.0
  9
$SPLFRAME
 70
     0
  9
$SPLINETYPE
 70
     6
  9
$SPLINESEGS
 70
     8
  9
$HANDSEED
  5
15DB7
  9
$SURFTAB1
 70
     6
  9
$SURFTAB2
 70
     6
  9
$SURFTYPE
 70
     6
  9
$SURFU
 70
     6
  9
$SURFV
 70
     6
  9
$UCSBASE
  2

  9
$UCSNAME
  2

  9
$UCSORG
 10
0.0
 20
0.0
 30
0.0
  9
$UCSXDIR
 10
1.0
 20
0.0
 30
0.0
  9
$UCSYDIR
 10
0.0
 20
1.0
 30
0.0
  9
$UCSORTHOREF
  2

  9
$UCSORTHOVIEW
 70
     0
  9
$UCSORGTOP
 10
0.0
 20
0.0
 30
0.0
  9
$UCSORGBOTTOM
 10
0.0
 20
0.0
 30
0.0
  9
$UCSORGLEFT
 10
0.0
 20
0.0
 30
0.0
  9
$UCSORGRIGHT
 10
0.0
 20
0.0
 30
0.0
  9
$UCSORGFRONT
 10
0.0
 20
0.0
 30
0.0
  9
$UCSORGBACK
 10
0.0
 20
0.0
 30
0.0
  9
$PUCSBASE
  2

  9
$PUCSNAME
  2

  9
$PUCSORG
 10
0.0
 20
0.0
 30
0.0
  9
$PUCSXDIR
 10
1.0
 20
0.0
 30
0.0
  9
$PUCSYDIR
 10
0.0
 20
1.0
 30
0.0
  9
$PUCSORTHOREF
  2

  9
$PUCSORTHOVIEW
 70
     0
  9
$PUCSORGTOP
 10
0.0
 20
0.0
 30
0.0
  9
$PUCSORGBOTTOM
 10
0.0
 20
0.0
 30
0.0
  9
$PUCSORGLEFT
 10
0.0
 20
0.0
 30
0.0
  9
$PUCSORGRIGHT
 10
0.0
 20
0.0
 30
0.0
  9
$PUCSORGFRONT
 10
0.0
 20
0.0
 30
0.0
  9
$PUCSORGBACK
 10
0.0
 20
0.0
 30
0.0
  9
$USERI1
 70
     0
  9
$USERI2
 70
     0
  9
$USERI3
 70
     0
  9
$USERI4
 70
     0
  9
$USERI5
 70
     0
  9
$USERR1
 40
0.0
  9
$USERR2
 40
0.0
  9
$USERR3
 40
0.0
  9
$USERR4
 40
0.0
  9
$USERR5
 40
0.0
  9
$WORLDVIEW
 70
     1
  9
$SHADEDGE
 70
     3
  9
$SHADEDIF
 70
    70
  9
$TILEMODE
 70
     1
  9
$MAXACTVP
 70
    16
  9
$PINSBASE
 10
0.0
 20
0.0
 30
0.0
  9
$PLIMCHECK
 70
     0
  9
$PEXTMIN
 10
1.000000000000000E+20
 20
1.000000000000000E+20
 30
1.000000000000000E+20
  9
$PEXTMAX
 10
-1.000000000000000E+20
 20
-1.000000000000000E+20
 30
-1.000000000000000E+20
  9
$PLIMMIN
 10
0.0
 20
0.0
  9
$PLIMMAX
 10
420.0
 20
297.0
  9
$UNITMODE
 70
     0
  9
$VISRETAIN
 70
     0
  9
$PLINEGEN
 70
     0
  9
$PSLTSCALE
 70
     0
  9
$TREEDEPTH
 70
  3020
  9
$CMLSTYLE
  2
STANDARD
  9
$CMLJUST
 70
     0
  9
$CMLSCALE
 40
1.0
  9
$PROXYGRAPHICS
 70
     1
  9
$MEASUREMENT
 70
     0
  9
$CELWEIGHT
370
    -1
  9
$ENDCAPS
280
     0
  9
$JOINSTYLE
280
     0
  9
$LWDISPLAY
290
     0
  9
$INSUNITS
 70
     0
  9
$HYPERLINKBASE
  1

  9
$STYLESHEET
  1

  9
$XEDIT
290
     1
  9
$CEPSNTYPE
380
     0
  9
$PSTYLEMODE
290
     1
  9
$FINGERPRINTGUID
  2
{94664DDE-500B-4FAD-901C-2CC2F23D6A9C}
  9
$VERSIONGUID
  2
{9E251688-4215-4B6B-B8F3-8BF3314C4474}
  9
$EXTNAMES
290
     1
  9
$PSVPSCALE
 40
0.0
  9
$OLESTARTUP
290
     0
  0
ENDSEC
  0
SECTION
  2
CLASSES
  0
CLASS
  1
ACDBDICTIONARYWDFLT
  2
AcDbDictionaryWithDefault
  3
ObjectDBX Classes
 90
        0
280
     0
281
     0
  0
CLASS
  1
ACDBPLACEHOLDER
  2
AcDbPlaceHolder
  3
ObjectDBX Classes
 90
        0
280
     0
281
     0
  0
CLASS
  1
LAYOUT
  2
AcDbLayout
  3
ObjectDBX Classes
 90
        0
280
     0
281
     0
  0
CLASS
  1
DICTIONARYVAR
  2
AcDbDictionaryVar
  3
ObjectDBX Classes
 90
        0
280
     0
281
     0
  0
CLASS
  1
MATERIAL
  2
AcDbMaterial
  3
ObjectDBX Classes
 90
     1153
280
     0
281
     0
  0
CLASS
  1
VISUALSTYLE
  2
AcDbVisualStyle
  3
ObjectDBX Classes
 90
     4095
280
     0
281
     0
  0
CLASS
  1
TABLESTYLE
  2
AcDbTableStyle
  3
ObjectDBX Classes
 90
     4095
280
     0
281
     0
  0
CLASS
  1
SCALE
  2
AcDbScale
  3
ObjectDBX Classes
 90
     1153
280
     0
281
     0
  0
CLASS
  1
MLEADERSTYLE
  2
AcDbMLeaderStyle
  3
ACDB_MLEADERSTYLE_CLASS
 90
     4095
280
     0
281
     0
  0
CLASS
  1
ACDBSECTIONVIEWSTYLE
  2
AcDbSectionViewStyle
  3
ObjectDBX Classes
 90
     1025
280
     0
281
     0
  0
CLASS
  1
ACDBDETAILVIEWSTYLE
  2
AcDbDetailViewStyle
  3
ObjectDBX Classes
 90
     1025
280
     0
281
     0
  0
CLASS
  1
CELLSTYLEMAP
  2
AcDbCellStyleMap
  3
ObjectDBX Classes
 90
     1152
280
     0
281
     0
  0
ENDSEC
  0
SECTION
  2
TABLES
  0
TABLE
  2
VPORT
  5
157C9
330
0
100
AcDbSymbolTable
 70
     1
  0
VPORT
  5
15D00
330
157C9
100
AcDbSymbolTableRecord
100
AcDbViewportTableRecord
  2
*ACTIVE
 70
     0
 10
0.0
 20
0.0
 11
1.0
 21
1.0
 12
805.6820144192524
 22
372.2490986385488
 13
0.0
 23
0.0
 14
10.0
 24
10.0
 15
10.0
 25
10.0
 16
0.0
 26
0.0
 36
1.0
 17
0.0
 27
0.0
 37
0.0
 40
732.6601376806273
 41
1.899603698811096
 42
50.0
 43
0.0
 44
0.0
 50
0.0
 51
0.0
 71
     0
 72
   100
 73
     1
 74
     0
 75
     0
 76
     0
 77
     0
 78
     0
281
     0
 65
     1
110
0.0
120
0.0
130
0.0
111
1.0
121
0.0
131
0.0
112
0.0
122
1.0
132
0.0
 79
     0
146
0.0
1001
ACAD_NAV_VCDISPLAY
1070
     3
  0
ENDTAB
  0
TABLE
  2
LTYPE
  5
157C6
330
0
100
AcDbSymbolTable
 70
     4
  0
LTYPE
  5
157D4
330
157C6
100
AcDbSymbolTableRecord
100
AcDbLinetypeTableRecord
  2
BYBLOCK
 70
     0
  3

 72
    65
 73
     0
 40
0.0
  0
LTYPE
  5
157D5
330
157C6
100
AcDbSymbolTableRecord
100
AcDbLinetypeTableRecord
  2
BYLAYER
 70
     0
  3

 72
    65
 73
     0
 40
0.0
  0
LTYPE
  5
157D6
330
157C6
100
AcDbSymbolTableRecord
100
AcDbLinetypeTableRecord
  2
CONTINUOUS
 70
     0
  3
Solid line
 72
    65
 73
     0
 40
0.0
  0
LTYPE
  5
157E4
330
157C6
100
AcDbSymbolTableRecord
100
AcDbLinetypeTableRecord
  2
DASHED
 70
     0
  3
__ __ __ __ __ __ __ __ __ __ __ __ __ __ __ __
 72
    65
 73
     2
 40
0.75
 49
0.5
 74
     0
 49
-0.25
 74
     0
  0
LTYPE
  5
157E5
330
157C6
100
AcDbSymbolTableRecord
100
AcDbLinetypeTableRecord
  2
CENTER
 70
     0
  3
____ _ ____ _ ____ _ ____ _ ____ _ ____ _ ____ 
 72
    65
 73
     4
 40
2.0
 49
1.25
 74
     0
 49
-0.25
 74
     0
 49
0.25
 74
     0
 49
-0.25
 74
     0
  0
LTYPE
  5
157E6
330
157C6
100
AcDbSymbolTableRecord
100
AcDbLinetypeTableRecord
  2
PHANTOM
 70
     0
  3
______  __  __  ______  __  __  ______  __  __ 
 72
    65
 73
     6
 40
2.5
 49
1.25
 74
     0
 49
-0.25
 74
     0
 49
0.25
 74
     0
 49
-0.25
 74
     0
 49
0.25
 74
     0
 49
-0.25
 74
     0
  0
ENDTAB
  0
TABLE
  2
LAYER
  5
157C3
330
0
100
AcDbSymbolTable
 70
     8
  0
LAYER
  5
157D1
102
{ACAD_XDICTIONARY
360
15D5B
102
}
330
157C3
100
AcDbSymbolTableRecord
100
AcDbLayerTableRecord
  2
0
 70
     0
 62
     7
  6
CONTINUOUS
370
    -3
390
15D09
  0
LAYER
  5
157E7
102
{ACAD_XDICTIONARY
360
15D5D
102
}
330
157C3
100
AcDbSymbolTableRecord
100
AcDbLayerTableRecord
  2
4
 70
     0
 62
     1
  6
CENTER
370
    -3
390
15D09
  0
LAYER
  5
157E8
102
{ACAD_XDICTIONARY
360
15D5F
102
}
330
157C3
100
AcDbSymbolTableRecord
100
AcDbLayerTableRecord
  2
5
 70
     0
 62
     6
  6
PHANTOM
370
    -3
390
15D09
  0
LAYER
  5
157E9
102
{ACAD_XDICTIONARY
360
15D61
102
}
330
157C3
100
AcDbSymbolTableRecord
100
AcDbLayerTableRecord
  2
1
 70
     0
 62
     7
  6
CONTINUOUS
370
    -3
390
15D09
  0
LAYER
  5
157EA
102
{ACAD_XDICTIONARY
360
15D63
102
}
330
157C3
100
AcDbSymbolTableRecord
100
AcDbLayerTableRecord
  2
2
 70
     0
 62
     4
  6
CONTINUOUS
370
    -3
390
15D09
  0
LAYER
  5
157EB
102
{ACAD_XDICTIONARY
360
15D65
102
}
330
157C3
100
AcDbSymbolTableRecord
100
AcDbLayerTableRecord
  2
3
 70
     0
 62
     2
  6
DASHED
370
    -3
390
15D09
  0
LAYER
  5
157EC
102
{ACAD_XDICTIONARY
360
15D67
102
}
330
157C3
100
AcDbSymbolTableRecord
100
AcDbLayerTableRecord
  2
6
 70
     0
 62
     5
  6
CONTINUOUS
370
    -3
390
15D09
  0
LAYER
  5
157ED
102
{ACAD_XDICTIONARY
360
15D69
102
}
330
157C3
100
AcDbSymbolTableRecord
100
AcDbLayerTableRecord
  2
7
 70
     0
 62
     3
  6
CONTINUOUS
370
    -3
390
15D09
  0
ENDTAB
  0
TABLE
  2
STYLE
  5
157C4
330
0
100
AcDbSymbolTable
 70
     1
  0
STYLE
  5
157D2
330
157C4
100
AcDbSymbolTableRecord
100
AcDbTextStyleTableRecord
  2
STANDARD
 70
     0
 40
0.0
 41
1.0
 50
0.0
 71
     0
 42
5.0
  3
txt
  4

  0
ENDTAB
  0
TABLE
  2
VIEW
  5
157C7
330
0
100
AcDbSymbolTable
 70
     0
  0
ENDTAB
  0
TABLE
  2
UCS
  5
157C8
330
0
100
AcDbSymbolTable
 70
     0
  0
ENDTAB
  0
TABLE
  2
APPID
  5
157CA
330
0
100
AcDbSymbolTable
 70
     3
  0
APPID
  5
157D3
330
157CA
100
AcDbSymbolTableRecord
100
AcDbRegAppTableRecord
  2
ACAD
 70
     0
  0
APPID
  5
15D75
330
157CA
100
AcDbSymbolTableRecord
100
AcDbRegAppTableRecord
  2
ACAD_NAV_VCDISPLAY
 70
     0
  0
APPID
  5
15DAE
330
157CA
100
AcDbSymbolTableRecord
100
AcDbRegAppTableRecord
  2
ACAD_MLEADERVER
 70
     0
  0
ENDTAB
  0
TABLE
  2
DIMSTYLE
  5
157CB
330
0
100
AcDbSymbolTable
 70
     1
100
AcDbDimStyleTable
 71
     0
  0
DIMSTYLE
105
157EF
330
157CB
100
AcDbSymbolTableRecord
100
AcDbDimStyleTableRecord
  2
STANDARD
 70
     0
 41
2.5
 42
1.0
 43
10.0
 44
1.0
 73
     0
 74
     0
 77
     3
 78
     8
140
2.5
141
0.0
147
1.0
172
     1
173
     1
284
     8
285
     8
286
     8
340
157D2
  0
ENDTAB
  0
TABLE
  2
BLOCK_RECORD
  5
157C2
330
0
100
AcDbSymbolTable
 70
     0
  0
BLOCK_RECORD
  5
157DF
102
{ACAD_XDICTIONARY
360
15D03
102
}
330
157C2
100
AcDbSymbolTableRecord
100
AcDbBlockTableRecord
  2
*MODEL_SPACE
340
15D57
  0
BLOCK_RECORD
  5
157DB
102
{ACAD_XDICTIONARY
360
15D01
102
}
330
157C2
100
AcDbSymbolTableRecord
100
AcDbBlockTableRecord
  2
*PAPER_SPACE
340
15D58
  0
ENDTAB
  0
ENDSEC
  0
SECTION
  2
BLOCKS
  0
BLOCK
  5
157E0
330
157DF
100
AcDbEntity
  8
0
100
AcDbBlockBegin
  2
*MODEL_SPACE
 70
     0
 10
0.0
 20
0.0
 30
0.0
  3
*MODEL_SPACE
  1

  0
ENDBLK
  5
157E1
330
157DF
100
AcDbEntity
  8
0
100
AcDbBlockEnd
  0
BLOCK
  5
157DC
330
157DB
100
AcDbEntity
 67
     1
  8
0
100
AcDbBlockBegin
  2
*PAPER_SPACE
 70
     0
 10
0.0
 20
0.0
 30
0.0
  3
*PAPER_SPACE
  1

  0
ENDBLK
  5
157DD
330
157DB
100
AcDbEntity
 67
     1
  8
0
100
AcDbBlockEnd
  0
ENDSEC
  0
SECTION
  2
ENTITIES
  0
TEXT
  5
157F7
330
157DF
100
AcDbEntity
  8
7
  6
Continuous
100
AcDbText
 10
10.0
 20
18.0
 30
0.0
 40
3.0
  1
TYPE No.TM-211-6
100
AcDbText
  0
TEXT
  5
157F8
330
157DF
100
AcDbEntity
  8
7
  6
Continuous
100
AcDbText
 10
10.0
 20
26.0
 30
0.0
 40
3.0
  1
CODE No.5796
100
AcDbText
  0
TEXT
  5
157F9
330
157DF
100
AcDbEntity
  8
1
  6
Continuous
100
AcDbText
 10
10.0
 20
10.0
 30
0.0
 40
1.399999999999999
  1
LAYER
100
AcDbText
  0
TEXT
  5
157FA
330
157DF
100
AcDbEntity
  8
1
  6
Continuous
100
AcDbText
 10
17.97951099999998
 20
10.04873699999998
 30
0.0
 40
1.399999999999999
  1
1
100
AcDbText
  0
TEXT
  5
157FB
330
157DF
100
AcDbEntity
  8
7
  6
Continuous
100
AcDbText
 10
29.97951099999999
 20
10.04873699999998
 30
0.0
 40
1.399999999999999
  1
7
100
AcDbText
  0
TEXT
  5
157FC
330
157DF
100
AcDbEntity
  8
4
  6
CENTER
100
AcDbText
 10
23.97951099999999
 20
10.04873699999998
 30
0.0
 40
1.399999999999999
  1
4
100
AcDbText
  0
TEXT
  5
157FD
330
157DF
100
AcDbEntity
  8
3
  6
DASHED
100
AcDbText
 10
21.979511
 20
10.04873699999998
 30
0.0
 40
1.399999999999999
  1
3
100
AcDbText
  0
TEXT
  5
157FE
330
157DF
100
AcDbEntity
  8
2
  6
Continuous
100
AcDbText
 10
19.97951099999999
 20
10.04873699999998
 30
0.0
 40
1.399999999999999
  1
2
100
AcDbText
  0
TEXT
  5
157FF
330
157DF
100
AcDbEntity
  8
6
  6
Continuous
100
AcDbText
 10
27.979511
 20
10.04873699999998
 30
0.0
 40
1.399999999999999
  1
6
100
AcDbText
  0
TEXT
  5
15800
330
157DF
100
AcDbEntity
  8
5
  6
PHANTOM
100
AcDbText
 10
25.97951099999999
 20
10.04873699999998
 30
0.0
 40
1.399999999999999
  1
5
100
AcDbText
  0
CIRCLE
  5
15801
330
157DF
100
AcDbEntity
  8
1
  6
Continuous
100
AcDbCircle
 10
546.0
 20
319.5
 30
0.0
 40
5.0
  0
CIRCLE
  5
15802
330
157DF
100
AcDbEntity
  8
1
  6
Continuous
100
AcDbCircle
 10
546.0
 20
319.5
 30
0.0
 40
3.0
  0
LINE
  5
15803
330
157DF
100
AcDbEntity
  8
3
  6
DASHED
100
AcDbLine
 10
653.0
 20
307.0
 30
0.0
 11
635.5
 21
307.0
 31
0.0
  0
LINE
  5
15804
330
157DF
100
AcDbEntity
  8
4
  6
CENTER
100
AcDbLine
 10
656.0
 20
317.0
 30
0.0
 11
609.25
 21
317.0
 31
0.0
  0
LINE
  5
15805
330
157DF
100
AcDbEntity
  8
1
  6
Continuous
100
AcDbLine
 10
647.7639319999998
 20
331.0
 30
0.0
 11
111.0
 21
331.0
 31
0.0
  0
LINE
  5
15806
330
157DF
100
AcDbEntity
  8
1
  6
Continuous
100
AcDbLine
 10
1032.0
 20
329.4999999999999
 30
0.0
 11
614.5781950000001
 21
329.4999999999999
 31
0.0
  0
LINE
  5
15807
330
157DF
100
AcDbEntity
  8
1
  6
Continuous
100
AcDbLine
 10
1075.0
 20
303.5
 30
0.0
 11
599.0
 21
303.5
 31
0.0
  0
LINE
  5
15808
330
157DF
100
AcDbEntity
  8
1
  6
Continuous
100
AcDbLine
 10
1060.0
 20
332.0
 30
0.0
 11
1032.0
 21
329.4999999999999
 31
0.0
  0
ARC
  5
15809
330
157DF
100
AcDbEntity
  8
1
  6
Continuous
100
AcDbCircle
 10
1073.499999999999
 20
327.1145589999998
 30
0.0
 40
1.5
100
AcDbArc
 50
286.772393
 51
0.0
  0
LINE
  5
1580A
330
157DF
100
AcDbEntity
  8
1
  6
Continuous
100
AcDbLine
 10
1075.0
 20
332.0
 30
0.0
 11
1060.0
 21
332.0
 31
0.0
  0
LINE
  5
1580B
330
157DF
100
AcDbEntity
  8
1
  6
Continuous
100
AcDbLine
 10
1075.0
 20
332.0
 30
0.0
 11
1075.0
 21
327.1145589999998
 31
0.0
  0
LINE
  5
1580C
330
157DF
100
AcDbEntity
  8
1
  6
Continuous
100
AcDbLine
 10
1073.932855999999
 20
325.6783709999999
 30
0.0
 11
1066.422859
 21
323.414917
 31
0.0
  0
LINE
  5
1580D
330
157DF
100
AcDbEntity
  8
1
  6
Continuous
100
AcDbLine
 10
1073.499999999999
 20
319.5
 30
0.0
 11
1067.0
 21
319.5
 31
0.0
  0
LINE
  5
1580E
330
157DF
100
AcDbEntity
  8
1
  6
Continuous
100
AcDbLine
 10
1070.858195
 20
314.619837
 30
0.0
 11
1067.273396999999
 21
316.3944419999999
 31
0.0
  0
ARC
  5
1580F
330
157DF
100
AcDbEntity
  8
1
  6
Continuous
100
AcDbCircle
 10
1061.0
 20
319.5
 30
0.0
 40
11.0
100
AcDbArc
 50
296.3370750000001
 51
333.6629249999999
  0
LINE
  5
15810
330
157DF
100
AcDbEntity
  8
1
  6
Continuous
100
AcDbLine
 10
1075.0
 20
318.0
 30
0.0
 11
1075.0
 21
303.5
 31
0.0
  0
ARC
  5
15811
330
157DF
100
AcDbEntity
  8
1
  6
Continuous
100
AcDbCircle
 10
1073.499999999999
 20
318.0
 30
0.0
 40
1.5
100
AcDbArc
 50
0.0
 51
90.0
  0
LINE
  5
15812
330
157DF
100
AcDbEntity
  8
4
  6
CENTER
100
AcDbLine
 10
1065.75
 20
319.5
 30
0.0
 11
1044.25
 21
319.5
 31
0.0
  0
ARC
  5
15813
330
157DF
100
AcDbEntity
  8
1
  6
Continuous
100
AcDbCircle
 10
1067.0
 20
321.4999999999998
 30
0.0
 40
2.0
100
AcDbArc
 50
106.7723929999998
 51
270.0
  0
ARC
  5
15814
330
157DF
100
AcDbEntity
  8
1
  6
Continuous
100
AcDbCircle
 10
1061.0
 20
319.5
 30
0.0
 40
7.0
100
AcDbArc
 50
296.3370750000001
 51
333.6629249999999
  0
LINE
  5
15815
330
157DF
100
AcDbEntity
  8
1
  6
Continuous
100
AcDbLine
 10
1065.880163
 20
309.641805
 30
0.0
 11
1064.105558
 21
313.2266029999998
 31
0.0
  0
CIRCLE
  5
15816
330
157DF
100
AcDbEntity
  8
1
  6
Continuous
100
AcDbCircle
 10
1060.0
 20
319.5
 30
0.0
 40
2.399999999999999
  0
LINE
  5
15817
330
157DF
100
AcDbEntity
  8
4
  6
CENTER
100
AcDbLine
 10
1060.0
 20
325.2499999999999
 30
0.0
 11
1060.0
 21
313.75
 31
0.0
  0
LINE
  5
15818
330
157DF
100
AcDbEntity
  8
1
  6
Continuous
100
AcDbLine
 10
1052.4
 20
320.5
 30
0.0
 11
1052.4
 21
318.5
 31
0.0
  0
ARC
  5
15819
330
157DF
100
AcDbEntity
  8
1
  6
Continuous
100
AcDbCircle
 10
1050.0
 20
320.5
 30
0.0
 40
2.399999999999999
100
AcDbArc
 50
0.0
 51
180.0
  0
LINE
  5
1581A
330
157DF
100
AcDbEntity
  8
1
  6
Continuous
100
AcDbLine
 10
1047.599999999998
 20
320.5
 30
0.0
 11
1047.599999999998
 21
318.5
 31
0.0
  0
ARC
  5
1581B
330
157DF
100
AcDbEntity
  8
1
  6
Continuous
100
AcDbCircle
 10
1050.0
 20
318.5
 30
0.0
 40
2.399999999999999
100
AcDbArc
 50
180.0
 51
0.0
  0
LINE
  5
1581C
330
157DF
100
AcDbEntity
  8
4
  6
CENTER
100
AcDbLine
 10
1050.0
 20
326.25
 30
0.0
 11
1050.0
 21
312.7499999999999
 31
0.0
  0
LINE
  5
1581D
330
157DF
100
AcDbEntity
  8
4
  6
CENTER
100
AcDbLine
 10
579.25
 20
319.5
 30
0.0
 11
600.75
 21
319.5
 31
0.0
  0
LINE
  5
1581E
330
157DF
100
AcDbEntity
  8
1
  6
Continuous
100
AcDbLine
 10
594.0
 20
303.5
 30
0.0
 11
531.0
 21
303.5
 31
0.0
  0
LINE
  5
1581F
330
157DF
100
AcDbEntity
  8
4
  6
CENTER
100
AcDbLine
 10
698.2499999999999
 20
319.5
 30
0.0
 11
709.75
 21
319.5
 31
0.0
  0
LINE
  5
15820
330
157DF
100
AcDbEntity
  8
4
  6
CENTER
100
AcDbLine
 10
704.0
 20
325.2499999999999
 30
0.0
 11
704.0
 21
313.75
 31
0.0
  0
CIRCLE
  5
15821
330
157DF
100
AcDbEntity
  8
1
  6
Continuous
100
AcDbCircle
 10
704.0
 20
319.5
 30
0.0
 40
2.399999999999999
  0
LINE
  5
15822
330
157DF
100
AcDbEntity
  8
1
  6
Continuous
100
AcDbLine
 10
598.0
 20
305.0
 30
0.0
 11
594.0
 21
303.5
 31
0.0
  0
LINE
  5
15823
330
157DF
100
AcDbEntity
  8
1
  6
Continuous
100
AcDbLine
 10
599.0
 20
305.0
 30
0.0
 11
599.0
 21
303.5
 31
0.0
  0
LINE
  5
15824
330
157DF
100
AcDbEntity
  8
4
  6
CENTER
100
AcDbLine
 10
546.0
 20
334.5
 30
0.0
 11
546.0
 21
304.4999999999999
 31
0.0
  0
LINE
  5
15825
330
157DF
100
AcDbEntity
  8
1
  6
Continuous
100
AcDbLine
 10
529.0
 20
327.4999999999999
 30
0.0
 11
529.0
 21
305.5
 31
0.0
  0
LINE
  5
15826
330
157DF
100
AcDbEntity
  8
1
  6
Continuous
100
AcDbLine
 10
614.5781950000001
 20
329.4999999999999
 30
0.0
 11
579.4999999999999
 21
329.4999999999999
 31
0.0
  0
LINE
  5
15827
330
157DF
100
AcDbEntity
  8
4
  6
CENTER
100
AcDbLine
 10
561.0
 20
319.5
 30
0.0
 11
531.0
 21
319.5
 31
0.0
  0
LINE
  5
15828
330
157DF
100
AcDbEntity
  8
4
  6
CENTER
100
AcDbLine
 10
554.25
 20
311.5
 30
0.0
 11
565.7499999999997
 21
311.5
 31
0.0
  0
LINE
  5
15829
330
157DF
100
AcDbEntity
  8
4
  6
CENTER
100
AcDbLine
 10
585.0
 20
324.8999999999999
 30
0.0
 11
585.0
 21
314.1
 31
0.0
  0
LINE
  5
1582A
330
157DF
100
AcDbEntity
  8
4
  6
CENTER
100
AcDbLine
 10
534.5499999999998
 20
311.2999999999999
 30
0.0
 11
534.5499999999998
 21
303.8
 31
0.0
  0
LINE
  5
1582B
330
157DF
100
AcDbEntity
  8
4
  6
CENTER
100
AcDbLine
 10
560.0
 20
317.2499999999998
 30
0.0
 11
560.0
 21
305.75
 31
0.0
  0
LINE
  5
1582C
330
157DF
100
AcDbEntity
  8
4
  6
CENTER
100
AcDbLine
 10
530.7999999999998
 20
307.55
 30
0.0
 11
538.3
 21
307.55
 31
0.0
  0
LINE
  5
1582D
330
157DF
100
AcDbEntity
  8
1
  6
Continuous
100
AcDbLine
 10
156.0
 20
307.0
 30
0.0
 11
127.0
 21
304.4999999999999
 31
0.0
  0
LINE
  5
1582E
330
157DF
100
AcDbEntity
  8
4
  6
CENTER
100
AcDbLine
 10
119.25
 20
317.0
 30
0.0
 11
140.7499999999998
 21
317.0
 31
0.0
  0
LINE
  5
1582F
330
157DF
100
AcDbEntity
  8
3
  6
DASHED
100
AcDbLine
 10
630.0
 20
307.0
 30
0.0
 11
529.0
 21
307.0
 31
0.0
  0
LINE
  5
15830
330
157DF
100
AcDbEntity
  8
4
  6
CENTER
100
AcDbLine
 10
641.0
 20
332.0
 30
0.0
 11
641.0
 21
302.0
 31
0.0
  0
CIRCLE
  5
15831
330
157DF
100
AcDbEntity
  8
1
  6
Continuous
100
AcDbCircle
 10
585.0
 20
319.5
 30
0.0
 40
2.399999999999999
  0
LINE
  5
15832
330
157DF
100
AcDbEntity
  8
3
  6
DASHED
100
AcDbLine
 10
630.0
 20
308.4999999999999
 30
0.0
 11
630.0
 21
307.0
 31
0.0
  0
LINE
  5
15833
330
157DF
100
AcDbEntity
  8
3
  6
DASHED
100
AcDbLine
 10
631.5
 20
308.4999999999999
 30
0.0
 11
635.5
 21
307.0
 31
0.0
  0
LINE
  5
15834
330
157DF
100
AcDbEntity
  8
1
  6
Continuous
100
AcDbLine
 10
592.6
 20
320.5
 30
0.0
 11
592.6
 21
318.5
 31
0.0
  0
ARC
  5
15835
330
157DF
100
AcDbEntity
  8
1
  6
Continuous
100
AcDbCircle
 10
595.0
 20
320.5
 30
0.0
 40
2.399999999999999
100
AcDbArc
 50
0.0
 51
180.0
  0
LINE
  5
15836
330
157DF
100
AcDbEntity
  8
1
  6
Continuous
100
AcDbLine
 10
597.4
 20
320.5
 30
0.0
 11
597.4
 21
318.5
 31
0.0
  0
ARC
  5
15837
330
157DF
100
AcDbEntity
  8
1
  6
Continuous
100
AcDbCircle
 10
595.0
 20
318.5
 30
0.0
 40
2.399999999999999
100
AcDbArc
 50
180.0
 51
0.0
  0
LINE
  5
15838
330
157DF
100
AcDbEntity
  8
4
  6
CENTER
100
AcDbLine
 10
510.7499999999998
 20
317.0
 30
0.0
 11
489.25
 21
317.0
 31
0.0
  0
ARC
  5
15839
330
157DF
100
AcDbEntity
  8
1
  6
Continuous
100
AcDbCircle
 10
495.0
 20
316.0
 30
0.0
 40
2.399999999999999
100
AcDbArc
 50
180.0
 51
0.0
  0
ARC
  5
1583A
330
157DF
100
AcDbEntity
  8
1
  6
Continuous
100
AcDbCircle
 10
495.0
 20
318.0
 30
0.0
 40
2.399999999999999
100
AcDbArc
 50
0.0
 51
180.0
  0
LINE
  5
1583B
330
157DF
100
AcDbEntity
  8
1
  6
Continuous
100
AcDbLine
 10
497.4
 20
318.0
 30
0.0
 11
497.4
 21
316.0
 31
0.0
  0
LINE
  5
1583C
330
157DF
100
AcDbEntity
  8
4
  6
CENTER
100
AcDbLine
 10
495.0
 20
323.75
 30
0.0
 11
495.0
 21
310.25
 31
0.0
  0
CIRCLE
  5
1583D
330
157DF
100
AcDbEntity
  8
1
  6
Continuous
100
AcDbCircle
 10
505.0
 20
317.0
 30
0.0
 40
2.399999999999999
  0
LINE
  5
1583E
330
157DF
100
AcDbEntity
  8
4
  6
CENTER
100
AcDbLine
 10
505.0
 20
322.75
 30
0.0
 11
505.0
 21
311.25
 31
0.0
  0
LINE
  5
1583F
330
157DF
100
AcDbEntity
  8
1
  6
Continuous
100
AcDbLine
 10
492.6
 20
318.0
 30
0.0
 11
492.6
 21
316.0
 31
0.0
  0
LINE
  5
15840
330
157DF
100
AcDbEntity
  8
4
  6
CENTER
100
AcDbLine
 10
135.0
 20
323.75
 30
0.0
 11
135.0
 21
310.25
 31
0.0
  0
LINE
  5
15841
330
157DF
100
AcDbEntity
  8
1
  6
Continuous
100
AcDbLine
 10
137.4
 20
318.0
 30
0.0
 11
137.4
 21
316.0
 31
0.0
  0
ARC
  5
15842
330
157DF
100
AcDbEntity
  8
1
  6
Continuous
100
AcDbCircle
 10
135.0
 20
318.0
 30
0.0
 40
2.399999999999999
100
AcDbArc
 50
0.0
 51
180.0
  0
LINE
  5
15843
330
157DF
100
AcDbEntity
  8
1
  6
Continuous
100
AcDbLine
 10
132.6
 20
318.0
 30
0.0
 11
132.6
 21
316.0
 31
0.0
  0
ARC
  5
15844
330
157DF
100
AcDbEntity
  8
1
  6
Continuous
100
AcDbCircle
 10
135.0
 20
316.0
 30
0.0
 40
2.399999999999999
100
AcDbArc
 50
180.0
 51
0.0
  0
LINE
  5
15845
330
157DF
100
AcDbEntity
  8
1
  6
Continuous
100
AcDbLine
 10
109.0
 20
318.5
 30
0.0
 11
109.0
 21
329.0
 31
0.0
  0
ARC
  5
15846
330
157DF
100
AcDbEntity
  8
1
  6
Continuous
100
AcDbCircle
 10
111.0
 20
329.0
 30
0.0
 40
2.0
100
AcDbArc
 50
90.0
 51
180.0
  0
LINE
  5
15847
330
157DF
100
AcDbEntity
  8
1
  6
Continuous
100
AcDbLine
 10
109.0
 20
304.4999999999999
 30
0.0
 11
109.0
 21
309.385441
 31
0.0
  0
LINE
  5
15848
330
157DF
100
AcDbEntity
  8
1
  6
Continuous
100
AcDbLine
 10
110.4999999999999
 20
317.0
 30
0.0
 11
117.0
 21
317.0
 31
0.0
  0
LINE
  5
15849
330
157DF
100
AcDbEntity
  8
1
  6
Continuous
100
AcDbLine
 10
110.0671439999999
 20
310.8216289999999
 30
0.0
 11
117.577141
 21
313.0850829999999
 31
0.0
  0
ARC
  5
1584A
330
157DF
100
AcDbEntity
  8
1
  6
Continuous
100
AcDbCircle
 10
117.0
 20
315.0
 30
0.0
 40
2.0
100
AcDbArc
 50
286.772393
 51
90.0
  0
LINE
  5
1584B
330
157DF
100
AcDbEntity
  8
4
  6
CENTER
100
AcDbLine
 10
125.0
 20
322.75
 30
0.0
 11
125.0
 21
311.25
 31
0.0
  0
CIRCLE
  5
1584C
330
157DF
100
AcDbEntity
  8
1
  6
Continuous
100
AcDbCircle
 10
125.0
 20
317.0
 30
0.0
 40
2.399999999999999
  0
ARC
  5
1584D
330
157DF
100
AcDbEntity
  8
1
  6
Continuous
100
AcDbCircle
 10
110.4999999999999
 20
318.5
 30
0.0
 40
1.5
100
AcDbArc
 50
180.0
 51
270.0
  0
ARC
  5
1584E
330
157DF
100
AcDbEntity
  8
1
  6
Continuous
100
AcDbCircle
 10
110.4999999999999
 20
309.385441
 30
0.0
 40
1.5
100
AcDbArc
 50
106.7723929999998
 51
180.0
  0
LINE
  5
1584F
330
157DF
100
AcDbEntity
  8
1
  6
Continuous
100
AcDbLine
 10
109.0
 20
304.4999999999999
 30
0.0
 11
127.0
 21
304.4999999999999
 31
0.0
  0
ARC
  5
15850
330
157DF
100
AcDbEntity
  8
1
  6
Continuous
100
AcDbCircle
 10
546.0
 20
319.5
 30
0.0
 40
11.0
100
AcDbArc
 50
65.38002299999999
 51
114.619977
  0
LINE
  5
15851
330
157DF
100
AcDbEntity
  8
1
  6
Continuous
100
AcDbLine
 10
1075.0
 20
233.4999999999999
 30
0.0
 11
529.0
 21
233.4999999999999
 31
0.0
  0
LINE
  5
15852
330
157DF
100
AcDbEntity
  8
1
  6
Continuous
100
AcDbLine
 10
655.0
 20
221.0
 30
0.0
 11
109.0
 21
221.0
 31
0.0
  0
LINE
  5
15853
330
157DF
100
AcDbEntity
  8
1
  6
Continuous
100
AcDbLine
 10
1075.0
 20
151.0
 30
0.0
 11
599.0
 21
151.0
 31
0.0
  0
LINE
  5
15854
330
157DF
100
AcDbEntity
  8
1
  6
Continuous
100
AcDbLine
 10
1075.0
 20
149.5
 30
0.0
 11
598.0
 21
149.5
 31
0.0
  0
LINE
  5
15855
330
157DF
100
AcDbEntity
  8
1
  6
Continuous
100
AcDbLine
 10
1032.0
 20
125.0
 30
0.0
 11
649.75
 21
125.0
 31
0.0
  0
LINE
  5
15856
330
157DF
100
AcDbEntity
  8
1
  6
Continuous
100
AcDbLine
 10
630.0
 20
147.5
 30
0.0
 11
156.0
 21
147.5
 31
0.0
  0
LINE
  5
15857
330
157DF
100
AcDbEntity
  8
1
  6
Continuous
100
AcDbLine
 10
647.7639319999998
 20
123.5
 30
0.0
 11
111.0
 21
123.5
 31
0.0
  0
LINE
  5
15858
330
157DF
100
AcDbEntity
  8
1
  6
Continuous
100
AcDbLine
 10
156.0
 20
147.5
 30
0.0
 11
127.0
 21
150.0
 31
0.0
  0
LINE
  5
15859
330
157DF
100
AcDbEntity
  8
1
  6
Continuous
100
AcDbLine
 10
109.0
 20
150.0
 30
0.0
 11
109.0
 21
145.114559
 31
0.0
  0
LINE
  5
1585A
330
157DF
100
AcDbEntity
  8
1
  6
Continuous
100
AcDbLine
 10
114.0
 20
150.0
 30
0.0
 11
114.0
 21
148.0
 31
0.0
  0
ARC
  5
1585B
330
157DF
100
AcDbEntity
  8
1
  6
Continuous
100
AcDbCircle
 10
115.5
 20
148.0
 30
0.0
 40
1.5
100
AcDbArc
 50
180.0
 51
270.0
  0
LINE
  5
1585C
330
157DF
100
AcDbEntity
  8
1
  6
Continuous
100
AcDbLine
 10
110.0671439999999
 20
143.678371
 30
0.0
 11
117.577141
 21
141.4149169999998
 31
0.0
  0
LINE
  5
1585D
330
157DF
100
AcDbEntity
  8
1
  6
Continuous
100
AcDbLine
 10
110.4999999999999
 20
137.5
 30
0.0
 11
117.0
 21
137.5
 31
0.0
  0
LINE
  5
1585E
330
157DF
100
AcDbEntity
  8
1
  6
Continuous
100
AcDbLine
 10
114.0
 20
148.5
 30
0.0
 11
126.9354649999998
 21
148.5
 31
0.0
  0
LINE
  5
1585F
330
157DF
100
AcDbEntity
  8
1
  6
Continuous
100
AcDbLine
 10
109.0
 20
136.0
 30
0.0
 11
109.0
 21
125.5
 31
0.0
  0
ARC
  5
15860
330
157DF
100
AcDbEntity
  8
1
  6
Continuous
100
AcDbCircle
 10
111.0
 20
125.5
 30
0.0
 40
2.0
100
AcDbArc
 50
180.0
 51
270.0
  0
ARC
  5
15861
330
157DF
100
AcDbEntity
  8
1
  6
Continuous
100
AcDbCircle
 10
110.4999999999999
 20
145.114559
 30
0.0
 40
1.5
100
AcDbArc
 50
180.0
 51
253.2276069999999
  0
ARC
  5
15862
330
157DF
100
AcDbEntity
  8
1
  6
Continuous
100
AcDbCircle
 10
110.4999999999999
 20
136.0
 30
0.0
 40
1.5
100
AcDbArc
 50
90.0
 51
180.0
  0
LINE
  5
15863
330
157DF
100
AcDbEntity
  8
4
  6
CENTER
100
AcDbLine
 10
119.25
 20
137.5
 30
0.0
 11
140.7499999999998
 21
137.5
 31
0.0
  0
LINE
  5
15864
330
157DF
100
AcDbEntity
  8
1
  6
Continuous
100
AcDbLine
 10
142.0
 20
146.5
 30
0.0
 11
115.5
 21
146.5
 31
0.0
  0
LINE
  5
15865
330
157DF
100
AcDbEntity
  8
1
  6
Continuous
100
AcDbLine
 10
143.198508
 20
147.0980139999998
 30
0.0
 11
126.9354649999998
 21
148.5
 31
0.0
  0
CIRCLE
  5
15866
330
157DF
100
AcDbEntity
  8
1
  6
Continuous
100
AcDbCircle
 10
125.0
 20
137.5
 30
0.0
 40
2.399999999999999
  0
LINE
  5
15867
330
157DF
100
AcDbEntity
  8
4
  6
CENTER
100
AcDbLine
 10
125.0
 20
131.75
 30
0.0
 11
125.0
 21
143.25
 31
0.0
  0
ARC
  5
15868
330
157DF
100
AcDbEntity
  8
1
  6
Continuous
100
AcDbCircle
 10
117.0
 20
139.5
 30
0.0
 40
2.0
100
AcDbArc
 50
270.0
 51
73.22760699999998
  0
ARC
  5
15869
330
157DF
100
AcDbEntity
  8
1
  6
Continuous
100
AcDbCircle
 10
135.0
 20
138.5
 30
0.0
 40
2.399999999999999
100
AcDbArc
 50
0.0
 51
180.0
  0
LINE
  5
1586A
330
157DF
100
AcDbEntity
  8
1
  6
Continuous
100
AcDbLine
 10
132.6
 20
136.4999999999998
 30
0.0
 11
132.6
 21
138.5
 31
0.0
  0
ARC
  5
1586B
330
157DF
100
AcDbEntity
  8
1
  6
Continuous
100
AcDbCircle
 10
135.0
 20
136.4999999999998
 30
0.0
 40
2.399999999999999
100
AcDbArc
 50
180.0
 51
0.0
  0
LINE
  5
1586C
330
157DF
100
AcDbEntity
  8
1
  6
Continuous
100
AcDbLine
 10
137.4
 20
136.4999999999998
 30
0.0
 11
137.4
 21
138.5
 31
0.0
  0
LINE
  5
1586D
330
157DF
100
AcDbEntity
  8
4
  6
CENTER
100
AcDbLine
 10
135.0
 20
130.75
 30
0.0
 11
135.0
 21
144.25
 31
0.0
  0
LINE
  5
1586E
330
157DF
100
AcDbEntity
  8
1
  6
Continuous
100
AcDbLine
 10
143.5
 20
148.5775859999999
 30
0.0
 11
143.5
 21
148.0
 31
0.0
  0
ARC
  5
1586F
330
157DF
100
AcDbEntity
  8
1
  6
Continuous
100
AcDbCircle
 10
142.0
 20
148.0
 30
0.0
 40
1.5
100
AcDbArc
 50
270.0
 51
0.0
  0
LINE
  5
15870
330
157DF
100
AcDbEntity
  8
1
  6
Continuous
100
AcDbLine
 10
109.0
 20
150.0
 30
0.0
 11
127.0
 21
150.0
 31
0.0
  0
LINE
  5
15871
330
157DF
100
AcDbEntity
  8
4
  6
CENTER
100
AcDbLine
 10
554.25
 20
143.0
 30
0.0
 11
565.7499999999997
 21
143.0
 31
0.0
  0
LINE
  5
15872
330
157DF
100
AcDbEntity
  8
4
  6
CENTER
100
AcDbLine
 10
561.0
 20
135.0
 30
0.0
 11
531.0
 21
135.0
 31
0.0
  0
LINE
  5
15873
330
157DF
100
AcDbEntity
  8
3
  6
DASHED
100
AcDbLine
 10
649.75
 20
125.0
 30
0.0
 11
579.4999999999999
 21
125.0
 31
0.0
  0
LINE
  5
15874
330
157DF
100
AcDbEntity
  8
1
  6
Continuous
100
AcDbLine
 10
594.0
 20
151.0
 30
0.0
 11
531.0
 21
151.0
 31
0.0
  0
ARC
  5
15875
330
157DF
100
AcDbEntity
  8
1
  6
Continuous
100
AcDbCircle
 10
495.0
 20
136.4999999999998
 30
0.0
 40
2.399999999999999
100
AcDbArc
 50
180.0
 51
0.0
  0
ARC
  5
15876
330
157DF
100
AcDbEntity
  8
1
  6
Continuous
100
AcDbCircle
 10
495.0
 20
138.5
 30
0.0
 40
2.399999999999999
100
AcDbArc
 50
0.0
 51
180.0
  0
LINE
  5
15877
330
157DF
100
AcDbEntity
  8
4
  6
CENTER
100
AcDbLine
 10
510.7499999999998
 20
137.5
 30
0.0
 11
489.25
 21
137.5
 31
0.0
  0
LINE
  5
15878
330
157DF
100
AcDbEntity
  8
1
  6
Continuous
100
AcDbLine
 10
492.6
 20
136.4999999999998
 30
0.0
 11
492.6
 21
138.5
 31
0.0
  0
LINE
  5
15879
330
157DF
100
AcDbEntity
  8
4
  6
CENTER
100
AcDbLine
 10
534.5499999999998
 20
143.1999999999999
 30
0.0
 11
534.5499999999998
 21
150.6999999999998
 31
0.0
  0
LINE
  5
1587A
330
157DF
100
AcDbEntity
  8
4
  6
CENTER
100
AcDbLine
 10
546.0
 20
120.0
 30
0.0
 11
546.0
 21
150.0
 31
0.0
  0
LINE
  5
1587B
330
157DF
100
AcDbEntity
  8
4
  6
CENTER
100
AcDbLine
 10
505.0
 20
131.75
 30
0.0
 11
505.0
 21
143.25
 31
0.0
  0
CIRCLE
  5
1587C
330
157DF
100
AcDbEntity
  8
1
  6
Continuous
100
AcDbCircle
 10
505.0
 20
137.5
 30
0.0
 40
2.399999999999999
  0
LINE
  5
1587D
330
157DF
100
AcDbEntity
  8
4
  6
CENTER
100
AcDbLine
 10
495.0
 20
130.75
 30
0.0
 11
495.0
 21
144.25
 31
0.0
  0
LINE
  5
1587E
330
157DF
100
AcDbEntity
  8
1
  6
Continuous
100
AcDbLine
 10
497.4
 20
136.4999999999998
 30
0.0
 11
497.4
 21
138.5
 31
0.0
  0
CIRCLE
  5
1587F
330
157DF
100
AcDbEntity
  8
3
  6
DASHED
100
AcDbCircle
 10
546.0
 20
135.0
 30
0.0
 40
11.0
  0
LINE
  5
15880
330
157DF
100
AcDbEntity
  8
3
  6
DASHED
100
AcDbLine
 10
529.0
 20
127.0
 30
0.0
 11
529.0
 21
147.5
 31
0.0
  0
LINE
  5
15881
330
157DF
100
AcDbEntity
  8
1
  6
Continuous
100
AcDbLine
 10
529.0
 20
149.0
 30
0.0
 11
529.0
 21
147.5
 31
0.0
  0
ARC
  5
15882
330
157DF
100
AcDbEntity
  8
1
  6
Continuous
100
AcDbCircle
 10
534.5499999999998
 20
146.9499999999999
 30
0.0
 40
1.75
100
AcDbArc
 50
18.317698
 51
161.6823019999999
  0
LINE
  5
15883
330
157DF
100
AcDbEntity
  8
4
  6
CENTER
100
AcDbLine
 10
530.7999999999998
 20
146.9499999999999
 30
0.0
 11
538.3
 21
146.9499999999999
 31
0.0
  0
LINE
  5
15884
330
157DF
100
AcDbEntity
  8
4
  6
CENTER
100
AcDbLine
 10
641.0
 20
122.5
 30
0.0
 11
641.0
 21
152.5
 31
0.0
  0
CIRCLE
  5
15885
330
157DF
100
AcDbEntity
  8
1
  6
Continuous
100
AcDbCircle
 10
625.0
 20
137.5
 30
0.0
 40
2.399999999999999
  0
LINE
  5
15886
330
157DF
100
AcDbEntity
  8
4
  6
CENTER
100
AcDbLine
 10
579.25
 20
135.0
 30
0.0
 11
600.75
 21
135.0
 31
0.0
  0
LINE
  5
15887
330
157DF
100
AcDbEntity
  8
4
  6
CENTER
100
AcDbLine
 10
656.0
 20
137.5
 30
0.0
 11
609.25
 21
137.5
 31
0.0
  0
LINE
  5
15888
330
157DF
100
AcDbEntity
  8
4
  6
CENTER
100
AcDbLine
 10
560.0
 20
137.25
 30
0.0
 11
560.0
 21
148.75
 31
0.0
  0
ARC
  5
15889
330
157DF
100
AcDbEntity
  8
1
  6
Continuous
100
AcDbCircle
 10
615.0
 20
138.5
 30
0.0
 40
2.399999999999999
100
AcDbArc
 50
0.0
 51
180.0
  0
LINE
  5
1588A
330
157DF
100
AcDbEntity
  8
1
  6
Continuous
100
AcDbLine
 10
617.3999999999997
 20
136.4999999999998
 30
0.0
 11
617.3999999999997
 21
138.5
 31
0.0
  0
ARC
  5
1588B
330
157DF
100
AcDbEntity
  8
1
  6
Continuous
100
AcDbCircle
 10
615.0
 20
136.4999999999998
 30
0.0
 40
2.399999999999999
100
AcDbArc
 50
180.0
 51
0.0
  0
LINE
  5
1588C
330
157DF
100
AcDbEntity
  8
1
  6
Continuous
100
AcDbLine
 10
612.6
 20
136.4999999999998
 30
0.0
 11
612.6
 21
138.5
 31
0.0
  0
LINE
  5
1588D
330
157DF
100
AcDbEntity
  8
4
  6
CENTER
100
AcDbLine
 10
625.0
 20
132.0999999999999
 30
0.0
 11
625.0
 21
142.9
 31
0.0
  0
LINE
  5
1588E
330
157DF
100
AcDbEntity
  8
1
  6
Continuous
100
AcDbLine
 10
649.5527860000001
 20
124.6055729999998
 30
0.0
 11
655.0
 21
135.4999999999998
 31
0.0
  0
ARC
  5
1588F
330
157DF
100
AcDbEntity
  8
3
  6
DASHED
100
AcDbCircle
 10
641.0
 20
137.5
 30
0.0
 40
11.0
100
AcDbArc
 50
114.619977
 51
65.38002299999999
  0
LINE
  5
15890
330
157DF
100
AcDbEntity
  8
1
  6
Continuous
100
AcDbLine
 10
653.0
 20
147.5
 30
0.0
 11
635.0
 21
147.5
 31
0.0
  0
ARC
  5
15891
330
157DF
100
AcDbEntity
  8
1
  6
Continuous
100
AcDbCircle
 10
641.0
 20
137.5
 30
0.0
 40
11.0
100
AcDbArc
 50
65.38002299999999
 51
114.619977
  0
CIRCLE
  5
15892
330
157DF
100
AcDbEntity
  8
1
  6
Continuous
100
AcDbCircle
 10
641.0
 20
137.5
 30
0.0
 40
3.0
  0
CIRCLE
  5
15893
330
157DF
100
AcDbEntity
  8
1
  6
Continuous
100
AcDbCircle
 10
641.0
 20
137.5
 30
0.0
 40
5.0
  0
LINE
  5
15894
330
157DF
100
AcDbEntity
  8
1
  6
Continuous
100
AcDbLine
 10
631.0
 20
146.0
 30
0.0
 11
635.0
 21
147.5
 31
0.0
  0
LINE
  5
15895
330
157DF
100
AcDbEntity
  8
1
  6
Continuous
100
AcDbLine
 10
630.0
 20
146.0
 30
0.0
 11
630.0
 21
147.5
 31
0.0
  0
LINE
  5
15896
330
157DF
100
AcDbEntity
  8
1
  6
Continuous
100
AcDbLine
 10
631.0
 20
146.0
 30
0.0
 11
630.0
 21
146.0
 31
0.0
  0
LINE
  5
15897
330
157DF
100
AcDbEntity
  8
1
  6
Continuous
100
AcDbLine
 10
599.0
 20
149.5
 30
0.0
 11
599.0
 21
151.0
 31
0.0
  0
LINE
  5
15898
330
157DF
100
AcDbEntity
  8
1
  6
Continuous
100
AcDbLine
 10
598.0
 20
149.5
 30
0.0
 11
594.0
 21
151.0
 31
0.0
  0
ARC
  5
15899
330
157DF
100
AcDbEntity
  8
1
  6
Continuous
100
AcDbCircle
 10
1061.0
 20
135.0
 30
0.0
 40
11.0
100
AcDbArc
 50
26.33707499999999
 51
63.662925
  0
ARC
  5
1589A
330
157DF
100
AcDbEntity
  8
1
  6
Continuous
100
AcDbCircle
 10
1061.0
 20
135.0
 30
0.0
 40
12.5
100
AcDbArc
 50
26.33707499999999
 51
63.662925
  0
LINE
  5
1589B
330
157DF
100
AcDbEntity
  8
1
  6
Continuous
100
AcDbLine
 10
1072.202493999999
 20
140.54564
 30
0.0
 11
1067.273396999999
 21
138.1055579999998
 31
0.0
  0
LINE
  5
1589C
330
157DF
100
AcDbEntity
  8
1
  6
Continuous
100
AcDbLine
 10
1073.499999999999
 20
135.0
 30
0.0
 11
1067.0
 21
135.0
 31
0.0
  0
LINE
  5
1589D
330
157DF
100
AcDbEntity
  8
1
  6
Continuous
100
AcDbLine
 10
1073.932855999999
 20
128.821629
 30
0.0
 11
1066.422859
 21
131.0850829999999
 31
0.0
  0
LINE
  5
1589E
330
157DF
100
AcDbEntity
  8
1
  6
Continuous
100
AcDbLine
 10
1075.0
 20
122.5
 30
0.0
 11
1060.0
 21
122.5
 31
0.0
  0
CIRCLE
  5
1589F
330
157DF
100
AcDbEntity
  8
1
  6
Continuous
100
AcDbCircle
 10
704.0
 20
135.0
 30
0.0
 40
2.399999999999999
  0
CIRCLE
  5
158A0
330
157DF
100
AcDbEntity
  8
1
  6
Continuous
100
AcDbCircle
 10
704.0
 20
135.0
 30
0.0
 40
3.75
  0
LINE
  5
158A1
330
157DF
100
AcDbEntity
  8
4
  6
CENTER
100
AcDbLine
 10
704.0
 20
129.2499999999998
 30
0.0
 11
704.0
 21
140.7499999999998
 31
0.0
  0
LINE
  5
158A2
330
157DF
100
AcDbEntity
  8
1
  6
Continuous
100
AcDbLine
 10
1060.0
 20
122.5
 30
0.0
 11
1032.0
 21
125.0
 31
0.0
  0
ARC
  5
158A3
330
157DF
100
AcDbEntity
  8
1
  6
Continuous
100
AcDbCircle
 10
1050.0
 20
134.0
 30
0.0
 40
3.75
100
AcDbArc
 50
180.0
 51
0.0
  0
ARC
  5
158A4
330
157DF
100
AcDbEntity
  8
1
  6
Continuous
100
AcDbCircle
 10
1050.0
 20
136.0
 30
0.0
 40
3.75
100
AcDbArc
 50
0.0
 51
180.0
  0
ARC
  5
158A5
330
157DF
100
AcDbEntity
  8
1
  6
Continuous
100
AcDbCircle
 10
1050.0
 20
136.0
 30
0.0
 40
2.399999999999999
100
AcDbArc
 50
0.0
 51
180.0
  0
ARC
  5
158A6
330
157DF
100
AcDbEntity
  8
1
  6
Continuous
100
AcDbCircle
 10
1050.0
 20
134.0
 30
0.0
 40
2.399999999999999
100
AcDbArc
 50
180.0
 51
0.0
  0
LINE
  5
158A7
330
157DF
100
AcDbEntity
  8
4
  6
CENTER
100
AcDbLine
 10
1050.0
 20
128.2499999999998
 30
0.0
 11
1050.0
 21
141.7499999999998
 31
0.0
  0
LINE
  5
158A8
330
157DF
100
AcDbEntity
  8
1
  6
Continuous
100
AcDbLine
 10
1046.25
 20
134.0
 30
0.0
 11
1046.25
 21
136.0
 31
0.0
  0
LINE
  5
158A9
330
157DF
100
AcDbEntity
  8
1
  6
Continuous
100
AcDbLine
 10
1047.599999999998
 20
134.0
 30
0.0
 11
1047.599999999998
 21
136.0
 31
0.0
  0
LINE
  5
158AA
330
157DF
100
AcDbEntity
  8
1
  6
Continuous
100
AcDbLine
 10
1053.749999999999
 20
134.0
 30
0.0
 11
1053.749999999999
 21
136.0
 31
0.0
  0
LINE
  5
158AB
330
157DF
100
AcDbEntity
  8
1
  6
Continuous
100
AcDbLine
 10
1052.4
 20
134.0
 30
0.0
 11
1052.4
 21
136.0
 31
0.0
  0
LINE
  5
158AC
330
157DF
100
AcDbEntity
  8
4
  6
CENTER
100
AcDbLine
 10
1060.0
 20
129.2499999999998
 30
0.0
 11
1060.0
 21
140.7499999999998
 31
0.0
  0
CIRCLE
  5
158AD
330
157DF
100
AcDbEntity
  8
1
  6
Continuous
100
AcDbCircle
 10
1060.0
 20
135.0
 30
0.0
 40
3.75
  0
CIRCLE
  5
158AE
330
157DF
100
AcDbEntity
  8
1
  6
Continuous
100
AcDbCircle
 10
1060.0
 20
135.0
 30
0.0
 40
2.399999999999999
  0
LINE
  5
158AF
330
157DF
100
AcDbEntity
  8
1
  6
Continuous
100
AcDbLine
 10
1066.545639999998
 20
146.202494
 30
0.0
 11
1064.105558
 21
141.2733969999998
 31
0.0
  0
ARC
  5
158B0
330
157DF
100
AcDbEntity
  8
1
  6
Continuous
100
AcDbCircle
 10
1061.0
 20
135.0
 30
0.0
 40
7.0
100
AcDbArc
 50
26.33707499999999
 51
63.662925
  0
ARC
  5
158B1
330
157DF
100
AcDbEntity
  8
1
  6
Continuous
100
AcDbCircle
 10
1067.0
 20
133.0
 30
0.0
 40
2.0
100
AcDbArc
 50
90.0
 51
253.2276069999999
  0
LINE
  5
158B2
330
157DF
100
AcDbEntity
  8
1
  6
Continuous
100
AcDbLine
 10
1075.0
 20
136.4999999999998
 30
0.0
 11
1075.0
 21
151.0
 31
0.0
  0
ARC
  5
158B3
330
157DF
100
AcDbEntity
  8
1
  6
Continuous
100
AcDbCircle
 10
1073.499999999999
 20
127.3854409999999
 30
0.0
 40
1.5
100
AcDbArc
 50
0.0
 51
73.22760699999998
  0
LINE
  5
158B4
330
157DF
100
AcDbEntity
  8
1
  6
Continuous
100
AcDbLine
 10
1075.0
 20
122.5
 30
0.0
 11
1075.0
 21
127.3854409999999
 31
0.0
  0
ARC
  5
158B5
330
157DF
100
AcDbEntity
  8
1
  6
Continuous
100
AcDbCircle
 10
1073.499999999999
 20
136.4999999999998
 30
0.0
 40
1.5
100
AcDbArc
 50
270.0
 51
0.0
  0
ARC
  5
158B6
330
157DF
100
AcDbEntity
  8
3
  6
DASHED
100
AcDbCircle
 10
546.0
 20
319.5
 30
0.0
 40
11.0
100
AcDbArc
 50
114.619977
 51
65.38002299999999
  0
LINE
  5
158B7
330
157DF
100
AcDbEntity
  8
1
  6
Continuous
100
AcDbLine
 10
529.0
 20
307.0
 30
0.0
 11
156.0
 21
307.0
 31
0.0
  0
CIRCLE
  5
158B8
330
157DF
100
AcDbEntity
  8
1
  6
Continuous
100
AcDbCircle
 10
534.5499999999998
 20
307.55
 30
0.0
 40
1.75
  0
CIRCLE
  5
158B9
330
157DF
100
AcDbEntity
  8
1
  6
Continuous
100
AcDbCircle
 10
560.0
 20
311.5
 30
0.0
 40
2.399999999999999
  0
LINE
  5
158BA
330
157DF
100
AcDbEntity
  8
1
  6
Continuous
100
AcDbLine
 10
655.0
 20
135.4999999999998
 30
0.0
 11
655.0
 21
145.5
 31
0.0
  0
LINE
  5
158BB
330
157DF
100
AcDbEntity
  8
1
  6
Continuous
100
AcDbLine
 10
578.5
 20
328.0
 30
0.0
 11
574.5
 21
329.4999999999999
 31
0.0
  0
LINE
  5
158BC
330
157DF
100
AcDbEntity
  8
1
  6
Continuous
100
AcDbLine
 10
579.4999999999999
 20
329.4999999999999
 30
0.0
 11
579.4999999999999
 21
328.0
 31
0.0
  0
LINE
  5
158BD
330
157DF
100
AcDbEntity
  8
1
  6
Continuous
100
AcDbLine
 10
598.0
 20
305.0
 30
0.0
 11
599.0
 21
305.0
 31
0.0
  0
LINE
  5
158BE
330
157DF
100
AcDbEntity
  8
1
  6
Continuous
100
AcDbLine
 10
579.4999999999999
 20
328.0
 30
0.0
 11
578.5
 21
328.0
 31
0.0
  0
LINE
  5
158BF
330
157DF
100
AcDbEntity
  8
1
  6
Continuous
100
AcDbLine
 10
574.5
 20
329.4999999999999
 30
0.0
 11
531.0
 21
329.4999999999999
 31
0.0
  0
LINE
  5
158C0
330
157DF
100
AcDbEntity
  8
1
  6
Continuous
100
AcDbLine
 10
498.7499999999998
 20
318.0
 30
0.0
 11
498.7499999999998
 21
316.0
 31
0.0
  0
LINE
  5
158C1
330
157DF
100
AcDbEntity
  8
1
  6
Continuous
100
AcDbLine
 10
491.25
 20
318.0
 30
0.0
 11
491.25
 21
316.0
 31
0.0
  0
ARC
  5
158C2
330
157DF
100
AcDbEntity
  8
1
  6
Continuous
100
AcDbCircle
 10
495.0
 20
316.0
 30
0.0
 40
3.75
100
AcDbArc
 50
180.0
 51
0.0
  0
CIRCLE
  5
158C3
330
157DF
100
AcDbEntity
  8
1
  6
Continuous
100
AcDbCircle
 10
505.0
 20
317.0
 30
0.0
 40
3.75
  0
ARC
  5
158C4
330
157DF
100
AcDbEntity
  8
1
  6
Continuous
100
AcDbCircle
 10
495.0
 20
318.0
 30
0.0
 40
3.75
100
AcDbArc
 50
0.0
 51
180.0
  0
CIRCLE
  5
158C5
330
157DF
100
AcDbEntity
  8
1
  6
Continuous
100
AcDbCircle
 10
125.0
 20
317.0
 30
0.0
 40
3.75
  0
ARC
  5
158C6
330
157DF
100
AcDbEntity
  8
1
  6
Continuous
100
AcDbCircle
 10
135.0
 20
318.0
 30
0.0
 40
3.75
100
AcDbArc
 50
0.0
 51
180.0
  0
LINE
  5
158C7
330
157DF
100
AcDbEntity
  8
1
  6
Continuous
100
AcDbLine
 10
131.25
 20
318.0
 30
0.0
 11
131.25
 21
316.0
 31
0.0
  0
LINE
  5
158C8
330
157DF
100
AcDbEntity
  8
1
  6
Continuous
100
AcDbLine
 10
138.7499999999998
 20
318.0
 30
0.0
 11
138.7499999999998
 21
316.0
 31
0.0
  0
ARC
  5
158C9
330
157DF
100
AcDbEntity
  8
1
  6
Continuous
100
AcDbCircle
 10
135.0
 20
316.0
 30
0.0
 40
3.75
100
AcDbArc
 50
180.0
 51
0.0
  0
LINE
  5
158CA
330
157DF
100
AcDbEntity
  8
3
  6
DASHED
100
AcDbLine
 10
578.5
 20
126.5
 30
0.0
 11
579.4999999999999
 21
126.5
 31
0.0
  0
LINE
  5
158CB
330
157DF
100
AcDbEntity
  8
3
  6
DASHED
100
AcDbLine
 10
579.4999999999999
 20
126.5
 30
0.0
 11
650.4999999999999
 21
126.5
 31
0.0
  0
LINE
  5
158CC
330
157DF
100
AcDbEntity
  8
3
  6
DASHED
100
AcDbLine
 10
579.4999999999999
 20
125.0
 30
0.0
 11
579.4999999999999
 21
126.5
 31
0.0
  0
LINE
  5
158CD
330
157DF
100
AcDbEntity
  8
3
  6
DASHED
100
AcDbLine
 10
578.5
 20
126.5
 30
0.0
 11
574.5
 21
125.0
 31
0.0
  0
LINE
  5
158CE
330
157DF
100
AcDbEntity
  8
3
  6
DASHED
100
AcDbLine
 10
574.5
 20
125.0
 30
0.0
 11
531.0
 21
125.0
 31
0.0
  0
LINE
  5
158CF
330
157DF
100
AcDbEntity
  8
3
  6
DASHED
100
AcDbLine
 10
631.5
 20
308.4999999999999
 30
0.0
 11
556.0201059999999
 21
308.4999999999999
 31
0.0
  0
LINE
  5
158D0
330
157DF
100
AcDbEntity
  8
3
  6
DASHED
100
AcDbLine
 10
552.78233
 20
309.0
 30
0.0
 11
555.53233
 21
307.0
 31
0.0
  0
LINE
  5
158D1
330
157DF
100
AcDbEntity
  8
3
  6
DASHED
100
AcDbLine
 10
552.78233
 20
309.0
 30
0.0
 11
550.0323299999998
 21
307.0
 31
0.0
  0
LINE
  5
158D2
330
157DF
100
AcDbEntity
  8
3
  6
DASHED
100
AcDbLine
 10
553.664588
 20
310.2131039999998
 30
0.0
 11
556.0201059999999
 21
308.4999999999999
 31
0.0
  0
LINE
  5
158D3
330
157DF
100
AcDbEntity
  8
3
  6
DASHED
100
AcDbLine
 10
551.900072
 20
310.2131039999998
 30
0.0
 11
549.5445539999998
 21
308.4999999999999
 31
0.0
  0
ARC
  5
158D4
330
157DF
100
AcDbEntity
  8
3
  6
DASHED
100
AcDbCircle
 10
552.78233
 20
309.0
 30
0.0
 40
1.5
100
AcDbArc
 50
53.972627
 51
126.0273729999997
  0
LINE
  5
158D5
330
157DF
100
AcDbEntity
  8
1
  6
Continuous
100
AcDbLine
 10
1073.499999999999
 20
225.4999999999999
 30
0.0
 11
600.4999999999999
 21
225.4999999999999
 31
0.0
  0
LINE
  5
158D6
330
157DF
100
AcDbEntity
  8
1
  6
Continuous
100
AcDbLine
 10
109.0
 20
221.0
 30
0.0
 11
109.0
 21
229.0
 31
0.0
  0
LINE
  5
158D7
330
157DF
100
AcDbEntity
  8
1
  6
Continuous
100
AcDbLine
 10
529.0
 20
233.4999999999999
 30
0.0
 11
529.0
 21
232.0
 31
0.0
  0
LINE
  5
158D8
330
157DF
100
AcDbEntity
  8
1
  6
Continuous
100
AcDbLine
 10
630.0
 20
221.0
 30
0.0
 11
630.0
 21
225.4999999999999
 31
0.0
  0
LINE
  5
158D9
330
157DF
100
AcDbEntity
  8
1
  6
Continuous
100
AcDbLine
 10
599.0
 20
232.0
 30
0.0
 11
529.0
 21
232.0
 31
0.0
  0
LINE
  5
158DA
330
157DF
100
AcDbEntity
  8
1
  6
Continuous
100
AcDbLine
 10
156.0
 20
222.0
 30
0.0
 11
156.0
 21
228.0
 31
0.0
  0
LINE
  5
158DB
330
157DF
100
AcDbEntity
  8
1
  6
Continuous
100
AcDbLine
 10
143.5
 20
221.0
 30
0.0
 11
143.5
 21
224.0
 31
0.0
  0
LINE
  5
158DC
330
157DF
100
AcDbEntity
  8
1
  6
Continuous
100
AcDbLine
 10
143.5
 20
222.5
 30
0.0
 11
114.0
 21
222.5
 31
0.0
  0
LINE
  5
158DD
330
157DF
100
AcDbEntity
  8
1
  6
Continuous
100
AcDbLine
 10
142.0
 20
225.4999999999999
 30
0.0
 11
115.5
 21
225.4999999999999
 31
0.0
  0
LINE
  5
158DE
330
157DF
100
AcDbEntity
  8
1
  6
Continuous
100
AcDbLine
 10
114.0
 20
224.0
 30
0.0
 11
114.0
 21
221.0
 31
0.0
  0
ARC
  5
158DF
330
157DF
100
AcDbEntity
  8
1
  6
Continuous
100
AcDbCircle
 10
115.5
 20
224.0
 30
0.0
 40
1.5
100
AcDbArc
 50
90.0
 51
180.0
  0
ARC
  5
158E0
330
157DF
100
AcDbEntity
  8
1
  6
Continuous
100
AcDbCircle
 10
142.0
 20
224.0
 30
0.0
 40
1.5
100
AcDbArc
 50
0.0
 51
90.0
  0
LINE
  5
158E1
330
157DF
100
AcDbEntity
  8
1
  6
Continuous
100
AcDbLine
 10
655.0
 20
222.5
 30
0.0
 11
655.0
 21
221.0
 31
0.0
  0
LINE
  5
158E2
330
157DF
100
AcDbEntity
  8
1
  6
Continuous
100
AcDbLine
 10
655.0
 20
222.5
 30
0.0
 11
630.0
 21
222.5
 31
0.0
  0
LINE
  5
158E3
330
157DF
100
AcDbEntity
  8
4
  6
CENTER
100
AcDbLine
 10
641.0
 20
237.6235419999999
 30
0.0
 11
641.0
 21
217.1560739999999
 31
0.0
  0
LINE
  5
158E4
330
157DF
100
AcDbEntity
  8
4
  6
CENTER
100
AcDbLine
 10
625.0
 20
218.0
 30
0.0
 11
625.0
 21
224.5
 31
0.0
  0
LINE
  5
158E5
330
157DF
100
AcDbEntity
  8
4
  6
CENTER
100
AcDbLine
 10
615.0
 20
218.0
 30
0.0
 11
615.0
 21
224.5
 31
0.0
  0
LINE
  5
158E6
330
157DF
100
AcDbEntity
  8
4
  6
CENTER
100
AcDbLine
 10
505.0
 20
218.0
 30
0.0
 11
505.0
 21
224.5
 31
0.0
  0
LINE
  5
158E7
330
157DF
100
AcDbEntity
  8
4
  6
CENTER
100
AcDbLine
 10
495.0
 20
218.0
 30
0.0
 11
495.0
 21
224.5
 31
0.0
  0
LINE
  5
158E8
330
157DF
100
AcDbEntity
  8
4
  6
CENTER
100
AcDbLine
 10
135.0
 20
218.0
 30
0.0
 11
135.0
 21
224.5
 31
0.0
  0
LINE
  5
158E9
330
157DF
100
AcDbEntity
  8
4
  6
CENTER
100
AcDbLine
 10
125.0
 20
218.0
 30
0.0
 11
125.0
 21
224.5
 31
0.0
  0
LINE
  5
158EA
330
157DF
100
AcDbEntity
  8
1
  6
Continuous
100
AcDbLine
 10
599.0
 20
227.0
 30
0.0
 11
599.0
 21
233.4999999999999
 31
0.0
  0
LINE
  5
158EB
330
157DF
100
AcDbEntity
  8
1
  6
Continuous
100
AcDbLine
 10
579.4999999999999
 20
229.0
 30
0.0
 11
579.4999999999999
 21
232.0
 31
0.0
  0
LINE
  5
158EC
330
157DF
100
AcDbEntity
  8
1
  6
Continuous
100
AcDbLine
 10
598.0
 20
232.0
 30
0.0
 11
598.0
 21
233.4999999999999
 31
0.0
  0
LINE
  5
158ED
330
157DF
100
AcDbEntity
  8
1
  6
Continuous
100
AcDbLine
 10
594.0
 20
232.0
 30
0.0
 11
594.0
 21
233.4999999999999
 31
0.0
  0
ARC
  5
158EE
330
157DF
100
AcDbEntity
  8
1
  6
Continuous
100
AcDbCircle
 10
600.4999999999999
 20
227.0
 30
0.0
 40
1.5
100
AcDbArc
 50
180.0
 51
270.0
  0
LINE
  5
158EF
330
157DF
100
AcDbEntity
  8
1
  6
Continuous
100
AcDbLine
 10
647.0
 20
225.4999999999999
 30
0.0
 11
647.0
 21
223.4999999999998
 31
0.0
  0
LINE
  5
158F0
330
157DF
100
AcDbEntity
  8
1
  6
Continuous
100
AcDbLine
 10
635.0
 20
225.4999999999999
 30
0.0
 11
635.0
 21
223.4999999999998
 31
0.0
  0
LINE
  5
158F1
330
157DF
100
AcDbEntity
  8
1
  6
Continuous
100
AcDbLine
 10
647.0
 20
225.0
 30
0.0
 11
635.0
 21
225.0
 31
0.0
  0
LINE
  5
158F2
330
157DF
100
AcDbEntity
  8
1
  6
Continuous
100
AcDbLine
 10
647.0
 20
223.4999999999998
 30
0.0
 11
635.0
 21
223.4999999999998
 31
0.0
  0
LINE
  5
158F3
330
157DF
100
AcDbEntity
  8
1
  6
Continuous
100
AcDbLine
 10
646.7928929999999
 20
223.2071069999999
 30
0.0
 11
647.5
 21
222.5
 31
0.0
  0
LINE
  5
158F4
330
157DF
100
AcDbEntity
  8
1
  6
Continuous
100
AcDbLine
 10
635.207107
 20
223.2071069999999
 30
0.0
 11
634.4999999999997
 21
222.5
 31
0.0
  0
ARC
  5
158F5
330
157DF
100
AcDbEntity
  8
1
  6
Continuous
100
AcDbCircle
 10
635.914214
 20
222.5
 30
0.0
 40
1.0
100
AcDbArc
 50
90.0
 51
135.0
  0
ARC
  5
158F6
330
157DF
100
AcDbEntity
  8
1
  6
Continuous
100
AcDbCircle
 10
646.0857859999999
 20
222.5
 30
0.0
 40
1.0
100
AcDbArc
 50
45.0
 51
90.0
  0
LINE
  5
158F7
330
157DF
100
AcDbEntity
  8
4
  6
CENTER
100
AcDbLine
 10
585.0
 20
236.5
 30
0.0
 11
585.0
 21
230.0
 31
0.0
  0
LINE
  5
158F8
330
157DF
100
AcDbEntity
  8
4
  6
CENTER
100
AcDbLine
 10
595.0
 20
236.5
 30
0.0
 11
595.0
 21
230.0
 31
0.0
  0
LINE
  5
158F9
330
157DF
100
AcDbEntity
  8
4
  6
CENTER
100
AcDbLine
 10
704.0
 20
236.5
 30
0.0
 11
704.0
 21
230.0
 31
0.0
  0
LINE
  5
158FA
330
157DF
100
AcDbEntity
  8
4
  6
CENTER
100
AcDbLine
 10
1050.0
 20
236.5
 30
0.0
 11
1050.0
 21
230.0
 31
0.0
  0
LINE
  5
158FB
330
157DF
100
AcDbEntity
  8
4
  6
CENTER
100
AcDbLine
 10
1060.0
 20
236.5
 30
0.0
 11
1060.0
 21
230.0
 31
0.0
  0
LINE
  5
158FC
330
157DF
100
AcDbEntity
  8
1
  6
Continuous
100
AcDbLine
 10
1075.0
 20
233.4999999999999
 30
0.0
 11
1075.0
 21
227.0
 31
0.0
  0
LINE
  5
158FD
330
157DF
100
AcDbEntity
  8
4
  6
CENTER
100
AcDbLine
 10
546.0
 20
237.768529
 30
0.0
 11
546.0
 21
217.385748
 31
0.0
  0
LINE
  5
158FE
330
157DF
100
AcDbEntity
  8
1
  6
Continuous
100
AcDbLine
 10
552.0
 20
229.0
 30
0.0
 11
552.0
 21
231.0
 31
0.0
  0
LINE
  5
158FF
330
157DF
100
AcDbEntity
  8
1
  6
Continuous
100
AcDbLine
 10
552.0
 20
231.0
 30
0.0
 11
540.0
 21
231.0
 31
0.0
  0
LINE
  5
15900
330
157DF
100
AcDbEntity
  8
1
  6
Continuous
100
AcDbLine
 10
540.0
 20
229.0
 30
0.0
 11
540.0
 21
231.0
 31
0.0
  0
ARC
  5
15901
330
157DF
100
AcDbEntity
  8
1
  6
Continuous
100
AcDbCircle
 10
551.0857859999998
 20
232.0
 30
0.0
 40
1.0
100
AcDbArc
 50
270.0
 51
315.0
  0
LINE
  5
15902
330
157DF
100
AcDbEntity
  8
1
  6
Continuous
100
AcDbLine
 10
551.7928929999999
 20
231.2928929999999
 30
0.0
 11
552.5
 21
232.0
 31
0.0
  0
ARC
  5
15903
330
157DF
100
AcDbEntity
  8
1
  6
Continuous
100
AcDbCircle
 10
540.914214
 20
232.0
 30
0.0
 40
1.0
100
AcDbArc
 50
225.0
 51
270.0
  0
LINE
  5
15904
330
157DF
100
AcDbEntity
  8
1
  6
Continuous
100
AcDbLine
 10
540.2071069999998
 20
231.2928929999999
 30
0.0
 11
539.5
 21
232.0
 31
0.0
  0
LINE
  5
15905
330
157DF
100
AcDbEntity
  8
3
  6
DASHED
100
AcDbLine
 10
652.0
 20
226.5
 30
0.0
 11
652.0
 21
231.4999999999999
 31
0.0
  0
LINE
  5
15906
330
157DF
100
AcDbEntity
  8
3
  6
DASHED
100
AcDbLine
 10
652.0
 20
226.5
 30
0.0
 11
630.0
 21
226.5
 31
0.0
  0
LINE
  5
15907
330
157DF
100
AcDbEntity
  8
3
  6
DASHED
100
AcDbLine
 10
652.0
 20
231.4999999999999
 30
0.0
 11
630.0
 21
231.4999999999999
 31
0.0
  0
LINE
  5
15908
330
157DF
100
AcDbEntity
  8
3
  6
DASHED
100
AcDbLine
 10
647.0
 20
226.5
 30
0.0
 11
647.0
 21
225.4999999999999
 31
0.0
  0
LINE
  5
15909
330
157DF
100
AcDbEntity
  8
3
  6
DASHED
100
AcDbLine
 10
635.0
 20
226.5
 30
0.0
 11
635.0
 21
225.4999999999999
 31
0.0
  0
LINE
  5
1590A
330
157DF
100
AcDbEntity
  8
3
  6
DASHED
100
AcDbLine
 10
557.0
 20
228.0
 30
0.0
 11
557.0
 21
223.0
 31
0.0
  0
LINE
  5
1590B
330
157DF
100
AcDbEntity
  8
3
  6
DASHED
100
AcDbLine
 10
550.0323299999998
 20
223.0
 30
0.0
 11
535.0
 21
223.0
 31
0.0
  0
LINE
  5
1590C
330
157DF
100
AcDbEntity
  8
3
  6
DASHED
100
AcDbLine
 10
557.0
 20
228.0
 30
0.0
 11
535.0
 21
228.0
 31
0.0
  0
LINE
  5
1590D
330
157DF
100
AcDbEntity
  8
1
  6
Continuous
100
AcDbLine
 10
552.0
 20
229.4999999999999
 30
0.0
 11
540.0
 21
229.4999999999999
 31
0.0
  0
LINE
  5
1590E
330
157DF
100
AcDbEntity
  8
3
  6
DASHED
100
AcDbLine
 10
552.0
 20
228.0
 30
0.0
 11
552.0
 21
229.0
 31
0.0
  0
LINE
  5
1590F
330
157DF
100
AcDbEntity
  8
3
  6
DASHED
100
AcDbLine
 10
540.0
 20
228.0
 30
0.0
 11
540.0
 21
229.0
 31
0.0
  0
LINE
  5
15910
330
157DF
100
AcDbEntity
  8
3
  6
DASHED
100
AcDbLine
 10
535.0
 20
228.0
 30
0.0
 11
535.0
 21
223.0
 31
0.0
  0
LINE
  5
15911
330
157DF
100
AcDbEntity
  8
4
  6
CENTER
100
AcDbLine
 10
534.5499999999998
 20
236.5
 30
0.0
 11
534.5499999999998
 21
230.0
 31
0.0
  0
LINE
  5
15912
330
157DF
100
AcDbEntity
  8
4
  6
CENTER
100
AcDbLine
 10
560.0
 20
236.5
 30
0.0
 11
560.0
 21
230.0
 31
0.0
  0
LINE
  5
15913
330
157DF
100
AcDbEntity
  8
1
  6
Continuous
100
AcDbLine
 10
109.0
 20
229.0
 30
0.0
 11
599.0
 21
229.0
 31
0.0
  0
LINE
  5
15914
330
157DF
100
AcDbEntity
  8
1
  6
Continuous
100
AcDbLine
 10
555.53233
 20
228.5
 30
0.0
 11
555.53233
 21
223.0
 31
0.0
  0
LINE
  5
15915
330
157DF
100
AcDbEntity
  8
1
  6
Continuous
100
AcDbLine
 10
552.78233
 20
228.5
 30
0.0
 11
552.78233
 21
223.0
 31
0.0
  0
LINE
  5
15916
330
157DF
100
AcDbEntity
  8
1
  6
Continuous
100
AcDbLine
 10
550.0323299999998
 20
228.5
 30
0.0
 11
550.0323299999998
 21
223.0
 31
0.0
  0
LINE
  5
15917
330
157DF
100
AcDbEntity
  8
1
  6
Continuous
100
AcDbLine
 10
555.53233
 20
223.0
 30
0.0
 11
550.0323299999998
 21
223.0
 31
0.0
  0
LINE
  5
15918
330
157DF
100
AcDbEntity
  8
1
  6
Continuous
100
AcDbLine
 10
555.53233
 20
228.5
 30
0.0
 11
550.0323299999998
 21
228.5
 31
0.0
  0
LINE
  5
15919
330
157DF
100
AcDbEntity
  8
3
  6
DASHED
100
AcDbLine
 10
557.0
 20
223.0
 30
0.0
 11
555.53233
 21
223.0
 31
0.0
  0
LINE
  5
1591A
330
157DF
100
AcDbEntity
  8
1
  6
Continuous
100
AcDbLine
 10
1075.0
 20
41.0
 30
0.0
 11
529.0
 21
41.0
 31
0.0
  0
LINE
  5
1591B
330
157DF
100
AcDbEntity
  8
1
  6
Continuous
100
AcDbLine
 10
1073.499999999999
 20
49.0
 30
0.0
 11
581.5
 21
49.0
 31
0.0
  0
LINE
  5
1591C
330
157DF
100
AcDbEntity
  8
1
  6
Continuous
100
AcDbLine
 10
655.0
 20
53.5
 30
0.0
 11
109.0
 21
53.5
 31
0.0
  0
LINE
  5
1591D
330
157DF
100
AcDbEntity
  8
1
  6
Continuous
100
AcDbLine
 10
142.0
 20
49.0
 30
0.0
 11
115.5
 21
49.0
 31
0.0
  0
LINE
  5
1591E
330
157DF
100
AcDbEntity
  8
1
  6
Continuous
100
AcDbLine
 10
655.0
 20
52.0
 30
0.0
 11
109.0
 21
52.0
 31
0.0
  0
LINE
  5
1591F
330
157DF
100
AcDbEntity
  8
1
  6
Continuous
100
AcDbLine
 10
109.0
 20
53.5
 30
0.0
 11
109.0
 21
45.49999999999999
 31
0.0
  0
ARC
  5
15920
330
157DF
100
AcDbEntity
  8
1
  6
Continuous
100
AcDbCircle
 10
115.5
 20
50.5
 30
0.0
 40
1.5
100
AcDbArc
 50
180.0
 51
270.0
  0
LINE
  5
15921
330
157DF
100
AcDbEntity
  8
1
  6
Continuous
100
AcDbLine
 10
114.0
 20
50.5
 30
0.0
 11
114.0
 21
52.0
 31
0.0
  0
LINE
  5
15922
330
157DF
100
AcDbEntity
  8
4
  6
CENTER
100
AcDbLine
 10
125.0
 20
56.5
 30
0.0
 11
125.0
 21
50.0
 31
0.0
  0
ARC
  5
15923
330
157DF
100
AcDbEntity
  8
1
  6
Continuous
100
AcDbCircle
 10
142.0
 20
50.5
 30
0.0
 40
1.5
100
AcDbArc
 50
270.0
 51
0.0
  0
LINE
  5
15924
330
157DF
100
AcDbEntity
  8
4
  6
CENTER
100
AcDbLine
 10
135.0
 20
56.5
 30
0.0
 11
135.0
 21
50.0
 31
0.0
  0
LINE
  5
15925
330
157DF
100
AcDbEntity
  8
1
  6
Continuous
100
AcDbLine
 10
143.5
 20
52.0
 30
0.0
 11
143.5
 21
50.5
 31
0.0
  0
LINE
  5
15926
330
157DF
100
AcDbEntity
  8
1
  6
Continuous
100
AcDbLine
 10
156.0
 20
51.0
 30
0.0
 11
156.0
 21
46.5
 31
0.0
  0
LINE
  5
15927
330
157DF
100
AcDbEntity
  8
1
  6
Continuous
100
AcDbLine
 10
579.4999999999999
 20
42.5
 30
0.0
 11
529.0
 21
42.5
 31
0.0
  0
LINE
  5
15928
330
157DF
100
AcDbEntity
  8
4
  6
CENTER
100
AcDbLine
 10
495.0
 20
56.5
 30
0.0
 11
495.0
 21
50.0
 31
0.0
  0
LINE
  5
15929
330
157DF
100
AcDbEntity
  8
4
  6
CENTER
100
AcDbLine
 10
505.0
 20
56.5
 30
0.0
 11
505.0
 21
50.0
 31
0.0
  0
LINE
  5
1592A
330
157DF
100
AcDbEntity
  8
1
  6
Continuous
100
AcDbLine
 10
529.0
 20
41.0
 30
0.0
 11
529.0
 21
42.5
 31
0.0
  0
LINE
  5
1592B
330
157DF
100
AcDbEntity
  8
1
  6
Continuous
100
AcDbLine
 10
557.0
 20
51.5
 30
0.0
 11
535.0
 21
51.5
 31
0.0
  0
LINE
  5
1592C
330
157DF
100
AcDbEntity
  8
1
  6
Continuous
100
AcDbLine
 10
552.0
 20
43.5
 30
0.0
 11
540.0
 21
43.5
 31
0.0
  0
LINE
  5
1592D
330
157DF
100
AcDbEntity
  8
1
  6
Continuous
100
AcDbLine
 10
557.0
 20
46.5
 30
0.0
 11
535.0
 21
46.5
 31
0.0
  0
LINE
  5
1592E
330
157DF
100
AcDbEntity
  8
1
  6
Continuous
100
AcDbLine
 10
552.0
 20
45.0
 30
0.0
 11
540.0
 21
45.0
 31
0.0
  0
ARC
  5
1592F
330
157DF
100
AcDbEntity
  8
1
  6
Continuous
100
AcDbCircle
 10
540.914214
 20
42.5
 30
0.0
 40
1.0
100
AcDbArc
 50
90.0
 51
135.0
  0
LINE
  5
15930
330
157DF
100
AcDbEntity
  8
1
  6
Continuous
100
AcDbLine
 10
540.2071069999998
 20
43.207107
 30
0.0
 11
539.5
 21
42.5
 31
0.0
  0
LINE
  5
15931
330
157DF
100
AcDbEntity
  8
1
  6
Continuous
100
AcDbLine
 10
540.0
 20
46.5
 30
0.0
 11
540.0
 21
43.5
 31
0.0
  0
LINE
  5
15932
330
157DF
100
AcDbEntity
  8
4
  6
CENTER
100
AcDbLine
 10
534.5499999999998
 20
38.0
 30
0.0
 11
534.5499999999998
 21
44.5
 31
0.0
  0
LINE
  5
15933
330
157DF
100
AcDbEntity
  8
4
  6
CENTER
100
AcDbLine
 10
546.0
 20
36.73147099999999
 30
0.0
 11
546.0
 21
57.114252
 31
0.0
  0
LINE
  5
15934
330
157DF
100
AcDbEntity
  8
1
  6
Continuous
100
AcDbLine
 10
535.0
 20
46.5
 30
0.0
 11
535.0
 21
51.5
 31
0.0
  0
ARC
  5
15935
330
157DF
100
AcDbEntity
  8
1
  6
Continuous
100
AcDbCircle
 10
551.0857859999998
 20
42.5
 30
0.0
 40
1.0
100
AcDbArc
 50
45.0
 51
90.0
  0
LINE
  5
15936
330
157DF
100
AcDbEntity
  8
1
  6
Continuous
100
AcDbLine
 10
551.7928929999999
 20
43.207107
 30
0.0
 11
552.5
 21
42.5
 31
0.0
  0
LINE
  5
15937
330
157DF
100
AcDbEntity
  8
1
  6
Continuous
100
AcDbLine
 10
552.0
 20
46.5
 30
0.0
 11
552.0
 21
43.5
 31
0.0
  0
LINE
  5
15938
330
157DF
100
AcDbEntity
  8
4
  6
CENTER
100
AcDbLine
 10
560.0
 20
38.0
 30
0.0
 11
560.0
 21
44.5
 31
0.0
  0
LINE
  5
15939
330
157DF
100
AcDbEntity
  8
1
  6
Continuous
100
AcDbLine
 10
556.0201059999999
 20
46.0
 30
0.0
 11
552.0
 21
46.0
 31
0.0
  0
LINE
  5
1593A
330
157DF
100
AcDbEntity
  8
1
  6
Continuous
100
AcDbLine
 10
557.0
 20
46.5
 30
0.0
 11
557.0
 21
51.5
 31
0.0
  0
LINE
  5
1593B
330
157DF
100
AcDbEntity
  8
1
  6
Continuous
100
AcDbLine
 10
552.78233
 20
46.0
 30
0.0
 11
552.78233
 21
46.5
 31
0.0
  0
LINE
  5
1593C
330
157DF
100
AcDbEntity
  8
4
  6
CENTER
100
AcDbLine
 10
615.0
 20
56.5
 30
0.0
 11
615.0
 21
50.0
 31
0.0
  0
LINE
  5
1593D
330
157DF
100
AcDbEntity
  8
1
  6
Continuous
100
AcDbLine
 10
579.4999999999999
 20
47.0
 30
0.0
 11
579.4999999999999
 21
41.0
 31
0.0
  0
LINE
  5
1593E
330
157DF
100
AcDbEntity
  8
4
  6
CENTER
100
AcDbLine
 10
625.0
 20
56.5
 30
0.0
 11
625.0
 21
50.0
 31
0.0
  0
LINE
  5
1593F
330
157DF
100
AcDbEntity
  8
4
  6
CENTER
100
AcDbLine
 10
595.0
 20
38.0
 30
0.0
 11
595.0
 21
44.5
 31
0.0
  0
LINE
  5
15940
330
157DF
100
AcDbEntity
  8
4
  6
CENTER
100
AcDbLine
 10
585.0
 20
38.0
 30
0.0
 11
585.0
 21
44.5
 31
0.0
  0
LINE
  5
15941
330
157DF
100
AcDbEntity
  8
3
  6
DASHED
100
AcDbLine
 10
630.0
 20
49.0
 30
0.0
 11
630.0
 21
43.0
 31
0.0
  0
LINE
  5
15942
330
157DF
100
AcDbEntity
  8
3
  6
DASHED
100
AcDbLine
 10
652.0
 20
48.0
 30
0.0
 11
630.0
 21
48.0
 31
0.0
  0
LINE
  5
15943
330
157DF
100
AcDbEntity
  8
3
  6
DASHED
100
AcDbLine
 10
652.0
 20
43.0
 30
0.0
 11
630.0
 21
43.0
 31
0.0
  0
LINE
  5
15944
330
157DF
100
AcDbEntity
  8
1
  6
Continuous
100
AcDbLine
 10
647.0
 20
49.5
 30
0.0
 11
635.0
 21
49.5
 31
0.0
  0
LINE
  5
15945
330
157DF
100
AcDbEntity
  8
1
  6
Continuous
100
AcDbLine
 10
635.207107
 20
51.29289299999999
 30
0.0
 11
634.4999999999997
 21
52.0
 31
0.0
  0
ARC
  5
15946
330
157DF
100
AcDbEntity
  8
1
  6
Continuous
100
AcDbCircle
 10
635.914214
 20
52.0
 30
0.0
 40
1.0
100
AcDbArc
 50
225.0
 51
270.0
  0
LINE
  5
15947
330
157DF
100
AcDbEntity
  8
1
  6
Continuous
100
AcDbLine
 10
646.7928929999999
 20
51.29289299999999
 30
0.0
 11
647.5
 21
52.0
 31
0.0
  0
ARC
  5
15948
330
157DF
100
AcDbEntity
  8
1
  6
Continuous
100
AcDbCircle
 10
646.0857859999999
 20
52.0
 30
0.0
 40
1.0
100
AcDbArc
 50
270.0
 51
315.0
  0
LINE
  5
15949
330
157DF
100
AcDbEntity
  8
1
  6
Continuous
100
AcDbLine
 10
635.0
 20
49.0
 30
0.0
 11
635.0
 21
51.0
 31
0.0
  0
LINE
  5
1594A
330
157DF
100
AcDbEntity
  8
1
  6
Continuous
100
AcDbLine
 10
647.0
 20
51.0
 30
0.0
 11
635.0
 21
51.0
 31
0.0
  0
LINE
  5
1594B
330
157DF
100
AcDbEntity
  8
1
  6
Continuous
100
AcDbLine
 10
647.0
 20
49.0
 30
0.0
 11
647.0
 21
51.0
 31
0.0
  0
LINE
  5
1594C
330
157DF
100
AcDbEntity
  8
3
  6
DASHED
100
AcDbLine
 10
635.0
 20
48.0
 30
0.0
 11
635.0
 21
49.0
 31
0.0
  0
LINE
  5
1594D
330
157DF
100
AcDbEntity
  8
3
  6
DASHED
100
AcDbLine
 10
647.0
 20
48.0
 30
0.0
 11
647.0
 21
49.0
 31
0.0
  0
LINE
  5
1594E
330
157DF
100
AcDbEntity
  8
4
  6
CENTER
100
AcDbLine
 10
641.0
 20
36.876458
 30
0.0
 11
641.0
 21
57.343926
 31
0.0
  0
LINE
  5
1594F
330
157DF
100
AcDbEntity
  8
1
  6
Continuous
100
AcDbLine
 10
655.0
 20
52.0
 30
0.0
 11
655.0
 21
53.5
 31
0.0
  0
LINE
  5
15950
330
157DF
100
AcDbEntity
  8
3
  6
DASHED
100
AcDbLine
 10
652.0
 20
48.0
 30
0.0
 11
652.0
 21
43.0
 31
0.0
  0
LINE
  5
15951
330
157DF
100
AcDbEntity
  8
4
  6
CENTER
100
AcDbLine
 10
704.0
 20
38.0
 30
0.0
 11
704.0
 21
44.5
 31
0.0
  0
LINE
  5
15952
330
157DF
100
AcDbEntity
  8
4
  6
CENTER
100
AcDbLine
 10
1050.0
 20
38.0
 30
0.0
 11
1050.0
 21
44.5
 31
0.0
  0
LINE
  5
15953
330
157DF
100
AcDbEntity
  8
4
  6
CENTER
100
AcDbLine
 10
1060.0
 20
38.0
 30
0.0
 11
1060.0
 21
44.5
 31
0.0
  0
LINE
  5
15954
330
157DF
100
AcDbEntity
  8
1
  6
Continuous
100
AcDbLine
 10
1075.0
 20
41.0
 30
0.0
 11
1075.0
 21
47.5
 31
0.0
  0
LINE
  5
15955
330
157DF
100
AcDbEntity
  8
1
  6
Continuous
100
AcDbLine
 10
109.0
 20
45.49999999999999
 30
0.0
 11
540.0
 21
45.49999999999999
 31
0.0
  0
LINE
  5
15956
330
157DF
100
AcDbEntity
  8
1
  6
Continuous
100
AcDbLine
 10
556.0201059999999
 20
46.0
 30
0.0
 11
556.0201059999999
 21
46.5
 31
0.0
  0
LINE
  5
15957
330
157DF
100
AcDbEntity
  8
1
  6
Continuous
100
AcDbLine
 10
552.0
 20
45.49999999999999
 30
0.0
 11
579.4999999999999
 21
45.49999999999999
 31
0.0
  0
LINE
  5
15958
330
157DF
100
AcDbEntity
  8
1
  6
Continuous
100
AcDbLine
 10
630.0
 20
52.0
 30
0.0
 11
630.0
 21
49.0
 31
0.0
  0
LINE
  5
15959
330
157DF
100
AcDbEntity
  8
3
  6
DASHED
100
AcDbLine
 10
579.4999999999999
 20
45.49999999999999
 30
0.0
 11
628.0
 21
45.49999999999999
 31
0.0
  0
ARC
  5
1595A
330
157DF
100
AcDbEntity
  8
1
  6
Continuous
100
AcDbCircle
 10
36.0
 20
148.5
 30
0.0
 40
1.5
100
AcDbArc
 50
0.0
 51
90.0
  0
LINE
  5
1595B
330
157DF
100
AcDbEntity
  8
1
  6
Continuous
100
AcDbLine
 10
25.0
 20
124.0
 30
0.0
 11
25.0
 21
151.0
 31
0.0
  0
LINE
  5
1595C
330
157DF
100
AcDbEntity
  8
1
  6
Continuous
100
AcDbLine
 10
26.5
 20
122.5
 30
0.0
 11
26.5
 21
151.0
 31
0.0
  0
LINE
  5
1595D
330
157DF
100
AcDbEntity
  8
1
  6
Continuous
100
AcDbLine
 10
37.5
 20
123.5
 30
0.0
 11
37.5
 21
148.5
 31
0.0
  0
ARC
  5
1595E
330
157DF
100
AcDbEntity
  8
1
  6
Continuous
100
AcDbCircle
 10
26.5
 20
124.0
 30
0.0
 40
1.5
100
AcDbArc
 50
180.0
 51
270.0
  0
LINE
  5
1595F
330
157DF
100
AcDbEntity
  8
1
  6
Continuous
100
AcDbLine
 10
37.5
 20
123.5
 30
0.0
 11
36.0
 21
123.5
 31
0.0
  0
LINE
  5
15960
330
157DF
100
AcDbEntity
  8
1
  6
Continuous
100
AcDbLine
 10
36.0
 20
148.5
 30
0.0
 11
27.0
 21
148.5
 31
0.0
  0
LINE
  5
15961
330
157DF
100
AcDbEntity
  8
4
  6
CENTER
100
AcDbLine
 10
41.643621
 20
137.5
 30
0.0
 11
23.84947599999999
 21
137.5
 31
0.0
  0
LINE
  5
15962
330
157DF
100
AcDbEntity
  8
4
  6
CENTER
100
AcDbLine
 10
38.19373800000001
 20
135.0
 30
0.0
 11
20.0
 21
135.0
 31
0.0
  0
LINE
  5
15963
330
157DF
100
AcDbEntity
  8
1
  6
Continuous
100
AcDbLine
 10
36.0
 20
123.5
 30
0.0
 11
36.0
 21
148.5
 31
0.0
  0
LINE
  5
15964
330
157DF
100
AcDbEntity
  8
1
  6
Continuous
100
AcDbLine
 10
33.0
 20
151.0
 30
0.0
 11
25.0
 21
151.0
 31
0.0
  0
LINE
  5
15965
330
157DF
100
AcDbEntity
  8
1
  6
Continuous
100
AcDbLine
 10
29.5
 20
149.5
 30
0.0
 11
26.5
 21
149.5
 31
0.0
  0
LINE
  5
15966
330
157DF
100
AcDbEntity
  8
1
  6
Continuous
100
AcDbLine
 10
29.5
 20
150.0
 30
0.0
 11
36.0
 21
150.0
 31
0.0
  0
LINE
  5
15967
330
157DF
100
AcDbEntity
  8
1
  6
Continuous
100
AcDbLine
 10
33.0
 20
150.0
 30
0.0
 11
33.0
 21
151.0
 31
0.0
  0
LINE
  5
15968
330
157DF
100
AcDbEntity
  8
1
  6
Continuous
100
AcDbLine
 10
29.5
 20
146.0
 30
0.0
 11
29.5
 21
150.0
 31
0.0
  0
LINE
  5
15969
330
157DF
100
AcDbEntity
  8
1
  6
Continuous
100
AcDbLine
 10
37.5
 20
137.5
 30
0.0
 11
36.0
 21
137.5
 31
0.0
  0
LINE
  5
1596A
330
157DF
100
AcDbEntity
  8
1
  6
Continuous
100
AcDbLine
 10
36.0
 20
144.0
 30
0.0
 11
37.5
 21
144.0
 31
0.0
  0
LINE
  5
1596B
330
157DF
100
AcDbEntity
  8
1
  6
Continuous
100
AcDbLine
 10
25.0
 20
125.0
 30
0.0
 11
30.5
 21
125.0
 31
0.0
  0
LINE
  5
1596C
330
157DF
100
AcDbEntity
  8
1
  6
Continuous
100
AcDbLine
 10
36.0
 20
146.0
 30
0.0
 11
29.5
 21
146.0
 31
0.0
  0
LINE
  5
1596D
330
157DF
100
AcDbEntity
  8
1
  6
Continuous
100
AcDbLine
 10
127.0
 20
48.58615799999999
 30
0.0
 11
127.0
 21
45.98131
 31
0.0
  0
LINE
  5
1596E
330
157DF
100
AcDbEntity
  8
1
  6
Continuous
100
AcDbLine
 10
127.0
 20
226.4156869999999
 30
0.0
 11
127.0
 21
228.200516
 31
0.0
  0
LINE
  5
1596F
330
157DF
100
AcDbEntity
  8
1
  6
Continuous
100
AcDbLine
 10
1060.0
 20
46.103955
 30
0.0
 11
1060.0
 21
48.203194
 31
0.0
  0
LINE
  5
15970
330
157DF
100
AcDbEntity
  8
1
  6
Continuous
100
AcDbLine
 10
1032.0
 20
42.5
 30
0.0
 11
1032.0
 21
47.71568
 31
0.0
  0
ARC
  5
15971
330
157DF
100
AcDbEntity
  8
1
  6
Continuous
100
AcDbCircle
 10
1073.499999999999
 20
227.0
 30
0.0
 40
1.5
100
AcDbArc
 50
270.0
 51
0.0
  0
LINE
  5
15972
330
157DF
100
AcDbEntity
  8
1
  6
Continuous
100
AcDbLine
 10
1075.0
 20
630.4999999999997
 30
0.0
 11
645.0
 21
630.4999999999997
 31
0.0
  0
LINE
  5
15973
330
157DF
100
AcDbEntity
  8
1
  6
Continuous
100
AcDbLine
 10
1073.499999999999
 20
629.0
 30
0.0
 11
600.4999999999999
 21
629.0
 31
0.0
  0
LINE
  5
15974
330
157DF
100
AcDbEntity
  8
1
  6
Continuous
100
AcDbLine
 10
1032.0
 20
525.0
 30
0.0
 11
614.5781950000001
 21
525.0
 31
0.0
  0
LINE
  5
15975
330
157DF
100
AcDbEntity
  8
1
  6
Continuous
100
AcDbLine
 10
1075.0
 20
551.0
 30
0.0
 11
599.0
 21
551.0
 31
0.0
  0
LINE
  5
15976
330
157DF
100
AcDbEntity
  8
1
  6
Continuous
100
AcDbLine
 10
1075.0
 20
621.0
 30
0.0
 11
530.4999999999998
 21
621.0
 31
0.0
  0
LINE
  5
15977
330
157DF
100
AcDbEntity
  8
1
  6
Continuous
100
AcDbLine
 10
1075.0
 20
703.5
 30
0.0
 11
599.0
 21
703.5
 31
0.0
  0
LINE
  5
15978
330
157DF
100
AcDbEntity
  8
1
  6
Continuous
100
AcDbLine
 10
1075.0
 20
705.0
 30
0.0
 11
598.0
 21
705.0
 31
0.0
  0
LINE
  5
15979
330
157DF
100
AcDbEntity
  8
1
  6
Continuous
100
AcDbLine
 10
1032.0
 20
729.4999999999999
 30
0.0
 11
649.5781950000001
 21
729.4999999999999
 31
0.0
  0
LINE
  5
1597A
330
157DF
100
AcDbEntity
  8
1
  6
Continuous
100
AcDbLine
 10
1032.245048
 20
724.0
 30
0.0
 11
651.698246
 21
724.0
 31
0.0
  0
LINE
  5
1597B
330
157DF
100
AcDbEntity
  8
1
  6
Continuous
100
AcDbLine
 10
653.5
 20
633.4999999999999
 30
0.0
 11
109.0
 21
633.4999999999999
 31
0.0
  0
LINE
  5
1597C
330
157DF
100
AcDbEntity
  8
1
  6
Continuous
100
AcDbLine
 10
630.0
 20
707.0
 30
0.0
 11
156.0
 21
707.0
 31
0.0
  0
LINE
  5
1597D
330
157DF
100
AcDbEntity
  8
1
  6
Continuous
100
AcDbLine
 10
647.627489
 20
731.0
 30
0.0
 11
111.0
 21
731.0
 31
0.0
  0
LINE
  5
1597E
330
157DF
100
AcDbEntity
  8
1
  6
Continuous
100
AcDbLine
 10
109.0
 20
624.0
 30
0.0
 11
599.0
 21
624.0
 31
0.0
  0
LINE
  5
1597F
330
157DF
100
AcDbEntity
  8
1
  6
Continuous
100
AcDbLine
 10
647.627489
 20
523.5
 30
0.0
 11
111.0
 21
523.5
 31
0.0
  0
LINE
  5
15980
330
157DF
100
AcDbEntity
  8
1
  6
Continuous
100
AcDbLine
 10
530.4999999999998
 20
547.5
 30
0.0
 11
156.0
 21
547.5
 31
0.0
  0
LINE
  5
15981
330
157DF
100
AcDbEntity
  8
1
  6
Continuous
100
AcDbLine
 10
528.0
 20
542.4999999999998
 30
0.0
 11
155.784882
 21
542.4999999999998
 31
0.0
  0
LINE
  5
15982
330
157DF
100
AcDbEntity
  8
1
  6
Continuous
100
AcDbLine
 10
156.0
 20
547.5
 30
0.0
 11
127.0
 21
550.0
 31
0.0
  0
LINE
  5
15983
330
157DF
100
AcDbEntity
  8
4
  6
CENTER
100
AcDbLine
 10
119.25
 20
537.5
 30
0.0
 11
140.7499999999998
 21
537.5
 31
0.0
  0
LINE
  5
15984
330
157DF
100
AcDbEntity
  8
1
  6
Continuous
100
AcDbLine
 10
155.784882
 20
542.4999999999998
 30
0.0
 11
126.784882
 21
545.0
 31
0.0
  0
CIRCLE
  5
15985
330
157DF
100
AcDbEntity
  8
1
  6
Continuous
100
AcDbCircle
 10
125.0
 20
537.5
 30
0.0
 40
3.75
  0
LINE
  5
15986
330
157DF
100
AcDbEntity
  8
1
  6
Continuous
100
AcDbLine
 10
25.0
 20
523.5
 30
0.0
 11
25.0
 21
548.5
 31
0.0
  0
LINE
  5
15987
330
157DF
100
AcDbEntity
  8
1
  6
Continuous
100
AcDbLine
 10
26.5
 20
523.5
 30
0.0
 11
26.5
 21
548.5
 31
0.0
  0
LINE
  5
15988
330
157DF
100
AcDbEntity
  8
1
  6
Continuous
100
AcDbLine
 10
27.0
 20
524.0
 30
0.0
 11
27.0
 21
541.0
 31
0.0
  0
LINE
  5
15989
330
157DF
100
AcDbEntity
  8
1
  6
Continuous
100
AcDbLine
 10
28.0
 20
524.0
 30
0.0
 11
28.0
 21
541.0
 31
0.0
  0
LINE
  5
1598A
330
157DF
100
AcDbEntity
  8
1
  6
Continuous
100
AcDbLine
 10
37.5
 20
524.0
 30
0.0
 11
37.5
 21
551.0
 31
0.0
  0
LINE
  5
1598B
330
157DF
100
AcDbEntity
  8
1
  6
Continuous
100
AcDbLine
 10
29.5
 20
522.5
 30
0.0
 11
36.0
 21
522.5
 31
0.0
  0
LINE
  5
1598C
330
157DF
100
AcDbEntity
  8
1
  6
Continuous
100
AcDbLine
 10
37.5
 20
525.0
 30
0.0
 11
29.5
 21
525.0
 31
0.0
  0
LINE
  5
1598D
330
157DF
100
AcDbEntity
  8
1
  6
Continuous
100
AcDbLine
 10
25.0
 20
523.5
 30
0.0
 11
26.5
 21
523.5
 31
0.0
  0
ARC
  5
1598E
330
157DF
100
AcDbEntity
  8
1
  6
Continuous
100
AcDbCircle
 10
29.5
 20
524.0
 30
0.0
 40
1.5
100
AcDbArc
 50
180.0
 51
270.0
  0
LINE
  5
1598F
330
157DF
100
AcDbEntity
  8
1
  6
Continuous
100
AcDbLine
 10
27.0
 20
524.0
 30
0.0
 11
28.0
 21
524.0
 31
0.0
  0
ARC
  5
15990
330
157DF
100
AcDbEntity
  8
1
  6
Continuous
100
AcDbCircle
 10
29.5
 20
526.4999999999998
 30
0.0
 40
1.5
100
AcDbArc
 50
180.0
 51
270.0
  0
ARC
  5
15991
330
157DF
100
AcDbEntity
  8
1
  6
Continuous
100
AcDbCircle
 10
36.0
 20
524.0
 30
0.0
 40
1.5
100
AcDbArc
 50
270.0
 51
0.0
  0
LINE
  5
15992
330
157DF
100
AcDbEntity
  8
1
  6
Continuous
100
AcDbLine
 10
29.5
 20
551.0
 30
0.0
 11
37.5
 21
551.0
 31
0.0
  0
LINE
  5
15993
330
157DF
100
AcDbEntity
  8
1
  6
Continuous
100
AcDbLine
 10
33.0
 20
550.0
 30
0.0
 11
26.5
 21
550.0
 31
0.0
  0
LINE
  5
15994
330
157DF
100
AcDbEntity
  8
4
  6
CENTER
100
AcDbLine
 10
20.856379
 20
537.5
 30
0.0
 11
38.65052399999999
 21
537.5
 31
0.0
  0
LINE
  5
15995
330
157DF
100
AcDbEntity
  8
4
  6
CENTER
100
AcDbLine
 10
24.306262
 20
535.0
 30
0.0
 11
42.5
 21
535.0
 31
0.0
  0
LINE
  5
15996
330
157DF
100
AcDbEntity
  8
1
  6
Continuous
100
AcDbLine
 10
26.5
 20
548.5
 30
0.0
 11
33.0
 21
548.5
 31
0.0
  0
LINE
  5
15997
330
157DF
100
AcDbEntity
  8
1
  6
Continuous
100
AcDbLine
 10
37.5
 20
541.0
 30
0.0
 11
26.5
 21
541.0
 31
0.0
  0
LINE
  5
15998
330
157DF
100
AcDbEntity
  8
1
  6
Continuous
100
AcDbLine
 10
33.0
 20
544.5
 30
0.0
 11
26.5
 21
544.5
 31
0.0
  0
LINE
  5
15999
330
157DF
100
AcDbEntity
  8
1
  6
Continuous
100
AcDbLine
 10
26.5
 20
546.0
 30
0.0
 11
33.0
 21
546.0
 31
0.0
  0
LINE
  5
1599A
330
157DF
100
AcDbEntity
  8
1
  6
Continuous
100
AcDbLine
 10
29.5
 20
550.0
 30
0.0
 11
29.5
 21
551.0
 31
0.0
  0
LINE
  5
1599B
330
157DF
100
AcDbEntity
  8
1
  6
Continuous
100
AcDbLine
 10
25.0
 20
537.5
 30
0.0
 11
26.5
 21
537.5
 31
0.0
  0
LINE
  5
1599C
330
157DF
100
AcDbEntity
  8
1
  6
Continuous
100
AcDbLine
 10
26.5
 20
544.0
 30
0.0
 11
25.0
 21
544.0
 31
0.0
  0
LINE
  5
1599D
330
157DF
100
AcDbEntity
  8
1
  6
Continuous
100
AcDbLine
 10
27.0
 20
544.5
 30
0.0
 11
27.0
 21
546.0
 31
0.0
  0
ARC
  5
1599E
330
157DF
100
AcDbEntity
  8
1
  6
Continuous
100
AcDbCircle
 10
26.5
 20
548.5
 30
0.0
 40
1.5
100
AcDbArc
 50
90.0
 51
180.0
  0
LINE
  5
1599F
330
157DF
100
AcDbEntity
  8
1
  6
Continuous
100
AcDbLine
 10
34.118034
 20
549.5
 30
0.0
 11
36.0
 21
549.5
 31
0.0
  0
LINE
  5
159A0
330
157DF
100
AcDbEntity
  8
1
  6
Continuous
100
AcDbLine
 10
34.5
 20
545.0
 30
0.0
 11
33.0
 21
545.0
 31
0.0
  0
LINE
  5
159A1
330
157DF
100
AcDbEntity
  8
1
  6
Continuous
100
AcDbLine
 10
33.0
 20
541.0
 30
0.0
 11
33.0
 21
548.5
 31
0.0
  0
LINE
  5
159A2
330
157DF
100
AcDbEntity
  8
1
  6
Continuous
100
AcDbLine
 10
33.0
 20
542.4999999999998
 30
0.0
 11
34.5
 21
542.4999999999998
 31
0.0
  0
LINE
  5
159A3
330
157DF
100
AcDbEntity
  8
1
  6
Continuous
100
AcDbLine
 10
34.5
 20
542.4999999999998
 30
0.0
 11
34.5
 21
548.5
 31
0.0
  0
LINE
  5
159A4
330
157DF
100
AcDbEntity
  8
1
  6
Continuous
100
AcDbLine
 10
32.0
 20
544.5
 30
0.0
 11
32.0
 21
546.0
 31
0.0
  0
LINE
  5
159A5
330
157DF
100
AcDbEntity
  8
1
  6
Continuous
100
AcDbLine
 10
36.0
 20
541.0
 30
0.0
 11
36.0
 21
551.0
 31
0.0
  0
ARC
  5
159A6
330
157DF
100
AcDbEntity
  8
1
  6
Continuous
100
AcDbCircle
 10
33.0
 20
548.5
 30
0.0
 40
1.5
100
AcDbArc
 50
0.0
 51
90.0
  0
LINE
  5
159A7
330
157DF
100
AcDbEntity
  8
4
  6
CENTER
100
AcDbLine
 10
125.0
 20
531.7499999999999
 30
0.0
 11
125.0
 21
543.25
 31
0.0
  0
LINE
  5
159A8
330
157DF
100
AcDbEntity
  8
1
  6
Continuous
100
AcDbLine
 10
109.0
 20
536.0
 30
0.0
 11
109.0
 21
525.4999999999999
 31
0.0
  0
ARC
  5
159A9
330
157DF
100
AcDbEntity
  8
1
  6
Continuous
100
AcDbCircle
 10
111.0
 20
525.4999999999999
 30
0.0
 40
2.0
100
AcDbArc
 50
180.0
 51
270.0
  0
LINE
  5
159AA
330
157DF
100
AcDbEntity
  8
1
  6
Continuous
100
AcDbLine
 10
109.0
 20
550.0
 30
0.0
 11
127.0
 21
550.0
 31
0.0
  0
LINE
  5
159AB
330
157DF
100
AcDbEntity
  8
1
  6
Continuous
100
AcDbLine
 10
110.4999999999999
 20
537.5
 30
0.0
 11
117.0
 21
537.5
 31
0.0
  0
LINE
  5
159AC
330
157DF
100
AcDbEntity
  8
1
  6
Continuous
100
AcDbLine
 10
110.0671439999999
 20
543.6783709999998
 30
0.0
 11
117.577141
 21
541.4149169999998
 31
0.0
  0
LINE
  5
159AD
330
157DF
100
AcDbEntity
  8
1
  6
Continuous
100
AcDbLine
 10
110.4999999999999
 20
545.0
 30
0.0
 11
126.784882
 21
545.0
 31
0.0
  0
ARC
  5
159AE
330
157DF
100
AcDbEntity
  8
1
  6
Continuous
100
AcDbCircle
 10
110.4999999999999
 20
536.0
 30
0.0
 40
1.5
100
AcDbArc
 50
90.0
 51
180.0
  0
ARC
  5
159AF
330
157DF
100
AcDbEntity
  8
1
  6
Continuous
100
AcDbCircle
 10
110.4999999999999
 20
545.114559
 30
0.0
 40
1.5
100
AcDbArc
 50
180.0
 51
253.2276069999999
  0
ARC
  5
159B0
330
157DF
100
AcDbEntity
  8
1
  6
Continuous
100
AcDbCircle
 10
110.4999999999999
 20
546.4999999999998
 30
0.0
 40
1.5
100
AcDbArc
 50
180.0
 51
270.0
  0
LINE
  5
159B1
330
157DF
100
AcDbEntity
  8
1
  6
Continuous
100
AcDbLine
 10
109.0
 20
550.0
 30
0.0
 11
109.0
 21
545.114559
 31
0.0
  0
ARC
  5
159B2
330
157DF
100
AcDbEntity
  8
1
  6
Continuous
100
AcDbCircle
 10
117.0
 20
539.5
 30
0.0
 40
2.0
100
AcDbArc
 50
270.0
 51
73.22760699999998
  0
CIRCLE
  5
159B3
330
157DF
100
AcDbEntity
  8
1
  6
Continuous
100
AcDbCircle
 10
125.0
 20
537.5
 30
0.0
 40
2.399999999999999
  0
LINE
  5
159B4
330
157DF
100
AcDbEntity
  8
4
  6
CENTER
100
AcDbLine
 10
135.0
 20
530.75
 30
0.0
 11
135.0
 21
544.2499999999999
 31
0.0
  0
ARC
  5
159B5
330
157DF
100
AcDbEntity
  8
1
  6
Continuous
100
AcDbCircle
 10
135.0
 20
536.5
 30
0.0
 40
3.75
100
AcDbArc
 50
180.0
 51
0.0
  0
ARC
  5
159B6
330
157DF
100
AcDbEntity
  8
1
  6
Continuous
100
AcDbCircle
 10
135.0
 20
538.4999999999998
 30
0.0
 40
3.75
100
AcDbArc
 50
0.0
 51
180.0
  0
LINE
  5
159B7
330
157DF
100
AcDbEntity
  8
1
  6
Continuous
100
AcDbLine
 10
131.25
 20
536.5
 30
0.0
 11
131.25
 21
538.4999999999998
 31
0.0
  0
LINE
  5
159B8
330
157DF
100
AcDbEntity
  8
1
  6
Continuous
100
AcDbLine
 10
137.4
 20
536.5
 30
0.0
 11
137.4
 21
538.4999999999998
 31
0.0
  0
ARC
  5
159B9
330
157DF
100
AcDbEntity
  8
1
  6
Continuous
100
AcDbCircle
 10
135.0
 20
536.5
 30
0.0
 40
2.399999999999999
100
AcDbArc
 50
180.0
 51
0.0
  0
LINE
  5
159BA
330
157DF
100
AcDbEntity
  8
1
  6
Continuous
100
AcDbLine
 10
132.6
 20
536.5
 30
0.0
 11
132.6
 21
538.4999999999998
 31
0.0
  0
ARC
  5
159BB
330
157DF
100
AcDbEntity
  8
1
  6
Continuous
100
AcDbCircle
 10
135.0
 20
538.4999999999998
 30
0.0
 40
2.399999999999999
100
AcDbArc
 50
0.0
 51
180.0
  0
LINE
  5
159BC
330
157DF
100
AcDbEntity
  8
1
  6
Continuous
100
AcDbLine
 10
138.7499999999998
 20
536.5
 30
0.0
 11
138.7499999999998
 21
538.4999999999998
 31
0.0
  0
LINE
  5
159BD
330
157DF
100
AcDbEntity
  8
1
  6
Continuous
100
AcDbLine
 10
156.0
 20
707.0
 30
0.0
 11
127.0
 21
704.4999999999999
 31
0.0
  0
LINE
  5
159BE
330
157DF
100
AcDbEntity
  8
4
  6
CENTER
100
AcDbLine
 10
119.25
 20
717.0
 30
0.0
 11
140.7499999999998
 21
717.0
 31
0.0
  0
LINE
  5
159BF
330
157DF
100
AcDbEntity
  8
1
  6
Continuous
100
AcDbLine
 10
142.0
 20
708.0
 30
0.0
 11
115.5
 21
708.0
 31
0.0
  0
LINE
  5
159C0
330
157DF
100
AcDbEntity
  8
1
  6
Continuous
100
AcDbLine
 10
143.198508
 20
707.4019859999999
 30
0.0
 11
126.9354649999998
 21
706.0
 31
0.0
  0
LINE
  5
159C1
330
157DF
100
AcDbEntity
  8
1
  6
Continuous
100
AcDbLine
 10
143.5
 20
632.0
 30
0.0
 11
114.0
 21
632.0
 31
0.0
  0
LINE
  5
159C2
330
157DF
100
AcDbEntity
  8
1
  6
Continuous
100
AcDbLine
 10
142.0
 20
629.0
 30
0.0
 11
115.5
 21
629.0
 31
0.0
  0
LINE
  5
159C3
330
157DF
100
AcDbEntity
  8
1
  6
Continuous
100
AcDbLine
 10
109.0
 20
633.4999999999999
 30
0.0
 11
109.0
 21
624.0
 31
0.0
  0
LINE
  5
159C4
330
157DF
100
AcDbEntity
  8
1
  6
Continuous
100
AcDbLine
 10
127.0
 20
628.084313
 30
0.0
 11
127.0
 21
624.799484
 31
0.0
  0
LINE
  5
159C5
330
157DF
100
AcDbEntity
  8
1
  6
Continuous
100
AcDbLine
 10
114.0
 20
630.4999999999997
 30
0.0
 11
114.0
 21
633.4999999999999
 31
0.0
  0
ARC
  5
159C6
330
157DF
100
AcDbEntity
  8
1
  6
Continuous
100
AcDbCircle
 10
115.5
 20
630.4999999999997
 30
0.0
 40
1.5
100
AcDbArc
 50
180.0
 51
270.0
  0
LINE
  5
159C7
330
157DF
100
AcDbEntity
  8
4
  6
CENTER
100
AcDbLine
 10
125.0
 20
636.5
 30
0.0
 11
125.0
 21
630.0
 31
0.0
  0
ARC
  5
159C8
330
157DF
100
AcDbEntity
  8
1
  6
Continuous
100
AcDbCircle
 10
115.5
 20
706.5
 30
0.0
 40
1.5
100
AcDbArc
 50
90.0
 51
180.0
  0
LINE
  5
159C9
330
157DF
100
AcDbEntity
  8
1
  6
Continuous
100
AcDbLine
 10
109.0
 20
704.4999999999999
 30
0.0
 11
109.0
 21
709.385441
 31
0.0
  0
LINE
  5
159CA
330
157DF
100
AcDbEntity
  8
1
  6
Continuous
100
AcDbLine
 10
109.0
 20
704.4999999999999
 30
0.0
 11
127.0
 21
704.4999999999999
 31
0.0
  0
LINE
  5
159CB
330
157DF
100
AcDbEntity
  8
1
  6
Continuous
100
AcDbLine
 10
114.0
 20
706.0
 30
0.0
 11
126.9354649999998
 21
706.0
 31
0.0
  0
LINE
  5
159CC
330
157DF
100
AcDbEntity
  8
1
  6
Continuous
100
AcDbLine
 10
114.0
 20
704.4999999999999
 30
0.0
 11
114.0
 21
706.5
 31
0.0
  0
ARC
  5
159CD
330
157DF
100
AcDbEntity
  8
1
  6
Continuous
100
AcDbCircle
 10
111.0
 20
729.0
 30
0.0
 40
2.0
100
AcDbArc
 50
90.0
 51
180.0
  0
LINE
  5
159CE
330
157DF
100
AcDbEntity
  8
1
  6
Continuous
100
AcDbLine
 10
110.0671439999999
 20
710.821629
 30
0.0
 11
117.577141
 21
713.0850830000001
 31
0.0
  0
LINE
  5
159CF
330
157DF
100
AcDbEntity
  8
1
  6
Continuous
100
AcDbLine
 10
110.4999999999999
 20
717.0
 30
0.0
 11
117.0
 21
717.0
 31
0.0
  0
ARC
  5
159D0
330
157DF
100
AcDbEntity
  8
1
  6
Continuous
100
AcDbCircle
 10
110.4999999999999
 20
709.385441
 30
0.0
 40
1.5
100
AcDbArc
 50
106.7723929999998
 51
180.0
  0
ARC
  5
159D1
330
157DF
100
AcDbEntity
  8
1
  6
Continuous
100
AcDbCircle
 10
110.4999999999999
 20
718.5
 30
0.0
 40
1.5
100
AcDbArc
 50
180.0
 51
270.0
  0
LINE
  5
159D2
330
157DF
100
AcDbEntity
  8
1
  6
Continuous
100
AcDbLine
 10
109.0
 20
718.5
 30
0.0
 11
109.0
 21
729.0
 31
0.0
  0
CIRCLE
  5
159D3
330
157DF
100
AcDbEntity
  8
1
  6
Continuous
100
AcDbCircle
 10
125.0
 20
717.0
 30
0.0
 40
2.399999999999999
  0
LINE
  5
159D4
330
157DF
100
AcDbEntity
  8
4
  6
CENTER
100
AcDbLine
 10
125.0
 20
722.75
 30
0.0
 11
125.0
 21
711.2499999999997
 31
0.0
  0
ARC
  5
159D5
330
157DF
100
AcDbEntity
  8
1
  6
Continuous
100
AcDbCircle
 10
117.0
 20
715.0
 30
0.0
 40
2.0
100
AcDbArc
 50
286.772393
 51
90.0
  0
ARC
  5
159D6
330
157DF
100
AcDbEntity
  8
1
  6
Continuous
100
AcDbCircle
 10
142.0
 20
630.4999999999997
 30
0.0
 40
1.5
100
AcDbArc
 50
270.0
 51
0.0
  0
LINE
  5
159D7
330
157DF
100
AcDbEntity
  8
1
  6
Continuous
100
AcDbLine
 10
143.5
 20
633.4999999999999
 30
0.0
 11
143.5
 21
630.4999999999997
 31
0.0
  0
LINE
  5
159D8
330
157DF
100
AcDbEntity
  8
4
  6
CENTER
100
AcDbLine
 10
135.0
 20
636.5
 30
0.0
 11
135.0
 21
630.0
 31
0.0
  0
LINE
  5
159D9
330
157DF
100
AcDbEntity
  8
1
  6
Continuous
100
AcDbLine
 10
156.0
 20
632.5
 30
0.0
 11
156.0
 21
625.0
 31
0.0
  0
ARC
  5
159DA
330
157DF
100
AcDbEntity
  8
1
  6
Continuous
100
AcDbCircle
 10
142.0
 20
706.5
 30
0.0
 40
1.5
100
AcDbArc
 50
0.0
 51
90.0
  0
LINE
  5
159DB
330
157DF
100
AcDbEntity
  8
1
  6
Continuous
100
AcDbLine
 10
143.5
 20
705.922414
 30
0.0
 11
143.5
 21
706.5
 31
0.0
  0
ARC
  5
159DC
330
157DF
100
AcDbEntity
  8
1
  6
Continuous
100
AcDbCircle
 10
135.0
 20
716.0
 30
0.0
 40
2.399999999999999
100
AcDbArc
 50
180.0
 51
0.0
  0
LINE
  5
159DD
330
157DF
100
AcDbEntity
  8
1
  6
Continuous
100
AcDbLine
 10
132.6
 20
718.0
 30
0.0
 11
132.6
 21
716.0
 31
0.0
  0
ARC
  5
159DE
330
157DF
100
AcDbEntity
  8
1
  6
Continuous
100
AcDbCircle
 10
135.0
 20
718.0
 30
0.0
 40
2.399999999999999
100
AcDbArc
 50
0.0
 51
180.0
  0
LINE
  5
159DF
330
157DF
100
AcDbEntity
  8
1
  6
Continuous
100
AcDbLine
 10
137.4
 20
718.0
 30
0.0
 11
137.4
 21
716.0
 31
0.0
  0
LINE
  5
159E0
330
157DF
100
AcDbEntity
  8
4
  6
CENTER
100
AcDbLine
 10
135.0
 20
723.7499999999998
 30
0.0
 11
135.0
 21
710.25
 31
0.0
  0
LINE
  5
159E1
330
157DF
100
AcDbEntity
  8
4
  6
CENTER
100
AcDbLine
 10
656.0
 20
537.5
 30
0.0
 11
609.25
 21
537.5
 31
0.0
  0
LINE
  5
159E2
330
157DF
100
AcDbEntity
  8
1
  6
Continuous
100
AcDbLine
 10
614.5781950000001
 20
525.0
 30
0.0
 11
579.4999999999999
 21
525.0
 31
0.0
  0
LINE
  5
159E3
330
157DF
100
AcDbEntity
  8
4
  6
CENTER
100
AcDbLine
 10
579.25
 20
535.0
 30
0.0
 11
600.75
 21
535.0
 31
0.0
  0
LINE
  5
159E4
330
157DF
100
AcDbEntity
  8
3
  6
DASHED
100
AcDbLine
 10
631.5
 20
546.0
 30
0.0
 11
635.5
 21
547.5
 31
0.0
  0
LINE
  5
159E5
330
157DF
100
AcDbEntity
  8
1
  6
Continuous
100
AcDbLine
 10
598.0
 20
549.5
 30
0.0
 11
594.0
 21
551.0
 31
0.0
  0
LINE
  5
159E6
330
157DF
100
AcDbEntity
  8
1
  6
Continuous
100
AcDbLine
 10
594.0
 20
551.0
 30
0.0
 11
532.5
 21
551.0
 31
0.0
  0
LINE
  5
159E7
330
157DF
100
AcDbEntity
  8
4
  6
CENTER
100
AcDbLine
 10
561.0
 20
535.0
 30
0.0
 11
531.0
 21
535.0
 31
0.0
  0
LINE
  5
159E8
330
157DF
100
AcDbEntity
  8
3
  6
DASHED
100
AcDbLine
 10
630.0
 20
547.5
 30
0.0
 11
530.4999999999998
 21
547.5
 31
0.0
  0
LINE
  5
159E9
330
157DF
100
AcDbEntity
  8
1
  6
Continuous
100
AcDbLine
 10
574.5
 20
525.0
 30
0.0
 11
529.0
 21
525.0
 31
0.0
  0
LINE
  5
159EA
330
157DF
100
AcDbEntity
  8
3
  6
DASHED
100
AcDbLine
 10
628.5
 20
542.4999999999998
 30
0.0
 11
528.0
 21
542.4999999999998
 31
0.0
  0
LINE
  5
159EB
330
157DF
100
AcDbEntity
  8
4
  6
CENTER
100
AcDbLine
 10
530.7999999999998
 20
546.95
 30
0.0
 11
538.3
 21
546.95
 31
0.0
  0
CIRCLE
  5
159EC
330
157DF
100
AcDbEntity
  8
1
  6
Continuous
100
AcDbCircle
 10
534.5499999999998
 20
546.95
 30
0.0
 40
1.75
  0
LINE
  5
159ED
330
157DF
100
AcDbEntity
  8
4
  6
CENTER
100
AcDbLine
 10
505.0
 20
531.7499999999999
 30
0.0
 11
505.0
 21
543.25
 31
0.0
  0
LINE
  5
159EE
330
157DF
100
AcDbEntity
  8
1
  6
Continuous
100
AcDbLine
 10
529.0
 20
525.0
 30
0.0
 11
529.0
 21
541.0
 31
0.0
  0
LINE
  5
159EF
330
157DF
100
AcDbEntity
  8
4
  6
CENTER
100
AcDbLine
 10
495.0
 20
530.75
 30
0.0
 11
495.0
 21
544.2499999999999
 31
0.0
  0
LINE
  5
159F0
330
157DF
100
AcDbEntity
  8
4
  6
CENTER
100
AcDbLine
 10
510.7499999999998
 20
537.5
 30
0.0
 11
489.25
 21
537.5
 31
0.0
  0
CIRCLE
  5
159F1
330
157DF
100
AcDbEntity
  8
1
  6
Continuous
100
AcDbCircle
 10
505.0
 20
537.5
 30
0.0
 40
3.75
  0
ARC
  5
159F2
330
157DF
100
AcDbEntity
  8
1
  6
Continuous
100
AcDbCircle
 10
495.0
 20
538.4999999999998
 30
0.0
 40
3.75
100
AcDbArc
 50
0.0
 51
180.0
  0
ARC
  5
159F3
330
157DF
100
AcDbEntity
  8
1
  6
Continuous
100
AcDbCircle
 10
495.0
 20
536.5
 30
0.0
 40
3.75
100
AcDbArc
 50
180.0
 51
0.0
  0
LINE
  5
159F4
330
157DF
100
AcDbEntity
  8
1
  6
Continuous
100
AcDbLine
 10
491.25
 20
536.5
 30
0.0
 11
491.25
 21
538.4999999999998
 31
0.0
  0
ARC
  5
159F5
330
157DF
100
AcDbEntity
  8
1
  6
Continuous
100
AcDbCircle
 10
495.0
 20
538.4999999999998
 30
0.0
 40
2.399999999999999
100
AcDbArc
 50
0.0
 51
180.0
  0
ARC
  5
159F6
330
157DF
100
AcDbEntity
  8
1
  6
Continuous
100
AcDbCircle
 10
495.0
 20
536.5
 30
0.0
 40
2.399999999999999
100
AcDbArc
 50
180.0
 51
0.0
  0
LINE
  5
159F7
330
157DF
100
AcDbEntity
  8
1
  6
Continuous
100
AcDbLine
 10
497.4
 20
536.5
 30
0.0
 11
497.4
 21
538.4999999999998
 31
0.0
  0
LINE
  5
159F8
330
157DF
100
AcDbEntity
  8
1
  6
Continuous
100
AcDbLine
 10
492.6
 20
536.5
 30
0.0
 11
492.6
 21
538.4999999999998
 31
0.0
  0
LINE
  5
159F9
330
157DF
100
AcDbEntity
  8
1
  6
Continuous
100
AcDbLine
 10
498.7499999999998
 20
536.5
 30
0.0
 11
498.7499999999998
 21
538.4999999999998
 31
0.0
  0
CIRCLE
  5
159FA
330
157DF
100
AcDbEntity
  8
1
  6
Continuous
100
AcDbCircle
 10
505.0
 20
537.5
 30
0.0
 40
2.399999999999999
  0
LINE
  5
159FB
330
157DF
100
AcDbEntity
  8
1
  6
Continuous
100
AcDbLine
 10
528.0
 20
544.5
 30
0.0
 11
528.0
 21
541.0
 31
0.0
  0
LINE
  5
159FC
330
157DF
100
AcDbEntity
  8
1
  6
Continuous
100
AcDbLine
 10
530.4999999999998
 20
544.5
 30
0.0
 11
528.0
 21
544.5
 31
0.0
  0
LINE
  5
159FD
330
157DF
100
AcDbEntity
  8
1
  6
Continuous
100
AcDbLine
 10
530.4999999999998
 20
541.0
 30
0.0
 11
528.0
 21
541.0
 31
0.0
  0
LINE
  5
159FE
330
157DF
100
AcDbEntity
  8
1
  6
Continuous
100
AcDbLine
 10
530.4999999999998
 20
549.0
 30
0.0
 11
530.4999999999998
 21
541.0
 31
0.0
  0
LINE
  5
159FF
330
157DF
100
AcDbEntity
  8
4
  6
CENTER
100
AcDbLine
 10
585.0
 20
529.6
 30
0.0
 11
585.0
 21
540.3999999999999
 31
0.0
  0
LINE
  5
15A00
330
157DF
100
AcDbEntity
  8
4
  6
CENTER
100
AcDbLine
 10
595.0
 20
528.6
 30
0.0
 11
595.0
 21
541.3999999999998
 31
0.0
  0
ARC
  5
15A01
330
157DF
100
AcDbEntity
  8
1
  6
Continuous
100
AcDbCircle
 10
595.0
 20
534.0
 30
0.0
 40
2.399999999999999
100
AcDbArc
 50
180.0
 51
0.0
  0
CIRCLE
  5
15A02
330
157DF
100
AcDbEntity
  8
1
  6
Continuous
100
AcDbCircle
 10
546.0
 20
535.0
 30
0.0
 40
3.0
  0
CIRCLE
  5
15A03
330
157DF
100
AcDbEntity
  8
1
  6
Continuous
100
AcDbCircle
 10
546.0
 20
535.0
 30
0.0
 40
5.0
  0
ARC
  5
15A04
330
157DF
100
AcDbEntity
  8
3
  6
DASHED
100
AcDbCircle
 10
546.0
 20
535.0
 30
0.0
 40
11.0
100
AcDbArc
 50
294.619977
 51
245.380023
  0
LINE
  5
15A05
330
157DF
100
AcDbEntity
  8
4
  6
CENTER
100
AcDbLine
 10
546.0
 20
520.0
 30
0.0
 11
546.0
 21
550.0
 31
0.0
  0
ARC
  5
15A06
330
157DF
100
AcDbEntity
  8
1
  6
Continuous
100
AcDbCircle
 10
546.0
 20
535.0
 30
0.0
 40
11.0
100
AcDbArc
 50
245.380023
 51
294.619977
  0
LINE
  5
15A07
330
157DF
100
AcDbEntity
  8
1
  6
Continuous
100
AcDbLine
 10
578.5
 20
526.4999999999998
 30
0.0
 11
574.5
 21
525.0
 31
0.0
  0
LINE
  5
15A08
330
157DF
100
AcDbEntity
  8
1
  6
Continuous
100
AcDbLine
 10
579.4999999999999
 20
525.0
 30
0.0
 11
579.4999999999999
 21
526.4999999999998
 31
0.0
  0
LINE
  5
15A09
330
157DF
100
AcDbEntity
  8
1
  6
Continuous
100
AcDbLine
 10
579.4999999999999
 20
526.4999999999998
 30
0.0
 11
578.5
 21
526.4999999999998
 31
0.0
  0
LINE
  5
15A0A
330
157DF
100
AcDbEntity
  8
3
  6
DASHED
100
AcDbLine
 10
551.900072
 20
544.2868959999998
 30
0.0
 11
549.5445539999998
 21
546.0
 31
0.0
  0
LINE
  5
15A0B
330
157DF
100
AcDbEntity
  8
4
  6
CENTER
100
AcDbLine
 10
534.5499999999998
 20
543.2
 30
0.0
 11
534.5499999999998
 21
550.7
 31
0.0
  0
LINE
  5
15A0C
330
157DF
100
AcDbEntity
  8
4
  6
CENTER
100
AcDbLine
 10
554.25
 20
543.0
 30
0.0
 11
565.7499999999997
 21
543.0
 31
0.0
  0
LINE
  5
15A0D
330
157DF
100
AcDbEntity
  8
3
  6
DASHED
100
AcDbLine
 10
553.664588
 20
544.2868959999998
 30
0.0
 11
556.0201059999999
 21
546.0
 31
0.0
  0
ARC
  5
15A0E
330
157DF
100
AcDbEntity
  8
3
  6
DASHED
100
AcDbCircle
 10
552.78233
 20
545.5
 30
0.0
 40
1.5
100
AcDbArc
 50
233.9726269999999
 51
306.027373
  0
LINE
  5
15A0F
330
157DF
100
AcDbEntity
  8
4
  6
CENTER
100
AcDbLine
 10
560.0
 20
537.25
 30
0.0
 11
560.0
 21
548.7499999999998
 31
0.0
  0
CIRCLE
  5
15A10
330
157DF
100
AcDbEntity
  8
1
  6
Continuous
100
AcDbCircle
 10
560.0
 20
543.0
 30
0.0
 40
2.399999999999999
  0
CIRCLE
  5
15A11
330
157DF
100
AcDbEntity
  8
1
  6
Continuous
100
AcDbCircle
 10
585.0
 20
535.0
 30
0.0
 40
2.399999999999999
  0
LINE
  5
15A12
330
157DF
100
AcDbEntity
  8
3
  6
DASHED
100
AcDbLine
 10
631.5
 20
546.0
 30
0.0
 11
630.0
 21
546.0
 31
0.0
  0
LINE
  5
15A13
330
157DF
100
AcDbEntity
  8
3
  6
DASHED
100
AcDbLine
 10
630.0
 20
544.0
 30
0.0
 11
630.0
 21
547.5
 31
0.0
  0
LINE
  5
15A14
330
157DF
100
AcDbEntity
  8
1
  6
Continuous
100
AcDbLine
 10
592.6
 20
534.0
 30
0.0
 11
592.6
 21
536.0
 31
0.0
  0
LINE
  5
15A15
330
157DF
100
AcDbEntity
  8
1
  6
Continuous
100
AcDbLine
 10
597.4
 20
534.0
 30
0.0
 11
597.4
 21
536.0
 31
0.0
  0
ARC
  5
15A16
330
157DF
100
AcDbEntity
  8
1
  6
Continuous
100
AcDbCircle
 10
595.0
 20
536.0
 30
0.0
 40
2.399999999999999
100
AcDbArc
 50
0.0
 51
180.0
  0
ARC
  5
15A17
330
157DF
100
AcDbEntity
  8
3
  6
DASHED
100
AcDbCircle
 10
628.5
 20
544.0
 30
0.0
 40
1.5
100
AcDbArc
 50
270.0
 51
0.0
  0
LINE
  5
15A18
330
157DF
100
AcDbEntity
  8
3
  6
DASHED
100
AcDbLine
 10
653.691288
 20
531.5
 30
0.0
 11
654.063122
 21
532.464641
 31
0.0
  0
LINE
  5
15A19
330
157DF
100
AcDbEntity
  8
3
  6
DASHED
100
AcDbLine
 10
652.083709
 20
531.5
 30
0.0
 11
652.663502
 21
533.004144
 31
0.0
  0
LINE
  5
15A1A
330
157DF
100
AcDbEntity
  8
4
  6
CENTER
100
AcDbLine
 10
641.0
 20
522.5
 30
0.0
 11
641.0
 21
552.5
 31
0.0
  0
ARC
  5
15A1B
330
157DF
100
AcDbEntity
  8
1
  6
Continuous
100
AcDbCircle
 10
647.627489
 20
525.4999999999999
 30
0.0
 40
2.0
100
AcDbArc
 50
270.0
 51
338.920162
  0
LINE
  5
15A1C
330
157DF
100
AcDbEntity
  8
3
  6
DASHED
100
AcDbLine
 10
653.335541
 20
527.7967559999998
 30
0.0
 11
651.06924
 21
528.8681839999997
 31
0.0
  0
LINE
  5
15A1D
330
157DF
100
AcDbEntity
  8
3
  6
DASHED
100
AcDbLine
 10
654.597809
 20
531.0714289999999
 30
0.0
 11
653.691288
 21
531.5
 31
0.0
  0
LINE
  5
15A1E
330
157DF
100
AcDbEntity
  8
3
  6
DASHED
100
AcDbLine
 10
653.335541
 20
527.7967559999998
 30
0.0
 11
654.597809
 21
531.0714289999999
 31
0.0
  0
LINE
  5
15A1F
330
157DF
100
AcDbEntity
  8
3
  6
DASHED
100
AcDbLine
 10
653.691288
 20
531.5
 30
0.0
 11
652.083709
 21
531.5
 31
0.0
  0
LINE
  5
15A20
330
157DF
100
AcDbEntity
  8
1
  6
Continuous
100
AcDbLine
 10
649.493649
 20
524.780663
 30
0.0
 11
649.5781950000001
 21
525.0
 31
0.0
  0
LINE
  5
15A21
330
157DF
100
AcDbEntity
  8
3
  6
DASHED
100
AcDbLine
 10
649.5781950000001
 20
525.0
 30
0.0
 11
652.083709
 21
531.5
 31
0.0
  0
LINE
  5
15A22
330
157DF
100
AcDbEntity
  8
3
  6
DASHED
100
AcDbLine
 10
651.5
 20
547.5
 30
0.0
 11
635.5
 21
547.5
 31
0.0
  0
LINE
  5
15A23
330
157DF
100
AcDbEntity
  8
1
  6
Continuous
100
AcDbLine
 10
599.0
 20
549.5
 30
0.0
 11
599.0
 21
551.0
 31
0.0
  0
LINE
  5
15A24
330
157DF
100
AcDbEntity
  8
1
  6
Continuous
100
AcDbLine
 10
598.0
 20
549.5
 30
0.0
 11
599.0
 21
549.5
 31
0.0
  0
LINE
  5
15A25
330
157DF
100
AcDbEntity
  8
3
  6
DASHED
100
AcDbLine
 10
655.0
 20
541.5
 30
0.0
 11
653.5
 21
541.5
 31
0.0
  0
ARC
  5
15A26
330
157DF
100
AcDbEntity
  8
3
  6
DASHED
100
AcDbCircle
 10
641.0
 20
537.5
 30
0.0
 40
14.0
100
AcDbArc
 50
338.920162
 51
0.0
  0
ARC
  5
15A27
330
157DF
100
AcDbEntity
  8
3
  6
DASHED
100
AcDbCircle
 10
651.5
 20
545.5
 30
0.0
 40
2.0
100
AcDbArc
 50
0.0
 51
90.0
  0
LINE
  5
15A28
330
157DF
100
AcDbEntity
  8
3
  6
DASHED
100
AcDbLine
 10
653.5
 20
537.5
 30
0.0
 11
653.5
 21
545.5
 31
0.0
  0
ARC
  5
15A29
330
157DF
100
AcDbEntity
  8
3
  6
DASHED
100
AcDbCircle
 10
641.0
 20
537.5
 30
0.0
 40
12.5
100
AcDbArc
 50
338.920162
 51
0.0
  0
LINE
  5
15A2A
330
157DF
100
AcDbEntity
  8
3
  6
DASHED
100
AcDbLine
 10
655.0
 20
537.5
 30
0.0
 11
655.0
 21
541.5
 31
0.0
  0
LINE
  5
15A2B
330
157DF
100
AcDbEntity
  8
4
  6
CENTER
100
AcDbLine
 10
704.0
 20
529.25
 30
0.0
 11
704.0
 21
540.7499999999998
 31
0.0
  0
CIRCLE
  5
15A2C
330
157DF
100
AcDbEntity
  8
1
  6
Continuous
100
AcDbCircle
 10
704.0
 20
535.0
 30
0.0
 40
2.399999999999999
  0
LINE
  5
15A2D
330
157DF
100
AcDbEntity
  8
3
  6
DASHED
100
AcDbLine
 10
649.5781950000001
 20
729.4999999999999
 30
0.0
 11
579.4999999999999
 21
729.4999999999999
 31
0.0
  0
LINE
  5
15A2E
330
157DF
100
AcDbEntity
  8
4
  6
CENTER
100
AcDbLine
 10
656.0
 20
717.0
 30
0.0
 11
609.25
 21
717.0
 31
0.0
  0
ARC
  5
15A2F
330
157DF
100
AcDbEntity
  8
3
  6
DASHED
100
AcDbCircle
 10
641.0
 20
717.0
 30
0.0
 40
11.0
100
AcDbArc
 50
294.619977
 51
245.380023
  0
LINE
  5
15A30
330
157DF
100
AcDbEntity
  8
3
  6
DASHED
100
AcDbLine
 10
651.698246
 20
724.0
 30
0.0
 11
580.4999999999997
 21
724.0
 31
0.0
  0
LINE
  5
15A31
330
157DF
100
AcDbEntity
  8
4
  6
CENTER
100
AcDbLine
 10
579.25
 20
719.5
 30
0.0
 11
600.75
 21
719.5
 31
0.0
  0
LINE
  5
15A32
330
157DF
100
AcDbEntity
  8
1
  6
Continuous
100
AcDbLine
 10
631.0
 20
708.4999999999999
 30
0.0
 11
635.0
 21
707.0
 31
0.0
  0
LINE
  5
15A33
330
157DF
100
AcDbEntity
  8
1
  6
Continuous
100
AcDbLine
 10
598.0
 20
705.0
 30
0.0
 11
594.0
 21
703.5
 31
0.0
  0
LINE
  5
15A34
330
157DF
100
AcDbEntity
  8
1
  6
Continuous
100
AcDbLine
 10
653.5
 20
632.0
 30
0.0
 11
630.0
 21
632.0
 31
0.0
  0
LINE
  5
15A35
330
157DF
100
AcDbEntity
  8
1
  6
Continuous
100
AcDbLine
 10
599.0
 20
622.5
 30
0.0
 11
530.4999999999998
 21
622.5
 31
0.0
  0
LINE
  5
15A36
330
157DF
100
AcDbEntity
  8
4
  6
CENTER
100
AcDbLine
 10
495.0
 20
636.5
 30
0.0
 11
495.0
 21
630.0
 31
0.0
  0
LINE
  5
15A37
330
157DF
100
AcDbEntity
  8
4
  6
CENTER
100
AcDbLine
 10
505.0
 20
636.5
 30
0.0
 11
505.0
 21
630.0
 31
0.0
  0
LINE
  5
15A38
330
157DF
100
AcDbEntity
  8
1
  6
Continuous
100
AcDbLine
 10
529.0
 20
622.5
 30
0.0
 11
529.0
 21
624.0
 31
0.0
  0
LINE
  5
15A39
330
157DF
100
AcDbEntity
  8
1
  6
Continuous
100
AcDbLine
 10
530.4999999999998
 20
624.0
 30
0.0
 11
530.4999999999998
 21
621.0
 31
0.0
  0
ARC
  5
15A3A
330
157DF
100
AcDbEntity
  8
1
  6
Continuous
100
AcDbCircle
 10
530.4999999999998
 20
622.5
 30
0.0
 40
1.5
100
AcDbArc
 50
180.0
 51
270.0
  0
LINE
  5
15A3B
330
157DF
100
AcDbEntity
  8
3
  6
DASHED
100
AcDbLine
 10
530.4999999999998
 20
630.4999999999997
 30
0.0
 11
529.0
 21
630.4999999999997
 31
0.0
  0
LINE
  5
15A3C
330
157DF
100
AcDbEntity
  8
3
  6
DASHED
100
AcDbLine
 10
530.4999999999998
 20
630.4999999999997
 30
0.0
 11
530.4999999999998
 21
624.0
 31
0.0
  0
LINE
  5
15A3D
330
157DF
100
AcDbEntity
  8
3
  6
DASHED
100
AcDbLine
 10
529.0
 20
624.0
 30
0.0
 11
529.0
 21
630.4999999999997
 31
0.0
  0
LINE
  5
15A3E
330
157DF
100
AcDbEntity
  8
4
  6
CENTER
100
AcDbLine
 10
585.0
 20
618.0
 30
0.0
 11
585.0
 21
624.5
 31
0.0
  0
LINE
  5
15A3F
330
157DF
100
AcDbEntity
  8
4
  6
CENTER
100
AcDbLine
 10
595.0
 20
618.0
 30
0.0
 11
595.0
 21
624.5
 31
0.0
  0
LINE
  5
15A40
330
157DF
100
AcDbEntity
  8
4
  6
CENTER
100
AcDbLine
 10
560.0
 20
618.0
 30
0.0
 11
560.0
 21
624.5
 31
0.0
  0
LINE
  5
15A41
330
157DF
100
AcDbEntity
  8
4
  6
CENTER
100
AcDbLine
 10
534.5499999999998
 20
618.0
 30
0.0
 11
534.5499999999998
 21
624.5
 31
0.0
  0
LINE
  5
15A42
330
157DF
100
AcDbEntity
  8
4
  6
CENTER
100
AcDbLine
 10
546.0
 20
616.7314709999999
 30
0.0
 11
546.0
 21
637.1142519999997
 31
0.0
  0
LINE
  5
15A43
330
157DF
100
AcDbEntity
  8
1
  6
Continuous
100
AcDbLine
 10
555.53233
 20
631.5
 30
0.0
 11
550.0323299999998
 21
631.5
 31
0.0
  0
LINE
  5
15A44
330
157DF
100
AcDbEntity
  8
1
  6
Continuous
100
AcDbLine
 10
555.53233
 20
626.0
 30
0.0
 11
550.0323299999998
 21
626.0
 31
0.0
  0
LINE
  5
15A45
330
157DF
100
AcDbEntity
  8
3
  6
DASHED
100
AcDbLine
 10
557.0
 20
626.5
 30
0.0
 11
535.0
 21
626.5
 31
0.0
  0
LINE
  5
15A46
330
157DF
100
AcDbEntity
  8
1
  6
Continuous
100
AcDbLine
 10
552.0
 20
623.5
 30
0.0
 11
540.0
 21
623.5
 31
0.0
  0
LINE
  5
15A47
330
157DF
100
AcDbEntity
  8
3
  6
DASHED
100
AcDbLine
 10
552.0
 20
625.0
 30
0.0
 11
540.0
 21
625.0
 31
0.0
  0
LINE
  5
15A48
330
157DF
100
AcDbEntity
  8
1
  6
Continuous
100
AcDbLine
 10
550.0323299999998
 20
626.0
 30
0.0
 11
550.0323299999998
 21
631.5
 31
0.0
  0
LINE
  5
15A49
330
157DF
100
AcDbEntity
  8
1
  6
Continuous
100
AcDbLine
 10
540.2071069999998
 20
623.2071069999998
 30
0.0
 11
539.5
 21
622.5
 31
0.0
  0
LINE
  5
15A4A
330
157DF
100
AcDbEntity
  8
3
  6
DASHED
100
AcDbLine
 10
535.0
 20
626.5
 30
0.0
 11
535.0
 21
631.5
 31
0.0
  0
LINE
  5
15A4B
330
157DF
100
AcDbEntity
  8
1
  6
Continuous
100
AcDbLine
 10
540.0
 20
624.0
 30
0.0
 11
540.0
 21
623.5
 31
0.0
  0
ARC
  5
15A4C
330
157DF
100
AcDbEntity
  8
1
  6
Continuous
100
AcDbCircle
 10
540.914214
 20
622.5
 30
0.0
 40
1.0
100
AcDbArc
 50
90.0
 51
135.0
  0
LINE
  5
15A4D
330
157DF
100
AcDbEntity
  8
3
  6
DASHED
100
AcDbLine
 10
540.0
 20
626.5
 30
0.0
 11
540.0
 21
624.0
 31
0.0
  0
LINE
  5
15A4E
330
157DF
100
AcDbEntity
  8
3
  6
DASHED
100
AcDbLine
 10
550.0323299999998
 20
631.5
 30
0.0
 11
535.0
 21
631.5
 31
0.0
  0
LINE
  5
15A4F
330
157DF
100
AcDbEntity
  8
3
  6
DASHED
100
AcDbLine
 10
557.0
 20
631.5
 30
0.0
 11
555.53233
 21
631.5
 31
0.0
  0
LINE
  5
15A50
330
157DF
100
AcDbEntity
  8
1
  6
Continuous
100
AcDbLine
 10
552.0
 20
624.0
 30
0.0
 11
552.0
 21
623.5
 31
0.0
  0
ARC
  5
15A51
330
157DF
100
AcDbEntity
  8
1
  6
Continuous
100
AcDbCircle
 10
551.0857859999998
 20
622.5
 30
0.0
 40
1.0
100
AcDbArc
 50
45.0
 51
90.0
  0
LINE
  5
15A52
330
157DF
100
AcDbEntity
  8
1
  6
Continuous
100
AcDbLine
 10
551.7928929999999
 20
623.2071069999998
 30
0.0
 11
552.5
 21
622.5
 31
0.0
  0
LINE
  5
15A53
330
157DF
100
AcDbEntity
  8
3
  6
DASHED
100
AcDbLine
 10
552.0
 20
626.5
 30
0.0
 11
552.0
 21
624.0
 31
0.0
  0
LINE
  5
15A54
330
157DF
100
AcDbEntity
  8
1
  6
Continuous
100
AcDbLine
 10
555.53233
 20
626.0
 30
0.0
 11
555.53233
 21
631.5
 31
0.0
  0
LINE
  5
15A55
330
157DF
100
AcDbEntity
  8
1
  6
Continuous
100
AcDbLine
 10
552.78233
 20
626.0
 30
0.0
 11
552.78233
 21
631.5
 31
0.0
  0
LINE
  5
15A56
330
157DF
100
AcDbEntity
  8
3
  6
DASHED
100
AcDbLine
 10
557.0
 20
626.5
 30
0.0
 11
557.0
 21
631.5
 31
0.0
  0
LINE
  5
15A57
330
157DF
100
AcDbEntity
  8
4
  6
CENTER
100
AcDbLine
 10
615.0
 20
636.5
 30
0.0
 11
615.0
 21
630.0
 31
0.0
  0
LINE
  5
15A58
330
157DF
100
AcDbEntity
  8
1
  6
Continuous
100
AcDbLine
 10
579.4999999999999
 20
624.0
 30
0.0
 11
579.4999999999999
 21
622.5
 31
0.0
  0
LINE
  5
15A59
330
157DF
100
AcDbEntity
  8
1
  6
Continuous
100
AcDbLine
 10
630.0
 20
633.4999999999999
 30
0.0
 11
630.0
 21
629.0
 31
0.0
  0
LINE
  5
15A5A
330
157DF
100
AcDbEntity
  8
4
  6
CENTER
100
AcDbLine
 10
625.0
 20
636.5
 30
0.0
 11
625.0
 21
630.0
 31
0.0
  0
LINE
  5
15A5B
330
157DF
100
AcDbEntity
  8
1
  6
Continuous
100
AcDbLine
 10
594.0
 20
622.5
 30
0.0
 11
594.0
 21
621.0
 31
0.0
  0
LINE
  5
15A5C
330
157DF
100
AcDbEntity
  8
4
  6
CENTER
100
AcDbLine
 10
561.0
 20
719.5
 30
0.0
 11
531.0
 21
719.5
 31
0.0
  0
LINE
  5
15A5D
330
157DF
100
AcDbEntity
  8
1
  6
Continuous
100
AcDbLine
 10
594.0
 20
703.5
 30
0.0
 11
532.5
 21
703.5
 31
0.0
  0
LINE
  5
15A5E
330
157DF
100
AcDbEntity
  8
3
  6
DASHED
100
AcDbLine
 10
574.5
 20
729.4999999999999
 30
0.0
 11
529.0
 21
729.4999999999999
 31
0.0
  0
ARC
  5
15A5F
330
157DF
100
AcDbEntity
  8
1
  6
Continuous
100
AcDbCircle
 10
534.5499999999998
 20
707.5499999999998
 30
0.0
 40
1.75
100
AcDbArc
 50
198.317698
 51
341.6823019999999
  0
LINE
  5
15A60
330
157DF
100
AcDbEntity
  8
4
  6
CENTER
100
AcDbLine
 10
530.7999999999998
 20
707.5499999999998
 30
0.0
 11
538.3
 21
707.5499999999998
 31
0.0
  0
LINE
  5
15A61
330
157DF
100
AcDbEntity
  8
3
  6
DASHED
100
AcDbLine
 10
530.4999999999998
 20
710.0
 30
0.0
 11
530.4999999999998
 21
707.0
 31
0.0
  0
LINE
  5
15A62
330
157DF
100
AcDbEntity
  8
1
  6
Continuous
100
AcDbLine
 10
530.4999999999998
 20
705.4999999999997
 30
0.0
 11
530.4999999999998
 21
707.0
 31
0.0
  0
LINE
  5
15A63
330
157DF
100
AcDbEntity
  8
4
  6
CENTER
100
AcDbLine
 10
510.7499999999998
 20
717.0
 30
0.0
 11
489.25
 21
717.0
 31
0.0
  0
ARC
  5
15A64
330
157DF
100
AcDbEntity
  8
1
  6
Continuous
100
AcDbCircle
 10
495.0
 20
718.0
 30
0.0
 40
2.399999999999999
100
AcDbArc
 50
0.0
 51
180.0
  0
ARC
  5
15A65
330
157DF
100
AcDbEntity
  8
1
  6
Continuous
100
AcDbCircle
 10
495.0
 20
716.0
 30
0.0
 40
2.399999999999999
100
AcDbArc
 50
180.0
 51
0.0
  0
LINE
  5
15A66
330
157DF
100
AcDbEntity
  8
1
  6
Continuous
100
AcDbLine
 10
492.6
 20
718.0
 30
0.0
 11
492.6
 21
716.0
 31
0.0
  0
LINE
  5
15A67
330
157DF
100
AcDbEntity
  8
4
  6
CENTER
100
AcDbLine
 10
495.0
 20
723.7499999999998
 30
0.0
 11
495.0
 21
710.25
 31
0.0
  0
LINE
  5
15A68
330
157DF
100
AcDbEntity
  8
1
  6
Continuous
100
AcDbLine
 10
497.4
 20
718.0
 30
0.0
 11
497.4
 21
716.0
 31
0.0
  0
LINE
  5
15A69
330
157DF
100
AcDbEntity
  8
4
  6
CENTER
100
AcDbLine
 10
505.0
 20
722.75
 30
0.0
 11
505.0
 21
711.2499999999997
 31
0.0
  0
CIRCLE
  5
15A6A
330
157DF
100
AcDbEntity
  8
1
  6
Continuous
100
AcDbCircle
 10
505.0
 20
717.0
 30
0.0
 40
2.399999999999999
  0
LINE
  5
15A6B
330
157DF
100
AcDbEntity
  8
3
  6
DASHED
100
AcDbLine
 10
531.5
 20
713.4999999999997
 30
0.0
 11
528.0
 21
713.4999999999997
 31
0.0
  0
LINE
  5
15A6C
330
157DF
100
AcDbEntity
  8
3
  6
DASHED
100
AcDbLine
 10
531.5
 20
710.0
 30
0.0
 11
528.0
 21
710.0
 31
0.0
  0
LINE
  5
15A6D
330
157DF
100
AcDbEntity
  8
3
  6
DASHED
100
AcDbLine
 10
528.0
 20
710.0
 30
0.0
 11
528.0
 21
713.4999999999997
 31
0.0
  0
LINE
  5
15A6E
330
157DF
100
AcDbEntity
  8
3
  6
DASHED
100
AcDbLine
 10
531.5
 20
710.0
 30
0.0
 11
531.5
 21
713.4999999999997
 31
0.0
  0
LINE
  5
15A6F
330
157DF
100
AcDbEntity
  8
3
  6
DASHED
100
AcDbLine
 10
529.0
 20
729.4999999999999
 30
0.0
 11
529.0
 21
713.4999999999997
 31
0.0
  0
LINE
  5
15A70
330
157DF
100
AcDbEntity
  8
3
  6
DASHED
100
AcDbLine
 10
530.4999999999998
 20
729.4999999999999
 30
0.0
 11
530.4999999999998
 21
713.4999999999997
 31
0.0
  0
LINE
  5
15A71
330
157DF
100
AcDbEntity
  8
1
  6
Continuous
100
AcDbLine
 10
630.0
 20
708.4999999999999
 30
0.0
 11
630.0
 21
707.0
 31
0.0
  0
LINE
  5
15A72
330
157DF
100
AcDbEntity
  8
4
  6
CENTER
100
AcDbLine
 10
560.0
 20
717.25
 30
0.0
 11
560.0
 21
705.75
 31
0.0
  0
LINE
  5
15A73
330
157DF
100
AcDbEntity
  8
4
  6
CENTER
100
AcDbLine
 10
534.5499999999998
 20
711.2999999999998
 30
0.0
 11
534.5499999999998
 21
703.7999999999998
 31
0.0
  0
LINE
  5
15A74
330
157DF
100
AcDbEntity
  8
4
  6
CENTER
100
AcDbLine
 10
546.0
 20
734.4999999999998
 30
0.0
 11
546.0
 21
704.4999999999999
 31
0.0
  0
CIRCLE
  5
15A75
330
157DF
100
AcDbEntity
  8
3
  6
DASHED
100
AcDbCircle
 10
546.0
 20
719.5
 30
0.0
 40
11.0
  0
LINE
  5
15A76
330
157DF
100
AcDbEntity
  8
4
  6
CENTER
100
AcDbLine
 10
554.25
 20
711.5
 30
0.0
 11
565.7499999999997
 21
711.5
 31
0.0
  0
ARC
  5
15A77
330
157DF
100
AcDbEntity
  8
1
  6
Continuous
100
AcDbCircle
 10
615.0
 20
716.0
 30
0.0
 40
2.399999999999999
100
AcDbArc
 50
180.0
 51
0.0
  0
ARC
  5
15A78
330
157DF
100
AcDbEntity
  8
1
  6
Continuous
100
AcDbCircle
 10
615.0
 20
718.0
 30
0.0
 40
2.399999999999999
100
AcDbArc
 50
0.0
 51
180.0
  0
ARC
  5
15A79
330
157DF
100
AcDbEntity
  8
3
  6
DASHED
100
AcDbCircle
 10
580.723607
 20
727.5
 30
0.0
 40
0.5
100
AcDbArc
 50
318.189685
 51
90.0
  0
ARC
  5
15A7A
330
157DF
100
AcDbEntity
  8
3
  6
DASHED
100
AcDbCircle
 10
580.4999999999997
 20
728.0
 30
0.0
 40
1.0
100
AcDbArc
 50
318.189685
 51
67.380135
  0
LINE
  5
15A7B
330
157DF
100
AcDbEntity
  8
3
  6
DASHED
100
AcDbLine
 10
578.5
 20
728.0
 30
0.0
 11
579.4999999999999
 21
728.0
 31
0.0
  0
LINE
  5
15A7C
330
157DF
100
AcDbEntity
  8
3
  6
DASHED
100
AcDbLine
 10
579.4999999999999
 20
728.0
 30
0.0
 11
580.723607
 21
728.0
 31
0.0
  0
LINE
  5
15A7D
330
157DF
100
AcDbEntity
  8
3
  6
DASHED
100
AcDbLine
 10
579.4999999999999
 20
729.4999999999999
 30
0.0
 11
580.8846150000001
 21
728.9230769999996
 31
0.0
  0
LINE
  5
15A7E
330
157DF
100
AcDbEntity
  8
3
  6
DASHED
100
AcDbLine
 10
579.4999999999999
 20
729.4999999999999
 30
0.0
 11
579.4999999999999
 21
728.0
 31
0.0
  0
LINE
  5
15A7F
330
157DF
100
AcDbEntity
  8
3
  6
DASHED
100
AcDbLine
 10
578.5
 20
728.0
 30
0.0
 11
574.5
 21
729.4999999999999
 31
0.0
  0
LINE
  5
15A80
330
157DF
100
AcDbEntity
  8
3
  6
DASHED
100
AcDbLine
 10
579.7546439999997
 20
725.6666669999997
 30
0.0
 11
581.245356
 21
727.333333
 31
0.0
  0
LINE
  5
15A81
330
157DF
100
AcDbEntity
  8
1
  6
Continuous
100
AcDbLine
 10
612.6
 20
718.0
 30
0.0
 11
612.6
 21
716.0
 31
0.0
  0
ARC
  5
15A82
330
157DF
100
AcDbEntity
  8
3
  6
DASHED
100
AcDbCircle
 10
580.4999999999997
 20
725.0
 30
0.0
 40
1.0
100
AcDbArc
 50
138.1896849999999
 51
270.0
  0
CIRCLE
  5
15A83
330
157DF
100
AcDbEntity
  8
1
  6
Continuous
100
AcDbCircle
 10
625.0
 20
717.0
 30
0.0
 40
2.399999999999999
  0
LINE
  5
15A84
330
157DF
100
AcDbEntity
  8
1
  6
Continuous
100
AcDbLine
 10
617.3999999999997
 20
718.0
 30
0.0
 11
617.3999999999997
 21
716.0
 31
0.0
  0
LINE
  5
15A85
330
157DF
100
AcDbEntity
  8
1
  6
Continuous
100
AcDbLine
 10
631.0
 20
708.4999999999999
 30
0.0
 11
630.0
 21
708.4999999999999
 31
0.0
  0
LINE
  5
15A86
330
157DF
100
AcDbEntity
  8
4
  6
CENTER
100
AcDbLine
 10
641.0
 20
616.8764579999997
 30
0.0
 11
641.0
 21
637.343926
 31
0.0
  0
LINE
  5
15A87
330
157DF
100
AcDbEntity
  8
3
  6
DASHED
100
AcDbLine
 10
652.0
 20
628.0
 30
0.0
 11
630.0
 21
628.0
 31
0.0
  0
LINE
  5
15A88
330
157DF
100
AcDbEntity
  8
3
  6
DASHED
100
AcDbLine
 10
652.0
 20
623.0
 30
0.0
 11
630.0
 21
623.0
 31
0.0
  0
LINE
  5
15A89
330
157DF
100
AcDbEntity
  8
1
  6
Continuous
100
AcDbLine
 10
647.0
 20
629.4999999999999
 30
0.0
 11
635.0
 21
629.4999999999999
 31
0.0
  0
LINE
  5
15A8A
330
157DF
100
AcDbEntity
  8
1
  6
Continuous
100
AcDbLine
 10
647.0
 20
631.0
 30
0.0
 11
635.0
 21
631.0
 31
0.0
  0
LINE
  5
15A8B
330
157DF
100
AcDbEntity
  8
1
  6
Continuous
100
AcDbLine
 10
599.0
 20
627.5
 30
0.0
 11
599.0
 21
621.0
 31
0.0
  0
LINE
  5
15A8C
330
157DF
100
AcDbEntity
  8
1
  6
Continuous
100
AcDbLine
 10
598.0
 20
622.5
 30
0.0
 11
598.0
 21
621.0
 31
0.0
  0
ARC
  5
15A8D
330
157DF
100
AcDbEntity
  8
1
  6
Continuous
100
AcDbCircle
 10
600.4999999999999
 20
627.5
 30
0.0
 40
1.5
100
AcDbArc
 50
90.0
 51
180.0
  0
LINE
  5
15A8E
330
157DF
100
AcDbEntity
  8
1
  6
Continuous
100
AcDbLine
 10
635.0
 20
629.0
 30
0.0
 11
635.0
 21
631.0
 31
0.0
  0
LINE
  5
15A8F
330
157DF
100
AcDbEntity
  8
1
  6
Continuous
100
AcDbLine
 10
635.207107
 20
631.2928929999999
 30
0.0
 11
634.4999999999997
 21
632.0
 31
0.0
  0
ARC
  5
15A90
330
157DF
100
AcDbEntity
  8
1
  6
Continuous
100
AcDbCircle
 10
635.914214
 20
632.0
 30
0.0
 40
1.0
100
AcDbArc
 50
225.0
 51
270.0
  0
LINE
  5
15A91
330
157DF
100
AcDbEntity
  8
3
  6
DASHED
100
AcDbLine
 10
635.0
 20
628.0
 30
0.0
 11
635.0
 21
629.0
 31
0.0
  0
LINE
  5
15A92
330
157DF
100
AcDbEntity
  8
1
  6
Continuous
100
AcDbLine
 10
647.0
 20
629.0
 30
0.0
 11
647.0
 21
631.0
 31
0.0
  0
LINE
  5
15A93
330
157DF
100
AcDbEntity
  8
1
  6
Continuous
100
AcDbLine
 10
646.7928929999999
 20
631.2928929999999
 30
0.0
 11
647.5
 21
632.0
 31
0.0
  0
ARC
  5
15A94
330
157DF
100
AcDbEntity
  8
1
  6
Continuous
100
AcDbCircle
 10
646.0857859999999
 20
632.0
 30
0.0
 40
1.0
100
AcDbArc
 50
270.0
 51
315.0
  0
LINE
  5
15A95
330
157DF
100
AcDbEntity
  8
3
  6
DASHED
100
AcDbLine
 10
647.0
 20
628.0
 30
0.0
 11
647.0
 21
629.0
 31
0.0
  0
ARC
  5
15A96
330
157DF
100
AcDbEntity
  8
1
  6
Continuous
100
AcDbCircle
 10
653.5
 20
632.0
 30
0.0
 40
1.5
100
AcDbArc
 50
0.0
 51
90.0
  0
LINE
  5
15A97
330
157DF
100
AcDbEntity
  8
3
  6
DASHED
100
AcDbLine
 10
655.0
 20
624.0
 30
0.0
 11
653.5
 21
624.0
 31
0.0
  0
LINE
  5
15A98
330
157DF
100
AcDbEntity
  8
1
  6
Continuous
100
AcDbLine
 10
653.5
 20
629.0
 30
0.0
 11
653.5
 21
633.4999999999999
 31
0.0
  0
LINE
  5
15A99
330
157DF
100
AcDbEntity
  8
3
  6
DASHED
100
AcDbLine
 10
652.0
 20
628.0
 30
0.0
 11
652.0
 21
623.0
 31
0.0
  0
LINE
  5
15A9A
330
157DF
100
AcDbEntity
  8
3
  6
DASHED
100
AcDbLine
 10
653.5
 20
624.0
 30
0.0
 11
653.5
 21
629.0
 31
0.0
  0
LINE
  5
15A9B
330
157DF
100
AcDbEntity
  8
1
  6
Continuous
100
AcDbLine
 10
655.0
 20
629.0
 30
0.0
 11
655.0
 21
632.0
 31
0.0
  0
LINE
  5
15A9C
330
157DF
100
AcDbEntity
  8
3
  6
DASHED
100
AcDbLine
 10
655.0
 20
624.0
 30
0.0
 11
655.0
 21
629.0
 31
0.0
  0
LINE
  5
15A9D
330
157DF
100
AcDbEntity
  8
4
  6
CENTER
100
AcDbLine
 10
704.0
 20
618.0
 30
0.0
 11
704.0
 21
624.5
 31
0.0
  0
ARC
  5
15A9E
330
157DF
100
AcDbEntity
  8
1
  6
Continuous
100
AcDbCircle
 10
651.5
 20
709.0
 30
0.0
 40
2.0
100
AcDbArc
 50
270.0
 51
0.0
  0
LINE
  5
15A9F
330
157DF
100
AcDbEntity
  8
4
  6
CENTER
100
AcDbLine
 10
641.0
 20
732.0
 30
0.0
 11
641.0
 21
702.0
 31
0.0
  0
LINE
  5
15AA0
330
157DF
100
AcDbEntity
  8
1
  6
Continuous
100
AcDbLine
 10
651.5
 20
707.0
 30
0.0
 11
635.0
 21
707.0
 31
0.0
  0
ARC
  5
15AA1
330
157DF
100
AcDbEntity
  8
1
  6
Continuous
100
AcDbCircle
 10
641.0
 20
717.0
 30
0.0
 40
11.0
100
AcDbArc
 50
245.380023
 51
294.619977
  0
LINE
  5
15AA2
330
157DF
100
AcDbEntity
  8
1
  6
Continuous
100
AcDbLine
 10
599.0
 20
705.0
 30
0.0
 11
599.0
 21
703.5
 31
0.0
  0
ARC
  5
15AA3
330
157DF
100
AcDbEntity
  8
1
  6
Continuous
100
AcDbCircle
 10
647.627489
 20
729.0
 30
0.0
 40
2.0
100
AcDbArc
 50
21.07983799999999
 51
90.0
  0
CIRCLE
  5
15AA4
330
157DF
100
AcDbEntity
  8
1
  6
Continuous
100
AcDbCircle
 10
641.0
 20
717.0
 30
0.0
 40
3.0
  0
CIRCLE
  5
15AA5
330
157DF
100
AcDbEntity
  8
1
  6
Continuous
100
AcDbCircle
 10
641.0
 20
717.0
 30
0.0
 40
5.0
  0
ARC
  5
15AA6
330
157DF
100
AcDbEntity
  8
1
  6
Continuous
100
AcDbCircle
 10
641.0
 20
717.0
 30
0.0
 40
14.0
100
AcDbArc
 50
0.0
 51
21.07983799999999
  0
LINE
  5
15AA7
330
157DF
100
AcDbEntity
  8
1
  6
Continuous
100
AcDbLine
 10
655.0
 20
713.0
 30
0.0
 11
653.5
 21
713.0
 31
0.0
  0
LINE
  5
15AA8
330
157DF
100
AcDbEntity
  8
1
  6
Continuous
100
AcDbLine
 10
653.5
 20
713.0
 30
0.0
 11
653.5
 21
709.0
 31
0.0
  0
LINE
  5
15AA9
330
157DF
100
AcDbEntity
  8
1
  6
Continuous
100
AcDbLine
 10
653.691288
 20
723.0
 30
0.0
 11
652.083709
 21
723.0
 31
0.0
  0
LINE
  5
15AAA
330
157DF
100
AcDbEntity
  8
1
  6
Continuous
100
AcDbLine
 10
653.691288
 20
723.0
 30
0.0
 11
654.063122
 21
722.0353589999997
 31
0.0
  0
LINE
  5
15AAB
330
157DF
100
AcDbEntity
  8
1
  6
Continuous
100
AcDbLine
 10
654.3775439999998
 20
724.0
 30
0.0
 11
654.597809
 21
723.428571
 31
0.0
  0
LINE
  5
15AAC
330
157DF
100
AcDbEntity
  8
1
  6
Continuous
100
AcDbLine
 10
654.597809
 20
723.428571
 30
0.0
 11
653.691288
 21
723.0
 31
0.0
  0
LINE
  5
15AAD
330
157DF
100
AcDbEntity
  8
1
  6
Continuous
100
AcDbLine
 10
655.0
 20
717.0
 30
0.0
 11
655.0
 21
713.0
 31
0.0
  0
LINE
  5
15AAE
330
157DF
100
AcDbEntity
  8
1
  6
Continuous
100
AcDbLine
 10
649.493649
 20
729.719337
 30
0.0
 11
652.083709
 21
723.0
 31
0.0
  0
LINE
  5
15AAF
330
157DF
100
AcDbEntity
  8
4
  6
CENTER
100
AcDbLine
 10
698.2499999999999
 20
719.5
 30
0.0
 11
709.75
 21
719.5
 31
0.0
  0
CIRCLE
  5
15AB0
330
157DF
100
AcDbEntity
  8
1
  6
Continuous
100
AcDbCircle
 10
704.0
 20
719.5
 30
0.0
 40
3.75
  0
CIRCLE
  5
15AB1
330
157DF
100
AcDbEntity
  8
1
  6
Continuous
100
AcDbCircle
 10
704.0
 20
719.5
 30
0.0
 40
2.399999999999999
  0
LINE
  5
15AB2
330
157DF
100
AcDbEntity
  8
4
  6
CENTER
100
AcDbLine
 10
704.0
 20
725.25
 30
0.0
 11
704.0
 21
713.75
 31
0.0
  0
LINE
  5
15AB3
330
157DF
100
AcDbEntity
  8
1
  6
Continuous
100
AcDbLine
 10
1060.0
 20
522.5
 30
0.0
 11
1032.0
 21
525.0
 31
0.0
  0
LINE
  5
15AB4
330
157DF
100
AcDbEntity
  8
4
  6
CENTER
100
AcDbLine
 10
1060.0
 20
529.25
 30
0.0
 11
1060.0
 21
540.7499999999998
 31
0.0
  0
ARC
  5
15AB5
330
157DF
100
AcDbEntity
  8
1
  6
Continuous
100
AcDbCircle
 10
1067.0
 20
533.0
 30
0.0
 40
2.0
100
AcDbArc
 50
90.0
 51
253.2276069999999
  0
ARC
  5
15AB6
330
157DF
100
AcDbEntity
  8
1
  6
Continuous
100
AcDbCircle
 10
1050.0
 20
534.0
 30
0.0
 40
2.399999999999999
100
AcDbArc
 50
180.0
 51
0.0
  0
LINE
  5
15AB7
330
157DF
100
AcDbEntity
  8
4
  6
CENTER
100
AcDbLine
 10
1050.0
 20
528.2499999999998
 30
0.0
 11
1050.0
 21
541.75
 31
0.0
  0
LINE
  5
15AB8
330
157DF
100
AcDbEntity
  8
1
  6
Continuous
100
AcDbLine
 10
1075.0
 20
522.5
 30
0.0
 11
1060.0
 21
522.5
 31
0.0
  0
LINE
  5
15AB9
330
157DF
100
AcDbEntity
  8
1
  6
Continuous
100
AcDbLine
 10
1073.932855999999
 20
528.821629
 30
0.0
 11
1066.422859
 21
531.085083
 31
0.0
  0
LINE
  5
15ABA
330
157DF
100
AcDbEntity
  8
1
  6
Continuous
100
AcDbLine
 10
1075.0
 20
522.5
 30
0.0
 11
1075.0
 21
527.385441
 31
0.0
  0
ARC
  5
15ABB
330
157DF
100
AcDbEntity
  8
1
  6
Continuous
100
AcDbCircle
 10
1073.499999999999
 20
527.385441
 30
0.0
 40
1.5
100
AcDbArc
 50
0.0
 51
73.22760699999998
  0
LINE
  5
15ABC
330
157DF
100
AcDbEntity
  8
1
  6
Continuous
100
AcDbLine
 10
1073.499999999999
 20
535.0
 30
0.0
 11
1067.0
 21
535.0
 31
0.0
  0
LINE
  5
15ABD
330
157DF
100
AcDbEntity
  8
1
  6
Continuous
100
AcDbLine
 10
1052.4
 20
534.0
 30
0.0
 11
1052.4
 21
536.0
 31
0.0
  0
LINE
  5
15ABE
330
157DF
100
AcDbEntity
  8
1
  6
Continuous
100
AcDbLine
 10
1047.599999999998
 20
534.0
 30
0.0
 11
1047.599999999998
 21
536.0
 31
0.0
  0
ARC
  5
15ABF
330
157DF
100
AcDbEntity
  8
1
  6
Continuous
100
AcDbCircle
 10
1050.0
 20
536.0
 30
0.0
 40
2.399999999999999
100
AcDbArc
 50
0.0
 51
180.0
  0
CIRCLE
  5
15AC0
330
157DF
100
AcDbEntity
  8
1
  6
Continuous
100
AcDbCircle
 10
1060.0
 20
535.0
 30
0.0
 40
2.399999999999999
  0
ARC
  5
15AC1
330
157DF
100
AcDbEntity
  8
1
  6
Continuous
100
AcDbCircle
 10
1061.0
 20
535.0
 30
0.0
 40
7.0
100
AcDbArc
 50
26.33707499999999
 51
63.662925
  0
LINE
  5
15AC2
330
157DF
100
AcDbEntity
  8
1
  6
Continuous
100
AcDbLine
 10
1070.858195
 20
539.880163
 30
0.0
 11
1067.273396999999
 21
538.1055579999999
 31
0.0
  0
LINE
  5
15AC3
330
157DF
100
AcDbEntity
  8
1
  6
Continuous
100
AcDbLine
 10
1065.880163
 20
544.858195
 30
0.0
 11
1064.105558
 21
541.2733969999997
 31
0.0
  0
ARC
  5
15AC4
330
157DF
100
AcDbEntity
  8
1
  6
Continuous
100
AcDbCircle
 10
1061.0
 20
535.0
 30
0.0
 40
11.0
100
AcDbArc
 50
26.33707499999999
 51
63.662925
  0
ARC
  5
15AC5
330
157DF
100
AcDbEntity
  8
1
  6
Continuous
100
AcDbCircle
 10
1073.499999999999
 20
536.5
 30
0.0
 40
1.5
100
AcDbArc
 50
270.0
 51
0.0
  0
LINE
  5
15AC6
330
157DF
100
AcDbEntity
  8
1
  6
Continuous
100
AcDbLine
 10
1075.0
 20
536.5
 30
0.0
 11
1075.0
 21
551.0
 31
0.0
  0
LINE
  5
15AC7
330
157DF
100
AcDbEntity
  8
1
  6
Continuous
100
AcDbLine
 10
1148.0
 20
531.5
 30
0.0
 11
1148.0
 21
539.880163
 31
0.0
  0
LINE
  5
15AC8
330
157DF
100
AcDbEntity
  8
1
  6
Continuous
100
AcDbLine
 10
1147.0
 20
531.5
 30
0.0
 11
1147.0
 21
539.880163
 31
0.0
  0
LINE
  5
15AC9
330
157DF
100
AcDbEntity
  8
1
  6
Continuous
100
AcDbLine
 10
1157.5
 20
523.5
 30
0.0
 11
1157.5
 21
548.5
 31
0.0
  0
LINE
  5
15ACA
330
157DF
100
AcDbEntity
  8
1
  6
Continuous
100
AcDbLine
 10
1146.5
 20
524.0
 30
0.0
 11
1146.5
 21
549.5
 31
0.0
  0
LINE
  5
15ACB
330
157DF
100
AcDbEntity
  8
1
  6
Continuous
100
AcDbLine
 10
1145.0
 20
524.0
 30
0.0
 11
1145.0
 21
551.0
 31
0.0
  0
LINE
  5
15ACC
330
157DF
100
AcDbEntity
  8
1
  6
Continuous
100
AcDbLine
 10
1157.5
 20
531.5
 30
0.0
 11
1146.5
 21
531.5
 31
0.0
  0
LINE
  5
15ACD
330
157DF
100
AcDbEntity
  8
1
  6
Continuous
100
AcDbLine
 10
1153.0
 20
527.7967559999998
 30
0.0
 11
1146.5
 21
527.7967559999998
 31
0.0
  0
LINE
  5
15ACE
330
157DF
100
AcDbEntity
  8
1
  6
Continuous
100
AcDbLine
 10
1153.0
 20
524.0
 30
0.0
 11
1146.5
 21
524.0
 31
0.0
  0
LINE
  5
15ACF
330
157DF
100
AcDbEntity
  8
1
  6
Continuous
100
AcDbLine
 10
1153.0
 20
522.5
 30
0.0
 11
1146.5
 21
522.5
 31
0.0
  0
LINE
  5
15AD0
330
157DF
100
AcDbEntity
  8
1
  6
Continuous
100
AcDbLine
 10
1146.5
 20
526.4999999999998
 30
0.0
 11
1153.0
 21
526.4999999999998
 31
0.0
  0
LINE
  5
15AD1
330
157DF
100
AcDbEntity
  8
1
  6
Continuous
100
AcDbLine
 10
1145.0
 20
528.5
 30
0.0
 11
1146.5
 21
528.5
 31
0.0
  0
ARC
  5
15AD2
330
157DF
100
AcDbEntity
  8
1
  6
Continuous
100
AcDbCircle
 10
1146.5
 20
524.0
 30
0.0
 40
1.5
100
AcDbArc
 50
180.0
 51
270.0
  0
LINE
  5
15AD3
330
157DF
100
AcDbEntity
  8
1
  6
Continuous
100
AcDbLine
 10
1147.0
 20
526.4999999999998
 30
0.0
 11
1147.0
 21
527.7967559999998
 31
0.0
  0
LINE
  5
15AD4
330
157DF
100
AcDbEntity
  8
1
  6
Continuous
100
AcDbLine
 10
1154.5
 20
528.0
 30
0.0
 11
1153.0
 21
528.0
 31
0.0
  0
LINE
  5
15AD5
330
157DF
100
AcDbEntity
  8
1
  6
Continuous
100
AcDbLine
 10
1155.499999999999
 20
531.5
 30
0.0
 11
1156.0
 21
531.0
 31
0.0
  0
LINE
  5
15AD6
330
157DF
100
AcDbEntity
  8
1
  6
Continuous
100
AcDbLine
 10
1153.0
 20
530.4999999999998
 30
0.0
 11
1154.5
 21
530.4999999999998
 31
0.0
  0
ARC
  5
15AD7
330
157DF
100
AcDbEntity
  8
1
  6
Continuous
100
AcDbCircle
 10
1153.0
 20
524.0
 30
0.0
 40
1.5
100
AcDbArc
 50
270.0
 51
0.0
  0
LINE
  5
15AD8
330
157DF
100
AcDbEntity
  8
1
  6
Continuous
100
AcDbLine
 10
1157.5
 20
523.5
 30
0.0
 11
1156.0
 21
523.5
 31
0.0
  0
LINE
  5
15AD9
330
157DF
100
AcDbEntity
  8
1
  6
Continuous
100
AcDbLine
 10
1156.0
 20
523.5
 30
0.0
 11
1156.0
 21
531.5
 31
0.0
  0
LINE
  5
15ADA
330
157DF
100
AcDbEntity
  8
1
  6
Continuous
100
AcDbLine
 10
1153.0
 20
524.0
 30
0.0
 11
1153.0
 21
531.5
 31
0.0
  0
LINE
  5
15ADB
330
157DF
100
AcDbEntity
  8
1
  6
Continuous
100
AcDbLine
 10
1152.0
 20
526.4999999999998
 30
0.0
 11
1152.0
 21
527.7967559999998
 31
0.0
  0
LINE
  5
15ADC
330
157DF
100
AcDbEntity
  8
1
  6
Continuous
100
AcDbLine
 10
1154.5
 20
524.0
 30
0.0
 11
1154.5
 21
530.4999999999998
 31
0.0
  0
LINE
  5
15ADD
330
157DF
100
AcDbEntity
  8
1
  6
Continuous
100
AcDbLine
 10
1153.0
 20
549.5
 30
0.0
 11
1146.5
 21
549.5
 31
0.0
  0
LINE
  5
15ADE
330
157DF
100
AcDbEntity
  8
1
  6
Continuous
100
AcDbLine
 10
1153.0
 20
551.0
 30
0.0
 11
1145.0
 21
551.0
 31
0.0
  0
LINE
  5
15ADF
330
157DF
100
AcDbEntity
  8
1
  6
Continuous
100
AcDbLine
 10
1146.5
 20
546.202494
 30
0.0
 11
1152.0
 21
546.202494
 31
0.0
  0
LINE
  5
15AE0
330
157DF
100
AcDbEntity
  8
1
  6
Continuous
100
AcDbLine
 10
1146.5
 20
540.54564
 30
0.0
 11
1152.0
 21
540.54564
 31
0.0
  0
LINE
  5
15AE1
330
157DF
100
AcDbEntity
  8
1
  6
Continuous
100
AcDbLine
 10
1146.5
 20
539.880163
 30
0.0
 11
1152.0
 21
539.880163
 31
0.0
  0
LINE
  5
15AE2
330
157DF
100
AcDbEntity
  8
4
  6
CENTER
100
AcDbLine
 10
1158.193738
 20
535.0
 30
0.0
 11
1140.0
 21
535.0
 31
0.0
  0
LINE
  5
15AE3
330
157DF
100
AcDbEntity
  8
4
  6
CENTER
100
AcDbLine
 10
1161.643621
 20
537.5
 30
0.0
 11
1143.849475999999
 21
537.5
 31
0.0
  0
LINE
  5
15AE4
330
157DF
100
AcDbEntity
  8
1
  6
Continuous
100
AcDbLine
 10
1152.0
 20
548.5
 30
0.0
 11
1147.0
 21
548.5
 31
0.0
  0
ARC
  5
15AE5
330
157DF
100
AcDbEntity
  8
1
  6
Continuous
100
AcDbCircle
 10
1146.5
 20
549.5
 30
0.0
 40
1.5
100
AcDbArc
 50
90.0
 51
180.0
  0
LINE
  5
15AE6
330
157DF
100
AcDbEntity
  8
1
  6
Continuous
100
AcDbLine
 10
1146.5
 20
535.0
 30
0.0
 11
1145.0
 21
535.0
 31
0.0
  0
LINE
  5
15AE7
330
157DF
100
AcDbEntity
  8
1
  6
Continuous
100
AcDbLine
 10
1147.0
 20
548.5
 30
0.0
 11
1147.0
 21
546.202494
 31
0.0
  0
LINE
  5
15AE8
330
157DF
100
AcDbEntity
  8
1
  6
Continuous
100
AcDbLine
 10
1148.0
 20
548.5
 30
0.0
 11
1148.0
 21
549.5
 31
0.0
  0
LINE
  5
15AE9
330
157DF
100
AcDbEntity
  8
1
  6
Continuous
100
AcDbLine
 10
1153.0
 20
549.5
 30
0.0
 11
1153.0
 21
551.0
 31
0.0
  0
LINE
  5
15AEA
330
157DF
100
AcDbEntity
  8
1
  6
Continuous
100
AcDbLine
 10
1153.0
 20
550.0
 30
0.0
 11
1156.0
 21
550.0
 31
0.0
  0
LINE
  5
15AEB
330
157DF
100
AcDbEntity
  8
1
  6
Continuous
100
AcDbLine
 10
1156.0
 20
546.0
 30
0.0
 11
1152.0
 21
546.0
 31
0.0
  0
LINE
  5
15AEC
330
157DF
100
AcDbEntity
  8
1
  6
Continuous
100
AcDbLine
 10
1156.0
 20
541.5
 30
0.0
 11
1156.0
 21
547.5
 31
0.0
  0
LINE
  5
15AED
330
157DF
100
AcDbEntity
  8
1
  6
Continuous
100
AcDbLine
 10
1157.5
 20
541.5
 30
0.0
 11
1152.0
 21
541.5
 31
0.0
  0
LINE
  5
15AEE
330
157DF
100
AcDbEntity
  8
1
  6
Continuous
100
AcDbLine
 10
1152.0
 20
539.880163
 30
0.0
 11
1152.0
 21
548.5
 31
0.0
  0
LINE
  5
15AEF
330
157DF
100
AcDbEntity
  8
1
  6
Continuous
100
AcDbLine
 10
1157.5
 20
547.5
 30
0.0
 11
1152.0
 21
547.5
 31
0.0
  0
ARC
  5
15AF0
330
157DF
100
AcDbEntity
  8
1
  6
Continuous
100
AcDbCircle
 10
1156.0
 20
542.5857859999998
 30
0.0
 40
1.0
100
AcDbArc
 50
135.0
 51
180.0
  0
LINE
  5
15AF1
330
157DF
100
AcDbEntity
  8
1
  6
Continuous
100
AcDbLine
 10
1155.292893
 20
543.2928929999999
 30
0.0
 11
1156.0
 21
544.0
 31
0.0
  0
LINE
  5
15AF2
330
157DF
100
AcDbEntity
  8
1
  6
Continuous
100
AcDbLine
 10
1155.0
 20
541.5
 30
0.0
 11
1155.0
 21
543.5
 31
0.0
  0
LINE
  5
15AF3
330
157DF
100
AcDbEntity
  8
1
  6
Continuous
100
AcDbLine
 10
1153.499999999999
 20
541.5
 30
0.0
 11
1153.499999999999
 21
543.5
 31
0.0
  0
LINE
  5
15AF4
330
157DF
100
AcDbEntity
  8
1
  6
Continuous
100
AcDbLine
 10
1152.0
 20
543.5
 30
0.0
 11
1155.0
 21
543.5
 31
0.0
  0
ARC
  5
15AF5
330
157DF
100
AcDbEntity
  8
1
  6
Continuous
100
AcDbCircle
 10
1156.0
 20
548.5
 30
0.0
 40
1.5
100
AcDbArc
 50
0.0
 51
90.0
  0
LINE
  5
15AF6
330
157DF
100
AcDbEntity
  8
4
  6
CENTER
100
AcDbLine
 10
1060.0
 20
618.0
 30
0.0
 11
1060.0
 21
624.5
 31
0.0
  0
LINE
  5
15AF7
330
157DF
100
AcDbEntity
  8
4
  6
CENTER
100
AcDbLine
 10
1050.0
 20
618.0
 30
0.0
 11
1050.0
 21
624.5
 31
0.0
  0
LINE
  5
15AF8
330
157DF
100
AcDbEntity
  8
1
  6
Continuous
100
AcDbLine
 10
1075.0
 20
621.0
 30
0.0
 11
1075.0
 21
630.4999999999997
 31
0.0
  0
ARC
  5
15AF9
330
157DF
100
AcDbEntity
  8
1
  6
Continuous
100
AcDbCircle
 10
1073.499999999999
 20
627.5
 30
0.0
 40
1.5
100
AcDbArc
 50
0.0
 51
90.0
  0
LINE
  5
15AFA
330
157DF
100
AcDbEntity
  8
1
  6
Continuous
100
AcDbLine
 10
1060.0
 20
732.0
 30
0.0
 11
1032.0
 21
729.4999999999999
 31
0.0
  0
LINE
  5
15AFB
330
157DF
100
AcDbEntity
  8
1
  6
Continuous
100
AcDbLine
 10
1060.245048
 20
726.5
 30
0.0
 11
1032.245048
 21
724.0
 31
0.0
  0
LINE
  5
15AFC
330
157DF
100
AcDbEntity
  8
1
  6
Continuous
100
AcDbLine
 10
1075.0
 20
718.0
 30
0.0
 11
1075.0
 21
703.5
 31
0.0
  0
ARC
  5
15AFD
330
157DF
100
AcDbEntity
  8
1
  6
Continuous
100
AcDbCircle
 10
1061.0
 20
719.5
 30
0.0
 40
12.5
100
AcDbArc
 50
296.3370750000001
 51
333.6629249999999
  0
LINE
  5
15AFE
330
157DF
100
AcDbEntity
  8
1
  6
Continuous
100
AcDbLine
 10
1074.0
 20
726.5
 30
0.0
 11
1060.245048
 21
726.5
 31
0.0
  0
LINE
  5
15AFF
330
157DF
100
AcDbEntity
  8
1
  6
Continuous
100
AcDbLine
 10
1075.0
 20
732.0
 30
0.0
 11
1060.0
 21
732.0
 31
0.0
  0
LINE
  5
15B00
330
157DF
100
AcDbEntity
  8
1
  6
Continuous
100
AcDbLine
 10
1072.202493999999
 20
713.9543599999998
 30
0.0
 11
1067.273396999999
 21
716.3944419999997
 31
0.0
  0
LINE
  5
15B01
330
157DF
100
AcDbEntity
  8
1
  6
Continuous
100
AcDbLine
 10
1073.499999999999
 20
719.5
 30
0.0
 11
1067.0
 21
719.5
 31
0.0
  0
LINE
  5
15B02
330
157DF
100
AcDbEntity
  8
1
  6
Continuous
100
AcDbLine
 10
1073.932855999999
 20
725.6783709999997
 30
0.0
 11
1066.422859
 21
723.4149169999997
 31
0.0
  0
LINE
  5
15B03
330
157DF
100
AcDbEntity
  8
4
  6
CENTER
100
AcDbLine
 10
1065.75
 20
719.5
 30
0.0
 11
1044.25
 21
719.5
 31
0.0
  0
ARC
  5
15B04
330
157DF
100
AcDbEntity
  8
1
  6
Continuous
100
AcDbCircle
 10
1050.0
 20
720.5
 30
0.0
 40
3.75
100
AcDbArc
 50
0.0
 51
180.0
  0
ARC
  5
15B05
330
157DF
100
AcDbEntity
  8
1
  6
Continuous
100
AcDbCircle
 10
1050.0
 20
718.5
 30
0.0
 40
3.75
100
AcDbArc
 50
180.0
 51
0.0
  0
ARC
  5
15B06
330
157DF
100
AcDbEntity
  8
1
  6
Continuous
100
AcDbCircle
 10
1050.0
 20
718.5
 30
0.0
 40
2.399999999999999
100
AcDbArc
 50
180.0
 51
0.0
  0
ARC
  5
15B07
330
157DF
100
AcDbEntity
  8
1
  6
Continuous
100
AcDbCircle
 10
1050.0
 20
720.5
 30
0.0
 40
2.399999999999999
100
AcDbArc
 50
0.0
 51
180.0
  0
LINE
  5
15B08
330
157DF
100
AcDbEntity
  8
1
  6
Continuous
100
AcDbLine
 10
1046.25
 20
720.5
 30
0.0
 11
1046.25
 21
718.5
 31
0.0
  0
LINE
  5
15B09
330
157DF
100
AcDbEntity
  8
1
  6
Continuous
100
AcDbLine
 10
1047.599999999998
 20
720.5
 30
0.0
 11
1047.599999999998
 21
718.5
 31
0.0
  0
LINE
  5
15B0A
330
157DF
100
AcDbEntity
  8
1
  6
Continuous
100
AcDbLine
 10
1053.749999999999
 20
720.5
 30
0.0
 11
1053.749999999999
 21
718.5
 31
0.0
  0
LINE
  5
15B0B
330
157DF
100
AcDbEntity
  8
1
  6
Continuous
100
AcDbLine
 10
1052.4
 20
720.5
 30
0.0
 11
1052.4
 21
718.5
 31
0.0
  0
LINE
  5
15B0C
330
157DF
100
AcDbEntity
  8
4
  6
CENTER
100
AcDbLine
 10
1050.0
 20
726.25
 30
0.0
 11
1050.0
 21
712.75
 31
0.0
  0
CIRCLE
  5
15B0D
330
157DF
100
AcDbEntity
  8
1
  6
Continuous
100
AcDbCircle
 10
1060.0
 20
719.5
 30
0.0
 40
3.75
  0
CIRCLE
  5
15B0E
330
157DF
100
AcDbEntity
  8
1
  6
Continuous
100
AcDbCircle
 10
1060.0
 20
719.5
 30
0.0
 40
2.399999999999999
  0
LINE
  5
15B0F
330
157DF
100
AcDbEntity
  8
4
  6
CENTER
100
AcDbLine
 10
1060.0
 20
725.25
 30
0.0
 11
1060.0
 21
713.75
 31
0.0
  0
LINE
  5
15B10
330
157DF
100
AcDbEntity
  8
1
  6
Continuous
100
AcDbLine
 10
1066.545639999998
 20
708.2975059999996
 30
0.0
 11
1064.105558
 21
713.2266030000002
 31
0.0
  0
ARC
  5
15B11
330
157DF
100
AcDbEntity
  8
1
  6
Continuous
100
AcDbCircle
 10
1061.0
 20
719.5
 30
0.0
 40
7.0
100
AcDbArc
 50
296.3370750000001
 51
333.6629249999999
  0
ARC
  5
15B12
330
157DF
100
AcDbEntity
  8
1
  6
Continuous
100
AcDbCircle
 10
1067.0
 20
721.4999999999998
 30
0.0
 40
2.0
100
AcDbArc
 50
106.7723929999998
 51
270.0
  0
ARC
  5
15B13
330
157DF
100
AcDbEntity
  8
1
  6
Continuous
100
AcDbCircle
 10
1061.0
 20
719.5
 30
0.0
 40
11.0
100
AcDbArc
 50
296.3370750000001
 51
333.6629249999999
  0
LINE
  5
15B14
330
157DF
100
AcDbEntity
  8
1
  6
Continuous
100
AcDbLine
 10
1075.0
 20
732.0
 30
0.0
 11
1075.0
 21
727.1145589999996
 31
0.0
  0
ARC
  5
15B15
330
157DF
100
AcDbEntity
  8
1
  6
Continuous
100
AcDbCircle
 10
1074.0
 20
730.4999999999998
 30
0.0
 40
1.0
100
AcDbArc
 50
112.6198649999998
 51
221.810315
  0
ARC
  5
15B16
330
157DF
100
AcDbEntity
  8
1
  6
Continuous
100
AcDbCircle
 10
1073.776392999999
 20
730.0
 30
0.0
 40
0.5
100
AcDbArc
 50
90.0
 51
221.810315
  0
ARC
  5
15B17
330
157DF
100
AcDbEntity
  8
1
  6
Continuous
100
AcDbCircle
 10
1073.499999999999
 20
727.1145589999996
 30
0.0
 40
1.5
100
AcDbArc
 50
286.772393
 51
0.0
  0
ARC
  5
15B18
330
157DF
100
AcDbEntity
  8
1
  6
Continuous
100
AcDbCircle
 10
1074.0
 20
727.5
 30
0.0
 40
1.0
100
AcDbArc
 50
270.0
 51
41.810315
  0
LINE
  5
15B19
330
157DF
100
AcDbEntity
  8
1
  6
Continuous
100
AcDbLine
 10
1074.745355999999
 20
728.1666669999999
 30
0.0
 11
1073.254643999999
 21
729.833333
 31
0.0
  0
ARC
  5
15B1A
330
157DF
100
AcDbEntity
  8
1
  6
Continuous
100
AcDbCircle
 10
1073.499999999999
 20
718.0
 30
0.0
 40
1.5
100
AcDbArc
 50
0.0
 51
90.0
  0
LINE
  5
15B1B
330
157DF
100
AcDbEntity
  8
1
  6
Continuous
100
AcDbLine
 10
1075.0
 20
730.4999999999998
 30
0.0
 11
1073.776392999999
 21
730.4999999999998
 31
0.0
  0
LINE
  5
15B1C
330
157DF
100
AcDbEntity
  8
1
  6
Continuous
100
AcDbLine
 10
1075.0
 20
732.0
 30
0.0
 11
1073.615385
 21
731.4230769999997
 31
0.0
  0
LINE
  5
15B1D
330
157DF
100
AcDbEntity
  8
1
  6
Continuous
100
AcDbLine
 10
1075.0
 20
444.0
 30
0.0
 11
579.4999999999999
 21
444.0
 31
0.0
  0
LINE
  5
15B1E
330
157DF
100
AcDbEntity
  8
1
  6
Continuous
100
AcDbLine
 10
1075.0
 20
453.5
 30
0.0
 11
530.4999999999998
 21
453.5
 31
0.0
  0
LINE
  5
15B1F
330
157DF
100
AcDbEntity
  8
1
  6
Continuous
100
AcDbLine
 10
653.5
 20
441.0
 30
0.0
 11
109.0
 21
441.0
 31
0.0
  0
LINE
  5
15B20
330
157DF
100
AcDbEntity
  8
1
  6
Continuous
100
AcDbLine
 10
109.0
 20
450.4999999999998
 30
0.0
 11
529.0
 21
450.4999999999998
 31
0.0
  0
LINE
  5
15B21
330
157DF
100
AcDbEntity
  8
1
  6
Continuous
100
AcDbLine
 10
653.5
 20
442.4999999999998
 30
0.0
 11
109.0
 21
442.4999999999998
 31
0.0
  0
LINE
  5
15B22
330
157DF
100
AcDbEntity
  8
1
  6
Continuous
100
AcDbLine
 10
109.0
 20
449.0
 30
0.0
 11
529.0
 21
449.0
 31
0.0
  0
LINE
  5
15B23
330
157DF
100
AcDbEntity
  8
1
  6
Continuous
100
AcDbLine
 10
142.0
 20
445.5
 30
0.0
 11
115.5
 21
445.5
 31
0.0
  0
ARC
  5
15B24
330
157DF
100
AcDbEntity
  8
1
  6
Continuous
100
AcDbCircle
 10
115.5
 20
444.0
 30
0.0
 40
1.5
100
AcDbArc
 50
90.0
 51
180.0
  0
LINE
  5
15B25
330
157DF
100
AcDbEntity
  8
1
  6
Continuous
100
AcDbLine
 10
109.0
 20
441.0
 30
0.0
 11
109.0
 21
450.4999999999998
 31
0.0
  0
LINE
  5
15B26
330
157DF
100
AcDbEntity
  8
4
  6
CENTER
100
AcDbLine
 10
125.0
 20
438.0
 30
0.0
 11
125.0
 21
444.5
 31
0.0
  0
LINE
  5
15B27
330
157DF
100
AcDbEntity
  8
1
  6
Continuous
100
AcDbLine
 10
114.0
 20
444.0
 30
0.0
 11
114.0
 21
442.4999999999998
 31
0.0
  0
LINE
  5
15B28
330
157DF
100
AcDbEntity
  8
1
  6
Continuous
100
AcDbLine
 10
127.0
 20
445.913842
 30
0.0
 11
127.0
 21
448.51869
 31
0.0
  0
LINE
  5
15B29
330
157DF
100
AcDbEntity
  8
1
  6
Continuous
100
AcDbLine
 10
156.0
 20
443.5
 30
0.0
 11
156.0
 21
448.0
 31
0.0
  0
ARC
  5
15B2A
330
157DF
100
AcDbEntity
  8
1
  6
Continuous
100
AcDbCircle
 10
142.0
 20
444.0
 30
0.0
 40
1.5
100
AcDbArc
 50
0.0
 51
90.0
  0
LINE
  5
15B2B
330
157DF
100
AcDbEntity
  8
4
  6
CENTER
100
AcDbLine
 10
135.0
 20
438.0
 30
0.0
 11
135.0
 21
444.5
 31
0.0
  0
LINE
  5
15B2C
330
157DF
100
AcDbEntity
  8
1
  6
Continuous
100
AcDbLine
 10
143.5
 20
442.4999999999998
 30
0.0
 11
143.5
 21
444.0
 31
0.0
  0
LINE
  5
15B2D
330
157DF
100
AcDbEntity
  8
3
  6
DASHED
100
AcDbLine
 10
652.0
 20
451.4999999999998
 30
0.0
 11
630.0
 21
451.4999999999998
 31
0.0
  0
LINE
  5
15B2E
330
157DF
100
AcDbEntity
  8
3
  6
DASHED
100
AcDbLine
 10
652.0
 20
446.4999999999998
 30
0.0
 11
630.0
 21
446.4999999999998
 31
0.0
  0
LINE
  5
15B2F
330
157DF
100
AcDbEntity
  8
1
  6
Continuous
100
AcDbLine
 10
530.4999999999998
 20
449.0
 30
0.0
 11
540.0
 21
449.0
 31
0.0
  0
LINE
  5
15B30
330
157DF
100
AcDbEntity
  8
1
  6
Continuous
100
AcDbLine
 10
530.4999999999998
 20
450.4999999999998
 30
0.0
 11
540.0
 21
450.4999999999998
 31
0.0
  0
LINE
  5
15B31
330
157DF
100
AcDbEntity
  8
1
  6
Continuous
100
AcDbLine
 10
579.4999999999999
 20
452.0
 30
0.0
 11
530.4999999999998
 21
452.0
 31
0.0
  0
LINE
  5
15B32
330
157DF
100
AcDbEntity
  8
1
  6
Continuous
100
AcDbLine
 10
529.0
 20
452.0
 30
0.0
 11
529.0
 21
444.0
 31
0.0
  0
LINE
  5
15B33
330
157DF
100
AcDbEntity
  8
1
  6
Continuous
100
AcDbLine
 10
530.4999999999998
 20
444.0
 30
0.0
 11
530.4999999999998
 21
452.0
 31
0.0
  0
LINE
  5
15B34
330
157DF
100
AcDbEntity
  8
1
  6
Continuous
100
AcDbLine
 10
531.5
 20
442.4999999999998
 30
0.0
 11
531.5
 21
448.1
 31
0.0
  0
LINE
  5
15B35
330
157DF
100
AcDbEntity
  8
1
  6
Continuous
100
AcDbLine
 10
528.0
 20
442.4999999999998
 30
0.0
 11
528.0
 21
448.1
 31
0.0
  0
LINE
  5
15B36
330
157DF
100
AcDbEntity
  8
4
  6
CENTER
100
AcDbLine
 10
505.0
 20
438.0
 30
0.0
 11
505.0
 21
444.5
 31
0.0
  0
LINE
  5
15B37
330
157DF
100
AcDbEntity
  8
4
  6
CENTER
100
AcDbLine
 10
495.0
 20
438.0
 30
0.0
 11
495.0
 21
444.5
 31
0.0
  0
LINE
  5
15B38
330
157DF
100
AcDbEntity
  8
1
  6
Continuous
100
AcDbLine
 10
530.4999999999998
 20
444.0
 30
0.0
 11
529.0
 21
444.0
 31
0.0
  0
ARC
  5
15B39
330
157DF
100
AcDbEntity
  8
1
  6
Continuous
100
AcDbCircle
 10
530.4999999999998
 20
452.0
 30
0.0
 40
1.5
100
AcDbArc
 50
90.0
 51
180.0
  0
LINE
  5
15B3A
330
157DF
100
AcDbEntity
  8
1
  6
Continuous
100
AcDbLine
 10
531.5
 20
448.1
 30
0.0
 11
530.4999999999998
 21
448.1
 31
0.0
  0
LINE
  5
15B3B
330
157DF
100
AcDbEntity
  8
1
  6
Continuous
100
AcDbLine
 10
529.0
 20
448.1
 30
0.0
 11
528.0
 21
448.1
 31
0.0
  0
LINE
  5
15B3C
330
157DF
100
AcDbEntity
  8
1
  6
Continuous
100
AcDbLine
 10
579.4999999999999
 20
444.0
 30
0.0
 11
579.4999999999999
 21
453.5
 31
0.0
  0
LINE
  5
15B3D
330
157DF
100
AcDbEntity
  8
3
  6
DASHED
100
AcDbLine
 10
630.0
 20
444.0
 30
0.0
 11
630.0
 21
451.4999999999998
 31
0.0
  0
LINE
  5
15B3E
330
157DF
100
AcDbEntity
  8
4
  6
CENTER
100
AcDbLine
 10
615.0
 20
438.0
 30
0.0
 11
615.0
 21
444.5
 31
0.0
  0
LINE
  5
15B3F
330
157DF
100
AcDbEntity
  8
4
  6
CENTER
100
AcDbLine
 10
625.0
 20
438.0
 30
0.0
 11
625.0
 21
444.5
 31
0.0
  0
LINE
  5
15B40
330
157DF
100
AcDbEntity
  8
1
  6
Continuous
100
AcDbLine
 10
557.0
 20
448.0
 30
0.0
 11
557.0
 21
443.0
 31
0.0
  0
LINE
  5
15B41
330
157DF
100
AcDbEntity
  8
1
  6
Continuous
100
AcDbLine
 10
535.0
 20
448.0
 30
0.0
 11
535.0
 21
443.0
 31
0.0
  0
LINE
  5
15B42
330
157DF
100
AcDbEntity
  8
4
  6
CENTER
100
AcDbLine
 10
546.0
 20
457.7685289999998
 30
0.0
 11
546.0
 21
437.3857479999998
 31
0.0
  0
LINE
  5
15B43
330
157DF
100
AcDbEntity
  8
1
  6
Continuous
100
AcDbLine
 10
557.0
 20
443.0
 30
0.0
 11
535.0
 21
443.0
 31
0.0
  0
LINE
  5
15B44
330
157DF
100
AcDbEntity
  8
1
  6
Continuous
100
AcDbLine
 10
630.0
 20
442.4999999999998
 30
0.0
 11
630.0
 21
444.0
 31
0.0
  0
LINE
  5
15B45
330
157DF
100
AcDbEntity
  8
1
  6
Continuous
100
AcDbLine
 10
552.0
 20
449.0
 30
0.0
 11
579.4999999999999
 21
449.0
 31
0.0
  0
LINE
  5
15B46
330
157DF
100
AcDbEntity
  8
1
  6
Continuous
100
AcDbLine
 10
552.0
 20
450.4999999999998
 30
0.0
 11
579.4999999999999
 21
450.4999999999998
 31
0.0
  0
LINE
  5
15B47
330
157DF
100
AcDbEntity
  8
1
  6
Continuous
100
AcDbLine
 10
557.0
 20
448.0
 30
0.0
 11
535.0
 21
448.0
 31
0.0
  0
LINE
  5
15B48
330
157DF
100
AcDbEntity
  8
1
  6
Continuous
100
AcDbLine
 10
552.0
 20
451.0
 30
0.0
 11
540.0
 21
451.0
 31
0.0
  0
LINE
  5
15B49
330
157DF
100
AcDbEntity
  8
1
  6
Continuous
100
AcDbLine
 10
552.0
 20
449.5
 30
0.0
 11
540.0
 21
449.5
 31
0.0
  0
LINE
  5
15B4A
330
157DF
100
AcDbEntity
  8
1
  6
Continuous
100
AcDbLine
 10
540.2071069999998
 20
451.292893
 30
0.0
 11
539.5
 21
452.0
 31
0.0
  0
LINE
  5
15B4B
330
157DF
100
AcDbEntity
  8
4
  6
CENTER
100
AcDbLine
 10
534.5499999999998
 20
456.5
 30
0.0
 11
534.5499999999998
 21
450.0
 31
0.0
  0
ARC
  5
15B4C
330
157DF
100
AcDbEntity
  8
1
  6
Continuous
100
AcDbCircle
 10
540.914214
 20
452.0
 30
0.0
 40
1.0
100
AcDbArc
 50
225.0
 51
270.0
  0
LINE
  5
15B4D
330
157DF
100
AcDbEntity
  8
1
  6
Continuous
100
AcDbLine
 10
540.0
 20
448.0
 30
0.0
 11
540.0
 21
451.0
 31
0.0
  0
LINE
  5
15B4E
330
157DF
100
AcDbEntity
  8
1
  6
Continuous
100
AcDbLine
 10
556.0201059999999
 20
448.5
 30
0.0
 11
552.0
 21
448.5
 31
0.0
  0
ARC
  5
15B4F
330
157DF
100
AcDbEntity
  8
1
  6
Continuous
100
AcDbCircle
 10
551.0857859999998
 20
452.0
 30
0.0
 40
1.0
100
AcDbArc
 50
270.0
 51
315.0
  0
LINE
  5
15B50
330
157DF
100
AcDbEntity
  8
1
  6
Continuous
100
AcDbLine
 10
551.7928929999999
 20
451.292893
 30
0.0
 11
552.5
 21
452.0
 31
0.0
  0
LINE
  5
15B51
330
157DF
100
AcDbEntity
  8
1
  6
Continuous
100
AcDbLine
 10
552.0
 20
448.0
 30
0.0
 11
552.0
 21
451.0
 31
0.0
  0
LINE
  5
15B52
330
157DF
100
AcDbEntity
  8
1
  6
Continuous
100
AcDbLine
 10
552.78233
 20
448.5
 30
0.0
 11
552.78233
 21
448.0
 31
0.0
  0
LINE
  5
15B53
330
157DF
100
AcDbEntity
  8
4
  6
CENTER
100
AcDbLine
 10
560.0
 20
456.5
 30
0.0
 11
560.0
 21
450.0
 31
0.0
  0
LINE
  5
15B54
330
157DF
100
AcDbEntity
  8
1
  6
Continuous
100
AcDbLine
 10
556.0201059999999
 20
448.5
 30
0.0
 11
556.0201059999999
 21
448.0
 31
0.0
  0
LINE
  5
15B55
330
157DF
100
AcDbEntity
  8
3
  6
DASHED
100
AcDbLine
 10
579.4999999999999
 20
449.0
 30
0.0
 11
630.0
 21
449.0
 31
0.0
  0
LINE
  5
15B56
330
157DF
100
AcDbEntity
  8
4
  6
CENTER
100
AcDbLine
 10
585.0
 20
456.5
 30
0.0
 11
585.0
 21
450.0
 31
0.0
  0
LINE
  5
15B57
330
157DF
100
AcDbEntity
  8
4
  6
CENTER
100
AcDbLine
 10
595.0
 20
456.5
 30
0.0
 11
595.0
 21
450.0
 31
0.0
  0
LINE
  5
15B58
330
157DF
100
AcDbEntity
  8
3
  6
DASHED
100
AcDbLine
 10
653.5
 20
450.4999999999998
 30
0.0
 11
653.5
 21
444.0
 31
0.0
  0
LINE
  5
15B59
330
157DF
100
AcDbEntity
  8
3
  6
DASHED
100
AcDbLine
 10
655.0
 20
450.4999999999998
 30
0.0
 11
655.0
 21
444.0
 31
0.0
  0
LINE
  5
15B5A
330
157DF
100
AcDbEntity
  8
1
  6
Continuous
100
AcDbLine
 10
635.0
 20
444.0
 30
0.0
 11
635.0
 21
443.5
 31
0.0
  0
LINE
  5
15B5B
330
157DF
100
AcDbEntity
  8
1
  6
Continuous
100
AcDbLine
 10
647.0
 20
444.0
 30
0.0
 11
647.0
 21
443.5
 31
0.0
  0
LINE
  5
15B5C
330
157DF
100
AcDbEntity
  8
4
  6
CENTER
100
AcDbLine
 10
641.0
 20
457.6235419999998
 30
0.0
 11
641.0
 21
437.1560739999998
 31
0.0
  0
LINE
  5
15B5D
330
157DF
100
AcDbEntity
  8
1
  6
Continuous
100
AcDbLine
 10
647.0
 20
443.5
 30
0.0
 11
635.0
 21
443.5
 31
0.0
  0
LINE
  5
15B5E
330
157DF
100
AcDbEntity
  8
1
  6
Continuous
100
AcDbLine
 10
635.207107
 20
443.207107
 30
0.0
 11
634.4999999999997
 21
442.4999999999998
 31
0.0
  0
ARC
  5
15B5F
330
157DF
100
AcDbEntity
  8
1
  6
Continuous
100
AcDbCircle
 10
635.914214
 20
442.4999999999998
 30
0.0
 40
1.0
100
AcDbArc
 50
90.0
 51
135.0
  0
LINE
  5
15B60
330
157DF
100
AcDbEntity
  8
1
  6
Continuous
100
AcDbLine
 10
646.7928929999999
 20
443.207107
 30
0.0
 11
647.5
 21
442.4999999999998
 31
0.0
  0
ARC
  5
15B61
330
157DF
100
AcDbEntity
  8
1
  6
Continuous
100
AcDbCircle
 10
646.0857859999999
 20
442.4999999999998
 30
0.0
 40
1.0
100
AcDbArc
 50
45.0
 51
90.0
  0
ARC
  5
15B62
330
157DF
100
AcDbEntity
  8
1
  6
Continuous
100
AcDbCircle
 10
653.5
 20
442.4999999999998
 30
0.0
 40
1.5
100
AcDbArc
 50
270.0
 51
0.0
  0
LINE
  5
15B63
330
157DF
100
AcDbEntity
  8
1
  6
Continuous
100
AcDbLine
 10
653.5
 20
444.0
 30
0.0
 11
653.5
 21
442.4999999999998
 31
0.0
  0
LINE
  5
15B64
330
157DF
100
AcDbEntity
  8
1
  6
Continuous
100
AcDbLine
 10
655.0
 20
444.0
 30
0.0
 11
655.0
 21
442.4999999999998
 31
0.0
  0
LINE
  5
15B65
330
157DF
100
AcDbEntity
  8
3
  6
DASHED
100
AcDbLine
 10
647.0
 20
445.0
 30
0.0
 11
635.0
 21
445.0
 31
0.0
  0
LINE
  5
15B66
330
157DF
100
AcDbEntity
  8
3
  6
DASHED
100
AcDbLine
 10
635.0
 20
446.4999999999998
 30
0.0
 11
635.0
 21
444.0
 31
0.0
  0
LINE
  5
15B67
330
157DF
100
AcDbEntity
  8
3
  6
DASHED
100
AcDbLine
 10
647.0
 20
446.4999999999998
 30
0.0
 11
647.0
 21
444.0
 31
0.0
  0
LINE
  5
15B68
330
157DF
100
AcDbEntity
  8
3
  6
DASHED
100
AcDbLine
 10
655.0
 20
450.4999999999998
 30
0.0
 11
653.5
 21
450.4999999999998
 31
0.0
  0
LINE
  5
15B69
330
157DF
100
AcDbEntity
  8
3
  6
DASHED
100
AcDbLine
 10
652.0
 20
446.4999999999998
 30
0.0
 11
652.0
 21
451.4999999999998
 31
0.0
  0
LINE
  5
15B6A
330
157DF
100
AcDbEntity
  8
4
  6
CENTER
100
AcDbLine
 10
704.0
 20
456.5
 30
0.0
 11
704.0
 21
450.0
 31
0.0
  0
LINE
  5
15B6B
330
157DF
100
AcDbEntity
  8
1
  6
Continuous
100
AcDbLine
 10
1032.0
 20
452.0
 30
0.0
 11
1032.0
 21
445.5
 31
0.0
  0
LINE
  5
15B6C
330
157DF
100
AcDbEntity
  8
1
  6
Continuous
100
AcDbLine
 10
1075.0
 20
453.5
 30
0.0
 11
1075.0
 21
444.0
 31
0.0
  0
LINE
  5
15B6D
330
157DF
100
AcDbEntity
  8
4
  6
CENTER
100
AcDbLine
 10
1050.0
 20
456.5
 30
0.0
 11
1050.0
 21
450.0
 31
0.0
  0
LINE
  5
15B6E
330
157DF
100
AcDbEntity
  8
1
  6
Continuous
100
AcDbLine
 10
1060.0
 20
448.4392169999998
 30
0.0
 11
1060.0
 21
444.80161
 31
0.0
  0
LINE
  5
15B6F
330
157DF
100
AcDbEntity
  8
4
  6
CENTER
100
AcDbLine
 10
1060.0
 20
456.5
 30
0.0
 11
1060.0
 21
450.0
 31
0.0
  0
ARC
  5
15B70
330
157DF
100
AcDbEntity
  8
1
  6
Continuous
100
AcDbCircle
 10
653.0
 20
145.5
 30
0.0
 40
2.0
100
AcDbArc
 50
0.0
 51
90.0
  0
ARC
  5
15B71
330
157DF
100
AcDbEntity
  8
1
  6
Continuous
100
AcDbCircle
 10
647.7639319999998
 20
125.5
 30
0.0
 40
2.0
100
AcDbArc
 50
270.0
 51
333.434949
  0
ARC
  5
15B72
330
157DF
100
AcDbEntity
  8
1
  6
Continuous
100
AcDbCircle
 10
531.0
 20
149.0
 30
0.0
 40
2.0
100
AcDbArc
 50
90.0
 51
180.0
  0
ARC
  5
15B73
330
157DF
100
AcDbEntity
  8
1
  6
Continuous
100
AcDbCircle
 10
532.5
 20
549.0
 30
0.0
 40
2.0
100
AcDbArc
 50
90.0
 51
180.0
  0
ARC
  5
15B74
330
157DF
100
AcDbEntity
  8
1
  6
Continuous
100
AcDbCircle
 10
532.5
 20
705.4999999999997
 30
0.0
 40
2.0
100
AcDbArc
 50
180.0
 51
270.0
  0
LINE
  5
15B75
330
157DF
100
AcDbEntity
  8
1
  6
Continuous
100
AcDbLine
 10
1032.066831
 20
126.5
 30
0.0
 11
650.4999999999999
 21
126.5
 31
0.0
  0
LINE
  5
15B76
330
157DF
100
AcDbEntity
  8
1
  6
Continuous
100
AcDbLine
 10
1060.066831
 20
124.0
 30
0.0
 11
1032.066831
 21
126.5
 31
0.0
  0
LINE
  5
15B77
330
157DF
100
AcDbEntity
  8
1
  6
Continuous
100
AcDbLine
 10
1075.0
 20
124.0
 30
0.0
 11
1060.066831
 21
124.0
 31
0.0
  0
ARC
  5
15B78
330
157DF
100
AcDbEntity
  8
3
  6
DASHED
100
AcDbCircle
 10
531.0
 20
127.0
 30
0.0
 40
2.0
100
AcDbArc
 50
180.0
 51
270.0
  0
LINE
  5
15B79
330
157DF
100
AcDbEntity
  8
1
  6
Continuous
100
AcDbLine
 10
109.0
 20
306.0
 30
0.0
 11
126.9354649999998
 21
306.0
 31
0.0
  0
LINE
  5
15B7A
330
157DF
100
AcDbEntity
  8
1
  6
Continuous
100
AcDbLine
 10
155.9354649999999
 20
308.4999999999999
 30
0.0
 11
126.9354649999998
 21
306.0
 31
0.0
  0
LINE
  5
15B7B
330
157DF
100
AcDbEntity
  8
1
  6
Continuous
100
AcDbLine
 10
529.0
 20
308.4999999999999
 30
0.0
 11
155.9354649999999
 21
308.4999999999999
 31
0.0
  0
LINE
  5
15B7C
330
157DF
100
AcDbEntity
  8
3
  6
DASHED
100
AcDbLine
 10
549.5445539999998
 20
308.4999999999999
 30
0.0
 11
529.0
 21
308.4999999999999
 31
0.0
  0
LINE
  5
15B7D
330
157DF
100
AcDbEntity
  8
3
  6
DASHED
100
AcDbLine
 10
553.46983
 20
308.4999999999999
 30
0.0
 11
552.0948299999998
 21
308.4999999999999
 31
0.0
  0
ARC
  5
15B7E
330
157DF
100
AcDbEntity
  8
1
  6
Continuous
100
AcDbCircle
 10
531.0
 20
305.5
 30
0.0
 40
2.0
100
AcDbArc
 50
180.0
 51
270.0
  0
ARC
  5
15B7F
330
157DF
100
AcDbEntity
  8
1
  6
Continuous
100
AcDbCircle
 10
531.0
 20
327.4999999999999
 30
0.0
 40
2.0
100
AcDbArc
 50
90.0
 51
180.0
  0
LINE
  5
15B80
330
157DF
100
AcDbEntity
  8
1
  6
Continuous
100
AcDbLine
 10
649.5527860000001
 20
329.894427
 30
0.0
 11
649.75
 21
329.4999999999999
 31
0.0
  0
ARC
  5
15B81
330
157DF
100
AcDbEntity
  8
1
  6
Continuous
100
AcDbCircle
 10
647.7639319999998
 20
329.0
 30
0.0
 40
2.0
100
AcDbArc
 50
26.565051
 51
90.0
  0
LINE
  5
15B82
330
157DF
100
AcDbEntity
  8
3
  6
DASHED
100
AcDbLine
 10
655.0
 20
319.0
 30
0.0
 11
655.0
 21
309.0
 31
0.0
  0
ARC
  5
15B83
330
157DF
100
AcDbEntity
  8
3
  6
DASHED
100
AcDbCircle
 10
653.0
 20
309.0
 30
0.0
 40
2.0
100
AcDbArc
 50
270.0
 51
0.0
  0
ARC
  5
15B84
330
157DF
100
AcDbEntity
  8
1
  6
Continuous
100
AcDbCircle
 10
581.5
 20
47.0
 30
0.0
 40
2.0
100
AcDbArc
 50
90.0
 51
180.0
  0
ARC
  5
15B85
330
157DF
100
AcDbEntity
  8
3
  6
DASHED
100
AcDbCircle
 10
628.0
 20
47.5
 30
0.0
 40
2.0
100
AcDbArc
 50
270.0
 51
0.0
  0
LINE
  5
15B86
330
157DF
100
AcDbEntity
  8
1
  6
Continuous
100
AcDbLine
 10
33.0
 20
122.5
 30
0.0
 11
33.0
 21
124.0
 31
0.0
  0
LINE
  5
15B87
330
157DF
100
AcDbEntity
  8
1
  6
Continuous
100
AcDbLine
 10
26.5
 20
122.5
 30
0.0
 11
33.0
 21
122.5
 31
0.0
  0
LINE
  5
15B88
330
157DF
100
AcDbEntity
  8
1
  6
Continuous
100
AcDbLine
 10
26.5
 20
126.5
 30
0.0
 11
30.5
 21
126.5
 31
0.0
  0
LINE
  5
15B89
330
157DF
100
AcDbEntity
  8
1
  6
Continuous
100
AcDbLine
 10
35.5
 20
124.0
 30
0.0
 11
30.5
 21
124.0
 31
0.0
  0
LINE
  5
15B8A
330
157DF
100
AcDbEntity
  8
1
  6
Continuous
100
AcDbLine
 10
35.5
 20
124.0
 30
0.0
 11
35.5
 21
146.0
 31
0.0
  0
LINE
  5
15B8B
330
157DF
100
AcDbEntity
  8
1
  6
Continuous
100
AcDbLine
 10
30.5
 20
124.0
 30
0.0
 11
30.5
 21
146.0
 31
0.0
  0
LINE
  5
15B8C
330
157DF
100
AcDbEntity
  8
1
  6
Continuous
100
AcDbLine
 10
29.0
 20
129.0
 30
0.0
 11
29.0
 21
141.0
 31
0.0
  0
LINE
  5
15B8D
330
157DF
100
AcDbEntity
  8
1
  6
Continuous
100
AcDbLine
 10
27.5
 20
129.0
 30
0.0
 11
27.5
 21
141.0
 31
0.0
  0
LINE
  5
15B8E
330
157DF
100
AcDbEntity
  8
1
  6
Continuous
100
AcDbLine
 10
30.5
 20
141.0
 30
0.0
 11
27.5
 21
141.0
 31
0.0
  0
ARC
  5
15B8F
330
157DF
100
AcDbEntity
  8
1
  6
Continuous
100
AcDbCircle
 10
26.5
 20
140.085786
 30
0.0
 40
1.0
100
AcDbArc
 50
0.0
 51
45.0
  0
LINE
  5
15B90
330
157DF
100
AcDbEntity
  8
1
  6
Continuous
100
AcDbLine
 10
27.207107
 20
140.7928929999999
 30
0.0
 11
26.5
 21
141.5
 31
0.0
  0
LINE
  5
15B91
330
157DF
100
AcDbEntity
  8
1
  6
Continuous
100
AcDbLine
 10
30.5
 20
129.0
 30
0.0
 11
27.5
 21
129.0
 31
0.0
  0
LINE
  5
15B92
330
157DF
100
AcDbEntity
  8
1
  6
Continuous
100
AcDbLine
 10
27.207107
 20
129.207107
 30
0.0
 11
26.5
 21
128.4999999999998
 31
0.0
  0
ARC
  5
15B93
330
157DF
100
AcDbEntity
  8
1
  6
Continuous
100
AcDbCircle
 10
26.5
 20
129.9142139999998
 30
0.0
 40
1.0
100
AcDbArc
 50
315.0
 51
0.0
  0
LINE
  5
15B94
330
157DF
100
AcDbEntity
  8
1
  6
Continuous
100
AcDbLine
 10
27.0
 20
141.0
 30
0.0
 11
27.0
 21
148.5
 31
0.0
  0
LINE
  5
15B95
330
157DF
100
AcDbEntity
  8
1
  6
Continuous
100
AcDbLine
 10
1149.5
 20
122.5
 30
0.0
 11
1149.5
 21
126.5
 31
0.0
  0
LINE
  5
15B96
330
157DF
100
AcDbEntity
  8
1
  6
Continuous
100
AcDbLine
 10
1156.0
 20
124.0
 30
0.0
 11
1156.0
 21
149.5
 31
0.0
  0
ARC
  5
15B97
330
157DF
100
AcDbEntity
  8
1
  6
Continuous
100
AcDbCircle
 10
1156.0
 20
124.0
 30
0.0
 40
1.5
100
AcDbArc
 50
270.0
 51
0.0
  0
LINE
  5
15B98
330
157DF
100
AcDbEntity
  8
1
  6
Continuous
100
AcDbLine
 10
1156.0
 20
122.5
 30
0.0
 11
1149.5
 21
122.5
 31
0.0
  0
LINE
  5
15B99
330
157DF
100
AcDbEntity
  8
4
  6
CENTER
100
AcDbLine
 10
1143.446672
 20
135.0
 30
0.0
 11
1162.5
 21
135.0
 31
0.0
  0
LINE
  5
15B9A
330
157DF
100
AcDbEntity
  8
1
  6
Continuous
100
AcDbLine
 10
1153.0
 20
148.5
 30
0.0
 11
1153.0
 21
150.0
 31
0.0
  0
LINE
  5
15B9B
330
157DF
100
AcDbEntity
  8
1
  6
Continuous
100
AcDbLine
 10
1147.0
 20
124.0
 30
0.0
 11
1152.0
 21
124.0
 31
0.0
  0
LINE
  5
15B9C
330
157DF
100
AcDbEntity
  8
1
  6
Continuous
100
AcDbLine
 10
1153.0
 20
149.5
 30
0.0
 11
1156.0
 21
149.5
 31
0.0
  0
LINE
  5
15B9D
330
157DF
100
AcDbEntity
  8
1
  6
Continuous
100
AcDbLine
 10
1157.5
 20
124.0
 30
0.0
 11
1157.5
 21
151.0
 31
0.0
  0
LINE
  5
15B9E
330
157DF
100
AcDbEntity
  8
1
  6
Continuous
100
AcDbLine
 10
1146.5
 20
123.5
 30
0.0
 11
1146.5
 21
147.5
 31
0.0
  0
LINE
  5
15B9F
330
157DF
100
AcDbEntity
  8
1
  6
Continuous
100
AcDbLine
 10
1145.0
 20
123.5
 30
0.0
 11
1145.0
 21
148.5
 31
0.0
  0
LINE
  5
15BA0
330
157DF
100
AcDbEntity
  8
1
  6
Continuous
100
AcDbLine
 10
1145.0
 20
123.5
 30
0.0
 11
1146.5
 21
123.5
 31
0.0
  0
LINE
  5
15BA1
330
157DF
100
AcDbEntity
  8
1
  6
Continuous
100
AcDbLine
 10
1146.5
 20
146.0
 30
0.0
 11
1150.5
 21
146.0
 31
0.0
  0
LINE
  5
15BA2
330
157DF
100
AcDbEntity
  8
1
  6
Continuous
100
AcDbLine
 10
1153.0
 20
150.0
 30
0.0
 11
1146.5
 21
150.0
 31
0.0
  0
LINE
  5
15BA3
330
157DF
100
AcDbEntity
  8
1
  6
Continuous
100
AcDbLine
 10
1149.5
 20
151.0
 30
0.0
 11
1157.5
 21
151.0
 31
0.0
  0
ARC
  5
15BA4
330
157DF
100
AcDbEntity
  8
1
  6
Continuous
100
AcDbCircle
 10
1146.5
 20
148.5
 30
0.0
 40
1.5
100
AcDbArc
 50
90.0
 51
180.0
  0
LINE
  5
15BA5
330
157DF
100
AcDbEntity
  8
1
  6
Continuous
100
AcDbLine
 10
1149.5
 20
150.0
 30
0.0
 11
1149.5
 21
151.0
 31
0.0
  0
LINE
  5
15BA6
330
157DF
100
AcDbEntity
  8
4
  6
CENTER
100
AcDbLine
 10
1140.856378999998
 20
137.5
 30
0.0
 11
1158.650524
 21
137.5
 31
0.0
  0
LINE
  5
15BA7
330
157DF
100
AcDbEntity
  8
1
  6
Continuous
100
AcDbLine
 10
1156.0
 20
124.0
 30
0.0
 11
1149.5
 21
124.0
 31
0.0
  0
ARC
  5
15BA8
330
157DF
100
AcDbEntity
  8
1
  6
Continuous
100
AcDbCircle
 10
1156.0
 20
149.5
 30
0.0
 40
1.5
100
AcDbArc
 50
0.0
 51
90.0
  0
LINE
  5
15BA9
330
157DF
100
AcDbEntity
  8
1
  6
Continuous
100
AcDbLine
 10
1145.0
 20
147.5
 30
0.0
 11
1150.5
 21
147.5
 31
0.0
  0
LINE
  5
15BAA
330
157DF
100
AcDbEntity
  8
1
  6
Continuous
100
AcDbLine
 10
1149.0
 20
143.5
 30
0.0
 11
1149.0
 21
131.4999999999998
 31
0.0
  0
ARC
  5
15BAB
330
157DF
100
AcDbEntity
  8
1
  6
Continuous
100
AcDbCircle
 10
1146.5
 20
142.585786
 30
0.0
 40
1.0
100
AcDbArc
 50
0.0
 51
45.0
  0
LINE
  5
15BAC
330
157DF
100
AcDbEntity
  8
1
  6
Continuous
100
AcDbLine
 10
1147.207107
 20
143.2928929999999
 30
0.0
 11
1146.5
 21
144.0
 31
0.0
  0
LINE
  5
15BAD
330
157DF
100
AcDbEntity
  8
1
  6
Continuous
100
AcDbLine
 10
1147.207107
 20
131.707107
 30
0.0
 11
1146.5
 21
131.0
 31
0.0
  0
ARC
  5
15BAE
330
157DF
100
AcDbEntity
  8
1
  6
Continuous
100
AcDbCircle
 10
1146.5
 20
132.4142139999999
 30
0.0
 40
1.0
100
AcDbArc
 50
315.0
 51
0.0
  0
LINE
  5
15BAF
330
157DF
100
AcDbEntity
  8
1
  6
Continuous
100
AcDbLine
 10
1147.499999999999
 20
143.5
 30
0.0
 11
1147.499999999999
 21
131.4999999999998
 31
0.0
  0
LINE
  5
15BB0
330
157DF
100
AcDbEntity
  8
1
  6
Continuous
100
AcDbLine
 10
1150.5
 20
143.5
 30
0.0
 11
1147.499999999999
 21
143.5
 31
0.0
  0
LINE
  5
15BB1
330
157DF
100
AcDbEntity
  8
1
  6
Continuous
100
AcDbLine
 10
1150.5
 20
131.4999999999998
 30
0.0
 11
1147.499999999999
 21
131.4999999999998
 31
0.0
  0
LINE
  5
15BB2
330
157DF
100
AcDbEntity
  8
1
  6
Continuous
100
AcDbLine
 10
1150.5
 20
148.5
 30
0.0
 11
1150.5
 21
126.5
 31
0.0
  0
LINE
  5
15BB3
330
157DF
100
AcDbEntity
  8
1
  6
Continuous
100
AcDbLine
 10
1155.499999999999
 20
148.5
 30
0.0
 11
1150.5
 21
148.5
 31
0.0
  0
LINE
  5
15BB4
330
157DF
100
AcDbEntity
  8
1
  6
Continuous
100
AcDbLine
 10
1155.499999999999
 20
148.5
 30
0.0
 11
1155.499999999999
 21
146.202494
 31
0.0
  0
LINE
  5
15BB5
330
157DF
100
AcDbEntity
  8
1
  6
Continuous
100
AcDbLine
 10
1156.0
 20
126.5
 30
0.0
 11
1149.5
 21
126.5
 31
0.0
  0
LINE
  5
15BB6
330
157DF
100
AcDbEntity
  8
1
  6
Continuous
100
AcDbLine
 10
1156.0
 20
146.202494
 30
0.0
 11
1150.5
 21
146.202494
 31
0.0
  0
LINE
  5
15BB7
330
157DF
100
AcDbEntity
  8
1
  6
Continuous
100
AcDbLine
 10
1156.0
 20
140.54564
 30
0.0
 11
1150.5
 21
140.54564
 31
0.0
  0
LINE
  5
15BB8
330
157DF
100
AcDbEntity
  8
1
  6
Continuous
100
AcDbLine
 10
1156.0
 20
139.8801629999999
 30
0.0
 11
1150.5
 21
139.8801629999999
 31
0.0
  0
LINE
  5
15BB9
330
157DF
100
AcDbEntity
  8
1
  6
Continuous
100
AcDbLine
 10
1155.499999999999
 20
139.8801629999999
 30
0.0
 11
1155.499999999999
 21
126.5
 31
0.0
  0
LINE
  5
15BBA
330
157DF
100
AcDbEntity
  8
1
  6
Continuous
100
AcDbLine
 10
1156.0
 20
135.0
 30
0.0
 11
1157.5
 21
135.0
 31
0.0
  0
LINE
  5
15BBB
330
157DF
100
AcDbEntity
  8
1
  6
Continuous
100
AcDbLine
 10
1157.5
 20
128.4999999999998
 30
0.0
 11
1156.0
 21
128.4999999999998
 31
0.0
  0
LINE
  5
15BBC
330
157DF
100
AcDbEntity
  8
1
  6
Continuous
100
AcDbLine
 10
1147.0
 20
143.5
 30
0.0
 11
1147.0
 21
146.0
 31
0.0
  0
LINE
  5
15BBD
330
157DF
100
AcDbEntity
  8
1
  6
Continuous
100
AcDbLine
 10
1147.0
 20
124.0
 30
0.0
 11
1147.0
 21
131.4999999999998
 31
0.0
  0
LINE
  5
15BBE
330
157DF
100
AcDbEntity
  8
1
  6
Continuous
100
AcDbLine
 10
1070.0
 20
522.5
 30
0.0
 11
1070.0
 21
525.4999999999999
 31
0.0
  0
LINE
  5
15BBF
330
157DF
100
AcDbEntity
  8
1
  6
Continuous
100
AcDbLine
 10
1043.5
 20
523.973214
 30
0.0
 11
1043.5
 21
525.4999999999999
 31
0.0
  0
LINE
  5
15BC0
330
157DF
100
AcDbEntity
  8
1
  6
Continuous
100
AcDbLine
 10
1070.0
 20
524.0
 30
0.0
 11
1060.0
 21
524.0
 31
0.0
  0
LINE
  5
15BC1
330
157DF
100
AcDbEntity
  8
1
  6
Continuous
100
AcDbLine
 10
1060.133398
 20
523.9940569999999
 30
0.0
 11
1043.5
 21
525.4791809999998
 31
0.0
  0
LINE
  5
15BC2
330
157DF
100
AcDbEntity
  8
1
  6
Continuous
100
AcDbLine
 10
1068.5
 20
527.0
 30
0.0
 11
1045.0
 21
527.0
 31
0.0
  0
ARC
  5
15BC3
330
157DF
100
AcDbEntity
  8
1
  6
Continuous
100
AcDbCircle
 10
1068.5
 20
525.4999999999999
 30
0.0
 40
1.5
100
AcDbArc
 50
0.0
 51
90.0
  0
ARC
  5
15BC4
330
157DF
100
AcDbEntity
  8
1
  6
Continuous
100
AcDbCircle
 10
1045.0
 20
525.4999999999999
 30
0.0
 40
1.5
100
AcDbArc
 50
90.0
 51
180.0
  0
LINE
  5
15BC5
330
157DF
100
AcDbEntity
  8
1
  6
Continuous
100
AcDbLine
 10
1043.5
 20
450.4999999999998
 30
0.0
 11
1043.5
 21
453.5
 31
0.0
  0
LINE
  5
15BC6
330
157DF
100
AcDbEntity
  8
1
  6
Continuous
100
AcDbLine
 10
1070.0
 20
450.4999999999998
 30
0.0
 11
1070.0
 21
453.5
 31
0.0
  0
LINE
  5
15BC7
330
157DF
100
AcDbEntity
  8
1
  6
Continuous
100
AcDbLine
 10
1070.0
 20
452.0
 30
0.0
 11
1043.5
 21
452.0
 31
0.0
  0
LINE
  5
15BC8
330
157DF
100
AcDbEntity
  8
1
  6
Continuous
100
AcDbLine
 10
1068.5
 20
449.0
 30
0.0
 11
1045.0
 21
449.0
 31
0.0
  0
ARC
  5
15BC9
330
157DF
100
AcDbEntity
  8
1
  6
Continuous
100
AcDbCircle
 10
1068.5
 20
450.4999999999998
 30
0.0
 40
1.5
100
AcDbArc
 50
270.0
 51
0.0
  0
ARC
  5
15BCA
330
157DF
100
AcDbEntity
  8
1
  6
Continuous
100
AcDbCircle
 10
1045.0
 20
450.4999999999998
 30
0.0
 40
1.5
100
AcDbArc
 50
180.0
 51
270.0
  0
LINE
  5
15BCB
330
157DF
100
AcDbEntity
  8
1
  6
Continuous
100
AcDbLine
 10
1060.133398
 20
330.505943
 30
0.0
 11
1043.5
 21
329.020819
 31
0.0
  0
LINE
  5
15BCC
330
157DF
100
AcDbEntity
  8
1
  6
Continuous
100
AcDbLine
 10
1068.5
 20
327.4999999999999
 30
0.0
 11
1045.0
 21
327.4999999999999
 31
0.0
  0
LINE
  5
15BCD
330
157DF
100
AcDbEntity
  8
1
  6
Continuous
100
AcDbLine
 10
1043.5
 20
330.5267859999998
 30
0.0
 11
1043.5
 21
329.0
 31
0.0
  0
ARC
  5
15BCE
330
157DF
100
AcDbEntity
  8
1
  6
Continuous
100
AcDbCircle
 10
1045.0
 20
329.0
 30
0.0
 40
1.5
100
AcDbArc
 50
180.0
 51
270.0
  0
LINE
  5
15BCF
330
157DF
100
AcDbEntity
  8
1
  6
Continuous
100
AcDbLine
 10
1070.0
 20
332.0
 30
0.0
 11
1070.0
 21
329.0
 31
0.0
  0
LINE
  5
15BD0
330
157DF
100
AcDbEntity
  8
1
  6
Continuous
100
AcDbLine
 10
1070.0
 20
330.5
 30
0.0
 11
1060.0
 21
330.5
 31
0.0
  0
ARC
  5
15BD1
330
157DF
100
AcDbEntity
  8
1
  6
Continuous
100
AcDbCircle
 10
1068.5
 20
329.0
 30
0.0
 40
1.5
100
AcDbArc
 50
270.0
 51
0.0
  0
LINE
  5
15BD2
330
157DF
100
AcDbEntity
  8
1
  6
Continuous
100
AcDbLine
 10
1068.5
 20
127.0
 30
0.0
 11
1045.0
 21
127.0
 31
0.0
  0
ARC
  5
15BD3
330
157DF
100
AcDbEntity
  8
1
  6
Continuous
100
AcDbCircle
 10
1045.0
 20
125.5
 30
0.0
 40
1.5
100
AcDbArc
 50
90.0
 51
180.0
  0
LINE
  5
15BD4
330
157DF
100
AcDbEntity
  8
1
  6
Continuous
100
AcDbLine
 10
1043.5
 20
125.479181
 30
0.0
 11
1043.5
 21
125.5
 31
0.0
  0
ARC
  5
15BD5
330
157DF
100
AcDbEntity
  8
1
  6
Continuous
100
AcDbCircle
 10
1068.5
 20
125.5
 30
0.0
 40
1.5
100
AcDbArc
 50
0.0
 51
90.0
  0
LINE
  5
15BD6
330
157DF
100
AcDbEntity
  8
1
  6
Continuous
100
AcDbLine
 10
1070.0
 20
124.0
 30
0.0
 11
1070.0
 21
125.5
 31
0.0
  0
LINE
  5
15BD7
330
157DF
100
AcDbEntity
  8
1
  6
Continuous
100
AcDbLine
 10
1070.0
 20
42.5
 30
0.0
 11
1043.5
 21
42.5
 31
0.0
  0
LINE
  5
15BD8
330
157DF
100
AcDbEntity
  8
1
  6
Continuous
100
AcDbLine
 10
1068.5
 20
45.49999999999999
 30
0.0
 11
1045.0
 21
45.49999999999999
 31
0.0
  0
LINE
  5
15BD9
330
157DF
100
AcDbEntity
  8
1
  6
Continuous
100
AcDbLine
 10
1043.5
 20
44.0
 30
0.0
 11
1043.5
 21
41.0
 31
0.0
  0
ARC
  5
15BDA
330
157DF
100
AcDbEntity
  8
1
  6
Continuous
100
AcDbCircle
 10
1045.0
 20
44.0
 30
0.0
 40
1.5
100
AcDbArc
 50
90.0
 51
180.0
  0
LINE
  5
15BDB
330
157DF
100
AcDbEntity
  8
1
  6
Continuous
100
AcDbLine
 10
1070.0
 20
44.0
 30
0.0
 11
1070.0
 21
41.0
 31
0.0
  0
ARC
  5
15BDC
330
157DF
100
AcDbEntity
  8
1
  6
Continuous
100
AcDbCircle
 10
1068.5
 20
44.0
 30
0.0
 40
1.5
100
AcDbArc
 50
0.0
 51
90.0
  0
ARC
  5
15BDD
330
157DF
100
AcDbEntity
  8
1
  6
Continuous
100
AcDbCircle
 10
1073.499999999999
 20
47.5
 30
0.0
 40
1.5
100
AcDbArc
 50
0.0
 51
90.0
  0
LINE
  5
15BDE
330
157DF
100
AcDbEntity
  8
1
  6
Continuous
100
AcDbLine
 10
142.0
 20
308.0
 30
0.0
 11
115.5
 21
308.0
 31
0.0
  0
LINE
  5
15BDF
330
157DF
100
AcDbEntity
  8
1
  6
Continuous
100
AcDbLine
 10
114.0
 20
306.0
 30
0.0
 11
114.0
 21
306.4999999999999
 31
0.0
  0
ARC
  5
15BE0
330
157DF
100
AcDbEntity
  8
1
  6
Continuous
100
AcDbCircle
 10
115.5
 20
306.4999999999999
 30
0.0
 40
1.5
100
AcDbArc
 50
90.0
 51
180.0
  0
ARC
  5
15BE1
330
157DF
100
AcDbEntity
  8
1
  6
Continuous
100
AcDbCircle
 10
142.0
 20
306.4999999999999
 30
0.0
 40
1.5
100
AcDbArc
 50
36.964804
 51
90.0
  0
LINE
  5
15BE2
330
157DF
100
AcDbEntity
  8
5
  6
PHANTOM
100
AcDbLine
 10
1067.627489
 20
521.0
 30
0.0
 11
531.0
 21
521.0
 31
0.0
  0
LINE
  5
15BE3
330
157DF
100
AcDbEntity
  8
5
  6
PHANTOM
100
AcDbLine
 10
1048.499999999999
 20
540.0
 30
0.0
 11
575.784882
 21
540.0
 31
0.0
  0
LINE
  5
15BE4
330
157DF
100
AcDbEntity
  8
5
  6
PHANTOM
100
AcDbLine
 10
1050.0
 20
545.0
 30
0.0
 11
576.0
 21
545.0
 31
0.0
  0
ARC
  5
15BE5
330
157DF
100
AcDbEntity
  8
5
  6
PHANTOM
100
AcDbCircle
 10
555.0
 20
536.0
 30
0.0
 40
2.399999999999999
100
AcDbArc
 50
0.0
 51
180.0
  0
ARC
  5
15BE6
330
157DF
100
AcDbEntity
  8
5
  6
PHANTOM
100
AcDbCircle
 10
555.0
 20
534.0
 30
0.0
 40
2.399999999999999
100
AcDbArc
 50
180.0
 51
0.0
  0
ARC
  5
15BE7
330
157DF
100
AcDbEntity
  8
5
  6
PHANTOM
100
AcDbCircle
 10
555.0
 20
536.0
 30
0.0
 40
3.75
100
AcDbArc
 50
0.0
 51
180.0
  0
ARC
  5
15BE8
330
157DF
100
AcDbEntity
  8
5
  6
PHANTOM
100
AcDbCircle
 10
555.0
 20
534.0
 30
0.0
 40
3.75
100
AcDbArc
 50
180.0
 51
0.0
  0
LINE
  5
15BE9
330
157DF
100
AcDbEntity
  8
5
  6
PHANTOM
100
AcDbLine
 10
575.784882
 20
540.0
 30
0.0
 11
546.784882
 21
542.4999999999998
 31
0.0
  0
LINE
  5
15BEA
330
157DF
100
AcDbEntity
  8
5
  6
PHANTOM
100
AcDbLine
 10
576.0
 20
545.0
 30
0.0
 11
547.0
 21
547.5
 31
0.0
  0
ARC
  5
15BEB
330
157DF
100
AcDbEntity
  8
5
  6
PHANTOM
100
AcDbCircle
 10
531.0
 20
523.0
 30
0.0
 40
2.0
100
AcDbArc
 50
180.0
 51
270.0
  0
LINE
  5
15BEC
330
157DF
100
AcDbEntity
  8
5
  6
PHANTOM
100
AcDbLine
 10
530.067144
 20
541.1783709999999
 30
0.0
 11
537.5771409999998
 21
538.9149169999998
 31
0.0
  0
LINE
  5
15BED
330
157DF
100
AcDbEntity
  8
5
  6
PHANTOM
100
AcDbLine
 10
530.4999999999998
 20
535.0
 30
0.0
 11
537.0
 21
535.0
 31
0.0
  0
LINE
  5
15BEE
330
157DF
100
AcDbEntity
  8
5
  6
PHANTOM
100
AcDbLine
 10
529.0
 20
547.5
 30
0.0
 11
529.0
 21
542.6145589999999
 31
0.0
  0
ARC
  5
15BEF
330
157DF
100
AcDbEntity
  8
5
  6
PHANTOM
100
AcDbCircle
 10
530.4999999999998
 20
544.0
 30
0.0
 40
1.5
100
AcDbArc
 50
180.0
 51
270.0
  0
ARC
  5
15BF0
330
157DF
100
AcDbEntity
  8
5
  6
PHANTOM
100
AcDbCircle
 10
530.4999999999998
 20
542.6145589999999
 30
0.0
 40
1.5
100
AcDbArc
 50
180.0
 51
253.2276069999999
  0
ARC
  5
15BF1
330
157DF
100
AcDbEntity
  8
5
  6
PHANTOM
100
AcDbCircle
 10
530.4999999999998
 20
533.4999999999999
 30
0.0
 40
1.5
100
AcDbArc
 50
90.0
 51
180.0
  0
LINE
  5
15BF2
330
157DF
100
AcDbEntity
  8
5
  6
PHANTOM
100
AcDbLine
 10
529.0
 20
525.0
 30
0.0
 11
529.0
 21
523.0
 31
0.0
  0
LINE
  5
15BF3
330
157DF
100
AcDbEntity
  8
5
  6
PHANTOM
100
AcDbLine
 10
552.6
 20
534.0
 30
0.0
 11
552.6
 21
536.0
 31
0.0
  0
LINE
  5
15BF4
330
157DF
100
AcDbEntity
  8
5
  6
PHANTOM
100
AcDbLine
 10
551.25
 20
534.0
 30
0.0
 11
551.25
 21
536.0
 31
0.0
  0
CIRCLE
  5
15BF5
330
157DF
100
AcDbEntity
  8
5
  6
PHANTOM
100
AcDbCircle
 10
545.0
 20
535.0
 30
0.0
 40
2.399999999999999
  0
ARC
  5
15BF6
330
157DF
100
AcDbEntity
  8
5
  6
PHANTOM
100
AcDbCircle
 10
537.0
 20
537.0
 30
0.0
 40
2.0
100
AcDbArc
 50
270.0
 51
73.22760699999998
  0
LINE
  5
15BF7
330
157DF
100
AcDbEntity
  8
4
  6
CENTER
100
AcDbLine
 10
545.0
 20
529.25
 30
0.0
 11
545.0
 21
540.7499999999998
 31
0.0
  0
CIRCLE
  5
15BF8
330
157DF
100
AcDbEntity
  8
5
  6
PHANTOM
100
AcDbCircle
 10
545.0
 20
535.0
 30
0.0
 40
3.75
  0
LINE
  5
15BF9
330
157DF
100
AcDbEntity
  8
5
  6
PHANTOM
100
AcDbLine
 10
558.75
 20
534.0
 30
0.0
 11
558.75
 21
536.0
 31
0.0
  0
LINE
  5
15BFA
330
157DF
100
AcDbEntity
  8
5
  6
PHANTOM
100
AcDbLine
 10
557.3999999999998
 20
534.0
 30
0.0
 11
557.3999999999998
 21
536.0
 31
0.0
  0
LINE
  5
15BFB
330
157DF
100
AcDbEntity
  8
4
  6
CENTER
100
AcDbLine
 10
555.0
 20
528.2499999999998
 30
0.0
 11
555.0
 21
541.75
 31
0.0
  0
ARC
  5
15BFC
330
157DF
100
AcDbEntity
  8
5
  6
PHANTOM
100
AcDbCircle
 10
1071.5
 20
543.0
 30
0.0
 40
2.0
100
AcDbArc
 50
0.0
 51
90.0
  0
LINE
  5
15BFD
330
157DF
100
AcDbEntity
  8
5
  6
PHANTOM
100
AcDbLine
 10
1073.691288
 20
529.0
 30
0.0
 11
1072.083708999999
 21
529.0
 31
0.0
  0
LINE
  5
15BFE
330
157DF
100
AcDbEntity
  8
5
  6
PHANTOM
100
AcDbLine
 10
1073.335541
 20
525.296756
 30
0.0
 11
1071.06924
 21
526.3681839999998
 31
0.0
  0
LINE
  5
15BFF
330
157DF
100
AcDbEntity
  8
5
  6
PHANTOM
100
AcDbLine
 10
1072.083708999999
 20
529.0
 30
0.0
 11
1072.663501999999
 21
530.504144
 31
0.0
  0
LINE
  5
15C00
330
157DF
100
AcDbEntity
  8
4
  6
CENTER
100
AcDbLine
 10
1076.0
 20
535.0
 30
0.0
 11
1029.249999999999
 21
535.0
 31
0.0
  0
ARC
  5
15C01
330
157DF
100
AcDbEntity
  8
5
  6
PHANTOM
100
AcDbCircle
 10
1067.627489
 20
523.0
 30
0.0
 40
2.0
100
AcDbArc
 50
270.0
 51
338.920162
  0
LINE
  5
15C02
330
157DF
100
AcDbEntity
  8
4
  6
CENTER
100
AcDbLine
 10
1061.0
 20
520.0
 30
0.0
 11
1061.0
 21
550.0
 31
0.0
  0
ARC
  5
15C03
330
157DF
100
AcDbEntity
  8
5
  6
PHANTOM
100
AcDbCircle
 10
1048.499999999999
 20
541.5
 30
0.0
 40
1.5
100
AcDbArc
 50
270.0
 51
0.0
  0
LINE
  5
15C04
330
157DF
100
AcDbEntity
  8
5
  6
PHANTOM
100
AcDbLine
 10
1071.5
 20
545.0
 30
0.0
 11
1055.5
 21
545.0
 31
0.0
  0
LINE
  5
15C05
330
157DF
100
AcDbEntity
  8
5
  6
PHANTOM
100
AcDbLine
 10
1069.578194999998
 20
522.5
 30
0.0
 11
1072.083708999999
 21
529.0
 31
0.0
  0
LINE
  5
15C06
330
157DF
100
AcDbEntity
  8
5
  6
PHANTOM
100
AcDbLine
 10
1069.493648999999
 20
522.280663
 30
0.0
 11
1069.578194999998
 21
522.5
 31
0.0
  0
LINE
  5
15C07
330
157DF
100
AcDbEntity
  8
5
  6
PHANTOM
100
AcDbLine
 10
1050.0
 20
541.5
 30
0.0
 11
1050.0
 21
545.0
 31
0.0
  0
LINE
  5
15C08
330
157DF
100
AcDbEntity
  8
5
  6
PHANTOM
100
AcDbLine
 10
1051.5
 20
543.5
 30
0.0
 11
1050.5
 21
543.5
 31
0.0
  0
LINE
  5
15C09
330
157DF
100
AcDbEntity
  8
5
  6
PHANTOM
100
AcDbLine
 10
1051.5
 20
543.5
 30
0.0
 11
1055.5
 21
545.0
 31
0.0
  0
LINE
  5
15C0A
330
157DF
100
AcDbEntity
  8
5
  6
PHANTOM
100
AcDbLine
 10
1075.0
 20
535.0
 30
0.0
 11
1075.0
 21
536.5
 31
0.0
  0
ARC
  5
15C0B
330
157DF
100
AcDbEntity
  8
5
  6
PHANTOM
100
AcDbCircle
 10
1061.0
 20
535.0
 30
0.0
 40
12.5
100
AcDbArc
 50
338.920162
 51
0.0
  0
LINE
  5
15C0C
330
157DF
100
AcDbEntity
  8
5
  6
PHANTOM
100
AcDbLine
 10
1073.499999999999
 20
535.0
 30
0.0
 11
1073.499999999999
 21
543.0
 31
0.0
  0
ARC
  5
15C0D
330
157DF
100
AcDbEntity
  8
5
  6
PHANTOM
100
AcDbCircle
 10
1061.0
 20
535.0
 30
0.0
 40
14.0
100
AcDbArc
 50
338.920162
 51
0.0
  0
LINE
  5
15C0E
330
157DF
100
AcDbEntity
  8
5
  6
PHANTOM
100
AcDbLine
 10
1075.0
 20
539.0
 30
0.0
 11
1073.499999999999
 21
539.0
 31
0.0
  0
LINE
  5
15C0F
330
157DF
100
AcDbEntity
  8
5
  6
PHANTOM
100
AcDbLine
 10
1073.335541
 20
525.296756
 30
0.0
 11
1074.597809
 21
528.5714289999998
 31
0.0
  0
LINE
  5
15C10
330
157DF
100
AcDbEntity
  8
5
  6
PHANTOM
100
AcDbLine
 10
1074.597809
 20
528.5714289999998
 30
0.0
 11
1073.691288
 21
529.0
 31
0.0
  0
LINE
  5
15C11
330
157DF
100
AcDbEntity
  8
5
  6
PHANTOM
100
AcDbLine
 10
1073.691288
 20
529.0
 30
0.0
 11
1074.063122
 21
529.964641
 31
0.0
  0
LINE
  5
15C12
330
157DF
100
AcDbEntity
  8
5
  6
PHANTOM
100
AcDbLine
 10
1067.763932
 20
121.0
 30
0.0
 11
531.0
 21
121.0
 31
0.0
  0
LINE
  5
15C13
330
157DF
100
AcDbEntity
  8
5
  6
PHANTOM
100
AcDbLine
 10
1050.0
 20
145.0
 30
0.0
 11
576.0
 21
145.0
 31
0.0
  0
ARC
  5
15C14
330
157DF
100
AcDbEntity
  8
5
  6
PHANTOM
100
AcDbCircle
 10
531.0
 20
123.0
 30
0.0
 40
2.0
100
AcDbArc
 50
180.0
 51
270.0
  0
ARC
  5
15C15
330
157DF
100
AcDbEntity
  8
5
  6
PHANTOM
100
AcDbCircle
 10
555.0
 20
134.0
 30
0.0
 40
2.399999999999999
100
AcDbArc
 50
180.0
 51
0.0
  0
ARC
  5
15C16
330
157DF
100
AcDbEntity
  8
5
  6
PHANTOM
100
AcDbCircle
 10
555.0
 20
136.0
 30
0.0
 40
2.399999999999999
100
AcDbArc
 50
0.0
 51
180.0
  0
LINE
  5
15C17
330
157DF
100
AcDbEntity
  8
5
  6
PHANTOM
100
AcDbLine
 10
563.1985079999998
 20
144.5980139999998
 30
0.0
 11
546.935465
 21
146.0
 31
0.0
  0
LINE
  5
15C18
330
157DF
100
AcDbEntity
  8
5
  6
PHANTOM
100
AcDbLine
 10
562.0
 20
144.0
 30
0.0
 11
535.5
 21
144.0
 31
0.0
  0
LINE
  5
15C19
330
157DF
100
AcDbEntity
  8
5
  6
PHANTOM
100
AcDbLine
 10
576.0
 20
145.0
 30
0.0
 11
547.0
 21
147.5
 31
0.0
  0
LINE
  5
15C1A
330
157DF
100
AcDbEntity
  8
5
  6
PHANTOM
100
AcDbLine
 10
530.4999999999998
 20
135.0
 30
0.0
 11
537.0
 21
135.0
 31
0.0
  0
LINE
  5
15C1B
330
157DF
100
AcDbEntity
  8
5
  6
PHANTOM
100
AcDbLine
 10
530.067144
 20
141.1783709999999
 30
0.0
 11
537.5771409999998
 21
138.914917
 31
0.0
  0
ARC
  5
15C1C
330
157DF
100
AcDbEntity
  8
5
  6
PHANTOM
100
AcDbCircle
 10
530.4999999999998
 20
133.4999999999998
 30
0.0
 40
1.5
100
AcDbArc
 50
90.0
 51
180.0
  0
ARC
  5
15C1D
330
157DF
100
AcDbEntity
  8
5
  6
PHANTOM
100
AcDbCircle
 10
530.4999999999998
 20
142.614559
 30
0.0
 40
1.5
100
AcDbArc
 50
180.0
 51
253.2276069999999
  0
LINE
  5
15C1E
330
157DF
100
AcDbEntity
  8
5
  6
PHANTOM
100
AcDbLine
 10
529.0
 20
127.0
 30
0.0
 11
529.0
 21
123.0
 31
0.0
  0
LINE
  5
15C1F
330
157DF
100
AcDbEntity
  8
5
  6
PHANTOM
100
AcDbLine
 10
552.6
 20
134.0
 30
0.0
 11
552.6
 21
136.0
 31
0.0
  0
ARC
  5
15C20
330
157DF
100
AcDbEntity
  8
5
  6
PHANTOM
100
AcDbCircle
 10
537.0
 20
137.0
 30
0.0
 40
2.0
100
AcDbArc
 50
270.0
 51
73.22760699999998
  0
LINE
  5
15C21
330
157DF
100
AcDbEntity
  8
4
  6
CENTER
100
AcDbLine
 10
545.0
 20
129.2499999999998
 30
0.0
 11
545.0
 21
140.7499999999998
 31
0.0
  0
CIRCLE
  5
15C22
330
157DF
100
AcDbEntity
  8
5
  6
PHANTOM
100
AcDbCircle
 10
545.0
 20
135.0
 30
0.0
 40
2.399999999999999
  0
LINE
  5
15C23
330
157DF
100
AcDbEntity
  8
5
  6
PHANTOM
100
AcDbLine
 10
534.0
 20
146.0
 30
0.0
 11
546.935465
 21
146.0
 31
0.0
  0
ARC
  5
15C24
330
157DF
100
AcDbEntity
  8
5
  6
PHANTOM
100
AcDbCircle
 10
535.5
 20
145.5
 30
0.0
 40
1.5
100
AcDbArc
 50
180.0
 51
270.0
  0
LINE
  5
15C25
330
157DF
100
AcDbEntity
  8
5
  6
PHANTOM
100
AcDbLine
 10
534.0
 20
147.5
 30
0.0
 11
534.0
 21
145.5
 31
0.0
  0
ARC
  5
15C26
330
157DF
100
AcDbEntity
  8
5
  6
PHANTOM
100
AcDbCircle
 10
562.0
 20
145.5
 30
0.0
 40
1.5
100
AcDbArc
 50
270.0
 51
0.0
  0
LINE
  5
15C27
330
157DF
100
AcDbEntity
  8
5
  6
PHANTOM
100
AcDbLine
 10
563.4999999999998
 20
146.077586
 30
0.0
 11
563.4999999999998
 21
145.5
 31
0.0
  0
LINE
  5
15C28
330
157DF
100
AcDbEntity
  8
4
  6
CENTER
100
AcDbLine
 10
555.0
 20
128.2499999999998
 30
0.0
 11
555.0
 21
141.7499999999998
 31
0.0
  0
LINE
  5
15C29
330
157DF
100
AcDbEntity
  8
5
  6
PHANTOM
100
AcDbLine
 10
557.3999999999998
 20
134.0
 30
0.0
 11
557.3999999999998
 21
136.0
 31
0.0
  0
LINE
  5
15C2A
330
157DF
100
AcDbEntity
  8
4
  6
CENTER
100
AcDbLine
 10
1061.0
 20
120.0
 30
0.0
 11
1061.0
 21
150.0
 31
0.0
  0
LINE
  5
15C2B
330
157DF
100
AcDbEntity
  8
5
  6
PHANTOM
100
AcDbLine
 10
1073.0
 20
145.0
 30
0.0
 11
1055.0
 21
145.0
 31
0.0
  0
LINE
  5
15C2C
330
157DF
100
AcDbEntity
  8
5
  6
PHANTOM
100
AcDbLine
 10
1069.552786
 20
122.105573
 30
0.0
 11
1075.0
 21
133.0
 31
0.0
  0
LINE
  5
15C2D
330
157DF
100
AcDbEntity
  8
4
  6
CENTER
100
AcDbLine
 10
1076.0
 20
135.0
 30
0.0
 11
1029.249999999999
 21
135.0
 31
0.0
  0
LINE
  5
15C2E
330
157DF
100
AcDbEntity
  8
4
  6
CENTER
100
AcDbLine
 10
1035.0
 20
128.2499999999998
 30
0.0
 11
1035.0
 21
141.7499999999998
 31
0.0
  0
LINE
  5
15C2F
330
157DF
100
AcDbEntity
  8
4
  6
CENTER
100
AcDbLine
 10
1045.0
 20
129.2499999999998
 30
0.0
 11
1045.0
 21
140.7499999999998
 31
0.0
  0
LINE
  5
15C30
330
157DF
100
AcDbEntity
  8
5
  6
PHANTOM
100
AcDbLine
 10
1032.599999999999
 20
134.0
 30
0.0
 11
1032.599999999999
 21
136.0
 31
0.0
  0
ARC
  5
15C31
330
157DF
100
AcDbEntity
  8
5
  6
PHANTOM
100
AcDbCircle
 10
1035.0
 20
134.0
 30
0.0
 40
2.399999999999999
100
AcDbArc
 50
180.0
 51
0.0
  0
LINE
  5
15C32
330
157DF
100
AcDbEntity
  8
5
  6
PHANTOM
100
AcDbLine
 10
1037.4
 20
134.0
 30
0.0
 11
1037.4
 21
136.0
 31
0.0
  0
ARC
  5
15C33
330
157DF
100
AcDbEntity
  8
5
  6
PHANTOM
100
AcDbCircle
 10
1035.0
 20
136.0
 30
0.0
 40
2.399999999999999
100
AcDbArc
 50
0.0
 51
180.0
  0
CIRCLE
  5
15C34
330
157DF
100
AcDbEntity
  8
5
  6
PHANTOM
100
AcDbCircle
 10
1045.0
 20
135.0
 30
0.0
 40
2.399999999999999
  0
ARC
  5
15C35
330
157DF
100
AcDbEntity
  8
5
  6
PHANTOM
100
AcDbCircle
 10
1067.763932
 20
123.0
 30
0.0
 40
2.0
100
AcDbArc
 50
270.0
 51
333.434949
  0
LINE
  5
15C36
330
157DF
100
AcDbEntity
  8
5
  6
PHANTOM
100
AcDbLine
 10
1051.0
 20
143.5
 30
0.0
 11
1050.0
 21
143.5
 31
0.0
  0
LINE
  5
15C37
330
157DF
100
AcDbEntity
  8
5
  6
PHANTOM
100
AcDbLine
 10
1050.0
 20
143.5
 30
0.0
 11
1050.0
 21
145.0
 31
0.0
  0
LINE
  5
15C38
330
157DF
100
AcDbEntity
  8
5
  6
PHANTOM
100
AcDbLine
 10
1051.0
 20
143.5
 30
0.0
 11
1055.0
 21
145.0
 31
0.0
  0
CIRCLE
  5
15C39
330
157DF
100
AcDbEntity
  8
5
  6
PHANTOM
100
AcDbCircle
 10
1061.0
 20
135.0
 30
0.0
 40
5.0
  0
CIRCLE
  5
15C3A
330
157DF
100
AcDbEntity
  8
5
  6
PHANTOM
100
AcDbCircle
 10
1061.0
 20
135.0
 30
0.0
 40
3.0
  0
ARC
  5
15C3B
330
157DF
100
AcDbEntity
  8
5
  6
PHANTOM
100
AcDbCircle
 10
1061.0
 20
135.0
 30
0.0
 40
11.0
100
AcDbArc
 50
65.38002299999999
 51
114.619977
  0
ARC
  5
15C3C
330
157DF
100
AcDbEntity
  8
5
  6
PHANTOM
100
AcDbCircle
 10
1061.0
 20
135.0
 30
0.0
 40
11.0
100
AcDbArc
 50
114.619977
 51
65.38002299999999
  0
ARC
  5
15C3D
330
157DF
100
AcDbEntity
  8
5
  6
PHANTOM
100
AcDbCircle
 10
1073.0
 20
143.0
 30
0.0
 40
2.0
100
AcDbArc
 50
0.0
 51
90.0
  0
LINE
  5
15C3E
330
157DF
100
AcDbEntity
  8
5
  6
PHANTOM
100
AcDbLine
 10
1075.0
 20
133.0
 30
0.0
 11
1075.0
 21
136.4999999999998
 31
0.0
  0
CIRCLE
  5
15C3F
330
157DF
100
AcDbEntity
  8
5
  6
PHANTOM
100
AcDbCircle
 10
1061.0
 20
535.0
 30
0.0
 40
11.0
  0
LINE
  5
15C40
330
157DF
100
AcDbEntity
  8
4
  6
CENTER
100
AcDbLine
 10
1045.0
 20
529.25
 30
0.0
 11
1045.0
 21
540.7499999999998
 31
0.0
  0
LINE
  5
15C41
330
157DF
100
AcDbEntity
  8
4
  6
CENTER
100
AcDbLine
 10
1035.0
 20
528.2499999999998
 30
0.0
 11
1035.0
 21
541.75
 31
0.0
  0
LINE
  5
15C42
330
157DF
100
AcDbEntity
  8
5
  6
PHANTOM
100
AcDbLine
 10
1145.0
 20
145.0
 30
0.0
 11
1153.0
 21
145.0
 31
0.0
  0
ARC
  5
15C43
330
157DF
100
AcDbEntity
  8
5
  6
PHANTOM
100
AcDbCircle
 10
1146.5
 20
146.0
 30
0.0
 40
1.5
100
AcDbArc
 50
90.0
 51
180.0
  0
LINE
  5
15C44
330
157DF
100
AcDbEntity
  8
5
  6
PHANTOM
100
AcDbLine
 10
1153.0
 20
147.5
 30
0.0
 11
1150.5
 21
147.5
 31
0.0
  0
LINE
  5
15C45
330
157DF
100
AcDbEntity
  8
5
  6
PHANTOM
100
AcDbLine
 10
1145.0
 20
121.0
 30
0.0
 11
1145.0
 21
123.5
 31
0.0
  0
LINE
  5
15C46
330
157DF
100
AcDbEntity
  8
5
  6
PHANTOM
100
AcDbLine
 10
1146.5
 20
121.0
 30
0.0
 11
1146.5
 21
123.5
 31
0.0
  0
LINE
  5
15C47
330
157DF
100
AcDbEntity
  8
5
  6
PHANTOM
100
AcDbLine
 10
1153.0
 20
145.0
 30
0.0
 11
1153.0
 21
147.5
 31
0.0
  0
LINE
  5
15C48
330
157DF
100
AcDbEntity
  8
5
  6
PHANTOM
100
AcDbLine
 10
1145.0
 20
121.0
 30
0.0
 11
1146.5
 21
121.0
 31
0.0
  0
LINE
  5
15C49
330
157DF
100
AcDbEntity
  8
5
  6
PHANTOM
100
AcDbLine
 10
29.5
 20
147.5
 30
0.0
 11
36.0
 21
147.5
 31
0.0
  0
LINE
  5
15C4A
330
157DF
100
AcDbEntity
  8
5
  6
PHANTOM
100
AcDbLine
 10
36.0
 20
121.0
 30
0.0
 11
36.0
 21
123.5
 31
0.0
  0
LINE
  5
15C4B
330
157DF
100
AcDbEntity
  8
5
  6
PHANTOM
100
AcDbLine
 10
37.5
 20
121.0
 30
0.0
 11
37.5
 21
123.5
 31
0.0
  0
ARC
  5
15C4C
330
157DF
100
AcDbEntity
  8
5
  6
PHANTOM
100
AcDbCircle
 10
36.0
 20
146.0
 30
0.0
 40
1.5
100
AcDbArc
 50
0.0
 51
90.0
  0
LINE
  5
15C4D
330
157DF
100
AcDbEntity
  8
5
  6
PHANTOM
100
AcDbLine
 10
29.5
 20
143.5
 30
0.0
 11
29.5
 21
146.0
 31
0.0
  0
LINE
  5
15C4E
330
157DF
100
AcDbEntity
  8
5
  6
PHANTOM
100
AcDbLine
 10
36.0
 20
143.5
 30
0.0
 11
29.5
 21
143.5
 31
0.0
  0
LINE
  5
15C4F
330
157DF
100
AcDbEntity
  8
5
  6
PHANTOM
100
AcDbLine
 10
37.5
 20
121.0
 30
0.0
 11
36.0
 21
121.0
 31
0.0
  0
LINE
  5
15C50
330
157DF
100
AcDbEntity
  8
1
  6
Continuous
100
AcDbLine
 10
27.0
 20
126.5
 30
0.0
 11
27.0
 21
129.0
 31
0.0
  0
LINE
  5
15C51
330
157DF
100
AcDbEntity
  8
5
  6
PHANTOM
100
AcDbLine
 10
1157.5
 20
521.0
 30
0.0
 11
1157.5
 21
523.5
 31
0.0
  0
ARC
  5
15C52
330
157DF
100
AcDbEntity
  8
5
  6
PHANTOM
100
AcDbCircle
 10
1156.0
 20
546.0
 30
0.0
 40
1.5
100
AcDbArc
 50
0.0
 51
90.0
  0
LINE
  5
15C53
330
157DF
100
AcDbEntity
  8
5
  6
PHANTOM
100
AcDbLine
 10
1157.5
 20
545.0
 30
0.0
 11
1148.0
 21
545.0
 31
0.0
  0
LINE
  5
15C54
330
157DF
100
AcDbEntity
  8
5
  6
PHANTOM
100
AcDbLine
 10
1156.0
 20
539.0
 30
0.0
 11
1156.0
 21
541.5
 31
0.0
  0
LINE
  5
15C55
330
157DF
100
AcDbEntity
  8
5
  6
PHANTOM
100
AcDbLine
 10
1148.0
 20
547.5
 30
0.0
 11
1152.0
 21
547.5
 31
0.0
  0
LINE
  5
15C56
330
157DF
100
AcDbEntity
  8
5
  6
PHANTOM
100
AcDbLine
 10
1157.5
 20
539.0
 30
0.0
 11
1148.0
 21
539.0
 31
0.0
  0
LINE
  5
15C57
330
157DF
100
AcDbEntity
  8
5
  6
PHANTOM
100
AcDbLine
 10
1148.0
 20
529.0
 30
0.0
 11
1148.0
 21
531.5
 31
0.0
  0
LINE
  5
15C58
330
157DF
100
AcDbEntity
  8
5
  6
PHANTOM
100
AcDbLine
 10
1156.0
 20
521.0
 30
0.0
 11
1156.0
 21
523.5
 31
0.0
  0
LINE
  5
15C59
330
157DF
100
AcDbEntity
  8
5
  6
PHANTOM
100
AcDbLine
 10
1157.5
 20
529.0
 30
0.0
 11
1148.0
 21
529.0
 31
0.0
  0
LINE
  5
15C5A
330
157DF
100
AcDbEntity
  8
5
  6
PHANTOM
100
AcDbLine
 10
1157.5
 20
521.0
 30
0.0
 11
1156.0
 21
521.0
 31
0.0
  0
LINE
  5
15C5B
330
157DF
100
AcDbEntity
  8
5
  6
PHANTOM
100
AcDbLine
 10
1148.0
 20
545.0
 30
0.0
 11
1148.0
 21
547.5
 31
0.0
  0
LINE
  5
15C5C
330
157DF
100
AcDbEntity
  8
5
  6
PHANTOM
100
AcDbLine
 10
34.5
 20
540.0
 30
0.0
 11
34.5
 21
542.4999999999998
 31
0.0
  0
LINE
  5
15C5D
330
157DF
100
AcDbEntity
  8
5
  6
PHANTOM
100
AcDbLine
 10
33.0
 20
540.0
 30
0.0
 11
34.5
 21
540.0
 31
0.0
  0
ARC
  5
15C5E
330
157DF
100
AcDbEntity
  8
5
  6
PHANTOM
100
AcDbCircle
 10
33.0
 20
546.0
 30
0.0
 40
1.5
100
AcDbArc
 50
0.0
 51
90.0
  0
LINE
  5
15C5F
330
157DF
100
AcDbEntity
  8
5
  6
PHANTOM
100
AcDbLine
 10
33.0
 20
547.5
 30
0.0
 11
26.5
 21
547.5
 31
0.0
  0
LINE
  5
15C60
330
157DF
100
AcDbEntity
  8
5
  6
PHANTOM
100
AcDbLine
 10
33.0
 20
540.0
 30
0.0
 11
33.0
 21
541.0
 31
0.0
  0
LINE
  5
15C61
330
157DF
100
AcDbEntity
  8
5
  6
PHANTOM
100
AcDbLine
 10
26.5
 20
543.5
 30
0.0
 11
33.0
 21
543.5
 31
0.0
  0
LINE
  5
15C62
330
157DF
100
AcDbEntity
  8
5
  6
PHANTOM
100
AcDbLine
 10
26.5
 20
521.0
 30
0.0
 11
26.5
 21
523.5
 31
0.0
  0
LINE
  5
15C63
330
157DF
100
AcDbEntity
  8
5
  6
PHANTOM
100
AcDbLine
 10
25.0
 20
521.0
 30
0.0
 11
25.0
 21
523.5
 31
0.0
  0
ARC
  5
15C64
330
157DF
100
AcDbEntity
  8
5
  6
PHANTOM
100
AcDbCircle
 10
26.5
 20
546.0
 30
0.0
 40
1.5
100
AcDbArc
 50
90.0
 51
180.0
  0
LINE
  5
15C65
330
157DF
100
AcDbEntity
  8
5
  6
PHANTOM
100
AcDbLine
 10
25.0
 20
521.0
 30
0.0
 11
26.5
 21
521.0
 31
0.0
  0
LINE
  5
15C66
330
157DF
100
AcDbEntity
  8
4
  6
CENTER
100
AcDbLine
 10
251.5
 20
722.75
 30
0.0
 11
251.5
 21
711.2499999999997
 31
0.0
  0
CIRCLE
  5
15C67
330
157DF
100
AcDbEntity
  8
1
  6
Continuous
100
AcDbCircle
 10
251.5
 20
717.0
 30
0.0
 40
2.399999999999999
  0
LINE
  5
15C68
330
157DF
100
AcDbEntity
  8
4
  6
CENTER
100
AcDbLine
 10
245.75
 20
717.0
 30
0.0
 11
257.25
 21
717.0
 31
0.0
  0
LINE
  5
15C69
330
157DF
100
AcDbEntity
  8
4
  6
CENTER
100
AcDbLine
 10
251.5
 20
636.5
 30
0.0
 11
251.5
 21
630.0
 31
0.0
  0
LINE
  5
15C6A
330
157DF
100
AcDbEntity
  8
4
  6
CENTER
100
AcDbLine
 10
251.5
 20
438.0
 30
0.0
 11
251.5
 21
444.5
 31
0.0
  0
CIRCLE
  5
15C6B
330
157DF
100
AcDbEntity
  8
1
  6
Continuous
100
AcDbCircle
 10
251.5
 20
537.5
 30
0.0
 40
2.399999999999999
  0
CIRCLE
  5
15C6C
330
157DF
100
AcDbEntity
  8
1
  6
Continuous
100
AcDbCircle
 10
251.5
 20
537.5
 30
0.0
 40
3.75
  0
LINE
  5
15C6D
330
157DF
100
AcDbEntity
  8
4
  6
CENTER
100
AcDbLine
 10
251.5
 20
531.7499999999999
 30
0.0
 11
251.5
 21
543.25
 31
0.0
  0
LINE
  5
15C6E
330
157DF
100
AcDbEntity
  8
4
  6
CENTER
100
AcDbLine
 10
257.25
 20
537.5
 30
0.0
 11
245.75
 21
537.5
 31
0.0
  0
LINE
  5
15C6F
330
157DF
100
AcDbEntity
  8
4
  6
CENTER
100
AcDbLine
 10
822.4999999999999
 20
725.25
 30
0.0
 11
822.4999999999999
 21
713.75
 31
0.0
  0
CIRCLE
  5
15C70
330
157DF
100
AcDbEntity
  8
1
  6
Continuous
100
AcDbCircle
 10
822.4999999999999
 20
719.5
 30
0.0
 40
2.399999999999999
  0
CIRCLE
  5
15C71
330
157DF
100
AcDbEntity
  8
1
  6
Continuous
100
AcDbCircle
 10
822.4999999999999
 20
719.5
 30
0.0
 40
3.75
  0
LINE
  5
15C72
330
157DF
100
AcDbEntity
  8
4
  6
CENTER
100
AcDbLine
 10
816.75
 20
719.5
 30
0.0
 11
828.25
 21
719.5
 31
0.0
  0
LINE
  5
15C73
330
157DF
100
AcDbEntity
  8
4
  6
CENTER
100
AcDbLine
 10
822.4999999999999
 20
618.0
 30
0.0
 11
822.4999999999999
 21
624.5
 31
0.0
  0
LINE
  5
15C74
330
157DF
100
AcDbEntity
  8
4
  6
CENTER
100
AcDbLine
 10
822.4999999999999
 20
456.5
 30
0.0
 11
822.4999999999999
 21
450.0
 31
0.0
  0
CIRCLE
  5
15C75
330
157DF
100
AcDbEntity
  8
1
  6
Continuous
100
AcDbCircle
 10
822.4999999999999
 20
535.0
 30
0.0
 40
2.399999999999999
  0
LINE
  5
15C76
330
157DF
100
AcDbEntity
  8
4
  6
CENTER
100
AcDbLine
 10
822.4999999999999
 20
529.25
 30
0.0
 11
822.4999999999999
 21
540.7499999999998
 31
0.0
  0
CIRCLE
  5
15C77
330
157DF
100
AcDbEntity
  8
3
  6
DASHED
100
AcDbCircle
 10
641.0
 20
537.5
 30
0.0
 40
11.0
  0
LINE
  5
15C78
330
157DF
100
AcDbEntity
  8
3
  6
DASHED
100
AcDbLine
 10
567.916702
 20
546.0
 30
0.0
 11
556.0201059999999
 21
546.0
 31
0.0
  0
LINE
  5
15C79
330
157DF
100
AcDbEntity
  8
3
  6
DASHED
100
AcDbLine
 10
552.78233
 20
545.5
 30
0.0
 11
550.0323299999998
 21
547.5
 31
0.0
  0
LINE
  5
15C7A
330
157DF
100
AcDbEntity
  8
3
  6
DASHED
100
AcDbLine
 10
552.78233
 20
545.5
 30
0.0
 11
555.53233
 21
547.5
 31
0.0
  0
LINE
  5
15C7B
330
157DF
100
AcDbEntity
  8
3
  6
DASHED
100
AcDbLine
 10
549.5445539999998
 20
546.0
 30
0.0
 11
530.4999999999998
 21
546.0
 31
0.0
  0
LINE
  5
15C7C
330
157DF
100
AcDbEntity
  8
3
  6
DASHED
100
AcDbLine
 10
630.0
 20
629.0
 30
0.0
 11
630.0
 21
623.0
 31
0.0
  0
LINE
  5
15C7D
330
157DF
100
AcDbEntity
  8
3
  6
DASHED
100
AcDbLine
 10
599.0
 20
624.0
 30
0.0
 11
630.0
 21
624.0
 31
0.0
  0
LINE
  5
15C7E
330
157DF
100
AcDbEntity
  8
1
  6
Continuous
100
AcDbLine
 10
653.5
 20
630.4999999999997
 30
0.0
 11
647.0
 21
630.4999999999997
 31
0.0
  0
LINE
  5
15C7F
330
157DF
100
AcDbEntity
  8
1
  6
Continuous
100
AcDbLine
 10
635.0
 20
630.4999999999997
 30
0.0
 11
630.0
 21
630.4999999999997
 31
0.0
  0
LINE
  5
15C80
330
157DF
100
AcDbEntity
  8
4
  6
CENTER
100
AcDbLine
 10
709.75
 20
535.0
 30
0.0
 11
698.2499999999999
 21
535.0
 31
0.0
  0
CIRCLE
  5
15C81
330
157DF
100
AcDbEntity
  8
5
  6
PHANTOM
100
AcDbCircle
 10
925.0
 20
535.0
 30
0.0
 40
2.399999999999999
  0
CIRCLE
  5
15C82
330
157DF
100
AcDbEntity
  8
5
  6
PHANTOM
100
AcDbCircle
 10
925.0
 20
535.0
 30
0.0
 40
3.75
  0
LINE
  5
15C83
330
157DF
100
AcDbEntity
  8
4
  6
CENTER
100
AcDbLine
 10
930.75
 20
535.0
 30
0.0
 11
909.2499999999999
 21
535.0
 31
0.0
  0
LINE
  5
15C84
330
157DF
100
AcDbEntity
  8
5
  6
PHANTOM
100
AcDbLine
 10
918.75
 20
534.0
 30
0.0
 11
918.75
 21
536.0
 31
0.0
  0
LINE
  5
15C85
330
157DF
100
AcDbEntity
  8
5
  6
PHANTOM
100
AcDbLine
 10
912.6000000000001
 20
534.0
 30
0.0
 11
912.6000000000001
 21
536.0
 31
0.0
  0
LINE
  5
15C86
330
157DF
100
AcDbEntity
  8
5
  6
PHANTOM
100
AcDbLine
 10
917.3999999999999
 20
534.0
 30
0.0
 11
917.3999999999999
 21
536.0
 31
0.0
  0
ARC
  5
15C87
330
157DF
100
AcDbEntity
  8
5
  6
PHANTOM
100
AcDbCircle
 10
915.0
 20
534.0
 30
0.0
 40
2.399999999999999
100
AcDbArc
 50
180.0
 51
0.0
  0
ARC
  5
15C88
330
157DF
100
AcDbEntity
  8
5
  6
PHANTOM
100
AcDbCircle
 10
915.0
 20
536.0
 30
0.0
 40
2.399999999999999
100
AcDbArc
 50
0.0
 51
180.0
  0
LINE
  5
15C89
330
157DF
100
AcDbEntity
  8
5
  6
PHANTOM
100
AcDbLine
 10
911.25
 20
534.0
 30
0.0
 11
911.25
 21
536.0
 31
0.0
  0
ARC
  5
15C8A
330
157DF
100
AcDbEntity
  8
5
  6
PHANTOM
100
AcDbCircle
 10
915.0
 20
534.0
 30
0.0
 40
3.75
100
AcDbArc
 50
180.0
 51
0.0
  0
ARC
  5
15C8B
330
157DF
100
AcDbEntity
  8
5
  6
PHANTOM
100
AcDbCircle
 10
915.0
 20
536.0
 30
0.0
 40
3.75
100
AcDbArc
 50
0.0
 51
180.0
  0
LINE
  5
15C8C
330
157DF
100
AcDbEntity
  8
4
  6
CENTER
100
AcDbLine
 10
925.0
 20
529.25
 30
0.0
 11
925.0
 21
540.7499999999998
 31
0.0
  0
ARC
  5
15C8D
330
157DF
100
AcDbEntity
  8
5
  6
PHANTOM
100
AcDbCircle
 10
1035.0
 20
536.0
 30
0.0
 40
3.75
100
AcDbArc
 50
0.0
 51
180.0
  0
ARC
  5
15C8E
330
157DF
100
AcDbEntity
  8
5
  6
PHANTOM
100
AcDbCircle
 10
1035.0
 20
534.0
 30
0.0
 40
3.75
100
AcDbArc
 50
180.0
 51
0.0
  0
LINE
  5
15C8F
330
157DF
100
AcDbEntity
  8
5
  6
PHANTOM
100
AcDbLine
 10
1031.25
 20
534.0
 30
0.0
 11
1031.25
 21
536.0
 31
0.0
  0
ARC
  5
15C90
330
157DF
100
AcDbEntity
  8
5
  6
PHANTOM
100
AcDbCircle
 10
1035.0
 20
536.0
 30
0.0
 40
2.399999999999999
100
AcDbArc
 50
0.0
 51
180.0
  0
ARC
  5
15C91
330
157DF
100
AcDbEntity
  8
5
  6
PHANTOM
100
AcDbCircle
 10
1035.0
 20
534.0
 30
0.0
 40
2.399999999999999
100
AcDbArc
 50
180.0
 51
0.0
  0
LINE
  5
15C92
330
157DF
100
AcDbEntity
  8
5
  6
PHANTOM
100
AcDbLine
 10
1037.4
 20
534.0
 30
0.0
 11
1037.4
 21
536.0
 31
0.0
  0
LINE
  5
15C93
330
157DF
100
AcDbEntity
  8
5
  6
PHANTOM
100
AcDbLine
 10
1032.599999999999
 20
534.0
 30
0.0
 11
1032.599999999999
 21
536.0
 31
0.0
  0
LINE
  5
15C94
330
157DF
100
AcDbEntity
  8
5
  6
PHANTOM
100
AcDbLine
 10
1038.75
 20
534.0
 30
0.0
 11
1038.75
 21
536.0
 31
0.0
  0
CIRCLE
  5
15C95
330
157DF
100
AcDbEntity
  8
5
  6
PHANTOM
100
AcDbCircle
 10
1045.0
 20
535.0
 30
0.0
 40
3.75
  0
CIRCLE
  5
15C96
330
157DF
100
AcDbEntity
  8
5
  6
PHANTOM
100
AcDbCircle
 10
1045.0
 20
535.0
 30
0.0
 40
2.399999999999999
  0
LINE
  5
15C97
330
157DF
100
AcDbEntity
  8
4
  6
CENTER
100
AcDbLine
 10
822.4999999999999
 20
236.5
 30
0.0
 11
822.4999999999999
 21
230.0
 31
0.0
  0
CIRCLE
  5
15C98
330
157DF
100
AcDbEntity
  8
1
  6
Continuous
100
AcDbCircle
 10
822.4999999999999
 20
319.5
 30
0.0
 40
2.399999999999999
  0
LINE
  5
15C99
330
157DF
100
AcDbEntity
  8
4
  6
CENTER
100
AcDbLine
 10
822.4999999999999
 20
325.2499999999999
 30
0.0
 11
822.4999999999999
 21
313.75
 31
0.0
  0
LINE
  5
15C9A
330
157DF
100
AcDbEntity
  8
4
  6
CENTER
100
AcDbLine
 10
816.75
 20
319.5
 30
0.0
 11
828.25
 21
319.5
 31
0.0
  0
LINE
  5
15C9B
330
157DF
100
AcDbEntity
  8
4
  6
CENTER
100
AcDbLine
 10
822.4999999999999
 20
129.2499999999998
 30
0.0
 11
822.4999999999999
 21
140.7499999999998
 31
0.0
  0
CIRCLE
  5
15C9C
330
157DF
100
AcDbEntity
  8
1
  6
Continuous
100
AcDbCircle
 10
822.4999999999999
 20
135.0
 30
0.0
 40
3.75
  0
CIRCLE
  5
15C9D
330
157DF
100
AcDbEntity
  8
1
  6
Continuous
100
AcDbCircle
 10
822.4999999999999
 20
135.0
 30
0.0
 40
2.399999999999999
  0
LINE
  5
15C9E
330
157DF
100
AcDbEntity
  8
4
  6
CENTER
100
AcDbLine
 10
251.5
 20
218.0
 30
0.0
 11
251.5
 21
224.5
 31
0.0
  0
LINE
  5
15C9F
330
157DF
100
AcDbEntity
  8
4
  6
CENTER
100
AcDbLine
 10
251.5
 20
322.75
 30
0.0
 11
251.5
 21
311.25
 31
0.0
  0
CIRCLE
  5
15CA0
330
157DF
100
AcDbEntity
  8
1
  6
Continuous
100
AcDbCircle
 10
251.5
 20
317.0
 30
0.0
 40
3.75
  0
CIRCLE
  5
15CA1
330
157DF
100
AcDbEntity
  8
1
  6
Continuous
100
AcDbCircle
 10
251.5
 20
317.0
 30
0.0
 40
2.399999999999999
  0
LINE
  5
15CA2
330
157DF
100
AcDbEntity
  8
4
  6
CENTER
100
AcDbLine
 10
245.75
 20
317.0
 30
0.0
 11
257.25
 21
317.0
 31
0.0
  0
LINE
  5
15CA3
330
157DF
100
AcDbEntity
  8
4
  6
CENTER
100
AcDbLine
 10
251.5
 20
56.5
 30
0.0
 11
251.5
 21
50.0
 31
0.0
  0
LINE
  5
15CA4
330
157DF
100
AcDbEntity
  8
4
  6
CENTER
100
AcDbLine
 10
251.5
 20
131.75
 30
0.0
 11
251.5
 21
143.25
 31
0.0
  0
CIRCLE
  5
15CA5
330
157DF
100
AcDbEntity
  8
1
  6
Continuous
100
AcDbCircle
 10
251.5
 20
137.5
 30
0.0
 40
2.399999999999999
  0
LINE
  5
15CA6
330
157DF
100
AcDbEntity
  8
4
  6
CENTER
100
AcDbLine
 10
257.25
 20
137.5
 30
0.0
 11
245.75
 21
137.5
 31
0.0
  0
CIRCLE
  5
15CA7
330
157DF
100
AcDbEntity
  8
3
  6
DASHED
100
AcDbCircle
 10
641.0
 20
317.0
 30
0.0
 40
11.0
  0
LINE
  5
15CA8
330
157DF
100
AcDbEntity
  8
3
  6
DASHED
100
AcDbLine
 10
649.75
 20
329.4999999999999
 30
0.0
 11
655.0
 21
319.0
 31
0.0
  0
LINE
  5
15CA9
330
157DF
100
AcDbEntity
  8
4
  6
CENTER
100
AcDbLine
 10
822.4999999999999
 20
38.0
 30
0.0
 11
822.4999999999999
 21
44.5
 31
0.0
  0
LINE
  5
15CAA
330
157DF
100
AcDbEntity
  8
3
  6
DASHED
100
AcDbLine
 10
630.0
 20
225.4999999999999
 30
0.0
 11
630.0
 21
231.4999999999999
 31
0.0
  0
ARC
  5
15CAB
330
157DF
100
AcDbEntity
  8
3
  6
DASHED
100
AcDbCircle
 10
628.0
 20
227.0
 30
0.0
 40
2.0
100
AcDbArc
 50
0.0
 51
90.0
  0
LINE
  5
15CAC
330
157DF
100
AcDbEntity
  8
4
  6
CENTER
100
AcDbLine
 10
709.75
 20
135.0
 30
0.0
 11
698.2499999999999
 21
135.0
 31
0.0
  0
CIRCLE
  5
15CAD
330
157DF
100
AcDbEntity
  8
5
  6
PHANTOM
100
AcDbCircle
 10
925.0
 20
135.0
 30
0.0
 40
2.399999999999999
  0
LINE
  5
15CAE
330
157DF
100
AcDbEntity
  8
4
  6
CENTER
100
AcDbLine
 10
930.75
 20
135.0
 30
0.0
 11
909.2499999999999
 21
135.0
 31
0.0
  0
LINE
  5
15CAF
330
157DF
100
AcDbEntity
  8
5
  6
PHANTOM
100
AcDbLine
 10
917.3999999999999
 20
134.0
 30
0.0
 11
917.3999999999999
 21
136.0
 31
0.0
  0
LINE
  5
15CB0
330
157DF
100
AcDbEntity
  8
4
  6
CENTER
100
AcDbLine
 10
925.0
 20
129.2499999999998
 30
0.0
 11
925.0
 21
140.7499999999998
 31
0.0
  0
LINE
  5
15CB1
330
157DF
100
AcDbEntity
  8
5
  6
PHANTOM
100
AcDbLine
 10
912.6000000000001
 20
134.0
 30
0.0
 11
912.6000000000001
 21
136.0
 31
0.0
  0
ARC
  5
15CB2
330
157DF
100
AcDbEntity
  8
5
  6
PHANTOM
100
AcDbCircle
 10
915.0
 20
136.0
 30
0.0
 40
2.399999999999999
100
AcDbArc
 50
0.0
 51
180.0
  0
ARC
  5
15CB3
330
157DF
100
AcDbEntity
  8
5
  6
PHANTOM
100
AcDbCircle
 10
915.0
 20
134.0
 30
0.0
 40
2.399999999999999
100
AcDbArc
 50
180.0
 51
0.0
  0
LINE
  5
15CB4
330
157DF
100
AcDbEntity
  8
4
  6
CENTER
100
AcDbLine
 10
625.0
 20
722.4
 30
0.0
 11
625.0
 21
711.6
 31
0.0
  0
LINE
  5
15CB5
330
157DF
100
AcDbEntity
  8
4
  6
CENTER
100
AcDbLine
 10
615.0
 20
723.3999999999999
 30
0.0
 11
615.0
 21
710.7550149999998
 31
0.0
  0
LINE
  5
15CB6
330
157DF
100
AcDbEntity
  8
4
  6
CENTER
100
AcDbLine
 10
585.0
 20
724.8999999999997
 30
0.0
 11
585.0
 21
714.1
 31
0.0
  0
LINE
  5
15CB7
330
157DF
100
AcDbEntity
  8
4
  6
CENTER
100
AcDbLine
 10
625.0
 20
532.1
 30
0.0
 11
625.0
 21
542.9
 31
0.0
  0
LINE
  5
15CB8
330
157DF
100
AcDbEntity
  8
4
  6
CENTER
100
AcDbLine
 10
595.0
 20
325.8999999999999
 30
0.0
 11
595.0
 21
313.1
 31
0.0
  0
LINE
  5
15CB9
330
157DF
100
AcDbEntity
  8
4
  6
CENTER
100
AcDbLine
 10
625.0
 20
322.3999999999999
 30
0.0
 11
625.0
 21
311.6
 31
0.0
  0
LINE
  5
15CBA
330
157DF
100
AcDbEntity
  8
3
  6
DASHED
100
AcDbLine
 10
599.0
 20
229.0
 30
0.0
 11
628.0
 21
229.0
 31
0.0
  0
LINE
  5
15CBB
330
157DF
100
AcDbEntity
  8
4
  6
CENTER
100
AcDbLine
 10
585.0
 20
129.6
 30
0.0
 11
585.0
 21
140.4
 31
0.0
  0
LINE
  5
15CBC
330
157DF
100
AcDbEntity
  8
4
  6
CENTER
100
AcDbLine
 10
615.0
 20
131.0999999999999
 30
0.0
 11
615.0
 21
143.9
 31
0.0
  0
CIRCLE
  5
15CBD
330
157DF
100
AcDbEntity
  8
1
  6
Continuous
100
AcDbCircle
 10
378.5
 20
717.0
 30
0.0
 40
2.399999999999999
  0
LINE
  5
15CBE
330
157DF
100
AcDbEntity
  8
4
  6
CENTER
100
AcDbLine
 10
372.75
 20
717.0
 30
0.0
 11
384.25
 21
717.0
 31
0.0
  0
LINE
  5
15CBF
330
157DF
100
AcDbEntity
  8
4
  6
CENTER
100
AcDbLine
 10
378.5
 20
722.75
 30
0.0
 11
378.5
 21
711.2499999999997
 31
0.0
  0
LINE
  5
15CC0
330
157DF
100
AcDbEntity
  8
4
  6
CENTER
100
AcDbLine
 10
378.5
 20
636.5
 30
0.0
 11
378.5
 21
630.0
 31
0.0
  0
LINE
  5
15CC1
330
157DF
100
AcDbEntity
  8
4
  6
CENTER
100
AcDbLine
 10
378.5
 20
438.0
 30
0.0
 11
378.5
 21
444.5
 31
0.0
  0
CIRCLE
  5
15CC2
330
157DF
100
AcDbEntity
  8
1
  6
Continuous
100
AcDbCircle
 10
378.5
 20
537.5
 30
0.0
 40
2.399999999999999
  0
CIRCLE
  5
15CC3
330
157DF
100
AcDbEntity
  8
1
  6
Continuous
100
AcDbCircle
 10
378.5
 20
537.5
 30
0.0
 40
3.75
  0
LINE
  5
15CC4
330
157DF
100
AcDbEntity
  8
4
  6
CENTER
100
AcDbLine
 10
384.25
 20
537.5
 30
0.0
 11
372.75
 21
537.5
 31
0.0
  0
LINE
  5
15CC5
330
157DF
100
AcDbEntity
  8
4
  6
CENTER
100
AcDbLine
 10
378.5
 20
531.7499999999999
 30
0.0
 11
378.5
 21
543.25
 31
0.0
  0
CIRCLE
  5
15CC6
330
157DF
100
AcDbEntity
  8
1
  6
Continuous
100
AcDbCircle
 10
378.5
 20
317.0
 30
0.0
 40
3.75
  0
CIRCLE
  5
15CC7
330
157DF
100
AcDbEntity
  8
1
  6
Continuous
100
AcDbCircle
 10
378.5
 20
317.0
 30
0.0
 40
2.399999999999999
  0
LINE
  5
15CC8
330
157DF
100
AcDbEntity
  8
4
  6
CENTER
100
AcDbLine
 10
372.75
 20
317.0
 30
0.0
 11
384.25
 21
317.0
 31
0.0
  0
LINE
  5
15CC9
330
157DF
100
AcDbEntity
  8
4
  6
CENTER
100
AcDbLine
 10
378.5
 20
322.75
 30
0.0
 11
378.5
 21
311.25
 31
0.0
  0
LINE
  5
15CCA
330
157DF
100
AcDbEntity
  8
4
  6
CENTER
100
AcDbLine
 10
378.5
 20
218.0
 30
0.0
 11
378.5
 21
224.5
 31
0.0
  0
LINE
  5
15CCB
330
157DF
100
AcDbEntity
  8
4
  6
CENTER
100
AcDbLine
 10
378.5
 20
56.5
 30
0.0
 11
378.5
 21
50.0
 31
0.0
  0
CIRCLE
  5
15CCC
330
157DF
100
AcDbEntity
  8
1
  6
Continuous
100
AcDbCircle
 10
378.5
 20
137.5
 30
0.0
 40
2.399999999999999
  0
LINE
  5
15CCD
330
157DF
100
AcDbEntity
  8
4
  6
CENTER
100
AcDbLine
 10
384.25
 20
137.5
 30
0.0
 11
372.75
 21
137.5
 31
0.0
  0
LINE
  5
15CCE
330
157DF
100
AcDbEntity
  8
4
  6
CENTER
100
AcDbLine
 10
378.5
 20
131.75
 30
0.0
 11
378.5
 21
143.25
 31
0.0
  0
LINE
  5
15CCF
330
157DF
100
AcDbEntity
  8
4
  6
CENTER
100
AcDbLine
 10
804.25
 20
135.0
 30
0.0
 11
792.75
 21
135.0
 31
0.0
  0
CIRCLE
  5
15CD0
330
157DF
100
AcDbEntity
  8
5
  6
PHANTOM
100
AcDbCircle
 10
798.5
 20
135.0
 30
0.0
 40
2.399999999999999
  0
LINE
  5
15CD1
330
157DF
100
AcDbEntity
  8
4
  6
CENTER
100
AcDbLine
 10
798.5
 20
129.2499999999998
 30
0.0
 11
798.5
 21
140.7499999999998
 31
0.0
  0
LINE
  5
15CD2
330
157DF
100
AcDbEntity
  8
1
  6
Continuous
100
AcDbLine
 10
574.5
 20
453.5
 30
0.0
 11
574.5
 21
452.0
 31
0.0
  0
LINE
  5
15CD3
330
157DF
100
AcDbEntity
  8
1
  6
Continuous
100
AcDbLine
 10
578.5
 20
453.5
 30
0.0
 11
578.5
 21
452.0
 31
0.0
  0
LINE
  5
15CD4
330
157DF
100
AcDbEntity
  8
1
  6
Continuous
100
AcDbLine
 10
574.5
 20
42.5
 30
0.0
 11
574.5
 21
41.0
 31
0.0
  0
LINE
  5
15CD5
330
157DF
100
AcDbEntity
  8
1
  6
Continuous
100
AcDbLine
 10
578.5
 20
42.5
 30
0.0
 11
578.5
 21
41.0
 31
0.0
  0
CIRCLE
  5
15CD6
330
157DF
100
AcDbEntity
  8
1
  6
Continuous
100
AcDbCircle
 10
941.0
 20
719.5
 30
0.0
 40
2.399999999999999
  0
CIRCLE
  5
15CD7
330
157DF
100
AcDbEntity
  8
1
  6
Continuous
100
AcDbCircle
 10
941.0
 20
719.5
 30
0.0
 40
3.75
  0
LINE
  5
15CD8
330
157DF
100
AcDbEntity
  8
4
  6
CENTER
100
AcDbLine
 10
935.25
 20
719.5
 30
0.0
 11
946.7499999999999
 21
719.5
 31
0.0
  0
LINE
  5
15CD9
330
157DF
100
AcDbEntity
  8
4
  6
CENTER
100
AcDbLine
 10
941.0
 20
725.25
 30
0.0
 11
941.0
 21
713.75
 31
0.0
  0
LINE
  5
15CDA
330
157DF
100
AcDbEntity
  8
4
  6
CENTER
100
AcDbLine
 10
941.0
 20
618.0
 30
0.0
 11
941.0
 21
624.5
 31
0.0
  0
LINE
  5
15CDB
330
157DF
100
AcDbEntity
  8
4
  6
CENTER
100
AcDbLine
 10
941.0
 20
529.25
 30
0.0
 11
941.0
 21
540.7499999999998
 31
0.0
  0
CIRCLE
  5
15CDC
330
157DF
100
AcDbEntity
  8
1
  6
Continuous
100
AcDbCircle
 10
941.0
 20
535.0
 30
0.0
 40
2.399999999999999
  0
LINE
  5
15CDD
330
157DF
100
AcDbEntity
  8
4
  6
CENTER
100
AcDbLine
 10
946.7499999999999
 20
535.0
 30
0.0
 11
935.25
 21
535.0
 31
0.0
  0
LINE
  5
15CDE
330
157DF
100
AcDbEntity
  8
4
  6
CENTER
100
AcDbLine
 10
941.0
 20
456.5
 30
0.0
 11
941.0
 21
450.0
 31
0.0
  0
CIRCLE
  5
15CDF
330
157DF
100
AcDbEntity
  8
1
  6
Continuous
100
AcDbCircle
 10
941.0
 20
319.5
 30
0.0
 40
2.399999999999999
  0
LINE
  5
15CE0
330
157DF
100
AcDbEntity
  8
4
  6
CENTER
100
AcDbLine
 10
935.25
 20
319.5
 30
0.0
 11
946.7499999999999
 21
319.5
 31
0.0
  0
LINE
  5
15CE1
330
157DF
100
AcDbEntity
  8
4
  6
CENTER
100
AcDbLine
 10
941.0
 20
325.2499999999999
 30
0.0
 11
941.0
 21
313.75
 31
0.0
  0
LINE
  5
15CE2
330
157DF
100
AcDbEntity
  8
4
  6
CENTER
100
AcDbLine
 10
941.0
 20
236.5
 30
0.0
 11
941.0
 21
230.0
 31
0.0
  0
CIRCLE
  5
15CE3
330
157DF
100
AcDbEntity
  8
1
  6
Continuous
100
AcDbCircle
 10
941.0
 20
135.0
 30
0.0
 40
3.75
  0
CIRCLE
  5
15CE4
330
157DF
100
AcDbEntity
  8
1
  6
Continuous
100
AcDbCircle
 10
941.0
 20
135.0
 30
0.0
 40
2.399999999999999
  0
LINE
  5
15CE5
330
157DF
100
AcDbEntity
  8
4
  6
CENTER
100
AcDbLine
 10
941.0
 20
129.2499999999998
 30
0.0
 11
941.0
 21
140.7499999999998
 31
0.0
  0
LINE
  5
15CE6
330
157DF
100
AcDbEntity
  8
4
  6
CENTER
100
AcDbLine
 10
946.7499999999999
 20
135.0
 30
0.0
 11
935.25
 21
135.0
 31
0.0
  0
LINE
  5
15CE7
330
157DF
100
AcDbEntity
  8
4
  6
CENTER
100
AcDbLine
 10
941.0
 20
38.0
 30
0.0
 11
941.0
 21
44.5
 31
0.0
  0
LINE
  5
15CE8
330
157DF
100
AcDbEntity
  8
4
  6
CENTER
100
AcDbLine
 10
595.0
 20
725.9
 30
0.0
 11
595.0
 21
713.2550150000001
 31
0.0
  0
LINE
  5
15CE9
330
157DF
100
AcDbEntity
  8
4
  6
CENTER
100
AcDbLine
 10
615.0
 20
531.0999999999998
 30
0.0
 11
615.0
 21
543.9
 31
0.0
  0
LINE
  5
15CEA
330
157DF
100
AcDbEntity
  8
4
  6
CENTER
100
AcDbLine
 10
615.0
 20
323.3999999999999
 30
0.0
 11
615.0
 21
310.6
 31
0.0
  0
LINE
  5
15CEB
330
157DF
100
AcDbEntity
  8
4
  6
CENTER
100
AcDbLine
 10
595.0
 20
128.6
 30
0.0
 11
595.0
 21
141.4
 31
0.0
  0
LINE
  5
15CEC
330
157DF
100
AcDbEntity
  8
4
  6
CENTER
100
AcDbLine
 10
915.0
 20
129.2499999999998
 30
0.0
 11
915.0
 21
140.7499999999998
 31
0.0
  0
LINE
  5
15CED
330
157DF
100
AcDbEntity
  8
4
  6
CENTER
100
AcDbLine
 10
915.0
 20
529.25
 30
0.0
 11
915.0
 21
540.7499999999998
 31
0.0
  0
LINE
  5
15CEE
330
157DF
100
AcDbEntity
  8
4
  6
CENTER
100
AcDbLine
 10
828.25
 20
535.0
 30
0.0
 11
816.75
 21
535.0
 31
0.0
  0
LINE
  5
15CEF
330
157DF
100
AcDbEntity
  8
4
  6
CENTER
100
AcDbLine
 10
828.25
 20
135.0
 30
0.0
 11
816.75
 21
135.0
 31
0.0
  0
LINE
  5
15CF0
330
157DF
100
AcDbEntity
  8
4
  6
CENTER
100
AcDbLine
 10
798.5
 20
529.25
 30
0.0
 11
798.5
 21
540.7499999999998
 31
0.0
  0
CIRCLE
  5
15CF1
330
157DF
100
AcDbEntity
  8
5
  6
PHANTOM
100
AcDbCircle
 10
798.5
 20
535.0
 30
0.0
 40
3.75
  0
CIRCLE
  5
15CF2
330
157DF
100
AcDbEntity
  8
5
  6
PHANTOM
100
AcDbCircle
 10
798.5
 20
535.0
 30
0.0
 40
2.399999999999999
  0
LINE
  5
15CF3
330
157DF
100
AcDbEntity
  8
4
  6
CENTER
100
AcDbLine
 10
804.25
 20
535.0
 30
0.0
 11
792.75
 21
535.0
 31
0.0
  0
LINE
  5
15CF4
330
157DF
100
AcDbEntity
  8
4
  6
CENTER
100
AcDbLine
 10
677.2499999999999
 20
535.0
 30
0.0
 11
665.7499999999997
 21
535.0
 31
0.0
  0
CIRCLE
  5
15CF5
330
157DF
100
AcDbEntity
  8
5
  6
PHANTOM
100
AcDbCircle
 10
671.4999999999998
 20
535.0
 30
0.0
 40
2.399999999999999
  0
CIRCLE
  5
15CF6
330
157DF
100
AcDbEntity
  8
5
  6
PHANTOM
100
AcDbCircle
 10
671.4999999999998
 20
535.0
 30
0.0
 40
3.75
  0
LINE
  5
15CF7
330
157DF
100
AcDbEntity
  8
4
  6
CENTER
100
AcDbLine
 10
671.4999999999998
 20
529.25
 30
0.0
 11
671.4999999999998
 21
540.7499999999998
 31
0.0
  0
LINE
  5
15CF8
330
157DF
100
AcDbEntity
  8
4
  6
CENTER
100
AcDbLine
 10
677.2499999999999
 20
135.0
 30
0.0
 11
665.7499999999997
 21
135.0
 31
0.0
  0
CIRCLE
  5
15CF9
330
157DF
100
AcDbEntity
  8
5
  6
PHANTOM
100
AcDbCircle
 10
671.4999999999998
 20
135.0
 30
0.0
 40
2.399999999999999
  0
LINE
  5
15CFA
330
157DF
100
AcDbEntity
  8
4
  6
CENTER
100
AcDbLine
 10
671.4999999999998
 20
129.2499999999998
 30
0.0
 11
671.4999999999998
 21
140.7499999999998
 31
0.0
  0
ENDSEC
  0
SECTION
  2
OBJECTS
  0
DICTIONARY
  5
157CD
330
0
100
AcDbDictionary
281
     1
  3
ACAD_CIP_PREVIOUS_PRODUCT_INFO
350
15D5A
  3
ACAD_COLOR
350
15D3C
  3
ACAD_DETAILVIEWSTYLE
350
15D55
  3
ACAD_GROUP
350
157CE
  3
ACAD_LAYOUT
350
157DA
  3
ACAD_MATERIAL
350
15D0A
  3
ACAD_MLEADERSTYLE
350
15D51
  3
ACAD_MLINESTYLE
350
157D7
  3
ACAD_PLOTSETTINGS
350
157D9
  3
ACAD_PLOTSTYLENAME
350
15D08
  3
ACAD_SCALELIST
350
15D3F
  3
ACAD_SECTIONVIEWSTYLE
350
15D53
  3
ACAD_TABLESTYLE
350
15D3D
  3
ACAD_VISUALSTYLE
350
15D23
  3
ACDB_RECOMPOSE_DATA
350
15D78
  3
AcDbVariableDictionary
350
15D6B
  3
DWGPROPS
350
15D79
  0
DICTIONARY
  5
15D5B
330
157D1
100
AcDbDictionary
280
     1
281
     1
  3
ADSK_XREC_LAYER_RECONCILED
360
15D5C
  0
DICTIONARY
  5
15D5D
330
157E7
100
AcDbDictionary
280
     1
281
     1
  3
ADSK_XREC_LAYER_RECONCILED
360
15D5E
  0
DICTIONARY
  5
15D5F
330
157E8
100
AcDbDictionary
280
     1
281
     1
  3
ADSK_XREC_LAYER_RECONCILED
360
15D60
  0
DICTIONARY
  5
15D61
330
157E9
100
AcDbDictionary
280
     1
281
     1
  3
ADSK_XREC_LAYER_RECONCILED
360
15D62
  0
DICTIONARY
  5
15D63
330
157EA
100
AcDbDictionary
280
     1
281
     1
  3
ADSK_XREC_LAYER_RECONCILED
360
15D64
  0
DICTIONARY
  5
15D65
330
157EB
100
AcDbDictionary
280
     1
281
     1
  3
ADSK_XREC_LAYER_RECONCILED
360
15D66
  0
DICTIONARY
  5
15D67
330
157EC
100
AcDbDictionary
280
     1
281
     1
  3
ADSK_XREC_LAYER_RECONCILED
360
15D68
  0
DICTIONARY
  5
15D69
330
157ED
100
AcDbDictionary
280
     1
281
     1
  3
ADSK_XREC_LAYER_RECONCILED
360
15D6A
  0
DICTIONARY
  5
15D03
330
157DF
100
AcDbDictionary
281
     1
  3
ACAD_LAYOUTSELFREF
350
15D04
  0
DICTIONARY
  5
15D01
330
157DB
100
AcDbDictionary
281
     1
  3
ACAD_LAYOUTSELFREF
350
15D02
  0
XRECORD
  5
15D5A
102
{ACAD_REACTORS
330
157CD
102
}
330
157CD
100
AcDbXrecord
280
     1
300
ACDLT
300
2014
300
ACDLT_F_S
  0
DICTIONARY
  5
15D3C
102
{ACAD_REACTORS
330
157CD
102
}
330
157CD
100
AcDbDictionary
281
     1
  0
DICTIONARY
  5
15D55
102
{ACAD_REACTORS
330
157CD
102
}
330
157CD
100
AcDbDictionary
281
     1
  3
Imperial24
350
15D56
  0
DICTIONARY
  5
157CE
102
{ACAD_REACTORS
330
157CD
102
}
330
157CD
100
AcDbDictionary
281
     1
  0
DICTIONARY
  5
157DA
102
{ACAD_REACTORS
330
157CD
102
}
330
157CD
100
AcDbDictionary
281
     1
  3
Model
350
15D57
  3
レイアウト1
350
15D58
  0
DICTIONARY
  5
15D0A
102
{ACAD_REACTORS
330
157CD
102
}
330
157CD
100
AcDbDictionary
281
     1
  3
ByBlock
350
15D13
  3
ByLayer
350
15D0B
  3
Global
350
15D1B
  0
DICTIONARY
  5
15D51
102
{ACAD_REACTORS
330
157CD
102
}
330
157CD
100
AcDbDictionary
281
     1
  3
Standard
350
15D52
  0
DICTIONARY
  5
157D7
102
{ACAD_REACTORS
330
157CD
102
}
330
157CD
100
AcDbDictionary
281
     1
  3
STANDARD
350
157D8
  0
DICTIONARY
  5
157D9
102
{ACAD_REACTORS
330
157CD
102
}
330
157CD
100
AcDbDictionary
281
     1
  0
ACDBDICTIONARYWDFLT
  5
15D08
102
{ACAD_REACTORS
330
157CD
102
}
330
157CD
100
AcDbDictionary
281
     1
  3
Normal
350
15D09
100
AcDbDictionaryWithDefault
340
15D09
  0
DICTIONARY
  5
15D3F
102
{ACAD_REACTORS
330
157CD
102
}
330
157CD
100
AcDbDictionary
281
     1
  3
A0
350
15D40
  3
A1
350
15D41
  3
A2
350
15D42
  3
A3
350
15D43
  3
A4
350
15D44
  3
A5
350
15D45
  3
A6
350
15D46
  3
A7
350
15D47
  3
A8
350
15D48
  3
A9
350
15D49
  3
B0
350
15D4A
  3
B1
350
15D4B
  3
B2
350
15D4C
  3
B3
350
15D4D
  3
B4
350
15D4E
  3
B5
350
15D4F
  3
B6
350
15D50
  0
DICTIONARY
  5
15D53
102
{ACAD_REACTORS
330
157CD
102
}
330
157CD
100
AcDbDictionary
281
     1
  3
Imperial24
350
15D54
  0
DICTIONARY
  5
15D3D
102
{ACAD_REACTORS
330
157CD
102
}
330
157CD
100
AcDbDictionary
281
     1
  3
Standard
350
15D3E
  0
DICTIONARY
  5
15D23
102
{ACAD_REACTORS
330
157CD
102
}
330
157CD
100
AcDbDictionary
281
     1
  3
2dWireframe
350
15D29
  3
Basic
350
15D28
  3
Brighten
350
15D2F
  3
ColorChange
350
15D33
  3
Conceptual
350
15D2C
  3
Dim
350
15D2E
  3
EdgeColorOff
350
15D3B
  3
Facepattern
350
15D32
  3
Flat
350
15D24
  3
FlatWithEdges
350
15D25
  3
Gouraud
350
15D26
  3
GouraudWithEdges
350
15D27
  3
Hidden
350
15D2B
  3
JitterOff
350
15D39
  3
Linepattern
350
15D31
  3
OverhangOff
350
15D3A
  3
Realistic
350
15D2D
  3
Shaded
350
15D38
  3
Shaded with edges
350
15D37
  3
Shades of Gray
350
15D34
  3
Sketchy
350
15D35
  3
Thicken
350
15D30
  3
Wireframe
350
15D2A
  3
X-Ray
350
15D36
  0
XRECORD
  5
15D78
102
{ACAD_REACTORS
330
157CD
102
}
330
157CD
100
AcDbXrecord
280
     1
 90
        1
330
15D3E
  0
DICTIONARY
  5
15D6B
102
{ACAD_REACTORS
330
157CD
102
}
330
157CD
100
AcDbDictionary
281
     1
  3
CANNOSCALE
350
15D70
  3
CMLEADERSTYLE
350
15D6D
  3
CTABLESTYLE
350
15D6C
  3
CVIEWDETAILSTYLE
350
15D6E
  3
CVIEWSECTIONSTYLE
350
15D6F
  3
DIMASSOC
350
15D73
  3
INDEXCTL
350
15D72
  3
SORTENTS
350
15D71
  3
XCLIPFRAME
350
15D74
  0
XRECORD
  5
15D79
102
{ACAD_REACTORS
330
157CD
102
}
330
157CD
100
AcDbXrecord
280
     1
  1
DWGPROPS COOKIE
  2

  3

  4

  6

  7

  8
Yoshitsune
  9

300
=
301
=
302
=
303
=
304
=
305
=
306
=
307
=
308
=
309
=
 40
0.0000145023148148
 41
2451263.699261227
 42
2457192.661620509
  1

 90
        0
  0
XRECORD
  5
15D5C
102
{ACAD_REACTORS
330
15D5B
102
}
330
15D5B
100
AcDbXrecord
280
     1
290
     1
  0
XRECORD
  5
15D5E
102
{ACAD_REACTORS
330
15D5D
102
}
330
15D5D
100
AcDbXrecord
280
     1
290
     1
  0
XRECORD
  5
15D60
102
{ACAD_REACTORS
330
15D5F
102
}
330
15D5F
100
AcDbXrecord
280
     1
290
     1
  0
XRECORD
  5
15D62
102
{ACAD_REACTORS
330
15D61
102
}
330
15D61
100
AcDbXrecord
280
     1
290
     1
  0
XRECORD
  5
15D64
102
{ACAD_REACTORS
330
15D63
102
}
330
15D63
100
AcDbXrecord
280
     1
290
     1
  0
XRECORD
  5
15D66
102
{ACAD_REACTORS
330
15D65
102
}
330
15D65
100
AcDbXrecord
280
     1
290
     1
  0
XRECORD
  5
15D68
102
{ACAD_REACTORS
330
15D67
102
}
330
15D67
100
AcDbXrecord
280
     1
290
     1
  0
XRECORD
  5
15D6A
102
{ACAD_REACTORS
330
15D69
102
}
330
15D69
100
AcDbXrecord
280
     1
290
     1
  0
XRECORD
  5
15D04
102
{ACAD_REACTORS
330
15D03
102
}
330
15D03
100
AcDbXrecord
280
     1
340
157DF
  0
XRECORD
  5
15D02
102
{ACAD_REACTORS
330
15D01
102
}
330
15D01
100
AcDbXrecord
280
     1
340
157DB
  0
ACDBDETAILVIEWSTYLE
  5
15D56
102
{ACAD_XDICTIONARY
360
15DB1
102
}
102
{ACAD_REACTORS
330
15D55
102
}
330
15D55
100
AcDbModelDocViewStyle
 70
     0
  3
Imperial24
290
     0
100
AcDbDetailViewStyle
 70
     0
 71
     0
 90
        3
 71
     1
340
157D2
 40
0.24
340
0
 40
0.24
300

 40
0.36
280
     3
 71
     2
340
157D6
 90
       25
 71
     3
340
157D2
 40
0.24
 90
        1
 40
0.75
 90
        1
300
%<\AcVar ViewType \f "%tc1">% %<\AcVar ViewDetailId>%\PSCALE %<\AcVar ViewScale \f "%sn">%
 71
     4
340
157D6
 90
       25
340
157D6
 90
       25
280
     0
  0
LAYOUT
  5
15D57
102
{ACAD_XDICTIONARY
360
15DB3
102
}
102
{ACAD_REACTORS
330
157DA
102
}
330
157DA
100
AcDbPlotSettings
  1

  2
Canon LBP9100C
  4

  6

 40
0.0
 41
0.0
 42
0.0
 43
0.0
 44
0.0
 45
0.0
 46
0.0
 47
0.0
 48
0.0
 49
0.0
140
0.0
141
0.0
142
1.0
143
1.0
 70
  1712
 72
     0
 73
     0
 74
     0
  7

 75
     0
147
1.0
148
0.0
149
0.0
100
AcDbLayout
  1
Model
 70
     1
 71
     0
 10
0.0
 20
0.0
 11
12.0
 21
9.0
 12
0.0
 22
0.0
 32
0.0
 14
0.0
 24
0.0
 34
0.0
 15
0.0
 25
0.0
 35
0.0
146
0.0
 13
0.0
 23
0.0
 33
0.0
 16
1.0
 26
0.0
 36
0.0
 17
0.0
 27
1.0
 37
0.0
 76
     0
330
157DF
331
15D00
  0
LAYOUT
  5
15D58
102
{ACAD_XDICTIONARY
360
15DB5
102
}
102
{ACAD_REACTORS
330
157DA
102
}
330
157DA
100
AcDbPlotSettings
  1

  2
Canon LBP9100C
  4

  6

 40
0.0
 41
0.0
 42
0.0
 43
0.0
 44
0.0
 45
0.0
 46
0.0
 47
0.0
 48
0.0
 49
0.0
140
0.0
141
0.0
142
1.0
143
1.0
 70
   688
 72
     0
 73
     0
 74
     5
  7

 75
    16
147
1.0
148
0.0
149
0.0
100
AcDbLayout
  1
レイアウト1
 70
     0
 71
     1
 10
0.0
 20
0.0
 11
420.0
 21
297.0
 12
0.0
 22
0.0
 32
0.0
 14
1.000000000000000E+20
 24
1.000000000000000E+20
 34
1.000000000000000E+20
 15
-1.000000000000000E+20
 25
-1.000000000000000E+20
 35
-1.000000000000000E+20
146
0.0
 13
0.0
 23
0.0
 33
0.0
 16
1.0
 26
0.0
 36
0.0
 17
0.0
 27
1.0
 37
0.0
 76
     0
330
157DB
  0
MATERIAL
  5
15D13
102
{ACAD_XDICTIONARY
360
15D14
102
}
102
{ACAD_REACTORS
330
15D0A
102
}
330
15D0A
100
AcDbMaterial
  1
ByBlock
 72
     0
 43
0.0208333333333333
 43
0.0
 43
0.0
 43
0.0
 43
0.0
 43
0.0208333333333333
 43
0.0
 43
0.0
 43
0.0
 43
0.0
 43
1.0
 43
0.0
 43
0.0
 43
0.0
 43
0.0
 43
1.0
 77
     0
 47
0.0208333333333333
 47
0.0
 47
0.0
 47
0.0
 47
0.0
 47
0.0208333333333333
 47
0.0
 47
0.0
 47
0.0
 47
0.0
 47
1.0
 47
0.0
 47
0.0
 47
0.0
 47
0.0
 47
1.0
171
     0
 49
0.0208333333333333
 49
0.0
 49
0.0
 49
0.0
 49
0.0
 49
0.0208333333333333
 49
0.0
 49
0.0
 49
0.0
 49
0.0
 49
1.0
 49
0.0
 49
0.0
 49
0.0
 49
0.0
 49
1.0
175
     0
142
0.0208333333333333
142
0.0
142
0.0
142
0.0
142
0.0
142
0.0208333333333333
142
0.0
142
0.0
142
0.0
142
0.0
142
1.0
142
0.0
142
0.0
142
0.0
142
0.0
142
1.0
179
     0
144
0.0208333333333333
144
0.0
144
0.0
144
0.0
144
0.0
144
0.0208333333333333
144
0.0
144
0.0
144
0.0
144
0.0
144
1.0
144
0.0
144
0.0
144
0.0
144
0.0
144
1.0
147
0.0208333333333333
147
0.0
147
0.0
147
0.0
147
0.0
147
0.0208333333333333
147
0.0
147
0.0
147
0.0
147
0.0
147
1.0
147
0.0
147
0.0
147
0.0
147
0.0
147
1.0
  0
MATERIAL
  5
15D0B
102
{ACAD_XDICTIONARY
360
15D0C
102
}
102
{ACAD_REACTORS
330
15D0A
102
}
330
15D0A
100
AcDbMaterial
  1
ByLayer
 72
     0
 43
0.0208333333333333
 43
0.0
 43
0.0
 43
0.0
 43
0.0
 43
0.0208333333333333
 43
0.0
 43
0.0
 43
0.0
 43
0.0
 43
1.0
 43
0.0
 43
0.0
 43
0.0
 43
0.0
 43
1.0
 77
     0
 47
0.0208333333333333
 47
0.0
 47
0.0
 47
0.0
 47
0.0
 47
0.0208333333333333
 47
0.0
 47
0.0
 47
0.0
 47
0.0
 47
1.0
 47
0.0
 47
0.0
 47
0.0
 47
0.0
 47
1.0
171
     0
 49
0.0208333333333333
 49
0.0
 49
0.0
 49
0.0
 49
0.0
 49
0.0208333333333333
 49
0.0
 49
0.0
 49
0.0
 49
0.0
 49
1.0
 49
0.0
 49
0.0
 49
0.0
 49
0.0
 49
1.0
175
     0
142
0.0208333333333333
142
0.0
142
0.0
142
0.0
142
0.0
142
0.0208333333333333
142
0.0
142
0.0
142
0.0
142
0.0
142
1.0
142
0.0
142
0.0
142
0.0
142
0.0
142
1.0
179
     0
144
0.0208333333333333
144
0.0
144
0.0
144
0.0
144
0.0
144
0.0208333333333333
144
0.0
144
0.0
144
0.0
144
0.0
144
1.0
144
0.0
144
0.0
144
0.0
144
0.0
144
1.0
147
0.0208333333333333
147
0.0
147
0.0
147
0.0
147
0.0
147
0.0208333333333333
147
0.0
147
0.0
147
0.0
147
0.0
147
1.0
147
0.0
147
0.0
147
0.0
147
0.0
147
1.0
  0
MATERIAL
  5
15D1B
102
{ACAD_XDICTIONARY
360
15D1C
102
}
102
{ACAD_REACTORS
330
15D0A
102
}
330
15D0A
100
AcDbMaterial
  1
Global
 72
     0
 43
0.0208333333333333
 43
0.0
 43
0.0
 43
0.0
 43
0.0
 43
0.0208333333333333
 43
0.0
 43
0.0
 43
0.0
 43
0.0
 43
1.0
 43
0.0
 43
0.0
 43
0.0
 43
0.0
 43
1.0
 77
     0
 47
0.0208333333333333
 47
0.0
 47
0.0
 47
0.0
 47
0.0
 47
0.0208333333333333
 47
0.0
 47
0.0
 47
0.0
 47
0.0
 47
1.0
 47
0.0
 47
0.0
 47
0.0
 47
0.0
 47
1.0
171
     0
 49
0.0208333333333333
 49
0.0
 49
0.0
 49
0.0
 49
0.0
 49
0.0208333333333333
 49
0.0
 49
0.0
 49
0.0
 49
0.0
 49
1.0
 49
0.0
 49
0.0
 49
0.0
 49
0.0
 49
1.0
175
     0
142
0.0208333333333333
142
0.0
142
0.0
142
0.0
142
0.0
142
0.0208333333333333
142
0.0
142
0.0
142
0.0
142
0.0
142
1.0
142
0.0
142
0.0
142
0.0
142
0.0
142
1.0
179
     0
144
0.0208333333333333
144
0.0
144
0.0
144
0.0
144
0.0
144
0.0208333333333333
144
0.0
144
0.0
144
0.0
144
0.0
144
1.0
144
0.0
144
0.0
144
0.0
144
0.0
144
1.0
147
0.0208333333333333
147
0.0
147
0.0
147
0.0
147
0.0
147
0.0208333333333333
147
0.0
147
0.0
147
0.0
147
0.0
147
1.0
147
0.0
147
0.0
147
0.0
147
0.0
147
1.0
  0
MLEADERSTYLE
  5
15D52
102
{ACAD_REACTORS
330
15D51
102
}
330
15D51
100
AcDbMLeaderStyle
170
     2
171
     1
172
     0
 90
        2
 40
0.0
 41
0.0
173
     1
 91
-1056964608
340
157D4
 92
       -2
290
     1
 42
0.09
291
     1
 43
0.36
  3
Standard
 44
0.18
300

342
157D2
174
     1
178
     6
175
     1
176
     0
 93
-1056964608
 45
0.18
292
     0
297
     0
 46
0.18
 94
-1056964608
 47
1.0
 49
1.0
140
1.0
293
     1
141
0.0
294
     1
177
     0
142
1.0
295
     0
296
     0
143
0.125
1001
ACAD_MLEADERVER
1070
     2
  0
MLINESTYLE
  5
157D8
102
{ACAD_REACTORS
330
157D7
102
}
330
157D7
100
AcDbMlineStyle
  2
STANDARD
 70
     0
  3

 62
   256
 51
90.0
 52
90.0
 71
     2
 49
0.5
 62
   256
  6
BYLAYER
 49
-0.5
 62
   256
  6
BYLAYER
  0
ACDBPLACEHOLDER
  5
15D09
102
{ACAD_REACTORS
330
15D08
102
}
330
15D08
  0
SCALE
  5
15D40
102
{ACAD_REACTORS
330
15D3F
102
}
330
15D3F
100
AcDbScale
 70
     0
300
1:1
140
1.0
141
1.0
290
     1
  0
SCALE
  5
15D41
102
{ACAD_REACTORS
330
15D3F
102
}
330
15D3F
100
AcDbScale
 70
     0
300
1/128" = 1'-0"
140
0.0078125
141
12.0
290
     0
  0
SCALE
  5
15D42
102
{ACAD_REACTORS
330
15D3F
102
}
330
15D3F
100
AcDbScale
 70
     0
300
1/64" = 1'-0"
140
0.015625
141
12.0
290
     0
  0
SCALE
  5
15D43
102
{ACAD_REACTORS
330
15D3F
102
}
330
15D3F
100
AcDbScale
 70
     0
300
1/32" = 1'-0"
140
0.03125
141
12.0
290
     0
  0
SCALE
  5
15D44
102
{ACAD_REACTORS
330
15D3F
102
}
330
15D3F
100
AcDbScale
 70
     0
300
1/16" = 1'-0"
140
0.0625
141
12.0
290
     0
  0
SCALE
  5
15D45
102
{ACAD_REACTORS
330
15D3F
102
}
330
15D3F
100
AcDbScale
 70
     0
300
3/32" = 1'-0"
140
0.09375
141
12.0
290
     0
  0
SCALE
  5
15D46
102
{ACAD_REACTORS
330
15D3F
102
}
330
15D3F
100
AcDbScale
 70
     0
300
1/8" = 1'-0"
140
0.125
141
12.0
290
     0
  0
SCALE
  5
15D47
102
{ACAD_REACTORS
330
15D3F
102
}
330
15D3F
100
AcDbScale
 70
     0
300
3/16" = 1'-0"
140
0.1875
141
12.0
290
     0
  0
SCALE
  5
15D48
102
{ACAD_REACTORS
330
15D3F
102
}
330
15D3F
100
AcDbScale
 70
     0
300
1/4" = 1'-0"
140
0.25
141
12.0
290
     0
  0
SCALE
  5
15D49
102
{ACAD_REACTORS
330
15D3F
102
}
330
15D3F
100
AcDbScale
 70
     0
300
3/8" = 1'-0"
140
0.375
141
12.0
290
     0
  0
SCALE
  5
15D4A
102
{ACAD_REACTORS
330
15D3F
102
}
330
15D3F
100
AcDbScale
 70
     0
300
1/2" = 1'-0"
140
0.5
141
12.0
290
     0
  0
SCALE
  5
15D4B
102
{ACAD_REACTORS
330
15D3F
102
}
330
15D3F
100
AcDbScale
 70
     0
300
3/4" = 1'-0"
140
0.75
141
12.0
290
     0
  0
SCALE
  5
15D4C
102
{ACAD_REACTORS
330
15D3F
102
}
330
15D3F
100
AcDbScale
 70
     0
300
1" = 1'-0"
140
1.0
141
12.0
290
     0
  0
SCALE
  5
15D4D
102
{ACAD_REACTORS
330
15D3F
102
}
330
15D3F
100
AcDbScale
 70
     0
300
1-1/2" = 1'-0"
140
1.5
141
12.0
290
     0
  0
SCALE
  5
15D4E
102
{ACAD_REACTORS
330
15D3F
102
}
330
15D3F
100
AcDbScale
 70
     0
300
3" = 1'-0"
140
3.0
141
12.0
290
     0
  0
SCALE
  5
15D4F
102
{ACAD_REACTORS
330
15D3F
102
}
330
15D3F
100
AcDbScale
 70
     0
300
6" = 1'-0"
140
6.0
141
12.0
290
     0
  0
SCALE
  5
15D50
102
{ACAD_REACTORS
330
15D3F
102
}
330
15D3F
100
AcDbScale
 70
     0
300
1'-0" = 1'-0"
140
12.0
141
12.0
290
     0
  0
ACDBSECTIONVIEWSTYLE
  5
15D54
102
{ACAD_XDICTIONARY
360
15DAF
102
}
102
{ACAD_REACTORS
330
15D53
102
}
330
15D53
100
AcDbModelDocViewStyle
 70
     0
  3
Imperial24
290
     0
100
AcDbSectionViewStyle
 70
     0
 71
     0
 90
       78
 71
     1
340
157D2
 40
0.24
340
0
340
0
 40
0.24
300
I, O, Q, S, X, Z
 40
0.48
 90
        3
 40
0.18
 90
        1
 71
     2
340
157D6
 90
       25
340
157D6
 90
       50
 40
0.24
 40
0.0
 40
0.24
 71
     3
340
157D2
 40
0.24
 90
        1
 40
0.75
 90
        1
300
%<\AcVar ViewType \f "%tc1">% %<\AcVar ViewSectionStartId>%-%<\AcVar ViewSectionEndId>%\PSCALE %<\AcVar ViewScale \f "%sn">%
 71
     4
300
ANSI31
 40
1.0
 90
        0
290
     0
290
     0
 90
        6
 40
0.0
 40
1.570796326794896
 40
0.2617993877991494
 40
1.308996938995747
 40
-0.2617993877991494
 40
1.832595714594046
  0
TABLESTYLE
  5
15D3E
102
{ACAD_XDICTIONARY
360
15D76
102
}
102
{ACAD_REACTORS
330
15D3D
102
}
330
15D3D
100
AcDbTableStyle
  3
Standard
 70
     0
 71
     0
 40
0.06
 41
0.06
280
     0
281
     0
  7
STANDARD
140
0.18
170
     2
 62
     0
 63
     7
283
     0
274
    -2
284
     1
 64
     0
275
    -2
285
     1
 65
     0
276
    -2
286
     1
 66
     0
277
    -2
287
     1
 67
     0
278
    -2
288
     1
 68
     0
279
    -2
289
     1
 69
     0
  7
STANDARD
140
0.25
170
     5
 62
     0
 63
     7
283
     0
274
    -2
284
     1
 64
     0
275
    -2
285
     1
 65
     0
276
    -2
286
     1
 66
     0
277
    -2
287
     1
 67
     0
278
    -2
288
     1
 68
     0
279
    -2
289
     1
 69
     0
  7
STANDARD
140
0.18
170
     5
 62
     0
 63
     7
283
     0
274
    -2
284
     1
 64
     0
275
    -2
285
     1
 65
     0
276
    -2
286
     1
 66
     0
277
    -2
287
     1
 67
     0
278
    -2
288
     1
 68
     0
279
    -2
289
     1
 69
     0
  0
VISUALSTYLE
  5
15D29
102
{ACAD_XDICTIONARY
360
15D87
102
}
102
{ACAD_REACTORS
330
15D23
102
}
330
15D23
100
AcDbVisualStyle
  2
2dWireframe
 70
     4
 71
     0
 72
     2
 73
     0
 90
        0
 40
-0.6
 41
-30.0
 62
     5
 63
     7
 74
     1
 91
        4
 64
     7
 65
   257
 75
     1
175
     1
 42
1.0
 92
        0
 66
   257
 43
1.0
 76
     1
 77
     6
 78
     2
 67
     7
 79
     5
170
     0
171
     0
290
     0
174
     0
 93
        1
 44
0.0
173
     0
291
     0
 45
0.0
1001
ACAD
1000
AcDbSavedByObjectVersion
1070
     0
  0
VISUALSTYLE
  5
15D28
102
{ACAD_XDICTIONARY
360
15D85
102
}
102
{ACAD_REACTORS
330
15D23
102
}
330
15D23
100
AcDbVisualStyle
  2
Basic
 70
     7
 71
     1
 72
     0
 73
     1
 90
        0
 40
-0.6
 41
-30.0
 62
     5
 63
     7
 74
     0
 91
        4
 64
     7
 65
   257
 75
     1
175
     1
 42
1.0
 92
        8
 66
     7
 43
1.0
 76
     1
 77
     6
 78
     2
 67
     7
 79
     5
170
     0
171
     0
290
     0
174
     0
 93
        1
 44
0.0
173
     0
291
     1
 45
0.0
1001
ACAD
1000
AcDbSavedByObjectVersion
1070
     0
  0
VISUALSTYLE
  5
15D2F
102
{ACAD_XDICTIONARY
360
15D93
102
}
102
{ACAD_REACTORS
330
15D23
102
}
330
15D23
100
AcDbVisualStyle
  2
Brighten
 70
    12
 71
     2
 72
     2
 73
     0
 90
        0
 40
-0.6
 41
-30.0
 62
     5
 63
     7
 74
     1
 91
        4
 64
     7
 65
   257
 75
     1
175
     1
 42
1.0
 92
        8
 66
     7
 43
1.0
 76
     1
 77
     6
 78
     2
 67
     7
 79
     5
170
     0
171
     0
290
     0
174
     0
 93
        1
 44
50.0
173
     0
291
     1
 45
0.0
1001
ACAD
1000
AcDbSavedByObjectVersion
1070
     0
  0
VISUALSTYLE
  5
15D33
102
{ACAD_XDICTIONARY
360
15D9B
102
}
102
{ACAD_REACTORS
330
15D23
102
}
330
15D23
100
AcDbVisualStyle
  2
ColorChange
 70
    16
 71
     2
 72
     2
 73
     3
 90
        0
 40
-0.6
 41
-30.0
 62
     5
 63
     8
 74
     1
 91
        4
 64
     7
 65
   257
 75
     1
175
     1
 42
1.0
 92
        8
 66
     8
 43
1.0
 76
     1
 77
     6
 78
     2
 67
     7
 79
     5
170
     0
171
     0
290
     0
174
     0
 93
        1
 44
0.0
173
     0
291
     1
 45
0.0
1001
ACAD
1000
AcDbSavedByObjectVersion
1070
     0
  0
VISUALSTYLE
  5
15D2C
102
{ACAD_XDICTIONARY
360
15D8D
102
}
102
{ACAD_REACTORS
330
15D23
102
}
330
15D23
100
AcDbVisualStyle
  2
Conceptual
 70
     9
 71
     3
 72
     2
 73
     0
 90
        0
 40
-0.6
 41
-30.0
 62
     5
 63
     7
 74
     2
 91
        2
 64
     7
 65
   257
 75
     1
175
     1
 42
179.0
 92
        8
 66
     7
 43
1.0
 76
     1
 77
     6
 78
     2
 67
     7
 79
     3
170
     0
171
     0
290
     0
174
     0
 93
        1
 44
0.0
173
     0
291
     0
 45
0.0
1001
ACAD
1000
AcDbSavedByObjectVersion
1070
     0
  0
VISUALSTYLE
  5
15D2E
102
{ACAD_XDICTIONARY
360
15D91
102
}
102
{ACAD_REACTORS
330
15D23
102
}
330
15D23
100
AcDbVisualStyle
  2
Dim
 70
    11
 71
     2
 72
     2
 73
     0
 90
        0
 40
-0.6
 41
-30.0
 62
     5
 63
     7
 74
     1
 91
        4
 64
     7
 65
   257
 75
     1
175
     1
 42
1.0
 92
        8
 66
     7
 43
1.0
 76
     1
 77
     6
 78
     2
 67
     7
 79
     5
170
     0
171
     0
290
     0
174
     0
 93
        1
 44
-50.0
173
     0
291
     1
 45
0.0
1001
ACAD
1000
AcDbSavedByObjectVersion
1070
     0
  0
VISUALSTYLE
  5
15D3B
102
{ACAD_XDICTIONARY
360
15DAB
102
}
102
{ACAD_REACTORS
330
15D23
102
}
330
15D23
100
AcDbVisualStyle
  2
EdgeColorOff
 70
    22
 71
     2
 72
     2
 73
     0
 90
        0
 40
-0.6
 41
-30.0
 62
     5
 63
     7
 74
     1
 91
        4
 64
     7
 65
   257
 75
     1
175
     1
 42
1.0
 92
        8
 66
     7
 43
1.0
 76
     1
 77
     6
 78
     2
 67
     7
 79
     5
170
     0
171
     0
290
     0
174
     0
 93
        1
 44
0.0
173
     0
291
     1
 45
0.0
1001
ACAD
1000
AcDbSavedByObjectVersion
1070
     0
  0
VISUALSTYLE
  5
15D32
102
{ACAD_XDICTIONARY
360
15D99
102
}
102
{ACAD_REACTORS
330
15D23
102
}
330
15D23
100
AcDbVisualStyle
  2
Facepattern
 70
    15
 71
     2
 72
     2
 73
     0
 90
        0
 40
-0.6
 41
-30.0
 62
     5
 63
     7
 74
     1
 91
        4
 64
     7
 65
   257
 75
     1
175
     1
 42
1.0
 92
        8
 66
     7
 43
1.0
 76
     1
 77
     6
 78
     2
 67
     7
 79
     5
170
     0
171
     0
290
     0
174
     0
 93
        1
 44
0.0
173
     0
291
     1
 45
0.0
1001
ACAD
1000
AcDbSavedByObjectVersion
1070
     0
  0
VISUALSTYLE
  5
15D24
102
{ACAD_XDICTIONARY
360
15D7D
102
}
102
{ACAD_REACTORS
330
15D23
102
}
330
15D23
100
AcDbVisualStyle
  2
Flat
 70
     0
 71
     2
 72
     1
 73
     1
 90
        2
 40
-0.6
 41
30.0
 62
     5
 63
     7
 74
     0
 91
        0
 64
     7
 65
   257
 75
     1
175
     1
 42
1.0
 92
        8
 66
     7
 43
1.0
 76
     1
 77
     6
 78
     2
 67
     7
 79
     5
170
     0
171
     0
290
     0
174
     0
 93
       13
 44
0.0
173
     0
291
     1
 45
0.0
1001
ACAD
1000
AcDbSavedByObjectVersion
1070
     0
  0
VISUALSTYLE
  5
15D25
102
{ACAD_XDICTIONARY
360
15D7F
102
}
102
{ACAD_REACTORS
330
15D23
102
}
330
15D23
100
AcDbVisualStyle
  2
FlatWithEdges
 70
     1
 71
     2
 72
     1
 73
     1
 90
        2
 40
-0.6
 41
30.0
 62
     5
 63
     7
 74
     1
 91
        0
 64
     7
 65
   257
 75
     1
175
     1
 42
1.0
 92
        0
 66
   257
 43
1.0
 76
     1
 77
     6
 78
     2
 67
     7
 79
     5
170
     0
171
     0
290
     0
174
     0
 93
       13
 44
0.0
173
     0
291
     1
 45
0.0
1001
ACAD
1000
AcDbSavedByObjectVersion
1070
     0
  0
VISUALSTYLE
  5
15D26
102
{ACAD_XDICTIONARY
360
15D81
102
}
102
{ACAD_REACTORS
330
15D23
102
}
330
15D23
100
AcDbVisualStyle
  2
Gouraud
 70
     2
 71
     2
 72
     2
 73
     1
 90
        2
 40
-0.6
 41
30.0
 62
     5
 63
     7
 74
     0
 91
        0
 64
     7
 65
   257
 75
     1
175
     1
 42
1.0
 92
        0
 66
     7
 43
1.0
 76
     1
 77
     6
 78
     2
 67
     7
 79
     5
170
     0
171
     0
290
     0
174
     0
 93
       13
 44
0.0
173
     0
291
     1
 45
0.0
1001
ACAD
1000
AcDbSavedByObjectVersion
1070
     0
  0
VISUALSTYLE
  5
15D27
102
{ACAD_XDICTIONARY
360
15D83
102
}
102
{ACAD_REACTORS
330
15D23
102
}
330
15D23
100
AcDbVisualStyle
  2
GouraudWithEdges
 70
     3
 71
     2
 72
     2
 73
     1
 90
        2
 40
-0.6
 41
30.0
 62
     5
 63
     7
 74
     1
 91
        0
 64
     7
 65
   257
 75
     1
175
     1
 42
1.0
 92
        0
 66
   257
 43
1.0
 76
     1
 77
     6
 78
     2
 67
     7
 79
     5
170
     0
171
     0
290
     0
174
     0
 93
       13
 44
0.0
173
     0
291
     1
 45
0.0
1001
ACAD
1000
AcDbSavedByObjectVersion
1070
     0
  0
VISUALSTYLE
  5
15D2B
102
{ACAD_XDICTIONARY
360
15D8B
102
}
102
{ACAD_REACTORS
330
15D23
102
}
330
15D23
100
AcDbVisualStyle
  2
Hidden
 70
     6
 71
     1
 72
     2
 73
     2
 90
        0
 40
-0.6
 41
-30.0
 62
     5
 63
     7
 74
     2
 91
        2
 64
     7
 65
   257
 75
     2
175
     1
 42
40.0
 92
        0
 66
   257
 43
1.0
 76
     1
 77
     6
 78
     2
 67
     7
 79
     3
170
     0
171
     0
290
     0
174
     0
 93
        1
 44
0.0
173
     0
291
     0
 45
0.0
1001
ACAD
1000
AcDbSavedByObjectVersion
1070
     0
  0
VISUALSTYLE
  5
15D39
102
{ACAD_XDICTIONARY
360
15DA7
102
}
102
{ACAD_REACTORS
330
15D23
102
}
330
15D23
100
AcDbVisualStyle
  2
JitterOff
 70
    20
 71
     2
 72
     2
 73
     0
 90
        0
 40
-0.6
 41
-30.0
 62
     5
 63
     7
 74
     1
 91
        4
 64
     7
 65
   257
 75
     1
175
     1
 42
1.0
 92
       10
 66
     7
 43
1.0
 76
     1
 77
     6
 78
     2
 67
     7
 79
     5
170
     0
171
     0
290
     0
174
     0
 93
        1
 44
0.0
173
     0
291
     1
 45
0.0
1001
ACAD
1000
AcDbSavedByObjectVersion
1070
     0
  0
VISUALSTYLE
  5
15D31
102
{ACAD_XDICTIONARY
360
15D97
102
}
102
{ACAD_REACTORS
330
15D23
102
}
330
15D23
100
AcDbVisualStyle
  2
Linepattern
 70
    14
 71
     2
 72
     2
 73
     0
 90
        0
 40
-0.6
 41
-30.0
 62
     5
 63
     7
 74
     1
 91
        4
 64
     7
 65
   257
 75
     7
175
     7
 42
1.0
 92
        8
 66
     7
 43
1.0
 76
     1
 77
     6
 78
     2
 67
     7
 79
     5
170
     0
171
     0
290
     0
174
     0
 93
        1
 44
0.0
173
     0
291
     1
 45
0.0
1001
ACAD
1000
AcDbSavedByObjectVersion
1070
     0
  0
VISUALSTYLE
  5
15D3A
102
{ACAD_XDICTIONARY
360
15DA9
102
}
102
{ACAD_REACTORS
330
15D23
102
}
330
15D23
100
AcDbVisualStyle
  2
OverhangOff
 70
    21
 71
     2
 72
     2
 73
     0
 90
        0
 40
-0.6
 41
-30.0
 62
     5
 63
     7
 74
     1
 91
        4
 64
     7
 65
   257
 75
     1
175
     1
 42
1.0
 92
        9
 66
     7
 43
1.0
 76
     1
 77
     6
 78
     2
 67
     7
 79
     5
170
     0
171
     0
290
     0
174
     0
 93
        1
 44
0.0
173
     0
291
     1
 45
0.0
1001
ACAD
1000
AcDbSavedByObjectVersion
1070
     0
  0
VISUALSTYLE
  5
15D2D
102
{ACAD_XDICTIONARY
360
15D8F
102
}
102
{ACAD_REACTORS
330
15D23
102
}
330
15D23
100
AcDbVisualStyle
  2
Realistic
 70
     8
 71
     2
 72
     3
 73
     0
 90
        2
 40
-0.6
 41
30.0
 62
     5
 63
     7
 74
     0
 91
        0
 64
     7
 65
   257
 75
     1
175
     1
 42
1.0
 92
        8
 66
   257
 43
1.0
 76
     1
 77
     6
 78
     2
 67
     7
 79
     3
170
     0
171
     0
290
     0
174
     0
 93
       13
 44
0.0
173
     0
291
     0
 45
0.0
1001
ACAD
1000
AcDbSavedByObjectVersion
1070
     0
  0
VISUALSTYLE
  5
15D38
102
{ACAD_XDICTIONARY
360
15DA5
102
}
102
{ACAD_REACTORS
330
15D23
102
}
330
15D23
100
AcDbVisualStyle
  2
Shaded
 70
    27
 71
     2
 72
     2
 73
     1
 90
        2
 40
-0.6
 41
30.0
 62
     5
 63
     7
 74
     0
 91
        4
 64
     7
 65
   257
 75
     1
175
     1
 42
1.0
 92
        8
 66
   257
 43
1.0
 76
     1
 77
     6
 78
     2
 67
     8
 79
     3
170
     0
171
     0
290
     0
174
     0
 93
        5
 44
0.0
173
     0
291
     0
 45
0.0
1001
ACAD
1000
AcDbSavedByObjectVersion
1070
     0
  0
VISUALSTYLE
  5
15D37
102
{ACAD_XDICTIONARY
360
15DA3
102
}
102
{ACAD_REACTORS
330
15D23
102
}
330
15D23
100
AcDbVisualStyle
  2
Shaded with edges
 70
    26
 71
     2
 72
     2
 73
     1
 90
        2
 40
-0.6
 41
30.0
 62
     5
 63
     7
 74
     1
 91
       10
 64
     7
 65
   257
 75
     2
175
     1
 42
1.0
 92
        8
 66
   257
 43
1.0
 76
     1
 77
     6
 78
     2
 67
     7
 79
     3
170
     0
171
     0
290
     0
174
     0
 93
        5
 44
0.0
173
     0
291
     0
 45
0.0
1001
ACAD
1000
AcDbSavedByObjectVersion
1070
     0
  0
VISUALSTYLE
  5
15D34
102
{ACAD_XDICTIONARY
360
15D9D
102
}
102
{ACAD_REACTORS
330
15D23
102
}
330
15D23
100
AcDbVisualStyle
  2
Shades of Gray
 70
    23
 71
     2
 72
     2
 73
     3
 90
        0
 40
-0.6
 41
-30.0
 62
     5
 63
     7
 74
     2
 91
        2
 64
     7
 65
     7
 75
     1
175
     1
 42
40.0
 92
        8
 66
     7
 43
1.0
 76
     1
 77
     6
 78
     2
 67
     7
 79
     3
170
     0
171
     0
290
     0
174
     0
 93
        1
 44
0.0
173
     0
291
     0
 45
0.0
1001
ACAD
1000
AcDbSavedByObjectVersion
1070
     0
  0
VISUALSTYLE
  5
15D35
102
{ACAD_XDICTIONARY
360
15D9F
102
}
102
{ACAD_REACTORS
330
15D23
102
}
330
15D23
100
AcDbVisualStyle
  2
Sketchy
 70
    24
 71
     1
 72
     2
 73
     2
 90
        0
 40
-0.6
 41
-30.0
 62
     5
 63
     7
 74
     2
 91
        2
 64
     7
 65
     7
 75
     1
175
     1
 42
40.0
 92
       11
 66
     7
 43
1.0
 76
     1
 77
     6
 78
     2
 67
     7
 79
     6
170
     0
171
     0
290
     0
174
     0
 93
        1
 44
0.0
173
     0
291
     0
 45
0.0
1001
ACAD
1000
AcDbSavedByObjectVersion
1070
     0
  0
VISUALSTYLE
  5
15D30
102
{ACAD_XDICTIONARY
360
15D95
102
}
102
{ACAD_REACTORS
330
15D23
102
}
330
15D23
100
AcDbVisualStyle
  2
Thicken
 70
    13
 71
     2
 72
     2
 73
     0
 90
        0
 40
-0.6
 41
-30.0
 62
     5
 63
     7
 74
     1
 91
        4
 64
     7
 65
   257
 75
     1
175
     1
 42
1.0
 92
       12
 66
     7
 43
1.0
 76
     1
 77
     6
 78
     2
 67
     7
 79
     5
170
     0
171
     0
290
     0
174
     0
 93
        1
 44
0.0
173
     0
291
     1
 45
0.0
1001
ACAD
1000
AcDbSavedByObjectVersion
1070
     0
  0
VISUALSTYLE
  5
15D2A
102
{ACAD_XDICTIONARY
360
15D89
102
}
102
{ACAD_REACTORS
330
15D23
102
}
330
15D23
100
AcDbVisualStyle
  2
Wireframe
 70
     5
 71
     0
 72
     2
 73
     0
 90
        0
 40
-0.6
 41
-30.0
 62
     5
 63
     7
 74
     1
 91
        4
 64
     7
 65
   257
 75
     1
175
     1
 42
1.0
 92
        0
 66
   257
 43
1.0
 76
     1
 77
     6
 78
     2
 67
     7
 79
     3
170
     0
171
     0
290
     0
174
     0
 93
        1
 44
0.0
173
     0
291
     0
 45
0.0
1001
ACAD
1000
AcDbSavedByObjectVersion
1070
     0
  0
VISUALSTYLE
  5
15D36
102
{ACAD_XDICTIONARY
360
15DA1
102
}
102
{ACAD_REACTORS
330
15D23
102
}
330
15D23
100
AcDbVisualStyle
  2
X-Ray
 70
    25
 71
     2
 72
     2
 73
     1
 90
        1
 40
0.5
 41
-30.0
 62
     5
 63
     7
 74
     1
 91
        0
 64
     7
 65
   257
 75
     1
175
     1
 42
1.0
 92
        8
 66
     7
 43
1.0
 76
     1
 77
     6
 78
     2
 67
     7
 79
     3
170
     0
171
     0
290
     0
174
     0
 93
       13
 44
0.0
173
     0
291
     0
 45
0.0
1001
ACAD
1000
AcDbSavedByObjectVersion
1070
     0
  0
DICTIONARYVAR
  5
15D70
102
{ACAD_REACTORS
330
15D6B
102
}
330
15D6B
100
DictionaryVariables
280
     0
  1
1:1
  0
DICTIONARYVAR
  5
15D6D
102
{ACAD_REACTORS
330
15D6B
102
}
330
15D6B
100
DictionaryVariables
280
     0
  1
STANDARD
  0
DICTIONARYVAR
  5
15D6C
102
{ACAD_REACTORS
330
15D6B
102
}
330
15D6B
100
DictionaryVariables
280
     0
  1
STANDARD
  0
DICTIONARYVAR
  5
15D6E
102
{ACAD_REACTORS
330
15D6B
102
}
330
15D6B
100
DictionaryVariables
280
     0
  1
Imperial24
  0
DICTIONARYVAR
  5
15D6F
102
{ACAD_REACTORS
330
15D6B
102
}
330
15D6B
100
DictionaryVariables
280
     0
  1
Imperial24
  0
DICTIONARYVAR
  5
15D73
102
{ACAD_REACTORS
330
15D6B
102
}
330
15D6B
100
DictionaryVariables
280
     0
  1
1
  0
DICTIONARYVAR
  5
15D72
102
{ACAD_REACTORS
330
15D6B
102
}
330
15D6B
100
DictionaryVariables
280
     0
  1
0
  0
DICTIONARYVAR
  5
15D71
102
{ACAD_REACTORS
330
15D6B
102
}
330
15D6B
100
DictionaryVariables
280
     0
  1
127
  0
DICTIONARYVAR
  5
15D74
102
{ACAD_REACTORS
330
15D6B
102
}
330
15D6B
100
DictionaryVariables
280
     0
  1
2
  0
DICTIONARY
  5
15DB1
330
15D56
100
AcDbDictionary
280
     1
281
     1
  3
ACAD_XREC_ROUNDTRIP
360
15DB2
  0
DICTIONARY
  5
15DB3
330
15D57
100
AcDbDictionary
280
     1
281
     1
  3
ACAD_XREC_ROUNDTRIP
360
15DB4
  0
DICTIONARY
  5
15DB5
330
15D58
100
AcDbDictionary
280
     1
281
     1
  3
ACAD_XREC_ROUNDTRIP
360
15DB6
  0
DICTIONARY
  5
15D14
330
15D13
100
AcDbDictionary
280
     1
281
     1
  3
ACAD_XREC_ROUNDTRIP
360
15D7B
  3
BUMPTILE
360
15D16
  3
DIFFUSETILE
360
15D15
  3
OPACITYTILE
360
15D19
  3
REFLECTIONTILE
360
15D18
  3
REFRACTIONTILE
360
15D1A
  3
SPECULARTILE
360
15D17
  0
DICTIONARY
  5
15D0C
330
15D0B
100
AcDbDictionary
280
     1
281
     1
  3
ACAD_XREC_ROUNDTRIP
360
15D7A
  3
BUMPTILE
360
15D0E
  3
DIFFUSETILE
360
15D0D
  3
OPACITYTILE
360
15D11
  3
REFLECTIONTILE
360
15D10
  3
REFRACTIONTILE
360
15D12
  3
SPECULARTILE
360
15D0F
  0
DICTIONARY
  5
15D1C
330
15D1B
100
AcDbDictionary
280
     1
281
     1
  3
ACAD_XREC_ROUNDTRIP
360
15D7C
  3
BUMPTILE
360
15D1E
  3
DIFFUSETILE
360
15D1D
  3
OPACITYTILE
360
15D21
  3
REFLECTIONTILE
360
15D20
  3
REFRACTIONTILE
360
15D22
  3
SPECULARTILE
360
15D1F
  0
DICTIONARY
  5
15DAF
330
15D54
100
AcDbDictionary
280
     1
281
     1
  3
ACAD_XREC_ROUNDTRIP
360
15DB0
  0
DICTIONARY
  5
15D76
330
15D3E
100
AcDbDictionary
280
     1
281
     1
  3
ACAD_ROUNDTRIP_2008_TABLESTYLE_CELLSTYLEMAP
360
15D77
  3
ACAD_XREC_ROUNDTRIP
360
15DAD
  0
DICTIONARY
  5
15D87
330
15D29
100
AcDbDictionary
280
     1
281
     1
  3
ACAD_XREC_ROUNDTRIP
360
15D88
  0
DICTIONARY
  5
15D85
330
15D28
100
AcDbDictionary
280
     1
281
     1
  3
ACAD_XREC_ROUNDTRIP
360
15D86
  0
DICTIONARY
  5
15D93
330
15D2F
100
AcDbDictionary
280
     1
281
     1
  3
ACAD_XREC_ROUNDTRIP
360
15D94
  0
DICTIONARY
  5
15D9B
330
15D33
100
AcDbDictionary
280
     1
281
     1
  3
ACAD_XREC_ROUNDTRIP
360
15D9C
  0
DICTIONARY
  5
15D8D
330
15D2C
100
AcDbDictionary
280
     1
281
     1
  3
ACAD_XREC_ROUNDTRIP
360
15D8E
  0
DICTIONARY
  5
15D91
330
15D2E
100
AcDbDictionary
280
     1
281
     1
  3
ACAD_XREC_ROUNDTRIP
360
15D92
  0
DICTIONARY
  5
15DAB
330
15D3B
100
AcDbDictionary
280
     1
281
     1
  3
ACAD_XREC_ROUNDTRIP
360
15DAC
  0
DICTIONARY
  5
15D99
330
15D32
100
AcDbDictionary
280
     1
281
     1
  3
ACAD_XREC_ROUNDTRIP
360
15D9A
  0
DICTIONARY
  5
15D7D
330
15D24
100
AcDbDictionary
280
     1
281
     1
  3
ACAD_XREC_ROUNDTRIP
360
15D7E
  0
DICTIONARY
  5
15D7F
330
15D25
100
AcDbDictionary
280
     1
281
     1
  3
ACAD_XREC_ROUNDTRIP
360
15D80
  0
DICTIONARY
  5
15D81
330
15D26
100
AcDbDictionary
280
     1
281
     1
  3
ACAD_XREC_ROUNDTRIP
360
15D82
  0
DICTIONARY
  5
15D83
330
15D27
100
AcDbDictionary
280
     1
281
     1
  3
ACAD_XREC_ROUNDTRIP
360
15D84
  0
DICTIONARY
  5
15D8B
330
15D2B
100
AcDbDictionary
280
     1
281
     1
  3
ACAD_XREC_ROUNDTRIP
360
15D8C
  0
DICTIONARY
  5
15DA7
330
15D39
100
AcDbDictionary
280
     1
281
     1
  3
ACAD_XREC_ROUNDTRIP
360
15DA8
  0
DICTIONARY
  5
15D97
330
15D31
100
AcDbDictionary
280
     1
281
     1
  3
ACAD_XREC_ROUNDTRIP
360
15D98
  0
DICTIONARY
  5
15DA9
330
15D3A
100
AcDbDictionary
280
     1
281
     1
  3
ACAD_XREC_ROUNDTRIP
360
15DAA
  0
DICTIONARY
  5
15D8F
330
15D2D
100
AcDbDictionary
280
     1
281
     1
  3
ACAD_XREC_ROUNDTRIP
360
15D90
  0
DICTIONARY
  5
15DA5
330
15D38
100
AcDbDictionary
280
     1
281
     1
  3
ACAD_XREC_ROUNDTRIP
360
15DA6
  0
DICTIONARY
  5
15DA3
330
15D37
100
AcDbDictionary
280
     1
281
     1
  3
ACAD_XREC_ROUNDTRIP
360
15DA4
  0
DICTIONARY
  5
15D9D
330
15D34
100
AcDbDictionary
280
     1
281
     1
  3
ACAD_XREC_ROUNDTRIP
360
15D9E
  0
DICTIONARY
  5
15D9F
330
15D35
100
AcDbDictionary
280
     1
281
     1
  3
ACAD_XREC_ROUNDTRIP
360
15DA0
  0
DICTIONARY
  5
15D95
330
15D30
100
AcDbDictionary
280
     1
281
     1
  3
ACAD_XREC_ROUNDTRIP
360
15D96
  0
DICTIONARY
  5
15D89
330
15D2A
100
AcDbDictionary
280
     1
281
     1
  3
ACAD_XREC_ROUNDTRIP
360
15D8A
  0
DICTIONARY
  5
15DA1
330
15D36
100
AcDbDictionary
280
     1
281
     1
  3
ACAD_XREC_ROUNDTRIP
360
15DA2
  0
XRECORD
  5
15DB2
102
{ACAD_REACTORS
330
15DB1
102
}
330
15DB1
100
AcDbXrecord
280
     1
102
DISPLAYNAME
  1
Imperial24
102
FLAGS
 90
        0
  0
XRECORD
  5
15DB4
102
{ACAD_REACTORS
330
15DB3
102
}
330
15DB3
100
AcDbXrecord
280
     1
102
SHADEPLOT
 70
     0
102
SHADEPLOTRESLEVEL
 70
     2
102
SHADEPLOTCUSTOMDPI
 70
   300
  0
XRECORD
  5
15DB6
102
{ACAD_REACTORS
330
15DB5
102
}
330
15DB5
100
AcDbXrecord
280
     1
102
SHADEPLOT
 70
     0
102
SHADEPLOTRESLEVEL
 70
     2
102
SHADEPLOTCUSTOMDPI
 70
   300
  0
XRECORD
  5
15D7B
102
{ACAD_REACTORS
330
15D14
102
}
330
15D14
100
AcDbXrecord
280
     1
102
MATERIAL
148
0.0
149
0.0
149
0.0
 93
        0
 94
      127
282
     0
 72
     0
 77
     0
171
     0
175
     0
179
     0
273
     0
  0
XRECORD
  5
15D16
102
{ACAD_REACTORS
330
15D14
102
}
330
15D14
100
AcDbXrecord
280
     1
270
     1
271
     1
  0
XRECORD
  5
15D15
102
{ACAD_REACTORS
330
15D14
102
}
330
15D14
100
AcDbXrecord
280
     1
270
     1
271
     1
  0
XRECORD
  5
15D19
102
{ACAD_REACTORS
330
15D14
102
}
330
15D14
100
AcDbXrecord
280
     1
270
     1
271
     1
  0
XRECORD
  5
15D18
102
{ACAD_REACTORS
330
15D14
102
}
330
15D14
100
AcDbXrecord
280
     1
270
     1
271
     1
  0
XRECORD
  5
15D1A
102
{ACAD_REACTORS
330
15D14
102
}
330
15D14
100
AcDbXrecord
280
     1
270
     1
271
     1
  0
XRECORD
  5
15D17
102
{ACAD_REACTORS
330
15D14
102
}
330
15D14
100
AcDbXrecord
280
     1
270
     1
271
     1
  0
XRECORD
  5
15D7A
102
{ACAD_REACTORS
330
15D0C
102
}
330
15D0C
100
AcDbXrecord
280
     1
102
MATERIAL
148
0.0
149
0.0
149
0.0
 93
        0
 94
      127
282
     0
 72
     0
 77
     0
171
     0
175
     0
179
     0
273
     0
  0
XRECORD
  5
15D0E
102
{ACAD_REACTORS
330
15D0C
102
}
330
15D0C
100
AcDbXrecord
280
     1
270
     1
271
     1
  0
XRECORD
  5
15D0D
102
{ACAD_REACTORS
330
15D0C
102
}
330
15D0C
100
AcDbXrecord
280
     1
270
     1
271
     1
  0
XRECORD
  5
15D11
102
{ACAD_REACTORS
330
15D0C
102
}
330
15D0C
100
AcDbXrecord
280
     1
270
     1
271
     1
  0
XRECORD
  5
15D10
102
{ACAD_REACTORS
330
15D0C
102
}
330
15D0C
100
AcDbXrecord
280
     1
270
     1
271
     1
  0
XRECORD
  5
15D12
102
{ACAD_REACTORS
330
15D0C
102
}
330
15D0C
100
AcDbXrecord
280
     1
270
     1
271
     1
  0
XRECORD
  5
15D0F
102
{ACAD_REACTORS
330
15D0C
102
}
330
15D0C
100
AcDbXrecord
280
     1
270
     1
271
     1
  0
XRECORD
  5
15D7C
102
{ACAD_REACTORS
330
15D1C
102
}
330
15D1C
100
AcDbXrecord
280
     1
102
MATERIAL
148
0.0
149
0.0
149
0.0
 93
        0
 94
      127
282
     0
 72
     0
 77
     0
171
     0
175
     0
179
     0
273
     0
  0
XRECORD
  5
15D1E
102
{ACAD_REACTORS
330
15D1C
102
}
330
15D1C
100
AcDbXrecord
280
     1
270
     1
271
     1
  0
XRECORD
  5
15D1D
102
{ACAD_REACTORS
330
15D1C
102
}
330
15D1C
100
AcDbXrecord
280
     1
270
     1
271
     1
  0
XRECORD
  5
15D21
102
{ACAD_REACTORS
330
15D1C
102
}
330
15D1C
100
AcDbXrecord
280
     1
270
     1
271
     1
  0
XRECORD
  5
15D20
102
{ACAD_REACTORS
330
15D1C
102
}
330
15D1C
100
AcDbXrecord
280
     1
270
     1
271
     1
  0
XRECORD
  5
15D22
102
{ACAD_REACTORS
330
15D1C
102
}
330
15D1C
100
AcDbXrecord
280
     1
270
     1
271
     1
  0
XRECORD
  5
15D1F
102
{ACAD_REACTORS
330
15D1C
102
}
330
15D1C
100
AcDbXrecord
280
     1
270
     1
271
     1
  0
XRECORD
  5
15DB0
102
{ACAD_REACTORS
330
15DAF
102
}
330
15DAF
100
AcDbXrecord
280
     1
102
DISPLAYNAME
  1
Imperial24
102
FLAGS
 90
        0
  0
CELLSTYLEMAP
  5
15D77
102
{ACAD_REACTORS
330
15D76
102
}
330
15D76
100
AcDbCellStyleMap
 90
        3
300
CELLSTYLE
  1
TABLEFORMAT_BEGIN
 90
        5
170
     1
 91
        0
 92
    32768
 62
   257
 93
        1
300
CONTENTFORMAT
  1
CONTENTFORMAT_BEGIN
 90
        0
 91
        0
 92
      512
 93
        0
300

 40
0.0
140
1.0
 94
        5
 62
     0
340
157D2
144
0.25
309
CONTENTFORMAT_END
171
     0
 94
        0
309
TABLEFORMAT_END
  1
CELLSTYLE_BEGIN
 90
        1
 91
        1
300
_TITLE
309
CELLSTYLE_END
300
CELLSTYLE
  1
TABLEFORMAT_BEGIN
 90
        5
170
     1
 91
        0
 92
        0
 62
   257
 93
        1
300
CONTENTFORMAT
  1
CONTENTFORMAT_BEGIN
 90
        0
 91
        0
 92
      512
 93
        0
300

 40
0.0
140
1.0
 94
        5
 62
     0
340
157D2
144
0.18
309
CONTENTFORMAT_END
171
     0
 94
        0
309
TABLEFORMAT_END
  1
CELLSTYLE_BEGIN
 90
        2
 91
        1
300
_HEADER
309
CELLSTYLE_END
300
CELLSTYLE
  1
TABLEFORMAT_BEGIN
 90
        5
170
     1
 91
        0
 92
        0
 62
   257
 93
        1
300
CONTENTFORMAT
  1
CONTENTFORMAT_BEGIN
 90
        0
 91
        0
 92
      512
 93
        0
300

 40
0.0
140
1.0
 94
        2
 62
     0
340
157D2
144
0.18
309
CONTENTFORMAT_END
171
     0
 94
        0
309
TABLEFORMAT_END
  1
CELLSTYLE_BEGIN
 90
        3
 91
        2
300
_DATA
309
CELLSTYLE_END
  0
XRECORD
  5
15DAD
102
{ACAD_REACTORS
330
15D76
102
}
330
15D76
100
AcDbXrecord
280
     1
102
ACAD_ROUNDTRIP_PRE2007_TABLESTYLE
 90
      512
 91
        0
  1

 92
      512
 93
        0
  2

 94
      512
 95
        0
  3

  0
XRECORD
  5
15D88
102
{ACAD_REACTORS
330
15D87
102
}
330
15D87
100
AcDbXrecord
280
     1
102
RTVSPost2010Prop28
280
     1
102
RTVSPost2010PropOp28
 70
     1
102
RTVSPost2010Prop29
280
     1
102
RTVSPost2010PropOp29
 70
     1
102
RTVSPost2010Prop30
280
     0
102
RTVSPost2010PropOp30
 70
     1
102
RTVSPost2010Prop31
280
     0
102
RTVSPost2010PropOp31
 70
     1
102
RTVSPost2010Prop32
280
     0
102
RTVSPost2010PropOp32
 70
     1
102
RTVSPost2010Prop33
280
     0
102
RTVSPost2010PropOp33
 70
     1
102
RTVSPost2010Prop34
280
     0
102
RTVSPost2010PropOp34
 70
     1
102
RTVSPost2010Prop35
280
     0
102
RTVSPost2010PropOp35
 70
     1
102
RTVSPost2010Prop36
280
     0
102
RTVSPost2010PropOp36
 70
     1
102
RTVSPost2010Prop37
 90
       50
102
RTVSPost2010PropOp37
 70
     1
102
RTVSPost2010Prop38
140
0.0
102
RTVSPost2010PropOp38
 70
     1
102
RTVSPost2010Prop39
140
1.0
102
RTVSPost2010PropOp39
 70
     1
102
RTVSPost2010Prop40
 90
        0
102
RTVSPost2010PropOp40
 70
     1
102
RTVSPost2010Prop41ColorIndex
 90
       18
102
RTVSPost2010Prop41ColorRGB
 90
        0
102
RTVSPost2010PropOp41
 70
     1
102
RTVSPost2010Prop42
 90
       50
102
RTVSPost2010PropOp42
 70
     1
102
RTVSPost2010Prop43
 90
        3
102
RTVSPost2010PropOp43
 70
     1
102
RTVSPost2010Prop44ColorIndex
 90
        5
102
RTVSPost2010Prop44ColorRGB
 90
      255
102
RTVSPost2010PropOp44
 70
     1
102
RTVSPost2010Prop45
280
     0
102
RTVSPost2010PropOp45
 70
     1
102
RTVSPost2010Prop46
 90
       50
102
RTVSPost2010PropOp46
 70
     1
102
RTVSPost2010Prop47
 90
       50
102
RTVSPost2010PropOp47
 70
     1
102
RTVSPost2010Prop48
 90
       50
102
RTVSPost2010PropOp48
 70
     1
102
RTVSPost2010Prop49
280
     0
102
RTVSPost2010PropOp49
 70
     1
102
RTVSPost2010Prop50
 90
       50
102
RTVSPost2010PropOp50
 70
     1
102
RTVSPost2010Prop51ColorIndex
 90
      256
102
RTVSPost2010Prop51ColorRGB
 90
-16777216
102
RTVSPost2010PropOp51
 70
     0
102
RTVSPost2010Prop52
140
1.0
102
RTVSPost2010PropOp52
 70
     0
102
RTVSPost2010Prop53
 90
        2
102
RTVSPost2010PropOp53
 70
     1
102
RTVSPost2010Prop54
  1
strokes_ogs.tif
102
RTVSPost2010PropOp54
 70
     1
102
RTVSPost2010Prop55
280
     0
102
RTVSPost2010PropOp55
 70
     1
102
RTVSPost2010Prop56
140
1.0
102
RTVSPost2010PropOp56
 70
     1
102
RTVSPost2010Prop57
140
1.0
102
RTVSPost2010PropOp57
 70
     1
102
RTVSPropertyOp0
 70
     1
102
RTVSPropertyOp1
 70
     1
102
RTVSPropertyOp2
 70
     1
102
RTVSPropertyOp3
 70
     1
102
RTVSPropertyOp4
 70
     1
102
RTVSPropertyOp5
 70
     1
102
RTVSPropertyOp6
 70
     1
102
RTVSPropertyOp7
 70
     1
102
RTVSPropertyOp8
 70
     1
102
RTVSPropertyOp9
 70
     1
102
RTVSPropertyOp10
 70
     1
102
RTVSPropertyOp11
 70
     1
102
RTVSPropertyOp12
 70
     1
102
RTVSPropertyOp13
 70
     1
102
RTVSPropertyOp14
 70
     1
102
RTVSPropertyOp15
 70
     1
102
RTVSPropertyOp16
 70
     1
102
RTVSPropertyOp17
 70
     1
102
RTVSPropertyOp18
 70
     1
102
RTVSPropertyOp19
 70
     1
102
RTVSPropertyOp20
 70
     1
102
RTVSPropertyOp21
 70
     1
102
RTVSPropertyOp22
 70
     1
102
RTVSPropertyOp23
 70
     1
102
RTVSPropertyOp24
 70
     1
102
RTVSPropertyOp25
 70
     1
102
RTVSPropertyOp26
 70
     1
102
RTVSPropertyOp27
 70
     1
102
RTVSPropertyOp28
 70
     1
102
RTVSPropertyOp29
 70
     1
102
RTVSPropertyOp30
 70
     1
102
RTVSPropertyOp31
 70
     1
102
RTVSPropertyOp32
 70
     1
102
RTVSPropertyOp33
 70
     1
102
RTVSPropertyOp34
 70
     1
102
RTVSPropertyOp35
 70
     1
102
RTVSPropertyOp36
 70
     1
102
RTVSPropertyOp37
 70
     1
102
RTVSPropertyOp38
 70
     1
102
RTVSPropertyOp39
 70
     1
102
RTVSPropertyOp40
 70
     1
102
RTVSPropertyOp41
 70
     1
102
RTVSPropertyOp42
 70
     1
102
RTVSPropertyOp43
 70
     1
102
RTVSPropertyOp44
 70
     1
102
RTVSPropertyOp45
 70
     1
102
RTVSPropertyOp46
 70
     1
102
RTVSPropertyOp47
 70
     1
102
RTVSPropertyOp48
 70
     1
102
RTVSPropertyOp49
 70
     1
102
RTVSPropertyOp50
 70
     1
102
RTVSPropertyOp51
 70
     0
102
RTVSPropertyOp52
 70
     0
102
RTVSPropertyOp53
 70
     1
102
RTVSPropertyOp54
 70
     1
102
RTVSPropertyOp55
 70
     1
102
RTVSPropertyOp56
 70
     1
102
RTVSPropertyOp57
 70
     1
102
RTVSPropertyOp58
 70
     1
102
RTVSPropertyOp59
 70
     1
102
RTVSPropertyOp60
 70
     1
102
RTVSPropertyOp61
 70
     1
102
RTVSPropertyOp62
 70
     1
  0
XRECORD
  5
15D86
102
{ACAD_REACTORS
330
15D85
102
}
330
15D85
100
AcDbXrecord
280
     1
102
RTVSPost2010Prop28
280
     0
102
RTVSPost2010PropOp28
 70
     1
102
RTVSPost2010Prop29
280
     1
102
RTVSPost2010PropOp29
 70
     1
102
RTVSPost2010Prop30
280
     1
102
RTVSPost2010PropOp30
 70
     1
102
RTVSPost2010Prop31
280
     0
102
RTVSPost2010PropOp31
 70
     1
102
RTVSPost2010Prop32
280
     0
102
RTVSPost2010PropOp32
 70
     1
102
RTVSPost2010Prop33
280
     0
102
RTVSPost2010PropOp33
 70
     1
102
RTVSPost2010Prop34
280
     0
102
RTVSPost2010PropOp34
 70
     1
102
RTVSPost2010Prop35
280
     0
102
RTVSPost2010PropOp35
 70
     1
102
RTVSPost2010Prop36
280
     0
102
RTVSPost2010PropOp36
 70
     1
102
RTVSPost2010Prop37
 90
       50
102
RTVSPost2010PropOp37
 70
     1
102
RTVSPost2010Prop38
140
0.0
102
RTVSPost2010PropOp38
 70
     1
102
RTVSPost2010Prop39
140
1.0
102
RTVSPost2010PropOp39
 70
     1
102
RTVSPost2010Prop40
 90
        0
102
RTVSPost2010PropOp40
 70
     1
102
RTVSPost2010Prop41ColorIndex
 90
       18
102
RTVSPost2010Prop41ColorRGB
 90
        0
102
RTVSPost2010PropOp41
 70
     1
102
RTVSPost2010Prop42
 90
       50
102
RTVSPost2010PropOp42
 70
     1
102
RTVSPost2010Prop43
 90
        3
102
RTVSPost2010PropOp43
 70
     1
102
RTVSPost2010Prop44ColorIndex
 90
        5
102
RTVSPost2010Prop44ColorRGB
 90
      255
102
RTVSPost2010PropOp44
 70
     1
102
RTVSPost2010Prop45
280
     0
102
RTVSPost2010PropOp45
 70
     1
102
RTVSPost2010Prop46
 90
       50
102
RTVSPost2010PropOp46
 70
     1
102
RTVSPost2010Prop47
 90
       50
102
RTVSPost2010PropOp47
 70
     1
102
RTVSPost2010Prop48
 90
       50
102
RTVSPost2010PropOp48
 70
     1
102
RTVSPost2010Prop49
280
     0
102
RTVSPost2010PropOp49
 70
     1
102
RTVSPost2010Prop50
 90
       50
102
RTVSPost2010PropOp50
 70
     1
102
RTVSPost2010Prop51ColorIndex
 90
      256
102
RTVSPost2010Prop51ColorRGB
 90
-16777216
102
RTVSPost2010PropOp51
 70
     0
102
RTVSPost2010Prop52
140
1.0
102
RTVSPost2010PropOp52
 70
     0
102
RTVSPost2010Prop53
 90
        2
102
RTVSPost2010PropOp53
 70
     1
102
RTVSPost2010Prop54
  1
strokes_ogs.tif
102
RTVSPost2010PropOp54
 70
     1
102
RTVSPost2010Prop55
280
     0
102
RTVSPost2010PropOp55
 70
     1
102
RTVSPost2010Prop56
140
1.0
102
RTVSPost2010PropOp56
 70
     1
102
RTVSPost2010Prop57
140
1.0
102
RTVSPost2010PropOp57
 70
     1
102
RTVSPropertyOp0
 70
     1
102
RTVSPropertyOp1
 70
     1
102
RTVSPropertyOp2
 70
     1
102
RTVSPropertyOp3
 70
     1
102
RTVSPropertyOp4
 70
     1
102
RTVSPropertyOp5
 70
     1
102
RTVSPropertyOp6
 70
     1
102
RTVSPropertyOp7
 70
     1
102
RTVSPropertyOp8
 70
     1
102
RTVSPropertyOp9
 70
     1
102
RTVSPropertyOp10
 70
     1
102
RTVSPropertyOp11
 70
     1
102
RTVSPropertyOp12
 70
     1
102
RTVSPropertyOp13
 70
     1
102
RTVSPropertyOp14
 70
     1
102
RTVSPropertyOp15
 70
     1
102
RTVSPropertyOp16
 70
     1
102
RTVSPropertyOp17
 70
     1
102
RTVSPropertyOp18
 70
     1
102
RTVSPropertyOp19
 70
     1
102
RTVSPropertyOp20
 70
     1
102
RTVSPropertyOp21
 70
     1
102
RTVSPropertyOp22
 70
     1
102
RTVSPropertyOp23
 70
     1
102
RTVSPropertyOp24
 70
     1
102
RTVSPropertyOp25
 70
     1
102
RTVSPropertyOp26
 70
     1
102
RTVSPropertyOp27
 70
     1
102
RTVSPropertyOp28
 70
     1
102
RTVSPropertyOp29
 70
     1
102
RTVSPropertyOp30
 70
     1
102
RTVSPropertyOp31
 70
     1
102
RTVSPropertyOp32
 70
     1
102
RTVSPropertyOp33
 70
     1
102
RTVSPropertyOp34
 70
     1
102
RTVSPropertyOp35
 70
     1
102
RTVSPropertyOp36
 70
     1
102
RTVSPropertyOp37
 70
     1
102
RTVSPropertyOp38
 70
     1
102
RTVSPropertyOp39
 70
     1
102
RTVSPropertyOp40
 70
     1
102
RTVSPropertyOp41
 70
     1
102
RTVSPropertyOp42
 70
     1
102
RTVSPropertyOp43
 70
     1
102
RTVSPropertyOp44
 70
     1
102
RTVSPropertyOp45
 70
     1
102
RTVSPropertyOp46
 70
     1
102
RTVSPropertyOp47
 70
     1
102
RTVSPropertyOp48
 70
     1
102
RTVSPropertyOp49
 70
     1
102
RTVSPropertyOp50
 70
     1
102
RTVSPropertyOp51
 70
     0
102
RTVSPropertyOp52
 70
     0
102
RTVSPropertyOp53
 70
     1
102
RTVSPropertyOp54
 70
     1
102
RTVSPropertyOp55
 70
     1
102
RTVSPropertyOp56
 70
     1
102
RTVSPropertyOp57
 70
     1
102
RTVSPropertyOp58
 70
     1
102
RTVSPropertyOp59
 70
     1
102
RTVSPropertyOp60
 70
     1
102
RTVSPropertyOp61
 70
     1
102
RTVSPropertyOp62
 70
     1
  0
XRECORD
  5
15D94
102
{ACAD_REACTORS
330
15D93
102
}
330
15D93
100
AcDbXrecord
280
     1
102
RTVSPost2010Prop28
280
     0
102
RTVSPost2010PropOp28
 70
     1
102
RTVSPost2010Prop29
280
     1
102
RTVSPost2010PropOp29
 70
     1
102
RTVSPost2010Prop30
280
     1
102
RTVSPost2010PropOp30
 70
     1
102
RTVSPost2010Prop31
280
     0
102
RTVSPost2010PropOp31
 70
     1
102
RTVSPost2010Prop32
280
     0
102
RTVSPost2010PropOp32
 70
     1
102
RTVSPost2010Prop33
280
     0
102
RTVSPost2010PropOp33
 70
     1
102
RTVSPost2010Prop34
280
     0
102
RTVSPost2010PropOp34
 70
     1
102
RTVSPost2010Prop35
280
     0
102
RTVSPost2010PropOp35
 70
     1
102
RTVSPost2010Prop36
280
     0
102
RTVSPost2010PropOp36
 70
     1
102
RTVSPost2010Prop37
 90
       50
102
RTVSPost2010PropOp37
 70
     1
102
RTVSPost2010Prop38
140
0.0
102
RTVSPost2010PropOp38
 70
     1
102
RTVSPost2010Prop39
140
1.0
102
RTVSPost2010PropOp39
 70
     1
102
RTVSPost2010Prop40
 90
        0
102
RTVSPost2010PropOp40
 70
     1
102
RTVSPost2010Prop41ColorIndex
 90
       18
102
RTVSPost2010Prop41ColorRGB
 90
        0
102
RTVSPost2010PropOp41
 70
     1
102
RTVSPost2010Prop42
 90
       50
102
RTVSPost2010PropOp42
 70
     1
102
RTVSPost2010Prop43
 90
        3
102
RTVSPost2010PropOp43
 70
     1
102
RTVSPost2010Prop44ColorIndex
 90
        5
102
RTVSPost2010Prop44ColorRGB
 90
      255
102
RTVSPost2010PropOp44
 70
     1
102
RTVSPost2010Prop45
280
     0
102
RTVSPost2010PropOp45
 70
     1
102
RTVSPost2010Prop46
 90
       50
102
RTVSPost2010PropOp46
 70
     1
102
RTVSPost2010Prop47
 90
       50
102
RTVSPost2010PropOp47
 70
     1
102
RTVSPost2010Prop48
 90
       50
102
RTVSPost2010PropOp48
 70
     1
102
RTVSPost2010Prop49
280
     0
102
RTVSPost2010PropOp49
 70
     1
102
RTVSPost2010Prop50
 90
       50
102
RTVSPost2010PropOp50
 70
     1
102
RTVSPost2010Prop51ColorIndex
 90
      256
102
RTVSPost2010Prop51ColorRGB
 90
-16777216
102
RTVSPost2010PropOp51
 70
     0
102
RTVSPost2010Prop52
140
1.0
102
RTVSPost2010PropOp52
 70
     0
102
RTVSPost2010Prop53
 90
        2
102
RTVSPost2010PropOp53
 70
     1
102
RTVSPost2010Prop54
  1
strokes_ogs.tif
102
RTVSPost2010PropOp54
 70
     1
102
RTVSPost2010Prop55
280
     0
102
RTVSPost2010PropOp55
 70
     1
102
RTVSPost2010Prop56
140
1.0
102
RTVSPost2010PropOp56
 70
     1
102
RTVSPost2010Prop57
140
1.0
102
RTVSPost2010PropOp57
 70
     1
102
RTVSPropertyOp0
 70
     1
102
RTVSPropertyOp1
 70
     1
102
RTVSPropertyOp2
 70
     1
102
RTVSPropertyOp3
 70
     1
102
RTVSPropertyOp4
 70
     1
102
RTVSPropertyOp5
 70
     1
102
RTVSPropertyOp6
 70
     1
102
RTVSPropertyOp7
 70
     1
102
RTVSPropertyOp8
 70
     1
102
RTVSPropertyOp9
 70
     1
102
RTVSPropertyOp10
 70
     1
102
RTVSPropertyOp11
 70
     1
102
RTVSPropertyOp12
 70
     1
102
RTVSPropertyOp13
 70
     1
102
RTVSPropertyOp14
 70
     1
102
RTVSPropertyOp15
 70
     1
102
RTVSPropertyOp16
 70
     1
102
RTVSPropertyOp17
 70
     1
102
RTVSPropertyOp18
 70
     1
102
RTVSPropertyOp19
 70
     1
102
RTVSPropertyOp20
 70
     1
102
RTVSPropertyOp21
 70
     1
102
RTVSPropertyOp22
 70
     1
102
RTVSPropertyOp23
 70
     1
102
RTVSPropertyOp24
 70
     1
102
RTVSPropertyOp25
 70
     1
102
RTVSPropertyOp26
 70
     1
102
RTVSPropertyOp27
 70
     1
102
RTVSPropertyOp28
 70
     1
102
RTVSPropertyOp29
 70
     1
102
RTVSPropertyOp30
 70
     1
102
RTVSPropertyOp31
 70
     1
102
RTVSPropertyOp32
 70
     1
102
RTVSPropertyOp33
 70
     1
102
RTVSPropertyOp34
 70
     1
102
RTVSPropertyOp35
 70
     1
102
RTVSPropertyOp36
 70
     1
102
RTVSPropertyOp37
 70
     1
102
RTVSPropertyOp38
 70
     1
102
RTVSPropertyOp39
 70
     1
102
RTVSPropertyOp40
 70
     1
102
RTVSPropertyOp41
 70
     1
102
RTVSPropertyOp42
 70
     1
102
RTVSPropertyOp43
 70
     1
102
RTVSPropertyOp44
 70
     1
102
RTVSPropertyOp45
 70
     1
102
RTVSPropertyOp46
 70
     1
102
RTVSPropertyOp47
 70
     1
102
RTVSPropertyOp48
 70
     1
102
RTVSPropertyOp49
 70
     1
102
RTVSPropertyOp50
 70
     1
102
RTVSPropertyOp51
 70
     0
102
RTVSPropertyOp52
 70
     0
102
RTVSPropertyOp53
 70
     1
102
RTVSPropertyOp54
 70
     1
102
RTVSPropertyOp55
 70
     1
102
RTVSPropertyOp56
 70
     1
102
RTVSPropertyOp57
 70
     1
102
RTVSPropertyOp58
 70
     1
102
RTVSPropertyOp59
 70
     1
102
RTVSPropertyOp60
 70
     1
102
RTVSPropertyOp61
 70
     1
102
RTVSPropertyOp62
 70
     1
  0
XRECORD
  5
15D9C
102
{ACAD_REACTORS
330
15D9B
102
}
330
15D9B
100
AcDbXrecord
280
     1
102
RTVSPost2010Prop28
280
     0
102
RTVSPost2010PropOp28
 70
     1
102
RTVSPost2010Prop29
280
     1
102
RTVSPost2010PropOp29
 70
     1
102
RTVSPost2010Prop30
280
     1
102
RTVSPost2010PropOp30
 70
     1
102
RTVSPost2010Prop31
280
     0
102
RTVSPost2010PropOp31
 70
     1
102
RTVSPost2010Prop32
280
     0
102
RTVSPost2010PropOp32
 70
     1
102
RTVSPost2010Prop33
280
     0
102
RTVSPost2010PropOp33
 70
     1
102
RTVSPost2010Prop34
280
     0
102
RTVSPost2010PropOp34
 70
     1
102
RTVSPost2010Prop35
280
     0
102
RTVSPost2010PropOp35
 70
     1
102
RTVSPost2010Prop36
280
     0
102
RTVSPost2010PropOp36
 70
     1
102
RTVSPost2010Prop37
 90
       50
102
RTVSPost2010PropOp37
 70
     1
102
RTVSPost2010Prop38
140
0.0
102
RTVSPost2010PropOp38
 70
     1
102
RTVSPost2010Prop39
140
1.0
102
RTVSPost2010PropOp39
 70
     1
102
RTVSPost2010Prop40
 90
        0
102
RTVSPost2010PropOp40
 70
     1
102
RTVSPost2010Prop41ColorIndex
 90
       18
102
RTVSPost2010Prop41ColorRGB
 90
        0
102
RTVSPost2010PropOp41
 70
     1
102
RTVSPost2010Prop42
 90
       50
102
RTVSPost2010PropOp42
 70
     1
102
RTVSPost2010Prop43
 90
        3
102
RTVSPost2010PropOp43
 70
     1
102
RTVSPost2010Prop44ColorIndex
 90
        5
102
RTVSPost2010Prop44ColorRGB
 90
      255
102
RTVSPost2010PropOp44
 70
     1
102
RTVSPost2010Prop45
280
     0
102
RTVSPost2010PropOp45
 70
     1
102
RTVSPost2010Prop46
 90
       50
102
RTVSPost2010PropOp46
 70
     1
102
RTVSPost2010Prop47
 90
       50
102
RTVSPost2010PropOp47
 70
     1
102
RTVSPost2010Prop48
 90
       50
102
RTVSPost2010PropOp48
 70
     1
102
RTVSPost2010Prop49
280
     0
102
RTVSPost2010PropOp49
 70
     1
102
RTVSPost2010Prop50
 90
       50
102
RTVSPost2010PropOp50
 70
     1
102
RTVSPost2010Prop51ColorIndex
 90
      256
102
RTVSPost2010Prop51ColorRGB
 90
-16777216
102
RTVSPost2010PropOp51
 70
     0
102
RTVSPost2010Prop52
140
1.0
102
RTVSPost2010PropOp52
 70
     0
102
RTVSPost2010Prop53
 90
        2
102
RTVSPost2010PropOp53
 70
     1
102
RTVSPost2010Prop54
  1
strokes_ogs.tif
102
RTVSPost2010PropOp54
 70
     1
102
RTVSPost2010Prop55
280
     0
102
RTVSPost2010PropOp55
 70
     1
102
RTVSPost2010Prop56
140
1.0
102
RTVSPost2010PropOp56
 70
     1
102
RTVSPost2010Prop57
140
1.0
102
RTVSPost2010PropOp57
 70
     1
102
RTVSPropertyOp0
 70
     1
102
RTVSPropertyOp1
 70
     1
102
RTVSPropertyOp2
 70
     1
102
RTVSPropertyOp3
 70
     1
102
RTVSPropertyOp4
 70
     1
102
RTVSPropertyOp5
 70
     1
102
RTVSPropertyOp6
 70
     1
102
RTVSPropertyOp7
 70
     1
102
RTVSPropertyOp8
 70
     1
102
RTVSPropertyOp9
 70
     1
102
RTVSPropertyOp10
 70
     1
102
RTVSPropertyOp11
 70
     1
102
RTVSPropertyOp12
 70
     1
102
RTVSPropertyOp13
 70
     1
102
RTVSPropertyOp14
 70
     1
102
RTVSPropertyOp15
 70
     1
102
RTVSPropertyOp16
 70
     1
102
RTVSPropertyOp17
 70
     1
102
RTVSPropertyOp18
 70
     1
102
RTVSPropertyOp19
 70
     1
102
RTVSPropertyOp20
 70
     1
102
RTVSPropertyOp21
 70
     1
102
RTVSPropertyOp22
 70
     1
102
RTVSPropertyOp23
 70
     1
102
RTVSPropertyOp24
 70
     1
102
RTVSPropertyOp25
 70
     1
102
RTVSPropertyOp26
 70
     1
102
RTVSPropertyOp27
 70
     1
102
RTVSPropertyOp28
 70
     1
102
RTVSPropertyOp29
 70
     1
102
RTVSPropertyOp30
 70
     1
102
RTVSPropertyOp31
 70
     1
102
RTVSPropertyOp32
 70
     1
102
RTVSPropertyOp33
 70
     1
102
RTVSPropertyOp34
 70
     1
102
RTVSPropertyOp35
 70
     1
102
RTVSPropertyOp36
 70
     1
102
RTVSPropertyOp37
 70
     1
102
RTVSPropertyOp38
 70
     1
102
RTVSPropertyOp39
 70
     1
102
RTVSPropertyOp40
 70
     1
102
RTVSPropertyOp41
 70
     1
102
RTVSPropertyOp42
 70
     1
102
RTVSPropertyOp43
 70
     1
102
RTVSPropertyOp44
 70
     1
102
RTVSPropertyOp45
 70
     1
102
RTVSPropertyOp46
 70
     1
102
RTVSPropertyOp47
 70
     1
102
RTVSPropertyOp48
 70
     1
102
RTVSPropertyOp49
 70
     1
102
RTVSPropertyOp50
 70
     1
102
RTVSPropertyOp51
 70
     0
102
RTVSPropertyOp52
 70
     0
102
RTVSPropertyOp53
 70
     1
102
RTVSPropertyOp54
 70
     1
102
RTVSPropertyOp55
 70
     1
102
RTVSPropertyOp56
 70
     1
102
RTVSPropertyOp57
 70
     1
102
RTVSPropertyOp58
 70
     1
102
RTVSPropertyOp59
 70
     1
102
RTVSPropertyOp60
 70
     1
102
RTVSPropertyOp61
 70
     1
102
RTVSPropertyOp62
 70
     1
  0
XRECORD
  5
15D8E
102
{ACAD_REACTORS
330
15D8D
102
}
330
15D8D
100
AcDbXrecord
280
     1
102
RTVSPost2010Prop28
280
     0
102
RTVSPost2010PropOp28
 70
     1
102
RTVSPost2010Prop29
280
     1
102
RTVSPost2010PropOp29
 70
     1
102
RTVSPost2010Prop30
280
     1
102
RTVSPost2010PropOp30
 70
     1
102
RTVSPost2010Prop31
280
     0
102
RTVSPost2010PropOp31
 70
     1
102
RTVSPost2010Prop32
280
     0
102
RTVSPost2010PropOp32
 70
     1
102
RTVSPost2010Prop33
280
     0
102
RTVSPost2010PropOp33
 70
     1
102
RTVSPost2010Prop34
280
     0
102
RTVSPost2010PropOp34
 70
     1
102
RTVSPost2010Prop35
280
     0
102
RTVSPost2010PropOp35
 70
     1
102
RTVSPost2010Prop36
280
     0
102
RTVSPost2010PropOp36
 70
     1
102
RTVSPost2010Prop37
 90
       50
102
RTVSPost2010PropOp37
 70
     1
102
RTVSPost2010Prop38
140
0.0
102
RTVSPost2010PropOp38
 70
     1
102
RTVSPost2010Prop39
140
1.0
102
RTVSPost2010PropOp39
 70
     1
102
RTVSPost2010Prop40
 90
        0
102
RTVSPost2010PropOp40
 70
     1
102
RTVSPost2010Prop41ColorIndex
 90
       18
102
RTVSPost2010Prop41ColorRGB
 90
        0
102
RTVSPost2010PropOp41
 70
     1
102
RTVSPost2010Prop42
 90
       50
102
RTVSPost2010PropOp42
 70
     1
102
RTVSPost2010Prop43
 90
        3
102
RTVSPost2010PropOp43
 70
     1
102
RTVSPost2010Prop44ColorIndex
 90
        5
102
RTVSPost2010Prop44ColorRGB
 90
      255
102
RTVSPost2010PropOp44
 70
     1
102
RTVSPost2010Prop45
280
     0
102
RTVSPost2010PropOp45
 70
     1
102
RTVSPost2010Prop46
 90
       50
102
RTVSPost2010PropOp46
 70
     1
102
RTVSPost2010Prop47
 90
       50
102
RTVSPost2010PropOp47
 70
     1
102
RTVSPost2010Prop48
 90
       50
102
RTVSPost2010PropOp48
 70
     1
102
RTVSPost2010Prop49
280
     0
102
RTVSPost2010PropOp49
 70
     1
102
RTVSPost2010Prop50
 90
       50
102
RTVSPost2010PropOp50
 70
     1
102
RTVSPost2010Prop51ColorIndex
 90
      256
102
RTVSPost2010Prop51ColorRGB
 90
-16777216
102
RTVSPost2010PropOp51
 70
     0
102
RTVSPost2010Prop52
140
1.0
102
RTVSPost2010PropOp52
 70
     0
102
RTVSPost2010Prop53
 90
        2
102
RTVSPost2010PropOp53
 70
     1
102
RTVSPost2010Prop54
  1
strokes_ogs.tif
102
RTVSPost2010PropOp54
 70
     1
102
RTVSPost2010Prop55
280
     0
102
RTVSPost2010PropOp55
 70
     1
102
RTVSPost2010Prop56
140
1.0
102
RTVSPost2010PropOp56
 70
     1
102
RTVSPost2010Prop57
140
1.0
102
RTVSPost2010PropOp57
 70
     1
102
RTVSPropertyOp0
 70
     1
102
RTVSPropertyOp1
 70
     1
102
RTVSPropertyOp2
 70
     1
102
RTVSPropertyOp3
 70
     1
102
RTVSPropertyOp4
 70
     1
102
RTVSPropertyOp5
 70
     1
102
RTVSPropertyOp6
 70
     1
102
RTVSPropertyOp7
 70
     1
102
RTVSPropertyOp8
 70
     1
102
RTVSPropertyOp9
 70
     1
102
RTVSPropertyOp10
 70
     1
102
RTVSPropertyOp11
 70
     1
102
RTVSPropertyOp12
 70
     1
102
RTVSPropertyOp13
 70
     1
102
RTVSPropertyOp14
 70
     1
102
RTVSPropertyOp15
 70
     1
102
RTVSPropertyOp16
 70
     1
102
RTVSPropertyOp17
 70
     1
102
RTVSPropertyOp18
 70
     1
102
RTVSPropertyOp19
 70
     1
102
RTVSPropertyOp20
 70
     1
102
RTVSPropertyOp21
 70
     1
102
RTVSPropertyOp22
 70
     1
102
RTVSPropertyOp23
 70
     1
102
RTVSPropertyOp24
 70
     1
102
RTVSPropertyOp25
 70
     1
102
RTVSPropertyOp26
 70
     1
102
RTVSPropertyOp27
 70
     1
102
RTVSPropertyOp28
 70
     1
102
RTVSPropertyOp29
 70
     1
102
RTVSPropertyOp30
 70
     1
102
RTVSPropertyOp31
 70
     1
102
RTVSPropertyOp32
 70
     1
102
RTVSPropertyOp33
 70
     1
102
RTVSPropertyOp34
 70
     1
102
RTVSPropertyOp35
 70
     1
102
RTVSPropertyOp36
 70
     1
102
RTVSPropertyOp37
 70
     1
102
RTVSPropertyOp38
 70
     1
102
RTVSPropertyOp39
 70
     1
102
RTVSPropertyOp40
 70
     1
102
RTVSPropertyOp41
 70
     1
102
RTVSPropertyOp42
 70
     1
102
RTVSPropertyOp43
 70
     1
102
RTVSPropertyOp44
 70
     1
102
RTVSPropertyOp45
 70
     1
102
RTVSPropertyOp46
 70
     1
102
RTVSPropertyOp47
 70
     1
102
RTVSPropertyOp48
 70
     1
102
RTVSPropertyOp49
 70
     1
102
RTVSPropertyOp50
 70
     1
102
RTVSPropertyOp51
 70
     0
102
RTVSPropertyOp52
 70
     0
102
RTVSPropertyOp53
 70
     1
102
RTVSPropertyOp54
 70
     1
102
RTVSPropertyOp55
 70
     1
102
RTVSPropertyOp56
 70
     1
102
RTVSPropertyOp57
 70
     1
102
RTVSPropertyOp58
 70
     1
102
RTVSPropertyOp59
 70
     1
102
RTVSPropertyOp60
 70
     1
102
RTVSPropertyOp61
 70
     1
102
RTVSPropertyOp62
 70
     1
  0
XRECORD
  5
15D92
102
{ACAD_REACTORS
330
15D91
102
}
330
15D91
100
AcDbXrecord
280
     1
102
RTVSPost2010Prop28
280
     0
102
RTVSPost2010PropOp28
 70
     1
102
RTVSPost2010Prop29
280
     1
102
RTVSPost2010PropOp29
 70
     1
102
RTVSPost2010Prop30
280
     1
102
RTVSPost2010PropOp30
 70
     1
102
RTVSPost2010Prop31
280
     0
102
RTVSPost2010PropOp31
 70
     1
102
RTVSPost2010Prop32
280
     0
102
RTVSPost2010PropOp32
 70
     1
102
RTVSPost2010Prop33
280
     0
102
RTVSPost2010PropOp33
 70
     1
102
RTVSPost2010Prop34
280
     0
102
RTVSPost2010PropOp34
 70
     1
102
RTVSPost2010Prop35
280
     0
102
RTVSPost2010PropOp35
 70
     1
102
RTVSPost2010Prop36
280
     0
102
RTVSPost2010PropOp36
 70
     1
102
RTVSPost2010Prop37
 90
       50
102
RTVSPost2010PropOp37
 70
     1
102
RTVSPost2010Prop38
140
0.0
102
RTVSPost2010PropOp38
 70
     1
102
RTVSPost2010Prop39
140
1.0
102
RTVSPost2010PropOp39
 70
     1
102
RTVSPost2010Prop40
 90
        0
102
RTVSPost2010PropOp40
 70
     1
102
RTVSPost2010Prop41ColorIndex
 90
       18
102
RTVSPost2010Prop41ColorRGB
 90
        0
102
RTVSPost2010PropOp41
 70
     1
102
RTVSPost2010Prop42
 90
       50
102
RTVSPost2010PropOp42
 70
     1
102
RTVSPost2010Prop43
 90
        3
102
RTVSPost2010PropOp43
 70
     1
102
RTVSPost2010Prop44ColorIndex
 90
        5
102
RTVSPost2010Prop44ColorRGB
 90
      255
102
RTVSPost2010PropOp44
 70
     1
102
RTVSPost2010Prop45
280
     0
102
RTVSPost2010PropOp45
 70
     1
102
RTVSPost2010Prop46
 90
       50
102
RTVSPost2010PropOp46
 70
     1
102
RTVSPost2010Prop47
 90
       50
102
RTVSPost2010PropOp47
 70
     1
102
RTVSPost2010Prop48
 90
       50
102
RTVSPost2010PropOp48
 70
     1
102
RTVSPost2010Prop49
280
     0
102
RTVSPost2010PropOp49
 70
     1
102
RTVSPost2010Prop50
 90
       50
102
RTVSPost2010PropOp50
 70
     1
102
RTVSPost2010Prop51ColorIndex
 90
      256
102
RTVSPost2010Prop51ColorRGB
 90
-16777216
102
RTVSPost2010PropOp51
 70
     0
102
RTVSPost2010Prop52
140
1.0
102
RTVSPost2010PropOp52
 70
     0
102
RTVSPost2010Prop53
 90
        2
102
RTVSPost2010PropOp53
 70
     1
102
RTVSPost2010Prop54
  1
strokes_ogs.tif
102
RTVSPost2010PropOp54
 70
     1
102
RTVSPost2010Prop55
280
     0
102
RTVSPost2010PropOp55
 70
     1
102
RTVSPost2010Prop56
140
1.0
102
RTVSPost2010PropOp56
 70
     1
102
RTVSPost2010Prop57
140
1.0
102
RTVSPost2010PropOp57
 70
     1
102
RTVSPropertyOp0
 70
     1
102
RTVSPropertyOp1
 70
     1
102
RTVSPropertyOp2
 70
     1
102
RTVSPropertyOp3
 70
     1
102
RTVSPropertyOp4
 70
     1
102
RTVSPropertyOp5
 70
     1
102
RTVSPropertyOp6
 70
     1
102
RTVSPropertyOp7
 70
     1
102
RTVSPropertyOp8
 70
     1
102
RTVSPropertyOp9
 70
     1
102
RTVSPropertyOp10
 70
     1
102
RTVSPropertyOp11
 70
     1
102
RTVSPropertyOp12
 70
     1
102
RTVSPropertyOp13
 70
     1
102
RTVSPropertyOp14
 70
     1
102
RTVSPropertyOp15
 70
     1
102
RTVSPropertyOp16
 70
     1
102
RTVSPropertyOp17
 70
     1
102
RTVSPropertyOp18
 70
     1
102
RTVSPropertyOp19
 70
     1
102
RTVSPropertyOp20
 70
     1
102
RTVSPropertyOp21
 70
     1
102
RTVSPropertyOp22
 70
     1
102
RTVSPropertyOp23
 70
     1
102
RTVSPropertyOp24
 70
     1
102
RTVSPropertyOp25
 70
     1
102
RTVSPropertyOp26
 70
     1
102
RTVSPropertyOp27
 70
     1
102
RTVSPropertyOp28
 70
     1
102
RTVSPropertyOp29
 70
     1
102
RTVSPropertyOp30
 70
     1
102
RTVSPropertyOp31
 70
     1
102
RTVSPropertyOp32
 70
     1
102
RTVSPropertyOp33
 70
     1
102
RTVSPropertyOp34
 70
     1
102
RTVSPropertyOp35
 70
     1
102
RTVSPropertyOp36
 70
     1
102
RTVSPropertyOp37
 70
     1
102
RTVSPropertyOp38
 70
     1
102
RTVSPropertyOp39
 70
     1
102
RTVSPropertyOp40
 70
     1
102
RTVSPropertyOp41
 70
     1
102
RTVSPropertyOp42
 70
     1
102
RTVSPropertyOp43
 70
     1
102
RTVSPropertyOp44
 70
     1
102
RTVSPropertyOp45
 70
     1
102
RTVSPropertyOp46
 70
     1
102
RTVSPropertyOp47
 70
     1
102
RTVSPropertyOp48
 70
     1
102
RTVSPropertyOp49
 70
     1
102
RTVSPropertyOp50
 70
     1
102
RTVSPropertyOp51
 70
     0
102
RTVSPropertyOp52
 70
     0
102
RTVSPropertyOp53
 70
     1
102
RTVSPropertyOp54
 70
     1
102
RTVSPropertyOp55
 70
     1
102
RTVSPropertyOp56
 70
     1
102
RTVSPropertyOp57
 70
     1
102
RTVSPropertyOp58
 70
     1
102
RTVSPropertyOp59
 70
     1
102
RTVSPropertyOp60
 70
     1
102
RTVSPropertyOp61
 70
     1
102
RTVSPropertyOp62
 70
     1
  0
XRECORD
  5
15DAC
102
{ACAD_REACTORS
330
15DAB
102
}
330
15DAB
100
AcDbXrecord
280
     1
102
RTVSPost2010Prop28
280
     0
102
RTVSPost2010PropOp28
 70
     1
102
RTVSPost2010Prop29
280
     1
102
RTVSPost2010PropOp29
 70
     1
102
RTVSPost2010Prop30
280
     1
102
RTVSPost2010PropOp30
 70
     1
102
RTVSPost2010Prop31
280
     0
102
RTVSPost2010PropOp31
 70
     1
102
RTVSPost2010Prop32
280
     0
102
RTVSPost2010PropOp32
 70
     1
102
RTVSPost2010Prop33
280
     0
102
RTVSPost2010PropOp33
 70
     1
102
RTVSPost2010Prop34
280
     0
102
RTVSPost2010PropOp34
 70
     1
102
RTVSPost2010Prop35
280
     0
102
RTVSPost2010PropOp35
 70
     1
102
RTVSPost2010Prop36
280
     0
102
RTVSPost2010PropOp36
 70
     1
102
RTVSPost2010Prop37
 90
       50
102
RTVSPost2010PropOp37
 70
     0
102
RTVSPost2010Prop38
140
0.0
102
RTVSPost2010PropOp38
 70
     0
102
RTVSPost2010Prop39
140
1.0
102
RTVSPost2010PropOp39
 70
     0
102
RTVSPost2010Prop40
 90
        0
102
RTVSPost2010PropOp40
 70
     0
102
RTVSPost2010Prop41ColorIndex
 90
       18
102
RTVSPost2010Prop41ColorRGB
 90
        0
102
RTVSPost2010PropOp41
 70
     0
102
RTVSPost2010Prop42
 90
       50
102
RTVSPost2010PropOp42
 70
     0
102
RTVSPost2010Prop43
 90
        3
102
RTVSPost2010PropOp43
 70
     0
102
RTVSPost2010Prop44ColorIndex
 90
        5
102
RTVSPost2010Prop44ColorRGB
 90
      255
102
RTVSPost2010PropOp44
 70
     0
102
RTVSPost2010Prop45
280
     0
102
RTVSPost2010PropOp45
 70
     1
102
RTVSPost2010Prop46
 90
       50
102
RTVSPost2010PropOp46
 70
     0
102
RTVSPost2010Prop47
 90
       50
102
RTVSPost2010PropOp47
 70
     0
102
RTVSPost2010Prop48
 90
       50
102
RTVSPost2010PropOp48
 70
     0
102
RTVSPost2010Prop49
280
     0
102
RTVSPost2010PropOp49
 70
     1
102
RTVSPost2010Prop50
 90
       50
102
RTVSPost2010PropOp50
 70
     0
102
RTVSPost2010Prop51ColorIndex
 90
      256
102
RTVSPost2010Prop51ColorRGB
 90
-16777216
102
RTVSPost2010PropOp51
 70
     0
102
RTVSPost2010Prop52
140
1.0
102
RTVSPost2010PropOp52
 70
     0
102
RTVSPost2010Prop53
 90
        2
102
RTVSPost2010PropOp53
 70
     0
102
RTVSPost2010Prop54
  1
strokes_ogs.tif
102
RTVSPost2010PropOp54
 70
     0
102
RTVSPost2010Prop55
280
     0
102
RTVSPost2010PropOp55
 70
     1
102
RTVSPost2010Prop56
140
1.0
102
RTVSPost2010PropOp56
 70
     0
102
RTVSPost2010Prop57
140
1.0
102
RTVSPost2010PropOp57
 70
     0
102
RTVSPropertyOp0
 70
     0
102
RTVSPropertyOp1
 70
     0
102
RTVSPropertyOp2
 70
     0
102
RTVSPropertyOp3
 70
     0
102
RTVSPropertyOp4
 70
     0
102
RTVSPropertyOp5
 70
     0
102
RTVSPropertyOp6
 70
     0
102
RTVSPropertyOp7
 70
     0
102
RTVSPropertyOp8
 70
     0
102
RTVSPropertyOp9
 70
     0
102
RTVSPropertyOp10
 70
     0
102
RTVSPropertyOp11
 70
     0
102
RTVSPropertyOp12
 70
     0
102
RTVSPropertyOp13
 70
     0
102
RTVSPropertyOp14
 70
     2
102
RTVSPropertyOp15
 70
     0
102
RTVSPropertyOp16
 70
     0
102
RTVSPropertyOp17
 70
     0
102
RTVSPropertyOp18
 70
     0
102
RTVSPropertyOp19
 70
     0
102
RTVSPropertyOp20
 70
     0
102
RTVSPropertyOp21
 70
     0
102
RTVSPropertyOp22
 70
     0
102
RTVSPropertyOp23
 70
     0
102
RTVSPropertyOp24
 70
     0
102
RTVSPropertyOp25
 70
     0
102
RTVSPropertyOp26
 70
     0
102
RTVSPropertyOp27
 70
     0
102
RTVSPropertyOp28
 70
     1
102
RTVSPropertyOp29
 70
     1
102
RTVSPropertyOp30
 70
     1
102
RTVSPropertyOp31
 70
     1
102
RTVSPropertyOp32
 70
     1
102
RTVSPropertyOp33
 70
     1
102
RTVSPropertyOp34
 70
     1
102
RTVSPropertyOp35
 70
     1
102
RTVSPropertyOp36
 70
     1
102
RTVSPropertyOp37
 70
     0
102
RTVSPropertyOp38
 70
     0
102
RTVSPropertyOp39
 70
     0
102
RTVSPropertyOp40
 70
     0
102
RTVSPropertyOp41
 70
     0
102
RTVSPropertyOp42
 70
     0
102
RTVSPropertyOp43
 70
     0
102
RTVSPropertyOp44
 70
     0
102
RTVSPropertyOp45
 70
     1
102
RTVSPropertyOp46
 70
     0
102
RTVSPropertyOp47
 70
     0
102
RTVSPropertyOp48
 70
     0
102
RTVSPropertyOp49
 70
     1
102
RTVSPropertyOp50
 70
     0
102
RTVSPropertyOp51
 70
     0
102
RTVSPropertyOp52
 70
     0
102
RTVSPropertyOp53
 70
     0
102
RTVSPropertyOp54
 70
     0
102
RTVSPropertyOp55
 70
     1
102
RTVSPropertyOp56
 70
     0
102
RTVSPropertyOp57
 70
     0
102
RTVSPropertyOp58
 70
     0
102
RTVSPropertyOp59
 70
     0
102
RTVSPropertyOp60
 70
     0
102
RTVSPropertyOp61
 70
     0
102
RTVSPropertyOp62
 70
     0
  0
XRECORD
  5
15D9A
102
{ACAD_REACTORS
330
15D99
102
}
330
15D99
100
AcDbXrecord
280
     1
102
RTVSPost2010Prop28
280
     0
102
RTVSPost2010PropOp28
 70
     1
102
RTVSPost2010Prop29
280
     1
102
RTVSPost2010PropOp29
 70
     1
102
RTVSPost2010Prop30
280
     1
102
RTVSPost2010PropOp30
 70
     1
102
RTVSPost2010Prop31
280
     0
102
RTVSPost2010PropOp31
 70
     1
102
RTVSPost2010Prop32
280
     0
102
RTVSPost2010PropOp32
 70
     1
102
RTVSPost2010Prop33
280
     0
102
RTVSPost2010PropOp33
 70
     1
102
RTVSPost2010Prop34
280
     0
102
RTVSPost2010PropOp34
 70
     1
102
RTVSPost2010Prop35
280
     0
102
RTVSPost2010PropOp35
 70
     1
102
RTVSPost2010Prop36
280
     0
102
RTVSPost2010PropOp36
 70
     1
102
RTVSPost2010Prop37
 90
       50
102
RTVSPost2010PropOp37
 70
     1
102
RTVSPost2010Prop38
140
0.0
102
RTVSPost2010PropOp38
 70
     1
102
RTVSPost2010Prop39
140
1.0
102
RTVSPost2010PropOp39
 70
     1
102
RTVSPost2010Prop40
 90
        0
102
RTVSPost2010PropOp40
 70
     1
102
RTVSPost2010Prop41ColorIndex
 90
       18
102
RTVSPost2010Prop41ColorRGB
 90
        0
102
RTVSPost2010PropOp41
 70
     1
102
RTVSPost2010Prop42
 90
       50
102
RTVSPost2010PropOp42
 70
     1
102
RTVSPost2010Prop43
 90
        3
102
RTVSPost2010PropOp43
 70
     1
102
RTVSPost2010Prop44ColorIndex
 90
        5
102
RTVSPost2010Prop44ColorRGB
 90
      255
102
RTVSPost2010PropOp44
 70
     1
102
RTVSPost2010Prop45
280
     0
102
RTVSPost2010PropOp45
 70
     1
102
RTVSPost2010Prop46
 90
       50
102
RTVSPost2010PropOp46
 70
     1
102
RTVSPost2010Prop47
 90
       50
102
RTVSPost2010PropOp47
 70
     1
102
RTVSPost2010Prop48
 90
       50
102
RTVSPost2010PropOp48
 70
     1
102
RTVSPost2010Prop49
280
     0
102
RTVSPost2010PropOp49
 70
     1
102
RTVSPost2010Prop50
 90
       50
102
RTVSPost2010PropOp50
 70
     1
102
RTVSPost2010Prop51ColorIndex
 90
      256
102
RTVSPost2010Prop51ColorRGB
 90
-16777216
102
RTVSPost2010PropOp51
 70
     0
102
RTVSPost2010Prop52
140
1.0
102
RTVSPost2010PropOp52
 70
     0
102
RTVSPost2010Prop53
 90
        2
102
RTVSPost2010PropOp53
 70
     1
102
RTVSPost2010Prop54
  1
strokes_ogs.tif
102
RTVSPost2010PropOp54
 70
     1
102
RTVSPost2010Prop55
280
     0
102
RTVSPost2010PropOp55
 70
     1
102
RTVSPost2010Prop56
140
1.0
102
RTVSPost2010PropOp56
 70
     1
102
RTVSPost2010Prop57
140
1.0
102
RTVSPost2010PropOp57
 70
     1
102
RTVSPropertyOp0
 70
     1
102
RTVSPropertyOp1
 70
     1
102
RTVSPropertyOp2
 70
     1
102
RTVSPropertyOp3
 70
     1
102
RTVSPropertyOp4
 70
     1
102
RTVSPropertyOp5
 70
     1
102
RTVSPropertyOp6
 70
     1
102
RTVSPropertyOp7
 70
     1
102
RTVSPropertyOp8
 70
     1
102
RTVSPropertyOp9
 70
     1
102
RTVSPropertyOp10
 70
     1
102
RTVSPropertyOp11
 70
     1
102
RTVSPropertyOp12
 70
     1
102
RTVSPropertyOp13
 70
     1
102
RTVSPropertyOp14
 70
     1
102
RTVSPropertyOp15
 70
     1
102
RTVSPropertyOp16
 70
     1
102
RTVSPropertyOp17
 70
     1
102
RTVSPropertyOp18
 70
     1
102
RTVSPropertyOp19
 70
     1
102
RTVSPropertyOp20
 70
     1
102
RTVSPropertyOp21
 70
     1
102
RTVSPropertyOp22
 70
     1
102
RTVSPropertyOp23
 70
     1
102
RTVSPropertyOp24
 70
     1
102
RTVSPropertyOp25
 70
     1
102
RTVSPropertyOp26
 70
     1
102
RTVSPropertyOp27
 70
     1
102
RTVSPropertyOp28
 70
     1
102
RTVSPropertyOp29
 70
     1
102
RTVSPropertyOp30
 70
     1
102
RTVSPropertyOp31
 70
     1
102
RTVSPropertyOp32
 70
     1
102
RTVSPropertyOp33
 70
     1
102
RTVSPropertyOp34
 70
     1
102
RTVSPropertyOp35
 70
     1
102
RTVSPropertyOp36
 70
     1
102
RTVSPropertyOp37
 70
     1
102
RTVSPropertyOp38
 70
     1
102
RTVSPropertyOp39
 70
     1
102
RTVSPropertyOp40
 70
     1
102
RTVSPropertyOp41
 70
     1
102
RTVSPropertyOp42
 70
     1
102
RTVSPropertyOp43
 70
     1
102
RTVSPropertyOp44
 70
     1
102
RTVSPropertyOp45
 70
     1
102
RTVSPropertyOp46
 70
     1
102
RTVSPropertyOp47
 70
     1
102
RTVSPropertyOp48
 70
     1
102
RTVSPropertyOp49
 70
     1
102
RTVSPropertyOp50
 70
     1
102
RTVSPropertyOp51
 70
     0
102
RTVSPropertyOp52
 70
     0
102
RTVSPropertyOp53
 70
     1
102
RTVSPropertyOp54
 70
     1
102
RTVSPropertyOp55
 70
     1
102
RTVSPropertyOp56
 70
     1
102
RTVSPropertyOp57
 70
     1
102
RTVSPropertyOp58
 70
     1
102
RTVSPropertyOp59
 70
     1
102
RTVSPropertyOp60
 70
     1
102
RTVSPropertyOp61
 70
     1
102
RTVSPropertyOp62
 70
     1
  0
XRECORD
  5
15D7E
102
{ACAD_REACTORS
330
15D7D
102
}
330
15D7D
100
AcDbXrecord
280
     1
102
RTVSPost2010Prop28
280
     0
102
RTVSPost2010PropOp28
 70
     1
102
RTVSPost2010Prop29
280
     1
102
RTVSPost2010PropOp29
 70
     1
102
RTVSPost2010Prop30
280
     1
102
RTVSPost2010PropOp30
 70
     1
102
RTVSPost2010Prop31
280
     0
102
RTVSPost2010PropOp31
 70
     1
102
RTVSPost2010Prop32
280
     0
102
RTVSPost2010PropOp32
 70
     1
102
RTVSPost2010Prop33
280
     0
102
RTVSPost2010PropOp33
 70
     1
102
RTVSPost2010Prop34
280
     0
102
RTVSPost2010PropOp34
 70
     1
102
RTVSPost2010Prop35
280
     0
102
RTVSPost2010PropOp35
 70
     1
102
RTVSPost2010Prop36
280
     0
102
RTVSPost2010PropOp36
 70
     1
102
RTVSPost2010Prop37
 90
       50
102
RTVSPost2010PropOp37
 70
     1
102
RTVSPost2010Prop38
140
0.0
102
RTVSPost2010PropOp38
 70
     1
102
RTVSPost2010Prop39
140
1.0
102
RTVSPost2010PropOp39
 70
     1
102
RTVSPost2010Prop40
 90
        0
102
RTVSPost2010PropOp40
 70
     1
102
RTVSPost2010Prop41ColorIndex
 90
       18
102
RTVSPost2010Prop41ColorRGB
 90
        0
102
RTVSPost2010PropOp41
 70
     1
102
RTVSPost2010Prop42
 90
       50
102
RTVSPost2010PropOp42
 70
     1
102
RTVSPost2010Prop43
 90
        3
102
RTVSPost2010PropOp43
 70
     1
102
RTVSPost2010Prop44ColorIndex
 90
        5
102
RTVSPost2010Prop44ColorRGB
 90
      255
102
RTVSPost2010PropOp44
 70
     1
102
RTVSPost2010Prop45
280
     0
102
RTVSPost2010PropOp45
 70
     1
102
RTVSPost2010Prop46
 90
       50
102
RTVSPost2010PropOp46
 70
     1
102
RTVSPost2010Prop47
 90
       50
102
RTVSPost2010PropOp47
 70
     1
102
RTVSPost2010Prop48
 90
       50
102
RTVSPost2010PropOp48
 70
     1
102
RTVSPost2010Prop49
280
     0
102
RTVSPost2010PropOp49
 70
     1
102
RTVSPost2010Prop50
 90
       50
102
RTVSPost2010PropOp50
 70
     1
102
RTVSPost2010Prop51ColorIndex
 90
      256
102
RTVSPost2010Prop51ColorRGB
 90
-16777216
102
RTVSPost2010PropOp51
 70
     0
102
RTVSPost2010Prop52
140
1.0
102
RTVSPost2010PropOp52
 70
     0
102
RTVSPost2010Prop53
 90
        2
102
RTVSPost2010PropOp53
 70
     1
102
RTVSPost2010Prop54
  1
strokes_ogs.tif
102
RTVSPost2010PropOp54
 70
     1
102
RTVSPost2010Prop55
280
     0
102
RTVSPost2010PropOp55
 70
     1
102
RTVSPost2010Prop56
140
1.0
102
RTVSPost2010PropOp56
 70
     1
102
RTVSPost2010Prop57
140
1.0
102
RTVSPost2010PropOp57
 70
     1
102
RTVSPropertyOp0
 70
     1
102
RTVSPropertyOp1
 70
     1
102
RTVSPropertyOp2
 70
     1
102
RTVSPropertyOp3
 70
     1
102
RTVSPropertyOp4
 70
     1
102
RTVSPropertyOp5
 70
     1
102
RTVSPropertyOp6
 70
     1
102
RTVSPropertyOp7
 70
     1
102
RTVSPropertyOp8
 70
     1
102
RTVSPropertyOp9
 70
     1
102
RTVSPropertyOp10
 70
     1
102
RTVSPropertyOp11
 70
     1
102
RTVSPropertyOp12
 70
     1
102
RTVSPropertyOp13
 70
     1
102
RTVSPropertyOp14
 70
     1
102
RTVSPropertyOp15
 70
     1
102
RTVSPropertyOp16
 70
     1
102
RTVSPropertyOp17
 70
     1
102
RTVSPropertyOp18
 70
     1
102
RTVSPropertyOp19
 70
     1
102
RTVSPropertyOp20
 70
     1
102
RTVSPropertyOp21
 70
     1
102
RTVSPropertyOp22
 70
     1
102
RTVSPropertyOp23
 70
     1
102
RTVSPropertyOp24
 70
     1
102
RTVSPropertyOp25
 70
     1
102
RTVSPropertyOp26
 70
     1
102
RTVSPropertyOp27
 70
     1
102
RTVSPropertyOp28
 70
     1
102
RTVSPropertyOp29
 70
     1
102
RTVSPropertyOp30
 70
     1
102
RTVSPropertyOp31
 70
     1
102
RTVSPropertyOp32
 70
     1
102
RTVSPropertyOp33
 70
     1
102
RTVSPropertyOp34
 70
     1
102
RTVSPropertyOp35
 70
     1
102
RTVSPropertyOp36
 70
     1
102
RTVSPropertyOp37
 70
     1
102
RTVSPropertyOp38
 70
     1
102
RTVSPropertyOp39
 70
     1
102
RTVSPropertyOp40
 70
     1
102
RTVSPropertyOp41
 70
     1
102
RTVSPropertyOp42
 70
     1
102
RTVSPropertyOp43
 70
     1
102
RTVSPropertyOp44
 70
     1
102
RTVSPropertyOp45
 70
     1
102
RTVSPropertyOp46
 70
     1
102
RTVSPropertyOp47
 70
     1
102
RTVSPropertyOp48
 70
     1
102
RTVSPropertyOp49
 70
     1
102
RTVSPropertyOp50
 70
     1
102
RTVSPropertyOp51
 70
     0
102
RTVSPropertyOp52
 70
     0
102
RTVSPropertyOp53
 70
     1
102
RTVSPropertyOp54
 70
     1
102
RTVSPropertyOp55
 70
     1
102
RTVSPropertyOp56
 70
     1
102
RTVSPropertyOp57
 70
     1
102
RTVSPropertyOp58
 70
     1
102
RTVSPropertyOp59
 70
     1
102
RTVSPropertyOp60
 70
     1
102
RTVSPropertyOp61
 70
     1
102
RTVSPropertyOp62
 70
     1
  0
XRECORD
  5
15D80
102
{ACAD_REACTORS
330
15D7F
102
}
330
15D7F
100
AcDbXrecord
280
     1
102
RTVSPost2010Prop28
280
     0
102
RTVSPost2010PropOp28
 70
     1
102
RTVSPost2010Prop29
280
     1
102
RTVSPost2010PropOp29
 70
     1
102
RTVSPost2010Prop30
280
     1
102
RTVSPost2010PropOp30
 70
     1
102
RTVSPost2010Prop31
280
     0
102
RTVSPost2010PropOp31
 70
     1
102
RTVSPost2010Prop32
280
     0
102
RTVSPost2010PropOp32
 70
     1
102
RTVSPost2010Prop33
280
     0
102
RTVSPost2010PropOp33
 70
     1
102
RTVSPost2010Prop34
280
     0
102
RTVSPost2010PropOp34
 70
     1
102
RTVSPost2010Prop35
280
     0
102
RTVSPost2010PropOp35
 70
     1
102
RTVSPost2010Prop36
280
     0
102
RTVSPost2010PropOp36
 70
     1
102
RTVSPost2010Prop37
 90
       50
102
RTVSPost2010PropOp37
 70
     1
102
RTVSPost2010Prop38
140
0.0
102
RTVSPost2010PropOp38
 70
     1
102
RTVSPost2010Prop39
140
1.0
102
RTVSPost2010PropOp39
 70
     1
102
RTVSPost2010Prop40
 90
        0
102
RTVSPost2010PropOp40
 70
     1
102
RTVSPost2010Prop41ColorIndex
 90
       18
102
RTVSPost2010Prop41ColorRGB
 90
        0
102
RTVSPost2010PropOp41
 70
     1
102
RTVSPost2010Prop42
 90
       50
102
RTVSPost2010PropOp42
 70
     1
102
RTVSPost2010Prop43
 90
        3
102
RTVSPost2010PropOp43
 70
     1
102
RTVSPost2010Prop44ColorIndex
 90
        5
102
RTVSPost2010Prop44ColorRGB
 90
      255
102
RTVSPost2010PropOp44
 70
     1
102
RTVSPost2010Prop45
280
     0
102
RTVSPost2010PropOp45
 70
     1
102
RTVSPost2010Prop46
 90
       50
102
RTVSPost2010PropOp46
 70
     1
102
RTVSPost2010Prop47
 90
       50
102
RTVSPost2010PropOp47
 70
     1
102
RTVSPost2010Prop48
 90
       50
102
RTVSPost2010PropOp48
 70
     1
102
RTVSPost2010Prop49
280
     0
102
RTVSPost2010PropOp49
 70
     1
102
RTVSPost2010Prop50
 90
       50
102
RTVSPost2010PropOp50
 70
     1
102
RTVSPost2010Prop51ColorIndex
 90
      256
102
RTVSPost2010Prop51ColorRGB
 90
-16777216
102
RTVSPost2010PropOp51
 70
     0
102
RTVSPost2010Prop52
140
1.0
102
RTVSPost2010PropOp52
 70
     0
102
RTVSPost2010Prop53
 90
        2
102
RTVSPost2010PropOp53
 70
     1
102
RTVSPost2010Prop54
  1
strokes_ogs.tif
102
RTVSPost2010PropOp54
 70
     1
102
RTVSPost2010Prop55
280
     0
102
RTVSPost2010PropOp55
 70
     1
102
RTVSPost2010Prop56
140
1.0
102
RTVSPost2010PropOp56
 70
     1
102
RTVSPost2010Prop57
140
1.0
102
RTVSPost2010PropOp57
 70
     1
102
RTVSPropertyOp0
 70
     1
102
RTVSPropertyOp1
 70
     1
102
RTVSPropertyOp2
 70
     1
102
RTVSPropertyOp3
 70
     1
102
RTVSPropertyOp4
 70
     1
102
RTVSPropertyOp5
 70
     1
102
RTVSPropertyOp6
 70
     1
102
RTVSPropertyOp7
 70
     1
102
RTVSPropertyOp8
 70
     1
102
RTVSPropertyOp9
 70
     1
102
RTVSPropertyOp10
 70
     1
102
RTVSPropertyOp11
 70
     1
102
RTVSPropertyOp12
 70
     1
102
RTVSPropertyOp13
 70
     1
102
RTVSPropertyOp14
 70
     1
102
RTVSPropertyOp15
 70
     1
102
RTVSPropertyOp16
 70
     1
102
RTVSPropertyOp17
 70
     1
102
RTVSPropertyOp18
 70
     1
102
RTVSPropertyOp19
 70
     1
102
RTVSPropertyOp20
 70
     1
102
RTVSPropertyOp21
 70
     1
102
RTVSPropertyOp22
 70
     1
102
RTVSPropertyOp23
 70
     1
102
RTVSPropertyOp24
 70
     1
102
RTVSPropertyOp25
 70
     1
102
RTVSPropertyOp26
 70
     1
102
RTVSPropertyOp27
 70
     1
102
RTVSPropertyOp28
 70
     1
102
RTVSPropertyOp29
 70
     1
102
RTVSPropertyOp30
 70
     1
102
RTVSPropertyOp31
 70
     1
102
RTVSPropertyOp32
 70
     1
102
RTVSPropertyOp33
 70
     1
102
RTVSPropertyOp34
 70
     1
102
RTVSPropertyOp35
 70
     1
102
RTVSPropertyOp36
 70
     1
102
RTVSPropertyOp37
 70
     1
102
RTVSPropertyOp38
 70
     1
102
RTVSPropertyOp39
 70
     1
102
RTVSPropertyOp40
 70
     1
102
RTVSPropertyOp41
 70
     1
102
RTVSPropertyOp42
 70
     1
102
RTVSPropertyOp43
 70
     1
102
RTVSPropertyOp44
 70
     1
102
RTVSPropertyOp45
 70
     1
102
RTVSPropertyOp46
 70
     1
102
RTVSPropertyOp47
 70
     1
102
RTVSPropertyOp48
 70
     1
102
RTVSPropertyOp49
 70
     1
102
RTVSPropertyOp50
 70
     1
102
RTVSPropertyOp51
 70
     0
102
RTVSPropertyOp52
 70
     0
102
RTVSPropertyOp53
 70
     1
102
RTVSPropertyOp54
 70
     1
102
RTVSPropertyOp55
 70
     1
102
RTVSPropertyOp56
 70
     1
102
RTVSPropertyOp57
 70
     1
102
RTVSPropertyOp58
 70
     1
102
RTVSPropertyOp59
 70
     1
102
RTVSPropertyOp60
 70
     1
102
RTVSPropertyOp61
 70
     1
102
RTVSPropertyOp62
 70
     1
  0
XRECORD
  5
15D82
102
{ACAD_REACTORS
330
15D81
102
}
330
15D81
100
AcDbXrecord
280
     1
102
RTVSPost2010Prop28
280
     0
102
RTVSPost2010PropOp28
 70
     1
102
RTVSPost2010Prop29
280
     1
102
RTVSPost2010PropOp29
 70
     1
102
RTVSPost2010Prop30
280
     1
102
RTVSPost2010PropOp30
 70
     1
102
RTVSPost2010Prop31
280
     0
102
RTVSPost2010PropOp31
 70
     1
102
RTVSPost2010Prop32
280
     0
102
RTVSPost2010PropOp32
 70
     1
102
RTVSPost2010Prop33
280
     0
102
RTVSPost2010PropOp33
 70
     1
102
RTVSPost2010Prop34
280
     0
102
RTVSPost2010PropOp34
 70
     1
102
RTVSPost2010Prop35
280
     0
102
RTVSPost2010PropOp35
 70
     1
102
RTVSPost2010Prop36
280
     0
102
RTVSPost2010PropOp36
 70
     1
102
RTVSPost2010Prop37
 90
       50
102
RTVSPost2010PropOp37
 70
     1
102
RTVSPost2010Prop38
140
0.0
102
RTVSPost2010PropOp38
 70
     1
102
RTVSPost2010Prop39
140
1.0
102
RTVSPost2010PropOp39
 70
     1
102
RTVSPost2010Prop40
 90
        0
102
RTVSPost2010PropOp40
 70
     1
102
RTVSPost2010Prop41ColorIndex
 90
       18
102
RTVSPost2010Prop41ColorRGB
 90
        0
102
RTVSPost2010PropOp41
 70
     1
102
RTVSPost2010Prop42
 90
       50
102
RTVSPost2010PropOp42
 70
     1
102
RTVSPost2010Prop43
 90
        3
102
RTVSPost2010PropOp43
 70
     1
102
RTVSPost2010Prop44ColorIndex
 90
        5
102
RTVSPost2010Prop44ColorRGB
 90
      255
102
RTVSPost2010PropOp44
 70
     1
102
RTVSPost2010Prop45
280
     0
102
RTVSPost2010PropOp45
 70
     1
102
RTVSPost2010Prop46
 90
       50
102
RTVSPost2010PropOp46
 70
     1
102
RTVSPost2010Prop47
 90
       50
102
RTVSPost2010PropOp47
 70
     1
102
RTVSPost2010Prop48
 90
       50
102
RTVSPost2010PropOp48
 70
     1
102
RTVSPost2010Prop49
280
     0
102
RTVSPost2010PropOp49
 70
     1
102
RTVSPost2010Prop50
 90
       50
102
RTVSPost2010PropOp50
 70
     1
102
RTVSPost2010Prop51ColorIndex
 90
      256
102
RTVSPost2010Prop51ColorRGB
 90
-16777216
102
RTVSPost2010PropOp51
 70
     0
102
RTVSPost2010Prop52
140
1.0
102
RTVSPost2010PropOp52
 70
     0
102
RTVSPost2010Prop53
 90
        2
102
RTVSPost2010PropOp53
 70
     1
102
RTVSPost2010Prop54
  1
strokes_ogs.tif
102
RTVSPost2010PropOp54
 70
     1
102
RTVSPost2010Prop55
280
     0
102
RTVSPost2010PropOp55
 70
     1
102
RTVSPost2010Prop56
140
1.0
102
RTVSPost2010PropOp56
 70
     1
102
RTVSPost2010Prop57
140
1.0
102
RTVSPost2010PropOp57
 70
     1
102
RTVSPropertyOp0
 70
     1
102
RTVSPropertyOp1
 70
     1
102
RTVSPropertyOp2
 70
     1
102
RTVSPropertyOp3
 70
     1
102
RTVSPropertyOp4
 70
     1
102
RTVSPropertyOp5
 70
     1
102
RTVSPropertyOp6
 70
     1
102
RTVSPropertyOp7
 70
     1
102
RTVSPropertyOp8
 70
     1
102
RTVSPropertyOp9
 70
     1
102
RTVSPropertyOp10
 70
     1
102
RTVSPropertyOp11
 70
     1
102
RTVSPropertyOp12
 70
     1
102
RTVSPropertyOp13
 70
     1
102
RTVSPropertyOp14
 70
     1
102
RTVSPropertyOp15
 70
     1
102
RTVSPropertyOp16
 70
     1
102
RTVSPropertyOp17
 70
     1
102
RTVSPropertyOp18
 70
     1
102
RTVSPropertyOp19
 70
     1
102
RTVSPropertyOp20
 70
     1
102
RTVSPropertyOp21
 70
     1
102
RTVSPropertyOp22
 70
     1
102
RTVSPropertyOp23
 70
     1
102
RTVSPropertyOp24
 70
     1
102
RTVSPropertyOp25
 70
     1
102
RTVSPropertyOp26
 70
     1
102
RTVSPropertyOp27
 70
     1
102
RTVSPropertyOp28
 70
     1
102
RTVSPropertyOp29
 70
     1
102
RTVSPropertyOp30
 70
     1
102
RTVSPropertyOp31
 70
     1
102
RTVSPropertyOp32
 70
     1
102
RTVSPropertyOp33
 70
     1
102
RTVSPropertyOp34
 70
     1
102
RTVSPropertyOp35
 70
     1
102
RTVSPropertyOp36
 70
     1
102
RTVSPropertyOp37
 70
     1
102
RTVSPropertyOp38
 70
     1
102
RTVSPropertyOp39
 70
     1
102
RTVSPropertyOp40
 70
     1
102
RTVSPropertyOp41
 70
     1
102
RTVSPropertyOp42
 70
     1
102
RTVSPropertyOp43
 70
     1
102
RTVSPropertyOp44
 70
     1
102
RTVSPropertyOp45
 70
     1
102
RTVSPropertyOp46
 70
     1
102
RTVSPropertyOp47
 70
     1
102
RTVSPropertyOp48
 70
     1
102
RTVSPropertyOp49
 70
     1
102
RTVSPropertyOp50
 70
     1
102
RTVSPropertyOp51
 70
     0
102
RTVSPropertyOp52
 70
     0
102
RTVSPropertyOp53
 70
     1
102
RTVSPropertyOp54
 70
     1
102
RTVSPropertyOp55
 70
     1
102
RTVSPropertyOp56
 70
     1
102
RTVSPropertyOp57
 70
     1
102
RTVSPropertyOp58
 70
     1
102
RTVSPropertyOp59
 70
     1
102
RTVSPropertyOp60
 70
     1
102
RTVSPropertyOp61
 70
     1
102
RTVSPropertyOp62
 70
     1
  0
XRECORD
  5
15D84
102
{ACAD_REACTORS
330
15D83
102
}
330
15D83
100
AcDbXrecord
280
     1
102
RTVSPost2010Prop28
280
     0
102
RTVSPost2010PropOp28
 70
     1
102
RTVSPost2010Prop29
280
     1
102
RTVSPost2010PropOp29
 70
     1
102
RTVSPost2010Prop30
280
     1
102
RTVSPost2010PropOp30
 70
     1
102
RTVSPost2010Prop31
280
     0
102
RTVSPost2010PropOp31
 70
     1
102
RTVSPost2010Prop32
280
     0
102
RTVSPost2010PropOp32
 70
     1
102
RTVSPost2010Prop33
280
     0
102
RTVSPost2010PropOp33
 70
     1
102
RTVSPost2010Prop34
280
     0
102
RTVSPost2010PropOp34
 70
     1
102
RTVSPost2010Prop35
280
     0
102
RTVSPost2010PropOp35
 70
     1
102
RTVSPost2010Prop36
280
     0
102
RTVSPost2010PropOp36
 70
     1
102
RTVSPost2010Prop37
 90
       50
102
RTVSPost2010PropOp37
 70
     1
102
RTVSPost2010Prop38
140
0.0
102
RTVSPost2010PropOp38
 70
     1
102
RTVSPost2010Prop39
140
1.0
102
RTVSPost2010PropOp39
 70
     1
102
RTVSPost2010Prop40
 90
        0
102
RTVSPost2010PropOp40
 70
     1
102
RTVSPost2010Prop41ColorIndex
 90
       18
102
RTVSPost2010Prop41ColorRGB
 90
        0
102
RTVSPost2010PropOp41
 70
     1
102
RTVSPost2010Prop42
 90
       50
102
RTVSPost2010PropOp42
 70
     1
102
RTVSPost2010Prop43
 90
        3
102
RTVSPost2010PropOp43
 70
     1
102
RTVSPost2010Prop44ColorIndex
 90
        5
102
RTVSPost2010Prop44ColorRGB
 90
      255
102
RTVSPost2010PropOp44
 70
     1
102
RTVSPost2010Prop45
280
     0
102
RTVSPost2010PropOp45
 70
     1
102
RTVSPost2010Prop46
 90
       50
102
RTVSPost2010PropOp46
 70
     1
102
RTVSPost2010Prop47
 90
       50
102
RTVSPost2010PropOp47
 70
     1
102
RTVSPost2010Prop48
 90
       50
102
RTVSPost2010PropOp48
 70
     1
102
RTVSPost2010Prop49
280
     0
102
RTVSPost2010PropOp49
 70
     1
102
RTVSPost2010Prop50
 90
       50
102
RTVSPost2010PropOp50
 70
     1
102
RTVSPost2010Prop51ColorIndex
 90
      256
102
RTVSPost2010Prop51ColorRGB
 90
-16777216
102
RTVSPost2010PropOp51
 70
     0
102
RTVSPost2010Prop52
140
1.0
102
RTVSPost2010PropOp52
 70
     0
102
RTVSPost2010Prop53
 90
        2
102
RTVSPost2010PropOp53
 70
     1
102
RTVSPost2010Prop54
  1
strokes_ogs.tif
102
RTVSPost2010PropOp54
 70
     1
102
RTVSPost2010Prop55
280
     0
102
RTVSPost2010PropOp55
 70
     1
102
RTVSPost2010Prop56
140
1.0
102
RTVSPost2010PropOp56
 70
     1
102
RTVSPost2010Prop57
140
1.0
102
RTVSPost2010PropOp57
 70
     1
102
RTVSPropertyOp0
 70
     1
102
RTVSPropertyOp1
 70
     1
102
RTVSPropertyOp2
 70
     1
102
RTVSPropertyOp3
 70
     1
102
RTVSPropertyOp4
 70
     1
102
RTVSPropertyOp5
 70
     1
102
RTVSPropertyOp6
 70
     1
102
RTVSPropertyOp7
 70
     1
102
RTVSPropertyOp8
 70
     1
102
RTVSPropertyOp9
 70
     1
102
RTVSPropertyOp10
 70
     1
102
RTVSPropertyOp11
 70
     1
102
RTVSPropertyOp12
 70
     1
102
RTVSPropertyOp13
 70
     1
102
RTVSPropertyOp14
 70
     1
102
RTVSPropertyOp15
 70
     1
102
RTVSPropertyOp16
 70
     1
102
RTVSPropertyOp17
 70
     1
102
RTVSPropertyOp18
 70
     1
102
RTVSPropertyOp19
 70
     1
102
RTVSPropertyOp20
 70
     1
102
RTVSPropertyOp21
 70
     1
102
RTVSPropertyOp22
 70
     1
102
RTVSPropertyOp23
 70
     1
102
RTVSPropertyOp24
 70
     1
102
RTVSPropertyOp25
 70
     1
102
RTVSPropertyOp26
 70
     1
102
RTVSPropertyOp27
 70
     1
102
RTVSPropertyOp28
 70
     1
102
RTVSPropertyOp29
 70
     1
102
RTVSPropertyOp30
 70
     1
102
RTVSPropertyOp31
 70
     1
102
RTVSPropertyOp32
 70
     1
102
RTVSPropertyOp33
 70
     1
102
RTVSPropertyOp34
 70
     1
102
RTVSPropertyOp35
 70
     1
102
RTVSPropertyOp36
 70
     1
102
RTVSPropertyOp37
 70
     1
102
RTVSPropertyOp38
 70
     1
102
RTVSPropertyOp39
 70
     1
102
RTVSPropertyOp40
 70
     1
102
RTVSPropertyOp41
 70
     1
102
RTVSPropertyOp42
 70
     1
102
RTVSPropertyOp43
 70
     1
102
RTVSPropertyOp44
 70
     1
102
RTVSPropertyOp45
 70
     1
102
RTVSPropertyOp46
 70
     1
102
RTVSPropertyOp47
 70
     1
102
RTVSPropertyOp48
 70
     1
102
RTVSPropertyOp49
 70
     1
102
RTVSPropertyOp50
 70
     1
102
RTVSPropertyOp51
 70
     0
102
RTVSPropertyOp52
 70
     0
102
RTVSPropertyOp53
 70
     1
102
RTVSPropertyOp54
 70
     1
102
RTVSPropertyOp55
 70
     1
102
RTVSPropertyOp56
 70
     1
102
RTVSPropertyOp57
 70
     1
102
RTVSPropertyOp58
 70
     1
102
RTVSPropertyOp59
 70
     1
102
RTVSPropertyOp60
 70
     1
102
RTVSPropertyOp61
 70
     1
102
RTVSPropertyOp62
 70
     1
  0
XRECORD
  5
15D8C
102
{ACAD_REACTORS
330
15D8B
102
}
330
15D8B
100
AcDbXrecord
280
     1
102
RTVSPost2010Prop28
280
     0
102
RTVSPost2010PropOp28
 70
     1
102
RTVSPost2010Prop29
280
     1
102
RTVSPost2010PropOp29
 70
     1
102
RTVSPost2010Prop30
280
     1
102
RTVSPost2010PropOp30
 70
     1
102
RTVSPost2010Prop31
280
     0
102
RTVSPost2010PropOp31
 70
     1
102
RTVSPost2010Prop32
280
     0
102
RTVSPost2010PropOp32
 70
     1
102
RTVSPost2010Prop33
280
     0
102
RTVSPost2010PropOp33
 70
     1
102
RTVSPost2010Prop34
280
     0
102
RTVSPost2010PropOp34
 70
     1
102
RTVSPost2010Prop35
280
     0
102
RTVSPost2010PropOp35
 70
     1
102
RTVSPost2010Prop36
280
     0
102
RTVSPost2010PropOp36
 70
     1
102
RTVSPost2010Prop37
 90
       50
102
RTVSPost2010PropOp37
 70
     1
102
RTVSPost2010Prop38
140
0.0
102
RTVSPost2010PropOp38
 70
     1
102
RTVSPost2010Prop39
140
1.0
102
RTVSPost2010PropOp39
 70
     1
102
RTVSPost2010Prop40
 90
        0
102
RTVSPost2010PropOp40
 70
     1
102
RTVSPost2010Prop41ColorIndex
 90
       18
102
RTVSPost2010Prop41ColorRGB
 90
        0
102
RTVSPost2010PropOp41
 70
     1
102
RTVSPost2010Prop42
 90
       50
102
RTVSPost2010PropOp42
 70
     1
102
RTVSPost2010Prop43
 90
        3
102
RTVSPost2010PropOp43
 70
     1
102
RTVSPost2010Prop44ColorIndex
 90
        5
102
RTVSPost2010Prop44ColorRGB
 90
      255
102
RTVSPost2010PropOp44
 70
     1
102
RTVSPost2010Prop45
280
     0
102
RTVSPost2010PropOp45
 70
     1
102
RTVSPost2010Prop46
 90
       50
102
RTVSPost2010PropOp46
 70
     1
102
RTVSPost2010Prop47
 90
       50
102
RTVSPost2010PropOp47
 70
     1
102
RTVSPost2010Prop48
 90
       50
102
RTVSPost2010PropOp48
 70
     1
102
RTVSPost2010Prop49
280
     0
102
RTVSPost2010PropOp49
 70
     1
102
RTVSPost2010Prop50
 90
       50
102
RTVSPost2010PropOp50
 70
     1
102
RTVSPost2010Prop51ColorIndex
 90
      256
102
RTVSPost2010Prop51ColorRGB
 90
-16777216
102
RTVSPost2010PropOp51
 70
     0
102
RTVSPost2010Prop52
140
1.0
102
RTVSPost2010PropOp52
 70
     0
102
RTVSPost2010Prop53
 90
        2
102
RTVSPost2010PropOp53
 70
     1
102
RTVSPost2010Prop54
  1
strokes_ogs.tif
102
RTVSPost2010PropOp54
 70
     1
102
RTVSPost2010Prop55
280
     0
102
RTVSPost2010PropOp55
 70
     1
102
RTVSPost2010Prop56
140
1.0
102
RTVSPost2010PropOp56
 70
     1
102
RTVSPost2010Prop57
140
1.0
102
RTVSPost2010PropOp57
 70
     1
102
RTVSPropertyOp0
 70
     1
102
RTVSPropertyOp1
 70
     1
102
RTVSPropertyOp2
 70
     1
102
RTVSPropertyOp3
 70
     1
102
RTVSPropertyOp4
 70
     1
102
RTVSPropertyOp5
 70
     1
102
RTVSPropertyOp6
 70
     1
102
RTVSPropertyOp7
 70
     1
102
RTVSPropertyOp8
 70
     1
102
RTVSPropertyOp9
 70
     1
102
RTVSPropertyOp10
 70
     1
102
RTVSPropertyOp11
 70
     1
102
RTVSPropertyOp12
 70
     1
102
RTVSPropertyOp13
 70
     1
102
RTVSPropertyOp14
 70
     1
102
RTVSPropertyOp15
 70
     1
102
RTVSPropertyOp16
 70
     1
102
RTVSPropertyOp17
 70
     1
102
RTVSPropertyOp18
 70
     1
102
RTVSPropertyOp19
 70
     1
102
RTVSPropertyOp20
 70
     1
102
RTVSPropertyOp21
 70
     1
102
RTVSPropertyOp22
 70
     1
102
RTVSPropertyOp23
 70
     1
102
RTVSPropertyOp24
 70
     1
102
RTVSPropertyOp25
 70
     1
102
RTVSPropertyOp26
 70
     1
102
RTVSPropertyOp27
 70
     1
102
RTVSPropertyOp28
 70
     1
102
RTVSPropertyOp29
 70
     1
102
RTVSPropertyOp30
 70
     1
102
RTVSPropertyOp31
 70
     1
102
RTVSPropertyOp32
 70
     1
102
RTVSPropertyOp33
 70
     1
102
RTVSPropertyOp34
 70
     1
102
RTVSPropertyOp35
 70
     1
102
RTVSPropertyOp36
 70
     1
102
RTVSPropertyOp37
 70
     1
102
RTVSPropertyOp38
 70
     1
102
RTVSPropertyOp39
 70
     1
102
RTVSPropertyOp40
 70
     1
102
RTVSPropertyOp41
 70
     1
102
RTVSPropertyOp42
 70
     1
102
RTVSPropertyOp43
 70
     1
102
RTVSPropertyOp44
 70
     1
102
RTVSPropertyOp45
 70
     1
102
RTVSPropertyOp46
 70
     1
102
RTVSPropertyOp47
 70
     1
102
RTVSPropertyOp48
 70
     1
102
RTVSPropertyOp49
 70
     1
102
RTVSPropertyOp50
 70
     1
102
RTVSPropertyOp51
 70
     0
102
RTVSPropertyOp52
 70
     0
102
RTVSPropertyOp53
 70
     1
102
RTVSPropertyOp54
 70
     1
102
RTVSPropertyOp55
 70
     1
102
RTVSPropertyOp56
 70
     1
102
RTVSPropertyOp57
 70
     1
102
RTVSPropertyOp58
 70
     1
102
RTVSPropertyOp59
 70
     1
102
RTVSPropertyOp60
 70
     1
102
RTVSPropertyOp61
 70
     1
102
RTVSPropertyOp62
 70
     1
  0
XRECORD
  5
15DA8
102
{ACAD_REACTORS
330
15DA7
102
}
330
15DA7
100
AcDbXrecord
280
     1
102
RTVSPost2010Prop28
280
     0
102
RTVSPost2010PropOp28
 70
     1
102
RTVSPost2010Prop29
280
     1
102
RTVSPost2010PropOp29
 70
     1
102
RTVSPost2010Prop30
280
     1
102
RTVSPost2010PropOp30
 70
     1
102
RTVSPost2010Prop31
280
     0
102
RTVSPost2010PropOp31
 70
     1
102
RTVSPost2010Prop32
280
     0
102
RTVSPost2010PropOp32
 70
     1
102
RTVSPost2010Prop33
280
     0
102
RTVSPost2010PropOp33
 70
     1
102
RTVSPost2010Prop34
280
     0
102
RTVSPost2010PropOp34
 70
     1
102
RTVSPost2010Prop35
280
     0
102
RTVSPost2010PropOp35
 70
     1
102
RTVSPost2010Prop36
280
     0
102
RTVSPost2010PropOp36
 70
     1
102
RTVSPost2010Prop37
 90
       50
102
RTVSPost2010PropOp37
 70
     0
102
RTVSPost2010Prop38
140
0.0
102
RTVSPost2010PropOp38
 70
     0
102
RTVSPost2010Prop39
140
1.0
102
RTVSPost2010PropOp39
 70
     0
102
RTVSPost2010Prop40
 90
        0
102
RTVSPost2010PropOp40
 70
     0
102
RTVSPost2010Prop41ColorIndex
 90
       18
102
RTVSPost2010Prop41ColorRGB
 90
        0
102
RTVSPost2010PropOp41
 70
     0
102
RTVSPost2010Prop42
 90
       50
102
RTVSPost2010PropOp42
 70
     0
102
RTVSPost2010Prop43
 90
        3
102
RTVSPost2010PropOp43
 70
     0
102
RTVSPost2010Prop44ColorIndex
 90
        5
102
RTVSPost2010Prop44ColorRGB
 90
      255
102
RTVSPost2010PropOp44
 70
     0
102
RTVSPost2010Prop45
280
     0
102
RTVSPost2010PropOp45
 70
     1
102
RTVSPost2010Prop46
 90
       50
102
RTVSPost2010PropOp46
 70
     0
102
RTVSPost2010Prop47
 90
       50
102
RTVSPost2010PropOp47
 70
     0
102
RTVSPost2010Prop48
 90
       50
102
RTVSPost2010PropOp48
 70
     0
102
RTVSPost2010Prop49
280
     0
102
RTVSPost2010PropOp49
 70
     1
102
RTVSPost2010Prop50
 90
       50
102
RTVSPost2010PropOp50
 70
     0
102
RTVSPost2010Prop51ColorIndex
 90
      256
102
RTVSPost2010Prop51ColorRGB
 90
-16777216
102
RTVSPost2010PropOp51
 70
     0
102
RTVSPost2010Prop52
140
1.0
102
RTVSPost2010PropOp52
 70
     0
102
RTVSPost2010Prop53
 90
        2
102
RTVSPost2010PropOp53
 70
     0
102
RTVSPost2010Prop54
  1
strokes_ogs.tif
102
RTVSPost2010PropOp54
 70
     0
102
RTVSPost2010Prop55
280
     0
102
RTVSPost2010PropOp55
 70
     1
102
RTVSPost2010Prop56
140
1.0
102
RTVSPost2010PropOp56
 70
     0
102
RTVSPost2010Prop57
140
1.0
102
RTVSPost2010PropOp57
 70
     0
102
RTVSPropertyOp0
 70
     0
102
RTVSPropertyOp1
 70
     0
102
RTVSPropertyOp2
 70
     0
102
RTVSPropertyOp3
 70
     0
102
RTVSPropertyOp4
 70
     0
102
RTVSPropertyOp5
 70
     0
102
RTVSPropertyOp6
 70
     0
102
RTVSPropertyOp7
 70
     0
102
RTVSPropertyOp8
 70
     0
102
RTVSPropertyOp9
 70
     0
102
RTVSPropertyOp10
 70
     0
102
RTVSPropertyOp11
 70
     0
102
RTVSPropertyOp12
 70
     0
102
RTVSPropertyOp13
 70
     0
102
RTVSPropertyOp14
 70
     2
102
RTVSPropertyOp15
 70
     0
102
RTVSPropertyOp16
 70
     0
102
RTVSPropertyOp17
 70
     0
102
RTVSPropertyOp18
 70
     0
102
RTVSPropertyOp19
 70
     0
102
RTVSPropertyOp20
 70
     0
102
RTVSPropertyOp21
 70
     0
102
RTVSPropertyOp22
 70
     0
102
RTVSPropertyOp23
 70
     0
102
RTVSPropertyOp24
 70
     0
102
RTVSPropertyOp25
 70
     0
102
RTVSPropertyOp26
 70
     0
102
RTVSPropertyOp27
 70
     0
102
RTVSPropertyOp28
 70
     1
102
RTVSPropertyOp29
 70
     1
102
RTVSPropertyOp30
 70
     1
102
RTVSPropertyOp31
 70
     1
102
RTVSPropertyOp32
 70
     1
102
RTVSPropertyOp33
 70
     1
102
RTVSPropertyOp34
 70
     1
102
RTVSPropertyOp35
 70
     1
102
RTVSPropertyOp36
 70
     1
102
RTVSPropertyOp37
 70
     0
102
RTVSPropertyOp38
 70
     0
102
RTVSPropertyOp39
 70
     0
102
RTVSPropertyOp40
 70
     0
102
RTVSPropertyOp41
 70
     0
102
RTVSPropertyOp42
 70
     0
102
RTVSPropertyOp43
 70
     0
102
RTVSPropertyOp44
 70
     0
102
RTVSPropertyOp45
 70
     1
102
RTVSPropertyOp46
 70
     0
102
RTVSPropertyOp47
 70
     0
102
RTVSPropertyOp48
 70
     0
102
RTVSPropertyOp49
 70
     1
102
RTVSPropertyOp50
 70
     0
102
RTVSPropertyOp51
 70
     0
102
RTVSPropertyOp52
 70
     0
102
RTVSPropertyOp53
 70
     0
102
RTVSPropertyOp54
 70
     0
102
RTVSPropertyOp55
 70
     1
102
RTVSPropertyOp56
 70
     0
102
RTVSPropertyOp57
 70
     0
102
RTVSPropertyOp58
 70
     0
102
RTVSPropertyOp59
 70
     0
102
RTVSPropertyOp60
 70
     0
102
RTVSPropertyOp61
 70
     0
102
RTVSPropertyOp62
 70
     0
  0
XRECORD
  5
15D98
102
{ACAD_REACTORS
330
15D97
102
}
330
15D97
100
AcDbXrecord
280
     1
102
RTVSPost2010Prop28
280
     0
102
RTVSPost2010PropOp28
 70
     1
102
RTVSPost2010Prop29
280
     1
102
RTVSPost2010PropOp29
 70
     1
102
RTVSPost2010Prop30
280
     1
102
RTVSPost2010PropOp30
 70
     1
102
RTVSPost2010Prop31
280
     0
102
RTVSPost2010PropOp31
 70
     1
102
RTVSPost2010Prop32
280
     0
102
RTVSPost2010PropOp32
 70
     1
102
RTVSPost2010Prop33
280
     0
102
RTVSPost2010PropOp33
 70
     1
102
RTVSPost2010Prop34
280
     0
102
RTVSPost2010PropOp34
 70
     1
102
RTVSPost2010Prop35
280
     0
102
RTVSPost2010PropOp35
 70
     1
102
RTVSPost2010Prop36
280
     0
102
RTVSPost2010PropOp36
 70
     1
102
RTVSPost2010Prop37
 90
       50
102
RTVSPost2010PropOp37
 70
     1
102
RTVSPost2010Prop38
140
0.0
102
RTVSPost2010PropOp38
 70
     1
102
RTVSPost2010Prop39
140
1.0
102
RTVSPost2010PropOp39
 70
     1
102
RTVSPost2010Prop40
 90
        0
102
RTVSPost2010PropOp40
 70
     1
102
RTVSPost2010Prop41ColorIndex
 90
       18
102
RTVSPost2010Prop41ColorRGB
 90
        0
102
RTVSPost2010PropOp41
 70
     1
102
RTVSPost2010Prop42
 90
       50
102
RTVSPost2010PropOp42
 70
     1
102
RTVSPost2010Prop43
 90
        3
102
RTVSPost2010PropOp43
 70
     1
102
RTVSPost2010Prop44ColorIndex
 90
        5
102
RTVSPost2010Prop44ColorRGB
 90
      255
102
RTVSPost2010PropOp44
 70
     1
102
RTVSPost2010Prop45
280
     0
102
RTVSPost2010PropOp45
 70
     1
102
RTVSPost2010Prop46
 90
       50
102
RTVSPost2010PropOp46
 70
     1
102
RTVSPost2010Prop47
 90
       50
102
RTVSPost2010PropOp47
 70
     1
102
RTVSPost2010Prop48
 90
       50
102
RTVSPost2010PropOp48
 70
     1
102
RTVSPost2010Prop49
280
     0
102
RTVSPost2010PropOp49
 70
     1
102
RTVSPost2010Prop50
 90
       50
102
RTVSPost2010PropOp50
 70
     1
102
RTVSPost2010Prop51ColorIndex
 90
      256
102
RTVSPost2010Prop51ColorRGB
 90
-16777216
102
RTVSPost2010PropOp51
 70
     0
102
RTVSPost2010Prop52
140
1.0
102
RTVSPost2010PropOp52
 70
     0
102
RTVSPost2010Prop53
 90
        2
102
RTVSPost2010PropOp53
 70
     1
102
RTVSPost2010Prop54
  1
strokes_ogs.tif
102
RTVSPost2010PropOp54
 70
     1
102
RTVSPost2010Prop55
280
     0
102
RTVSPost2010PropOp55
 70
     1
102
RTVSPost2010Prop56
140
1.0
102
RTVSPost2010PropOp56
 70
     1
102
RTVSPost2010Prop57
140
1.0
102
RTVSPost2010PropOp57
 70
     1
102
RTVSPropertyOp0
 70
     1
102
RTVSPropertyOp1
 70
     1
102
RTVSPropertyOp2
 70
     1
102
RTVSPropertyOp3
 70
     1
102
RTVSPropertyOp4
 70
     1
102
RTVSPropertyOp5
 70
     1
102
RTVSPropertyOp6
 70
     1
102
RTVSPropertyOp7
 70
     1
102
RTVSPropertyOp8
 70
     1
102
RTVSPropertyOp9
 70
     1
102
RTVSPropertyOp10
 70
     1
102
RTVSPropertyOp11
 70
     1
102
RTVSPropertyOp12
 70
     1
102
RTVSPropertyOp13
 70
     1
102
RTVSPropertyOp14
 70
     1
102
RTVSPropertyOp15
 70
     1
102
RTVSPropertyOp16
 70
     1
102
RTVSPropertyOp17
 70
     1
102
RTVSPropertyOp18
 70
     1
102
RTVSPropertyOp19
 70
     1
102
RTVSPropertyOp20
 70
     1
102
RTVSPropertyOp21
 70
     1
102
RTVSPropertyOp22
 70
     1
102
RTVSPropertyOp23
 70
     1
102
RTVSPropertyOp24
 70
     1
102
RTVSPropertyOp25
 70
     1
102
RTVSPropertyOp26
 70
     1
102
RTVSPropertyOp27
 70
     1
102
RTVSPropertyOp28
 70
     1
102
RTVSPropertyOp29
 70
     1
102
RTVSPropertyOp30
 70
     1
102
RTVSPropertyOp31
 70
     1
102
RTVSPropertyOp32
 70
     1
102
RTVSPropertyOp33
 70
     1
102
RTVSPropertyOp34
 70
     1
102
RTVSPropertyOp35
 70
     1
102
RTVSPropertyOp36
 70
     1
102
RTVSPropertyOp37
 70
     1
102
RTVSPropertyOp38
 70
     1
102
RTVSPropertyOp39
 70
     1
102
RTVSPropertyOp40
 70
     1
102
RTVSPropertyOp41
 70
     1
102
RTVSPropertyOp42
 70
     1
102
RTVSPropertyOp43
 70
     1
102
RTVSPropertyOp44
 70
     1
102
RTVSPropertyOp45
 70
     1
102
RTVSPropertyOp46
 70
     1
102
RTVSPropertyOp47
 70
     1
102
RTVSPropertyOp48
 70
     1
102
RTVSPropertyOp49
 70
     1
102
RTVSPropertyOp50
 70
     1
102
RTVSPropertyOp51
 70
     0
102
RTVSPropertyOp52
 70
     0
102
RTVSPropertyOp53
 70
     1
102
RTVSPropertyOp54
 70
     1
102
RTVSPropertyOp55
 70
     1
102
RTVSPropertyOp56
 70
     1
102
RTVSPropertyOp57
 70
     1
102
RTVSPropertyOp58
 70
     1
102
RTVSPropertyOp59
 70
     1
102
RTVSPropertyOp60
 70
     1
102
RTVSPropertyOp61
 70
     1
102
RTVSPropertyOp62
 70
     1
  0
XRECORD
  5
15DAA
102
{ACAD_REACTORS
330
15DA9
102
}
330
15DA9
100
AcDbXrecord
280
     1
102
RTVSPost2010Prop28
280
     0
102
RTVSPost2010PropOp28
 70
     1
102
RTVSPost2010Prop29
280
     1
102
RTVSPost2010PropOp29
 70
     1
102
RTVSPost2010Prop30
280
     1
102
RTVSPost2010PropOp30
 70
     1
102
RTVSPost2010Prop31
280
     0
102
RTVSPost2010PropOp31
 70
     1
102
RTVSPost2010Prop32
280
     0
102
RTVSPost2010PropOp32
 70
     1
102
RTVSPost2010Prop33
280
     0
102
RTVSPost2010PropOp33
 70
     1
102
RTVSPost2010Prop34
280
     0
102
RTVSPost2010PropOp34
 70
     1
102
RTVSPost2010Prop35
280
     0
102
RTVSPost2010PropOp35
 70
     1
102
RTVSPost2010Prop36
280
     0
102
RTVSPost2010PropOp36
 70
     1
102
RTVSPost2010Prop37
 90
       50
102
RTVSPost2010PropOp37
 70
     0
102
RTVSPost2010Prop38
140
0.0
102
RTVSPost2010PropOp38
 70
     0
102
RTVSPost2010Prop39
140
1.0
102
RTVSPost2010PropOp39
 70
     0
102
RTVSPost2010Prop40
 90
        0
102
RTVSPost2010PropOp40
 70
     0
102
RTVSPost2010Prop41ColorIndex
 90
       18
102
RTVSPost2010Prop41ColorRGB
 90
        0
102
RTVSPost2010PropOp41
 70
     0
102
RTVSPost2010Prop42
 90
       50
102
RTVSPost2010PropOp42
 70
     0
102
RTVSPost2010Prop43
 90
        3
102
RTVSPost2010PropOp43
 70
     0
102
RTVSPost2010Prop44ColorIndex
 90
        5
102
RTVSPost2010Prop44ColorRGB
 90
      255
102
RTVSPost2010PropOp44
 70
     0
102
RTVSPost2010Prop45
280
     0
102
RTVSPost2010PropOp45
 70
     1
102
RTVSPost2010Prop46
 90
       50
102
RTVSPost2010PropOp46
 70
     0
102
RTVSPost2010Prop47
 90
       50
102
RTVSPost2010PropOp47
 70
     0
102
RTVSPost2010Prop48
 90
       50
102
RTVSPost2010PropOp48
 70
     0
102
RTVSPost2010Prop49
280
     0
102
RTVSPost2010PropOp49
 70
     1
102
RTVSPost2010Prop50
 90
       50
102
RTVSPost2010PropOp50
 70
     0
102
RTVSPost2010Prop51ColorIndex
 90
      256
102
RTVSPost2010Prop51ColorRGB
 90
-16777216
102
RTVSPost2010PropOp51
 70
     0
102
RTVSPost2010Prop52
140
1.0
102
RTVSPost2010PropOp52
 70
     0
102
RTVSPost2010Prop53
 90
        2
102
RTVSPost2010PropOp53
 70
     0
102
RTVSPost2010Prop54
  1
strokes_ogs.tif
102
RTVSPost2010PropOp54
 70
     0
102
RTVSPost2010Prop55
280
     0
102
RTVSPost2010PropOp55
 70
     1
102
RTVSPost2010Prop56
140
1.0
102
RTVSPost2010PropOp56
 70
     0
102
RTVSPost2010Prop57
140
1.0
102
RTVSPost2010PropOp57
 70
     0
102
RTVSPropertyOp0
 70
     0
102
RTVSPropertyOp1
 70
     0
102
RTVSPropertyOp2
 70
     0
102
RTVSPropertyOp3
 70
     0
102
RTVSPropertyOp4
 70
     0
102
RTVSPropertyOp5
 70
     0
102
RTVSPropertyOp6
 70
     0
102
RTVSPropertyOp7
 70
     0
102
RTVSPropertyOp8
 70
     0
102
RTVSPropertyOp9
 70
     0
102
RTVSPropertyOp10
 70
     0
102
RTVSPropertyOp11
 70
     0
102
RTVSPropertyOp12
 70
     0
102
RTVSPropertyOp13
 70
     0
102
RTVSPropertyOp14
 70
     2
102
RTVSPropertyOp15
 70
     0
102
RTVSPropertyOp16
 70
     0
102
RTVSPropertyOp17
 70
     0
102
RTVSPropertyOp18
 70
     0
102
RTVSPropertyOp19
 70
     0
102
RTVSPropertyOp20
 70
     0
102
RTVSPropertyOp21
 70
     0
102
RTVSPropertyOp22
 70
     0
102
RTVSPropertyOp23
 70
     0
102
RTVSPropertyOp24
 70
     0
102
RTVSPropertyOp25
 70
     0
102
RTVSPropertyOp26
 70
     0
102
RTVSPropertyOp27
 70
     0
102
RTVSPropertyOp28
 70
     1
102
RTVSPropertyOp29
 70
     1
102
RTVSPropertyOp30
 70
     1
102
RTVSPropertyOp31
 70
     1
102
RTVSPropertyOp32
 70
     1
102
RTVSPropertyOp33
 70
     1
102
RTVSPropertyOp34
 70
     1
102
RTVSPropertyOp35
 70
     1
102
RTVSPropertyOp36
 70
     1
102
RTVSPropertyOp37
 70
     0
102
RTVSPropertyOp38
 70
     0
102
RTVSPropertyOp39
 70
     0
102
RTVSPropertyOp40
 70
     0
102
RTVSPropertyOp41
 70
     0
102
RTVSPropertyOp42
 70
     0
102
RTVSPropertyOp43
 70
     0
102
RTVSPropertyOp44
 70
     0
102
RTVSPropertyOp45
 70
     1
102
RTVSPropertyOp46
 70
     0
102
RTVSPropertyOp47
 70
     0
102
RTVSPropertyOp48
 70
     0
102
RTVSPropertyOp49
 70
     1
102
RTVSPropertyOp50
 70
     0
102
RTVSPropertyOp51
 70
     0
102
RTVSPropertyOp52
 70
     0
102
RTVSPropertyOp53
 70
     0
102
RTVSPropertyOp54
 70
     0
102
RTVSPropertyOp55
 70
     1
102
RTVSPropertyOp56
 70
     0
102
RTVSPropertyOp57
 70
     0
102
RTVSPropertyOp58
 70
     0
102
RTVSPropertyOp59
 70
     0
102
RTVSPropertyOp60
 70
     0
102
RTVSPropertyOp61
 70
     0
102
RTVSPropertyOp62
 70
     0
  0
XRECORD
  5
15D90
102
{ACAD_REACTORS
330
15D8F
102
}
330
15D8F
100
AcDbXrecord
280
     1
102
RTVSPost2010Prop28
280
     0
102
RTVSPost2010PropOp28
 70
     1
102
RTVSPost2010Prop29
280
     1
102
RTVSPost2010PropOp29
 70
     1
102
RTVSPost2010Prop30
280
     1
102
RTVSPost2010PropOp30
 70
     1
102
RTVSPost2010Prop31
280
     0
102
RTVSPost2010PropOp31
 70
     1
102
RTVSPost2010Prop32
280
     0
102
RTVSPost2010PropOp32
 70
     1
102
RTVSPost2010Prop33
280
     0
102
RTVSPost2010PropOp33
 70
     1
102
RTVSPost2010Prop34
280
     0
102
RTVSPost2010PropOp34
 70
     1
102
RTVSPost2010Prop35
280
     0
102
RTVSPost2010PropOp35
 70
     1
102
RTVSPost2010Prop36
280
     0
102
RTVSPost2010PropOp36
 70
     1
102
RTVSPost2010Prop37
 90
       50
102
RTVSPost2010PropOp37
 70
     1
102
RTVSPost2010Prop38
140
0.0
102
RTVSPost2010PropOp38
 70
     1
102
RTVSPost2010Prop39
140
1.0
102
RTVSPost2010PropOp39
 70
     1
102
RTVSPost2010Prop40
 90
        0
102
RTVSPost2010PropOp40
 70
     1
102
RTVSPost2010Prop41ColorIndex
 90
       18
102
RTVSPost2010Prop41ColorRGB
 90
        0
102
RTVSPost2010PropOp41
 70
     1
102
RTVSPost2010Prop42
 90
       50
102
RTVSPost2010PropOp42
 70
     1
102
RTVSPost2010Prop43
 90
        3
102
RTVSPost2010PropOp43
 70
     1
102
RTVSPost2010Prop44ColorIndex
 90
        5
102
RTVSPost2010Prop44ColorRGB
 90
      255
102
RTVSPost2010PropOp44
 70
     1
102
RTVSPost2010Prop45
280
     0
102
RTVSPost2010PropOp45
 70
     1
102
RTVSPost2010Prop46
 90
       50
102
RTVSPost2010PropOp46
 70
     1
102
RTVSPost2010Prop47
 90
       50
102
RTVSPost2010PropOp47
 70
     1
102
RTVSPost2010Prop48
 90
       50
102
RTVSPost2010PropOp48
 70
     1
102
RTVSPost2010Prop49
280
     0
102
RTVSPost2010PropOp49
 70
     1
102
RTVSPost2010Prop50
 90
       50
102
RTVSPost2010PropOp50
 70
     1
102
RTVSPost2010Prop51ColorIndex
 90
      256
102
RTVSPost2010Prop51ColorRGB
 90
-16777216
102
RTVSPost2010PropOp51
 70
     0
102
RTVSPost2010Prop52
140
1.0
102
RTVSPost2010PropOp52
 70
     0
102
RTVSPost2010Prop53
 90
        2
102
RTVSPost2010PropOp53
 70
     1
102
RTVSPost2010Prop54
  1
strokes_ogs.tif
102
RTVSPost2010PropOp54
 70
     1
102
RTVSPost2010Prop55
280
     0
102
RTVSPost2010PropOp55
 70
     1
102
RTVSPost2010Prop56
140
1.0
102
RTVSPost2010PropOp56
 70
     1
102
RTVSPost2010Prop57
140
1.0
102
RTVSPost2010PropOp57
 70
     1
102
RTVSPropertyOp0
 70
     1
102
RTVSPropertyOp1
 70
     1
102
RTVSPropertyOp2
 70
     1
102
RTVSPropertyOp3
 70
     1
102
RTVSPropertyOp4
 70
     1
102
RTVSPropertyOp5
 70
     1
102
RTVSPropertyOp6
 70
     1
102
RTVSPropertyOp7
 70
     1
102
RTVSPropertyOp8
 70
     1
102
RTVSPropertyOp9
 70
     1
102
RTVSPropertyOp10
 70
     1
102
RTVSPropertyOp11
 70
     1
102
RTVSPropertyOp12
 70
     1
102
RTVSPropertyOp13
 70
     1
102
RTVSPropertyOp14
 70
     1
102
RTVSPropertyOp15
 70
     1
102
RTVSPropertyOp16
 70
     1
102
RTVSPropertyOp17
 70
     1
102
RTVSPropertyOp18
 70
     1
102
RTVSPropertyOp19
 70
     1
102
RTVSPropertyOp20
 70
     1
102
RTVSPropertyOp21
 70
     1
102
RTVSPropertyOp22
 70
     1
102
RTVSPropertyOp23
 70
     1
102
RTVSPropertyOp24
 70
     1
102
RTVSPropertyOp25
 70
     1
102
RTVSPropertyOp26
 70
     1
102
RTVSPropertyOp27
 70
     1
102
RTVSPropertyOp28
 70
     1
102
RTVSPropertyOp29
 70
     1
102
RTVSPropertyOp30
 70
     1
102
RTVSPropertyOp31
 70
     1
102
RTVSPropertyOp32
 70
     1
102
RTVSPropertyOp33
 70
     1
102
RTVSPropertyOp34
 70
     1
102
RTVSPropertyOp35
 70
     1
102
RTVSPropertyOp36
 70
     1
102
RTVSPropertyOp37
 70
     1
102
RTVSPropertyOp38
 70
     1
102
RTVSPropertyOp39
 70
     1
102
RTVSPropertyOp40
 70
     1
102
RTVSPropertyOp41
 70
     1
102
RTVSPropertyOp42
 70
     1
102
RTVSPropertyOp43
 70
     1
102
RTVSPropertyOp44
 70
     1
102
RTVSPropertyOp45
 70
     1
102
RTVSPropertyOp46
 70
     1
102
RTVSPropertyOp47
 70
     1
102
RTVSPropertyOp48
 70
     1
102
RTVSPropertyOp49
 70
     1
102
RTVSPropertyOp50
 70
     1
102
RTVSPropertyOp51
 70
     0
102
RTVSPropertyOp52
 70
     0
102
RTVSPropertyOp53
 70
     1
102
RTVSPropertyOp54
 70
     1
102
RTVSPropertyOp55
 70
     1
102
RTVSPropertyOp56
 70
     1
102
RTVSPropertyOp57
 70
     1
102
RTVSPropertyOp58
 70
     1
102
RTVSPropertyOp59
 70
     1
102
RTVSPropertyOp60
 70
     1
102
RTVSPropertyOp61
 70
     1
102
RTVSPropertyOp62
 70
     1
  0
XRECORD
  5
15DA6
102
{ACAD_REACTORS
330
15DA5
102
}
330
15DA5
100
AcDbXrecord
280
     1
102
RTVSPost2010Prop28
280
     0
102
RTVSPost2010PropOp28
 70
     1
102
RTVSPost2010Prop29
280
     1
102
RTVSPost2010PropOp29
 70
     1
102
RTVSPost2010Prop30
280
     1
102
RTVSPost2010PropOp30
 70
     1
102
RTVSPost2010Prop31
280
     0
102
RTVSPost2010PropOp31
 70
     1
102
RTVSPost2010Prop32
280
     0
102
RTVSPost2010PropOp32
 70
     1
102
RTVSPost2010Prop33
280
     0
102
RTVSPost2010PropOp33
 70
     1
102
RTVSPost2010Prop34
280
     0
102
RTVSPost2010PropOp34
 70
     1
102
RTVSPost2010Prop35
280
     0
102
RTVSPost2010PropOp35
 70
     1
102
RTVSPost2010Prop36
280
     0
102
RTVSPost2010PropOp36
 70
     1
102
RTVSPost2010Prop37
 90
       50
102
RTVSPost2010PropOp37
 70
     1
102
RTVSPost2010Prop38
140
0.0
102
RTVSPost2010PropOp38
 70
     1
102
RTVSPost2010Prop39
140
1.0
102
RTVSPost2010PropOp39
 70
     1
102
RTVSPost2010Prop40
 90
        0
102
RTVSPost2010PropOp40
 70
     1
102
RTVSPost2010Prop41ColorIndex
 90
       18
102
RTVSPost2010Prop41ColorRGB
 90
        0
102
RTVSPost2010PropOp41
 70
     1
102
RTVSPost2010Prop42
 90
       50
102
RTVSPost2010PropOp42
 70
     1
102
RTVSPost2010Prop43
 90
        3
102
RTVSPost2010PropOp43
 70
     1
102
RTVSPost2010Prop44ColorIndex
 90
        5
102
RTVSPost2010Prop44ColorRGB
 90
      255
102
RTVSPost2010PropOp44
 70
     1
102
RTVSPost2010Prop45
280
     0
102
RTVSPost2010PropOp45
 70
     1
102
RTVSPost2010Prop46
 90
       50
102
RTVSPost2010PropOp46
 70
     1
102
RTVSPost2010Prop47
 90
       50
102
RTVSPost2010PropOp47
 70
     1
102
RTVSPost2010Prop48
 90
       50
102
RTVSPost2010PropOp48
 70
     1
102
RTVSPost2010Prop49
280
     0
102
RTVSPost2010PropOp49
 70
     1
102
RTVSPost2010Prop50
 90
       50
102
RTVSPost2010PropOp50
 70
     1
102
RTVSPost2010Prop51ColorIndex
 90
      256
102
RTVSPost2010Prop51ColorRGB
 90
-16777216
102
RTVSPost2010PropOp51
 70
     0
102
RTVSPost2010Prop52
140
1.0
102
RTVSPost2010PropOp52
 70
     0
102
RTVSPost2010Prop53
 90
        2
102
RTVSPost2010PropOp53
 70
     1
102
RTVSPost2010Prop54
  1
strokes_ogs.tif
102
RTVSPost2010PropOp54
 70
     1
102
RTVSPost2010Prop55
280
     0
102
RTVSPost2010PropOp55
 70
     1
102
RTVSPost2010Prop56
140
1.0
102
RTVSPost2010PropOp56
 70
     1
102
RTVSPost2010Prop57
140
1.0
102
RTVSPost2010PropOp57
 70
     1
102
RTVSPropertyOp0
 70
     1
102
RTVSPropertyOp1
 70
     1
102
RTVSPropertyOp2
 70
     1
102
RTVSPropertyOp3
 70
     1
102
RTVSPropertyOp4
 70
     1
102
RTVSPropertyOp5
 70
     1
102
RTVSPropertyOp6
 70
     1
102
RTVSPropertyOp7
 70
     1
102
RTVSPropertyOp8
 70
     1
102
RTVSPropertyOp9
 70
     1
102
RTVSPropertyOp10
 70
     1
102
RTVSPropertyOp11
 70
     1
102
RTVSPropertyOp12
 70
     1
102
RTVSPropertyOp13
 70
     1
102
RTVSPropertyOp14
 70
     1
102
RTVSPropertyOp15
 70
     1
102
RTVSPropertyOp16
 70
     1
102
RTVSPropertyOp17
 70
     1
102
RTVSPropertyOp18
 70
     1
102
RTVSPropertyOp19
 70
     1
102
RTVSPropertyOp20
 70
     1
102
RTVSPropertyOp21
 70
     1
102
RTVSPropertyOp22
 70
     1
102
RTVSPropertyOp23
 70
     1
102
RTVSPropertyOp24
 70
     1
102
RTVSPropertyOp25
 70
     1
102
RTVSPropertyOp26
 70
     1
102
RTVSPropertyOp27
 70
     1
102
RTVSPropertyOp28
 70
     1
102
RTVSPropertyOp29
 70
     1
102
RTVSPropertyOp30
 70
     1
102
RTVSPropertyOp31
 70
     1
102
RTVSPropertyOp32
 70
     1
102
RTVSPropertyOp33
 70
     1
102
RTVSPropertyOp34
 70
     1
102
RTVSPropertyOp35
 70
     1
102
RTVSPropertyOp36
 70
     1
102
RTVSPropertyOp37
 70
     1
102
RTVSPropertyOp38
 70
     1
102
RTVSPropertyOp39
 70
     1
102
RTVSPropertyOp40
 70
     1
102
RTVSPropertyOp41
 70
     1
102
RTVSPropertyOp42
 70
     1
102
RTVSPropertyOp43
 70
     1
102
RTVSPropertyOp44
 70
     1
102
RTVSPropertyOp45
 70
     1
102
RTVSPropertyOp46
 70
     1
102
RTVSPropertyOp47
 70
     1
102
RTVSPropertyOp48
 70
     1
102
RTVSPropertyOp49
 70
     1
102
RTVSPropertyOp50
 70
     1
102
RTVSPropertyOp51
 70
     0
102
RTVSPropertyOp52
 70
     0
102
RTVSPropertyOp53
 70
     1
102
RTVSPropertyOp54
 70
     1
102
RTVSPropertyOp55
 70
     1
102
RTVSPropertyOp56
 70
     1
102
RTVSPropertyOp57
 70
     1
102
RTVSPropertyOp58
 70
     1
102
RTVSPropertyOp59
 70
     1
102
RTVSPropertyOp60
 70
     1
102
RTVSPropertyOp61
 70
     1
102
RTVSPropertyOp62
 70
     1
  0
XRECORD
  5
15DA4
102
{ACAD_REACTORS
330
15DA3
102
}
330
15DA3
100
AcDbXrecord
280
     1
102
RTVSPost2010Prop28
280
     0
102
RTVSPost2010PropOp28
 70
     1
102
RTVSPost2010Prop29
280
     1
102
RTVSPost2010PropOp29
 70
     1
102
RTVSPost2010Prop30
280
     1
102
RTVSPost2010PropOp30
 70
     1
102
RTVSPost2010Prop31
280
     0
102
RTVSPost2010PropOp31
 70
     1
102
RTVSPost2010Prop32
280
     0
102
RTVSPost2010PropOp32
 70
     1
102
RTVSPost2010Prop33
280
     0
102
RTVSPost2010PropOp33
 70
     1
102
RTVSPost2010Prop34
280
     0
102
RTVSPost2010PropOp34
 70
     1
102
RTVSPost2010Prop35
280
     0
102
RTVSPost2010PropOp35
 70
     1
102
RTVSPost2010Prop36
280
     0
102
RTVSPost2010PropOp36
 70
     1
102
RTVSPost2010Prop37
 90
       50
102
RTVSPost2010PropOp37
 70
     1
102
RTVSPost2010Prop38
140
0.0
102
RTVSPost2010PropOp38
 70
     1
102
RTVSPost2010Prop39
140
1.0
102
RTVSPost2010PropOp39
 70
     1
102
RTVSPost2010Prop40
 90
        0
102
RTVSPost2010PropOp40
 70
     1
102
RTVSPost2010Prop41ColorIndex
 90
       18
102
RTVSPost2010Prop41ColorRGB
 90
        0
102
RTVSPost2010PropOp41
 70
     1
102
RTVSPost2010Prop42
 90
       50
102
RTVSPost2010PropOp42
 70
     1
102
RTVSPost2010Prop43
 90
        3
102
RTVSPost2010PropOp43
 70
     1
102
RTVSPost2010Prop44ColorIndex
 90
        5
102
RTVSPost2010Prop44ColorRGB
 90
      255
102
RTVSPost2010PropOp44
 70
     1
102
RTVSPost2010Prop45
280
     0
102
RTVSPost2010PropOp45
 70
     1
102
RTVSPost2010Prop46
 90
       50
102
RTVSPost2010PropOp46
 70
     1
102
RTVSPost2010Prop47
 90
       50
102
RTVSPost2010PropOp47
 70
     1
102
RTVSPost2010Prop48
 90
       50
102
RTVSPost2010PropOp48
 70
     1
102
RTVSPost2010Prop49
280
     0
102
RTVSPost2010PropOp49
 70
     1
102
RTVSPost2010Prop50
 90
       50
102
RTVSPost2010PropOp50
 70
     1
102
RTVSPost2010Prop51ColorIndex
 90
      256
102
RTVSPost2010Prop51ColorRGB
 90
-16777216
102
RTVSPost2010PropOp51
 70
     0
102
RTVSPost2010Prop52
140
1.0
102
RTVSPost2010PropOp52
 70
     0
102
RTVSPost2010Prop53
 90
        2
102
RTVSPost2010PropOp53
 70
     1
102
RTVSPost2010Prop54
  1
strokes_ogs.tif
102
RTVSPost2010PropOp54
 70
     1
102
RTVSPost2010Prop55
280
     0
102
RTVSPost2010PropOp55
 70
     1
102
RTVSPost2010Prop56
140
1.0
102
RTVSPost2010PropOp56
 70
     1
102
RTVSPost2010Prop57
140
1.0
102
RTVSPost2010PropOp57
 70
     1
102
RTVSPropertyOp0
 70
     1
102
RTVSPropertyOp1
 70
     1
102
RTVSPropertyOp2
 70
     1
102
RTVSPropertyOp3
 70
     1
102
RTVSPropertyOp4
 70
     1
102
RTVSPropertyOp5
 70
     1
102
RTVSPropertyOp6
 70
     1
102
RTVSPropertyOp7
 70
     1
102
RTVSPropertyOp8
 70
     1
102
RTVSPropertyOp9
 70
     1
102
RTVSPropertyOp10
 70
     1
102
RTVSPropertyOp11
 70
     1
102
RTVSPropertyOp12
 70
     1
102
RTVSPropertyOp13
 70
     1
102
RTVSPropertyOp14
 70
     1
102
RTVSPropertyOp15
 70
     1
102
RTVSPropertyOp16
 70
     1
102
RTVSPropertyOp17
 70
     1
102
RTVSPropertyOp18
 70
     1
102
RTVSPropertyOp19
 70
     1
102
RTVSPropertyOp20
 70
     1
102
RTVSPropertyOp21
 70
     1
102
RTVSPropertyOp22
 70
     1
102
RTVSPropertyOp23
 70
     1
102
RTVSPropertyOp24
 70
     1
102
RTVSPropertyOp25
 70
     1
102
RTVSPropertyOp26
 70
     1
102
RTVSPropertyOp27
 70
     1
102
RTVSPropertyOp28
 70
     1
102
RTVSPropertyOp29
 70
     1
102
RTVSPropertyOp30
 70
     1
102
RTVSPropertyOp31
 70
     1
102
RTVSPropertyOp32
 70
     1
102
RTVSPropertyOp33
 70
     1
102
RTVSPropertyOp34
 70
     1
102
RTVSPropertyOp35
 70
     1
102
RTVSPropertyOp36
 70
     1
102
RTVSPropertyOp37
 70
     1
102
RTVSPropertyOp38
 70
     1
102
RTVSPropertyOp39
 70
     1
102
RTVSPropertyOp40
 70
     1
102
RTVSPropertyOp41
 70
     1
102
RTVSPropertyOp42
 70
     1
102
RTVSPropertyOp43
 70
     1
102
RTVSPropertyOp44
 70
     1
102
RTVSPropertyOp45
 70
     1
102
RTVSPropertyOp46
 70
     1
102
RTVSPropertyOp47
 70
     1
102
RTVSPropertyOp48
 70
     1
102
RTVSPropertyOp49
 70
     1
102
RTVSPropertyOp50
 70
     1
102
RTVSPropertyOp51
 70
     0
102
RTVSPropertyOp52
 70
     0
102
RTVSPropertyOp53
 70
     1
102
RTVSPropertyOp54
 70
     1
102
RTVSPropertyOp55
 70
     1
102
RTVSPropertyOp56
 70
     1
102
RTVSPropertyOp57
 70
     1
102
RTVSPropertyOp58
 70
     1
102
RTVSPropertyOp59
 70
     1
102
RTVSPropertyOp60
 70
     1
102
RTVSPropertyOp61
 70
     1
102
RTVSPropertyOp62
 70
     1
  0
XRECORD
  5
15D9E
102
{ACAD_REACTORS
330
15D9D
102
}
330
15D9D
100
AcDbXrecord
280
     1
102
RTVSPost2010Prop28
280
     0
102
RTVSPost2010PropOp28
 70
     1
102
RTVSPost2010Prop29
280
     1
102
RTVSPost2010PropOp29
 70
     1
102
RTVSPost2010Prop30
280
     1
102
RTVSPost2010PropOp30
 70
     1
102
RTVSPost2010Prop31
280
     0
102
RTVSPost2010PropOp31
 70
     1
102
RTVSPost2010Prop32
280
     0
102
RTVSPost2010PropOp32
 70
     1
102
RTVSPost2010Prop33
280
     0
102
RTVSPost2010PropOp33
 70
     1
102
RTVSPost2010Prop34
280
     0
102
RTVSPost2010PropOp34
 70
     1
102
RTVSPost2010Prop35
280
     0
102
RTVSPost2010PropOp35
 70
     1
102
RTVSPost2010Prop36
280
     0
102
RTVSPost2010PropOp36
 70
     1
102
RTVSPost2010Prop37
 90
       50
102
RTVSPost2010PropOp37
 70
     1
102
RTVSPost2010Prop38
140
0.0
102
RTVSPost2010PropOp38
 70
     1
102
RTVSPost2010Prop39
140
1.0
102
RTVSPost2010PropOp39
 70
     1
102
RTVSPost2010Prop40
 90
        0
102
RTVSPost2010PropOp40
 70
     1
102
RTVSPost2010Prop41ColorIndex
 90
       18
102
RTVSPost2010Prop41ColorRGB
 90
        0
102
RTVSPost2010PropOp41
 70
     1
102
RTVSPost2010Prop42
 90
       50
102
RTVSPost2010PropOp42
 70
     1
102
RTVSPost2010Prop43
 90
        3
102
RTVSPost2010PropOp43
 70
     1
102
RTVSPost2010Prop44ColorIndex
 90
        5
102
RTVSPost2010Prop44ColorRGB
 90
      255
102
RTVSPost2010PropOp44
 70
     1
102
RTVSPost2010Prop45
280
     0
102
RTVSPost2010PropOp45
 70
     1
102
RTVSPost2010Prop46
 90
       50
102
RTVSPost2010PropOp46
 70
     1
102
RTVSPost2010Prop47
 90
       50
102
RTVSPost2010PropOp47
 70
     1
102
RTVSPost2010Prop48
 90
       50
102
RTVSPost2010PropOp48
 70
     1
102
RTVSPost2010Prop49
280
     0
102
RTVSPost2010PropOp49
 70
     1
102
RTVSPost2010Prop50
 90
       50
102
RTVSPost2010PropOp50
 70
     1
102
RTVSPost2010Prop51ColorIndex
 90
      256
102
RTVSPost2010Prop51ColorRGB
 90
-16777216
102
RTVSPost2010PropOp51
 70
     0
102
RTVSPost2010Prop52
140
1.0
102
RTVSPost2010PropOp52
 70
     0
102
RTVSPost2010Prop53
 90
        2
102
RTVSPost2010PropOp53
 70
     1
102
RTVSPost2010Prop54
  1
strokes_ogs.tif
102
RTVSPost2010PropOp54
 70
     1
102
RTVSPost2010Prop55
280
     0
102
RTVSPost2010PropOp55
 70
     1
102
RTVSPost2010Prop56
140
1.0
102
RTVSPost2010PropOp56
 70
     1
102
RTVSPost2010Prop57
140
1.0
102
RTVSPost2010PropOp57
 70
     1
102
RTVSPropertyOp0
 70
     1
102
RTVSPropertyOp1
 70
     1
102
RTVSPropertyOp2
 70
     1
102
RTVSPropertyOp3
 70
     1
102
RTVSPropertyOp4
 70
     1
102
RTVSPropertyOp5
 70
     1
102
RTVSPropertyOp6
 70
     1
102
RTVSPropertyOp7
 70
     1
102
RTVSPropertyOp8
 70
     1
102
RTVSPropertyOp9
 70
     1
102
RTVSPropertyOp10
 70
     1
102
RTVSPropertyOp11
 70
     1
102
RTVSPropertyOp12
 70
     1
102
RTVSPropertyOp13
 70
     1
102
RTVSPropertyOp14
 70
     1
102
RTVSPropertyOp15
 70
     1
102
RTVSPropertyOp16
 70
     1
102
RTVSPropertyOp17
 70
     1
102
RTVSPropertyOp18
 70
     1
102
RTVSPropertyOp19
 70
     1
102
RTVSPropertyOp20
 70
     1
102
RTVSPropertyOp21
 70
     1
102
RTVSPropertyOp22
 70
     1
102
RTVSPropertyOp23
 70
     1
102
RTVSPropertyOp24
 70
     1
102
RTVSPropertyOp25
 70
     1
102
RTVSPropertyOp26
 70
     1
102
RTVSPropertyOp27
 70
     1
102
RTVSPropertyOp28
 70
     1
102
RTVSPropertyOp29
 70
     1
102
RTVSPropertyOp30
 70
     1
102
RTVSPropertyOp31
 70
     1
102
RTVSPropertyOp32
 70
     1
102
RTVSPropertyOp33
 70
     1
102
RTVSPropertyOp34
 70
     1
102
RTVSPropertyOp35
 70
     1
102
RTVSPropertyOp36
 70
     1
102
RTVSPropertyOp37
 70
     1
102
RTVSPropertyOp38
 70
     1
102
RTVSPropertyOp39
 70
     1
102
RTVSPropertyOp40
 70
     1
102
RTVSPropertyOp41
 70
     1
102
RTVSPropertyOp42
 70
     1
102
RTVSPropertyOp43
 70
     1
102
RTVSPropertyOp44
 70
     1
102
RTVSPropertyOp45
 70
     1
102
RTVSPropertyOp46
 70
     1
102
RTVSPropertyOp47
 70
     1
102
RTVSPropertyOp48
 70
     1
102
RTVSPropertyOp49
 70
     1
102
RTVSPropertyOp50
 70
     1
102
RTVSPropertyOp51
 70
     0
102
RTVSPropertyOp52
 70
     0
102
RTVSPropertyOp53
 70
     1
102
RTVSPropertyOp54
 70
     1
102
RTVSPropertyOp55
 70
     1
102
RTVSPropertyOp56
 70
     1
102
RTVSPropertyOp57
 70
     1
102
RTVSPropertyOp58
 70
     1
102
RTVSPropertyOp59
 70
     1
102
RTVSPropertyOp60
 70
     1
102
RTVSPropertyOp61
 70
     1
102
RTVSPropertyOp62
 70
     1
  0
XRECORD
  5
15DA0
102
{ACAD_REACTORS
330
15D9F
102
}
330
15D9F
100
AcDbXrecord
280
     1
102
RTVSPost2010Prop28
280
     0
102
RTVSPost2010PropOp28
 70
     1
102
RTVSPost2010Prop29
280
     1
102
RTVSPost2010PropOp29
 70
     1
102
RTVSPost2010Prop30
280
     1
102
RTVSPost2010PropOp30
 70
     1
102
RTVSPost2010Prop31
280
     0
102
RTVSPost2010PropOp31
 70
     1
102
RTVSPost2010Prop32
280
     0
102
RTVSPost2010PropOp32
 70
     1
102
RTVSPost2010Prop33
280
     0
102
RTVSPost2010PropOp33
 70
     1
102
RTVSPost2010Prop34
280
     0
102
RTVSPost2010PropOp34
 70
     1
102
RTVSPost2010Prop35
280
     0
102
RTVSPost2010PropOp35
 70
     1
102
RTVSPost2010Prop36
280
     0
102
RTVSPost2010PropOp36
 70
     1
102
RTVSPost2010Prop37
 90
       50
102
RTVSPost2010PropOp37
 70
     1
102
RTVSPost2010Prop38
140
0.0
102
RTVSPost2010PropOp38
 70
     1
102
RTVSPost2010Prop39
140
1.0
102
RTVSPost2010PropOp39
 70
     1
102
RTVSPost2010Prop40
 90
        0
102
RTVSPost2010PropOp40
 70
     1
102
RTVSPost2010Prop41ColorIndex
 90
       18
102
RTVSPost2010Prop41ColorRGB
 90
        0
102
RTVSPost2010PropOp41
 70
     1
102
RTVSPost2010Prop42
 90
       50
102
RTVSPost2010PropOp42
 70
     1
102
RTVSPost2010Prop43
 90
        3
102
RTVSPost2010PropOp43
 70
     1
102
RTVSPost2010Prop44ColorIndex
 90
        5
102
RTVSPost2010Prop44ColorRGB
 90
      255
102
RTVSPost2010PropOp44
 70
     1
102
RTVSPost2010Prop45
280
     0
102
RTVSPost2010PropOp45
 70
     1
102
RTVSPost2010Prop46
 90
       50
102
RTVSPost2010PropOp46
 70
     1
102
RTVSPost2010Prop47
 90
       50
102
RTVSPost2010PropOp47
 70
     1
102
RTVSPost2010Prop48
 90
       50
102
RTVSPost2010PropOp48
 70
     1
102
RTVSPost2010Prop49
280
     0
102
RTVSPost2010PropOp49
 70
     1
102
RTVSPost2010Prop50
 90
       50
102
RTVSPost2010PropOp50
 70
     1
102
RTVSPost2010Prop51ColorIndex
 90
      256
102
RTVSPost2010Prop51ColorRGB
 90
-16777216
102
RTVSPost2010PropOp51
 70
     0
102
RTVSPost2010Prop52
140
1.0
102
RTVSPost2010PropOp52
 70
     0
102
RTVSPost2010Prop53
 90
        2
102
RTVSPost2010PropOp53
 70
     1
102
RTVSPost2010Prop54
  1
strokes_ogs.tif
102
RTVSPost2010PropOp54
 70
     1
102
RTVSPost2010Prop55
280
     0
102
RTVSPost2010PropOp55
 70
     1
102
RTVSPost2010Prop56
140
1.0
102
RTVSPost2010PropOp56
 70
     1
102
RTVSPost2010Prop57
140
1.0
102
RTVSPost2010PropOp57
 70
     1
102
RTVSPropertyOp0
 70
     1
102
RTVSPropertyOp1
 70
     1
102
RTVSPropertyOp2
 70
     1
102
RTVSPropertyOp3
 70
     1
102
RTVSPropertyOp4
 70
     1
102
RTVSPropertyOp5
 70
     1
102
RTVSPropertyOp6
 70
     1
102
RTVSPropertyOp7
 70
     1
102
RTVSPropertyOp8
 70
     1
102
RTVSPropertyOp9
 70
     1
102
RTVSPropertyOp10
 70
     1
102
RTVSPropertyOp11
 70
     1
102
RTVSPropertyOp12
 70
     1
102
RTVSPropertyOp13
 70
     1
102
RTVSPropertyOp14
 70
     1
102
RTVSPropertyOp15
 70
     1
102
RTVSPropertyOp16
 70
     1
102
RTVSPropertyOp17
 70
     1
102
RTVSPropertyOp18
 70
     1
102
RTVSPropertyOp19
 70
     1
102
RTVSPropertyOp20
 70
     1
102
RTVSPropertyOp21
 70
     1
102
RTVSPropertyOp22
 70
     1
102
RTVSPropertyOp23
 70
     1
102
RTVSPropertyOp24
 70
     1
102
RTVSPropertyOp25
 70
     1
102
RTVSPropertyOp26
 70
     1
102
RTVSPropertyOp27
 70
     1
102
RTVSPropertyOp28
 70
     1
102
RTVSPropertyOp29
 70
     1
102
RTVSPropertyOp30
 70
     1
102
RTVSPropertyOp31
 70
     1
102
RTVSPropertyOp32
 70
     1
102
RTVSPropertyOp33
 70
     1
102
RTVSPropertyOp34
 70
     1
102
RTVSPropertyOp35
 70
     1
102
RTVSPropertyOp36
 70
     1
102
RTVSPropertyOp37
 70
     1
102
RTVSPropertyOp38
 70
     1
102
RTVSPropertyOp39
 70
     1
102
RTVSPropertyOp40
 70
     1
102
RTVSPropertyOp41
 70
     1
102
RTVSPropertyOp42
 70
     1
102
RTVSPropertyOp43
 70
     1
102
RTVSPropertyOp44
 70
     1
102
RTVSPropertyOp45
 70
     1
102
RTVSPropertyOp46
 70
     1
102
RTVSPropertyOp47
 70
     1
102
RTVSPropertyOp48
 70
     1
102
RTVSPropertyOp49
 70
     1
102
RTVSPropertyOp50
 70
     1
102
RTVSPropertyOp51
 70
     0
102
RTVSPropertyOp52
 70
     0
102
RTVSPropertyOp53
 70
     1
102
RTVSPropertyOp54
 70
     1
102
RTVSPropertyOp55
 70
     1
102
RTVSPropertyOp56
 70
     1
102
RTVSPropertyOp57
 70
     1
102
RTVSPropertyOp58
 70
     1
102
RTVSPropertyOp59
 70
     1
102
RTVSPropertyOp60
 70
     1
102
RTVSPropertyOp61
 70
     1
102
RTVSPropertyOp62
 70
     1
  0
XRECORD
  5
15D96
102
{ACAD_REACTORS
330
15D95
102
}
330
15D95
100
AcDbXrecord
280
     1
102
RTVSPost2010Prop28
280
     0
102
RTVSPost2010PropOp28
 70
     1
102
RTVSPost2010Prop29
280
     1
102
RTVSPost2010PropOp29
 70
     1
102
RTVSPost2010Prop30
280
     1
102
RTVSPost2010PropOp30
 70
     1
102
RTVSPost2010Prop31
280
     0
102
RTVSPost2010PropOp31
 70
     1
102
RTVSPost2010Prop32
280
     0
102
RTVSPost2010PropOp32
 70
     1
102
RTVSPost2010Prop33
280
     0
102
RTVSPost2010PropOp33
 70
     1
102
RTVSPost2010Prop34
280
     0
102
RTVSPost2010PropOp34
 70
     1
102
RTVSPost2010Prop35
280
     0
102
RTVSPost2010PropOp35
 70
     1
102
RTVSPost2010Prop36
280
     0
102
RTVSPost2010PropOp36
 70
     1
102
RTVSPost2010Prop37
 90
       50
102
RTVSPost2010PropOp37
 70
     1
102
RTVSPost2010Prop38
140
0.0
102
RTVSPost2010PropOp38
 70
     1
102
RTVSPost2010Prop39
140
1.0
102
RTVSPost2010PropOp39
 70
     1
102
RTVSPost2010Prop40
 90
        0
102
RTVSPost2010PropOp40
 70
     1
102
RTVSPost2010Prop41ColorIndex
 90
       18
102
RTVSPost2010Prop41ColorRGB
 90
        0
102
RTVSPost2010PropOp41
 70
     1
102
RTVSPost2010Prop42
 90
       50
102
RTVSPost2010PropOp42
 70
     1
102
RTVSPost2010Prop43
 90
        3
102
RTVSPost2010PropOp43
 70
     1
102
RTVSPost2010Prop44ColorIndex
 90
        5
102
RTVSPost2010Prop44ColorRGB
 90
      255
102
RTVSPost2010PropOp44
 70
     1
102
RTVSPost2010Prop45
280
     0
102
RTVSPost2010PropOp45
 70
     1
102
RTVSPost2010Prop46
 90
       50
102
RTVSPost2010PropOp46
 70
     1
102
RTVSPost2010Prop47
 90
       50
102
RTVSPost2010PropOp47
 70
     1
102
RTVSPost2010Prop48
 90
       50
102
RTVSPost2010PropOp48
 70
     1
102
RTVSPost2010Prop49
280
     0
102
RTVSPost2010PropOp49
 70
     1
102
RTVSPost2010Prop50
 90
       50
102
RTVSPost2010PropOp50
 70
     1
102
RTVSPost2010Prop51ColorIndex
 90
      256
102
RTVSPost2010Prop51ColorRGB
 90
-16777216
102
RTVSPost2010PropOp51
 70
     0
102
RTVSPost2010Prop52
140
1.0
102
RTVSPost2010PropOp52
 70
     0
102
RTVSPost2010Prop53
 90
        2
102
RTVSPost2010PropOp53
 70
     1
102
RTVSPost2010Prop54
  1
strokes_ogs.tif
102
RTVSPost2010PropOp54
 70
     1
102
RTVSPost2010Prop55
280
     0
102
RTVSPost2010PropOp55
 70
     1
102
RTVSPost2010Prop56
140
1.0
102
RTVSPost2010PropOp56
 70
     1
102
RTVSPost2010Prop57
140
1.0
102
RTVSPost2010PropOp57
 70
     1
102
RTVSPropertyOp0
 70
     1
102
RTVSPropertyOp1
 70
     1
102
RTVSPropertyOp2
 70
     1
102
RTVSPropertyOp3
 70
     1
102
RTVSPropertyOp4
 70
     1
102
RTVSPropertyOp5
 70
     1
102
RTVSPropertyOp6
 70
     1
102
RTVSPropertyOp7
 70
     1
102
RTVSPropertyOp8
 70
     1
102
RTVSPropertyOp9
 70
     1
102
RTVSPropertyOp10
 70
     1
102
RTVSPropertyOp11
 70
     1
102
RTVSPropertyOp12
 70
     1
102
RTVSPropertyOp13
 70
     1
102
RTVSPropertyOp14
 70
     1
102
RTVSPropertyOp15
 70
     1
102
RTVSPropertyOp16
 70
     1
102
RTVSPropertyOp17
 70
     1
102
RTVSPropertyOp18
 70
     1
102
RTVSPropertyOp19
 70
     1
102
RTVSPropertyOp20
 70
     1
102
RTVSPropertyOp21
 70
     1
102
RTVSPropertyOp22
 70
     1
102
RTVSPropertyOp23
 70
     1
102
RTVSPropertyOp24
 70
     1
102
RTVSPropertyOp25
 70
     1
102
RTVSPropertyOp26
 70
     1
102
RTVSPropertyOp27
 70
     1
102
RTVSPropertyOp28
 70
     1
102
RTVSPropertyOp29
 70
     1
102
RTVSPropertyOp30
 70
     1
102
RTVSPropertyOp31
 70
     1
102
RTVSPropertyOp32
 70
     1
102
RTVSPropertyOp33
 70
     1
102
RTVSPropertyOp34
 70
     1
102
RTVSPropertyOp35
 70
     1
102
RTVSPropertyOp36
 70
     1
102
RTVSPropertyOp37
 70
     1
102
RTVSPropertyOp38
 70
     1
102
RTVSPropertyOp39
 70
     1
102
RTVSPropertyOp40
 70
     1
102
RTVSPropertyOp41
 70
     1
102
RTVSPropertyOp42
 70
     1
102
RTVSPropertyOp43
 70
     1
102
RTVSPropertyOp44
 70
     1
102
RTVSPropertyOp45
 70
     1
102
RTVSPropertyOp46
 70
     1
102
RTVSPropertyOp47
 70
     1
102
RTVSPropertyOp48
 70
     1
102
RTVSPropertyOp49
 70
     1
102
RTVSPropertyOp50
 70
     1
102
RTVSPropertyOp51
 70
     0
102
RTVSPropertyOp52
 70
     0
102
RTVSPropertyOp53
 70
     1
102
RTVSPropertyOp54
 70
     1
102
RTVSPropertyOp55
 70
     1
102
RTVSPropertyOp56
 70
     1
102
RTVSPropertyOp57
 70
     1
102
RTVSPropertyOp58
 70
     1
102
RTVSPropertyOp59
 70
     1
102
RTVSPropertyOp60
 70
     1
102
RTVSPropertyOp61
 70
     1
102
RTVSPropertyOp62
 70
     1
  0
XRECORD
  5
15D8A
102
{ACAD_REACTORS
330
15D89
102
}
330
15D89
100
AcDbXrecord
280
     1
102
RTVSPost2010Prop28
280
     0
102
RTVSPost2010PropOp28
 70
     1
102
RTVSPost2010Prop29
280
     1
102
RTVSPost2010PropOp29
 70
     1
102
RTVSPost2010Prop30
280
     1
102
RTVSPost2010PropOp30
 70
     1
102
RTVSPost2010Prop31
280
     0
102
RTVSPost2010PropOp31
 70
     1
102
RTVSPost2010Prop32
280
     0
102
RTVSPost2010PropOp32
 70
     1
102
RTVSPost2010Prop33
280
     0
102
RTVSPost2010PropOp33
 70
     1
102
RTVSPost2010Prop34
280
     0
102
RTVSPost2010PropOp34
 70
     1
102
RTVSPost2010Prop35
280
     0
102
RTVSPost2010PropOp35
 70
     1
102
RTVSPost2010Prop36
280
     0
102
RTVSPost2010PropOp36
 70
     1
102
RTVSPost2010Prop37
 90
       50
102
RTVSPost2010PropOp37
 70
     1
102
RTVSPost2010Prop38
140
0.0
102
RTVSPost2010PropOp38
 70
     1
102
RTVSPost2010Prop39
140
1.0
102
RTVSPost2010PropOp39
 70
     1
102
RTVSPost2010Prop40
 90
        0
102
RTVSPost2010PropOp40
 70
     1
102
RTVSPost2010Prop41ColorIndex
 90
       18
102
RTVSPost2010Prop41ColorRGB
 90
        0
102
RTVSPost2010PropOp41
 70
     1
102
RTVSPost2010Prop42
 90
       50
102
RTVSPost2010PropOp42
 70
     1
102
RTVSPost2010Prop43
 90
        3
102
RTVSPost2010PropOp43
 70
     1
102
RTVSPost2010Prop44ColorIndex
 90
        5
102
RTVSPost2010Prop44ColorRGB
 90
      255
102
RTVSPost2010PropOp44
 70
     1
102
RTVSPost2010Prop45
280
     0
102
RTVSPost2010PropOp45
 70
     1
102
RTVSPost2010Prop46
 90
       50
102
RTVSPost2010PropOp46
 70
     1
102
RTVSPost2010Prop47
 90
       50
102
RTVSPost2010PropOp47
 70
     1
102
RTVSPost2010Prop48
 90
       50
102
RTVSPost2010PropOp48
 70
     1
102
RTVSPost2010Prop49
280
     0
102
RTVSPost2010PropOp49
 70
     1
102
RTVSPost2010Prop50
 90
       50
102
RTVSPost2010PropOp50
 70
     1
102
RTVSPost2010Prop51ColorIndex
 90
      256
102
RTVSPost2010Prop51ColorRGB
 90
-16777216
102
RTVSPost2010PropOp51
 70
     0
102
RTVSPost2010Prop52
140
1.0
102
RTVSPost2010PropOp52
 70
     0
102
RTVSPost2010Prop53
 90
        2
102
RTVSPost2010PropOp53
 70
     1
102
RTVSPost2010Prop54
  1
strokes_ogs.tif
102
RTVSPost2010PropOp54
 70
     1
102
RTVSPost2010Prop55
280
     0
102
RTVSPost2010PropOp55
 70
     1
102
RTVSPost2010Prop56
140
1.0
102
RTVSPost2010PropOp56
 70
     1
102
RTVSPost2010Prop57
140
1.0
102
RTVSPost2010PropOp57
 70
     1
102
RTVSPropertyOp0
 70
     1
102
RTVSPropertyOp1
 70
     1
102
RTVSPropertyOp2
 70
     1
102
RTVSPropertyOp3
 70
     1
102
RTVSPropertyOp4
 70
     1
102
RTVSPropertyOp5
 70
     1
102
RTVSPropertyOp6
 70
     1
102
RTVSPropertyOp7
 70
     1
102
RTVSPropertyOp8
 70
     1
102
RTVSPropertyOp9
 70
     1
102
RTVSPropertyOp10
 70
     1
102
RTVSPropertyOp11
 70
     1
102
RTVSPropertyOp12
 70
     1
102
RTVSPropertyOp13
 70
     1
102
RTVSPropertyOp14
 70
     1
102
RTVSPropertyOp15
 70
     1
102
RTVSPropertyOp16
 70
     1
102
RTVSPropertyOp17
 70
     1
102
RTVSPropertyOp18
 70
     1
102
RTVSPropertyOp19
 70
     1
102
RTVSPropertyOp20
 70
     1
102
RTVSPropertyOp21
 70
     1
102
RTVSPropertyOp22
 70
     1
102
RTVSPropertyOp23
 70
     1
102
RTVSPropertyOp24
 70
     1
102
RTVSPropertyOp25
 70
     1
102
RTVSPropertyOp26
 70
     1
102
RTVSPropertyOp27
 70
     1
102
RTVSPropertyOp28
 70
     1
102
RTVSPropertyOp29
 70
     1
102
RTVSPropertyOp30
 70
     1
102
RTVSPropertyOp31
 70
     1
102
RTVSPropertyOp32
 70
     1
102
RTVSPropertyOp33
 70
     1
102
RTVSPropertyOp34
 70
     1
102
RTVSPropertyOp35
 70
     1
102
RTVSPropertyOp36
 70
     1
102
RTVSPropertyOp37
 70
     1
102
RTVSPropertyOp38
 70
     1
102
RTVSPropertyOp39
 70
     1
102
RTVSPropertyOp40
 70
     1
102
RTVSPropertyOp41
 70
     1
102
RTVSPropertyOp42
 70
     1
102
RTVSPropertyOp43
 70
     1
102
RTVSPropertyOp44
 70
     1
102
RTVSPropertyOp45
 70
     1
102
RTVSPropertyOp46
 70
     1
102
RTVSPropertyOp47
 70
     1
102
RTVSPropertyOp48
 70
     1
102
RTVSPropertyOp49
 70
     1
102
RTVSPropertyOp50
 70
     1
102
RTVSPropertyOp51
 70
     0
102
RTVSPropertyOp52
 70
     0
102
RTVSPropertyOp53
 70
     1
102
RTVSPropertyOp54
 70
     1
102
RTVSPropertyOp55
 70
     1
102
RTVSPropertyOp56
 70
     1
102
RTVSPropertyOp57
 70
     1
102
RTVSPropertyOp58
 70
     1
102
RTVSPropertyOp59
 70
     1
102
RTVSPropertyOp60
 70
     1
102
RTVSPropertyOp61
 70
     1
102
RTVSPropertyOp62
 70
     1
  0
XRECORD
  5
15DA2
102
{ACAD_REACTORS
330
15DA1
102
}
330
15DA1
100
AcDbXrecord
280
     1
102
RTVSPost2010Prop28
280
     0
102
RTVSPost2010PropOp28
 70
     1
102
RTVSPost2010Prop29
280
     1
102
RTVSPost2010PropOp29
 70
     1
102
RTVSPost2010Prop30
280
     1
102
RTVSPost2010PropOp30
 70
     1
102
RTVSPost2010Prop31
280
     0
102
RTVSPost2010PropOp31
 70
     1
102
RTVSPost2010Prop32
280
     0
102
RTVSPost2010PropOp32
 70
     1
102
RTVSPost2010Prop33
280
     0
102
RTVSPost2010PropOp33
 70
     1
102
RTVSPost2010Prop34
280
     0
102
RTVSPost2010PropOp34
 70
     1
102
RTVSPost2010Prop35
280
     0
102
RTVSPost2010PropOp35
 70
     1
102
RTVSPost2010Prop36
280
     0
102
RTVSPost2010PropOp36
 70
     1
102
RTVSPost2010Prop37
 90
       50
102
RTVSPost2010PropOp37
 70
     1
102
RTVSPost2010Prop38
140
0.0
102
RTVSPost2010PropOp38
 70
     1
102
RTVSPost2010Prop39
140
1.0
102
RTVSPost2010PropOp39
 70
     1
102
RTVSPost2010Prop40
 90
        0
102
RTVSPost2010PropOp40
 70
     1
102
RTVSPost2010Prop41ColorIndex
 90
       18
102
RTVSPost2010Prop41ColorRGB
 90
        0
102
RTVSPost2010PropOp41
 70
     1
102
RTVSPost2010Prop42
 90
       50
102
RTVSPost2010PropOp42
 70
     1
102
RTVSPost2010Prop43
 90
        3
102
RTVSPost2010PropOp43
 70
     1
102
RTVSPost2010Prop44ColorIndex
 90
        5
102
RTVSPost2010Prop44ColorRGB
 90
      255
102
RTVSPost2010PropOp44
 70
     1
102
RTVSPost2010Prop45
280
     0
102
RTVSPost2010PropOp45
 70
     1
102
RTVSPost2010Prop46
 90
       50
102
RTVSPost2010PropOp46
 70
     1
102
RTVSPost2010Prop47
 90
       50
102
RTVSPost2010PropOp47
 70
     1
102
RTVSPost2010Prop48
 90
       50
102
RTVSPost2010PropOp48
 70
     1
102
RTVSPost2010Prop49
280
     0
102
RTVSPost2010PropOp49
 70
     1
102
RTVSPost2010Prop50
 90
       50
102
RTVSPost2010PropOp50
 70
     1
102
RTVSPost2010Prop51ColorIndex
 90
      256
102
RTVSPost2010Prop51ColorRGB
 90
-16777216
102
RTVSPost2010PropOp51
 70
     0
102
RTVSPost2010Prop52
140
1.0
102
RTVSPost2010PropOp52
 70
     0
102
RTVSPost2010Prop53
 90
        2
102
RTVSPost2010PropOp53
 70
     1
102
RTVSPost2010Prop54
  1
strokes_ogs.tif
102
RTVSPost2010PropOp54
 70
     1
102
RTVSPost2010Prop55
280
     0
102
RTVSPost2010PropOp55
 70
     1
102
RTVSPost2010Prop56
140
1.0
102
RTVSPost2010PropOp56
 70
     1
102
RTVSPost2010Prop57
140
1.0
102
RTVSPost2010PropOp57
 70
     1
102
RTVSPropertyOp0
 70
     1
102
RTVSPropertyOp1
 70
     1
102
RTVSPropertyOp2
 70
     1
102
RTVSPropertyOp3
 70
     1
102
RTVSPropertyOp4
 70
     1
102
RTVSPropertyOp5
 70
     1
102
RTVSPropertyOp6
 70
     1
102
RTVSPropertyOp7
 70
     1
102
RTVSPropertyOp8
 70
     1
102
RTVSPropertyOp9
 70
     1
102
RTVSPropertyOp10
 70
     1
102
RTVSPropertyOp11
 70
     1
102
RTVSPropertyOp12
 70
     1
102
RTVSPropertyOp13
 70
     1
102
RTVSPropertyOp14
 70
     1
102
RTVSPropertyOp15
 70
     1
102
RTVSPropertyOp16
 70
     1
102
RTVSPropertyOp17
 70
     1
102
RTVSPropertyOp18
 70
     1
102
RTVSPropertyOp19
 70
     1
102
RTVSPropertyOp20
 70
     1
102
RTVSPropertyOp21
 70
     1
102
RTVSPropertyOp22
 70
     1
102
RTVSPropertyOp23
 70
     1
102
RTVSPropertyOp24
 70
     1
102
RTVSPropertyOp25
 70
     1
102
RTVSPropertyOp26
 70
     1
102
RTVSPropertyOp27
 70
     1
102
RTVSPropertyOp28
 70
     1
102
RTVSPropertyOp29
 70
     1
102
RTVSPropertyOp30
 70
     1
102
RTVSPropertyOp31
 70
     1
102
RTVSPropertyOp32
 70
     1
102
RTVSPropertyOp33
 70
     1
102
RTVSPropertyOp34
 70
     1
102
RTVSPropertyOp35
 70
     1
102
RTVSPropertyOp36
 70
     1
102
RTVSPropertyOp37
 70
     1
102
RTVSPropertyOp38
 70
     1
102
RTVSPropertyOp39
 70
     1
102
RTVSPropertyOp40
 70
     1
102
RTVSPropertyOp41
 70
     1
102
RTVSPropertyOp42
 70
     1
102
RTVSPropertyOp43
 70
     1
102
RTVSPropertyOp44
 70
     1
102
RTVSPropertyOp45
 70
     1
102
RTVSPropertyOp46
 70
     1
102
RTVSPropertyOp47
 70
     1
102
RTVSPropertyOp48
 70
     1
102
RTVSPropertyOp49
 70
     1
102
RTVSPropertyOp50
 70
     1
102
RTVSPropertyOp51
 70
     0
102
RTVSPropertyOp52
 70
     0
102
RTVSPropertyOp53
 70
     1
102
RTVSPropertyOp54
 70
     1
102
RTVSPropertyOp55
 70
     1
102
RTVSPropertyOp56
 70
     1
102
RTVSPropertyOp57
 70
     1
102
RTVSPropertyOp58
 70
     1
102
RTVSPropertyOp59
 70
     1
102
RTVSPropertyOp60
 70
     1
102
RTVSPropertyOp61
 70
     1
102
RTVSPropertyOp62
 70
     1
  0
ENDSEC
  0
EOF
