  0
SECTION
  2
HEADER
  9
$ACADVER
  1
AC1015
  9
$ACADMAINTVER
 70
    20
  9
$DWGCODEPAGE
  3
ANSI_932
  9
$INSBASE
 10
0.0
 20
0.0
 30
0.0
  9
$EXTMIN
 10
10.0
 20
9.999999999999998
 30
0.0
  9
$EXTMAX
 10
567.0
 20
407.533455
 30
0.0
  9
$LIMMIN
 10
0.0
 20
0.0
  9
$LIMMAX
 10
633.6
 20
436.8
  9
$ORTHOMODE
 70
     1
  9
$REGENMODE
 70
     1
  9
$FILLMODE
 70
     1
  9
$QTEXTMODE
 70
     0
  9
$MIRRTEXT
 70
     1
  9
$LTSCALE
 40
20.0
  9
$ATTMODE
 70
     1
  9
$TEXTSIZE
 40
5.0
  9
$TRACEWID
 40
1.0
  9
$TEXTSTYLE
  7
STANDARD
  9
$CLAYER
  8
0
  9
$CELTYPE
  6
BYLAYER
  9
$CECOLOR
 62
   256
  9
$CELTSCALE
 40
1.0
  9
$DISPSILH
 70
     0
  9
$DIMSCALE
 40
1.0
  9
$DIMASZ
 40
2.5
  9
$DIMEXO
 40
1.0
  9
$DIMDLI
 40
10.0
  9
$DIMRND
 40
0.0
  9
$DIMDLE
 40
0.0
  9
$DIMEXE
 40
1.0
  9
$DIMTP
 40
0.0
  9
$DIMTM
 40
0.0
  9
$DIMTXT
 40
2.5
  9
$DIMCEN
 40
0.0
  9
$DIMTSZ
 40
0.0
  9
$DIMTOL
 70
     0
  9
$DIMLIM
 70
     0
  9
$DIMTIH
 70
     0
  9
$DIMTOH
 70
     0
  9
$DIMSE1
 70
     0
  9
$DIMSE2
 70
     0
  9
$DIMTAD
 70
     3
  9
$DIMZIN
 70
     8
  9
$DIMBLK
  1

  9
$DIMASO
 70
     1
  9
$DIMSHO
 70
     1
  9
$DIMPOST
  1

  9
$DIMAPOST
  1

  9
$DIMALT
 70
     0
  9
$DIMALTD
 70
     2
  9
$DIMALTF
 40
25.4
  9
$DIMLFAC
 40
1.0
  9
$DIMTOFL
 70
     1
  9
$DIMTVP
 40
0.0
  9
$DIMTIX
 70
     0
  9
$DIMSOXD
 70
     0
  9
$DIMSAH
 70
     1
  9
$DIMBLK1
  1
OPEN
  9
$DIMBLK2
  1
OPEN
  9
$DIMSTYLE
  2
STANDARD
  9
$DIMCLRD
 70
     0
  9
$DIMCLRE
 70
     0
  9
$DIMCLRT
 70
     0
  9
$DIMTFAC
 40
1.0
  9
$DIMGAP
 40
1.0
  9
$DIMJUST
 70
     0
  9
$DIMSD1
 70
     0
  9
$DIMSD2
 70
     0
  9
$DIMTOLJ
 70
     1
  9
$DIMTZIN
 70
     0
  9
$DIMALTZ
 70
     0
  9
$DIMALTTZ
 70
     0
  9
$DIMUPT
 70
     0
  9
$DIMDEC
 70
     4
  9
$DIMTDEC
 70
     4
  9
$DIMALTU
 70
     2
  9
$DIMALTTD
 70
     2
  9
$DIMTXSTY
  7
STANDARD
  9
$DIMAUNIT
 70
     0
  9
$DIMADEC
 70
     0
  9
$DIMALTRND
 40
0.0
  9
$DIMAZIN
 70
     0
  9
$DIMDSEP
 70
    46
  9
$DIMATFIT
 70
     3
  9
$DIMFRAC
 70
     0
  9
$DIMLDRBLK
  1
OPEN
  9
$DIMLUNIT
 70
     2
  9
$DIMLWD
 70
    -2
  9
$DIMLWE
 70
    -2
  9
$DIMTMOVE
 70
     0
  9
$LUNITS
 70
     2
  9
$LUPREC
 70
     4
  9
$SKETCHINC
 40
1.0
  9
$FILLETRAD
 40
0.0
  9
$AUNITS
 70
     0
  9
$AUPREC
 70
     2
  9
$MENU
  1
.
  9
$ELEVATION
 40
0.0
  9
$PELEVATION
 40
0.0
  9
$THICKNESS
 40
0.0
  9
$LIMCHECK
 70
     0
  9
$CHAMFERA
 40
10.0
  9
$CHAMFERB
 40
10.0
  9
$CHAMFERC
 40
0.0
  9
$CHAMFERD
 40
0.0
  9
$SKPOLY
 70
     0
  9
$TDCREATE
 40
2451344.609323959
  9
$TDUCREATE
 40
2451344.234323959
  9
$TDUPDATE
 40
2457192.621261285
  9
$TDUUPDATE
 40
2457192.246261285
  9
$TDINDWG
 40
0.0000166782
  9
$TDUSRTIMER
 40
0.0000163657
  9
$USRTIMER
 70
     1
  9
$ANGBASE
 50
0.0
  9
$ANGDIR
 70
     0
  9
$PDMODE
 70
     0
  9
$PDSIZE
 40
0.0
  9
$PLINEWID
 40
0.0
  9
$SPLFRAME
 70
     0
  9
$SPLINETYPE
 70
     6
  9
$SPLINESEGS
 70
     8
  9
$HANDSEED
  5
B84B
  9
$SURFTAB1
 70
     6
  9
$SURFTAB2
 70
     6
  9
$SURFTYPE
 70
     6
  9
$SURFU
 70
     6
  9
$SURFV
 70
     6
  9
$UCSBASE
  2

  9
$UCSNAME
  2

  9
$UCSORG
 10
0.0
 20
0.0
 30
0.0
  9
$UCSXDIR
 10
1.0
 20
0.0
 30
0.0
  9
$UCSYDIR
 10
0.0
 20
1.0
 30
0.0
  9
$UCSORTHOREF
  2

  9
$UCSORTHOVIEW
 70
     0
  9
$UCSORGTOP
 10
0.0
 20
0.0
 30
0.0
  9
$UCSORGBOTTOM
 10
0.0
 20
0.0
 30
0.0
  9
$UCSORGLEFT
 10
0.0
 20
0.0
 30
0.0
  9
$UCSORGRIGHT
 10
0.0
 20
0.0
 30
0.0
  9
$UCSORGFRONT
 10
0.0
 20
0.0
 30
0.0
  9
$UCSORGBACK
 10
0.0
 20
0.0
 30
0.0
  9
$PUCSBASE
  2

  9
$PUCSNAME
  2

  9
$PUCSORG
 10
0.0
 20
0.0
 30
0.0
  9
$PUCSXDIR
 10
1.0
 20
0.0
 30
0.0
  9
$PUCSYDIR
 10
0.0
 20
1.0
 30
0.0
  9
$PUCSORTHOREF
  2

  9
$PUCSORTHOVIEW
 70
     0
  9
$PUCSORGTOP
 10
0.0
 20
0.0
 30
0.0
  9
$PUCSORGBOTTOM
 10
0.0
 20
0.0
 30
0.0
  9
$PUCSORGLEFT
 10
0.0
 20
0.0
 30
0.0
  9
$PUCSORGRIGHT
 10
0.0
 20
0.0
 30
0.0
  9
$PUCSORGFRONT
 10
0.0
 20
0.0
 30
0.0
  9
$PUCSORGBACK
 10
0.0
 20
0.0
 30
0.0
  9
$USERI1
 70
     0
  9
$USERI2
 70
     0
  9
$USERI3
 70
     0
  9
$USERI4
 70
     0
  9
$USERI5
 70
     0
  9
$USERR1
 40
0.0
  9
$USERR2
 40
0.0
  9
$USERR3
 40
0.0
  9
$USERR4
 40
0.0
  9
$USERR5
 40
0.0
  9
$WORLDVIEW
 70
     1
  9
$SHADEDGE
 70
     3
  9
$SHADEDIF
 70
    70
  9
$TILEMODE
 70
     1
  9
$MAXACTVP
 70
    16
  9
$PINSBASE
 10
0.0
 20
0.0
 30
0.0
  9
$PLIMCHECK
 70
     0
  9
$PEXTMIN
 10
1.000000000000000E+20
 20
1.000000000000000E+20
 30
1.000000000000000E+20
  9
$PEXTMAX
 10
-1.000000000000000E+20
 20
-1.000000000000000E+20
 30
-1.000000000000000E+20
  9
$PLIMMIN
 10
0.0
 20
0.0
  9
$PLIMMAX
 10
420.0
 20
297.0
  9
$UNITMODE
 70
     0
  9
$VISRETAIN
 70
     0
  9
$PLINEGEN
 70
     0
  9
$PSLTSCALE
 70
     0
  9
$TREEDEPTH
 70
  3020
  9
$CMLSTYLE
  2
STANDARD
  9
$CMLJUST
 70
     0
  9
$CMLSCALE
 40
1.0
  9
$PROXYGRAPHICS
 70
     1
  9
$MEASUREMENT
 70
     0
  9
$CELWEIGHT
370
    -1
  9
$ENDCAPS
280
     0
  9
$JOINSTYLE
280
     0
  9
$LWDISPLAY
290
     0
  9
$INSUNITS
 70
     0
  9
$HYPERLINKBASE
  1

  9
$STYLESHEET
  1

  9
$XEDIT
290
     1
  9
$CEPSNTYPE
380
     0
  9
$PSTYLEMODE
290
     1
  9
$FINGERPRINTGUID
  2
{2894DB5D-9EA1-4293-A291-D5ED26D7C802}
  9
$VERSIONGUID
  2
{D1E65459-13B2-4855-89FC-B10774F3F182}
  9
$EXTNAMES
290
     1
  9
$PSVPSCALE
 40
0.0
  9
$OLESTARTUP
290
     0
  0
ENDSEC
  0
SECTION
  2
CLASSES
  0
CLASS
  1
ACDBDICTIONARYWDFLT
  2
AcDbDictionaryWithDefault
  3
ObjectDBX Classes
 90
        0
280
     0
281
     0
  0
CLASS
  1
ACDBPLACEHOLDER
  2
AcDbPlaceHolder
  3
ObjectDBX Classes
 90
        0
280
     0
281
     0
  0
CLASS
  1
LAYOUT
  2
AcDbLayout
  3
ObjectDBX Classes
 90
        0
280
     0
281
     0
  0
CLASS
  1
DICTIONARYVAR
  2
AcDbDictionaryVar
  3
ObjectDBX Classes
 90
        0
280
     0
281
     0
  0
CLASS
  1
MATERIAL
  2
AcDbMaterial
  3
ObjectDBX Classes
 90
     1153
280
     0
281
     0
  0
CLASS
  1
VISUALSTYLE
  2
AcDbVisualStyle
  3
ObjectDBX Classes
 90
     4095
280
     0
281
     0
  0
CLASS
  1
TABLESTYLE
  2
AcDbTableStyle
  3
ObjectDBX Classes
 90
     4095
280
     0
281
     0
  0
CLASS
  1
SCALE
  2
AcDbScale
  3
ObjectDBX Classes
 90
     1153
280
     0
281
     0
  0
CLASS
  1
MLEADERSTYLE
  2
AcDbMLeaderStyle
  3
ACDB_MLEADERSTYLE_CLASS
 90
     4095
280
     0
281
     0
  0
CLASS
  1
ACDBSECTIONVIEWSTYLE
  2
AcDbSectionViewStyle
  3
ObjectDBX Classes
 90
     1025
280
     0
281
     0
  0
CLASS
  1
ACDBDETAILVIEWSTYLE
  2
AcDbDetailViewStyle
  3
ObjectDBX Classes
 90
     1025
280
     0
281
     0
  0
CLASS
  1
CELLSTYLEMAP
  2
AcDbCellStyleMap
  3
ObjectDBX Classes
 90
     1152
280
     0
281
     0
  0
ENDSEC
  0
SECTION
  2
TABLES
  0
TABLE
  2
VPORT
  5
B459
330
0
100
AcDbSymbolTable
 70
     1
  0
VPORT
  5
B794
330
B459
100
AcDbSymbolTableRecord
100
AcDbViewportTableRecord
  2
*ACTIVE
 70
     0
 10
0.0
 20
0.0
 11
1.0
 21
1.0
 12
408.9136748917749
 22
208.7690195604798
 13
0.0
 23
0.0
 14
10.0
 24
10.0
 15
10.0
 25
10.0
 16
0.0
 26
0.0
 36
1.0
 17
0.0
 27
0.0
 37
0.0
 40
402.016164272787
 41
1.899603698811096
 42
50.0
 43
0.0
 44
0.0
 50
0.0
 51
0.0
 71
     0
 72
   100
 73
     1
 74
     0
 75
     0
 76
     0
 77
     0
 78
     0
281
     0
 65
     1
110
0.0
120
0.0
130
0.0
111
1.0
121
0.0
131
0.0
112
0.0
122
1.0
132
0.0
 79
     0
146
0.0
1001
ACAD_NAV_VCDISPLAY
1070
     3
  0
ENDTAB
  0
TABLE
  2
LTYPE
  5
B456
330
0
100
AcDbSymbolTable
 70
     4
  0
LTYPE
  5
B464
330
B456
100
AcDbSymbolTableRecord
100
AcDbLinetypeTableRecord
  2
BYBLOCK
 70
     0
  3

 72
    65
 73
     0
 40
0.0
  0
LTYPE
  5
B465
330
B456
100
AcDbSymbolTableRecord
100
AcDbLinetypeTableRecord
  2
BYLAYER
 70
     0
  3

 72
    65
 73
     0
 40
0.0
  0
LTYPE
  5
B466
330
B456
100
AcDbSymbolTableRecord
100
AcDbLinetypeTableRecord
  2
CONTINUOUS
 70
     0
  3
Solid line
 72
    65
 73
     0
 40
0.0
  0
LTYPE
  5
B474
330
B456
100
AcDbSymbolTableRecord
100
AcDbLinetypeTableRecord
  2
DASHED
 70
     0
  3
__ __ __ __ __ __ __ __ __ __ __ __ __ __ __ __
 72
    65
 73
     2
 40
0.75
 49
0.5
 74
     0
 49
-0.25
 74
     0
  0
LTYPE
  5
B475
330
B456
100
AcDbSymbolTableRecord
100
AcDbLinetypeTableRecord
  2
CENTER
 70
     0
  3
____ _ ____ _ ____ _ ____ _ ____ _ ____ _ ____ 
 72
    65
 73
     4
 40
2.0
 49
1.25
 74
     0
 49
-0.25
 74
     0
 49
0.25
 74
     0
 49
-0.25
 74
     0
  0
LTYPE
  5
B476
330
B456
100
AcDbSymbolTableRecord
100
AcDbLinetypeTableRecord
  2
PHANTOM
 70
     0
  3
______  __  __  ______  __  __  ______  __  __ 
 72
    65
 73
     6
 40
2.5
 49
1.25
 74
     0
 49
-0.25
 74
     0
 49
0.25
 74
     0
 49
-0.25
 74
     0
 49
0.25
 74
     0
 49
-0.25
 74
     0
  0
ENDTAB
  0
TABLE
  2
LAYER
  5
B453
330
0
100
AcDbSymbolTable
 70
     8
  0
LAYER
  5
B461
102
{ACAD_XDICTIONARY
360
B7EF
102
}
330
B453
100
AcDbSymbolTableRecord
100
AcDbLayerTableRecord
  2
0
 70
     0
 62
     7
  6
CONTINUOUS
370
    -3
390
B79D
  0
LAYER
  5
B477
102
{ACAD_XDICTIONARY
360
B7F1
102
}
330
B453
100
AcDbSymbolTableRecord
100
AcDbLayerTableRecord
  2
4
 70
     0
 62
     1
  6
CENTER
370
    -3
390
B79D
  0
LAYER
  5
B478
102
{ACAD_XDICTIONARY
360
B7F3
102
}
330
B453
100
AcDbSymbolTableRecord
100
AcDbLayerTableRecord
  2
5
 70
     0
 62
     6
  6
PHANTOM
370
    -3
390
B79D
  0
LAYER
  5
B479
102
{ACAD_XDICTIONARY
360
B7F5
102
}
330
B453
100
AcDbSymbolTableRecord
100
AcDbLayerTableRecord
  2
1
 70
     0
 62
     7
  6
CONTINUOUS
370
    -3
390
B79D
  0
LAYER
  5
B47A
102
{ACAD_XDICTIONARY
360
B7F7
102
}
330
B453
100
AcDbSymbolTableRecord
100
AcDbLayerTableRecord
  2
2
 70
     0
 62
     4
  6
CONTINUOUS
370
    -3
390
B79D
  0
LAYER
  5
B47B
102
{ACAD_XDICTIONARY
360
B7F9
102
}
330
B453
100
AcDbSymbolTableRecord
100
AcDbLayerTableRecord
  2
3
 70
     0
 62
     2
  6
DASHED
370
    -3
390
B79D
  0
LAYER
  5
B47C
102
{ACAD_XDICTIONARY
360
B7FB
102
}
330
B453
100
AcDbSymbolTableRecord
100
AcDbLayerTableRecord
  2
6
 70
     0
 62
     5
  6
CONTINUOUS
370
    -3
390
B79D
  0
LAYER
  5
B47D
102
{ACAD_XDICTIONARY
360
B7FD
102
}
330
B453
100
AcDbSymbolTableRecord
100
AcDbLayerTableRecord
  2
7
 70
     0
 62
     3
  6
CONTINUOUS
370
    -3
390
B79D
  0
ENDTAB
  0
TABLE
  2
STYLE
  5
B454
330
0
100
AcDbSymbolTable
 70
     1
  0
STYLE
  5
B462
330
B454
100
AcDbSymbolTableRecord
100
AcDbTextStyleTableRecord
  2
STANDARD
 70
     0
 40
0.0
 41
1.0
 50
0.0
 71
     0
 42
5.0
  3
txt
  4

  0
ENDTAB
  0
TABLE
  2
VIEW
  5
B457
330
0
100
AcDbSymbolTable
 70
     0
  0
ENDTAB
  0
TABLE
  2
UCS
  5
B458
330
0
100
AcDbSymbolTable
 70
     0
  0
ENDTAB
  0
TABLE
  2
APPID
  5
B45A
330
0
100
AcDbSymbolTable
 70
     3
  0
APPID
  5
B463
330
B45A
100
AcDbSymbolTableRecord
100
AcDbRegAppTableRecord
  2
ACAD
 70
     0
  0
APPID
  5
B809
330
B45A
100
AcDbSymbolTableRecord
100
AcDbRegAppTableRecord
  2
ACAD_NAV_VCDISPLAY
 70
     0
  0
APPID
  5
B842
330
B45A
100
AcDbSymbolTableRecord
100
AcDbRegAppTableRecord
  2
ACAD_MLEADERVER
 70
     0
  0
ENDTAB
  0
TABLE
  2
DIMSTYLE
  5
B45B
330
0
100
AcDbSymbolTable
 70
     1
100
AcDbDimStyleTable
 71
     0
  0
DIMSTYLE
105
B47F
330
B45B
100
AcDbSymbolTableRecord
100
AcDbDimStyleTableRecord
  2
STANDARD
 70
     0
 41
2.5
 42
1.0
 43
10.0
 44
1.0
 73
     0
 74
     0
 77
     3
 78
     8
140
2.5
141
0.0
147
1.0
172
     1
173
     1
284
     8
285
     8
286
     8
340
B462
  0
ENDTAB
  0
TABLE
  2
BLOCK_RECORD
  5
B452
330
0
100
AcDbSymbolTable
 70
     1
  0
BLOCK_RECORD
  5
B46F
102
{ACAD_XDICTIONARY
360
B797
102
}
330
B452
100
AcDbSymbolTableRecord
100
AcDbBlockTableRecord
  2
*MODEL_SPACE
340
B7EB
  0
BLOCK_RECORD
  5
B46B
102
{ACAD_XDICTIONARY
360
B795
102
}
330
B452
100
AcDbSymbolTableRecord
100
AcDbBlockTableRecord
  2
*PAPER_SPACE
340
B7EC
  0
BLOCK_RECORD
  5
B487
330
B452
100
AcDbSymbolTableRecord
100
AcDbBlockTableRecord
  2
_OPEN
340
0
  0
ENDTAB
  0
ENDSEC
  0
SECTION
  2
BLOCKS
  0
BLOCK
  5
B470
330
B46F
100
AcDbEntity
  8
0
100
AcDbBlockBegin
  2
*MODEL_SPACE
 70
     0
 10
0.0
 20
0.0
 30
0.0
  3
*MODEL_SPACE
  1

  0
ENDBLK
  5
B471
330
B46F
100
AcDbEntity
  8
0
100
AcDbBlockEnd
  0
BLOCK
  5
B46C
330
B46B
100
AcDbEntity
 67
     1
  8
0
100
AcDbBlockBegin
  2
*PAPER_SPACE
 70
     0
 10
0.0
 20
0.0
 30
0.0
  3
*PAPER_SPACE
  1

  0
ENDBLK
  5
B46D
330
B46B
100
AcDbEntity
 67
     1
  8
0
100
AcDbBlockEnd
  0
BLOCK
  5
B488
330
B487
100
AcDbEntity
  8
0
100
AcDbBlockBegin
  2
_OPEN
 70
     0
 10
0.0
 20
0.0
 30
0.0
  3
_OPEN
  1

  0
LINE
  5
B489
330
B487
100
AcDbEntity
  8
0
  6
ByBlock
 62
     0
100
AcDbLine
 10
-1.0
 20
0.166667
 30
0.0
 11
0.0
 21
0.0
 31
0.0
  0
LINE
  5
B48A
330
B487
100
AcDbEntity
  8
0
  6
ByBlock
 62
     0
100
AcDbLine
 10
0.0
 20
0.0
 30
0.0
 11
-1.0
 21
-0.166667
 31
0.0
  0
LINE
  5
B48B
330
B487
100
AcDbEntity
  8
0
  6
ByBlock
 62
     0
100
AcDbLine
 10
0.0
 20
0.0
 30
0.0
 11
-1.0
 21
0.0
 31
0.0
  0
ENDBLK
  5
B48C
330
B487
100
AcDbEntity
  8
0
100
AcDbBlockEnd
  0
ENDSEC
  0
SECTION
  2
ENTITIES
  0
TEXT
  5
B48D
330
B46F
100
AcDbEntity
  8
7
  6
Continuous
100
AcDbText
 10
10.0
 20
18.0
 30
0.0
 40
3.0
  1
TYPE No.TM-223-2L
100
AcDbText
  0
TEXT
  5
B48E
330
B46F
100
AcDbEntity
  8
7
  6
Continuous
100
AcDbText
 10
10.0
 20
26.0
 30
0.0
 40
3.0
  1
CODE No.5822
100
AcDbText
  0
TEXT
  5
B48F
330
B46F
100
AcDbEntity
  8
1
  6
Continuous
100
AcDbText
 10
10.0
 20
10.0
 30
0.0
 40
1.399999999999999
  1
LAYER
100
AcDbText
  0
TEXT
  5
B490
330
B46F
100
AcDbEntity
  8
1
  6
Continuous
100
AcDbText
 10
17.97951099999998
 20
10.04873699999998
 30
0.0
 40
1.399999999999999
  1
1
100
AcDbText
  0
TEXT
  5
B491
330
B46F
100
AcDbEntity
  8
7
  6
Continuous
100
AcDbText
 10
29.97951099999999
 20
10.04873699999998
 30
0.0
 40
1.399999999999999
  1
7
100
AcDbText
  0
TEXT
  5
B492
330
B46F
100
AcDbEntity
  8
4
  6
CENTER
100
AcDbText
 10
23.97951099999999
 20
10.04873699999998
 30
0.0
 40
1.399999999999999
  1
4
100
AcDbText
  0
TEXT
  5
B493
330
B46F
100
AcDbEntity
  8
3
  6
DASHED
100
AcDbText
 10
21.979511
 20
10.04873699999998
 30
0.0
 40
1.399999999999999
  1
3
100
AcDbText
  0
TEXT
  5
B494
330
B46F
100
AcDbEntity
  8
2
  6
Continuous
100
AcDbText
 10
19.97951099999999
 20
10.04873699999998
 30
0.0
 40
1.399999999999999
  1
2
100
AcDbText
  0
TEXT
  5
B495
330
B46F
100
AcDbEntity
  8
6
  6
Continuous
100
AcDbText
 10
27.979511
 20
10.04873699999998
 30
0.0
 40
1.399999999999999
  1
6
100
AcDbText
  0
TEXT
  5
B496
330
B46F
100
AcDbEntity
  8
5
  6
PHANTOM
100
AcDbText
 10
25.97951099999999
 20
10.04873699999998
 30
0.0
 40
1.399999999999999
  1
5
100
AcDbText
  0
LINE
  5
B497
330
B46F
100
AcDbEntity
  8
4
  6
CENTER
100
AcDbLine
 10
274.9383509999999
 20
83.815421
 30
0.0
 11
258.638351
 21
83.815421
 31
0.0
  0
LINE
  5
B498
330
B46F
100
AcDbEntity
  8
4
  6
CENTER
100
AcDbLine
 10
266.7883509999999
 20
91.965421
 30
0.0
 11
266.7883509999999
 21
75.66542099999998
 31
0.0
  0
LINE
  5
B499
330
B46F
100
AcDbEntity
  8
4
  6
CENTER
100
AcDbLine
 10
351.135467
 20
78.0
 30
0.0
 11
164.420654
 21
78.0
 31
0.0
  0
LINE
  5
B49A
330
B46F
100
AcDbEntity
  8
4
  6
CENTER
100
AcDbLine
 10
350.149991
 20
63.000028
 30
0.0
 11
333.8499909999999
 21
63.000028
 31
0.0
  0
LINE
  5
B49B
330
B46F
100
AcDbEntity
  8
4
  6
CENTER
100
AcDbLine
 10
341.999991
 20
71.15002800000002
 30
0.0
 11
341.999991
 21
41.079019
 31
0.0
  0
CIRCLE
  5
B49C
330
B46F
100
AcDbEntity
  8
1
  6
Continuous
100
AcDbCircle
 10
215.8235569999999
 20
80.10084
 30
0.0
 40
3.6
  0
CIRCLE
  5
B49D
330
B46F
100
AcDbEntity
  8
5
  6
PHANTOM
100
AcDbCircle
 10
315.077809
 20
73.50750500000002
 30
0.0
 40
3.6
  0
LINE
  5
B49E
330
B46F
100
AcDbEntity
  8
1
  6
Continuous
100
AcDbLine
 10
397.0
 20
179.592982
 30
0.0
 11
230.857168
 21
179.592982
 31
0.0
  0
LINE
  5
B49F
330
B46F
100
AcDbEntity
  8
1
  6
Continuous
100
AcDbLine
 10
397.0
 20
183.592982
 30
0.0
 11
230.857168
 21
183.592982
 31
0.0
  0
LINE
  5
B4A0
330
B46F
100
AcDbEntity
  8
1
  6
Continuous
100
AcDbLine
 10
397.0
 20
179.592982
 30
0.0
 11
397.0
 21
183.592982
 31
0.0
  0
ARC
  5
B4A1
330
B46F
100
AcDbEntity
  8
1
  6
Continuous
100
AcDbCircle
 10
187.0
 20
171.7412379999998
 30
0.0
 40
6.748407
100
AcDbArc
 50
189.7966669999999
 51
350.2033329999999
  0
ARC
  5
B4A2
330
B46F
100
AcDbEntity
  8
1
  6
Continuous
100
AcDbCircle
 10
187.0
 20
189.7929819999999
 30
0.0
 40
5.299999999999998
100
AcDbArc
 50
31.890792
 51
148.1092079999999
  0
ARC
  5
B4A3
330
B46F
100
AcDbEntity
  8
1
  6
Continuous
100
AcDbCircle
 10
266.7883509999999
 20
175.7412379999999
 30
0.0
 40
6.748407
100
AcDbArc
 50
189.7966669999999
 51
350.2033329999999
  0
ARC
  5
B4A4
330
B46F
100
AcDbEntity
  8
1
  6
Continuous
100
AcDbCircle
 10
266.7883509999999
 20
182.5929819999998
 30
0.0
 40
7.5
100
AcDbArc
 50
53.130102
 51
126.869898
  0
LINE
  5
B4A5
330
B46F
100
AcDbEntity
  8
1
  6
Continuous
100
AcDbLine
 10
397.0
 20
183.592982
 30
0.0
 11
397.0
 21
185.092982
 31
0.0
  0
LINE
  5
B4A6
330
B46F
100
AcDbEntity
  8
1
  6
Continuous
100
AcDbLine
 10
377.0
 20
183.592982
 30
0.0
 11
377.0
 21
185.092982
 31
0.0
  0
LINE
  5
B4A7
330
B46F
100
AcDbEntity
  8
1
  6
Continuous
100
AcDbLine
 10
177.0
 20
173.7929819999999
 30
0.0
 11
197.0
 21
173.7929819999999
 31
0.0
  0
LINE
  5
B4A8
330
B46F
100
AcDbEntity
  8
1
  6
Continuous
100
AcDbLine
 10
177.0
 20
174.592982
 30
0.0
 11
177.0
 21
173.7929819999999
 31
0.0
  0
LINE
  5
B4A9
330
B46F
100
AcDbEntity
  8
1
  6
Continuous
100
AcDbLine
 10
197.0
 20
174.592982
 30
0.0
 11
197.0
 21
173.7929819999999
 31
0.0
  0
LINE
  5
B4AA
330
B46F
100
AcDbEntity
  8
1
  6
Continuous
100
AcDbLine
 10
197.0
 20
188.592982
 30
0.0
 11
197.0
 21
189.3929819999999
 31
0.0
  0
LINE
  5
B4AB
330
B46F
100
AcDbEntity
  8
1
  6
Continuous
100
AcDbLine
 10
177.0
 20
189.3929819999999
 30
0.0
 11
197.0
 21
189.3929819999999
 31
0.0
  0
LINE
  5
B4AC
330
B46F
100
AcDbEntity
  8
1
  6
Continuous
100
AcDbLine
 10
177.0
 20
188.592982
 30
0.0
 11
177.0
 21
189.3929819999999
 31
0.0
  0
LINE
  5
B4AD
330
B46F
100
AcDbEntity
  8
1
  6
Continuous
100
AcDbLine
 10
183.0
 20
173.592982
 30
0.0
 11
183.0
 21
173.7929819999999
 31
0.0
  0
LINE
  5
B4AE
330
B46F
100
AcDbEntity
  8
1
  6
Continuous
100
AcDbLine
 10
183.0
 20
189.3929819999999
 30
0.0
 11
183.0
 21
189.592982
 31
0.0
  0
LINE
  5
B4AF
330
B46F
100
AcDbEntity
  8
1
  6
Continuous
100
AcDbLine
 10
191.0
 20
173.592982
 30
0.0
 11
191.0
 21
173.7929819999999
 31
0.0
  0
LINE
  5
B4B0
330
B46F
100
AcDbEntity
  8
1
  6
Continuous
100
AcDbLine
 10
191.0
 20
189.3929819999999
 30
0.0
 11
191.0
 21
189.592982
 31
0.0
  0
LINE
  5
B4B1
330
B46F
100
AcDbEntity
  8
1
  6
Continuous
100
AcDbLine
 10
275.2883509999999
 20
178.092982
 30
0.0
 11
258.2883509999999
 21
178.092982
 31
0.0
  0
LINE
  5
B4B2
330
B46F
100
AcDbEntity
  8
1
  6
Continuous
100
AcDbLine
 10
258.2883509999999
 20
185.092982
 30
0.0
 11
275.2883509999999
 21
185.092982
 31
0.0
  0
LINE
  5
B4B3
330
B46F
100
AcDbEntity
  8
1
  6
Continuous
100
AcDbLine
 10
230.156713
 20
174.592982
 30
0.0
 11
230.156713
 21
188.592982
 31
0.0
  0
LINE
  5
B4B4
330
B46F
100
AcDbEntity
  8
1
  6
Continuous
100
AcDbLine
 10
219.6981199999999
 20
172.442982
 30
0.0
 11
219.6981199999999
 21
174.442982
 31
0.0
  0
LINE
  5
B4B5
330
B46F
100
AcDbEntity
  8
1
  6
Continuous
100
AcDbLine
 10
219.6981199999999
 20
188.742982
 30
0.0
 11
219.6981199999999
 21
190.742982
 31
0.0
  0
LINE
  5
B4B6
330
B46F
100
AcDbEntity
  8
1
  6
Continuous
100
AcDbLine
 10
211.719285
 20
178.5929819999998
 30
0.0
 11
211.719285
 21
184.592982
 31
0.0
  0
LINE
  5
B4B7
330
B46F
100
AcDbEntity
  8
1
  6
Continuous
100
AcDbLine
 10
211.719285
 20
184.592982
 30
0.0
 11
217.703411
 21
181.592982
 31
0.0
  0
LINE
  5
B4B8
330
B46F
100
AcDbEntity
  8
1
  6
Continuous
100
AcDbLine
 10
217.703411
 20
181.592982
 30
0.0
 11
211.719285
 21
178.5929819999998
 31
0.0
  0
LINE
  5
B4B9
330
B46F
100
AcDbEntity
  8
1
  6
Continuous
100
AcDbLine
 10
230.857168
 20
179.592982
 30
0.0
 11
230.857168
 21
183.592982
 31
0.0
  0
ARC
  5
B4BA
330
B46F
100
AcDbEntity
  8
1
  6
Continuous
100
AcDbCircle
 10
243.749448
 20
173.3572669999998
 30
0.0
 40
3.714285999999998
100
AcDbArc
 50
194.250033
 51
345.7499669999998
  0
ARC
  5
B4BB
330
B46F
100
AcDbEntity
  8
1
  6
Continuous
100
AcDbCircle
 10
215.8235569999999
 20
173.3572669999998
 30
0.0
 40
3.714285999999998
100
AcDbArc
 50
194.250033
 51
345.7499669999998
  0
ARC
  5
B4BC
330
B46F
100
AcDbEntity
  8
1
  6
Continuous
100
AcDbCircle
 10
243.749448
 20
188.7388149999999
 30
0.0
 40
3.204166999999998
100
AcDbArc
 50
38.717988
 51
141.282012
  0
ARC
  5
B4BD
330
B46F
100
AcDbEntity
  8
1
  6
Continuous
100
AcDbCircle
 10
215.8235569999999
 20
188.7388149999999
 30
0.0
 40
3.204166999999998
100
AcDbArc
 50
38.717988
 51
141.282012
  0
LINE
  5
B4BE
330
B46F
100
AcDbEntity
  8
1
  6
Continuous
100
AcDbLine
 10
247.2494479999999
 20
177.092982
 30
0.0
 11
240.249448
 21
177.092982
 31
0.0
  0
LINE
  5
B4BF
330
B46F
100
AcDbEntity
  8
1
  6
Continuous
100
AcDbLine
 10
247.2494479999999
 20
186.092982
 30
0.0
 11
240.249448
 21
186.092982
 31
0.0
  0
LINE
  5
B4C0
330
B46F
100
AcDbEntity
  8
1
  6
Continuous
100
AcDbLine
 10
247.749448
 20
179.592982
 30
0.0
 11
247.749448
 21
177.5929819999998
 31
0.0
  0
LINE
  5
B4C1
330
B46F
100
AcDbEntity
  8
1
  6
Continuous
100
AcDbLine
 10
247.749448
 20
185.592982
 30
0.0
 11
247.749448
 21
183.592982
 31
0.0
  0
LINE
  5
B4C2
330
B46F
100
AcDbEntity
  8
1
  6
Continuous
100
AcDbLine
 10
239.749448
 20
179.592982
 30
0.0
 11
239.749448
 21
177.5929819999998
 31
0.0
  0
LINE
  5
B4C3
330
B46F
100
AcDbEntity
  8
1
  6
Continuous
100
AcDbLine
 10
239.749448
 20
185.592982
 30
0.0
 11
239.749448
 21
183.592982
 31
0.0
  0
LINE
  5
B4C4
330
B46F
100
AcDbEntity
  8
1
  6
Continuous
100
AcDbLine
 10
247.749448
 20
177.5929819999998
 30
0.0
 11
247.2494479999999
 21
177.092982
 31
0.0
  0
LINE
  5
B4C5
330
B46F
100
AcDbEntity
  8
1
  6
Continuous
100
AcDbLine
 10
240.249448
 20
177.092982
 30
0.0
 11
239.749448
 21
177.5929819999998
 31
0.0
  0
LINE
  5
B4C6
330
B46F
100
AcDbEntity
  8
1
  6
Continuous
100
AcDbLine
 10
247.2494479999999
 20
186.092982
 30
0.0
 11
247.749448
 21
185.592982
 31
0.0
  0
LINE
  5
B4C7
330
B46F
100
AcDbEntity
  8
1
  6
Continuous
100
AcDbLine
 10
240.249448
 20
186.092982
 30
0.0
 11
239.749448
 21
185.592982
 31
0.0
  0
LINE
  5
B4C8
330
B46F
100
AcDbEntity
  8
1
  6
Continuous
100
AcDbLine
 10
247.749448
 20
177.5929819999998
 30
0.0
 11
239.749448
 21
177.5929819999998
 31
0.0
  0
LINE
  5
B4C9
330
B46F
100
AcDbEntity
  8
1
  6
Continuous
100
AcDbLine
 10
247.749448
 20
185.592982
 30
0.0
 11
239.749448
 21
185.592982
 31
0.0
  0
LINE
  5
B4CA
330
B46F
100
AcDbEntity
  8
1
  6
Continuous
100
AcDbLine
 10
245.749448
 20
174.592982
 30
0.0
 11
245.749448
 21
174.442982
 31
0.0
  0
LINE
  5
B4CB
330
B46F
100
AcDbEntity
  8
1
  6
Continuous
100
AcDbLine
 10
245.749448
 20
177.092982
 30
0.0
 11
245.749448
 21
176.592982
 31
0.0
  0
LINE
  5
B4CC
330
B46F
100
AcDbEntity
  8
1
  6
Continuous
100
AcDbLine
 10
241.749448
 20
174.592982
 30
0.0
 11
241.749448
 21
174.442982
 31
0.0
  0
LINE
  5
B4CD
330
B46F
100
AcDbEntity
  8
1
  6
Continuous
100
AcDbLine
 10
241.749448
 20
177.092982
 30
0.0
 11
241.749448
 21
176.592982
 31
0.0
  0
LINE
  5
B4CE
330
B46F
100
AcDbEntity
  8
1
  6
Continuous
100
AcDbLine
 10
245.749448
 20
186.592982
 30
0.0
 11
245.749448
 21
186.092982
 31
0.0
  0
LINE
  5
B4CF
330
B46F
100
AcDbEntity
  8
1
  6
Continuous
100
AcDbLine
 10
245.749448
 20
188.742982
 30
0.0
 11
245.749448
 21
188.592982
 31
0.0
  0
LINE
  5
B4D0
330
B46F
100
AcDbEntity
  8
1
  6
Continuous
100
AcDbLine
 10
241.749448
 20
186.592982
 30
0.0
 11
241.749448
 21
186.092982
 31
0.0
  0
LINE
  5
B4D1
330
B46F
100
AcDbEntity
  8
1
  6
Continuous
100
AcDbLine
 10
241.749448
 20
188.742982
 30
0.0
 11
241.749448
 21
188.592982
 31
0.0
  0
LINE
  5
B4D2
330
B46F
100
AcDbEntity
  8
1
  6
Continuous
100
AcDbLine
 10
380.0
 20
179.092982
 30
0.0
 11
394.0
 21
179.092982
 31
0.0
  0
LINE
  5
B4D3
330
B46F
100
AcDbEntity
  8
1
  6
Continuous
100
AcDbLine
 10
381.0
 20
176.092982
 30
0.0
 11
393.0
 21
176.092982
 31
0.0
  0
LINE
  5
B4D4
330
B46F
100
AcDbEntity
  8
1
  6
Continuous
100
AcDbLine
 10
394.0
 20
177.092982
 30
0.0
 11
394.0
 21
179.092982
 31
0.0
  0
LINE
  5
B4D5
330
B46F
100
AcDbEntity
  8
1
  6
Continuous
100
AcDbLine
 10
380.0
 20
177.092982
 30
0.0
 11
380.0
 21
179.092982
 31
0.0
  0
LINE
  5
B4D6
330
B46F
100
AcDbEntity
  8
1
  6
Continuous
100
AcDbLine
 10
394.0
 20
177.092982
 30
0.0
 11
393.0
 21
176.092982
 31
0.0
  0
LINE
  5
B4D7
330
B46F
100
AcDbEntity
  8
1
  6
Continuous
100
AcDbLine
 10
380.0
 20
177.092982
 30
0.0
 11
381.0
 21
176.092982
 31
0.0
  0
LINE
  5
B4D8
330
B46F
100
AcDbEntity
  8
1
  6
Continuous
100
AcDbLine
 10
380.0
 20
177.092982
 30
0.0
 11
394.0
 21
177.092982
 31
0.0
  0
LINE
  5
B4D9
330
B46F
100
AcDbEntity
  8
1
  6
Continuous
100
AcDbLine
 10
392.0
 20
179.092982
 30
0.0
 11
392.0
 21
179.592982
 31
0.0
  0
LINE
  5
B4DA
330
B46F
100
AcDbEntity
  8
1
  6
Continuous
100
AcDbLine
 10
382.0
 20
179.092982
 30
0.0
 11
382.0
 21
179.592982
 31
0.0
  0
ARC
  5
B4DB
330
B46F
100
AcDbEntity
  8
1
  6
Continuous
100
AcDbCircle
 10
387.0
 20
184.030482
 30
0.0
 40
6.0625
100
AcDbArc
 50
42.07502199999999
 51
137.924978
  0
CIRCLE
  5
B4DC
330
B46F
100
AcDbEntity
  8
1
  6
Continuous
100
AcDbCircle
 10
387.0
 20
78.0
 30
0.0
 40
6.0
  0
LINE
  5
B4DD
330
B46F
100
AcDbEntity
  8
4
  6
CENTER
100
AcDbLine
 10
164.5
 20
51.0
 30
0.0
 11
174.5
 21
51.0
 31
0.0
  0
LINE
  5
B4DE
330
B46F
100
AcDbEntity
  8
1
  6
Continuous
100
AcDbLine
 10
275.2883509999999
 20
176.592982
 30
0.0
 11
275.2883509999999
 21
179.592982
 31
0.0
  0
LINE
  5
B4DF
330
B46F
100
AcDbEntity
  8
1
  6
Continuous
100
AcDbLine
 10
275.2883509999999
 20
183.592982
 30
0.0
 11
275.2883509999999
 21
186.592982
 31
0.0
  0
LINE
  5
B4E0
330
B46F
100
AcDbEntity
  8
1
  6
Continuous
100
AcDbLine
 10
258.2883509999999
 20
176.592982
 30
0.0
 11
258.2883509999999
 21
179.592982
 31
0.0
  0
LINE
  5
B4E1
330
B46F
100
AcDbEntity
  8
1
  6
Continuous
100
AcDbLine
 10
258.2883509999999
 20
183.592982
 30
0.0
 11
258.2883509999999
 21
186.592982
 31
0.0
  0
LINE
  5
B4E2
330
B46F
100
AcDbEntity
  8
1
  6
Continuous
100
AcDbLine
 10
191.0
 20
176.592982
 30
0.0
 11
191.0
 21
181.092982
 31
0.0
  0
LINE
  5
B4E3
330
B46F
100
AcDbEntity
  8
1
  6
Continuous
100
AcDbLine
 10
191.0
 20
182.092982
 30
0.0
 11
191.0
 21
186.592982
 31
0.0
  0
LINE
  5
B4E4
330
B46F
100
AcDbEntity
  8
1
  6
Continuous
100
AcDbLine
 10
183.0
 20
176.592982
 30
0.0
 11
183.0
 21
181.092982
 31
0.0
  0
LINE
  5
B4E5
330
B46F
100
AcDbEntity
  8
1
  6
Continuous
100
AcDbLine
 10
183.0
 20
182.092982
 30
0.0
 11
183.0
 21
186.592982
 31
0.0
  0
LINE
  5
B4E6
330
B46F
100
AcDbEntity
  8
4
  6
CENTER
100
AcDbLine
 10
164.5
 20
63.0
 30
0.0
 11
174.5
 21
63.0
 31
0.0
  0
LINE
  5
B4E7
330
B46F
100
AcDbEntity
  8
4
  6
CENTER
100
AcDbLine
 10
164.5
 20
93.0
 30
0.0
 11
174.5
 21
93.0
 31
0.0
  0
LINE
  5
B4E8
330
B46F
100
AcDbEntity
  8
4
  6
CENTER
100
AcDbLine
 10
356.999991
 20
40.500028
 30
0.0
 11
356.999991
 21
50.500028
 31
0.0
  0
LINE
  5
B4E9
330
B46F
100
AcDbEntity
  8
4
  6
CENTER
100
AcDbLine
 10
326.999991
 20
40.500028
 30
0.0
 11
326.999991
 21
50.500028
 31
0.0
  0
ARC
  5
B4EA
330
B46F
100
AcDbEntity
  8
5
  6
PHANTOM
100
AcDbCircle
 10
292.6488499999999
 20
-228.8205669999999
 30
0.0
 40
331.0
100
AcDbArc
 50
72.906684
 51
90.216746
  0
ARC
  5
B4EB
330
B46F
100
AcDbEntity
  8
5
  6
PHANTOM
100
AcDbCircle
 10
292.6488499999999
 20
-228.8205669999999
 30
0.0
 40
311.0
100
AcDbArc
 50
72.906684
 51
84.108406
  0
ARC
  5
B4EC
330
B46F
100
AcDbEntity
  8
5
  6
PHANTOM
100
AcDbCircle
 10
387.0
 20
78.0
 30
0.0
 40
10.0
100
AcDbArc
 50
252.906684
 51
72.906684
  0
LINE
  5
B4ED
330
B46F
100
AcDbEntity
  8
5
  6
PHANTOM
100
AcDbLine
 10
241.437371
 20
101.988071
 30
0.0
 11
291.558058
 21
102.1776749999998
 31
0.0
  0
CIRCLE
  5
B4EE
330
B46F
100
AcDbEntity
  8
5
  6
PHANTOM
100
AcDbCircle
 10
267.4749799999998
 20
92.08649900000001
 30
0.0
 40
6.65
  0
LINE
  5
B4EF
330
B46F
100
AcDbEntity
  8
5
  6
PHANTOM
100
AcDbLine
 10
241.513029
 20
81.98824100000001
 30
0.0
 11
243.0168
 21
81.99393
 31
0.0
  0
LINE
  5
B4F0
330
B46F
100
AcDbEntity
  8
5
  6
PHANTOM
100
AcDbLine
 10
297.375382
 20
69.681978
 30
0.0
 11
296.2846399999999
 21
66.88729000000001
 31
0.0
  0
LINE
  5
B4F1
330
B46F
100
AcDbEntity
  8
5
  6
PHANTOM
100
AcDbLine
 10
329.7447279999999
 20
57.0485
 30
0.0
 11
329.048556
 21
57.32020999999999
 31
0.0
  0
LINE
  5
B4F2
330
B46F
100
AcDbEntity
  8
5
  6
PHANTOM
100
AcDbLine
 10
285.5305379999999
 20
87.293853
 30
0.0
 11
281.280364
 21
88.95265899999998
 31
0.0
  0
LINE
  5
B4F3
330
B46F
100
AcDbEntity
  8
5
  6
PHANTOM
100
AcDbLine
 10
279.7533199999999
 20
85.04008499999997
 30
0.0
 11
284.0034939999998
 21
83.38127900000001
 31
0.0
  0
ARC
  5
B4F4
330
B46F
100
AcDbEntity
  8
5
  6
PHANTOM
100
AcDbCircle
 10
280.516842
 20
86.99637199999996
 30
0.0
 40
2.1
100
AcDbArc
 50
68.67972299999999
 51
248.679722
  0
ARC
  5
B4F5
330
B46F
100
AcDbEntity
  8
5
  6
PHANTOM
100
AcDbCircle
 10
267.4749569999999
 20
92.086524
 30
0.0
 40
9.999988999999999
100
AcDbArc
 50
68.67972299999999
 51
248.679722
  0
LINE
  5
B4F6
330
B46F
100
AcDbEntity
  8
5
  6
PHANTOM
100
AcDbLine
 10
297.375382
 20
69.681978
 30
0.0
 11
263.839172
 21
82.77087199999998
 31
0.0
  0
LINE
  5
B4F7
330
B46F
100
AcDbEntity
  8
5
  6
PHANTOM
100
AcDbLine
 10
345.6358
 20
72.31565399999998
 30
0.0
 11
271.110789
 21
101.402125
 31
0.0
  0
LINE
  5
B4F8
330
B46F
100
AcDbEntity
  8
5
  6
PHANTOM
100
AcDbLine
 10
329.048556
 20
57.32020999999999
 30
0.0
 11
327.9578129999998
 21
54.52552199999999
 31
0.0
  0
CIRCLE
  5
B4F9
330
B46F
100
AcDbEntity
  8
5
  6
PHANTOM
100
AcDbCircle
 10
341.999991
 20
63.000028
 30
0.0
 40
6.65
  0
LINE
  5
B4FA
330
B46F
100
AcDbEntity
  8
5
  6
PHANTOM
100
AcDbLine
 10
327.9578129999998
 20
54.52552199999999
 30
0.0
 11
315.0090769999998
 21
59.57930300000001
 31
0.0
  0
LINE
  5
B4FB
330
B46F
100
AcDbEntity
  8
5
  6
PHANTOM
100
AcDbLine
 10
305.693451
 20
63.21511199999999
 30
0.0
 11
296.2846399999999
 21
66.88729000000001
 31
0.0
  0
LINE
  5
B4FC
330
B46F
100
AcDbEntity
  8
1
  6
Continuous
100
AcDbLine
 10
363.999994
 20
68.00001400000001
 30
0.0
 11
409.999994
 21
67.999987
 31
0.0
  0
CIRCLE
  5
B4FD
330
B46F
100
AcDbEntity
  8
1
  6
Continuous
100
AcDbCircle
 10
410.0
 20
77.999987
 30
0.0
 40
4.299999999999998
  0
CIRCLE
  5
B4FE
330
B46F
100
AcDbEntity
  8
1
  6
Continuous
100
AcDbCircle
 10
410.0
 20
77.999987
 30
0.0
 40
2.149999999999999
  0
ARC
  5
B4FF
330
B46F
100
AcDbEntity
  8
1
  6
Continuous
100
AcDbCircle
 10
410.0
 20
77.999987
 30
0.0
 40
10.0
100
AcDbArc
 50
269.9999649999999
 51
89.99996499999998
  0
LINE
  5
B500
330
B46F
100
AcDbEntity
  8
4
  6
CENTER
100
AcDbLine
 10
364.0000039999998
 20
83.80001400000002
 30
0.0
 11
363.999997
 21
72.20001399999998
 31
0.0
  0
LINE
  5
B501
330
B46F
100
AcDbEntity
  8
4
  6
CENTER
100
AcDbLine
 10
410.000004
 20
83.79998699999999
 30
0.0
 11
409.9999969999998
 21
72.19998699999996
 31
0.0
  0
LINE
  5
B502
330
B46F
100
AcDbEntity
  8
4
  6
CENTER
100
AcDbLine
 10
422.245384
 20
77.99997900000002
 30
0.0
 11
351.135467
 21
78.000022
 31
0.0
  0
LINE
  5
B503
330
B46F
100
AcDbEntity
  8
4
  6
CENTER
100
AcDbLine
 10
387.0000089999999
 20
92.117806
 30
0.0
 11
386.999991
 21
63.37800999999998
 31
0.0
  0
LINE
  5
B504
330
B46F
100
AcDbEntity
  8
1
  6
Continuous
100
AcDbLine
 10
401.9999939999998
 20
67.99999099999999
 30
0.0
 11
402.000006
 21
87.99999099999999
 31
0.0
  0
LINE
  5
B505
330
B46F
100
AcDbEntity
  8
1
  6
Continuous
100
AcDbLine
 10
371.999994
 20
68.00001
 30
0.0
 11
371.9999959999999
 21
70.95375899999997
 31
0.0
  0
LINE
  5
B506
330
B46F
100
AcDbEntity
  8
1
  6
Continuous
100
AcDbLine
 10
388.1429109999999
 20
88.0
 30
0.0
 11
410.000006
 21
87.99998700000001
 31
0.0
  0
ARC
  5
B507
330
B46F
100
AcDbEntity
  8
1
  6
Continuous
100
AcDbCircle
 10
364.0
 20
78.00001399999998
 30
0.0
 40
10.0
100
AcDbArc
 50
205.4795959999999
 51
269.9999649999999
  0
LINE
  5
B508
330
B46F
100
AcDbEntity
  8
1
  6
Continuous
100
AcDbLine
 10
354.0
 20
196.592982
 30
0.0
 11
369.0
 21
196.592982
 31
0.0
  0
LINE
  5
B509
330
B46F
100
AcDbEntity
  8
1
  6
Continuous
100
AcDbLine
 10
354.0
 20
193.592982
 30
0.0
 11
354.0
 21
196.592982
 31
0.0
  0
LINE
  5
B50A
330
B46F
100
AcDbEntity
  8
1
  6
Continuous
100
AcDbLine
 10
354.0
 20
193.592982
 30
0.0
 11
369.0
 21
193.592982
 31
0.0
  0
LINE
  5
B50B
330
B46F
100
AcDbEntity
  8
1
  6
Continuous
100
AcDbLine
 10
372.0
 20
188.092982
 30
0.0
 11
372.0
 21
190.592982
 31
0.0
  0
ARC
  5
B50C
330
B46F
100
AcDbEntity
  8
1
  6
Continuous
100
AcDbCircle
 10
375.0
 20
188.092982
 30
0.0
 40
3.0
100
AcDbArc
 50
180.000005
 51
270.000001
  0
LINE
  5
B50D
330
B46F
100
AcDbEntity
  8
1
  6
Continuous
100
AcDbLine
 10
375.0
 20
188.092982
 30
0.0
 11
375.0
 21
190.592982
 31
0.0
  0
LINE
  5
B50E
330
B46F
100
AcDbEntity
  8
4
  6
CENTER
100
AcDbLine
 10
364.0
 20
191.469278
 30
0.0
 11
364.0
 21
199.0664909999999
 31
0.0
  0
LINE
  5
B50F
330
B46F
100
AcDbEntity
  8
1
  6
Continuous
100
AcDbLine
 10
375.0
 20
185.092982
 30
0.0
 11
399.0
 21
185.092982
 31
0.0
  0
LINE
  5
B510
330
B46F
100
AcDbEntity
  8
1
  6
Continuous
100
AcDbLine
 10
375.0
 20
188.092982
 30
0.0
 11
399.0
 21
188.092982
 31
0.0
  0
LINE
  5
B511
330
B46F
100
AcDbEntity
  8
4
  6
CENTER
100
AcDbLine
 10
387.0
 20
170.4100239999999
 30
0.0
 11
387.0
 21
196.592982
 31
0.0
  0
LINE
  5
B512
330
B46F
100
AcDbEntity
  8
1
  6
Continuous
100
AcDbLine
 10
399.0
 20
188.092982
 30
0.0
 11
399.0
 21
190.592982
 31
0.0
  0
LINE
  5
B513
330
B46F
100
AcDbEntity
  8
1
  6
Continuous
100
AcDbLine
 10
405.0
 20
196.592982
 30
0.0
 11
420.0
 21
196.592982
 31
0.0
  0
LINE
  5
B514
330
B46F
100
AcDbEntity
  8
1
  6
Continuous
100
AcDbLine
 10
405.0
 20
193.592982
 30
0.0
 11
420.0
 21
193.592982
 31
0.0
  0
LINE
  5
B515
330
B46F
100
AcDbEntity
  8
1
  6
Continuous
100
AcDbLine
 10
402.0
 20
188.092982
 30
0.0
 11
402.0
 21
190.592982
 31
0.0
  0
ARC
  5
B516
330
B46F
100
AcDbEntity
  8
1
  6
Continuous
100
AcDbCircle
 10
399.0
 20
188.092982
 30
0.0
 40
3.0
100
AcDbArc
 50
270.0000039999998
 51
0.000005
  0
LINE
  5
B517
330
B46F
100
AcDbEntity
  8
1
  6
Continuous
100
AcDbLine
 10
420.0
 20
193.592982
 30
0.0
 11
420.0
 21
196.592982
 31
0.0
  0
LINE
  5
B518
330
B46F
100
AcDbEntity
  8
4
  6
CENTER
100
AcDbLine
 10
410.0
 20
191.469278
 30
0.0
 11
410.0
 21
199.0664909999999
 31
0.0
  0
ARC
  5
B519
330
B46F
100
AcDbEntity
  8
1
  6
Continuous
100
AcDbCircle
 10
405.0
 20
190.592982
 30
0.0
 40
3.0
100
AcDbArc
 50
90.0
 51
180.0
  0
ARC
  5
B51A
330
B46F
100
AcDbEntity
  8
1
  6
Continuous
100
AcDbCircle
 10
369.0
 20
190.592982
 30
0.0
 40
3.0
100
AcDbArc
 50
0.0
 51
90.0
  0
ARC
  5
B51B
330
B46F
100
AcDbEntity
  8
1
  6
Continuous
100
AcDbCircle
 10
405.0
 20
190.592982
 30
0.0
 40
6.0
100
AcDbArc
 50
90.0
 51
180.0
  0
ARC
  5
B51C
330
B46F
100
AcDbEntity
  8
1
  6
Continuous
100
AcDbCircle
 10
369.0
 20
190.592982
 30
0.0
 40
6.0
100
AcDbArc
 50
0.0
 51
90.0
  0
LINE
  5
B51D
330
B46F
100
AcDbEntity
  8
1
  6
Continuous
100
AcDbLine
 10
197.0
 20
170.592982
 30
0.0
 11
173.0
 21
170.592982
 31
0.0
  0
LINE
  5
B51E
330
B46F
100
AcDbEntity
  8
1
  6
Continuous
100
AcDbLine
 10
197.0
 20
192.592982
 30
0.0
 11
173.0
 21
192.592982
 31
0.0
  0
LINE
  5
B51F
330
B46F
100
AcDbEntity
  8
4
  6
CENTER
100
AcDbLine
 10
187.0
 20
162.838473
 30
0.0
 11
187.0
 21
198.818982
 31
0.0
  0
LINE
  5
B520
330
B46F
100
AcDbEntity
  8
4
  6
CENTER
100
AcDbLine
 10
400.974401
 20
181.592982
 30
0.0
 11
161.3449909999999
 21
181.592982
 31
0.0
  0
LINE
  5
B521
330
B46F
100
AcDbEntity
  8
1
  6
Continuous
100
AcDbLine
 10
172.0
 20
173.592982
 30
0.0
 11
172.0
 21
189.592982
 31
0.0
  0
LINE
  5
B522
330
B46F
100
AcDbEntity
  8
1
  6
Continuous
100
AcDbLine
 10
197.0
 20
189.592982
 30
0.0
 11
197.0
 21
192.592982
 31
0.0
  0
LINE
  5
B523
330
B46F
100
AcDbEntity
  8
1
  6
Continuous
100
AcDbLine
 10
197.0
 20
170.592982
 30
0.0
 11
197.0
 21
173.592982
 31
0.0
  0
LINE
  5
B524
330
B46F
100
AcDbEntity
  8
1
  6
Continuous
100
AcDbLine
 10
169.0
 20
189.592982
 30
0.0
 11
172.0
 21
189.592982
 31
0.0
  0
LINE
  5
B525
330
B46F
100
AcDbEntity
  8
1
  6
Continuous
100
AcDbLine
 10
173.0
 20
173.592982
 30
0.0
 11
197.0
 21
173.592982
 31
0.0
  0
LINE
  5
B526
330
B46F
100
AcDbEntity
  8
1
  6
Continuous
100
AcDbLine
 10
169.0
 20
41.0
 30
0.0
 11
169.0
 21
115.0
 31
0.0
  0
LINE
  5
B527
330
B46F
100
AcDbEntity
  8
1
  6
Continuous
100
AcDbLine
 10
172.0
 20
93.0
 30
0.0
 11
172.0
 21
115.0
 31
0.0
  0
ARC
  5
B528
330
B46F
100
AcDbEntity
  8
1
  6
Continuous
100
AcDbCircle
 10
187.0
 20
78.0
 30
0.0
 40
10.0
100
AcDbArc
 50
286.8744939999999
 51
73.125506
  0
LINE
  5
B529
330
B46F
100
AcDbEntity
  8
1
  6
Continuous
100
AcDbLine
 10
172.0
 20
41.0
 30
0.0
 11
172.0
 21
63.0
 31
0.0
  0
LINE
  5
B52A
330
B46F
100
AcDbEntity
  8
4
  6
CENTER
100
AcDbLine
 10
164.5
 20
105.0
 30
0.0
 11
174.5
 21
105.0
 31
0.0
  0
LINE
  5
B52B
330
B46F
100
AcDbEntity
  8
1
  6
Continuous
100
AcDbLine
 10
172.0
 20
41.0
 30
0.0
 11
169.0
 21
41.0
 31
0.0
  0
LINE
  5
B52C
330
B46F
100
AcDbEntity
  8
1
  6
Continuous
100
AcDbLine
 10
172.0
 20
115.0
 30
0.0
 11
169.0
 21
115.0
 31
0.0
  0
LINE
  5
B52D
330
B46F
100
AcDbEntity
  8
1
  6
Continuous
100
AcDbLine
 10
169.0
 20
93.0
 30
0.0
 11
172.0
 21
93.0
 31
0.0
  0
LINE
  5
B52E
330
B46F
100
AcDbEntity
  8
1
  6
Continuous
100
AcDbLine
 10
169.0
 20
63.0
 30
0.0
 11
172.0
 21
63.0
 31
0.0
  0
LINE
  5
B52F
330
B46F
100
AcDbEntity
  8
1
  6
Continuous
100
AcDbLine
 10
189.9027629999999
 20
87.569429
 30
0.0
 11
172.0
 21
93.0
 31
0.0
  0
LINE
  5
B530
330
B46F
100
AcDbEntity
  8
1
  6
Continuous
100
AcDbLine
 10
189.9027629999999
 20
68.430571
 30
0.0
 11
172.0
 21
63.0
 31
0.0
  0
LINE
  5
B531
330
B46F
100
AcDbEntity
  8
1
  6
Continuous
100
AcDbLine
 10
209.724577
 20
172.442982
 30
0.0
 11
248.749448
 21
172.442982
 31
0.0
  0
LINE
  5
B532
330
B46F
100
AcDbEntity
  8
1
  6
Continuous
100
AcDbLine
 10
209.724577
 20
190.742982
 30
0.0
 11
248.749448
 21
190.742982
 31
0.0
  0
LINE
  5
B533
330
B46F
100
AcDbEntity
  8
1
  6
Continuous
100
AcDbLine
 10
219.356462
 20
174.442982
 30
0.0
 11
248.749448
 21
174.442982
 31
0.0
  0
LINE
  5
B534
330
B46F
100
AcDbEntity
  8
1
  6
Continuous
100
AcDbLine
 10
219.356462
 20
188.742982
 30
0.0
 11
248.749448
 21
188.742982
 31
0.0
  0
LINE
  5
B535
330
B46F
100
AcDbEntity
  8
1
  6
Continuous
100
AcDbLine
 10
248.749448
 20
190.742982
 30
0.0
 11
248.749448
 21
188.742982
 31
0.0
  0
LINE
  5
B536
330
B46F
100
AcDbEntity
  8
1
  6
Continuous
100
AcDbLine
 10
248.749448
 20
174.442982
 30
0.0
 11
248.749448
 21
172.442982
 31
0.0
  0
LINE
  5
B537
330
B46F
100
AcDbEntity
  8
1
  6
Continuous
100
AcDbLine
 10
209.724577
 20
190.742982
 30
0.0
 11
209.724577
 21
172.442982
 31
0.0
  0
LINE
  5
B538
330
B46F
100
AcDbEntity
  8
1
  6
Continuous
100
AcDbLine
 10
219.356462
 20
188.742982
 30
0.0
 11
219.356462
 21
174.442982
 31
0.0
  0
LINE
  5
B539
330
B46F
100
AcDbEntity
  8
1
  6
Continuous
100
AcDbLine
 10
221.351171
 20
188.742982
 30
0.0
 11
221.351171
 21
174.442982
 31
0.0
  0
CIRCLE
  5
B53A
330
B46F
100
AcDbEntity
  8
5
  6
PHANTOM
100
AcDbCircle
 10
288.9940779999998
 20
83.68774300000003
 30
0.0
 40
3.6
  0
LINE
  5
B53B
330
B46F
100
AcDbEntity
  8
5
  6
PHANTOM
100
AcDbLine
 10
306.738968
 20
71.39475299999998
 30
0.0
 11
287.1761769999998
 21
79.02992799999998
 31
0.0
  0
LINE
  5
B53C
330
B46F
100
AcDbEntity
  8
5
  6
PHANTOM
100
AcDbLine
 10
316.895711
 20
78.16531899999998
 30
0.0
 11
290.81198
 21
88.34555700000001
 31
0.0
  0
LINE
  5
B53D
330
B46F
100
AcDbEntity
  8
5
  6
PHANTOM
100
AcDbLine
 10
319.7356239999999
 20
71.68960300000001
 30
0.0
 11
314.172844
 21
57.436689
 31
0.0
  0
LINE
  5
B53E
330
B46F
100
AcDbEntity
  8
5
  6
PHANTOM
100
AcDbLine
 10
314.172844
 20
57.436689
 30
0.0
 11
304.857215
 21
61.072492
 31
0.0
  0
LINE
  5
B53F
330
B46F
100
AcDbEntity
  8
5
  6
PHANTOM
100
AcDbLine
 10
307.8749329999999
 20
68.804467
 30
0.0
 11
303.148393
 21
56.694161
 31
0.0
  0
LINE
  5
B540
330
B46F
100
AcDbEntity
  8
5
  6
PHANTOM
100
AcDbLine
 10
303.148393
 20
56.694161
 30
0.0
 11
301.285267
 21
57.421321
 31
0.0
  0
LINE
  5
B541
330
B46F
100
AcDbEntity
  8
5
  6
PHANTOM
100
AcDbLine
 10
302.9940889999999
 20
61.799653
 30
0.0
 11
301.285267
 21
57.421321
 31
0.0
  0
ARC
  5
B542
330
B46F
100
AcDbEntity
  8
5
  6
PHANTOM
100
AcDbCircle
 10
288.9940779999998
 20
83.68774300000003
 30
0.0
 40
5.0
100
AcDbArc
 50
68.67975799999999
 51
248.6797569999999
  0
ARC
  5
B543
330
B46F
100
AcDbEntity
  8
5
  6
PHANTOM
100
AcDbCircle
 10
315.077809
 20
73.50750500000002
 30
0.0
 40
5.0
100
AcDbArc
 50
338.6797659999999
 51
68.679762
  0
ARC
  5
B544
330
B46F
100
AcDbEntity
  8
5
  6
PHANTOM
100
AcDbCircle
 10
306.0118069999999
 20
69.531627
 30
0.0
 40
2.0
100
AcDbArc
 50
338.6797659999999
 51
68.679762
  0
ARC
  5
B545
330
B46F
100
AcDbEntity
  8
5
  6
PHANTOM
100
AcDbCircle
 10
304.857215
 20
61.072492
 30
0.0
 40
2.0
100
AcDbArc
 50
68.67976500000001
 51
158.679766
  0
LINE
  5
B546
330
B46F
100
AcDbEntity
  8
5
  6
PHANTOM
100
AcDbLine
 10
378.999991
 20
45.00002799999999
 30
0.0
 11
304.999991
 21
45.00002799999999
 31
0.0
  0
LINE
  5
B547
330
B46F
100
AcDbEntity
  8
5
  6
PHANTOM
100
AcDbLine
 10
326.999991
 20
48.000028
 30
0.0
 11
304.999991
 21
48.000028
 31
0.0
  0
ARC
  5
B548
330
B46F
100
AcDbEntity
  8
5
  6
PHANTOM
100
AcDbCircle
 10
341.999991
 20
63.000028
 30
0.0
 40
10.0
100
AcDbArc
 50
16.874494
 51
163.1255059999998
  0
LINE
  5
B549
330
B46F
100
AcDbEntity
  8
5
  6
PHANTOM
100
AcDbLine
 10
378.999991
 20
48.000028
 30
0.0
 11
356.999991
 21
48.000028
 31
0.0
  0
LINE
  5
B54A
330
B46F
100
AcDbEntity
  8
4
  6
CENTER
100
AcDbLine
 10
368.999991
 20
40.500028
 30
0.0
 11
368.999991
 21
50.500028
 31
0.0
  0
LINE
  5
B54B
330
B46F
100
AcDbEntity
  8
4
  6
CENTER
100
AcDbLine
 10
314.999991
 20
40.500028
 30
0.0
 11
314.999991
 21
50.500028
 31
0.0
  0
LINE
  5
B54C
330
B46F
100
AcDbEntity
  8
5
  6
PHANTOM
100
AcDbLine
 10
378.999991
 20
48.000028
 30
0.0
 11
378.999991
 21
45.00002799999999
 31
0.0
  0
LINE
  5
B54D
330
B46F
100
AcDbEntity
  8
5
  6
PHANTOM
100
AcDbLine
 10
304.999991
 20
48.000028
 30
0.0
 11
304.999991
 21
45.00002799999999
 31
0.0
  0
LINE
  5
B54E
330
B46F
100
AcDbEntity
  8
5
  6
PHANTOM
100
AcDbLine
 10
326.999991
 20
45.00002799999999
 30
0.0
 11
326.999991
 21
48.000028
 31
0.0
  0
LINE
  5
B54F
330
B46F
100
AcDbEntity
  8
5
  6
PHANTOM
100
AcDbLine
 10
356.999991
 20
45.00002799999999
 30
0.0
 11
356.999991
 21
48.000028
 31
0.0
  0
LINE
  5
B550
330
B46F
100
AcDbEntity
  8
5
  6
PHANTOM
100
AcDbLine
 10
332.430562
 20
65.90278999999999
 30
0.0
 11
326.999991
 21
48.000028
 31
0.0
  0
LINE
  5
B551
330
B46F
100
AcDbEntity
  8
5
  6
PHANTOM
100
AcDbLine
 10
351.5694199999999
 20
65.90278999999999
 30
0.0
 11
356.999991
 21
48.000028
 31
0.0
  0
ARC
  5
B552
330
B46F
100
AcDbEntity
  8
1
  6
Continuous
100
AcDbCircle
 10
314.0190589999999
 20
-234.5936369999999
 30
0.0
 40
331.0
100
AcDbArc
 50
76.858603
 51
94.16866500000001
  0
ARC
  5
B553
330
B46F
100
AcDbEntity
  8
1
  6
Continuous
100
AcDbCircle
 10
314.0190589999999
 20
-234.5936369999999
 30
0.0
 40
311.0
100
AcDbArc
 50
76.858603
 51
92.830113
  0
ARC
  5
B554
330
B46F
100
AcDbEntity
  8
1
  6
Continuous
100
AcDbCircle
 10
387.0
 20
78.0
 30
0.0
 40
10.0
100
AcDbArc
 50
256.8586029999999
 51
76.858603
  0
LINE
  5
B555
330
B46F
100
AcDbEntity
  8
1
  6
Continuous
100
AcDbLine
 10
267.5152779999999
 20
73.84187699999998
 30
0.0
 11
279.1863599999999
 21
74.692531
 31
0.0
  0
ARC
  5
B556
330
B46F
100
AcDbEntity
  8
1
  6
Continuous
100
AcDbCircle
 10
288.9583979999999
 20
75.40477199999997
 30
0.0
 40
6.0
100
AcDbArc
 50
30.70122299999999
 51
157.1329729999999
  0
ARC
  5
B557
330
B46F
100
AcDbEntity
  8
1
  6
Continuous
100
AcDbCircle
 10
278.822896
 20
79.679303
 30
0.0
 40
5.0
100
AcDbArc
 50
274.1686649999999
 51
337.132973
  0
ARC
  5
B558
330
B46F
100
AcDbEntity
  8
1
  6
Continuous
100
AcDbCircle
 10
298.4166529999999
 20
81.02094599999999
 30
0.0
 40
5.0
100
AcDbArc
 50
210.701223
 51
272.8301129999999
  0
CIRCLE
  5
B559
330
B46F
100
AcDbEntity
  8
1
  6
Continuous
100
AcDbCircle
 10
387.0
 20
78.0
 30
0.0
 40
7.0
  0
CIRCLE
  5
B55A
330
B46F
100
AcDbEntity
  8
1
  6
Continuous
100
AcDbCircle
 10
266.7883509999999
 20
83.815421
 30
0.0
 40
6.65
  0
LINE
  5
B55B
330
B46F
100
AcDbEntity
  8
1
  6
Continuous
100
AcDbLine
 10
230.156713
 20
91.172029
 30
0.0
 11
229.9386339999998
 21
94.16409200000002
 31
0.0
  0
LINE
  5
B55C
330
B46F
100
AcDbEntity
  8
1
  6
Continuous
100
AcDbLine
 10
188.1254449999999
 20
88.10855499999998
 30
0.0
 11
196.2466159999999
 21
88.700472
 31
0.0
  0
LINE
  5
B55D
330
B46F
100
AcDbEntity
  8
1
  6
Continuous
100
AcDbLine
 10
248.427718
 20
80.37161899999999
 30
0.0
 11
252.9780609999999
 21
80.70327399999998
 31
0.0
  0
LINE
  5
B55E
330
B46F
100
AcDbEntity
  8
1
  6
Continuous
100
AcDbLine
 10
252.6727509999998
 20
84.89217399999999
 30
0.0
 11
248.122408
 21
84.56051999999997
 31
0.0
  0
ARC
  5
B55F
330
B46F
100
AcDbEntity
  8
1
  6
Continuous
100
AcDbCircle
 10
252.825406
 20
82.797724
 30
0.0
 40
2.1
100
AcDbArc
 50
274.1686619999999
 51
94.168661
  0
ARC
  5
B560
330
B46F
100
AcDbEntity
  8
1
  6
Continuous
100
AcDbCircle
 10
266.788383
 20
83.815409
 30
0.0
 40
9.999988999999999
100
AcDbArc
 50
274.12315
 51
94.168661
  0
LINE
  5
B561
330
B46F
100
AcDbEntity
  8
1
  6
Continuous
100
AcDbLine
 10
230.156713
 20
91.172029
 30
0.0
 11
266.0614229999998
 21
93.78896500000001
 31
0.0
  0
LINE
  5
B562
330
B46F
100
AcDbEntity
  8
1
  6
Continuous
100
AcDbLine
 10
188.8373449999999
 20
68.10739000000001
 30
0.0
 11
267.5152779999999
 21
73.84187699999998
 31
0.0
  0
LINE
  5
B563
330
B46F
100
AcDbEntity
  8
1
  6
Continuous
100
AcDbLine
 10
196.2466159999999
 20
88.700472
 30
0.0
 11
196.028538
 21
91.69253500000001
 31
0.0
  0
CIRCLE
  5
B564
330
B46F
100
AcDbEntity
  8
1
  6
Continuous
100
AcDbCircle
 10
187.0
 20
78.0
 30
0.0
 40
6.65
  0
LINE
  5
B565
330
B46F
100
AcDbEntity
  8
1
  6
Continuous
100
AcDbLine
 10
196.028538
 20
91.69253500000001
 30
0.0
 11
209.8917799999999
 21
92.70296599999999
 31
0.0
  0
LINE
  5
B566
330
B46F
100
AcDbEntity
  8
1
  6
Continuous
100
AcDbLine
 10
219.865324
 20
93.42989300000001
 30
0.0
 11
229.9386339999998
 21
94.16409200000002
 31
0.0
  0
CIRCLE
  5
B567
330
B46F
100
AcDbEntity
  8
1
  6
Continuous
100
AcDbCircle
 10
243.749448
 20
82.136252
 30
0.0
 40
3.6
  0
LINE
  5
B568
330
B46F
100
AcDbEntity
  8
1
  6
Continuous
100
AcDbLine
 10
222.441571
 20
85.59646500000003
 30
0.0
 11
243.3859809999999
 21
87.123024
 31
0.0
  0
LINE
  5
B569
330
B46F
100
AcDbEntity
  8
1
  6
Continuous
100
AcDbLine
 10
216.187024
 20
75.114068
 30
0.0
 11
244.112914
 21
77.14948000000003
 31
0.0
  0
LINE
  5
B56A
330
B46F
100
AcDbEntity
  8
1
  6
Continuous
100
AcDbLine
 10
210.836785
 20
79.737373
 30
0.0
 11
209.724577
 21
94.99689700000001
 31
0.0
  0
LINE
  5
B56B
330
B46F
100
AcDbEntity
  8
1
  6
Continuous
100
AcDbLine
 10
209.724577
 20
94.99689700000001
 30
0.0
 11
219.6981199999999
 21
95.72383100000001
 31
0.0
  0
LINE
  5
B56C
330
B46F
100
AcDbEntity
  8
1
  6
Continuous
100
AcDbLine
 10
220.301475
 20
87.44578699999998
 30
0.0
 11
219.356462
 21
100.4113819999999
 31
0.0
  0
LINE
  5
B56D
330
B46F
100
AcDbEntity
  8
1
  6
Continuous
100
AcDbLine
 10
219.356462
 20
100.4113819999999
 30
0.0
 11
221.351171
 21
100.5567679999999
 31
0.0
  0
LINE
  5
B56E
330
B46F
100
AcDbEntity
  8
1
  6
Continuous
100
AcDbLine
 10
221.6928289999999
 20
95.869218
 30
0.0
 11
221.351171
 21
100.5567679999999
 31
0.0
  0
ARC
  5
B56F
330
B46F
100
AcDbEntity
  8
1
  6
Continuous
100
AcDbCircle
 10
243.749448
 20
82.136252
 30
0.0
 40
5.0
100
AcDbArc
 50
274.1686969999999
 51
94.168696
  0
ARC
  5
B570
330
B46F
100
AcDbEntity
  8
1
  6
Continuous
100
AcDbCircle
 10
215.8235569999999
 20
80.10084
 30
0.0
 40
5.0
100
AcDbArc
 50
184.1687049999999
 51
274.168701
  0
ARC
  5
B571
330
B46F
100
AcDbEntity
  8
1
  6
Continuous
100
AcDbCircle
 10
222.2961839999999
 20
87.59117399999999
 30
0.0
 40
2.0
100
AcDbArc
 50
184.1687049999999
 51
274.168701
  0
ARC
  5
B572
330
B46F
100
AcDbEntity
  8
1
  6
Continuous
100
AcDbCircle
 10
219.6981199999999
 20
95.72383100000001
 30
0.0
 40
2.0
100
AcDbArc
 50
274.1687039999999
 51
4.168705
  0
LINE
  5
B573
330
B46F
100
AcDbEntity
  8
1
  6
Continuous
100
AcDbLine
 10
196.028538
 20
174.592982
 30
0.0
 11
196.028538
 21
188.592982
 31
0.0
  0
LINE
  5
B574
330
B46F
100
AcDbEntity
  8
1
  6
Continuous
100
AcDbLine
 10
229.9386339999998
 20
174.592982
 30
0.0
 11
229.9386339999998
 21
188.592982
 31
0.0
  0
LINE
  5
B575
330
B46F
100
AcDbEntity
  8
1
  6
Continuous
100
AcDbLine
 10
276.7883719999999
 20
174.592982
 30
0.0
 11
276.7883719999999
 21
176.592982
 31
0.0
  0
LINE
  5
B576
330
B46F
100
AcDbEntity
  8
1
  6
Continuous
100
AcDbLine
 10
276.7883719999999
 20
186.592982
 30
0.0
 11
276.7883719999999
 21
188.592982
 31
0.0
  0
LINE
  5
B577
330
B46F
100
AcDbEntity
  8
1
  6
Continuous
100
AcDbLine
 10
177.0
 20
174.592982
 30
0.0
 11
177.0
 21
176.592982
 31
0.0
  0
LINE
  5
B578
330
B46F
100
AcDbEntity
  8
1
  6
Continuous
100
AcDbLine
 10
177.0
 20
186.592982
 30
0.0
 11
177.0
 21
188.592982
 31
0.0
  0
LINE
  5
B579
330
B46F
100
AcDbEntity
  8
1
  6
Continuous
100
AcDbLine
 10
177.0
 20
186.592982
 30
0.0
 11
196.028538
 21
186.592982
 31
0.0
  0
LINE
  5
B57A
330
B46F
100
AcDbEntity
  8
1
  6
Continuous
100
AcDbLine
 10
230.156713
 20
186.592982
 30
0.0
 11
276.7883719999999
 21
186.592982
 31
0.0
  0
LINE
  5
B57B
330
B46F
100
AcDbEntity
  8
1
  6
Continuous
100
AcDbLine
 10
177.0
 20
176.592982
 30
0.0
 11
196.028538
 21
176.592982
 31
0.0
  0
LINE
  5
B57C
330
B46F
100
AcDbEntity
  8
1
  6
Continuous
100
AcDbLine
 10
230.156713
 20
176.592982
 30
0.0
 11
276.7883719999999
 21
176.592982
 31
0.0
  0
LINE
  5
B57D
330
B46F
100
AcDbEntity
  8
4
  6
CENTER
100
AcDbLine
 10
266.7883509999999
 20
166.447525
 30
0.0
 11
266.7883509999999
 21
191.821598
 31
0.0
  0
LINE
  5
B57E
330
B46F
100
AcDbEntity
  8
1
  6
Continuous
100
AcDbLine
 10
177.0
 20
188.592982
 30
0.0
 11
209.724577
 21
188.592982
 31
0.0
  0
LINE
  5
B57F
330
B46F
100
AcDbEntity
  8
1
  6
Continuous
100
AcDbLine
 10
221.351171
 20
188.592982
 30
0.0
 11
276.7883719999999
 21
188.592982
 31
0.0
  0
LINE
  5
B580
330
B46F
100
AcDbEntity
  8
1
  6
Continuous
100
AcDbLine
 10
177.0
 20
174.592982
 30
0.0
 11
209.724577
 21
174.592982
 31
0.0
  0
LINE
  5
B581
330
B46F
100
AcDbEntity
  8
1
  6
Continuous
100
AcDbLine
 10
221.351171
 20
174.592982
 30
0.0
 11
276.7883719999999
 21
174.592982
 31
0.0
  0
LINE
  5
B582
330
B46F
100
AcDbEntity
  8
1
  6
Continuous
100
AcDbLine
 10
192.706979
 20
181.092982
 30
0.0
 11
182.5
 21
181.092982
 31
0.0
  0
LINE
  5
B583
330
B46F
100
AcDbEntity
  8
1
  6
Continuous
100
AcDbLine
 10
192.706979
 20
182.092982
 30
0.0
 11
182.5
 21
182.092982
 31
0.0
  0
ARC
  5
B584
330
B46F
100
AcDbEntity
  8
1
  6
Continuous
100
AcDbCircle
 10
182.5
 20
181.592982
 30
0.0
 40
0.5
100
AcDbArc
 50
90.0
 51
270.0
  0
LINE
  5
B585
330
B46F
100
AcDbEntity
  8
5
  6
PHANTOM
100
AcDbLine
 10
246.996381
 20
86.908978
 30
0.0
 11
243.0167979999999
 21
81.99392799999998
 31
0.0
  0
ARC
  5
B586
330
B46F
100
AcDbEntity
  8
5
  6
PHANTOM
100
AcDbCircle
 10
241.4752
 20
91.98817
 30
0.0
 40
10.0
100
AcDbArc
 50
90.21674899999998
 51
270.216746
  0
LINE
  5
B587
330
B46F
100
AcDbEntity
  8
5
  6
PHANTOM
100
AcDbLine
 10
246.996381
 20
86.908978
 30
0.0
 11
246.9922039999999
 21
87.90896999999999
 31
0.0
  0
LINE
  5
B588
330
B46F
100
AcDbEntity
  8
5
  6
PHANTOM
100
AcDbLine
 10
246.9922039999999
 20
87.90896999999999
 30
0.0
 11
244.490656
 21
87.89952499999998
 31
0.0
  0
ARC
  5
B589
330
B46F
100
AcDbEntity
  8
5
  6
PHANTOM
100
AcDbCircle
 10
244.47516
 20
91.999466
 30
0.0
 40
4.099999999999997
100
AcDbArc
 50
90.21674899999998
 51
270.216747
  0
LINE
  5
B58A
330
B46F
100
AcDbEntity
  8
5
  6
PHANTOM
100
AcDbLine
 10
253.3595609999999
 20
96.13314800000001
 30
0.0
 11
244.459643
 21
96.09947300000001
 31
0.0
  0
ARC
  5
B58B
330
B46F
100
AcDbEntity
  8
5
  6
PHANTOM
100
AcDbCircle
 10
253.3750779999998
 20
92.033141
 30
0.0
 40
4.099999999999997
100
AcDbArc
 50
0.21684
 51
90.21674500000001
  0
LINE
  5
B58C
330
B46F
100
AcDbEntity
  8
1
  6
Continuous
100
AcDbLine
 10
224.308872
 20
178.5489609999999
 30
0.0
 11
226.2251809999999
 21
178.5489609999999
 31
0.0
  0
LINE
  5
B58D
330
B46F
100
AcDbEntity
  8
1
  6
Continuous
100
AcDbLine
 10
226.3478829999999
 20
178.992852
 30
0.0
 11
224.7085549999999
 21
178.992852
 31
0.0
  0
LINE
  5
B58E
330
B46F
100
AcDbEntity
  8
1
  6
Continuous
100
AcDbLine
 10
224.431574
 20
179.437645
 30
0.0
 11
226.6239609999999
 21
179.437645
 31
0.0
  0
LINE
  5
B58F
330
B46F
100
AcDbEntity
  8
1
  6
Continuous
100
AcDbLine
 10
224.9945569999999
 20
180.3263289999999
 30
0.0
 11
224.146473
 21
180.3263289999999
 31
0.0
  0
LINE
  5
B590
330
B46F
100
AcDbEntity
  8
1
  6
Continuous
100
AcDbLine
 10
225.527768
 20
181.215012
 30
0.0
 11
225.527768
 21
180.7711219999999
 31
0.0
  0
ARC
  5
B591
330
B46F
100
AcDbEntity
  8
1
  6
Continuous
100
AcDbCircle
 10
225.527768
 20
178.770906
 30
0.0
 40
1.145318999999998
100
AcDbArc
 50
215.5377
 51
256.5374
  0
ARC
  5
B592
330
B46F
100
AcDbEntity
  8
1
  6
Continuous
100
AcDbCircle
 10
225.527768
 20
178.770906
 30
0.0
 40
1.145318999999998
100
AcDbArc
 50
270.0
 51
324.4619999999998
  0
ARC
  5
B593
330
B46F
100
AcDbEntity
  8
1
  6
Continuous
100
AcDbCircle
 10
224.7085549999999
 20
179.215699
 30
0.0
 40
0.222261
100
AcDbArc
 50
206.0144
 51
270.0
  0
ARC
  5
B594
330
B46F
100
AcDbEntity
  8
1
  6
Continuous
100
AcDbCircle
 10
229.261142
 20
181.436958
 30
0.0
 40
5.288524999999999
100
AcDbArc
 50
202.944
 51
206.0144
  0
ARC
  5
B595
330
B46F
100
AcDbEntity
  8
1
  6
Continuous
100
AcDbCircle
 10
224.431574
 20
179.393436
 30
0.0
 40
0.044452
100
AcDbArc
 50
90.0
 51
202.944
  0
ARC
  5
B596
330
B46F
100
AcDbEntity
  8
1
  6
Continuous
100
AcDbCircle
 10
226.3478829999999
 20
179.215699
 30
0.0
 40
0.222261
100
AcDbArc
 50
270.0
 51
333.9859999999998
  0
ARC
  5
B597
330
B46F
100
AcDbEntity
  8
1
  6
Continuous
100
AcDbCircle
 10
224.146473
 20
180.2821199999999
 30
0.0
 40
0.044452
100
AcDbArc
 50
90.0
 51
192.7289
  0
ARC
  5
B598
330
B46F
100
AcDbEntity
  8
1
  6
Continuous
100
AcDbCircle
 10
229.261142
 20
181.436958
 30
0.0
 40
5.288524999999999
100
AcDbArc
 50
192.7289
 51
193.2680999999999
  0
ARC
  5
B599
330
B46F
100
AcDbEntity
  8
1
  6
Continuous
100
AcDbCircle
 10
229.261142
 20
181.436958
 30
0.0
 40
5.288524999999999
100
AcDbArc
 50
193.2680999999999
 51
195.2574999999999
  0
ARC
  5
B59A
330
B46F
100
AcDbEntity
  8
1
  6
Continuous
100
AcDbCircle
 10
224.3738319999999
 20
180.104383
 30
0.0
 40
0.222261
100
AcDbArc
 50
195.2574999999999
 51
270.0
  0
ARC
  5
B59B
330
B46F
100
AcDbEntity
  8
1
  6
Continuous
100
AcDbCircle
 10
226.682605
 20
180.104383
 30
0.0
 40
0.222261
100
AcDbArc
 50
270.0
 51
344.7419999999998
  0
ARC
  5
B59C
330
B46F
100
AcDbEntity
  8
1
  6
Continuous
100
AcDbCircle
 10
221.795296
 20
181.436958
 30
0.0
 40
5.288524999999999
100
AcDbArc
 50
344.7419999999998
 51
344.794
  0
ARC
  5
B59D
330
B46F
100
AcDbEntity
  8
1
  6
Continuous
100
AcDbCircle
 10
221.795296
 20
181.436958
 30
0.0
 40
5.288524999999999
100
AcDbArc
 50
344.794
 51
347.2709999999998
  0
ARC
  5
B59E
330
B46F
100
AcDbEntity
  8
1
  6
Continuous
100
AcDbCircle
 10
226.9099639999998
 20
180.2821199999999
 30
0.0
 40
0.044452
100
AcDbArc
 50
347.2709999999998
 51
90.0
  0
LINE
  5
B59F
330
B46F
100
AcDbEntity
  8
1
  6
Continuous
100
AcDbLine
 10
224.3738319999999
 20
179.881536
 30
0.0
 11
226.682605
 21
179.881536
 31
0.0
  0
LINE
  5
B5A0
330
B46F
100
AcDbEntity
  8
1
  6
Continuous
100
AcDbLine
 10
226.9099639999998
 20
180.3263289999999
 30
0.0
 11
226.0609779999998
 21
180.3263289999999
 31
0.0
  0
LINE
  5
B5A1
330
B46F
100
AcDbEntity
  8
1
  6
Continuous
100
AcDbLine
 10
224.0147499999999
 20
180.7711219999999
 30
0.0
 11
227.0416879999999
 21
180.7711219999999
 31
0.0
  0
LINE
  5
B5A2
330
B46F
100
AcDbEntity
  8
1
  6
Continuous
100
AcDbLine
 10
223.977759
 20
181.215012
 30
0.0
 11
227.0786789999999
 21
181.215012
 31
0.0
  0
ARC
  5
B5A3
330
B46F
100
AcDbEntity
  8
1
  6
Continuous
100
AcDbCircle
 10
226.6239609999999
 20
179.393436
 30
0.0
 40
0.044452
100
AcDbArc
 50
337.0559999999999
 51
90.0
  0
ARC
  5
B5A4
330
B46F
100
AcDbEntity
  8
1
  6
Continuous
100
AcDbCircle
 10
221.795296
 20
181.436958
 30
0.0
 40
5.288524999999999
100
AcDbArc
 50
333.9859999999998
 51
337.0559999999999
  0
LINE
  5
B5A5
330
B46F
100
AcDbEntity
  8
1
  6
Continuous
100
AcDbLine
 10
225.527768
 20
182.548489
 30
0.0
 11
225.527768
 21
182.3265439999999
 31
0.0
  0
ARC
  5
B5A6
330
B46F
100
AcDbEntity
  8
1
  6
Continuous
100
AcDbCircle
 10
224.2736859999999
 20
182.3265439999999
 30
0.0
 40
0.222261
100
AcDbArc
 50
90.0
 51
169.896
  0
ARC
  5
B5A7
330
B46F
100
AcDbEntity
  8
1
  6
Continuous
100
AcDbCircle
 10
226.782751
 20
182.3265439999999
 30
0.0
 40
0.222261
100
AcDbArc
 50
10.10399999999999
 51
90.0
  0
ARC
  5
B5A8
330
B46F
100
AcDbEntity
  8
1
  6
Continuous
100
AcDbCircle
 10
229.261142
 20
181.436958
 30
0.0
 40
5.288524999999999
100
AcDbArc
 50
169.896
 51
172.2069999999999
  0
ARC
  5
B5A9
330
B46F
100
AcDbEntity
  8
1
  6
Continuous
100
AcDbCircle
 10
224.0652739999999
 20
182.148807
 30
0.0
 40
0.044452
100
AcDbArc
 50
172.2069999999999
 51
270.0
  0
ARC
  5
B5AA
330
B46F
100
AcDbEntity
  8
1
  6
Continuous
100
AcDbCircle
 10
226.991164
 20
182.148807
 30
0.0
 40
0.044452
100
AcDbArc
 50
270.0
 51
7.792999999999999
  0
ARC
  5
B5AB
330
B46F
100
AcDbEntity
  8
1
  6
Continuous
100
AcDbCircle
 10
221.795296
 20
181.436958
 30
0.0
 40
5.288524999999999
100
AcDbArc
 50
7.792999999999999
 51
10.10399999999999
  0
LINE
  5
B5AC
330
B46F
100
AcDbEntity
  8
1
  6
Continuous
100
AcDbLine
 10
223.977759
 20
181.6598049999998
 30
0.0
 11
227.0786789999999
 21
181.6598049999998
 31
0.0
  0
LINE
  5
B5AD
330
B46F
100
AcDbEntity
  8
1
  6
Continuous
100
AcDbLine
 10
224.0652739999999
 20
182.1036959999999
 30
0.0
 11
226.991164
 21
182.1036959999999
 31
0.0
  0
LINE
  5
B5AE
330
B46F
100
AcDbEntity
  8
1
  6
Continuous
100
AcDbLine
 10
224.9945569999999
 20
182.548489
 30
0.0
 11
224.2736859999999
 21
182.548489
 31
0.0
  0
LINE
  5
B5AF
330
B46F
100
AcDbEntity
  8
1
  6
Continuous
100
AcDbLine
 10
224.276393
 20
183.4371729999998
 30
0.0
 11
225.305822
 21
183.4371729999998
 31
0.0
  0
LINE
  5
B5B0
330
B46F
100
AcDbEntity
  8
1
  6
Continuous
100
AcDbLine
 10
225.305822
 20
183.881966
 30
0.0
 11
224.3566899999999
 21
183.881966
 31
0.0
  0
LINE
  5
B5B1
330
B46F
100
AcDbEntity
  8
1
  6
Continuous
100
AcDbLine
 10
225.527768
 20
183.659118
 30
0.0
 11
226.594188
 21
183.659118
 31
0.0
  0
LINE
  5
B5B2
330
B46F
100
AcDbEntity
  8
1
  6
Continuous
100
AcDbLine
 10
226.3596119999998
 20
184.1075199999999
 30
0.0
 11
224.4866089999999
 21
184.6100549999999
 31
0.0
  0
LINE
  5
B5B3
330
B46F
100
AcDbEntity
  8
1
  6
Continuous
100
AcDbLine
 10
225.527768
 20
185.248825
 30
0.0
 11
225.527768
 21
184.3303679999999
 31
0.0
  0
ARC
  5
B5B4
330
B46F
100
AcDbEntity
  8
1
  6
Continuous
100
AcDbCircle
 10
225.305822
 20
183.659118
 30
0.0
 40
0.222261
100
AcDbArc
 50
270.0
 51
90.0
  0
ARC
  5
B5B5
330
B46F
100
AcDbEntity
  8
1
  6
Continuous
100
AcDbCircle
 10
225.527768
 20
184.103911
 30
0.0
 40
1.145318999999998
100
AcDbArc
 50
62.24999999999999
 51
144.462
  0
ARC
  5
B5B6
330
B46F
100
AcDbEntity
  8
1
  6
Continuous
100
AcDbCircle
 10
225.527768
 20
184.103911
 30
0.0
 40
1.145318999999998
100
AcDbArc
 50
35.53799999999999
 51
45.69899999999999
  0
LINE
  5
B5B7
330
B46F
100
AcDbEntity
  8
1
  6
Continuous
100
AcDbLine
 10
226.782751
 20
182.548489
 30
0.0
 11
225.527768
 21
182.548489
 31
0.0
  0
LINE
  5
B5B8
330
B46F
100
AcDbEntity
  8
1
  6
Continuous
100
AcDbLine
 10
224.0670779999999
 20
182.9923799999999
 30
0.0
 11
226.849515
 21
182.9923799999999
 31
0.0
  0
ARC
  5
B5B9
330
B46F
100
AcDbEntity
  8
1
  6
Continuous
100
AcDbCircle
 10
221.795296
 20
181.436958
 30
0.0
 40
5.732929999999998
100
AcDbArc
 50
324.4619999999998
 51
35.53799999999999
  0
ARC
  5
B5BA
330
B46F
100
AcDbEntity
  8
1
  6
Continuous
100
AcDbCircle
 10
229.261142
 20
181.436958
 30
0.0
 40
5.732929999999998
100
AcDbArc
 50
144.462
 51
215.5377
  0
LINE
  5
B5BB
330
B46F
100
AcDbEntity
  8
4
  6
CENTER
100
AcDbLine
 10
187.0
 20
64.327717
 30
0.0
 11
187.0
 21
91.88196600000001
 31
0.0
  0
LINE
  5
B5BC
330
B46F
100
AcDbEntity
  8
4
  6
CENTER
100
AcDbLine
 10
237.2494479999998
 20
82.136252
 30
0.0
 11
250.249448
 21
82.136252
 31
0.0
  0
LINE
  5
B5BD
330
B46F
100
AcDbEntity
  8
4
  6
CENTER
100
AcDbLine
 10
243.749448
 20
75.636252
 30
0.0
 11
243.749448
 21
88.63625199999999
 31
0.0
  0
LINE
  5
B5BE
330
B46F
100
AcDbEntity
  8
4
  6
CENTER
100
AcDbLine
 10
209.323557
 20
80.10084
 30
0.0
 11
222.3235569999999
 21
80.10084
 31
0.0
  0
LINE
  5
B5BF
330
B46F
100
AcDbEntity
  8
4
  6
CENTER
100
AcDbLine
 10
215.8235569999999
 20
73.60084
 30
0.0
 11
215.8235569999999
 21
86.60084000000003
 31
0.0
  0
LINE
  5
B5C0
330
B46F
100
AcDbEntity
  8
4
  6
CENTER
100
AcDbLine
 10
256.7598039999999
 20
83.08448400000001
 30
0.0
 11
290.845615
 21
85.568849
 31
0.0
  0
ARC
  5
B5C1
330
B46F
100
AcDbEntity
  8
4
  6
CENTER
100
AcDbCircle
 10
314.0190589999999
 20
-234.5936369999999
 30
0.0
 40
321.0
100
AcDbArc
 50
74.69872599999998
 51
94.16866500000001
  0
LINE
  5
B5C2
330
B46F
100
AcDbEntity
  8
1
  6
Continuous
100
AcDbLine
 10
169.0
 20
173.592982
 30
0.0
 11
169.0
 21
189.592982
 31
0.0
  0
ARC
  5
B5C3
330
B46F
100
AcDbEntity
  8
1
  6
Continuous
100
AcDbCircle
 10
173.0
 20
174.592982
 30
0.0
 40
1.0
100
AcDbArc
 50
180.0
 51
270.0
  0
ARC
  5
B5C4
330
B46F
100
AcDbEntity
  8
1
  6
Continuous
100
AcDbCircle
 10
173.0
 20
188.592982
 30
0.0
 40
1.0
100
AcDbArc
 50
90.0
 51
180.0
  0
ARC
  5
B5C5
330
B46F
100
AcDbEntity
  8
1
  6
Continuous
100
AcDbCircle
 10
173.0
 20
188.592982
 30
0.0
 40
4.0
100
AcDbArc
 50
90.0
 51
165.5224879999998
  0
ARC
  5
B5C6
330
B46F
100
AcDbEntity
  8
1
  6
Continuous
100
AcDbCircle
 10
173.0
 20
174.592982
 30
0.0
 40
4.0
100
AcDbArc
 50
194.4775119999999
 51
270.0
  0
LINE
  5
B5C7
330
B46F
100
AcDbEntity
  8
1
  6
Continuous
100
AcDbLine
 10
173.0
 20
189.592982
 30
0.0
 11
197.0
 21
189.592982
 31
0.0
  0
LINE
  5
B5C8
330
B46F
100
AcDbEntity
  8
1
  6
Continuous
100
AcDbLine
 10
169.0
 20
173.592982
 30
0.0
 11
172.0
 21
173.592982
 31
0.0
  0
LINE
  5
B5C9
330
B46F
100
AcDbEntity
  8
4
  6
CENTER
100
AcDbLine
 10
243.749448
 20
168.297525
 30
0.0
 11
243.749448
 21
193.6715979999999
 31
0.0
  0
LINE
  5
B5CA
330
B46F
100
AcDbEntity
  8
4
  6
CENTER
100
AcDbLine
 10
215.8235569999999
 20
168.297525
 30
0.0
 11
215.8235569999999
 21
193.6715979999999
 31
0.0
  0
LINE
  5
B5CB
330
B46F
100
AcDbEntity
  8
1
  6
Continuous
100
AcDbLine
 10
173.0
 20
380.778946
 30
0.0
 11
197.0
 21
380.778946
 31
0.0
  0
LINE
  5
B5CC
330
B46F
100
AcDbEntity
  8
1
  6
Continuous
100
AcDbLine
 10
173.0
 20
396.778946
 30
0.0
 11
197.0
 21
396.778946
 31
0.0
  0
LINE
  5
B5CD
330
B46F
100
AcDbEntity
  8
1
  6
Continuous
100
AcDbLine
 10
177.0
 20
381.778946
 30
0.0
 11
276.7883719999999
 21
381.778946
 31
0.0
  0
LINE
  5
B5CE
330
B46F
100
AcDbEntity
  8
1
  6
Continuous
100
AcDbLine
 10
177.0
 20
395.778946
 30
0.0
 11
276.7883719999999
 21
395.778946
 31
0.0
  0
LINE
  5
B5CF
330
B46F
100
AcDbEntity
  8
1
  6
Continuous
100
AcDbLine
 10
172.0
 20
396.778946
 30
0.0
 11
172.0
 21
380.778946
 31
0.0
  0
LINE
  5
B5D0
330
B46F
100
AcDbEntity
  8
1
  6
Continuous
100
AcDbLine
 10
169.0
 20
396.778946
 30
0.0
 11
169.0
 21
380.778946
 31
0.0
  0
LINE
  5
B5D1
330
B46F
100
AcDbEntity
  8
1
  6
Continuous
100
AcDbLine
 10
191.0
 20
383.778946
 30
0.0
 11
191.0
 21
393.778946
 31
0.0
  0
LINE
  5
B5D2
330
B46F
100
AcDbEntity
  8
1
  6
Continuous
100
AcDbLine
 10
183.0
 20
393.778946
 30
0.0
 11
183.0
 21
389.278946
 31
0.0
  0
LINE
  5
B5D3
330
B46F
100
AcDbEntity
  8
1
  6
Continuous
100
AcDbLine
 10
196.028538
 20
383.778946
 30
0.0
 11
196.028538
 21
384.551871
 31
0.0
  0
LINE
  5
B5D4
330
B46F
100
AcDbEntity
  8
4
  6
CENTER
100
AcDbLine
 10
187.0
 20
407.533455
 30
0.0
 11
187.0
 21
371.552946
 31
0.0
  0
LINE
  5
B5D5
330
B46F
100
AcDbEntity
  8
1
  6
Continuous
100
AcDbLine
 10
197.0
 20
399.778946
 30
0.0
 11
173.0
 21
399.778946
 31
0.0
  0
LINE
  5
B5D6
330
B46F
100
AcDbEntity
  8
1
  6
Continuous
100
AcDbLine
 10
169.0
 20
396.778946
 30
0.0
 11
172.0
 21
396.778946
 31
0.0
  0
ARC
  5
B5D7
330
B46F
100
AcDbEntity
  8
1
  6
Continuous
100
AcDbCircle
 10
173.0
 20
395.778946
 30
0.0
 40
4.0
100
AcDbArc
 50
90.0
 51
165.5224879999998
  0
ARC
  5
B5D8
330
B46F
100
AcDbEntity
  8
1
  6
Continuous
100
AcDbCircle
 10
173.0
 20
395.778946
 30
0.0
 40
1.0
100
AcDbArc
 50
90.0
 51
180.0
  0
ARC
  5
B5D9
330
B46F
100
AcDbEntity
  8
1
  6
Continuous
100
AcDbCircle
 10
187.0
 20
398.63069
 30
0.0
 40
6.748407
100
AcDbArc
 50
9.796666999999999
 51
170.2033329999999
  0
LINE
  5
B5DA
330
B46F
100
AcDbEntity
  8
1
  6
Continuous
100
AcDbLine
 10
177.0
 20
396.5789459999998
 30
0.0
 11
197.0
 21
396.5789459999998
 31
0.0
  0
LINE
  5
B5DB
330
B46F
100
AcDbEntity
  8
1
  6
Continuous
100
AcDbLine
 10
177.0
 20
395.778946
 30
0.0
 11
177.0
 21
396.5789459999998
 31
0.0
  0
LINE
  5
B5DC
330
B46F
100
AcDbEntity
  8
1
  6
Continuous
100
AcDbLine
 10
183.0
 20
396.778946
 30
0.0
 11
183.0
 21
396.5789459999998
 31
0.0
  0
LINE
  5
B5DD
330
B46F
100
AcDbEntity
  8
1
  6
Continuous
100
AcDbLine
 10
177.0
 20
395.778946
 30
0.0
 11
177.0
 21
393.778946
 31
0.0
  0
LINE
  5
B5DE
330
B46F
100
AcDbEntity
  8
1
  6
Continuous
100
AcDbLine
 10
197.0
 20
399.778946
 30
0.0
 11
197.0
 21
396.778946
 31
0.0
  0
LINE
  5
B5DF
330
B46F
100
AcDbEntity
  8
1
  6
Continuous
100
AcDbLine
 10
197.0
 20
395.778946
 30
0.0
 11
197.0
 21
396.5789459999998
 31
0.0
  0
LINE
  5
B5E0
330
B46F
100
AcDbEntity
  8
1
  6
Continuous
100
AcDbLine
 10
191.0
 20
396.778946
 30
0.0
 11
191.0
 21
396.5789459999998
 31
0.0
  0
LINE
  5
B5E1
330
B46F
100
AcDbEntity
  8
1
  6
Continuous
100
AcDbLine
 10
197.0
 20
377.778946
 30
0.0
 11
173.0
 21
377.778946
 31
0.0
  0
LINE
  5
B5E2
330
B46F
100
AcDbEntity
  8
1
  6
Continuous
100
AcDbLine
 10
169.0
 20
380.778946
 30
0.0
 11
172.0
 21
380.778946
 31
0.0
  0
ARC
  5
B5E3
330
B46F
100
AcDbEntity
  8
1
  6
Continuous
100
AcDbCircle
 10
173.0
 20
381.778946
 30
0.0
 40
4.0
100
AcDbArc
 50
194.4775119999999
 51
270.0
  0
ARC
  5
B5E4
330
B46F
100
AcDbEntity
  8
1
  6
Continuous
100
AcDbCircle
 10
173.0
 20
381.778946
 30
0.0
 40
1.0
100
AcDbArc
 50
180.0
 51
270.0
  0
ARC
  5
B5E5
330
B46F
100
AcDbEntity
  8
1
  6
Continuous
100
AcDbCircle
 10
187.0
 20
380.5789459999999
 30
0.0
 40
5.299999999999998
100
AcDbArc
 50
211.8907919999998
 51
328.109208
  0
LINE
  5
B5E6
330
B46F
100
AcDbEntity
  8
1
  6
Continuous
100
AcDbLine
 10
177.0
 20
380.978946
 30
0.0
 11
197.0
 21
380.978946
 31
0.0
  0
LINE
  5
B5E7
330
B46F
100
AcDbEntity
  8
1
  6
Continuous
100
AcDbLine
 10
192.706979
 20
389.278946
 30
0.0
 11
191.0
 21
389.278946
 31
0.0
  0
LINE
  5
B5E8
330
B46F
100
AcDbEntity
  8
1
  6
Continuous
100
AcDbLine
 10
192.28743
 20
388.278946
 30
0.0
 11
191.0
 21
388.278946
 31
0.0
  0
LINE
  5
B5E9
330
B46F
100
AcDbEntity
  8
1
  6
Continuous
100
AcDbLine
 10
177.0
 20
381.778946
 30
0.0
 11
177.0
 21
380.978946
 31
0.0
  0
LINE
  5
B5EA
330
B46F
100
AcDbEntity
  8
1
  6
Continuous
100
AcDbLine
 10
183.0
 20
380.978946
 30
0.0
 11
183.0
 21
380.778946
 31
0.0
  0
LINE
  5
B5EB
330
B46F
100
AcDbEntity
  8
1
  6
Continuous
100
AcDbLine
 10
183.0
 20
388.278946
 30
0.0
 11
183.0
 21
383.778946
 31
0.0
  0
LINE
  5
B5EC
330
B46F
100
AcDbEntity
  8
1
  6
Continuous
100
AcDbLine
 10
177.0
 20
383.778946
 30
0.0
 11
177.0
 21
381.778946
 31
0.0
  0
ARC
  5
B5ED
330
B46F
100
AcDbEntity
  8
1
  6
Continuous
100
AcDbCircle
 10
182.5
 20
388.778946
 30
0.0
 40
0.5
100
AcDbArc
 50
90.0
 51
270.0
  0
LINE
  5
B5EE
330
B46F
100
AcDbEntity
  8
1
  6
Continuous
100
AcDbLine
 10
197.0
 20
380.778946
 30
0.0
 11
197.0
 21
377.778946
 31
0.0
  0
LINE
  5
B5EF
330
B46F
100
AcDbEntity
  8
1
  6
Continuous
100
AcDbLine
 10
197.0
 20
381.778946
 30
0.0
 11
197.0
 21
380.978946
 31
0.0
  0
LINE
  5
B5F0
330
B46F
100
AcDbEntity
  8
1
  6
Continuous
100
AcDbLine
 10
191.0
 20
380.978946
 30
0.0
 11
191.0
 21
380.778946
 31
0.0
  0
LINE
  5
B5F1
330
B46F
100
AcDbEntity
  8
1
  6
Continuous
100
AcDbLine
 10
195.5403489999999
 20
392.8657709999998
 30
0.0
 11
196.9509769999999
 21
384.8657709999998
 31
0.0
  0
ARC
  5
B5F2
330
B46F
100
AcDbEntity
  8
1
  6
Continuous
100
AcDbCircle
 10
196.458574
 20
384.778946
 30
0.0
 40
0.5
100
AcDbArc
 50
190.000087
 51
10.00008699999999
  0
LINE
  5
B5F3
330
B46F
100
AcDbEntity
  8
1
  6
Continuous
100
AcDbLine
 10
194.524922
 20
392.8657709999998
 30
0.0
 11
195.96617
 21
384.692121
 31
0.0
  0
ARC
  5
B5F4
330
B46F
100
AcDbEntity
  8
1
  6
Continuous
100
AcDbCircle
 10
194.4277199999999
 20
384.778946
 30
0.0
 40
0.5
100
AcDbArc
 50
190.000087
 51
10.00008699999999
  0
LINE
  5
B5F5
330
B46F
100
AcDbEntity
  8
1
  6
Continuous
100
AcDbLine
 10
192.5246879999999
 20
392.692121
 30
0.0
 11
193.9353159999998
 21
384.692121
 31
0.0
  0
ARC
  5
B5F6
330
B46F
100
AcDbEntity
  8
1
  6
Continuous
100
AcDbCircle
 10
195.0479449999999
 20
392.7789459999999
 30
0.0
 40
0.5
100
AcDbArc
 50
10.00008699999999
 51
190.000087
  0
ARC
  5
B5F7
330
B46F
100
AcDbEntity
  8
1
  6
Continuous
100
AcDbCircle
 10
194.032519
 20
392.7789459999999
 30
0.0
 40
0.5
100
AcDbArc
 50
10.00008699999999
 51
190.000087
  0
LINE
  5
B5F8
330
B46F
100
AcDbEntity
  8
1
  6
Continuous
100
AcDbLine
 10
193.5094949999999
 20
392.8657709999998
 30
0.0
 11
194.9507429999999
 21
384.692121
 31
0.0
  0
ARC
  5
B5F9
330
B46F
100
AcDbEntity
  8
1
  6
Continuous
100
AcDbCircle
 10
193.0170919999999
 20
392.7789459999999
 30
0.0
 40
0.5
100
AcDbArc
 50
10.00008699999999
 51
190.000087
  0
ARC
  5
B5FA
330
B46F
100
AcDbEntity
  8
1
  6
Continuous
100
AcDbCircle
 10
195.443147
 20
384.778946
 30
0.0
 40
0.5
100
AcDbArc
 50
190.000087
 51
10.00008699999999
  0
LINE
  5
B5FB
330
B46F
100
AcDbEntity
  8
4
  6
CENTER
100
AcDbLine
 10
215.8235569999999
 20
402.0744029999998
 30
0.0
 11
215.8235569999999
 21
376.70033
 31
0.0
  0
LINE
  5
B5FC
330
B46F
100
AcDbEntity
  8
4
  6
CENTER
100
AcDbLine
 10
243.749448
 20
402.0744029999998
 30
0.0
 11
243.749448
 21
376.70033
 31
0.0
  0
LINE
  5
B5FD
330
B46F
100
AcDbEntity
  8
1
  6
Continuous
100
AcDbLine
 10
394.0
 20
393.278946
 30
0.0
 11
393.0
 21
394.278946
 31
0.0
  0
LINE
  5
B5FE
330
B46F
100
AcDbEntity
  8
1
  6
Continuous
100
AcDbLine
 10
380.0
 20
393.278946
 30
0.0
 11
381.0
 21
394.278946
 31
0.0
  0
LINE
  5
B5FF
330
B46F
100
AcDbEntity
  8
4
  6
CENTER
100
AcDbLine
 10
387.0
 20
399.961904
 30
0.0
 11
387.0
 21
373.778946
 31
0.0
  0
LINE
  5
B600
330
B46F
100
AcDbEntity
  8
1
  6
Continuous
100
AcDbLine
 10
275.2883509999999
 20
393.778946
 30
0.0
 11
275.2883509999999
 21
390.778946
 31
0.0
  0
LINE
  5
B601
330
B46F
100
AcDbEntity
  8
1
  6
Continuous
100
AcDbLine
 10
258.2883509999999
 20
393.778946
 30
0.0
 11
258.2883509999999
 21
390.778946
 31
0.0
  0
LINE
  5
B602
330
B46F
100
AcDbEntity
  8
1
  6
Continuous
100
AcDbLine
 10
245.749448
 20
393.278946
 30
0.0
 11
245.749448
 21
393.778946
 31
0.0
  0
LINE
  5
B603
330
B46F
100
AcDbEntity
  8
1
  6
Continuous
100
AcDbLine
 10
241.749448
 20
393.278946
 30
0.0
 11
241.749448
 21
393.778946
 31
0.0
  0
LINE
  5
B604
330
B46F
100
AcDbEntity
  8
4
  6
CENTER
100
AcDbLine
 10
266.7883509999999
 20
403.9244029999998
 30
0.0
 11
266.7883509999999
 21
378.5503299999998
 31
0.0
  0
LINE
  5
B605
330
B46F
100
AcDbEntity
  8
1
  6
Continuous
100
AcDbLine
 10
209.724577
 20
379.628946
 30
0.0
 11
209.724577
 21
381.778946
 31
0.0
  0
LINE
  5
B606
330
B46F
100
AcDbEntity
  8
1
  6
Continuous
100
AcDbLine
 10
230.156713
 20
393.778946
 30
0.0
 11
230.156713
 21
383.778946
 31
0.0
  0
LINE
  5
B607
330
B46F
100
AcDbEntity
  8
1
  6
Continuous
100
AcDbLine
 10
177.0
 20
393.778946
 30
0.0
 11
276.7883719999999
 21
393.778946
 31
0.0
  0
ARC
  5
B608
330
B46F
100
AcDbEntity
  8
1
  6
Continuous
100
AcDbCircle
 10
266.7883509999999
 20
394.63069
 30
0.0
 40
6.748407
100
AcDbArc
 50
9.796666999999999
 51
170.2033329999999
  0
LINE
  5
B609
330
B46F
100
AcDbEntity
  8
1
  6
Continuous
100
AcDbLine
 10
209.724577
 20
397.928946
 30
0.0
 11
248.749448
 21
397.928946
 31
0.0
  0
LINE
  5
B60A
330
B46F
100
AcDbEntity
  8
1
  6
Continuous
100
AcDbLine
 10
209.724577
 20
395.9289459999998
 30
0.0
 11
248.749448
 21
395.9289459999998
 31
0.0
  0
ARC
  5
B60B
330
B46F
100
AcDbEntity
  8
1
  6
Continuous
100
AcDbCircle
 10
215.8235569999999
 20
397.014661
 30
0.0
 40
3.714285999999998
100
AcDbArc
 50
14.25003299999999
 51
165.7499669999999
  0
LINE
  5
B60C
330
B46F
100
AcDbEntity
  8
1
  6
Continuous
100
AcDbLine
 10
245.749448
 20
395.778946
 30
0.0
 11
245.749448
 21
395.9289459999998
 31
0.0
  0
LINE
  5
B60D
330
B46F
100
AcDbEntity
  8
1
  6
Continuous
100
AcDbLine
 10
241.749448
 20
395.778946
 30
0.0
 11
241.749448
 21
395.9289459999998
 31
0.0
  0
LINE
  5
B60E
330
B46F
100
AcDbEntity
  8
1
  6
Continuous
100
AcDbLine
 10
248.749448
 20
395.9289459999998
 30
0.0
 11
248.749448
 21
397.928946
 31
0.0
  0
ARC
  5
B60F
330
B46F
100
AcDbEntity
  8
1
  6
Continuous
100
AcDbCircle
 10
243.749448
 20
397.014661
 30
0.0
 40
3.714285999999998
100
AcDbArc
 50
14.25003299999999
 51
165.7499669999999
  0
LINE
  5
B610
330
B46F
100
AcDbEntity
  8
1
  6
Continuous
100
AcDbLine
 10
276.7883719999999
 20
395.778946
 30
0.0
 11
276.7883719999999
 21
393.778946
 31
0.0
  0
LINE
  5
B611
330
B46F
100
AcDbEntity
  8
1
  6
Continuous
100
AcDbLine
 10
381.0
 20
394.278946
 30
0.0
 11
393.0
 21
394.278946
 31
0.0
  0
LINE
  5
B612
330
B46F
100
AcDbEntity
  8
1
  6
Continuous
100
AcDbLine
 10
397.0
 20
390.778946
 30
0.0
 11
247.749448
 21
390.778946
 31
0.0
  0
LINE
  5
B613
330
B46F
100
AcDbEntity
  8
1
  6
Continuous
100
AcDbLine
 10
397.0
 20
386.778946
 30
0.0
 11
247.749448
 21
386.778946
 31
0.0
  0
LINE
  5
B614
330
B46F
100
AcDbEntity
  8
1
  6
Continuous
100
AcDbLine
 10
177.0
 20
383.778946
 30
0.0
 11
276.7883719999999
 21
383.778946
 31
0.0
  0
ARC
  5
B615
330
B46F
100
AcDbEntity
  8
1
  6
Continuous
100
AcDbCircle
 10
266.7883509999999
 20
387.778946
 30
0.0
 40
7.5
100
AcDbArc
 50
233.130102
 51
306.8698979999999
  0
LINE
  5
B616
330
B46F
100
AcDbEntity
  8
1
  6
Continuous
100
AcDbLine
 10
275.2883509999999
 20
392.278946
 30
0.0
 11
258.2883509999999
 21
392.278946
 31
0.0
  0
LINE
  5
B617
330
B46F
100
AcDbEntity
  8
1
  6
Continuous
100
AcDbLine
 10
258.2883509999999
 20
385.278946
 30
0.0
 11
275.2883509999999
 21
385.278946
 31
0.0
  0
LINE
  5
B618
330
B46F
100
AcDbEntity
  8
1
  6
Continuous
100
AcDbLine
 10
209.724577
 20
379.628946
 30
0.0
 11
248.749448
 21
379.628946
 31
0.0
  0
LINE
  5
B619
330
B46F
100
AcDbEntity
  8
1
  6
Continuous
100
AcDbLine
 10
209.724577
 20
381.628946
 30
0.0
 11
248.749448
 21
381.628946
 31
0.0
  0
ARC
  5
B61A
330
B46F
100
AcDbEntity
  8
1
  6
Continuous
100
AcDbCircle
 10
215.8235569999999
 20
381.633113
 30
0.0
 40
3.204166999999998
100
AcDbArc
 50
218.7179879999999
 51
321.2820119999999
  0
LINE
  5
B61B
330
B46F
100
AcDbEntity
  8
1
  6
Continuous
100
AcDbLine
 10
230.857168
 20
390.778946
 30
0.0
 11
230.857168
 21
386.778946
 31
0.0
  0
ARC
  5
B61C
330
B46F
100
AcDbEntity
  8
1
  6
Continuous
100
AcDbCircle
 10
243.749448
 20
381.633113
 30
0.0
 40
3.204166999999998
100
AcDbArc
 50
218.7179879999999
 51
321.2820119999999
  0
LINE
  5
B61D
330
B46F
100
AcDbEntity
  8
1
  6
Continuous
100
AcDbLine
 10
247.2494479999999
 20
393.278946
 30
0.0
 11
240.249448
 21
393.278946
 31
0.0
  0
LINE
  5
B61E
330
B46F
100
AcDbEntity
  8
1
  6
Continuous
100
AcDbLine
 10
247.2494479999999
 20
384.278946
 30
0.0
 11
240.249448
 21
384.278946
 31
0.0
  0
LINE
  5
B61F
330
B46F
100
AcDbEntity
  8
1
  6
Continuous
100
AcDbLine
 10
247.749448
 20
384.778946
 30
0.0
 11
247.749448
 21
392.7789459999999
 31
0.0
  0
LINE
  5
B620
330
B46F
100
AcDbEntity
  8
1
  6
Continuous
100
AcDbLine
 10
239.749448
 20
390.778946
 30
0.0
 11
239.749448
 21
392.7789459999999
 31
0.0
  0
LINE
  5
B621
330
B46F
100
AcDbEntity
  8
1
  6
Continuous
100
AcDbLine
 10
239.749448
 20
384.778946
 30
0.0
 11
239.749448
 21
386.778946
 31
0.0
  0
LINE
  5
B622
330
B46F
100
AcDbEntity
  8
1
  6
Continuous
100
AcDbLine
 10
247.749448
 20
392.7789459999999
 30
0.0
 11
247.2494479999999
 21
393.278946
 31
0.0
  0
LINE
  5
B623
330
B46F
100
AcDbEntity
  8
1
  6
Continuous
100
AcDbLine
 10
240.249448
 20
393.278946
 30
0.0
 11
239.749448
 21
392.7789459999999
 31
0.0
  0
LINE
  5
B624
330
B46F
100
AcDbEntity
  8
1
  6
Continuous
100
AcDbLine
 10
247.2494479999999
 20
384.278946
 30
0.0
 11
247.749448
 21
384.778946
 31
0.0
  0
LINE
  5
B625
330
B46F
100
AcDbEntity
  8
1
  6
Continuous
100
AcDbLine
 10
240.249448
 20
384.278946
 30
0.0
 11
239.749448
 21
384.778946
 31
0.0
  0
LINE
  5
B626
330
B46F
100
AcDbEntity
  8
1
  6
Continuous
100
AcDbLine
 10
247.749448
 20
392.7789459999999
 30
0.0
 11
239.749448
 21
392.7789459999999
 31
0.0
  0
LINE
  5
B627
330
B46F
100
AcDbEntity
  8
1
  6
Continuous
100
AcDbLine
 10
247.749448
 20
384.778946
 30
0.0
 11
239.749448
 21
384.778946
 31
0.0
  0
LINE
  5
B628
330
B46F
100
AcDbEntity
  8
1
  6
Continuous
100
AcDbLine
 10
245.749448
 20
383.778946
 30
0.0
 11
245.749448
 21
384.278946
 31
0.0
  0
LINE
  5
B629
330
B46F
100
AcDbEntity
  8
1
  6
Continuous
100
AcDbLine
 10
245.749448
 20
381.628946
 30
0.0
 11
245.749448
 21
381.778946
 31
0.0
  0
LINE
  5
B62A
330
B46F
100
AcDbEntity
  8
1
  6
Continuous
100
AcDbLine
 10
241.749448
 20
383.778946
 30
0.0
 11
241.749448
 21
384.278946
 31
0.0
  0
LINE
  5
B62B
330
B46F
100
AcDbEntity
  8
1
  6
Continuous
100
AcDbLine
 10
241.749448
 20
381.628946
 30
0.0
 11
241.749448
 21
381.778946
 31
0.0
  0
LINE
  5
B62C
330
B46F
100
AcDbEntity
  8
1
  6
Continuous
100
AcDbLine
 10
248.749448
 20
379.628946
 30
0.0
 11
248.749448
 21
381.628946
 31
0.0
  0
LINE
  5
B62D
330
B46F
100
AcDbEntity
  8
1
  6
Continuous
100
AcDbLine
 10
258.2883509999999
 20
386.778946
 30
0.0
 11
258.2883509999999
 21
383.778946
 31
0.0
  0
LINE
  5
B62E
330
B46F
100
AcDbEntity
  8
1
  6
Continuous
100
AcDbLine
 10
275.2883509999999
 20
386.778946
 30
0.0
 11
275.2883509999999
 21
383.778946
 31
0.0
  0
LINE
  5
B62F
330
B46F
100
AcDbEntity
  8
1
  6
Continuous
100
AcDbLine
 10
276.7883719999999
 20
383.778946
 30
0.0
 11
276.7883719999999
 21
381.778946
 31
0.0
  0
LINE
  5
B630
330
B46F
100
AcDbEntity
  8
1
  6
Continuous
100
AcDbLine
 10
375.0
 20
385.278946
 30
0.0
 11
399.0
 21
385.278946
 31
0.0
  0
LINE
  5
B631
330
B46F
100
AcDbEntity
  8
1
  6
Continuous
100
AcDbLine
 10
375.0
 20
382.278946
 30
0.0
 11
399.0
 21
382.278946
 31
0.0
  0
LINE
  5
B632
330
B46F
100
AcDbEntity
  8
1
  6
Continuous
100
AcDbLine
 10
354.0
 20
373.778946
 30
0.0
 11
369.0
 21
373.778946
 31
0.0
  0
LINE
  5
B633
330
B46F
100
AcDbEntity
  8
1
  6
Continuous
100
AcDbLine
 10
354.0
 20
376.778946
 30
0.0
 11
369.0
 21
376.778946
 31
0.0
  0
LINE
  5
B634
330
B46F
100
AcDbEntity
  8
4
  6
CENTER
100
AcDbLine
 10
364.0
 20
378.9026499999998
 30
0.0
 11
364.0
 21
371.305437
 31
0.0
  0
LINE
  5
B635
330
B46F
100
AcDbEntity
  8
1
  6
Continuous
100
AcDbLine
 10
354.0
 20
376.778946
 30
0.0
 11
354.0
 21
373.778946
 31
0.0
  0
LINE
  5
B636
330
B46F
100
AcDbEntity
  8
1
  6
Continuous
100
AcDbLine
 10
380.0
 20
391.278946
 30
0.0
 11
394.0
 21
391.278946
 31
0.0
  0
LINE
  5
B637
330
B46F
100
AcDbEntity
  8
1
  6
Continuous
100
AcDbLine
 10
380.0
 20
393.278946
 30
0.0
 11
394.0
 21
393.278946
 31
0.0
  0
LINE
  5
B638
330
B46F
100
AcDbEntity
  8
1
  6
Continuous
100
AcDbLine
 10
377.0
 20
386.778946
 30
0.0
 11
377.0
 21
385.278946
 31
0.0
  0
LINE
  5
B639
330
B46F
100
AcDbEntity
  8
1
  6
Continuous
100
AcDbLine
 10
380.0
 20
393.278946
 30
0.0
 11
380.0
 21
391.278946
 31
0.0
  0
LINE
  5
B63A
330
B46F
100
AcDbEntity
  8
1
  6
Continuous
100
AcDbLine
 10
372.0
 20
382.278946
 30
0.0
 11
372.0
 21
379.778946
 31
0.0
  0
ARC
  5
B63B
330
B46F
100
AcDbEntity
  8
1
  6
Continuous
100
AcDbCircle
 10
375.0
 20
382.278946
 30
0.0
 40
3.0
100
AcDbArc
 50
89.999999
 51
179.9999949999999
  0
LINE
  5
B63C
330
B46F
100
AcDbEntity
  8
1
  6
Continuous
100
AcDbLine
 10
375.0
 20
382.278946
 30
0.0
 11
375.0
 21
379.778946
 31
0.0
  0
ARC
  5
B63D
330
B46F
100
AcDbEntity
  8
1
  6
Continuous
100
AcDbCircle
 10
369.0
 20
379.778946
 30
0.0
 40
3.0
100
AcDbArc
 50
270.0
 51
0.0
  0
ARC
  5
B63E
330
B46F
100
AcDbEntity
  8
1
  6
Continuous
100
AcDbCircle
 10
369.0
 20
379.778946
 30
0.0
 40
6.0
100
AcDbArc
 50
270.0
 51
0.0
  0
LINE
  5
B63F
330
B46F
100
AcDbEntity
  8
1
  6
Continuous
100
AcDbLine
 10
397.0
 20
390.778946
 30
0.0
 11
397.0
 21
386.778946
 31
0.0
  0
LINE
  5
B640
330
B46F
100
AcDbEntity
  8
1
  6
Continuous
100
AcDbLine
 10
397.0
 20
386.778946
 30
0.0
 11
397.0
 21
385.278946
 31
0.0
  0
LINE
  5
B641
330
B46F
100
AcDbEntity
  8
1
  6
Continuous
100
AcDbLine
 10
394.0
 20
393.278946
 30
0.0
 11
394.0
 21
391.278946
 31
0.0
  0
LINE
  5
B642
330
B46F
100
AcDbEntity
  8
1
  6
Continuous
100
AcDbLine
 10
392.0
 20
391.278946
 30
0.0
 11
392.0
 21
390.778946
 31
0.0
  0
LINE
  5
B643
330
B46F
100
AcDbEntity
  8
1
  6
Continuous
100
AcDbLine
 10
382.0
 20
391.278946
 30
0.0
 11
382.0
 21
390.778946
 31
0.0
  0
ARC
  5
B644
330
B46F
100
AcDbEntity
  8
1
  6
Continuous
100
AcDbCircle
 10
387.0
 20
386.341446
 30
0.0
 40
6.0625
100
AcDbArc
 50
222.075022
 51
317.9249779999999
  0
LINE
  5
B645
330
B46F
100
AcDbEntity
  8
4
  6
CENTER
100
AcDbLine
 10
410.0
 20
378.9026499999998
 30
0.0
 11
410.0
 21
371.305437
 31
0.0
  0
LINE
  5
B646
330
B46F
100
AcDbEntity
  8
1
  6
Continuous
100
AcDbLine
 10
405.0
 20
373.778946
 30
0.0
 11
420.0
 21
373.778946
 31
0.0
  0
LINE
  5
B647
330
B46F
100
AcDbEntity
  8
1
  6
Continuous
100
AcDbLine
 10
405.0
 20
376.778946
 30
0.0
 11
420.0
 21
376.778946
 31
0.0
  0
LINE
  5
B648
330
B46F
100
AcDbEntity
  8
1
  6
Continuous
100
AcDbLine
 10
399.0
 20
382.278946
 30
0.0
 11
399.0
 21
379.778946
 31
0.0
  0
LINE
  5
B649
330
B46F
100
AcDbEntity
  8
1
  6
Continuous
100
AcDbLine
 10
402.0
 20
382.278946
 30
0.0
 11
402.0
 21
379.778946
 31
0.0
  0
ARC
  5
B64A
330
B46F
100
AcDbEntity
  8
1
  6
Continuous
100
AcDbCircle
 10
399.0
 20
382.278946
 30
0.0
 40
3.0
100
AcDbArc
 50
359.999995
 51
89.99999599999998
  0
ARC
  5
B64B
330
B46F
100
AcDbEntity
  8
1
  6
Continuous
100
AcDbCircle
 10
405.0
 20
379.778946
 30
0.0
 40
3.0
100
AcDbArc
 50
180.0
 51
270.0
  0
ARC
  5
B64C
330
B46F
100
AcDbEntity
  8
1
  6
Continuous
100
AcDbCircle
 10
405.0
 20
379.778946
 30
0.0
 40
6.0
100
AcDbArc
 50
180.0
 51
270.0
  0
LINE
  5
B64D
330
B46F
100
AcDbEntity
  8
1
  6
Continuous
100
AcDbLine
 10
420.0
 20
376.778946
 30
0.0
 11
420.0
 21
373.778946
 31
0.0
  0
LINE
  5
B64E
330
B46F
100
AcDbEntity
  8
1
  6
Continuous
100
AcDbLine
 10
209.724577
 20
395.778946
 30
0.0
 11
209.724577
 21
397.928946
 31
0.0
  0
LINE
  5
B64F
330
B46F
100
AcDbEntity
  8
1
  6
Continuous
100
AcDbLine
 10
217.823557
 20
383.778946
 30
0.0
 11
217.823557
 21
388.278946
 31
0.0
  0
LINE
  5
B650
330
B46F
100
AcDbEntity
  8
1
  6
Continuous
100
AcDbLine
 10
213.8235569999999
 20
383.778946
 30
0.0
 11
213.8235569999999
 21
393.778946
 31
0.0
  0
LINE
  5
B651
330
B46F
100
AcDbEntity
  8
1
  6
Continuous
100
AcDbLine
 10
218.3235569999999
 20
389.278946
 30
0.0
 11
214.3235569999999
 21
389.278946
 31
0.0
  0
LINE
  5
B652
330
B46F
100
AcDbEntity
  8
1
  6
Continuous
100
AcDbLine
 10
218.3235569999999
 20
388.278946
 30
0.0
 11
214.3235569999999
 21
388.278946
 31
0.0
  0
ARC
  5
B653
330
B46F
100
AcDbEntity
  8
1
  6
Continuous
100
AcDbCircle
 10
218.3235569999999
 20
388.778946
 30
0.0
 40
0.5
100
AcDbArc
 50
270.0
 51
90.0
  0
LINE
  5
B654
330
B46F
100
AcDbEntity
  8
1
  6
Continuous
100
AcDbLine
 10
214.3235569999999
 20
389.278946
 30
0.0
 11
214.3235569999999
 21
388.278946
 31
0.0
  0
LINE
  5
B655
330
B46F
100
AcDbEntity
  8
1
  6
Continuous
100
AcDbLine
 10
213.8235569999999
 20
389.278946
 30
0.0
 11
208.357931
 21
389.278946
 31
0.0
  0
LINE
  5
B656
330
B46F
100
AcDbEntity
  8
1
  6
Continuous
100
AcDbLine
 10
213.8235569999999
 20
388.278946
 30
0.0
 11
207.9383819999999
 21
388.278946
 31
0.0
  0
LINE
  5
B657
330
B46F
100
AcDbEntity
  8
1
  6
Continuous
100
AcDbLine
 10
217.823557
 20
389.278946
 30
0.0
 11
217.823557
 21
393.778946
 31
0.0
  0
LINE
  5
B658
330
B46F
100
AcDbEntity
  8
1
  6
Continuous
100
AcDbLine
 10
187.1034899999999
 20
389.278946
 30
0.0
 11
187.1034899999999
 21
388.278946
 31
0.0
  0
LINE
  5
B659
330
B46F
100
AcDbEntity
  8
1
  6
Continuous
100
AcDbLine
 10
187.1034899999999
 20
389.278946
 30
0.0
 11
182.5
 21
389.278946
 31
0.0
  0
LINE
  5
B65A
330
B46F
100
AcDbEntity
  8
1
  6
Continuous
100
AcDbLine
 10
187.1034899999999
 20
388.278946
 30
0.0
 11
182.5
 21
388.278946
 31
0.0
  0
LINE
  5
B65B
330
B46F
100
AcDbEntity
  8
1
  6
Continuous
100
AcDbLine
 10
192.2069789999999
 20
388.778946
 30
0.0
 11
192.9198889999999
 21
384.692121
 31
0.0
  0
ARC
  5
B65C
330
B46F
100
AcDbEntity
  8
1
  6
Continuous
100
AcDbCircle
 10
193.412293
 20
384.778946
 30
0.0
 40
0.5
100
AcDbArc
 50
190.000087
 51
10.00008699999999
  0
ARC
  5
B65D
330
B46F
100
AcDbEntity
  8
1
  6
Continuous
100
AcDbCircle
 10
192.706979
 20
388.778946
 30
0.0
 40
0.5
100
AcDbArc
 50
10.000084
 51
180.0
  0
LINE
  5
B65E
330
B46F
100
AcDbEntity
  8
1
  6
Continuous
100
AcDbLine
 10
192.5246879999999
 20
392.692121
 30
0.0
 11
192.693309
 21
389.2787589999999
 31
0.0
  0
LINE
  5
B65F
330
B46F
100
AcDbEntity
  8
1
  6
Continuous
100
AcDbLine
 10
197.571203
 20
392.8657709999998
 30
0.0
 11
198.981831
 21
384.8657709999998
 31
0.0
  0
LINE
  5
B660
330
B46F
100
AcDbEntity
  8
1
  6
Continuous
100
AcDbLine
 10
196.555776
 20
392.8657709999998
 30
0.0
 11
197.997024
 21
384.692121
 31
0.0
  0
ARC
  5
B661
330
B46F
100
AcDbEntity
  8
1
  6
Continuous
100
AcDbCircle
 10
197.078799
 20
392.7789459999999
 30
0.0
 40
0.5
100
AcDbArc
 50
10.00008699999999
 51
190.000087
  0
ARC
  5
B662
330
B46F
100
AcDbEntity
  8
1
  6
Continuous
100
AcDbCircle
 10
196.0633729999999
 20
392.7789459999999
 30
0.0
 40
0.5
100
AcDbArc
 50
10.00008699999999
 51
190.000087
  0
ARC
  5
B663
330
B46F
100
AcDbEntity
  8
1
  6
Continuous
100
AcDbCircle
 10
197.4740009999999
 20
384.778946
 30
0.0
 40
0.5
100
AcDbArc
 50
190.000087
 51
10.00008699999999
  0
ARC
  5
B664
330
B46F
100
AcDbEntity
  8
1
  6
Continuous
100
AcDbCircle
 10
198.4894279999998
 20
384.778946
 30
0.0
 40
0.5
100
AcDbArc
 50
190.000087
 51
10.00008699999999
  0
LINE
  5
B665
330
B46F
100
AcDbEntity
  8
1
  6
Continuous
100
AcDbLine
 10
196.028538
 20
393.2764129999998
 30
0.0
 11
196.028538
 21
393.778946
 31
0.0
  0
LINE
  5
B666
330
B46F
100
AcDbEntity
  8
1
  6
Continuous
100
AcDbLine
 10
200.6174829999999
 20
392.8657709999998
 30
0.0
 11
202.028111
 21
384.8657709999998
 31
0.0
  0
ARC
  5
B667
330
B46F
100
AcDbEntity
  8
1
  6
Continuous
100
AcDbCircle
 10
200.1250789999998
 20
392.7789459999999
 30
0.0
 40
0.5
100
AcDbArc
 50
10.00008699999999
 51
190.000087
  0
LINE
  5
B668
330
B46F
100
AcDbEntity
  8
1
  6
Continuous
100
AcDbLine
 10
199.602056
 20
392.8657709999998
 30
0.0
 11
201.043304
 21
384.692121
 31
0.0
  0
LINE
  5
B669
330
B46F
100
AcDbEntity
  8
1
  6
Continuous
100
AcDbLine
 10
198.5866299999999
 20
392.8657709999998
 30
0.0
 11
199.9972579999999
 21
384.8657709999998
 31
0.0
  0
ARC
  5
B66A
330
B46F
100
AcDbEntity
  8
1
  6
Continuous
100
AcDbCircle
 10
199.109653
 20
392.7789459999999
 30
0.0
 40
0.5
100
AcDbArc
 50
10.00008699999999
 51
190.000087
  0
ARC
  5
B66B
330
B46F
100
AcDbEntity
  8
1
  6
Continuous
100
AcDbCircle
 10
198.0942259999999
 20
392.7789459999999
 30
0.0
 40
0.5
100
AcDbArc
 50
10.00008699999999
 51
190.000087
  0
ARC
  5
B66C
330
B46F
100
AcDbEntity
  8
1
  6
Continuous
100
AcDbCircle
 10
201.535708
 20
384.778946
 30
0.0
 40
0.5
100
AcDbArc
 50
190.000087
 51
10.00008699999999
  0
ARC
  5
B66D
330
B46F
100
AcDbEntity
  8
1
  6
Continuous
100
AcDbCircle
 10
200.520281
 20
384.778946
 30
0.0
 40
0.5
100
AcDbArc
 50
190.000087
 51
10.00008699999999
  0
ARC
  5
B66E
330
B46F
100
AcDbEntity
  8
1
  6
Continuous
100
AcDbCircle
 10
199.5048549999999
 20
384.778946
 30
0.0
 40
0.5
100
AcDbArc
 50
190.000087
 51
10.00008699999999
  0
LINE
  5
B66F
330
B46F
100
AcDbEntity
  8
1
  6
Continuous
100
AcDbLine
 10
201.63291
 20
392.8657709999998
 30
0.0
 11
203.0435379999999
 21
384.8657709999998
 31
0.0
  0
LINE
  5
B670
330
B46F
100
AcDbEntity
  8
1
  6
Continuous
100
AcDbLine
 10
202.648337
 20
392.8657709999998
 30
0.0
 11
204.089585
 21
384.692121
 31
0.0
  0
LINE
  5
B671
330
B46F
100
AcDbEntity
  8
1
  6
Continuous
100
AcDbLine
 10
203.6637639999999
 20
392.8657709999998
 30
0.0
 11
205.0743919999999
 21
384.8657709999998
 31
0.0
  0
ARC
  5
B672
330
B46F
100
AcDbEntity
  8
1
  6
Continuous
100
AcDbCircle
 10
201.1405059999999
 20
392.7789459999999
 30
0.0
 40
0.5
100
AcDbArc
 50
10.00008699999999
 51
190.000087
  0
ARC
  5
B673
330
B46F
100
AcDbEntity
  8
1
  6
Continuous
100
AcDbCircle
 10
202.155934
 20
392.7789459999999
 30
0.0
 40
0.5
100
AcDbArc
 50
10.00008699999999
 51
190.000087
  0
ARC
  5
B674
330
B46F
100
AcDbEntity
  8
1
  6
Continuous
100
AcDbCircle
 10
203.1713599999999
 20
392.7789459999999
 30
0.0
 40
0.5
100
AcDbArc
 50
10.00008699999999
 51
190.000087
  0
ARC
  5
B675
330
B46F
100
AcDbEntity
  8
1
  6
Continuous
100
AcDbCircle
 10
202.5511349999999
 20
384.778946
 30
0.0
 40
0.5
100
AcDbArc
 50
190.000087
 51
10.00008699999999
  0
ARC
  5
B676
330
B46F
100
AcDbEntity
  8
1
  6
Continuous
100
AcDbCircle
 10
203.566562
 20
384.778946
 30
0.0
 40
0.5
100
AcDbArc
 50
190.000087
 51
10.00008699999999
  0
ARC
  5
B677
330
B46F
100
AcDbEntity
  8
1
  6
Continuous
100
AcDbCircle
 10
204.5819889999999
 20
384.778946
 30
0.0
 40
0.5
100
AcDbArc
 50
190.000087
 51
10.00008699999999
  0
LINE
  5
B678
330
B46F
100
AcDbEntity
  8
1
  6
Continuous
100
AcDbLine
 10
207.725471
 20
392.8657709999998
 30
0.0
 11
208.430785
 21
388.865771
 31
0.0
  0
LINE
  5
B679
330
B46F
100
AcDbEntity
  8
1
  6
Continuous
100
AcDbLine
 10
206.7100439999999
 20
392.8657709999998
 30
0.0
 11
208.1512919999999
 21
384.692121
 31
0.0
  0
LINE
  5
B67A
330
B46F
100
AcDbEntity
  8
1
  6
Continuous
100
AcDbLine
 10
205.6946179999999
 20
392.8657709999998
 30
0.0
 11
207.1052459999999
 21
384.8657709999998
 31
0.0
  0
LINE
  5
B67B
330
B46F
100
AcDbEntity
  8
1
  6
Continuous
100
AcDbLine
 10
204.679191
 20
392.8657709999998
 30
0.0
 11
206.089819
 21
384.8657709999998
 31
0.0
  0
ARC
  5
B67C
330
B46F
100
AcDbEntity
  8
1
  6
Continuous
100
AcDbCircle
 10
207.2330669999999
 20
392.7789459999999
 30
0.0
 40
0.5
100
AcDbArc
 50
10.00008699999999
 51
190.000087
  0
ARC
  5
B67D
330
B46F
100
AcDbEntity
  8
1
  6
Continuous
100
AcDbCircle
 10
206.2176409999999
 20
392.7789459999999
 30
0.0
 40
0.5
100
AcDbArc
 50
10.00008699999999
 51
190.000087
  0
ARC
  5
B67E
330
B46F
100
AcDbEntity
  8
1
  6
Continuous
100
AcDbCircle
 10
205.202214
 20
392.7789459999999
 30
0.0
 40
0.5
100
AcDbArc
 50
10.00008699999999
 51
190.000087
  0
ARC
  5
B67F
330
B46F
100
AcDbEntity
  8
1
  6
Continuous
100
AcDbCircle
 10
204.1867869999999
 20
392.7789459999999
 30
0.0
 40
0.5
100
AcDbArc
 50
10.00008699999999
 51
190.000087
  0
ARC
  5
B680
330
B46F
100
AcDbEntity
  8
1
  6
Continuous
100
AcDbCircle
 10
207.6282689999999
 20
384.778946
 30
0.0
 40
0.5
100
AcDbArc
 50
190.000087
 51
10.00008699999999
  0
ARC
  5
B681
330
B46F
100
AcDbEntity
  8
1
  6
Continuous
100
AcDbCircle
 10
206.612843
 20
384.778946
 30
0.0
 40
0.5
100
AcDbArc
 50
190.000087
 51
10.00008699999999
  0
ARC
  5
B682
330
B46F
100
AcDbEntity
  8
1
  6
Continuous
100
AcDbCircle
 10
205.5974159999999
 20
384.778946
 30
0.0
 40
0.5
100
AcDbArc
 50
190.000087
 51
10.00008699999999
  0
ARC
  5
B683
330
B46F
100
AcDbEntity
  8
1
  6
Continuous
100
AcDbCircle
 10
207.9383819999999
 20
388.778946
 30
0.0
 40
0.5
100
AcDbArc
 50
190.0000879999998
 51
10.000084
  0
LINE
  5
B684
330
B46F
100
AcDbEntity
  8
1
  6
Continuous
100
AcDbLine
 10
195.5403489999999
 20
185.679807
 30
0.0
 11
196.028538
 21
182.9111729999999
 31
0.0
  0
LINE
  5
B685
330
B46F
100
AcDbEntity
  8
1
  6
Continuous
100
AcDbLine
 10
194.524922
 20
185.679807
 30
0.0
 11
195.96617
 21
177.506157
 31
0.0
  0
LINE
  5
B686
330
B46F
100
AcDbEntity
  8
1
  6
Continuous
100
AcDbLine
 10
192.5246879999999
 20
185.506157
 30
0.0
 11
193.9353159999998
 21
177.506157
 31
0.0
  0
LINE
  5
B687
330
B46F
100
AcDbEntity
  8
1
  6
Continuous
100
AcDbLine
 10
193.5094949999999
 20
185.679807
 30
0.0
 11
194.9507429999999
 21
177.506157
 31
0.0
  0
ARC
  5
B688
330
B46F
100
AcDbEntity
  8
1
  6
Continuous
100
AcDbCircle
 10
196.458574
 20
177.5929819999998
 30
0.0
 40
0.5
100
AcDbArc
 50
190.000087
 51
210.6753319999999
  0
ARC
  5
B689
330
B46F
100
AcDbEntity
  8
1
  6
Continuous
100
AcDbCircle
 10
194.4277199999999
 20
177.5929819999998
 30
0.0
 40
0.5
100
AcDbArc
 50
190.000087
 51
10.00008699999999
  0
ARC
  5
B68A
330
B46F
100
AcDbEntity
  8
1
  6
Continuous
100
AcDbCircle
 10
195.443147
 20
177.5929819999998
 30
0.0
 40
0.5
100
AcDbArc
 50
190.000087
 51
10.00008699999999
  0
ARC
  5
B68B
330
B46F
100
AcDbEntity
  8
1
  6
Continuous
100
AcDbCircle
 10
192.706979
 20
181.592982
 30
0.0
 40
0.5
100
AcDbArc
 50
270.0
 51
90.0
  0
ARC
  5
B68C
330
B46F
100
AcDbEntity
  8
1
  6
Continuous
100
AcDbCircle
 10
195.0479449999999
 20
185.592982
 30
0.0
 40
0.5
100
AcDbArc
 50
10.00008699999999
 51
190.000087
  0
ARC
  5
B68D
330
B46F
100
AcDbEntity
  8
1
  6
Continuous
100
AcDbCircle
 10
194.032519
 20
185.592982
 30
0.0
 40
0.5
100
AcDbArc
 50
10.00008699999999
 51
190.000087
  0
ARC
  5
B68E
330
B46F
100
AcDbEntity
  8
1
  6
Continuous
100
AcDbCircle
 10
193.0170919999999
 20
185.592982
 30
0.0
 40
0.5
100
AcDbArc
 50
10.00008699999999
 51
190.000087
  0
ARC
  5
B68F
330
B46F
100
AcDbEntity
  8
1
  6
Continuous
100
AcDbCircle
 10
196.0633729999999
 20
185.592982
 30
0.0
 40
0.5
100
AcDbArc
 50
93.99500100000002
 51
190.000087
  0
LINE
  5
B690
330
B46F
100
AcDbEntity
  8
1
  6
Continuous
100
AcDbLine
 10
192.5246879999999
 20
185.506157
 30
0.0
 11
192.2475739999999
 21
182.092982
 31
0.0
  0
LINE
  5
B691
330
B46F
100
AcDbEntity
  8
1
  6
Continuous
100
AcDbLine
 10
266.0614229999998
 20
93.78896500000001
 30
0.0
 11
290.118687
 21
95.54239399999996
 31
0.0
  0
LINE
  5
B692
330
B46F
100
AcDbEntity
  8
1
  6
Continuous
100
AcDbLine
 10
243.083899
 20
390.831048
 30
0.0
 11
243.083899
 21
386.778946
 31
0.0
  0
LINE
  5
B693
330
B46F
100
AcDbEntity
  8
1
  6
Continuous
100
AcDbLine
 10
246.7152769999999
 20
390.778946
 30
0.0
 11
246.7152769999999
 21
386.778946
 31
0.0
  0
LINE
  5
B694
330
B46F
100
AcDbEntity
  8
1
  6
Continuous
100
AcDbLine
 10
246.7152769999999
 20
390.778946
 30
0.0
 11
230.857168
 21
390.778946
 31
0.0
  0
LINE
  5
B695
330
B46F
100
AcDbEntity
  8
1
  6
Continuous
100
AcDbLine
 10
246.7152769999999
 20
386.778946
 30
0.0
 11
230.857168
 21
386.778946
 31
0.0
  0
LINE
  5
B696
330
B46F
100
AcDbEntity
  8
1
  6
Continuous
100
AcDbLine
 10
256.7598039999999
 20
390.278946
 30
0.0
 11
256.7598039999999
 21
387.278946
 31
0.0
  0
LINE
  5
B697
330
B46F
100
AcDbEntity
  8
1
  6
Continuous
100
AcDbLine
 10
282.974272
 20
390.278946
 30
0.0
 11
282.974272
 21
387.278946
 31
0.0
  0
LINE
  5
B698
330
B46F
100
AcDbEntity
  8
1
  6
Continuous
100
AcDbLine
 10
294.9439549999999
 20
390.278946
 30
0.0
 11
294.9439549999999
 21
387.278946
 31
0.0
  0
LINE
  5
B699
330
B46F
100
AcDbEntity
  8
1
  6
Continuous
100
AcDbLine
 10
196.028538
 20
271.4934289999998
 30
0.0
 11
209.8917799999999
 21
270.4829979999999
 31
0.0
  0
LINE
  5
B69A
330
B46F
100
AcDbEntity
  8
1
  6
Continuous
100
AcDbLine
 10
188.8373449999999
 20
295.078574
 30
0.0
 11
267.5152779999999
 21
289.344087
 31
0.0
  0
LINE
  5
B69B
330
B46F
100
AcDbEntity
  8
4
  6
CENTER
100
AcDbLine
 10
351.135467
 20
285.185964
 30
0.0
 11
164.574273
 21
285.185964
 31
0.0
  0
LINE
  5
B69C
330
B46F
100
AcDbEntity
  8
1
  6
Continuous
100
AcDbLine
 10
172.0
 20
270.185964
 30
0.0
 11
172.0
 21
248.185964
 31
0.0
  0
LINE
  5
B69D
330
B46F
100
AcDbEntity
  8
1
  6
Continuous
100
AcDbLine
 10
169.0
 20
322.185964
 30
0.0
 11
169.0
 21
248.185964
 31
0.0
  0
LINE
  5
B69E
330
B46F
100
AcDbEntity
  8
1
  6
Continuous
100
AcDbLine
 10
172.0
 20
322.185964
 30
0.0
 11
172.0
 21
300.185964
 31
0.0
  0
LINE
  5
B69F
330
B46F
100
AcDbEntity
  8
4
  6
CENTER
100
AcDbLine
 10
164.5
 20
312.185964
 30
0.0
 11
174.5
 21
312.185964
 31
0.0
  0
LINE
  5
B6A0
330
B46F
100
AcDbEntity
  8
1
  6
Continuous
100
AcDbLine
 10
172.0
 20
322.185964
 30
0.0
 11
169.0
 21
322.185964
 31
0.0
  0
LINE
  5
B6A1
330
B46F
100
AcDbEntity
  8
1
  6
Continuous
100
AcDbLine
 10
189.9027629999999
 20
294.7553930000001
 30
0.0
 11
172.0
 21
300.185964
 31
0.0
  0
LINE
  5
B6A2
330
B46F
100
AcDbEntity
  8
1
  6
Continuous
100
AcDbLine
 10
189.9027629999999
 20
275.6165349999998
 30
0.0
 11
172.0
 21
270.185964
 31
0.0
  0
LINE
  5
B6A3
330
B46F
100
AcDbEntity
  8
4
  6
CENTER
100
AcDbLine
 10
164.5
 20
270.185964
 30
0.0
 11
174.5
 21
270.185964
 31
0.0
  0
LINE
  5
B6A4
330
B46F
100
AcDbEntity
  8
4
  6
CENTER
100
AcDbLine
 10
164.5
 20
300.185964
 30
0.0
 11
174.5
 21
300.185964
 31
0.0
  0
LINE
  5
B6A5
330
B46F
100
AcDbEntity
  8
1
  6
Continuous
100
AcDbLine
 10
169.0
 20
300.185964
 30
0.0
 11
172.0
 21
300.185964
 31
0.0
  0
LINE
  5
B6A6
330
B46F
100
AcDbEntity
  8
1
  6
Continuous
100
AcDbLine
 10
169.0
 20
270.185964
 30
0.0
 11
172.0
 21
270.185964
 31
0.0
  0
LINE
  5
B6A7
330
B46F
100
AcDbEntity
  8
4
  6
CENTER
100
AcDbLine
 10
187.0
 20
298.858247
 30
0.0
 11
187.0
 21
271.303998
 31
0.0
  0
ARC
  5
B6A8
330
B46F
100
AcDbEntity
  8
1
  6
Continuous
100
AcDbCircle
 10
187.0
 20
285.185964
 30
0.0
 40
10.0
100
AcDbArc
 50
286.8744939999999
 51
73.125506
  0
LINE
  5
B6A9
330
B46F
100
AcDbEntity
  8
1
  6
Continuous
100
AcDbLine
 10
188.1254449999999
 20
275.0774089999998
 30
0.0
 11
196.2466159999999
 21
274.4854919999998
 31
0.0
  0
LINE
  5
B6AA
330
B46F
100
AcDbEntity
  8
1
  6
Continuous
100
AcDbLine
 10
196.2466159999999
 20
274.4854919999998
 30
0.0
 11
196.028538
 21
271.4934289999998
 31
0.0
  0
LINE
  5
B6AB
330
B46F
100
AcDbEntity
  8
4
  6
CENTER
100
AcDbLine
 10
164.5
 20
258.185964
 30
0.0
 11
174.5
 21
258.185964
 31
0.0
  0
ARC
  5
B6AC
330
B46F
100
AcDbEntity
  8
4
  6
CENTER
100
AcDbCircle
 10
314.0190589999999
 20
597.7796009999997
 30
0.0
 40
321.0
100
AcDbArc
 50
265.831335
 51
285.301274
  0
ARC
  5
B6AD
330
B46F
100
AcDbEntity
  8
1
  6
Continuous
100
AcDbCircle
 10
314.0190589999999
 20
597.7796009999997
 30
0.0
 40
311.0
100
AcDbArc
 50
267.169887
 51
277.5668779999999
  0
ARC
  5
B6AE
330
B46F
100
AcDbEntity
  8
1
  6
Continuous
100
AcDbCircle
 10
314.0190589999999
 20
597.7796009999997
 30
0.0
 40
331.0
100
AcDbArc
 50
265.831335
 51
282.9405129999999
  0
ARC
  5
B6AF
330
B46F
100
AcDbEntity
  8
5
  6
PHANTOM
100
AcDbCircle
 10
341.999991
 20
300.1859359999999
 30
0.0
 40
10.0
100
AcDbArc
 50
196.874494
 51
343.1255059999998
  0
LINE
  5
B6B0
330
B46F
100
AcDbEntity
  8
5
  6
PHANTOM
100
AcDbLine
 10
378.999991
 20
318.1859359999999
 30
0.0
 11
304.999991
 21
318.1859359999999
 31
0.0
  0
LINE
  5
B6B1
330
B46F
100
AcDbEntity
  8
5
  6
PHANTOM
100
AcDbLine
 10
345.6358
 20
290.87031
 30
0.0
 11
271.110789
 21
261.783839
 31
0.0
  0
ARC
  5
B6B2
330
B46F
100
AcDbEntity
  8
5
  6
PHANTOM
100
AcDbCircle
 10
292.6488499999999
 20
592.006531
 30
0.0
 40
311.0
100
AcDbArc
 50
275.891594
 51
281.414279
  0
ARC
  5
B6B3
330
B46F
100
AcDbEntity
  8
5
  6
PHANTOM
100
AcDbCircle
 10
292.6488499999999
 20
592.006531
 30
0.0
 40
331.0
100
AcDbArc
 50
269.7832539999998
 51
286.831234
  0
LINE
  5
B6B4
330
B46F
100
AcDbEntity
  8
4
  6
CENTER
100
AcDbLine
 10
350.149991
 20
300.1859359999999
 30
0.0
 11
333.8499909999999
 21
300.1859359999999
 31
0.0
  0
ARC
  5
B6B5
330
B46F
100
AcDbEntity
  8
5
  6
PHANTOM
100
AcDbCircle
 10
241.4752
 20
271.197794
 30
0.0
 40
10.0
100
AcDbArc
 50
89.78325400000001
 51
269.783251
  0
LINE
  5
B6B6
330
B46F
100
AcDbEntity
  8
1
  6
Continuous
100
AcDbLine
 10
221.6928289999999
 20
267.316746
 30
0.0
 11
221.351171
 21
262.6291959999999
 31
0.0
  0
LINE
  5
B6B7
330
B46F
100
AcDbEntity
  8
1
  6
Continuous
100
AcDbLine
 10
220.301475
 20
275.740177
 30
0.0
 11
219.356462
 21
262.774582
 31
0.0
  0
ARC
  5
B6B8
330
B46F
100
AcDbEntity
  8
5
  6
PHANTOM
100
AcDbCircle
 10
267.4749569999999
 20
271.09944
 30
0.0
 40
9.999988999999999
100
AcDbArc
 50
111.3202779999999
 51
291.3202769999998
  0
ARC
  5
B6B9
330
B46F
100
AcDbEntity
  8
1
  6
Continuous
100
AcDbCircle
 10
266.788383
 20
279.3705549999998
 30
0.0
 40
9.999988999999999
100
AcDbArc
 50
265.8313389999999
 51
85.87685
  0
LINE
  5
B6BA
330
B46F
100
AcDbEntity
  8
1
  6
Continuous
100
AcDbLine
 10
266.0614229999998
 20
269.3969989999999
 30
0.0
 11
290.118687
 21
267.64357
 31
0.0
  0
LINE
  5
B6BB
330
B46F
100
AcDbEntity
  8
4
  6
CENTER
100
AcDbLine
 10
256.7598039999999
 20
280.1014799999999
 30
0.0
 11
290.845615
 21
277.617115
 31
0.0
  0
LINE
  5
B6BC
330
B46F
100
AcDbEntity
  8
1
  6
Continuous
100
AcDbLine
 10
267.5152779999999
 20
289.344087
 30
0.0
 11
279.1863599999999
 21
288.4934329999999
 31
0.0
  0
LINE
  5
B6BD
330
B46F
100
AcDbEntity
  8
5
  6
PHANTOM
100
AcDbLine
 10
297.375382
 20
293.5039859999998
 30
0.0
 11
263.839172
 21
280.415092
 31
0.0
  0
LINE
  5
B6BE
330
B46F
100
AcDbEntity
  8
4
  6
CENTER
100
AcDbLine
 10
274.9383509999999
 20
279.370543
 30
0.0
 11
258.638351
 21
279.370543
 31
0.0
  0
LINE
  5
B6BF
330
B46F
100
AcDbEntity
  8
4
  6
CENTER
100
AcDbLine
 10
237.2494479999998
 20
281.0497119999999
 30
0.0
 11
250.249448
 21
281.0497119999999
 31
0.0
  0
LINE
  5
B6C0
330
B46F
100
AcDbEntity
  8
1
  6
Continuous
100
AcDbLine
 10
216.187024
 20
288.0718959999999
 30
0.0
 11
244.112914
 21
286.0364839999999
 31
0.0
  0
LINE
  5
B6C1
330
B46F
100
AcDbEntity
  8
1
  6
Continuous
100
AcDbLine
 10
222.441571
 20
277.5894989999999
 30
0.0
 11
243.3859809999999
 21
276.0629399999999
 31
0.0
  0
LINE
  5
B6C2
330
B46F
100
AcDbEntity
  8
1
  6
Continuous
100
AcDbLine
 10
230.156713
 20
272.013935
 30
0.0
 11
266.0614229999998
 21
269.3969989999999
 31
0.0
  0
LINE
  5
B6C3
330
B46F
100
AcDbEntity
  8
4
  6
CENTER
100
AcDbLine
 10
215.8235569999999
 20
289.585124
 30
0.0
 11
215.8235569999999
 21
276.5851239999999
 31
0.0
  0
ARC
  5
B6C4
330
B46F
100
AcDbEntity
  8
1
  6
Continuous
100
AcDbCircle
 10
215.8235569999999
 20
283.085124
 30
0.0
 40
5.0
100
AcDbArc
 50
85.83129900000001
 51
175.8312949999999
  0
LINE
  5
B6C5
330
B46F
100
AcDbEntity
  8
4
  6
CENTER
100
AcDbLine
 10
209.323557
 20
283.085124
 30
0.0
 11
222.3235569999999
 21
283.085124
 31
0.0
  0
ARC
  5
B6C6
330
B46F
100
AcDbEntity
  8
1
  6
Continuous
100
AcDbCircle
 10
222.2961839999999
 20
275.5947899999998
 30
0.0
 40
2.0
100
AcDbArc
 50
85.83129900000001
 51
175.8312949999999
  0
LINE
  5
B6C7
330
B46F
100
AcDbEntity
  8
1
  6
Continuous
100
AcDbLine
 10
219.865324
 20
269.756071
 30
0.0
 11
229.9386339999998
 21
269.0218719999999
 31
0.0
  0
ARC
  5
B6C8
330
B46F
100
AcDbEntity
  8
1
  6
Continuous
100
AcDbCircle
 10
219.6981199999999
 20
267.4621329999999
 30
0.0
 40
2.0
100
AcDbArc
 50
355.831295
 51
85.83129600000003
  0
LINE
  5
B6C9
330
B46F
100
AcDbEntity
  8
1
  6
Continuous
100
AcDbLine
 10
209.724577
 20
268.1890669999999
 30
0.0
 11
219.6981199999999
 21
267.4621329999999
 31
0.0
  0
LINE
  5
B6CA
330
B46F
100
AcDbEntity
  8
1
  6
Continuous
100
AcDbLine
 10
210.836785
 20
283.448591
 30
0.0
 11
209.724577
 21
268.1890669999999
 31
0.0
  0
LINE
  5
B6CB
330
B46F
100
AcDbEntity
  8
1
  6
Continuous
100
AcDbLine
 10
230.156713
 20
272.013935
 30
0.0
 11
229.9386339999998
 21
269.0218719999999
 31
0.0
  0
LINE
  5
B6CC
330
B46F
100
AcDbEntity
  8
4
  6
CENTER
100
AcDbLine
 10
243.749448
 20
287.5497119999998
 30
0.0
 11
243.749448
 21
274.549712
 31
0.0
  0
LINE
  5
B6CD
330
B46F
100
AcDbEntity
  8
4
  6
CENTER
100
AcDbLine
 10
266.7883509999999
 20
271.220543
 30
0.0
 11
266.7883509999999
 21
287.5205429999999
 31
0.0
  0
ARC
  5
B6CE
330
B46F
100
AcDbEntity
  8
5
  6
PHANTOM
100
AcDbCircle
 10
253.3750779999998
 20
271.152823
 30
0.0
 40
4.099999999999997
100
AcDbArc
 50
269.783255
 51
359.78316
  0
ARC
  5
B6CF
330
B46F
100
AcDbEntity
  8
1
  6
Continuous
100
AcDbCircle
 10
252.825406
 20
280.3882399999998
 30
0.0
 40
2.1
100
AcDbArc
 50
265.8313389999999
 51
85.831338
  0
LINE
  5
B6D0
330
B46F
100
AcDbEntity
  8
5
  6
PHANTOM
100
AcDbLine
 10
253.3595609999999
 20
267.0528159999999
 30
0.0
 11
244.459643
 21
267.086491
 31
0.0
  0
ARC
  5
B6D1
330
B46F
100
AcDbEntity
  8
5
  6
PHANTOM
100
AcDbCircle
 10
244.47516
 20
271.1864979999999
 30
0.0
 40
4.099999999999997
100
AcDbArc
 50
89.78325299999999
 51
269.783251
  0
LINE
  5
B6D2
330
B46F
100
AcDbEntity
  8
5
  6
PHANTOM
100
AcDbLine
 10
246.9922039999999
 20
275.2769939999998
 30
0.0
 11
244.490656
 21
275.2864389999999
 31
0.0
  0
LINE
  5
B6D3
330
B46F
100
AcDbEntity
  8
5
  6
PHANTOM
100
AcDbLine
 10
246.996381
 20
276.2769859999999
 30
0.0
 11
246.9922039999999
 21
275.2769939999998
 31
0.0
  0
LINE
  5
B6D4
330
B46F
100
AcDbEntity
  8
5
  6
PHANTOM
100
AcDbLine
 10
246.996381
 20
276.2769859999999
 30
0.0
 11
243.0167979999999
 21
281.1920359999999
 31
0.0
  0
ARC
  5
B6D5
330
B46F
100
AcDbEntity
  8
1
  6
Continuous
100
AcDbCircle
 10
243.749448
 20
281.0497119999999
 30
0.0
 40
5.0
100
AcDbArc
 50
265.8313039999999
 51
85.831303
  0
LINE
  5
B6D6
330
B46F
100
AcDbEntity
  8
1
  6
Continuous
100
AcDbLine
 10
252.6727509999998
 20
278.2937899999998
 30
0.0
 11
248.122408
 21
278.6254439999999
 31
0.0
  0
LINE
  5
B6D7
330
B46F
100
AcDbEntity
  8
1
  6
Continuous
100
AcDbLine
 10
248.427718
 20
282.814345
 30
0.0
 11
252.9780609999999
 21
282.48269
 31
0.0
  0
LINE
  5
B6D8
330
B46F
100
AcDbEntity
  8
5
  6
PHANTOM
100
AcDbLine
 10
241.513029
 20
281.197723
 30
0.0
 11
243.0168
 21
281.1920339999999
 31
0.0
  0
LINE
  5
B6D9
330
B46F
100
AcDbEntity
  8
5
  6
PHANTOM
100
AcDbLine
 10
332.430562
 20
297.2831739999999
 30
0.0
 11
326.999991
 21
315.1859359999999
 31
0.0
  0
LINE
  5
B6DA
330
B46F
100
AcDbEntity
  8
5
  6
PHANTOM
100
AcDbLine
 10
327.9578129999998
 20
308.660442
 30
0.0
 11
315.0090769999998
 21
303.6066609999999
 31
0.0
  0
LINE
  5
B6DB
330
B46F
100
AcDbEntity
  8
5
  6
PHANTOM
100
AcDbLine
 10
329.048556
 20
305.865754
 30
0.0
 11
327.9578129999998
 21
308.660442
 31
0.0
  0
LINE
  5
B6DC
330
B46F
100
AcDbEntity
  8
5
  6
PHANTOM
100
AcDbLine
 10
326.999991
 20
315.1859359999999
 30
0.0
 11
304.999991
 21
315.1859359999999
 31
0.0
  0
LINE
  5
B6DD
330
B46F
100
AcDbEntity
  8
5
  6
PHANTOM
100
AcDbLine
 10
304.999991
 20
315.1859359999999
 30
0.0
 11
304.999991
 21
318.1859359999999
 31
0.0
  0
LINE
  5
B6DE
330
B46F
100
AcDbEntity
  8
4
  6
CENTER
100
AcDbLine
 10
314.999991
 20
322.6859359999999
 30
0.0
 11
314.999991
 21
312.6859359999999
 31
0.0
  0
LINE
  5
B6DF
330
B46F
100
AcDbEntity
  8
5
  6
PHANTOM
100
AcDbLine
 10
326.999991
 20
318.1859359999999
 30
0.0
 11
326.999991
 21
315.1859359999999
 31
0.0
  0
LINE
  5
B6E0
330
B46F
100
AcDbEntity
  8
4
  6
CENTER
100
AcDbLine
 10
326.999991
 20
322.6859359999999
 30
0.0
 11
326.999991
 21
312.6859359999999
 31
0.0
  0
LINE
  5
B6E1
330
B46F
100
AcDbEntity
  8
5
  6
PHANTOM
100
AcDbLine
 10
302.9940889999999
 20
301.3863109999999
 30
0.0
 11
301.285267
 21
305.7646429999999
 31
0.0
  0
LINE
  5
B6E2
330
B46F
100
AcDbEntity
  8
5
  6
PHANTOM
100
AcDbLine
 10
303.148393
 20
306.491803
 30
0.0
 11
301.285267
 21
305.7646429999999
 31
0.0
  0
LINE
  5
B6E3
330
B46F
100
AcDbEntity
  8
5
  6
PHANTOM
100
AcDbLine
 10
316.895711
 20
285.0206449999999
 30
0.0
 11
290.81198
 21
274.8404069999998
 31
0.0
  0
LINE
  5
B6E4
330
B46F
100
AcDbEntity
  8
5
  6
PHANTOM
100
AcDbLine
 10
306.738968
 20
291.7912109999999
 30
0.0
 11
287.1761769999998
 21
284.1560359999999
 31
0.0
  0
LINE
  5
B6E5
330
B46F
100
AcDbEntity
  8
5
  6
PHANTOM
100
AcDbLine
 10
305.693451
 20
299.970852
 30
0.0
 11
296.2846399999999
 21
296.298674
 31
0.0
  0
ARC
  5
B6E6
330
B46F
100
AcDbEntity
  8
1
  6
Continuous
100
AcDbCircle
 10
298.4166529999999
 20
282.1650179999998
 30
0.0
 40
5.0
100
AcDbArc
 50
87.16988699999998
 51
149.298777
  0
ARC
  5
B6E7
330
B46F
100
AcDbEntity
  8
1
  6
Continuous
100
AcDbCircle
 10
278.822896
 20
283.506661
 30
0.0
 40
5.0
100
AcDbArc
 50
22.86702699999999
 51
85.83133499999998
  0
LINE
  5
B6E8
330
B46F
100
AcDbEntity
  8
5
  6
PHANTOM
100
AcDbLine
 10
297.375382
 20
293.5039859999998
 30
0.0
 11
296.2846399999999
 21
296.298674
 31
0.0
  0
ARC
  5
B6E9
330
B46F
100
AcDbEntity
  8
1
  6
Continuous
100
AcDbCircle
 10
288.9583979999999
 20
287.7811919999999
 30
0.0
 40
6.0
100
AcDbArc
 50
202.867027
 51
329.2987769999998
  0
ARC
  5
B6EA
330
B46F
100
AcDbEntity
  8
5
  6
PHANTOM
100
AcDbCircle
 10
288.9940779999998
 20
279.498221
 30
0.0
 40
5.0
100
AcDbArc
 50
111.3202429999999
 51
291.320242
  0
ARC
  5
B6EB
330
B46F
100
AcDbEntity
  8
5
  6
PHANTOM
100
AcDbCircle
 10
280.516842
 20
276.189592
 30
0.0
 40
2.1
100
AcDbArc
 50
111.3202779999999
 51
291.3202769999998
  0
LINE
  5
B6EC
330
B46F
100
AcDbEntity
  8
5
  6
PHANTOM
100
AcDbLine
 10
279.7533199999999
 20
278.1458789999999
 30
0.0
 11
284.0034939999998
 21
279.8046849999999
 31
0.0
  0
LINE
  5
B6ED
330
B46F
100
AcDbEntity
  8
5
  6
PHANTOM
100
AcDbLine
 10
285.5305379999999
 20
275.892111
 30
0.0
 11
281.280364
 21
274.2333049999999
 31
0.0
  0
ARC
  5
B6EE
330
B46F
100
AcDbEntity
  8
5
  6
PHANTOM
100
AcDbCircle
 10
315.077809
 20
289.6784589999999
 30
0.0
 40
5.0
100
AcDbArc
 50
291.3202379999999
 51
21.320234
  0
LINE
  5
B6EF
330
B46F
100
AcDbEntity
  8
5
  6
PHANTOM
100
AcDbLine
 10
319.7356239999999
 20
291.496361
 30
0.0
 11
314.172844
 21
305.749275
 31
0.0
  0
ARC
  5
B6F0
330
B46F
100
AcDbEntity
  8
5
  6
PHANTOM
100
AcDbCircle
 10
304.857215
 20
302.113472
 30
0.0
 40
2.0
100
AcDbArc
 50
201.3202339999999
 51
291.320235
  0
ARC
  5
B6F1
330
B46F
100
AcDbEntity
  8
5
  6
PHANTOM
100
AcDbCircle
 10
306.0118069999999
 20
293.6543369999998
 30
0.0
 40
2.0
100
AcDbArc
 50
291.3202379999999
 51
21.320234
  0
LINE
  5
B6F2
330
B46F
100
AcDbEntity
  8
5
  6
PHANTOM
100
AcDbLine
 10
307.8749329999999
 20
294.381497
 30
0.0
 11
303.148393
 21
306.491803
 31
0.0
  0
LINE
  5
B6F3
330
B46F
100
AcDbEntity
  8
5
  6
PHANTOM
100
AcDbLine
 10
314.172844
 20
305.749275
 30
0.0
 11
304.857215
 21
302.113472
 31
0.0
  0
LINE
  5
B6F4
330
B46F
100
AcDbEntity
  8
5
  6
PHANTOM
100
AcDbLine
 10
329.7447279999999
 20
306.137464
 30
0.0
 11
329.048556
 21
305.865754
 31
0.0
  0
LINE
  5
B6F5
330
B46F
100
AcDbEntity
  8
5
  6
PHANTOM
100
AcDbLine
 10
241.437371
 20
261.197893
 30
0.0
 11
291.558058
 21
261.008289
 31
0.0
  0
LINE
  5
B6F6
330
B46F
100
AcDbEntity
  8
1
  6
Continuous
100
AcDbLine
 10
219.356462
 20
262.774582
 30
0.0
 11
221.351171
 21
262.6291959999999
 31
0.0
  0
LINE
  5
B6F7
330
B46F
100
AcDbEntity
  8
1
  6
Continuous
100
AcDbLine
 10
363.999976
 20
275.1859769999999
 30
0.0
 11
410.000006
 21
275.1859769999999
 31
0.0
  0
LINE
  5
B6F8
330
B46F
100
AcDbEntity
  8
4
  6
CENTER
100
AcDbLine
 10
422.245384
 20
285.185985
 30
0.0
 11
351.135467
 21
285.185942
 31
0.0
  0
LINE
  5
B6F9
330
B46F
100
AcDbEntity
  8
1
  6
Continuous
100
AcDbLine
 10
363.999994
 20
295.1859499999999
 30
0.0
 11
409.999994
 21
295.185977
 31
0.0
  0
LINE
  5
B6FA
330
B46F
100
AcDbEntity
  8
5
  6
PHANTOM
100
AcDbLine
 10
351.5694199999999
 20
297.2831739999999
 30
0.0
 11
356.999991
 21
315.1859359999999
 31
0.0
  0
LINE
  5
B6FB
330
B46F
100
AcDbEntity
  8
4
  6
CENTER
100
AcDbLine
 10
341.999991
 20
292.0359359999998
 30
0.0
 11
341.999991
 21
322.1069449999999
 31
0.0
  0
LINE
  5
B6FC
330
B46F
100
AcDbEntity
  8
5
  6
PHANTOM
100
AcDbLine
 10
378.999991
 20
315.1859359999999
 30
0.0
 11
356.999991
 21
315.1859359999999
 31
0.0
  0
LINE
  5
B6FD
330
B46F
100
AcDbEntity
  8
5
  6
PHANTOM
100
AcDbLine
 10
356.999991
 20
318.1859359999999
 30
0.0
 11
356.999991
 21
315.1859359999999
 31
0.0
  0
LINE
  5
B6FE
330
B46F
100
AcDbEntity
  8
4
  6
CENTER
100
AcDbLine
 10
356.999991
 20
322.6859359999999
 30
0.0
 11
356.999991
 21
312.6859359999999
 31
0.0
  0
LINE
  5
B6FF
330
B46F
100
AcDbEntity
  8
5
  6
PHANTOM
100
AcDbLine
 10
378.999991
 20
315.1859359999999
 30
0.0
 11
378.999991
 21
318.1859359999999
 31
0.0
  0
LINE
  5
B700
330
B46F
100
AcDbEntity
  8
4
  6
CENTER
100
AcDbLine
 10
368.999991
 20
322.6859359999999
 30
0.0
 11
368.999991
 21
312.6859359999999
 31
0.0
  0
LINE
  5
B701
330
B46F
100
AcDbEntity
  8
4
  6
CENTER
100
AcDbLine
 10
364.0000039999998
 20
279.3859499999999
 30
0.0
 11
363.999997
 21
290.9859499999999
 31
0.0
  0
LINE
  5
B702
330
B46F
100
AcDbEntity
  8
4
  6
CENTER
100
AcDbLine
 10
387.0000089999999
 20
271.0681579999999
 30
0.0
 11
386.999991
 21
299.8079539999999
 31
0.0
  0
LINE
  5
B703
330
B46F
100
AcDbEntity
  8
1
  6
Continuous
100
AcDbLine
 10
398.999994
 20
295.1859729999998
 30
0.0
 11
399.0000059999999
 21
275.185973
 31
0.0
  0
LINE
  5
B704
330
B46F
100
AcDbEntity
  8
4
  6
CENTER
100
AcDbLine
 10
410.000004
 20
279.385977
 30
0.0
 11
409.9999969999998
 21
290.985977
 31
0.0
  0
ARC
  5
B705
330
B46F
100
AcDbEntity
  8
1
  6
Continuous
100
AcDbCircle
 10
410.0
 20
285.1859769999999
 30
0.0
 40
10.0
100
AcDbArc
 50
270.000035
 51
90.00003499999996
  0
CIRCLE
  5
B706
330
B46F
100
AcDbEntity
  8
1
  6
Continuous
100
AcDbCircle
 10
410.0
 20
285.1859769999999
 30
0.0
 40
2.149999999999999
  0
CIRCLE
  5
B707
330
B46F
100
AcDbEntity
  8
1
  6
Continuous
100
AcDbCircle
 10
187.0
 20
285.185964
 30
0.0
 40
4.5
  0
CIRCLE
  5
B708
330
B46F
100
AcDbEntity
  8
5
  6
PHANTOM
100
AcDbCircle
 10
267.4749799999998
 20
271.0994649999999
 30
0.0
 40
4.5
  0
CIRCLE
  5
B709
330
B46F
100
AcDbEntity
  8
1
  6
Continuous
100
AcDbCircle
 10
266.788383
 20
279.3705549999998
 30
0.0
 40
4.5
  0
CIRCLE
  5
B70A
330
B46F
100
AcDbEntity
  8
1
  6
Continuous
100
AcDbCircle
 10
243.749448
 20
281.0497119999999
 30
0.0
 40
2.5
  0
CIRCLE
  5
B70B
330
B46F
100
AcDbEntity
  8
1
  6
Continuous
100
AcDbCircle
 10
215.8235569999999
 20
283.085124
 30
0.0
 40
2.5
  0
CIRCLE
  5
B70C
330
B46F
100
AcDbEntity
  8
5
  6
PHANTOM
100
AcDbCircle
 10
341.999991
 20
300.1859359999999
 30
0.0
 40
4.5
  0
CIRCLE
  5
B70D
330
B46F
100
AcDbEntity
  8
5
  6
PHANTOM
100
AcDbCircle
 10
315.077809
 20
289.6784589999999
 30
0.0
 40
2.5
  0
CIRCLE
  5
B70E
330
B46F
100
AcDbEntity
  8
5
  6
PHANTOM
100
AcDbCircle
 10
288.9940779999998
 20
279.498221
 30
0.0
 40
2.5
  0
CIRCLE
  5
B70F
330
B46F
100
AcDbEntity
  8
1
  6
Continuous
100
AcDbCircle
 10
363.9999819999999
 20
285.1859769999999
 30
0.0
 40
2.149999999999999
  0
ARC
  5
B710
330
B46F
100
AcDbEntity
  8
1
  6
Continuous
100
AcDbCircle
 10
363.9999819999999
 20
285.1859769999999
 30
0.0
 40
10.0
100
AcDbArc
 50
89.99996499999998
 51
269.9999649999999
  0
CIRCLE
  5
B711
330
B46F
100
AcDbEntity
  8
1
  6
Continuous
100
AcDbCircle
 10
387.0
 20
285.185964
 30
0.0
 40
4.5
  0
LINE
  5
B712
330
B46F
100
AcDbEntity
  8
1
  6
Continuous
100
AcDbLine
 10
374.9999879999998
 20
295.1859729999998
 30
0.0
 11
374.999976
 21
275.185973
 31
0.0
  0
LINE
  5
B713
330
B46F
100
AcDbEntity
  8
1
  6
Continuous
100
AcDbLine
 10
537.0
 20
183.592982
 30
0.0
 11
508.593616
 21
183.592982
 31
0.0
  0
LINE
  5
B714
330
B46F
100
AcDbEntity
  8
1
  6
Continuous
100
AcDbLine
 10
537.0
 20
179.592982
 30
0.0
 11
508.593616
 21
179.592982
 31
0.0
  0
LINE
  5
B715
330
B46F
100
AcDbEntity
  8
4
  6
CENTER
100
AcDbLine
 10
567.0
 20
181.592982
 30
0.0
 11
487.0
 21
181.592982
 31
0.0
  0
LINE
  5
B716
330
B46F
100
AcDbEntity
  8
1
  6
Continuous
100
AcDbLine
 10
517.0
 20
185.092982
 30
0.0
 11
537.0
 21
185.092982
 31
0.0
  0
LINE
  5
B717
330
B46F
100
AcDbEntity
  8
1
  6
Continuous
100
AcDbLine
 10
517.0
 20
193.592982
 30
0.0
 11
537.0
 21
193.592982
 31
0.0
  0
LINE
  5
B718
330
B46F
100
AcDbEntity
  8
1
  6
Continuous
100
AcDbLine
 10
517.0
 20
196.592982
 30
0.0
 11
537.0
 21
196.592982
 31
0.0
  0
LINE
  5
B719
330
B46F
100
AcDbEntity
  8
1
  6
Continuous
100
AcDbLine
 10
521.0
 20
176.092982
 30
0.0
 11
533.0
 21
176.092982
 31
0.0
  0
LINE
  5
B71A
330
B46F
100
AcDbEntity
  8
1
  6
Continuous
100
AcDbLine
 10
520.0
 20
177.092982
 30
0.0
 11
534.0
 21
177.092982
 31
0.0
  0
LINE
  5
B71B
330
B46F
100
AcDbEntity
  8
1
  6
Continuous
100
AcDbLine
 10
520.0
 20
179.092982
 30
0.0
 11
534.0
 21
179.092982
 31
0.0
  0
LINE
  5
B71C
330
B46F
100
AcDbEntity
  8
1
  6
Continuous
100
AcDbLine
 10
537.0
 20
179.592982
 30
0.0
 11
537.0
 21
196.592982
 31
0.0
  0
LINE
  5
B71D
330
B46F
100
AcDbEntity
  8
1
  6
Continuous
100
AcDbLine
 10
534.0
 20
177.092982
 30
0.0
 11
534.0
 21
179.092982
 31
0.0
  0
LINE
  5
B71E
330
B46F
100
AcDbEntity
  8
1
  6
Continuous
100
AcDbLine
 10
532.0
 20
179.092982
 30
0.0
 11
532.0
 21
179.592982
 31
0.0
  0
LINE
  5
B71F
330
B46F
100
AcDbEntity
  8
1
  6
Continuous
100
AcDbLine
 10
534.0
 20
177.092982
 30
0.0
 11
533.0
 21
176.092982
 31
0.0
  0
LINE
  5
B720
330
B46F
100
AcDbEntity
  8
1
  6
Continuous
100
AcDbLine
 10
517.0
 20
183.592982
 30
0.0
 11
517.0
 21
196.592982
 31
0.0
  0
LINE
  5
B721
330
B46F
100
AcDbEntity
  8
1
  6
Continuous
100
AcDbLine
 10
522.0
 20
179.092982
 30
0.0
 11
522.0
 21
179.592982
 31
0.0
  0
LINE
  5
B722
330
B46F
100
AcDbEntity
  8
1
  6
Continuous
100
AcDbLine
 10
520.0
 20
177.092982
 30
0.0
 11
520.0
 21
179.092982
 31
0.0
  0
LINE
  5
B723
330
B46F
100
AcDbEntity
  8
1
  6
Continuous
100
AcDbLine
 10
520.0
 20
177.092982
 30
0.0
 11
521.0
 21
176.092982
 31
0.0
  0
LINE
  5
B724
330
B46F
100
AcDbEntity
  8
1
  6
Continuous
100
AcDbLine
 10
542.0
 20
170.592982
 30
0.0
 11
542.0
 21
173.592982
 31
0.0
  0
LINE
  5
B725
330
B46F
100
AcDbEntity
  8
4
  6
CENTER
100
AcDbLine
 10
527.0
 20
162.838473
 30
0.0
 11
527.0
 21
198.818982
 31
0.0
  0
LINE
  5
B726
330
B46F
100
AcDbEntity
  8
1
  6
Continuous
100
AcDbLine
 10
512.0
 20
170.592982
 30
0.0
 11
512.0
 21
172.898662
 31
0.0
  0
ARC
  5
B727
330
B46F
100
AcDbEntity
  8
1
  6
Continuous
100
AcDbCircle
 10
521.184558
 20
175.7412379999999
 30
0.0
 40
6.748407
100
AcDbArc
 50
189.7966669999999
 51
350.2033329999999
  0
LINE
  5
B728
330
B46F
100
AcDbEntity
  8
4
  6
CENTER
100
AcDbLine
 10
521.184558
 20
166.447525
 30
0.0
 11
521.184558
 21
191.821598
 31
0.0
  0
ARC
  5
B729
330
B46F
100
AcDbEntity
  8
1
  6
Continuous
100
AcDbCircle
 10
524.8991389999998
 20
173.3572669999998
 30
0.0
 40
3.714285999999998
100
AcDbArc
 50
259.272405
 51
345.7499669999998
  0
ARC
  5
B72A
330
B46F
100
AcDbEntity
  8
1
  6
Continuous
100
AcDbCircle
 10
527.0
 20
171.7412379999998
 30
0.0
 40
6.748407
100
AcDbArc
 50
203.9479159999999
 51
350.2033329999999
  0
LINE
  5
B72B
330
B46F
100
AcDbEntity
  8
1
  6
Continuous
100
AcDbLine
 10
542.0
 20
170.592982
 30
0.0
 11
527.3799949999999
 21
170.592982
 31
0.0
  0
LINE
  5
B72C
330
B46F
100
AcDbEntity
  8
1
  6
Continuous
100
AcDbLine
 10
511.184581
 20
188.592982
 30
0.0
 11
517.0
 21
188.592982
 31
0.0
  0
LINE
  5
B72D
330
B46F
100
AcDbEntity
  8
1
  6
Continuous
100
AcDbLine
 10
511.184581
 20
174.592982
 30
0.0
 11
531.1845789999998
 21
174.592982
 31
0.0
  0
LINE
  5
B72E
330
B46F
100
AcDbEntity
  8
1
  6
Continuous
100
AcDbLine
 10
512.830596
 20
185.092982
 30
0.0
 11
517.0
 21
185.092982
 31
0.0
  0
LINE
  5
B72F
330
B46F
100
AcDbEntity
  8
1
  6
Continuous
100
AcDbLine
 10
520.0
 20
178.092982
 30
0.0
 11
512.830596
 21
178.092982
 31
0.0
  0
LINE
  5
B730
330
B46F
100
AcDbEntity
  8
1
  6
Continuous
100
AcDbLine
 10
511.184581
 20
186.592982
 30
0.0
 11
517.0
 21
186.592982
 31
0.0
  0
LINE
  5
B731
330
B46F
100
AcDbEntity
  8
1
  6
Continuous
100
AcDbLine
 10
511.184581
 20
176.592982
 30
0.0
 11
520.5
 21
176.592982
 31
0.0
  0
LINE
  5
B732
330
B46F
100
AcDbEntity
  8
1
  6
Continuous
100
AcDbLine
 10
531.1845789999998
 20
174.592982
 30
0.0
 11
531.1845789999998
 21
176.092982
 31
0.0
  0
ARC
  5
B733
330
B46F
100
AcDbEntity
  8
1
  6
Continuous
100
AcDbCircle
 10
521.184558
 20
182.5929819999998
 30
0.0
 40
7.5
100
AcDbArc
 50
123.913528
 51
126.869898
  0
LINE
  5
B734
330
B46F
100
AcDbEntity
  8
1
  6
Continuous
100
AcDbLine
 10
498.0
 20
173.592982
 30
0.0
 11
511.46047
 21
173.592982
 31
0.0
  0
LINE
  5
B735
330
B46F
100
AcDbEntity
  8
1
  6
Continuous
100
AcDbLine
 10
498.0
 20
189.592982
 30
0.0
 11
511.46047
 21
189.592982
 31
0.0
  0
LINE
  5
B736
330
B46F
100
AcDbEntity
  8
1
  6
Continuous
100
AcDbLine
 10
542.0
 20
192.592982
 30
0.0
 11
537.0
 21
192.592982
 31
0.0
  0
CIRCLE
  5
B737
330
B46F
100
AcDbEntity
  8
1
  6
Continuous
100
AcDbCircle
 10
542.0
 20
181.592982
 30
0.0
 40
4.299999999999998
  0
ARC
  5
B738
330
B46F
100
AcDbEntity
  8
1
  6
Continuous
100
AcDbCircle
 10
556.0
 20
181.592982
 30
0.0
 40
8.0
100
AcDbArc
 50
270.0
 51
90.0
  0
CIRCLE
  5
B739
330
B46F
100
AcDbEntity
  8
1
  6
Continuous
100
AcDbCircle
 10
554.0
 20
181.592982
 30
0.0
 40
4.299999999999998
  0
CIRCLE
  5
B73A
330
B46F
100
AcDbEntity
  8
1
  6
Continuous
100
AcDbCircle
 10
554.0
 20
181.592982
 30
0.0
 40
2.149999999999999
  0
LINE
  5
B73B
330
B46F
100
AcDbEntity
  8
4
  6
CENTER
100
AcDbLine
 10
554.0
 20
187.3929819999999
 30
0.0
 11
554.0
 21
175.792982
 31
0.0
  0
CIRCLE
  5
B73C
330
B46F
100
AcDbEntity
  8
1
  6
Continuous
100
AcDbCircle
 10
542.0
 20
181.592982
 30
0.0
 40
2.149999999999999
  0
LINE
  5
B73D
330
B46F
100
AcDbEntity
  8
4
  6
CENTER
100
AcDbLine
 10
542.0
 20
187.3929819999999
 30
0.0
 11
542.0
 21
175.792982
 31
0.0
  0
LINE
  5
B73E
330
B46F
100
AcDbEntity
  8
1
  6
Continuous
100
AcDbLine
 10
537.0
 20
188.592982
 30
0.0
 11
537.0
 21
189.3929819999999
 31
0.0
  0
LINE
  5
B73F
330
B46F
100
AcDbEntity
  8
1
  6
Continuous
100
AcDbLine
 10
542.0
 20
189.592982
 30
0.0
 11
542.0
 21
192.592982
 31
0.0
  0
CIRCLE
  5
B740
330
B46F
100
AcDbEntity
  8
1
  6
Continuous
100
AcDbCircle
 10
500.0
 20
181.592982
 30
0.0
 40
4.299999999999998
  0
CIRCLE
  5
B741
330
B46F
100
AcDbEntity
  8
1
  6
Continuous
100
AcDbCircle
 10
500.0
 20
181.592982
 30
0.0
 40
2.149999999999999
  0
LINE
  5
B742
330
B46F
100
AcDbEntity
  8
4
  6
CENTER
100
AcDbLine
 10
500.0
 20
187.3929819999999
 30
0.0
 11
500.0
 21
175.792982
 31
0.0
  0
LINE
  5
B743
330
B46F
100
AcDbEntity
  8
4
  6
CENTER
100
AcDbLine
 10
512.0
 20
187.3929819999999
 30
0.0
 11
512.0
 21
175.792982
 31
0.0
  0
LINE
  5
B744
330
B46F
100
AcDbEntity
  8
1
  6
Continuous
100
AcDbLine
 10
512.0
 20
190.287302
 30
0.0
 11
512.0
 21
192.592982
 31
0.0
  0
ARC
  5
B745
330
B46F
100
AcDbEntity
  8
1
  6
Continuous
100
AcDbCircle
 10
498.0
 20
181.592982
 30
0.0
 40
8.0
100
AcDbArc
 50
90.0
 51
270.0
  0
LINE
  5
B746
330
B46F
100
AcDbEntity
  8
1
  6
Continuous
100
AcDbLine
 10
517.0
 20
192.592982
 30
0.0
 11
512.0
 21
192.592982
 31
0.0
  0
LINE
  5
B747
330
B46F
100
AcDbEntity
  8
1
  6
Continuous
100
AcDbLine
 10
537.0
 20
189.592982
 30
0.0
 11
556.0
 21
189.592982
 31
0.0
  0
LINE
  5
B748
330
B46F
100
AcDbEntity
  8
1
  6
Continuous
100
AcDbLine
 10
508.593616
 20
179.592982
 30
0.0
 11
508.593616
 21
183.592982
 31
0.0
  0
LINE
  5
B749
330
B46F
100
AcDbEntity
  8
4
  6
CENTER
100
AcDbLine
 10
522.8637269999998
 20
167.467397
 30
0.0
 11
522.8637269999998
 21
194.2893819999999
 31
0.0
  0
LINE
  5
B74A
330
B46F
100
AcDbEntity
  8
4
  6
CENTER
100
AcDbLine
 10
524.8991389999998
 20
167.467397
 30
0.0
 11
524.8991389999998
 21
194.162262
 31
0.0
  0
LINE
  5
B74B
330
B46F
100
AcDbEntity
  8
1
  6
Continuous
100
AcDbLine
 10
516.8214789999998
 20
170.592982
 30
0.0
 11
512.0
 21
170.592982
 31
0.0
  0
LINE
  5
B74C
330
B46F
100
AcDbEntity
  8
1
  6
Continuous
100
AcDbLine
 10
529.899139
 20
173.592982
 30
0.0
 11
556.0
 21
173.592982
 31
0.0
  0
LINE
  5
B74D
330
B46F
100
AcDbEntity
  8
1
  6
Continuous
100
AcDbLine
 10
504.443211
 20
176.442982
 30
0.0
 11
504.443211
 21
186.742982
 31
0.0
  0
LINE
  5
B74E
330
B46F
100
AcDbEntity
  8
1
  6
Continuous
100
AcDbLine
 10
511.2708569999998
 20
174.442982
 30
0.0
 11
511.2708569999998
 21
174.592982
 31
0.0
  0
LINE
  5
B74F
330
B46F
100
AcDbEntity
  8
1
  6
Continuous
100
AcDbLine
 10
513.270857
 20
190.742982
 30
0.0
 11
516.99288
 21
190.742982
 31
0.0
  0
LINE
  5
B750
330
B46F
100
AcDbEntity
  8
1
  6
Continuous
100
AcDbLine
 10
506.443211
 20
188.742982
 30
0.0
 11
511.2708569999998
 21
188.742982
 31
0.0
  0
LINE
  5
B751
330
B46F
100
AcDbEntity
  8
1
  6
Continuous
100
AcDbLine
 10
506.443211
 20
174.442982
 30
0.0
 11
511.2708569999998
 21
174.442982
 31
0.0
  0
LINE
  5
B752
330
B46F
100
AcDbEntity
  8
1
  6
Continuous
100
AcDbLine
 10
513.270857
 20
172.442982
 30
0.0
 11
515.2970709999998
 21
172.442982
 31
0.0
  0
ARC
  5
B753
330
B46F
100
AcDbEntity
  8
1
  6
Continuous
100
AcDbCircle
 10
506.443211
 20
176.442982
 30
0.0
 40
2.0
100
AcDbArc
 50
180.0
 51
270.0
  0
ARC
  5
B754
330
B46F
100
AcDbEntity
  8
1
  6
Continuous
100
AcDbCircle
 10
506.443211
 20
186.742982
 30
0.0
 40
2.0
100
AcDbArc
 50
90.0
 51
180.0
  0
ARC
  5
B755
330
B46F
100
AcDbEntity
  8
1
  6
Continuous
100
AcDbCircle
 10
513.270857
 20
188.742982
 30
0.0
 40
2.0
100
AcDbArc
 50
90.0
 51
180.0
  0
ARC
  5
B756
330
B46F
100
AcDbEntity
  8
1
  6
Continuous
100
AcDbCircle
 10
513.270857
 20
174.442982
 30
0.0
 40
2.0
100
AcDbArc
 50
180.0
 51
270.0
  0
LINE
  5
B757
330
B46F
100
AcDbEntity
  8
1
  6
Continuous
100
AcDbLine
 10
510.8358869999998
 20
177.5929819999998
 30
0.0
 11
510.8358869999998
 21
179.592982
 31
0.0
  0
LINE
  5
B758
330
B46F
100
AcDbEntity
  8
1
  6
Continuous
100
AcDbLine
 10
511.184581
 20
174.592982
 30
0.0
 11
511.184581
 21
176.592982
 31
0.0
  0
LINE
  5
B759
330
B46F
100
AcDbEntity
  8
1
  6
Continuous
100
AcDbLine
 10
512.830596
 20
177.5929819999998
 30
0.0
 11
512.830596
 21
179.592982
 31
0.0
  0
LINE
  5
B75A
330
B46F
100
AcDbEntity
  8
1
  6
Continuous
100
AcDbLine
 10
511.184581
 20
186.592982
 30
0.0
 11
511.184581
 21
188.592982
 31
0.0
  0
ARC
  5
B75B
330
B46F
100
AcDbEntity
  8
1
  6
Continuous
100
AcDbCircle
 10
513.830596
 20
177.5929819999998
 30
0.0
 40
1.0
100
AcDbArc
 50
180.0
 51
270.0
  0
ARC
  5
B75C
330
B46F
100
AcDbEntity
  8
1
  6
Continuous
100
AcDbCircle
 10
513.830596
 20
185.592982
 30
0.0
 40
1.0
100
AcDbArc
 50
90.0
 51
180.0
  0
ARC
  5
B75D
330
B46F
100
AcDbEntity
  8
1
  6
Continuous
100
AcDbCircle
 10
513.8358869999998
 20
177.5929819999998
 30
0.0
 40
3.0
100
AcDbArc
 50
180.0
 51
207.899628
  0
ARC
  5
B75E
330
B46F
100
AcDbEntity
  8
1
  6
Continuous
100
AcDbCircle
 10
513.8358869999998
 20
185.592982
 30
0.0
 40
3.0
100
AcDbArc
 50
152.1003719999999
 51
180.0
  0
LINE
  5
B75F
330
B46F
100
AcDbEntity
  8
1
  6
Continuous
100
AcDbLine
 10
511.2708569999998
 20
188.592982
 30
0.0
 11
511.2708569999998
 21
188.742982
 31
0.0
  0
LINE
  5
B760
330
B46F
100
AcDbEntity
  8
1
  6
Continuous
100
AcDbLine
 10
510.8358869999998
 20
183.592982
 30
0.0
 11
510.8358869999998
 21
185.592982
 31
0.0
  0
LINE
  5
B761
330
B46F
100
AcDbEntity
  8
1
  6
Continuous
100
AcDbLine
 10
512.830596
 20
183.592982
 30
0.0
 11
512.830596
 21
185.592982
 31
0.0
  0
LINE
  5
B762
330
B46F
100
AcDbEntity
  8
1
  6
Continuous
100
AcDbLine
 10
529.899139
 20
172.442982
 30
0.0
 11
529.899139
 21
174.592982
 31
0.0
  0
LINE
  5
B763
330
B46F
100
AcDbEntity
  8
1
  6
Continuous
100
AcDbLine
 10
527.0720449999998
 20
172.442982
 30
0.0
 11
529.899139
 21
172.442982
 31
0.0
  0
LINE
  5
B764
330
B46F
100
AcDbEntity
  8
4
  6
CENTER
100
AcDbLine
 10
22.0
 20
181.698287
 30
0.0
 11
102.0
 21
181.698287
 31
0.0
  0
LINE
  5
B765
330
B46F
100
AcDbEntity
  8
1
  6
Continuous
100
AcDbLine
 10
77.0
 20
189.698287
 30
0.0
 11
77.0
 21
192.6982869999999
 31
0.0
  0
LINE
  5
B766
330
B46F
100
AcDbEntity
  8
1
  6
Continuous
100
AcDbLine
 10
72.0
 20
192.6982869999999
 30
0.0
 11
72.0
 21
196.698287
 31
0.0
  0
LINE
  5
B767
330
B46F
100
AcDbEntity
  8
1
  6
Continuous
100
AcDbLine
 10
47.0
 20
189.698287
 30
0.0
 11
47.0
 21
192.6982869999999
 31
0.0
  0
LINE
  5
B768
330
B46F
100
AcDbEntity
  8
1
  6
Continuous
100
AcDbLine
 10
52.0
 20
192.6982869999999
 30
0.0
 11
52.0
 21
196.698287
 31
0.0
  0
LINE
  5
B769
330
B46F
100
AcDbEntity
  8
4
  6
CENTER
100
AcDbLine
 10
66.136273
 20
167.572703
 30
0.0
 11
66.136273
 21
194.3946869999998
 31
0.0
  0
LINE
  5
B76A
330
B46F
100
AcDbEntity
  8
4
  6
CENTER
100
AcDbLine
 10
64.100861
 20
167.572703
 30
0.0
 11
64.100861
 21
194.2675669999999
 31
0.0
  0
LINE
  5
B76B
330
B46F
100
AcDbEntity
  8
4
  6
CENTER
100
AcDbLine
 10
62.0
 20
162.943778
 30
0.0
 11
62.0
 21
198.9242869999999
 31
0.0
  0
LINE
  5
B76C
330
B46F
100
AcDbEntity
  8
1
  6
Continuous
100
AcDbLine
 10
91.0
 20
173.698287
 30
0.0
 11
77.0
 21
173.698287
 31
0.0
  0
ARC
  5
B76D
330
B46F
100
AcDbEntity
  8
1
  6
Continuous
100
AcDbCircle
 10
62.0
 20
171.846543
 30
0.0
 40
6.748407
100
AcDbArc
 50
189.7966669999999
 51
350.203334
  0
LINE
  5
B76E
330
B46F
100
AcDbEntity
  8
1
  6
Continuous
100
AcDbLine
 10
47.0
 20
170.698287
 30
0.0
 11
77.0
 21
170.698287
 31
0.0
  0
CIRCLE
  5
B76F
330
B46F
100
AcDbEntity
  8
1
  6
Continuous
100
AcDbCircle
 10
35.0
 20
181.698287
 30
0.0
 40
2.149999999999999
  0
LINE
  5
B770
330
B46F
100
AcDbEntity
  8
1
  6
Continuous
100
AcDbLine
 10
91.0
 20
189.698287
 30
0.0
 11
77.0
 21
189.698287
 31
0.0
  0
ARC
  5
B771
330
B46F
100
AcDbEntity
  8
1
  6
Continuous
100
AcDbCircle
 10
33.0
 20
181.698287
 30
0.0
 40
8.0
100
AcDbArc
 50
90.0
 51
270.0
  0
LINE
  5
B772
330
B46F
100
AcDbEntity
  8
4
  6
CENTER
100
AcDbLine
 10
35.0
 20
187.498287
 30
0.0
 11
35.0
 21
175.898287
 31
0.0
  0
LINE
  5
B773
330
B46F
100
AcDbEntity
  8
4
  6
CENTER
100
AcDbLine
 10
47.0
 20
187.498287
 30
0.0
 11
47.0
 21
175.898287
 31
0.0
  0
LINE
  5
B774
330
B46F
100
AcDbEntity
  8
1
  6
Continuous
100
AcDbLine
 10
47.0
 20
170.698287
 30
0.0
 11
47.0
 21
173.698287
 31
0.0
  0
CIRCLE
  5
B775
330
B46F
100
AcDbEntity
  8
1
  6
Continuous
100
AcDbCircle
 10
47.0
 20
181.698287
 30
0.0
 40
2.149999999999999
  0
LINE
  5
B776
330
B46F
100
AcDbEntity
  8
4
  6
CENTER
100
AcDbLine
 10
77.0
 20
187.498287
 30
0.0
 11
77.0
 21
175.898287
 31
0.0
  0
LINE
  5
B777
330
B46F
100
AcDbEntity
  8
4
  6
CENTER
100
AcDbLine
 10
67.815442
 20
166.55283
 30
0.0
 11
67.815442
 21
191.926903
 31
0.0
  0
ARC
  5
B778
330
B46F
100
AcDbEntity
  8
1
  6
Continuous
100
AcDbCircle
 10
75.72914299999998
 20
174.548287
 30
0.0
 40
2.0
100
AcDbArc
 50
309.4517599999999
 51
334.8493369999999
  0
ARC
  5
B779
330
B46F
100
AcDbEntity
  8
1
  6
Continuous
100
AcDbCircle
 10
67.815442
 20
175.846543
 30
0.0
 40
6.748407
100
AcDbArc
 50
272.990162
 51
310.280835
  0
LINE
  5
B77A
330
B46F
100
AcDbEntity
  8
1
  6
Continuous
100
AcDbLine
 10
77.0
 20
170.698287
 30
0.0
 11
77.0
 21
173.698287
 31
0.0
  0
ARC
  5
B77B
330
B46F
100
AcDbEntity
  8
1
  6
Continuous
100
AcDbCircle
 10
75.72914299999998
 20
188.8482869999999
 30
0.0
 40
2.0
100
AcDbArc
 50
25.150663
 51
50.54823999999999
  0
LINE
  5
B77C
330
B46F
100
AcDbEntity
  8
4
  6
CENTER
100
AcDbLine
 10
89.0
 20
187.498287
 30
0.0
 11
89.0
 21
175.898287
 31
0.0
  0
ARC
  5
B77D
330
B46F
100
AcDbEntity
  8
1
  6
Continuous
100
AcDbCircle
 10
91.0
 20
181.698287
 30
0.0
 40
8.0
100
AcDbArc
 50
270.0
 51
90.0
  0
CIRCLE
  5
B77E
330
B46F
100
AcDbEntity
  8
1
  6
Continuous
100
AcDbCircle
 10
89.0
 20
181.698287
 30
0.0
 40
2.149999999999999
  0
LINE
  5
B77F
330
B46F
100
AcDbEntity
  8
1
  6
Continuous
100
AcDbLine
 10
72.0
 20
196.698287
 30
0.0
 11
52.0
 21
196.698287
 31
0.0
  0
LINE
  5
B780
330
B46F
100
AcDbEntity
  8
1
  6
Continuous
100
AcDbLine
 10
72.0
 20
193.6982869999999
 30
0.0
 11
65.694591
 21
193.6982869999999
 31
0.0
  0
LINE
  5
B781
330
B46F
100
AcDbEntity
  8
1
  6
Continuous
100
AcDbLine
 10
47.0
 20
192.6982869999999
 30
0.0
 11
77.0
 21
192.6982869999999
 31
0.0
  0
LINE
  5
B782
330
B46F
100
AcDbEntity
  8
1
  6
Continuous
100
AcDbLine
 10
47.0
 20
173.698287
 30
0.0
 11
33.0
 21
173.698287
 31
0.0
  0
LINE
  5
B783
330
B46F
100
AcDbEntity
  8
1
  6
Continuous
100
AcDbLine
 10
47.0
 20
189.698287
 30
0.0
 11
33.0
 21
189.698287
 31
0.0
  0
CIRCLE
  5
B784
330
B46F
100
AcDbEntity
  8
1
  6
Continuous
100
AcDbCircle
 10
77.0
 20
181.698287
 30
0.0
 40
2.149999999999999
  0
ARC
  5
B785
330
B46F
100
AcDbEntity
  8
1
  6
Continuous
100
AcDbCircle
 10
62.0
 20
189.898287
 30
0.0
 40
5.299999999999998
100
AcDbArc
 50
31.890792
 51
148.1092079999999
  0
LINE
  5
B786
330
B46F
100
AcDbEntity
  8
1
  6
Continuous
100
AcDbLine
 10
58.30540899999999
 20
193.6982869999999
 30
0.0
 11
52.0
 21
193.6982869999999
 31
0.0
  0
LINE
  5
B787
330
B46F
100
AcDbEntity
  8
1
  6
Continuous
100
AcDbLine
 10
172.0
 20
248.185964
 30
0.0
 11
169.0
 21
248.185964
 31
0.0
  0
LINE
  5
B788
330
B46F
100
AcDbEntity
  8
4
  6
CENTER
100
AcDbLine
 10
400.974401
 20
388.778946
 30
0.0
 11
161.3449909999999
 21
388.778946
 31
0.0
  0
ENDSEC
  0
SECTION
  2
OBJECTS
  0
DICTIONARY
  5
B45D
330
0
100
AcDbDictionary
281
     1
  3
ACAD_CIP_PREVIOUS_PRODUCT_INFO
350
B7EE
  3
ACAD_COLOR
350
B7D0
  3
ACAD_DETAILVIEWSTYLE
350
B7E9
  3
ACAD_GROUP
350
B45E
  3
ACAD_LAYOUT
350
B46A
  3
ACAD_MATERIAL
350
B79E
  3
ACAD_MLEADERSTYLE
350
B7E5
  3
ACAD_MLINESTYLE
350
B467
  3
ACAD_PLOTSETTINGS
350
B469
  3
ACAD_PLOTSTYLENAME
350
B79C
  3
ACAD_SCALELIST
350
B7D3
  3
ACAD_SECTIONVIEWSTYLE
350
B7E7
  3
ACAD_TABLESTYLE
350
B7D1
  3
ACAD_VISUALSTYLE
350
B7B7
  3
ACDB_RECOMPOSE_DATA
350
B80C
  3
AcDbVariableDictionary
350
B7FF
  3
DWGPROPS
350
B80D
  0
DICTIONARY
  5
B7EF
330
B461
100
AcDbDictionary
280
     1
281
     1
  3
ADSK_XREC_LAYER_RECONCILED
360
B7F0
  0
DICTIONARY
  5
B7F1
330
B477
100
AcDbDictionary
280
     1
281
     1
  3
ADSK_XREC_LAYER_RECONCILED
360
B7F2
  0
DICTIONARY
  5
B7F3
330
B478
100
AcDbDictionary
280
     1
281
     1
  3
ADSK_XREC_LAYER_RECONCILED
360
B7F4
  0
DICTIONARY
  5
B7F5
330
B479
100
AcDbDictionary
280
     1
281
     1
  3
ADSK_XREC_LAYER_RECONCILED
360
B7F6
  0
DICTIONARY
  5
B7F7
330
B47A
100
AcDbDictionary
280
     1
281
     1
  3
ADSK_XREC_LAYER_RECONCILED
360
B7F8
  0
DICTIONARY
  5
B7F9
330
B47B
100
AcDbDictionary
280
     1
281
     1
  3
ADSK_XREC_LAYER_RECONCILED
360
B7FA
  0
DICTIONARY
  5
B7FB
330
B47C
100
AcDbDictionary
280
     1
281
     1
  3
ADSK_XREC_LAYER_RECONCILED
360
B7FC
  0
DICTIONARY
  5
B7FD
330
B47D
100
AcDbDictionary
280
     1
281
     1
  3
ADSK_XREC_LAYER_RECONCILED
360
B7FE
  0
DICTIONARY
  5
B797
330
B46F
100
AcDbDictionary
281
     1
  3
ACAD_LAYOUTSELFREF
350
B798
  0
DICTIONARY
  5
B795
330
B46B
100
AcDbDictionary
281
     1
  3
ACAD_LAYOUTSELFREF
350
B796
  0
XRECORD
  5
B7EE
102
{ACAD_REACTORS
330
B45D
102
}
330
B45D
100
AcDbXrecord
280
     1
300
ACDLT
300
2014
300
ACDLT_F_S
  0
DICTIONARY
  5
B7D0
102
{ACAD_REACTORS
330
B45D
102
}
330
B45D
100
AcDbDictionary
281
     1
  0
DICTIONARY
  5
B7E9
102
{ACAD_REACTORS
330
B45D
102
}
330
B45D
100
AcDbDictionary
281
     1
  3
Imperial24
350
B7EA
  0
DICTIONARY
  5
B45E
102
{ACAD_REACTORS
330
B45D
102
}
330
B45D
100
AcDbDictionary
281
     1
  0
DICTIONARY
  5
B46A
102
{ACAD_REACTORS
330
B45D
102
}
330
B45D
100
AcDbDictionary
281
     1
  3
Model
350
B7EB
  3
レイアウト1
350
B7EC
  0
DICTIONARY
  5
B79E
102
{ACAD_REACTORS
330
B45D
102
}
330
B45D
100
AcDbDictionary
281
     1
  3
ByBlock
350
B7A7
  3
ByLayer
350
B79F
  3
Global
350
B7AF
  0
DICTIONARY
  5
B7E5
102
{ACAD_REACTORS
330
B45D
102
}
330
B45D
100
AcDbDictionary
281
     1
  3
Standard
350
B7E6
  0
DICTIONARY
  5
B467
102
{ACAD_REACTORS
330
B45D
102
}
330
B45D
100
AcDbDictionary
281
     1
  3
STANDARD
350
B468
  0
DICTIONARY
  5
B469
102
{ACAD_REACTORS
330
B45D
102
}
330
B45D
100
AcDbDictionary
281
     1
  0
ACDBDICTIONARYWDFLT
  5
B79C
102
{ACAD_REACTORS
330
B45D
102
}
330
B45D
100
AcDbDictionary
281
     1
  3
Normal
350
B79D
100
AcDbDictionaryWithDefault
340
B79D
  0
DICTIONARY
  5
B7D3
102
{ACAD_REACTORS
330
B45D
102
}
330
B45D
100
AcDbDictionary
281
     1
  3
A0
350
B7D4
  3
A1
350
B7D5
  3
A2
350
B7D6
  3
A3
350
B7D7
  3
A4
350
B7D8
  3
A5
350
B7D9
  3
A6
350
B7DA
  3
A7
350
B7DB
  3
A8
350
B7DC
  3
A9
350
B7DD
  3
B0
350
B7DE
  3
B1
350
B7DF
  3
B2
350
B7E0
  3
B3
350
B7E1
  3
B4
350
B7E2
  3
B5
350
B7E3
  3
B6
350
B7E4
  0
DICTIONARY
  5
B7E7
102
{ACAD_REACTORS
330
B45D
102
}
330
B45D
100
AcDbDictionary
281
     1
  3
Imperial24
350
B7E8
  0
DICTIONARY
  5
B7D1
102
{ACAD_REACTORS
330
B45D
102
}
330
B45D
100
AcDbDictionary
281
     1
  3
Standard
350
B7D2
  0
DICTIONARY
  5
B7B7
102
{ACAD_REACTORS
330
B45D
102
}
330
B45D
100
AcDbDictionary
281
     1
  3
2dWireframe
350
B7BD
  3
Basic
350
B7BC
  3
Brighten
350
B7C3
  3
ColorChange
350
B7C7
  3
Conceptual
350
B7C0
  3
Dim
350
B7C2
  3
EdgeColorOff
350
B7CF
  3
Facepattern
350
B7C6
  3
Flat
350
B7B8
  3
FlatWithEdges
350
B7B9
  3
Gouraud
350
B7BA
  3
GouraudWithEdges
350
B7BB
  3
Hidden
350
B7BF
  3
JitterOff
350
B7CD
  3
Linepattern
350
B7C5
  3
OverhangOff
350
B7CE
  3
Realistic
350
B7C1
  3
Shaded
350
B7CC
  3
Shaded with edges
350
B7CB
  3
Shades of Gray
350
B7C8
  3
Sketchy
350
B7C9
  3
Thicken
350
B7C4
  3
Wireframe
350
B7BE
  3
X-Ray
350
B7CA
  0
XRECORD
  5
B80C
102
{ACAD_REACTORS
330
B45D
102
}
330
B45D
100
AcDbXrecord
280
     1
 90
        1
330
B7D2
  0
DICTIONARY
  5
B7FF
102
{ACAD_REACTORS
330
B45D
102
}
330
B45D
100
AcDbDictionary
281
     1
  3
CANNOSCALE
350
B804
  3
CMLEADERSTYLE
350
B801
  3
CTABLESTYLE
350
B800
  3
CVIEWDETAILSTYLE
350
B802
  3
CVIEWSECTIONSTYLE
350
B803
  3
DIMASSOC
350
B807
  3
INDEXCTL
350
B806
  3
SORTENTS
350
B805
  3
XCLIPFRAME
350
B808
  0
XRECORD
  5
B80D
102
{ACAD_REACTORS
330
B45D
102
}
330
B45D
100
AcDbXrecord
280
     1
  1
DWGPROPS COOKIE
  2

  3

  4

  6

  7

  8
Yoshitsune
  9

300
=
301
=
302
=
303
=
304
=
305
=
306
=
307
=
308
=
309
=
 40
0.0000160185185185
 41
2451344.609323959
 42
2457192.621261285
  1

 90
        0
  0
XRECORD
  5
B7F0
102
{ACAD_REACTORS
330
B7EF
102
}
330
B7EF
100
AcDbXrecord
280
     1
290
     1
  0
XRECORD
  5
B7F2
102
{ACAD_REACTORS
330
B7F1
102
}
330
B7F1
100
AcDbXrecord
280
     1
290
     1
  0
XRECORD
  5
B7F4
102
{ACAD_REACTORS
330
B7F3
102
}
330
B7F3
100
AcDbXrecord
280
     1
290
     1
  0
XRECORD
  5
B7F6
102
{ACAD_REACTORS
330
B7F5
102
}
330
B7F5
100
AcDbXrecord
280
     1
290
     1
  0
XRECORD
  5
B7F8
102
{ACAD_REACTORS
330
B7F7
102
}
330
B7F7
100
AcDbXrecord
280
     1
290
     1
  0
XRECORD
  5
B7FA
102
{ACAD_REACTORS
330
B7F9
102
}
330
B7F9
100
AcDbXrecord
280
     1
290
     1
  0
XRECORD
  5
B7FC
102
{ACAD_REACTORS
330
B7FB
102
}
330
B7FB
100
AcDbXrecord
280
     1
290
     1
  0
XRECORD
  5
B7FE
102
{ACAD_REACTORS
330
B7FD
102
}
330
B7FD
100
AcDbXrecord
280
     1
290
     1
  0
XRECORD
  5
B798
102
{ACAD_REACTORS
330
B797
102
}
330
B797
100
AcDbXrecord
280
     1
340
B46F
  0
XRECORD
  5
B796
102
{ACAD_REACTORS
330
B795
102
}
330
B795
100
AcDbXrecord
280
     1
340
B46B
  0
ACDBDETAILVIEWSTYLE
  5
B7EA
102
{ACAD_XDICTIONARY
360
B845
102
}
102
{ACAD_REACTORS
330
B7E9
102
}
330
B7E9
100
AcDbModelDocViewStyle
 70
     0
  3
Imperial24
290
     0
100
AcDbDetailViewStyle
 70
     0
 71
     0
 90
        3
 71
     1
340
B462
 40
0.24
340
0
 40
0.24
300

 40
0.36
280
     3
 71
     2
340
B466
 90
       25
 71
     3
340
B462
 40
0.24
 90
        1
 40
0.75
 90
        1
300
%<\AcVar ViewType \f "%tc1">% %<\AcVar ViewDetailId>%\PSCALE %<\AcVar ViewScale \f "%sn">%
 71
     4
340
B466
 90
       25
340
B466
 90
       25
280
     0
  0
LAYOUT
  5
B7EB
102
{ACAD_XDICTIONARY
360
B847
102
}
102
{ACAD_REACTORS
330
B46A
102
}
330
B46A
100
AcDbPlotSettings
  1

  2
Canon LBP9100C
  4

  6

 40
0.0
 41
0.0
 42
0.0
 43
0.0
 44
0.0
 45
0.0
 46
0.0
 47
0.0
 48
0.0
 49
0.0
140
0.0
141
0.0
142
1.0
143
1.0
 70
  1712
 72
     0
 73
     0
 74
     0
  7

 75
     0
147
1.0
148
0.0
149
0.0
100
AcDbLayout
  1
Model
 70
     1
 71
     0
 10
0.0
 20
0.0
 11
12.0
 21
9.0
 12
0.0
 22
0.0
 32
0.0
 14
0.0
 24
0.0
 34
0.0
 15
0.0
 25
0.0
 35
0.0
146
0.0
 13
0.0
 23
0.0
 33
0.0
 16
1.0
 26
0.0
 36
0.0
 17
0.0
 27
1.0
 37
0.0
 76
     0
330
B46F
331
B794
  0
LAYOUT
  5
B7EC
102
{ACAD_XDICTIONARY
360
B849
102
}
102
{ACAD_REACTORS
330
B46A
102
}
330
B46A
100
AcDbPlotSettings
  1

  2
Canon LBP9100C
  4

  6

 40
0.0
 41
0.0
 42
0.0
 43
0.0
 44
0.0
 45
0.0
 46
0.0
 47
0.0
 48
0.0
 49
0.0
140
0.0
141
0.0
142
1.0
143
1.0
 70
   688
 72
     0
 73
     0
 74
     5
  7

 75
    16
147
1.0
148
0.0
149
0.0
100
AcDbLayout
  1
レイアウト1
 70
     0
 71
     1
 10
0.0
 20
0.0
 11
420.0
 21
297.0
 12
0.0
 22
0.0
 32
0.0
 14
1.000000000000000E+20
 24
1.000000000000000E+20
 34
1.000000000000000E+20
 15
-1.000000000000000E+20
 25
-1.000000000000000E+20
 35
-1.000000000000000E+20
146
0.0
 13
0.0
 23
0.0
 33
0.0
 16
1.0
 26
0.0
 36
0.0
 17
0.0
 27
1.0
 37
0.0
 76
     0
330
B46B
  0
MATERIAL
  5
B7A7
102
{ACAD_XDICTIONARY
360
B7A8
102
}
102
{ACAD_REACTORS
330
B79E
102
}
330
B79E
100
AcDbMaterial
  1
ByBlock
 72
     0
 43
0.0208333333333333
 43
0.0
 43
0.0
 43
0.0
 43
0.0
 43
0.0208333333333333
 43
0.0
 43
0.0
 43
0.0
 43
0.0
 43
1.0
 43
0.0
 43
0.0
 43
0.0
 43
0.0
 43
1.0
 77
     0
 47
0.0208333333333333
 47
0.0
 47
0.0
 47
0.0
 47
0.0
 47
0.0208333333333333
 47
0.0
 47
0.0
 47
0.0
 47
0.0
 47
1.0
 47
0.0
 47
0.0
 47
0.0
 47
0.0
 47
1.0
171
     0
 49
0.0208333333333333
 49
0.0
 49
0.0
 49
0.0
 49
0.0
 49
0.0208333333333333
 49
0.0
 49
0.0
 49
0.0
 49
0.0
 49
1.0
 49
0.0
 49
0.0
 49
0.0
 49
0.0
 49
1.0
175
     0
142
0.0208333333333333
142
0.0
142
0.0
142
0.0
142
0.0
142
0.0208333333333333
142
0.0
142
0.0
142
0.0
142
0.0
142
1.0
142
0.0
142
0.0
142
0.0
142
0.0
142
1.0
179
     0
144
0.0208333333333333
144
0.0
144
0.0
144
0.0
144
0.0
144
0.0208333333333333
144
0.0
144
0.0
144
0.0
144
0.0
144
1.0
144
0.0
144
0.0
144
0.0
144
0.0
144
1.0
147
0.0208333333333333
147
0.0
147
0.0
147
0.0
147
0.0
147
0.0208333333333333
147
0.0
147
0.0
147
0.0
147
0.0
147
1.0
147
0.0
147
0.0
147
0.0
147
0.0
147
1.0
  0
MATERIAL
  5
B79F
102
{ACAD_XDICTIONARY
360
B7A0
102
}
102
{ACAD_REACTORS
330
B79E
102
}
330
B79E
100
AcDbMaterial
  1
ByLayer
 72
     0
 43
0.0208333333333333
 43
0.0
 43
0.0
 43
0.0
 43
0.0
 43
0.0208333333333333
 43
0.0
 43
0.0
 43
0.0
 43
0.0
 43
1.0
 43
0.0
 43
0.0
 43
0.0
 43
0.0
 43
1.0
 77
     0
 47
0.0208333333333333
 47
0.0
 47
0.0
 47
0.0
 47
0.0
 47
0.0208333333333333
 47
0.0
 47
0.0
 47
0.0
 47
0.0
 47
1.0
 47
0.0
 47
0.0
 47
0.0
 47
0.0
 47
1.0
171
     0
 49
0.0208333333333333
 49
0.0
 49
0.0
 49
0.0
 49
0.0
 49
0.0208333333333333
 49
0.0
 49
0.0
 49
0.0
 49
0.0
 49
1.0
 49
0.0
 49
0.0
 49
0.0
 49
0.0
 49
1.0
175
     0
142
0.0208333333333333
142
0.0
142
0.0
142
0.0
142
0.0
142
0.0208333333333333
142
0.0
142
0.0
142
0.0
142
0.0
142
1.0
142
0.0
142
0.0
142
0.0
142
0.0
142
1.0
179
     0
144
0.0208333333333333
144
0.0
144
0.0
144
0.0
144
0.0
144
0.0208333333333333
144
0.0
144
0.0
144
0.0
144
0.0
144
1.0
144
0.0
144
0.0
144
0.0
144
0.0
144
1.0
147
0.0208333333333333
147
0.0
147
0.0
147
0.0
147
0.0
147
0.0208333333333333
147
0.0
147
0.0
147
0.0
147
0.0
147
1.0
147
0.0
147
0.0
147
0.0
147
0.0
147
1.0
  0
MATERIAL
  5
B7AF
102
{ACAD_XDICTIONARY
360
B7B0
102
}
102
{ACAD_REACTORS
330
B79E
102
}
330
B79E
100
AcDbMaterial
  1
Global
 72
     0
 43
0.0208333333333333
 43
0.0
 43
0.0
 43
0.0
 43
0.0
 43
0.0208333333333333
 43
0.0
 43
0.0
 43
0.0
 43
0.0
 43
1.0
 43
0.0
 43
0.0
 43
0.0
 43
0.0
 43
1.0
 77
     0
 47
0.0208333333333333
 47
0.0
 47
0.0
 47
0.0
 47
0.0
 47
0.0208333333333333
 47
0.0
 47
0.0
 47
0.0
 47
0.0
 47
1.0
 47
0.0
 47
0.0
 47
0.0
 47
0.0
 47
1.0
171
     0
 49
0.0208333333333333
 49
0.0
 49
0.0
 49
0.0
 49
0.0
 49
0.0208333333333333
 49
0.0
 49
0.0
 49
0.0
 49
0.0
 49
1.0
 49
0.0
 49
0.0
 49
0.0
 49
0.0
 49
1.0
175
     0
142
0.0208333333333333
142
0.0
142
0.0
142
0.0
142
0.0
142
0.0208333333333333
142
0.0
142
0.0
142
0.0
142
0.0
142
1.0
142
0.0
142
0.0
142
0.0
142
0.0
142
1.0
179
     0
144
0.0208333333333333
144
0.0
144
0.0
144
0.0
144
0.0
144
0.0208333333333333
144
0.0
144
0.0
144
0.0
144
0.0
144
1.0
144
0.0
144
0.0
144
0.0
144
0.0
144
1.0
147
0.0208333333333333
147
0.0
147
0.0
147
0.0
147
0.0
147
0.0208333333333333
147
0.0
147
0.0
147
0.0
147
0.0
147
1.0
147
0.0
147
0.0
147
0.0
147
0.0
147
1.0
  0
MLEADERSTYLE
  5
B7E6
102
{ACAD_REACTORS
330
B7E5
102
}
330
B7E5
100
AcDbMLeaderStyle
170
     2
171
     1
172
     0
 90
        2
 40
0.0
 41
0.0
173
     1
 91
-1056964608
340
B464
 92
       -2
290
     1
 42
0.09
291
     1
 43
0.36
  3
Standard
 44
0.18
300

342
B462
174
     1
178
     6
175
     1
176
     0
 93
-1056964608
 45
0.18
292
     0
297
     0
 46
0.18
 94
-1056964608
 47
1.0
 49
1.0
140
1.0
293
     1
141
0.0
294
     1
177
     0
142
1.0
295
     0
296
     0
143
0.125
1001
ACAD_MLEADERVER
1070
     2
  0
MLINESTYLE
  5
B468
102
{ACAD_REACTORS
330
B467
102
}
330
B467
100
AcDbMlineStyle
  2
STANDARD
 70
     0
  3

 62
   256
 51
90.0
 52
90.0
 71
     2
 49
0.5
 62
   256
  6
BYLAYER
 49
-0.5
 62
   256
  6
BYLAYER
  0
ACDBPLACEHOLDER
  5
B79D
102
{ACAD_REACTORS
330
B79C
102
}
330
B79C
  0
SCALE
  5
B7D4
102
{ACAD_REACTORS
330
B7D3
102
}
330
B7D3
100
AcDbScale
 70
     0
300
1:1
140
1.0
141
1.0
290
     1
  0
SCALE
  5
B7D5
102
{ACAD_REACTORS
330
B7D3
102
}
330
B7D3
100
AcDbScale
 70
     0
300
1/128" = 1'-0"
140
0.0078125
141
12.0
290
     0
  0
SCALE
  5
B7D6
102
{ACAD_REACTORS
330
B7D3
102
}
330
B7D3
100
AcDbScale
 70
     0
300
1/64" = 1'-0"
140
0.015625
141
12.0
290
     0
  0
SCALE
  5
B7D7
102
{ACAD_REACTORS
330
B7D3
102
}
330
B7D3
100
AcDbScale
 70
     0
300
1/32" = 1'-0"
140
0.03125
141
12.0
290
     0
  0
SCALE
  5
B7D8
102
{ACAD_REACTORS
330
B7D3
102
}
330
B7D3
100
AcDbScale
 70
     0
300
1/16" = 1'-0"
140
0.0625
141
12.0
290
     0
  0
SCALE
  5
B7D9
102
{ACAD_REACTORS
330
B7D3
102
}
330
B7D3
100
AcDbScale
 70
     0
300
3/32" = 1'-0"
140
0.09375
141
12.0
290
     0
  0
SCALE
  5
B7DA
102
{ACAD_REACTORS
330
B7D3
102
}
330
B7D3
100
AcDbScale
 70
     0
300
1/8" = 1'-0"
140
0.125
141
12.0
290
     0
  0
SCALE
  5
B7DB
102
{ACAD_REACTORS
330
B7D3
102
}
330
B7D3
100
AcDbScale
 70
     0
300
3/16" = 1'-0"
140
0.1875
141
12.0
290
     0
  0
SCALE
  5
B7DC
102
{ACAD_REACTORS
330
B7D3
102
}
330
B7D3
100
AcDbScale
 70
     0
300
1/4" = 1'-0"
140
0.25
141
12.0
290
     0
  0
SCALE
  5
B7DD
102
{ACAD_REACTORS
330
B7D3
102
}
330
B7D3
100
AcDbScale
 70
     0
300
3/8" = 1'-0"
140
0.375
141
12.0
290
     0
  0
SCALE
  5
B7DE
102
{ACAD_REACTORS
330
B7D3
102
}
330
B7D3
100
AcDbScale
 70
     0
300
1/2" = 1'-0"
140
0.5
141
12.0
290
     0
  0
SCALE
  5
B7DF
102
{ACAD_REACTORS
330
B7D3
102
}
330
B7D3
100
AcDbScale
 70
     0
300
3/4" = 1'-0"
140
0.75
141
12.0
290
     0
  0
SCALE
  5
B7E0
102
{ACAD_REACTORS
330
B7D3
102
}
330
B7D3
100
AcDbScale
 70
     0
300
1" = 1'-0"
140
1.0
141
12.0
290
     0
  0
SCALE
  5
B7E1
102
{ACAD_REACTORS
330
B7D3
102
}
330
B7D3
100
AcDbScale
 70
     0
300
1-1/2" = 1'-0"
140
1.5
141
12.0
290
     0
  0
SCALE
  5
B7E2
102
{ACAD_REACTORS
330
B7D3
102
}
330
B7D3
100
AcDbScale
 70
     0
300
3" = 1'-0"
140
3.0
141
12.0
290
     0
  0
SCALE
  5
B7E3
102
{ACAD_REACTORS
330
B7D3
102
}
330
B7D3
100
AcDbScale
 70
     0
300
6" = 1'-0"
140
6.0
141
12.0
290
     0
  0
SCALE
  5
B7E4
102
{ACAD_REACTORS
330
B7D3
102
}
330
B7D3
100
AcDbScale
 70
     0
300
1'-0" = 1'-0"
140
12.0
141
12.0
290
     0
  0
ACDBSECTIONVIEWSTYLE
  5
B7E8
102
{ACAD_XDICTIONARY
360
B843
102
}
102
{ACAD_REACTORS
330
B7E7
102
}
330
B7E7
100
AcDbModelDocViewStyle
 70
     0
  3
Imperial24
290
     0
100
AcDbSectionViewStyle
 70
     0
 71
     0
 90
       78
 71
     1
340
B462
 40
0.24
340
0
340
0
 40
0.24
300
I, O, Q, S, X, Z
 40
0.48
 90
        3
 40
0.18
 90
        1
 71
     2
340
B466
 90
       25
340
B466
 90
       50
 40
0.24
 40
0.0
 40
0.24
 71
     3
340
B462
 40
0.24
 90
        1
 40
0.75
 90
        1
300
%<\AcVar ViewType \f "%tc1">% %<\AcVar ViewSectionStartId>%-%<\AcVar ViewSectionEndId>%\PSCALE %<\AcVar ViewScale \f "%sn">%
 71
     4
300
ANSI31
 40
1.0
 90
        0
290
     0
290
     0
 90
        6
 40
0.0
 40
1.570796326794896
 40
0.2617993877991494
 40
1.308996938995747
 40
-0.2617993877991494
 40
1.832595714594046
  0
TABLESTYLE
  5
B7D2
102
{ACAD_XDICTIONARY
360
B80A
102
}
102
{ACAD_REACTORS
330
B7D1
102
}
330
B7D1
100
AcDbTableStyle
  3
Standard
 70
     0
 71
     0
 40
0.06
 41
0.06
280
     0
281
     0
  7
STANDARD
140
0.18
170
     2
 62
     0
 63
     7
283
     0
274
    -2
284
     1
 64
     0
275
    -2
285
     1
 65
     0
276
    -2
286
     1
 66
     0
277
    -2
287
     1
 67
     0
278
    -2
288
     1
 68
     0
279
    -2
289
     1
 69
     0
  7
STANDARD
140
0.25
170
     5
 62
     0
 63
     7
283
     0
274
    -2
284
     1
 64
     0
275
    -2
285
     1
 65
     0
276
    -2
286
     1
 66
     0
277
    -2
287
     1
 67
     0
278
    -2
288
     1
 68
     0
279
    -2
289
     1
 69
     0
  7
STANDARD
140
0.18
170
     5
 62
     0
 63
     7
283
     0
274
    -2
284
     1
 64
     0
275
    -2
285
     1
 65
     0
276
    -2
286
     1
 66
     0
277
    -2
287
     1
 67
     0
278
    -2
288
     1
 68
     0
279
    -2
289
     1
 69
     0
  0
VISUALSTYLE
  5
B7BD
102
{ACAD_XDICTIONARY
360
B81B
102
}
102
{ACAD_REACTORS
330
B7B7
102
}
330
B7B7
100
AcDbVisualStyle
  2
2dWireframe
 70
     4
 71
     0
 72
     2
 73
     0
 90
        0
 40
-0.6
 41
-30.0
 62
     5
 63
     7
 74
     1
 91
        4
 64
     7
 65
   257
 75
     1
175
     1
 42
1.0
 92
        0
 66
   257
 43
1.0
 76
     1
 77
     6
 78
     2
 67
     7
 79
     5
170
     0
171
     0
290
     0
174
     0
 93
        1
 44
0.0
173
     0
291
     0
 45
0.0
1001
ACAD
1000
AcDbSavedByObjectVersion
1070
     0
  0
VISUALSTYLE
  5
B7BC
102
{ACAD_XDICTIONARY
360
B819
102
}
102
{ACAD_REACTORS
330
B7B7
102
}
330
B7B7
100
AcDbVisualStyle
  2
Basic
 70
     7
 71
     1
 72
     0
 73
     1
 90
        0
 40
-0.6
 41
-30.0
 62
     5
 63
     7
 74
     0
 91
        4
 64
     7
 65
   257
 75
     1
175
     1
 42
1.0
 92
        8
 66
     7
 43
1.0
 76
     1
 77
     6
 78
     2
 67
     7
 79
     5
170
     0
171
     0
290
     0
174
     0
 93
        1
 44
0.0
173
     0
291
     1
 45
0.0
1001
ACAD
1000
AcDbSavedByObjectVersion
1070
     0
  0
VISUALSTYLE
  5
B7C3
102
{ACAD_XDICTIONARY
360
B827
102
}
102
{ACAD_REACTORS
330
B7B7
102
}
330
B7B7
100
AcDbVisualStyle
  2
Brighten
 70
    12
 71
     2
 72
     2
 73
     0
 90
        0
 40
-0.6
 41
-30.0
 62
     5
 63
     7
 74
     1
 91
        4
 64
     7
 65
   257
 75
     1
175
     1
 42
1.0
 92
        8
 66
     7
 43
1.0
 76
     1
 77
     6
 78
     2
 67
     7
 79
     5
170
     0
171
     0
290
     0
174
     0
 93
        1
 44
50.0
173
     0
291
     1
 45
0.0
1001
ACAD
1000
AcDbSavedByObjectVersion
1070
     0
  0
VISUALSTYLE
  5
B7C7
102
{ACAD_XDICTIONARY
360
B82F
102
}
102
{ACAD_REACTORS
330
B7B7
102
}
330
B7B7
100
AcDbVisualStyle
  2
ColorChange
 70
    16
 71
     2
 72
     2
 73
     3
 90
        0
 40
-0.6
 41
-30.0
 62
     5
 63
     8
 74
     1
 91
        4
 64
     7
 65
   257
 75
     1
175
     1
 42
1.0
 92
        8
 66
     8
 43
1.0
 76
     1
 77
     6
 78
     2
 67
     7
 79
     5
170
     0
171
     0
290
     0
174
     0
 93
        1
 44
0.0
173
     0
291
     1
 45
0.0
1001
ACAD
1000
AcDbSavedByObjectVersion
1070
     0
  0
VISUALSTYLE
  5
B7C0
102
{ACAD_XDICTIONARY
360
B821
102
}
102
{ACAD_REACTORS
330
B7B7
102
}
330
B7B7
100
AcDbVisualStyle
  2
Conceptual
 70
     9
 71
     3
 72
     2
 73
     0
 90
        0
 40
-0.6
 41
-30.0
 62
     5
 63
     7
 74
     2
 91
        2
 64
     7
 65
   257
 75
     1
175
     1
 42
179.0
 92
        8
 66
     7
 43
1.0
 76
     1
 77
     6
 78
     2
 67
     7
 79
     3
170
     0
171
     0
290
     0
174
     0
 93
        1
 44
0.0
173
     0
291
     0
 45
0.0
1001
ACAD
1000
AcDbSavedByObjectVersion
1070
     0
  0
VISUALSTYLE
  5
B7C2
102
{ACAD_XDICTIONARY
360
B825
102
}
102
{ACAD_REACTORS
330
B7B7
102
}
330
B7B7
100
AcDbVisualStyle
  2
Dim
 70
    11
 71
     2
 72
     2
 73
     0
 90
        0
 40
-0.6
 41
-30.0
 62
     5
 63
     7
 74
     1
 91
        4
 64
     7
 65
   257
 75
     1
175
     1
 42
1.0
 92
        8
 66
     7
 43
1.0
 76
     1
 77
     6
 78
     2
 67
     7
 79
     5
170
     0
171
     0
290
     0
174
     0
 93
        1
 44
-50.0
173
     0
291
     1
 45
0.0
1001
ACAD
1000
AcDbSavedByObjectVersion
1070
     0
  0
VISUALSTYLE
  5
B7CF
102
{ACAD_XDICTIONARY
360
B83F
102
}
102
{ACAD_REACTORS
330
B7B7
102
}
330
B7B7
100
AcDbVisualStyle
  2
EdgeColorOff
 70
    22
 71
     2
 72
     2
 73
     0
 90
        0
 40
-0.6
 41
-30.0
 62
     5
 63
     7
 74
     1
 91
        4
 64
     7
 65
   257
 75
     1
175
     1
 42
1.0
 92
        8
 66
     7
 43
1.0
 76
     1
 77
     6
 78
     2
 67
     7
 79
     5
170
     0
171
     0
290
     0
174
     0
 93
        1
 44
0.0
173
     0
291
     1
 45
0.0
1001
ACAD
1000
AcDbSavedByObjectVersion
1070
     0
  0
VISUALSTYLE
  5
B7C6
102
{ACAD_XDICTIONARY
360
B82D
102
}
102
{ACAD_REACTORS
330
B7B7
102
}
330
B7B7
100
AcDbVisualStyle
  2
Facepattern
 70
    15
 71
     2
 72
     2
 73
     0
 90
        0
 40
-0.6
 41
-30.0
 62
     5
 63
     7
 74
     1
 91
        4
 64
     7
 65
   257
 75
     1
175
     1
 42
1.0
 92
        8
 66
     7
 43
1.0
 76
     1
 77
     6
 78
     2
 67
     7
 79
     5
170
     0
171
     0
290
     0
174
     0
 93
        1
 44
0.0
173
     0
291
     1
 45
0.0
1001
ACAD
1000
AcDbSavedByObjectVersion
1070
     0
  0
VISUALSTYLE
  5
B7B8
102
{ACAD_XDICTIONARY
360
B811
102
}
102
{ACAD_REACTORS
330
B7B7
102
}
330
B7B7
100
AcDbVisualStyle
  2
Flat
 70
     0
 71
     2
 72
     1
 73
     1
 90
        2
 40
-0.6
 41
30.0
 62
     5
 63
     7
 74
     0
 91
        0
 64
     7
 65
   257
 75
     1
175
     1
 42
1.0
 92
        8
 66
     7
 43
1.0
 76
     1
 77
     6
 78
     2
 67
     7
 79
     5
170
     0
171
     0
290
     0
174
     0
 93
       13
 44
0.0
173
     0
291
     1
 45
0.0
1001
ACAD
1000
AcDbSavedByObjectVersion
1070
     0
  0
VISUALSTYLE
  5
B7B9
102
{ACAD_XDICTIONARY
360
B813
102
}
102
{ACAD_REACTORS
330
B7B7
102
}
330
B7B7
100
AcDbVisualStyle
  2
FlatWithEdges
 70
     1
 71
     2
 72
     1
 73
     1
 90
        2
 40
-0.6
 41
30.0
 62
     5
 63
     7
 74
     1
 91
        0
 64
     7
 65
   257
 75
     1
175
     1
 42
1.0
 92
        0
 66
   257
 43
1.0
 76
     1
 77
     6
 78
     2
 67
     7
 79
     5
170
     0
171
     0
290
     0
174
     0
 93
       13
 44
0.0
173
     0
291
     1
 45
0.0
1001
ACAD
1000
AcDbSavedByObjectVersion
1070
     0
  0
VISUALSTYLE
  5
B7BA
102
{ACAD_XDICTIONARY
360
B815
102
}
102
{ACAD_REACTORS
330
B7B7
102
}
330
B7B7
100
AcDbVisualStyle
  2
Gouraud
 70
     2
 71
     2
 72
     2
 73
     1
 90
        2
 40
-0.6
 41
30.0
 62
     5
 63
     7
 74
     0
 91
        0
 64
     7
 65
   257
 75
     1
175
     1
 42
1.0
 92
        0
 66
     7
 43
1.0
 76
     1
 77
     6
 78
     2
 67
     7
 79
     5
170
     0
171
     0
290
     0
174
     0
 93
       13
 44
0.0
173
     0
291
     1
 45
0.0
1001
ACAD
1000
AcDbSavedByObjectVersion
1070
     0
  0
VISUALSTYLE
  5
B7BB
102
{ACAD_XDICTIONARY
360
B817
102
}
102
{ACAD_REACTORS
330
B7B7
102
}
330
B7B7
100
AcDbVisualStyle
  2
GouraudWithEdges
 70
     3
 71
     2
 72
     2
 73
     1
 90
        2
 40
-0.6
 41
30.0
 62
     5
 63
     7
 74
     1
 91
        0
 64
     7
 65
   257
 75
     1
175
     1
 42
1.0
 92
        0
 66
   257
 43
1.0
 76
     1
 77
     6
 78
     2
 67
     7
 79
     5
170
     0
171
     0
290
     0
174
     0
 93
       13
 44
0.0
173
     0
291
     1
 45
0.0
1001
ACAD
1000
AcDbSavedByObjectVersion
1070
     0
  0
VISUALSTYLE
  5
B7BF
102
{ACAD_XDICTIONARY
360
B81F
102
}
102
{ACAD_REACTORS
330
B7B7
102
}
330
B7B7
100
AcDbVisualStyle
  2
Hidden
 70
     6
 71
     1
 72
     2
 73
     2
 90
        0
 40
-0.6
 41
-30.0
 62
     5
 63
     7
 74
     2
 91
        2
 64
     7
 65
   257
 75
     2
175
     1
 42
40.0
 92
        0
 66
   257
 43
1.0
 76
     1
 77
     6
 78
     2
 67
     7
 79
     3
170
     0
171
     0
290
     0
174
     0
 93
        1
 44
0.0
173
     0
291
     0
 45
0.0
1001
ACAD
1000
AcDbSavedByObjectVersion
1070
     0
  0
VISUALSTYLE
  5
B7CD
102
{ACAD_XDICTIONARY
360
B83B
102
}
102
{ACAD_REACTORS
330
B7B7
102
}
330
B7B7
100
AcDbVisualStyle
  2
JitterOff
 70
    20
 71
     2
 72
     2
 73
     0
 90
        0
 40
-0.6
 41
-30.0
 62
     5
 63
     7
 74
     1
 91
        4
 64
     7
 65
   257
 75
     1
175
     1
 42
1.0
 92
       10
 66
     7
 43
1.0
 76
     1
 77
     6
 78
     2
 67
     7
 79
     5
170
     0
171
     0
290
     0
174
     0
 93
        1
 44
0.0
173
     0
291
     1
 45
0.0
1001
ACAD
1000
AcDbSavedByObjectVersion
1070
     0
  0
VISUALSTYLE
  5
B7C5
102
{ACAD_XDICTIONARY
360
B82B
102
}
102
{ACAD_REACTORS
330
B7B7
102
}
330
B7B7
100
AcDbVisualStyle
  2
Linepattern
 70
    14
 71
     2
 72
     2
 73
     0
 90
        0
 40
-0.6
 41
-30.0
 62
     5
 63
     7
 74
     1
 91
        4
 64
     7
 65
   257
 75
     7
175
     7
 42
1.0
 92
        8
 66
     7
 43
1.0
 76
     1
 77
     6
 78
     2
 67
     7
 79
     5
170
     0
171
     0
290
     0
174
     0
 93
        1
 44
0.0
173
     0
291
     1
 45
0.0
1001
ACAD
1000
AcDbSavedByObjectVersion
1070
     0
  0
VISUALSTYLE
  5
B7CE
102
{ACAD_XDICTIONARY
360
B83D
102
}
102
{ACAD_REACTORS
330
B7B7
102
}
330
B7B7
100
AcDbVisualStyle
  2
OverhangOff
 70
    21
 71
     2
 72
     2
 73
     0
 90
        0
 40
-0.6
 41
-30.0
 62
     5
 63
     7
 74
     1
 91
        4
 64
     7
 65
   257
 75
     1
175
     1
 42
1.0
 92
        9
 66
     7
 43
1.0
 76
     1
 77
     6
 78
     2
 67
     7
 79
     5
170
     0
171
     0
290
     0
174
     0
 93
        1
 44
0.0
173
     0
291
     1
 45
0.0
1001
ACAD
1000
AcDbSavedByObjectVersion
1070
     0
  0
VISUALSTYLE
  5
B7C1
102
{ACAD_XDICTIONARY
360
B823
102
}
102
{ACAD_REACTORS
330
B7B7
102
}
330
B7B7
100
AcDbVisualStyle
  2
Realistic
 70
     8
 71
     2
 72
     3
 73
     0
 90
        2
 40
-0.6
 41
30.0
 62
     5
 63
     7
 74
     0
 91
        0
 64
     7
 65
   257
 75
     1
175
     1
 42
1.0
 92
        8
 66
   257
 43
1.0
 76
     1
 77
     6
 78
     2
 67
     7
 79
     3
170
     0
171
     0
290
     0
174
     0
 93
       13
 44
0.0
173
     0
291
     0
 45
0.0
1001
ACAD
1000
AcDbSavedByObjectVersion
1070
     0
  0
VISUALSTYLE
  5
B7CC
102
{ACAD_XDICTIONARY
360
B839
102
}
102
{ACAD_REACTORS
330
B7B7
102
}
330
B7B7
100
AcDbVisualStyle
  2
Shaded
 70
    27
 71
     2
 72
     2
 73
     1
 90
        2
 40
-0.6
 41
30.0
 62
     5
 63
     7
 74
     0
 91
        4
 64
     7
 65
   257
 75
     1
175
     1
 42
1.0
 92
        8
 66
   257
 43
1.0
 76
     1
 77
     6
 78
     2
 67
     8
 79
     3
170
     0
171
     0
290
     0
174
     0
 93
        5
 44
0.0
173
     0
291
     0
 45
0.0
1001
ACAD
1000
AcDbSavedByObjectVersion
1070
     0
  0
VISUALSTYLE
  5
B7CB
102
{ACAD_XDICTIONARY
360
B837
102
}
102
{ACAD_REACTORS
330
B7B7
102
}
330
B7B7
100
AcDbVisualStyle
  2
Shaded with edges
 70
    26
 71
     2
 72
     2
 73
     1
 90
        2
 40
-0.6
 41
30.0
 62
     5
 63
     7
 74
     1
 91
       10
 64
     7
 65
   257
 75
     2
175
     1
 42
1.0
 92
        8
 66
   257
 43
1.0
 76
     1
 77
     6
 78
     2
 67
     7
 79
     3
170
     0
171
     0
290
     0
174
     0
 93
        5
 44
0.0
173
     0
291
     0
 45
0.0
1001
ACAD
1000
AcDbSavedByObjectVersion
1070
     0
  0
VISUALSTYLE
  5
B7C8
102
{ACAD_XDICTIONARY
360
B831
102
}
102
{ACAD_REACTORS
330
B7B7
102
}
330
B7B7
100
AcDbVisualStyle
  2
Shades of Gray
 70
    23
 71
     2
 72
     2
 73
     3
 90
        0
 40
-0.6
 41
-30.0
 62
     5
 63
     7
 74
     2
 91
        2
 64
     7
 65
     7
 75
     1
175
     1
 42
40.0
 92
        8
 66
     7
 43
1.0
 76
     1
 77
     6
 78
     2
 67
     7
 79
     3
170
     0
171
     0
290
     0
174
     0
 93
        1
 44
0.0
173
     0
291
     0
 45
0.0
1001
ACAD
1000
AcDbSavedByObjectVersion
1070
     0
  0
VISUALSTYLE
  5
B7C9
102
{ACAD_XDICTIONARY
360
B833
102
}
102
{ACAD_REACTORS
330
B7B7
102
}
330
B7B7
100
AcDbVisualStyle
  2
Sketchy
 70
    24
 71
     1
 72
     2
 73
     2
 90
        0
 40
-0.6
 41
-30.0
 62
     5
 63
     7
 74
     2
 91
        2
 64
     7
 65
     7
 75
     1
175
     1
 42
40.0
 92
       11
 66
     7
 43
1.0
 76
     1
 77
     6
 78
     2
 67
     7
 79
     6
170
     0
171
     0
290
     0
174
     0
 93
        1
 44
0.0
173
     0
291
     0
 45
0.0
1001
ACAD
1000
AcDbSavedByObjectVersion
1070
     0
  0
VISUALSTYLE
  5
B7C4
102
{ACAD_XDICTIONARY
360
B829
102
}
102
{ACAD_REACTORS
330
B7B7
102
}
330
B7B7
100
AcDbVisualStyle
  2
Thicken
 70
    13
 71
     2
 72
     2
 73
     0
 90
        0
 40
-0.6
 41
-30.0
 62
     5
 63
     7
 74
     1
 91
        4
 64
     7
 65
   257
 75
     1
175
     1
 42
1.0
 92
       12
 66
     7
 43
1.0
 76
     1
 77
     6
 78
     2
 67
     7
 79
     5
170
     0
171
     0
290
     0
174
     0
 93
        1
 44
0.0
173
     0
291
     1
 45
0.0
1001
ACAD
1000
AcDbSavedByObjectVersion
1070
     0
  0
VISUALSTYLE
  5
B7BE
102
{ACAD_XDICTIONARY
360
B81D
102
}
102
{ACAD_REACTORS
330
B7B7
102
}
330
B7B7
100
AcDbVisualStyle
  2
Wireframe
 70
     5
 71
     0
 72
     2
 73
     0
 90
        0
 40
-0.6
 41
-30.0
 62
     5
 63
     7
 74
     1
 91
        4
 64
     7
 65
   257
 75
     1
175
     1
 42
1.0
 92
        0
 66
   257
 43
1.0
 76
     1
 77
     6
 78
     2
 67
     7
 79
     3
170
     0
171
     0
290
     0
174
     0
 93
        1
 44
0.0
173
     0
291
     0
 45
0.0
1001
ACAD
1000
AcDbSavedByObjectVersion
1070
     0
  0
VISUALSTYLE
  5
B7CA
102
{ACAD_XDICTIONARY
360
B835
102
}
102
{ACAD_REACTORS
330
B7B7
102
}
330
B7B7
100
AcDbVisualStyle
  2
X-Ray
 70
    25
 71
     2
 72
     2
 73
     1
 90
        1
 40
0.5
 41
-30.0
 62
     5
 63
     7
 74
     1
 91
        0
 64
     7
 65
   257
 75
     1
175
     1
 42
1.0
 92
        8
 66
     7
 43
1.0
 76
     1
 77
     6
 78
     2
 67
     7
 79
     3
170
     0
171
     0
290
     0
174
     0
 93
       13
 44
0.0
173
     0
291
     0
 45
0.0
1001
ACAD
1000
AcDbSavedByObjectVersion
1070
     0
  0
DICTIONARYVAR
  5
B804
102
{ACAD_REACTORS
330
B7FF
102
}
330
B7FF
100
DictionaryVariables
280
     0
  1
1:1
  0
DICTIONARYVAR
  5
B801
102
{ACAD_REACTORS
330
B7FF
102
}
330
B7FF
100
DictionaryVariables
280
     0
  1
STANDARD
  0
DICTIONARYVAR
  5
B800
102
{ACAD_REACTORS
330
B7FF
102
}
330
B7FF
100
DictionaryVariables
280
     0
  1
STANDARD
  0
DICTIONARYVAR
  5
B802
102
{ACAD_REACTORS
330
B7FF
102
}
330
B7FF
100
DictionaryVariables
280
     0
  1
Imperial24
  0
DICTIONARYVAR
  5
B803
102
{ACAD_REACTORS
330
B7FF
102
}
330
B7FF
100
DictionaryVariables
280
     0
  1
Imperial24
  0
DICTIONARYVAR
  5
B807
102
{ACAD_REACTORS
330
B7FF
102
}
330
B7FF
100
DictionaryVariables
280
     0
  1
1
  0
DICTIONARYVAR
  5
B806
102
{ACAD_REACTORS
330
B7FF
102
}
330
B7FF
100
DictionaryVariables
280
     0
  1
0
  0
DICTIONARYVAR
  5
B805
102
{ACAD_REACTORS
330
B7FF
102
}
330
B7FF
100
DictionaryVariables
280
     0
  1
127
  0
DICTIONARYVAR
  5
B808
102
{ACAD_REACTORS
330
B7FF
102
}
330
B7FF
100
DictionaryVariables
280
     0
  1
2
  0
DICTIONARY
  5
B845
330
B7EA
100
AcDbDictionary
280
     1
281
     1
  3
ACAD_XREC_ROUNDTRIP
360
B846
  0
DICTIONARY
  5
B847
330
B7EB
100
AcDbDictionary
280
     1
281
     1
  3
ACAD_XREC_ROUNDTRIP
360
B848
  0
DICTIONARY
  5
B849
330
B7EC
100
AcDbDictionary
280
     1
281
     1
  3
ACAD_XREC_ROUNDTRIP
360
B84A
  0
DICTIONARY
  5
B7A8
330
B7A7
100
AcDbDictionary
280
     1
281
     1
  3
ACAD_XREC_ROUNDTRIP
360
B80F
  3
BUMPTILE
360
B7AA
  3
DIFFUSETILE
360
B7A9
  3
OPACITYTILE
360
B7AD
  3
REFLECTIONTILE
360
B7AC
  3
REFRACTIONTILE
360
B7AE
  3
SPECULARTILE
360
B7AB
  0
DICTIONARY
  5
B7A0
330
B79F
100
AcDbDictionary
280
     1
281
     1
  3
ACAD_XREC_ROUNDTRIP
360
B80E
  3
BUMPTILE
360
B7A2
  3
DIFFUSETILE
360
B7A1
  3
OPACITYTILE
360
B7A5
  3
REFLECTIONTILE
360
B7A4
  3
REFRACTIONTILE
360
B7A6
  3
SPECULARTILE
360
B7A3
  0
DICTIONARY
  5
B7B0
330
B7AF
100
AcDbDictionary
280
     1
281
     1
  3
ACAD_XREC_ROUNDTRIP
360
B810
  3
BUMPTILE
360
B7B2
  3
DIFFUSETILE
360
B7B1
  3
OPACITYTILE
360
B7B5
  3
REFLECTIONTILE
360
B7B4
  3
REFRACTIONTILE
360
B7B6
  3
SPECULARTILE
360
B7B3
  0
DICTIONARY
  5
B843
330
B7E8
100
AcDbDictionary
280
     1
281
     1
  3
ACAD_XREC_ROUNDTRIP
360
B844
  0
DICTIONARY
  5
B80A
330
B7D2
100
AcDbDictionary
280
     1
281
     1
  3
ACAD_ROUNDTRIP_2008_TABLESTYLE_CELLSTYLEMAP
360
B80B
  3
ACAD_XREC_ROUNDTRIP
360
B841
  0
DICTIONARY
  5
B81B
330
B7BD
100
AcDbDictionary
280
     1
281
     1
  3
ACAD_XREC_ROUNDTRIP
360
B81C
  0
DICTIONARY
  5
B819
330
B7BC
100
AcDbDictionary
280
     1
281
     1
  3
ACAD_XREC_ROUNDTRIP
360
B81A
  0
DICTIONARY
  5
B827
330
B7C3
100
AcDbDictionary
280
     1
281
     1
  3
ACAD_XREC_ROUNDTRIP
360
B828
  0
DICTIONARY
  5
B82F
330
B7C7
100
AcDbDictionary
280
     1
281
     1
  3
ACAD_XREC_ROUNDTRIP
360
B830
  0
DICTIONARY
  5
B821
330
B7C0
100
AcDbDictionary
280
     1
281
     1
  3
ACAD_XREC_ROUNDTRIP
360
B822
  0
DICTIONARY
  5
B825
330
B7C2
100
AcDbDictionary
280
     1
281
     1
  3
ACAD_XREC_ROUNDTRIP
360
B826
  0
DICTIONARY
  5
B83F
330
B7CF
100
AcDbDictionary
280
     1
281
     1
  3
ACAD_XREC_ROUNDTRIP
360
B840
  0
DICTIONARY
  5
B82D
330
B7C6
100
AcDbDictionary
280
     1
281
     1
  3
ACAD_XREC_ROUNDTRIP
360
B82E
  0
DICTIONARY
  5
B811
330
B7B8
100
AcDbDictionary
280
     1
281
     1
  3
ACAD_XREC_ROUNDTRIP
360
B812
  0
DICTIONARY
  5
B813
330
B7B9
100
AcDbDictionary
280
     1
281
     1
  3
ACAD_XREC_ROUNDTRIP
360
B814
  0
DICTIONARY
  5
B815
330
B7BA
100
AcDbDictionary
280
     1
281
     1
  3
ACAD_XREC_ROUNDTRIP
360
B816
  0
DICTIONARY
  5
B817
330
B7BB
100
AcDbDictionary
280
     1
281
     1
  3
ACAD_XREC_ROUNDTRIP
360
B818
  0
DICTIONARY
  5
B81F
330
B7BF
100
AcDbDictionary
280
     1
281
     1
  3
ACAD_XREC_ROUNDTRIP
360
B820
  0
DICTIONARY
  5
B83B
330
B7CD
100
AcDbDictionary
280
     1
281
     1
  3
ACAD_XREC_ROUNDTRIP
360
B83C
  0
DICTIONARY
  5
B82B
330
B7C5
100
AcDbDictionary
280
     1
281
     1
  3
ACAD_XREC_ROUNDTRIP
360
B82C
  0
DICTIONARY
  5
B83D
330
B7CE
100
AcDbDictionary
280
     1
281
     1
  3
ACAD_XREC_ROUNDTRIP
360
B83E
  0
DICTIONARY
  5
B823
330
B7C1
100
AcDbDictionary
280
     1
281
     1
  3
ACAD_XREC_ROUNDTRIP
360
B824
  0
DICTIONARY
  5
B839
330
B7CC
100
AcDbDictionary
280
     1
281
     1
  3
ACAD_XREC_ROUNDTRIP
360
B83A
  0
DICTIONARY
  5
B837
330
B7CB
100
AcDbDictionary
280
     1
281
     1
  3
ACAD_XREC_ROUNDTRIP
360
B838
  0
DICTIONARY
  5
B831
330
B7C8
100
AcDbDictionary
280
     1
281
     1
  3
ACAD_XREC_ROUNDTRIP
360
B832
  0
DICTIONARY
  5
B833
330
B7C9
100
AcDbDictionary
280
     1
281
     1
  3
ACAD_XREC_ROUNDTRIP
360
B834
  0
DICTIONARY
  5
B829
330
B7C4
100
AcDbDictionary
280
     1
281
     1
  3
ACAD_XREC_ROUNDTRIP
360
B82A
  0
DICTIONARY
  5
B81D
330
B7BE
100
AcDbDictionary
280
     1
281
     1
  3
ACAD_XREC_ROUNDTRIP
360
B81E
  0
DICTIONARY
  5
B835
330
B7CA
100
AcDbDictionary
280
     1
281
     1
  3
ACAD_XREC_ROUNDTRIP
360
B836
  0
XRECORD
  5
B846
102
{ACAD_REACTORS
330
B845
102
}
330
B845
100
AcDbXrecord
280
     1
102
DISPLAYNAME
  1
Imperial24
102
FLAGS
 90
        0
  0
XRECORD
  5
B848
102
{ACAD_REACTORS
330
B847
102
}
330
B847
100
AcDbXrecord
280
     1
102
SHADEPLOT
 70
     0
102
SHADEPLOTRESLEVEL
 70
     2
102
SHADEPLOTCUSTOMDPI
 70
   300
  0
XRECORD
  5
B84A
102
{ACAD_REACTORS
330
B849
102
}
330
B849
100
AcDbXrecord
280
     1
102
SHADEPLOT
 70
     0
102
SHADEPLOTRESLEVEL
 70
     2
102
SHADEPLOTCUSTOMDPI
 70
   300
  0
XRECORD
  5
B80F
102
{ACAD_REACTORS
330
B7A8
102
}
330
B7A8
100
AcDbXrecord
280
     1
102
MATERIAL
148
0.0
149
0.0
149
0.0
 93
        0
 94
      127
282
     0
 72
     0
 77
     0
171
     0
175
     0
179
     0
273
     0
  0
XRECORD
  5
B7AA
102
{ACAD_REACTORS
330
B7A8
102
}
330
B7A8
100
AcDbXrecord
280
     1
270
     1
271
     1
  0
XRECORD
  5
B7A9
102
{ACAD_REACTORS
330
B7A8
102
}
330
B7A8
100
AcDbXrecord
280
     1
270
     1
271
     1
  0
XRECORD
  5
B7AD
102
{ACAD_REACTORS
330
B7A8
102
}
330
B7A8
100
AcDbXrecord
280
     1
270
     1
271
     1
  0
XRECORD
  5
B7AC
102
{ACAD_REACTORS
330
B7A8
102
}
330
B7A8
100
AcDbXrecord
280
     1
270
     1
271
     1
  0
XRECORD
  5
B7AE
102
{ACAD_REACTORS
330
B7A8
102
}
330
B7A8
100
AcDbXrecord
280
     1
270
     1
271
     1
  0
XRECORD
  5
B7AB
102
{ACAD_REACTORS
330
B7A8
102
}
330
B7A8
100
AcDbXrecord
280
     1
270
     1
271
     1
  0
XRECORD
  5
B80E
102
{ACAD_REACTORS
330
B7A0
102
}
330
B7A0
100
AcDbXrecord
280
     1
102
MATERIAL
148
0.0
149
0.0
149
0.0
 93
        0
 94
      127
282
     0
 72
     0
 77
     0
171
     0
175
     0
179
     0
273
     0
  0
XRECORD
  5
B7A2
102
{ACAD_REACTORS
330
B7A0
102
}
330
B7A0
100
AcDbXrecord
280
     1
270
     1
271
     1
  0
XRECORD
  5
B7A1
102
{ACAD_REACTORS
330
B7A0
102
}
330
B7A0
100
AcDbXrecord
280
     1
270
     1
271
     1
  0
XRECORD
  5
B7A5
102
{ACAD_REACTORS
330
B7A0
102
}
330
B7A0
100
AcDbXrecord
280
     1
270
     1
271
     1
  0
XRECORD
  5
B7A4
102
{ACAD_REACTORS
330
B7A0
102
}
330
B7A0
100
AcDbXrecord
280
     1
270
     1
271
     1
  0
XRECORD
  5
B7A6
102
{ACAD_REACTORS
330
B7A0
102
}
330
B7A0
100
AcDbXrecord
280
     1
270
     1
271
     1
  0
XRECORD
  5
B7A3
102
{ACAD_REACTORS
330
B7A0
102
}
330
B7A0
100
AcDbXrecord
280
     1
270
     1
271
     1
  0
XRECORD
  5
B810
102
{ACAD_REACTORS
330
B7B0
102
}
330
B7B0
100
AcDbXrecord
280
     1
102
MATERIAL
148
0.0
149
0.0
149
0.0
 93
        0
 94
      127
282
     0
 72
     0
 77
     0
171
     0
175
     0
179
     0
273
     0
  0
XRECORD
  5
B7B2
102
{ACAD_REACTORS
330
B7B0
102
}
330
B7B0
100
AcDbXrecord
280
     1
270
     1
271
     1
  0
XRECORD
  5
B7B1
102
{ACAD_REACTORS
330
B7B0
102
}
330
B7B0
100
AcDbXrecord
280
     1
270
     1
271
     1
  0
XRECORD
  5
B7B5
102
{ACAD_REACTORS
330
B7B0
102
}
330
B7B0
100
AcDbXrecord
280
     1
270
     1
271
     1
  0
XRECORD
  5
B7B4
102
{ACAD_REACTORS
330
B7B0
102
}
330
B7B0
100
AcDbXrecord
280
     1
270
     1
271
     1
  0
XRECORD
  5
B7B6
102
{ACAD_REACTORS
330
B7B0
102
}
330
B7B0
100
AcDbXrecord
280
     1
270
     1
271
     1
  0
XRECORD
  5
B7B3
102
{ACAD_REACTORS
330
B7B0
102
}
330
B7B0
100
AcDbXrecord
280
     1
270
     1
271
     1
  0
XRECORD
  5
B844
102
{ACAD_REACTORS
330
B843
102
}
330
B843
100
AcDbXrecord
280
     1
102
DISPLAYNAME
  1
Imperial24
102
FLAGS
 90
        0
  0
CELLSTYLEMAP
  5
B80B
102
{ACAD_REACTORS
330
B80A
102
}
330
B80A
100
AcDbCellStyleMap
 90
        3
300
CELLSTYLE
  1
TABLEFORMAT_BEGIN
 90
        5
170
     1
 91
        0
 92
    32768
 62
   257
 93
        1
300
CONTENTFORMAT
  1
CONTENTFORMAT_BEGIN
 90
        0
 91
        0
 92
      512
 93
        0
300

 40
0.0
140
1.0
 94
        5
 62
     0
340
B462
144
0.25
309
CONTENTFORMAT_END
171
     0
 94
        0
309
TABLEFORMAT_END
  1
CELLSTYLE_BEGIN
 90
        1
 91
        1
300
_TITLE
309
CELLSTYLE_END
300
CELLSTYLE
  1
TABLEFORMAT_BEGIN
 90
        5
170
     1
 91
        0
 92
        0
 62
   257
 93
        1
300
CONTENTFORMAT
  1
CONTENTFORMAT_BEGIN
 90
        0
 91
        0
 92
      512
 93
        0
300

 40
0.0
140
1.0
 94
        5
 62
     0
340
B462
144
0.18
309
CONTENTFORMAT_END
171
     0
 94
        0
309
TABLEFORMAT_END
  1
CELLSTYLE_BEGIN
 90
        2
 91
        1
300
_HEADER
309
CELLSTYLE_END
300
CELLSTYLE
  1
TABLEFORMAT_BEGIN
 90
        5
170
     1
 91
        0
 92
        0
 62
   257
 93
        1
300
CONTENTFORMAT
  1
CONTENTFORMAT_BEGIN
 90
        0
 91
        0
 92
      512
 93
        0
300

 40
0.0
140
1.0
 94
        2
 62
     0
340
B462
144
0.18
309
CONTENTFORMAT_END
171
     0
 94
        0
309
TABLEFORMAT_END
  1
CELLSTYLE_BEGIN
 90
        3
 91
        2
300
_DATA
309
CELLSTYLE_END
  0
XRECORD
  5
B841
102
{ACAD_REACTORS
330
B80A
102
}
330
B80A
100
AcDbXrecord
280
     1
102
ACAD_ROUNDTRIP_PRE2007_TABLESTYLE
 90
      512
 91
        0
  1

 92
      512
 93
        0
  2

 94
      512
 95
        0
  3

  0
XRECORD
  5
B81C
102
{ACAD_REACTORS
330
B81B
102
}
330
B81B
100
AcDbXrecord
280
     1
102
RTVSPost2010Prop28
280
     1
102
RTVSPost2010PropOp28
 70
     1
102
RTVSPost2010Prop29
280
     1
102
RTVSPost2010PropOp29
 70
     1
102
RTVSPost2010Prop30
280
     0
102
RTVSPost2010PropOp30
 70
     1
102
RTVSPost2010Prop31
280
     0
102
RTVSPost2010PropOp31
 70
     1
102
RTVSPost2010Prop32
280
     0
102
RTVSPost2010PropOp32
 70
     1
102
RTVSPost2010Prop33
280
     0
102
RTVSPost2010PropOp33
 70
     1
102
RTVSPost2010Prop34
280
     0
102
RTVSPost2010PropOp34
 70
     1
102
RTVSPost2010Prop35
280
     0
102
RTVSPost2010PropOp35
 70
     1
102
RTVSPost2010Prop36
280
     0
102
RTVSPost2010PropOp36
 70
     1
102
RTVSPost2010Prop37
 90
       50
102
RTVSPost2010PropOp37
 70
     1
102
RTVSPost2010Prop38
140
0.0
102
RTVSPost2010PropOp38
 70
     1
102
RTVSPost2010Prop39
140
1.0
102
RTVSPost2010PropOp39
 70
     1
102
RTVSPost2010Prop40
 90
        0
102
RTVSPost2010PropOp40
 70
     1
102
RTVSPost2010Prop41ColorIndex
 90
       18
102
RTVSPost2010Prop41ColorRGB
 90
        0
102
RTVSPost2010PropOp41
 70
     1
102
RTVSPost2010Prop42
 90
       50
102
RTVSPost2010PropOp42
 70
     1
102
RTVSPost2010Prop43
 90
        3
102
RTVSPost2010PropOp43
 70
     1
102
RTVSPost2010Prop44ColorIndex
 90
        5
102
RTVSPost2010Prop44ColorRGB
 90
      255
102
RTVSPost2010PropOp44
 70
     1
102
RTVSPost2010Prop45
280
     0
102
RTVSPost2010PropOp45
 70
     1
102
RTVSPost2010Prop46
 90
       50
102
RTVSPost2010PropOp46
 70
     1
102
RTVSPost2010Prop47
 90
       50
102
RTVSPost2010PropOp47
 70
     1
102
RTVSPost2010Prop48
 90
       50
102
RTVSPost2010PropOp48
 70
     1
102
RTVSPost2010Prop49
280
     0
102
RTVSPost2010PropOp49
 70
     1
102
RTVSPost2010Prop50
 90
       50
102
RTVSPost2010PropOp50
 70
     1
102
RTVSPost2010Prop51ColorIndex
 90
      256
102
RTVSPost2010Prop51ColorRGB
 90
-16777216
102
RTVSPost2010PropOp51
 70
     0
102
RTVSPost2010Prop52
140
1.0
102
RTVSPost2010PropOp52
 70
     0
102
RTVSPost2010Prop53
 90
        2
102
RTVSPost2010PropOp53
 70
     1
102
RTVSPost2010Prop54
  1
strokes_ogs.tif
102
RTVSPost2010PropOp54
 70
     1
102
RTVSPost2010Prop55
280
     0
102
RTVSPost2010PropOp55
 70
     1
102
RTVSPost2010Prop56
140
1.0
102
RTVSPost2010PropOp56
 70
     1
102
RTVSPost2010Prop57
140
1.0
102
RTVSPost2010PropOp57
 70
     1
102
RTVSPropertyOp0
 70
     1
102
RTVSPropertyOp1
 70
     1
102
RTVSPropertyOp2
 70
     1
102
RTVSPropertyOp3
 70
     1
102
RTVSPropertyOp4
 70
     1
102
RTVSPropertyOp5
 70
     1
102
RTVSPropertyOp6
 70
     1
102
RTVSPropertyOp7
 70
     1
102
RTVSPropertyOp8
 70
     1
102
RTVSPropertyOp9
 70
     1
102
RTVSPropertyOp10
 70
     1
102
RTVSPropertyOp11
 70
     1
102
RTVSPropertyOp12
 70
     1
102
RTVSPropertyOp13
 70
     1
102
RTVSPropertyOp14
 70
     1
102
RTVSPropertyOp15
 70
     1
102
RTVSPropertyOp16
 70
     1
102
RTVSPropertyOp17
 70
     1
102
RTVSPropertyOp18
 70
     1
102
RTVSPropertyOp19
 70
     1
102
RTVSPropertyOp20
 70
     1
102
RTVSPropertyOp21
 70
     1
102
RTVSPropertyOp22
 70
     1
102
RTVSPropertyOp23
 70
     1
102
RTVSPropertyOp24
 70
     1
102
RTVSPropertyOp25
 70
     1
102
RTVSPropertyOp26
 70
     1
102
RTVSPropertyOp27
 70
     1
102
RTVSPropertyOp28
 70
     1
102
RTVSPropertyOp29
 70
     1
102
RTVSPropertyOp30
 70
     1
102
RTVSPropertyOp31
 70
     1
102
RTVSPropertyOp32
 70
     1
102
RTVSPropertyOp33
 70
     1
102
RTVSPropertyOp34
 70
     1
102
RTVSPropertyOp35
 70
     1
102
RTVSPropertyOp36
 70
     1
102
RTVSPropertyOp37
 70
     1
102
RTVSPropertyOp38
 70
     1
102
RTVSPropertyOp39
 70
     1
102
RTVSPropertyOp40
 70
     1
102
RTVSPropertyOp41
 70
     1
102
RTVSPropertyOp42
 70
     1
102
RTVSPropertyOp43
 70
     1
102
RTVSPropertyOp44
 70
     1
102
RTVSPropertyOp45
 70
     1
102
RTVSPropertyOp46
 70
     1
102
RTVSPropertyOp47
 70
     1
102
RTVSPropertyOp48
 70
     1
102
RTVSPropertyOp49
 70
     1
102
RTVSPropertyOp50
 70
     1
102
RTVSPropertyOp51
 70
     0
102
RTVSPropertyOp52
 70
     0
102
RTVSPropertyOp53
 70
     1
102
RTVSPropertyOp54
 70
     1
102
RTVSPropertyOp55
 70
     1
102
RTVSPropertyOp56
 70
     1
102
RTVSPropertyOp57
 70
     1
102
RTVSPropertyOp58
 70
     1
102
RTVSPropertyOp59
 70
     1
102
RTVSPropertyOp60
 70
     1
102
RTVSPropertyOp61
 70
     1
102
RTVSPropertyOp62
 70
     1
  0
XRECORD
  5
B81A
102
{ACAD_REACTORS
330
B819
102
}
330
B819
100
AcDbXrecord
280
     1
102
RTVSPost2010Prop28
280
     0
102
RTVSPost2010PropOp28
 70
     1
102
RTVSPost2010Prop29
280
     1
102
RTVSPost2010PropOp29
 70
     1
102
RTVSPost2010Prop30
280
     1
102
RTVSPost2010PropOp30
 70
     1
102
RTVSPost2010Prop31
280
     0
102
RTVSPost2010PropOp31
 70
     1
102
RTVSPost2010Prop32
280
     0
102
RTVSPost2010PropOp32
 70
     1
102
RTVSPost2010Prop33
280
     0
102
RTVSPost2010PropOp33
 70
     1
102
RTVSPost2010Prop34
280
     0
102
RTVSPost2010PropOp34
 70
     1
102
RTVSPost2010Prop35
280
     0
102
RTVSPost2010PropOp35
 70
     1
102
RTVSPost2010Prop36
280
     0
102
RTVSPost2010PropOp36
 70
     1
102
RTVSPost2010Prop37
 90
       50
102
RTVSPost2010PropOp37
 70
     1
102
RTVSPost2010Prop38
140
0.0
102
RTVSPost2010PropOp38
 70
     1
102
RTVSPost2010Prop39
140
1.0
102
RTVSPost2010PropOp39
 70
     1
102
RTVSPost2010Prop40
 90
        0
102
RTVSPost2010PropOp40
 70
     1
102
RTVSPost2010Prop41ColorIndex
 90
       18
102
RTVSPost2010Prop41ColorRGB
 90
        0
102
RTVSPost2010PropOp41
 70
     1
102
RTVSPost2010Prop42
 90
       50
102
RTVSPost2010PropOp42
 70
     1
102
RTVSPost2010Prop43
 90
        3
102
RTVSPost2010PropOp43
 70
     1
102
RTVSPost2010Prop44ColorIndex
 90
        5
102
RTVSPost2010Prop44ColorRGB
 90
      255
102
RTVSPost2010PropOp44
 70
     1
102
RTVSPost2010Prop45
280
     0
102
RTVSPost2010PropOp45
 70
     1
102
RTVSPost2010Prop46
 90
       50
102
RTVSPost2010PropOp46
 70
     1
102
RTVSPost2010Prop47
 90
       50
102
RTVSPost2010PropOp47
 70
     1
102
RTVSPost2010Prop48
 90
       50
102
RTVSPost2010PropOp48
 70
     1
102
RTVSPost2010Prop49
280
     0
102
RTVSPost2010PropOp49
 70
     1
102
RTVSPost2010Prop50
 90
       50
102
RTVSPost2010PropOp50
 70
     1
102
RTVSPost2010Prop51ColorIndex
 90
      256
102
RTVSPost2010Prop51ColorRGB
 90
-16777216
102
RTVSPost2010PropOp51
 70
     0
102
RTVSPost2010Prop52
140
1.0
102
RTVSPost2010PropOp52
 70
     0
102
RTVSPost2010Prop53
 90
        2
102
RTVSPost2010PropOp53
 70
     1
102
RTVSPost2010Prop54
  1
strokes_ogs.tif
102
RTVSPost2010PropOp54
 70
     1
102
RTVSPost2010Prop55
280
     0
102
RTVSPost2010PropOp55
 70
     1
102
RTVSPost2010Prop56
140
1.0
102
RTVSPost2010PropOp56
 70
     1
102
RTVSPost2010Prop57
140
1.0
102
RTVSPost2010PropOp57
 70
     1
102
RTVSPropertyOp0
 70
     1
102
RTVSPropertyOp1
 70
     1
102
RTVSPropertyOp2
 70
     1
102
RTVSPropertyOp3
 70
     1
102
RTVSPropertyOp4
 70
     1
102
RTVSPropertyOp5
 70
     1
102
RTVSPropertyOp6
 70
     1
102
RTVSPropertyOp7
 70
     1
102
RTVSPropertyOp8
 70
     1
102
RTVSPropertyOp9
 70
     1
102
RTVSPropertyOp10
 70
     1
102
RTVSPropertyOp11
 70
     1
102
RTVSPropertyOp12
 70
     1
102
RTVSPropertyOp13
 70
     1
102
RTVSPropertyOp14
 70
     1
102
RTVSPropertyOp15
 70
     1
102
RTVSPropertyOp16
 70
     1
102
RTVSPropertyOp17
 70
     1
102
RTVSPropertyOp18
 70
     1
102
RTVSPropertyOp19
 70
     1
102
RTVSPropertyOp20
 70
     1
102
RTVSPropertyOp21
 70
     1
102
RTVSPropertyOp22
 70
     1
102
RTVSPropertyOp23
 70
     1
102
RTVSPropertyOp24
 70
     1
102
RTVSPropertyOp25
 70
     1
102
RTVSPropertyOp26
 70
     1
102
RTVSPropertyOp27
 70
     1
102
RTVSPropertyOp28
 70
     1
102
RTVSPropertyOp29
 70
     1
102
RTVSPropertyOp30
 70
     1
102
RTVSPropertyOp31
 70
     1
102
RTVSPropertyOp32
 70
     1
102
RTVSPropertyOp33
 70
     1
102
RTVSPropertyOp34
 70
     1
102
RTVSPropertyOp35
 70
     1
102
RTVSPropertyOp36
 70
     1
102
RTVSPropertyOp37
 70
     1
102
RTVSPropertyOp38
 70
     1
102
RTVSPropertyOp39
 70
     1
102
RTVSPropertyOp40
 70
     1
102
RTVSPropertyOp41
 70
     1
102
RTVSPropertyOp42
 70
     1
102
RTVSPropertyOp43
 70
     1
102
RTVSPropertyOp44
 70
     1
102
RTVSPropertyOp45
 70
     1
102
RTVSPropertyOp46
 70
     1
102
RTVSPropertyOp47
 70
     1
102
RTVSPropertyOp48
 70
     1
102
RTVSPropertyOp49
 70
     1
102
RTVSPropertyOp50
 70
     1
102
RTVSPropertyOp51
 70
     0
102
RTVSPropertyOp52
 70
     0
102
RTVSPropertyOp53
 70
     1
102
RTVSPropertyOp54
 70
     1
102
RTVSPropertyOp55
 70
     1
102
RTVSPropertyOp56
 70
     1
102
RTVSPropertyOp57
 70
     1
102
RTVSPropertyOp58
 70
     1
102
RTVSPropertyOp59
 70
     1
102
RTVSPropertyOp60
 70
     1
102
RTVSPropertyOp61
 70
     1
102
RTVSPropertyOp62
 70
     1
  0
XRECORD
  5
B828
102
{ACAD_REACTORS
330
B827
102
}
330
B827
100
AcDbXrecord
280
     1
102
RTVSPost2010Prop28
280
     0
102
RTVSPost2010PropOp28
 70
     1
102
RTVSPost2010Prop29
280
     1
102
RTVSPost2010PropOp29
 70
     1
102
RTVSPost2010Prop30
280
     1
102
RTVSPost2010PropOp30
 70
     1
102
RTVSPost2010Prop31
280
     0
102
RTVSPost2010PropOp31
 70
     1
102
RTVSPost2010Prop32
280
     0
102
RTVSPost2010PropOp32
 70
     1
102
RTVSPost2010Prop33
280
     0
102
RTVSPost2010PropOp33
 70
     1
102
RTVSPost2010Prop34
280
     0
102
RTVSPost2010PropOp34
 70
     1
102
RTVSPost2010Prop35
280
     0
102
RTVSPost2010PropOp35
 70
     1
102
RTVSPost2010Prop36
280
     0
102
RTVSPost2010PropOp36
 70
     1
102
RTVSPost2010Prop37
 90
       50
102
RTVSPost2010PropOp37
 70
     1
102
RTVSPost2010Prop38
140
0.0
102
RTVSPost2010PropOp38
 70
     1
102
RTVSPost2010Prop39
140
1.0
102
RTVSPost2010PropOp39
 70
     1
102
RTVSPost2010Prop40
 90
        0
102
RTVSPost2010PropOp40
 70
     1
102
RTVSPost2010Prop41ColorIndex
 90
       18
102
RTVSPost2010Prop41ColorRGB
 90
        0
102
RTVSPost2010PropOp41
 70
     1
102
RTVSPost2010Prop42
 90
       50
102
RTVSPost2010PropOp42
 70
     1
102
RTVSPost2010Prop43
 90
        3
102
RTVSPost2010PropOp43
 70
     1
102
RTVSPost2010Prop44ColorIndex
 90
        5
102
RTVSPost2010Prop44ColorRGB
 90
      255
102
RTVSPost2010PropOp44
 70
     1
102
RTVSPost2010Prop45
280
     0
102
RTVSPost2010PropOp45
 70
     1
102
RTVSPost2010Prop46
 90
       50
102
RTVSPost2010PropOp46
 70
     1
102
RTVSPost2010Prop47
 90
       50
102
RTVSPost2010PropOp47
 70
     1
102
RTVSPost2010Prop48
 90
       50
102
RTVSPost2010PropOp48
 70
     1
102
RTVSPost2010Prop49
280
     0
102
RTVSPost2010PropOp49
 70
     1
102
RTVSPost2010Prop50
 90
       50
102
RTVSPost2010PropOp50
 70
     1
102
RTVSPost2010Prop51ColorIndex
 90
      256
102
RTVSPost2010Prop51ColorRGB
 90
-16777216
102
RTVSPost2010PropOp51
 70
     0
102
RTVSPost2010Prop52
140
1.0
102
RTVSPost2010PropOp52
 70
     0
102
RTVSPost2010Prop53
 90
        2
102
RTVSPost2010PropOp53
 70
     1
102
RTVSPost2010Prop54
  1
strokes_ogs.tif
102
RTVSPost2010PropOp54
 70
     1
102
RTVSPost2010Prop55
280
     0
102
RTVSPost2010PropOp55
 70
     1
102
RTVSPost2010Prop56
140
1.0
102
RTVSPost2010PropOp56
 70
     1
102
RTVSPost2010Prop57
140
1.0
102
RTVSPost2010PropOp57
 70
     1
102
RTVSPropertyOp0
 70
     1
102
RTVSPropertyOp1
 70
     1
102
RTVSPropertyOp2
 70
     1
102
RTVSPropertyOp3
 70
     1
102
RTVSPropertyOp4
 70
     1
102
RTVSPropertyOp5
 70
     1
102
RTVSPropertyOp6
 70
     1
102
RTVSPropertyOp7
 70
     1
102
RTVSPropertyOp8
 70
     1
102
RTVSPropertyOp9
 70
     1
102
RTVSPropertyOp10
 70
     1
102
RTVSPropertyOp11
 70
     1
102
RTVSPropertyOp12
 70
     1
102
RTVSPropertyOp13
 70
     1
102
RTVSPropertyOp14
 70
     1
102
RTVSPropertyOp15
 70
     1
102
RTVSPropertyOp16
 70
     1
102
RTVSPropertyOp17
 70
     1
102
RTVSPropertyOp18
 70
     1
102
RTVSPropertyOp19
 70
     1
102
RTVSPropertyOp20
 70
     1
102
RTVSPropertyOp21
 70
     1
102
RTVSPropertyOp22
 70
     1
102
RTVSPropertyOp23
 70
     1
102
RTVSPropertyOp24
 70
     1
102
RTVSPropertyOp25
 70
     1
102
RTVSPropertyOp26
 70
     1
102
RTVSPropertyOp27
 70
     1
102
RTVSPropertyOp28
 70
     1
102
RTVSPropertyOp29
 70
     1
102
RTVSPropertyOp30
 70
     1
102
RTVSPropertyOp31
 70
     1
102
RTVSPropertyOp32
 70
     1
102
RTVSPropertyOp33
 70
     1
102
RTVSPropertyOp34
 70
     1
102
RTVSPropertyOp35
 70
     1
102
RTVSPropertyOp36
 70
     1
102
RTVSPropertyOp37
 70
     1
102
RTVSPropertyOp38
 70
     1
102
RTVSPropertyOp39
 70
     1
102
RTVSPropertyOp40
 70
     1
102
RTVSPropertyOp41
 70
     1
102
RTVSPropertyOp42
 70
     1
102
RTVSPropertyOp43
 70
     1
102
RTVSPropertyOp44
 70
     1
102
RTVSPropertyOp45
 70
     1
102
RTVSPropertyOp46
 70
     1
102
RTVSPropertyOp47
 70
     1
102
RTVSPropertyOp48
 70
     1
102
RTVSPropertyOp49
 70
     1
102
RTVSPropertyOp50
 70
     1
102
RTVSPropertyOp51
 70
     0
102
RTVSPropertyOp52
 70
     0
102
RTVSPropertyOp53
 70
     1
102
RTVSPropertyOp54
 70
     1
102
RTVSPropertyOp55
 70
     1
102
RTVSPropertyOp56
 70
     1
102
RTVSPropertyOp57
 70
     1
102
RTVSPropertyOp58
 70
     1
102
RTVSPropertyOp59
 70
     1
102
RTVSPropertyOp60
 70
     1
102
RTVSPropertyOp61
 70
     1
102
RTVSPropertyOp62
 70
     1
  0
XRECORD
  5
B830
102
{ACAD_REACTORS
330
B82F
102
}
330
B82F
100
AcDbXrecord
280
     1
102
RTVSPost2010Prop28
280
     0
102
RTVSPost2010PropOp28
 70
     1
102
RTVSPost2010Prop29
280
     1
102
RTVSPost2010PropOp29
 70
     1
102
RTVSPost2010Prop30
280
     1
102
RTVSPost2010PropOp30
 70
     1
102
RTVSPost2010Prop31
280
     0
102
RTVSPost2010PropOp31
 70
     1
102
RTVSPost2010Prop32
280
     0
102
RTVSPost2010PropOp32
 70
     1
102
RTVSPost2010Prop33
280
     0
102
RTVSPost2010PropOp33
 70
     1
102
RTVSPost2010Prop34
280
     0
102
RTVSPost2010PropOp34
 70
     1
102
RTVSPost2010Prop35
280
     0
102
RTVSPost2010PropOp35
 70
     1
102
RTVSPost2010Prop36
280
     0
102
RTVSPost2010PropOp36
 70
     1
102
RTVSPost2010Prop37
 90
       50
102
RTVSPost2010PropOp37
 70
     1
102
RTVSPost2010Prop38
140
0.0
102
RTVSPost2010PropOp38
 70
     1
102
RTVSPost2010Prop39
140
1.0
102
RTVSPost2010PropOp39
 70
     1
102
RTVSPost2010Prop40
 90
        0
102
RTVSPost2010PropOp40
 70
     1
102
RTVSPost2010Prop41ColorIndex
 90
       18
102
RTVSPost2010Prop41ColorRGB
 90
        0
102
RTVSPost2010PropOp41
 70
     1
102
RTVSPost2010Prop42
 90
       50
102
RTVSPost2010PropOp42
 70
     1
102
RTVSPost2010Prop43
 90
        3
102
RTVSPost2010PropOp43
 70
     1
102
RTVSPost2010Prop44ColorIndex
 90
        5
102
RTVSPost2010Prop44ColorRGB
 90
      255
102
RTVSPost2010PropOp44
 70
     1
102
RTVSPost2010Prop45
280
     0
102
RTVSPost2010PropOp45
 70
     1
102
RTVSPost2010Prop46
 90
       50
102
RTVSPost2010PropOp46
 70
     1
102
RTVSPost2010Prop47
 90
       50
102
RTVSPost2010PropOp47
 70
     1
102
RTVSPost2010Prop48
 90
       50
102
RTVSPost2010PropOp48
 70
     1
102
RTVSPost2010Prop49
280
     0
102
RTVSPost2010PropOp49
 70
     1
102
RTVSPost2010Prop50
 90
       50
102
RTVSPost2010PropOp50
 70
     1
102
RTVSPost2010Prop51ColorIndex
 90
      256
102
RTVSPost2010Prop51ColorRGB
 90
-16777216
102
RTVSPost2010PropOp51
 70
     0
102
RTVSPost2010Prop52
140
1.0
102
RTVSPost2010PropOp52
 70
     0
102
RTVSPost2010Prop53
 90
        2
102
RTVSPost2010PropOp53
 70
     1
102
RTVSPost2010Prop54
  1
strokes_ogs.tif
102
RTVSPost2010PropOp54
 70
     1
102
RTVSPost2010Prop55
280
     0
102
RTVSPost2010PropOp55
 70
     1
102
RTVSPost2010Prop56
140
1.0
102
RTVSPost2010PropOp56
 70
     1
102
RTVSPost2010Prop57
140
1.0
102
RTVSPost2010PropOp57
 70
     1
102
RTVSPropertyOp0
 70
     1
102
RTVSPropertyOp1
 70
     1
102
RTVSPropertyOp2
 70
     1
102
RTVSPropertyOp3
 70
     1
102
RTVSPropertyOp4
 70
     1
102
RTVSPropertyOp5
 70
     1
102
RTVSPropertyOp6
 70
     1
102
RTVSPropertyOp7
 70
     1
102
RTVSPropertyOp8
 70
     1
102
RTVSPropertyOp9
 70
     1
102
RTVSPropertyOp10
 70
     1
102
RTVSPropertyOp11
 70
     1
102
RTVSPropertyOp12
 70
     1
102
RTVSPropertyOp13
 70
     1
102
RTVSPropertyOp14
 70
     1
102
RTVSPropertyOp15
 70
     1
102
RTVSPropertyOp16
 70
     1
102
RTVSPropertyOp17
 70
     1
102
RTVSPropertyOp18
 70
     1
102
RTVSPropertyOp19
 70
     1
102
RTVSPropertyOp20
 70
     1
102
RTVSPropertyOp21
 70
     1
102
RTVSPropertyOp22
 70
     1
102
RTVSPropertyOp23
 70
     1
102
RTVSPropertyOp24
 70
     1
102
RTVSPropertyOp25
 70
     1
102
RTVSPropertyOp26
 70
     1
102
RTVSPropertyOp27
 70
     1
102
RTVSPropertyOp28
 70
     1
102
RTVSPropertyOp29
 70
     1
102
RTVSPropertyOp30
 70
     1
102
RTVSPropertyOp31
 70
     1
102
RTVSPropertyOp32
 70
     1
102
RTVSPropertyOp33
 70
     1
102
RTVSPropertyOp34
 70
     1
102
RTVSPropertyOp35
 70
     1
102
RTVSPropertyOp36
 70
     1
102
RTVSPropertyOp37
 70
     1
102
RTVSPropertyOp38
 70
     1
102
RTVSPropertyOp39
 70
     1
102
RTVSPropertyOp40
 70
     1
102
RTVSPropertyOp41
 70
     1
102
RTVSPropertyOp42
 70
     1
102
RTVSPropertyOp43
 70
     1
102
RTVSPropertyOp44
 70
     1
102
RTVSPropertyOp45
 70
     1
102
RTVSPropertyOp46
 70
     1
102
RTVSPropertyOp47
 70
     1
102
RTVSPropertyOp48
 70
     1
102
RTVSPropertyOp49
 70
     1
102
RTVSPropertyOp50
 70
     1
102
RTVSPropertyOp51
 70
     0
102
RTVSPropertyOp52
 70
     0
102
RTVSPropertyOp53
 70
     1
102
RTVSPropertyOp54
 70
     1
102
RTVSPropertyOp55
 70
     1
102
RTVSPropertyOp56
 70
     1
102
RTVSPropertyOp57
 70
     1
102
RTVSPropertyOp58
 70
     1
102
RTVSPropertyOp59
 70
     1
102
RTVSPropertyOp60
 70
     1
102
RTVSPropertyOp61
 70
     1
102
RTVSPropertyOp62
 70
     1
  0
XRECORD
  5
B822
102
{ACAD_REACTORS
330
B821
102
}
330
B821
100
AcDbXrecord
280
     1
102
RTVSPost2010Prop28
280
     0
102
RTVSPost2010PropOp28
 70
     1
102
RTVSPost2010Prop29
280
     1
102
RTVSPost2010PropOp29
 70
     1
102
RTVSPost2010Prop30
280
     1
102
RTVSPost2010PropOp30
 70
     1
102
RTVSPost2010Prop31
280
     0
102
RTVSPost2010PropOp31
 70
     1
102
RTVSPost2010Prop32
280
     0
102
RTVSPost2010PropOp32
 70
     1
102
RTVSPost2010Prop33
280
     0
102
RTVSPost2010PropOp33
 70
     1
102
RTVSPost2010Prop34
280
     0
102
RTVSPost2010PropOp34
 70
     1
102
RTVSPost2010Prop35
280
     0
102
RTVSPost2010PropOp35
 70
     1
102
RTVSPost2010Prop36
280
     0
102
RTVSPost2010PropOp36
 70
     1
102
RTVSPost2010Prop37
 90
       50
102
RTVSPost2010PropOp37
 70
     1
102
RTVSPost2010Prop38
140
0.0
102
RTVSPost2010PropOp38
 70
     1
102
RTVSPost2010Prop39
140
1.0
102
RTVSPost2010PropOp39
 70
     1
102
RTVSPost2010Prop40
 90
        0
102
RTVSPost2010PropOp40
 70
     1
102
RTVSPost2010Prop41ColorIndex
 90
       18
102
RTVSPost2010Prop41ColorRGB
 90
        0
102
RTVSPost2010PropOp41
 70
     1
102
RTVSPost2010Prop42
 90
       50
102
RTVSPost2010PropOp42
 70
     1
102
RTVSPost2010Prop43
 90
        3
102
RTVSPost2010PropOp43
 70
     1
102
RTVSPost2010Prop44ColorIndex
 90
        5
102
RTVSPost2010Prop44ColorRGB
 90
      255
102
RTVSPost2010PropOp44
 70
     1
102
RTVSPost2010Prop45
280
     0
102
RTVSPost2010PropOp45
 70
     1
102
RTVSPost2010Prop46
 90
       50
102
RTVSPost2010PropOp46
 70
     1
102
RTVSPost2010Prop47
 90
       50
102
RTVSPost2010PropOp47
 70
     1
102
RTVSPost2010Prop48
 90
       50
102
RTVSPost2010PropOp48
 70
     1
102
RTVSPost2010Prop49
280
     0
102
RTVSPost2010PropOp49
 70
     1
102
RTVSPost2010Prop50
 90
       50
102
RTVSPost2010PropOp50
 70
     1
102
RTVSPost2010Prop51ColorIndex
 90
      256
102
RTVSPost2010Prop51ColorRGB
 90
-16777216
102
RTVSPost2010PropOp51
 70
     0
102
RTVSPost2010Prop52
140
1.0
102
RTVSPost2010PropOp52
 70
     0
102
RTVSPost2010Prop53
 90
        2
102
RTVSPost2010PropOp53
 70
     1
102
RTVSPost2010Prop54
  1
strokes_ogs.tif
102
RTVSPost2010PropOp54
 70
     1
102
RTVSPost2010Prop55
280
     0
102
RTVSPost2010PropOp55
 70
     1
102
RTVSPost2010Prop56
140
1.0
102
RTVSPost2010PropOp56
 70
     1
102
RTVSPost2010Prop57
140
1.0
102
RTVSPost2010PropOp57
 70
     1
102
RTVSPropertyOp0
 70
     1
102
RTVSPropertyOp1
 70
     1
102
RTVSPropertyOp2
 70
     1
102
RTVSPropertyOp3
 70
     1
102
RTVSPropertyOp4
 70
     1
102
RTVSPropertyOp5
 70
     1
102
RTVSPropertyOp6
 70
     1
102
RTVSPropertyOp7
 70
     1
102
RTVSPropertyOp8
 70
     1
102
RTVSPropertyOp9
 70
     1
102
RTVSPropertyOp10
 70
     1
102
RTVSPropertyOp11
 70
     1
102
RTVSPropertyOp12
 70
     1
102
RTVSPropertyOp13
 70
     1
102
RTVSPropertyOp14
 70
     1
102
RTVSPropertyOp15
 70
     1
102
RTVSPropertyOp16
 70
     1
102
RTVSPropertyOp17
 70
     1
102
RTVSPropertyOp18
 70
     1
102
RTVSPropertyOp19
 70
     1
102
RTVSPropertyOp20
 70
     1
102
RTVSPropertyOp21
 70
     1
102
RTVSPropertyOp22
 70
     1
102
RTVSPropertyOp23
 70
     1
102
RTVSPropertyOp24
 70
     1
102
RTVSPropertyOp25
 70
     1
102
RTVSPropertyOp26
 70
     1
102
RTVSPropertyOp27
 70
     1
102
RTVSPropertyOp28
 70
     1
102
RTVSPropertyOp29
 70
     1
102
RTVSPropertyOp30
 70
     1
102
RTVSPropertyOp31
 70
     1
102
RTVSPropertyOp32
 70
     1
102
RTVSPropertyOp33
 70
     1
102
RTVSPropertyOp34
 70
     1
102
RTVSPropertyOp35
 70
     1
102
RTVSPropertyOp36
 70
     1
102
RTVSPropertyOp37
 70
     1
102
RTVSPropertyOp38
 70
     1
102
RTVSPropertyOp39
 70
     1
102
RTVSPropertyOp40
 70
     1
102
RTVSPropertyOp41
 70
     1
102
RTVSPropertyOp42
 70
     1
102
RTVSPropertyOp43
 70
     1
102
RTVSPropertyOp44
 70
     1
102
RTVSPropertyOp45
 70
     1
102
RTVSPropertyOp46
 70
     1
102
RTVSPropertyOp47
 70
     1
102
RTVSPropertyOp48
 70
     1
102
RTVSPropertyOp49
 70
     1
102
RTVSPropertyOp50
 70
     1
102
RTVSPropertyOp51
 70
     0
102
RTVSPropertyOp52
 70
     0
102
RTVSPropertyOp53
 70
     1
102
RTVSPropertyOp54
 70
     1
102
RTVSPropertyOp55
 70
     1
102
RTVSPropertyOp56
 70
     1
102
RTVSPropertyOp57
 70
     1
102
RTVSPropertyOp58
 70
     1
102
RTVSPropertyOp59
 70
     1
102
RTVSPropertyOp60
 70
     1
102
RTVSPropertyOp61
 70
     1
102
RTVSPropertyOp62
 70
     1
  0
XRECORD
  5
B826
102
{ACAD_REACTORS
330
B825
102
}
330
B825
100
AcDbXrecord
280
     1
102
RTVSPost2010Prop28
280
     0
102
RTVSPost2010PropOp28
 70
     1
102
RTVSPost2010Prop29
280
     1
102
RTVSPost2010PropOp29
 70
     1
102
RTVSPost2010Prop30
280
     1
102
RTVSPost2010PropOp30
 70
     1
102
RTVSPost2010Prop31
280
     0
102
RTVSPost2010PropOp31
 70
     1
102
RTVSPost2010Prop32
280
     0
102
RTVSPost2010PropOp32
 70
     1
102
RTVSPost2010Prop33
280
     0
102
RTVSPost2010PropOp33
 70
     1
102
RTVSPost2010Prop34
280
     0
102
RTVSPost2010PropOp34
 70
     1
102
RTVSPost2010Prop35
280
     0
102
RTVSPost2010PropOp35
 70
     1
102
RTVSPost2010Prop36
280
     0
102
RTVSPost2010PropOp36
 70
     1
102
RTVSPost2010Prop37
 90
       50
102
RTVSPost2010PropOp37
 70
     1
102
RTVSPost2010Prop38
140
0.0
102
RTVSPost2010PropOp38
 70
     1
102
RTVSPost2010Prop39
140
1.0
102
RTVSPost2010PropOp39
 70
     1
102
RTVSPost2010Prop40
 90
        0
102
RTVSPost2010PropOp40
 70
     1
102
RTVSPost2010Prop41ColorIndex
 90
       18
102
RTVSPost2010Prop41ColorRGB
 90
        0
102
RTVSPost2010PropOp41
 70
     1
102
RTVSPost2010Prop42
 90
       50
102
RTVSPost2010PropOp42
 70
     1
102
RTVSPost2010Prop43
 90
        3
102
RTVSPost2010PropOp43
 70
     1
102
RTVSPost2010Prop44ColorIndex
 90
        5
102
RTVSPost2010Prop44ColorRGB
 90
      255
102
RTVSPost2010PropOp44
 70
     1
102
RTVSPost2010Prop45
280
     0
102
RTVSPost2010PropOp45
 70
     1
102
RTVSPost2010Prop46
 90
       50
102
RTVSPost2010PropOp46
 70
     1
102
RTVSPost2010Prop47
 90
       50
102
RTVSPost2010PropOp47
 70
     1
102
RTVSPost2010Prop48
 90
       50
102
RTVSPost2010PropOp48
 70
     1
102
RTVSPost2010Prop49
280
     0
102
RTVSPost2010PropOp49
 70
     1
102
RTVSPost2010Prop50
 90
       50
102
RTVSPost2010PropOp50
 70
     1
102
RTVSPost2010Prop51ColorIndex
 90
      256
102
RTVSPost2010Prop51ColorRGB
 90
-16777216
102
RTVSPost2010PropOp51
 70
     0
102
RTVSPost2010Prop52
140
1.0
102
RTVSPost2010PropOp52
 70
     0
102
RTVSPost2010Prop53
 90
        2
102
RTVSPost2010PropOp53
 70
     1
102
RTVSPost2010Prop54
  1
strokes_ogs.tif
102
RTVSPost2010PropOp54
 70
     1
102
RTVSPost2010Prop55
280
     0
102
RTVSPost2010PropOp55
 70
     1
102
RTVSPost2010Prop56
140
1.0
102
RTVSPost2010PropOp56
 70
     1
102
RTVSPost2010Prop57
140
1.0
102
RTVSPost2010PropOp57
 70
     1
102
RTVSPropertyOp0
 70
     1
102
RTVSPropertyOp1
 70
     1
102
RTVSPropertyOp2
 70
     1
102
RTVSPropertyOp3
 70
     1
102
RTVSPropertyOp4
 70
     1
102
RTVSPropertyOp5
 70
     1
102
RTVSPropertyOp6
 70
     1
102
RTVSPropertyOp7
 70
     1
102
RTVSPropertyOp8
 70
     1
102
RTVSPropertyOp9
 70
     1
102
RTVSPropertyOp10
 70
     1
102
RTVSPropertyOp11
 70
     1
102
RTVSPropertyOp12
 70
     1
102
RTVSPropertyOp13
 70
     1
102
RTVSPropertyOp14
 70
     1
102
RTVSPropertyOp15
 70
     1
102
RTVSPropertyOp16
 70
     1
102
RTVSPropertyOp17
 70
     1
102
RTVSPropertyOp18
 70
     1
102
RTVSPropertyOp19
 70
     1
102
RTVSPropertyOp20
 70
     1
102
RTVSPropertyOp21
 70
     1
102
RTVSPropertyOp22
 70
     1
102
RTVSPropertyOp23
 70
     1
102
RTVSPropertyOp24
 70
     1
102
RTVSPropertyOp25
 70
     1
102
RTVSPropertyOp26
 70
     1
102
RTVSPropertyOp27
 70
     1
102
RTVSPropertyOp28
 70
     1
102
RTVSPropertyOp29
 70
     1
102
RTVSPropertyOp30
 70
     1
102
RTVSPropertyOp31
 70
     1
102
RTVSPropertyOp32
 70
     1
102
RTVSPropertyOp33
 70
     1
102
RTVSPropertyOp34
 70
     1
102
RTVSPropertyOp35
 70
     1
102
RTVSPropertyOp36
 70
     1
102
RTVSPropertyOp37
 70
     1
102
RTVSPropertyOp38
 70
     1
102
RTVSPropertyOp39
 70
     1
102
RTVSPropertyOp40
 70
     1
102
RTVSPropertyOp41
 70
     1
102
RTVSPropertyOp42
 70
     1
102
RTVSPropertyOp43
 70
     1
102
RTVSPropertyOp44
 70
     1
102
RTVSPropertyOp45
 70
     1
102
RTVSPropertyOp46
 70
     1
102
RTVSPropertyOp47
 70
     1
102
RTVSPropertyOp48
 70
     1
102
RTVSPropertyOp49
 70
     1
102
RTVSPropertyOp50
 70
     1
102
RTVSPropertyOp51
 70
     0
102
RTVSPropertyOp52
 70
     0
102
RTVSPropertyOp53
 70
     1
102
RTVSPropertyOp54
 70
     1
102
RTVSPropertyOp55
 70
     1
102
RTVSPropertyOp56
 70
     1
102
RTVSPropertyOp57
 70
     1
102
RTVSPropertyOp58
 70
     1
102
RTVSPropertyOp59
 70
     1
102
RTVSPropertyOp60
 70
     1
102
RTVSPropertyOp61
 70
     1
102
RTVSPropertyOp62
 70
     1
  0
XRECORD
  5
B840
102
{ACAD_REACTORS
330
B83F
102
}
330
B83F
100
AcDbXrecord
280
     1
102
RTVSPost2010Prop28
280
     0
102
RTVSPost2010PropOp28
 70
     1
102
RTVSPost2010Prop29
280
     1
102
RTVSPost2010PropOp29
 70
     1
102
RTVSPost2010Prop30
280
     1
102
RTVSPost2010PropOp30
 70
     1
102
RTVSPost2010Prop31
280
     0
102
RTVSPost2010PropOp31
 70
     1
102
RTVSPost2010Prop32
280
     0
102
RTVSPost2010PropOp32
 70
     1
102
RTVSPost2010Prop33
280
     0
102
RTVSPost2010PropOp33
 70
     1
102
RTVSPost2010Prop34
280
     0
102
RTVSPost2010PropOp34
 70
     1
102
RTVSPost2010Prop35
280
     0
102
RTVSPost2010PropOp35
 70
     1
102
RTVSPost2010Prop36
280
     0
102
RTVSPost2010PropOp36
 70
     1
102
RTVSPost2010Prop37
 90
       50
102
RTVSPost2010PropOp37
 70
     0
102
RTVSPost2010Prop38
140
0.0
102
RTVSPost2010PropOp38
 70
     0
102
RTVSPost2010Prop39
140
1.0
102
RTVSPost2010PropOp39
 70
     0
102
RTVSPost2010Prop40
 90
        0
102
RTVSPost2010PropOp40
 70
     0
102
RTVSPost2010Prop41ColorIndex
 90
       18
102
RTVSPost2010Prop41ColorRGB
 90
        0
102
RTVSPost2010PropOp41
 70
     0
102
RTVSPost2010Prop42
 90
       50
102
RTVSPost2010PropOp42
 70
     0
102
RTVSPost2010Prop43
 90
        3
102
RTVSPost2010PropOp43
 70
     0
102
RTVSPost2010Prop44ColorIndex
 90
        5
102
RTVSPost2010Prop44ColorRGB
 90
      255
102
RTVSPost2010PropOp44
 70
     0
102
RTVSPost2010Prop45
280
     0
102
RTVSPost2010PropOp45
 70
     1
102
RTVSPost2010Prop46
 90
       50
102
RTVSPost2010PropOp46
 70
     0
102
RTVSPost2010Prop47
 90
       50
102
RTVSPost2010PropOp47
 70
     0
102
RTVSPost2010Prop48
 90
       50
102
RTVSPost2010PropOp48
 70
     0
102
RTVSPost2010Prop49
280
     0
102
RTVSPost2010PropOp49
 70
     1
102
RTVSPost2010Prop50
 90
       50
102
RTVSPost2010PropOp50
 70
     0
102
RTVSPost2010Prop51ColorIndex
 90
      256
102
RTVSPost2010Prop51ColorRGB
 90
-16777216
102
RTVSPost2010PropOp51
 70
     0
102
RTVSPost2010Prop52
140
1.0
102
RTVSPost2010PropOp52
 70
     0
102
RTVSPost2010Prop53
 90
        2
102
RTVSPost2010PropOp53
 70
     0
102
RTVSPost2010Prop54
  1
strokes_ogs.tif
102
RTVSPost2010PropOp54
 70
     0
102
RTVSPost2010Prop55
280
     0
102
RTVSPost2010PropOp55
 70
     1
102
RTVSPost2010Prop56
140
1.0
102
RTVSPost2010PropOp56
 70
     0
102
RTVSPost2010Prop57
140
1.0
102
RTVSPost2010PropOp57
 70
     0
102
RTVSPropertyOp0
 70
     0
102
RTVSPropertyOp1
 70
     0
102
RTVSPropertyOp2
 70
     0
102
RTVSPropertyOp3
 70
     0
102
RTVSPropertyOp4
 70
     0
102
RTVSPropertyOp5
 70
     0
102
RTVSPropertyOp6
 70
     0
102
RTVSPropertyOp7
 70
     0
102
RTVSPropertyOp8
 70
     0
102
RTVSPropertyOp9
 70
     0
102
RTVSPropertyOp10
 70
     0
102
RTVSPropertyOp11
 70
     0
102
RTVSPropertyOp12
 70
     0
102
RTVSPropertyOp13
 70
     0
102
RTVSPropertyOp14
 70
     2
102
RTVSPropertyOp15
 70
     0
102
RTVSPropertyOp16
 70
     0
102
RTVSPropertyOp17
 70
     0
102
RTVSPropertyOp18
 70
     0
102
RTVSPropertyOp19
 70
     0
102
RTVSPropertyOp20
 70
     0
102
RTVSPropertyOp21
 70
     0
102
RTVSPropertyOp22
 70
     0
102
RTVSPropertyOp23
 70
     0
102
RTVSPropertyOp24
 70
     0
102
RTVSPropertyOp25
 70
     0
102
RTVSPropertyOp26
 70
     0
102
RTVSPropertyOp27
 70
     0
102
RTVSPropertyOp28
 70
     1
102
RTVSPropertyOp29
 70
     1
102
RTVSPropertyOp30
 70
     1
102
RTVSPropertyOp31
 70
     1
102
RTVSPropertyOp32
 70
     1
102
RTVSPropertyOp33
 70
     1
102
RTVSPropertyOp34
 70
     1
102
RTVSPropertyOp35
 70
     1
102
RTVSPropertyOp36
 70
     1
102
RTVSPropertyOp37
 70
     0
102
RTVSPropertyOp38
 70
     0
102
RTVSPropertyOp39
 70
     0
102
RTVSPropertyOp40
 70
     0
102
RTVSPropertyOp41
 70
     0
102
RTVSPropertyOp42
 70
     0
102
RTVSPropertyOp43
 70
     0
102
RTVSPropertyOp44
 70
     0
102
RTVSPropertyOp45
 70
     1
102
RTVSPropertyOp46
 70
     0
102
RTVSPropertyOp47
 70
     0
102
RTVSPropertyOp48
 70
     0
102
RTVSPropertyOp49
 70
     1
102
RTVSPropertyOp50
 70
     0
102
RTVSPropertyOp51
 70
     0
102
RTVSPropertyOp52
 70
     0
102
RTVSPropertyOp53
 70
     0
102
RTVSPropertyOp54
 70
     0
102
RTVSPropertyOp55
 70
     1
102
RTVSPropertyOp56
 70
     0
102
RTVSPropertyOp57
 70
     0
102
RTVSPropertyOp58
 70
     0
102
RTVSPropertyOp59
 70
     0
102
RTVSPropertyOp60
 70
     0
102
RTVSPropertyOp61
 70
     0
102
RTVSPropertyOp62
 70
     0
  0
XRECORD
  5
B82E
102
{ACAD_REACTORS
330
B82D
102
}
330
B82D
100
AcDbXrecord
280
     1
102
RTVSPost2010Prop28
280
     0
102
RTVSPost2010PropOp28
 70
     1
102
RTVSPost2010Prop29
280
     1
102
RTVSPost2010PropOp29
 70
     1
102
RTVSPost2010Prop30
280
     1
102
RTVSPost2010PropOp30
 70
     1
102
RTVSPost2010Prop31
280
     0
102
RTVSPost2010PropOp31
 70
     1
102
RTVSPost2010Prop32
280
     0
102
RTVSPost2010PropOp32
 70
     1
102
RTVSPost2010Prop33
280
     0
102
RTVSPost2010PropOp33
 70
     1
102
RTVSPost2010Prop34
280
     0
102
RTVSPost2010PropOp34
 70
     1
102
RTVSPost2010Prop35
280
     0
102
RTVSPost2010PropOp35
 70
     1
102
RTVSPost2010Prop36
280
     0
102
RTVSPost2010PropOp36
 70
     1
102
RTVSPost2010Prop37
 90
       50
102
RTVSPost2010PropOp37
 70
     1
102
RTVSPost2010Prop38
140
0.0
102
RTVSPost2010PropOp38
 70
     1
102
RTVSPost2010Prop39
140
1.0
102
RTVSPost2010PropOp39
 70
     1
102
RTVSPost2010Prop40
 90
        0
102
RTVSPost2010PropOp40
 70
     1
102
RTVSPost2010Prop41ColorIndex
 90
       18
102
RTVSPost2010Prop41ColorRGB
 90
        0
102
RTVSPost2010PropOp41
 70
     1
102
RTVSPost2010Prop42
 90
       50
102
RTVSPost2010PropOp42
 70
     1
102
RTVSPost2010Prop43
 90
        3
102
RTVSPost2010PropOp43
 70
     1
102
RTVSPost2010Prop44ColorIndex
 90
        5
102
RTVSPost2010Prop44ColorRGB
 90
      255
102
RTVSPost2010PropOp44
 70
     1
102
RTVSPost2010Prop45
280
     0
102
RTVSPost2010PropOp45
 70
     1
102
RTVSPost2010Prop46
 90
       50
102
RTVSPost2010PropOp46
 70
     1
102
RTVSPost2010Prop47
 90
       50
102
RTVSPost2010PropOp47
 70
     1
102
RTVSPost2010Prop48
 90
       50
102
RTVSPost2010PropOp48
 70
     1
102
RTVSPost2010Prop49
280
     0
102
RTVSPost2010PropOp49
 70
     1
102
RTVSPost2010Prop50
 90
       50
102
RTVSPost2010PropOp50
 70
     1
102
RTVSPost2010Prop51ColorIndex
 90
      256
102
RTVSPost2010Prop51ColorRGB
 90
-16777216
102
RTVSPost2010PropOp51
 70
     0
102
RTVSPost2010Prop52
140
1.0
102
RTVSPost2010PropOp52
 70
     0
102
RTVSPost2010Prop53
 90
        2
102
RTVSPost2010PropOp53
 70
     1
102
RTVSPost2010Prop54
  1
strokes_ogs.tif
102
RTVSPost2010PropOp54
 70
     1
102
RTVSPost2010Prop55
280
     0
102
RTVSPost2010PropOp55
 70
     1
102
RTVSPost2010Prop56
140
1.0
102
RTVSPost2010PropOp56
 70
     1
102
RTVSPost2010Prop57
140
1.0
102
RTVSPost2010PropOp57
 70
     1
102
RTVSPropertyOp0
 70
     1
102
RTVSPropertyOp1
 70
     1
102
RTVSPropertyOp2
 70
     1
102
RTVSPropertyOp3
 70
     1
102
RTVSPropertyOp4
 70
     1
102
RTVSPropertyOp5
 70
     1
102
RTVSPropertyOp6
 70
     1
102
RTVSPropertyOp7
 70
     1
102
RTVSPropertyOp8
 70
     1
102
RTVSPropertyOp9
 70
     1
102
RTVSPropertyOp10
 70
     1
102
RTVSPropertyOp11
 70
     1
102
RTVSPropertyOp12
 70
     1
102
RTVSPropertyOp13
 70
     1
102
RTVSPropertyOp14
 70
     1
102
RTVSPropertyOp15
 70
     1
102
RTVSPropertyOp16
 70
     1
102
RTVSPropertyOp17
 70
     1
102
RTVSPropertyOp18
 70
     1
102
RTVSPropertyOp19
 70
     1
102
RTVSPropertyOp20
 70
     1
102
RTVSPropertyOp21
 70
     1
102
RTVSPropertyOp22
 70
     1
102
RTVSPropertyOp23
 70
     1
102
RTVSPropertyOp24
 70
     1
102
RTVSPropertyOp25
 70
     1
102
RTVSPropertyOp26
 70
     1
102
RTVSPropertyOp27
 70
     1
102
RTVSPropertyOp28
 70
     1
102
RTVSPropertyOp29
 70
     1
102
RTVSPropertyOp30
 70
     1
102
RTVSPropertyOp31
 70
     1
102
RTVSPropertyOp32
 70
     1
102
RTVSPropertyOp33
 70
     1
102
RTVSPropertyOp34
 70
     1
102
RTVSPropertyOp35
 70
     1
102
RTVSPropertyOp36
 70
     1
102
RTVSPropertyOp37
 70
     1
102
RTVSPropertyOp38
 70
     1
102
RTVSPropertyOp39
 70
     1
102
RTVSPropertyOp40
 70
     1
102
RTVSPropertyOp41
 70
     1
102
RTVSPropertyOp42
 70
     1
102
RTVSPropertyOp43
 70
     1
102
RTVSPropertyOp44
 70
     1
102
RTVSPropertyOp45
 70
     1
102
RTVSPropertyOp46
 70
     1
102
RTVSPropertyOp47
 70
     1
102
RTVSPropertyOp48
 70
     1
102
RTVSPropertyOp49
 70
     1
102
RTVSPropertyOp50
 70
     1
102
RTVSPropertyOp51
 70
     0
102
RTVSPropertyOp52
 70
     0
102
RTVSPropertyOp53
 70
     1
102
RTVSPropertyOp54
 70
     1
102
RTVSPropertyOp55
 70
     1
102
RTVSPropertyOp56
 70
     1
102
RTVSPropertyOp57
 70
     1
102
RTVSPropertyOp58
 70
     1
102
RTVSPropertyOp59
 70
     1
102
RTVSPropertyOp60
 70
     1
102
RTVSPropertyOp61
 70
     1
102
RTVSPropertyOp62
 70
     1
  0
XRECORD
  5
B812
102
{ACAD_REACTORS
330
B811
102
}
330
B811
100
AcDbXrecord
280
     1
102
RTVSPost2010Prop28
280
     0
102
RTVSPost2010PropOp28
 70
     1
102
RTVSPost2010Prop29
280
     1
102
RTVSPost2010PropOp29
 70
     1
102
RTVSPost2010Prop30
280
     1
102
RTVSPost2010PropOp30
 70
     1
102
RTVSPost2010Prop31
280
     0
102
RTVSPost2010PropOp31
 70
     1
102
RTVSPost2010Prop32
280
     0
102
RTVSPost2010PropOp32
 70
     1
102
RTVSPost2010Prop33
280
     0
102
RTVSPost2010PropOp33
 70
     1
102
RTVSPost2010Prop34
280
     0
102
RTVSPost2010PropOp34
 70
     1
102
RTVSPost2010Prop35
280
     0
102
RTVSPost2010PropOp35
 70
     1
102
RTVSPost2010Prop36
280
     0
102
RTVSPost2010PropOp36
 70
     1
102
RTVSPost2010Prop37
 90
       50
102
RTVSPost2010PropOp37
 70
     1
102
RTVSPost2010Prop38
140
0.0
102
RTVSPost2010PropOp38
 70
     1
102
RTVSPost2010Prop39
140
1.0
102
RTVSPost2010PropOp39
 70
     1
102
RTVSPost2010Prop40
 90
        0
102
RTVSPost2010PropOp40
 70
     1
102
RTVSPost2010Prop41ColorIndex
 90
       18
102
RTVSPost2010Prop41ColorRGB
 90
        0
102
RTVSPost2010PropOp41
 70
     1
102
RTVSPost2010Prop42
 90
       50
102
RTVSPost2010PropOp42
 70
     1
102
RTVSPost2010Prop43
 90
        3
102
RTVSPost2010PropOp43
 70
     1
102
RTVSPost2010Prop44ColorIndex
 90
        5
102
RTVSPost2010Prop44ColorRGB
 90
      255
102
RTVSPost2010PropOp44
 70
     1
102
RTVSPost2010Prop45
280
     0
102
RTVSPost2010PropOp45
 70
     1
102
RTVSPost2010Prop46
 90
       50
102
RTVSPost2010PropOp46
 70
     1
102
RTVSPost2010Prop47
 90
       50
102
RTVSPost2010PropOp47
 70
     1
102
RTVSPost2010Prop48
 90
       50
102
RTVSPost2010PropOp48
 70
     1
102
RTVSPost2010Prop49
280
     0
102
RTVSPost2010PropOp49
 70
     1
102
RTVSPost2010Prop50
 90
       50
102
RTVSPost2010PropOp50
 70
     1
102
RTVSPost2010Prop51ColorIndex
 90
      256
102
RTVSPost2010Prop51ColorRGB
 90
-16777216
102
RTVSPost2010PropOp51
 70
     0
102
RTVSPost2010Prop52
140
1.0
102
RTVSPost2010PropOp52
 70
     0
102
RTVSPost2010Prop53
 90
        2
102
RTVSPost2010PropOp53
 70
     1
102
RTVSPost2010Prop54
  1
strokes_ogs.tif
102
RTVSPost2010PropOp54
 70
     1
102
RTVSPost2010Prop55
280
     0
102
RTVSPost2010PropOp55
 70
     1
102
RTVSPost2010Prop56
140
1.0
102
RTVSPost2010PropOp56
 70
     1
102
RTVSPost2010Prop57
140
1.0
102
RTVSPost2010PropOp57
 70
     1
102
RTVSPropertyOp0
 70
     1
102
RTVSPropertyOp1
 70
     1
102
RTVSPropertyOp2
 70
     1
102
RTVSPropertyOp3
 70
     1
102
RTVSPropertyOp4
 70
     1
102
RTVSPropertyOp5
 70
     1
102
RTVSPropertyOp6
 70
     1
102
RTVSPropertyOp7
 70
     1
102
RTVSPropertyOp8
 70
     1
102
RTVSPropertyOp9
 70
     1
102
RTVSPropertyOp10
 70
     1
102
RTVSPropertyOp11
 70
     1
102
RTVSPropertyOp12
 70
     1
102
RTVSPropertyOp13
 70
     1
102
RTVSPropertyOp14
 70
     1
102
RTVSPropertyOp15
 70
     1
102
RTVSPropertyOp16
 70
     1
102
RTVSPropertyOp17
 70
     1
102
RTVSPropertyOp18
 70
     1
102
RTVSPropertyOp19
 70
     1
102
RTVSPropertyOp20
 70
     1
102
RTVSPropertyOp21
 70
     1
102
RTVSPropertyOp22
 70
     1
102
RTVSPropertyOp23
 70
     1
102
RTVSPropertyOp24
 70
     1
102
RTVSPropertyOp25
 70
     1
102
RTVSPropertyOp26
 70
     1
102
RTVSPropertyOp27
 70
     1
102
RTVSPropertyOp28
 70
     1
102
RTVSPropertyOp29
 70
     1
102
RTVSPropertyOp30
 70
     1
102
RTVSPropertyOp31
 70
     1
102
RTVSPropertyOp32
 70
     1
102
RTVSPropertyOp33
 70
     1
102
RTVSPropertyOp34
 70
     1
102
RTVSPropertyOp35
 70
     1
102
RTVSPropertyOp36
 70
     1
102
RTVSPropertyOp37
 70
     1
102
RTVSPropertyOp38
 70
     1
102
RTVSPropertyOp39
 70
     1
102
RTVSPropertyOp40
 70
     1
102
RTVSPropertyOp41
 70
     1
102
RTVSPropertyOp42
 70
     1
102
RTVSPropertyOp43
 70
     1
102
RTVSPropertyOp44
 70
     1
102
RTVSPropertyOp45
 70
     1
102
RTVSPropertyOp46
 70
     1
102
RTVSPropertyOp47
 70
     1
102
RTVSPropertyOp48
 70
     1
102
RTVSPropertyOp49
 70
     1
102
RTVSPropertyOp50
 70
     1
102
RTVSPropertyOp51
 70
     0
102
RTVSPropertyOp52
 70
     0
102
RTVSPropertyOp53
 70
     1
102
RTVSPropertyOp54
 70
     1
102
RTVSPropertyOp55
 70
     1
102
RTVSPropertyOp56
 70
     1
102
RTVSPropertyOp57
 70
     1
102
RTVSPropertyOp58
 70
     1
102
RTVSPropertyOp59
 70
     1
102
RTVSPropertyOp60
 70
     1
102
RTVSPropertyOp61
 70
     1
102
RTVSPropertyOp62
 70
     1
  0
XRECORD
  5
B814
102
{ACAD_REACTORS
330
B813
102
}
330
B813
100
AcDbXrecord
280
     1
102
RTVSPost2010Prop28
280
     0
102
RTVSPost2010PropOp28
 70
     1
102
RTVSPost2010Prop29
280
     1
102
RTVSPost2010PropOp29
 70
     1
102
RTVSPost2010Prop30
280
     1
102
RTVSPost2010PropOp30
 70
     1
102
RTVSPost2010Prop31
280
     0
102
RTVSPost2010PropOp31
 70
     1
102
RTVSPost2010Prop32
280
     0
102
RTVSPost2010PropOp32
 70
     1
102
RTVSPost2010Prop33
280
     0
102
RTVSPost2010PropOp33
 70
     1
102
RTVSPost2010Prop34
280
     0
102
RTVSPost2010PropOp34
 70
     1
102
RTVSPost2010Prop35
280
     0
102
RTVSPost2010PropOp35
 70
     1
102
RTVSPost2010Prop36
280
     0
102
RTVSPost2010PropOp36
 70
     1
102
RTVSPost2010Prop37
 90
       50
102
RTVSPost2010PropOp37
 70
     1
102
RTVSPost2010Prop38
140
0.0
102
RTVSPost2010PropOp38
 70
     1
102
RTVSPost2010Prop39
140
1.0
102
RTVSPost2010PropOp39
 70
     1
102
RTVSPost2010Prop40
 90
        0
102
RTVSPost2010PropOp40
 70
     1
102
RTVSPost2010Prop41ColorIndex
 90
       18
102
RTVSPost2010Prop41ColorRGB
 90
        0
102
RTVSPost2010PropOp41
 70
     1
102
RTVSPost2010Prop42
 90
       50
102
RTVSPost2010PropOp42
 70
     1
102
RTVSPost2010Prop43
 90
        3
102
RTVSPost2010PropOp43
 70
     1
102
RTVSPost2010Prop44ColorIndex
 90
        5
102
RTVSPost2010Prop44ColorRGB
 90
      255
102
RTVSPost2010PropOp44
 70
     1
102
RTVSPost2010Prop45
280
     0
102
RTVSPost2010PropOp45
 70
     1
102
RTVSPost2010Prop46
 90
       50
102
RTVSPost2010PropOp46
 70
     1
102
RTVSPost2010Prop47
 90
       50
102
RTVSPost2010PropOp47
 70
     1
102
RTVSPost2010Prop48
 90
       50
102
RTVSPost2010PropOp48
 70
     1
102
RTVSPost2010Prop49
280
     0
102
RTVSPost2010PropOp49
 70
     1
102
RTVSPost2010Prop50
 90
       50
102
RTVSPost2010PropOp50
 70
     1
102
RTVSPost2010Prop51ColorIndex
 90
      256
102
RTVSPost2010Prop51ColorRGB
 90
-16777216
102
RTVSPost2010PropOp51
 70
     0
102
RTVSPost2010Prop52
140
1.0
102
RTVSPost2010PropOp52
 70
     0
102
RTVSPost2010Prop53
 90
        2
102
RTVSPost2010PropOp53
 70
     1
102
RTVSPost2010Prop54
  1
strokes_ogs.tif
102
RTVSPost2010PropOp54
 70
     1
102
RTVSPost2010Prop55
280
     0
102
RTVSPost2010PropOp55
 70
     1
102
RTVSPost2010Prop56
140
1.0
102
RTVSPost2010PropOp56
 70
     1
102
RTVSPost2010Prop57
140
1.0
102
RTVSPost2010PropOp57
 70
     1
102
RTVSPropertyOp0
 70
     1
102
RTVSPropertyOp1
 70
     1
102
RTVSPropertyOp2
 70
     1
102
RTVSPropertyOp3
 70
     1
102
RTVSPropertyOp4
 70
     1
102
RTVSPropertyOp5
 70
     1
102
RTVSPropertyOp6
 70
     1
102
RTVSPropertyOp7
 70
     1
102
RTVSPropertyOp8
 70
     1
102
RTVSPropertyOp9
 70
     1
102
RTVSPropertyOp10
 70
     1
102
RTVSPropertyOp11
 70
     1
102
RTVSPropertyOp12
 70
     1
102
RTVSPropertyOp13
 70
     1
102
RTVSPropertyOp14
 70
     1
102
RTVSPropertyOp15
 70
     1
102
RTVSPropertyOp16
 70
     1
102
RTVSPropertyOp17
 70
     1
102
RTVSPropertyOp18
 70
     1
102
RTVSPropertyOp19
 70
     1
102
RTVSPropertyOp20
 70
     1
102
RTVSPropertyOp21
 70
     1
102
RTVSPropertyOp22
 70
     1
102
RTVSPropertyOp23
 70
     1
102
RTVSPropertyOp24
 70
     1
102
RTVSPropertyOp25
 70
     1
102
RTVSPropertyOp26
 70
     1
102
RTVSPropertyOp27
 70
     1
102
RTVSPropertyOp28
 70
     1
102
RTVSPropertyOp29
 70
     1
102
RTVSPropertyOp30
 70
     1
102
RTVSPropertyOp31
 70
     1
102
RTVSPropertyOp32
 70
     1
102
RTVSPropertyOp33
 70
     1
102
RTVSPropertyOp34
 70
     1
102
RTVSPropertyOp35
 70
     1
102
RTVSPropertyOp36
 70
     1
102
RTVSPropertyOp37
 70
     1
102
RTVSPropertyOp38
 70
     1
102
RTVSPropertyOp39
 70
     1
102
RTVSPropertyOp40
 70
     1
102
RTVSPropertyOp41
 70
     1
102
RTVSPropertyOp42
 70
     1
102
RTVSPropertyOp43
 70
     1
102
RTVSPropertyOp44
 70
     1
102
RTVSPropertyOp45
 70
     1
102
RTVSPropertyOp46
 70
     1
102
RTVSPropertyOp47
 70
     1
102
RTVSPropertyOp48
 70
     1
102
RTVSPropertyOp49
 70
     1
102
RTVSPropertyOp50
 70
     1
102
RTVSPropertyOp51
 70
     0
102
RTVSPropertyOp52
 70
     0
102
RTVSPropertyOp53
 70
     1
102
RTVSPropertyOp54
 70
     1
102
RTVSPropertyOp55
 70
     1
102
RTVSPropertyOp56
 70
     1
102
RTVSPropertyOp57
 70
     1
102
RTVSPropertyOp58
 70
     1
102
RTVSPropertyOp59
 70
     1
102
RTVSPropertyOp60
 70
     1
102
RTVSPropertyOp61
 70
     1
102
RTVSPropertyOp62
 70
     1
  0
XRECORD
  5
B816
102
{ACAD_REACTORS
330
B815
102
}
330
B815
100
AcDbXrecord
280
     1
102
RTVSPost2010Prop28
280
     0
102
RTVSPost2010PropOp28
 70
     1
102
RTVSPost2010Prop29
280
     1
102
RTVSPost2010PropOp29
 70
     1
102
RTVSPost2010Prop30
280
     1
102
RTVSPost2010PropOp30
 70
     1
102
RTVSPost2010Prop31
280
     0
102
RTVSPost2010PropOp31
 70
     1
102
RTVSPost2010Prop32
280
     0
102
RTVSPost2010PropOp32
 70
     1
102
RTVSPost2010Prop33
280
     0
102
RTVSPost2010PropOp33
 70
     1
102
RTVSPost2010Prop34
280
     0
102
RTVSPost2010PropOp34
 70
     1
102
RTVSPost2010Prop35
280
     0
102
RTVSPost2010PropOp35
 70
     1
102
RTVSPost2010Prop36
280
     0
102
RTVSPost2010PropOp36
 70
     1
102
RTVSPost2010Prop37
 90
       50
102
RTVSPost2010PropOp37
 70
     1
102
RTVSPost2010Prop38
140
0.0
102
RTVSPost2010PropOp38
 70
     1
102
RTVSPost2010Prop39
140
1.0
102
RTVSPost2010PropOp39
 70
     1
102
RTVSPost2010Prop40
 90
        0
102
RTVSPost2010PropOp40
 70
     1
102
RTVSPost2010Prop41ColorIndex
 90
       18
102
RTVSPost2010Prop41ColorRGB
 90
        0
102
RTVSPost2010PropOp41
 70
     1
102
RTVSPost2010Prop42
 90
       50
102
RTVSPost2010PropOp42
 70
     1
102
RTVSPost2010Prop43
 90
        3
102
RTVSPost2010PropOp43
 70
     1
102
RTVSPost2010Prop44ColorIndex
 90
        5
102
RTVSPost2010Prop44ColorRGB
 90
      255
102
RTVSPost2010PropOp44
 70
     1
102
RTVSPost2010Prop45
280
     0
102
RTVSPost2010PropOp45
 70
     1
102
RTVSPost2010Prop46
 90
       50
102
RTVSPost2010PropOp46
 70
     1
102
RTVSPost2010Prop47
 90
       50
102
RTVSPost2010PropOp47
 70
     1
102
RTVSPost2010Prop48
 90
       50
102
RTVSPost2010PropOp48
 70
     1
102
RTVSPost2010Prop49
280
     0
102
RTVSPost2010PropOp49
 70
     1
102
RTVSPost2010Prop50
 90
       50
102
RTVSPost2010PropOp50
 70
     1
102
RTVSPost2010Prop51ColorIndex
 90
      256
102
RTVSPost2010Prop51ColorRGB
 90
-16777216
102
RTVSPost2010PropOp51
 70
     0
102
RTVSPost2010Prop52
140
1.0
102
RTVSPost2010PropOp52
 70
     0
102
RTVSPost2010Prop53
 90
        2
102
RTVSPost2010PropOp53
 70
     1
102
RTVSPost2010Prop54
  1
strokes_ogs.tif
102
RTVSPost2010PropOp54
 70
     1
102
RTVSPost2010Prop55
280
     0
102
RTVSPost2010PropOp55
 70
     1
102
RTVSPost2010Prop56
140
1.0
102
RTVSPost2010PropOp56
 70
     1
102
RTVSPost2010Prop57
140
1.0
102
RTVSPost2010PropOp57
 70
     1
102
RTVSPropertyOp0
 70
     1
102
RTVSPropertyOp1
 70
     1
102
RTVSPropertyOp2
 70
     1
102
RTVSPropertyOp3
 70
     1
102
RTVSPropertyOp4
 70
     1
102
RTVSPropertyOp5
 70
     1
102
RTVSPropertyOp6
 70
     1
102
RTVSPropertyOp7
 70
     1
102
RTVSPropertyOp8
 70
     1
102
RTVSPropertyOp9
 70
     1
102
RTVSPropertyOp10
 70
     1
102
RTVSPropertyOp11
 70
     1
102
RTVSPropertyOp12
 70
     1
102
RTVSPropertyOp13
 70
     1
102
RTVSPropertyOp14
 70
     1
102
RTVSPropertyOp15
 70
     1
102
RTVSPropertyOp16
 70
     1
102
RTVSPropertyOp17
 70
     1
102
RTVSPropertyOp18
 70
     1
102
RTVSPropertyOp19
 70
     1
102
RTVSPropertyOp20
 70
     1
102
RTVSPropertyOp21
 70
     1
102
RTVSPropertyOp22
 70
     1
102
RTVSPropertyOp23
 70
     1
102
RTVSPropertyOp24
 70
     1
102
RTVSPropertyOp25
 70
     1
102
RTVSPropertyOp26
 70
     1
102
RTVSPropertyOp27
 70
     1
102
RTVSPropertyOp28
 70
     1
102
RTVSPropertyOp29
 70
     1
102
RTVSPropertyOp30
 70
     1
102
RTVSPropertyOp31
 70
     1
102
RTVSPropertyOp32
 70
     1
102
RTVSPropertyOp33
 70
     1
102
RTVSPropertyOp34
 70
     1
102
RTVSPropertyOp35
 70
     1
102
RTVSPropertyOp36
 70
     1
102
RTVSPropertyOp37
 70
     1
102
RTVSPropertyOp38
 70
     1
102
RTVSPropertyOp39
 70
     1
102
RTVSPropertyOp40
 70
     1
102
RTVSPropertyOp41
 70
     1
102
RTVSPropertyOp42
 70
     1
102
RTVSPropertyOp43
 70
     1
102
RTVSPropertyOp44
 70
     1
102
RTVSPropertyOp45
 70
     1
102
RTVSPropertyOp46
 70
     1
102
RTVSPropertyOp47
 70
     1
102
RTVSPropertyOp48
 70
     1
102
RTVSPropertyOp49
 70
     1
102
RTVSPropertyOp50
 70
     1
102
RTVSPropertyOp51
 70
     0
102
RTVSPropertyOp52
 70
     0
102
RTVSPropertyOp53
 70
     1
102
RTVSPropertyOp54
 70
     1
102
RTVSPropertyOp55
 70
     1
102
RTVSPropertyOp56
 70
     1
102
RTVSPropertyOp57
 70
     1
102
RTVSPropertyOp58
 70
     1
102
RTVSPropertyOp59
 70
     1
102
RTVSPropertyOp60
 70
     1
102
RTVSPropertyOp61
 70
     1
102
RTVSPropertyOp62
 70
     1
  0
XRECORD
  5
B818
102
{ACAD_REACTORS
330
B817
102
}
330
B817
100
AcDbXrecord
280
     1
102
RTVSPost2010Prop28
280
     0
102
RTVSPost2010PropOp28
 70
     1
102
RTVSPost2010Prop29
280
     1
102
RTVSPost2010PropOp29
 70
     1
102
RTVSPost2010Prop30
280
     1
102
RTVSPost2010PropOp30
 70
     1
102
RTVSPost2010Prop31
280
     0
102
RTVSPost2010PropOp31
 70
     1
102
RTVSPost2010Prop32
280
     0
102
RTVSPost2010PropOp32
 70
     1
102
RTVSPost2010Prop33
280
     0
102
RTVSPost2010PropOp33
 70
     1
102
RTVSPost2010Prop34
280
     0
102
RTVSPost2010PropOp34
 70
     1
102
RTVSPost2010Prop35
280
     0
102
RTVSPost2010PropOp35
 70
     1
102
RTVSPost2010Prop36
280
     0
102
RTVSPost2010PropOp36
 70
     1
102
RTVSPost2010Prop37
 90
       50
102
RTVSPost2010PropOp37
 70
     1
102
RTVSPost2010Prop38
140
0.0
102
RTVSPost2010PropOp38
 70
     1
102
RTVSPost2010Prop39
140
1.0
102
RTVSPost2010PropOp39
 70
     1
102
RTVSPost2010Prop40
 90
        0
102
RTVSPost2010PropOp40
 70
     1
102
RTVSPost2010Prop41ColorIndex
 90
       18
102
RTVSPost2010Prop41ColorRGB
 90
        0
102
RTVSPost2010PropOp41
 70
     1
102
RTVSPost2010Prop42
 90
       50
102
RTVSPost2010PropOp42
 70
     1
102
RTVSPost2010Prop43
 90
        3
102
RTVSPost2010PropOp43
 70
     1
102
RTVSPost2010Prop44ColorIndex
 90
        5
102
RTVSPost2010Prop44ColorRGB
 90
      255
102
RTVSPost2010PropOp44
 70
     1
102
RTVSPost2010Prop45
280
     0
102
RTVSPost2010PropOp45
 70
     1
102
RTVSPost2010Prop46
 90
       50
102
RTVSPost2010PropOp46
 70
     1
102
RTVSPost2010Prop47
 90
       50
102
RTVSPost2010PropOp47
 70
     1
102
RTVSPost2010Prop48
 90
       50
102
RTVSPost2010PropOp48
 70
     1
102
RTVSPost2010Prop49
280
     0
102
RTVSPost2010PropOp49
 70
     1
102
RTVSPost2010Prop50
 90
       50
102
RTVSPost2010PropOp50
 70
     1
102
RTVSPost2010Prop51ColorIndex
 90
      256
102
RTVSPost2010Prop51ColorRGB
 90
-16777216
102
RTVSPost2010PropOp51
 70
     0
102
RTVSPost2010Prop52
140
1.0
102
RTVSPost2010PropOp52
 70
     0
102
RTVSPost2010Prop53
 90
        2
102
RTVSPost2010PropOp53
 70
     1
102
RTVSPost2010Prop54
  1
strokes_ogs.tif
102
RTVSPost2010PropOp54
 70
     1
102
RTVSPost2010Prop55
280
     0
102
RTVSPost2010PropOp55
 70
     1
102
RTVSPost2010Prop56
140
1.0
102
RTVSPost2010PropOp56
 70
     1
102
RTVSPost2010Prop57
140
1.0
102
RTVSPost2010PropOp57
 70
     1
102
RTVSPropertyOp0
 70
     1
102
RTVSPropertyOp1
 70
     1
102
RTVSPropertyOp2
 70
     1
102
RTVSPropertyOp3
 70
     1
102
RTVSPropertyOp4
 70
     1
102
RTVSPropertyOp5
 70
     1
102
RTVSPropertyOp6
 70
     1
102
RTVSPropertyOp7
 70
     1
102
RTVSPropertyOp8
 70
     1
102
RTVSPropertyOp9
 70
     1
102
RTVSPropertyOp10
 70
     1
102
RTVSPropertyOp11
 70
     1
102
RTVSPropertyOp12
 70
     1
102
RTVSPropertyOp13
 70
     1
102
RTVSPropertyOp14
 70
     1
102
RTVSPropertyOp15
 70
     1
102
RTVSPropertyOp16
 70
     1
102
RTVSPropertyOp17
 70
     1
102
RTVSPropertyOp18
 70
     1
102
RTVSPropertyOp19
 70
     1
102
RTVSPropertyOp20
 70
     1
102
RTVSPropertyOp21
 70
     1
102
RTVSPropertyOp22
 70
     1
102
RTVSPropertyOp23
 70
     1
102
RTVSPropertyOp24
 70
     1
102
RTVSPropertyOp25
 70
     1
102
RTVSPropertyOp26
 70
     1
102
RTVSPropertyOp27
 70
     1
102
RTVSPropertyOp28
 70
     1
102
RTVSPropertyOp29
 70
     1
102
RTVSPropertyOp30
 70
     1
102
RTVSPropertyOp31
 70
     1
102
RTVSPropertyOp32
 70
     1
102
RTVSPropertyOp33
 70
     1
102
RTVSPropertyOp34
 70
     1
102
RTVSPropertyOp35
 70
     1
102
RTVSPropertyOp36
 70
     1
102
RTVSPropertyOp37
 70
     1
102
RTVSPropertyOp38
 70
     1
102
RTVSPropertyOp39
 70
     1
102
RTVSPropertyOp40
 70
     1
102
RTVSPropertyOp41
 70
     1
102
RTVSPropertyOp42
 70
     1
102
RTVSPropertyOp43
 70
     1
102
RTVSPropertyOp44
 70
     1
102
RTVSPropertyOp45
 70
     1
102
RTVSPropertyOp46
 70
     1
102
RTVSPropertyOp47
 70
     1
102
RTVSPropertyOp48
 70
     1
102
RTVSPropertyOp49
 70
     1
102
RTVSPropertyOp50
 70
     1
102
RTVSPropertyOp51
 70
     0
102
RTVSPropertyOp52
 70
     0
102
RTVSPropertyOp53
 70
     1
102
RTVSPropertyOp54
 70
     1
102
RTVSPropertyOp55
 70
     1
102
RTVSPropertyOp56
 70
     1
102
RTVSPropertyOp57
 70
     1
102
RTVSPropertyOp58
 70
     1
102
RTVSPropertyOp59
 70
     1
102
RTVSPropertyOp60
 70
     1
102
RTVSPropertyOp61
 70
     1
102
RTVSPropertyOp62
 70
     1
  0
XRECORD
  5
B820
102
{ACAD_REACTORS
330
B81F
102
}
330
B81F
100
AcDbXrecord
280
     1
102
RTVSPost2010Prop28
280
     0
102
RTVSPost2010PropOp28
 70
     1
102
RTVSPost2010Prop29
280
     1
102
RTVSPost2010PropOp29
 70
     1
102
RTVSPost2010Prop30
280
     1
102
RTVSPost2010PropOp30
 70
     1
102
RTVSPost2010Prop31
280
     0
102
RTVSPost2010PropOp31
 70
     1
102
RTVSPost2010Prop32
280
     0
102
RTVSPost2010PropOp32
 70
     1
102
RTVSPost2010Prop33
280
     0
102
RTVSPost2010PropOp33
 70
     1
102
RTVSPost2010Prop34
280
     0
102
RTVSPost2010PropOp34
 70
     1
102
RTVSPost2010Prop35
280
     0
102
RTVSPost2010PropOp35
 70
     1
102
RTVSPost2010Prop36
280
     0
102
RTVSPost2010PropOp36
 70
     1
102
RTVSPost2010Prop37
 90
       50
102
RTVSPost2010PropOp37
 70
     1
102
RTVSPost2010Prop38
140
0.0
102
RTVSPost2010PropOp38
 70
     1
102
RTVSPost2010Prop39
140
1.0
102
RTVSPost2010PropOp39
 70
     1
102
RTVSPost2010Prop40
 90
        0
102
RTVSPost2010PropOp40
 70
     1
102
RTVSPost2010Prop41ColorIndex
 90
       18
102
RTVSPost2010Prop41ColorRGB
 90
        0
102
RTVSPost2010PropOp41
 70
     1
102
RTVSPost2010Prop42
 90
       50
102
RTVSPost2010PropOp42
 70
     1
102
RTVSPost2010Prop43
 90
        3
102
RTVSPost2010PropOp43
 70
     1
102
RTVSPost2010Prop44ColorIndex
 90
        5
102
RTVSPost2010Prop44ColorRGB
 90
      255
102
RTVSPost2010PropOp44
 70
     1
102
RTVSPost2010Prop45
280
     0
102
RTVSPost2010PropOp45
 70
     1
102
RTVSPost2010Prop46
 90
       50
102
RTVSPost2010PropOp46
 70
     1
102
RTVSPost2010Prop47
 90
       50
102
RTVSPost2010PropOp47
 70
     1
102
RTVSPost2010Prop48
 90
       50
102
RTVSPost2010PropOp48
 70
     1
102
RTVSPost2010Prop49
280
     0
102
RTVSPost2010PropOp49
 70
     1
102
RTVSPost2010Prop50
 90
       50
102
RTVSPost2010PropOp50
 70
     1
102
RTVSPost2010Prop51ColorIndex
 90
      256
102
RTVSPost2010Prop51ColorRGB
 90
-16777216
102
RTVSPost2010PropOp51
 70
     0
102
RTVSPost2010Prop52
140
1.0
102
RTVSPost2010PropOp52
 70
     0
102
RTVSPost2010Prop53
 90
        2
102
RTVSPost2010PropOp53
 70
     1
102
RTVSPost2010Prop54
  1
strokes_ogs.tif
102
RTVSPost2010PropOp54
 70
     1
102
RTVSPost2010Prop55
280
     0
102
RTVSPost2010PropOp55
 70
     1
102
RTVSPost2010Prop56
140
1.0
102
RTVSPost2010PropOp56
 70
     1
102
RTVSPost2010Prop57
140
1.0
102
RTVSPost2010PropOp57
 70
     1
102
RTVSPropertyOp0
 70
     1
102
RTVSPropertyOp1
 70
     1
102
RTVSPropertyOp2
 70
     1
102
RTVSPropertyOp3
 70
     1
102
RTVSPropertyOp4
 70
     1
102
RTVSPropertyOp5
 70
     1
102
RTVSPropertyOp6
 70
     1
102
RTVSPropertyOp7
 70
     1
102
RTVSPropertyOp8
 70
     1
102
RTVSPropertyOp9
 70
     1
102
RTVSPropertyOp10
 70
     1
102
RTVSPropertyOp11
 70
     1
102
RTVSPropertyOp12
 70
     1
102
RTVSPropertyOp13
 70
     1
102
RTVSPropertyOp14
 70
     1
102
RTVSPropertyOp15
 70
     1
102
RTVSPropertyOp16
 70
     1
102
RTVSPropertyOp17
 70
     1
102
RTVSPropertyOp18
 70
     1
102
RTVSPropertyOp19
 70
     1
102
RTVSPropertyOp20
 70
     1
102
RTVSPropertyOp21
 70
     1
102
RTVSPropertyOp22
 70
     1
102
RTVSPropertyOp23
 70
     1
102
RTVSPropertyOp24
 70
     1
102
RTVSPropertyOp25
 70
     1
102
RTVSPropertyOp26
 70
     1
102
RTVSPropertyOp27
 70
     1
102
RTVSPropertyOp28
 70
     1
102
RTVSPropertyOp29
 70
     1
102
RTVSPropertyOp30
 70
     1
102
RTVSPropertyOp31
 70
     1
102
RTVSPropertyOp32
 70
     1
102
RTVSPropertyOp33
 70
     1
102
RTVSPropertyOp34
 70
     1
102
RTVSPropertyOp35
 70
     1
102
RTVSPropertyOp36
 70
     1
102
RTVSPropertyOp37
 70
     1
102
RTVSPropertyOp38
 70
     1
102
RTVSPropertyOp39
 70
     1
102
RTVSPropertyOp40
 70
     1
102
RTVSPropertyOp41
 70
     1
102
RTVSPropertyOp42
 70
     1
102
RTVSPropertyOp43
 70
     1
102
RTVSPropertyOp44
 70
     1
102
RTVSPropertyOp45
 70
     1
102
RTVSPropertyOp46
 70
     1
102
RTVSPropertyOp47
 70
     1
102
RTVSPropertyOp48
 70
     1
102
RTVSPropertyOp49
 70
     1
102
RTVSPropertyOp50
 70
     1
102
RTVSPropertyOp51
 70
     0
102
RTVSPropertyOp52
 70
     0
102
RTVSPropertyOp53
 70
     1
102
RTVSPropertyOp54
 70
     1
102
RTVSPropertyOp55
 70
     1
102
RTVSPropertyOp56
 70
     1
102
RTVSPropertyOp57
 70
     1
102
RTVSPropertyOp58
 70
     1
102
RTVSPropertyOp59
 70
     1
102
RTVSPropertyOp60
 70
     1
102
RTVSPropertyOp61
 70
     1
102
RTVSPropertyOp62
 70
     1
  0
XRECORD
  5
B83C
102
{ACAD_REACTORS
330
B83B
102
}
330
B83B
100
AcDbXrecord
280
     1
102
RTVSPost2010Prop28
280
     0
102
RTVSPost2010PropOp28
 70
     1
102
RTVSPost2010Prop29
280
     1
102
RTVSPost2010PropOp29
 70
     1
102
RTVSPost2010Prop30
280
     1
102
RTVSPost2010PropOp30
 70
     1
102
RTVSPost2010Prop31
280
     0
102
RTVSPost2010PropOp31
 70
     1
102
RTVSPost2010Prop32
280
     0
102
RTVSPost2010PropOp32
 70
     1
102
RTVSPost2010Prop33
280
     0
102
RTVSPost2010PropOp33
 70
     1
102
RTVSPost2010Prop34
280
     0
102
RTVSPost2010PropOp34
 70
     1
102
RTVSPost2010Prop35
280
     0
102
RTVSPost2010PropOp35
 70
     1
102
RTVSPost2010Prop36
280
     0
102
RTVSPost2010PropOp36
 70
     1
102
RTVSPost2010Prop37
 90
       50
102
RTVSPost2010PropOp37
 70
     0
102
RTVSPost2010Prop38
140
0.0
102
RTVSPost2010PropOp38
 70
     0
102
RTVSPost2010Prop39
140
1.0
102
RTVSPost2010PropOp39
 70
     0
102
RTVSPost2010Prop40
 90
        0
102
RTVSPost2010PropOp40
 70
     0
102
RTVSPost2010Prop41ColorIndex
 90
       18
102
RTVSPost2010Prop41ColorRGB
 90
        0
102
RTVSPost2010PropOp41
 70
     0
102
RTVSPost2010Prop42
 90
       50
102
RTVSPost2010PropOp42
 70
     0
102
RTVSPost2010Prop43
 90
        3
102
RTVSPost2010PropOp43
 70
     0
102
RTVSPost2010Prop44ColorIndex
 90
        5
102
RTVSPost2010Prop44ColorRGB
 90
      255
102
RTVSPost2010PropOp44
 70
     0
102
RTVSPost2010Prop45
280
     0
102
RTVSPost2010PropOp45
 70
     1
102
RTVSPost2010Prop46
 90
       50
102
RTVSPost2010PropOp46
 70
     0
102
RTVSPost2010Prop47
 90
       50
102
RTVSPost2010PropOp47
 70
     0
102
RTVSPost2010Prop48
 90
       50
102
RTVSPost2010PropOp48
 70
     0
102
RTVSPost2010Prop49
280
     0
102
RTVSPost2010PropOp49
 70
     1
102
RTVSPost2010Prop50
 90
       50
102
RTVSPost2010PropOp50
 70
     0
102
RTVSPost2010Prop51ColorIndex
 90
      256
102
RTVSPost2010Prop51ColorRGB
 90
-16777216
102
RTVSPost2010PropOp51
 70
     0
102
RTVSPost2010Prop52
140
1.0
102
RTVSPost2010PropOp52
 70
     0
102
RTVSPost2010Prop53
 90
        2
102
RTVSPost2010PropOp53
 70
     0
102
RTVSPost2010Prop54
  1
strokes_ogs.tif
102
RTVSPost2010PropOp54
 70
     0
102
RTVSPost2010Prop55
280
     0
102
RTVSPost2010PropOp55
 70
     1
102
RTVSPost2010Prop56
140
1.0
102
RTVSPost2010PropOp56
 70
     0
102
RTVSPost2010Prop57
140
1.0
102
RTVSPost2010PropOp57
 70
     0
102
RTVSPropertyOp0
 70
     0
102
RTVSPropertyOp1
 70
     0
102
RTVSPropertyOp2
 70
     0
102
RTVSPropertyOp3
 70
     0
102
RTVSPropertyOp4
 70
     0
102
RTVSPropertyOp5
 70
     0
102
RTVSPropertyOp6
 70
     0
102
RTVSPropertyOp7
 70
     0
102
RTVSPropertyOp8
 70
     0
102
RTVSPropertyOp9
 70
     0
102
RTVSPropertyOp10
 70
     0
102
RTVSPropertyOp11
 70
     0
102
RTVSPropertyOp12
 70
     0
102
RTVSPropertyOp13
 70
     0
102
RTVSPropertyOp14
 70
     2
102
RTVSPropertyOp15
 70
     0
102
RTVSPropertyOp16
 70
     0
102
RTVSPropertyOp17
 70
     0
102
RTVSPropertyOp18
 70
     0
102
RTVSPropertyOp19
 70
     0
102
RTVSPropertyOp20
 70
     0
102
RTVSPropertyOp21
 70
     0
102
RTVSPropertyOp22
 70
     0
102
RTVSPropertyOp23
 70
     0
102
RTVSPropertyOp24
 70
     0
102
RTVSPropertyOp25
 70
     0
102
RTVSPropertyOp26
 70
     0
102
RTVSPropertyOp27
 70
     0
102
RTVSPropertyOp28
 70
     1
102
RTVSPropertyOp29
 70
     1
102
RTVSPropertyOp30
 70
     1
102
RTVSPropertyOp31
 70
     1
102
RTVSPropertyOp32
 70
     1
102
RTVSPropertyOp33
 70
     1
102
RTVSPropertyOp34
 70
     1
102
RTVSPropertyOp35
 70
     1
102
RTVSPropertyOp36
 70
     1
102
RTVSPropertyOp37
 70
     0
102
RTVSPropertyOp38
 70
     0
102
RTVSPropertyOp39
 70
     0
102
RTVSPropertyOp40
 70
     0
102
RTVSPropertyOp41
 70
     0
102
RTVSPropertyOp42
 70
     0
102
RTVSPropertyOp43
 70
     0
102
RTVSPropertyOp44
 70
     0
102
RTVSPropertyOp45
 70
     1
102
RTVSPropertyOp46
 70
     0
102
RTVSPropertyOp47
 70
     0
102
RTVSPropertyOp48
 70
     0
102
RTVSPropertyOp49
 70
     1
102
RTVSPropertyOp50
 70
     0
102
RTVSPropertyOp51
 70
     0
102
RTVSPropertyOp52
 70
     0
102
RTVSPropertyOp53
 70
     0
102
RTVSPropertyOp54
 70
     0
102
RTVSPropertyOp55
 70
     1
102
RTVSPropertyOp56
 70
     0
102
RTVSPropertyOp57
 70
     0
102
RTVSPropertyOp58
 70
     0
102
RTVSPropertyOp59
 70
     0
102
RTVSPropertyOp60
 70
     0
102
RTVSPropertyOp61
 70
     0
102
RTVSPropertyOp62
 70
     0
  0
XRECORD
  5
B82C
102
{ACAD_REACTORS
330
B82B
102
}
330
B82B
100
AcDbXrecord
280
     1
102
RTVSPost2010Prop28
280
     0
102
RTVSPost2010PropOp28
 70
     1
102
RTVSPost2010Prop29
280
     1
102
RTVSPost2010PropOp29
 70
     1
102
RTVSPost2010Prop30
280
     1
102
RTVSPost2010PropOp30
 70
     1
102
RTVSPost2010Prop31
280
     0
102
RTVSPost2010PropOp31
 70
     1
102
RTVSPost2010Prop32
280
     0
102
RTVSPost2010PropOp32
 70
     1
102
RTVSPost2010Prop33
280
     0
102
RTVSPost2010PropOp33
 70
     1
102
RTVSPost2010Prop34
280
     0
102
RTVSPost2010PropOp34
 70
     1
102
RTVSPost2010Prop35
280
     0
102
RTVSPost2010PropOp35
 70
     1
102
RTVSPost2010Prop36
280
     0
102
RTVSPost2010PropOp36
 70
     1
102
RTVSPost2010Prop37
 90
       50
102
RTVSPost2010PropOp37
 70
     1
102
RTVSPost2010Prop38
140
0.0
102
RTVSPost2010PropOp38
 70
     1
102
RTVSPost2010Prop39
140
1.0
102
RTVSPost2010PropOp39
 70
     1
102
RTVSPost2010Prop40
 90
        0
102
RTVSPost2010PropOp40
 70
     1
102
RTVSPost2010Prop41ColorIndex
 90
       18
102
RTVSPost2010Prop41ColorRGB
 90
        0
102
RTVSPost2010PropOp41
 70
     1
102
RTVSPost2010Prop42
 90
       50
102
RTVSPost2010PropOp42
 70
     1
102
RTVSPost2010Prop43
 90
        3
102
RTVSPost2010PropOp43
 70
     1
102
RTVSPost2010Prop44ColorIndex
 90
        5
102
RTVSPost2010Prop44ColorRGB
 90
      255
102
RTVSPost2010PropOp44
 70
     1
102
RTVSPost2010Prop45
280
     0
102
RTVSPost2010PropOp45
 70
     1
102
RTVSPost2010Prop46
 90
       50
102
RTVSPost2010PropOp46
 70
     1
102
RTVSPost2010Prop47
 90
       50
102
RTVSPost2010PropOp47
 70
     1
102
RTVSPost2010Prop48
 90
       50
102
RTVSPost2010PropOp48
 70
     1
102
RTVSPost2010Prop49
280
     0
102
RTVSPost2010PropOp49
 70
     1
102
RTVSPost2010Prop50
 90
       50
102
RTVSPost2010PropOp50
 70
     1
102
RTVSPost2010Prop51ColorIndex
 90
      256
102
RTVSPost2010Prop51ColorRGB
 90
-16777216
102
RTVSPost2010PropOp51
 70
     0
102
RTVSPost2010Prop52
140
1.0
102
RTVSPost2010PropOp52
 70
     0
102
RTVSPost2010Prop53
 90
        2
102
RTVSPost2010PropOp53
 70
     1
102
RTVSPost2010Prop54
  1
strokes_ogs.tif
102
RTVSPost2010PropOp54
 70
     1
102
RTVSPost2010Prop55
280
     0
102
RTVSPost2010PropOp55
 70
     1
102
RTVSPost2010Prop56
140
1.0
102
RTVSPost2010PropOp56
 70
     1
102
RTVSPost2010Prop57
140
1.0
102
RTVSPost2010PropOp57
 70
     1
102
RTVSPropertyOp0
 70
     1
102
RTVSPropertyOp1
 70
     1
102
RTVSPropertyOp2
 70
     1
102
RTVSPropertyOp3
 70
     1
102
RTVSPropertyOp4
 70
     1
102
RTVSPropertyOp5
 70
     1
102
RTVSPropertyOp6
 70
     1
102
RTVSPropertyOp7
 70
     1
102
RTVSPropertyOp8
 70
     1
102
RTVSPropertyOp9
 70
     1
102
RTVSPropertyOp10
 70
     1
102
RTVSPropertyOp11
 70
     1
102
RTVSPropertyOp12
 70
     1
102
RTVSPropertyOp13
 70
     1
102
RTVSPropertyOp14
 70
     1
102
RTVSPropertyOp15
 70
     1
102
RTVSPropertyOp16
 70
     1
102
RTVSPropertyOp17
 70
     1
102
RTVSPropertyOp18
 70
     1
102
RTVSPropertyOp19
 70
     1
102
RTVSPropertyOp20
 70
     1
102
RTVSPropertyOp21
 70
     1
102
RTVSPropertyOp22
 70
     1
102
RTVSPropertyOp23
 70
     1
102
RTVSPropertyOp24
 70
     1
102
RTVSPropertyOp25
 70
     1
102
RTVSPropertyOp26
 70
     1
102
RTVSPropertyOp27
 70
     1
102
RTVSPropertyOp28
 70
     1
102
RTVSPropertyOp29
 70
     1
102
RTVSPropertyOp30
 70
     1
102
RTVSPropertyOp31
 70
     1
102
RTVSPropertyOp32
 70
     1
102
RTVSPropertyOp33
 70
     1
102
RTVSPropertyOp34
 70
     1
102
RTVSPropertyOp35
 70
     1
102
RTVSPropertyOp36
 70
     1
102
RTVSPropertyOp37
 70
     1
102
RTVSPropertyOp38
 70
     1
102
RTVSPropertyOp39
 70
     1
102
RTVSPropertyOp40
 70
     1
102
RTVSPropertyOp41
 70
     1
102
RTVSPropertyOp42
 70
     1
102
RTVSPropertyOp43
 70
     1
102
RTVSPropertyOp44
 70
     1
102
RTVSPropertyOp45
 70
     1
102
RTVSPropertyOp46
 70
     1
102
RTVSPropertyOp47
 70
     1
102
RTVSPropertyOp48
 70
     1
102
RTVSPropertyOp49
 70
     1
102
RTVSPropertyOp50
 70
     1
102
RTVSPropertyOp51
 70
     0
102
RTVSPropertyOp52
 70
     0
102
RTVSPropertyOp53
 70
     1
102
RTVSPropertyOp54
 70
     1
102
RTVSPropertyOp55
 70
     1
102
RTVSPropertyOp56
 70
     1
102
RTVSPropertyOp57
 70
     1
102
RTVSPropertyOp58
 70
     1
102
RTVSPropertyOp59
 70
     1
102
RTVSPropertyOp60
 70
     1
102
RTVSPropertyOp61
 70
     1
102
RTVSPropertyOp62
 70
     1
  0
XRECORD
  5
B83E
102
{ACAD_REACTORS
330
B83D
102
}
330
B83D
100
AcDbXrecord
280
     1
102
RTVSPost2010Prop28
280
     0
102
RTVSPost2010PropOp28
 70
     1
102
RTVSPost2010Prop29
280
     1
102
RTVSPost2010PropOp29
 70
     1
102
RTVSPost2010Prop30
280
     1
102
RTVSPost2010PropOp30
 70
     1
102
RTVSPost2010Prop31
280
     0
102
RTVSPost2010PropOp31
 70
     1
102
RTVSPost2010Prop32
280
     0
102
RTVSPost2010PropOp32
 70
     1
102
RTVSPost2010Prop33
280
     0
102
RTVSPost2010PropOp33
 70
     1
102
RTVSPost2010Prop34
280
     0
102
RTVSPost2010PropOp34
 70
     1
102
RTVSPost2010Prop35
280
     0
102
RTVSPost2010PropOp35
 70
     1
102
RTVSPost2010Prop36
280
     0
102
RTVSPost2010PropOp36
 70
     1
102
RTVSPost2010Prop37
 90
       50
102
RTVSPost2010PropOp37
 70
     0
102
RTVSPost2010Prop38
140
0.0
102
RTVSPost2010PropOp38
 70
     0
102
RTVSPost2010Prop39
140
1.0
102
RTVSPost2010PropOp39
 70
     0
102
RTVSPost2010Prop40
 90
        0
102
RTVSPost2010PropOp40
 70
     0
102
RTVSPost2010Prop41ColorIndex
 90
       18
102
RTVSPost2010Prop41ColorRGB
 90
        0
102
RTVSPost2010PropOp41
 70
     0
102
RTVSPost2010Prop42
 90
       50
102
RTVSPost2010PropOp42
 70
     0
102
RTVSPost2010Prop43
 90
        3
102
RTVSPost2010PropOp43
 70
     0
102
RTVSPost2010Prop44ColorIndex
 90
        5
102
RTVSPost2010Prop44ColorRGB
 90
      255
102
RTVSPost2010PropOp44
 70
     0
102
RTVSPost2010Prop45
280
     0
102
RTVSPost2010PropOp45
 70
     1
102
RTVSPost2010Prop46
 90
       50
102
RTVSPost2010PropOp46
 70
     0
102
RTVSPost2010Prop47
 90
       50
102
RTVSPost2010PropOp47
 70
     0
102
RTVSPost2010Prop48
 90
       50
102
RTVSPost2010PropOp48
 70
     0
102
RTVSPost2010Prop49
280
     0
102
RTVSPost2010PropOp49
 70
     1
102
RTVSPost2010Prop50
 90
       50
102
RTVSPost2010PropOp50
 70
     0
102
RTVSPost2010Prop51ColorIndex
 90
      256
102
RTVSPost2010Prop51ColorRGB
 90
-16777216
102
RTVSPost2010PropOp51
 70
     0
102
RTVSPost2010Prop52
140
1.0
102
RTVSPost2010PropOp52
 70
     0
102
RTVSPost2010Prop53
 90
        2
102
RTVSPost2010PropOp53
 70
     0
102
RTVSPost2010Prop54
  1
strokes_ogs.tif
102
RTVSPost2010PropOp54
 70
     0
102
RTVSPost2010Prop55
280
     0
102
RTVSPost2010PropOp55
 70
     1
102
RTVSPost2010Prop56
140
1.0
102
RTVSPost2010PropOp56
 70
     0
102
RTVSPost2010Prop57
140
1.0
102
RTVSPost2010PropOp57
 70
     0
102
RTVSPropertyOp0
 70
     0
102
RTVSPropertyOp1
 70
     0
102
RTVSPropertyOp2
 70
     0
102
RTVSPropertyOp3
 70
     0
102
RTVSPropertyOp4
 70
     0
102
RTVSPropertyOp5
 70
     0
102
RTVSPropertyOp6
 70
     0
102
RTVSPropertyOp7
 70
     0
102
RTVSPropertyOp8
 70
     0
102
RTVSPropertyOp9
 70
     0
102
RTVSPropertyOp10
 70
     0
102
RTVSPropertyOp11
 70
     0
102
RTVSPropertyOp12
 70
     0
102
RTVSPropertyOp13
 70
     0
102
RTVSPropertyOp14
 70
     2
102
RTVSPropertyOp15
 70
     0
102
RTVSPropertyOp16
 70
     0
102
RTVSPropertyOp17
 70
     0
102
RTVSPropertyOp18
 70
     0
102
RTVSPropertyOp19
 70
     0
102
RTVSPropertyOp20
 70
     0
102
RTVSPropertyOp21
 70
     0
102
RTVSPropertyOp22
 70
     0
102
RTVSPropertyOp23
 70
     0
102
RTVSPropertyOp24
 70
     0
102
RTVSPropertyOp25
 70
     0
102
RTVSPropertyOp26
 70
     0
102
RTVSPropertyOp27
 70
     0
102
RTVSPropertyOp28
 70
     1
102
RTVSPropertyOp29
 70
     1
102
RTVSPropertyOp30
 70
     1
102
RTVSPropertyOp31
 70
     1
102
RTVSPropertyOp32
 70
     1
102
RTVSPropertyOp33
 70
     1
102
RTVSPropertyOp34
 70
     1
102
RTVSPropertyOp35
 70
     1
102
RTVSPropertyOp36
 70
     1
102
RTVSPropertyOp37
 70
     0
102
RTVSPropertyOp38
 70
     0
102
RTVSPropertyOp39
 70
     0
102
RTVSPropertyOp40
 70
     0
102
RTVSPropertyOp41
 70
     0
102
RTVSPropertyOp42
 70
     0
102
RTVSPropertyOp43
 70
     0
102
RTVSPropertyOp44
 70
     0
102
RTVSPropertyOp45
 70
     1
102
RTVSPropertyOp46
 70
     0
102
RTVSPropertyOp47
 70
     0
102
RTVSPropertyOp48
 70
     0
102
RTVSPropertyOp49
 70
     1
102
RTVSPropertyOp50
 70
     0
102
RTVSPropertyOp51
 70
     0
102
RTVSPropertyOp52
 70
     0
102
RTVSPropertyOp53
 70
     0
102
RTVSPropertyOp54
 70
     0
102
RTVSPropertyOp55
 70
     1
102
RTVSPropertyOp56
 70
     0
102
RTVSPropertyOp57
 70
     0
102
RTVSPropertyOp58
 70
     0
102
RTVSPropertyOp59
 70
     0
102
RTVSPropertyOp60
 70
     0
102
RTVSPropertyOp61
 70
     0
102
RTVSPropertyOp62
 70
     0
  0
XRECORD
  5
B824
102
{ACAD_REACTORS
330
B823
102
}
330
B823
100
AcDbXrecord
280
     1
102
RTVSPost2010Prop28
280
     0
102
RTVSPost2010PropOp28
 70
     1
102
RTVSPost2010Prop29
280
     1
102
RTVSPost2010PropOp29
 70
     1
102
RTVSPost2010Prop30
280
     1
102
RTVSPost2010PropOp30
 70
     1
102
RTVSPost2010Prop31
280
     0
102
RTVSPost2010PropOp31
 70
     1
102
RTVSPost2010Prop32
280
     0
102
RTVSPost2010PropOp32
 70
     1
102
RTVSPost2010Prop33
280
     0
102
RTVSPost2010PropOp33
 70
     1
102
RTVSPost2010Prop34
280
     0
102
RTVSPost2010PropOp34
 70
     1
102
RTVSPost2010Prop35
280
     0
102
RTVSPost2010PropOp35
 70
     1
102
RTVSPost2010Prop36
280
     0
102
RTVSPost2010PropOp36
 70
     1
102
RTVSPost2010Prop37
 90
       50
102
RTVSPost2010PropOp37
 70
     1
102
RTVSPost2010Prop38
140
0.0
102
RTVSPost2010PropOp38
 70
     1
102
RTVSPost2010Prop39
140
1.0
102
RTVSPost2010PropOp39
 70
     1
102
RTVSPost2010Prop40
 90
        0
102
RTVSPost2010PropOp40
 70
     1
102
RTVSPost2010Prop41ColorIndex
 90
       18
102
RTVSPost2010Prop41ColorRGB
 90
        0
102
RTVSPost2010PropOp41
 70
     1
102
RTVSPost2010Prop42
 90
       50
102
RTVSPost2010PropOp42
 70
     1
102
RTVSPost2010Prop43
 90
        3
102
RTVSPost2010PropOp43
 70
     1
102
RTVSPost2010Prop44ColorIndex
 90
        5
102
RTVSPost2010Prop44ColorRGB
 90
      255
102
RTVSPost2010PropOp44
 70
     1
102
RTVSPost2010Prop45
280
     0
102
RTVSPost2010PropOp45
 70
     1
102
RTVSPost2010Prop46
 90
       50
102
RTVSPost2010PropOp46
 70
     1
102
RTVSPost2010Prop47
 90
       50
102
RTVSPost2010PropOp47
 70
     1
102
RTVSPost2010Prop48
 90
       50
102
RTVSPost2010PropOp48
 70
     1
102
RTVSPost2010Prop49
280
     0
102
RTVSPost2010PropOp49
 70
     1
102
RTVSPost2010Prop50
 90
       50
102
RTVSPost2010PropOp50
 70
     1
102
RTVSPost2010Prop51ColorIndex
 90
      256
102
RTVSPost2010Prop51ColorRGB
 90
-16777216
102
RTVSPost2010PropOp51
 70
     0
102
RTVSPost2010Prop52
140
1.0
102
RTVSPost2010PropOp52
 70
     0
102
RTVSPost2010Prop53
 90
        2
102
RTVSPost2010PropOp53
 70
     1
102
RTVSPost2010Prop54
  1
strokes_ogs.tif
102
RTVSPost2010PropOp54
 70
     1
102
RTVSPost2010Prop55
280
     0
102
RTVSPost2010PropOp55
 70
     1
102
RTVSPost2010Prop56
140
1.0
102
RTVSPost2010PropOp56
 70
     1
102
RTVSPost2010Prop57
140
1.0
102
RTVSPost2010PropOp57
 70
     1
102
RTVSPropertyOp0
 70
     1
102
RTVSPropertyOp1
 70
     1
102
RTVSPropertyOp2
 70
     1
102
RTVSPropertyOp3
 70
     1
102
RTVSPropertyOp4
 70
     1
102
RTVSPropertyOp5
 70
     1
102
RTVSPropertyOp6
 70
     1
102
RTVSPropertyOp7
 70
     1
102
RTVSPropertyOp8
 70
     1
102
RTVSPropertyOp9
 70
     1
102
RTVSPropertyOp10
 70
     1
102
RTVSPropertyOp11
 70
     1
102
RTVSPropertyOp12
 70
     1
102
RTVSPropertyOp13
 70
     1
102
RTVSPropertyOp14
 70
     1
102
RTVSPropertyOp15
 70
     1
102
RTVSPropertyOp16
 70
     1
102
RTVSPropertyOp17
 70
     1
102
RTVSPropertyOp18
 70
     1
102
RTVSPropertyOp19
 70
     1
102
RTVSPropertyOp20
 70
     1
102
RTVSPropertyOp21
 70
     1
102
RTVSPropertyOp22
 70
     1
102
RTVSPropertyOp23
 70
     1
102
RTVSPropertyOp24
 70
     1
102
RTVSPropertyOp25
 70
     1
102
RTVSPropertyOp26
 70
     1
102
RTVSPropertyOp27
 70
     1
102
RTVSPropertyOp28
 70
     1
102
RTVSPropertyOp29
 70
     1
102
RTVSPropertyOp30
 70
     1
102
RTVSPropertyOp31
 70
     1
102
RTVSPropertyOp32
 70
     1
102
RTVSPropertyOp33
 70
     1
102
RTVSPropertyOp34
 70
     1
102
RTVSPropertyOp35
 70
     1
102
RTVSPropertyOp36
 70
     1
102
RTVSPropertyOp37
 70
     1
102
RTVSPropertyOp38
 70
     1
102
RTVSPropertyOp39
 70
     1
102
RTVSPropertyOp40
 70
     1
102
RTVSPropertyOp41
 70
     1
102
RTVSPropertyOp42
 70
     1
102
RTVSPropertyOp43
 70
     1
102
RTVSPropertyOp44
 70
     1
102
RTVSPropertyOp45
 70
     1
102
RTVSPropertyOp46
 70
     1
102
RTVSPropertyOp47
 70
     1
102
RTVSPropertyOp48
 70
     1
102
RTVSPropertyOp49
 70
     1
102
RTVSPropertyOp50
 70
     1
102
RTVSPropertyOp51
 70
     0
102
RTVSPropertyOp52
 70
     0
102
RTVSPropertyOp53
 70
     1
102
RTVSPropertyOp54
 70
     1
102
RTVSPropertyOp55
 70
     1
102
RTVSPropertyOp56
 70
     1
102
RTVSPropertyOp57
 70
     1
102
RTVSPropertyOp58
 70
     1
102
RTVSPropertyOp59
 70
     1
102
RTVSPropertyOp60
 70
     1
102
RTVSPropertyOp61
 70
     1
102
RTVSPropertyOp62
 70
     1
  0
XRECORD
  5
B83A
102
{ACAD_REACTORS
330
B839
102
}
330
B839
100
AcDbXrecord
280
     1
102
RTVSPost2010Prop28
280
     0
102
RTVSPost2010PropOp28
 70
     1
102
RTVSPost2010Prop29
280
     1
102
RTVSPost2010PropOp29
 70
     1
102
RTVSPost2010Prop30
280
     1
102
RTVSPost2010PropOp30
 70
     1
102
RTVSPost2010Prop31
280
     0
102
RTVSPost2010PropOp31
 70
     1
102
RTVSPost2010Prop32
280
     0
102
RTVSPost2010PropOp32
 70
     1
102
RTVSPost2010Prop33
280
     0
102
RTVSPost2010PropOp33
 70
     1
102
RTVSPost2010Prop34
280
     0
102
RTVSPost2010PropOp34
 70
     1
102
RTVSPost2010Prop35
280
     0
102
RTVSPost2010PropOp35
 70
     1
102
RTVSPost2010Prop36
280
     0
102
RTVSPost2010PropOp36
 70
     1
102
RTVSPost2010Prop37
 90
       50
102
RTVSPost2010PropOp37
 70
     1
102
RTVSPost2010Prop38
140
0.0
102
RTVSPost2010PropOp38
 70
     1
102
RTVSPost2010Prop39
140
1.0
102
RTVSPost2010PropOp39
 70
     1
102
RTVSPost2010Prop40
 90
        0
102
RTVSPost2010PropOp40
 70
     1
102
RTVSPost2010Prop41ColorIndex
 90
       18
102
RTVSPost2010Prop41ColorRGB
 90
        0
102
RTVSPost2010PropOp41
 70
     1
102
RTVSPost2010Prop42
 90
       50
102
RTVSPost2010PropOp42
 70
     1
102
RTVSPost2010Prop43
 90
        3
102
RTVSPost2010PropOp43
 70
     1
102
RTVSPost2010Prop44ColorIndex
 90
        5
102
RTVSPost2010Prop44ColorRGB
 90
      255
102
RTVSPost2010PropOp44
 70
     1
102
RTVSPost2010Prop45
280
     0
102
RTVSPost2010PropOp45
 70
     1
102
RTVSPost2010Prop46
 90
       50
102
RTVSPost2010PropOp46
 70
     1
102
RTVSPost2010Prop47
 90
       50
102
RTVSPost2010PropOp47
 70
     1
102
RTVSPost2010Prop48
 90
       50
102
RTVSPost2010PropOp48
 70
     1
102
RTVSPost2010Prop49
280
     0
102
RTVSPost2010PropOp49
 70
     1
102
RTVSPost2010Prop50
 90
       50
102
RTVSPost2010PropOp50
 70
     1
102
RTVSPost2010Prop51ColorIndex
 90
      256
102
RTVSPost2010Prop51ColorRGB
 90
-16777216
102
RTVSPost2010PropOp51
 70
     0
102
RTVSPost2010Prop52
140
1.0
102
RTVSPost2010PropOp52
 70
     0
102
RTVSPost2010Prop53
 90
        2
102
RTVSPost2010PropOp53
 70
     1
102
RTVSPost2010Prop54
  1
strokes_ogs.tif
102
RTVSPost2010PropOp54
 70
     1
102
RTVSPost2010Prop55
280
     0
102
RTVSPost2010PropOp55
 70
     1
102
RTVSPost2010Prop56
140
1.0
102
RTVSPost2010PropOp56
 70
     1
102
RTVSPost2010Prop57
140
1.0
102
RTVSPost2010PropOp57
 70
     1
102
RTVSPropertyOp0
 70
     1
102
RTVSPropertyOp1
 70
     1
102
RTVSPropertyOp2
 70
     1
102
RTVSPropertyOp3
 70
     1
102
RTVSPropertyOp4
 70
     1
102
RTVSPropertyOp5
 70
     1
102
RTVSPropertyOp6
 70
     1
102
RTVSPropertyOp7
 70
     1
102
RTVSPropertyOp8
 70
     1
102
RTVSPropertyOp9
 70
     1
102
RTVSPropertyOp10
 70
     1
102
RTVSPropertyOp11
 70
     1
102
RTVSPropertyOp12
 70
     1
102
RTVSPropertyOp13
 70
     1
102
RTVSPropertyOp14
 70
     1
102
RTVSPropertyOp15
 70
     1
102
RTVSPropertyOp16
 70
     1
102
RTVSPropertyOp17
 70
     1
102
RTVSPropertyOp18
 70
     1
102
RTVSPropertyOp19
 70
     1
102
RTVSPropertyOp20
 70
     1
102
RTVSPropertyOp21
 70
     1
102
RTVSPropertyOp22
 70
     1
102
RTVSPropertyOp23
 70
     1
102
RTVSPropertyOp24
 70
     1
102
RTVSPropertyOp25
 70
     1
102
RTVSPropertyOp26
 70
     1
102
RTVSPropertyOp27
 70
     1
102
RTVSPropertyOp28
 70
     1
102
RTVSPropertyOp29
 70
     1
102
RTVSPropertyOp30
 70
     1
102
RTVSPropertyOp31
 70
     1
102
RTVSPropertyOp32
 70
     1
102
RTVSPropertyOp33
 70
     1
102
RTVSPropertyOp34
 70
     1
102
RTVSPropertyOp35
 70
     1
102
RTVSPropertyOp36
 70
     1
102
RTVSPropertyOp37
 70
     1
102
RTVSPropertyOp38
 70
     1
102
RTVSPropertyOp39
 70
     1
102
RTVSPropertyOp40
 70
     1
102
RTVSPropertyOp41
 70
     1
102
RTVSPropertyOp42
 70
     1
102
RTVSPropertyOp43
 70
     1
102
RTVSPropertyOp44
 70
     1
102
RTVSPropertyOp45
 70
     1
102
RTVSPropertyOp46
 70
     1
102
RTVSPropertyOp47
 70
     1
102
RTVSPropertyOp48
 70
     1
102
RTVSPropertyOp49
 70
     1
102
RTVSPropertyOp50
 70
     1
102
RTVSPropertyOp51
 70
     0
102
RTVSPropertyOp52
 70
     0
102
RTVSPropertyOp53
 70
     1
102
RTVSPropertyOp54
 70
     1
102
RTVSPropertyOp55
 70
     1
102
RTVSPropertyOp56
 70
     1
102
RTVSPropertyOp57
 70
     1
102
RTVSPropertyOp58
 70
     1
102
RTVSPropertyOp59
 70
     1
102
RTVSPropertyOp60
 70
     1
102
RTVSPropertyOp61
 70
     1
102
RTVSPropertyOp62
 70
     1
  0
XRECORD
  5
B838
102
{ACAD_REACTORS
330
B837
102
}
330
B837
100
AcDbXrecord
280
     1
102
RTVSPost2010Prop28
280
     0
102
RTVSPost2010PropOp28
 70
     1
102
RTVSPost2010Prop29
280
     1
102
RTVSPost2010PropOp29
 70
     1
102
RTVSPost2010Prop30
280
     1
102
RTVSPost2010PropOp30
 70
     1
102
RTVSPost2010Prop31
280
     0
102
RTVSPost2010PropOp31
 70
     1
102
RTVSPost2010Prop32
280
     0
102
RTVSPost2010PropOp32
 70
     1
102
RTVSPost2010Prop33
280
     0
102
RTVSPost2010PropOp33
 70
     1
102
RTVSPost2010Prop34
280
     0
102
RTVSPost2010PropOp34
 70
     1
102
RTVSPost2010Prop35
280
     0
102
RTVSPost2010PropOp35
 70
     1
102
RTVSPost2010Prop36
280
     0
102
RTVSPost2010PropOp36
 70
     1
102
RTVSPost2010Prop37
 90
       50
102
RTVSPost2010PropOp37
 70
     1
102
RTVSPost2010Prop38
140
0.0
102
RTVSPost2010PropOp38
 70
     1
102
RTVSPost2010Prop39
140
1.0
102
RTVSPost2010PropOp39
 70
     1
102
RTVSPost2010Prop40
 90
        0
102
RTVSPost2010PropOp40
 70
     1
102
RTVSPost2010Prop41ColorIndex
 90
       18
102
RTVSPost2010Prop41ColorRGB
 90
        0
102
RTVSPost2010PropOp41
 70
     1
102
RTVSPost2010Prop42
 90
       50
102
RTVSPost2010PropOp42
 70
     1
102
RTVSPost2010Prop43
 90
        3
102
RTVSPost2010PropOp43
 70
     1
102
RTVSPost2010Prop44ColorIndex
 90
        5
102
RTVSPost2010Prop44ColorRGB
 90
      255
102
RTVSPost2010PropOp44
 70
     1
102
RTVSPost2010Prop45
280
     0
102
RTVSPost2010PropOp45
 70
     1
102
RTVSPost2010Prop46
 90
       50
102
RTVSPost2010PropOp46
 70
     1
102
RTVSPost2010Prop47
 90
       50
102
RTVSPost2010PropOp47
 70
     1
102
RTVSPost2010Prop48
 90
       50
102
RTVSPost2010PropOp48
 70
     1
102
RTVSPost2010Prop49
280
     0
102
RTVSPost2010PropOp49
 70
     1
102
RTVSPost2010Prop50
 90
       50
102
RTVSPost2010PropOp50
 70
     1
102
RTVSPost2010Prop51ColorIndex
 90
      256
102
RTVSPost2010Prop51ColorRGB
 90
-16777216
102
RTVSPost2010PropOp51
 70
     0
102
RTVSPost2010Prop52
140
1.0
102
RTVSPost2010PropOp52
 70
     0
102
RTVSPost2010Prop53
 90
        2
102
RTVSPost2010PropOp53
 70
     1
102
RTVSPost2010Prop54
  1
strokes_ogs.tif
102
RTVSPost2010PropOp54
 70
     1
102
RTVSPost2010Prop55
280
     0
102
RTVSPost2010PropOp55
 70
     1
102
RTVSPost2010Prop56
140
1.0
102
RTVSPost2010PropOp56
 70
     1
102
RTVSPost2010Prop57
140
1.0
102
RTVSPost2010PropOp57
 70
     1
102
RTVSPropertyOp0
 70
     1
102
RTVSPropertyOp1
 70
     1
102
RTVSPropertyOp2
 70
     1
102
RTVSPropertyOp3
 70
     1
102
RTVSPropertyOp4
 70
     1
102
RTVSPropertyOp5
 70
     1
102
RTVSPropertyOp6
 70
     1
102
RTVSPropertyOp7
 70
     1
102
RTVSPropertyOp8
 70
     1
102
RTVSPropertyOp9
 70
     1
102
RTVSPropertyOp10
 70
     1
102
RTVSPropertyOp11
 70
     1
102
RTVSPropertyOp12
 70
     1
102
RTVSPropertyOp13
 70
     1
102
RTVSPropertyOp14
 70
     1
102
RTVSPropertyOp15
 70
     1
102
RTVSPropertyOp16
 70
     1
102
RTVSPropertyOp17
 70
     1
102
RTVSPropertyOp18
 70
     1
102
RTVSPropertyOp19
 70
     1
102
RTVSPropertyOp20
 70
     1
102
RTVSPropertyOp21
 70
     1
102
RTVSPropertyOp22
 70
     1
102
RTVSPropertyOp23
 70
     1
102
RTVSPropertyOp24
 70
     1
102
RTVSPropertyOp25
 70
     1
102
RTVSPropertyOp26
 70
     1
102
RTVSPropertyOp27
 70
     1
102
RTVSPropertyOp28
 70
     1
102
RTVSPropertyOp29
 70
     1
102
RTVSPropertyOp30
 70
     1
102
RTVSPropertyOp31
 70
     1
102
RTVSPropertyOp32
 70
     1
102
RTVSPropertyOp33
 70
     1
102
RTVSPropertyOp34
 70
     1
102
RTVSPropertyOp35
 70
     1
102
RTVSPropertyOp36
 70
     1
102
RTVSPropertyOp37
 70
     1
102
RTVSPropertyOp38
 70
     1
102
RTVSPropertyOp39
 70
     1
102
RTVSPropertyOp40
 70
     1
102
RTVSPropertyOp41
 70
     1
102
RTVSPropertyOp42
 70
     1
102
RTVSPropertyOp43
 70
     1
102
RTVSPropertyOp44
 70
     1
102
RTVSPropertyOp45
 70
     1
102
RTVSPropertyOp46
 70
     1
102
RTVSPropertyOp47
 70
     1
102
RTVSPropertyOp48
 70
     1
102
RTVSPropertyOp49
 70
     1
102
RTVSPropertyOp50
 70
     1
102
RTVSPropertyOp51
 70
     0
102
RTVSPropertyOp52
 70
     0
102
RTVSPropertyOp53
 70
     1
102
RTVSPropertyOp54
 70
     1
102
RTVSPropertyOp55
 70
     1
102
RTVSPropertyOp56
 70
     1
102
RTVSPropertyOp57
 70
     1
102
RTVSPropertyOp58
 70
     1
102
RTVSPropertyOp59
 70
     1
102
RTVSPropertyOp60
 70
     1
102
RTVSPropertyOp61
 70
     1
102
RTVSPropertyOp62
 70
     1
  0
XRECORD
  5
B832
102
{ACAD_REACTORS
330
B831
102
}
330
B831
100
AcDbXrecord
280
     1
102
RTVSPost2010Prop28
280
     0
102
RTVSPost2010PropOp28
 70
     1
102
RTVSPost2010Prop29
280
     1
102
RTVSPost2010PropOp29
 70
     1
102
RTVSPost2010Prop30
280
     1
102
RTVSPost2010PropOp30
 70
     1
102
RTVSPost2010Prop31
280
     0
102
RTVSPost2010PropOp31
 70
     1
102
RTVSPost2010Prop32
280
     0
102
RTVSPost2010PropOp32
 70
     1
102
RTVSPost2010Prop33
280
     0
102
RTVSPost2010PropOp33
 70
     1
102
RTVSPost2010Prop34
280
     0
102
RTVSPost2010PropOp34
 70
     1
102
RTVSPost2010Prop35
280
     0
102
RTVSPost2010PropOp35
 70
     1
102
RTVSPost2010Prop36
280
     0
102
RTVSPost2010PropOp36
 70
     1
102
RTVSPost2010Prop37
 90
       50
102
RTVSPost2010PropOp37
 70
     1
102
RTVSPost2010Prop38
140
0.0
102
RTVSPost2010PropOp38
 70
     1
102
RTVSPost2010Prop39
140
1.0
102
RTVSPost2010PropOp39
 70
     1
102
RTVSPost2010Prop40
 90
        0
102
RTVSPost2010PropOp40
 70
     1
102
RTVSPost2010Prop41ColorIndex
 90
       18
102
RTVSPost2010Prop41ColorRGB
 90
        0
102
RTVSPost2010PropOp41
 70
     1
102
RTVSPost2010Prop42
 90
       50
102
RTVSPost2010PropOp42
 70
     1
102
RTVSPost2010Prop43
 90
        3
102
RTVSPost2010PropOp43
 70
     1
102
RTVSPost2010Prop44ColorIndex
 90
        5
102
RTVSPost2010Prop44ColorRGB
 90
      255
102
RTVSPost2010PropOp44
 70
     1
102
RTVSPost2010Prop45
280
     0
102
RTVSPost2010PropOp45
 70
     1
102
RTVSPost2010Prop46
 90
       50
102
RTVSPost2010PropOp46
 70
     1
102
RTVSPost2010Prop47
 90
       50
102
RTVSPost2010PropOp47
 70
     1
102
RTVSPost2010Prop48
 90
       50
102
RTVSPost2010PropOp48
 70
     1
102
RTVSPost2010Prop49
280
     0
102
RTVSPost2010PropOp49
 70
     1
102
RTVSPost2010Prop50
 90
       50
102
RTVSPost2010PropOp50
 70
     1
102
RTVSPost2010Prop51ColorIndex
 90
      256
102
RTVSPost2010Prop51ColorRGB
 90
-16777216
102
RTVSPost2010PropOp51
 70
     0
102
RTVSPost2010Prop52
140
1.0
102
RTVSPost2010PropOp52
 70
     0
102
RTVSPost2010Prop53
 90
        2
102
RTVSPost2010PropOp53
 70
     1
102
RTVSPost2010Prop54
  1
strokes_ogs.tif
102
RTVSPost2010PropOp54
 70
     1
102
RTVSPost2010Prop55
280
     0
102
RTVSPost2010PropOp55
 70
     1
102
RTVSPost2010Prop56
140
1.0
102
RTVSPost2010PropOp56
 70
     1
102
RTVSPost2010Prop57
140
1.0
102
RTVSPost2010PropOp57
 70
     1
102
RTVSPropertyOp0
 70
     1
102
RTVSPropertyOp1
 70
     1
102
RTVSPropertyOp2
 70
     1
102
RTVSPropertyOp3
 70
     1
102
RTVSPropertyOp4
 70
     1
102
RTVSPropertyOp5
 70
     1
102
RTVSPropertyOp6
 70
     1
102
RTVSPropertyOp7
 70
     1
102
RTVSPropertyOp8
 70
     1
102
RTVSPropertyOp9
 70
     1
102
RTVSPropertyOp10
 70
     1
102
RTVSPropertyOp11
 70
     1
102
RTVSPropertyOp12
 70
     1
102
RTVSPropertyOp13
 70
     1
102
RTVSPropertyOp14
 70
     1
102
RTVSPropertyOp15
 70
     1
102
RTVSPropertyOp16
 70
     1
102
RTVSPropertyOp17
 70
     1
102
RTVSPropertyOp18
 70
     1
102
RTVSPropertyOp19
 70
     1
102
RTVSPropertyOp20
 70
     1
102
RTVSPropertyOp21
 70
     1
102
RTVSPropertyOp22
 70
     1
102
RTVSPropertyOp23
 70
     1
102
RTVSPropertyOp24
 70
     1
102
RTVSPropertyOp25
 70
     1
102
RTVSPropertyOp26
 70
     1
102
RTVSPropertyOp27
 70
     1
102
RTVSPropertyOp28
 70
     1
102
RTVSPropertyOp29
 70
     1
102
RTVSPropertyOp30
 70
     1
102
RTVSPropertyOp31
 70
     1
102
RTVSPropertyOp32
 70
     1
102
RTVSPropertyOp33
 70
     1
102
RTVSPropertyOp34
 70
     1
102
RTVSPropertyOp35
 70
     1
102
RTVSPropertyOp36
 70
     1
102
RTVSPropertyOp37
 70
     1
102
RTVSPropertyOp38
 70
     1
102
RTVSPropertyOp39
 70
     1
102
RTVSPropertyOp40
 70
     1
102
RTVSPropertyOp41
 70
     1
102
RTVSPropertyOp42
 70
     1
102
RTVSPropertyOp43
 70
     1
102
RTVSPropertyOp44
 70
     1
102
RTVSPropertyOp45
 70
     1
102
RTVSPropertyOp46
 70
     1
102
RTVSPropertyOp47
 70
     1
102
RTVSPropertyOp48
 70
     1
102
RTVSPropertyOp49
 70
     1
102
RTVSPropertyOp50
 70
     1
102
RTVSPropertyOp51
 70
     0
102
RTVSPropertyOp52
 70
     0
102
RTVSPropertyOp53
 70
     1
102
RTVSPropertyOp54
 70
     1
102
RTVSPropertyOp55
 70
     1
102
RTVSPropertyOp56
 70
     1
102
RTVSPropertyOp57
 70
     1
102
RTVSPropertyOp58
 70
     1
102
RTVSPropertyOp59
 70
     1
102
RTVSPropertyOp60
 70
     1
102
RTVSPropertyOp61
 70
     1
102
RTVSPropertyOp62
 70
     1
  0
XRECORD
  5
B834
102
{ACAD_REACTORS
330
B833
102
}
330
B833
100
AcDbXrecord
280
     1
102
RTVSPost2010Prop28
280
     0
102
RTVSPost2010PropOp28
 70
     1
102
RTVSPost2010Prop29
280
     1
102
RTVSPost2010PropOp29
 70
     1
102
RTVSPost2010Prop30
280
     1
102
RTVSPost2010PropOp30
 70
     1
102
RTVSPost2010Prop31
280
     0
102
RTVSPost2010PropOp31
 70
     1
102
RTVSPost2010Prop32
280
     0
102
RTVSPost2010PropOp32
 70
     1
102
RTVSPost2010Prop33
280
     0
102
RTVSPost2010PropOp33
 70
     1
102
RTVSPost2010Prop34
280
     0
102
RTVSPost2010PropOp34
 70
     1
102
RTVSPost2010Prop35
280
     0
102
RTVSPost2010PropOp35
 70
     1
102
RTVSPost2010Prop36
280
     0
102
RTVSPost2010PropOp36
 70
     1
102
RTVSPost2010Prop37
 90
       50
102
RTVSPost2010PropOp37
 70
     1
102
RTVSPost2010Prop38
140
0.0
102
RTVSPost2010PropOp38
 70
     1
102
RTVSPost2010Prop39
140
1.0
102
RTVSPost2010PropOp39
 70
     1
102
RTVSPost2010Prop40
 90
        0
102
RTVSPost2010PropOp40
 70
     1
102
RTVSPost2010Prop41ColorIndex
 90
       18
102
RTVSPost2010Prop41ColorRGB
 90
        0
102
RTVSPost2010PropOp41
 70
     1
102
RTVSPost2010Prop42
 90
       50
102
RTVSPost2010PropOp42
 70
     1
102
RTVSPost2010Prop43
 90
        3
102
RTVSPost2010PropOp43
 70
     1
102
RTVSPost2010Prop44ColorIndex
 90
        5
102
RTVSPost2010Prop44ColorRGB
 90
      255
102
RTVSPost2010PropOp44
 70
     1
102
RTVSPost2010Prop45
280
     0
102
RTVSPost2010PropOp45
 70
     1
102
RTVSPost2010Prop46
 90
       50
102
RTVSPost2010PropOp46
 70
     1
102
RTVSPost2010Prop47
 90
       50
102
RTVSPost2010PropOp47
 70
     1
102
RTVSPost2010Prop48
 90
       50
102
RTVSPost2010PropOp48
 70
     1
102
RTVSPost2010Prop49
280
     0
102
RTVSPost2010PropOp49
 70
     1
102
RTVSPost2010Prop50
 90
       50
102
RTVSPost2010PropOp50
 70
     1
102
RTVSPost2010Prop51ColorIndex
 90
      256
102
RTVSPost2010Prop51ColorRGB
 90
-16777216
102
RTVSPost2010PropOp51
 70
     0
102
RTVSPost2010Prop52
140
1.0
102
RTVSPost2010PropOp52
 70
     0
102
RTVSPost2010Prop53
 90
        2
102
RTVSPost2010PropOp53
 70
     1
102
RTVSPost2010Prop54
  1
strokes_ogs.tif
102
RTVSPost2010PropOp54
 70
     1
102
RTVSPost2010Prop55
280
     0
102
RTVSPost2010PropOp55
 70
     1
102
RTVSPost2010Prop56
140
1.0
102
RTVSPost2010PropOp56
 70
     1
102
RTVSPost2010Prop57
140
1.0
102
RTVSPost2010PropOp57
 70
     1
102
RTVSPropertyOp0
 70
     1
102
RTVSPropertyOp1
 70
     1
102
RTVSPropertyOp2
 70
     1
102
RTVSPropertyOp3
 70
     1
102
RTVSPropertyOp4
 70
     1
102
RTVSPropertyOp5
 70
     1
102
RTVSPropertyOp6
 70
     1
102
RTVSPropertyOp7
 70
     1
102
RTVSPropertyOp8
 70
     1
102
RTVSPropertyOp9
 70
     1
102
RTVSPropertyOp10
 70
     1
102
RTVSPropertyOp11
 70
     1
102
RTVSPropertyOp12
 70
     1
102
RTVSPropertyOp13
 70
     1
102
RTVSPropertyOp14
 70
     1
102
RTVSPropertyOp15
 70
     1
102
RTVSPropertyOp16
 70
     1
102
RTVSPropertyOp17
 70
     1
102
RTVSPropertyOp18
 70
     1
102
RTVSPropertyOp19
 70
     1
102
RTVSPropertyOp20
 70
     1
102
RTVSPropertyOp21
 70
     1
102
RTVSPropertyOp22
 70
     1
102
RTVSPropertyOp23
 70
     1
102
RTVSPropertyOp24
 70
     1
102
RTVSPropertyOp25
 70
     1
102
RTVSPropertyOp26
 70
     1
102
RTVSPropertyOp27
 70
     1
102
RTVSPropertyOp28
 70
     1
102
RTVSPropertyOp29
 70
     1
102
RTVSPropertyOp30
 70
     1
102
RTVSPropertyOp31
 70
     1
102
RTVSPropertyOp32
 70
     1
102
RTVSPropertyOp33
 70
     1
102
RTVSPropertyOp34
 70
     1
102
RTVSPropertyOp35
 70
     1
102
RTVSPropertyOp36
 70
     1
102
RTVSPropertyOp37
 70
     1
102
RTVSPropertyOp38
 70
     1
102
RTVSPropertyOp39
 70
     1
102
RTVSPropertyOp40
 70
     1
102
RTVSPropertyOp41
 70
     1
102
RTVSPropertyOp42
 70
     1
102
RTVSPropertyOp43
 70
     1
102
RTVSPropertyOp44
 70
     1
102
RTVSPropertyOp45
 70
     1
102
RTVSPropertyOp46
 70
     1
102
RTVSPropertyOp47
 70
     1
102
RTVSPropertyOp48
 70
     1
102
RTVSPropertyOp49
 70
     1
102
RTVSPropertyOp50
 70
     1
102
RTVSPropertyOp51
 70
     0
102
RTVSPropertyOp52
 70
     0
102
RTVSPropertyOp53
 70
     1
102
RTVSPropertyOp54
 70
     1
102
RTVSPropertyOp55
 70
     1
102
RTVSPropertyOp56
 70
     1
102
RTVSPropertyOp57
 70
     1
102
RTVSPropertyOp58
 70
     1
102
RTVSPropertyOp59
 70
     1
102
RTVSPropertyOp60
 70
     1
102
RTVSPropertyOp61
 70
     1
102
RTVSPropertyOp62
 70
     1
  0
XRECORD
  5
B82A
102
{ACAD_REACTORS
330
B829
102
}
330
B829
100
AcDbXrecord
280
     1
102
RTVSPost2010Prop28
280
     0
102
RTVSPost2010PropOp28
 70
     1
102
RTVSPost2010Prop29
280
     1
102
RTVSPost2010PropOp29
 70
     1
102
RTVSPost2010Prop30
280
     1
102
RTVSPost2010PropOp30
 70
     1
102
RTVSPost2010Prop31
280
     0
102
RTVSPost2010PropOp31
 70
     1
102
RTVSPost2010Prop32
280
     0
102
RTVSPost2010PropOp32
 70
     1
102
RTVSPost2010Prop33
280
     0
102
RTVSPost2010PropOp33
 70
     1
102
RTVSPost2010Prop34
280
     0
102
RTVSPost2010PropOp34
 70
     1
102
RTVSPost2010Prop35
280
     0
102
RTVSPost2010PropOp35
 70
     1
102
RTVSPost2010Prop36
280
     0
102
RTVSPost2010PropOp36
 70
     1
102
RTVSPost2010Prop37
 90
       50
102
RTVSPost2010PropOp37
 70
     1
102
RTVSPost2010Prop38
140
0.0
102
RTVSPost2010PropOp38
 70
     1
102
RTVSPost2010Prop39
140
1.0
102
RTVSPost2010PropOp39
 70
     1
102
RTVSPost2010Prop40
 90
        0
102
RTVSPost2010PropOp40
 70
     1
102
RTVSPost2010Prop41ColorIndex
 90
       18
102
RTVSPost2010Prop41ColorRGB
 90
        0
102
RTVSPost2010PropOp41
 70
     1
102
RTVSPost2010Prop42
 90
       50
102
RTVSPost2010PropOp42
 70
     1
102
RTVSPost2010Prop43
 90
        3
102
RTVSPost2010PropOp43
 70
     1
102
RTVSPost2010Prop44ColorIndex
 90
        5
102
RTVSPost2010Prop44ColorRGB
 90
      255
102
RTVSPost2010PropOp44
 70
     1
102
RTVSPost2010Prop45
280
     0
102
RTVSPost2010PropOp45
 70
     1
102
RTVSPost2010Prop46
 90
       50
102
RTVSPost2010PropOp46
 70
     1
102
RTVSPost2010Prop47
 90
       50
102
RTVSPost2010PropOp47
 70
     1
102
RTVSPost2010Prop48
 90
       50
102
RTVSPost2010PropOp48
 70
     1
102
RTVSPost2010Prop49
280
     0
102
RTVSPost2010PropOp49
 70
     1
102
RTVSPost2010Prop50
 90
       50
102
RTVSPost2010PropOp50
 70
     1
102
RTVSPost2010Prop51ColorIndex
 90
      256
102
RTVSPost2010Prop51ColorRGB
 90
-16777216
102
RTVSPost2010PropOp51
 70
     0
102
RTVSPost2010Prop52
140
1.0
102
RTVSPost2010PropOp52
 70
     0
102
RTVSPost2010Prop53
 90
        2
102
RTVSPost2010PropOp53
 70
     1
102
RTVSPost2010Prop54
  1
strokes_ogs.tif
102
RTVSPost2010PropOp54
 70
     1
102
RTVSPost2010Prop55
280
     0
102
RTVSPost2010PropOp55
 70
     1
102
RTVSPost2010Prop56
140
1.0
102
RTVSPost2010PropOp56
 70
     1
102
RTVSPost2010Prop57
140
1.0
102
RTVSPost2010PropOp57
 70
     1
102
RTVSPropertyOp0
 70
     1
102
RTVSPropertyOp1
 70
     1
102
RTVSPropertyOp2
 70
     1
102
RTVSPropertyOp3
 70
     1
102
RTVSPropertyOp4
 70
     1
102
RTVSPropertyOp5
 70
     1
102
RTVSPropertyOp6
 70
     1
102
RTVSPropertyOp7
 70
     1
102
RTVSPropertyOp8
 70
     1
102
RTVSPropertyOp9
 70
     1
102
RTVSPropertyOp10
 70
     1
102
RTVSPropertyOp11
 70
     1
102
RTVSPropertyOp12
 70
     1
102
RTVSPropertyOp13
 70
     1
102
RTVSPropertyOp14
 70
     1
102
RTVSPropertyOp15
 70
     1
102
RTVSPropertyOp16
 70
     1
102
RTVSPropertyOp17
 70
     1
102
RTVSPropertyOp18
 70
     1
102
RTVSPropertyOp19
 70
     1
102
RTVSPropertyOp20
 70
     1
102
RTVSPropertyOp21
 70
     1
102
RTVSPropertyOp22
 70
     1
102
RTVSPropertyOp23
 70
     1
102
RTVSPropertyOp24
 70
     1
102
RTVSPropertyOp25
 70
     1
102
RTVSPropertyOp26
 70
     1
102
RTVSPropertyOp27
 70
     1
102
RTVSPropertyOp28
 70
     1
102
RTVSPropertyOp29
 70
     1
102
RTVSPropertyOp30
 70
     1
102
RTVSPropertyOp31
 70
     1
102
RTVSPropertyOp32
 70
     1
102
RTVSPropertyOp33
 70
     1
102
RTVSPropertyOp34
 70
     1
102
RTVSPropertyOp35
 70
     1
102
RTVSPropertyOp36
 70
     1
102
RTVSPropertyOp37
 70
     1
102
RTVSPropertyOp38
 70
     1
102
RTVSPropertyOp39
 70
     1
102
RTVSPropertyOp40
 70
     1
102
RTVSPropertyOp41
 70
     1
102
RTVSPropertyOp42
 70
     1
102
RTVSPropertyOp43
 70
     1
102
RTVSPropertyOp44
 70
     1
102
RTVSPropertyOp45
 70
     1
102
RTVSPropertyOp46
 70
     1
102
RTVSPropertyOp47
 70
     1
102
RTVSPropertyOp48
 70
     1
102
RTVSPropertyOp49
 70
     1
102
RTVSPropertyOp50
 70
     1
102
RTVSPropertyOp51
 70
     0
102
RTVSPropertyOp52
 70
     0
102
RTVSPropertyOp53
 70
     1
102
RTVSPropertyOp54
 70
     1
102
RTVSPropertyOp55
 70
     1
102
RTVSPropertyOp56
 70
     1
102
RTVSPropertyOp57
 70
     1
102
RTVSPropertyOp58
 70
     1
102
RTVSPropertyOp59
 70
     1
102
RTVSPropertyOp60
 70
     1
102
RTVSPropertyOp61
 70
     1
102
RTVSPropertyOp62
 70
     1
  0
XRECORD
  5
B81E
102
{ACAD_REACTORS
330
B81D
102
}
330
B81D
100
AcDbXrecord
280
     1
102
RTVSPost2010Prop28
280
     0
102
RTVSPost2010PropOp28
 70
     1
102
RTVSPost2010Prop29
280
     1
102
RTVSPost2010PropOp29
 70
     1
102
RTVSPost2010Prop30
280
     1
102
RTVSPost2010PropOp30
 70
     1
102
RTVSPost2010Prop31
280
     0
102
RTVSPost2010PropOp31
 70
     1
102
RTVSPost2010Prop32
280
     0
102
RTVSPost2010PropOp32
 70
     1
102
RTVSPost2010Prop33
280
     0
102
RTVSPost2010PropOp33
 70
     1
102
RTVSPost2010Prop34
280
     0
102
RTVSPost2010PropOp34
 70
     1
102
RTVSPost2010Prop35
280
     0
102
RTVSPost2010PropOp35
 70
     1
102
RTVSPost2010Prop36
280
     0
102
RTVSPost2010PropOp36
 70
     1
102
RTVSPost2010Prop37
 90
       50
102
RTVSPost2010PropOp37
 70
     1
102
RTVSPost2010Prop38
140
0.0
102
RTVSPost2010PropOp38
 70
     1
102
RTVSPost2010Prop39
140
1.0
102
RTVSPost2010PropOp39
 70
     1
102
RTVSPost2010Prop40
 90
        0
102
RTVSPost2010PropOp40
 70
     1
102
RTVSPost2010Prop41ColorIndex
 90
       18
102
RTVSPost2010Prop41ColorRGB
 90
        0
102
RTVSPost2010PropOp41
 70
     1
102
RTVSPost2010Prop42
 90
       50
102
RTVSPost2010PropOp42
 70
     1
102
RTVSPost2010Prop43
 90
        3
102
RTVSPost2010PropOp43
 70
     1
102
RTVSPost2010Prop44ColorIndex
 90
        5
102
RTVSPost2010Prop44ColorRGB
 90
      255
102
RTVSPost2010PropOp44
 70
     1
102
RTVSPost2010Prop45
280
     0
102
RTVSPost2010PropOp45
 70
     1
102
RTVSPost2010Prop46
 90
       50
102
RTVSPost2010PropOp46
 70
     1
102
RTVSPost2010Prop47
 90
       50
102
RTVSPost2010PropOp47
 70
     1
102
RTVSPost2010Prop48
 90
       50
102
RTVSPost2010PropOp48
 70
     1
102
RTVSPost2010Prop49
280
     0
102
RTVSPost2010PropOp49
 70
     1
102
RTVSPost2010Prop50
 90
       50
102
RTVSPost2010PropOp50
 70
     1
102
RTVSPost2010Prop51ColorIndex
 90
      256
102
RTVSPost2010Prop51ColorRGB
 90
-16777216
102
RTVSPost2010PropOp51
 70
     0
102
RTVSPost2010Prop52
140
1.0
102
RTVSPost2010PropOp52
 70
     0
102
RTVSPost2010Prop53
 90
        2
102
RTVSPost2010PropOp53
 70
     1
102
RTVSPost2010Prop54
  1
strokes_ogs.tif
102
RTVSPost2010PropOp54
 70
     1
102
RTVSPost2010Prop55
280
     0
102
RTVSPost2010PropOp55
 70
     1
102
RTVSPost2010Prop56
140
1.0
102
RTVSPost2010PropOp56
 70
     1
102
RTVSPost2010Prop57
140
1.0
102
RTVSPost2010PropOp57
 70
     1
102
RTVSPropertyOp0
 70
     1
102
RTVSPropertyOp1
 70
     1
102
RTVSPropertyOp2
 70
     1
102
RTVSPropertyOp3
 70
     1
102
RTVSPropertyOp4
 70
     1
102
RTVSPropertyOp5
 70
     1
102
RTVSPropertyOp6
 70
     1
102
RTVSPropertyOp7
 70
     1
102
RTVSPropertyOp8
 70
     1
102
RTVSPropertyOp9
 70
     1
102
RTVSPropertyOp10
 70
     1
102
RTVSPropertyOp11
 70
     1
102
RTVSPropertyOp12
 70
     1
102
RTVSPropertyOp13
 70
     1
102
RTVSPropertyOp14
 70
     1
102
RTVSPropertyOp15
 70
     1
102
RTVSPropertyOp16
 70
     1
102
RTVSPropertyOp17
 70
     1
102
RTVSPropertyOp18
 70
     1
102
RTVSPropertyOp19
 70
     1
102
RTVSPropertyOp20
 70
     1
102
RTVSPropertyOp21
 70
     1
102
RTVSPropertyOp22
 70
     1
102
RTVSPropertyOp23
 70
     1
102
RTVSPropertyOp24
 70
     1
102
RTVSPropertyOp25
 70
     1
102
RTVSPropertyOp26
 70
     1
102
RTVSPropertyOp27
 70
     1
102
RTVSPropertyOp28
 70
     1
102
RTVSPropertyOp29
 70
     1
102
RTVSPropertyOp30
 70
     1
102
RTVSPropertyOp31
 70
     1
102
RTVSPropertyOp32
 70
     1
102
RTVSPropertyOp33
 70
     1
102
RTVSPropertyOp34
 70
     1
102
RTVSPropertyOp35
 70
     1
102
RTVSPropertyOp36
 70
     1
102
RTVSPropertyOp37
 70
     1
102
RTVSPropertyOp38
 70
     1
102
RTVSPropertyOp39
 70
     1
102
RTVSPropertyOp40
 70
     1
102
RTVSPropertyOp41
 70
     1
102
RTVSPropertyOp42
 70
     1
102
RTVSPropertyOp43
 70
     1
102
RTVSPropertyOp44
 70
     1
102
RTVSPropertyOp45
 70
     1
102
RTVSPropertyOp46
 70
     1
102
RTVSPropertyOp47
 70
     1
102
RTVSPropertyOp48
 70
     1
102
RTVSPropertyOp49
 70
     1
102
RTVSPropertyOp50
 70
     1
102
RTVSPropertyOp51
 70
     0
102
RTVSPropertyOp52
 70
     0
102
RTVSPropertyOp53
 70
     1
102
RTVSPropertyOp54
 70
     1
102
RTVSPropertyOp55
 70
     1
102
RTVSPropertyOp56
 70
     1
102
RTVSPropertyOp57
 70
     1
102
RTVSPropertyOp58
 70
     1
102
RTVSPropertyOp59
 70
     1
102
RTVSPropertyOp60
 70
     1
102
RTVSPropertyOp61
 70
     1
102
RTVSPropertyOp62
 70
     1
  0
XRECORD
  5
B836
102
{ACAD_REACTORS
330
B835
102
}
330
B835
100
AcDbXrecord
280
     1
102
RTVSPost2010Prop28
280
     0
102
RTVSPost2010PropOp28
 70
     1
102
RTVSPost2010Prop29
280
     1
102
RTVSPost2010PropOp29
 70
     1
102
RTVSPost2010Prop30
280
     1
102
RTVSPost2010PropOp30
 70
     1
102
RTVSPost2010Prop31
280
     0
102
RTVSPost2010PropOp31
 70
     1
102
RTVSPost2010Prop32
280
     0
102
RTVSPost2010PropOp32
 70
     1
102
RTVSPost2010Prop33
280
     0
102
RTVSPost2010PropOp33
 70
     1
102
RTVSPost2010Prop34
280
     0
102
RTVSPost2010PropOp34
 70
     1
102
RTVSPost2010Prop35
280
     0
102
RTVSPost2010PropOp35
 70
     1
102
RTVSPost2010Prop36
280
     0
102
RTVSPost2010PropOp36
 70
     1
102
RTVSPost2010Prop37
 90
       50
102
RTVSPost2010PropOp37
 70
     1
102
RTVSPost2010Prop38
140
0.0
102
RTVSPost2010PropOp38
 70
     1
102
RTVSPost2010Prop39
140
1.0
102
RTVSPost2010PropOp39
 70
     1
102
RTVSPost2010Prop40
 90
        0
102
RTVSPost2010PropOp40
 70
     1
102
RTVSPost2010Prop41ColorIndex
 90
       18
102
RTVSPost2010Prop41ColorRGB
 90
        0
102
RTVSPost2010PropOp41
 70
     1
102
RTVSPost2010Prop42
 90
       50
102
RTVSPost2010PropOp42
 70
     1
102
RTVSPost2010Prop43
 90
        3
102
RTVSPost2010PropOp43
 70
     1
102
RTVSPost2010Prop44ColorIndex
 90
        5
102
RTVSPost2010Prop44ColorRGB
 90
      255
102
RTVSPost2010PropOp44
 70
     1
102
RTVSPost2010Prop45
280
     0
102
RTVSPost2010PropOp45
 70
     1
102
RTVSPost2010Prop46
 90
       50
102
RTVSPost2010PropOp46
 70
     1
102
RTVSPost2010Prop47
 90
       50
102
RTVSPost2010PropOp47
 70
     1
102
RTVSPost2010Prop48
 90
       50
102
RTVSPost2010PropOp48
 70
     1
102
RTVSPost2010Prop49
280
     0
102
RTVSPost2010PropOp49
 70
     1
102
RTVSPost2010Prop50
 90
       50
102
RTVSPost2010PropOp50
 70
     1
102
RTVSPost2010Prop51ColorIndex
 90
      256
102
RTVSPost2010Prop51ColorRGB
 90
-16777216
102
RTVSPost2010PropOp51
 70
     0
102
RTVSPost2010Prop52
140
1.0
102
RTVSPost2010PropOp52
 70
     0
102
RTVSPost2010Prop53
 90
        2
102
RTVSPost2010PropOp53
 70
     1
102
RTVSPost2010Prop54
  1
strokes_ogs.tif
102
RTVSPost2010PropOp54
 70
     1
102
RTVSPost2010Prop55
280
     0
102
RTVSPost2010PropOp55
 70
     1
102
RTVSPost2010Prop56
140
1.0
102
RTVSPost2010PropOp56
 70
     1
102
RTVSPost2010Prop57
140
1.0
102
RTVSPost2010PropOp57
 70
     1
102
RTVSPropertyOp0
 70
     1
102
RTVSPropertyOp1
 70
     1
102
RTVSPropertyOp2
 70
     1
102
RTVSPropertyOp3
 70
     1
102
RTVSPropertyOp4
 70
     1
102
RTVSPropertyOp5
 70
     1
102
RTVSPropertyOp6
 70
     1
102
RTVSPropertyOp7
 70
     1
102
RTVSPropertyOp8
 70
     1
102
RTVSPropertyOp9
 70
     1
102
RTVSPropertyOp10
 70
     1
102
RTVSPropertyOp11
 70
     1
102
RTVSPropertyOp12
 70
     1
102
RTVSPropertyOp13
 70
     1
102
RTVSPropertyOp14
 70
     1
102
RTVSPropertyOp15
 70
     1
102
RTVSPropertyOp16
 70
     1
102
RTVSPropertyOp17
 70
     1
102
RTVSPropertyOp18
 70
     1
102
RTVSPropertyOp19
 70
     1
102
RTVSPropertyOp20
 70
     1
102
RTVSPropertyOp21
 70
     1
102
RTVSPropertyOp22
 70
     1
102
RTVSPropertyOp23
 70
     1
102
RTVSPropertyOp24
 70
     1
102
RTVSPropertyOp25
 70
     1
102
RTVSPropertyOp26
 70
     1
102
RTVSPropertyOp27
 70
     1
102
RTVSPropertyOp28
 70
     1
102
RTVSPropertyOp29
 70
     1
102
RTVSPropertyOp30
 70
     1
102
RTVSPropertyOp31
 70
     1
102
RTVSPropertyOp32
 70
     1
102
RTVSPropertyOp33
 70
     1
102
RTVSPropertyOp34
 70
     1
102
RTVSPropertyOp35
 70
     1
102
RTVSPropertyOp36
 70
     1
102
RTVSPropertyOp37
 70
     1
102
RTVSPropertyOp38
 70
     1
102
RTVSPropertyOp39
 70
     1
102
RTVSPropertyOp40
 70
     1
102
RTVSPropertyOp41
 70
     1
102
RTVSPropertyOp42
 70
     1
102
RTVSPropertyOp43
 70
     1
102
RTVSPropertyOp44
 70
     1
102
RTVSPropertyOp45
 70
     1
102
RTVSPropertyOp46
 70
     1
102
RTVSPropertyOp47
 70
     1
102
RTVSPropertyOp48
 70
     1
102
RTVSPropertyOp49
 70
     1
102
RTVSPropertyOp50
 70
     1
102
RTVSPropertyOp51
 70
     0
102
RTVSPropertyOp52
 70
     0
102
RTVSPropertyOp53
 70
     1
102
RTVSPropertyOp54
 70
     1
102
RTVSPropertyOp55
 70
     1
102
RTVSPropertyOp56
 70
     1
102
RTVSPropertyOp57
 70
     1
102
RTVSPropertyOp58
 70
     1
102
RTVSPropertyOp59
 70
     1
102
RTVSPropertyOp60
 70
     1
102
RTVSPropertyOp61
 70
     1
102
RTVSPropertyOp62
 70
     1
  0
ENDSEC
  0
EOF
