  0
SECTION
  2
HEADER
  9
$ACADVER
  1
AC1015
  9
$ACADMAINTVER
 70
    20
  9
$DWGCODEPAGE
  3
ANSI_932
  9
$INSBASE
 10
0.0
 20
0.0
 30
0.0
  9
$EXTMIN
 10
10.0
 20
9.999999999999998
 30
0.0
  9
$EXTMAX
 10
570.0
 20
407.533455
 30
0.0
  9
$LIMMIN
 10
0.0
 20
0.0
  9
$LIMMAX
 10
633.6
 20
436.8
  9
$ORTHOMODE
 70
     1
  9
$REGENMODE
 70
     1
  9
$FILLMODE
 70
     1
  9
$QTEXTMODE
 70
     0
  9
$MIRRTEXT
 70
     1
  9
$LTSCALE
 40
20.0
  9
$ATTMODE
 70
     1
  9
$TEXTSIZE
 40
5.0
  9
$TRACEWID
 40
1.0
  9
$TEXTSTYLE
  7
STANDARD
  9
$CLAYER
  8
0
  9
$CELTYPE
  6
BYLAYER
  9
$CECOLOR
 62
   256
  9
$CELTSCALE
 40
1.0
  9
$DISPSILH
 70
     0
  9
$DIMSCALE
 40
1.0
  9
$DIMASZ
 40
2.5
  9
$DIMEXO
 40
1.0
  9
$DIMDLI
 40
10.0
  9
$DIMRND
 40
0.0
  9
$DIMDLE
 40
0.0
  9
$DIMEXE
 40
1.0
  9
$DIMTP
 40
0.0
  9
$DIMTM
 40
0.0
  9
$DIMTXT
 40
2.5
  9
$DIMCEN
 40
0.0
  9
$DIMTSZ
 40
0.0
  9
$DIMTOL
 70
     0
  9
$DIMLIM
 70
     0
  9
$DIMTIH
 70
     0
  9
$DIMTOH
 70
     0
  9
$DIMSE1
 70
     0
  9
$DIMSE2
 70
     0
  9
$DIMTAD
 70
     3
  9
$DIMZIN
 70
     8
  9
$DIMBLK
  1

  9
$DIMASO
 70
     1
  9
$DIMSHO
 70
     1
  9
$DIMPOST
  1

  9
$DIMAPOST
  1

  9
$DIMALT
 70
     0
  9
$DIMALTD
 70
     2
  9
$DIMALTF
 40
25.4
  9
$DIMLFAC
 40
1.0
  9
$DIMTOFL
 70
     1
  9
$DIMTVP
 40
0.0
  9
$DIMTIX
 70
     0
  9
$DIMSOXD
 70
     0
  9
$DIMSAH
 70
     1
  9
$DIMBLK1
  1
OPEN
  9
$DIMBLK2
  1
OPEN
  9
$DIMSTYLE
  2
STANDARD
  9
$DIMCLRD
 70
     0
  9
$DIMCLRE
 70
     0
  9
$DIMCLRT
 70
     0
  9
$DIMTFAC
 40
1.0
  9
$DIMGAP
 40
1.0
  9
$DIMJUST
 70
     0
  9
$DIMSD1
 70
     0
  9
$DIMSD2
 70
     0
  9
$DIMTOLJ
 70
     1
  9
$DIMTZIN
 70
     0
  9
$DIMALTZ
 70
     0
  9
$DIMALTTZ
 70
     0
  9
$DIMUPT
 70
     0
  9
$DIMDEC
 70
     4
  9
$DIMTDEC
 70
     4
  9
$DIMALTU
 70
     2
  9
$DIMALTTD
 70
     2
  9
$DIMTXSTY
  7
STANDARD
  9
$DIMAUNIT
 70
     0
  9
$DIMADEC
 70
     0
  9
$DIMALTRND
 40
0.0
  9
$DIMAZIN
 70
     0
  9
$DIMDSEP
 70
    46
  9
$DIMATFIT
 70
     3
  9
$DIMFRAC
 70
     0
  9
$DIMLDRBLK
  1
OPEN
  9
$DIMLUNIT
 70
     2
  9
$DIMLWD
 70
    -2
  9
$DIMLWE
 70
    -2
  9
$DIMTMOVE
 70
     0
  9
$LUNITS
 70
     2
  9
$LUPREC
 70
     4
  9
$SKETCHINC
 40
1.0
  9
$FILLETRAD
 40
0.0
  9
$AUNITS
 70
     0
  9
$AUPREC
 70
     2
  9
$MENU
  1
.
  9
$ELEVATION
 40
0.0
  9
$PELEVATION
 40
0.0
  9
$THICKNESS
 40
0.0
  9
$LIMCHECK
 70
     0
  9
$CHAMFERA
 40
10.0
  9
$CHAMFERB
 40
10.0
  9
$CHAMFERC
 40
0.0
  9
$CHAMFERD
 40
0.0
  9
$SKPOLY
 70
     0
  9
$TDCREATE
 40
2451344.610014930
  9
$TDUCREATE
 40
2451344.235014930
  9
$TDUPDATE
 40
2457192.621270926
  9
$TDUUPDATE
 40
2457192.246270926
  9
$TDINDWG
 40
0.0000174884
  9
$TDUSRTIMER
 40
0.0000171644
  9
$USRTIMER
 70
     1
  9
$ANGBASE
 50
0.0
  9
$ANGDIR
 70
     0
  9
$PDMODE
 70
     0
  9
$PDSIZE
 40
0.0
  9
$PLINEWID
 40
0.0
  9
$SPLFRAME
 70
     0
  9
$SPLINETYPE
 70
     6
  9
$SPLINESEGS
 70
     8
  9
$HANDSEED
  5
C431
  9
$SURFTAB1
 70
     6
  9
$SURFTAB2
 70
     6
  9
$SURFTYPE
 70
     6
  9
$SURFU
 70
     6
  9
$SURFV
 70
     6
  9
$UCSBASE
  2

  9
$UCSNAME
  2

  9
$UCSORG
 10
0.0
 20
0.0
 30
0.0
  9
$UCSXDIR
 10
1.0
 20
0.0
 30
0.0
  9
$UCSYDIR
 10
0.0
 20
1.0
 30
0.0
  9
$UCSORTHOREF
  2

  9
$UCSORTHOVIEW
 70
     0
  9
$UCSORGTOP
 10
0.0
 20
0.0
 30
0.0
  9
$UCSORGBOTTOM
 10
0.0
 20
0.0
 30
0.0
  9
$UCSORGLEFT
 10
0.0
 20
0.0
 30
0.0
  9
$UCSORGRIGHT
 10
0.0
 20
0.0
 30
0.0
  9
$UCSORGFRONT
 10
0.0
 20
0.0
 30
0.0
  9
$UCSORGBACK
 10
0.0
 20
0.0
 30
0.0
  9
$PUCSBASE
  2

  9
$PUCSNAME
  2

  9
$PUCSORG
 10
0.0
 20
0.0
 30
0.0
  9
$PUCSXDIR
 10
1.0
 20
0.0
 30
0.0
  9
$PUCSYDIR
 10
0.0
 20
1.0
 30
0.0
  9
$PUCSORTHOREF
  2

  9
$PUCSORTHOVIEW
 70
     0
  9
$PUCSORGTOP
 10
0.0
 20
0.0
 30
0.0
  9
$PUCSORGBOTTOM
 10
0.0
 20
0.0
 30
0.0
  9
$PUCSORGLEFT
 10
0.0
 20
0.0
 30
0.0
  9
$PUCSORGRIGHT
 10
0.0
 20
0.0
 30
0.0
  9
$PUCSORGFRONT
 10
0.0
 20
0.0
 30
0.0
  9
$PUCSORGBACK
 10
0.0
 20
0.0
 30
0.0
  9
$USERI1
 70
     0
  9
$USERI2
 70
     0
  9
$USERI3
 70
     0
  9
$USERI4
 70
     0
  9
$USERI5
 70
     0
  9
$USERR1
 40
0.0
  9
$USERR2
 40
0.0
  9
$USERR3
 40
0.0
  9
$USERR4
 40
0.0
  9
$USERR5
 40
0.0
  9
$WORLDVIEW
 70
     1
  9
$SHADEDGE
 70
     3
  9
$SHADEDIF
 70
    70
  9
$TILEMODE
 70
     1
  9
$MAXACTVP
 70
    16
  9
$PINSBASE
 10
0.0
 20
0.0
 30
0.0
  9
$PLIMCHECK
 70
     0
  9
$PEXTMIN
 10
1.000000000000000E+20
 20
1.000000000000000E+20
 30
1.000000000000000E+20
  9
$PEXTMAX
 10
-1.000000000000000E+20
 20
-1.000000000000000E+20
 30
-1.000000000000000E+20
  9
$PLIMMIN
 10
0.0
 20
0.0
  9
$PLIMMAX
 10
420.0
 20
297.0
  9
$UNITMODE
 70
     0
  9
$VISRETAIN
 70
     0
  9
$PLINEGEN
 70
     0
  9
$PSLTSCALE
 70
     0
  9
$TREEDEPTH
 70
  3020
  9
$CMLSTYLE
  2
STANDARD
  9
$CMLJUST
 70
     0
  9
$CMLSCALE
 40
1.0
  9
$PROXYGRAPHICS
 70
     1
  9
$MEASUREMENT
 70
     0
  9
$CELWEIGHT
370
    -1
  9
$ENDCAPS
280
     0
  9
$JOINSTYLE
280
     0
  9
$LWDISPLAY
290
     0
  9
$INSUNITS
 70
     0
  9
$HYPERLINKBASE
  1

  9
$STYLESHEET
  1

  9
$XEDIT
290
     1
  9
$CEPSNTYPE
380
     0
  9
$PSTYLEMODE
290
     1
  9
$FINGERPRINTGUID
  2
{E2FF7F17-7550-4C47-91E3-68392F7CF8A4}
  9
$VERSIONGUID
  2
{9C586134-561C-4740-A256-D95C95C07FFB}
  9
$EXTNAMES
290
     1
  9
$PSVPSCALE
 40
0.0
  9
$OLESTARTUP
290
     0
  0
ENDSEC
  0
SECTION
  2
CLASSES
  0
CLASS
  1
ACDBDICTIONARYWDFLT
  2
AcDbDictionaryWithDefault
  3
ObjectDBX Classes
 90
        0
280
     0
281
     0
  0
CLASS
  1
ACDBPLACEHOLDER
  2
AcDbPlaceHolder
  3
ObjectDBX Classes
 90
        0
280
     0
281
     0
  0
CLASS
  1
LAYOUT
  2
AcDbLayout
  3
ObjectDBX Classes
 90
        0
280
     0
281
     0
  0
CLASS
  1
DICTIONARYVAR
  2
AcDbDictionaryVar
  3
ObjectDBX Classes
 90
        0
280
     0
281
     0
  0
CLASS
  1
MATERIAL
  2
AcDbMaterial
  3
ObjectDBX Classes
 90
     1153
280
     0
281
     0
  0
CLASS
  1
VISUALSTYLE
  2
AcDbVisualStyle
  3
ObjectDBX Classes
 90
     4095
280
     0
281
     0
  0
CLASS
  1
TABLESTYLE
  2
AcDbTableStyle
  3
ObjectDBX Classes
 90
     4095
280
     0
281
     0
  0
CLASS
  1
SCALE
  2
AcDbScale
  3
ObjectDBX Classes
 90
     1153
280
     0
281
     0
  0
CLASS
  1
MLEADERSTYLE
  2
AcDbMLeaderStyle
  3
ACDB_MLEADERSTYLE_CLASS
 90
     4095
280
     0
281
     0
  0
CLASS
  1
ACDBSECTIONVIEWSTYLE
  2
AcDbSectionViewStyle
  3
ObjectDBX Classes
 90
     1025
280
     0
281
     0
  0
CLASS
  1
ACDBDETAILVIEWSTYLE
  2
AcDbDetailViewStyle
  3
ObjectDBX Classes
 90
     1025
280
     0
281
     0
  0
CLASS
  1
CELLSTYLEMAP
  2
AcDbCellStyleMap
  3
ObjectDBX Classes
 90
     1152
280
     0
281
     0
  0
ENDSEC
  0
SECTION
  2
TABLES
  0
TABLE
  2
VPORT
  5
C03F
330
0
100
AcDbSymbolTable
 70
     1
  0
VPORT
  5
C37A
330
C03F
100
AcDbSymbolTableRecord
100
AcDbViewportTableRecord
  2
*ACTIVE
 70
     0
 10
0.0
 20
0.0
 11
1.0
 21
1.0
 12
410.4122100497694
 22
208.7690195604798
 13
0.0
 23
0.0
 14
10.0
 24
10.0
 15
10.0
 25
10.0
 16
0.0
 26
0.0
 36
1.0
 17
0.0
 27
0.0
 37
0.0
 40
402.016164272787
 41
1.899603698811096
 42
50.0
 43
0.0
 44
0.0
 50
0.0
 51
0.0
 71
     0
 72
   100
 73
     1
 74
     0
 75
     0
 76
     0
 77
     0
 78
     0
281
     0
 65
     1
110
0.0
120
0.0
130
0.0
111
1.0
121
0.0
131
0.0
112
0.0
122
1.0
132
0.0
 79
     0
146
0.0
1001
ACAD_NAV_VCDISPLAY
1070
     3
  0
ENDTAB
  0
TABLE
  2
LTYPE
  5
C03C
330
0
100
AcDbSymbolTable
 70
     4
  0
LTYPE
  5
C04A
330
C03C
100
AcDbSymbolTableRecord
100
AcDbLinetypeTableRecord
  2
BYBLOCK
 70
     0
  3

 72
    65
 73
     0
 40
0.0
  0
LTYPE
  5
C04B
330
C03C
100
AcDbSymbolTableRecord
100
AcDbLinetypeTableRecord
  2
BYLAYER
 70
     0
  3

 72
    65
 73
     0
 40
0.0
  0
LTYPE
  5
C04C
330
C03C
100
AcDbSymbolTableRecord
100
AcDbLinetypeTableRecord
  2
CONTINUOUS
 70
     0
  3
Solid line
 72
    65
 73
     0
 40
0.0
  0
LTYPE
  5
C05A
330
C03C
100
AcDbSymbolTableRecord
100
AcDbLinetypeTableRecord
  2
DASHED
 70
     0
  3
__ __ __ __ __ __ __ __ __ __ __ __ __ __ __ __
 72
    65
 73
     2
 40
0.75
 49
0.5
 74
     0
 49
-0.25
 74
     0
  0
LTYPE
  5
C05B
330
C03C
100
AcDbSymbolTableRecord
100
AcDbLinetypeTableRecord
  2
CENTER
 70
     0
  3
____ _ ____ _ ____ _ ____ _ ____ _ ____ _ ____ 
 72
    65
 73
     4
 40
2.0
 49
1.25
 74
     0
 49
-0.25
 74
     0
 49
0.25
 74
     0
 49
-0.25
 74
     0
  0
LTYPE
  5
C05C
330
C03C
100
AcDbSymbolTableRecord
100
AcDbLinetypeTableRecord
  2
PHANTOM
 70
     0
  3
______  __  __  ______  __  __  ______  __  __ 
 72
    65
 73
     6
 40
2.5
 49
1.25
 74
     0
 49
-0.25
 74
     0
 49
0.25
 74
     0
 49
-0.25
 74
     0
 49
0.25
 74
     0
 49
-0.25
 74
     0
  0
ENDTAB
  0
TABLE
  2
LAYER
  5
C039
330
0
100
AcDbSymbolTable
 70
     8
  0
LAYER
  5
C047
102
{ACAD_XDICTIONARY
360
C3D5
102
}
330
C039
100
AcDbSymbolTableRecord
100
AcDbLayerTableRecord
  2
0
 70
     0
 62
     7
  6
CONTINUOUS
370
    -3
390
C383
  0
LAYER
  5
C05D
102
{ACAD_XDICTIONARY
360
C3D7
102
}
330
C039
100
AcDbSymbolTableRecord
100
AcDbLayerTableRecord
  2
4
 70
     0
 62
     1
  6
CENTER
370
    -3
390
C383
  0
LAYER
  5
C05E
102
{ACAD_XDICTIONARY
360
C3D9
102
}
330
C039
100
AcDbSymbolTableRecord
100
AcDbLayerTableRecord
  2
5
 70
     0
 62
     6
  6
PHANTOM
370
    -3
390
C383
  0
LAYER
  5
C05F
102
{ACAD_XDICTIONARY
360
C3DB
102
}
330
C039
100
AcDbSymbolTableRecord
100
AcDbLayerTableRecord
  2
1
 70
     0
 62
     7
  6
CONTINUOUS
370
    -3
390
C383
  0
LAYER
  5
C060
102
{ACAD_XDICTIONARY
360
C3DD
102
}
330
C039
100
AcDbSymbolTableRecord
100
AcDbLayerTableRecord
  2
2
 70
     0
 62
     4
  6
CONTINUOUS
370
    -3
390
C383
  0
LAYER
  5
C061
102
{ACAD_XDICTIONARY
360
C3DF
102
}
330
C039
100
AcDbSymbolTableRecord
100
AcDbLayerTableRecord
  2
3
 70
     0
 62
     2
  6
DASHED
370
    -3
390
C383
  0
LAYER
  5
C062
102
{ACAD_XDICTIONARY
360
C3E1
102
}
330
C039
100
AcDbSymbolTableRecord
100
AcDbLayerTableRecord
  2
6
 70
     0
 62
     5
  6
CONTINUOUS
370
    -3
390
C383
  0
LAYER
  5
C063
102
{ACAD_XDICTIONARY
360
C3E3
102
}
330
C039
100
AcDbSymbolTableRecord
100
AcDbLayerTableRecord
  2
7
 70
     0
 62
     3
  6
CONTINUOUS
370
    -3
390
C383
  0
ENDTAB
  0
TABLE
  2
STYLE
  5
C03A
330
0
100
AcDbSymbolTable
 70
     1
  0
STYLE
  5
C048
330
C03A
100
AcDbSymbolTableRecord
100
AcDbTextStyleTableRecord
  2
STANDARD
 70
     0
 40
0.0
 41
1.0
 50
0.0
 71
     0
 42
5.0
  3
txt
  4

  0
ENDTAB
  0
TABLE
  2
VIEW
  5
C03D
330
0
100
AcDbSymbolTable
 70
     0
  0
ENDTAB
  0
TABLE
  2
UCS
  5
C03E
330
0
100
AcDbSymbolTable
 70
     0
  0
ENDTAB
  0
TABLE
  2
APPID
  5
C040
330
0
100
AcDbSymbolTable
 70
     3
  0
APPID
  5
C049
330
C040
100
AcDbSymbolTableRecord
100
AcDbRegAppTableRecord
  2
ACAD
 70
     0
  0
APPID
  5
C3EF
330
C040
100
AcDbSymbolTableRecord
100
AcDbRegAppTableRecord
  2
ACAD_NAV_VCDISPLAY
 70
     0
  0
APPID
  5
C428
330
C040
100
AcDbSymbolTableRecord
100
AcDbRegAppTableRecord
  2
ACAD_MLEADERVER
 70
     0
  0
ENDTAB
  0
TABLE
  2
DIMSTYLE
  5
C041
330
0
100
AcDbSymbolTable
 70
     1
100
AcDbDimStyleTable
 71
     0
  0
DIMSTYLE
105
C065
330
C041
100
AcDbSymbolTableRecord
100
AcDbDimStyleTableRecord
  2
STANDARD
 70
     0
 41
2.5
 42
1.0
 43
10.0
 44
1.0
 73
     0
 74
     0
 77
     3
 78
     8
140
2.5
141
0.0
147
1.0
172
     1
173
     1
284
     8
285
     8
286
     8
340
C048
  0
ENDTAB
  0
TABLE
  2
BLOCK_RECORD
  5
C038
330
0
100
AcDbSymbolTable
 70
     1
  0
BLOCK_RECORD
  5
C055
102
{ACAD_XDICTIONARY
360
C37D
102
}
330
C038
100
AcDbSymbolTableRecord
100
AcDbBlockTableRecord
  2
*MODEL_SPACE
340
C3D1
  0
BLOCK_RECORD
  5
C051
102
{ACAD_XDICTIONARY
360
C37B
102
}
330
C038
100
AcDbSymbolTableRecord
100
AcDbBlockTableRecord
  2
*PAPER_SPACE
340
C3D2
  0
BLOCK_RECORD
  5
C06D
330
C038
100
AcDbSymbolTableRecord
100
AcDbBlockTableRecord
  2
_OPEN
340
0
  0
ENDTAB
  0
ENDSEC
  0
SECTION
  2
BLOCKS
  0
BLOCK
  5
C056
330
C055
100
AcDbEntity
  8
0
100
AcDbBlockBegin
  2
*MODEL_SPACE
 70
     0
 10
0.0
 20
0.0
 30
0.0
  3
*MODEL_SPACE
  1

  0
ENDBLK
  5
C057
330
C055
100
AcDbEntity
  8
0
100
AcDbBlockEnd
  0
BLOCK
  5
C052
330
C051
100
AcDbEntity
 67
     1
  8
0
100
AcDbBlockBegin
  2
*PAPER_SPACE
 70
     0
 10
0.0
 20
0.0
 30
0.0
  3
*PAPER_SPACE
  1

  0
ENDBLK
  5
C053
330
C051
100
AcDbEntity
 67
     1
  8
0
100
AcDbBlockEnd
  0
BLOCK
  5
C06E
330
C06D
100
AcDbEntity
  8
0
100
AcDbBlockBegin
  2
_OPEN
 70
     0
 10
0.0
 20
0.0
 30
0.0
  3
_OPEN
  1

  0
LINE
  5
C06F
330
C06D
100
AcDbEntity
  8
0
  6
ByBlock
 62
     0
100
AcDbLine
 10
-1.0
 20
0.166667
 30
0.0
 11
0.0
 21
0.0
 31
0.0
  0
LINE
  5
C070
330
C06D
100
AcDbEntity
  8
0
  6
ByBlock
 62
     0
100
AcDbLine
 10
0.0
 20
0.0
 30
0.0
 11
-1.0
 21
-0.166667
 31
0.0
  0
LINE
  5
C071
330
C06D
100
AcDbEntity
  8
0
  6
ByBlock
 62
     0
100
AcDbLine
 10
0.0
 20
0.0
 30
0.0
 11
-1.0
 21
0.0
 31
0.0
  0
ENDBLK
  5
C072
330
C06D
100
AcDbEntity
  8
0
100
AcDbBlockEnd
  0
ENDSEC
  0
SECTION
  2
ENTITIES
  0
TEXT
  5
C073
330
C055
100
AcDbEntity
  8
7
  6
Continuous
100
AcDbText
 10
10.0
 20
18.0
 30
0.0
 40
3.0
  1
TYPE No.TM-223-2R
100
AcDbText
  0
TEXT
  5
C074
330
C055
100
AcDbEntity
  8
7
  6
Continuous
100
AcDbText
 10
10.0
 20
26.0
 30
0.0
 40
3.0
  1
CODE No.5823
100
AcDbText
  0
TEXT
  5
C075
330
C055
100
AcDbEntity
  8
1
  6
Continuous
100
AcDbText
 10
10.0
 20
10.0
 30
0.0
 40
1.399999999999999
  1
LAYER
100
AcDbText
  0
TEXT
  5
C076
330
C055
100
AcDbEntity
  8
1
  6
Continuous
100
AcDbText
 10
17.97951099999998
 20
10.04873699999998
 30
0.0
 40
1.399999999999999
  1
1
100
AcDbText
  0
TEXT
  5
C077
330
C055
100
AcDbEntity
  8
7
  6
Continuous
100
AcDbText
 10
29.97951099999999
 20
10.04873699999998
 30
0.0
 40
1.399999999999999
  1
7
100
AcDbText
  0
TEXT
  5
C078
330
C055
100
AcDbEntity
  8
4
  6
CENTER
100
AcDbText
 10
23.97951099999999
 20
10.04873699999998
 30
0.0
 40
1.399999999999999
  1
4
100
AcDbText
  0
TEXT
  5
C079
330
C055
100
AcDbEntity
  8
3
  6
DASHED
100
AcDbText
 10
21.979511
 20
10.04873699999998
 30
0.0
 40
1.399999999999999
  1
3
100
AcDbText
  0
TEXT
  5
C07A
330
C055
100
AcDbEntity
  8
2
  6
Continuous
100
AcDbText
 10
19.97951099999999
 20
10.04873699999998
 30
0.0
 40
1.399999999999999
  1
2
100
AcDbText
  0
TEXT
  5
C07B
330
C055
100
AcDbEntity
  8
6
  6
Continuous
100
AcDbText
 10
27.979511
 20
10.04873699999998
 30
0.0
 40
1.399999999999999
  1
6
100
AcDbText
  0
TEXT
  5
C07C
330
C055
100
AcDbEntity
  8
5
  6
PHANTOM
100
AcDbText
 10
25.97951099999999
 20
10.04873699999998
 30
0.0
 40
1.399999999999999
  1
5
100
AcDbText
  0
LINE
  5
C07D
330
C055
100
AcDbEntity
  8
4
  6
CENTER
100
AcDbLine
 10
317.061649
 20
83.815421
 30
0.0
 11
333.361649
 21
83.815421
 31
0.0
  0
LINE
  5
C07E
330
C055
100
AcDbEntity
  8
4
  6
CENTER
100
AcDbLine
 10
325.211649
 20
91.965421
 30
0.0
 11
325.211649
 21
75.66542099999998
 31
0.0
  0
LINE
  5
C07F
330
C055
100
AcDbEntity
  8
4
  6
CENTER
100
AcDbLine
 10
240.864533
 20
78.0
 30
0.0
 11
425.6521629999999
 21
78.0
 31
0.0
  0
LINE
  5
C080
330
C055
100
AcDbEntity
  8
4
  6
CENTER
100
AcDbLine
 10
241.8500089999998
 20
63.000028
 30
0.0
 11
258.150009
 21
63.000028
 31
0.0
  0
LINE
  5
C081
330
C055
100
AcDbEntity
  8
4
  6
CENTER
100
AcDbLine
 10
250.0000089999999
 20
71.15002800000002
 30
0.0
 11
250.0000089999999
 21
41.079019
 31
0.0
  0
CIRCLE
  5
C082
330
C055
100
AcDbEntity
  8
1
  6
Continuous
100
AcDbCircle
 10
376.1764429999999
 20
80.10084
 30
0.0
 40
3.6
  0
CIRCLE
  5
C083
330
C055
100
AcDbEntity
  8
5
  6
PHANTOM
100
AcDbCircle
 10
276.922191
 20
73.50750500000002
 30
0.0
 40
3.6
  0
LINE
  5
C084
330
C055
100
AcDbEntity
  8
1
  6
Continuous
100
AcDbLine
 10
195.0
 20
179.592982
 30
0.0
 11
361.1428319999998
 21
179.592982
 31
0.0
  0
LINE
  5
C085
330
C055
100
AcDbEntity
  8
1
  6
Continuous
100
AcDbLine
 10
195.0
 20
183.592982
 30
0.0
 11
361.1428319999998
 21
183.592982
 31
0.0
  0
LINE
  5
C086
330
C055
100
AcDbEntity
  8
1
  6
Continuous
100
AcDbLine
 10
195.0
 20
179.592982
 30
0.0
 11
195.0
 21
183.592982
 31
0.0
  0
ARC
  5
C087
330
C055
100
AcDbEntity
  8
1
  6
Continuous
100
AcDbCircle
 10
405.0
 20
171.7412379999998
 30
0.0
 40
6.748407
100
AcDbArc
 50
189.7966669999999
 51
350.2033329999999
  0
ARC
  5
C088
330
C055
100
AcDbEntity
  8
1
  6
Continuous
100
AcDbCircle
 10
405.0
 20
189.7929819999999
 30
0.0
 40
5.299999999999998
100
AcDbArc
 50
31.890792
 51
148.1092079999999
  0
ARC
  5
C089
330
C055
100
AcDbEntity
  8
1
  6
Continuous
100
AcDbCircle
 10
325.211649
 20
175.7412379999999
 30
0.0
 40
6.748407
100
AcDbArc
 50
189.7966669999999
 51
350.2033329999999
  0
ARC
  5
C08A
330
C055
100
AcDbEntity
  8
1
  6
Continuous
100
AcDbCircle
 10
325.211649
 20
182.5929819999998
 30
0.0
 40
7.5
100
AcDbArc
 50
53.130102
 51
126.869898
  0
LINE
  5
C08B
330
C055
100
AcDbEntity
  8
1
  6
Continuous
100
AcDbLine
 10
195.0
 20
183.592982
 30
0.0
 11
195.0
 21
185.092982
 31
0.0
  0
LINE
  5
C08C
330
C055
100
AcDbEntity
  8
1
  6
Continuous
100
AcDbLine
 10
215.0
 20
183.592982
 30
0.0
 11
215.0
 21
185.092982
 31
0.0
  0
LINE
  5
C08D
330
C055
100
AcDbEntity
  8
1
  6
Continuous
100
AcDbLine
 10
415.0
 20
173.7929819999999
 30
0.0
 11
395.0
 21
173.7929819999999
 31
0.0
  0
LINE
  5
C08E
330
C055
100
AcDbEntity
  8
1
  6
Continuous
100
AcDbLine
 10
415.0
 20
174.592982
 30
0.0
 11
415.0
 21
173.7929819999999
 31
0.0
  0
LINE
  5
C08F
330
C055
100
AcDbEntity
  8
1
  6
Continuous
100
AcDbLine
 10
395.0
 20
174.592982
 30
0.0
 11
395.0
 21
173.7929819999999
 31
0.0
  0
LINE
  5
C090
330
C055
100
AcDbEntity
  8
1
  6
Continuous
100
AcDbLine
 10
395.0
 20
188.592982
 30
0.0
 11
395.0
 21
189.3929819999999
 31
0.0
  0
LINE
  5
C091
330
C055
100
AcDbEntity
  8
1
  6
Continuous
100
AcDbLine
 10
415.0
 20
189.3929819999999
 30
0.0
 11
395.0
 21
189.3929819999999
 31
0.0
  0
LINE
  5
C092
330
C055
100
AcDbEntity
  8
1
  6
Continuous
100
AcDbLine
 10
415.0
 20
188.592982
 30
0.0
 11
415.0
 21
189.3929819999999
 31
0.0
  0
LINE
  5
C093
330
C055
100
AcDbEntity
  8
1
  6
Continuous
100
AcDbLine
 10
409.0
 20
173.592982
 30
0.0
 11
409.0
 21
173.7929819999999
 31
0.0
  0
LINE
  5
C094
330
C055
100
AcDbEntity
  8
1
  6
Continuous
100
AcDbLine
 10
409.0
 20
189.3929819999999
 30
0.0
 11
409.0
 21
189.592982
 31
0.0
  0
LINE
  5
C095
330
C055
100
AcDbEntity
  8
1
  6
Continuous
100
AcDbLine
 10
401.0
 20
173.592982
 30
0.0
 11
401.0
 21
173.7929819999999
 31
0.0
  0
LINE
  5
C096
330
C055
100
AcDbEntity
  8
1
  6
Continuous
100
AcDbLine
 10
401.0
 20
189.3929819999999
 30
0.0
 11
401.0
 21
189.592982
 31
0.0
  0
LINE
  5
C097
330
C055
100
AcDbEntity
  8
1
  6
Continuous
100
AcDbLine
 10
316.711649
 20
178.092982
 30
0.0
 11
333.711649
 21
178.092982
 31
0.0
  0
LINE
  5
C098
330
C055
100
AcDbEntity
  8
1
  6
Continuous
100
AcDbLine
 10
333.711649
 20
185.092982
 30
0.0
 11
316.711649
 21
185.092982
 31
0.0
  0
LINE
  5
C099
330
C055
100
AcDbEntity
  8
1
  6
Continuous
100
AcDbLine
 10
361.8432869999999
 20
174.592982
 30
0.0
 11
361.8432869999999
 21
188.592982
 31
0.0
  0
LINE
  5
C09A
330
C055
100
AcDbEntity
  8
1
  6
Continuous
100
AcDbLine
 10
372.3018799999999
 20
172.442982
 30
0.0
 11
372.3018799999999
 21
174.442982
 31
0.0
  0
LINE
  5
C09B
330
C055
100
AcDbEntity
  8
1
  6
Continuous
100
AcDbLine
 10
372.3018799999999
 20
188.742982
 30
0.0
 11
372.3018799999999
 21
190.742982
 31
0.0
  0
LINE
  5
C09C
330
C055
100
AcDbEntity
  8
1
  6
Continuous
100
AcDbLine
 10
380.2807149999999
 20
178.5929819999998
 30
0.0
 11
380.2807149999999
 21
184.592982
 31
0.0
  0
LINE
  5
C09D
330
C055
100
AcDbEntity
  8
1
  6
Continuous
100
AcDbLine
 10
380.2807149999999
 20
184.592982
 30
0.0
 11
374.2965889999999
 21
181.592982
 31
0.0
  0
LINE
  5
C09E
330
C055
100
AcDbEntity
  8
1
  6
Continuous
100
AcDbLine
 10
374.2965889999999
 20
181.592982
 30
0.0
 11
380.2807149999999
 21
178.5929819999998
 31
0.0
  0
LINE
  5
C09F
330
C055
100
AcDbEntity
  8
1
  6
Continuous
100
AcDbLine
 10
361.1428319999998
 20
179.592982
 30
0.0
 11
361.1428319999998
 21
183.592982
 31
0.0
  0
ARC
  5
C0A0
330
C055
100
AcDbEntity
  8
1
  6
Continuous
100
AcDbCircle
 10
348.2505520000001
 20
173.3572669999998
 30
0.0
 40
3.714285999999998
100
AcDbArc
 50
194.250033
 51
345.7499669999998
  0
ARC
  5
C0A1
330
C055
100
AcDbEntity
  8
1
  6
Continuous
100
AcDbCircle
 10
376.1764429999999
 20
173.3572669999998
 30
0.0
 40
3.714285999999998
100
AcDbArc
 50
194.250033
 51
345.7499669999998
  0
ARC
  5
C0A2
330
C055
100
AcDbEntity
  8
1
  6
Continuous
100
AcDbCircle
 10
348.2505520000001
 20
188.7388149999999
 30
0.0
 40
3.204166999999998
100
AcDbArc
 50
38.717988
 51
141.282012
  0
ARC
  5
C0A3
330
C055
100
AcDbEntity
  8
1
  6
Continuous
100
AcDbCircle
 10
376.1764429999999
 20
188.7388149999999
 30
0.0
 40
3.204166999999998
100
AcDbArc
 50
38.717988
 51
141.282012
  0
LINE
  5
C0A4
330
C055
100
AcDbEntity
  8
1
  6
Continuous
100
AcDbLine
 10
344.750552
 20
177.092982
 30
0.0
 11
351.750552
 21
177.092982
 31
0.0
  0
LINE
  5
C0A5
330
C055
100
AcDbEntity
  8
1
  6
Continuous
100
AcDbLine
 10
344.750552
 20
186.092982
 30
0.0
 11
351.750552
 21
186.092982
 31
0.0
  0
LINE
  5
C0A6
330
C055
100
AcDbEntity
  8
1
  6
Continuous
100
AcDbLine
 10
344.250552
 20
179.592982
 30
0.0
 11
344.250552
 21
177.5929819999998
 31
0.0
  0
LINE
  5
C0A7
330
C055
100
AcDbEntity
  8
1
  6
Continuous
100
AcDbLine
 10
344.250552
 20
185.592982
 30
0.0
 11
344.250552
 21
183.592982
 31
0.0
  0
LINE
  5
C0A8
330
C055
100
AcDbEntity
  8
1
  6
Continuous
100
AcDbLine
 10
352.2505520000001
 20
179.592982
 30
0.0
 11
352.2505520000001
 21
177.5929819999998
 31
0.0
  0
LINE
  5
C0A9
330
C055
100
AcDbEntity
  8
1
  6
Continuous
100
AcDbLine
 10
352.2505520000001
 20
185.592982
 30
0.0
 11
352.2505520000001
 21
183.592982
 31
0.0
  0
LINE
  5
C0AA
330
C055
100
AcDbEntity
  8
1
  6
Continuous
100
AcDbLine
 10
344.250552
 20
177.5929819999998
 30
0.0
 11
344.750552
 21
177.092982
 31
0.0
  0
LINE
  5
C0AB
330
C055
100
AcDbEntity
  8
1
  6
Continuous
100
AcDbLine
 10
351.750552
 20
177.092982
 30
0.0
 11
352.2505520000001
 21
177.5929819999998
 31
0.0
  0
LINE
  5
C0AC
330
C055
100
AcDbEntity
  8
1
  6
Continuous
100
AcDbLine
 10
344.750552
 20
186.092982
 30
0.0
 11
344.250552
 21
185.592982
 31
0.0
  0
LINE
  5
C0AD
330
C055
100
AcDbEntity
  8
1
  6
Continuous
100
AcDbLine
 10
351.750552
 20
186.092982
 30
0.0
 11
352.2505520000001
 21
185.592982
 31
0.0
  0
LINE
  5
C0AE
330
C055
100
AcDbEntity
  8
1
  6
Continuous
100
AcDbLine
 10
344.250552
 20
177.5929819999998
 30
0.0
 11
352.2505520000001
 21
177.5929819999998
 31
0.0
  0
LINE
  5
C0AF
330
C055
100
AcDbEntity
  8
1
  6
Continuous
100
AcDbLine
 10
344.250552
 20
185.592982
 30
0.0
 11
352.2505520000001
 21
185.592982
 31
0.0
  0
LINE
  5
C0B0
330
C055
100
AcDbEntity
  8
1
  6
Continuous
100
AcDbLine
 10
346.2505520000001
 20
174.592982
 30
0.0
 11
346.2505520000001
 21
174.442982
 31
0.0
  0
LINE
  5
C0B1
330
C055
100
AcDbEntity
  8
1
  6
Continuous
100
AcDbLine
 10
346.2505520000001
 20
177.092982
 30
0.0
 11
346.2505520000001
 21
176.592982
 31
0.0
  0
LINE
  5
C0B2
330
C055
100
AcDbEntity
  8
1
  6
Continuous
100
AcDbLine
 10
350.2505520000001
 20
174.592982
 30
0.0
 11
350.2505520000001
 21
174.442982
 31
0.0
  0
LINE
  5
C0B3
330
C055
100
AcDbEntity
  8
1
  6
Continuous
100
AcDbLine
 10
350.2505520000001
 20
177.092982
 30
0.0
 11
350.2505520000001
 21
176.592982
 31
0.0
  0
LINE
  5
C0B4
330
C055
100
AcDbEntity
  8
1
  6
Continuous
100
AcDbLine
 10
346.2505520000001
 20
186.592982
 30
0.0
 11
346.2505520000001
 21
186.092982
 31
0.0
  0
LINE
  5
C0B5
330
C055
100
AcDbEntity
  8
1
  6
Continuous
100
AcDbLine
 10
346.2505520000001
 20
188.742982
 30
0.0
 11
346.2505520000001
 21
188.592982
 31
0.0
  0
LINE
  5
C0B6
330
C055
100
AcDbEntity
  8
1
  6
Continuous
100
AcDbLine
 10
350.2505520000001
 20
186.592982
 30
0.0
 11
350.2505520000001
 21
186.092982
 31
0.0
  0
LINE
  5
C0B7
330
C055
100
AcDbEntity
  8
1
  6
Continuous
100
AcDbLine
 10
350.2505520000001
 20
188.742982
 30
0.0
 11
350.2505520000001
 21
188.592982
 31
0.0
  0
LINE
  5
C0B8
330
C055
100
AcDbEntity
  8
1
  6
Continuous
100
AcDbLine
 10
212.0
 20
179.092982
 30
0.0
 11
198.0
 21
179.092982
 31
0.0
  0
LINE
  5
C0B9
330
C055
100
AcDbEntity
  8
1
  6
Continuous
100
AcDbLine
 10
211.0
 20
176.092982
 30
0.0
 11
199.0
 21
176.092982
 31
0.0
  0
LINE
  5
C0BA
330
C055
100
AcDbEntity
  8
1
  6
Continuous
100
AcDbLine
 10
198.0
 20
177.092982
 30
0.0
 11
198.0
 21
179.092982
 31
0.0
  0
LINE
  5
C0BB
330
C055
100
AcDbEntity
  8
1
  6
Continuous
100
AcDbLine
 10
212.0
 20
177.092982
 30
0.0
 11
212.0
 21
179.092982
 31
0.0
  0
LINE
  5
C0BC
330
C055
100
AcDbEntity
  8
1
  6
Continuous
100
AcDbLine
 10
198.0
 20
177.092982
 30
0.0
 11
199.0
 21
176.092982
 31
0.0
  0
LINE
  5
C0BD
330
C055
100
AcDbEntity
  8
1
  6
Continuous
100
AcDbLine
 10
212.0
 20
177.092982
 30
0.0
 11
211.0
 21
176.092982
 31
0.0
  0
LINE
  5
C0BE
330
C055
100
AcDbEntity
  8
1
  6
Continuous
100
AcDbLine
 10
212.0
 20
177.092982
 30
0.0
 11
198.0
 21
177.092982
 31
0.0
  0
LINE
  5
C0BF
330
C055
100
AcDbEntity
  8
1
  6
Continuous
100
AcDbLine
 10
200.0
 20
179.092982
 30
0.0
 11
200.0
 21
179.592982
 31
0.0
  0
LINE
  5
C0C0
330
C055
100
AcDbEntity
  8
1
  6
Continuous
100
AcDbLine
 10
210.0
 20
179.092982
 30
0.0
 11
210.0
 21
179.592982
 31
0.0
  0
ARC
  5
C0C1
330
C055
100
AcDbEntity
  8
1
  6
Continuous
100
AcDbCircle
 10
205.0
 20
184.030482
 30
0.0
 40
6.0625
100
AcDbArc
 50
42.07502199999999
 51
137.924978
  0
CIRCLE
  5
C0C2
330
C055
100
AcDbEntity
  8
1
  6
Continuous
100
AcDbCircle
 10
205.0
 20
78.0
 30
0.0
 40
6.0
  0
LINE
  5
C0C3
330
C055
100
AcDbEntity
  8
4
  6
CENTER
100
AcDbLine
 10
427.5
 20
51.0
 30
0.0
 11
417.4999999999998
 21
51.0
 31
0.0
  0
LINE
  5
C0C4
330
C055
100
AcDbEntity
  8
1
  6
Continuous
100
AcDbLine
 10
316.711649
 20
176.592982
 30
0.0
 11
316.711649
 21
179.592982
 31
0.0
  0
LINE
  5
C0C5
330
C055
100
AcDbEntity
  8
1
  6
Continuous
100
AcDbLine
 10
316.711649
 20
183.592982
 30
0.0
 11
316.711649
 21
186.592982
 31
0.0
  0
LINE
  5
C0C6
330
C055
100
AcDbEntity
  8
1
  6
Continuous
100
AcDbLine
 10
333.711649
 20
176.592982
 30
0.0
 11
333.711649
 21
179.592982
 31
0.0
  0
LINE
  5
C0C7
330
C055
100
AcDbEntity
  8
1
  6
Continuous
100
AcDbLine
 10
333.711649
 20
183.592982
 30
0.0
 11
333.711649
 21
186.592982
 31
0.0
  0
LINE
  5
C0C8
330
C055
100
AcDbEntity
  8
1
  6
Continuous
100
AcDbLine
 10
401.0
 20
176.592982
 30
0.0
 11
401.0
 21
181.092982
 31
0.0
  0
LINE
  5
C0C9
330
C055
100
AcDbEntity
  8
1
  6
Continuous
100
AcDbLine
 10
401.0
 20
182.092982
 30
0.0
 11
401.0
 21
186.592982
 31
0.0
  0
LINE
  5
C0CA
330
C055
100
AcDbEntity
  8
1
  6
Continuous
100
AcDbLine
 10
409.0
 20
176.592982
 30
0.0
 11
409.0
 21
181.092982
 31
0.0
  0
LINE
  5
C0CB
330
C055
100
AcDbEntity
  8
1
  6
Continuous
100
AcDbLine
 10
409.0
 20
182.092982
 30
0.0
 11
409.0
 21
186.592982
 31
0.0
  0
LINE
  5
C0CC
330
C055
100
AcDbEntity
  8
4
  6
CENTER
100
AcDbLine
 10
427.5
 20
63.0
 30
0.0
 11
417.4999999999998
 21
63.0
 31
0.0
  0
LINE
  5
C0CD
330
C055
100
AcDbEntity
  8
4
  6
CENTER
100
AcDbLine
 10
427.5
 20
93.0
 30
0.0
 11
417.4999999999998
 21
93.0
 31
0.0
  0
LINE
  5
C0CE
330
C055
100
AcDbEntity
  8
4
  6
CENTER
100
AcDbLine
 10
235.0000089999999
 20
40.500028
 30
0.0
 11
235.0000089999999
 21
50.500028
 31
0.0
  0
LINE
  5
C0CF
330
C055
100
AcDbEntity
  8
4
  6
CENTER
100
AcDbLine
 10
265.0000089999999
 20
40.500028
 30
0.0
 11
265.0000089999999
 21
50.500028
 31
0.0
  0
ARC
  5
C0D0
330
C055
100
AcDbEntity
  8
5
  6
PHANTOM
100
AcDbCircle
 10
299.35115
 20
-228.8205669999999
 30
0.0
 40
331.0
100
AcDbArc
 50
89.78325400000001
 51
107.093316
  0
ARC
  5
C0D1
330
C055
100
AcDbEntity
  8
5
  6
PHANTOM
100
AcDbCircle
 10
299.35115
 20
-228.8205669999999
 30
0.0
 40
311.0
100
AcDbArc
 50
95.89159399999999
 51
107.093316
  0
ARC
  5
C0D2
330
C055
100
AcDbEntity
  8
5
  6
PHANTOM
100
AcDbCircle
 10
205.0
 20
78.0
 30
0.0
 40
10.0
100
AcDbArc
 50
107.093316
 51
287.093316
  0
LINE
  5
C0D3
330
C055
100
AcDbEntity
  8
5
  6
PHANTOM
100
AcDbLine
 10
350.562629
 20
101.988071
 30
0.0
 11
300.441942
 21
102.1776749999998
 31
0.0
  0
CIRCLE
  5
C0D4
330
C055
100
AcDbEntity
  8
5
  6
PHANTOM
100
AcDbCircle
 10
324.52502
 20
92.08649900000001
 30
0.0
 40
6.65
  0
LINE
  5
C0D5
330
C055
100
AcDbEntity
  8
5
  6
PHANTOM
100
AcDbLine
 10
350.4869709999999
 20
81.98824100000001
 30
0.0
 11
348.9832
 21
81.99393
 31
0.0
  0
LINE
  5
C0D6
330
C055
100
AcDbEntity
  8
5
  6
PHANTOM
100
AcDbLine
 10
294.624618
 20
69.681978
 30
0.0
 11
295.7153599999998
 21
66.88729000000001
 31
0.0
  0
LINE
  5
C0D7
330
C055
100
AcDbEntity
  8
5
  6
PHANTOM
100
AcDbLine
 10
262.2552719999999
 20
57.0485
 30
0.0
 11
262.9514439999999
 21
57.32020999999999
 31
0.0
  0
LINE
  5
C0D8
330
C055
100
AcDbEntity
  8
5
  6
PHANTOM
100
AcDbLine
 10
306.469462
 20
87.293853
 30
0.0
 11
310.7196359999999
 21
88.95265899999998
 31
0.0
  0
LINE
  5
C0D9
330
C055
100
AcDbEntity
  8
5
  6
PHANTOM
100
AcDbLine
 10
312.2466799999999
 20
85.04008499999997
 30
0.0
 11
307.996506
 21
83.38127900000001
 31
0.0
  0
ARC
  5
C0DA
330
C055
100
AcDbEntity
  8
5
  6
PHANTOM
100
AcDbCircle
 10
311.483158
 20
86.99637199999996
 30
0.0
 40
2.1
100
AcDbArc
 50
291.3202779999998
 51
111.320277
  0
ARC
  5
C0DB
330
C055
100
AcDbEntity
  8
5
  6
PHANTOM
100
AcDbCircle
 10
324.525043
 20
92.086524
 30
0.0
 40
9.999988999999999
100
AcDbArc
 50
291.3202779999998
 51
111.320277
  0
LINE
  5
C0DC
330
C055
100
AcDbEntity
  8
5
  6
PHANTOM
100
AcDbLine
 10
294.624618
 20
69.681978
 30
0.0
 11
328.1608279999999
 21
82.77087199999998
 31
0.0
  0
LINE
  5
C0DD
330
C055
100
AcDbEntity
  8
5
  6
PHANTOM
100
AcDbLine
 10
246.3642
 20
72.31565399999998
 30
0.0
 11
320.8892109999998
 21
101.402125
 31
0.0
  0
LINE
  5
C0DE
330
C055
100
AcDbEntity
  8
5
  6
PHANTOM
100
AcDbLine
 10
262.9514439999999
 20
57.32020999999999
 30
0.0
 11
264.042187
 21
54.52552199999999
 31
0.0
  0
CIRCLE
  5
C0DF
330
C055
100
AcDbEntity
  8
5
  6
PHANTOM
100
AcDbCircle
 10
250.0000089999999
 20
63.000028
 30
0.0
 40
6.65
  0
LINE
  5
C0E0
330
C055
100
AcDbEntity
  8
5
  6
PHANTOM
100
AcDbLine
 10
264.042187
 20
54.52552199999999
 30
0.0
 11
276.990923
 21
59.57930300000001
 31
0.0
  0
LINE
  5
C0E1
330
C055
100
AcDbEntity
  8
5
  6
PHANTOM
100
AcDbLine
 10
286.306549
 20
63.21511199999999
 30
0.0
 11
295.7153599999998
 21
66.88729000000001
 31
0.0
  0
LINE
  5
C0E2
330
C055
100
AcDbEntity
  8
1
  6
Continuous
100
AcDbLine
 10
228.000006
 20
68.00001400000001
 30
0.0
 11
182.000006
 21
67.999987
 31
0.0
  0
CIRCLE
  5
C0E3
330
C055
100
AcDbEntity
  8
1
  6
Continuous
100
AcDbCircle
 10
182.0
 20
77.999987
 30
0.0
 40
4.299999999999998
  0
CIRCLE
  5
C0E4
330
C055
100
AcDbEntity
  8
1
  6
Continuous
100
AcDbCircle
 10
182.0
 20
77.999987
 30
0.0
 40
2.149999999999999
  0
ARC
  5
C0E5
330
C055
100
AcDbEntity
  8
1
  6
Continuous
100
AcDbCircle
 10
182.0
 20
77.999987
 30
0.0
 40
10.0
100
AcDbArc
 50
90.00003499999996
 51
270.000035
  0
LINE
  5
C0E6
330
C055
100
AcDbEntity
  8
4
  6
CENTER
100
AcDbLine
 10
227.999996
 20
83.80001400000002
 30
0.0
 11
228.000003
 21
72.20001399999998
 31
0.0
  0
LINE
  5
C0E7
330
C055
100
AcDbEntity
  8
4
  6
CENTER
100
AcDbLine
 10
181.999996
 20
83.79998699999999
 30
0.0
 11
182.0000029999999
 21
72.19998699999996
 31
0.0
  0
LINE
  5
C0E8
330
C055
100
AcDbEntity
  8
4
  6
CENTER
100
AcDbLine
 10
169.7546159999999
 20
77.99997900000002
 30
0.0
 11
240.864533
 21
78.000022
 31
0.0
  0
LINE
  5
C0E9
330
C055
100
AcDbEntity
  8
4
  6
CENTER
100
AcDbLine
 10
204.9999909999999
 20
92.117806
 30
0.0
 11
205.000009
 21
63.37800999999998
 31
0.0
  0
LINE
  5
C0EA
330
C055
100
AcDbEntity
  8
1
  6
Continuous
100
AcDbLine
 10
190.000006
 20
67.99999099999999
 30
0.0
 11
189.9999939999999
 21
87.99999099999999
 31
0.0
  0
LINE
  5
C0EB
330
C055
100
AcDbEntity
  8
1
  6
Continuous
100
AcDbLine
 10
220.000006
 20
68.00001
 30
0.0
 11
220.0000039999999
 21
70.95375899999997
 31
0.0
  0
LINE
  5
C0EC
330
C055
100
AcDbEntity
  8
1
  6
Continuous
100
AcDbLine
 10
203.8570889999999
 20
88.0
 30
0.0
 11
181.9999939999999
 21
87.99998700000001
 31
0.0
  0
ARC
  5
C0ED
330
C055
100
AcDbEntity
  8
1
  6
Continuous
100
AcDbCircle
 10
228.0
 20
78.00001399999998
 30
0.0
 40
10.0
100
AcDbArc
 50
270.000035
 51
334.520404
  0
LINE
  5
C0EE
330
C055
100
AcDbEntity
  8
1
  6
Continuous
100
AcDbLine
 10
238.0
 20
196.592982
 30
0.0
 11
223.0
 21
196.592982
 31
0.0
  0
LINE
  5
C0EF
330
C055
100
AcDbEntity
  8
1
  6
Continuous
100
AcDbLine
 10
238.0
 20
193.592982
 30
0.0
 11
238.0
 21
196.592982
 31
0.0
  0
LINE
  5
C0F0
330
C055
100
AcDbEntity
  8
1
  6
Continuous
100
AcDbLine
 10
238.0
 20
193.592982
 30
0.0
 11
223.0
 21
193.592982
 31
0.0
  0
LINE
  5
C0F1
330
C055
100
AcDbEntity
  8
1
  6
Continuous
100
AcDbLine
 10
220.0
 20
188.092982
 30
0.0
 11
220.0
 21
190.592982
 31
0.0
  0
ARC
  5
C0F2
330
C055
100
AcDbEntity
  8
1
  6
Continuous
100
AcDbCircle
 10
217.0
 20
188.092982
 30
0.0
 40
3.0
100
AcDbArc
 50
269.999999
 51
359.999995
  0
LINE
  5
C0F3
330
C055
100
AcDbEntity
  8
1
  6
Continuous
100
AcDbLine
 10
217.0
 20
188.092982
 30
0.0
 11
217.0
 21
190.592982
 31
0.0
  0
LINE
  5
C0F4
330
C055
100
AcDbEntity
  8
4
  6
CENTER
100
AcDbLine
 10
228.0
 20
191.469278
 30
0.0
 11
228.0
 21
199.0664909999999
 31
0.0
  0
LINE
  5
C0F5
330
C055
100
AcDbEntity
  8
1
  6
Continuous
100
AcDbLine
 10
217.0
 20
185.092982
 30
0.0
 11
193.0
 21
185.092982
 31
0.0
  0
LINE
  5
C0F6
330
C055
100
AcDbEntity
  8
1
  6
Continuous
100
AcDbLine
 10
217.0
 20
188.092982
 30
0.0
 11
193.0
 21
188.092982
 31
0.0
  0
LINE
  5
C0F7
330
C055
100
AcDbEntity
  8
4
  6
CENTER
100
AcDbLine
 10
205.0
 20
170.4100239999999
 30
0.0
 11
205.0
 21
196.592982
 31
0.0
  0
LINE
  5
C0F8
330
C055
100
AcDbEntity
  8
1
  6
Continuous
100
AcDbLine
 10
193.0
 20
188.092982
 30
0.0
 11
193.0
 21
190.592982
 31
0.0
  0
LINE
  5
C0F9
330
C055
100
AcDbEntity
  8
1
  6
Continuous
100
AcDbLine
 10
187.0
 20
196.592982
 30
0.0
 11
172.0
 21
196.592982
 31
0.0
  0
LINE
  5
C0FA
330
C055
100
AcDbEntity
  8
1
  6
Continuous
100
AcDbLine
 10
187.0
 20
193.592982
 30
0.0
 11
172.0
 21
193.592982
 31
0.0
  0
LINE
  5
C0FB
330
C055
100
AcDbEntity
  8
1
  6
Continuous
100
AcDbLine
 10
190.0
 20
188.092982
 30
0.0
 11
190.0
 21
190.592982
 31
0.0
  0
ARC
  5
C0FC
330
C055
100
AcDbEntity
  8
1
  6
Continuous
100
AcDbCircle
 10
193.0
 20
188.092982
 30
0.0
 40
3.0
100
AcDbArc
 50
179.9999949999999
 51
269.9999959999999
  0
LINE
  5
C0FD
330
C055
100
AcDbEntity
  8
1
  6
Continuous
100
AcDbLine
 10
172.0
 20
193.592982
 30
0.0
 11
172.0
 21
196.592982
 31
0.0
  0
LINE
  5
C0FE
330
C055
100
AcDbEntity
  8
4
  6
CENTER
100
AcDbLine
 10
182.0
 20
191.469278
 30
0.0
 11
182.0
 21
199.0664909999999
 31
0.0
  0
ARC
  5
C0FF
330
C055
100
AcDbEntity
  8
1
  6
Continuous
100
AcDbCircle
 10
187.0
 20
190.592982
 30
0.0
 40
3.0
100
AcDbArc
 50
0.0
 51
90.0
  0
ARC
  5
C100
330
C055
100
AcDbEntity
  8
1
  6
Continuous
100
AcDbCircle
 10
223.0
 20
190.592982
 30
0.0
 40
3.0
100
AcDbArc
 50
90.0
 51
180.0
  0
ARC
  5
C101
330
C055
100
AcDbEntity
  8
1
  6
Continuous
100
AcDbCircle
 10
187.0
 20
190.592982
 30
0.0
 40
6.0
100
AcDbArc
 50
0.0
 51
90.0
  0
ARC
  5
C102
330
C055
100
AcDbEntity
  8
1
  6
Continuous
100
AcDbCircle
 10
223.0
 20
190.592982
 30
0.0
 40
6.0
100
AcDbArc
 50
90.0
 51
180.0
  0
LINE
  5
C103
330
C055
100
AcDbEntity
  8
1
  6
Continuous
100
AcDbLine
 10
395.0
 20
170.592982
 30
0.0
 11
419.0
 21
170.592982
 31
0.0
  0
LINE
  5
C104
330
C055
100
AcDbEntity
  8
1
  6
Continuous
100
AcDbLine
 10
395.0
 20
192.592982
 30
0.0
 11
419.0
 21
192.592982
 31
0.0
  0
LINE
  5
C105
330
C055
100
AcDbEntity
  8
4
  6
CENTER
100
AcDbLine
 10
405.0
 20
162.838473
 30
0.0
 11
405.0
 21
198.818982
 31
0.0
  0
LINE
  5
C106
330
C055
100
AcDbEntity
  8
4
  6
CENTER
100
AcDbLine
 10
191.0255989999998
 20
181.592982
 30
0.0
 11
430.6550089999998
 21
181.592982
 31
0.0
  0
LINE
  5
C107
330
C055
100
AcDbEntity
  8
1
  6
Continuous
100
AcDbLine
 10
420.0
 20
173.592982
 30
0.0
 11
420.0
 21
189.592982
 31
0.0
  0
LINE
  5
C108
330
C055
100
AcDbEntity
  8
1
  6
Continuous
100
AcDbLine
 10
395.0
 20
189.592982
 30
0.0
 11
395.0
 21
192.592982
 31
0.0
  0
LINE
  5
C109
330
C055
100
AcDbEntity
  8
1
  6
Continuous
100
AcDbLine
 10
395.0
 20
170.592982
 30
0.0
 11
395.0
 21
173.592982
 31
0.0
  0
LINE
  5
C10A
330
C055
100
AcDbEntity
  8
1
  6
Continuous
100
AcDbLine
 10
423.0
 20
189.592982
 30
0.0
 11
420.0
 21
189.592982
 31
0.0
  0
LINE
  5
C10B
330
C055
100
AcDbEntity
  8
1
  6
Continuous
100
AcDbLine
 10
419.0
 20
173.592982
 30
0.0
 11
395.0
 21
173.592982
 31
0.0
  0
LINE
  5
C10C
330
C055
100
AcDbEntity
  8
1
  6
Continuous
100
AcDbLine
 10
423.0
 20
41.0
 30
0.0
 11
423.0
 21
115.0
 31
0.0
  0
LINE
  5
C10D
330
C055
100
AcDbEntity
  8
1
  6
Continuous
100
AcDbLine
 10
420.0
 20
93.0
 30
0.0
 11
420.0
 21
115.0
 31
0.0
  0
ARC
  5
C10E
330
C055
100
AcDbEntity
  8
1
  6
Continuous
100
AcDbCircle
 10
405.0
 20
78.0
 30
0.0
 40
10.0
100
AcDbArc
 50
106.8744939999999
 51
253.125506
  0
LINE
  5
C10F
330
C055
100
AcDbEntity
  8
1
  6
Continuous
100
AcDbLine
 10
420.0
 20
41.0
 30
0.0
 11
420.0
 21
63.0
 31
0.0
  0
LINE
  5
C110
330
C055
100
AcDbEntity
  8
4
  6
CENTER
100
AcDbLine
 10
427.5
 20
105.0
 30
0.0
 11
417.4999999999998
 21
105.0
 31
0.0
  0
LINE
  5
C111
330
C055
100
AcDbEntity
  8
1
  6
Continuous
100
AcDbLine
 10
420.0
 20
41.0
 30
0.0
 11
423.0
 21
41.0
 31
0.0
  0
LINE
  5
C112
330
C055
100
AcDbEntity
  8
1
  6
Continuous
100
AcDbLine
 10
420.0
 20
115.0
 30
0.0
 11
423.0
 21
115.0
 31
0.0
  0
LINE
  5
C113
330
C055
100
AcDbEntity
  8
1
  6
Continuous
100
AcDbLine
 10
423.0
 20
93.0
 30
0.0
 11
420.0
 21
93.0
 31
0.0
  0
LINE
  5
C114
330
C055
100
AcDbEntity
  8
1
  6
Continuous
100
AcDbLine
 10
423.0
 20
63.0
 30
0.0
 11
420.0
 21
63.0
 31
0.0
  0
LINE
  5
C115
330
C055
100
AcDbEntity
  8
1
  6
Continuous
100
AcDbLine
 10
402.0972369999998
 20
87.569429
 30
0.0
 11
420.0
 21
93.0
 31
0.0
  0
LINE
  5
C116
330
C055
100
AcDbEntity
  8
1
  6
Continuous
100
AcDbLine
 10
402.0972369999998
 20
68.430571
 30
0.0
 11
420.0
 21
63.0
 31
0.0
  0
LINE
  5
C117
330
C055
100
AcDbEntity
  8
1
  6
Continuous
100
AcDbLine
 10
382.275423
 20
172.442982
 30
0.0
 11
343.250552
 21
172.442982
 31
0.0
  0
LINE
  5
C118
330
C055
100
AcDbEntity
  8
1
  6
Continuous
100
AcDbLine
 10
382.275423
 20
190.742982
 30
0.0
 11
343.250552
 21
190.742982
 31
0.0
  0
LINE
  5
C119
330
C055
100
AcDbEntity
  8
1
  6
Continuous
100
AcDbLine
 10
372.6435379999998
 20
174.442982
 30
0.0
 11
343.250552
 21
174.442982
 31
0.0
  0
LINE
  5
C11A
330
C055
100
AcDbEntity
  8
1
  6
Continuous
100
AcDbLine
 10
372.6435379999998
 20
188.742982
 30
0.0
 11
343.250552
 21
188.742982
 31
0.0
  0
LINE
  5
C11B
330
C055
100
AcDbEntity
  8
1
  6
Continuous
100
AcDbLine
 10
343.250552
 20
190.742982
 30
0.0
 11
343.250552
 21
188.742982
 31
0.0
  0
LINE
  5
C11C
330
C055
100
AcDbEntity
  8
1
  6
Continuous
100
AcDbLine
 10
343.250552
 20
174.442982
 30
0.0
 11
343.250552
 21
172.442982
 31
0.0
  0
LINE
  5
C11D
330
C055
100
AcDbEntity
  8
1
  6
Continuous
100
AcDbLine
 10
382.275423
 20
190.742982
 30
0.0
 11
382.275423
 21
172.442982
 31
0.0
  0
LINE
  5
C11E
330
C055
100
AcDbEntity
  8
1
  6
Continuous
100
AcDbLine
 10
372.6435379999998
 20
188.742982
 30
0.0
 11
372.6435379999998
 21
174.442982
 31
0.0
  0
LINE
  5
C11F
330
C055
100
AcDbEntity
  8
1
  6
Continuous
100
AcDbLine
 10
370.6488289999999
 20
188.742982
 30
0.0
 11
370.6488289999999
 21
174.442982
 31
0.0
  0
CIRCLE
  5
C120
330
C055
100
AcDbEntity
  8
5
  6
PHANTOM
100
AcDbCircle
 10
303.005922
 20
83.68774300000003
 30
0.0
 40
3.6
  0
LINE
  5
C121
330
C055
100
AcDbEntity
  8
5
  6
PHANTOM
100
AcDbLine
 10
285.261032
 20
71.39475299999998
 30
0.0
 11
304.8238229999999
 21
79.02992799999998
 31
0.0
  0
LINE
  5
C122
330
C055
100
AcDbEntity
  8
5
  6
PHANTOM
100
AcDbLine
 10
275.1042889999999
 20
78.16531899999998
 30
0.0
 11
301.18802
 21
88.34555700000001
 31
0.0
  0
LINE
  5
C123
330
C055
100
AcDbEntity
  8
5
  6
PHANTOM
100
AcDbLine
 10
272.2643759999999
 20
71.68960300000001
 30
0.0
 11
277.8271559999998
 21
57.436689
 31
0.0
  0
LINE
  5
C124
330
C055
100
AcDbEntity
  8
5
  6
PHANTOM
100
AcDbLine
 10
277.8271559999998
 20
57.436689
 30
0.0
 11
287.1427849999999
 21
61.072492
 31
0.0
  0
LINE
  5
C125
330
C055
100
AcDbEntity
  8
5
  6
PHANTOM
100
AcDbLine
 10
284.1250669999999
 20
68.804467
 30
0.0
 11
288.851607
 21
56.694161
 31
0.0
  0
LINE
  5
C126
330
C055
100
AcDbEntity
  8
5
  6
PHANTOM
100
AcDbLine
 10
288.851607
 20
56.694161
 30
0.0
 11
290.714733
 21
57.421321
 31
0.0
  0
LINE
  5
C127
330
C055
100
AcDbEntity
  8
5
  6
PHANTOM
100
AcDbLine
 10
289.0059109999999
 20
61.799653
 30
0.0
 11
290.714733
 21
57.421321
 31
0.0
  0
ARC
  5
C128
330
C055
100
AcDbEntity
  8
5
  6
PHANTOM
100
AcDbCircle
 10
303.005922
 20
83.68774300000003
 30
0.0
 40
5.0
100
AcDbArc
 50
291.320243
 51
111.3202419999998
  0
ARC
  5
C129
330
C055
100
AcDbEntity
  8
5
  6
PHANTOM
100
AcDbCircle
 10
276.922191
 20
73.50750500000002
 30
0.0
 40
5.0
100
AcDbArc
 50
111.3202379999999
 51
201.3202339999999
  0
ARC
  5
C12A
330
C055
100
AcDbEntity
  8
5
  6
PHANTOM
100
AcDbCircle
 10
285.988193
 20
69.531627
 30
0.0
 40
2.0
100
AcDbArc
 50
111.3202379999999
 51
201.3202339999999
  0
ARC
  5
C12B
330
C055
100
AcDbEntity
  8
5
  6
PHANTOM
100
AcDbCircle
 10
287.1427849999999
 20
61.072492
 30
0.0
 40
2.0
100
AcDbArc
 50
21.320234
 51
111.3202349999999
  0
LINE
  5
C12C
330
C055
100
AcDbEntity
  8
5
  6
PHANTOM
100
AcDbLine
 10
213.0000089999998
 20
45.00002799999999
 30
0.0
 11
287.0000089999999
 21
45.00002799999999
 31
0.0
  0
LINE
  5
C12D
330
C055
100
AcDbEntity
  8
5
  6
PHANTOM
100
AcDbLine
 10
265.0000089999999
 20
48.000028
 30
0.0
 11
287.0000089999999
 21
48.000028
 31
0.0
  0
ARC
  5
C12E
330
C055
100
AcDbEntity
  8
5
  6
PHANTOM
100
AcDbCircle
 10
250.0000089999999
 20
63.000028
 30
0.0
 40
10.0
100
AcDbArc
 50
16.874494
 51
163.1255059999998
  0
LINE
  5
C12F
330
C055
100
AcDbEntity
  8
5
  6
PHANTOM
100
AcDbLine
 10
213.0000089999998
 20
48.000028
 30
0.0
 11
235.0000089999999
 21
48.000028
 31
0.0
  0
LINE
  5
C130
330
C055
100
AcDbEntity
  8
4
  6
CENTER
100
AcDbLine
 10
223.0000089999998
 20
40.500028
 30
0.0
 11
223.0000089999998
 21
50.500028
 31
0.0
  0
LINE
  5
C131
330
C055
100
AcDbEntity
  8
4
  6
CENTER
100
AcDbLine
 10
277.0000089999999
 20
40.500028
 30
0.0
 11
277.0000089999999
 21
50.500028
 31
0.0
  0
LINE
  5
C132
330
C055
100
AcDbEntity
  8
5
  6
PHANTOM
100
AcDbLine
 10
213.0000089999998
 20
48.000028
 30
0.0
 11
213.0000089999998
 21
45.00002799999999
 31
0.0
  0
LINE
  5
C133
330
C055
100
AcDbEntity
  8
5
  6
PHANTOM
100
AcDbLine
 10
287.0000089999999
 20
48.000028
 30
0.0
 11
287.0000089999999
 21
45.00002799999999
 31
0.0
  0
LINE
  5
C134
330
C055
100
AcDbEntity
  8
5
  6
PHANTOM
100
AcDbLine
 10
265.0000089999999
 20
45.00002799999999
 30
0.0
 11
265.0000089999999
 21
48.000028
 31
0.0
  0
LINE
  5
C135
330
C055
100
AcDbEntity
  8
5
  6
PHANTOM
100
AcDbLine
 10
235.0000089999999
 20
45.00002799999999
 30
0.0
 11
235.0000089999999
 21
48.000028
 31
0.0
  0
LINE
  5
C136
330
C055
100
AcDbEntity
  8
5
  6
PHANTOM
100
AcDbLine
 10
259.5694379999998
 20
65.90278999999999
 30
0.0
 11
265.0000089999999
 21
48.000028
 31
0.0
  0
LINE
  5
C137
330
C055
100
AcDbEntity
  8
5
  6
PHANTOM
100
AcDbLine
 10
240.4305799999999
 20
65.90278999999999
 30
0.0
 11
235.0000089999999
 21
48.000028
 31
0.0
  0
ARC
  5
C138
330
C055
100
AcDbEntity
  8
1
  6
Continuous
100
AcDbCircle
 10
277.9809409999999
 20
-234.5936369999999
 30
0.0
 40
331.0
100
AcDbArc
 50
85.83133499999998
 51
103.1413969999998
  0
ARC
  5
C139
330
C055
100
AcDbEntity
  8
1
  6
Continuous
100
AcDbCircle
 10
277.9809409999999
 20
-234.5936369999999
 30
0.0
 40
311.0
100
AcDbArc
 50
87.16988699999998
 51
103.1413969999998
  0
ARC
  5
C13A
330
C055
100
AcDbEntity
  8
1
  6
Continuous
100
AcDbCircle
 10
205.0
 20
78.0
 30
0.0
 40
10.0
100
AcDbArc
 50
103.1413969999998
 51
283.1413969999999
  0
LINE
  5
C13B
330
C055
100
AcDbEntity
  8
1
  6
Continuous
100
AcDbLine
 10
324.484722
 20
73.84187699999998
 30
0.0
 11
312.8136399999998
 21
74.692531
 31
0.0
  0
ARC
  5
C13C
330
C055
100
AcDbEntity
  8
1
  6
Continuous
100
AcDbCircle
 10
303.041602
 20
75.40477199999997
 30
0.0
 40
6.0
100
AcDbArc
 50
22.86702699999999
 51
149.298777
  0
ARC
  5
C13D
330
C055
100
AcDbEntity
  8
1
  6
Continuous
100
AcDbCircle
 10
313.1771039999998
 20
79.679303
 30
0.0
 40
5.0
100
AcDbArc
 50
202.867027
 51
265.831335
  0
ARC
  5
C13E
330
C055
100
AcDbEntity
  8
1
  6
Continuous
100
AcDbCircle
 10
293.583347
 20
81.02094599999999
 30
0.0
 40
5.0
100
AcDbArc
 50
267.169887
 51
329.2987769999998
  0
CIRCLE
  5
C13F
330
C055
100
AcDbEntity
  8
1
  6
Continuous
100
AcDbCircle
 10
205.0
 20
78.0
 30
0.0
 40
7.0
  0
CIRCLE
  5
C140
330
C055
100
AcDbEntity
  8
1
  6
Continuous
100
AcDbCircle
 10
325.211649
 20
83.815421
 30
0.0
 40
6.65
  0
LINE
  5
C141
330
C055
100
AcDbEntity
  8
1
  6
Continuous
100
AcDbLine
 10
361.8432869999999
 20
91.172029
 30
0.0
 11
362.061366
 21
94.16409200000002
 31
0.0
  0
LINE
  5
C142
330
C055
100
AcDbEntity
  8
1
  6
Continuous
100
AcDbLine
 10
403.8745549999998
 20
88.10855499999998
 30
0.0
 11
395.7533839999999
 21
88.700472
 31
0.0
  0
LINE
  5
C143
330
C055
100
AcDbEntity
  8
1
  6
Continuous
100
AcDbLine
 10
343.5722819999999
 20
80.37161899999999
 30
0.0
 11
339.0219389999999
 21
80.70327399999998
 31
0.0
  0
LINE
  5
C144
330
C055
100
AcDbEntity
  8
1
  6
Continuous
100
AcDbLine
 10
339.327249
 20
84.89217399999999
 30
0.0
 11
343.8775919999998
 21
84.56051999999997
 31
0.0
  0
ARC
  5
C145
330
C055
100
AcDbEntity
  8
1
  6
Continuous
100
AcDbCircle
 10
339.174594
 20
82.797724
 30
0.0
 40
2.1
100
AcDbArc
 50
85.83133899999998
 51
265.831338
  0
ARC
  5
C146
330
C055
100
AcDbEntity
  8
1
  6
Continuous
100
AcDbCircle
 10
325.2116169999998
 20
83.815409
 30
0.0
 40
9.999988999999999
100
AcDbArc
 50
85.83133899999998
 51
265.8768499999998
  0
LINE
  5
C147
330
C055
100
AcDbEntity
  8
1
  6
Continuous
100
AcDbLine
 10
361.8432869999999
 20
91.172029
 30
0.0
 11
325.938577
 21
93.78896500000001
 31
0.0
  0
LINE
  5
C148
330
C055
100
AcDbEntity
  8
1
  6
Continuous
100
AcDbLine
 10
403.1626549999998
 20
68.10739000000001
 30
0.0
 11
324.484722
 21
73.84187699999998
 31
0.0
  0
LINE
  5
C149
330
C055
100
AcDbEntity
  8
1
  6
Continuous
100
AcDbLine
 10
395.7533839999999
 20
88.700472
 30
0.0
 11
395.9714619999999
 21
91.69253500000001
 31
0.0
  0
CIRCLE
  5
C14A
330
C055
100
AcDbEntity
  8
1
  6
Continuous
100
AcDbCircle
 10
405.0
 20
78.0
 30
0.0
 40
6.65
  0
LINE
  5
C14B
330
C055
100
AcDbEntity
  8
1
  6
Continuous
100
AcDbLine
 10
395.9714619999999
 20
91.69253500000001
 30
0.0
 11
382.10822
 21
92.70296599999999
 31
0.0
  0
LINE
  5
C14C
330
C055
100
AcDbEntity
  8
1
  6
Continuous
100
AcDbLine
 10
372.1346759999998
 20
93.42989300000001
 30
0.0
 11
362.061366
 21
94.16409200000002
 31
0.0
  0
CIRCLE
  5
C14D
330
C055
100
AcDbEntity
  8
1
  6
Continuous
100
AcDbCircle
 10
348.2505520000001
 20
82.136252
 30
0.0
 40
3.6
  0
LINE
  5
C14E
330
C055
100
AcDbEntity
  8
1
  6
Continuous
100
AcDbLine
 10
369.5584289999998
 20
85.59646500000003
 30
0.0
 11
348.6140189999999
 21
87.123024
 31
0.0
  0
LINE
  5
C14F
330
C055
100
AcDbEntity
  8
1
  6
Continuous
100
AcDbLine
 10
375.812976
 20
75.114068
 30
0.0
 11
347.887086
 21
77.14948000000003
 31
0.0
  0
LINE
  5
C150
330
C055
100
AcDbEntity
  8
1
  6
Continuous
100
AcDbLine
 10
381.1632149999999
 20
79.737373
 30
0.0
 11
382.275423
 21
94.99689700000001
 31
0.0
  0
LINE
  5
C151
330
C055
100
AcDbEntity
  8
1
  6
Continuous
100
AcDbLine
 10
382.275423
 20
94.99689700000001
 30
0.0
 11
372.3018799999999
 21
95.72383100000001
 31
0.0
  0
LINE
  5
C152
330
C055
100
AcDbEntity
  8
1
  6
Continuous
100
AcDbLine
 10
371.698525
 20
87.44578699999998
 30
0.0
 11
372.6435379999998
 21
100.4113819999999
 31
0.0
  0
LINE
  5
C153
330
C055
100
AcDbEntity
  8
1
  6
Continuous
100
AcDbLine
 10
372.6435379999998
 20
100.4113819999999
 30
0.0
 11
370.6488289999999
 21
100.5567679999999
 31
0.0
  0
LINE
  5
C154
330
C055
100
AcDbEntity
  8
1
  6
Continuous
100
AcDbLine
 10
370.3071709999999
 20
95.869218
 30
0.0
 11
370.6488289999999
 21
100.5567679999999
 31
0.0
  0
ARC
  5
C155
330
C055
100
AcDbEntity
  8
1
  6
Continuous
100
AcDbCircle
 10
348.2505520000001
 20
82.136252
 30
0.0
 40
5.0
100
AcDbArc
 50
85.83130399999998
 51
265.8313029999998
  0
ARC
  5
C156
330
C055
100
AcDbEntity
  8
1
  6
Continuous
100
AcDbCircle
 10
376.1764429999999
 20
80.10084
 30
0.0
 40
5.0
100
AcDbArc
 50
265.831299
 51
355.831295
  0
ARC
  5
C157
330
C055
100
AcDbEntity
  8
1
  6
Continuous
100
AcDbCircle
 10
369.703816
 20
87.59117399999999
 30
0.0
 40
2.0
100
AcDbArc
 50
265.831299
 51
355.831295
  0
ARC
  5
C158
330
C055
100
AcDbEntity
  8
1
  6
Continuous
100
AcDbCircle
 10
372.3018799999999
 20
95.72383100000001
 30
0.0
 40
2.0
100
AcDbArc
 50
175.8312949999999
 51
265.8312959999999
  0
LINE
  5
C159
330
C055
100
AcDbEntity
  8
1
  6
Continuous
100
AcDbLine
 10
395.9714619999999
 20
174.592982
 30
0.0
 11
395.9714619999999
 21
188.592982
 31
0.0
  0
LINE
  5
C15A
330
C055
100
AcDbEntity
  8
1
  6
Continuous
100
AcDbLine
 10
362.061366
 20
174.592982
 30
0.0
 11
362.061366
 21
188.592982
 31
0.0
  0
LINE
  5
C15B
330
C055
100
AcDbEntity
  8
1
  6
Continuous
100
AcDbLine
 10
315.2116279999999
 20
174.592982
 30
0.0
 11
315.2116279999999
 21
176.592982
 31
0.0
  0
LINE
  5
C15C
330
C055
100
AcDbEntity
  8
1
  6
Continuous
100
AcDbLine
 10
315.2116279999999
 20
186.592982
 30
0.0
 11
315.2116279999999
 21
188.592982
 31
0.0
  0
LINE
  5
C15D
330
C055
100
AcDbEntity
  8
1
  6
Continuous
100
AcDbLine
 10
415.0
 20
174.592982
 30
0.0
 11
415.0
 21
176.592982
 31
0.0
  0
LINE
  5
C15E
330
C055
100
AcDbEntity
  8
1
  6
Continuous
100
AcDbLine
 10
415.0
 20
186.592982
 30
0.0
 11
415.0
 21
188.592982
 31
0.0
  0
LINE
  5
C15F
330
C055
100
AcDbEntity
  8
1
  6
Continuous
100
AcDbLine
 10
415.0
 20
186.592982
 30
0.0
 11
395.9714619999999
 21
186.592982
 31
0.0
  0
LINE
  5
C160
330
C055
100
AcDbEntity
  8
1
  6
Continuous
100
AcDbLine
 10
361.8432869999999
 20
186.592982
 30
0.0
 11
315.2116279999999
 21
186.592982
 31
0.0
  0
LINE
  5
C161
330
C055
100
AcDbEntity
  8
1
  6
Continuous
100
AcDbLine
 10
415.0
 20
176.592982
 30
0.0
 11
395.9714619999999
 21
176.592982
 31
0.0
  0
LINE
  5
C162
330
C055
100
AcDbEntity
  8
1
  6
Continuous
100
AcDbLine
 10
361.8432869999999
 20
176.592982
 30
0.0
 11
315.2116279999999
 21
176.592982
 31
0.0
  0
LINE
  5
C163
330
C055
100
AcDbEntity
  8
4
  6
CENTER
100
AcDbLine
 10
325.211649
 20
166.447525
 30
0.0
 11
325.211649
 21
191.821598
 31
0.0
  0
LINE
  5
C164
330
C055
100
AcDbEntity
  8
1
  6
Continuous
100
AcDbLine
 10
415.0
 20
188.592982
 30
0.0
 11
382.275423
 21
188.592982
 31
0.0
  0
LINE
  5
C165
330
C055
100
AcDbEntity
  8
1
  6
Continuous
100
AcDbLine
 10
370.6488289999999
 20
188.592982
 30
0.0
 11
315.2116279999999
 21
188.592982
 31
0.0
  0
LINE
  5
C166
330
C055
100
AcDbEntity
  8
1
  6
Continuous
100
AcDbLine
 10
415.0
 20
174.592982
 30
0.0
 11
382.275423
 21
174.592982
 31
0.0
  0
LINE
  5
C167
330
C055
100
AcDbEntity
  8
1
  6
Continuous
100
AcDbLine
 10
370.6488289999999
 20
174.592982
 30
0.0
 11
315.2116279999999
 21
174.592982
 31
0.0
  0
LINE
  5
C168
330
C055
100
AcDbEntity
  8
1
  6
Continuous
100
AcDbLine
 10
399.293021
 20
181.092982
 30
0.0
 11
409.4999999999997
 21
181.092982
 31
0.0
  0
LINE
  5
C169
330
C055
100
AcDbEntity
  8
1
  6
Continuous
100
AcDbLine
 10
399.293021
 20
182.092982
 30
0.0
 11
409.4999999999997
 21
182.092982
 31
0.0
  0
ARC
  5
C16A
330
C055
100
AcDbEntity
  8
1
  6
Continuous
100
AcDbCircle
 10
409.4999999999997
 20
181.592982
 30
0.0
 40
0.5
100
AcDbArc
 50
270.0
 51
90.0
  0
LINE
  5
C16B
330
C055
100
AcDbEntity
  8
5
  6
PHANTOM
100
AcDbLine
 10
345.003619
 20
86.908978
 30
0.0
 11
348.983202
 21
81.99392799999998
 31
0.0
  0
ARC
  5
C16C
330
C055
100
AcDbEntity
  8
5
  6
PHANTOM
100
AcDbCircle
 10
350.5248
 20
91.98817
 30
0.0
 40
10.0
100
AcDbArc
 50
269.7832539999998
 51
89.78325100000002
  0
LINE
  5
C16D
330
C055
100
AcDbEntity
  8
5
  6
PHANTOM
100
AcDbLine
 10
345.003619
 20
86.908978
 30
0.0
 11
345.0077959999999
 21
87.90896999999999
 31
0.0
  0
LINE
  5
C16E
330
C055
100
AcDbEntity
  8
5
  6
PHANTOM
100
AcDbLine
 10
345.0077959999999
 20
87.90896999999999
 30
0.0
 11
347.509344
 21
87.89952499999998
 31
0.0
  0
ARC
  5
C16F
330
C055
100
AcDbEntity
  8
5
  6
PHANTOM
100
AcDbCircle
 10
347.5248399999999
 20
91.999466
 30
0.0
 40
4.099999999999997
100
AcDbArc
 50
269.7832529999999
 51
89.78325100000002
  0
LINE
  5
C170
330
C055
100
AcDbEntity
  8
5
  6
PHANTOM
100
AcDbLine
 10
338.640439
 20
96.13314800000001
 30
0.0
 11
347.5403569999999
 21
96.09947300000001
 31
0.0
  0
ARC
  5
C171
330
C055
100
AcDbEntity
  8
5
  6
PHANTOM
100
AcDbCircle
 10
338.624922
 20
92.033141
 30
0.0
 40
4.099999999999997
100
AcDbArc
 50
89.78325500000002
 51
179.78316
  0
LINE
  5
C172
330
C055
100
AcDbEntity
  8
1
  6
Continuous
100
AcDbLine
 10
367.691128
 20
178.5489609999999
 30
0.0
 11
365.7748189999999
 21
178.5489609999999
 31
0.0
  0
LINE
  5
C173
330
C055
100
AcDbEntity
  8
1
  6
Continuous
100
AcDbLine
 10
365.6521169999999
 20
178.992852
 30
0.0
 11
367.291445
 21
178.992852
 31
0.0
  0
LINE
  5
C174
330
C055
100
AcDbEntity
  8
1
  6
Continuous
100
AcDbLine
 10
367.568426
 20
179.437645
 30
0.0
 11
365.3760389999998
 21
179.437645
 31
0.0
  0
LINE
  5
C175
330
C055
100
AcDbEntity
  8
1
  6
Continuous
100
AcDbLine
 10
367.005443
 20
180.3263289999999
 30
0.0
 11
367.8535269999999
 21
180.3263289999999
 31
0.0
  0
LINE
  5
C176
330
C055
100
AcDbEntity
  8
1
  6
Continuous
100
AcDbLine
 10
366.4722319999999
 20
181.215012
 30
0.0
 11
366.4722319999999
 21
180.7711219999999
 31
0.0
  0
ARC
  5
C177
330
C055
100
AcDbEntity
  8
1
  6
Continuous
100
AcDbCircle
 10
366.4722319999999
 20
178.770906
 30
0.0
 40
1.145318999999998
100
AcDbArc
 50
283.4626
 51
324.4623
  0
ARC
  5
C178
330
C055
100
AcDbEntity
  8
1
  6
Continuous
100
AcDbCircle
 10
366.4722319999999
 20
178.770906
 30
0.0
 40
1.145318999999998
100
AcDbArc
 50
215.5379999999999
 51
270.0
  0
ARC
  5
C179
330
C055
100
AcDbEntity
  8
1
  6
Continuous
100
AcDbCircle
 10
367.291445
 20
179.215699
 30
0.0
 40
0.222261
100
AcDbArc
 50
270.0
 51
333.9855999999999
  0
ARC
  5
C17A
330
C055
100
AcDbEntity
  8
1
  6
Continuous
100
AcDbCircle
 10
362.7388579999998
 20
181.436958
 30
0.0
 40
5.288524999999999
100
AcDbArc
 50
333.9855999999999
 51
337.0559999999999
  0
ARC
  5
C17B
330
C055
100
AcDbEntity
  8
1
  6
Continuous
100
AcDbCircle
 10
367.568426
 20
179.393436
 30
0.0
 40
0.044452
100
AcDbArc
 50
337.0559999999999
 51
90.0
  0
ARC
  5
C17C
330
C055
100
AcDbEntity
  8
1
  6
Continuous
100
AcDbCircle
 10
365.6521169999999
 20
179.215699
 30
0.0
 40
0.222261
100
AcDbArc
 50
206.014
 51
270.0
  0
ARC
  5
C17D
330
C055
100
AcDbEntity
  8
1
  6
Continuous
100
AcDbCircle
 10
367.8535269999999
 20
180.2821199999999
 30
0.0
 40
0.044452
100
AcDbArc
 50
347.2710999999998
 51
90.0
  0
ARC
  5
C17E
330
C055
100
AcDbEntity
  8
1
  6
Continuous
100
AcDbCircle
 10
362.7388579999998
 20
181.436958
 30
0.0
 40
5.288524999999999
100
AcDbArc
 50
346.7318999999998
 51
347.2710999999998
  0
ARC
  5
C17F
330
C055
100
AcDbEntity
  8
1
  6
Continuous
100
AcDbCircle
 10
362.7388579999998
 20
181.436958
 30
0.0
 40
5.288524999999999
100
AcDbArc
 50
344.7424999999999
 51
346.7318999999998
  0
ARC
  5
C180
330
C055
100
AcDbEntity
  8
1
  6
Continuous
100
AcDbCircle
 10
367.626168
 20
180.104383
 30
0.0
 40
0.222261
100
AcDbArc
 50
270.0
 51
344.7424999999999
  0
ARC
  5
C181
330
C055
100
AcDbEntity
  8
1
  6
Continuous
100
AcDbCircle
 10
365.3173949999999
 20
180.104383
 30
0.0
 40
0.222261
100
AcDbArc
 50
195.258
 51
270.0
  0
ARC
  5
C182
330
C055
100
AcDbEntity
  8
1
  6
Continuous
100
AcDbCircle
 10
370.204704
 20
181.436958
 30
0.0
 40
5.288524999999999
100
AcDbArc
 50
195.206
 51
195.258
  0
ARC
  5
C183
330
C055
100
AcDbEntity
  8
1
  6
Continuous
100
AcDbCircle
 10
370.204704
 20
181.436958
 30
0.0
 40
5.288524999999999
100
AcDbArc
 50
192.729
 51
195.206
  0
ARC
  5
C184
330
C055
100
AcDbEntity
  8
1
  6
Continuous
100
AcDbCircle
 10
365.090036
 20
180.2821199999999
 30
0.0
 40
0.044452
100
AcDbArc
 50
90.0
 51
192.729
  0
LINE
  5
C185
330
C055
100
AcDbEntity
  8
1
  6
Continuous
100
AcDbLine
 10
367.626168
 20
179.881536
 30
0.0
 11
365.3173949999999
 21
179.881536
 31
0.0
  0
LINE
  5
C186
330
C055
100
AcDbEntity
  8
1
  6
Continuous
100
AcDbLine
 10
365.090036
 20
180.3263289999999
 30
0.0
 11
365.939022
 21
180.3263289999999
 31
0.0
  0
LINE
  5
C187
330
C055
100
AcDbEntity
  8
1
  6
Continuous
100
AcDbLine
 10
367.9852499999999
 20
180.7711219999999
 30
0.0
 11
364.9583119999999
 21
180.7711219999999
 31
0.0
  0
LINE
  5
C188
330
C055
100
AcDbEntity
  8
1
  6
Continuous
100
AcDbLine
 10
368.022241
 20
181.215012
 30
0.0
 11
364.9213209999999
 21
181.215012
 31
0.0
  0
ARC
  5
C189
330
C055
100
AcDbEntity
  8
1
  6
Continuous
100
AcDbCircle
 10
365.3760389999998
 20
179.393436
 30
0.0
 40
0.044452
100
AcDbArc
 50
90.0
 51
202.944
  0
ARC
  5
C18A
330
C055
100
AcDbEntity
  8
1
  6
Continuous
100
AcDbCircle
 10
370.204704
 20
181.436958
 30
0.0
 40
5.288524999999999
100
AcDbArc
 50
202.944
 51
206.014
  0
LINE
  5
C18B
330
C055
100
AcDbEntity
  8
1
  6
Continuous
100
AcDbLine
 10
366.4722319999999
 20
182.548489
 30
0.0
 11
366.4722319999999
 21
182.3265439999999
 31
0.0
  0
ARC
  5
C18C
330
C055
100
AcDbEntity
  8
1
  6
Continuous
100
AcDbCircle
 10
367.7263139999998
 20
182.3265439999999
 30
0.0
 40
0.222261
100
AcDbArc
 50
10.10399999999999
 51
90.0
  0
ARC
  5
C18D
330
C055
100
AcDbEntity
  8
1
  6
Continuous
100
AcDbCircle
 10
365.2172489999998
 20
182.3265439999999
 30
0.0
 40
0.222261
100
AcDbArc
 50
90.0
 51
169.896
  0
ARC
  5
C18E
330
C055
100
AcDbEntity
  8
1
  6
Continuous
100
AcDbCircle
 10
362.7388579999998
 20
181.436958
 30
0.0
 40
5.288524999999999
100
AcDbArc
 50
7.792999999999999
 51
10.10399999999999
  0
ARC
  5
C18F
330
C055
100
AcDbEntity
  8
1
  6
Continuous
100
AcDbCircle
 10
367.9347259999998
 20
182.148807
 30
0.0
 40
0.044452
100
AcDbArc
 50
270.0
 51
7.792999999999999
  0
ARC
  5
C190
330
C055
100
AcDbEntity
  8
1
  6
Continuous
100
AcDbCircle
 10
365.0088359999998
 20
182.148807
 30
0.0
 40
0.044452
100
AcDbArc
 50
172.2069999999999
 51
270.0
  0
ARC
  5
C191
330
C055
100
AcDbEntity
  8
1
  6
Continuous
100
AcDbCircle
 10
370.204704
 20
181.436958
 30
0.0
 40
5.288524999999999
100
AcDbArc
 50
169.896
 51
172.2069999999999
  0
LINE
  5
C192
330
C055
100
AcDbEntity
  8
1
  6
Continuous
100
AcDbLine
 10
368.022241
 20
181.6598049999998
 30
0.0
 11
364.9213209999999
 21
181.6598049999998
 31
0.0
  0
LINE
  5
C193
330
C055
100
AcDbEntity
  8
1
  6
Continuous
100
AcDbLine
 10
367.9347259999998
 20
182.1036959999999
 30
0.0
 11
365.0088359999998
 21
182.1036959999999
 31
0.0
  0
LINE
  5
C194
330
C055
100
AcDbEntity
  8
1
  6
Continuous
100
AcDbLine
 10
367.005443
 20
182.548489
 30
0.0
 11
367.7263139999998
 21
182.548489
 31
0.0
  0
LINE
  5
C195
330
C055
100
AcDbEntity
  8
1
  6
Continuous
100
AcDbLine
 10
367.7236069999998
 20
183.4371729999998
 30
0.0
 11
366.6941779999998
 21
183.4371729999998
 31
0.0
  0
LINE
  5
C196
330
C055
100
AcDbEntity
  8
1
  6
Continuous
100
AcDbLine
 10
366.6941779999998
 20
183.881966
 30
0.0
 11
367.64331
 21
183.881966
 31
0.0
  0
LINE
  5
C197
330
C055
100
AcDbEntity
  8
1
  6
Continuous
100
AcDbLine
 10
366.4722319999999
 20
183.659118
 30
0.0
 11
365.405812
 21
183.659118
 31
0.0
  0
LINE
  5
C198
330
C055
100
AcDbEntity
  8
1
  6
Continuous
100
AcDbLine
 10
365.6403879999999
 20
184.1075199999999
 30
0.0
 11
367.513391
 21
184.6100549999999
 31
0.0
  0
LINE
  5
C199
330
C055
100
AcDbEntity
  8
1
  6
Continuous
100
AcDbLine
 10
366.4722319999999
 20
185.248825
 30
0.0
 11
366.4722319999999
 21
184.3303679999999
 31
0.0
  0
ARC
  5
C19A
330
C055
100
AcDbEntity
  8
1
  6
Continuous
100
AcDbCircle
 10
366.6941779999998
 20
183.659118
 30
0.0
 40
0.222261
100
AcDbArc
 50
90.0
 51
270.0
  0
ARC
  5
C19B
330
C055
100
AcDbEntity
  8
1
  6
Continuous
100
AcDbCircle
 10
366.4722319999999
 20
184.103911
 30
0.0
 40
1.145318999999998
100
AcDbArc
 50
35.53799999999999
 51
117.7499999999999
  0
ARC
  5
C19C
330
C055
100
AcDbEntity
  8
1
  6
Continuous
100
AcDbCircle
 10
366.4722319999999
 20
184.103911
 30
0.0
 40
1.145318999999998
100
AcDbArc
 50
134.301
 51
144.462
  0
LINE
  5
C19D
330
C055
100
AcDbEntity
  8
1
  6
Continuous
100
AcDbLine
 10
365.2172489999998
 20
182.548489
 30
0.0
 11
366.4722319999999
 21
182.548489
 31
0.0
  0
LINE
  5
C19E
330
C055
100
AcDbEntity
  8
1
  6
Continuous
100
AcDbLine
 10
367.932922
 20
182.9923799999999
 30
0.0
 11
365.150485
 21
182.9923799999999
 31
0.0
  0
ARC
  5
C19F
330
C055
100
AcDbEntity
  8
1
  6
Continuous
100
AcDbCircle
 10
370.204704
 20
181.436958
 30
0.0
 40
5.732929999999998
100
AcDbArc
 50
144.462
 51
215.5379999999999
  0
ARC
  5
C1A0
330
C055
100
AcDbEntity
  8
1
  6
Continuous
100
AcDbCircle
 10
362.7388579999998
 20
181.436958
 30
0.0
 40
5.732929999999998
100
AcDbArc
 50
324.4623
 51
35.53799999999999
  0
LINE
  5
C1A1
330
C055
100
AcDbEntity
  8
4
  6
CENTER
100
AcDbLine
 10
405.0
 20
64.327717
 30
0.0
 11
405.0
 21
91.88196600000001
 31
0.0
  0
LINE
  5
C1A2
330
C055
100
AcDbEntity
  8
4
  6
CENTER
100
AcDbLine
 10
354.750552
 20
82.136252
 30
0.0
 11
341.7505520000001
 21
82.136252
 31
0.0
  0
LINE
  5
C1A3
330
C055
100
AcDbEntity
  8
4
  6
CENTER
100
AcDbLine
 10
348.2505520000001
 20
75.636252
 30
0.0
 11
348.2505520000001
 21
88.63625199999999
 31
0.0
  0
LINE
  5
C1A4
330
C055
100
AcDbEntity
  8
4
  6
CENTER
100
AcDbLine
 10
382.676443
 20
80.10084
 30
0.0
 11
369.6764429999998
 21
80.10084
 31
0.0
  0
LINE
  5
C1A5
330
C055
100
AcDbEntity
  8
4
  6
CENTER
100
AcDbLine
 10
376.1764429999999
 20
73.60084
 30
0.0
 11
376.1764429999999
 21
86.60084000000003
 31
0.0
  0
LINE
  5
C1A6
330
C055
100
AcDbEntity
  8
4
  6
CENTER
100
AcDbLine
 10
335.2401959999999
 20
83.08448400000001
 30
0.0
 11
301.1543849999998
 21
85.568849
 31
0.0
  0
ARC
  5
C1A7
330
C055
100
AcDbEntity
  8
4
  6
CENTER
100
AcDbCircle
 10
277.9809409999999
 20
-234.5936369999999
 30
0.0
 40
321.0
100
AcDbArc
 50
85.83133499999998
 51
105.301274
  0
LINE
  5
C1A8
330
C055
100
AcDbEntity
  8
1
  6
Continuous
100
AcDbLine
 10
423.0
 20
173.592982
 30
0.0
 11
423.0
 21
189.592982
 31
0.0
  0
ARC
  5
C1A9
330
C055
100
AcDbEntity
  8
1
  6
Continuous
100
AcDbCircle
 10
419.0
 20
174.592982
 30
0.0
 40
1.0
100
AcDbArc
 50
270.0
 51
0.0
  0
ARC
  5
C1AA
330
C055
100
AcDbEntity
  8
1
  6
Continuous
100
AcDbCircle
 10
419.0
 20
188.592982
 30
0.0
 40
1.0
100
AcDbArc
 50
0.0
 51
90.0
  0
ARC
  5
C1AB
330
C055
100
AcDbEntity
  8
1
  6
Continuous
100
AcDbCircle
 10
419.0
 20
188.592982
 30
0.0
 40
4.0
100
AcDbArc
 50
14.47751199999999
 51
90.0
  0
ARC
  5
C1AC
330
C055
100
AcDbEntity
  8
1
  6
Continuous
100
AcDbCircle
 10
419.0
 20
174.592982
 30
0.0
 40
4.0
100
AcDbArc
 50
270.0
 51
345.522488
  0
LINE
  5
C1AD
330
C055
100
AcDbEntity
  8
1
  6
Continuous
100
AcDbLine
 10
419.0
 20
189.592982
 30
0.0
 11
395.0
 21
189.592982
 31
0.0
  0
LINE
  5
C1AE
330
C055
100
AcDbEntity
  8
1
  6
Continuous
100
AcDbLine
 10
423.0
 20
173.592982
 30
0.0
 11
420.0
 21
173.592982
 31
0.0
  0
LINE
  5
C1AF
330
C055
100
AcDbEntity
  8
4
  6
CENTER
100
AcDbLine
 10
348.2505520000001
 20
168.297525
 30
0.0
 11
348.2505520000001
 21
193.6715979999999
 31
0.0
  0
LINE
  5
C1B0
330
C055
100
AcDbEntity
  8
4
  6
CENTER
100
AcDbLine
 10
376.1764429999999
 20
168.297525
 30
0.0
 11
376.1764429999999
 21
193.6715979999999
 31
0.0
  0
LINE
  5
C1B1
330
C055
100
AcDbEntity
  8
1
  6
Continuous
100
AcDbLine
 10
419.0
 20
380.778946
 30
0.0
 11
395.0
 21
380.778946
 31
0.0
  0
LINE
  5
C1B2
330
C055
100
AcDbEntity
  8
1
  6
Continuous
100
AcDbLine
 10
419.0
 20
396.778946
 30
0.0
 11
395.0
 21
396.778946
 31
0.0
  0
LINE
  5
C1B3
330
C055
100
AcDbEntity
  8
1
  6
Continuous
100
AcDbLine
 10
415.0
 20
381.778946
 30
0.0
 11
315.2116279999999
 21
381.778946
 31
0.0
  0
LINE
  5
C1B4
330
C055
100
AcDbEntity
  8
1
  6
Continuous
100
AcDbLine
 10
415.0
 20
395.778946
 30
0.0
 11
315.2116279999999
 21
395.778946
 31
0.0
  0
LINE
  5
C1B5
330
C055
100
AcDbEntity
  8
1
  6
Continuous
100
AcDbLine
 10
420.0
 20
396.778946
 30
0.0
 11
420.0
 21
380.778946
 31
0.0
  0
LINE
  5
C1B6
330
C055
100
AcDbEntity
  8
1
  6
Continuous
100
AcDbLine
 10
423.0
 20
396.778946
 30
0.0
 11
423.0
 21
380.778946
 31
0.0
  0
LINE
  5
C1B7
330
C055
100
AcDbEntity
  8
1
  6
Continuous
100
AcDbLine
 10
401.0
 20
383.778946
 30
0.0
 11
401.0
 21
393.778946
 31
0.0
  0
LINE
  5
C1B8
330
C055
100
AcDbEntity
  8
1
  6
Continuous
100
AcDbLine
 10
409.0
 20
393.778946
 30
0.0
 11
409.0
 21
389.278946
 31
0.0
  0
LINE
  5
C1B9
330
C055
100
AcDbEntity
  8
1
  6
Continuous
100
AcDbLine
 10
395.9714619999999
 20
383.778946
 30
0.0
 11
395.9714619999999
 21
384.551871
 31
0.0
  0
LINE
  5
C1BA
330
C055
100
AcDbEntity
  8
4
  6
CENTER
100
AcDbLine
 10
405.0
 20
407.533455
 30
0.0
 11
405.0
 21
371.552946
 31
0.0
  0
LINE
  5
C1BB
330
C055
100
AcDbEntity
  8
1
  6
Continuous
100
AcDbLine
 10
395.0
 20
399.778946
 30
0.0
 11
419.0
 21
399.778946
 31
0.0
  0
LINE
  5
C1BC
330
C055
100
AcDbEntity
  8
1
  6
Continuous
100
AcDbLine
 10
423.0
 20
396.778946
 30
0.0
 11
420.0
 21
396.778946
 31
0.0
  0
ARC
  5
C1BD
330
C055
100
AcDbEntity
  8
1
  6
Continuous
100
AcDbCircle
 10
419.0
 20
395.778946
 30
0.0
 40
4.0
100
AcDbArc
 50
14.47751199999999
 51
90.0
  0
ARC
  5
C1BE
330
C055
100
AcDbEntity
  8
1
  6
Continuous
100
AcDbCircle
 10
419.0
 20
395.778946
 30
0.0
 40
1.0
100
AcDbArc
 50
0.0
 51
90.0
  0
ARC
  5
C1BF
330
C055
100
AcDbEntity
  8
1
  6
Continuous
100
AcDbCircle
 10
405.0
 20
398.63069
 30
0.0
 40
6.748407
100
AcDbArc
 50
9.796666999999999
 51
170.2033329999999
  0
LINE
  5
C1C0
330
C055
100
AcDbEntity
  8
1
  6
Continuous
100
AcDbLine
 10
415.0
 20
396.5789459999998
 30
0.0
 11
395.0
 21
396.5789459999998
 31
0.0
  0
LINE
  5
C1C1
330
C055
100
AcDbEntity
  8
1
  6
Continuous
100
AcDbLine
 10
415.0
 20
395.778946
 30
0.0
 11
415.0
 21
396.5789459999998
 31
0.0
  0
LINE
  5
C1C2
330
C055
100
AcDbEntity
  8
1
  6
Continuous
100
AcDbLine
 10
409.0
 20
396.778946
 30
0.0
 11
409.0
 21
396.5789459999998
 31
0.0
  0
LINE
  5
C1C3
330
C055
100
AcDbEntity
  8
1
  6
Continuous
100
AcDbLine
 10
415.0
 20
395.778946
 30
0.0
 11
415.0
 21
393.778946
 31
0.0
  0
LINE
  5
C1C4
330
C055
100
AcDbEntity
  8
1
  6
Continuous
100
AcDbLine
 10
395.0
 20
399.778946
 30
0.0
 11
395.0
 21
396.778946
 31
0.0
  0
LINE
  5
C1C5
330
C055
100
AcDbEntity
  8
1
  6
Continuous
100
AcDbLine
 10
395.0
 20
395.778946
 30
0.0
 11
395.0
 21
396.5789459999998
 31
0.0
  0
LINE
  5
C1C6
330
C055
100
AcDbEntity
  8
1
  6
Continuous
100
AcDbLine
 10
401.0
 20
396.778946
 30
0.0
 11
401.0
 21
396.5789459999998
 31
0.0
  0
LINE
  5
C1C7
330
C055
100
AcDbEntity
  8
1
  6
Continuous
100
AcDbLine
 10
395.0
 20
377.778946
 30
0.0
 11
419.0
 21
377.778946
 31
0.0
  0
LINE
  5
C1C8
330
C055
100
AcDbEntity
  8
1
  6
Continuous
100
AcDbLine
 10
423.0
 20
380.778946
 30
0.0
 11
420.0
 21
380.778946
 31
0.0
  0
ARC
  5
C1C9
330
C055
100
AcDbEntity
  8
1
  6
Continuous
100
AcDbCircle
 10
419.0
 20
381.778946
 30
0.0
 40
4.0
100
AcDbArc
 50
270.0
 51
345.522488
  0
ARC
  5
C1CA
330
C055
100
AcDbEntity
  8
1
  6
Continuous
100
AcDbCircle
 10
419.0
 20
381.778946
 30
0.0
 40
1.0
100
AcDbArc
 50
270.0
 51
0.0
  0
ARC
  5
C1CB
330
C055
100
AcDbEntity
  8
1
  6
Continuous
100
AcDbCircle
 10
405.0
 20
380.5789459999999
 30
0.0
 40
5.299999999999998
100
AcDbArc
 50
211.8907919999998
 51
328.109208
  0
LINE
  5
C1CC
330
C055
100
AcDbEntity
  8
1
  6
Continuous
100
AcDbLine
 10
415.0
 20
380.978946
 30
0.0
 11
395.0
 21
380.978946
 31
0.0
  0
LINE
  5
C1CD
330
C055
100
AcDbEntity
  8
1
  6
Continuous
100
AcDbLine
 10
399.293021
 20
389.278946
 30
0.0
 11
401.0
 21
389.278946
 31
0.0
  0
LINE
  5
C1CE
330
C055
100
AcDbEntity
  8
1
  6
Continuous
100
AcDbLine
 10
399.71257
 20
388.278946
 30
0.0
 11
401.0
 21
388.278946
 31
0.0
  0
LINE
  5
C1CF
330
C055
100
AcDbEntity
  8
1
  6
Continuous
100
AcDbLine
 10
415.0
 20
381.778946
 30
0.0
 11
415.0
 21
380.978946
 31
0.0
  0
LINE
  5
C1D0
330
C055
100
AcDbEntity
  8
1
  6
Continuous
100
AcDbLine
 10
409.0
 20
380.978946
 30
0.0
 11
409.0
 21
380.778946
 31
0.0
  0
LINE
  5
C1D1
330
C055
100
AcDbEntity
  8
1
  6
Continuous
100
AcDbLine
 10
409.0
 20
388.278946
 30
0.0
 11
409.0
 21
383.778946
 31
0.0
  0
LINE
  5
C1D2
330
C055
100
AcDbEntity
  8
1
  6
Continuous
100
AcDbLine
 10
415.0
 20
383.778946
 30
0.0
 11
415.0
 21
381.778946
 31
0.0
  0
ARC
  5
C1D3
330
C055
100
AcDbEntity
  8
1
  6
Continuous
100
AcDbCircle
 10
409.4999999999997
 20
388.778946
 30
0.0
 40
0.5
100
AcDbArc
 50
270.0
 51
90.0
  0
LINE
  5
C1D4
330
C055
100
AcDbEntity
  8
1
  6
Continuous
100
AcDbLine
 10
395.0
 20
380.778946
 30
0.0
 11
395.0
 21
377.778946
 31
0.0
  0
LINE
  5
C1D5
330
C055
100
AcDbEntity
  8
1
  6
Continuous
100
AcDbLine
 10
395.0
 20
381.778946
 30
0.0
 11
395.0
 21
380.978946
 31
0.0
  0
LINE
  5
C1D6
330
C055
100
AcDbEntity
  8
1
  6
Continuous
100
AcDbLine
 10
401.0
 20
380.978946
 30
0.0
 11
401.0
 21
380.778946
 31
0.0
  0
LINE
  5
C1D7
330
C055
100
AcDbEntity
  8
1
  6
Continuous
100
AcDbLine
 10
396.4596509999998
 20
392.8657709999998
 30
0.0
 11
395.0490229999999
 21
384.8657709999998
 31
0.0
  0
ARC
  5
C1D8
330
C055
100
AcDbEntity
  8
1
  6
Continuous
100
AcDbCircle
 10
395.5414259999998
 20
384.778946
 30
0.0
 40
0.5
100
AcDbArc
 50
169.9999129999999
 51
349.9999129999998
  0
LINE
  5
C1D9
330
C055
100
AcDbEntity
  8
1
  6
Continuous
100
AcDbLine
 10
397.4750779999998
 20
392.8657709999998
 30
0.0
 11
396.0338299999999
 21
384.692121
 31
0.0
  0
ARC
  5
C1DA
330
C055
100
AcDbEntity
  8
1
  6
Continuous
100
AcDbCircle
 10
397.5722799999999
 20
384.778946
 30
0.0
 40
0.5
100
AcDbArc
 50
169.9999129999999
 51
349.9999129999998
  0
LINE
  5
C1DB
330
C055
100
AcDbEntity
  8
1
  6
Continuous
100
AcDbLine
 10
399.475312
 20
392.692121
 30
0.0
 11
398.0646839999998
 21
384.692121
 31
0.0
  0
ARC
  5
C1DC
330
C055
100
AcDbEntity
  8
1
  6
Continuous
100
AcDbCircle
 10
396.952055
 20
392.7789459999999
 30
0.0
 40
0.5
100
AcDbArc
 50
349.9999129999998
 51
169.9999129999999
  0
ARC
  5
C1DD
330
C055
100
AcDbEntity
  8
1
  6
Continuous
100
AcDbCircle
 10
397.967481
 20
392.7789459999999
 30
0.0
 40
0.5
100
AcDbArc
 50
349.9999129999998
 51
169.9999129999999
  0
LINE
  5
C1DE
330
C055
100
AcDbEntity
  8
1
  6
Continuous
100
AcDbLine
 10
398.490505
 20
392.8657709999998
 30
0.0
 11
397.049257
 21
384.692121
 31
0.0
  0
ARC
  5
C1DF
330
C055
100
AcDbEntity
  8
1
  6
Continuous
100
AcDbCircle
 10
398.982908
 20
392.7789459999999
 30
0.0
 40
0.5
100
AcDbArc
 50
349.9999129999998
 51
169.9999129999999
  0
ARC
  5
C1E0
330
C055
100
AcDbEntity
  8
1
  6
Continuous
100
AcDbCircle
 10
396.556853
 20
384.778946
 30
0.0
 40
0.5
100
AcDbArc
 50
169.9999129999999
 51
349.9999129999998
  0
LINE
  5
C1E1
330
C055
100
AcDbEntity
  8
4
  6
CENTER
100
AcDbLine
 10
376.1764429999999
 20
402.0744029999998
 30
0.0
 11
376.1764429999999
 21
376.70033
 31
0.0
  0
LINE
  5
C1E2
330
C055
100
AcDbEntity
  8
4
  6
CENTER
100
AcDbLine
 10
348.2505520000001
 20
402.0744029999998
 30
0.0
 11
348.2505520000001
 21
376.70033
 31
0.0
  0
LINE
  5
C1E3
330
C055
100
AcDbEntity
  8
1
  6
Continuous
100
AcDbLine
 10
198.0
 20
393.278946
 30
0.0
 11
199.0
 21
394.278946
 31
0.0
  0
LINE
  5
C1E4
330
C055
100
AcDbEntity
  8
1
  6
Continuous
100
AcDbLine
 10
212.0
 20
393.278946
 30
0.0
 11
211.0
 21
394.278946
 31
0.0
  0
LINE
  5
C1E5
330
C055
100
AcDbEntity
  8
4
  6
CENTER
100
AcDbLine
 10
205.0
 20
399.961904
 30
0.0
 11
205.0
 21
373.778946
 31
0.0
  0
LINE
  5
C1E6
330
C055
100
AcDbEntity
  8
1
  6
Continuous
100
AcDbLine
 10
316.711649
 20
393.778946
 30
0.0
 11
316.711649
 21
390.778946
 31
0.0
  0
LINE
  5
C1E7
330
C055
100
AcDbEntity
  8
1
  6
Continuous
100
AcDbLine
 10
333.711649
 20
393.778946
 30
0.0
 11
333.711649
 21
390.778946
 31
0.0
  0
LINE
  5
C1E8
330
C055
100
AcDbEntity
  8
1
  6
Continuous
100
AcDbLine
 10
346.2505520000001
 20
393.278946
 30
0.0
 11
346.2505520000001
 21
393.778946
 31
0.0
  0
LINE
  5
C1E9
330
C055
100
AcDbEntity
  8
1
  6
Continuous
100
AcDbLine
 10
350.2505520000001
 20
393.278946
 30
0.0
 11
350.2505520000001
 21
393.778946
 31
0.0
  0
LINE
  5
C1EA
330
C055
100
AcDbEntity
  8
4
  6
CENTER
100
AcDbLine
 10
325.211649
 20
403.9244029999998
 30
0.0
 11
325.211649
 21
378.5503299999998
 31
0.0
  0
LINE
  5
C1EB
330
C055
100
AcDbEntity
  8
1
  6
Continuous
100
AcDbLine
 10
382.275423
 20
379.628946
 30
0.0
 11
382.275423
 21
381.778946
 31
0.0
  0
LINE
  5
C1EC
330
C055
100
AcDbEntity
  8
1
  6
Continuous
100
AcDbLine
 10
361.8432869999999
 20
393.778946
 30
0.0
 11
361.8432869999999
 21
383.778946
 31
0.0
  0
LINE
  5
C1ED
330
C055
100
AcDbEntity
  8
1
  6
Continuous
100
AcDbLine
 10
415.0
 20
393.778946
 30
0.0
 11
315.2116279999999
 21
393.778946
 31
0.0
  0
ARC
  5
C1EE
330
C055
100
AcDbEntity
  8
1
  6
Continuous
100
AcDbCircle
 10
325.211649
 20
394.63069
 30
0.0
 40
6.748407
100
AcDbArc
 50
9.796666999999999
 51
170.2033329999999
  0
LINE
  5
C1EF
330
C055
100
AcDbEntity
  8
1
  6
Continuous
100
AcDbLine
 10
382.275423
 20
397.928946
 30
0.0
 11
343.250552
 21
397.928946
 31
0.0
  0
LINE
  5
C1F0
330
C055
100
AcDbEntity
  8
1
  6
Continuous
100
AcDbLine
 10
382.275423
 20
395.9289459999998
 30
0.0
 11
343.250552
 21
395.9289459999998
 31
0.0
  0
ARC
  5
C1F1
330
C055
100
AcDbEntity
  8
1
  6
Continuous
100
AcDbCircle
 10
376.1764429999999
 20
397.014661
 30
0.0
 40
3.714285999999998
100
AcDbArc
 50
14.25003299999999
 51
165.7499669999999
  0
LINE
  5
C1F2
330
C055
100
AcDbEntity
  8
1
  6
Continuous
100
AcDbLine
 10
346.2505520000001
 20
395.778946
 30
0.0
 11
346.2505520000001
 21
395.9289459999998
 31
0.0
  0
LINE
  5
C1F3
330
C055
100
AcDbEntity
  8
1
  6
Continuous
100
AcDbLine
 10
350.2505520000001
 20
395.778946
 30
0.0
 11
350.2505520000001
 21
395.9289459999998
 31
0.0
  0
LINE
  5
C1F4
330
C055
100
AcDbEntity
  8
1
  6
Continuous
100
AcDbLine
 10
343.250552
 20
395.9289459999998
 30
0.0
 11
343.250552
 21
397.928946
 31
0.0
  0
ARC
  5
C1F5
330
C055
100
AcDbEntity
  8
1
  6
Continuous
100
AcDbCircle
 10
348.2505520000001
 20
397.014661
 30
0.0
 40
3.714285999999998
100
AcDbArc
 50
14.25003299999999
 51
165.7499669999999
  0
LINE
  5
C1F6
330
C055
100
AcDbEntity
  8
1
  6
Continuous
100
AcDbLine
 10
315.2116279999999
 20
395.778946
 30
0.0
 11
315.2116279999999
 21
393.778946
 31
0.0
  0
LINE
  5
C1F7
330
C055
100
AcDbEntity
  8
1
  6
Continuous
100
AcDbLine
 10
211.0
 20
394.278946
 30
0.0
 11
199.0
 21
394.278946
 31
0.0
  0
LINE
  5
C1F8
330
C055
100
AcDbEntity
  8
1
  6
Continuous
100
AcDbLine
 10
195.0
 20
390.778946
 30
0.0
 11
344.250552
 21
390.778946
 31
0.0
  0
LINE
  5
C1F9
330
C055
100
AcDbEntity
  8
1
  6
Continuous
100
AcDbLine
 10
195.0
 20
386.778946
 30
0.0
 11
344.250552
 21
386.778946
 31
0.0
  0
LINE
  5
C1FA
330
C055
100
AcDbEntity
  8
1
  6
Continuous
100
AcDbLine
 10
415.0
 20
383.778946
 30
0.0
 11
315.2116279999999
 21
383.778946
 31
0.0
  0
ARC
  5
C1FB
330
C055
100
AcDbEntity
  8
1
  6
Continuous
100
AcDbCircle
 10
325.211649
 20
387.778946
 30
0.0
 40
7.5
100
AcDbArc
 50
233.130102
 51
306.8698979999999
  0
LINE
  5
C1FC
330
C055
100
AcDbEntity
  8
1
  6
Continuous
100
AcDbLine
 10
316.711649
 20
392.278946
 30
0.0
 11
333.711649
 21
392.278946
 31
0.0
  0
LINE
  5
C1FD
330
C055
100
AcDbEntity
  8
1
  6
Continuous
100
AcDbLine
 10
333.711649
 20
385.278946
 30
0.0
 11
316.711649
 21
385.278946
 31
0.0
  0
LINE
  5
C1FE
330
C055
100
AcDbEntity
  8
1
  6
Continuous
100
AcDbLine
 10
382.275423
 20
379.628946
 30
0.0
 11
343.250552
 21
379.628946
 31
0.0
  0
LINE
  5
C1FF
330
C055
100
AcDbEntity
  8
1
  6
Continuous
100
AcDbLine
 10
382.275423
 20
381.628946
 30
0.0
 11
343.250552
 21
381.628946
 31
0.0
  0
ARC
  5
C200
330
C055
100
AcDbEntity
  8
1
  6
Continuous
100
AcDbCircle
 10
376.1764429999999
 20
381.633113
 30
0.0
 40
3.204166999999998
100
AcDbArc
 50
218.7179879999999
 51
321.2820119999999
  0
LINE
  5
C201
330
C055
100
AcDbEntity
  8
1
  6
Continuous
100
AcDbLine
 10
361.1428319999998
 20
390.778946
 30
0.0
 11
361.1428319999998
 21
386.778946
 31
0.0
  0
ARC
  5
C202
330
C055
100
AcDbEntity
  8
1
  6
Continuous
100
AcDbCircle
 10
348.2505520000001
 20
381.633113
 30
0.0
 40
3.204166999999998
100
AcDbArc
 50
218.7179879999999
 51
321.2820119999999
  0
LINE
  5
C203
330
C055
100
AcDbEntity
  8
1
  6
Continuous
100
AcDbLine
 10
344.750552
 20
393.278946
 30
0.0
 11
351.750552
 21
393.278946
 31
0.0
  0
LINE
  5
C204
330
C055
100
AcDbEntity
  8
1
  6
Continuous
100
AcDbLine
 10
344.750552
 20
384.278946
 30
0.0
 11
351.750552
 21
384.278946
 31
0.0
  0
LINE
  5
C205
330
C055
100
AcDbEntity
  8
1
  6
Continuous
100
AcDbLine
 10
344.250552
 20
384.778946
 30
0.0
 11
344.250552
 21
392.7789459999999
 31
0.0
  0
LINE
  5
C206
330
C055
100
AcDbEntity
  8
1
  6
Continuous
100
AcDbLine
 10
352.2505520000001
 20
390.778946
 30
0.0
 11
352.2505520000001
 21
392.7789459999999
 31
0.0
  0
LINE
  5
C207
330
C055
100
AcDbEntity
  8
1
  6
Continuous
100
AcDbLine
 10
352.2505520000001
 20
384.778946
 30
0.0
 11
352.2505520000001
 21
386.778946
 31
0.0
  0
LINE
  5
C208
330
C055
100
AcDbEntity
  8
1
  6
Continuous
100
AcDbLine
 10
344.250552
 20
392.7789459999999
 30
0.0
 11
344.750552
 21
393.278946
 31
0.0
  0
LINE
  5
C209
330
C055
100
AcDbEntity
  8
1
  6
Continuous
100
AcDbLine
 10
351.750552
 20
393.278946
 30
0.0
 11
352.2505520000001
 21
392.7789459999999
 31
0.0
  0
LINE
  5
C20A
330
C055
100
AcDbEntity
  8
1
  6
Continuous
100
AcDbLine
 10
344.750552
 20
384.278946
 30
0.0
 11
344.250552
 21
384.778946
 31
0.0
  0
LINE
  5
C20B
330
C055
100
AcDbEntity
  8
1
  6
Continuous
100
AcDbLine
 10
351.750552
 20
384.278946
 30
0.0
 11
352.2505520000001
 21
384.778946
 31
0.0
  0
LINE
  5
C20C
330
C055
100
AcDbEntity
  8
1
  6
Continuous
100
AcDbLine
 10
344.250552
 20
392.7789459999999
 30
0.0
 11
352.2505520000001
 21
392.7789459999999
 31
0.0
  0
LINE
  5
C20D
330
C055
100
AcDbEntity
  8
1
  6
Continuous
100
AcDbLine
 10
344.250552
 20
384.778946
 30
0.0
 11
352.2505520000001
 21
384.778946
 31
0.0
  0
LINE
  5
C20E
330
C055
100
AcDbEntity
  8
1
  6
Continuous
100
AcDbLine
 10
346.2505520000001
 20
383.778946
 30
0.0
 11
346.2505520000001
 21
384.278946
 31
0.0
  0
LINE
  5
C20F
330
C055
100
AcDbEntity
  8
1
  6
Continuous
100
AcDbLine
 10
346.2505520000001
 20
381.628946
 30
0.0
 11
346.2505520000001
 21
381.778946
 31
0.0
  0
LINE
  5
C210
330
C055
100
AcDbEntity
  8
1
  6
Continuous
100
AcDbLine
 10
350.2505520000001
 20
383.778946
 30
0.0
 11
350.2505520000001
 21
384.278946
 31
0.0
  0
LINE
  5
C211
330
C055
100
AcDbEntity
  8
1
  6
Continuous
100
AcDbLine
 10
350.2505520000001
 20
381.628946
 30
0.0
 11
350.2505520000001
 21
381.778946
 31
0.0
  0
LINE
  5
C212
330
C055
100
AcDbEntity
  8
1
  6
Continuous
100
AcDbLine
 10
343.250552
 20
379.628946
 30
0.0
 11
343.250552
 21
381.628946
 31
0.0
  0
LINE
  5
C213
330
C055
100
AcDbEntity
  8
1
  6
Continuous
100
AcDbLine
 10
333.711649
 20
386.778946
 30
0.0
 11
333.711649
 21
383.778946
 31
0.0
  0
LINE
  5
C214
330
C055
100
AcDbEntity
  8
1
  6
Continuous
100
AcDbLine
 10
316.711649
 20
386.778946
 30
0.0
 11
316.711649
 21
383.778946
 31
0.0
  0
LINE
  5
C215
330
C055
100
AcDbEntity
  8
1
  6
Continuous
100
AcDbLine
 10
315.2116279999999
 20
383.778946
 30
0.0
 11
315.2116279999999
 21
381.778946
 31
0.0
  0
LINE
  5
C216
330
C055
100
AcDbEntity
  8
1
  6
Continuous
100
AcDbLine
 10
217.0
 20
385.278946
 30
0.0
 11
193.0
 21
385.278946
 31
0.0
  0
LINE
  5
C217
330
C055
100
AcDbEntity
  8
1
  6
Continuous
100
AcDbLine
 10
217.0
 20
382.278946
 30
0.0
 11
193.0
 21
382.278946
 31
0.0
  0
LINE
  5
C218
330
C055
100
AcDbEntity
  8
1
  6
Continuous
100
AcDbLine
 10
238.0
 20
373.778946
 30
0.0
 11
223.0
 21
373.778946
 31
0.0
  0
LINE
  5
C219
330
C055
100
AcDbEntity
  8
1
  6
Continuous
100
AcDbLine
 10
238.0
 20
376.778946
 30
0.0
 11
223.0
 21
376.778946
 31
0.0
  0
LINE
  5
C21A
330
C055
100
AcDbEntity
  8
4
  6
CENTER
100
AcDbLine
 10
228.0
 20
378.9026499999998
 30
0.0
 11
228.0
 21
371.305437
 31
0.0
  0
LINE
  5
C21B
330
C055
100
AcDbEntity
  8
1
  6
Continuous
100
AcDbLine
 10
238.0
 20
376.778946
 30
0.0
 11
238.0
 21
373.778946
 31
0.0
  0
LINE
  5
C21C
330
C055
100
AcDbEntity
  8
1
  6
Continuous
100
AcDbLine
 10
212.0
 20
391.278946
 30
0.0
 11
198.0
 21
391.278946
 31
0.0
  0
LINE
  5
C21D
330
C055
100
AcDbEntity
  8
1
  6
Continuous
100
AcDbLine
 10
212.0
 20
393.278946
 30
0.0
 11
198.0
 21
393.278946
 31
0.0
  0
LINE
  5
C21E
330
C055
100
AcDbEntity
  8
1
  6
Continuous
100
AcDbLine
 10
215.0
 20
386.778946
 30
0.0
 11
215.0
 21
385.278946
 31
0.0
  0
LINE
  5
C21F
330
C055
100
AcDbEntity
  8
1
  6
Continuous
100
AcDbLine
 10
212.0
 20
393.278946
 30
0.0
 11
212.0
 21
391.278946
 31
0.0
  0
LINE
  5
C220
330
C055
100
AcDbEntity
  8
1
  6
Continuous
100
AcDbLine
 10
220.0
 20
382.278946
 30
0.0
 11
220.0
 21
379.778946
 31
0.0
  0
ARC
  5
C221
330
C055
100
AcDbEntity
  8
1
  6
Continuous
100
AcDbCircle
 10
217.0
 20
382.278946
 30
0.0
 40
3.0
100
AcDbArc
 50
0.000005
 51
90.00000099999999
  0
LINE
  5
C222
330
C055
100
AcDbEntity
  8
1
  6
Continuous
100
AcDbLine
 10
217.0
 20
382.278946
 30
0.0
 11
217.0
 21
379.778946
 31
0.0
  0
ARC
  5
C223
330
C055
100
AcDbEntity
  8
1
  6
Continuous
100
AcDbCircle
 10
223.0
 20
379.778946
 30
0.0
 40
3.0
100
AcDbArc
 50
180.0
 51
270.0
  0
ARC
  5
C224
330
C055
100
AcDbEntity
  8
1
  6
Continuous
100
AcDbCircle
 10
223.0
 20
379.778946
 30
0.0
 40
6.0
100
AcDbArc
 50
180.0
 51
270.0
  0
LINE
  5
C225
330
C055
100
AcDbEntity
  8
1
  6
Continuous
100
AcDbLine
 10
195.0
 20
390.778946
 30
0.0
 11
195.0
 21
386.778946
 31
0.0
  0
LINE
  5
C226
330
C055
100
AcDbEntity
  8
1
  6
Continuous
100
AcDbLine
 10
195.0
 20
386.778946
 30
0.0
 11
195.0
 21
385.278946
 31
0.0
  0
LINE
  5
C227
330
C055
100
AcDbEntity
  8
1
  6
Continuous
100
AcDbLine
 10
198.0
 20
393.278946
 30
0.0
 11
198.0
 21
391.278946
 31
0.0
  0
LINE
  5
C228
330
C055
100
AcDbEntity
  8
1
  6
Continuous
100
AcDbLine
 10
200.0
 20
391.278946
 30
0.0
 11
200.0
 21
390.778946
 31
0.0
  0
LINE
  5
C229
330
C055
100
AcDbEntity
  8
1
  6
Continuous
100
AcDbLine
 10
210.0
 20
391.278946
 30
0.0
 11
210.0
 21
390.778946
 31
0.0
  0
ARC
  5
C22A
330
C055
100
AcDbEntity
  8
1
  6
Continuous
100
AcDbCircle
 10
205.0
 20
386.341446
 30
0.0
 40
6.0625
100
AcDbArc
 50
222.075022
 51
317.9249779999999
  0
LINE
  5
C22B
330
C055
100
AcDbEntity
  8
4
  6
CENTER
100
AcDbLine
 10
182.0
 20
378.9026499999998
 30
0.0
 11
182.0
 21
371.305437
 31
0.0
  0
LINE
  5
C22C
330
C055
100
AcDbEntity
  8
1
  6
Continuous
100
AcDbLine
 10
187.0
 20
373.778946
 30
0.0
 11
172.0
 21
373.778946
 31
0.0
  0
LINE
  5
C22D
330
C055
100
AcDbEntity
  8
1
  6
Continuous
100
AcDbLine
 10
187.0
 20
376.778946
 30
0.0
 11
172.0
 21
376.778946
 31
0.0
  0
LINE
  5
C22E
330
C055
100
AcDbEntity
  8
1
  6
Continuous
100
AcDbLine
 10
193.0
 20
382.278946
 30
0.0
 11
193.0
 21
379.778946
 31
0.0
  0
LINE
  5
C22F
330
C055
100
AcDbEntity
  8
1
  6
Continuous
100
AcDbLine
 10
190.0
 20
382.278946
 30
0.0
 11
190.0
 21
379.778946
 31
0.0
  0
ARC
  5
C230
330
C055
100
AcDbEntity
  8
1
  6
Continuous
100
AcDbCircle
 10
193.0
 20
382.278946
 30
0.0
 40
3.0
100
AcDbArc
 50
90.00000400000002
 51
180.000005
  0
ARC
  5
C231
330
C055
100
AcDbEntity
  8
1
  6
Continuous
100
AcDbCircle
 10
187.0
 20
379.778946
 30
0.0
 40
3.0
100
AcDbArc
 50
270.0
 51
0.0
  0
ARC
  5
C232
330
C055
100
AcDbEntity
  8
1
  6
Continuous
100
AcDbCircle
 10
187.0
 20
379.778946
 30
0.0
 40
6.0
100
AcDbArc
 50
270.0
 51
0.0
  0
LINE
  5
C233
330
C055
100
AcDbEntity
  8
1
  6
Continuous
100
AcDbLine
 10
172.0
 20
376.778946
 30
0.0
 11
172.0
 21
373.778946
 31
0.0
  0
LINE
  5
C234
330
C055
100
AcDbEntity
  8
1
  6
Continuous
100
AcDbLine
 10
382.275423
 20
395.778946
 30
0.0
 11
382.275423
 21
397.928946
 31
0.0
  0
LINE
  5
C235
330
C055
100
AcDbEntity
  8
1
  6
Continuous
100
AcDbLine
 10
374.1764429999999
 20
383.778946
 30
0.0
 11
374.1764429999999
 21
388.278946
 31
0.0
  0
LINE
  5
C236
330
C055
100
AcDbEntity
  8
1
  6
Continuous
100
AcDbLine
 10
378.1764429999999
 20
383.778946
 30
0.0
 11
378.1764429999999
 21
393.778946
 31
0.0
  0
LINE
  5
C237
330
C055
100
AcDbEntity
  8
1
  6
Continuous
100
AcDbLine
 10
373.676443
 20
389.278946
 30
0.0
 11
377.676443
 21
389.278946
 31
0.0
  0
LINE
  5
C238
330
C055
100
AcDbEntity
  8
1
  6
Continuous
100
AcDbLine
 10
373.676443
 20
388.278946
 30
0.0
 11
377.676443
 21
388.278946
 31
0.0
  0
ARC
  5
C239
330
C055
100
AcDbEntity
  8
1
  6
Continuous
100
AcDbCircle
 10
373.676443
 20
388.778946
 30
0.0
 40
0.5
100
AcDbArc
 50
90.0
 51
270.0
  0
LINE
  5
C23A
330
C055
100
AcDbEntity
  8
1
  6
Continuous
100
AcDbLine
 10
377.676443
 20
389.278946
 30
0.0
 11
377.676443
 21
388.278946
 31
0.0
  0
LINE
  5
C23B
330
C055
100
AcDbEntity
  8
1
  6
Continuous
100
AcDbLine
 10
378.1764429999999
 20
389.278946
 30
0.0
 11
383.642069
 21
389.278946
 31
0.0
  0
LINE
  5
C23C
330
C055
100
AcDbEntity
  8
1
  6
Continuous
100
AcDbLine
 10
378.1764429999999
 20
388.278946
 30
0.0
 11
384.0616179999998
 21
388.278946
 31
0.0
  0
LINE
  5
C23D
330
C055
100
AcDbEntity
  8
1
  6
Continuous
100
AcDbLine
 10
374.1764429999999
 20
389.278946
 30
0.0
 11
374.1764429999999
 21
393.778946
 31
0.0
  0
LINE
  5
C23E
330
C055
100
AcDbEntity
  8
1
  6
Continuous
100
AcDbLine
 10
404.896511
 20
389.278946
 30
0.0
 11
404.896511
 21
388.278946
 31
0.0
  0
LINE
  5
C23F
330
C055
100
AcDbEntity
  8
1
  6
Continuous
100
AcDbLine
 10
404.896511
 20
389.278946
 30
0.0
 11
409.4999999999997
 21
389.278946
 31
0.0
  0
LINE
  5
C240
330
C055
100
AcDbEntity
  8
1
  6
Continuous
100
AcDbLine
 10
404.896511
 20
388.278946
 30
0.0
 11
409.4999999999997
 21
388.278946
 31
0.0
  0
LINE
  5
C241
330
C055
100
AcDbEntity
  8
1
  6
Continuous
100
AcDbLine
 10
399.793021
 20
388.778946
 30
0.0
 11
399.0801109999999
 21
384.692121
 31
0.0
  0
ARC
  5
C242
330
C055
100
AcDbEntity
  8
1
  6
Continuous
100
AcDbCircle
 10
398.5877069999999
 20
384.778946
 30
0.0
 40
0.5
100
AcDbArc
 50
169.9999129999999
 51
349.9999129999998
  0
ARC
  5
C243
330
C055
100
AcDbEntity
  8
1
  6
Continuous
100
AcDbCircle
 10
399.293021
 20
388.778946
 30
0.0
 40
0.5
100
AcDbArc
 50
0.0
 51
169.9999159999999
  0
LINE
  5
C244
330
C055
100
AcDbEntity
  8
1
  6
Continuous
100
AcDbLine
 10
399.475312
 20
392.692121
 30
0.0
 11
399.3066909999998
 21
389.2787589999999
 31
0.0
  0
LINE
  5
C245
330
C055
100
AcDbEntity
  8
1
  6
Continuous
100
AcDbLine
 10
394.4287969999999
 20
392.8657709999998
 30
0.0
 11
393.0181689999998
 21
384.8657709999998
 31
0.0
  0
LINE
  5
C246
330
C055
100
AcDbEntity
  8
1
  6
Continuous
100
AcDbLine
 10
395.444224
 20
392.8657709999998
 30
0.0
 11
394.0029759999998
 21
384.692121
 31
0.0
  0
ARC
  5
C247
330
C055
100
AcDbEntity
  8
1
  6
Continuous
100
AcDbCircle
 10
394.921201
 20
392.7789459999999
 30
0.0
 40
0.5
100
AcDbArc
 50
349.9999129999998
 51
169.9999129999999
  0
ARC
  5
C248
330
C055
100
AcDbEntity
  8
1
  6
Continuous
100
AcDbCircle
 10
395.9366269999999
 20
392.7789459999999
 30
0.0
 40
0.5
100
AcDbArc
 50
349.9999129999998
 51
169.9999129999999
  0
ARC
  5
C249
330
C055
100
AcDbEntity
  8
1
  6
Continuous
100
AcDbCircle
 10
394.525999
 20
384.778946
 30
0.0
 40
0.5
100
AcDbArc
 50
169.9999129999999
 51
349.9999129999998
  0
ARC
  5
C24A
330
C055
100
AcDbEntity
  8
1
  6
Continuous
100
AcDbCircle
 10
393.510572
 20
384.778946
 30
0.0
 40
0.5
100
AcDbArc
 50
169.9999129999999
 51
349.9999129999998
  0
LINE
  5
C24B
330
C055
100
AcDbEntity
  8
1
  6
Continuous
100
AcDbLine
 10
395.9714619999999
 20
393.2764129999998
 30
0.0
 11
395.9714619999999
 21
393.778946
 31
0.0
  0
LINE
  5
C24C
330
C055
100
AcDbEntity
  8
1
  6
Continuous
100
AcDbLine
 10
391.3825169999999
 20
392.8657709999998
 30
0.0
 11
389.9718889999999
 21
384.8657709999998
 31
0.0
  0
ARC
  5
C24D
330
C055
100
AcDbEntity
  8
1
  6
Continuous
100
AcDbCircle
 10
391.8749209999999
 20
392.7789459999999
 30
0.0
 40
0.5
100
AcDbArc
 50
349.9999129999998
 51
169.9999129999999
  0
LINE
  5
C24E
330
C055
100
AcDbEntity
  8
1
  6
Continuous
100
AcDbLine
 10
392.397944
 20
392.8657709999998
 30
0.0
 11
390.956696
 21
384.692121
 31
0.0
  0
LINE
  5
C24F
330
C055
100
AcDbEntity
  8
1
  6
Continuous
100
AcDbLine
 10
393.4133699999999
 20
392.8657709999998
 30
0.0
 11
392.002742
 21
384.8657709999998
 31
0.0
  0
ARC
  5
C250
330
C055
100
AcDbEntity
  8
1
  6
Continuous
100
AcDbCircle
 10
392.890347
 20
392.7789459999999
 30
0.0
 40
0.5
100
AcDbArc
 50
349.9999129999998
 51
169.9999129999999
  0
ARC
  5
C251
330
C055
100
AcDbEntity
  8
1
  6
Continuous
100
AcDbCircle
 10
393.9057739999999
 20
392.7789459999999
 30
0.0
 40
0.5
100
AcDbArc
 50
349.9999129999998
 51
169.9999129999999
  0
ARC
  5
C252
330
C055
100
AcDbEntity
  8
1
  6
Continuous
100
AcDbCircle
 10
390.464292
 20
384.778946
 30
0.0
 40
0.5
100
AcDbArc
 50
169.9999129999999
 51
349.9999129999998
  0
ARC
  5
C253
330
C055
100
AcDbEntity
  8
1
  6
Continuous
100
AcDbCircle
 10
391.4797189999999
 20
384.778946
 30
0.0
 40
0.5
100
AcDbArc
 50
169.9999129999999
 51
349.9999129999998
  0
ARC
  5
C254
330
C055
100
AcDbEntity
  8
1
  6
Continuous
100
AcDbCircle
 10
392.495145
 20
384.778946
 30
0.0
 40
0.5
100
AcDbArc
 50
169.9999129999999
 51
349.9999129999998
  0
LINE
  5
C255
330
C055
100
AcDbEntity
  8
1
  6
Continuous
100
AcDbLine
 10
390.36709
 20
392.8657709999998
 30
0.0
 11
388.9564619999999
 21
384.8657709999998
 31
0.0
  0
LINE
  5
C256
330
C055
100
AcDbEntity
  8
1
  6
Continuous
100
AcDbLine
 10
389.3516629999999
 20
392.8657709999998
 30
0.0
 11
387.910415
 21
384.692121
 31
0.0
  0
LINE
  5
C257
330
C055
100
AcDbEntity
  8
1
  6
Continuous
100
AcDbLine
 10
388.3362359999999
 20
392.8657709999998
 30
0.0
 11
386.9256079999999
 21
384.8657709999998
 31
0.0
  0
ARC
  5
C258
330
C055
100
AcDbEntity
  8
1
  6
Continuous
100
AcDbCircle
 10
390.859494
 20
392.7789459999999
 30
0.0
 40
0.5
100
AcDbArc
 50
349.9999129999998
 51
169.9999129999999
  0
ARC
  5
C259
330
C055
100
AcDbEntity
  8
1
  6
Continuous
100
AcDbCircle
 10
389.8440659999998
 20
392.7789459999999
 30
0.0
 40
0.5
100
AcDbArc
 50
349.9999129999998
 51
169.9999129999999
  0
ARC
  5
C25A
330
C055
100
AcDbEntity
  8
1
  6
Continuous
100
AcDbCircle
 10
388.82864
 20
392.7789459999999
 30
0.0
 40
0.5
100
AcDbArc
 50
349.9999129999998
 51
169.9999129999999
  0
ARC
  5
C25B
330
C055
100
AcDbEntity
  8
1
  6
Continuous
100
AcDbCircle
 10
389.4488649999999
 20
384.778946
 30
0.0
 40
0.5
100
AcDbArc
 50
169.9999129999999
 51
349.9999129999998
  0
ARC
  5
C25C
330
C055
100
AcDbEntity
  8
1
  6
Continuous
100
AcDbCircle
 10
388.4334379999998
 20
384.778946
 30
0.0
 40
0.5
100
AcDbArc
 50
169.9999129999999
 51
349.9999129999998
  0
ARC
  5
C25D
330
C055
100
AcDbEntity
  8
1
  6
Continuous
100
AcDbCircle
 10
387.4180109999999
 20
384.778946
 30
0.0
 40
0.5
100
AcDbArc
 50
169.9999129999999
 51
349.9999129999998
  0
LINE
  5
C25E
330
C055
100
AcDbEntity
  8
1
  6
Continuous
100
AcDbLine
 10
384.2745289999998
 20
392.8657709999998
 30
0.0
 11
383.5692149999999
 21
388.865771
 31
0.0
  0
LINE
  5
C25F
330
C055
100
AcDbEntity
  8
1
  6
Continuous
100
AcDbLine
 10
385.289956
 20
392.8657709999998
 30
0.0
 11
383.848708
 21
384.692121
 31
0.0
  0
LINE
  5
C260
330
C055
100
AcDbEntity
  8
1
  6
Continuous
100
AcDbLine
 10
386.305382
 20
392.8657709999998
 30
0.0
 11
384.8947539999999
 21
384.8657709999998
 31
0.0
  0
LINE
  5
C261
330
C055
100
AcDbEntity
  8
1
  6
Continuous
100
AcDbLine
 10
387.3208089999998
 20
392.8657709999998
 30
0.0
 11
385.910181
 21
384.8657709999998
 31
0.0
  0
ARC
  5
C262
330
C055
100
AcDbEntity
  8
1
  6
Continuous
100
AcDbCircle
 10
384.766933
 20
392.7789459999999
 30
0.0
 40
0.5
100
AcDbArc
 50
349.9999129999998
 51
169.9999129999999
  0
ARC
  5
C263
330
C055
100
AcDbEntity
  8
1
  6
Continuous
100
AcDbCircle
 10
385.7823589999999
 20
392.7789459999999
 30
0.0
 40
0.5
100
AcDbArc
 50
349.9999129999998
 51
169.9999129999999
  0
ARC
  5
C264
330
C055
100
AcDbEntity
  8
1
  6
Continuous
100
AcDbCircle
 10
386.7977859999998
 20
392.7789459999999
 30
0.0
 40
0.5
100
AcDbArc
 50
349.9999129999998
 51
169.9999129999999
  0
ARC
  5
C265
330
C055
100
AcDbEntity
  8
1
  6
Continuous
100
AcDbCircle
 10
387.8132129999999
 20
392.7789459999999
 30
0.0
 40
0.5
100
AcDbArc
 50
349.9999129999998
 51
169.9999129999999
  0
ARC
  5
C266
330
C055
100
AcDbEntity
  8
1
  6
Continuous
100
AcDbCircle
 10
384.371731
 20
384.778946
 30
0.0
 40
0.5
100
AcDbArc
 50
169.9999129999999
 51
349.9999129999998
  0
ARC
  5
C267
330
C055
100
AcDbEntity
  8
1
  6
Continuous
100
AcDbCircle
 10
385.3871569999999
 20
384.778946
 30
0.0
 40
0.5
100
AcDbArc
 50
169.9999129999999
 51
349.9999129999998
  0
ARC
  5
C268
330
C055
100
AcDbEntity
  8
1
  6
Continuous
100
AcDbCircle
 10
386.402584
 20
384.778946
 30
0.0
 40
0.5
100
AcDbArc
 50
169.9999129999999
 51
349.9999129999998
  0
ARC
  5
C269
330
C055
100
AcDbEntity
  8
1
  6
Continuous
100
AcDbCircle
 10
384.0616179999998
 20
388.778946
 30
0.0
 40
0.5
100
AcDbArc
 50
169.9999159999999
 51
349.999912
  0
LINE
  5
C26A
330
C055
100
AcDbEntity
  8
1
  6
Continuous
100
AcDbLine
 10
396.4596509999998
 20
185.679807
 30
0.0
 11
395.9714619999999
 21
182.9111729999999
 31
0.0
  0
LINE
  5
C26B
330
C055
100
AcDbEntity
  8
1
  6
Continuous
100
AcDbLine
 10
397.4750779999998
 20
185.679807
 30
0.0
 11
396.0338299999999
 21
177.506157
 31
0.0
  0
LINE
  5
C26C
330
C055
100
AcDbEntity
  8
1
  6
Continuous
100
AcDbLine
 10
399.475312
 20
185.506157
 30
0.0
 11
398.0646839999998
 21
177.506157
 31
0.0
  0
LINE
  5
C26D
330
C055
100
AcDbEntity
  8
1
  6
Continuous
100
AcDbLine
 10
398.490505
 20
185.679807
 30
0.0
 11
397.049257
 21
177.506157
 31
0.0
  0
ARC
  5
C26E
330
C055
100
AcDbEntity
  8
1
  6
Continuous
100
AcDbCircle
 10
395.5414259999998
 20
177.5929819999998
 30
0.0
 40
0.5
100
AcDbArc
 50
329.3246679999999
 51
349.9999129999998
  0
ARC
  5
C26F
330
C055
100
AcDbEntity
  8
1
  6
Continuous
100
AcDbCircle
 10
397.5722799999999
 20
177.5929819999998
 30
0.0
 40
0.5
100
AcDbArc
 50
169.9999129999999
 51
349.9999129999998
  0
ARC
  5
C270
330
C055
100
AcDbEntity
  8
1
  6
Continuous
100
AcDbCircle
 10
396.556853
 20
177.5929819999998
 30
0.0
 40
0.5
100
AcDbArc
 50
169.9999129999999
 51
349.9999129999998
  0
ARC
  5
C271
330
C055
100
AcDbEntity
  8
1
  6
Continuous
100
AcDbCircle
 10
399.293021
 20
181.592982
 30
0.0
 40
0.5
100
AcDbArc
 50
90.0
 51
270.0
  0
ARC
  5
C272
330
C055
100
AcDbEntity
  8
1
  6
Continuous
100
AcDbCircle
 10
396.952055
 20
185.592982
 30
0.0
 40
0.5
100
AcDbArc
 50
349.9999129999998
 51
169.9999129999999
  0
ARC
  5
C273
330
C055
100
AcDbEntity
  8
1
  6
Continuous
100
AcDbCircle
 10
397.967481
 20
185.592982
 30
0.0
 40
0.5
100
AcDbArc
 50
349.9999129999998
 51
169.9999129999999
  0
ARC
  5
C274
330
C055
100
AcDbEntity
  8
1
  6
Continuous
100
AcDbCircle
 10
398.982908
 20
185.592982
 30
0.0
 40
0.5
100
AcDbArc
 50
349.9999129999998
 51
169.9999129999999
  0
ARC
  5
C275
330
C055
100
AcDbEntity
  8
1
  6
Continuous
100
AcDbCircle
 10
395.9366269999999
 20
185.592982
 30
0.0
 40
0.5
100
AcDbArc
 50
349.9999129999998
 51
86.004999
  0
LINE
  5
C276
330
C055
100
AcDbEntity
  8
1
  6
Continuous
100
AcDbLine
 10
399.475312
 20
185.506157
 30
0.0
 11
399.7524259999999
 21
182.092982
 31
0.0
  0
LINE
  5
C277
330
C055
100
AcDbEntity
  8
1
  6
Continuous
100
AcDbLine
 10
325.938577
 20
93.78896500000001
 30
0.0
 11
301.8813129999998
 21
95.54239399999996
 31
0.0
  0
LINE
  5
C278
330
C055
100
AcDbEntity
  8
1
  6
Continuous
100
AcDbLine
 10
348.9161009999999
 20
390.831048
 30
0.0
 11
348.9161009999999
 21
386.778946
 31
0.0
  0
LINE
  5
C279
330
C055
100
AcDbEntity
  8
1
  6
Continuous
100
AcDbLine
 10
345.2847229999999
 20
390.778946
 30
0.0
 11
345.2847229999999
 21
386.778946
 31
0.0
  0
LINE
  5
C27A
330
C055
100
AcDbEntity
  8
1
  6
Continuous
100
AcDbLine
 10
345.2847229999999
 20
390.778946
 30
0.0
 11
361.1428319999998
 21
390.778946
 31
0.0
  0
LINE
  5
C27B
330
C055
100
AcDbEntity
  8
1
  6
Continuous
100
AcDbLine
 10
345.2847229999999
 20
386.778946
 30
0.0
 11
361.1428319999998
 21
386.778946
 31
0.0
  0
LINE
  5
C27C
330
C055
100
AcDbEntity
  8
1
  6
Continuous
100
AcDbLine
 10
335.2401959999999
 20
390.278946
 30
0.0
 11
335.2401959999999
 21
387.278946
 31
0.0
  0
LINE
  5
C27D
330
C055
100
AcDbEntity
  8
1
  6
Continuous
100
AcDbLine
 10
309.0257279999998
 20
390.278946
 30
0.0
 11
309.0257279999998
 21
387.278946
 31
0.0
  0
LINE
  5
C27E
330
C055
100
AcDbEntity
  8
1
  6
Continuous
100
AcDbLine
 10
297.0560449999999
 20
390.278946
 30
0.0
 11
297.0560449999999
 21
387.278946
 31
0.0
  0
LINE
  5
C27F
330
C055
100
AcDbEntity
  8
1
  6
Continuous
100
AcDbLine
 10
395.9714619999999
 20
271.4934289999998
 30
0.0
 11
382.10822
 21
270.4829979999999
 31
0.0
  0
LINE
  5
C280
330
C055
100
AcDbEntity
  8
1
  6
Continuous
100
AcDbLine
 10
403.1626549999998
 20
295.078574
 30
0.0
 11
324.484722
 21
289.344087
 31
0.0
  0
LINE
  5
C281
330
C055
100
AcDbEntity
  8
4
  6
CENTER
100
AcDbLine
 10
240.864533
 20
285.185964
 30
0.0
 11
425.453546
 21
285.185964
 31
0.0
  0
LINE
  5
C282
330
C055
100
AcDbEntity
  8
1
  6
Continuous
100
AcDbLine
 10
420.0
 20
270.185964
 30
0.0
 11
420.0
 21
248.185964
 31
0.0
  0
LINE
  5
C283
330
C055
100
AcDbEntity
  8
1
  6
Continuous
100
AcDbLine
 10
423.0
 20
322.185964
 30
0.0
 11
423.0
 21
248.185964
 31
0.0
  0
LINE
  5
C284
330
C055
100
AcDbEntity
  8
1
  6
Continuous
100
AcDbLine
 10
420.0
 20
322.185964
 30
0.0
 11
420.0
 21
300.185964
 31
0.0
  0
LINE
  5
C285
330
C055
100
AcDbEntity
  8
4
  6
CENTER
100
AcDbLine
 10
427.5
 20
312.185964
 30
0.0
 11
417.4999999999998
 21
312.185964
 31
0.0
  0
LINE
  5
C286
330
C055
100
AcDbEntity
  8
1
  6
Continuous
100
AcDbLine
 10
420.0
 20
322.185964
 30
0.0
 11
423.0
 21
322.185964
 31
0.0
  0
LINE
  5
C287
330
C055
100
AcDbEntity
  8
1
  6
Continuous
100
AcDbLine
 10
402.0972369999998
 20
294.7553930000001
 30
0.0
 11
420.0
 21
300.185964
 31
0.0
  0
LINE
  5
C288
330
C055
100
AcDbEntity
  8
1
  6
Continuous
100
AcDbLine
 10
402.0972369999998
 20
275.6165349999998
 30
0.0
 11
420.0
 21
270.185964
 31
0.0
  0
LINE
  5
C289
330
C055
100
AcDbEntity
  8
4
  6
CENTER
100
AcDbLine
 10
427.5
 20
270.185964
 30
0.0
 11
417.4999999999998
 21
270.185964
 31
0.0
  0
LINE
  5
C28A
330
C055
100
AcDbEntity
  8
4
  6
CENTER
100
AcDbLine
 10
427.5
 20
300.185964
 30
0.0
 11
417.4999999999998
 21
300.185964
 31
0.0
  0
LINE
  5
C28B
330
C055
100
AcDbEntity
  8
1
  6
Continuous
100
AcDbLine
 10
423.0
 20
300.185964
 30
0.0
 11
420.0
 21
300.185964
 31
0.0
  0
LINE
  5
C28C
330
C055
100
AcDbEntity
  8
1
  6
Continuous
100
AcDbLine
 10
423.0
 20
270.185964
 30
0.0
 11
420.0
 21
270.185964
 31
0.0
  0
LINE
  5
C28D
330
C055
100
AcDbEntity
  8
4
  6
CENTER
100
AcDbLine
 10
405.0
 20
298.858247
 30
0.0
 11
405.0
 21
271.303998
 31
0.0
  0
ARC
  5
C28E
330
C055
100
AcDbEntity
  8
1
  6
Continuous
100
AcDbCircle
 10
405.0
 20
285.185964
 30
0.0
 40
10.0
100
AcDbArc
 50
106.8744939999999
 51
253.125506
  0
LINE
  5
C28F
330
C055
100
AcDbEntity
  8
1
  6
Continuous
100
AcDbLine
 10
403.8745549999998
 20
275.0774089999998
 30
0.0
 11
395.7533839999999
 21
274.4854919999998
 31
0.0
  0
LINE
  5
C290
330
C055
100
AcDbEntity
  8
1
  6
Continuous
100
AcDbLine
 10
395.7533839999999
 20
274.4854919999998
 30
0.0
 11
395.9714619999999
 21
271.4934289999998
 31
0.0
  0
LINE
  5
C291
330
C055
100
AcDbEntity
  8
4
  6
CENTER
100
AcDbLine
 10
427.5
 20
258.185964
 30
0.0
 11
417.4999999999998
 21
258.185964
 31
0.0
  0
ARC
  5
C292
330
C055
100
AcDbEntity
  8
4
  6
CENTER
100
AcDbCircle
 10
277.9809409999999
 20
597.7796009999997
 30
0.0
 40
321.0
100
AcDbArc
 50
254.6987259999999
 51
274.1686649999999
  0
ARC
  5
C293
330
C055
100
AcDbEntity
  8
1
  6
Continuous
100
AcDbCircle
 10
277.9809409999999
 20
597.7796009999997
 30
0.0
 40
311.0
100
AcDbArc
 50
262.433122
 51
272.8301129999999
  0
ARC
  5
C294
330
C055
100
AcDbEntity
  8
1
  6
Continuous
100
AcDbCircle
 10
277.9809409999999
 20
597.7796009999997
 30
0.0
 40
331.0
100
AcDbArc
 50
257.0594869999998
 51
274.1686649999999
  0
ARC
  5
C295
330
C055
100
AcDbEntity
  8
5
  6
PHANTOM
100
AcDbCircle
 10
250.0000089999999
 20
300.1859359999999
 30
0.0
 40
10.0
100
AcDbArc
 50
196.874494
 51
343.1255059999998
  0
LINE
  5
C296
330
C055
100
AcDbEntity
  8
5
  6
PHANTOM
100
AcDbLine
 10
213.0000089999998
 20
318.1859359999999
 30
0.0
 11
287.0000089999999
 21
318.1859359999999
 31
0.0
  0
LINE
  5
C297
330
C055
100
AcDbEntity
  8
5
  6
PHANTOM
100
AcDbLine
 10
246.3642
 20
290.87031
 30
0.0
 11
320.8892109999998
 21
261.783839
 31
0.0
  0
ARC
  5
C298
330
C055
100
AcDbEntity
  8
5
  6
PHANTOM
100
AcDbCircle
 10
299.35115
 20
592.006531
 30
0.0
 40
311.0
100
AcDbArc
 50
258.5857209999999
 51
264.108406
  0
ARC
  5
C299
330
C055
100
AcDbEntity
  8
5
  6
PHANTOM
100
AcDbCircle
 10
299.35115
 20
592.006531
 30
0.0
 40
331.0
100
AcDbArc
 50
253.168766
 51
270.216746
  0
LINE
  5
C29A
330
C055
100
AcDbEntity
  8
4
  6
CENTER
100
AcDbLine
 10
241.8500089999998
 20
300.1859359999999
 30
0.0
 11
258.150009
 21
300.1859359999999
 31
0.0
  0
ARC
  5
C29B
330
C055
100
AcDbEntity
  8
5
  6
PHANTOM
100
AcDbCircle
 10
350.5248
 20
271.197794
 30
0.0
 40
10.0
100
AcDbArc
 50
270.2167489999999
 51
90.216746
  0
LINE
  5
C29C
330
C055
100
AcDbEntity
  8
1
  6
Continuous
100
AcDbLine
 10
370.3071709999999
 20
267.316746
 30
0.0
 11
370.6488289999999
 21
262.6291959999999
 31
0.0
  0
LINE
  5
C29D
330
C055
100
AcDbEntity
  8
1
  6
Continuous
100
AcDbLine
 10
371.698525
 20
275.740177
 30
0.0
 11
372.6435379999998
 21
262.774582
 31
0.0
  0
ARC
  5
C29E
330
C055
100
AcDbEntity
  8
5
  6
PHANTOM
100
AcDbCircle
 10
324.525043
 20
271.09944
 30
0.0
 40
9.999988999999999
100
AcDbArc
 50
248.679723
 51
68.679722
  0
ARC
  5
C29F
330
C055
100
AcDbEntity
  8
1
  6
Continuous
100
AcDbCircle
 10
325.2116169999998
 20
279.3705549999998
 30
0.0
 40
9.999988999999999
100
AcDbArc
 50
94.12314999999999
 51
274.1686609999998
  0
LINE
  5
C2A0
330
C055
100
AcDbEntity
  8
1
  6
Continuous
100
AcDbLine
 10
325.938577
 20
269.3969989999999
 30
0.0
 11
301.8813129999998
 21
267.64357
 31
0.0
  0
LINE
  5
C2A1
330
C055
100
AcDbEntity
  8
4
  6
CENTER
100
AcDbLine
 10
335.2401959999999
 20
280.1014799999999
 30
0.0
 11
301.1543849999998
 21
277.617115
 31
0.0
  0
LINE
  5
C2A2
330
C055
100
AcDbEntity
  8
1
  6
Continuous
100
AcDbLine
 10
324.484722
 20
289.344087
 30
0.0
 11
312.8136399999998
 21
288.4934329999999
 31
0.0
  0
LINE
  5
C2A3
330
C055
100
AcDbEntity
  8
5
  6
PHANTOM
100
AcDbLine
 10
294.624618
 20
293.5039859999998
 30
0.0
 11
328.1608279999999
 21
280.415092
 31
0.0
  0
LINE
  5
C2A4
330
C055
100
AcDbEntity
  8
4
  6
CENTER
100
AcDbLine
 10
317.061649
 20
279.370543
 30
0.0
 11
333.361649
 21
279.370543
 31
0.0
  0
LINE
  5
C2A5
330
C055
100
AcDbEntity
  8
4
  6
CENTER
100
AcDbLine
 10
354.750552
 20
281.0497119999999
 30
0.0
 11
341.7505520000001
 21
281.0497119999999
 31
0.0
  0
LINE
  5
C2A6
330
C055
100
AcDbEntity
  8
1
  6
Continuous
100
AcDbLine
 10
375.812976
 20
288.0718959999999
 30
0.0
 11
347.887086
 21
286.0364839999999
 31
0.0
  0
LINE
  5
C2A7
330
C055
100
AcDbEntity
  8
1
  6
Continuous
100
AcDbLine
 10
369.5584289999998
 20
277.5894989999999
 30
0.0
 11
348.6140189999999
 21
276.0629399999999
 31
0.0
  0
LINE
  5
C2A8
330
C055
100
AcDbEntity
  8
1
  6
Continuous
100
AcDbLine
 10
361.8432869999999
 20
272.013935
 30
0.0
 11
325.938577
 21
269.3969989999999
 31
0.0
  0
LINE
  5
C2A9
330
C055
100
AcDbEntity
  8
4
  6
CENTER
100
AcDbLine
 10
376.1764429999999
 20
289.585124
 30
0.0
 11
376.1764429999999
 21
276.5851239999999
 31
0.0
  0
ARC
  5
C2AA
330
C055
100
AcDbEntity
  8
1
  6
Continuous
100
AcDbCircle
 10
376.1764429999999
 20
283.085124
 30
0.0
 40
5.0
100
AcDbArc
 50
4.168705
 51
94.16870100000002
  0
LINE
  5
C2AB
330
C055
100
AcDbEntity
  8
4
  6
CENTER
100
AcDbLine
 10
382.676443
 20
283.085124
 30
0.0
 11
369.6764429999998
 21
283.085124
 31
0.0
  0
ARC
  5
C2AC
330
C055
100
AcDbEntity
  8
1
  6
Continuous
100
AcDbCircle
 10
369.703816
 20
275.5947899999998
 30
0.0
 40
2.0
100
AcDbArc
 50
4.168705
 51
94.16870100000002
  0
LINE
  5
C2AD
330
C055
100
AcDbEntity
  8
1
  6
Continuous
100
AcDbLine
 10
372.1346759999998
 20
269.756071
 30
0.0
 11
362.061366
 21
269.0218719999999
 31
0.0
  0
ARC
  5
C2AE
330
C055
100
AcDbEntity
  8
1
  6
Continuous
100
AcDbCircle
 10
372.3018799999999
 20
267.4621329999999
 30
0.0
 40
2.0
100
AcDbArc
 50
94.16870399999996
 51
184.1687049999999
  0
LINE
  5
C2AF
330
C055
100
AcDbEntity
  8
1
  6
Continuous
100
AcDbLine
 10
382.275423
 20
268.1890669999999
 30
0.0
 11
372.3018799999999
 21
267.4621329999999
 31
0.0
  0
LINE
  5
C2B0
330
C055
100
AcDbEntity
  8
1
  6
Continuous
100
AcDbLine
 10
381.1632149999999
 20
283.448591
 30
0.0
 11
382.275423
 21
268.1890669999999
 31
0.0
  0
LINE
  5
C2B1
330
C055
100
AcDbEntity
  8
1
  6
Continuous
100
AcDbLine
 10
361.8432869999999
 20
272.013935
 30
0.0
 11
362.061366
 21
269.0218719999999
 31
0.0
  0
LINE
  5
C2B2
330
C055
100
AcDbEntity
  8
4
  6
CENTER
100
AcDbLine
 10
348.2505520000001
 20
287.5497119999998
 30
0.0
 11
348.2505520000001
 21
274.549712
 31
0.0
  0
LINE
  5
C2B3
330
C055
100
AcDbEntity
  8
4
  6
CENTER
100
AcDbLine
 10
325.211649
 20
271.220543
 30
0.0
 11
325.211649
 21
287.5205429999999
 31
0.0
  0
ARC
  5
C2B4
330
C055
100
AcDbEntity
  8
5
  6
PHANTOM
100
AcDbCircle
 10
338.624922
 20
271.152823
 30
0.0
 40
4.099999999999997
100
AcDbArc
 50
180.21684
 51
270.216745
  0
ARC
  5
C2B5
330
C055
100
AcDbEntity
  8
1
  6
Continuous
100
AcDbCircle
 10
339.174594
 20
280.3882399999998
 30
0.0
 40
2.1
100
AcDbArc
 50
94.16866199999999
 51
274.1686609999998
  0
LINE
  5
C2B6
330
C055
100
AcDbEntity
  8
5
  6
PHANTOM
100
AcDbLine
 10
338.640439
 20
267.0528159999999
 30
0.0
 11
347.5403569999999
 21
267.086491
 31
0.0
  0
ARC
  5
C2B7
330
C055
100
AcDbEntity
  8
5
  6
PHANTOM
100
AcDbCircle
 10
347.5248399999999
 20
271.1864979999999
 30
0.0
 40
4.099999999999997
100
AcDbArc
 50
270.2167489999999
 51
90.216747
  0
LINE
  5
C2B8
330
C055
100
AcDbEntity
  8
5
  6
PHANTOM
100
AcDbLine
 10
345.0077959999999
 20
275.2769939999998
 30
0.0
 11
347.509344
 21
275.2864389999999
 31
0.0
  0
LINE
  5
C2B9
330
C055
100
AcDbEntity
  8
5
  6
PHANTOM
100
AcDbLine
 10
345.003619
 20
276.2769859999999
 30
0.0
 11
345.0077959999999
 21
275.2769939999998
 31
0.0
  0
LINE
  5
C2BA
330
C055
100
AcDbEntity
  8
5
  6
PHANTOM
100
AcDbLine
 10
345.003619
 20
276.2769859999999
 30
0.0
 11
348.983202
 21
281.1920359999999
 31
0.0
  0
ARC
  5
C2BB
330
C055
100
AcDbEntity
  8
1
  6
Continuous
100
AcDbCircle
 10
348.2505520000001
 20
281.0497119999999
 30
0.0
 40
5.0
100
AcDbArc
 50
94.16869700000004
 51
274.168696
  0
LINE
  5
C2BC
330
C055
100
AcDbEntity
  8
1
  6
Continuous
100
AcDbLine
 10
339.327249
 20
278.2937899999998
 30
0.0
 11
343.8775919999998
 21
278.6254439999999
 31
0.0
  0
LINE
  5
C2BD
330
C055
100
AcDbEntity
  8
1
  6
Continuous
100
AcDbLine
 10
343.5722819999999
 20
282.814345
 30
0.0
 11
339.0219389999999
 21
282.48269
 31
0.0
  0
LINE
  5
C2BE
330
C055
100
AcDbEntity
  8
5
  6
PHANTOM
100
AcDbLine
 10
350.4869709999999
 20
281.197723
 30
0.0
 11
348.9832
 21
281.1920339999999
 31
0.0
  0
LINE
  5
C2BF
330
C055
100
AcDbEntity
  8
5
  6
PHANTOM
100
AcDbLine
 10
259.5694379999998
 20
297.2831739999999
 30
0.0
 11
265.0000089999999
 21
315.1859359999999
 31
0.0
  0
LINE
  5
C2C0
330
C055
100
AcDbEntity
  8
5
  6
PHANTOM
100
AcDbLine
 10
264.042187
 20
308.660442
 30
0.0
 11
276.990923
 21
303.6066609999999
 31
0.0
  0
LINE
  5
C2C1
330
C055
100
AcDbEntity
  8
5
  6
PHANTOM
100
AcDbLine
 10
262.9514439999999
 20
305.865754
 30
0.0
 11
264.042187
 21
308.660442
 31
0.0
  0
LINE
  5
C2C2
330
C055
100
AcDbEntity
  8
5
  6
PHANTOM
100
AcDbLine
 10
265.0000089999999
 20
315.1859359999999
 30
0.0
 11
287.0000089999999
 21
315.1859359999999
 31
0.0
  0
LINE
  5
C2C3
330
C055
100
AcDbEntity
  8
5
  6
PHANTOM
100
AcDbLine
 10
287.0000089999999
 20
315.1859359999999
 30
0.0
 11
287.0000089999999
 21
318.1859359999999
 31
0.0
  0
LINE
  5
C2C4
330
C055
100
AcDbEntity
  8
4
  6
CENTER
100
AcDbLine
 10
277.0000089999999
 20
322.6859359999999
 30
0.0
 11
277.0000089999999
 21
312.6859359999999
 31
0.0
  0
LINE
  5
C2C5
330
C055
100
AcDbEntity
  8
5
  6
PHANTOM
100
AcDbLine
 10
265.0000089999999
 20
318.1859359999999
 30
0.0
 11
265.0000089999999
 21
315.1859359999999
 31
0.0
  0
LINE
  5
C2C6
330
C055
100
AcDbEntity
  8
4
  6
CENTER
100
AcDbLine
 10
265.0000089999999
 20
322.6859359999999
 30
0.0
 11
265.0000089999999
 21
312.6859359999999
 31
0.0
  0
LINE
  5
C2C7
330
C055
100
AcDbEntity
  8
5
  6
PHANTOM
100
AcDbLine
 10
289.0059109999999
 20
301.3863109999999
 30
0.0
 11
290.714733
 21
305.7646429999999
 31
0.0
  0
LINE
  5
C2C8
330
C055
100
AcDbEntity
  8
5
  6
PHANTOM
100
AcDbLine
 10
288.851607
 20
306.491803
 30
0.0
 11
290.714733
 21
305.7646429999999
 31
0.0
  0
LINE
  5
C2C9
330
C055
100
AcDbEntity
  8
5
  6
PHANTOM
100
AcDbLine
 10
275.1042889999999
 20
285.0206449999999
 30
0.0
 11
301.18802
 21
274.8404069999998
 31
0.0
  0
LINE
  5
C2CA
330
C055
100
AcDbEntity
  8
5
  6
PHANTOM
100
AcDbLine
 10
285.261032
 20
291.7912109999999
 30
0.0
 11
304.8238229999999
 21
284.1560359999999
 31
0.0
  0
LINE
  5
C2CB
330
C055
100
AcDbEntity
  8
5
  6
PHANTOM
100
AcDbLine
 10
286.306549
 20
299.970852
 30
0.0
 11
295.7153599999998
 21
296.298674
 31
0.0
  0
ARC
  5
C2CC
330
C055
100
AcDbEntity
  8
1
  6
Continuous
100
AcDbCircle
 10
293.583347
 20
282.1650179999998
 30
0.0
 40
5.0
100
AcDbArc
 50
30.70122299999999
 51
92.830113
  0
ARC
  5
C2CD
330
C055
100
AcDbEntity
  8
1
  6
Continuous
100
AcDbCircle
 10
313.1771039999998
 20
283.506661
 30
0.0
 40
5.0
100
AcDbArc
 50
94.16866500000001
 51
157.1329729999999
  0
LINE
  5
C2CE
330
C055
100
AcDbEntity
  8
5
  6
PHANTOM
100
AcDbLine
 10
294.624618
 20
293.5039859999998
 30
0.0
 11
295.7153599999998
 21
296.298674
 31
0.0
  0
ARC
  5
C2CF
330
C055
100
AcDbEntity
  8
1
  6
Continuous
100
AcDbCircle
 10
303.041602
 20
287.7811919999999
 30
0.0
 40
6.0
100
AcDbArc
 50
210.701223
 51
337.132973
  0
ARC
  5
C2D0
330
C055
100
AcDbEntity
  8
5
  6
PHANTOM
100
AcDbCircle
 10
303.005922
 20
279.498221
 30
0.0
 40
5.0
100
AcDbArc
 50
248.679758
 51
68.67975699999999
  0
ARC
  5
C2D1
330
C055
100
AcDbEntity
  8
5
  6
PHANTOM
100
AcDbCircle
 10
311.483158
 20
276.189592
 30
0.0
 40
2.1
100
AcDbArc
 50
248.679723
 51
68.679722
  0
LINE
  5
C2D2
330
C055
100
AcDbEntity
  8
5
  6
PHANTOM
100
AcDbLine
 10
312.2466799999999
 20
278.1458789999999
 30
0.0
 11
307.996506
 21
279.8046849999999
 31
0.0
  0
LINE
  5
C2D3
330
C055
100
AcDbEntity
  8
5
  6
PHANTOM
100
AcDbLine
 10
306.469462
 20
275.892111
 30
0.0
 11
310.7196359999999
 21
274.2333049999999
 31
0.0
  0
ARC
  5
C2D4
330
C055
100
AcDbEntity
  8
5
  6
PHANTOM
100
AcDbCircle
 10
276.922191
 20
289.6784589999999
 30
0.0
 40
5.0
100
AcDbArc
 50
158.679766
 51
248.679762
  0
LINE
  5
C2D5
330
C055
100
AcDbEntity
  8
5
  6
PHANTOM
100
AcDbLine
 10
272.2643759999999
 20
291.496361
 30
0.0
 11
277.8271559999998
 21
305.749275
 31
0.0
  0
ARC
  5
C2D6
330
C055
100
AcDbEntity
  8
5
  6
PHANTOM
100
AcDbCircle
 10
287.1427849999999
 20
302.113472
 30
0.0
 40
2.0
100
AcDbArc
 50
248.679765
 51
338.6797659999999
  0
ARC
  5
C2D7
330
C055
100
AcDbEntity
  8
5
  6
PHANTOM
100
AcDbCircle
 10
285.988193
 20
293.6543369999998
 30
0.0
 40
2.0
100
AcDbArc
 50
158.679766
 51
248.679762
  0
LINE
  5
C2D8
330
C055
100
AcDbEntity
  8
5
  6
PHANTOM
100
AcDbLine
 10
284.1250669999999
 20
294.381497
 30
0.0
 11
288.851607
 21
306.491803
 31
0.0
  0
LINE
  5
C2D9
330
C055
100
AcDbEntity
  8
5
  6
PHANTOM
100
AcDbLine
 10
277.8271559999998
 20
305.749275
 30
0.0
 11
287.1427849999999
 21
302.113472
 31
0.0
  0
LINE
  5
C2DA
330
C055
100
AcDbEntity
  8
5
  6
PHANTOM
100
AcDbLine
 10
262.2552719999999
 20
306.137464
 30
0.0
 11
262.9514439999999
 21
305.865754
 31
0.0
  0
LINE
  5
C2DB
330
C055
100
AcDbEntity
  8
5
  6
PHANTOM
100
AcDbLine
 10
350.562629
 20
261.197893
 30
0.0
 11
300.441942
 21
261.008289
 31
0.0
  0
LINE
  5
C2DC
330
C055
100
AcDbEntity
  8
1
  6
Continuous
100
AcDbLine
 10
372.6435379999998
 20
262.774582
 30
0.0
 11
370.6488289999999
 21
262.6291959999999
 31
0.0
  0
LINE
  5
C2DD
330
C055
100
AcDbEntity
  8
1
  6
Continuous
100
AcDbLine
 10
228.000024
 20
275.1859769999999
 30
0.0
 11
181.9999939999999
 21
275.1859769999999
 31
0.0
  0
LINE
  5
C2DE
330
C055
100
AcDbEntity
  8
4
  6
CENTER
100
AcDbLine
 10
169.7546159999999
 20
285.185985
 30
0.0
 11
240.864533
 21
285.185942
 31
0.0
  0
LINE
  5
C2DF
330
C055
100
AcDbEntity
  8
1
  6
Continuous
100
AcDbLine
 10
228.000006
 20
295.1859499999999
 30
0.0
 11
182.000006
 21
295.185977
 31
0.0
  0
LINE
  5
C2E0
330
C055
100
AcDbEntity
  8
5
  6
PHANTOM
100
AcDbLine
 10
240.4305799999999
 20
297.2831739999999
 30
0.0
 11
235.0000089999999
 21
315.1859359999999
 31
0.0
  0
LINE
  5
C2E1
330
C055
100
AcDbEntity
  8
4
  6
CENTER
100
AcDbLine
 10
250.0000089999999
 20
292.0359359999998
 30
0.0
 11
250.0000089999999
 21
322.1069449999999
 31
0.0
  0
LINE
  5
C2E2
330
C055
100
AcDbEntity
  8
5
  6
PHANTOM
100
AcDbLine
 10
213.0000089999998
 20
315.1859359999999
 30
0.0
 11
235.0000089999999
 21
315.1859359999999
 31
0.0
  0
LINE
  5
C2E3
330
C055
100
AcDbEntity
  8
5
  6
PHANTOM
100
AcDbLine
 10
235.0000089999999
 20
318.1859359999999
 30
0.0
 11
235.0000089999999
 21
315.1859359999999
 31
0.0
  0
LINE
  5
C2E4
330
C055
100
AcDbEntity
  8
4
  6
CENTER
100
AcDbLine
 10
235.0000089999999
 20
322.6859359999999
 30
0.0
 11
235.0000089999999
 21
312.6859359999999
 31
0.0
  0
LINE
  5
C2E5
330
C055
100
AcDbEntity
  8
5
  6
PHANTOM
100
AcDbLine
 10
213.0000089999998
 20
315.1859359999999
 30
0.0
 11
213.0000089999998
 21
318.1859359999999
 31
0.0
  0
LINE
  5
C2E6
330
C055
100
AcDbEntity
  8
4
  6
CENTER
100
AcDbLine
 10
223.0000089999998
 20
322.6859359999999
 30
0.0
 11
223.0000089999998
 21
312.6859359999999
 31
0.0
  0
LINE
  5
C2E7
330
C055
100
AcDbEntity
  8
4
  6
CENTER
100
AcDbLine
 10
227.999996
 20
279.3859499999999
 30
0.0
 11
228.000003
 21
290.9859499999999
 31
0.0
  0
LINE
  5
C2E8
330
C055
100
AcDbEntity
  8
4
  6
CENTER
100
AcDbLine
 10
204.9999909999999
 20
271.0681579999999
 30
0.0
 11
205.000009
 21
299.8079539999999
 31
0.0
  0
LINE
  5
C2E9
330
C055
100
AcDbEntity
  8
1
  6
Continuous
100
AcDbLine
 10
193.000006
 20
295.1859729999998
 30
0.0
 11
192.9999939999999
 21
275.185973
 31
0.0
  0
LINE
  5
C2EA
330
C055
100
AcDbEntity
  8
4
  6
CENTER
100
AcDbLine
 10
181.999996
 20
279.385977
 30
0.0
 11
182.0000029999999
 21
290.985977
 31
0.0
  0
ARC
  5
C2EB
330
C055
100
AcDbEntity
  8
1
  6
Continuous
100
AcDbCircle
 10
182.0
 20
285.1859769999999
 30
0.0
 40
10.0
100
AcDbArc
 50
89.99996499999998
 51
269.9999649999999
  0
CIRCLE
  5
C2EC
330
C055
100
AcDbEntity
  8
1
  6
Continuous
100
AcDbCircle
 10
182.0
 20
285.1859769999999
 30
0.0
 40
2.149999999999999
  0
CIRCLE
  5
C2ED
330
C055
100
AcDbEntity
  8
1
  6
Continuous
100
AcDbCircle
 10
405.0
 20
285.185964
 30
0.0
 40
4.5
  0
CIRCLE
  5
C2EE
330
C055
100
AcDbEntity
  8
5
  6
PHANTOM
100
AcDbCircle
 10
324.52502
 20
271.0994649999999
 30
0.0
 40
4.5
  0
CIRCLE
  5
C2EF
330
C055
100
AcDbEntity
  8
1
  6
Continuous
100
AcDbCircle
 10
325.2116169999998
 20
279.3705549999998
 30
0.0
 40
4.5
  0
CIRCLE
  5
C2F0
330
C055
100
AcDbEntity
  8
1
  6
Continuous
100
AcDbCircle
 10
348.2505520000001
 20
281.0497119999999
 30
0.0
 40
2.5
  0
CIRCLE
  5
C2F1
330
C055
100
AcDbEntity
  8
1
  6
Continuous
100
AcDbCircle
 10
376.1764429999999
 20
283.085124
 30
0.0
 40
2.5
  0
CIRCLE
  5
C2F2
330
C055
100
AcDbEntity
  8
5
  6
PHANTOM
100
AcDbCircle
 10
250.0000089999999
 20
300.1859359999999
 30
0.0
 40
4.5
  0
CIRCLE
  5
C2F3
330
C055
100
AcDbEntity
  8
5
  6
PHANTOM
100
AcDbCircle
 10
276.922191
 20
289.6784589999999
 30
0.0
 40
2.5
  0
CIRCLE
  5
C2F4
330
C055
100
AcDbEntity
  8
5
  6
PHANTOM
100
AcDbCircle
 10
303.005922
 20
279.498221
 30
0.0
 40
2.5
  0
CIRCLE
  5
C2F5
330
C055
100
AcDbEntity
  8
1
  6
Continuous
100
AcDbCircle
 10
228.000018
 20
285.1859769999999
 30
0.0
 40
2.149999999999999
  0
ARC
  5
C2F6
330
C055
100
AcDbEntity
  8
1
  6
Continuous
100
AcDbCircle
 10
228.000018
 20
285.1859769999999
 30
0.0
 40
10.0
100
AcDbArc
 50
270.000035
 51
90.00003499999996
  0
CIRCLE
  5
C2F7
330
C055
100
AcDbEntity
  8
1
  6
Continuous
100
AcDbCircle
 10
205.0
 20
285.185964
 30
0.0
 40
4.5
  0
LINE
  5
C2F8
330
C055
100
AcDbEntity
  8
1
  6
Continuous
100
AcDbLine
 10
217.000012
 20
295.1859729999998
 30
0.0
 11
217.000024
 21
275.185973
 31
0.0
  0
LINE
  5
C2F9
330
C055
100
AcDbEntity
  8
1
  6
Continuous
100
AcDbLine
 10
52.0
 20
183.592982
 30
0.0
 11
80.406384
 21
183.592982
 31
0.0
  0
LINE
  5
C2FA
330
C055
100
AcDbEntity
  8
1
  6
Continuous
100
AcDbLine
 10
52.0
 20
179.592982
 30
0.0
 11
80.406384
 21
179.592982
 31
0.0
  0
LINE
  5
C2FB
330
C055
100
AcDbEntity
  8
4
  6
CENTER
100
AcDbLine
 10
22.0
 20
181.592982
 30
0.0
 11
102.0
 21
181.592982
 31
0.0
  0
LINE
  5
C2FC
330
C055
100
AcDbEntity
  8
1
  6
Continuous
100
AcDbLine
 10
72.0
 20
185.092982
 30
0.0
 11
52.0
 21
185.092982
 31
0.0
  0
LINE
  5
C2FD
330
C055
100
AcDbEntity
  8
1
  6
Continuous
100
AcDbLine
 10
72.0
 20
193.592982
 30
0.0
 11
52.0
 21
193.592982
 31
0.0
  0
LINE
  5
C2FE
330
C055
100
AcDbEntity
  8
1
  6
Continuous
100
AcDbLine
 10
72.0
 20
196.592982
 30
0.0
 11
52.0
 21
196.592982
 31
0.0
  0
LINE
  5
C2FF
330
C055
100
AcDbEntity
  8
1
  6
Continuous
100
AcDbLine
 10
68.0
 20
176.092982
 30
0.0
 11
56.0
 21
176.092982
 31
0.0
  0
LINE
  5
C300
330
C055
100
AcDbEntity
  8
1
  6
Continuous
100
AcDbLine
 10
69.0
 20
177.092982
 30
0.0
 11
55.0
 21
177.092982
 31
0.0
  0
LINE
  5
C301
330
C055
100
AcDbEntity
  8
1
  6
Continuous
100
AcDbLine
 10
69.0
 20
179.092982
 30
0.0
 11
55.0
 21
179.092982
 31
0.0
  0
LINE
  5
C302
330
C055
100
AcDbEntity
  8
1
  6
Continuous
100
AcDbLine
 10
52.0
 20
179.592982
 30
0.0
 11
52.0
 21
196.592982
 31
0.0
  0
LINE
  5
C303
330
C055
100
AcDbEntity
  8
1
  6
Continuous
100
AcDbLine
 10
55.0
 20
177.092982
 30
0.0
 11
55.0
 21
179.092982
 31
0.0
  0
LINE
  5
C304
330
C055
100
AcDbEntity
  8
1
  6
Continuous
100
AcDbLine
 10
57.0
 20
179.092982
 30
0.0
 11
57.0
 21
179.592982
 31
0.0
  0
LINE
  5
C305
330
C055
100
AcDbEntity
  8
1
  6
Continuous
100
AcDbLine
 10
55.0
 20
177.092982
 30
0.0
 11
56.0
 21
176.092982
 31
0.0
  0
LINE
  5
C306
330
C055
100
AcDbEntity
  8
1
  6
Continuous
100
AcDbLine
 10
72.0
 20
183.592982
 30
0.0
 11
72.0
 21
196.592982
 31
0.0
  0
LINE
  5
C307
330
C055
100
AcDbEntity
  8
1
  6
Continuous
100
AcDbLine
 10
67.0
 20
179.092982
 30
0.0
 11
67.0
 21
179.592982
 31
0.0
  0
LINE
  5
C308
330
C055
100
AcDbEntity
  8
1
  6
Continuous
100
AcDbLine
 10
69.0
 20
177.092982
 30
0.0
 11
69.0
 21
179.092982
 31
0.0
  0
LINE
  5
C309
330
C055
100
AcDbEntity
  8
1
  6
Continuous
100
AcDbLine
 10
69.0
 20
177.092982
 30
0.0
 11
68.0
 21
176.092982
 31
0.0
  0
LINE
  5
C30A
330
C055
100
AcDbEntity
  8
1
  6
Continuous
100
AcDbLine
 10
47.0
 20
170.592982
 30
0.0
 11
47.0
 21
173.592982
 31
0.0
  0
LINE
  5
C30B
330
C055
100
AcDbEntity
  8
4
  6
CENTER
100
AcDbLine
 10
62.0
 20
162.838473
 30
0.0
 11
62.0
 21
198.818982
 31
0.0
  0
LINE
  5
C30C
330
C055
100
AcDbEntity
  8
1
  6
Continuous
100
AcDbLine
 10
77.0
 20
170.592982
 30
0.0
 11
77.0
 21
172.898662
 31
0.0
  0
ARC
  5
C30D
330
C055
100
AcDbEntity
  8
1
  6
Continuous
100
AcDbCircle
 10
67.815442
 20
175.7412379999999
 30
0.0
 40
6.748407
100
AcDbArc
 50
189.7966669999999
 51
350.2033329999999
  0
LINE
  5
C30E
330
C055
100
AcDbEntity
  8
4
  6
CENTER
100
AcDbLine
 10
67.815442
 20
166.447525
 30
0.0
 11
67.815442
 21
191.821598
 31
0.0
  0
ARC
  5
C30F
330
C055
100
AcDbEntity
  8
1
  6
Continuous
100
AcDbCircle
 10
64.100861
 20
173.3572669999998
 30
0.0
 40
3.714285999999998
100
AcDbArc
 50
194.250033
 51
280.727595
  0
ARC
  5
C310
330
C055
100
AcDbEntity
  8
1
  6
Continuous
100
AcDbCircle
 10
62.0
 20
171.7412379999998
 30
0.0
 40
6.748407
100
AcDbArc
 50
189.7966669999999
 51
336.052084
  0
LINE
  5
C311
330
C055
100
AcDbEntity
  8
1
  6
Continuous
100
AcDbLine
 10
47.0
 20
170.592982
 30
0.0
 11
61.62000500000001
 21
170.592982
 31
0.0
  0
LINE
  5
C312
330
C055
100
AcDbEntity
  8
1
  6
Continuous
100
AcDbLine
 10
77.81541899999997
 20
188.592982
 30
0.0
 11
72.0
 21
188.592982
 31
0.0
  0
LINE
  5
C313
330
C055
100
AcDbEntity
  8
1
  6
Continuous
100
AcDbLine
 10
77.81541899999997
 20
174.592982
 30
0.0
 11
57.81542099999999
 21
174.592982
 31
0.0
  0
LINE
  5
C314
330
C055
100
AcDbEntity
  8
1
  6
Continuous
100
AcDbLine
 10
76.169404
 20
185.092982
 30
0.0
 11
72.0
 21
185.092982
 31
0.0
  0
LINE
  5
C315
330
C055
100
AcDbEntity
  8
1
  6
Continuous
100
AcDbLine
 10
69.0
 20
178.092982
 30
0.0
 11
76.169404
 21
178.092982
 31
0.0
  0
LINE
  5
C316
330
C055
100
AcDbEntity
  8
1
  6
Continuous
100
AcDbLine
 10
77.81541899999997
 20
186.592982
 30
0.0
 11
72.0
 21
186.592982
 31
0.0
  0
LINE
  5
C317
330
C055
100
AcDbEntity
  8
1
  6
Continuous
100
AcDbLine
 10
77.81541899999997
 20
176.592982
 30
0.0
 11
68.5
 21
176.592982
 31
0.0
  0
LINE
  5
C318
330
C055
100
AcDbEntity
  8
1
  6
Continuous
100
AcDbLine
 10
57.81542099999999
 20
174.592982
 30
0.0
 11
57.81542099999999
 21
176.092982
 31
0.0
  0
ARC
  5
C319
330
C055
100
AcDbEntity
  8
1
  6
Continuous
100
AcDbCircle
 10
67.815442
 20
182.5929819999998
 30
0.0
 40
7.5
100
AcDbArc
 50
53.130102
 51
56.086472
  0
LINE
  5
C31A
330
C055
100
AcDbEntity
  8
1
  6
Continuous
100
AcDbLine
 10
91.0
 20
173.592982
 30
0.0
 11
77.53953
 21
173.592982
 31
0.0
  0
LINE
  5
C31B
330
C055
100
AcDbEntity
  8
1
  6
Continuous
100
AcDbLine
 10
91.0
 20
189.592982
 30
0.0
 11
77.53953
 21
189.592982
 31
0.0
  0
LINE
  5
C31C
330
C055
100
AcDbEntity
  8
1
  6
Continuous
100
AcDbLine
 10
47.0
 20
192.592982
 30
0.0
 11
52.0
 21
192.592982
 31
0.0
  0
CIRCLE
  5
C31D
330
C055
100
AcDbEntity
  8
1
  6
Continuous
100
AcDbCircle
 10
47.0
 20
181.592982
 30
0.0
 40
4.299999999999998
  0
ARC
  5
C31E
330
C055
100
AcDbEntity
  8
1
  6
Continuous
100
AcDbCircle
 10
33.0
 20
181.592982
 30
0.0
 40
8.0
100
AcDbArc
 50
90.0
 51
270.0
  0
CIRCLE
  5
C31F
330
C055
100
AcDbEntity
  8
1
  6
Continuous
100
AcDbCircle
 10
35.0
 20
181.592982
 30
0.0
 40
4.299999999999998
  0
CIRCLE
  5
C320
330
C055
100
AcDbEntity
  8
1
  6
Continuous
100
AcDbCircle
 10
35.0
 20
181.592982
 30
0.0
 40
2.149999999999999
  0
LINE
  5
C321
330
C055
100
AcDbEntity
  8
4
  6
CENTER
100
AcDbLine
 10
35.0
 20
187.3929819999999
 30
0.0
 11
35.0
 21
175.792982
 31
0.0
  0
CIRCLE
  5
C322
330
C055
100
AcDbEntity
  8
1
  6
Continuous
100
AcDbCircle
 10
47.0
 20
181.592982
 30
0.0
 40
2.149999999999999
  0
LINE
  5
C323
330
C055
100
AcDbEntity
  8
4
  6
CENTER
100
AcDbLine
 10
47.0
 20
187.3929819999999
 30
0.0
 11
47.0
 21
175.792982
 31
0.0
  0
LINE
  5
C324
330
C055
100
AcDbEntity
  8
1
  6
Continuous
100
AcDbLine
 10
52.0
 20
188.592982
 30
0.0
 11
52.0
 21
189.3929819999999
 31
0.0
  0
LINE
  5
C325
330
C055
100
AcDbEntity
  8
1
  6
Continuous
100
AcDbLine
 10
47.0
 20
189.592982
 30
0.0
 11
47.0
 21
192.592982
 31
0.0
  0
CIRCLE
  5
C326
330
C055
100
AcDbEntity
  8
1
  6
Continuous
100
AcDbCircle
 10
89.0
 20
181.592982
 30
0.0
 40
4.299999999999998
  0
CIRCLE
  5
C327
330
C055
100
AcDbEntity
  8
1
  6
Continuous
100
AcDbCircle
 10
89.0
 20
181.592982
 30
0.0
 40
2.149999999999999
  0
LINE
  5
C328
330
C055
100
AcDbEntity
  8
4
  6
CENTER
100
AcDbLine
 10
89.0
 20
187.3929819999999
 30
0.0
 11
89.0
 21
175.792982
 31
0.0
  0
LINE
  5
C329
330
C055
100
AcDbEntity
  8
4
  6
CENTER
100
AcDbLine
 10
77.0
 20
187.3929819999999
 30
0.0
 11
77.0
 21
175.792982
 31
0.0
  0
LINE
  5
C32A
330
C055
100
AcDbEntity
  8
1
  6
Continuous
100
AcDbLine
 10
77.0
 20
190.287302
 30
0.0
 11
77.0
 21
192.592982
 31
0.0
  0
ARC
  5
C32B
330
C055
100
AcDbEntity
  8
1
  6
Continuous
100
AcDbCircle
 10
91.0
 20
181.592982
 30
0.0
 40
8.0
100
AcDbArc
 50
270.0
 51
90.0
  0
LINE
  5
C32C
330
C055
100
AcDbEntity
  8
1
  6
Continuous
100
AcDbLine
 10
72.0
 20
192.592982
 30
0.0
 11
77.0
 21
192.592982
 31
0.0
  0
LINE
  5
C32D
330
C055
100
AcDbEntity
  8
1
  6
Continuous
100
AcDbLine
 10
52.0
 20
189.592982
 30
0.0
 11
33.0
 21
189.592982
 31
0.0
  0
LINE
  5
C32E
330
C055
100
AcDbEntity
  8
1
  6
Continuous
100
AcDbLine
 10
80.406384
 20
179.592982
 30
0.0
 11
80.406384
 21
183.592982
 31
0.0
  0
LINE
  5
C32F
330
C055
100
AcDbEntity
  8
4
  6
CENTER
100
AcDbLine
 10
66.136273
 20
167.467397
 30
0.0
 11
66.136273
 21
194.2893819999999
 31
0.0
  0
LINE
  5
C330
330
C055
100
AcDbEntity
  8
4
  6
CENTER
100
AcDbLine
 10
64.100861
 20
167.467397
 30
0.0
 11
64.100861
 21
194.162262
 31
0.0
  0
LINE
  5
C331
330
C055
100
AcDbEntity
  8
1
  6
Continuous
100
AcDbLine
 10
72.17852099999999
 20
170.592982
 30
0.0
 11
77.0
 21
170.592982
 31
0.0
  0
LINE
  5
C332
330
C055
100
AcDbEntity
  8
1
  6
Continuous
100
AcDbLine
 10
59.100861
 20
173.592982
 30
0.0
 11
33.0
 21
173.592982
 31
0.0
  0
LINE
  5
C333
330
C055
100
AcDbEntity
  8
1
  6
Continuous
100
AcDbLine
 10
84.55678899999998
 20
176.442982
 30
0.0
 11
84.55678899999998
 21
186.742982
 31
0.0
  0
LINE
  5
C334
330
C055
100
AcDbEntity
  8
1
  6
Continuous
100
AcDbLine
 10
77.72914299999998
 20
174.442982
 30
0.0
 11
77.72914299999998
 21
174.592982
 31
0.0
  0
LINE
  5
C335
330
C055
100
AcDbEntity
  8
1
  6
Continuous
100
AcDbLine
 10
75.72914299999998
 20
190.742982
 30
0.0
 11
72.00712
 21
190.742982
 31
0.0
  0
LINE
  5
C336
330
C055
100
AcDbEntity
  8
1
  6
Continuous
100
AcDbLine
 10
82.55678899999997
 20
188.742982
 30
0.0
 11
77.72914299999998
 21
188.742982
 31
0.0
  0
LINE
  5
C337
330
C055
100
AcDbEntity
  8
1
  6
Continuous
100
AcDbLine
 10
82.55678899999997
 20
174.442982
 30
0.0
 11
77.72914299999998
 21
174.442982
 31
0.0
  0
LINE
  5
C338
330
C055
100
AcDbEntity
  8
1
  6
Continuous
100
AcDbLine
 10
75.72914299999998
 20
172.442982
 30
0.0
 11
73.70292899999999
 21
172.442982
 31
0.0
  0
ARC
  5
C339
330
C055
100
AcDbEntity
  8
1
  6
Continuous
100
AcDbCircle
 10
82.55678899999997
 20
176.442982
 30
0.0
 40
2.0
100
AcDbArc
 50
270.0
 51
0.0
  0
ARC
  5
C33A
330
C055
100
AcDbEntity
  8
1
  6
Continuous
100
AcDbCircle
 10
82.55678899999997
 20
186.742982
 30
0.0
 40
2.0
100
AcDbArc
 50
0.0
 51
90.0
  0
ARC
  5
C33B
330
C055
100
AcDbEntity
  8
1
  6
Continuous
100
AcDbCircle
 10
75.72914299999998
 20
188.742982
 30
0.0
 40
2.0
100
AcDbArc
 50
0.0
 51
90.0
  0
ARC
  5
C33C
330
C055
100
AcDbEntity
  8
1
  6
Continuous
100
AcDbCircle
 10
75.72914299999998
 20
174.442982
 30
0.0
 40
2.0
100
AcDbArc
 50
270.0
 51
0.0
  0
LINE
  5
C33D
330
C055
100
AcDbEntity
  8
1
  6
Continuous
100
AcDbLine
 10
78.164113
 20
177.5929819999998
 30
0.0
 11
78.164113
 21
179.592982
 31
0.0
  0
LINE
  5
C33E
330
C055
100
AcDbEntity
  8
1
  6
Continuous
100
AcDbLine
 10
77.81541899999997
 20
174.592982
 30
0.0
 11
77.81541899999997
 21
176.592982
 31
0.0
  0
LINE
  5
C33F
330
C055
100
AcDbEntity
  8
1
  6
Continuous
100
AcDbLine
 10
76.169404
 20
177.5929819999998
 30
0.0
 11
76.169404
 21
179.592982
 31
0.0
  0
LINE
  5
C340
330
C055
100
AcDbEntity
  8
1
  6
Continuous
100
AcDbLine
 10
77.81541899999997
 20
186.592982
 30
0.0
 11
77.81541899999997
 21
188.592982
 31
0.0
  0
ARC
  5
C341
330
C055
100
AcDbEntity
  8
1
  6
Continuous
100
AcDbCircle
 10
75.169404
 20
177.5929819999998
 30
0.0
 40
1.0
100
AcDbArc
 50
270.0
 51
0.0
  0
ARC
  5
C342
330
C055
100
AcDbEntity
  8
1
  6
Continuous
100
AcDbCircle
 10
75.169404
 20
185.592982
 30
0.0
 40
1.0
100
AcDbArc
 50
0.0
 51
90.0
  0
ARC
  5
C343
330
C055
100
AcDbEntity
  8
1
  6
Continuous
100
AcDbCircle
 10
75.164113
 20
177.5929819999998
 30
0.0
 40
3.0
100
AcDbArc
 50
332.100372
 51
0.0
  0
ARC
  5
C344
330
C055
100
AcDbEntity
  8
1
  6
Continuous
100
AcDbCircle
 10
75.164113
 20
185.592982
 30
0.0
 40
3.0
100
AcDbArc
 50
0.0
 51
27.899628
  0
LINE
  5
C345
330
C055
100
AcDbEntity
  8
1
  6
Continuous
100
AcDbLine
 10
77.72914299999998
 20
188.592982
 30
0.0
 11
77.72914299999998
 21
188.742982
 31
0.0
  0
LINE
  5
C346
330
C055
100
AcDbEntity
  8
1
  6
Continuous
100
AcDbLine
 10
78.164113
 20
183.592982
 30
0.0
 11
78.164113
 21
185.592982
 31
0.0
  0
LINE
  5
C347
330
C055
100
AcDbEntity
  8
1
  6
Continuous
100
AcDbLine
 10
76.169404
 20
183.592982
 30
0.0
 11
76.169404
 21
185.592982
 31
0.0
  0
LINE
  5
C348
330
C055
100
AcDbEntity
  8
1
  6
Continuous
100
AcDbLine
 10
59.100861
 20
172.442982
 30
0.0
 11
59.100861
 21
174.592982
 31
0.0
  0
LINE
  5
C349
330
C055
100
AcDbEntity
  8
1
  6
Continuous
100
AcDbLine
 10
61.92795499999999
 20
172.442982
 30
0.0
 11
59.100861
 21
172.442982
 31
0.0
  0
LINE
  5
C34A
330
C055
100
AcDbEntity
  8
4
  6
CENTER
100
AcDbLine
 10
570.0
 20
181.592982
 30
0.0
 11
490.0
 21
181.592982
 31
0.0
  0
LINE
  5
C34B
330
C055
100
AcDbEntity
  8
1
  6
Continuous
100
AcDbLine
 10
515.0
 20
189.592982
 30
0.0
 11
515.0
 21
192.592982
 31
0.0
  0
LINE
  5
C34C
330
C055
100
AcDbEntity
  8
1
  6
Continuous
100
AcDbLine
 10
520.0
 20
192.592982
 30
0.0
 11
520.0
 21
196.592982
 31
0.0
  0
LINE
  5
C34D
330
C055
100
AcDbEntity
  8
1
  6
Continuous
100
AcDbLine
 10
545.0
 20
189.592982
 30
0.0
 11
545.0
 21
192.592982
 31
0.0
  0
LINE
  5
C34E
330
C055
100
AcDbEntity
  8
1
  6
Continuous
100
AcDbLine
 10
540.0
 20
192.592982
 30
0.0
 11
540.0
 21
196.592982
 31
0.0
  0
LINE
  5
C34F
330
C055
100
AcDbEntity
  8
4
  6
CENTER
100
AcDbLine
 10
525.8637269999998
 20
167.467397
 30
0.0
 11
525.8637269999998
 21
194.2893819999999
 31
0.0
  0
LINE
  5
C350
330
C055
100
AcDbEntity
  8
4
  6
CENTER
100
AcDbLine
 10
527.8991389999998
 20
167.467397
 30
0.0
 11
527.8991389999998
 21
194.162262
 31
0.0
  0
LINE
  5
C351
330
C055
100
AcDbEntity
  8
4
  6
CENTER
100
AcDbLine
 10
530.0
 20
162.838473
 30
0.0
 11
530.0
 21
198.818982
 31
0.0
  0
LINE
  5
C352
330
C055
100
AcDbEntity
  8
1
  6
Continuous
100
AcDbLine
 10
501.0
 20
173.592982
 30
0.0
 11
515.0
 21
173.592982
 31
0.0
  0
ARC
  5
C353
330
C055
100
AcDbEntity
  8
1
  6
Continuous
100
AcDbCircle
 10
530.0
 20
171.7412379999998
 30
0.0
 40
6.748407
100
AcDbArc
 50
189.7966659999999
 51
350.2033329999999
  0
LINE
  5
C354
330
C055
100
AcDbEntity
  8
1
  6
Continuous
100
AcDbLine
 10
545.0
 20
170.592982
 30
0.0
 11
515.0
 21
170.592982
 31
0.0
  0
CIRCLE
  5
C355
330
C055
100
AcDbEntity
  8
1
  6
Continuous
100
AcDbCircle
 10
557.0
 20
181.592982
 30
0.0
 40
2.149999999999999
  0
LINE
  5
C356
330
C055
100
AcDbEntity
  8
1
  6
Continuous
100
AcDbLine
 10
501.0
 20
189.592982
 30
0.0
 11
515.0
 21
189.592982
 31
0.0
  0
ARC
  5
C357
330
C055
100
AcDbEntity
  8
1
  6
Continuous
100
AcDbCircle
 10
559.0
 20
181.592982
 30
0.0
 40
8.0
100
AcDbArc
 50
270.0
 51
90.0
  0
LINE
  5
C358
330
C055
100
AcDbEntity
  8
4
  6
CENTER
100
AcDbLine
 10
557.0
 20
187.3929819999999
 30
0.0
 11
557.0
 21
175.792982
 31
0.0
  0
LINE
  5
C359
330
C055
100
AcDbEntity
  8
4
  6
CENTER
100
AcDbLine
 10
545.0
 20
187.3929819999999
 30
0.0
 11
545.0
 21
175.792982
 31
0.0
  0
LINE
  5
C35A
330
C055
100
AcDbEntity
  8
1
  6
Continuous
100
AcDbLine
 10
545.0
 20
170.592982
 30
0.0
 11
545.0
 21
173.592982
 31
0.0
  0
CIRCLE
  5
C35B
330
C055
100
AcDbEntity
  8
1
  6
Continuous
100
AcDbCircle
 10
545.0
 20
181.592982
 30
0.0
 40
2.149999999999999
  0
LINE
  5
C35C
330
C055
100
AcDbEntity
  8
4
  6
CENTER
100
AcDbLine
 10
515.0
 20
187.3929819999999
 30
0.0
 11
515.0
 21
175.792982
 31
0.0
  0
LINE
  5
C35D
330
C055
100
AcDbEntity
  8
4
  6
CENTER
100
AcDbLine
 10
524.184558
 20
166.447525
 30
0.0
 11
524.184558
 21
191.821598
 31
0.0
  0
ARC
  5
C35E
330
C055
100
AcDbEntity
  8
1
  6
Continuous
100
AcDbCircle
 10
516.2708569999998
 20
174.442982
 30
0.0
 40
2.0
100
AcDbArc
 50
205.1506629999999
 51
230.5482399999998
  0
ARC
  5
C35F
330
C055
100
AcDbEntity
  8
1
  6
Continuous
100
AcDbCircle
 10
524.184558
 20
175.7412379999999
 30
0.0
 40
6.748407
100
AcDbArc
 50
229.719165
 51
267.009838
  0
LINE
  5
C360
330
C055
100
AcDbEntity
  8
1
  6
Continuous
100
AcDbLine
 10
515.0
 20
170.592982
 30
0.0
 11
515.0
 21
173.592982
 31
0.0
  0
ARC
  5
C361
330
C055
100
AcDbEntity
  8
1
  6
Continuous
100
AcDbCircle
 10
516.2708569999998
 20
188.742982
 30
0.0
 40
2.0
100
AcDbArc
 50
129.45176
 51
154.8493369999999
  0
LINE
  5
C362
330
C055
100
AcDbEntity
  8
4
  6
CENTER
100
AcDbLine
 10
503.0
 20
187.3929819999999
 30
0.0
 11
503.0
 21
175.792982
 31
0.0
  0
ARC
  5
C363
330
C055
100
AcDbEntity
  8
1
  6
Continuous
100
AcDbCircle
 10
501.0
 20
181.592982
 30
0.0
 40
8.0
100
AcDbArc
 50
90.0
 51
270.0
  0
CIRCLE
  5
C364
330
C055
100
AcDbEntity
  8
1
  6
Continuous
100
AcDbCircle
 10
503.0
 20
181.592982
 30
0.0
 40
2.149999999999999
  0
LINE
  5
C365
330
C055
100
AcDbEntity
  8
1
  6
Continuous
100
AcDbLine
 10
520.0
 20
196.592982
 30
0.0
 11
540.0
 21
196.592982
 31
0.0
  0
LINE
  5
C366
330
C055
100
AcDbEntity
  8
1
  6
Continuous
100
AcDbLine
 10
520.0
 20
193.592982
 30
0.0
 11
526.3054089999999
 21
193.592982
 31
0.0
  0
LINE
  5
C367
330
C055
100
AcDbEntity
  8
1
  6
Continuous
100
AcDbLine
 10
545.0
 20
192.592982
 30
0.0
 11
515.0
 21
192.592982
 31
0.0
  0
LINE
  5
C368
330
C055
100
AcDbEntity
  8
1
  6
Continuous
100
AcDbLine
 10
545.0
 20
173.592982
 30
0.0
 11
559.0
 21
173.592982
 31
0.0
  0
LINE
  5
C369
330
C055
100
AcDbEntity
  8
1
  6
Continuous
100
AcDbLine
 10
545.0
 20
189.592982
 30
0.0
 11
559.0
 21
189.592982
 31
0.0
  0
CIRCLE
  5
C36A
330
C055
100
AcDbEntity
  8
1
  6
Continuous
100
AcDbCircle
 10
515.0
 20
181.592982
 30
0.0
 40
2.149999999999999
  0
ARC
  5
C36B
330
C055
100
AcDbEntity
  8
1
  6
Continuous
100
AcDbCircle
 10
530.0
 20
189.7929819999999
 30
0.0
 40
5.299999999999998
100
AcDbArc
 50
31.890792
 51
148.1092079999999
  0
LINE
  5
C36C
330
C055
100
AcDbEntity
  8
1
  6
Continuous
100
AcDbLine
 10
533.6945909999998
 20
193.592982
 30
0.0
 11
540.0
 21
193.592982
 31
0.0
  0
LINE
  5
C36D
330
C055
100
AcDbEntity
  8
1
  6
Continuous
100
AcDbLine
 10
420.0
 20
248.185964
 30
0.0
 11
423.0
 21
248.185964
 31
0.0
  0
LINE
  5
C36E
330
C055
100
AcDbEntity
  8
4
  6
CENTER
100
AcDbLine
 10
191.0255989999998
 20
388.778946
 30
0.0
 11
430.6550089999998
 21
388.778946
 31
0.0
  0
ENDSEC
  0
SECTION
  2
OBJECTS
  0
DICTIONARY
  5
C043
330
0
100
AcDbDictionary
281
     1
  3
ACAD_CIP_PREVIOUS_PRODUCT_INFO
350
C3D4
  3
ACAD_COLOR
350
C3B6
  3
ACAD_DETAILVIEWSTYLE
350
C3CF
  3
ACAD_GROUP
350
C044
  3
ACAD_LAYOUT
350
C050
  3
ACAD_MATERIAL
350
C384
  3
ACAD_MLEADERSTYLE
350
C3CB
  3
ACAD_MLINESTYLE
350
C04D
  3
ACAD_PLOTSETTINGS
350
C04F
  3
ACAD_PLOTSTYLENAME
350
C382
  3
ACAD_SCALELIST
350
C3B9
  3
ACAD_SECTIONVIEWSTYLE
350
C3CD
  3
ACAD_TABLESTYLE
350
C3B7
  3
ACAD_VISUALSTYLE
350
C39D
  3
ACDB_RECOMPOSE_DATA
350
C3F2
  3
AcDbVariableDictionary
350
C3E5
  3
DWGPROPS
350
C3F3
  0
DICTIONARY
  5
C3D5
330
C047
100
AcDbDictionary
280
     1
281
     1
  3
ADSK_XREC_LAYER_RECONCILED
360
C3D6
  0
DICTIONARY
  5
C3D7
330
C05D
100
AcDbDictionary
280
     1
281
     1
  3
ADSK_XREC_LAYER_RECONCILED
360
C3D8
  0
DICTIONARY
  5
C3D9
330
C05E
100
AcDbDictionary
280
     1
281
     1
  3
ADSK_XREC_LAYER_RECONCILED
360
C3DA
  0
DICTIONARY
  5
C3DB
330
C05F
100
AcDbDictionary
280
     1
281
     1
  3
ADSK_XREC_LAYER_RECONCILED
360
C3DC
  0
DICTIONARY
  5
C3DD
330
C060
100
AcDbDictionary
280
     1
281
     1
  3
ADSK_XREC_LAYER_RECONCILED
360
C3DE
  0
DICTIONARY
  5
C3DF
330
C061
100
AcDbDictionary
280
     1
281
     1
  3
ADSK_XREC_LAYER_RECONCILED
360
C3E0
  0
DICTIONARY
  5
C3E1
330
C062
100
AcDbDictionary
280
     1
281
     1
  3
ADSK_XREC_LAYER_RECONCILED
360
C3E2
  0
DICTIONARY
  5
C3E3
330
C063
100
AcDbDictionary
280
     1
281
     1
  3
ADSK_XREC_LAYER_RECONCILED
360
C3E4
  0
DICTIONARY
  5
C37D
330
C055
100
AcDbDictionary
281
     1
  3
ACAD_LAYOUTSELFREF
350
C37E
  0
DICTIONARY
  5
C37B
330
C051
100
AcDbDictionary
281
     1
  3
ACAD_LAYOUTSELFREF
350
C37C
  0
XRECORD
  5
C3D4
102
{ACAD_REACTORS
330
C043
102
}
330
C043
100
AcDbXrecord
280
     1
300
ACDLT
300
2014
300
ACDLT_F_S
  0
DICTIONARY
  5
C3B6
102
{ACAD_REACTORS
330
C043
102
}
330
C043
100
AcDbDictionary
281
     1
  0
DICTIONARY
  5
C3CF
102
{ACAD_REACTORS
330
C043
102
}
330
C043
100
AcDbDictionary
281
     1
  3
Imperial24
350
C3D0
  0
DICTIONARY
  5
C044
102
{ACAD_REACTORS
330
C043
102
}
330
C043
100
AcDbDictionary
281
     1
  0
DICTIONARY
  5
C050
102
{ACAD_REACTORS
330
C043
102
}
330
C043
100
AcDbDictionary
281
     1
  3
Model
350
C3D1
  3
レイアウト1
350
C3D2
  0
DICTIONARY
  5
C384
102
{ACAD_REACTORS
330
C043
102
}
330
C043
100
AcDbDictionary
281
     1
  3
ByBlock
350
C38D
  3
ByLayer
350
C385
  3
Global
350
C395
  0
DICTIONARY
  5
C3CB
102
{ACAD_REACTORS
330
C043
102
}
330
C043
100
AcDbDictionary
281
     1
  3
Standard
350
C3CC
  0
DICTIONARY
  5
C04D
102
{ACAD_REACTORS
330
C043
102
}
330
C043
100
AcDbDictionary
281
     1
  3
STANDARD
350
C04E
  0
DICTIONARY
  5
C04F
102
{ACAD_REACTORS
330
C043
102
}
330
C043
100
AcDbDictionary
281
     1
  0
ACDBDICTIONARYWDFLT
  5
C382
102
{ACAD_REACTORS
330
C043
102
}
330
C043
100
AcDbDictionary
281
     1
  3
Normal
350
C383
100
AcDbDictionaryWithDefault
340
C383
  0
DICTIONARY
  5
C3B9
102
{ACAD_REACTORS
330
C043
102
}
330
C043
100
AcDbDictionary
281
     1
  3
A0
350
C3BA
  3
A1
350
C3BB
  3
A2
350
C3BC
  3
A3
350
C3BD
  3
A4
350
C3BE
  3
A5
350
C3BF
  3
A6
350
C3C0
  3
A7
350
C3C1
  3
A8
350
C3C2
  3
A9
350
C3C3
  3
B0
350
C3C4
  3
B1
350
C3C5
  3
B2
350
C3C6
  3
B3
350
C3C7
  3
B4
350
C3C8
  3
B5
350
C3C9
  3
B6
350
C3CA
  0
DICTIONARY
  5
C3CD
102
{ACAD_REACTORS
330
C043
102
}
330
C043
100
AcDbDictionary
281
     1
  3
Imperial24
350
C3CE
  0
DICTIONARY
  5
C3B7
102
{ACAD_REACTORS
330
C043
102
}
330
C043
100
AcDbDictionary
281
     1
  3
Standard
350
C3B8
  0
DICTIONARY
  5
C39D
102
{ACAD_REACTORS
330
C043
102
}
330
C043
100
AcDbDictionary
281
     1
  3
2dWireframe
350
C3A3
  3
Basic
350
C3A2
  3
Brighten
350
C3A9
  3
ColorChange
350
C3AD
  3
Conceptual
350
C3A6
  3
Dim
350
C3A8
  3
EdgeColorOff
350
C3B5
  3
Facepattern
350
C3AC
  3
Flat
350
C39E
  3
FlatWithEdges
350
C39F
  3
Gouraud
350
C3A0
  3
GouraudWithEdges
350
C3A1
  3
Hidden
350
C3A5
  3
JitterOff
350
C3B3
  3
Linepattern
350
C3AB
  3
OverhangOff
350
C3B4
  3
Realistic
350
C3A7
  3
Shaded
350
C3B2
  3
Shaded with edges
350
C3B1
  3
Shades of Gray
350
C3AE
  3
Sketchy
350
C3AF
  3
Thicken
350
C3AA
  3
Wireframe
350
C3A4
  3
X-Ray
350
C3B0
  0
XRECORD
  5
C3F2
102
{ACAD_REACTORS
330
C043
102
}
330
C043
100
AcDbXrecord
280
     1
 90
        1
330
C3B8
  0
DICTIONARY
  5
C3E5
102
{ACAD_REACTORS
330
C043
102
}
330
C043
100
AcDbDictionary
281
     1
  3
CANNOSCALE
350
C3EA
  3
CMLEADERSTYLE
350
C3E7
  3
CTABLESTYLE
350
C3E6
  3
CVIEWDETAILSTYLE
350
C3E8
  3
CVIEWSECTIONSTYLE
350
C3E9
  3
DIMASSOC
350
C3ED
  3
INDEXCTL
350
C3EC
  3
SORTENTS
350
C3EB
  3
XCLIPFRAME
350
C3EE
  0
XRECORD
  5
C3F3
102
{ACAD_REACTORS
330
C043
102
}
330
C043
100
AcDbXrecord
280
     1
  1
DWGPROPS COOKIE
  2

  3

  4

  6

  7

  8
Yoshitsune
  9

300
=
301
=
302
=
303
=
304
=
305
=
306
=
307
=
308
=
309
=
 40
0.0000167939814815
 41
2451344.61001493
 42
2457192.621270926
  1

 90
        0
  0
XRECORD
  5
C3D6
102
{ACAD_REACTORS
330
C3D5
102
}
330
C3D5
100
AcDbXrecord
280
     1
290
     1
  0
XRECORD
  5
C3D8
102
{ACAD_REACTORS
330
C3D7
102
}
330
C3D7
100
AcDbXrecord
280
     1
290
     1
  0
XRECORD
  5
C3DA
102
{ACAD_REACTORS
330
C3D9
102
}
330
C3D9
100
AcDbXrecord
280
     1
290
     1
  0
XRECORD
  5
C3DC
102
{ACAD_REACTORS
330
C3DB
102
}
330
C3DB
100
AcDbXrecord
280
     1
290
     1
  0
XRECORD
  5
C3DE
102
{ACAD_REACTORS
330
C3DD
102
}
330
C3DD
100
AcDbXrecord
280
     1
290
     1
  0
XRECORD
  5
C3E0
102
{ACAD_REACTORS
330
C3DF
102
}
330
C3DF
100
AcDbXrecord
280
     1
290
     1
  0
XRECORD
  5
C3E2
102
{ACAD_REACTORS
330
C3E1
102
}
330
C3E1
100
AcDbXrecord
280
     1
290
     1
  0
XRECORD
  5
C3E4
102
{ACAD_REACTORS
330
C3E3
102
}
330
C3E3
100
AcDbXrecord
280
     1
290
     1
  0
XRECORD
  5
C37E
102
{ACAD_REACTORS
330
C37D
102
}
330
C37D
100
AcDbXrecord
280
     1
340
C055
  0
XRECORD
  5
C37C
102
{ACAD_REACTORS
330
C37B
102
}
330
C37B
100
AcDbXrecord
280
     1
340
C051
  0
ACDBDETAILVIEWSTYLE
  5
C3D0
102
{ACAD_XDICTIONARY
360
C42B
102
}
102
{ACAD_REACTORS
330
C3CF
102
}
330
C3CF
100
AcDbModelDocViewStyle
 70
     0
  3
Imperial24
290
     0
100
AcDbDetailViewStyle
 70
     0
 71
     0
 90
        3
 71
     1
340
C048
 40
0.24
340
0
 40
0.24
300

 40
0.36
280
     3
 71
     2
340
C04C
 90
       25
 71
     3
340
C048
 40
0.24
 90
        1
 40
0.75
 90
        1
300
%<\AcVar ViewType \f "%tc1">% %<\AcVar ViewDetailId>%\PSCALE %<\AcVar ViewScale \f "%sn">%
 71
     4
340
C04C
 90
       25
340
C04C
 90
       25
280
     0
  0
LAYOUT
  5
C3D1
102
{ACAD_XDICTIONARY
360
C42D
102
}
102
{ACAD_REACTORS
330
C050
102
}
330
C050
100
AcDbPlotSettings
  1

  2
Canon LBP9100C
  4

  6

 40
0.0
 41
0.0
 42
0.0
 43
0.0
 44
0.0
 45
0.0
 46
0.0
 47
0.0
 48
0.0
 49
0.0
140
0.0
141
0.0
142
1.0
143
1.0
 70
  1712
 72
     0
 73
     0
 74
     0
  7

 75
     0
147
1.0
148
0.0
149
0.0
100
AcDbLayout
  1
Model
 70
     1
 71
     0
 10
0.0
 20
0.0
 11
12.0
 21
9.0
 12
0.0
 22
0.0
 32
0.0
 14
0.0
 24
0.0
 34
0.0
 15
0.0
 25
0.0
 35
0.0
146
0.0
 13
0.0
 23
0.0
 33
0.0
 16
1.0
 26
0.0
 36
0.0
 17
0.0
 27
1.0
 37
0.0
 76
     0
330
C055
331
C37A
  0
LAYOUT
  5
C3D2
102
{ACAD_XDICTIONARY
360
C42F
102
}
102
{ACAD_REACTORS
330
C050
102
}
330
C050
100
AcDbPlotSettings
  1

  2
Canon LBP9100C
  4

  6

 40
0.0
 41
0.0
 42
0.0
 43
0.0
 44
0.0
 45
0.0
 46
0.0
 47
0.0
 48
0.0
 49
0.0
140
0.0
141
0.0
142
1.0
143
1.0
 70
   688
 72
     0
 73
     0
 74
     5
  7

 75
    16
147
1.0
148
0.0
149
0.0
100
AcDbLayout
  1
レイアウト1
 70
     0
 71
     1
 10
0.0
 20
0.0
 11
420.0
 21
297.0
 12
0.0
 22
0.0
 32
0.0
 14
1.000000000000000E+20
 24
1.000000000000000E+20
 34
1.000000000000000E+20
 15
-1.000000000000000E+20
 25
-1.000000000000000E+20
 35
-1.000000000000000E+20
146
0.0
 13
0.0
 23
0.0
 33
0.0
 16
1.0
 26
0.0
 36
0.0
 17
0.0
 27
1.0
 37
0.0
 76
     0
330
C051
  0
MATERIAL
  5
C38D
102
{ACAD_XDICTIONARY
360
C38E
102
}
102
{ACAD_REACTORS
330
C384
102
}
330
C384
100
AcDbMaterial
  1
ByBlock
 72
     0
 43
0.0208333333333333
 43
0.0
 43
0.0
 43
0.0
 43
0.0
 43
0.0208333333333333
 43
0.0
 43
0.0
 43
0.0
 43
0.0
 43
1.0
 43
0.0
 43
0.0
 43
0.0
 43
0.0
 43
1.0
 77
     0
 47
0.0208333333333333
 47
0.0
 47
0.0
 47
0.0
 47
0.0
 47
0.0208333333333333
 47
0.0
 47
0.0
 47
0.0
 47
0.0
 47
1.0
 47
0.0
 47
0.0
 47
0.0
 47
0.0
 47
1.0
171
     0
 49
0.0208333333333333
 49
0.0
 49
0.0
 49
0.0
 49
0.0
 49
0.0208333333333333
 49
0.0
 49
0.0
 49
0.0
 49
0.0
 49
1.0
 49
0.0
 49
0.0
 49
0.0
 49
0.0
 49
1.0
175
     0
142
0.0208333333333333
142
0.0
142
0.0
142
0.0
142
0.0
142
0.0208333333333333
142
0.0
142
0.0
142
0.0
142
0.0
142
1.0
142
0.0
142
0.0
142
0.0
142
0.0
142
1.0
179
     0
144
0.0208333333333333
144
0.0
144
0.0
144
0.0
144
0.0
144
0.0208333333333333
144
0.0
144
0.0
144
0.0
144
0.0
144
1.0
144
0.0
144
0.0
144
0.0
144
0.0
144
1.0
147
0.0208333333333333
147
0.0
147
0.0
147
0.0
147
0.0
147
0.0208333333333333
147
0.0
147
0.0
147
0.0
147
0.0
147
1.0
147
0.0
147
0.0
147
0.0
147
0.0
147
1.0
  0
MATERIAL
  5
C385
102
{ACAD_XDICTIONARY
360
C386
102
}
102
{ACAD_REACTORS
330
C384
102
}
330
C384
100
AcDbMaterial
  1
ByLayer
 72
     0
 43
0.0208333333333333
 43
0.0
 43
0.0
 43
0.0
 43
0.0
 43
0.0208333333333333
 43
0.0
 43
0.0
 43
0.0
 43
0.0
 43
1.0
 43
0.0
 43
0.0
 43
0.0
 43
0.0
 43
1.0
 77
     0
 47
0.0208333333333333
 47
0.0
 47
0.0
 47
0.0
 47
0.0
 47
0.0208333333333333
 47
0.0
 47
0.0
 47
0.0
 47
0.0
 47
1.0
 47
0.0
 47
0.0
 47
0.0
 47
0.0
 47
1.0
171
     0
 49
0.0208333333333333
 49
0.0
 49
0.0
 49
0.0
 49
0.0
 49
0.0208333333333333
 49
0.0
 49
0.0
 49
0.0
 49
0.0
 49
1.0
 49
0.0
 49
0.0
 49
0.0
 49
0.0
 49
1.0
175
     0
142
0.0208333333333333
142
0.0
142
0.0
142
0.0
142
0.0
142
0.0208333333333333
142
0.0
142
0.0
142
0.0
142
0.0
142
1.0
142
0.0
142
0.0
142
0.0
142
0.0
142
1.0
179
     0
144
0.0208333333333333
144
0.0
144
0.0
144
0.0
144
0.0
144
0.0208333333333333
144
0.0
144
0.0
144
0.0
144
0.0
144
1.0
144
0.0
144
0.0
144
0.0
144
0.0
144
1.0
147
0.0208333333333333
147
0.0
147
0.0
147
0.0
147
0.0
147
0.0208333333333333
147
0.0
147
0.0
147
0.0
147
0.0
147
1.0
147
0.0
147
0.0
147
0.0
147
0.0
147
1.0
  0
MATERIAL
  5
C395
102
{ACAD_XDICTIONARY
360
C396
102
}
102
{ACAD_REACTORS
330
C384
102
}
330
C384
100
AcDbMaterial
  1
Global
 72
     0
 43
0.0208333333333333
 43
0.0
 43
0.0
 43
0.0
 43
0.0
 43
0.0208333333333333
 43
0.0
 43
0.0
 43
0.0
 43
0.0
 43
1.0
 43
0.0
 43
0.0
 43
0.0
 43
0.0
 43
1.0
 77
     0
 47
0.0208333333333333
 47
0.0
 47
0.0
 47
0.0
 47
0.0
 47
0.0208333333333333
 47
0.0
 47
0.0
 47
0.0
 47
0.0
 47
1.0
 47
0.0
 47
0.0
 47
0.0
 47
0.0
 47
1.0
171
     0
 49
0.0208333333333333
 49
0.0
 49
0.0
 49
0.0
 49
0.0
 49
0.0208333333333333
 49
0.0
 49
0.0
 49
0.0
 49
0.0
 49
1.0
 49
0.0
 49
0.0
 49
0.0
 49
0.0
 49
1.0
175
     0
142
0.0208333333333333
142
0.0
142
0.0
142
0.0
142
0.0
142
0.0208333333333333
142
0.0
142
0.0
142
0.0
142
0.0
142
1.0
142
0.0
142
0.0
142
0.0
142
0.0
142
1.0
179
     0
144
0.0208333333333333
144
0.0
144
0.0
144
0.0
144
0.0
144
0.0208333333333333
144
0.0
144
0.0
144
0.0
144
0.0
144
1.0
144
0.0
144
0.0
144
0.0
144
0.0
144
1.0
147
0.0208333333333333
147
0.0
147
0.0
147
0.0
147
0.0
147
0.0208333333333333
147
0.0
147
0.0
147
0.0
147
0.0
147
1.0
147
0.0
147
0.0
147
0.0
147
0.0
147
1.0
  0
MLEADERSTYLE
  5
C3CC
102
{ACAD_REACTORS
330
C3CB
102
}
330
C3CB
100
AcDbMLeaderStyle
170
     2
171
     1
172
     0
 90
        2
 40
0.0
 41
0.0
173
     1
 91
-1056964608
340
C04A
 92
       -2
290
     1
 42
0.09
291
     1
 43
0.36
  3
Standard
 44
0.18
300

342
C048
174
     1
178
     6
175
     1
176
     0
 93
-1056964608
 45
0.18
292
     0
297
     0
 46
0.18
 94
-1056964608
 47
1.0
 49
1.0
140
1.0
293
     1
141
0.0
294
     1
177
     0
142
1.0
295
     0
296
     0
143
0.125
1001
ACAD_MLEADERVER
1070
     2
  0
MLINESTYLE
  5
C04E
102
{ACAD_REACTORS
330
C04D
102
}
330
C04D
100
AcDbMlineStyle
  2
STANDARD
 70
     0
  3

 62
   256
 51
90.0
 52
90.0
 71
     2
 49
0.5
 62
   256
  6
BYLAYER
 49
-0.5
 62
   256
  6
BYLAYER
  0
ACDBPLACEHOLDER
  5
C383
102
{ACAD_REACTORS
330
C382
102
}
330
C382
  0
SCALE
  5
C3BA
102
{ACAD_REACTORS
330
C3B9
102
}
330
C3B9
100
AcDbScale
 70
     0
300
1:1
140
1.0
141
1.0
290
     1
  0
SCALE
  5
C3BB
102
{ACAD_REACTORS
330
C3B9
102
}
330
C3B9
100
AcDbScale
 70
     0
300
1/128" = 1'-0"
140
0.0078125
141
12.0
290
     0
  0
SCALE
  5
C3BC
102
{ACAD_REACTORS
330
C3B9
102
}
330
C3B9
100
AcDbScale
 70
     0
300
1/64" = 1'-0"
140
0.015625
141
12.0
290
     0
  0
SCALE
  5
C3BD
102
{ACAD_REACTORS
330
C3B9
102
}
330
C3B9
100
AcDbScale
 70
     0
300
1/32" = 1'-0"
140
0.03125
141
12.0
290
     0
  0
SCALE
  5
C3BE
102
{ACAD_REACTORS
330
C3B9
102
}
330
C3B9
100
AcDbScale
 70
     0
300
1/16" = 1'-0"
140
0.0625
141
12.0
290
     0
  0
SCALE
  5
C3BF
102
{ACAD_REACTORS
330
C3B9
102
}
330
C3B9
100
AcDbScale
 70
     0
300
3/32" = 1'-0"
140
0.09375
141
12.0
290
     0
  0
SCALE
  5
C3C0
102
{ACAD_REACTORS
330
C3B9
102
}
330
C3B9
100
AcDbScale
 70
     0
300
1/8" = 1'-0"
140
0.125
141
12.0
290
     0
  0
SCALE
  5
C3C1
102
{ACAD_REACTORS
330
C3B9
102
}
330
C3B9
100
AcDbScale
 70
     0
300
3/16" = 1'-0"
140
0.1875
141
12.0
290
     0
  0
SCALE
  5
C3C2
102
{ACAD_REACTORS
330
C3B9
102
}
330
C3B9
100
AcDbScale
 70
     0
300
1/4" = 1'-0"
140
0.25
141
12.0
290
     0
  0
SCALE
  5
C3C3
102
{ACAD_REACTORS
330
C3B9
102
}
330
C3B9
100
AcDbScale
 70
     0
300
3/8" = 1'-0"
140
0.375
141
12.0
290
     0
  0
SCALE
  5
C3C4
102
{ACAD_REACTORS
330
C3B9
102
}
330
C3B9
100
AcDbScale
 70
     0
300
1/2" = 1'-0"
140
0.5
141
12.0
290
     0
  0
SCALE
  5
C3C5
102
{ACAD_REACTORS
330
C3B9
102
}
330
C3B9
100
AcDbScale
 70
     0
300
3/4" = 1'-0"
140
0.75
141
12.0
290
     0
  0
SCALE
  5
C3C6
102
{ACAD_REACTORS
330
C3B9
102
}
330
C3B9
100
AcDbScale
 70
     0
300
1" = 1'-0"
140
1.0
141
12.0
290
     0
  0
SCALE
  5
C3C7
102
{ACAD_REACTORS
330
C3B9
102
}
330
C3B9
100
AcDbScale
 70
     0
300
1-1/2" = 1'-0"
140
1.5
141
12.0
290
     0
  0
SCALE
  5
C3C8
102
{ACAD_REACTORS
330
C3B9
102
}
330
C3B9
100
AcDbScale
 70
     0
300
3" = 1'-0"
140
3.0
141
12.0
290
     0
  0
SCALE
  5
C3C9
102
{ACAD_REACTORS
330
C3B9
102
}
330
C3B9
100
AcDbScale
 70
     0
300
6" = 1'-0"
140
6.0
141
12.0
290
     0
  0
SCALE
  5
C3CA
102
{ACAD_REACTORS
330
C3B9
102
}
330
C3B9
100
AcDbScale
 70
     0
300
1'-0" = 1'-0"
140
12.0
141
12.0
290
     0
  0
ACDBSECTIONVIEWSTYLE
  5
C3CE
102
{ACAD_XDICTIONARY
360
C429
102
}
102
{ACAD_REACTORS
330
C3CD
102
}
330
C3CD
100
AcDbModelDocViewStyle
 70
     0
  3
Imperial24
290
     0
100
AcDbSectionViewStyle
 70
     0
 71
     0
 90
       78
 71
     1
340
C048
 40
0.24
340
0
340
0
 40
0.24
300
I, O, Q, S, X, Z
 40
0.48
 90
        3
 40
0.18
 90
        1
 71
     2
340
C04C
 90
       25
340
C04C
 90
       50
 40
0.24
 40
0.0
 40
0.24
 71
     3
340
C048
 40
0.24
 90
        1
 40
0.75
 90
        1
300
%<\AcVar ViewType \f "%tc1">% %<\AcVar ViewSectionStartId>%-%<\AcVar ViewSectionEndId>%\PSCALE %<\AcVar ViewScale \f "%sn">%
 71
     4
300
ANSI31
 40
1.0
 90
        0
290
     0
290
     0
 90
        6
 40
0.0
 40
1.570796326794896
 40
0.2617993877991494
 40
1.308996938995747
 40
-0.2617993877991494
 40
1.832595714594046
  0
TABLESTYLE
  5
C3B8
102
{ACAD_XDICTIONARY
360
C3F0
102
}
102
{ACAD_REACTORS
330
C3B7
102
}
330
C3B7
100
AcDbTableStyle
  3
Standard
 70
     0
 71
     0
 40
0.06
 41
0.06
280
     0
281
     0
  7
STANDARD
140
0.18
170
     2
 62
     0
 63
     7
283
     0
274
    -2
284
     1
 64
     0
275
    -2
285
     1
 65
     0
276
    -2
286
     1
 66
     0
277
    -2
287
     1
 67
     0
278
    -2
288
     1
 68
     0
279
    -2
289
     1
 69
     0
  7
STANDARD
140
0.25
170
     5
 62
     0
 63
     7
283
     0
274
    -2
284
     1
 64
     0
275
    -2
285
     1
 65
     0
276
    -2
286
     1
 66
     0
277
    -2
287
     1
 67
     0
278
    -2
288
     1
 68
     0
279
    -2
289
     1
 69
     0
  7
STANDARD
140
0.18
170
     5
 62
     0
 63
     7
283
     0
274
    -2
284
     1
 64
     0
275
    -2
285
     1
 65
     0
276
    -2
286
     1
 66
     0
277
    -2
287
     1
 67
     0
278
    -2
288
     1
 68
     0
279
    -2
289
     1
 69
     0
  0
VISUALSTYLE
  5
C3A3
102
{ACAD_XDICTIONARY
360
C401
102
}
102
{ACAD_REACTORS
330
C39D
102
}
330
C39D
100
AcDbVisualStyle
  2
2dWireframe
 70
     4
 71
     0
 72
     2
 73
     0
 90
        0
 40
-0.6
 41
-30.0
 62
     5
 63
     7
 74
     1
 91
        4
 64
     7
 65
   257
 75
     1
175
     1
 42
1.0
 92
        0
 66
   257
 43
1.0
 76
     1
 77
     6
 78
     2
 67
     7
 79
     5
170
     0
171
     0
290
     0
174
     0
 93
        1
 44
0.0
173
     0
291
     0
 45
0.0
1001
ACAD
1000
AcDbSavedByObjectVersion
1070
     0
  0
VISUALSTYLE
  5
C3A2
102
{ACAD_XDICTIONARY
360
C3FF
102
}
102
{ACAD_REACTORS
330
C39D
102
}
330
C39D
100
AcDbVisualStyle
  2
Basic
 70
     7
 71
     1
 72
     0
 73
     1
 90
        0
 40
-0.6
 41
-30.0
 62
     5
 63
     7
 74
     0
 91
        4
 64
     7
 65
   257
 75
     1
175
     1
 42
1.0
 92
        8
 66
     7
 43
1.0
 76
     1
 77
     6
 78
     2
 67
     7
 79
     5
170
     0
171
     0
290
     0
174
     0
 93
        1
 44
0.0
173
     0
291
     1
 45
0.0
1001
ACAD
1000
AcDbSavedByObjectVersion
1070
     0
  0
VISUALSTYLE
  5
C3A9
102
{ACAD_XDICTIONARY
360
C40D
102
}
102
{ACAD_REACTORS
330
C39D
102
}
330
C39D
100
AcDbVisualStyle
  2
Brighten
 70
    12
 71
     2
 72
     2
 73
     0
 90
        0
 40
-0.6
 41
-30.0
 62
     5
 63
     7
 74
     1
 91
        4
 64
     7
 65
   257
 75
     1
175
     1
 42
1.0
 92
        8
 66
     7
 43
1.0
 76
     1
 77
     6
 78
     2
 67
     7
 79
     5
170
     0
171
     0
290
     0
174
     0
 93
        1
 44
50.0
173
     0
291
     1
 45
0.0
1001
ACAD
1000
AcDbSavedByObjectVersion
1070
     0
  0
VISUALSTYLE
  5
C3AD
102
{ACAD_XDICTIONARY
360
C415
102
}
102
{ACAD_REACTORS
330
C39D
102
}
330
C39D
100
AcDbVisualStyle
  2
ColorChange
 70
    16
 71
     2
 72
     2
 73
     3
 90
        0
 40
-0.6
 41
-30.0
 62
     5
 63
     8
 74
     1
 91
        4
 64
     7
 65
   257
 75
     1
175
     1
 42
1.0
 92
        8
 66
     8
 43
1.0
 76
     1
 77
     6
 78
     2
 67
     7
 79
     5
170
     0
171
     0
290
     0
174
     0
 93
        1
 44
0.0
173
     0
291
     1
 45
0.0
1001
ACAD
1000
AcDbSavedByObjectVersion
1070
     0
  0
VISUALSTYLE
  5
C3A6
102
{ACAD_XDICTIONARY
360
C407
102
}
102
{ACAD_REACTORS
330
C39D
102
}
330
C39D
100
AcDbVisualStyle
  2
Conceptual
 70
     9
 71
     3
 72
     2
 73
     0
 90
        0
 40
-0.6
 41
-30.0
 62
     5
 63
     7
 74
     2
 91
        2
 64
     7
 65
   257
 75
     1
175
     1
 42
179.0
 92
        8
 66
     7
 43
1.0
 76
     1
 77
     6
 78
     2
 67
     7
 79
     3
170
     0
171
     0
290
     0
174
     0
 93
        1
 44
0.0
173
     0
291
     0
 45
0.0
1001
ACAD
1000
AcDbSavedByObjectVersion
1070
     0
  0
VISUALSTYLE
  5
C3A8
102
{ACAD_XDICTIONARY
360
C40B
102
}
102
{ACAD_REACTORS
330
C39D
102
}
330
C39D
100
AcDbVisualStyle
  2
Dim
 70
    11
 71
     2
 72
     2
 73
     0
 90
        0
 40
-0.6
 41
-30.0
 62
     5
 63
     7
 74
     1
 91
        4
 64
     7
 65
   257
 75
     1
175
     1
 42
1.0
 92
        8
 66
     7
 43
1.0
 76
     1
 77
     6
 78
     2
 67
     7
 79
     5
170
     0
171
     0
290
     0
174
     0
 93
        1
 44
-50.0
173
     0
291
     1
 45
0.0
1001
ACAD
1000
AcDbSavedByObjectVersion
1070
     0
  0
VISUALSTYLE
  5
C3B5
102
{ACAD_XDICTIONARY
360
C425
102
}
102
{ACAD_REACTORS
330
C39D
102
}
330
C39D
100
AcDbVisualStyle
  2
EdgeColorOff
 70
    22
 71
     2
 72
     2
 73
     0
 90
        0
 40
-0.6
 41
-30.0
 62
     5
 63
     7
 74
     1
 91
        4
 64
     7
 65
   257
 75
     1
175
     1
 42
1.0
 92
        8
 66
     7
 43
1.0
 76
     1
 77
     6
 78
     2
 67
     7
 79
     5
170
     0
171
     0
290
     0
174
     0
 93
        1
 44
0.0
173
     0
291
     1
 45
0.0
1001
ACAD
1000
AcDbSavedByObjectVersion
1070
     0
  0
VISUALSTYLE
  5
C3AC
102
{ACAD_XDICTIONARY
360
C413
102
}
102
{ACAD_REACTORS
330
C39D
102
}
330
C39D
100
AcDbVisualStyle
  2
Facepattern
 70
    15
 71
     2
 72
     2
 73
     0
 90
        0
 40
-0.6
 41
-30.0
 62
     5
 63
     7
 74
     1
 91
        4
 64
     7
 65
   257
 75
     1
175
     1
 42
1.0
 92
        8
 66
     7
 43
1.0
 76
     1
 77
     6
 78
     2
 67
     7
 79
     5
170
     0
171
     0
290
     0
174
     0
 93
        1
 44
0.0
173
     0
291
     1
 45
0.0
1001
ACAD
1000
AcDbSavedByObjectVersion
1070
     0
  0
VISUALSTYLE
  5
C39E
102
{ACAD_XDICTIONARY
360
C3F7
102
}
102
{ACAD_REACTORS
330
C39D
102
}
330
C39D
100
AcDbVisualStyle
  2
Flat
 70
     0
 71
     2
 72
     1
 73
     1
 90
        2
 40
-0.6
 41
30.0
 62
     5
 63
     7
 74
     0
 91
        0
 64
     7
 65
   257
 75
     1
175
     1
 42
1.0
 92
        8
 66
     7
 43
1.0
 76
     1
 77
     6
 78
     2
 67
     7
 79
     5
170
     0
171
     0
290
     0
174
     0
 93
       13
 44
0.0
173
     0
291
     1
 45
0.0
1001
ACAD
1000
AcDbSavedByObjectVersion
1070
     0
  0
VISUALSTYLE
  5
C39F
102
{ACAD_XDICTIONARY
360
C3F9
102
}
102
{ACAD_REACTORS
330
C39D
102
}
330
C39D
100
AcDbVisualStyle
  2
FlatWithEdges
 70
     1
 71
     2
 72
     1
 73
     1
 90
        2
 40
-0.6
 41
30.0
 62
     5
 63
     7
 74
     1
 91
        0
 64
     7
 65
   257
 75
     1
175
     1
 42
1.0
 92
        0
 66
   257
 43
1.0
 76
     1
 77
     6
 78
     2
 67
     7
 79
     5
170
     0
171
     0
290
     0
174
     0
 93
       13
 44
0.0
173
     0
291
     1
 45
0.0
1001
ACAD
1000
AcDbSavedByObjectVersion
1070
     0
  0
VISUALSTYLE
  5
C3A0
102
{ACAD_XDICTIONARY
360
C3FB
102
}
102
{ACAD_REACTORS
330
C39D
102
}
330
C39D
100
AcDbVisualStyle
  2
Gouraud
 70
     2
 71
     2
 72
     2
 73
     1
 90
        2
 40
-0.6
 41
30.0
 62
     5
 63
     7
 74
     0
 91
        0
 64
     7
 65
   257
 75
     1
175
     1
 42
1.0
 92
        0
 66
     7
 43
1.0
 76
     1
 77
     6
 78
     2
 67
     7
 79
     5
170
     0
171
     0
290
     0
174
     0
 93
       13
 44
0.0
173
     0
291
     1
 45
0.0
1001
ACAD
1000
AcDbSavedByObjectVersion
1070
     0
  0
VISUALSTYLE
  5
C3A1
102
{ACAD_XDICTIONARY
360
C3FD
102
}
102
{ACAD_REACTORS
330
C39D
102
}
330
C39D
100
AcDbVisualStyle
  2
GouraudWithEdges
 70
     3
 71
     2
 72
     2
 73
     1
 90
        2
 40
-0.6
 41
30.0
 62
     5
 63
     7
 74
     1
 91
        0
 64
     7
 65
   257
 75
     1
175
     1
 42
1.0
 92
        0
 66
   257
 43
1.0
 76
     1
 77
     6
 78
     2
 67
     7
 79
     5
170
     0
171
     0
290
     0
174
     0
 93
       13
 44
0.0
173
     0
291
     1
 45
0.0
1001
ACAD
1000
AcDbSavedByObjectVersion
1070
     0
  0
VISUALSTYLE
  5
C3A5
102
{ACAD_XDICTIONARY
360
C405
102
}
102
{ACAD_REACTORS
330
C39D
102
}
330
C39D
100
AcDbVisualStyle
  2
Hidden
 70
     6
 71
     1
 72
     2
 73
     2
 90
        0
 40
-0.6
 41
-30.0
 62
     5
 63
     7
 74
     2
 91
        2
 64
     7
 65
   257
 75
     2
175
     1
 42
40.0
 92
        0
 66
   257
 43
1.0
 76
     1
 77
     6
 78
     2
 67
     7
 79
     3
170
     0
171
     0
290
     0
174
     0
 93
        1
 44
0.0
173
     0
291
     0
 45
0.0
1001
ACAD
1000
AcDbSavedByObjectVersion
1070
     0
  0
VISUALSTYLE
  5
C3B3
102
{ACAD_XDICTIONARY
360
C421
102
}
102
{ACAD_REACTORS
330
C39D
102
}
330
C39D
100
AcDbVisualStyle
  2
JitterOff
 70
    20
 71
     2
 72
     2
 73
     0
 90
        0
 40
-0.6
 41
-30.0
 62
     5
 63
     7
 74
     1
 91
        4
 64
     7
 65
   257
 75
     1
175
     1
 42
1.0
 92
       10
 66
     7
 43
1.0
 76
     1
 77
     6
 78
     2
 67
     7
 79
     5
170
     0
171
     0
290
     0
174
     0
 93
        1
 44
0.0
173
     0
291
     1
 45
0.0
1001
ACAD
1000
AcDbSavedByObjectVersion
1070
     0
  0
VISUALSTYLE
  5
C3AB
102
{ACAD_XDICTIONARY
360
C411
102
}
102
{ACAD_REACTORS
330
C39D
102
}
330
C39D
100
AcDbVisualStyle
  2
Linepattern
 70
    14
 71
     2
 72
     2
 73
     0
 90
        0
 40
-0.6
 41
-30.0
 62
     5
 63
     7
 74
     1
 91
        4
 64
     7
 65
   257
 75
     7
175
     7
 42
1.0
 92
        8
 66
     7
 43
1.0
 76
     1
 77
     6
 78
     2
 67
     7
 79
     5
170
     0
171
     0
290
     0
174
     0
 93
        1
 44
0.0
173
     0
291
     1
 45
0.0
1001
ACAD
1000
AcDbSavedByObjectVersion
1070
     0
  0
VISUALSTYLE
  5
C3B4
102
{ACAD_XDICTIONARY
360
C423
102
}
102
{ACAD_REACTORS
330
C39D
102
}
330
C39D
100
AcDbVisualStyle
  2
OverhangOff
 70
    21
 71
     2
 72
     2
 73
     0
 90
        0
 40
-0.6
 41
-30.0
 62
     5
 63
     7
 74
     1
 91
        4
 64
     7
 65
   257
 75
     1
175
     1
 42
1.0
 92
        9
 66
     7
 43
1.0
 76
     1
 77
     6
 78
     2
 67
     7
 79
     5
170
     0
171
     0
290
     0
174
     0
 93
        1
 44
0.0
173
     0
291
     1
 45
0.0
1001
ACAD
1000
AcDbSavedByObjectVersion
1070
     0
  0
VISUALSTYLE
  5
C3A7
102
{ACAD_XDICTIONARY
360
C409
102
}
102
{ACAD_REACTORS
330
C39D
102
}
330
C39D
100
AcDbVisualStyle
  2
Realistic
 70
     8
 71
     2
 72
     3
 73
     0
 90
        2
 40
-0.6
 41
30.0
 62
     5
 63
     7
 74
     0
 91
        0
 64
     7
 65
   257
 75
     1
175
     1
 42
1.0
 92
        8
 66
   257
 43
1.0
 76
     1
 77
     6
 78
     2
 67
     7
 79
     3
170
     0
171
     0
290
     0
174
     0
 93
       13
 44
0.0
173
     0
291
     0
 45
0.0
1001
ACAD
1000
AcDbSavedByObjectVersion
1070
     0
  0
VISUALSTYLE
  5
C3B2
102
{ACAD_XDICTIONARY
360
C41F
102
}
102
{ACAD_REACTORS
330
C39D
102
}
330
C39D
100
AcDbVisualStyle
  2
Shaded
 70
    27
 71
     2
 72
     2
 73
     1
 90
        2
 40
-0.6
 41
30.0
 62
     5
 63
     7
 74
     0
 91
        4
 64
     7
 65
   257
 75
     1
175
     1
 42
1.0
 92
        8
 66
   257
 43
1.0
 76
     1
 77
     6
 78
     2
 67
     8
 79
     3
170
     0
171
     0
290
     0
174
     0
 93
        5
 44
0.0
173
     0
291
     0
 45
0.0
1001
ACAD
1000
AcDbSavedByObjectVersion
1070
     0
  0
VISUALSTYLE
  5
C3B1
102
{ACAD_XDICTIONARY
360
C41D
102
}
102
{ACAD_REACTORS
330
C39D
102
}
330
C39D
100
AcDbVisualStyle
  2
Shaded with edges
 70
    26
 71
     2
 72
     2
 73
     1
 90
        2
 40
-0.6
 41
30.0
 62
     5
 63
     7
 74
     1
 91
       10
 64
     7
 65
   257
 75
     2
175
     1
 42
1.0
 92
        8
 66
   257
 43
1.0
 76
     1
 77
     6
 78
     2
 67
     7
 79
     3
170
     0
171
     0
290
     0
174
     0
 93
        5
 44
0.0
173
     0
291
     0
 45
0.0
1001
ACAD
1000
AcDbSavedByObjectVersion
1070
     0
  0
VISUALSTYLE
  5
C3AE
102
{ACAD_XDICTIONARY
360
C417
102
}
102
{ACAD_REACTORS
330
C39D
102
}
330
C39D
100
AcDbVisualStyle
  2
Shades of Gray
 70
    23
 71
     2
 72
     2
 73
     3
 90
        0
 40
-0.6
 41
-30.0
 62
     5
 63
     7
 74
     2
 91
        2
 64
     7
 65
     7
 75
     1
175
     1
 42
40.0
 92
        8
 66
     7
 43
1.0
 76
     1
 77
     6
 78
     2
 67
     7
 79
     3
170
     0
171
     0
290
     0
174
     0
 93
        1
 44
0.0
173
     0
291
     0
 45
0.0
1001
ACAD
1000
AcDbSavedByObjectVersion
1070
     0
  0
VISUALSTYLE
  5
C3AF
102
{ACAD_XDICTIONARY
360
C419
102
}
102
{ACAD_REACTORS
330
C39D
102
}
330
C39D
100
AcDbVisualStyle
  2
Sketchy
 70
    24
 71
     1
 72
     2
 73
     2
 90
        0
 40
-0.6
 41
-30.0
 62
     5
 63
     7
 74
     2
 91
        2
 64
     7
 65
     7
 75
     1
175
     1
 42
40.0
 92
       11
 66
     7
 43
1.0
 76
     1
 77
     6
 78
     2
 67
     7
 79
     6
170
     0
171
     0
290
     0
174
     0
 93
        1
 44
0.0
173
     0
291
     0
 45
0.0
1001
ACAD
1000
AcDbSavedByObjectVersion
1070
     0
  0
VISUALSTYLE
  5
C3AA
102
{ACAD_XDICTIONARY
360
C40F
102
}
102
{ACAD_REACTORS
330
C39D
102
}
330
C39D
100
AcDbVisualStyle
  2
Thicken
 70
    13
 71
     2
 72
     2
 73
     0
 90
        0
 40
-0.6
 41
-30.0
 62
     5
 63
     7
 74
     1
 91
        4
 64
     7
 65
   257
 75
     1
175
     1
 42
1.0
 92
       12
 66
     7
 43
1.0
 76
     1
 77
     6
 78
     2
 67
     7
 79
     5
170
     0
171
     0
290
     0
174
     0
 93
        1
 44
0.0
173
     0
291
     1
 45
0.0
1001
ACAD
1000
AcDbSavedByObjectVersion
1070
     0
  0
VISUALSTYLE
  5
C3A4
102
{ACAD_XDICTIONARY
360
C403
102
}
102
{ACAD_REACTORS
330
C39D
102
}
330
C39D
100
AcDbVisualStyle
  2
Wireframe
 70
     5
 71
     0
 72
     2
 73
     0
 90
        0
 40
-0.6
 41
-30.0
 62
     5
 63
     7
 74
     1
 91
        4
 64
     7
 65
   257
 75
     1
175
     1
 42
1.0
 92
        0
 66
   257
 43
1.0
 76
     1
 77
     6
 78
     2
 67
     7
 79
     3
170
     0
171
     0
290
     0
174
     0
 93
        1
 44
0.0
173
     0
291
     0
 45
0.0
1001
ACAD
1000
AcDbSavedByObjectVersion
1070
     0
  0
VISUALSTYLE
  5
C3B0
102
{ACAD_XDICTIONARY
360
C41B
102
}
102
{ACAD_REACTORS
330
C39D
102
}
330
C39D
100
AcDbVisualStyle
  2
X-Ray
 70
    25
 71
     2
 72
     2
 73
     1
 90
        1
 40
0.5
 41
-30.0
 62
     5
 63
     7
 74
     1
 91
        0
 64
     7
 65
   257
 75
     1
175
     1
 42
1.0
 92
        8
 66
     7
 43
1.0
 76
     1
 77
     6
 78
     2
 67
     7
 79
     3
170
     0
171
     0
290
     0
174
     0
 93
       13
 44
0.0
173
     0
291
     0
 45
0.0
1001
ACAD
1000
AcDbSavedByObjectVersion
1070
     0
  0
DICTIONARYVAR
  5
C3EA
102
{ACAD_REACTORS
330
C3E5
102
}
330
C3E5
100
DictionaryVariables
280
     0
  1
1:1
  0
DICTIONARYVAR
  5
C3E7
102
{ACAD_REACTORS
330
C3E5
102
}
330
C3E5
100
DictionaryVariables
280
     0
  1
STANDARD
  0
DICTIONARYVAR
  5
C3E6
102
{ACAD_REACTORS
330
C3E5
102
}
330
C3E5
100
DictionaryVariables
280
     0
  1
STANDARD
  0
DICTIONARYVAR
  5
C3E8
102
{ACAD_REACTORS
330
C3E5
102
}
330
C3E5
100
DictionaryVariables
280
     0
  1
Imperial24
  0
DICTIONARYVAR
  5
C3E9
102
{ACAD_REACTORS
330
C3E5
102
}
330
C3E5
100
DictionaryVariables
280
     0
  1
Imperial24
  0
DICTIONARYVAR
  5
C3ED
102
{ACAD_REACTORS
330
C3E5
102
}
330
C3E5
100
DictionaryVariables
280
     0
  1
1
  0
DICTIONARYVAR
  5
C3EC
102
{ACAD_REACTORS
330
C3E5
102
}
330
C3E5
100
DictionaryVariables
280
     0
  1
0
  0
DICTIONARYVAR
  5
C3EB
102
{ACAD_REACTORS
330
C3E5
102
}
330
C3E5
100
DictionaryVariables
280
     0
  1
127
  0
DICTIONARYVAR
  5
C3EE
102
{ACAD_REACTORS
330
C3E5
102
}
330
C3E5
100
DictionaryVariables
280
     0
  1
2
  0
DICTIONARY
  5
C42B
330
C3D0
100
AcDbDictionary
280
     1
281
     1
  3
ACAD_XREC_ROUNDTRIP
360
C42C
  0
DICTIONARY
  5
C42D
330
C3D1
100
AcDbDictionary
280
     1
281
     1
  3
ACAD_XREC_ROUNDTRIP
360
C42E
  0
DICTIONARY
  5
C42F
330
C3D2
100
AcDbDictionary
280
     1
281
     1
  3
ACAD_XREC_ROUNDTRIP
360
C430
  0
DICTIONARY
  5
C38E
330
C38D
100
AcDbDictionary
280
     1
281
     1
  3
ACAD_XREC_ROUNDTRIP
360
C3F5
  3
BUMPTILE
360
C390
  3
DIFFUSETILE
360
C38F
  3
OPACITYTILE
360
C393
  3
REFLECTIONTILE
360
C392
  3
REFRACTIONTILE
360
C394
  3
SPECULARTILE
360
C391
  0
DICTIONARY
  5
C386
330
C385
100
AcDbDictionary
280
     1
281
     1
  3
ACAD_XREC_ROUNDTRIP
360
C3F4
  3
BUMPTILE
360
C388
  3
DIFFUSETILE
360
C387
  3
OPACITYTILE
360
C38B
  3
REFLECTIONTILE
360
C38A
  3
REFRACTIONTILE
360
C38C
  3
SPECULARTILE
360
C389
  0
DICTIONARY
  5
C396
330
C395
100
AcDbDictionary
280
     1
281
     1
  3
ACAD_XREC_ROUNDTRIP
360
C3F6
  3
BUMPTILE
360
C398
  3
DIFFUSETILE
360
C397
  3
OPACITYTILE
360
C39B
  3
REFLECTIONTILE
360
C39A
  3
REFRACTIONTILE
360
C39C
  3
SPECULARTILE
360
C399
  0
DICTIONARY
  5
C429
330
C3CE
100
AcDbDictionary
280
     1
281
     1
  3
ACAD_XREC_ROUNDTRIP
360
C42A
  0
DICTIONARY
  5
C3F0
330
C3B8
100
AcDbDictionary
280
     1
281
     1
  3
ACAD_ROUNDTRIP_2008_TABLESTYLE_CELLSTYLEMAP
360
C3F1
  3
ACAD_XREC_ROUNDTRIP
360
C427
  0
DICTIONARY
  5
C401
330
C3A3
100
AcDbDictionary
280
     1
281
     1
  3
ACAD_XREC_ROUNDTRIP
360
C402
  0
DICTIONARY
  5
C3FF
330
C3A2
100
AcDbDictionary
280
     1
281
     1
  3
ACAD_XREC_ROUNDTRIP
360
C400
  0
DICTIONARY
  5
C40D
330
C3A9
100
AcDbDictionary
280
     1
281
     1
  3
ACAD_XREC_ROUNDTRIP
360
C40E
  0
DICTIONARY
  5
C415
330
C3AD
100
AcDbDictionary
280
     1
281
     1
  3
ACAD_XREC_ROUNDTRIP
360
C416
  0
DICTIONARY
  5
C407
330
C3A6
100
AcDbDictionary
280
     1
281
     1
  3
ACAD_XREC_ROUNDTRIP
360
C408
  0
DICTIONARY
  5
C40B
330
C3A8
100
AcDbDictionary
280
     1
281
     1
  3
ACAD_XREC_ROUNDTRIP
360
C40C
  0
DICTIONARY
  5
C425
330
C3B5
100
AcDbDictionary
280
     1
281
     1
  3
ACAD_XREC_ROUNDTRIP
360
C426
  0
DICTIONARY
  5
C413
330
C3AC
100
AcDbDictionary
280
     1
281
     1
  3
ACAD_XREC_ROUNDTRIP
360
C414
  0
DICTIONARY
  5
C3F7
330
C39E
100
AcDbDictionary
280
     1
281
     1
  3
ACAD_XREC_ROUNDTRIP
360
C3F8
  0
DICTIONARY
  5
C3F9
330
C39F
100
AcDbDictionary
280
     1
281
     1
  3
ACAD_XREC_ROUNDTRIP
360
C3FA
  0
DICTIONARY
  5
C3FB
330
C3A0
100
AcDbDictionary
280
     1
281
     1
  3
ACAD_XREC_ROUNDTRIP
360
C3FC
  0
DICTIONARY
  5
C3FD
330
C3A1
100
AcDbDictionary
280
     1
281
     1
  3
ACAD_XREC_ROUNDTRIP
360
C3FE
  0
DICTIONARY
  5
C405
330
C3A5
100
AcDbDictionary
280
     1
281
     1
  3
ACAD_XREC_ROUNDTRIP
360
C406
  0
DICTIONARY
  5
C421
330
C3B3
100
AcDbDictionary
280
     1
281
     1
  3
ACAD_XREC_ROUNDTRIP
360
C422
  0
DICTIONARY
  5
C411
330
C3AB
100
AcDbDictionary
280
     1
281
     1
  3
ACAD_XREC_ROUNDTRIP
360
C412
  0
DICTIONARY
  5
C423
330
C3B4
100
AcDbDictionary
280
     1
281
     1
  3
ACAD_XREC_ROUNDTRIP
360
C424
  0
DICTIONARY
  5
C409
330
C3A7
100
AcDbDictionary
280
     1
281
     1
  3
ACAD_XREC_ROUNDTRIP
360
C40A
  0
DICTIONARY
  5
C41F
330
C3B2
100
AcDbDictionary
280
     1
281
     1
  3
ACAD_XREC_ROUNDTRIP
360
C420
  0
DICTIONARY
  5
C41D
330
C3B1
100
AcDbDictionary
280
     1
281
     1
  3
ACAD_XREC_ROUNDTRIP
360
C41E
  0
DICTIONARY
  5
C417
330
C3AE
100
AcDbDictionary
280
     1
281
     1
  3
ACAD_XREC_ROUNDTRIP
360
C418
  0
DICTIONARY
  5
C419
330
C3AF
100
AcDbDictionary
280
     1
281
     1
  3
ACAD_XREC_ROUNDTRIP
360
C41A
  0
DICTIONARY
  5
C40F
330
C3AA
100
AcDbDictionary
280
     1
281
     1
  3
ACAD_XREC_ROUNDTRIP
360
C410
  0
DICTIONARY
  5
C403
330
C3A4
100
AcDbDictionary
280
     1
281
     1
  3
ACAD_XREC_ROUNDTRIP
360
C404
  0
DICTIONARY
  5
C41B
330
C3B0
100
AcDbDictionary
280
     1
281
     1
  3
ACAD_XREC_ROUNDTRIP
360
C41C
  0
XRECORD
  5
C42C
102
{ACAD_REACTORS
330
C42B
102
}
330
C42B
100
AcDbXrecord
280
     1
102
DISPLAYNAME
  1
Imperial24
102
FLAGS
 90
        0
  0
XRECORD
  5
C42E
102
{ACAD_REACTORS
330
C42D
102
}
330
C42D
100
AcDbXrecord
280
     1
102
SHADEPLOT
 70
     0
102
SHADEPLOTRESLEVEL
 70
     2
102
SHADEPLOTCUSTOMDPI
 70
   300
  0
XRECORD
  5
C430
102
{ACAD_REACTORS
330
C42F
102
}
330
C42F
100
AcDbXrecord
280
     1
102
SHADEPLOT
 70
     0
102
SHADEPLOTRESLEVEL
 70
     2
102
SHADEPLOTCUSTOMDPI
 70
   300
  0
XRECORD
  5
C3F5
102
{ACAD_REACTORS
330
C38E
102
}
330
C38E
100
AcDbXrecord
280
     1
102
MATERIAL
148
0.0
149
0.0
149
0.0
 93
        0
 94
      127
282
     0
 72
     0
 77
     0
171
     0
175
     0
179
     0
273
     0
  0
XRECORD
  5
C390
102
{ACAD_REACTORS
330
C38E
102
}
330
C38E
100
AcDbXrecord
280
     1
270
     1
271
     1
  0
XRECORD
  5
C38F
102
{ACAD_REACTORS
330
C38E
102
}
330
C38E
100
AcDbXrecord
280
     1
270
     1
271
     1
  0
XRECORD
  5
C393
102
{ACAD_REACTORS
330
C38E
102
}
330
C38E
100
AcDbXrecord
280
     1
270
     1
271
     1
  0
XRECORD
  5
C392
102
{ACAD_REACTORS
330
C38E
102
}
330
C38E
100
AcDbXrecord
280
     1
270
     1
271
     1
  0
XRECORD
  5
C394
102
{ACAD_REACTORS
330
C38E
102
}
330
C38E
100
AcDbXrecord
280
     1
270
     1
271
     1
  0
XRECORD
  5
C391
102
{ACAD_REACTORS
330
C38E
102
}
330
C38E
100
AcDbXrecord
280
     1
270
     1
271
     1
  0
XRECORD
  5
C3F4
102
{ACAD_REACTORS
330
C386
102
}
330
C386
100
AcDbXrecord
280
     1
102
MATERIAL
148
0.0
149
0.0
149
0.0
 93
        0
 94
      127
282
     0
 72
     0
 77
     0
171
     0
175
     0
179
     0
273
     0
  0
XRECORD
  5
C388
102
{ACAD_REACTORS
330
C386
102
}
330
C386
100
AcDbXrecord
280
     1
270
     1
271
     1
  0
XRECORD
  5
C387
102
{ACAD_REACTORS
330
C386
102
}
330
C386
100
AcDbXrecord
280
     1
270
     1
271
     1
  0
XRECORD
  5
C38B
102
{ACAD_REACTORS
330
C386
102
}
330
C386
100
AcDbXrecord
280
     1
270
     1
271
     1
  0
XRECORD
  5
C38A
102
{ACAD_REACTORS
330
C386
102
}
330
C386
100
AcDbXrecord
280
     1
270
     1
271
     1
  0
XRECORD
  5
C38C
102
{ACAD_REACTORS
330
C386
102
}
330
C386
100
AcDbXrecord
280
     1
270
     1
271
     1
  0
XRECORD
  5
C389
102
{ACAD_REACTORS
330
C386
102
}
330
C386
100
AcDbXrecord
280
     1
270
     1
271
     1
  0
XRECORD
  5
C3F6
102
{ACAD_REACTORS
330
C396
102
}
330
C396
100
AcDbXrecord
280
     1
102
MATERIAL
148
0.0
149
0.0
149
0.0
 93
        0
 94
      127
282
     0
 72
     0
 77
     0
171
     0
175
     0
179
     0
273
     0
  0
XRECORD
  5
C398
102
{ACAD_REACTORS
330
C396
102
}
330
C396
100
AcDbXrecord
280
     1
270
     1
271
     1
  0
XRECORD
  5
C397
102
{ACAD_REACTORS
330
C396
102
}
330
C396
100
AcDbXrecord
280
     1
270
     1
271
     1
  0
XRECORD
  5
C39B
102
{ACAD_REACTORS
330
C396
102
}
330
C396
100
AcDbXrecord
280
     1
270
     1
271
     1
  0
XRECORD
  5
C39A
102
{ACAD_REACTORS
330
C396
102
}
330
C396
100
AcDbXrecord
280
     1
270
     1
271
     1
  0
XRECORD
  5
C39C
102
{ACAD_REACTORS
330
C396
102
}
330
C396
100
AcDbXrecord
280
     1
270
     1
271
     1
  0
XRECORD
  5
C399
102
{ACAD_REACTORS
330
C396
102
}
330
C396
100
AcDbXrecord
280
     1
270
     1
271
     1
  0
XRECORD
  5
C42A
102
{ACAD_REACTORS
330
C429
102
}
330
C429
100
AcDbXrecord
280
     1
102
DISPLAYNAME
  1
Imperial24
102
FLAGS
 90
        0
  0
CELLSTYLEMAP
  5
C3F1
102
{ACAD_REACTORS
330
C3F0
102
}
330
C3F0
100
AcDbCellStyleMap
 90
        3
300
CELLSTYLE
  1
TABLEFORMAT_BEGIN
 90
        5
170
     1
 91
        0
 92
    32768
 62
   257
 93
        1
300
CONTENTFORMAT
  1
CONTENTFORMAT_BEGIN
 90
        0
 91
        0
 92
      512
 93
        0
300

 40
0.0
140
1.0
 94
        5
 62
     0
340
C048
144
0.25
309
CONTENTFORMAT_END
171
     0
 94
        0
309
TABLEFORMAT_END
  1
CELLSTYLE_BEGIN
 90
        1
 91
        1
300
_TITLE
309
CELLSTYLE_END
300
CELLSTYLE
  1
TABLEFORMAT_BEGIN
 90
        5
170
     1
 91
        0
 92
        0
 62
   257
 93
        1
300
CONTENTFORMAT
  1
CONTENTFORMAT_BEGIN
 90
        0
 91
        0
 92
      512
 93
        0
300

 40
0.0
140
1.0
 94
        5
 62
     0
340
C048
144
0.18
309
CONTENTFORMAT_END
171
     0
 94
        0
309
TABLEFORMAT_END
  1
CELLSTYLE_BEGIN
 90
        2
 91
        1
300
_HEADER
309
CELLSTYLE_END
300
CELLSTYLE
  1
TABLEFORMAT_BEGIN
 90
        5
170
     1
 91
        0
 92
        0
 62
   257
 93
        1
300
CONTENTFORMAT
  1
CONTENTFORMAT_BEGIN
 90
        0
 91
        0
 92
      512
 93
        0
300

 40
0.0
140
1.0
 94
        2
 62
     0
340
C048
144
0.18
309
CONTENTFORMAT_END
171
     0
 94
        0
309
TABLEFORMAT_END
  1
CELLSTYLE_BEGIN
 90
        3
 91
        2
300
_DATA
309
CELLSTYLE_END
  0
XRECORD
  5
C427
102
{ACAD_REACTORS
330
C3F0
102
}
330
C3F0
100
AcDbXrecord
280
     1
102
ACAD_ROUNDTRIP_PRE2007_TABLESTYLE
 90
      512
 91
        0
  1

 92
      512
 93
        0
  2

 94
      512
 95
        0
  3

  0
XRECORD
  5
C402
102
{ACAD_REACTORS
330
C401
102
}
330
C401
100
AcDbXrecord
280
     1
102
RTVSPost2010Prop28
280
     1
102
RTVSPost2010PropOp28
 70
     1
102
RTVSPost2010Prop29
280
     1
102
RTVSPost2010PropOp29
 70
     1
102
RTVSPost2010Prop30
280
     0
102
RTVSPost2010PropOp30
 70
     1
102
RTVSPost2010Prop31
280
     0
102
RTVSPost2010PropOp31
 70
     1
102
RTVSPost2010Prop32
280
     0
102
RTVSPost2010PropOp32
 70
     1
102
RTVSPost2010Prop33
280
     0
102
RTVSPost2010PropOp33
 70
     1
102
RTVSPost2010Prop34
280
     0
102
RTVSPost2010PropOp34
 70
     1
102
RTVSPost2010Prop35
280
     0
102
RTVSPost2010PropOp35
 70
     1
102
RTVSPost2010Prop36
280
     0
102
RTVSPost2010PropOp36
 70
     1
102
RTVSPost2010Prop37
 90
       50
102
RTVSPost2010PropOp37
 70
     1
102
RTVSPost2010Prop38
140
0.0
102
RTVSPost2010PropOp38
 70
     1
102
RTVSPost2010Prop39
140
1.0
102
RTVSPost2010PropOp39
 70
     1
102
RTVSPost2010Prop40
 90
        0
102
RTVSPost2010PropOp40
 70
     1
102
RTVSPost2010Prop41ColorIndex
 90
       18
102
RTVSPost2010Prop41ColorRGB
 90
        0
102
RTVSPost2010PropOp41
 70
     1
102
RTVSPost2010Prop42
 90
       50
102
RTVSPost2010PropOp42
 70
     1
102
RTVSPost2010Prop43
 90
        3
102
RTVSPost2010PropOp43
 70
     1
102
RTVSPost2010Prop44ColorIndex
 90
        5
102
RTVSPost2010Prop44ColorRGB
 90
      255
102
RTVSPost2010PropOp44
 70
     1
102
RTVSPost2010Prop45
280
     0
102
RTVSPost2010PropOp45
 70
     1
102
RTVSPost2010Prop46
 90
       50
102
RTVSPost2010PropOp46
 70
     1
102
RTVSPost2010Prop47
 90
       50
102
RTVSPost2010PropOp47
 70
     1
102
RTVSPost2010Prop48
 90
       50
102
RTVSPost2010PropOp48
 70
     1
102
RTVSPost2010Prop49
280
     0
102
RTVSPost2010PropOp49
 70
     1
102
RTVSPost2010Prop50
 90
       50
102
RTVSPost2010PropOp50
 70
     1
102
RTVSPost2010Prop51ColorIndex
 90
      256
102
RTVSPost2010Prop51ColorRGB
 90
-16777216
102
RTVSPost2010PropOp51
 70
     0
102
RTVSPost2010Prop52
140
1.0
102
RTVSPost2010PropOp52
 70
     0
102
RTVSPost2010Prop53
 90
        2
102
RTVSPost2010PropOp53
 70
     1
102
RTVSPost2010Prop54
  1
strokes_ogs.tif
102
RTVSPost2010PropOp54
 70
     1
102
RTVSPost2010Prop55
280
     0
102
RTVSPost2010PropOp55
 70
     1
102
RTVSPost2010Prop56
140
1.0
102
RTVSPost2010PropOp56
 70
     1
102
RTVSPost2010Prop57
140
1.0
102
RTVSPost2010PropOp57
 70
     1
102
RTVSPropertyOp0
 70
     1
102
RTVSPropertyOp1
 70
     1
102
RTVSPropertyOp2
 70
     1
102
RTVSPropertyOp3
 70
     1
102
RTVSPropertyOp4
 70
     1
102
RTVSPropertyOp5
 70
     1
102
RTVSPropertyOp6
 70
     1
102
RTVSPropertyOp7
 70
     1
102
RTVSPropertyOp8
 70
     1
102
RTVSPropertyOp9
 70
     1
102
RTVSPropertyOp10
 70
     1
102
RTVSPropertyOp11
 70
     1
102
RTVSPropertyOp12
 70
     1
102
RTVSPropertyOp13
 70
     1
102
RTVSPropertyOp14
 70
     1
102
RTVSPropertyOp15
 70
     1
102
RTVSPropertyOp16
 70
     1
102
RTVSPropertyOp17
 70
     1
102
RTVSPropertyOp18
 70
     1
102
RTVSPropertyOp19
 70
     1
102
RTVSPropertyOp20
 70
     1
102
RTVSPropertyOp21
 70
     1
102
RTVSPropertyOp22
 70
     1
102
RTVSPropertyOp23
 70
     1
102
RTVSPropertyOp24
 70
     1
102
RTVSPropertyOp25
 70
     1
102
RTVSPropertyOp26
 70
     1
102
RTVSPropertyOp27
 70
     1
102
RTVSPropertyOp28
 70
     1
102
RTVSPropertyOp29
 70
     1
102
RTVSPropertyOp30
 70
     1
102
RTVSPropertyOp31
 70
     1
102
RTVSPropertyOp32
 70
     1
102
RTVSPropertyOp33
 70
     1
102
RTVSPropertyOp34
 70
     1
102
RTVSPropertyOp35
 70
     1
102
RTVSPropertyOp36
 70
     1
102
RTVSPropertyOp37
 70
     1
102
RTVSPropertyOp38
 70
     1
102
RTVSPropertyOp39
 70
     1
102
RTVSPropertyOp40
 70
     1
102
RTVSPropertyOp41
 70
     1
102
RTVSPropertyOp42
 70
     1
102
RTVSPropertyOp43
 70
     1
102
RTVSPropertyOp44
 70
     1
102
RTVSPropertyOp45
 70
     1
102
RTVSPropertyOp46
 70
     1
102
RTVSPropertyOp47
 70
     1
102
RTVSPropertyOp48
 70
     1
102
RTVSPropertyOp49
 70
     1
102
RTVSPropertyOp50
 70
     1
102
RTVSPropertyOp51
 70
     0
102
RTVSPropertyOp52
 70
     0
102
RTVSPropertyOp53
 70
     1
102
RTVSPropertyOp54
 70
     1
102
RTVSPropertyOp55
 70
     1
102
RTVSPropertyOp56
 70
     1
102
RTVSPropertyOp57
 70
     1
102
RTVSPropertyOp58
 70
     1
102
RTVSPropertyOp59
 70
     1
102
RTVSPropertyOp60
 70
     1
102
RTVSPropertyOp61
 70
     1
102
RTVSPropertyOp62
 70
     1
  0
XRECORD
  5
C400
102
{ACAD_REACTORS
330
C3FF
102
}
330
C3FF
100
AcDbXrecord
280
     1
102
RTVSPost2010Prop28
280
     0
102
RTVSPost2010PropOp28
 70
     1
102
RTVSPost2010Prop29
280
     1
102
RTVSPost2010PropOp29
 70
     1
102
RTVSPost2010Prop30
280
     1
102
RTVSPost2010PropOp30
 70
     1
102
RTVSPost2010Prop31
280
     0
102
RTVSPost2010PropOp31
 70
     1
102
RTVSPost2010Prop32
280
     0
102
RTVSPost2010PropOp32
 70
     1
102
RTVSPost2010Prop33
280
     0
102
RTVSPost2010PropOp33
 70
     1
102
RTVSPost2010Prop34
280
     0
102
RTVSPost2010PropOp34
 70
     1
102
RTVSPost2010Prop35
280
     0
102
RTVSPost2010PropOp35
 70
     1
102
RTVSPost2010Prop36
280
     0
102
RTVSPost2010PropOp36
 70
     1
102
RTVSPost2010Prop37
 90
       50
102
RTVSPost2010PropOp37
 70
     1
102
RTVSPost2010Prop38
140
0.0
102
RTVSPost2010PropOp38
 70
     1
102
RTVSPost2010Prop39
140
1.0
102
RTVSPost2010PropOp39
 70
     1
102
RTVSPost2010Prop40
 90
        0
102
RTVSPost2010PropOp40
 70
     1
102
RTVSPost2010Prop41ColorIndex
 90
       18
102
RTVSPost2010Prop41ColorRGB
 90
        0
102
RTVSPost2010PropOp41
 70
     1
102
RTVSPost2010Prop42
 90
       50
102
RTVSPost2010PropOp42
 70
     1
102
RTVSPost2010Prop43
 90
        3
102
RTVSPost2010PropOp43
 70
     1
102
RTVSPost2010Prop44ColorIndex
 90
        5
102
RTVSPost2010Prop44ColorRGB
 90
      255
102
RTVSPost2010PropOp44
 70
     1
102
RTVSPost2010Prop45
280
     0
102
RTVSPost2010PropOp45
 70
     1
102
RTVSPost2010Prop46
 90
       50
102
RTVSPost2010PropOp46
 70
     1
102
RTVSPost2010Prop47
 90
       50
102
RTVSPost2010PropOp47
 70
     1
102
RTVSPost2010Prop48
 90
       50
102
RTVSPost2010PropOp48
 70
     1
102
RTVSPost2010Prop49
280
     0
102
RTVSPost2010PropOp49
 70
     1
102
RTVSPost2010Prop50
 90
       50
102
RTVSPost2010PropOp50
 70
     1
102
RTVSPost2010Prop51ColorIndex
 90
      256
102
RTVSPost2010Prop51ColorRGB
 90
-16777216
102
RTVSPost2010PropOp51
 70
     0
102
RTVSPost2010Prop52
140
1.0
102
RTVSPost2010PropOp52
 70
     0
102
RTVSPost2010Prop53
 90
        2
102
RTVSPost2010PropOp53
 70
     1
102
RTVSPost2010Prop54
  1
strokes_ogs.tif
102
RTVSPost2010PropOp54
 70
     1
102
RTVSPost2010Prop55
280
     0
102
RTVSPost2010PropOp55
 70
     1
102
RTVSPost2010Prop56
140
1.0
102
RTVSPost2010PropOp56
 70
     1
102
RTVSPost2010Prop57
140
1.0
102
RTVSPost2010PropOp57
 70
     1
102
RTVSPropertyOp0
 70
     1
102
RTVSPropertyOp1
 70
     1
102
RTVSPropertyOp2
 70
     1
102
RTVSPropertyOp3
 70
     1
102
RTVSPropertyOp4
 70
     1
102
RTVSPropertyOp5
 70
     1
102
RTVSPropertyOp6
 70
     1
102
RTVSPropertyOp7
 70
     1
102
RTVSPropertyOp8
 70
     1
102
RTVSPropertyOp9
 70
     1
102
RTVSPropertyOp10
 70
     1
102
RTVSPropertyOp11
 70
     1
102
RTVSPropertyOp12
 70
     1
102
RTVSPropertyOp13
 70
     1
102
RTVSPropertyOp14
 70
     1
102
RTVSPropertyOp15
 70
     1
102
RTVSPropertyOp16
 70
     1
102
RTVSPropertyOp17
 70
     1
102
RTVSPropertyOp18
 70
     1
102
RTVSPropertyOp19
 70
     1
102
RTVSPropertyOp20
 70
     1
102
RTVSPropertyOp21
 70
     1
102
RTVSPropertyOp22
 70
     1
102
RTVSPropertyOp23
 70
     1
102
RTVSPropertyOp24
 70
     1
102
RTVSPropertyOp25
 70
     1
102
RTVSPropertyOp26
 70
     1
102
RTVSPropertyOp27
 70
     1
102
RTVSPropertyOp28
 70
     1
102
RTVSPropertyOp29
 70
     1
102
RTVSPropertyOp30
 70
     1
102
RTVSPropertyOp31
 70
     1
102
RTVSPropertyOp32
 70
     1
102
RTVSPropertyOp33
 70
     1
102
RTVSPropertyOp34
 70
     1
102
RTVSPropertyOp35
 70
     1
102
RTVSPropertyOp36
 70
     1
102
RTVSPropertyOp37
 70
     1
102
RTVSPropertyOp38
 70
     1
102
RTVSPropertyOp39
 70
     1
102
RTVSPropertyOp40
 70
     1
102
RTVSPropertyOp41
 70
     1
102
RTVSPropertyOp42
 70
     1
102
RTVSPropertyOp43
 70
     1
102
RTVSPropertyOp44
 70
     1
102
RTVSPropertyOp45
 70
     1
102
RTVSPropertyOp46
 70
     1
102
RTVSPropertyOp47
 70
     1
102
RTVSPropertyOp48
 70
     1
102
RTVSPropertyOp49
 70
     1
102
RTVSPropertyOp50
 70
     1
102
RTVSPropertyOp51
 70
     0
102
RTVSPropertyOp52
 70
     0
102
RTVSPropertyOp53
 70
     1
102
RTVSPropertyOp54
 70
     1
102
RTVSPropertyOp55
 70
     1
102
RTVSPropertyOp56
 70
     1
102
RTVSPropertyOp57
 70
     1
102
RTVSPropertyOp58
 70
     1
102
RTVSPropertyOp59
 70
     1
102
RTVSPropertyOp60
 70
     1
102
RTVSPropertyOp61
 70
     1
102
RTVSPropertyOp62
 70
     1
  0
XRECORD
  5
C40E
102
{ACAD_REACTORS
330
C40D
102
}
330
C40D
100
AcDbXrecord
280
     1
102
RTVSPost2010Prop28
280
     0
102
RTVSPost2010PropOp28
 70
     1
102
RTVSPost2010Prop29
280
     1
102
RTVSPost2010PropOp29
 70
     1
102
RTVSPost2010Prop30
280
     1
102
RTVSPost2010PropOp30
 70
     1
102
RTVSPost2010Prop31
280
     0
102
RTVSPost2010PropOp31
 70
     1
102
RTVSPost2010Prop32
280
     0
102
RTVSPost2010PropOp32
 70
     1
102
RTVSPost2010Prop33
280
     0
102
RTVSPost2010PropOp33
 70
     1
102
RTVSPost2010Prop34
280
     0
102
RTVSPost2010PropOp34
 70
     1
102
RTVSPost2010Prop35
280
     0
102
RTVSPost2010PropOp35
 70
     1
102
RTVSPost2010Prop36
280
     0
102
RTVSPost2010PropOp36
 70
     1
102
RTVSPost2010Prop37
 90
       50
102
RTVSPost2010PropOp37
 70
     1
102
RTVSPost2010Prop38
140
0.0
102
RTVSPost2010PropOp38
 70
     1
102
RTVSPost2010Prop39
140
1.0
102
RTVSPost2010PropOp39
 70
     1
102
RTVSPost2010Prop40
 90
        0
102
RTVSPost2010PropOp40
 70
     1
102
RTVSPost2010Prop41ColorIndex
 90
       18
102
RTVSPost2010Prop41ColorRGB
 90
        0
102
RTVSPost2010PropOp41
 70
     1
102
RTVSPost2010Prop42
 90
       50
102
RTVSPost2010PropOp42
 70
     1
102
RTVSPost2010Prop43
 90
        3
102
RTVSPost2010PropOp43
 70
     1
102
RTVSPost2010Prop44ColorIndex
 90
        5
102
RTVSPost2010Prop44ColorRGB
 90
      255
102
RTVSPost2010PropOp44
 70
     1
102
RTVSPost2010Prop45
280
     0
102
RTVSPost2010PropOp45
 70
     1
102
RTVSPost2010Prop46
 90
       50
102
RTVSPost2010PropOp46
 70
     1
102
RTVSPost2010Prop47
 90
       50
102
RTVSPost2010PropOp47
 70
     1
102
RTVSPost2010Prop48
 90
       50
102
RTVSPost2010PropOp48
 70
     1
102
RTVSPost2010Prop49
280
     0
102
RTVSPost2010PropOp49
 70
     1
102
RTVSPost2010Prop50
 90
       50
102
RTVSPost2010PropOp50
 70
     1
102
RTVSPost2010Prop51ColorIndex
 90
      256
102
RTVSPost2010Prop51ColorRGB
 90
-16777216
102
RTVSPost2010PropOp51
 70
     0
102
RTVSPost2010Prop52
140
1.0
102
RTVSPost2010PropOp52
 70
     0
102
RTVSPost2010Prop53
 90
        2
102
RTVSPost2010PropOp53
 70
     1
102
RTVSPost2010Prop54
  1
strokes_ogs.tif
102
RTVSPost2010PropOp54
 70
     1
102
RTVSPost2010Prop55
280
     0
102
RTVSPost2010PropOp55
 70
     1
102
RTVSPost2010Prop56
140
1.0
102
RTVSPost2010PropOp56
 70
     1
102
RTVSPost2010Prop57
140
1.0
102
RTVSPost2010PropOp57
 70
     1
102
RTVSPropertyOp0
 70
     1
102
RTVSPropertyOp1
 70
     1
102
RTVSPropertyOp2
 70
     1
102
RTVSPropertyOp3
 70
     1
102
RTVSPropertyOp4
 70
     1
102
RTVSPropertyOp5
 70
     1
102
RTVSPropertyOp6
 70
     1
102
RTVSPropertyOp7
 70
     1
102
RTVSPropertyOp8
 70
     1
102
RTVSPropertyOp9
 70
     1
102
RTVSPropertyOp10
 70
     1
102
RTVSPropertyOp11
 70
     1
102
RTVSPropertyOp12
 70
     1
102
RTVSPropertyOp13
 70
     1
102
RTVSPropertyOp14
 70
     1
102
RTVSPropertyOp15
 70
     1
102
RTVSPropertyOp16
 70
     1
102
RTVSPropertyOp17
 70
     1
102
RTVSPropertyOp18
 70
     1
102
RTVSPropertyOp19
 70
     1
102
RTVSPropertyOp20
 70
     1
102
RTVSPropertyOp21
 70
     1
102
RTVSPropertyOp22
 70
     1
102
RTVSPropertyOp23
 70
     1
102
RTVSPropertyOp24
 70
     1
102
RTVSPropertyOp25
 70
     1
102
RTVSPropertyOp26
 70
     1
102
RTVSPropertyOp27
 70
     1
102
RTVSPropertyOp28
 70
     1
102
RTVSPropertyOp29
 70
     1
102
RTVSPropertyOp30
 70
     1
102
RTVSPropertyOp31
 70
     1
102
RTVSPropertyOp32
 70
     1
102
RTVSPropertyOp33
 70
     1
102
RTVSPropertyOp34
 70
     1
102
RTVSPropertyOp35
 70
     1
102
RTVSPropertyOp36
 70
     1
102
RTVSPropertyOp37
 70
     1
102
RTVSPropertyOp38
 70
     1
102
RTVSPropertyOp39
 70
     1
102
RTVSPropertyOp40
 70
     1
102
RTVSPropertyOp41
 70
     1
102
RTVSPropertyOp42
 70
     1
102
RTVSPropertyOp43
 70
     1
102
RTVSPropertyOp44
 70
     1
102
RTVSPropertyOp45
 70
     1
102
RTVSPropertyOp46
 70
     1
102
RTVSPropertyOp47
 70
     1
102
RTVSPropertyOp48
 70
     1
102
RTVSPropertyOp49
 70
     1
102
RTVSPropertyOp50
 70
     1
102
RTVSPropertyOp51
 70
     0
102
RTVSPropertyOp52
 70
     0
102
RTVSPropertyOp53
 70
     1
102
RTVSPropertyOp54
 70
     1
102
RTVSPropertyOp55
 70
     1
102
RTVSPropertyOp56
 70
     1
102
RTVSPropertyOp57
 70
     1
102
RTVSPropertyOp58
 70
     1
102
RTVSPropertyOp59
 70
     1
102
RTVSPropertyOp60
 70
     1
102
RTVSPropertyOp61
 70
     1
102
RTVSPropertyOp62
 70
     1
  0
XRECORD
  5
C416
102
{ACAD_REACTORS
330
C415
102
}
330
C415
100
AcDbXrecord
280
     1
102
RTVSPost2010Prop28
280
     0
102
RTVSPost2010PropOp28
 70
     1
102
RTVSPost2010Prop29
280
     1
102
RTVSPost2010PropOp29
 70
     1
102
RTVSPost2010Prop30
280
     1
102
RTVSPost2010PropOp30
 70
     1
102
RTVSPost2010Prop31
280
     0
102
RTVSPost2010PropOp31
 70
     1
102
RTVSPost2010Prop32
280
     0
102
RTVSPost2010PropOp32
 70
     1
102
RTVSPost2010Prop33
280
     0
102
RTVSPost2010PropOp33
 70
     1
102
RTVSPost2010Prop34
280
     0
102
RTVSPost2010PropOp34
 70
     1
102
RTVSPost2010Prop35
280
     0
102
RTVSPost2010PropOp35
 70
     1
102
RTVSPost2010Prop36
280
     0
102
RTVSPost2010PropOp36
 70
     1
102
RTVSPost2010Prop37
 90
       50
102
RTVSPost2010PropOp37
 70
     1
102
RTVSPost2010Prop38
140
0.0
102
RTVSPost2010PropOp38
 70
     1
102
RTVSPost2010Prop39
140
1.0
102
RTVSPost2010PropOp39
 70
     1
102
RTVSPost2010Prop40
 90
        0
102
RTVSPost2010PropOp40
 70
     1
102
RTVSPost2010Prop41ColorIndex
 90
       18
102
RTVSPost2010Prop41ColorRGB
 90
        0
102
RTVSPost2010PropOp41
 70
     1
102
RTVSPost2010Prop42
 90
       50
102
RTVSPost2010PropOp42
 70
     1
102
RTVSPost2010Prop43
 90
        3
102
RTVSPost2010PropOp43
 70
     1
102
RTVSPost2010Prop44ColorIndex
 90
        5
102
RTVSPost2010Prop44ColorRGB
 90
      255
102
RTVSPost2010PropOp44
 70
     1
102
RTVSPost2010Prop45
280
     0
102
RTVSPost2010PropOp45
 70
     1
102
RTVSPost2010Prop46
 90
       50
102
RTVSPost2010PropOp46
 70
     1
102
RTVSPost2010Prop47
 90
       50
102
RTVSPost2010PropOp47
 70
     1
102
RTVSPost2010Prop48
 90
       50
102
RTVSPost2010PropOp48
 70
     1
102
RTVSPost2010Prop49
280
     0
102
RTVSPost2010PropOp49
 70
     1
102
RTVSPost2010Prop50
 90
       50
102
RTVSPost2010PropOp50
 70
     1
102
RTVSPost2010Prop51ColorIndex
 90
      256
102
RTVSPost2010Prop51ColorRGB
 90
-16777216
102
RTVSPost2010PropOp51
 70
     0
102
RTVSPost2010Prop52
140
1.0
102
RTVSPost2010PropOp52
 70
     0
102
RTVSPost2010Prop53
 90
        2
102
RTVSPost2010PropOp53
 70
     1
102
RTVSPost2010Prop54
  1
strokes_ogs.tif
102
RTVSPost2010PropOp54
 70
     1
102
RTVSPost2010Prop55
280
     0
102
RTVSPost2010PropOp55
 70
     1
102
RTVSPost2010Prop56
140
1.0
102
RTVSPost2010PropOp56
 70
     1
102
RTVSPost2010Prop57
140
1.0
102
RTVSPost2010PropOp57
 70
     1
102
RTVSPropertyOp0
 70
     1
102
RTVSPropertyOp1
 70
     1
102
RTVSPropertyOp2
 70
     1
102
RTVSPropertyOp3
 70
     1
102
RTVSPropertyOp4
 70
     1
102
RTVSPropertyOp5
 70
     1
102
RTVSPropertyOp6
 70
     1
102
RTVSPropertyOp7
 70
     1
102
RTVSPropertyOp8
 70
     1
102
RTVSPropertyOp9
 70
     1
102
RTVSPropertyOp10
 70
     1
102
RTVSPropertyOp11
 70
     1
102
RTVSPropertyOp12
 70
     1
102
RTVSPropertyOp13
 70
     1
102
RTVSPropertyOp14
 70
     1
102
RTVSPropertyOp15
 70
     1
102
RTVSPropertyOp16
 70
     1
102
RTVSPropertyOp17
 70
     1
102
RTVSPropertyOp18
 70
     1
102
RTVSPropertyOp19
 70
     1
102
RTVSPropertyOp20
 70
     1
102
RTVSPropertyOp21
 70
     1
102
RTVSPropertyOp22
 70
     1
102
RTVSPropertyOp23
 70
     1
102
RTVSPropertyOp24
 70
     1
102
RTVSPropertyOp25
 70
     1
102
RTVSPropertyOp26
 70
     1
102
RTVSPropertyOp27
 70
     1
102
RTVSPropertyOp28
 70
     1
102
RTVSPropertyOp29
 70
     1
102
RTVSPropertyOp30
 70
     1
102
RTVSPropertyOp31
 70
     1
102
RTVSPropertyOp32
 70
     1
102
RTVSPropertyOp33
 70
     1
102
RTVSPropertyOp34
 70
     1
102
RTVSPropertyOp35
 70
     1
102
RTVSPropertyOp36
 70
     1
102
RTVSPropertyOp37
 70
     1
102
RTVSPropertyOp38
 70
     1
102
RTVSPropertyOp39
 70
     1
102
RTVSPropertyOp40
 70
     1
102
RTVSPropertyOp41
 70
     1
102
RTVSPropertyOp42
 70
     1
102
RTVSPropertyOp43
 70
     1
102
RTVSPropertyOp44
 70
     1
102
RTVSPropertyOp45
 70
     1
102
RTVSPropertyOp46
 70
     1
102
RTVSPropertyOp47
 70
     1
102
RTVSPropertyOp48
 70
     1
102
RTVSPropertyOp49
 70
     1
102
RTVSPropertyOp50
 70
     1
102
RTVSPropertyOp51
 70
     0
102
RTVSPropertyOp52
 70
     0
102
RTVSPropertyOp53
 70
     1
102
RTVSPropertyOp54
 70
     1
102
RTVSPropertyOp55
 70
     1
102
RTVSPropertyOp56
 70
     1
102
RTVSPropertyOp57
 70
     1
102
RTVSPropertyOp58
 70
     1
102
RTVSPropertyOp59
 70
     1
102
RTVSPropertyOp60
 70
     1
102
RTVSPropertyOp61
 70
     1
102
RTVSPropertyOp62
 70
     1
  0
XRECORD
  5
C408
102
{ACAD_REACTORS
330
C407
102
}
330
C407
100
AcDbXrecord
280
     1
102
RTVSPost2010Prop28
280
     0
102
RTVSPost2010PropOp28
 70
     1
102
RTVSPost2010Prop29
280
     1
102
RTVSPost2010PropOp29
 70
     1
102
RTVSPost2010Prop30
280
     1
102
RTVSPost2010PropOp30
 70
     1
102
RTVSPost2010Prop31
280
     0
102
RTVSPost2010PropOp31
 70
     1
102
RTVSPost2010Prop32
280
     0
102
RTVSPost2010PropOp32
 70
     1
102
RTVSPost2010Prop33
280
     0
102
RTVSPost2010PropOp33
 70
     1
102
RTVSPost2010Prop34
280
     0
102
RTVSPost2010PropOp34
 70
     1
102
RTVSPost2010Prop35
280
     0
102
RTVSPost2010PropOp35
 70
     1
102
RTVSPost2010Prop36
280
     0
102
RTVSPost2010PropOp36
 70
     1
102
RTVSPost2010Prop37
 90
       50
102
RTVSPost2010PropOp37
 70
     1
102
RTVSPost2010Prop38
140
0.0
102
RTVSPost2010PropOp38
 70
     1
102
RTVSPost2010Prop39
140
1.0
102
RTVSPost2010PropOp39
 70
     1
102
RTVSPost2010Prop40
 90
        0
102
RTVSPost2010PropOp40
 70
     1
102
RTVSPost2010Prop41ColorIndex
 90
       18
102
RTVSPost2010Prop41ColorRGB
 90
        0
102
RTVSPost2010PropOp41
 70
     1
102
RTVSPost2010Prop42
 90
       50
102
RTVSPost2010PropOp42
 70
     1
102
RTVSPost2010Prop43
 90
        3
102
RTVSPost2010PropOp43
 70
     1
102
RTVSPost2010Prop44ColorIndex
 90
        5
102
RTVSPost2010Prop44ColorRGB
 90
      255
102
RTVSPost2010PropOp44
 70
     1
102
RTVSPost2010Prop45
280
     0
102
RTVSPost2010PropOp45
 70
     1
102
RTVSPost2010Prop46
 90
       50
102
RTVSPost2010PropOp46
 70
     1
102
RTVSPost2010Prop47
 90
       50
102
RTVSPost2010PropOp47
 70
     1
102
RTVSPost2010Prop48
 90
       50
102
RTVSPost2010PropOp48
 70
     1
102
RTVSPost2010Prop49
280
     0
102
RTVSPost2010PropOp49
 70
     1
102
RTVSPost2010Prop50
 90
       50
102
RTVSPost2010PropOp50
 70
     1
102
RTVSPost2010Prop51ColorIndex
 90
      256
102
RTVSPost2010Prop51ColorRGB
 90
-16777216
102
RTVSPost2010PropOp51
 70
     0
102
RTVSPost2010Prop52
140
1.0
102
RTVSPost2010PropOp52
 70
     0
102
RTVSPost2010Prop53
 90
        2
102
RTVSPost2010PropOp53
 70
     1
102
RTVSPost2010Prop54
  1
strokes_ogs.tif
102
RTVSPost2010PropOp54
 70
     1
102
RTVSPost2010Prop55
280
     0
102
RTVSPost2010PropOp55
 70
     1
102
RTVSPost2010Prop56
140
1.0
102
RTVSPost2010PropOp56
 70
     1
102
RTVSPost2010Prop57
140
1.0
102
RTVSPost2010PropOp57
 70
     1
102
RTVSPropertyOp0
 70
     1
102
RTVSPropertyOp1
 70
     1
102
RTVSPropertyOp2
 70
     1
102
RTVSPropertyOp3
 70
     1
102
RTVSPropertyOp4
 70
     1
102
RTVSPropertyOp5
 70
     1
102
RTVSPropertyOp6
 70
     1
102
RTVSPropertyOp7
 70
     1
102
RTVSPropertyOp8
 70
     1
102
RTVSPropertyOp9
 70
     1
102
RTVSPropertyOp10
 70
     1
102
RTVSPropertyOp11
 70
     1
102
RTVSPropertyOp12
 70
     1
102
RTVSPropertyOp13
 70
     1
102
RTVSPropertyOp14
 70
     1
102
RTVSPropertyOp15
 70
     1
102
RTVSPropertyOp16
 70
     1
102
RTVSPropertyOp17
 70
     1
102
RTVSPropertyOp18
 70
     1
102
RTVSPropertyOp19
 70
     1
102
RTVSPropertyOp20
 70
     1
102
RTVSPropertyOp21
 70
     1
102
RTVSPropertyOp22
 70
     1
102
RTVSPropertyOp23
 70
     1
102
RTVSPropertyOp24
 70
     1
102
RTVSPropertyOp25
 70
     1
102
RTVSPropertyOp26
 70
     1
102
RTVSPropertyOp27
 70
     1
102
RTVSPropertyOp28
 70
     1
102
RTVSPropertyOp29
 70
     1
102
RTVSPropertyOp30
 70
     1
102
RTVSPropertyOp31
 70
     1
102
RTVSPropertyOp32
 70
     1
102
RTVSPropertyOp33
 70
     1
102
RTVSPropertyOp34
 70
     1
102
RTVSPropertyOp35
 70
     1
102
RTVSPropertyOp36
 70
     1
102
RTVSPropertyOp37
 70
     1
102
RTVSPropertyOp38
 70
     1
102
RTVSPropertyOp39
 70
     1
102
RTVSPropertyOp40
 70
     1
102
RTVSPropertyOp41
 70
     1
102
RTVSPropertyOp42
 70
     1
102
RTVSPropertyOp43
 70
     1
102
RTVSPropertyOp44
 70
     1
102
RTVSPropertyOp45
 70
     1
102
RTVSPropertyOp46
 70
     1
102
RTVSPropertyOp47
 70
     1
102
RTVSPropertyOp48
 70
     1
102
RTVSPropertyOp49
 70
     1
102
RTVSPropertyOp50
 70
     1
102
RTVSPropertyOp51
 70
     0
102
RTVSPropertyOp52
 70
     0
102
RTVSPropertyOp53
 70
     1
102
RTVSPropertyOp54
 70
     1
102
RTVSPropertyOp55
 70
     1
102
RTVSPropertyOp56
 70
     1
102
RTVSPropertyOp57
 70
     1
102
RTVSPropertyOp58
 70
     1
102
RTVSPropertyOp59
 70
     1
102
RTVSPropertyOp60
 70
     1
102
RTVSPropertyOp61
 70
     1
102
RTVSPropertyOp62
 70
     1
  0
XRECORD
  5
C40C
102
{ACAD_REACTORS
330
C40B
102
}
330
C40B
100
AcDbXrecord
280
     1
102
RTVSPost2010Prop28
280
     0
102
RTVSPost2010PropOp28
 70
     1
102
RTVSPost2010Prop29
280
     1
102
RTVSPost2010PropOp29
 70
     1
102
RTVSPost2010Prop30
280
     1
102
RTVSPost2010PropOp30
 70
     1
102
RTVSPost2010Prop31
280
     0
102
RTVSPost2010PropOp31
 70
     1
102
RTVSPost2010Prop32
280
     0
102
RTVSPost2010PropOp32
 70
     1
102
RTVSPost2010Prop33
280
     0
102
RTVSPost2010PropOp33
 70
     1
102
RTVSPost2010Prop34
280
     0
102
RTVSPost2010PropOp34
 70
     1
102
RTVSPost2010Prop35
280
     0
102
RTVSPost2010PropOp35
 70
     1
102
RTVSPost2010Prop36
280
     0
102
RTVSPost2010PropOp36
 70
     1
102
RTVSPost2010Prop37
 90
       50
102
RTVSPost2010PropOp37
 70
     1
102
RTVSPost2010Prop38
140
0.0
102
RTVSPost2010PropOp38
 70
     1
102
RTVSPost2010Prop39
140
1.0
102
RTVSPost2010PropOp39
 70
     1
102
RTVSPost2010Prop40
 90
        0
102
RTVSPost2010PropOp40
 70
     1
102
RTVSPost2010Prop41ColorIndex
 90
       18
102
RTVSPost2010Prop41ColorRGB
 90
        0
102
RTVSPost2010PropOp41
 70
     1
102
RTVSPost2010Prop42
 90
       50
102
RTVSPost2010PropOp42
 70
     1
102
RTVSPost2010Prop43
 90
        3
102
RTVSPost2010PropOp43
 70
     1
102
RTVSPost2010Prop44ColorIndex
 90
        5
102
RTVSPost2010Prop44ColorRGB
 90
      255
102
RTVSPost2010PropOp44
 70
     1
102
RTVSPost2010Prop45
280
     0
102
RTVSPost2010PropOp45
 70
     1
102
RTVSPost2010Prop46
 90
       50
102
RTVSPost2010PropOp46
 70
     1
102
RTVSPost2010Prop47
 90
       50
102
RTVSPost2010PropOp47
 70
     1
102
RTVSPost2010Prop48
 90
       50
102
RTVSPost2010PropOp48
 70
     1
102
RTVSPost2010Prop49
280
     0
102
RTVSPost2010PropOp49
 70
     1
102
RTVSPost2010Prop50
 90
       50
102
RTVSPost2010PropOp50
 70
     1
102
RTVSPost2010Prop51ColorIndex
 90
      256
102
RTVSPost2010Prop51ColorRGB
 90
-16777216
102
RTVSPost2010PropOp51
 70
     0
102
RTVSPost2010Prop52
140
1.0
102
RTVSPost2010PropOp52
 70
     0
102
RTVSPost2010Prop53
 90
        2
102
RTVSPost2010PropOp53
 70
     1
102
RTVSPost2010Prop54
  1
strokes_ogs.tif
102
RTVSPost2010PropOp54
 70
     1
102
RTVSPost2010Prop55
280
     0
102
RTVSPost2010PropOp55
 70
     1
102
RTVSPost2010Prop56
140
1.0
102
RTVSPost2010PropOp56
 70
     1
102
RTVSPost2010Prop57
140
1.0
102
RTVSPost2010PropOp57
 70
     1
102
RTVSPropertyOp0
 70
     1
102
RTVSPropertyOp1
 70
     1
102
RTVSPropertyOp2
 70
     1
102
RTVSPropertyOp3
 70
     1
102
RTVSPropertyOp4
 70
     1
102
RTVSPropertyOp5
 70
     1
102
RTVSPropertyOp6
 70
     1
102
RTVSPropertyOp7
 70
     1
102
RTVSPropertyOp8
 70
     1
102
RTVSPropertyOp9
 70
     1
102
RTVSPropertyOp10
 70
     1
102
RTVSPropertyOp11
 70
     1
102
RTVSPropertyOp12
 70
     1
102
RTVSPropertyOp13
 70
     1
102
RTVSPropertyOp14
 70
     1
102
RTVSPropertyOp15
 70
     1
102
RTVSPropertyOp16
 70
     1
102
RTVSPropertyOp17
 70
     1
102
RTVSPropertyOp18
 70
     1
102
RTVSPropertyOp19
 70
     1
102
RTVSPropertyOp20
 70
     1
102
RTVSPropertyOp21
 70
     1
102
RTVSPropertyOp22
 70
     1
102
RTVSPropertyOp23
 70
     1
102
RTVSPropertyOp24
 70
     1
102
RTVSPropertyOp25
 70
     1
102
RTVSPropertyOp26
 70
     1
102
RTVSPropertyOp27
 70
     1
102
RTVSPropertyOp28
 70
     1
102
RTVSPropertyOp29
 70
     1
102
RTVSPropertyOp30
 70
     1
102
RTVSPropertyOp31
 70
     1
102
RTVSPropertyOp32
 70
     1
102
RTVSPropertyOp33
 70
     1
102
RTVSPropertyOp34
 70
     1
102
RTVSPropertyOp35
 70
     1
102
RTVSPropertyOp36
 70
     1
102
RTVSPropertyOp37
 70
     1
102
RTVSPropertyOp38
 70
     1
102
RTVSPropertyOp39
 70
     1
102
RTVSPropertyOp40
 70
     1
102
RTVSPropertyOp41
 70
     1
102
RTVSPropertyOp42
 70
     1
102
RTVSPropertyOp43
 70
     1
102
RTVSPropertyOp44
 70
     1
102
RTVSPropertyOp45
 70
     1
102
RTVSPropertyOp46
 70
     1
102
RTVSPropertyOp47
 70
     1
102
RTVSPropertyOp48
 70
     1
102
RTVSPropertyOp49
 70
     1
102
RTVSPropertyOp50
 70
     1
102
RTVSPropertyOp51
 70
     0
102
RTVSPropertyOp52
 70
     0
102
RTVSPropertyOp53
 70
     1
102
RTVSPropertyOp54
 70
     1
102
RTVSPropertyOp55
 70
     1
102
RTVSPropertyOp56
 70
     1
102
RTVSPropertyOp57
 70
     1
102
RTVSPropertyOp58
 70
     1
102
RTVSPropertyOp59
 70
     1
102
RTVSPropertyOp60
 70
     1
102
RTVSPropertyOp61
 70
     1
102
RTVSPropertyOp62
 70
     1
  0
XRECORD
  5
C426
102
{ACAD_REACTORS
330
C425
102
}
330
C425
100
AcDbXrecord
280
     1
102
RTVSPost2010Prop28
280
     0
102
RTVSPost2010PropOp28
 70
     1
102
RTVSPost2010Prop29
280
     1
102
RTVSPost2010PropOp29
 70
     1
102
RTVSPost2010Prop30
280
     1
102
RTVSPost2010PropOp30
 70
     1
102
RTVSPost2010Prop31
280
     0
102
RTVSPost2010PropOp31
 70
     1
102
RTVSPost2010Prop32
280
     0
102
RTVSPost2010PropOp32
 70
     1
102
RTVSPost2010Prop33
280
     0
102
RTVSPost2010PropOp33
 70
     1
102
RTVSPost2010Prop34
280
     0
102
RTVSPost2010PropOp34
 70
     1
102
RTVSPost2010Prop35
280
     0
102
RTVSPost2010PropOp35
 70
     1
102
RTVSPost2010Prop36
280
     0
102
RTVSPost2010PropOp36
 70
     1
102
RTVSPost2010Prop37
 90
       50
102
RTVSPost2010PropOp37
 70
     0
102
RTVSPost2010Prop38
140
0.0
102
RTVSPost2010PropOp38
 70
     0
102
RTVSPost2010Prop39
140
1.0
102
RTVSPost2010PropOp39
 70
     0
102
RTVSPost2010Prop40
 90
        0
102
RTVSPost2010PropOp40
 70
     0
102
RTVSPost2010Prop41ColorIndex
 90
       18
102
RTVSPost2010Prop41ColorRGB
 90
        0
102
RTVSPost2010PropOp41
 70
     0
102
RTVSPost2010Prop42
 90
       50
102
RTVSPost2010PropOp42
 70
     0
102
RTVSPost2010Prop43
 90
        3
102
RTVSPost2010PropOp43
 70
     0
102
RTVSPost2010Prop44ColorIndex
 90
        5
102
RTVSPost2010Prop44ColorRGB
 90
      255
102
RTVSPost2010PropOp44
 70
     0
102
RTVSPost2010Prop45
280
     0
102
RTVSPost2010PropOp45
 70
     1
102
RTVSPost2010Prop46
 90
       50
102
RTVSPost2010PropOp46
 70
     0
102
RTVSPost2010Prop47
 90
       50
102
RTVSPost2010PropOp47
 70
     0
102
RTVSPost2010Prop48
 90
       50
102
RTVSPost2010PropOp48
 70
     0
102
RTVSPost2010Prop49
280
     0
102
RTVSPost2010PropOp49
 70
     1
102
RTVSPost2010Prop50
 90
       50
102
RTVSPost2010PropOp50
 70
     0
102
RTVSPost2010Prop51ColorIndex
 90
      256
102
RTVSPost2010Prop51ColorRGB
 90
-16777216
102
RTVSPost2010PropOp51
 70
     0
102
RTVSPost2010Prop52
140
1.0
102
RTVSPost2010PropOp52
 70
     0
102
RTVSPost2010Prop53
 90
        2
102
RTVSPost2010PropOp53
 70
     0
102
RTVSPost2010Prop54
  1
strokes_ogs.tif
102
RTVSPost2010PropOp54
 70
     0
102
RTVSPost2010Prop55
280
     0
102
RTVSPost2010PropOp55
 70
     1
102
RTVSPost2010Prop56
140
1.0
102
RTVSPost2010PropOp56
 70
     0
102
RTVSPost2010Prop57
140
1.0
102
RTVSPost2010PropOp57
 70
     0
102
RTVSPropertyOp0
 70
     0
102
RTVSPropertyOp1
 70
     0
102
RTVSPropertyOp2
 70
     0
102
RTVSPropertyOp3
 70
     0
102
RTVSPropertyOp4
 70
     0
102
RTVSPropertyOp5
 70
     0
102
RTVSPropertyOp6
 70
     0
102
RTVSPropertyOp7
 70
     0
102
RTVSPropertyOp8
 70
     0
102
RTVSPropertyOp9
 70
     0
102
RTVSPropertyOp10
 70
     0
102
RTVSPropertyOp11
 70
     0
102
RTVSPropertyOp12
 70
     0
102
RTVSPropertyOp13
 70
     0
102
RTVSPropertyOp14
 70
     2
102
RTVSPropertyOp15
 70
     0
102
RTVSPropertyOp16
 70
     0
102
RTVSPropertyOp17
 70
     0
102
RTVSPropertyOp18
 70
     0
102
RTVSPropertyOp19
 70
     0
102
RTVSPropertyOp20
 70
     0
102
RTVSPropertyOp21
 70
     0
102
RTVSPropertyOp22
 70
     0
102
RTVSPropertyOp23
 70
     0
102
RTVSPropertyOp24
 70
     0
102
RTVSPropertyOp25
 70
     0
102
RTVSPropertyOp26
 70
     0
102
RTVSPropertyOp27
 70
     0
102
RTVSPropertyOp28
 70
     1
102
RTVSPropertyOp29
 70
     1
102
RTVSPropertyOp30
 70
     1
102
RTVSPropertyOp31
 70
     1
102
RTVSPropertyOp32
 70
     1
102
RTVSPropertyOp33
 70
     1
102
RTVSPropertyOp34
 70
     1
102
RTVSPropertyOp35
 70
     1
102
RTVSPropertyOp36
 70
     1
102
RTVSPropertyOp37
 70
     0
102
RTVSPropertyOp38
 70
     0
102
RTVSPropertyOp39
 70
     0
102
RTVSPropertyOp40
 70
     0
102
RTVSPropertyOp41
 70
     0
102
RTVSPropertyOp42
 70
     0
102
RTVSPropertyOp43
 70
     0
102
RTVSPropertyOp44
 70
     0
102
RTVSPropertyOp45
 70
     1
102
RTVSPropertyOp46
 70
     0
102
RTVSPropertyOp47
 70
     0
102
RTVSPropertyOp48
 70
     0
102
RTVSPropertyOp49
 70
     1
102
RTVSPropertyOp50
 70
     0
102
RTVSPropertyOp51
 70
     0
102
RTVSPropertyOp52
 70
     0
102
RTVSPropertyOp53
 70
     0
102
RTVSPropertyOp54
 70
     0
102
RTVSPropertyOp55
 70
     1
102
RTVSPropertyOp56
 70
     0
102
RTVSPropertyOp57
 70
     0
102
RTVSPropertyOp58
 70
     0
102
RTVSPropertyOp59
 70
     0
102
RTVSPropertyOp60
 70
     0
102
RTVSPropertyOp61
 70
     0
102
RTVSPropertyOp62
 70
     0
  0
XRECORD
  5
C414
102
{ACAD_REACTORS
330
C413
102
}
330
C413
100
AcDbXrecord
280
     1
102
RTVSPost2010Prop28
280
     0
102
RTVSPost2010PropOp28
 70
     1
102
RTVSPost2010Prop29
280
     1
102
RTVSPost2010PropOp29
 70
     1
102
RTVSPost2010Prop30
280
     1
102
RTVSPost2010PropOp30
 70
     1
102
RTVSPost2010Prop31
280
     0
102
RTVSPost2010PropOp31
 70
     1
102
RTVSPost2010Prop32
280
     0
102
RTVSPost2010PropOp32
 70
     1
102
RTVSPost2010Prop33
280
     0
102
RTVSPost2010PropOp33
 70
     1
102
RTVSPost2010Prop34
280
     0
102
RTVSPost2010PropOp34
 70
     1
102
RTVSPost2010Prop35
280
     0
102
RTVSPost2010PropOp35
 70
     1
102
RTVSPost2010Prop36
280
     0
102
RTVSPost2010PropOp36
 70
     1
102
RTVSPost2010Prop37
 90
       50
102
RTVSPost2010PropOp37
 70
     1
102
RTVSPost2010Prop38
140
0.0
102
RTVSPost2010PropOp38
 70
     1
102
RTVSPost2010Prop39
140
1.0
102
RTVSPost2010PropOp39
 70
     1
102
RTVSPost2010Prop40
 90
        0
102
RTVSPost2010PropOp40
 70
     1
102
RTVSPost2010Prop41ColorIndex
 90
       18
102
RTVSPost2010Prop41ColorRGB
 90
        0
102
RTVSPost2010PropOp41
 70
     1
102
RTVSPost2010Prop42
 90
       50
102
RTVSPost2010PropOp42
 70
     1
102
RTVSPost2010Prop43
 90
        3
102
RTVSPost2010PropOp43
 70
     1
102
RTVSPost2010Prop44ColorIndex
 90
        5
102
RTVSPost2010Prop44ColorRGB
 90
      255
102
RTVSPost2010PropOp44
 70
     1
102
RTVSPost2010Prop45
280
     0
102
RTVSPost2010PropOp45
 70
     1
102
RTVSPost2010Prop46
 90
       50
102
RTVSPost2010PropOp46
 70
     1
102
RTVSPost2010Prop47
 90
       50
102
RTVSPost2010PropOp47
 70
     1
102
RTVSPost2010Prop48
 90
       50
102
RTVSPost2010PropOp48
 70
     1
102
RTVSPost2010Prop49
280
     0
102
RTVSPost2010PropOp49
 70
     1
102
RTVSPost2010Prop50
 90
       50
102
RTVSPost2010PropOp50
 70
     1
102
RTVSPost2010Prop51ColorIndex
 90
      256
102
RTVSPost2010Prop51ColorRGB
 90
-16777216
102
RTVSPost2010PropOp51
 70
     0
102
RTVSPost2010Prop52
140
1.0
102
RTVSPost2010PropOp52
 70
     0
102
RTVSPost2010Prop53
 90
        2
102
RTVSPost2010PropOp53
 70
     1
102
RTVSPost2010Prop54
  1
strokes_ogs.tif
102
RTVSPost2010PropOp54
 70
     1
102
RTVSPost2010Prop55
280
     0
102
RTVSPost2010PropOp55
 70
     1
102
RTVSPost2010Prop56
140
1.0
102
RTVSPost2010PropOp56
 70
     1
102
RTVSPost2010Prop57
140
1.0
102
RTVSPost2010PropOp57
 70
     1
102
RTVSPropertyOp0
 70
     1
102
RTVSPropertyOp1
 70
     1
102
RTVSPropertyOp2
 70
     1
102
RTVSPropertyOp3
 70
     1
102
RTVSPropertyOp4
 70
     1
102
RTVSPropertyOp5
 70
     1
102
RTVSPropertyOp6
 70
     1
102
RTVSPropertyOp7
 70
     1
102
RTVSPropertyOp8
 70
     1
102
RTVSPropertyOp9
 70
     1
102
RTVSPropertyOp10
 70
     1
102
RTVSPropertyOp11
 70
     1
102
RTVSPropertyOp12
 70
     1
102
RTVSPropertyOp13
 70
     1
102
RTVSPropertyOp14
 70
     1
102
RTVSPropertyOp15
 70
     1
102
RTVSPropertyOp16
 70
     1
102
RTVSPropertyOp17
 70
     1
102
RTVSPropertyOp18
 70
     1
102
RTVSPropertyOp19
 70
     1
102
RTVSPropertyOp20
 70
     1
102
RTVSPropertyOp21
 70
     1
102
RTVSPropertyOp22
 70
     1
102
RTVSPropertyOp23
 70
     1
102
RTVSPropertyOp24
 70
     1
102
RTVSPropertyOp25
 70
     1
102
RTVSPropertyOp26
 70
     1
102
RTVSPropertyOp27
 70
     1
102
RTVSPropertyOp28
 70
     1
102
RTVSPropertyOp29
 70
     1
102
RTVSPropertyOp30
 70
     1
102
RTVSPropertyOp31
 70
     1
102
RTVSPropertyOp32
 70
     1
102
RTVSPropertyOp33
 70
     1
102
RTVSPropertyOp34
 70
     1
102
RTVSPropertyOp35
 70
     1
102
RTVSPropertyOp36
 70
     1
102
RTVSPropertyOp37
 70
     1
102
RTVSPropertyOp38
 70
     1
102
RTVSPropertyOp39
 70
     1
102
RTVSPropertyOp40
 70
     1
102
RTVSPropertyOp41
 70
     1
102
RTVSPropertyOp42
 70
     1
102
RTVSPropertyOp43
 70
     1
102
RTVSPropertyOp44
 70
     1
102
RTVSPropertyOp45
 70
     1
102
RTVSPropertyOp46
 70
     1
102
RTVSPropertyOp47
 70
     1
102
RTVSPropertyOp48
 70
     1
102
RTVSPropertyOp49
 70
     1
102
RTVSPropertyOp50
 70
     1
102
RTVSPropertyOp51
 70
     0
102
RTVSPropertyOp52
 70
     0
102
RTVSPropertyOp53
 70
     1
102
RTVSPropertyOp54
 70
     1
102
RTVSPropertyOp55
 70
     1
102
RTVSPropertyOp56
 70
     1
102
RTVSPropertyOp57
 70
     1
102
RTVSPropertyOp58
 70
     1
102
RTVSPropertyOp59
 70
     1
102
RTVSPropertyOp60
 70
     1
102
RTVSPropertyOp61
 70
     1
102
RTVSPropertyOp62
 70
     1
  0
XRECORD
  5
C3F8
102
{ACAD_REACTORS
330
C3F7
102
}
330
C3F7
100
AcDbXrecord
280
     1
102
RTVSPost2010Prop28
280
     0
102
RTVSPost2010PropOp28
 70
     1
102
RTVSPost2010Prop29
280
     1
102
RTVSPost2010PropOp29
 70
     1
102
RTVSPost2010Prop30
280
     1
102
RTVSPost2010PropOp30
 70
     1
102
RTVSPost2010Prop31
280
     0
102
RTVSPost2010PropOp31
 70
     1
102
RTVSPost2010Prop32
280
     0
102
RTVSPost2010PropOp32
 70
     1
102
RTVSPost2010Prop33
280
     0
102
RTVSPost2010PropOp33
 70
     1
102
RTVSPost2010Prop34
280
     0
102
RTVSPost2010PropOp34
 70
     1
102
RTVSPost2010Prop35
280
     0
102
RTVSPost2010PropOp35
 70
     1
102
RTVSPost2010Prop36
280
     0
102
RTVSPost2010PropOp36
 70
     1
102
RTVSPost2010Prop37
 90
       50
102
RTVSPost2010PropOp37
 70
     1
102
RTVSPost2010Prop38
140
0.0
102
RTVSPost2010PropOp38
 70
     1
102
RTVSPost2010Prop39
140
1.0
102
RTVSPost2010PropOp39
 70
     1
102
RTVSPost2010Prop40
 90
        0
102
RTVSPost2010PropOp40
 70
     1
102
RTVSPost2010Prop41ColorIndex
 90
       18
102
RTVSPost2010Prop41ColorRGB
 90
        0
102
RTVSPost2010PropOp41
 70
     1
102
RTVSPost2010Prop42
 90
       50
102
RTVSPost2010PropOp42
 70
     1
102
RTVSPost2010Prop43
 90
        3
102
RTVSPost2010PropOp43
 70
     1
102
RTVSPost2010Prop44ColorIndex
 90
        5
102
RTVSPost2010Prop44ColorRGB
 90
      255
102
RTVSPost2010PropOp44
 70
     1
102
RTVSPost2010Prop45
280
     0
102
RTVSPost2010PropOp45
 70
     1
102
RTVSPost2010Prop46
 90
       50
102
RTVSPost2010PropOp46
 70
     1
102
RTVSPost2010Prop47
 90
       50
102
RTVSPost2010PropOp47
 70
     1
102
RTVSPost2010Prop48
 90
       50
102
RTVSPost2010PropOp48
 70
     1
102
RTVSPost2010Prop49
280
     0
102
RTVSPost2010PropOp49
 70
     1
102
RTVSPost2010Prop50
 90
       50
102
RTVSPost2010PropOp50
 70
     1
102
RTVSPost2010Prop51ColorIndex
 90
      256
102
RTVSPost2010Prop51ColorRGB
 90
-16777216
102
RTVSPost2010PropOp51
 70
     0
102
RTVSPost2010Prop52
140
1.0
102
RTVSPost2010PropOp52
 70
     0
102
RTVSPost2010Prop53
 90
        2
102
RTVSPost2010PropOp53
 70
     1
102
RTVSPost2010Prop54
  1
strokes_ogs.tif
102
RTVSPost2010PropOp54
 70
     1
102
RTVSPost2010Prop55
280
     0
102
RTVSPost2010PropOp55
 70
     1
102
RTVSPost2010Prop56
140
1.0
102
RTVSPost2010PropOp56
 70
     1
102
RTVSPost2010Prop57
140
1.0
102
RTVSPost2010PropOp57
 70
     1
102
RTVSPropertyOp0
 70
     1
102
RTVSPropertyOp1
 70
     1
102
RTVSPropertyOp2
 70
     1
102
RTVSPropertyOp3
 70
     1
102
RTVSPropertyOp4
 70
     1
102
RTVSPropertyOp5
 70
     1
102
RTVSPropertyOp6
 70
     1
102
RTVSPropertyOp7
 70
     1
102
RTVSPropertyOp8
 70
     1
102
RTVSPropertyOp9
 70
     1
102
RTVSPropertyOp10
 70
     1
102
RTVSPropertyOp11
 70
     1
102
RTVSPropertyOp12
 70
     1
102
RTVSPropertyOp13
 70
     1
102
RTVSPropertyOp14
 70
     1
102
RTVSPropertyOp15
 70
     1
102
RTVSPropertyOp16
 70
     1
102
RTVSPropertyOp17
 70
     1
102
RTVSPropertyOp18
 70
     1
102
RTVSPropertyOp19
 70
     1
102
RTVSPropertyOp20
 70
     1
102
RTVSPropertyOp21
 70
     1
102
RTVSPropertyOp22
 70
     1
102
RTVSPropertyOp23
 70
     1
102
RTVSPropertyOp24
 70
     1
102
RTVSPropertyOp25
 70
     1
102
RTVSPropertyOp26
 70
     1
102
RTVSPropertyOp27
 70
     1
102
RTVSPropertyOp28
 70
     1
102
RTVSPropertyOp29
 70
     1
102
RTVSPropertyOp30
 70
     1
102
RTVSPropertyOp31
 70
     1
102
RTVSPropertyOp32
 70
     1
102
RTVSPropertyOp33
 70
     1
102
RTVSPropertyOp34
 70
     1
102
RTVSPropertyOp35
 70
     1
102
RTVSPropertyOp36
 70
     1
102
RTVSPropertyOp37
 70
     1
102
RTVSPropertyOp38
 70
     1
102
RTVSPropertyOp39
 70
     1
102
RTVSPropertyOp40
 70
     1
102
RTVSPropertyOp41
 70
     1
102
RTVSPropertyOp42
 70
     1
102
RTVSPropertyOp43
 70
     1
102
RTVSPropertyOp44
 70
     1
102
RTVSPropertyOp45
 70
     1
102
RTVSPropertyOp46
 70
     1
102
RTVSPropertyOp47
 70
     1
102
RTVSPropertyOp48
 70
     1
102
RTVSPropertyOp49
 70
     1
102
RTVSPropertyOp50
 70
     1
102
RTVSPropertyOp51
 70
     0
102
RTVSPropertyOp52
 70
     0
102
RTVSPropertyOp53
 70
     1
102
RTVSPropertyOp54
 70
     1
102
RTVSPropertyOp55
 70
     1
102
RTVSPropertyOp56
 70
     1
102
RTVSPropertyOp57
 70
     1
102
RTVSPropertyOp58
 70
     1
102
RTVSPropertyOp59
 70
     1
102
RTVSPropertyOp60
 70
     1
102
RTVSPropertyOp61
 70
     1
102
RTVSPropertyOp62
 70
     1
  0
XRECORD
  5
C3FA
102
{ACAD_REACTORS
330
C3F9
102
}
330
C3F9
100
AcDbXrecord
280
     1
102
RTVSPost2010Prop28
280
     0
102
RTVSPost2010PropOp28
 70
     1
102
RTVSPost2010Prop29
280
     1
102
RTVSPost2010PropOp29
 70
     1
102
RTVSPost2010Prop30
280
     1
102
RTVSPost2010PropOp30
 70
     1
102
RTVSPost2010Prop31
280
     0
102
RTVSPost2010PropOp31
 70
     1
102
RTVSPost2010Prop32
280
     0
102
RTVSPost2010PropOp32
 70
     1
102
RTVSPost2010Prop33
280
     0
102
RTVSPost2010PropOp33
 70
     1
102
RTVSPost2010Prop34
280
     0
102
RTVSPost2010PropOp34
 70
     1
102
RTVSPost2010Prop35
280
     0
102
RTVSPost2010PropOp35
 70
     1
102
RTVSPost2010Prop36
280
     0
102
RTVSPost2010PropOp36
 70
     1
102
RTVSPost2010Prop37
 90
       50
102
RTVSPost2010PropOp37
 70
     1
102
RTVSPost2010Prop38
140
0.0
102
RTVSPost2010PropOp38
 70
     1
102
RTVSPost2010Prop39
140
1.0
102
RTVSPost2010PropOp39
 70
     1
102
RTVSPost2010Prop40
 90
        0
102
RTVSPost2010PropOp40
 70
     1
102
RTVSPost2010Prop41ColorIndex
 90
       18
102
RTVSPost2010Prop41ColorRGB
 90
        0
102
RTVSPost2010PropOp41
 70
     1
102
RTVSPost2010Prop42
 90
       50
102
RTVSPost2010PropOp42
 70
     1
102
RTVSPost2010Prop43
 90
        3
102
RTVSPost2010PropOp43
 70
     1
102
RTVSPost2010Prop44ColorIndex
 90
        5
102
RTVSPost2010Prop44ColorRGB
 90
      255
102
RTVSPost2010PropOp44
 70
     1
102
RTVSPost2010Prop45
280
     0
102
RTVSPost2010PropOp45
 70
     1
102
RTVSPost2010Prop46
 90
       50
102
RTVSPost2010PropOp46
 70
     1
102
RTVSPost2010Prop47
 90
       50
102
RTVSPost2010PropOp47
 70
     1
102
RTVSPost2010Prop48
 90
       50
102
RTVSPost2010PropOp48
 70
     1
102
RTVSPost2010Prop49
280
     0
102
RTVSPost2010PropOp49
 70
     1
102
RTVSPost2010Prop50
 90
       50
102
RTVSPost2010PropOp50
 70
     1
102
RTVSPost2010Prop51ColorIndex
 90
      256
102
RTVSPost2010Prop51ColorRGB
 90
-16777216
102
RTVSPost2010PropOp51
 70
     0
102
RTVSPost2010Prop52
140
1.0
102
RTVSPost2010PropOp52
 70
     0
102
RTVSPost2010Prop53
 90
        2
102
RTVSPost2010PropOp53
 70
     1
102
RTVSPost2010Prop54
  1
strokes_ogs.tif
102
RTVSPost2010PropOp54
 70
     1
102
RTVSPost2010Prop55
280
     0
102
RTVSPost2010PropOp55
 70
     1
102
RTVSPost2010Prop56
140
1.0
102
RTVSPost2010PropOp56
 70
     1
102
RTVSPost2010Prop57
140
1.0
102
RTVSPost2010PropOp57
 70
     1
102
RTVSPropertyOp0
 70
     1
102
RTVSPropertyOp1
 70
     1
102
RTVSPropertyOp2
 70
     1
102
RTVSPropertyOp3
 70
     1
102
RTVSPropertyOp4
 70
     1
102
RTVSPropertyOp5
 70
     1
102
RTVSPropertyOp6
 70
     1
102
RTVSPropertyOp7
 70
     1
102
RTVSPropertyOp8
 70
     1
102
RTVSPropertyOp9
 70
     1
102
RTVSPropertyOp10
 70
     1
102
RTVSPropertyOp11
 70
     1
102
RTVSPropertyOp12
 70
     1
102
RTVSPropertyOp13
 70
     1
102
RTVSPropertyOp14
 70
     1
102
RTVSPropertyOp15
 70
     1
102
RTVSPropertyOp16
 70
     1
102
RTVSPropertyOp17
 70
     1
102
RTVSPropertyOp18
 70
     1
102
RTVSPropertyOp19
 70
     1
102
RTVSPropertyOp20
 70
     1
102
RTVSPropertyOp21
 70
     1
102
RTVSPropertyOp22
 70
     1
102
RTVSPropertyOp23
 70
     1
102
RTVSPropertyOp24
 70
     1
102
RTVSPropertyOp25
 70
     1
102
RTVSPropertyOp26
 70
     1
102
RTVSPropertyOp27
 70
     1
102
RTVSPropertyOp28
 70
     1
102
RTVSPropertyOp29
 70
     1
102
RTVSPropertyOp30
 70
     1
102
RTVSPropertyOp31
 70
     1
102
RTVSPropertyOp32
 70
     1
102
RTVSPropertyOp33
 70
     1
102
RTVSPropertyOp34
 70
     1
102
RTVSPropertyOp35
 70
     1
102
RTVSPropertyOp36
 70
     1
102
RTVSPropertyOp37
 70
     1
102
RTVSPropertyOp38
 70
     1
102
RTVSPropertyOp39
 70
     1
102
RTVSPropertyOp40
 70
     1
102
RTVSPropertyOp41
 70
     1
102
RTVSPropertyOp42
 70
     1
102
RTVSPropertyOp43
 70
     1
102
RTVSPropertyOp44
 70
     1
102
RTVSPropertyOp45
 70
     1
102
RTVSPropertyOp46
 70
     1
102
RTVSPropertyOp47
 70
     1
102
RTVSPropertyOp48
 70
     1
102
RTVSPropertyOp49
 70
     1
102
RTVSPropertyOp50
 70
     1
102
RTVSPropertyOp51
 70
     0
102
RTVSPropertyOp52
 70
     0
102
RTVSPropertyOp53
 70
     1
102
RTVSPropertyOp54
 70
     1
102
RTVSPropertyOp55
 70
     1
102
RTVSPropertyOp56
 70
     1
102
RTVSPropertyOp57
 70
     1
102
RTVSPropertyOp58
 70
     1
102
RTVSPropertyOp59
 70
     1
102
RTVSPropertyOp60
 70
     1
102
RTVSPropertyOp61
 70
     1
102
RTVSPropertyOp62
 70
     1
  0
XRECORD
  5
C3FC
102
{ACAD_REACTORS
330
C3FB
102
}
330
C3FB
100
AcDbXrecord
280
     1
102
RTVSPost2010Prop28
280
     0
102
RTVSPost2010PropOp28
 70
     1
102
RTVSPost2010Prop29
280
     1
102
RTVSPost2010PropOp29
 70
     1
102
RTVSPost2010Prop30
280
     1
102
RTVSPost2010PropOp30
 70
     1
102
RTVSPost2010Prop31
280
     0
102
RTVSPost2010PropOp31
 70
     1
102
RTVSPost2010Prop32
280
     0
102
RTVSPost2010PropOp32
 70
     1
102
RTVSPost2010Prop33
280
     0
102
RTVSPost2010PropOp33
 70
     1
102
RTVSPost2010Prop34
280
     0
102
RTVSPost2010PropOp34
 70
     1
102
RTVSPost2010Prop35
280
     0
102
RTVSPost2010PropOp35
 70
     1
102
RTVSPost2010Prop36
280
     0
102
RTVSPost2010PropOp36
 70
     1
102
RTVSPost2010Prop37
 90
       50
102
RTVSPost2010PropOp37
 70
     1
102
RTVSPost2010Prop38
140
0.0
102
RTVSPost2010PropOp38
 70
     1
102
RTVSPost2010Prop39
140
1.0
102
RTVSPost2010PropOp39
 70
     1
102
RTVSPost2010Prop40
 90
        0
102
RTVSPost2010PropOp40
 70
     1
102
RTVSPost2010Prop41ColorIndex
 90
       18
102
RTVSPost2010Prop41ColorRGB
 90
        0
102
RTVSPost2010PropOp41
 70
     1
102
RTVSPost2010Prop42
 90
       50
102
RTVSPost2010PropOp42
 70
     1
102
RTVSPost2010Prop43
 90
        3
102
RTVSPost2010PropOp43
 70
     1
102
RTVSPost2010Prop44ColorIndex
 90
        5
102
RTVSPost2010Prop44ColorRGB
 90
      255
102
RTVSPost2010PropOp44
 70
     1
102
RTVSPost2010Prop45
280
     0
102
RTVSPost2010PropOp45
 70
     1
102
RTVSPost2010Prop46
 90
       50
102
RTVSPost2010PropOp46
 70
     1
102
RTVSPost2010Prop47
 90
       50
102
RTVSPost2010PropOp47
 70
     1
102
RTVSPost2010Prop48
 90
       50
102
RTVSPost2010PropOp48
 70
     1
102
RTVSPost2010Prop49
280
     0
102
RTVSPost2010PropOp49
 70
     1
102
RTVSPost2010Prop50
 90
       50
102
RTVSPost2010PropOp50
 70
     1
102
RTVSPost2010Prop51ColorIndex
 90
      256
102
RTVSPost2010Prop51ColorRGB
 90
-16777216
102
RTVSPost2010PropOp51
 70
     0
102
RTVSPost2010Prop52
140
1.0
102
RTVSPost2010PropOp52
 70
     0
102
RTVSPost2010Prop53
 90
        2
102
RTVSPost2010PropOp53
 70
     1
102
RTVSPost2010Prop54
  1
strokes_ogs.tif
102
RTVSPost2010PropOp54
 70
     1
102
RTVSPost2010Prop55
280
     0
102
RTVSPost2010PropOp55
 70
     1
102
RTVSPost2010Prop56
140
1.0
102
RTVSPost2010PropOp56
 70
     1
102
RTVSPost2010Prop57
140
1.0
102
RTVSPost2010PropOp57
 70
     1
102
RTVSPropertyOp0
 70
     1
102
RTVSPropertyOp1
 70
     1
102
RTVSPropertyOp2
 70
     1
102
RTVSPropertyOp3
 70
     1
102
RTVSPropertyOp4
 70
     1
102
RTVSPropertyOp5
 70
     1
102
RTVSPropertyOp6
 70
     1
102
RTVSPropertyOp7
 70
     1
102
RTVSPropertyOp8
 70
     1
102
RTVSPropertyOp9
 70
     1
102
RTVSPropertyOp10
 70
     1
102
RTVSPropertyOp11
 70
     1
102
RTVSPropertyOp12
 70
     1
102
RTVSPropertyOp13
 70
     1
102
RTVSPropertyOp14
 70
     1
102
RTVSPropertyOp15
 70
     1
102
RTVSPropertyOp16
 70
     1
102
RTVSPropertyOp17
 70
     1
102
RTVSPropertyOp18
 70
     1
102
RTVSPropertyOp19
 70
     1
102
RTVSPropertyOp20
 70
     1
102
RTVSPropertyOp21
 70
     1
102
RTVSPropertyOp22
 70
     1
102
RTVSPropertyOp23
 70
     1
102
RTVSPropertyOp24
 70
     1
102
RTVSPropertyOp25
 70
     1
102
RTVSPropertyOp26
 70
     1
102
RTVSPropertyOp27
 70
     1
102
RTVSPropertyOp28
 70
     1
102
RTVSPropertyOp29
 70
     1
102
RTVSPropertyOp30
 70
     1
102
RTVSPropertyOp31
 70
     1
102
RTVSPropertyOp32
 70
     1
102
RTVSPropertyOp33
 70
     1
102
RTVSPropertyOp34
 70
     1
102
RTVSPropertyOp35
 70
     1
102
RTVSPropertyOp36
 70
     1
102
RTVSPropertyOp37
 70
     1
102
RTVSPropertyOp38
 70
     1
102
RTVSPropertyOp39
 70
     1
102
RTVSPropertyOp40
 70
     1
102
RTVSPropertyOp41
 70
     1
102
RTVSPropertyOp42
 70
     1
102
RTVSPropertyOp43
 70
     1
102
RTVSPropertyOp44
 70
     1
102
RTVSPropertyOp45
 70
     1
102
RTVSPropertyOp46
 70
     1
102
RTVSPropertyOp47
 70
     1
102
RTVSPropertyOp48
 70
     1
102
RTVSPropertyOp49
 70
     1
102
RTVSPropertyOp50
 70
     1
102
RTVSPropertyOp51
 70
     0
102
RTVSPropertyOp52
 70
     0
102
RTVSPropertyOp53
 70
     1
102
RTVSPropertyOp54
 70
     1
102
RTVSPropertyOp55
 70
     1
102
RTVSPropertyOp56
 70
     1
102
RTVSPropertyOp57
 70
     1
102
RTVSPropertyOp58
 70
     1
102
RTVSPropertyOp59
 70
     1
102
RTVSPropertyOp60
 70
     1
102
RTVSPropertyOp61
 70
     1
102
RTVSPropertyOp62
 70
     1
  0
XRECORD
  5
C3FE
102
{ACAD_REACTORS
330
C3FD
102
}
330
C3FD
100
AcDbXrecord
280
     1
102
RTVSPost2010Prop28
280
     0
102
RTVSPost2010PropOp28
 70
     1
102
RTVSPost2010Prop29
280
     1
102
RTVSPost2010PropOp29
 70
     1
102
RTVSPost2010Prop30
280
     1
102
RTVSPost2010PropOp30
 70
     1
102
RTVSPost2010Prop31
280
     0
102
RTVSPost2010PropOp31
 70
     1
102
RTVSPost2010Prop32
280
     0
102
RTVSPost2010PropOp32
 70
     1
102
RTVSPost2010Prop33
280
     0
102
RTVSPost2010PropOp33
 70
     1
102
RTVSPost2010Prop34
280
     0
102
RTVSPost2010PropOp34
 70
     1
102
RTVSPost2010Prop35
280
     0
102
RTVSPost2010PropOp35
 70
     1
102
RTVSPost2010Prop36
280
     0
102
RTVSPost2010PropOp36
 70
     1
102
RTVSPost2010Prop37
 90
       50
102
RTVSPost2010PropOp37
 70
     1
102
RTVSPost2010Prop38
140
0.0
102
RTVSPost2010PropOp38
 70
     1
102
RTVSPost2010Prop39
140
1.0
102
RTVSPost2010PropOp39
 70
     1
102
RTVSPost2010Prop40
 90
        0
102
RTVSPost2010PropOp40
 70
     1
102
RTVSPost2010Prop41ColorIndex
 90
       18
102
RTVSPost2010Prop41ColorRGB
 90
        0
102
RTVSPost2010PropOp41
 70
     1
102
RTVSPost2010Prop42
 90
       50
102
RTVSPost2010PropOp42
 70
     1
102
RTVSPost2010Prop43
 90
        3
102
RTVSPost2010PropOp43
 70
     1
102
RTVSPost2010Prop44ColorIndex
 90
        5
102
RTVSPost2010Prop44ColorRGB
 90
      255
102
RTVSPost2010PropOp44
 70
     1
102
RTVSPost2010Prop45
280
     0
102
RTVSPost2010PropOp45
 70
     1
102
RTVSPost2010Prop46
 90
       50
102
RTVSPost2010PropOp46
 70
     1
102
RTVSPost2010Prop47
 90
       50
102
RTVSPost2010PropOp47
 70
     1
102
RTVSPost2010Prop48
 90
       50
102
RTVSPost2010PropOp48
 70
     1
102
RTVSPost2010Prop49
280
     0
102
RTVSPost2010PropOp49
 70
     1
102
RTVSPost2010Prop50
 90
       50
102
RTVSPost2010PropOp50
 70
     1
102
RTVSPost2010Prop51ColorIndex
 90
      256
102
RTVSPost2010Prop51ColorRGB
 90
-16777216
102
RTVSPost2010PropOp51
 70
     0
102
RTVSPost2010Prop52
140
1.0
102
RTVSPost2010PropOp52
 70
     0
102
RTVSPost2010Prop53
 90
        2
102
RTVSPost2010PropOp53
 70
     1
102
RTVSPost2010Prop54
  1
strokes_ogs.tif
102
RTVSPost2010PropOp54
 70
     1
102
RTVSPost2010Prop55
280
     0
102
RTVSPost2010PropOp55
 70
     1
102
RTVSPost2010Prop56
140
1.0
102
RTVSPost2010PropOp56
 70
     1
102
RTVSPost2010Prop57
140
1.0
102
RTVSPost2010PropOp57
 70
     1
102
RTVSPropertyOp0
 70
     1
102
RTVSPropertyOp1
 70
     1
102
RTVSPropertyOp2
 70
     1
102
RTVSPropertyOp3
 70
     1
102
RTVSPropertyOp4
 70
     1
102
RTVSPropertyOp5
 70
     1
102
RTVSPropertyOp6
 70
     1
102
RTVSPropertyOp7
 70
     1
102
RTVSPropertyOp8
 70
     1
102
RTVSPropertyOp9
 70
     1
102
RTVSPropertyOp10
 70
     1
102
RTVSPropertyOp11
 70
     1
102
RTVSPropertyOp12
 70
     1
102
RTVSPropertyOp13
 70
     1
102
RTVSPropertyOp14
 70
     1
102
RTVSPropertyOp15
 70
     1
102
RTVSPropertyOp16
 70
     1
102
RTVSPropertyOp17
 70
     1
102
RTVSPropertyOp18
 70
     1
102
RTVSPropertyOp19
 70
     1
102
RTVSPropertyOp20
 70
     1
102
RTVSPropertyOp21
 70
     1
102
RTVSPropertyOp22
 70
     1
102
RTVSPropertyOp23
 70
     1
102
RTVSPropertyOp24
 70
     1
102
RTVSPropertyOp25
 70
     1
102
RTVSPropertyOp26
 70
     1
102
RTVSPropertyOp27
 70
     1
102
RTVSPropertyOp28
 70
     1
102
RTVSPropertyOp29
 70
     1
102
RTVSPropertyOp30
 70
     1
102
RTVSPropertyOp31
 70
     1
102
RTVSPropertyOp32
 70
     1
102
RTVSPropertyOp33
 70
     1
102
RTVSPropertyOp34
 70
     1
102
RTVSPropertyOp35
 70
     1
102
RTVSPropertyOp36
 70
     1
102
RTVSPropertyOp37
 70
     1
102
RTVSPropertyOp38
 70
     1
102
RTVSPropertyOp39
 70
     1
102
RTVSPropertyOp40
 70
     1
102
RTVSPropertyOp41
 70
     1
102
RTVSPropertyOp42
 70
     1
102
RTVSPropertyOp43
 70
     1
102
RTVSPropertyOp44
 70
     1
102
RTVSPropertyOp45
 70
     1
102
RTVSPropertyOp46
 70
     1
102
RTVSPropertyOp47
 70
     1
102
RTVSPropertyOp48
 70
     1
102
RTVSPropertyOp49
 70
     1
102
RTVSPropertyOp50
 70
     1
102
RTVSPropertyOp51
 70
     0
102
RTVSPropertyOp52
 70
     0
102
RTVSPropertyOp53
 70
     1
102
RTVSPropertyOp54
 70
     1
102
RTVSPropertyOp55
 70
     1
102
RTVSPropertyOp56
 70
     1
102
RTVSPropertyOp57
 70
     1
102
RTVSPropertyOp58
 70
     1
102
RTVSPropertyOp59
 70
     1
102
RTVSPropertyOp60
 70
     1
102
RTVSPropertyOp61
 70
     1
102
RTVSPropertyOp62
 70
     1
  0
XRECORD
  5
C406
102
{ACAD_REACTORS
330
C405
102
}
330
C405
100
AcDbXrecord
280
     1
102
RTVSPost2010Prop28
280
     0
102
RTVSPost2010PropOp28
 70
     1
102
RTVSPost2010Prop29
280
     1
102
RTVSPost2010PropOp29
 70
     1
102
RTVSPost2010Prop30
280
     1
102
RTVSPost2010PropOp30
 70
     1
102
RTVSPost2010Prop31
280
     0
102
RTVSPost2010PropOp31
 70
     1
102
RTVSPost2010Prop32
280
     0
102
RTVSPost2010PropOp32
 70
     1
102
RTVSPost2010Prop33
280
     0
102
RTVSPost2010PropOp33
 70
     1
102
RTVSPost2010Prop34
280
     0
102
RTVSPost2010PropOp34
 70
     1
102
RTVSPost2010Prop35
280
     0
102
RTVSPost2010PropOp35
 70
     1
102
RTVSPost2010Prop36
280
     0
102
RTVSPost2010PropOp36
 70
     1
102
RTVSPost2010Prop37
 90
       50
102
RTVSPost2010PropOp37
 70
     1
102
RTVSPost2010Prop38
140
0.0
102
RTVSPost2010PropOp38
 70
     1
102
RTVSPost2010Prop39
140
1.0
102
RTVSPost2010PropOp39
 70
     1
102
RTVSPost2010Prop40
 90
        0
102
RTVSPost2010PropOp40
 70
     1
102
RTVSPost2010Prop41ColorIndex
 90
       18
102
RTVSPost2010Prop41ColorRGB
 90
        0
102
RTVSPost2010PropOp41
 70
     1
102
RTVSPost2010Prop42
 90
       50
102
RTVSPost2010PropOp42
 70
     1
102
RTVSPost2010Prop43
 90
        3
102
RTVSPost2010PropOp43
 70
     1
102
RTVSPost2010Prop44ColorIndex
 90
        5
102
RTVSPost2010Prop44ColorRGB
 90
      255
102
RTVSPost2010PropOp44
 70
     1
102
RTVSPost2010Prop45
280
     0
102
RTVSPost2010PropOp45
 70
     1
102
RTVSPost2010Prop46
 90
       50
102
RTVSPost2010PropOp46
 70
     1
102
RTVSPost2010Prop47
 90
       50
102
RTVSPost2010PropOp47
 70
     1
102
RTVSPost2010Prop48
 90
       50
102
RTVSPost2010PropOp48
 70
     1
102
RTVSPost2010Prop49
280
     0
102
RTVSPost2010PropOp49
 70
     1
102
RTVSPost2010Prop50
 90
       50
102
RTVSPost2010PropOp50
 70
     1
102
RTVSPost2010Prop51ColorIndex
 90
      256
102
RTVSPost2010Prop51ColorRGB
 90
-16777216
102
RTVSPost2010PropOp51
 70
     0
102
RTVSPost2010Prop52
140
1.0
102
RTVSPost2010PropOp52
 70
     0
102
RTVSPost2010Prop53
 90
        2
102
RTVSPost2010PropOp53
 70
     1
102
RTVSPost2010Prop54
  1
strokes_ogs.tif
102
RTVSPost2010PropOp54
 70
     1
102
RTVSPost2010Prop55
280
     0
102
RTVSPost2010PropOp55
 70
     1
102
RTVSPost2010Prop56
140
1.0
102
RTVSPost2010PropOp56
 70
     1
102
RTVSPost2010Prop57
140
1.0
102
RTVSPost2010PropOp57
 70
     1
102
RTVSPropertyOp0
 70
     1
102
RTVSPropertyOp1
 70
     1
102
RTVSPropertyOp2
 70
     1
102
RTVSPropertyOp3
 70
     1
102
RTVSPropertyOp4
 70
     1
102
RTVSPropertyOp5
 70
     1
102
RTVSPropertyOp6
 70
     1
102
RTVSPropertyOp7
 70
     1
102
RTVSPropertyOp8
 70
     1
102
RTVSPropertyOp9
 70
     1
102
RTVSPropertyOp10
 70
     1
102
RTVSPropertyOp11
 70
     1
102
RTVSPropertyOp12
 70
     1
102
RTVSPropertyOp13
 70
     1
102
RTVSPropertyOp14
 70
     1
102
RTVSPropertyOp15
 70
     1
102
RTVSPropertyOp16
 70
     1
102
RTVSPropertyOp17
 70
     1
102
RTVSPropertyOp18
 70
     1
102
RTVSPropertyOp19
 70
     1
102
RTVSPropertyOp20
 70
     1
102
RTVSPropertyOp21
 70
     1
102
RTVSPropertyOp22
 70
     1
102
RTVSPropertyOp23
 70
     1
102
RTVSPropertyOp24
 70
     1
102
RTVSPropertyOp25
 70
     1
102
RTVSPropertyOp26
 70
     1
102
RTVSPropertyOp27
 70
     1
102
RTVSPropertyOp28
 70
     1
102
RTVSPropertyOp29
 70
     1
102
RTVSPropertyOp30
 70
     1
102
RTVSPropertyOp31
 70
     1
102
RTVSPropertyOp32
 70
     1
102
RTVSPropertyOp33
 70
     1
102
RTVSPropertyOp34
 70
     1
102
RTVSPropertyOp35
 70
     1
102
RTVSPropertyOp36
 70
     1
102
RTVSPropertyOp37
 70
     1
102
RTVSPropertyOp38
 70
     1
102
RTVSPropertyOp39
 70
     1
102
RTVSPropertyOp40
 70
     1
102
RTVSPropertyOp41
 70
     1
102
RTVSPropertyOp42
 70
     1
102
RTVSPropertyOp43
 70
     1
102
RTVSPropertyOp44
 70
     1
102
RTVSPropertyOp45
 70
     1
102
RTVSPropertyOp46
 70
     1
102
RTVSPropertyOp47
 70
     1
102
RTVSPropertyOp48
 70
     1
102
RTVSPropertyOp49
 70
     1
102
RTVSPropertyOp50
 70
     1
102
RTVSPropertyOp51
 70
     0
102
RTVSPropertyOp52
 70
     0
102
RTVSPropertyOp53
 70
     1
102
RTVSPropertyOp54
 70
     1
102
RTVSPropertyOp55
 70
     1
102
RTVSPropertyOp56
 70
     1
102
RTVSPropertyOp57
 70
     1
102
RTVSPropertyOp58
 70
     1
102
RTVSPropertyOp59
 70
     1
102
RTVSPropertyOp60
 70
     1
102
RTVSPropertyOp61
 70
     1
102
RTVSPropertyOp62
 70
     1
  0
XRECORD
  5
C422
102
{ACAD_REACTORS
330
C421
102
}
330
C421
100
AcDbXrecord
280
     1
102
RTVSPost2010Prop28
280
     0
102
RTVSPost2010PropOp28
 70
     1
102
RTVSPost2010Prop29
280
     1
102
RTVSPost2010PropOp29
 70
     1
102
RTVSPost2010Prop30
280
     1
102
RTVSPost2010PropOp30
 70
     1
102
RTVSPost2010Prop31
280
     0
102
RTVSPost2010PropOp31
 70
     1
102
RTVSPost2010Prop32
280
     0
102
RTVSPost2010PropOp32
 70
     1
102
RTVSPost2010Prop33
280
     0
102
RTVSPost2010PropOp33
 70
     1
102
RTVSPost2010Prop34
280
     0
102
RTVSPost2010PropOp34
 70
     1
102
RTVSPost2010Prop35
280
     0
102
RTVSPost2010PropOp35
 70
     1
102
RTVSPost2010Prop36
280
     0
102
RTVSPost2010PropOp36
 70
     1
102
RTVSPost2010Prop37
 90
       50
102
RTVSPost2010PropOp37
 70
     0
102
RTVSPost2010Prop38
140
0.0
102
RTVSPost2010PropOp38
 70
     0
102
RTVSPost2010Prop39
140
1.0
102
RTVSPost2010PropOp39
 70
     0
102
RTVSPost2010Prop40
 90
        0
102
RTVSPost2010PropOp40
 70
     0
102
RTVSPost2010Prop41ColorIndex
 90
       18
102
RTVSPost2010Prop41ColorRGB
 90
        0
102
RTVSPost2010PropOp41
 70
     0
102
RTVSPost2010Prop42
 90
       50
102
RTVSPost2010PropOp42
 70
     0
102
RTVSPost2010Prop43
 90
        3
102
RTVSPost2010PropOp43
 70
     0
102
RTVSPost2010Prop44ColorIndex
 90
        5
102
RTVSPost2010Prop44ColorRGB
 90
      255
102
RTVSPost2010PropOp44
 70
     0
102
RTVSPost2010Prop45
280
     0
102
RTVSPost2010PropOp45
 70
     1
102
RTVSPost2010Prop46
 90
       50
102
RTVSPost2010PropOp46
 70
     0
102
RTVSPost2010Prop47
 90
       50
102
RTVSPost2010PropOp47
 70
     0
102
RTVSPost2010Prop48
 90
       50
102
RTVSPost2010PropOp48
 70
     0
102
RTVSPost2010Prop49
280
     0
102
RTVSPost2010PropOp49
 70
     1
102
RTVSPost2010Prop50
 90
       50
102
RTVSPost2010PropOp50
 70
     0
102
RTVSPost2010Prop51ColorIndex
 90
      256
102
RTVSPost2010Prop51ColorRGB
 90
-16777216
102
RTVSPost2010PropOp51
 70
     0
102
RTVSPost2010Prop52
140
1.0
102
RTVSPost2010PropOp52
 70
     0
102
RTVSPost2010Prop53
 90
        2
102
RTVSPost2010PropOp53
 70
     0
102
RTVSPost2010Prop54
  1
strokes_ogs.tif
102
RTVSPost2010PropOp54
 70
     0
102
RTVSPost2010Prop55
280
     0
102
RTVSPost2010PropOp55
 70
     1
102
RTVSPost2010Prop56
140
1.0
102
RTVSPost2010PropOp56
 70
     0
102
RTVSPost2010Prop57
140
1.0
102
RTVSPost2010PropOp57
 70
     0
102
RTVSPropertyOp0
 70
     0
102
RTVSPropertyOp1
 70
     0
102
RTVSPropertyOp2
 70
     0
102
RTVSPropertyOp3
 70
     0
102
RTVSPropertyOp4
 70
     0
102
RTVSPropertyOp5
 70
     0
102
RTVSPropertyOp6
 70
     0
102
RTVSPropertyOp7
 70
     0
102
RTVSPropertyOp8
 70
     0
102
RTVSPropertyOp9
 70
     0
102
RTVSPropertyOp10
 70
     0
102
RTVSPropertyOp11
 70
     0
102
RTVSPropertyOp12
 70
     0
102
RTVSPropertyOp13
 70
     0
102
RTVSPropertyOp14
 70
     2
102
RTVSPropertyOp15
 70
     0
102
RTVSPropertyOp16
 70
     0
102
RTVSPropertyOp17
 70
     0
102
RTVSPropertyOp18
 70
     0
102
RTVSPropertyOp19
 70
     0
102
RTVSPropertyOp20
 70
     0
102
RTVSPropertyOp21
 70
     0
102
RTVSPropertyOp22
 70
     0
102
RTVSPropertyOp23
 70
     0
102
RTVSPropertyOp24
 70
     0
102
RTVSPropertyOp25
 70
     0
102
RTVSPropertyOp26
 70
     0
102
RTVSPropertyOp27
 70
     0
102
RTVSPropertyOp28
 70
     1
102
RTVSPropertyOp29
 70
     1
102
RTVSPropertyOp30
 70
     1
102
RTVSPropertyOp31
 70
     1
102
RTVSPropertyOp32
 70
     1
102
RTVSPropertyOp33
 70
     1
102
RTVSPropertyOp34
 70
     1
102
RTVSPropertyOp35
 70
     1
102
RTVSPropertyOp36
 70
     1
102
RTVSPropertyOp37
 70
     0
102
RTVSPropertyOp38
 70
     0
102
RTVSPropertyOp39
 70
     0
102
RTVSPropertyOp40
 70
     0
102
RTVSPropertyOp41
 70
     0
102
RTVSPropertyOp42
 70
     0
102
RTVSPropertyOp43
 70
     0
102
RTVSPropertyOp44
 70
     0
102
RTVSPropertyOp45
 70
     1
102
RTVSPropertyOp46
 70
     0
102
RTVSPropertyOp47
 70
     0
102
RTVSPropertyOp48
 70
     0
102
RTVSPropertyOp49
 70
     1
102
RTVSPropertyOp50
 70
     0
102
RTVSPropertyOp51
 70
     0
102
RTVSPropertyOp52
 70
     0
102
RTVSPropertyOp53
 70
     0
102
RTVSPropertyOp54
 70
     0
102
RTVSPropertyOp55
 70
     1
102
RTVSPropertyOp56
 70
     0
102
RTVSPropertyOp57
 70
     0
102
RTVSPropertyOp58
 70
     0
102
RTVSPropertyOp59
 70
     0
102
RTVSPropertyOp60
 70
     0
102
RTVSPropertyOp61
 70
     0
102
RTVSPropertyOp62
 70
     0
  0
XRECORD
  5
C412
102
{ACAD_REACTORS
330
C411
102
}
330
C411
100
AcDbXrecord
280
     1
102
RTVSPost2010Prop28
280
     0
102
RTVSPost2010PropOp28
 70
     1
102
RTVSPost2010Prop29
280
     1
102
RTVSPost2010PropOp29
 70
     1
102
RTVSPost2010Prop30
280
     1
102
RTVSPost2010PropOp30
 70
     1
102
RTVSPost2010Prop31
280
     0
102
RTVSPost2010PropOp31
 70
     1
102
RTVSPost2010Prop32
280
     0
102
RTVSPost2010PropOp32
 70
     1
102
RTVSPost2010Prop33
280
     0
102
RTVSPost2010PropOp33
 70
     1
102
RTVSPost2010Prop34
280
     0
102
RTVSPost2010PropOp34
 70
     1
102
RTVSPost2010Prop35
280
     0
102
RTVSPost2010PropOp35
 70
     1
102
RTVSPost2010Prop36
280
     0
102
RTVSPost2010PropOp36
 70
     1
102
RTVSPost2010Prop37
 90
       50
102
RTVSPost2010PropOp37
 70
     1
102
RTVSPost2010Prop38
140
0.0
102
RTVSPost2010PropOp38
 70
     1
102
RTVSPost2010Prop39
140
1.0
102
RTVSPost2010PropOp39
 70
     1
102
RTVSPost2010Prop40
 90
        0
102
RTVSPost2010PropOp40
 70
     1
102
RTVSPost2010Prop41ColorIndex
 90
       18
102
RTVSPost2010Prop41ColorRGB
 90
        0
102
RTVSPost2010PropOp41
 70
     1
102
RTVSPost2010Prop42
 90
       50
102
RTVSPost2010PropOp42
 70
     1
102
RTVSPost2010Prop43
 90
        3
102
RTVSPost2010PropOp43
 70
     1
102
RTVSPost2010Prop44ColorIndex
 90
        5
102
RTVSPost2010Prop44ColorRGB
 90
      255
102
RTVSPost2010PropOp44
 70
     1
102
RTVSPost2010Prop45
280
     0
102
RTVSPost2010PropOp45
 70
     1
102
RTVSPost2010Prop46
 90
       50
102
RTVSPost2010PropOp46
 70
     1
102
RTVSPost2010Prop47
 90
       50
102
RTVSPost2010PropOp47
 70
     1
102
RTVSPost2010Prop48
 90
       50
102
RTVSPost2010PropOp48
 70
     1
102
RTVSPost2010Prop49
280
     0
102
RTVSPost2010PropOp49
 70
     1
102
RTVSPost2010Prop50
 90
       50
102
RTVSPost2010PropOp50
 70
     1
102
RTVSPost2010Prop51ColorIndex
 90
      256
102
RTVSPost2010Prop51ColorRGB
 90
-16777216
102
RTVSPost2010PropOp51
 70
     0
102
RTVSPost2010Prop52
140
1.0
102
RTVSPost2010PropOp52
 70
     0
102
RTVSPost2010Prop53
 90
        2
102
RTVSPost2010PropOp53
 70
     1
102
RTVSPost2010Prop54
  1
strokes_ogs.tif
102
RTVSPost2010PropOp54
 70
     1
102
RTVSPost2010Prop55
280
     0
102
RTVSPost2010PropOp55
 70
     1
102
RTVSPost2010Prop56
140
1.0
102
RTVSPost2010PropOp56
 70
     1
102
RTVSPost2010Prop57
140
1.0
102
RTVSPost2010PropOp57
 70
     1
102
RTVSPropertyOp0
 70
     1
102
RTVSPropertyOp1
 70
     1
102
RTVSPropertyOp2
 70
     1
102
RTVSPropertyOp3
 70
     1
102
RTVSPropertyOp4
 70
     1
102
RTVSPropertyOp5
 70
     1
102
RTVSPropertyOp6
 70
     1
102
RTVSPropertyOp7
 70
     1
102
RTVSPropertyOp8
 70
     1
102
RTVSPropertyOp9
 70
     1
102
RTVSPropertyOp10
 70
     1
102
RTVSPropertyOp11
 70
     1
102
RTVSPropertyOp12
 70
     1
102
RTVSPropertyOp13
 70
     1
102
RTVSPropertyOp14
 70
     1
102
RTVSPropertyOp15
 70
     1
102
RTVSPropertyOp16
 70
     1
102
RTVSPropertyOp17
 70
     1
102
RTVSPropertyOp18
 70
     1
102
RTVSPropertyOp19
 70
     1
102
RTVSPropertyOp20
 70
     1
102
RTVSPropertyOp21
 70
     1
102
RTVSPropertyOp22
 70
     1
102
RTVSPropertyOp23
 70
     1
102
RTVSPropertyOp24
 70
     1
102
RTVSPropertyOp25
 70
     1
102
RTVSPropertyOp26
 70
     1
102
RTVSPropertyOp27
 70
     1
102
RTVSPropertyOp28
 70
     1
102
RTVSPropertyOp29
 70
     1
102
RTVSPropertyOp30
 70
     1
102
RTVSPropertyOp31
 70
     1
102
RTVSPropertyOp32
 70
     1
102
RTVSPropertyOp33
 70
     1
102
RTVSPropertyOp34
 70
     1
102
RTVSPropertyOp35
 70
     1
102
RTVSPropertyOp36
 70
     1
102
RTVSPropertyOp37
 70
     1
102
RTVSPropertyOp38
 70
     1
102
RTVSPropertyOp39
 70
     1
102
RTVSPropertyOp40
 70
     1
102
RTVSPropertyOp41
 70
     1
102
RTVSPropertyOp42
 70
     1
102
RTVSPropertyOp43
 70
     1
102
RTVSPropertyOp44
 70
     1
102
RTVSPropertyOp45
 70
     1
102
RTVSPropertyOp46
 70
     1
102
RTVSPropertyOp47
 70
     1
102
RTVSPropertyOp48
 70
     1
102
RTVSPropertyOp49
 70
     1
102
RTVSPropertyOp50
 70
     1
102
RTVSPropertyOp51
 70
     0
102
RTVSPropertyOp52
 70
     0
102
RTVSPropertyOp53
 70
     1
102
RTVSPropertyOp54
 70
     1
102
RTVSPropertyOp55
 70
     1
102
RTVSPropertyOp56
 70
     1
102
RTVSPropertyOp57
 70
     1
102
RTVSPropertyOp58
 70
     1
102
RTVSPropertyOp59
 70
     1
102
RTVSPropertyOp60
 70
     1
102
RTVSPropertyOp61
 70
     1
102
RTVSPropertyOp62
 70
     1
  0
XRECORD
  5
C424
102
{ACAD_REACTORS
330
C423
102
}
330
C423
100
AcDbXrecord
280
     1
102
RTVSPost2010Prop28
280
     0
102
RTVSPost2010PropOp28
 70
     1
102
RTVSPost2010Prop29
280
     1
102
RTVSPost2010PropOp29
 70
     1
102
RTVSPost2010Prop30
280
     1
102
RTVSPost2010PropOp30
 70
     1
102
RTVSPost2010Prop31
280
     0
102
RTVSPost2010PropOp31
 70
     1
102
RTVSPost2010Prop32
280
     0
102
RTVSPost2010PropOp32
 70
     1
102
RTVSPost2010Prop33
280
     0
102
RTVSPost2010PropOp33
 70
     1
102
RTVSPost2010Prop34
280
     0
102
RTVSPost2010PropOp34
 70
     1
102
RTVSPost2010Prop35
280
     0
102
RTVSPost2010PropOp35
 70
     1
102
RTVSPost2010Prop36
280
     0
102
RTVSPost2010PropOp36
 70
     1
102
RTVSPost2010Prop37
 90
       50
102
RTVSPost2010PropOp37
 70
     0
102
RTVSPost2010Prop38
140
0.0
102
RTVSPost2010PropOp38
 70
     0
102
RTVSPost2010Prop39
140
1.0
102
RTVSPost2010PropOp39
 70
     0
102
RTVSPost2010Prop40
 90
        0
102
RTVSPost2010PropOp40
 70
     0
102
RTVSPost2010Prop41ColorIndex
 90
       18
102
RTVSPost2010Prop41ColorRGB
 90
        0
102
RTVSPost2010PropOp41
 70
     0
102
RTVSPost2010Prop42
 90
       50
102
RTVSPost2010PropOp42
 70
     0
102
RTVSPost2010Prop43
 90
        3
102
RTVSPost2010PropOp43
 70
     0
102
RTVSPost2010Prop44ColorIndex
 90
        5
102
RTVSPost2010Prop44ColorRGB
 90
      255
102
RTVSPost2010PropOp44
 70
     0
102
RTVSPost2010Prop45
280
     0
102
RTVSPost2010PropOp45
 70
     1
102
RTVSPost2010Prop46
 90
       50
102
RTVSPost2010PropOp46
 70
     0
102
RTVSPost2010Prop47
 90
       50
102
RTVSPost2010PropOp47
 70
     0
102
RTVSPost2010Prop48
 90
       50
102
RTVSPost2010PropOp48
 70
     0
102
RTVSPost2010Prop49
280
     0
102
RTVSPost2010PropOp49
 70
     1
102
RTVSPost2010Prop50
 90
       50
102
RTVSPost2010PropOp50
 70
     0
102
RTVSPost2010Prop51ColorIndex
 90
      256
102
RTVSPost2010Prop51ColorRGB
 90
-16777216
102
RTVSPost2010PropOp51
 70
     0
102
RTVSPost2010Prop52
140
1.0
102
RTVSPost2010PropOp52
 70
     0
102
RTVSPost2010Prop53
 90
        2
102
RTVSPost2010PropOp53
 70
     0
102
RTVSPost2010Prop54
  1
strokes_ogs.tif
102
RTVSPost2010PropOp54
 70
     0
102
RTVSPost2010Prop55
280
     0
102
RTVSPost2010PropOp55
 70
     1
102
RTVSPost2010Prop56
140
1.0
102
RTVSPost2010PropOp56
 70
     0
102
RTVSPost2010Prop57
140
1.0
102
RTVSPost2010PropOp57
 70
     0
102
RTVSPropertyOp0
 70
     0
102
RTVSPropertyOp1
 70
     0
102
RTVSPropertyOp2
 70
     0
102
RTVSPropertyOp3
 70
     0
102
RTVSPropertyOp4
 70
     0
102
RTVSPropertyOp5
 70
     0
102
RTVSPropertyOp6
 70
     0
102
RTVSPropertyOp7
 70
     0
102
RTVSPropertyOp8
 70
     0
102
RTVSPropertyOp9
 70
     0
102
RTVSPropertyOp10
 70
     0
102
RTVSPropertyOp11
 70
     0
102
RTVSPropertyOp12
 70
     0
102
RTVSPropertyOp13
 70
     0
102
RTVSPropertyOp14
 70
     2
102
RTVSPropertyOp15
 70
     0
102
RTVSPropertyOp16
 70
     0
102
RTVSPropertyOp17
 70
     0
102
RTVSPropertyOp18
 70
     0
102
RTVSPropertyOp19
 70
     0
102
RTVSPropertyOp20
 70
     0
102
RTVSPropertyOp21
 70
     0
102
RTVSPropertyOp22
 70
     0
102
RTVSPropertyOp23
 70
     0
102
RTVSPropertyOp24
 70
     0
102
RTVSPropertyOp25
 70
     0
102
RTVSPropertyOp26
 70
     0
102
RTVSPropertyOp27
 70
     0
102
RTVSPropertyOp28
 70
     1
102
RTVSPropertyOp29
 70
     1
102
RTVSPropertyOp30
 70
     1
102
RTVSPropertyOp31
 70
     1
102
RTVSPropertyOp32
 70
     1
102
RTVSPropertyOp33
 70
     1
102
RTVSPropertyOp34
 70
     1
102
RTVSPropertyOp35
 70
     1
102
RTVSPropertyOp36
 70
     1
102
RTVSPropertyOp37
 70
     0
102
RTVSPropertyOp38
 70
     0
102
RTVSPropertyOp39
 70
     0
102
RTVSPropertyOp40
 70
     0
102
RTVSPropertyOp41
 70
     0
102
RTVSPropertyOp42
 70
     0
102
RTVSPropertyOp43
 70
     0
102
RTVSPropertyOp44
 70
     0
102
RTVSPropertyOp45
 70
     1
102
RTVSPropertyOp46
 70
     0
102
RTVSPropertyOp47
 70
     0
102
RTVSPropertyOp48
 70
     0
102
RTVSPropertyOp49
 70
     1
102
RTVSPropertyOp50
 70
     0
102
RTVSPropertyOp51
 70
     0
102
RTVSPropertyOp52
 70
     0
102
RTVSPropertyOp53
 70
     0
102
RTVSPropertyOp54
 70
     0
102
RTVSPropertyOp55
 70
     1
102
RTVSPropertyOp56
 70
     0
102
RTVSPropertyOp57
 70
     0
102
RTVSPropertyOp58
 70
     0
102
RTVSPropertyOp59
 70
     0
102
RTVSPropertyOp60
 70
     0
102
RTVSPropertyOp61
 70
     0
102
RTVSPropertyOp62
 70
     0
  0
XRECORD
  5
C40A
102
{ACAD_REACTORS
330
C409
102
}
330
C409
100
AcDbXrecord
280
     1
102
RTVSPost2010Prop28
280
     0
102
RTVSPost2010PropOp28
 70
     1
102
RTVSPost2010Prop29
280
     1
102
RTVSPost2010PropOp29
 70
     1
102
RTVSPost2010Prop30
280
     1
102
RTVSPost2010PropOp30
 70
     1
102
RTVSPost2010Prop31
280
     0
102
RTVSPost2010PropOp31
 70
     1
102
RTVSPost2010Prop32
280
     0
102
RTVSPost2010PropOp32
 70
     1
102
RTVSPost2010Prop33
280
     0
102
RTVSPost2010PropOp33
 70
     1
102
RTVSPost2010Prop34
280
     0
102
RTVSPost2010PropOp34
 70
     1
102
RTVSPost2010Prop35
280
     0
102
RTVSPost2010PropOp35
 70
     1
102
RTVSPost2010Prop36
280
     0
102
RTVSPost2010PropOp36
 70
     1
102
RTVSPost2010Prop37
 90
       50
102
RTVSPost2010PropOp37
 70
     1
102
RTVSPost2010Prop38
140
0.0
102
RTVSPost2010PropOp38
 70
     1
102
RTVSPost2010Prop39
140
1.0
102
RTVSPost2010PropOp39
 70
     1
102
RTVSPost2010Prop40
 90
        0
102
RTVSPost2010PropOp40
 70
     1
102
RTVSPost2010Prop41ColorIndex
 90
       18
102
RTVSPost2010Prop41ColorRGB
 90
        0
102
RTVSPost2010PropOp41
 70
     1
102
RTVSPost2010Prop42
 90
       50
102
RTVSPost2010PropOp42
 70
     1
102
RTVSPost2010Prop43
 90
        3
102
RTVSPost2010PropOp43
 70
     1
102
RTVSPost2010Prop44ColorIndex
 90
        5
102
RTVSPost2010Prop44ColorRGB
 90
      255
102
RTVSPost2010PropOp44
 70
     1
102
RTVSPost2010Prop45
280
     0
102
RTVSPost2010PropOp45
 70
     1
102
RTVSPost2010Prop46
 90
       50
102
RTVSPost2010PropOp46
 70
     1
102
RTVSPost2010Prop47
 90
       50
102
RTVSPost2010PropOp47
 70
     1
102
RTVSPost2010Prop48
 90
       50
102
RTVSPost2010PropOp48
 70
     1
102
RTVSPost2010Prop49
280
     0
102
RTVSPost2010PropOp49
 70
     1
102
RTVSPost2010Prop50
 90
       50
102
RTVSPost2010PropOp50
 70
     1
102
RTVSPost2010Prop51ColorIndex
 90
      256
102
RTVSPost2010Prop51ColorRGB
 90
-16777216
102
RTVSPost2010PropOp51
 70
     0
102
RTVSPost2010Prop52
140
1.0
102
RTVSPost2010PropOp52
 70
     0
102
RTVSPost2010Prop53
 90
        2
102
RTVSPost2010PropOp53
 70
     1
102
RTVSPost2010Prop54
  1
strokes_ogs.tif
102
RTVSPost2010PropOp54
 70
     1
102
RTVSPost2010Prop55
280
     0
102
RTVSPost2010PropOp55
 70
     1
102
RTVSPost2010Prop56
140
1.0
102
RTVSPost2010PropOp56
 70
     1
102
RTVSPost2010Prop57
140
1.0
102
RTVSPost2010PropOp57
 70
     1
102
RTVSPropertyOp0
 70
     1
102
RTVSPropertyOp1
 70
     1
102
RTVSPropertyOp2
 70
     1
102
RTVSPropertyOp3
 70
     1
102
RTVSPropertyOp4
 70
     1
102
RTVSPropertyOp5
 70
     1
102
RTVSPropertyOp6
 70
     1
102
RTVSPropertyOp7
 70
     1
102
RTVSPropertyOp8
 70
     1
102
RTVSPropertyOp9
 70
     1
102
RTVSPropertyOp10
 70
     1
102
RTVSPropertyOp11
 70
     1
102
RTVSPropertyOp12
 70
     1
102
RTVSPropertyOp13
 70
     1
102
RTVSPropertyOp14
 70
     1
102
RTVSPropertyOp15
 70
     1
102
RTVSPropertyOp16
 70
     1
102
RTVSPropertyOp17
 70
     1
102
RTVSPropertyOp18
 70
     1
102
RTVSPropertyOp19
 70
     1
102
RTVSPropertyOp20
 70
     1
102
RTVSPropertyOp21
 70
     1
102
RTVSPropertyOp22
 70
     1
102
RTVSPropertyOp23
 70
     1
102
RTVSPropertyOp24
 70
     1
102
RTVSPropertyOp25
 70
     1
102
RTVSPropertyOp26
 70
     1
102
RTVSPropertyOp27
 70
     1
102
RTVSPropertyOp28
 70
     1
102
RTVSPropertyOp29
 70
     1
102
RTVSPropertyOp30
 70
     1
102
RTVSPropertyOp31
 70
     1
102
RTVSPropertyOp32
 70
     1
102
RTVSPropertyOp33
 70
     1
102
RTVSPropertyOp34
 70
     1
102
RTVSPropertyOp35
 70
     1
102
RTVSPropertyOp36
 70
     1
102
RTVSPropertyOp37
 70
     1
102
RTVSPropertyOp38
 70
     1
102
RTVSPropertyOp39
 70
     1
102
RTVSPropertyOp40
 70
     1
102
RTVSPropertyOp41
 70
     1
102
RTVSPropertyOp42
 70
     1
102
RTVSPropertyOp43
 70
     1
102
RTVSPropertyOp44
 70
     1
102
RTVSPropertyOp45
 70
     1
102
RTVSPropertyOp46
 70
     1
102
RTVSPropertyOp47
 70
     1
102
RTVSPropertyOp48
 70
     1
102
RTVSPropertyOp49
 70
     1
102
RTVSPropertyOp50
 70
     1
102
RTVSPropertyOp51
 70
     0
102
RTVSPropertyOp52
 70
     0
102
RTVSPropertyOp53
 70
     1
102
RTVSPropertyOp54
 70
     1
102
RTVSPropertyOp55
 70
     1
102
RTVSPropertyOp56
 70
     1
102
RTVSPropertyOp57
 70
     1
102
RTVSPropertyOp58
 70
     1
102
RTVSPropertyOp59
 70
     1
102
RTVSPropertyOp60
 70
     1
102
RTVSPropertyOp61
 70
     1
102
RTVSPropertyOp62
 70
     1
  0
XRECORD
  5
C420
102
{ACAD_REACTORS
330
C41F
102
}
330
C41F
100
AcDbXrecord
280
     1
102
RTVSPost2010Prop28
280
     0
102
RTVSPost2010PropOp28
 70
     1
102
RTVSPost2010Prop29
280
     1
102
RTVSPost2010PropOp29
 70
     1
102
RTVSPost2010Prop30
280
     1
102
RTVSPost2010PropOp30
 70
     1
102
RTVSPost2010Prop31
280
     0
102
RTVSPost2010PropOp31
 70
     1
102
RTVSPost2010Prop32
280
     0
102
RTVSPost2010PropOp32
 70
     1
102
RTVSPost2010Prop33
280
     0
102
RTVSPost2010PropOp33
 70
     1
102
RTVSPost2010Prop34
280
     0
102
RTVSPost2010PropOp34
 70
     1
102
RTVSPost2010Prop35
280
     0
102
RTVSPost2010PropOp35
 70
     1
102
RTVSPost2010Prop36
280
     0
102
RTVSPost2010PropOp36
 70
     1
102
RTVSPost2010Prop37
 90
       50
102
RTVSPost2010PropOp37
 70
     1
102
RTVSPost2010Prop38
140
0.0
102
RTVSPost2010PropOp38
 70
     1
102
RTVSPost2010Prop39
140
1.0
102
RTVSPost2010PropOp39
 70
     1
102
RTVSPost2010Prop40
 90
        0
102
RTVSPost2010PropOp40
 70
     1
102
RTVSPost2010Prop41ColorIndex
 90
       18
102
RTVSPost2010Prop41ColorRGB
 90
        0
102
RTVSPost2010PropOp41
 70
     1
102
RTVSPost2010Prop42
 90
       50
102
RTVSPost2010PropOp42
 70
     1
102
RTVSPost2010Prop43
 90
        3
102
RTVSPost2010PropOp43
 70
     1
102
RTVSPost2010Prop44ColorIndex
 90
        5
102
RTVSPost2010Prop44ColorRGB
 90
      255
102
RTVSPost2010PropOp44
 70
     1
102
RTVSPost2010Prop45
280
     0
102
RTVSPost2010PropOp45
 70
     1
102
RTVSPost2010Prop46
 90
       50
102
RTVSPost2010PropOp46
 70
     1
102
RTVSPost2010Prop47
 90
       50
102
RTVSPost2010PropOp47
 70
     1
102
RTVSPost2010Prop48
 90
       50
102
RTVSPost2010PropOp48
 70
     1
102
RTVSPost2010Prop49
280
     0
102
RTVSPost2010PropOp49
 70
     1
102
RTVSPost2010Prop50
 90
       50
102
RTVSPost2010PropOp50
 70
     1
102
RTVSPost2010Prop51ColorIndex
 90
      256
102
RTVSPost2010Prop51ColorRGB
 90
-16777216
102
RTVSPost2010PropOp51
 70
     0
102
RTVSPost2010Prop52
140
1.0
102
RTVSPost2010PropOp52
 70
     0
102
RTVSPost2010Prop53
 90
        2
102
RTVSPost2010PropOp53
 70
     1
102
RTVSPost2010Prop54
  1
strokes_ogs.tif
102
RTVSPost2010PropOp54
 70
     1
102
RTVSPost2010Prop55
280
     0
102
RTVSPost2010PropOp55
 70
     1
102
RTVSPost2010Prop56
140
1.0
102
RTVSPost2010PropOp56
 70
     1
102
RTVSPost2010Prop57
140
1.0
102
RTVSPost2010PropOp57
 70
     1
102
RTVSPropertyOp0
 70
     1
102
RTVSPropertyOp1
 70
     1
102
RTVSPropertyOp2
 70
     1
102
RTVSPropertyOp3
 70
     1
102
RTVSPropertyOp4
 70
     1
102
RTVSPropertyOp5
 70
     1
102
RTVSPropertyOp6
 70
     1
102
RTVSPropertyOp7
 70
     1
102
RTVSPropertyOp8
 70
     1
102
RTVSPropertyOp9
 70
     1
102
RTVSPropertyOp10
 70
     1
102
RTVSPropertyOp11
 70
     1
102
RTVSPropertyOp12
 70
     1
102
RTVSPropertyOp13
 70
     1
102
RTVSPropertyOp14
 70
     1
102
RTVSPropertyOp15
 70
     1
102
RTVSPropertyOp16
 70
     1
102
RTVSPropertyOp17
 70
     1
102
RTVSPropertyOp18
 70
     1
102
RTVSPropertyOp19
 70
     1
102
RTVSPropertyOp20
 70
     1
102
RTVSPropertyOp21
 70
     1
102
RTVSPropertyOp22
 70
     1
102
RTVSPropertyOp23
 70
     1
102
RTVSPropertyOp24
 70
     1
102
RTVSPropertyOp25
 70
     1
102
RTVSPropertyOp26
 70
     1
102
RTVSPropertyOp27
 70
     1
102
RTVSPropertyOp28
 70
     1
102
RTVSPropertyOp29
 70
     1
102
RTVSPropertyOp30
 70
     1
102
RTVSPropertyOp31
 70
     1
102
RTVSPropertyOp32
 70
     1
102
RTVSPropertyOp33
 70
     1
102
RTVSPropertyOp34
 70
     1
102
RTVSPropertyOp35
 70
     1
102
RTVSPropertyOp36
 70
     1
102
RTVSPropertyOp37
 70
     1
102
RTVSPropertyOp38
 70
     1
102
RTVSPropertyOp39
 70
     1
102
RTVSPropertyOp40
 70
     1
102
RTVSPropertyOp41
 70
     1
102
RTVSPropertyOp42
 70
     1
102
RTVSPropertyOp43
 70
     1
102
RTVSPropertyOp44
 70
     1
102
RTVSPropertyOp45
 70
     1
102
RTVSPropertyOp46
 70
     1
102
RTVSPropertyOp47
 70
     1
102
RTVSPropertyOp48
 70
     1
102
RTVSPropertyOp49
 70
     1
102
RTVSPropertyOp50
 70
     1
102
RTVSPropertyOp51
 70
     0
102
RTVSPropertyOp52
 70
     0
102
RTVSPropertyOp53
 70
     1
102
RTVSPropertyOp54
 70
     1
102
RTVSPropertyOp55
 70
     1
102
RTVSPropertyOp56
 70
     1
102
RTVSPropertyOp57
 70
     1
102
RTVSPropertyOp58
 70
     1
102
RTVSPropertyOp59
 70
     1
102
RTVSPropertyOp60
 70
     1
102
RTVSPropertyOp61
 70
     1
102
RTVSPropertyOp62
 70
     1
  0
XRECORD
  5
C41E
102
{ACAD_REACTORS
330
C41D
102
}
330
C41D
100
AcDbXrecord
280
     1
102
RTVSPost2010Prop28
280
     0
102
RTVSPost2010PropOp28
 70
     1
102
RTVSPost2010Prop29
280
     1
102
RTVSPost2010PropOp29
 70
     1
102
RTVSPost2010Prop30
280
     1
102
RTVSPost2010PropOp30
 70
     1
102
RTVSPost2010Prop31
280
     0
102
RTVSPost2010PropOp31
 70
     1
102
RTVSPost2010Prop32
280
     0
102
RTVSPost2010PropOp32
 70
     1
102
RTVSPost2010Prop33
280
     0
102
RTVSPost2010PropOp33
 70
     1
102
RTVSPost2010Prop34
280
     0
102
RTVSPost2010PropOp34
 70
     1
102
RTVSPost2010Prop35
280
     0
102
RTVSPost2010PropOp35
 70
     1
102
RTVSPost2010Prop36
280
     0
102
RTVSPost2010PropOp36
 70
     1
102
RTVSPost2010Prop37
 90
       50
102
RTVSPost2010PropOp37
 70
     1
102
RTVSPost2010Prop38
140
0.0
102
RTVSPost2010PropOp38
 70
     1
102
RTVSPost2010Prop39
140
1.0
102
RTVSPost2010PropOp39
 70
     1
102
RTVSPost2010Prop40
 90
        0
102
RTVSPost2010PropOp40
 70
     1
102
RTVSPost2010Prop41ColorIndex
 90
       18
102
RTVSPost2010Prop41ColorRGB
 90
        0
102
RTVSPost2010PropOp41
 70
     1
102
RTVSPost2010Prop42
 90
       50
102
RTVSPost2010PropOp42
 70
     1
102
RTVSPost2010Prop43
 90
        3
102
RTVSPost2010PropOp43
 70
     1
102
RTVSPost2010Prop44ColorIndex
 90
        5
102
RTVSPost2010Prop44ColorRGB
 90
      255
102
RTVSPost2010PropOp44
 70
     1
102
RTVSPost2010Prop45
280
     0
102
RTVSPost2010PropOp45
 70
     1
102
RTVSPost2010Prop46
 90
       50
102
RTVSPost2010PropOp46
 70
     1
102
RTVSPost2010Prop47
 90
       50
102
RTVSPost2010PropOp47
 70
     1
102
RTVSPost2010Prop48
 90
       50
102
RTVSPost2010PropOp48
 70
     1
102
RTVSPost2010Prop49
280
     0
102
RTVSPost2010PropOp49
 70
     1
102
RTVSPost2010Prop50
 90
       50
102
RTVSPost2010PropOp50
 70
     1
102
RTVSPost2010Prop51ColorIndex
 90
      256
102
RTVSPost2010Prop51ColorRGB
 90
-16777216
102
RTVSPost2010PropOp51
 70
     0
102
RTVSPost2010Prop52
140
1.0
102
RTVSPost2010PropOp52
 70
     0
102
RTVSPost2010Prop53
 90
        2
102
RTVSPost2010PropOp53
 70
     1
102
RTVSPost2010Prop54
  1
strokes_ogs.tif
102
RTVSPost2010PropOp54
 70
     1
102
RTVSPost2010Prop55
280
     0
102
RTVSPost2010PropOp55
 70
     1
102
RTVSPost2010Prop56
140
1.0
102
RTVSPost2010PropOp56
 70
     1
102
RTVSPost2010Prop57
140
1.0
102
RTVSPost2010PropOp57
 70
     1
102
RTVSPropertyOp0
 70
     1
102
RTVSPropertyOp1
 70
     1
102
RTVSPropertyOp2
 70
     1
102
RTVSPropertyOp3
 70
     1
102
RTVSPropertyOp4
 70
     1
102
RTVSPropertyOp5
 70
     1
102
RTVSPropertyOp6
 70
     1
102
RTVSPropertyOp7
 70
     1
102
RTVSPropertyOp8
 70
     1
102
RTVSPropertyOp9
 70
     1
102
RTVSPropertyOp10
 70
     1
102
RTVSPropertyOp11
 70
     1
102
RTVSPropertyOp12
 70
     1
102
RTVSPropertyOp13
 70
     1
102
RTVSPropertyOp14
 70
     1
102
RTVSPropertyOp15
 70
     1
102
RTVSPropertyOp16
 70
     1
102
RTVSPropertyOp17
 70
     1
102
RTVSPropertyOp18
 70
     1
102
RTVSPropertyOp19
 70
     1
102
RTVSPropertyOp20
 70
     1
102
RTVSPropertyOp21
 70
     1
102
RTVSPropertyOp22
 70
     1
102
RTVSPropertyOp23
 70
     1
102
RTVSPropertyOp24
 70
     1
102
RTVSPropertyOp25
 70
     1
102
RTVSPropertyOp26
 70
     1
102
RTVSPropertyOp27
 70
     1
102
RTVSPropertyOp28
 70
     1
102
RTVSPropertyOp29
 70
     1
102
RTVSPropertyOp30
 70
     1
102
RTVSPropertyOp31
 70
     1
102
RTVSPropertyOp32
 70
     1
102
RTVSPropertyOp33
 70
     1
102
RTVSPropertyOp34
 70
     1
102
RTVSPropertyOp35
 70
     1
102
RTVSPropertyOp36
 70
     1
102
RTVSPropertyOp37
 70
     1
102
RTVSPropertyOp38
 70
     1
102
RTVSPropertyOp39
 70
     1
102
RTVSPropertyOp40
 70
     1
102
RTVSPropertyOp41
 70
     1
102
RTVSPropertyOp42
 70
     1
102
RTVSPropertyOp43
 70
     1
102
RTVSPropertyOp44
 70
     1
102
RTVSPropertyOp45
 70
     1
102
RTVSPropertyOp46
 70
     1
102
RTVSPropertyOp47
 70
     1
102
RTVSPropertyOp48
 70
     1
102
RTVSPropertyOp49
 70
     1
102
RTVSPropertyOp50
 70
     1
102
RTVSPropertyOp51
 70
     0
102
RTVSPropertyOp52
 70
     0
102
RTVSPropertyOp53
 70
     1
102
RTVSPropertyOp54
 70
     1
102
RTVSPropertyOp55
 70
     1
102
RTVSPropertyOp56
 70
     1
102
RTVSPropertyOp57
 70
     1
102
RTVSPropertyOp58
 70
     1
102
RTVSPropertyOp59
 70
     1
102
RTVSPropertyOp60
 70
     1
102
RTVSPropertyOp61
 70
     1
102
RTVSPropertyOp62
 70
     1
  0
XRECORD
  5
C418
102
{ACAD_REACTORS
330
C417
102
}
330
C417
100
AcDbXrecord
280
     1
102
RTVSPost2010Prop28
280
     0
102
RTVSPost2010PropOp28
 70
     1
102
RTVSPost2010Prop29
280
     1
102
RTVSPost2010PropOp29
 70
     1
102
RTVSPost2010Prop30
280
     1
102
RTVSPost2010PropOp30
 70
     1
102
RTVSPost2010Prop31
280
     0
102
RTVSPost2010PropOp31
 70
     1
102
RTVSPost2010Prop32
280
     0
102
RTVSPost2010PropOp32
 70
     1
102
RTVSPost2010Prop33
280
     0
102
RTVSPost2010PropOp33
 70
     1
102
RTVSPost2010Prop34
280
     0
102
RTVSPost2010PropOp34
 70
     1
102
RTVSPost2010Prop35
280
     0
102
RTVSPost2010PropOp35
 70
     1
102
RTVSPost2010Prop36
280
     0
102
RTVSPost2010PropOp36
 70
     1
102
RTVSPost2010Prop37
 90
       50
102
RTVSPost2010PropOp37
 70
     1
102
RTVSPost2010Prop38
140
0.0
102
RTVSPost2010PropOp38
 70
     1
102
RTVSPost2010Prop39
140
1.0
102
RTVSPost2010PropOp39
 70
     1
102
RTVSPost2010Prop40
 90
        0
102
RTVSPost2010PropOp40
 70
     1
102
RTVSPost2010Prop41ColorIndex
 90
       18
102
RTVSPost2010Prop41ColorRGB
 90
        0
102
RTVSPost2010PropOp41
 70
     1
102
RTVSPost2010Prop42
 90
       50
102
RTVSPost2010PropOp42
 70
     1
102
RTVSPost2010Prop43
 90
        3
102
RTVSPost2010PropOp43
 70
     1
102
RTVSPost2010Prop44ColorIndex
 90
        5
102
RTVSPost2010Prop44ColorRGB
 90
      255
102
RTVSPost2010PropOp44
 70
     1
102
RTVSPost2010Prop45
280
     0
102
RTVSPost2010PropOp45
 70
     1
102
RTVSPost2010Prop46
 90
       50
102
RTVSPost2010PropOp46
 70
     1
102
RTVSPost2010Prop47
 90
       50
102
RTVSPost2010PropOp47
 70
     1
102
RTVSPost2010Prop48
 90
       50
102
RTVSPost2010PropOp48
 70
     1
102
RTVSPost2010Prop49
280
     0
102
RTVSPost2010PropOp49
 70
     1
102
RTVSPost2010Prop50
 90
       50
102
RTVSPost2010PropOp50
 70
     1
102
RTVSPost2010Prop51ColorIndex
 90
      256
102
RTVSPost2010Prop51ColorRGB
 90
-16777216
102
RTVSPost2010PropOp51
 70
     0
102
RTVSPost2010Prop52
140
1.0
102
RTVSPost2010PropOp52
 70
     0
102
RTVSPost2010Prop53
 90
        2
102
RTVSPost2010PropOp53
 70
     1
102
RTVSPost2010Prop54
  1
strokes_ogs.tif
102
RTVSPost2010PropOp54
 70
     1
102
RTVSPost2010Prop55
280
     0
102
RTVSPost2010PropOp55
 70
     1
102
RTVSPost2010Prop56
140
1.0
102
RTVSPost2010PropOp56
 70
     1
102
RTVSPost2010Prop57
140
1.0
102
RTVSPost2010PropOp57
 70
     1
102
RTVSPropertyOp0
 70
     1
102
RTVSPropertyOp1
 70
     1
102
RTVSPropertyOp2
 70
     1
102
RTVSPropertyOp3
 70
     1
102
RTVSPropertyOp4
 70
     1
102
RTVSPropertyOp5
 70
     1
102
RTVSPropertyOp6
 70
     1
102
RTVSPropertyOp7
 70
     1
102
RTVSPropertyOp8
 70
     1
102
RTVSPropertyOp9
 70
     1
102
RTVSPropertyOp10
 70
     1
102
RTVSPropertyOp11
 70
     1
102
RTVSPropertyOp12
 70
     1
102
RTVSPropertyOp13
 70
     1
102
RTVSPropertyOp14
 70
     1
102
RTVSPropertyOp15
 70
     1
102
RTVSPropertyOp16
 70
     1
102
RTVSPropertyOp17
 70
     1
102
RTVSPropertyOp18
 70
     1
102
RTVSPropertyOp19
 70
     1
102
RTVSPropertyOp20
 70
     1
102
RTVSPropertyOp21
 70
     1
102
RTVSPropertyOp22
 70
     1
102
RTVSPropertyOp23
 70
     1
102
RTVSPropertyOp24
 70
     1
102
RTVSPropertyOp25
 70
     1
102
RTVSPropertyOp26
 70
     1
102
RTVSPropertyOp27
 70
     1
102
RTVSPropertyOp28
 70
     1
102
RTVSPropertyOp29
 70
     1
102
RTVSPropertyOp30
 70
     1
102
RTVSPropertyOp31
 70
     1
102
RTVSPropertyOp32
 70
     1
102
RTVSPropertyOp33
 70
     1
102
RTVSPropertyOp34
 70
     1
102
RTVSPropertyOp35
 70
     1
102
RTVSPropertyOp36
 70
     1
102
RTVSPropertyOp37
 70
     1
102
RTVSPropertyOp38
 70
     1
102
RTVSPropertyOp39
 70
     1
102
RTVSPropertyOp40
 70
     1
102
RTVSPropertyOp41
 70
     1
102
RTVSPropertyOp42
 70
     1
102
RTVSPropertyOp43
 70
     1
102
RTVSPropertyOp44
 70
     1
102
RTVSPropertyOp45
 70
     1
102
RTVSPropertyOp46
 70
     1
102
RTVSPropertyOp47
 70
     1
102
RTVSPropertyOp48
 70
     1
102
RTVSPropertyOp49
 70
     1
102
RTVSPropertyOp50
 70
     1
102
RTVSPropertyOp51
 70
     0
102
RTVSPropertyOp52
 70
     0
102
RTVSPropertyOp53
 70
     1
102
RTVSPropertyOp54
 70
     1
102
RTVSPropertyOp55
 70
     1
102
RTVSPropertyOp56
 70
     1
102
RTVSPropertyOp57
 70
     1
102
RTVSPropertyOp58
 70
     1
102
RTVSPropertyOp59
 70
     1
102
RTVSPropertyOp60
 70
     1
102
RTVSPropertyOp61
 70
     1
102
RTVSPropertyOp62
 70
     1
  0
XRECORD
  5
C41A
102
{ACAD_REACTORS
330
C419
102
}
330
C419
100
AcDbXrecord
280
     1
102
RTVSPost2010Prop28
280
     0
102
RTVSPost2010PropOp28
 70
     1
102
RTVSPost2010Prop29
280
     1
102
RTVSPost2010PropOp29
 70
     1
102
RTVSPost2010Prop30
280
     1
102
RTVSPost2010PropOp30
 70
     1
102
RTVSPost2010Prop31
280
     0
102
RTVSPost2010PropOp31
 70
     1
102
RTVSPost2010Prop32
280
     0
102
RTVSPost2010PropOp32
 70
     1
102
RTVSPost2010Prop33
280
     0
102
RTVSPost2010PropOp33
 70
     1
102
RTVSPost2010Prop34
280
     0
102
RTVSPost2010PropOp34
 70
     1
102
RTVSPost2010Prop35
280
     0
102
RTVSPost2010PropOp35
 70
     1
102
RTVSPost2010Prop36
280
     0
102
RTVSPost2010PropOp36
 70
     1
102
RTVSPost2010Prop37
 90
       50
102
RTVSPost2010PropOp37
 70
     1
102
RTVSPost2010Prop38
140
0.0
102
RTVSPost2010PropOp38
 70
     1
102
RTVSPost2010Prop39
140
1.0
102
RTVSPost2010PropOp39
 70
     1
102
RTVSPost2010Prop40
 90
        0
102
RTVSPost2010PropOp40
 70
     1
102
RTVSPost2010Prop41ColorIndex
 90
       18
102
RTVSPost2010Prop41ColorRGB
 90
        0
102
RTVSPost2010PropOp41
 70
     1
102
RTVSPost2010Prop42
 90
       50
102
RTVSPost2010PropOp42
 70
     1
102
RTVSPost2010Prop43
 90
        3
102
RTVSPost2010PropOp43
 70
     1
102
RTVSPost2010Prop44ColorIndex
 90
        5
102
RTVSPost2010Prop44ColorRGB
 90
      255
102
RTVSPost2010PropOp44
 70
     1
102
RTVSPost2010Prop45
280
     0
102
RTVSPost2010PropOp45
 70
     1
102
RTVSPost2010Prop46
 90
       50
102
RTVSPost2010PropOp46
 70
     1
102
RTVSPost2010Prop47
 90
       50
102
RTVSPost2010PropOp47
 70
     1
102
RTVSPost2010Prop48
 90
       50
102
RTVSPost2010PropOp48
 70
     1
102
RTVSPost2010Prop49
280
     0
102
RTVSPost2010PropOp49
 70
     1
102
RTVSPost2010Prop50
 90
       50
102
RTVSPost2010PropOp50
 70
     1
102
RTVSPost2010Prop51ColorIndex
 90
      256
102
RTVSPost2010Prop51ColorRGB
 90
-16777216
102
RTVSPost2010PropOp51
 70
     0
102
RTVSPost2010Prop52
140
1.0
102
RTVSPost2010PropOp52
 70
     0
102
RTVSPost2010Prop53
 90
        2
102
RTVSPost2010PropOp53
 70
     1
102
RTVSPost2010Prop54
  1
strokes_ogs.tif
102
RTVSPost2010PropOp54
 70
     1
102
RTVSPost2010Prop55
280
     0
102
RTVSPost2010PropOp55
 70
     1
102
RTVSPost2010Prop56
140
1.0
102
RTVSPost2010PropOp56
 70
     1
102
RTVSPost2010Prop57
140
1.0
102
RTVSPost2010PropOp57
 70
     1
102
RTVSPropertyOp0
 70
     1
102
RTVSPropertyOp1
 70
     1
102
RTVSPropertyOp2
 70
     1
102
RTVSPropertyOp3
 70
     1
102
RTVSPropertyOp4
 70
     1
102
RTVSPropertyOp5
 70
     1
102
RTVSPropertyOp6
 70
     1
102
RTVSPropertyOp7
 70
     1
102
RTVSPropertyOp8
 70
     1
102
RTVSPropertyOp9
 70
     1
102
RTVSPropertyOp10
 70
     1
102
RTVSPropertyOp11
 70
     1
102
RTVSPropertyOp12
 70
     1
102
RTVSPropertyOp13
 70
     1
102
RTVSPropertyOp14
 70
     1
102
RTVSPropertyOp15
 70
     1
102
RTVSPropertyOp16
 70
     1
102
RTVSPropertyOp17
 70
     1
102
RTVSPropertyOp18
 70
     1
102
RTVSPropertyOp19
 70
     1
102
RTVSPropertyOp20
 70
     1
102
RTVSPropertyOp21
 70
     1
102
RTVSPropertyOp22
 70
     1
102
RTVSPropertyOp23
 70
     1
102
RTVSPropertyOp24
 70
     1
102
RTVSPropertyOp25
 70
     1
102
RTVSPropertyOp26
 70
     1
102
RTVSPropertyOp27
 70
     1
102
RTVSPropertyOp28
 70
     1
102
RTVSPropertyOp29
 70
     1
102
RTVSPropertyOp30
 70
     1
102
RTVSPropertyOp31
 70
     1
102
RTVSPropertyOp32
 70
     1
102
RTVSPropertyOp33
 70
     1
102
RTVSPropertyOp34
 70
     1
102
RTVSPropertyOp35
 70
     1
102
RTVSPropertyOp36
 70
     1
102
RTVSPropertyOp37
 70
     1
102
RTVSPropertyOp38
 70
     1
102
RTVSPropertyOp39
 70
     1
102
RTVSPropertyOp40
 70
     1
102
RTVSPropertyOp41
 70
     1
102
RTVSPropertyOp42
 70
     1
102
RTVSPropertyOp43
 70
     1
102
RTVSPropertyOp44
 70
     1
102
RTVSPropertyOp45
 70
     1
102
RTVSPropertyOp46
 70
     1
102
RTVSPropertyOp47
 70
     1
102
RTVSPropertyOp48
 70
     1
102
RTVSPropertyOp49
 70
     1
102
RTVSPropertyOp50
 70
     1
102
RTVSPropertyOp51
 70
     0
102
RTVSPropertyOp52
 70
     0
102
RTVSPropertyOp53
 70
     1
102
RTVSPropertyOp54
 70
     1
102
RTVSPropertyOp55
 70
     1
102
RTVSPropertyOp56
 70
     1
102
RTVSPropertyOp57
 70
     1
102
RTVSPropertyOp58
 70
     1
102
RTVSPropertyOp59
 70
     1
102
RTVSPropertyOp60
 70
     1
102
RTVSPropertyOp61
 70
     1
102
RTVSPropertyOp62
 70
     1
  0
XRECORD
  5
C410
102
{ACAD_REACTORS
330
C40F
102
}
330
C40F
100
AcDbXrecord
280
     1
102
RTVSPost2010Prop28
280
     0
102
RTVSPost2010PropOp28
 70
     1
102
RTVSPost2010Prop29
280
     1
102
RTVSPost2010PropOp29
 70
     1
102
RTVSPost2010Prop30
280
     1
102
RTVSPost2010PropOp30
 70
     1
102
RTVSPost2010Prop31
280
     0
102
RTVSPost2010PropOp31
 70
     1
102
RTVSPost2010Prop32
280
     0
102
RTVSPost2010PropOp32
 70
     1
102
RTVSPost2010Prop33
280
     0
102
RTVSPost2010PropOp33
 70
     1
102
RTVSPost2010Prop34
280
     0
102
RTVSPost2010PropOp34
 70
     1
102
RTVSPost2010Prop35
280
     0
102
RTVSPost2010PropOp35
 70
     1
102
RTVSPost2010Prop36
280
     0
102
RTVSPost2010PropOp36
 70
     1
102
RTVSPost2010Prop37
 90
       50
102
RTVSPost2010PropOp37
 70
     1
102
RTVSPost2010Prop38
140
0.0
102
RTVSPost2010PropOp38
 70
     1
102
RTVSPost2010Prop39
140
1.0
102
RTVSPost2010PropOp39
 70
     1
102
RTVSPost2010Prop40
 90
        0
102
RTVSPost2010PropOp40
 70
     1
102
RTVSPost2010Prop41ColorIndex
 90
       18
102
RTVSPost2010Prop41ColorRGB
 90
        0
102
RTVSPost2010PropOp41
 70
     1
102
RTVSPost2010Prop42
 90
       50
102
RTVSPost2010PropOp42
 70
     1
102
RTVSPost2010Prop43
 90
        3
102
RTVSPost2010PropOp43
 70
     1
102
RTVSPost2010Prop44ColorIndex
 90
        5
102
RTVSPost2010Prop44ColorRGB
 90
      255
102
RTVSPost2010PropOp44
 70
     1
102
RTVSPost2010Prop45
280
     0
102
RTVSPost2010PropOp45
 70
     1
102
RTVSPost2010Prop46
 90
       50
102
RTVSPost2010PropOp46
 70
     1
102
RTVSPost2010Prop47
 90
       50
102
RTVSPost2010PropOp47
 70
     1
102
RTVSPost2010Prop48
 90
       50
102
RTVSPost2010PropOp48
 70
     1
102
RTVSPost2010Prop49
280
     0
102
RTVSPost2010PropOp49
 70
     1
102
RTVSPost2010Prop50
 90
       50
102
RTVSPost2010PropOp50
 70
     1
102
RTVSPost2010Prop51ColorIndex
 90
      256
102
RTVSPost2010Prop51ColorRGB
 90
-16777216
102
RTVSPost2010PropOp51
 70
     0
102
RTVSPost2010Prop52
140
1.0
102
RTVSPost2010PropOp52
 70
     0
102
RTVSPost2010Prop53
 90
        2
102
RTVSPost2010PropOp53
 70
     1
102
RTVSPost2010Prop54
  1
strokes_ogs.tif
102
RTVSPost2010PropOp54
 70
     1
102
RTVSPost2010Prop55
280
     0
102
RTVSPost2010PropOp55
 70
     1
102
RTVSPost2010Prop56
140
1.0
102
RTVSPost2010PropOp56
 70
     1
102
RTVSPost2010Prop57
140
1.0
102
RTVSPost2010PropOp57
 70
     1
102
RTVSPropertyOp0
 70
     1
102
RTVSPropertyOp1
 70
     1
102
RTVSPropertyOp2
 70
     1
102
RTVSPropertyOp3
 70
     1
102
RTVSPropertyOp4
 70
     1
102
RTVSPropertyOp5
 70
     1
102
RTVSPropertyOp6
 70
     1
102
RTVSPropertyOp7
 70
     1
102
RTVSPropertyOp8
 70
     1
102
RTVSPropertyOp9
 70
     1
102
RTVSPropertyOp10
 70
     1
102
RTVSPropertyOp11
 70
     1
102
RTVSPropertyOp12
 70
     1
102
RTVSPropertyOp13
 70
     1
102
RTVSPropertyOp14
 70
     1
102
RTVSPropertyOp15
 70
     1
102
RTVSPropertyOp16
 70
     1
102
RTVSPropertyOp17
 70
     1
102
RTVSPropertyOp18
 70
     1
102
RTVSPropertyOp19
 70
     1
102
RTVSPropertyOp20
 70
     1
102
RTVSPropertyOp21
 70
     1
102
RTVSPropertyOp22
 70
     1
102
RTVSPropertyOp23
 70
     1
102
RTVSPropertyOp24
 70
     1
102
RTVSPropertyOp25
 70
     1
102
RTVSPropertyOp26
 70
     1
102
RTVSPropertyOp27
 70
     1
102
RTVSPropertyOp28
 70
     1
102
RTVSPropertyOp29
 70
     1
102
RTVSPropertyOp30
 70
     1
102
RTVSPropertyOp31
 70
     1
102
RTVSPropertyOp32
 70
     1
102
RTVSPropertyOp33
 70
     1
102
RTVSPropertyOp34
 70
     1
102
RTVSPropertyOp35
 70
     1
102
RTVSPropertyOp36
 70
     1
102
RTVSPropertyOp37
 70
     1
102
RTVSPropertyOp38
 70
     1
102
RTVSPropertyOp39
 70
     1
102
RTVSPropertyOp40
 70
     1
102
RTVSPropertyOp41
 70
     1
102
RTVSPropertyOp42
 70
     1
102
RTVSPropertyOp43
 70
     1
102
RTVSPropertyOp44
 70
     1
102
RTVSPropertyOp45
 70
     1
102
RTVSPropertyOp46
 70
     1
102
RTVSPropertyOp47
 70
     1
102
RTVSPropertyOp48
 70
     1
102
RTVSPropertyOp49
 70
     1
102
RTVSPropertyOp50
 70
     1
102
RTVSPropertyOp51
 70
     0
102
RTVSPropertyOp52
 70
     0
102
RTVSPropertyOp53
 70
     1
102
RTVSPropertyOp54
 70
     1
102
RTVSPropertyOp55
 70
     1
102
RTVSPropertyOp56
 70
     1
102
RTVSPropertyOp57
 70
     1
102
RTVSPropertyOp58
 70
     1
102
RTVSPropertyOp59
 70
     1
102
RTVSPropertyOp60
 70
     1
102
RTVSPropertyOp61
 70
     1
102
RTVSPropertyOp62
 70
     1
  0
XRECORD
  5
C404
102
{ACAD_REACTORS
330
C403
102
}
330
C403
100
AcDbXrecord
280
     1
102
RTVSPost2010Prop28
280
     0
102
RTVSPost2010PropOp28
 70
     1
102
RTVSPost2010Prop29
280
     1
102
RTVSPost2010PropOp29
 70
     1
102
RTVSPost2010Prop30
280
     1
102
RTVSPost2010PropOp30
 70
     1
102
RTVSPost2010Prop31
280
     0
102
RTVSPost2010PropOp31
 70
     1
102
RTVSPost2010Prop32
280
     0
102
RTVSPost2010PropOp32
 70
     1
102
RTVSPost2010Prop33
280
     0
102
RTVSPost2010PropOp33
 70
     1
102
RTVSPost2010Prop34
280
     0
102
RTVSPost2010PropOp34
 70
     1
102
RTVSPost2010Prop35
280
     0
102
RTVSPost2010PropOp35
 70
     1
102
RTVSPost2010Prop36
280
     0
102
RTVSPost2010PropOp36
 70
     1
102
RTVSPost2010Prop37
 90
       50
102
RTVSPost2010PropOp37
 70
     1
102
RTVSPost2010Prop38
140
0.0
102
RTVSPost2010PropOp38
 70
     1
102
RTVSPost2010Prop39
140
1.0
102
RTVSPost2010PropOp39
 70
     1
102
RTVSPost2010Prop40
 90
        0
102
RTVSPost2010PropOp40
 70
     1
102
RTVSPost2010Prop41ColorIndex
 90
       18
102
RTVSPost2010Prop41ColorRGB
 90
        0
102
RTVSPost2010PropOp41
 70
     1
102
RTVSPost2010Prop42
 90
       50
102
RTVSPost2010PropOp42
 70
     1
102
RTVSPost2010Prop43
 90
        3
102
RTVSPost2010PropOp43
 70
     1
102
RTVSPost2010Prop44ColorIndex
 90
        5
102
RTVSPost2010Prop44ColorRGB
 90
      255
102
RTVSPost2010PropOp44
 70
     1
102
RTVSPost2010Prop45
280
     0
102
RTVSPost2010PropOp45
 70
     1
102
RTVSPost2010Prop46
 90
       50
102
RTVSPost2010PropOp46
 70
     1
102
RTVSPost2010Prop47
 90
       50
102
RTVSPost2010PropOp47
 70
     1
102
RTVSPost2010Prop48
 90
       50
102
RTVSPost2010PropOp48
 70
     1
102
RTVSPost2010Prop49
280
     0
102
RTVSPost2010PropOp49
 70
     1
102
RTVSPost2010Prop50
 90
       50
102
RTVSPost2010PropOp50
 70
     1
102
RTVSPost2010Prop51ColorIndex
 90
      256
102
RTVSPost2010Prop51ColorRGB
 90
-16777216
102
RTVSPost2010PropOp51
 70
     0
102
RTVSPost2010Prop52
140
1.0
102
RTVSPost2010PropOp52
 70
     0
102
RTVSPost2010Prop53
 90
        2
102
RTVSPost2010PropOp53
 70
     1
102
RTVSPost2010Prop54
  1
strokes_ogs.tif
102
RTVSPost2010PropOp54
 70
     1
102
RTVSPost2010Prop55
280
     0
102
RTVSPost2010PropOp55
 70
     1
102
RTVSPost2010Prop56
140
1.0
102
RTVSPost2010PropOp56
 70
     1
102
RTVSPost2010Prop57
140
1.0
102
RTVSPost2010PropOp57
 70
     1
102
RTVSPropertyOp0
 70
     1
102
RTVSPropertyOp1
 70
     1
102
RTVSPropertyOp2
 70
     1
102
RTVSPropertyOp3
 70
     1
102
RTVSPropertyOp4
 70
     1
102
RTVSPropertyOp5
 70
     1
102
RTVSPropertyOp6
 70
     1
102
RTVSPropertyOp7
 70
     1
102
RTVSPropertyOp8
 70
     1
102
RTVSPropertyOp9
 70
     1
102
RTVSPropertyOp10
 70
     1
102
RTVSPropertyOp11
 70
     1
102
RTVSPropertyOp12
 70
     1
102
RTVSPropertyOp13
 70
     1
102
RTVSPropertyOp14
 70
     1
102
RTVSPropertyOp15
 70
     1
102
RTVSPropertyOp16
 70
     1
102
RTVSPropertyOp17
 70
     1
102
RTVSPropertyOp18
 70
     1
102
RTVSPropertyOp19
 70
     1
102
RTVSPropertyOp20
 70
     1
102
RTVSPropertyOp21
 70
     1
102
RTVSPropertyOp22
 70
     1
102
RTVSPropertyOp23
 70
     1
102
RTVSPropertyOp24
 70
     1
102
RTVSPropertyOp25
 70
     1
102
RTVSPropertyOp26
 70
     1
102
RTVSPropertyOp27
 70
     1
102
RTVSPropertyOp28
 70
     1
102
RTVSPropertyOp29
 70
     1
102
RTVSPropertyOp30
 70
     1
102
RTVSPropertyOp31
 70
     1
102
RTVSPropertyOp32
 70
     1
102
RTVSPropertyOp33
 70
     1
102
RTVSPropertyOp34
 70
     1
102
RTVSPropertyOp35
 70
     1
102
RTVSPropertyOp36
 70
     1
102
RTVSPropertyOp37
 70
     1
102
RTVSPropertyOp38
 70
     1
102
RTVSPropertyOp39
 70
     1
102
RTVSPropertyOp40
 70
     1
102
RTVSPropertyOp41
 70
     1
102
RTVSPropertyOp42
 70
     1
102
RTVSPropertyOp43
 70
     1
102
RTVSPropertyOp44
 70
     1
102
RTVSPropertyOp45
 70
     1
102
RTVSPropertyOp46
 70
     1
102
RTVSPropertyOp47
 70
     1
102
RTVSPropertyOp48
 70
     1
102
RTVSPropertyOp49
 70
     1
102
RTVSPropertyOp50
 70
     1
102
RTVSPropertyOp51
 70
     0
102
RTVSPropertyOp52
 70
     0
102
RTVSPropertyOp53
 70
     1
102
RTVSPropertyOp54
 70
     1
102
RTVSPropertyOp55
 70
     1
102
RTVSPropertyOp56
 70
     1
102
RTVSPropertyOp57
 70
     1
102
RTVSPropertyOp58
 70
     1
102
RTVSPropertyOp59
 70
     1
102
RTVSPropertyOp60
 70
     1
102
RTVSPropertyOp61
 70
     1
102
RTVSPropertyOp62
 70
     1
  0
XRECORD
  5
C41C
102
{ACAD_REACTORS
330
C41B
102
}
330
C41B
100
AcDbXrecord
280
     1
102
RTVSPost2010Prop28
280
     0
102
RTVSPost2010PropOp28
 70
     1
102
RTVSPost2010Prop29
280
     1
102
RTVSPost2010PropOp29
 70
     1
102
RTVSPost2010Prop30
280
     1
102
RTVSPost2010PropOp30
 70
     1
102
RTVSPost2010Prop31
280
     0
102
RTVSPost2010PropOp31
 70
     1
102
RTVSPost2010Prop32
280
     0
102
RTVSPost2010PropOp32
 70
     1
102
RTVSPost2010Prop33
280
     0
102
RTVSPost2010PropOp33
 70
     1
102
RTVSPost2010Prop34
280
     0
102
RTVSPost2010PropOp34
 70
     1
102
RTVSPost2010Prop35
280
     0
102
RTVSPost2010PropOp35
 70
     1
102
RTVSPost2010Prop36
280
     0
102
RTVSPost2010PropOp36
 70
     1
102
RTVSPost2010Prop37
 90
       50
102
RTVSPost2010PropOp37
 70
     1
102
RTVSPost2010Prop38
140
0.0
102
RTVSPost2010PropOp38
 70
     1
102
RTVSPost2010Prop39
140
1.0
102
RTVSPost2010PropOp39
 70
     1
102
RTVSPost2010Prop40
 90
        0
102
RTVSPost2010PropOp40
 70
     1
102
RTVSPost2010Prop41ColorIndex
 90
       18
102
RTVSPost2010Prop41ColorRGB
 90
        0
102
RTVSPost2010PropOp41
 70
     1
102
RTVSPost2010Prop42
 90
       50
102
RTVSPost2010PropOp42
 70
     1
102
RTVSPost2010Prop43
 90
        3
102
RTVSPost2010PropOp43
 70
     1
102
RTVSPost2010Prop44ColorIndex
 90
        5
102
RTVSPost2010Prop44ColorRGB
 90
      255
102
RTVSPost2010PropOp44
 70
     1
102
RTVSPost2010Prop45
280
     0
102
RTVSPost2010PropOp45
 70
     1
102
RTVSPost2010Prop46
 90
       50
102
RTVSPost2010PropOp46
 70
     1
102
RTVSPost2010Prop47
 90
       50
102
RTVSPost2010PropOp47
 70
     1
102
RTVSPost2010Prop48
 90
       50
102
RTVSPost2010PropOp48
 70
     1
102
RTVSPost2010Prop49
280
     0
102
RTVSPost2010PropOp49
 70
     1
102
RTVSPost2010Prop50
 90
       50
102
RTVSPost2010PropOp50
 70
     1
102
RTVSPost2010Prop51ColorIndex
 90
      256
102
RTVSPost2010Prop51ColorRGB
 90
-16777216
102
RTVSPost2010PropOp51
 70
     0
102
RTVSPost2010Prop52
140
1.0
102
RTVSPost2010PropOp52
 70
     0
102
RTVSPost2010Prop53
 90
        2
102
RTVSPost2010PropOp53
 70
     1
102
RTVSPost2010Prop54
  1
strokes_ogs.tif
102
RTVSPost2010PropOp54
 70
     1
102
RTVSPost2010Prop55
280
     0
102
RTVSPost2010PropOp55
 70
     1
102
RTVSPost2010Prop56
140
1.0
102
RTVSPost2010PropOp56
 70
     1
102
RTVSPost2010Prop57
140
1.0
102
RTVSPost2010PropOp57
 70
     1
102
RTVSPropertyOp0
 70
     1
102
RTVSPropertyOp1
 70
     1
102
RTVSPropertyOp2
 70
     1
102
RTVSPropertyOp3
 70
     1
102
RTVSPropertyOp4
 70
     1
102
RTVSPropertyOp5
 70
     1
102
RTVSPropertyOp6
 70
     1
102
RTVSPropertyOp7
 70
     1
102
RTVSPropertyOp8
 70
     1
102
RTVSPropertyOp9
 70
     1
102
RTVSPropertyOp10
 70
     1
102
RTVSPropertyOp11
 70
     1
102
RTVSPropertyOp12
 70
     1
102
RTVSPropertyOp13
 70
     1
102
RTVSPropertyOp14
 70
     1
102
RTVSPropertyOp15
 70
     1
102
RTVSPropertyOp16
 70
     1
102
RTVSPropertyOp17
 70
     1
102
RTVSPropertyOp18
 70
     1
102
RTVSPropertyOp19
 70
     1
102
RTVSPropertyOp20
 70
     1
102
RTVSPropertyOp21
 70
     1
102
RTVSPropertyOp22
 70
     1
102
RTVSPropertyOp23
 70
     1
102
RTVSPropertyOp24
 70
     1
102
RTVSPropertyOp25
 70
     1
102
RTVSPropertyOp26
 70
     1
102
RTVSPropertyOp27
 70
     1
102
RTVSPropertyOp28
 70
     1
102
RTVSPropertyOp29
 70
     1
102
RTVSPropertyOp30
 70
     1
102
RTVSPropertyOp31
 70
     1
102
RTVSPropertyOp32
 70
     1
102
RTVSPropertyOp33
 70
     1
102
RTVSPropertyOp34
 70
     1
102
RTVSPropertyOp35
 70
     1
102
RTVSPropertyOp36
 70
     1
102
RTVSPropertyOp37
 70
     1
102
RTVSPropertyOp38
 70
     1
102
RTVSPropertyOp39
 70
     1
102
RTVSPropertyOp40
 70
     1
102
RTVSPropertyOp41
 70
     1
102
RTVSPropertyOp42
 70
     1
102
RTVSPropertyOp43
 70
     1
102
RTVSPropertyOp44
 70
     1
102
RTVSPropertyOp45
 70
     1
102
RTVSPropertyOp46
 70
     1
102
RTVSPropertyOp47
 70
     1
102
RTVSPropertyOp48
 70
     1
102
RTVSPropertyOp49
 70
     1
102
RTVSPropertyOp50
 70
     1
102
RTVSPropertyOp51
 70
     0
102
RTVSPropertyOp52
 70
     0
102
RTVSPropertyOp53
 70
     1
102
RTVSPropertyOp54
 70
     1
102
RTVSPropertyOp55
 70
     1
102
RTVSPropertyOp56
 70
     1
102
RTVSPropertyOp57
 70
     1
102
RTVSPropertyOp58
 70
     1
102
RTVSPropertyOp59
 70
     1
102
RTVSPropertyOp60
 70
     1
102
RTVSPropertyOp61
 70
     1
102
RTVSPropertyOp62
 70
     1
  0
ENDSEC
  0
EOF
