  0
SECTION
  2
HEADER
  9
$ACADVER
  1
AC1015
  9
$ACADMAINTVER
 70
    20
  9
$DWGCODEPAGE
  3
ANSI_932
  9
$INSBASE
 10
0.0
 20
0.0
 30
0.0
  9
$EXTMIN
 10
10.0
 20
9.999999999999998
 30
0.0
  9
$EXTMAX
 10
518.957703
 20
283.0
 30
0.0
  9
$LIMMIN
 10
0.0
 20
0.0
  9
$LIMMAX
 10
554.3999999999998
 20
382.2
  9
$ORTHOMODE
 70
     1
  9
$REGENMODE
 70
     1
  9
$FILLMODE
 70
     1
  9
$QTEXTMODE
 70
     0
  9
$MIRRTEXT
 70
     1
  9
$LTSCALE
 40
20.0
  9
$ATTMODE
 70
     1
  9
$TEXTSIZE
 40
5.0
  9
$TRACEWID
 40
1.0
  9
$TEXTSTYLE
  7
STANDARD
  9
$CLAYER
  8
0
  9
$CELTYPE
  6
BYLAYER
  9
$CECOLOR
 62
   256
  9
$CELTSCALE
 40
1.0
  9
$DISPSILH
 70
     0
  9
$DIMSCALE
 40
1.0
  9
$DIMASZ
 40
3.0
  9
$DIMEXO
 40
1.0
  9
$DIMDLI
 40
10.0
  9
$DIMRND
 40
0.0
  9
$DIMDLE
 40
0.0
  9
$DIMEXE
 40
1.0
  9
$DIMTP
 40
0.0
  9
$DIMTM
 40
0.0
  9
$DIMTXT
 40
3.0
  9
$DIMCEN
 40
0.0
  9
$DIMTSZ
 40
0.0
  9
$DIMTOL
 70
     0
  9
$DIMLIM
 70
     0
  9
$DIMTIH
 70
     0
  9
$DIMTOH
 70
     0
  9
$DIMSE1
 70
     0
  9
$DIMSE2
 70
     0
  9
$DIMTAD
 70
     3
  9
$DIMZIN
 70
     8
  9
$DIMBLK
  1

  9
$DIMASO
 70
     1
  9
$DIMSHO
 70
     1
  9
$DIMPOST
  1

  9
$DIMAPOST
  1

  9
$DIMALT
 70
     0
  9
$DIMALTD
 70
     2
  9
$DIMALTF
 40
25.4
  9
$DIMLFAC
 40
1.0
  9
$DIMTOFL
 70
     1
  9
$DIMTVP
 40
0.0
  9
$DIMTIX
 70
     0
  9
$DIMSOXD
 70
     0
  9
$DIMSAH
 70
     1
  9
$DIMBLK1
  1

  9
$DIMBLK2
  1

  9
$DIMSTYLE
  2
STANDARD
  9
$DIMCLRD
 70
     0
  9
$DIMCLRE
 70
     0
  9
$DIMCLRT
 70
     0
  9
$DIMTFAC
 40
1.0
  9
$DIMGAP
 40
1.0
  9
$DIMJUST
 70
     0
  9
$DIMSD1
 70
     0
  9
$DIMSD2
 70
     0
  9
$DIMTOLJ
 70
     1
  9
$DIMTZIN
 70
     0
  9
$DIMALTZ
 70
     0
  9
$DIMALTTZ
 70
     0
  9
$DIMUPT
 70
     0
  9
$DIMDEC
 70
     4
  9
$DIMTDEC
 70
     4
  9
$DIMALTU
 70
     2
  9
$DIMALTTD
 70
     2
  9
$DIMTXSTY
  7
STANDARD
  9
$DIMAUNIT
 70
     0
  9
$DIMADEC
 70
     0
  9
$DIMALTRND
 40
0.0
  9
$DIMAZIN
 70
     0
  9
$DIMDSEP
 70
    46
  9
$DIMATFIT
 70
     3
  9
$DIMFRAC
 70
     0
  9
$DIMLDRBLK
  1

  9
$DIMLUNIT
 70
     2
  9
$DIMLWD
 70
    -2
  9
$DIMLWE
 70
    -2
  9
$DIMTMOVE
 70
     0
  9
$LUNITS
 70
     2
  9
$LUPREC
 70
     4
  9
$SKETCHINC
 40
1.0
  9
$FILLETRAD
 40
0.0
  9
$AUNITS
 70
     0
  9
$AUPREC
 70
     2
  9
$MENU
  1
.
  9
$ELEVATION
 40
0.0
  9
$PELEVATION
 40
0.0
  9
$THICKNESS
 40
0.0
  9
$LIMCHECK
 70
     0
  9
$CHAMFERA
 40
10.0
  9
$CHAMFERB
 40
10.0
  9
$CHAMFERC
 40
0.0
  9
$CHAMFERD
 40
0.0
  9
$SKPOLY
 70
     0
  9
$TDCREATE
 40
2451233.432776620
  9
$TDUCREATE
 40
2451233.057776621
  9
$TDUPDATE
 40
2457192.661936679
  9
$TDUUPDATE
 40
2457192.286936678
  9
$TDINDWG
 40
0.0000124306
  9
$TDUSRTIMER
 40
0.0000119560
  9
$USRTIMER
 70
     1
  9
$ANGBASE
 50
0.0
  9
$ANGDIR
 70
     0
  9
$PDMODE
 70
     0
  9
$PDSIZE
 40
0.0
  9
$PLINEWID
 40
0.0
  9
$SPLFRAME
 70
     0
  9
$SPLINETYPE
 70
     6
  9
$SPLINESEGS
 70
     8
  9
$HANDSEED
  5
BEA5
  9
$SURFTAB1
 70
     6
  9
$SURFTAB2
 70
     6
  9
$SURFTYPE
 70
     6
  9
$SURFU
 70
     6
  9
$SURFV
 70
     6
  9
$UCSBASE
  2

  9
$UCSNAME
  2

  9
$UCSORG
 10
0.0
 20
0.0
 30
0.0
  9
$UCSXDIR
 10
1.0
 20
0.0
 30
0.0
  9
$UCSYDIR
 10
0.0
 20
1.0
 30
0.0
  9
$UCSORTHOREF
  2

  9
$UCSORTHOVIEW
 70
     0
  9
$UCSORGTOP
 10
0.0
 20
0.0
 30
0.0
  9
$UCSORGBOTTOM
 10
0.0
 20
0.0
 30
0.0
  9
$UCSORGLEFT
 10
0.0
 20
0.0
 30
0.0
  9
$UCSORGRIGHT
 10
0.0
 20
0.0
 30
0.0
  9
$UCSORGFRONT
 10
0.0
 20
0.0
 30
0.0
  9
$UCSORGBACK
 10
0.0
 20
0.0
 30
0.0
  9
$PUCSBASE
  2

  9
$PUCSNAME
  2

  9
$PUCSORG
 10
0.0
 20
0.0
 30
0.0
  9
$PUCSXDIR
 10
1.0
 20
0.0
 30
0.0
  9
$PUCSYDIR
 10
0.0
 20
1.0
 30
0.0
  9
$PUCSORTHOREF
  2

  9
$PUCSORTHOVIEW
 70
     0
  9
$PUCSORGTOP
 10
0.0
 20
0.0
 30
0.0
  9
$PUCSORGBOTTOM
 10
0.0
 20
0.0
 30
0.0
  9
$PUCSORGLEFT
 10
0.0
 20
0.0
 30
0.0
  9
$PUCSORGRIGHT
 10
0.0
 20
0.0
 30
0.0
  9
$PUCSORGFRONT
 10
0.0
 20
0.0
 30
0.0
  9
$PUCSORGBACK
 10
0.0
 20
0.0
 30
0.0
  9
$USERI1
 70
     0
  9
$USERI2
 70
     0
  9
$USERI3
 70
     0
  9
$USERI4
 70
     0
  9
$USERI5
 70
     0
  9
$USERR1
 40
0.0
  9
$USERR2
 40
0.0
  9
$USERR3
 40
0.0
  9
$USERR4
 40
0.0
  9
$USERR5
 40
0.0
  9
$WORLDVIEW
 70
     1
  9
$SHADEDGE
 70
     3
  9
$SHADEDIF
 70
    70
  9
$TILEMODE
 70
     1
  9
$MAXACTVP
 70
    16
  9
$PINSBASE
 10
0.0
 20
0.0
 30
0.0
  9
$PLIMCHECK
 70
     0
  9
$PEXTMIN
 10
1.000000000000000E+20
 20
1.000000000000000E+20
 30
1.000000000000000E+20
  9
$PEXTMAX
 10
-1.000000000000000E+20
 20
-1.000000000000000E+20
 30
-1.000000000000000E+20
  9
$PLIMMIN
 10
0.0
 20
0.0
  9
$PLIMMAX
 10
420.0
 20
297.0
  9
$UNITMODE
 70
     0
  9
$VISRETAIN
 70
     0
  9
$PLINEGEN
 70
     0
  9
$PSLTSCALE
 70
     0
  9
$TREEDEPTH
 70
  3020
  9
$CMLSTYLE
  2
STANDARD
  9
$CMLJUST
 70
     0
  9
$CMLSCALE
 40
1.0
  9
$PROXYGRAPHICS
 70
     1
  9
$MEASUREMENT
 70
     0
  9
$CELWEIGHT
370
    -1
  9
$ENDCAPS
280
     0
  9
$JOINSTYLE
280
     0
  9
$LWDISPLAY
290
     0
  9
$INSUNITS
 70
     0
  9
$HYPERLINKBASE
  1

  9
$STYLESHEET
  1

  9
$XEDIT
290
     1
  9
$CEPSNTYPE
380
     0
  9
$PSTYLEMODE
290
     1
  9
$FINGERPRINTGUID
  2
{4FB7544C-E0F5-4D8B-8787-9BF3A5C730E9}
  9
$VERSIONGUID
  2
{4D0EA9E0-09EE-4320-A066-8EDA29B3D030}
  9
$EXTNAMES
290
     1
  9
$PSVPSCALE
 40
0.0
  9
$OLESTARTUP
290
     0
  0
ENDSEC
  0
SECTION
  2
CLASSES
  0
CLASS
  1
ACDBDICTIONARYWDFLT
  2
AcDbDictionaryWithDefault
  3
ObjectDBX Classes
 90
        0
280
     0
281
     0
  0
CLASS
  1
ACDBPLACEHOLDER
  2
AcDbPlaceHolder
  3
ObjectDBX Classes
 90
        0
280
     0
281
     0
  0
CLASS
  1
LAYOUT
  2
AcDbLayout
  3
ObjectDBX Classes
 90
        0
280
     0
281
     0
  0
CLASS
  1
DICTIONARYVAR
  2
AcDbDictionaryVar
  3
ObjectDBX Classes
 90
        0
280
     0
281
     0
  0
CLASS
  1
MATERIAL
  2
AcDbMaterial
  3
ObjectDBX Classes
 90
     1153
280
     0
281
     0
  0
CLASS
  1
VISUALSTYLE
  2
AcDbVisualStyle
  3
ObjectDBX Classes
 90
     4095
280
     0
281
     0
  0
CLASS
  1
TABLESTYLE
  2
AcDbTableStyle
  3
ObjectDBX Classes
 90
     4095
280
     0
281
     0
  0
CLASS
  1
SCALE
  2
AcDbScale
  3
ObjectDBX Classes
 90
     1153
280
     0
281
     0
  0
CLASS
  1
MLEADERSTYLE
  2
AcDbMLeaderStyle
  3
ACDB_MLEADERSTYLE_CLASS
 90
     4095
280
     0
281
     0
  0
CLASS
  1
ACDBSECTIONVIEWSTYLE
  2
AcDbSectionViewStyle
  3
ObjectDBX Classes
 90
     1025
280
     0
281
     0
  0
CLASS
  1
ACDBDETAILVIEWSTYLE
  2
AcDbDetailViewStyle
  3
ObjectDBX Classes
 90
     1025
280
     0
281
     0
  0
CLASS
  1
CELLSTYLEMAP
  2
AcDbCellStyleMap
  3
ObjectDBX Classes
 90
     1152
280
     0
281
     0
  0
ENDSEC
  0
SECTION
  2
TABLES
  0
TABLE
  2
VPORT
  5
BA7D
330
0
100
AcDbSymbolTable
 70
     1
  0
VPORT
  5
BDEE
330
BA7D
100
AcDbSymbolTableRecord
100
AcDbViewportTableRecord
  2
*ACTIVE
 70
     0
 10
0.0
 20
0.0
 11
1.0
 21
1.0
 12
352.1058772266591
 22
146.5004753862977
 13
0.0
 23
0.0
 14
10.0
 24
10.0
 15
10.0
 25
10.0
 16
0.0
 26
0.0
 36
1.0
 17
0.0
 27
0.0
 37
0.0
 40
292.5811646771336
 41
1.899603698811096
 42
50.0
 43
0.0
 44
0.0
 50
0.0
 51
0.0
 71
     0
 72
   100
 73
     1
 74
     0
 75
     0
 76
     0
 77
     0
 78
     0
281
     0
 65
     1
110
0.0
120
0.0
130
0.0
111
1.0
121
0.0
131
0.0
112
0.0
122
1.0
132
0.0
 79
     0
146
0.0
1001
ACAD_NAV_VCDISPLAY
1070
     3
  0
ENDTAB
  0
TABLE
  2
LTYPE
  5
BA7A
330
0
100
AcDbSymbolTable
 70
     4
  0
LTYPE
  5
BA88
330
BA7A
100
AcDbSymbolTableRecord
100
AcDbLinetypeTableRecord
  2
BYBLOCK
 70
     0
  3

 72
    65
 73
     0
 40
0.0
  0
LTYPE
  5
BA89
330
BA7A
100
AcDbSymbolTableRecord
100
AcDbLinetypeTableRecord
  2
BYLAYER
 70
     0
  3

 72
    65
 73
     0
 40
0.0
  0
LTYPE
  5
BA8A
330
BA7A
100
AcDbSymbolTableRecord
100
AcDbLinetypeTableRecord
  2
CONTINUOUS
 70
     0
  3
Solid line
 72
    65
 73
     0
 40
0.0
  0
LTYPE
  5
BA98
330
BA7A
100
AcDbSymbolTableRecord
100
AcDbLinetypeTableRecord
  2
DASHED
 70
     0
  3
__ __ __ __ __ __ __ __ __ __ __ __ __ __ __ __
 72
    65
 73
     2
 40
0.75
 49
0.5
 74
     0
 49
-0.25
 74
     0
  0
LTYPE
  5
BA99
330
BA7A
100
AcDbSymbolTableRecord
100
AcDbLinetypeTableRecord
  2
CENTER
 70
     0
  3
____ _ ____ _ ____ _ ____ _ ____ _ ____ _ ____ 
 72
    65
 73
     4
 40
2.0
 49
1.25
 74
     0
 49
-0.25
 74
     0
 49
0.25
 74
     0
 49
-0.25
 74
     0
  0
LTYPE
  5
BA9A
330
BA7A
100
AcDbSymbolTableRecord
100
AcDbLinetypeTableRecord
  2
PHANTOM
 70
     0
  3
______  __  __  ______  __  __  ______  __  __ 
 72
    65
 73
     6
 40
2.5
 49
1.25
 74
     0
 49
-0.25
 74
     0
 49
0.25
 74
     0
 49
-0.25
 74
     0
 49
0.25
 74
     0
 49
-0.25
 74
     0
  0
ENDTAB
  0
TABLE
  2
LAYER
  5
BA77
330
0
100
AcDbSymbolTable
 70
     8
  0
LAYER
  5
BA85
102
{ACAD_XDICTIONARY
360
BE49
102
}
330
BA77
100
AcDbSymbolTableRecord
100
AcDbLayerTableRecord
  2
0
 70
     0
 62
     7
  6
CONTINUOUS
370
    -3
390
BDF7
  0
LAYER
  5
BA9B
102
{ACAD_XDICTIONARY
360
BE4B
102
}
330
BA77
100
AcDbSymbolTableRecord
100
AcDbLayerTableRecord
  2
4
 70
     0
 62
     1
  6
CENTER
370
    -3
390
BDF7
  0
LAYER
  5
BA9C
102
{ACAD_XDICTIONARY
360
BE4D
102
}
330
BA77
100
AcDbSymbolTableRecord
100
AcDbLayerTableRecord
  2
5
 70
     0
 62
     6
  6
PHANTOM
370
    -3
390
BDF7
  0
LAYER
  5
BA9D
102
{ACAD_XDICTIONARY
360
BE4F
102
}
330
BA77
100
AcDbSymbolTableRecord
100
AcDbLayerTableRecord
  2
1
 70
     0
 62
     7
  6
CONTINUOUS
370
    -3
390
BDF7
  0
LAYER
  5
BA9E
102
{ACAD_XDICTIONARY
360
BE51
102
}
330
BA77
100
AcDbSymbolTableRecord
100
AcDbLayerTableRecord
  2
2
 70
     0
 62
     4
  6
CONTINUOUS
370
    -3
390
BDF7
  0
LAYER
  5
BA9F
102
{ACAD_XDICTIONARY
360
BE53
102
}
330
BA77
100
AcDbSymbolTableRecord
100
AcDbLayerTableRecord
  2
3
 70
     0
 62
     2
  6
DASHED
370
    -3
390
BDF7
  0
LAYER
  5
BAA0
102
{ACAD_XDICTIONARY
360
BE55
102
}
330
BA77
100
AcDbSymbolTableRecord
100
AcDbLayerTableRecord
  2
6
 70
     0
 62
     5
  6
CONTINUOUS
370
    -3
390
BDF7
  0
LAYER
  5
BAA1
102
{ACAD_XDICTIONARY
360
BE57
102
}
330
BA77
100
AcDbSymbolTableRecord
100
AcDbLayerTableRecord
  2
7
 70
     0
 62
     3
  6
CONTINUOUS
370
    -3
390
BDF7
  0
ENDTAB
  0
TABLE
  2
STYLE
  5
BA78
330
0
100
AcDbSymbolTable
 70
     1
  0
STYLE
  5
BA86
330
BA78
100
AcDbSymbolTableRecord
100
AcDbTextStyleTableRecord
  2
STANDARD
 70
     0
 40
0.0
 41
1.0
 50
0.0
 71
     0
 42
5.0
  3
txt
  4

  0
ENDTAB
  0
TABLE
  2
VIEW
  5
BA7B
330
0
100
AcDbSymbolTable
 70
     0
  0
ENDTAB
  0
TABLE
  2
UCS
  5
BA7C
330
0
100
AcDbSymbolTable
 70
     0
  0
ENDTAB
  0
TABLE
  2
APPID
  5
BA7E
330
0
100
AcDbSymbolTable
 70
     3
  0
APPID
  5
BA87
330
BA7E
100
AcDbSymbolTableRecord
100
AcDbRegAppTableRecord
  2
ACAD
 70
     0
  0
APPID
  5
BE63
330
BA7E
100
AcDbSymbolTableRecord
100
AcDbRegAppTableRecord
  2
ACAD_NAV_VCDISPLAY
 70
     0
  0
APPID
  5
BE9C
330
BA7E
100
AcDbSymbolTableRecord
100
AcDbRegAppTableRecord
  2
ACAD_MLEADERVER
 70
     0
  0
ENDTAB
  0
TABLE
  2
DIMSTYLE
  5
BA7F
330
0
100
AcDbSymbolTable
 70
     1
100
AcDbDimStyleTable
 71
     0
  0
DIMSTYLE
105
BAA3
330
BA7F
100
AcDbSymbolTableRecord
100
AcDbDimStyleTableRecord
  2
STANDARD
 70
     0
 41
3.0
 42
1.0
 43
10.0
 44
1.0
 73
     0
 74
     0
 77
     3
 78
     8
140
3.0
141
0.0
147
1.0
172
     1
173
     1
284
     8
285
     8
286
     8
340
BA86
  0
ENDTAB
  0
TABLE
  2
BLOCK_RECORD
  5
BA76
330
0
100
AcDbSymbolTable
 70
     0
  0
BLOCK_RECORD
  5
BA93
102
{ACAD_XDICTIONARY
360
BDF1
102
}
330
BA76
100
AcDbSymbolTableRecord
100
AcDbBlockTableRecord
  2
*MODEL_SPACE
340
BE45
  0
BLOCK_RECORD
  5
BA8F
102
{ACAD_XDICTIONARY
360
BDEF
102
}
330
BA76
100
AcDbSymbolTableRecord
100
AcDbBlockTableRecord
  2
*PAPER_SPACE
340
BE46
  0
ENDTAB
  0
ENDSEC
  0
SECTION
  2
BLOCKS
  0
BLOCK
  5
BA94
330
BA93
100
AcDbEntity
  8
0
100
AcDbBlockBegin
  2
*MODEL_SPACE
 70
     0
 10
0.0
 20
0.0
 30
0.0
  3
*MODEL_SPACE
  1

  0
ENDBLK
  5
BA95
330
BA93
100
AcDbEntity
  8
0
100
AcDbBlockEnd
  0
BLOCK
  5
BA90
330
BA8F
100
AcDbEntity
 67
     1
  8
0
100
AcDbBlockBegin
  2
*PAPER_SPACE
 70
     0
 10
0.0
 20
0.0
 30
0.0
  3
*PAPER_SPACE
  1

  0
ENDBLK
  5
BA91
330
BA8F
100
AcDbEntity
 67
     1
  8
0
100
AcDbBlockEnd
  0
ENDSEC
  0
SECTION
  2
ENTITIES
  0
TEXT
  5
BAAB
330
BA93
100
AcDbEntity
  8
7
  6
Continuous
100
AcDbText
 10
10.0
 20
18.0
 30
0.0
 40
3.0
  1
TYPE No.TM-231-3
100
AcDbText
  0
TEXT
  5
BAAC
330
BA93
100
AcDbEntity
  8
7
  6
Continuous
100
AcDbText
 10
10.0
 20
26.0
 30
0.0
 40
3.0
  1
CODE No.6018
100
AcDbText
  0
TEXT
  5
BAAD
330
BA93
100
AcDbEntity
  8
1
  6
Continuous
100
AcDbText
 10
10.0
 20
10.0
 30
0.0
 40
1.399999999999999
  1
LAYER
100
AcDbText
  0
TEXT
  5
BAAE
330
BA93
100
AcDbEntity
  8
1
  6
Continuous
100
AcDbText
 10
17.97951099999998
 20
10.04873699999998
 30
0.0
 40
1.399999999999999
  1
1
100
AcDbText
  0
TEXT
  5
BAAF
330
BA93
100
AcDbEntity
  8
7
  6
Continuous
100
AcDbText
 10
29.97951099999999
 20
10.04873699999998
 30
0.0
 40
1.399999999999999
  1
7
100
AcDbText
  0
TEXT
  5
BAB0
330
BA93
100
AcDbEntity
  8
4
  6
CENTER
100
AcDbText
 10
23.97951099999999
 20
10.04873699999998
 30
0.0
 40
1.399999999999999
  1
4
100
AcDbText
  0
TEXT
  5
BAB1
330
BA93
100
AcDbEntity
  8
3
  6
DASHED
100
AcDbText
 10
21.979511
 20
10.04873699999998
 30
0.0
 40
1.399999999999999
  1
3
100
AcDbText
  0
TEXT
  5
BAB2
330
BA93
100
AcDbEntity
  8
2
  6
Continuous
100
AcDbText
 10
19.97951099999999
 20
10.04873699999998
 30
0.0
 40
1.399999999999999
  1
2
100
AcDbText
  0
TEXT
  5
BAB3
330
BA93
100
AcDbEntity
  8
6
  6
Continuous
100
AcDbText
 10
27.979511
 20
10.04873699999998
 30
0.0
 40
1.399999999999999
  1
6
100
AcDbText
  0
TEXT
  5
BAB4
330
BA93
100
AcDbEntity
  8
5
  6
PHANTOM
100
AcDbText
 10
25.97951099999999
 20
10.04873699999998
 30
0.0
 40
1.399999999999999
  1
5
100
AcDbText
  0
LINE
  5
BAB5
330
BA93
100
AcDbEntity
  8
1
  6
Continuous
100
AcDbLine
 10
469.4788519999998
 20
131.0
 30
0.0
 11
69.478852
 21
131.0
 31
0.0
  0
LINE
  5
BAB6
330
BA93
100
AcDbEntity
  8
1
  6
Continuous
100
AcDbLine
 10
69.478852
 20
131.0
 30
0.0
 11
69.478852
 21
129.728427
 31
0.0
  0
ARC
  5
BAB7
330
BA93
100
AcDbEntity
  8
1
  6
Continuous
100
AcDbCircle
 10
70.478852
 20
129.728427
 30
0.0
 40
1.0
100
AcDbArc
 50
180.0
 51
225.0
  0
LINE
  5
BAB8
330
BA93
100
AcDbEntity
  8
1
  6
Continuous
100
AcDbLine
 10
69.771745
 20
129.0213199999998
 30
0.0
 11
70.78595899999998
 21
128.0071069999999
 31
0.0
  0
ARC
  5
BAB9
330
BA93
100
AcDbEntity
  8
1
  6
Continuous
100
AcDbCircle
 10
70.078852
 20
127.2999999999999
 30
0.0
 40
1.0
100
AcDbArc
 50
270.0
 51
323.130102
  0
LINE
  5
BABA
330
BA93
100
AcDbEntity
  8
1
  6
Continuous
100
AcDbLine
 10
69.478852
 20
126.2999999999999
 30
0.0
 11
69.478852
 21
115.7
 31
0.0
  0
LINE
  5
BABB
330
BA93
100
AcDbEntity
  8
1
  6
Continuous
100
AcDbLine
 10
69.478852
 20
115.7
 30
0.0
 11
70.87885199999998
 21
115.7
 31
0.0
  0
LINE
  5
BABC
330
BA93
100
AcDbEntity
  8
1
  6
Continuous
100
AcDbLine
 10
70.87885199999998
 20
126.2999999999999
 30
0.0
 11
69.478852
 21
126.2999999999999
 31
0.0
  0
ARC
  5
BABD
330
BA93
100
AcDbEntity
  8
1
  6
Continuous
100
AcDbCircle
 10
70.078852
 20
114.7
 30
0.0
 40
1.0
100
AcDbArc
 50
315.0
 51
323.130102
  0
LINE
  5
BABE
330
BA93
100
AcDbEntity
  8
1
  6
Continuous
100
AcDbLine
 10
70.78595899999998
 20
113.9928929999999
 30
0.0
 11
69.771745
 21
112.97868
 31
0.0
  0
ARC
  5
BABF
330
BA93
100
AcDbEntity
  8
1
  6
Continuous
100
AcDbCircle
 10
70.478852
 20
112.271573
 30
0.0
 40
1.0
100
AcDbArc
 50
135.0
 51
180.0
  0
LINE
  5
BAC0
330
BA93
100
AcDbEntity
  8
1
  6
Continuous
100
AcDbLine
 10
69.478852
 20
112.271573
 30
0.0
 11
69.478852
 21
111.0
 31
0.0
  0
LINE
  5
BAC1
330
BA93
100
AcDbEntity
  8
1
  6
Continuous
100
AcDbLine
 10
69.478852
 20
111.0
 30
0.0
 11
469.4788519999998
 21
111.0
 31
0.0
  0
LINE
  5
BAC2
330
BA93
100
AcDbEntity
  8
1
  6
Continuous
100
AcDbLine
 10
469.4788519999998
 20
111.0
 30
0.0
 11
469.4788519999998
 21
112.271573
 31
0.0
  0
ARC
  5
BAC3
330
BA93
100
AcDbEntity
  8
1
  6
Continuous
100
AcDbCircle
 10
468.4788519999998
 20
112.271573
 30
0.0
 40
1.0
100
AcDbArc
 50
0.0
 51
45.0
  0
LINE
  5
BAC4
330
BA93
100
AcDbEntity
  8
1
  6
Continuous
100
AcDbLine
 10
469.1859589999999
 20
112.97868
 30
0.0
 11
468.1717449999998
 21
113.9928929999999
 31
0.0
  0
ARC
  5
BAC5
330
BA93
100
AcDbEntity
  8
1
  6
Continuous
100
AcDbCircle
 10
468.8788519999998
 20
114.7
 30
0.0
 40
1.0
100
AcDbArc
 50
90.0
 51
225.0
  0
LINE
  5
BAC6
330
BA93
100
AcDbEntity
  8
1
  6
Continuous
100
AcDbLine
 10
469.4788519999998
 20
115.7
 30
0.0
 11
468.078852
 21
115.7
 31
0.0
  0
LINE
  5
BAC7
330
BA93
100
AcDbEntity
  8
1
  6
Continuous
100
AcDbLine
 10
468.078852
 20
115.7
 30
0.0
 11
468.078852
 21
126.2999999999999
 31
0.0
  0
LINE
  5
BAC8
330
BA93
100
AcDbEntity
  8
1
  6
Continuous
100
AcDbLine
 10
468.078852
 20
126.2999999999999
 30
0.0
 11
469.4788519999998
 21
126.2999999999999
 31
0.0
  0
LINE
  5
BAC9
330
BA93
100
AcDbEntity
  8
1
  6
Continuous
100
AcDbLine
 10
469.4788519999998
 20
126.2999999999999
 30
0.0
 11
469.4788519999998
 21
115.7
 31
0.0
  0
ARC
  5
BACA
330
BA93
100
AcDbEntity
  8
1
  6
Continuous
100
AcDbCircle
 10
468.8788519999998
 20
127.2999999999999
 30
0.0
 40
1.0
100
AcDbArc
 50
135.0
 51
270.0
  0
LINE
  5
BACB
330
BA93
100
AcDbEntity
  8
1
  6
Continuous
100
AcDbLine
 10
468.1717449999998
 20
128.0071069999999
 30
0.0
 11
469.1859589999999
 21
129.0213199999998
 31
0.0
  0
ARC
  5
BACC
330
BA93
100
AcDbEntity
  8
1
  6
Continuous
100
AcDbCircle
 10
468.4788519999998
 20
129.728427
 30
0.0
 40
1.0
100
AcDbArc
 50
315.0
 51
0.0
  0
LINE
  5
BACD
330
BA93
100
AcDbEntity
  8
1
  6
Continuous
100
AcDbLine
 10
469.4788519999998
 20
129.728427
 30
0.0
 11
469.4788519999998
 21
131.0
 31
0.0
  0
LINE
  5
BACE
330
BA93
100
AcDbEntity
  8
4
  6
CENTER
100
AcDbLine
 10
64.478852
 20
121.0
 30
0.0
 11
474.4788519999998
 21
121.0
 31
0.0
  0
LINE
  5
BACF
330
BA93
100
AcDbEntity
  8
1
  6
Continuous
100
AcDbLine
 10
469.4788519999998
 20
112.4779619999999
 30
0.0
 11
69.478852
 21
112.4779619999999
 31
0.0
  0
LINE
  5
BAD0
330
BA93
100
AcDbEntity
  8
1
  6
Continuous
100
AcDbLine
 10
70.120401
 20
113.327335
 30
0.0
 11
468.837303
 21
113.327335
 31
0.0
  0
LINE
  5
BAD1
330
BA93
100
AcDbEntity
  8
1
  6
Continuous
100
AcDbLine
 10
468.837303
 20
128.672665
 30
0.0
 11
70.120401
 21
128.672665
 31
0.0
  0
LINE
  5
BAD2
330
BA93
100
AcDbEntity
  8
1
  6
Continuous
100
AcDbLine
 10
69.478852
 20
129.5220379999999
 30
0.0
 11
469.4788519999998
 21
129.5220379999999
 31
0.0
  0
LINE
  5
BAD3
330
BA93
100
AcDbEntity
  8
1
  6
Continuous
100
AcDbLine
 10
170.8788519999998
 20
127.15
 30
0.0
 11
70.87885199999998
 21
127.15
 31
0.0
  0
LINE
  5
BAD4
330
BA93
100
AcDbEntity
  8
1
  6
Continuous
100
AcDbLine
 10
70.87885199999998
 20
128.1795
 30
0.0
 11
70.87885199999998
 21
113.8204999999999
 31
0.0
  0
LINE
  5
BAD5
330
BA93
100
AcDbEntity
  8
1
  6
Continuous
100
AcDbLine
 10
70.87885199999998
 20
114.85
 30
0.0
 11
170.8788519999998
 21
114.85
 31
0.0
  0
LINE
  5
BAD6
330
BA93
100
AcDbEntity
  8
1
  6
Continuous
100
AcDbLine
 10
170.8788519999998
 20
114.85
 30
0.0
 11
170.8788519999998
 21
127.15
 31
0.0
  0
LINE
  5
BAD7
330
BA93
100
AcDbEntity
  8
1
  6
Continuous
100
AcDbLine
 10
78.87885199999998
 20
127.6795
 30
0.0
 11
78.87885199999998
 21
128.1795
 31
0.0
  0
LINE
  5
BAD8
330
BA93
100
AcDbEntity
  8
1
  6
Continuous
100
AcDbLine
 10
70.87885199999998
 20
127.6795
 30
0.0
 11
78.87885199999998
 21
127.6795
 31
0.0
  0
LINE
  5
BAD9
330
BA93
100
AcDbEntity
  8
1
  6
Continuous
100
AcDbLine
 10
70.87885199999998
 20
128.1795
 30
0.0
 11
78.87885199999998
 21
128.1795
 31
0.0
  0
ARC
  5
BADA
330
BA93
100
AcDbEntity
  8
1
  6
Continuous
100
AcDbCircle
 10
79.87885199999998
 20
114.3205
 30
0.0
 40
1.0
100
AcDbArc
 50
0.0
 51
31.97167800000001
  0
LINE
  5
BADB
330
BA93
100
AcDbEntity
  8
1
  6
Continuous
100
AcDbLine
 10
78.87885199999998
 20
114.3205
 30
0.0
 11
78.87885199999998
 21
113.8204999999999
 31
0.0
  0
LINE
  5
BADC
330
BA93
100
AcDbEntity
  8
1
  6
Continuous
100
AcDbLine
 10
70.87885199999998
 20
114.3205
 30
0.0
 11
78.87885199999998
 21
114.3205
 31
0.0
  0
LINE
  5
BADD
330
BA93
100
AcDbEntity
  8
1
  6
Continuous
100
AcDbLine
 10
70.87885199999998
 20
113.8204999999999
 30
0.0
 11
78.87885199999998
 21
113.8204999999999
 31
0.0
  0
ARC
  5
BADE
330
BA93
100
AcDbEntity
  8
1
  6
Continuous
100
AcDbCircle
 10
79.87885199999998
 20
127.6795
 30
0.0
 40
1.0
100
AcDbArc
 50
180.0
 51
211.9716779999999
  0
ARC
  5
BADF
330
BA93
100
AcDbEntity
  8
1
  6
Continuous
100
AcDbCircle
 10
89.87885199999999
 20
127.6795
 30
0.0
 40
1.0
100
AcDbArc
 50
180.0
 51
211.9716779999999
  0
LINE
  5
BAE0
330
BA93
100
AcDbEntity
  8
1
  6
Continuous
100
AcDbLine
 10
88.87885199999997
 20
127.6795
 30
0.0
 11
88.87885199999997
 21
128.1795
 31
0.0
  0
LINE
  5
BAE1
330
BA93
100
AcDbEntity
  8
1
  6
Continuous
100
AcDbLine
 10
80.87885199999998
 20
127.6795
 30
0.0
 11
88.87885199999997
 21
127.6795
 31
0.0
  0
LINE
  5
BAE2
330
BA93
100
AcDbEntity
  8
1
  6
Continuous
100
AcDbLine
 10
80.87885199999998
 20
128.1795
 30
0.0
 11
88.87885199999997
 21
128.1795
 31
0.0
  0
LINE
  5
BAE3
330
BA93
100
AcDbEntity
  8
1
  6
Continuous
100
AcDbLine
 10
88.87885199999997
 20
114.3205
 30
0.0
 11
88.87885199999997
 21
113.8204999999999
 31
0.0
  0
LINE
  5
BAE4
330
BA93
100
AcDbEntity
  8
1
  6
Continuous
100
AcDbLine
 10
80.87885199999998
 20
114.3205
 30
0.0
 11
88.87885199999997
 21
114.3205
 31
0.0
  0
LINE
  5
BAE5
330
BA93
100
AcDbEntity
  8
1
  6
Continuous
100
AcDbLine
 10
80.87885199999998
 20
113.8204999999999
 30
0.0
 11
88.87885199999997
 21
113.8204999999999
 31
0.0
  0
LINE
  5
BAE6
330
BA93
100
AcDbEntity
  8
1
  6
Continuous
100
AcDbLine
 10
80.87885199999998
 20
128.1795
 30
0.0
 11
80.87885199999998
 21
127.6795
 31
0.0
  0
LINE
  5
BAE7
330
BA93
100
AcDbEntity
  8
1
  6
Continuous
100
AcDbLine
 10
80.87885199999998
 20
113.8204999999999
 30
0.0
 11
80.87885199999998
 21
114.3205
 31
0.0
  0
ARC
  5
BAE8
330
BA93
100
AcDbEntity
  8
1
  6
Continuous
100
AcDbCircle
 10
89.87885199999999
 20
114.3205
 30
0.0
 40
1.0
100
AcDbArc
 50
0.0
 51
31.97167800000001
  0
ARC
  5
BAE9
330
BA93
100
AcDbEntity
  8
1
  6
Continuous
100
AcDbCircle
 10
99.878852
 20
127.6795
 30
0.0
 40
1.0
100
AcDbArc
 50
180.0
 51
211.9716779999999
  0
LINE
  5
BAEA
330
BA93
100
AcDbEntity
  8
1
  6
Continuous
100
AcDbLine
 10
98.87885199999999
 20
127.6795
 30
0.0
 11
98.87885199999999
 21
128.1795
 31
0.0
  0
LINE
  5
BAEB
330
BA93
100
AcDbEntity
  8
1
  6
Continuous
100
AcDbLine
 10
90.878852
 20
127.6795
 30
0.0
 11
98.87885199999999
 21
127.6795
 31
0.0
  0
LINE
  5
BAEC
330
BA93
100
AcDbEntity
  8
1
  6
Continuous
100
AcDbLine
 10
90.878852
 20
128.1795
 30
0.0
 11
98.87885199999999
 21
128.1795
 31
0.0
  0
LINE
  5
BAED
330
BA93
100
AcDbEntity
  8
1
  6
Continuous
100
AcDbLine
 10
98.87885199999999
 20
114.3205
 30
0.0
 11
98.87885199999999
 21
113.8204999999999
 31
0.0
  0
LINE
  5
BAEE
330
BA93
100
AcDbEntity
  8
1
  6
Continuous
100
AcDbLine
 10
90.878852
 20
114.3205
 30
0.0
 11
98.87885199999999
 21
114.3205
 31
0.0
  0
LINE
  5
BAEF
330
BA93
100
AcDbEntity
  8
1
  6
Continuous
100
AcDbLine
 10
90.878852
 20
113.8204999999999
 30
0.0
 11
98.87885199999999
 21
113.8204999999999
 31
0.0
  0
LINE
  5
BAF0
330
BA93
100
AcDbEntity
  8
1
  6
Continuous
100
AcDbLine
 10
90.878852
 20
128.1795
 30
0.0
 11
90.878852
 21
127.6795
 31
0.0
  0
LINE
  5
BAF1
330
BA93
100
AcDbEntity
  8
1
  6
Continuous
100
AcDbLine
 10
90.878852
 20
113.8204999999999
 30
0.0
 11
90.878852
 21
114.3205
 31
0.0
  0
ARC
  5
BAF2
330
BA93
100
AcDbEntity
  8
1
  6
Continuous
100
AcDbCircle
 10
99.878852
 20
114.3205
 30
0.0
 40
1.0
100
AcDbArc
 50
0.0
 51
31.97167800000001
  0
ARC
  5
BAF3
330
BA93
100
AcDbEntity
  8
1
  6
Continuous
100
AcDbCircle
 10
109.878852
 20
127.6795
 30
0.0
 40
1.0
100
AcDbArc
 50
180.0
 51
211.9716779999999
  0
LINE
  5
BAF4
330
BA93
100
AcDbEntity
  8
1
  6
Continuous
100
AcDbLine
 10
108.878852
 20
127.6795
 30
0.0
 11
108.878852
 21
128.1795
 31
0.0
  0
LINE
  5
BAF5
330
BA93
100
AcDbEntity
  8
1
  6
Continuous
100
AcDbLine
 10
100.8788519999999
 20
127.6795
 30
0.0
 11
108.878852
 21
127.6795
 31
0.0
  0
LINE
  5
BAF6
330
BA93
100
AcDbEntity
  8
1
  6
Continuous
100
AcDbLine
 10
100.8788519999999
 20
128.1795
 30
0.0
 11
108.878852
 21
128.1795
 31
0.0
  0
LINE
  5
BAF7
330
BA93
100
AcDbEntity
  8
1
  6
Continuous
100
AcDbLine
 10
108.878852
 20
114.3205
 30
0.0
 11
108.878852
 21
113.8204999999999
 31
0.0
  0
LINE
  5
BAF8
330
BA93
100
AcDbEntity
  8
1
  6
Continuous
100
AcDbLine
 10
100.8788519999999
 20
114.3205
 30
0.0
 11
108.878852
 21
114.3205
 31
0.0
  0
LINE
  5
BAF9
330
BA93
100
AcDbEntity
  8
1
  6
Continuous
100
AcDbLine
 10
100.8788519999999
 20
113.8204999999999
 30
0.0
 11
108.878852
 21
113.8204999999999
 31
0.0
  0
LINE
  5
BAFA
330
BA93
100
AcDbEntity
  8
1
  6
Continuous
100
AcDbLine
 10
100.8788519999999
 20
128.1795
 30
0.0
 11
100.8788519999999
 21
127.6795
 31
0.0
  0
LINE
  5
BAFB
330
BA93
100
AcDbEntity
  8
1
  6
Continuous
100
AcDbLine
 10
100.8788519999999
 20
113.8204999999999
 30
0.0
 11
100.8788519999999
 21
114.3205
 31
0.0
  0
ARC
  5
BAFC
330
BA93
100
AcDbEntity
  8
1
  6
Continuous
100
AcDbCircle
 10
109.878852
 20
114.3205
 30
0.0
 40
1.0
100
AcDbArc
 50
0.0
 51
31.97167800000001
  0
LINE
  5
BAFD
330
BA93
100
AcDbEntity
  8
1
  6
Continuous
100
AcDbLine
 10
118.8788519999999
 20
127.6795
 30
0.0
 11
118.8788519999999
 21
128.1795
 31
0.0
  0
LINE
  5
BAFE
330
BA93
100
AcDbEntity
  8
1
  6
Continuous
100
AcDbLine
 10
110.878852
 20
127.6795
 30
0.0
 11
118.8788519999999
 21
127.6795
 31
0.0
  0
LINE
  5
BAFF
330
BA93
100
AcDbEntity
  8
1
  6
Continuous
100
AcDbLine
 10
110.878852
 20
128.1795
 30
0.0
 11
118.8788519999999
 21
128.1795
 31
0.0
  0
LINE
  5
BB00
330
BA93
100
AcDbEntity
  8
1
  6
Continuous
100
AcDbLine
 10
118.8788519999999
 20
114.3205
 30
0.0
 11
118.8788519999999
 21
113.8204999999999
 31
0.0
  0
LINE
  5
BB01
330
BA93
100
AcDbEntity
  8
1
  6
Continuous
100
AcDbLine
 10
110.878852
 20
114.3205
 30
0.0
 11
118.8788519999999
 21
114.3205
 31
0.0
  0
LINE
  5
BB02
330
BA93
100
AcDbEntity
  8
1
  6
Continuous
100
AcDbLine
 10
110.878852
 20
113.8204999999999
 30
0.0
 11
118.8788519999999
 21
113.8204999999999
 31
0.0
  0
LINE
  5
BB03
330
BA93
100
AcDbEntity
  8
1
  6
Continuous
100
AcDbLine
 10
110.878852
 20
128.1795
 30
0.0
 11
110.878852
 21
127.6795
 31
0.0
  0
LINE
  5
BB04
330
BA93
100
AcDbEntity
  8
1
  6
Continuous
100
AcDbLine
 10
110.878852
 20
113.8204999999999
 30
0.0
 11
110.878852
 21
114.3205
 31
0.0
  0
ARC
  5
BB05
330
BA93
100
AcDbEntity
  8
1
  6
Continuous
100
AcDbCircle
 10
119.8788519999999
 20
114.3205
 30
0.0
 40
1.0
100
AcDbArc
 50
0.0
 51
31.97167800000001
  0
LINE
  5
BB06
330
BA93
100
AcDbEntity
  8
1
  6
Continuous
100
AcDbLine
 10
128.8788519999999
 20
127.6795
 30
0.0
 11
128.8788519999999
 21
128.1795
 31
0.0
  0
LINE
  5
BB07
330
BA93
100
AcDbEntity
  8
1
  6
Continuous
100
AcDbLine
 10
120.8788519999999
 20
127.6795
 30
0.0
 11
128.8788519999999
 21
127.6795
 31
0.0
  0
LINE
  5
BB08
330
BA93
100
AcDbEntity
  8
1
  6
Continuous
100
AcDbLine
 10
120.8788519999999
 20
128.1795
 30
0.0
 11
128.8788519999999
 21
128.1795
 31
0.0
  0
LINE
  5
BB09
330
BA93
100
AcDbEntity
  8
1
  6
Continuous
100
AcDbLine
 10
128.8788519999999
 20
114.3205
 30
0.0
 11
128.8788519999999
 21
113.8204999999999
 31
0.0
  0
LINE
  5
BB0A
330
BA93
100
AcDbEntity
  8
1
  6
Continuous
100
AcDbLine
 10
120.8788519999999
 20
114.3205
 30
0.0
 11
128.8788519999999
 21
114.3205
 31
0.0
  0
LINE
  5
BB0B
330
BA93
100
AcDbEntity
  8
1
  6
Continuous
100
AcDbLine
 10
120.8788519999999
 20
113.8204999999999
 30
0.0
 11
128.8788519999999
 21
113.8204999999999
 31
0.0
  0
LINE
  5
BB0C
330
BA93
100
AcDbEntity
  8
1
  6
Continuous
100
AcDbLine
 10
120.8788519999999
 20
128.1795
 30
0.0
 11
120.8788519999999
 21
127.6795
 31
0.0
  0
ARC
  5
BB0D
330
BA93
100
AcDbEntity
  8
1
  6
Continuous
100
AcDbCircle
 10
119.8788519999999
 20
127.6795
 30
0.0
 40
1.0
100
AcDbArc
 50
180.0
 51
211.9716779999999
  0
LINE
  5
BB0E
330
BA93
100
AcDbEntity
  8
1
  6
Continuous
100
AcDbLine
 10
120.8788519999999
 20
113.8204999999999
 30
0.0
 11
120.8788519999999
 21
114.3205
 31
0.0
  0
ARC
  5
BB0F
330
BA93
100
AcDbEntity
  8
1
  6
Continuous
100
AcDbCircle
 10
139.8788519999999
 20
127.6795
 30
0.0
 40
1.0
100
AcDbArc
 50
180.0
 51
211.9716779999999
  0
LINE
  5
BB10
330
BA93
100
AcDbEntity
  8
1
  6
Continuous
100
AcDbLine
 10
138.878852
 20
127.6795
 30
0.0
 11
138.878852
 21
128.1795
 31
0.0
  0
LINE
  5
BB11
330
BA93
100
AcDbEntity
  8
1
  6
Continuous
100
AcDbLine
 10
130.878852
 20
127.6795
 30
0.0
 11
138.878852
 21
127.6795
 31
0.0
  0
LINE
  5
BB12
330
BA93
100
AcDbEntity
  8
1
  6
Continuous
100
AcDbLine
 10
130.878852
 20
128.1795
 30
0.0
 11
138.878852
 21
128.1795
 31
0.0
  0
LINE
  5
BB13
330
BA93
100
AcDbEntity
  8
1
  6
Continuous
100
AcDbLine
 10
138.878852
 20
114.3205
 30
0.0
 11
138.878852
 21
113.8204999999999
 31
0.0
  0
LINE
  5
BB14
330
BA93
100
AcDbEntity
  8
1
  6
Continuous
100
AcDbLine
 10
130.878852
 20
114.3205
 30
0.0
 11
138.878852
 21
114.3205
 31
0.0
  0
LINE
  5
BB15
330
BA93
100
AcDbEntity
  8
1
  6
Continuous
100
AcDbLine
 10
130.878852
 20
113.8204999999999
 30
0.0
 11
138.878852
 21
113.8204999999999
 31
0.0
  0
LINE
  5
BB16
330
BA93
100
AcDbEntity
  8
1
  6
Continuous
100
AcDbLine
 10
130.878852
 20
128.1795
 30
0.0
 11
130.878852
 21
127.6795
 31
0.0
  0
ARC
  5
BB17
330
BA93
100
AcDbEntity
  8
1
  6
Continuous
100
AcDbCircle
 10
129.878852
 20
127.6795
 30
0.0
 40
1.0
100
AcDbArc
 50
180.0
 51
211.9716779999999
  0
LINE
  5
BB18
330
BA93
100
AcDbEntity
  8
1
  6
Continuous
100
AcDbLine
 10
130.878852
 20
113.8204999999999
 30
0.0
 11
130.878852
 21
114.3205
 31
0.0
  0
ARC
  5
BB19
330
BA93
100
AcDbEntity
  8
1
  6
Continuous
100
AcDbCircle
 10
139.8788519999999
 20
114.3205
 30
0.0
 40
1.0
100
AcDbArc
 50
0.0
 51
31.97167800000001
  0
ARC
  5
BB1A
330
BA93
100
AcDbEntity
  8
1
  6
Continuous
100
AcDbCircle
 10
129.878852
 20
114.3205
 30
0.0
 40
1.0
100
AcDbArc
 50
0.0
 51
31.97167800000001
  0
ARC
  5
BB1B
330
BA93
100
AcDbEntity
  8
1
  6
Continuous
100
AcDbCircle
 10
149.8788519999999
 20
127.6795
 30
0.0
 40
1.0
100
AcDbArc
 50
180.0
 51
211.9716779999999
  0
LINE
  5
BB1C
330
BA93
100
AcDbEntity
  8
1
  6
Continuous
100
AcDbLine
 10
148.8788519999999
 20
127.6795
 30
0.0
 11
148.8788519999999
 21
128.1795
 31
0.0
  0
LINE
  5
BB1D
330
BA93
100
AcDbEntity
  8
1
  6
Continuous
100
AcDbLine
 10
140.8788519999999
 20
127.6795
 30
0.0
 11
148.8788519999999
 21
127.6795
 31
0.0
  0
LINE
  5
BB1E
330
BA93
100
AcDbEntity
  8
1
  6
Continuous
100
AcDbLine
 10
140.8788519999999
 20
128.1795
 30
0.0
 11
148.8788519999999
 21
128.1795
 31
0.0
  0
LINE
  5
BB1F
330
BA93
100
AcDbEntity
  8
1
  6
Continuous
100
AcDbLine
 10
148.8788519999999
 20
114.3205
 30
0.0
 11
148.8788519999999
 21
113.8204999999999
 31
0.0
  0
LINE
  5
BB20
330
BA93
100
AcDbEntity
  8
1
  6
Continuous
100
AcDbLine
 10
140.8788519999999
 20
114.3205
 30
0.0
 11
148.8788519999999
 21
114.3205
 31
0.0
  0
LINE
  5
BB21
330
BA93
100
AcDbEntity
  8
1
  6
Continuous
100
AcDbLine
 10
140.8788519999999
 20
113.8204999999999
 30
0.0
 11
148.8788519999999
 21
113.8204999999999
 31
0.0
  0
LINE
  5
BB22
330
BA93
100
AcDbEntity
  8
1
  6
Continuous
100
AcDbLine
 10
140.8788519999999
 20
128.1795
 30
0.0
 11
140.8788519999999
 21
127.6795
 31
0.0
  0
LINE
  5
BB23
330
BA93
100
AcDbEntity
  8
1
  6
Continuous
100
AcDbLine
 10
140.8788519999999
 20
113.8204999999999
 30
0.0
 11
140.8788519999999
 21
114.3205
 31
0.0
  0
ARC
  5
BB24
330
BA93
100
AcDbEntity
  8
1
  6
Continuous
100
AcDbCircle
 10
149.8788519999999
 20
114.3205
 30
0.0
 40
1.0
100
AcDbArc
 50
0.0
 51
31.97167800000001
  0
ARC
  5
BB25
330
BA93
100
AcDbEntity
  8
1
  6
Continuous
100
AcDbCircle
 10
159.878852
 20
127.6795
 30
0.0
 40
1.0
100
AcDbArc
 50
180.0
 51
211.9716779999999
  0
LINE
  5
BB26
330
BA93
100
AcDbEntity
  8
1
  6
Continuous
100
AcDbLine
 10
158.878852
 20
127.6795
 30
0.0
 11
158.878852
 21
128.1795
 31
0.0
  0
LINE
  5
BB27
330
BA93
100
AcDbEntity
  8
1
  6
Continuous
100
AcDbLine
 10
150.8788519999999
 20
127.6795
 30
0.0
 11
158.878852
 21
127.6795
 31
0.0
  0
LINE
  5
BB28
330
BA93
100
AcDbEntity
  8
1
  6
Continuous
100
AcDbLine
 10
150.8788519999999
 20
128.1795
 30
0.0
 11
158.878852
 21
128.1795
 31
0.0
  0
LINE
  5
BB29
330
BA93
100
AcDbEntity
  8
1
  6
Continuous
100
AcDbLine
 10
158.878852
 20
114.3205
 30
0.0
 11
158.878852
 21
113.8204999999999
 31
0.0
  0
LINE
  5
BB2A
330
BA93
100
AcDbEntity
  8
1
  6
Continuous
100
AcDbLine
 10
150.8788519999999
 20
114.3205
 30
0.0
 11
158.878852
 21
114.3205
 31
0.0
  0
LINE
  5
BB2B
330
BA93
100
AcDbEntity
  8
1
  6
Continuous
100
AcDbLine
 10
150.8788519999999
 20
113.8204999999999
 30
0.0
 11
158.878852
 21
113.8204999999999
 31
0.0
  0
LINE
  5
BB2C
330
BA93
100
AcDbEntity
  8
1
  6
Continuous
100
AcDbLine
 10
150.8788519999999
 20
128.1795
 30
0.0
 11
150.8788519999999
 21
127.6795
 31
0.0
  0
LINE
  5
BB2D
330
BA93
100
AcDbEntity
  8
1
  6
Continuous
100
AcDbLine
 10
150.8788519999999
 20
113.8204999999999
 30
0.0
 11
150.8788519999999
 21
114.3205
 31
0.0
  0
ARC
  5
BB2E
330
BA93
100
AcDbEntity
  8
1
  6
Continuous
100
AcDbCircle
 10
159.878852
 20
114.3205
 30
0.0
 40
1.0
100
AcDbArc
 50
0.0
 51
31.97167800000001
  0
ARC
  5
BB2F
330
BA93
100
AcDbEntity
  8
1
  6
Continuous
100
AcDbCircle
 10
169.8788519999999
 20
127.6795
 30
0.0
 40
1.0
100
AcDbArc
 50
180.0
 51
211.9716779999999
  0
LINE
  5
BB30
330
BA93
100
AcDbEntity
  8
1
  6
Continuous
100
AcDbLine
 10
168.8788519999999
 20
127.6795
 30
0.0
 11
168.8788519999999
 21
128.1795
 31
0.0
  0
LINE
  5
BB31
330
BA93
100
AcDbEntity
  8
1
  6
Continuous
100
AcDbLine
 10
160.878852
 20
127.6795
 30
0.0
 11
168.8788519999999
 21
127.6795
 31
0.0
  0
LINE
  5
BB32
330
BA93
100
AcDbEntity
  8
1
  6
Continuous
100
AcDbLine
 10
160.878852
 20
128.1795
 30
0.0
 11
168.8788519999999
 21
128.1795
 31
0.0
  0
LINE
  5
BB33
330
BA93
100
AcDbEntity
  8
1
  6
Continuous
100
AcDbLine
 10
168.8788519999999
 20
114.3205
 30
0.0
 11
168.8788519999999
 21
113.8204999999999
 31
0.0
  0
LINE
  5
BB34
330
BA93
100
AcDbEntity
  8
1
  6
Continuous
100
AcDbLine
 10
160.878852
 20
114.3205
 30
0.0
 11
168.8788519999999
 21
114.3205
 31
0.0
  0
LINE
  5
BB35
330
BA93
100
AcDbEntity
  8
1
  6
Continuous
100
AcDbLine
 10
160.878852
 20
113.8204999999999
 30
0.0
 11
168.8788519999999
 21
113.8204999999999
 31
0.0
  0
LINE
  5
BB36
330
BA93
100
AcDbEntity
  8
1
  6
Continuous
100
AcDbLine
 10
160.878852
 20
128.1795
 30
0.0
 11
160.878852
 21
127.6795
 31
0.0
  0
LINE
  5
BB37
330
BA93
100
AcDbEntity
  8
1
  6
Continuous
100
AcDbLine
 10
160.878852
 20
113.8204999999999
 30
0.0
 11
160.878852
 21
114.3205
 31
0.0
  0
ARC
  5
BB38
330
BA93
100
AcDbEntity
  8
1
  6
Continuous
100
AcDbCircle
 10
169.8788519999999
 20
114.3205
 30
0.0
 40
1.0
100
AcDbArc
 50
0.0
 51
31.97167800000001
  0
ARC
  5
BB39
330
BA93
100
AcDbEntity
  8
1
  6
Continuous
100
AcDbCircle
 10
179.878852
 20
127.6795
 30
0.0
 40
1.0
100
AcDbArc
 50
180.0
 51
0.0
  0
LINE
  5
BB3A
330
BA93
100
AcDbEntity
  8
1
  6
Continuous
100
AcDbLine
 10
178.8788519999999
 20
127.6795
 30
0.0
 11
178.8788519999999
 21
128.1795
 31
0.0
  0
LINE
  5
BB3B
330
BA93
100
AcDbEntity
  8
1
  6
Continuous
100
AcDbLine
 10
170.8788519999998
 20
127.6795
 30
0.0
 11
178.8788519999999
 21
127.6795
 31
0.0
  0
LINE
  5
BB3C
330
BA93
100
AcDbEntity
  8
1
  6
Continuous
100
AcDbLine
 10
170.8788519999998
 20
128.1795
 30
0.0
 11
178.8788519999999
 21
128.1795
 31
0.0
  0
LINE
  5
BB3D
330
BA93
100
AcDbEntity
  8
1
  6
Continuous
100
AcDbLine
 10
178.8788519999999
 20
114.3205
 30
0.0
 11
178.8788519999999
 21
113.8204999999999
 31
0.0
  0
LINE
  5
BB3E
330
BA93
100
AcDbEntity
  8
1
  6
Continuous
100
AcDbLine
 10
170.8788519999998
 20
114.3205
 30
0.0
 11
178.8788519999999
 21
114.3205
 31
0.0
  0
LINE
  5
BB3F
330
BA93
100
AcDbEntity
  8
1
  6
Continuous
100
AcDbLine
 10
170.8788519999998
 20
113.8204999999999
 30
0.0
 11
178.8788519999999
 21
113.8204999999999
 31
0.0
  0
LINE
  5
BB40
330
BA93
100
AcDbEntity
  8
1
  6
Continuous
100
AcDbLine
 10
170.8788519999998
 20
128.1795
 30
0.0
 11
170.8788519999998
 21
127.6795
 31
0.0
  0
LINE
  5
BB41
330
BA93
100
AcDbEntity
  8
1
  6
Continuous
100
AcDbLine
 10
170.8788519999998
 20
113.8204999999999
 30
0.0
 11
170.8788519999998
 21
114.3205
 31
0.0
  0
LINE
  5
BB42
330
BA93
100
AcDbEntity
  8
1
  6
Continuous
100
AcDbLine
 10
188.878852
 20
127.6795
 30
0.0
 11
188.878852
 21
128.1795
 31
0.0
  0
LINE
  5
BB43
330
BA93
100
AcDbEntity
  8
1
  6
Continuous
100
AcDbLine
 10
180.878852
 20
127.6795
 30
0.0
 11
188.878852
 21
127.6795
 31
0.0
  0
LINE
  5
BB44
330
BA93
100
AcDbEntity
  8
1
  6
Continuous
100
AcDbLine
 10
180.878852
 20
128.1795
 30
0.0
 11
188.878852
 21
128.1795
 31
0.0
  0
LINE
  5
BB45
330
BA93
100
AcDbEntity
  8
1
  6
Continuous
100
AcDbLine
 10
188.878852
 20
114.3205
 30
0.0
 11
188.878852
 21
113.8204999999999
 31
0.0
  0
LINE
  5
BB46
330
BA93
100
AcDbEntity
  8
1
  6
Continuous
100
AcDbLine
 10
180.878852
 20
114.3205
 30
0.0
 11
188.878852
 21
114.3205
 31
0.0
  0
LINE
  5
BB47
330
BA93
100
AcDbEntity
  8
1
  6
Continuous
100
AcDbLine
 10
180.878852
 20
113.8204999999999
 30
0.0
 11
188.878852
 21
113.8204999999999
 31
0.0
  0
LINE
  5
BB48
330
BA93
100
AcDbEntity
  8
1
  6
Continuous
100
AcDbLine
 10
180.878852
 20
128.1795
 30
0.0
 11
180.878852
 21
127.6795
 31
0.0
  0
LINE
  5
BB49
330
BA93
100
AcDbEntity
  8
1
  6
Continuous
100
AcDbLine
 10
180.878852
 20
113.8204999999999
 30
0.0
 11
180.878852
 21
114.3205
 31
0.0
  0
ARC
  5
BB4A
330
BA93
100
AcDbEntity
  8
1
  6
Continuous
100
AcDbCircle
 10
179.878852
 20
114.3205
 30
0.0
 40
1.0
100
AcDbArc
 50
0.0
 51
180.0
  0
ARC
  5
BB4B
330
BA93
100
AcDbEntity
  8
1
  6
Continuous
100
AcDbCircle
 10
199.8788519999999
 20
127.6795
 30
0.0
 40
1.0
100
AcDbArc
 50
180.0
 51
0.0
  0
LINE
  5
BB4C
330
BA93
100
AcDbEntity
  8
1
  6
Continuous
100
AcDbLine
 10
198.8788519999999
 20
127.6795
 30
0.0
 11
198.8788519999999
 21
128.1795
 31
0.0
  0
LINE
  5
BB4D
330
BA93
100
AcDbEntity
  8
1
  6
Continuous
100
AcDbLine
 10
190.8788519999999
 20
127.6795
 30
0.0
 11
198.8788519999999
 21
127.6795
 31
0.0
  0
LINE
  5
BB4E
330
BA93
100
AcDbEntity
  8
1
  6
Continuous
100
AcDbLine
 10
190.8788519999999
 20
128.1795
 30
0.0
 11
198.8788519999999
 21
128.1795
 31
0.0
  0
LINE
  5
BB4F
330
BA93
100
AcDbEntity
  8
1
  6
Continuous
100
AcDbLine
 10
198.8788519999999
 20
114.3205
 30
0.0
 11
198.8788519999999
 21
113.8204999999999
 31
0.0
  0
LINE
  5
BB50
330
BA93
100
AcDbEntity
  8
1
  6
Continuous
100
AcDbLine
 10
190.8788519999999
 20
114.3205
 30
0.0
 11
198.8788519999999
 21
114.3205
 31
0.0
  0
LINE
  5
BB51
330
BA93
100
AcDbEntity
  8
1
  6
Continuous
100
AcDbLine
 10
190.8788519999999
 20
113.8204999999999
 30
0.0
 11
198.8788519999999
 21
113.8204999999999
 31
0.0
  0
LINE
  5
BB52
330
BA93
100
AcDbEntity
  8
1
  6
Continuous
100
AcDbLine
 10
190.8788519999999
 20
128.1795
 30
0.0
 11
190.8788519999999
 21
127.6795
 31
0.0
  0
ARC
  5
BB53
330
BA93
100
AcDbEntity
  8
1
  6
Continuous
100
AcDbCircle
 10
189.878852
 20
127.6795
 30
0.0
 40
1.0
100
AcDbArc
 50
180.0
 51
0.0
  0
LINE
  5
BB54
330
BA93
100
AcDbEntity
  8
1
  6
Continuous
100
AcDbLine
 10
190.8788519999999
 20
113.8204999999999
 30
0.0
 11
190.8788519999999
 21
114.3205
 31
0.0
  0
ARC
  5
BB55
330
BA93
100
AcDbEntity
  8
1
  6
Continuous
100
AcDbCircle
 10
199.8788519999999
 20
114.3205
 30
0.0
 40
1.0
100
AcDbArc
 50
0.0
 51
180.0
  0
ARC
  5
BB56
330
BA93
100
AcDbEntity
  8
1
  6
Continuous
100
AcDbCircle
 10
189.878852
 20
114.3205
 30
0.0
 40
1.0
100
AcDbArc
 50
0.0
 51
180.0
  0
LINE
  5
BB57
330
BA93
100
AcDbEntity
  8
1
  6
Continuous
100
AcDbLine
 10
200.8788519999999
 20
127.6795
 30
0.0
 11
200.8788519999999
 21
128.1795
 31
0.0
  0
LINE
  5
BB58
330
BA93
100
AcDbEntity
  8
1
  6
Continuous
100
AcDbLine
 10
200.8788519999999
 20
127.6795
 30
0.0
 11
208.878852
 21
127.6795
 31
0.0
  0
LINE
  5
BB59
330
BA93
100
AcDbEntity
  8
1
  6
Continuous
100
AcDbLine
 10
200.8788519999999
 20
128.1795
 30
0.0
 11
208.878852
 21
128.1795
 31
0.0
  0
LINE
  5
BB5A
330
BA93
100
AcDbEntity
  8
1
  6
Continuous
100
AcDbLine
 10
200.8788519999999
 20
114.3205
 30
0.0
 11
200.8788519999999
 21
113.8204999999999
 31
0.0
  0
LINE
  5
BB5B
330
BA93
100
AcDbEntity
  8
1
  6
Continuous
100
AcDbLine
 10
200.8788519999999
 20
114.3205
 30
0.0
 11
208.878852
 21
114.3205
 31
0.0
  0
LINE
  5
BB5C
330
BA93
100
AcDbEntity
  8
1
  6
Continuous
100
AcDbLine
 10
200.8788519999999
 20
113.8204999999999
 30
0.0
 11
208.878852
 21
113.8204999999999
 31
0.0
  0
LINE
  5
BB5D
330
BA93
100
AcDbEntity
  8
1
  6
Continuous
100
AcDbLine
 10
170.8788519999998
 20
125.78
 30
0.0
 11
308.878852
 21
125.78
 31
0.0
  0
LINE
  5
BB5E
330
BA93
100
AcDbEntity
  8
1
  6
Continuous
100
AcDbLine
 10
170.8788519999998
 20
124.5999999999998
 30
0.0
 11
308.878852
 21
124.5999999999998
 31
0.0
  0
LINE
  5
BB5F
330
BA93
100
AcDbEntity
  8
1
  6
Continuous
100
AcDbLine
 10
170.8788519999998
 20
117.4
 30
0.0
 11
308.878852
 21
117.4
 31
0.0
  0
LINE
  5
BB60
330
BA93
100
AcDbEntity
  8
1
  6
Continuous
100
AcDbLine
 10
170.8788519999998
 20
116.22
 30
0.0
 11
308.878852
 21
116.22
 31
0.0
  0
LINE
  5
BB61
330
BA93
100
AcDbEntity
  8
4
  6
CENTER
100
AcDbLine
 10
89.47885199999998
 20
123.3784559999999
 30
0.0
 11
89.47885199999998
 21
118.9305499999999
 31
0.0
  0
CIRCLE
  5
BB62
330
BA93
100
AcDbEntity
  8
2
  6
Continuous
100
AcDbCircle
 10
90.878852
 20
121.0
 30
0.0
 40
1.5
  0
LINE
  5
BB63
330
BA93
100
AcDbEntity
  8
4
  6
CENTER
100
AcDbLine
 10
90.878852
 20
125.2156339999999
 30
0.0
 11
90.878852
 21
116.706597
 31
0.0
  0
LINE
  5
BB64
330
BA93
100
AcDbEntity
  8
4
  6
CENTER
100
AcDbLine
 10
104.4788519999999
 20
123.76523
 30
0.0
 11
104.4788519999999
 21
118.3503889999998
 31
0.0
  0
CIRCLE
  5
BB65
330
BA93
100
AcDbEntity
  8
2
  6
Continuous
100
AcDbCircle
 10
150.8788519999999
 20
121.0
 30
0.0
 40
1.5
  0
LINE
  5
BB66
330
BA93
100
AcDbEntity
  8
4
  6
CENTER
100
AcDbLine
 10
150.8788519999999
 20
125.263981
 30
0.0
 11
150.8788519999999
 21
116.899985
 31
0.0
  0
LINE
  5
BB67
330
BA93
100
AcDbEntity
  8
4
  6
CENTER
100
AcDbLine
 10
189.4788519999999
 20
123.668537
 30
0.0
 11
189.4788519999999
 21
118.398735
 31
0.0
  0
LINE
  5
BB68
330
BA93
100
AcDbEntity
  8
4
  6
CENTER
100
AcDbLine
 10
434.4788519999998
 20
123.861924
 30
0.0
 11
434.4788519999998
 21
118.398735
 31
0.0
  0
LINE
  5
BB69
330
BA93
100
AcDbEntity
  8
1
  6
Continuous
100
AcDbLine
 10
434.1788519999998
 20
119.4
 30
0.0
 11
434.7788519999999
 21
119.4
 31
0.0
  0
LINE
  5
BB6A
330
BA93
100
AcDbEntity
  8
1
  6
Continuous
100
AcDbLine
 10
434.7788519999999
 20
122.5999999999998
 30
0.0
 11
434.1788519999998
 21
122.5999999999998
 31
0.0
  0
ARC
  5
BB6B
330
BA93
100
AcDbEntity
  8
1
  6
Continuous
100
AcDbCircle
 10
434.1788519999998
 20
121.0
 30
0.0
 40
1.6
100
AcDbArc
 50
90.0
 51
270.0
  0
ARC
  5
BB6C
330
BA93
100
AcDbEntity
  8
1
  6
Continuous
100
AcDbCircle
 10
434.7788519999999
 20
121.0
 30
0.0
 40
1.6
100
AcDbArc
 50
270.0
 51
90.0
  0
LINE
  5
BB6D
330
BA93
100
AcDbEntity
  8
4
  6
CENTER
100
AcDbLine
 10
449.4788519999998
 20
123.910271
 30
0.0
 11
449.4788519999998
 21
117.866921
 31
0.0
  0
LINE
  5
BB6E
330
BA93
100
AcDbEntity
  8
1
  6
Continuous
100
AcDbLine
 10
449.1788519999998
 20
119.4
 30
0.0
 11
449.7788519999998
 21
119.4
 31
0.0
  0
LINE
  5
BB6F
330
BA93
100
AcDbEntity
  8
1
  6
Continuous
100
AcDbLine
 10
449.7788519999998
 20
122.5999999999998
 30
0.0
 11
449.1788519999998
 21
122.5999999999998
 31
0.0
  0
ARC
  5
BB70
330
BA93
100
AcDbEntity
  8
1
  6
Continuous
100
AcDbCircle
 10
449.1788519999998
 20
121.0
 30
0.0
 40
1.6
100
AcDbArc
 50
90.0
 51
270.0
  0
ARC
  5
BB71
330
BA93
100
AcDbEntity
  8
1
  6
Continuous
100
AcDbCircle
 10
449.7788519999998
 20
121.0
 30
0.0
 40
1.6
100
AcDbArc
 50
270.0
 51
90.0
  0
ARC
  5
BB72
330
BA93
100
AcDbEntity
  8
1
  6
Continuous
100
AcDbCircle
 10
89.87885199999999
 20
127.6795
 30
0.0
 40
1.0
100
AcDbArc
 50
328.028322
 51
0.0
  0
ARC
  5
BB73
330
BA93
100
AcDbEntity
  8
1
  6
Continuous
100
AcDbCircle
 10
79.87885199999998
 20
127.6795
 30
0.0
 40
1.0
100
AcDbArc
 50
328.028322
 51
0.0
  0
ARC
  5
BB74
330
BA93
100
AcDbEntity
  8
1
  6
Continuous
100
AcDbCircle
 10
99.878852
 20
127.6795
 30
0.0
 40
1.0
100
AcDbArc
 50
328.028322
 51
0.0
  0
ARC
  5
BB75
330
BA93
100
AcDbEntity
  8
1
  6
Continuous
100
AcDbCircle
 10
109.878852
 20
127.6795
 30
0.0
 40
1.0
100
AcDbArc
 50
328.028322
 51
0.0
  0
ARC
  5
BB76
330
BA93
100
AcDbEntity
  8
1
  6
Continuous
100
AcDbCircle
 10
109.878852
 20
114.3205
 30
0.0
 40
1.0
100
AcDbArc
 50
148.028322
 51
180.0
  0
ARC
  5
BB77
330
BA93
100
AcDbEntity
  8
1
  6
Continuous
100
AcDbCircle
 10
99.878852
 20
114.3205
 30
0.0
 40
1.0
100
AcDbArc
 50
148.028322
 51
180.0
  0
ARC
  5
BB78
330
BA93
100
AcDbEntity
  8
1
  6
Continuous
100
AcDbCircle
 10
89.87885199999999
 20
114.3205
 30
0.0
 40
1.0
100
AcDbArc
 50
148.028322
 51
180.0
  0
ARC
  5
BB79
330
BA93
100
AcDbEntity
  8
1
  6
Continuous
100
AcDbCircle
 10
79.87885199999998
 20
114.3205
 30
0.0
 40
1.0
100
AcDbArc
 50
148.028322
 51
180.0
  0
ARC
  5
BB7A
330
BA93
100
AcDbEntity
  8
1
  6
Continuous
100
AcDbCircle
 10
70.078852
 20
114.7
 30
0.0
 40
1.0
100
AcDbArc
 50
36.869898
 51
90.0
  0
ARC
  5
BB7B
330
BA93
100
AcDbEntity
  8
1
  6
Continuous
100
AcDbCircle
 10
70.078852
 20
127.2999999999999
 30
0.0
 40
1.0
100
AcDbArc
 50
36.869898
 51
45.0
  0
LINE
  5
BB7C
330
BA93
100
AcDbEntity
  8
1
  6
Continuous
100
AcDbLine
 10
25.0
 20
127.081989
 30
0.0
 11
25.0
 21
114.918011
 31
0.0
  0
LINE
  5
BB7D
330
BA93
100
AcDbEntity
  8
1
  6
Continuous
100
AcDbLine
 10
33.0
 20
125.6410399999999
 30
0.0
 11
33.0
 21
116.35896
 31
0.0
  0
LINE
  5
BB7E
330
BA93
100
AcDbEntity
  8
1
  6
Continuous
100
AcDbLine
 10
26.4
 20
127.081989
 30
0.0
 11
26.4
 21
126.2999999999999
 31
0.0
  0
ARC
  5
BB7F
330
BA93
100
AcDbEntity
  8
1
  6
Continuous
100
AcDbCircle
 10
29.5
 20
128.0124999999999
 30
0.0
 40
1.587499999999999
100
AcDbArc
 50
0.343152
 51
195.7716379999999
  0
ARC
  5
BB80
330
BA93
100
AcDbEntity
  8
1
  6
Continuous
100
AcDbCircle
 10
29.5
 20
128.0124999999999
 30
0.0
 40
2.987499999999998
100
AcDbArc
 50
30.350252
 51
132.8834129999999
  0
ARC
  5
BB81
330
BA93
100
AcDbEntity
  8
1
  6
Continuous
100
AcDbCircle
 10
74.87885199999998
 20
128.0124999999999
 30
0.0
 40
1.587499999999999
100
AcDbArc
 50
327.090948
 51
347.8914909999998
  0
ARC
  5
BB82
330
BA93
100
AcDbEntity
  8
1
  6
Continuous
100
AcDbCircle
 10
74.87885199999998
 20
128.0124999999999
 30
0.0
 40
1.587499999999999
100
AcDbArc
 50
155.4270199999999
 51
173.9614919999999
  0
ARC
  5
BB83
330
BA93
100
AcDbEntity
  8
1
  6
Continuous
100
AcDbCircle
 10
74.87885199999998
 20
128.0124999999999
 30
0.0
 40
1.587499999999999
100
AcDbArc
 50
6.038508
 51
24.57297999999999
  0
ARC
  5
BB84
330
BA93
100
AcDbEntity
  8
1
  6
Continuous
100
AcDbCircle
 10
74.87885199999998
 20
128.0124999999999
 30
0.0
 40
1.587499999999999
100
AcDbArc
 50
192.1085089999999
 51
212.9090519999999
  0
ARC
  5
BB85
330
BA93
100
AcDbEntity
  8
1
  6
Continuous
100
AcDbCircle
 10
84.87885199999999
 20
128.0124999999999
 30
0.0
 40
1.587499999999999
100
AcDbArc
 50
192.1085089999999
 51
212.9090519999999
  0
ARC
  5
BB86
330
BA93
100
AcDbEntity
  8
1
  6
Continuous
100
AcDbCircle
 10
84.87885199999999
 20
128.0124999999999
 30
0.0
 40
1.587499999999999
100
AcDbArc
 50
155.4270199999999
 51
173.9614919999999
  0
ARC
  5
BB87
330
BA93
100
AcDbEntity
  8
1
  6
Continuous
100
AcDbCircle
 10
84.87885199999999
 20
128.0124999999999
 30
0.0
 40
1.587499999999999
100
AcDbArc
 50
6.038508
 51
24.57297999999999
  0
ARC
  5
BB88
330
BA93
100
AcDbEntity
  8
1
  6
Continuous
100
AcDbCircle
 10
84.87885199999999
 20
128.0124999999999
 30
0.0
 40
1.587499999999999
100
AcDbArc
 50
327.090948
 51
347.8914909999998
  0
ARC
  5
BB89
330
BA93
100
AcDbEntity
  8
1
  6
Continuous
100
AcDbCircle
 10
104.878852
 20
128.0124999999999
 30
0.0
 40
1.587499999999999
100
AcDbArc
 50
327.090948
 51
347.8914909999998
  0
ARC
  5
BB8A
330
BA93
100
AcDbEntity
  8
1
  6
Continuous
100
AcDbCircle
 10
104.878852
 20
128.0124999999999
 30
0.0
 40
1.587499999999999
100
AcDbArc
 50
6.038508
 51
24.57297999999999
  0
ARC
  5
BB8B
330
BA93
100
AcDbEntity
  8
1
  6
Continuous
100
AcDbCircle
 10
104.878852
 20
128.0124999999999
 30
0.0
 40
1.587499999999999
100
AcDbArc
 50
155.4270199999999
 51
173.9614919999999
  0
ARC
  5
BB8C
330
BA93
100
AcDbEntity
  8
1
  6
Continuous
100
AcDbCircle
 10
104.878852
 20
128.0124999999999
 30
0.0
 40
1.587499999999999
100
AcDbArc
 50
192.1085089999999
 51
212.9090519999999
  0
ARC
  5
BB8D
330
BA93
100
AcDbEntity
  8
1
  6
Continuous
100
AcDbCircle
 10
94.87885199999999
 20
128.0124999999999
 30
0.0
 40
1.587499999999999
100
AcDbArc
 50
192.1085089999999
 51
212.9090519999999
  0
ARC
  5
BB8E
330
BA93
100
AcDbEntity
  8
1
  6
Continuous
100
AcDbCircle
 10
94.87885199999999
 20
128.0124999999999
 30
0.0
 40
1.587499999999999
100
AcDbArc
 50
155.4270199999999
 51
173.9614919999999
  0
ARC
  5
BB8F
330
BA93
100
AcDbEntity
  8
1
  6
Continuous
100
AcDbCircle
 10
94.87885199999999
 20
128.0124999999999
 30
0.0
 40
1.587499999999999
100
AcDbArc
 50
6.038508
 51
24.57297999999999
  0
ARC
  5
BB90
330
BA93
100
AcDbEntity
  8
1
  6
Continuous
100
AcDbCircle
 10
94.87885199999999
 20
128.0124999999999
 30
0.0
 40
1.587499999999999
100
AcDbArc
 50
327.090948
 51
347.8914909999998
  0
ARC
  5
BB91
330
BA93
100
AcDbEntity
  8
1
  6
Continuous
100
AcDbCircle
 10
124.8788519999999
 20
128.0124999999999
 30
0.0
 40
1.587499999999999
100
AcDbArc
 50
192.1085089999999
 51
212.9090519999999
  0
ARC
  5
BB92
330
BA93
100
AcDbEntity
  8
1
  6
Continuous
100
AcDbCircle
 10
124.8788519999999
 20
128.0124999999999
 30
0.0
 40
1.587499999999999
100
AcDbArc
 50
155.4270199999999
 51
173.9614919999999
  0
ARC
  5
BB93
330
BA93
100
AcDbEntity
  8
1
  6
Continuous
100
AcDbCircle
 10
124.8788519999999
 20
128.0124999999999
 30
0.0
 40
1.587499999999999
100
AcDbArc
 50
6.038508
 51
24.57297999999999
  0
ARC
  5
BB94
330
BA93
100
AcDbEntity
  8
1
  6
Continuous
100
AcDbCircle
 10
124.8788519999999
 20
128.0124999999999
 30
0.0
 40
1.587499999999999
100
AcDbArc
 50
327.090948
 51
347.8914909999998
  0
ARC
  5
BB95
330
BA93
100
AcDbEntity
  8
1
  6
Continuous
100
AcDbCircle
 10
114.8788519999999
 20
128.0124999999999
 30
0.0
 40
1.587499999999999
100
AcDbArc
 50
327.090948
 51
347.8914909999998
  0
ARC
  5
BB96
330
BA93
100
AcDbEntity
  8
1
  6
Continuous
100
AcDbCircle
 10
114.8788519999999
 20
128.0124999999999
 30
0.0
 40
1.587499999999999
100
AcDbArc
 50
6.038508
 51
24.57297999999999
  0
ARC
  5
BB97
330
BA93
100
AcDbEntity
  8
1
  6
Continuous
100
AcDbCircle
 10
114.8788519999999
 20
128.0124999999999
 30
0.0
 40
1.587499999999999
100
AcDbArc
 50
155.4270199999999
 51
173.9614919999999
  0
ARC
  5
BB98
330
BA93
100
AcDbEntity
  8
1
  6
Continuous
100
AcDbCircle
 10
114.8788519999999
 20
128.0124999999999
 30
0.0
 40
1.587499999999999
100
AcDbArc
 50
192.1085089999999
 51
212.9090519999999
  0
ARC
  5
BB99
330
BA93
100
AcDbEntity
  8
1
  6
Continuous
100
AcDbCircle
 10
134.878852
 20
128.0124999999999
 30
0.0
 40
1.587499999999999
100
AcDbArc
 50
192.1085089999999
 51
212.9090519999999
  0
ARC
  5
BB9A
330
BA93
100
AcDbEntity
  8
1
  6
Continuous
100
AcDbCircle
 10
134.878852
 20
128.0124999999999
 30
0.0
 40
1.587499999999999
100
AcDbArc
 50
155.4270199999999
 51
173.9614919999999
  0
ARC
  5
BB9B
330
BA93
100
AcDbEntity
  8
1
  6
Continuous
100
AcDbCircle
 10
134.878852
 20
128.0124999999999
 30
0.0
 40
1.587499999999999
100
AcDbArc
 50
6.038508
 51
24.57297999999999
  0
ARC
  5
BB9C
330
BA93
100
AcDbEntity
  8
1
  6
Continuous
100
AcDbCircle
 10
134.878852
 20
128.0124999999999
 30
0.0
 40
1.587499999999999
100
AcDbArc
 50
327.090948
 51
347.8914909999998
  0
ARC
  5
BB9D
330
BA93
100
AcDbEntity
  8
1
  6
Continuous
100
AcDbCircle
 10
144.8788519999999
 20
128.0124999999999
 30
0.0
 40
1.587499999999999
100
AcDbArc
 50
192.1085089999999
 51
212.9090519999999
  0
ARC
  5
BB9E
330
BA93
100
AcDbEntity
  8
1
  6
Continuous
100
AcDbCircle
 10
144.8788519999999
 20
128.0124999999999
 30
0.0
 40
1.587499999999999
100
AcDbArc
 50
155.4270199999999
 51
173.9614919999999
  0
ARC
  5
BB9F
330
BA93
100
AcDbEntity
  8
1
  6
Continuous
100
AcDbCircle
 10
144.8788519999999
 20
128.0124999999999
 30
0.0
 40
1.587499999999999
100
AcDbArc
 50
6.038508
 51
24.57297999999999
  0
ARC
  5
BBA0
330
BA93
100
AcDbEntity
  8
1
  6
Continuous
100
AcDbCircle
 10
144.8788519999999
 20
128.0124999999999
 30
0.0
 40
1.587499999999999
100
AcDbArc
 50
327.090948
 51
347.8914909999998
  0
ARC
  5
BBA1
330
BA93
100
AcDbEntity
  8
1
  6
Continuous
100
AcDbCircle
 10
154.878852
 20
128.0124999999999
 30
0.0
 40
1.587499999999999
100
AcDbArc
 50
327.090948
 51
347.8914909999998
  0
ARC
  5
BBA2
330
BA93
100
AcDbEntity
  8
1
  6
Continuous
100
AcDbCircle
 10
154.878852
 20
128.0124999999999
 30
0.0
 40
1.587499999999999
100
AcDbArc
 50
6.038508
 51
24.57297999999999
  0
ARC
  5
BBA3
330
BA93
100
AcDbEntity
  8
1
  6
Continuous
100
AcDbCircle
 10
154.878852
 20
128.0124999999999
 30
0.0
 40
1.587499999999999
100
AcDbArc
 50
155.4270199999999
 51
173.9614919999999
  0
ARC
  5
BBA4
330
BA93
100
AcDbEntity
  8
1
  6
Continuous
100
AcDbCircle
 10
154.878852
 20
128.0124999999999
 30
0.0
 40
1.587499999999999
100
AcDbArc
 50
192.1085089999999
 51
212.9090519999999
  0
ARC
  5
BBA5
330
BA93
100
AcDbEntity
  8
1
  6
Continuous
100
AcDbCircle
 10
204.878852
 20
128.0124999999999
 30
0.0
 40
1.587499999999999
100
AcDbArc
 50
155.4270199999999
 51
173.9614919999999
  0
ARC
  5
BBA6
330
BA93
100
AcDbEntity
  8
1
  6
Continuous
100
AcDbCircle
 10
204.878852
 20
128.0124999999999
 30
0.0
 40
1.587499999999999
100
AcDbArc
 50
6.038508
 51
24.57297999999999
  0
ARC
  5
BBA7
330
BA93
100
AcDbEntity
  8
1
  6
Continuous
100
AcDbCircle
 10
204.878852
 20
128.0124999999999
 30
0.0
 40
1.587499999999999
100
AcDbArc
 50
192.1085089999999
 51
347.8914909999998
  0
ARC
  5
BBA8
330
BA93
100
AcDbEntity
  8
1
  6
Continuous
100
AcDbCircle
 10
194.8788519999999
 20
128.0124999999999
 30
0.0
 40
1.587499999999999
100
AcDbArc
 50
192.1085089999999
 51
347.8914909999998
  0
ARC
  5
BBA9
330
BA93
100
AcDbEntity
  8
1
  6
Continuous
100
AcDbCircle
 10
194.8788519999999
 20
128.0124999999999
 30
0.0
 40
1.587499999999999
100
AcDbArc
 50
6.038508
 51
24.57297999999999
  0
ARC
  5
BBAA
330
BA93
100
AcDbEntity
  8
1
  6
Continuous
100
AcDbCircle
 10
194.8788519999999
 20
128.0124999999999
 30
0.0
 40
1.587499999999999
100
AcDbArc
 50
155.4270199999999
 51
173.9614919999999
  0
ARC
  5
BBAB
330
BA93
100
AcDbEntity
  8
1
  6
Continuous
100
AcDbCircle
 10
184.878852
 20
128.0124999999999
 30
0.0
 40
1.587499999999999
100
AcDbArc
 50
192.1085089999999
 51
347.8914909999998
  0
ARC
  5
BBAC
330
BA93
100
AcDbEntity
  8
1
  6
Continuous
100
AcDbCircle
 10
184.878852
 20
128.0124999999999
 30
0.0
 40
1.587499999999999
100
AcDbArc
 50
6.038508
 51
24.57297999999999
  0
ARC
  5
BBAD
330
BA93
100
AcDbEntity
  8
1
  6
Continuous
100
AcDbCircle
 10
184.878852
 20
128.0124999999999
 30
0.0
 40
1.587499999999999
100
AcDbArc
 50
155.4270199999999
 51
173.9614919999999
  0
ARC
  5
BBAE
330
BA93
100
AcDbEntity
  8
1
  6
Continuous
100
AcDbCircle
 10
174.8788519999999
 20
128.0124999999999
 30
0.0
 40
1.587499999999999
100
AcDbArc
 50
192.1085089999999
 51
347.8914909999998
  0
ARC
  5
BBAF
330
BA93
100
AcDbEntity
  8
1
  6
Continuous
100
AcDbCircle
 10
174.8788519999999
 20
128.0124999999999
 30
0.0
 40
1.587499999999999
100
AcDbArc
 50
6.038508
 51
24.57297999999999
  0
ARC
  5
BBB0
330
BA93
100
AcDbEntity
  8
1
  6
Continuous
100
AcDbCircle
 10
174.8788519999999
 20
128.0124999999999
 30
0.0
 40
1.587499999999999
100
AcDbArc
 50
155.4270199999999
 51
173.9614919999999
  0
ARC
  5
BBB1
330
BA93
100
AcDbEntity
  8
1
  6
Continuous
100
AcDbCircle
 10
164.878852
 20
128.0124999999999
 30
0.0
 40
1.587499999999999
100
AcDbArc
 50
192.1085089999999
 51
212.9090519999999
  0
ARC
  5
BBB2
330
BA93
100
AcDbEntity
  8
1
  6
Continuous
100
AcDbCircle
 10
164.878852
 20
128.0124999999999
 30
0.0
 40
1.587499999999999
100
AcDbArc
 50
155.4270199999999
 51
173.9614919999999
  0
ARC
  5
BBB3
330
BA93
100
AcDbEntity
  8
1
  6
Continuous
100
AcDbCircle
 10
164.878852
 20
128.0124999999999
 30
0.0
 40
1.587499999999999
100
AcDbArc
 50
6.038508
 51
24.57297999999999
  0
ARC
  5
BBB4
330
BA93
100
AcDbEntity
  8
1
  6
Continuous
100
AcDbCircle
 10
164.878852
 20
128.0124999999999
 30
0.0
 40
1.587499999999999
100
AcDbArc
 50
327.090948
 51
347.8914909999998
  0
ARC
  5
BBB5
330
BA93
100
AcDbEntity
  8
1
  6
Continuous
100
AcDbCircle
 10
204.878852
 20
113.9874999999999
 30
0.0
 40
1.587499999999999
100
AcDbArc
 50
12.108509
 51
167.891491
  0
ARC
  5
BBB6
330
BA93
100
AcDbEntity
  8
1
  6
Continuous
100
AcDbCircle
 10
194.8788519999999
 20
113.9874999999999
 30
0.0
 40
1.587499999999999
100
AcDbArc
 50
12.108509
 51
167.891491
  0
ARC
  5
BBB7
330
BA93
100
AcDbEntity
  8
1
  6
Continuous
100
AcDbCircle
 10
184.878852
 20
113.9874999999999
 30
0.0
 40
1.587499999999999
100
AcDbArc
 50
12.108509
 51
167.891491
  0
ARC
  5
BBB8
330
BA93
100
AcDbEntity
  8
1
  6
Continuous
100
AcDbCircle
 10
174.8788519999999
 20
113.9874999999999
 30
0.0
 40
1.587499999999999
100
AcDbArc
 50
12.108509
 51
167.891491
  0
ARC
  5
BBB9
330
BA93
100
AcDbEntity
  8
1
  6
Continuous
100
AcDbCircle
 10
164.878852
 20
113.9874999999999
 30
0.0
 40
1.587499999999999
100
AcDbArc
 50
12.108509
 51
32.909052
  0
ARC
  5
BBBA
330
BA93
100
AcDbEntity
  8
1
  6
Continuous
100
AcDbCircle
 10
164.878852
 20
113.9874999999999
 30
0.0
 40
1.587499999999999
100
AcDbArc
 50
186.038508
 51
204.57298
  0
ARC
  5
BBBB
330
BA93
100
AcDbEntity
  8
1
  6
Continuous
100
AcDbCircle
 10
164.878852
 20
113.9874999999999
 30
0.0
 40
1.587499999999999
100
AcDbArc
 50
147.0909479999999
 51
167.891491
  0
ARC
  5
BBBC
330
BA93
100
AcDbEntity
  8
1
  6
Continuous
100
AcDbCircle
 10
164.878852
 20
113.9874999999999
 30
0.0
 40
1.587499999999999
100
AcDbArc
 50
335.4270200000001
 51
353.9614919999999
  0
ARC
  5
BBBD
330
BA93
100
AcDbEntity
  8
1
  6
Continuous
100
AcDbCircle
 10
174.8788519999999
 20
113.9874999999999
 30
0.0
 40
1.587499999999999
100
AcDbArc
 50
186.038508
 51
204.57298
  0
ARC
  5
BBBE
330
BA93
100
AcDbEntity
  8
1
  6
Continuous
100
AcDbCircle
 10
174.8788519999999
 20
113.9874999999999
 30
0.0
 40
1.587499999999999
100
AcDbArc
 50
335.4270200000001
 51
353.9614919999999
  0
ARC
  5
BBBF
330
BA93
100
AcDbEntity
  8
1
  6
Continuous
100
AcDbCircle
 10
184.878852
 20
113.9874999999999
 30
0.0
 40
1.587499999999999
100
AcDbArc
 50
186.038508
 51
204.57298
  0
ARC
  5
BBC0
330
BA93
100
AcDbEntity
  8
1
  6
Continuous
100
AcDbCircle
 10
184.878852
 20
113.9874999999999
 30
0.0
 40
1.587499999999999
100
AcDbArc
 50
335.4270200000001
 51
353.9614919999999
  0
ARC
  5
BBC1
330
BA93
100
AcDbEntity
  8
1
  6
Continuous
100
AcDbCircle
 10
194.8788519999999
 20
113.9874999999999
 30
0.0
 40
1.587499999999999
100
AcDbArc
 50
186.038508
 51
204.57298
  0
ARC
  5
BBC2
330
BA93
100
AcDbEntity
  8
1
  6
Continuous
100
AcDbCircle
 10
194.8788519999999
 20
113.9874999999999
 30
0.0
 40
1.587499999999999
100
AcDbArc
 50
335.4270200000001
 51
353.9614919999999
  0
ARC
  5
BBC3
330
BA93
100
AcDbEntity
  8
1
  6
Continuous
100
AcDbCircle
 10
204.878852
 20
113.9874999999999
 30
0.0
 40
1.587499999999999
100
AcDbArc
 50
335.4270200000001
 51
353.9614919999999
  0
ARC
  5
BBC4
330
BA93
100
AcDbEntity
  8
1
  6
Continuous
100
AcDbCircle
 10
204.878852
 20
113.9874999999999
 30
0.0
 40
1.587499999999999
100
AcDbArc
 50
186.038508
 51
204.57298
  0
ARC
  5
BBC5
330
BA93
100
AcDbEntity
  8
1
  6
Continuous
100
AcDbCircle
 10
159.878852
 20
127.6795
 30
0.0
 40
1.0
100
AcDbArc
 50
328.028322
 51
0.0
  0
ARC
  5
BBC6
330
BA93
100
AcDbEntity
  8
1
  6
Continuous
100
AcDbCircle
 10
159.878852
 20
114.3205
 30
0.0
 40
1.0
100
AcDbArc
 50
148.028322
 51
180.0
  0
ARC
  5
BBC7
330
BA93
100
AcDbEntity
  8
1
  6
Continuous
100
AcDbCircle
 10
149.8788519999999
 20
127.6795
 30
0.0
 40
1.0
100
AcDbArc
 50
328.028322
 51
0.0
  0
ARC
  5
BBC8
330
BA93
100
AcDbEntity
  8
1
  6
Continuous
100
AcDbCircle
 10
139.8788519999999
 20
127.6795
 30
0.0
 40
1.0
100
AcDbArc
 50
328.028322
 51
0.0
  0
ARC
  5
BBC9
330
BA93
100
AcDbEntity
  8
1
  6
Continuous
100
AcDbCircle
 10
129.878852
 20
127.6795
 30
0.0
 40
1.0
100
AcDbArc
 50
328.028322
 51
0.0
  0
ARC
  5
BBCA
330
BA93
100
AcDbEntity
  8
1
  6
Continuous
100
AcDbCircle
 10
119.8788519999999
 20
127.6795
 30
0.0
 40
1.0
100
AcDbArc
 50
328.028322
 51
0.0
  0
ARC
  5
BBCB
330
BA93
100
AcDbEntity
  8
1
  6
Continuous
100
AcDbCircle
 10
119.8788519999999
 20
114.3205
 30
0.0
 40
1.0
100
AcDbArc
 50
148.028322
 51
180.0
  0
ARC
  5
BBCC
330
BA93
100
AcDbEntity
  8
1
  6
Continuous
100
AcDbCircle
 10
129.878852
 20
114.3205
 30
0.0
 40
1.0
100
AcDbArc
 50
148.028322
 51
180.0
  0
ARC
  5
BBCD
330
BA93
100
AcDbEntity
  8
1
  6
Continuous
100
AcDbCircle
 10
139.8788519999999
 20
114.3205
 30
0.0
 40
1.0
100
AcDbArc
 50
148.028322
 51
180.0
  0
ARC
  5
BBCE
330
BA93
100
AcDbEntity
  8
1
  6
Continuous
100
AcDbCircle
 10
149.8788519999999
 20
114.3205
 30
0.0
 40
1.0
100
AcDbArc
 50
148.028322
 51
180.0
  0
ARC
  5
BBCF
330
BA93
100
AcDbEntity
  8
1
  6
Continuous
100
AcDbCircle
 10
154.878852
 20
113.9874999999999
 30
0.0
 40
1.587499999999999
100
AcDbArc
 50
147.0909479999999
 51
167.891491
  0
ARC
  5
BBD0
330
BA93
100
AcDbEntity
  8
1
  6
Continuous
100
AcDbCircle
 10
154.878852
 20
113.9874999999999
 30
0.0
 40
1.587499999999999
100
AcDbArc
 50
186.038508
 51
204.57298
  0
ARC
  5
BBD1
330
BA93
100
AcDbEntity
  8
1
  6
Continuous
100
AcDbCircle
 10
154.878852
 20
113.9874999999999
 30
0.0
 40
1.587499999999999
100
AcDbArc
 50
335.4270200000001
 51
353.9614919999999
  0
ARC
  5
BBD2
330
BA93
100
AcDbEntity
  8
1
  6
Continuous
100
AcDbCircle
 10
154.878852
 20
113.9874999999999
 30
0.0
 40
1.587499999999999
100
AcDbArc
 50
12.108509
 51
32.909052
  0
ARC
  5
BBD3
330
BA93
100
AcDbEntity
  8
1
  6
Continuous
100
AcDbCircle
 10
144.8788519999999
 20
113.9874999999999
 30
0.0
 40
1.587499999999999
100
AcDbArc
 50
12.108509
 51
32.909052
  0
ARC
  5
BBD4
330
BA93
100
AcDbEntity
  8
1
  6
Continuous
100
AcDbCircle
 10
144.8788519999999
 20
113.9874999999999
 30
0.0
 40
1.587499999999999
100
AcDbArc
 50
335.4270200000001
 51
353.9614919999999
  0
ARC
  5
BBD5
330
BA93
100
AcDbEntity
  8
1
  6
Continuous
100
AcDbCircle
 10
144.8788519999999
 20
113.9874999999999
 30
0.0
 40
1.587499999999999
100
AcDbArc
 50
186.038508
 51
204.57298
  0
ARC
  5
BBD6
330
BA93
100
AcDbEntity
  8
1
  6
Continuous
100
AcDbCircle
 10
144.8788519999999
 20
113.9874999999999
 30
0.0
 40
1.587499999999999
100
AcDbArc
 50
147.0909479999999
 51
167.891491
  0
ARC
  5
BBD7
330
BA93
100
AcDbEntity
  8
1
  6
Continuous
100
AcDbCircle
 10
134.878852
 20
113.9874999999999
 30
0.0
 40
1.587499999999999
100
AcDbArc
 50
12.108509
 51
32.909052
  0
ARC
  5
BBD8
330
BA93
100
AcDbEntity
  8
1
  6
Continuous
100
AcDbCircle
 10
134.878852
 20
113.9874999999999
 30
0.0
 40
1.587499999999999
100
AcDbArc
 50
335.4270200000001
 51
353.9614919999999
  0
ARC
  5
BBD9
330
BA93
100
AcDbEntity
  8
1
  6
Continuous
100
AcDbCircle
 10
134.878852
 20
113.9874999999999
 30
0.0
 40
1.587499999999999
100
AcDbArc
 50
186.038508
 51
204.57298
  0
ARC
  5
BBDA
330
BA93
100
AcDbEntity
  8
1
  6
Continuous
100
AcDbCircle
 10
134.878852
 20
113.9874999999999
 30
0.0
 40
1.587499999999999
100
AcDbArc
 50
147.0909479999999
 51
167.891491
  0
ARC
  5
BBDB
330
BA93
100
AcDbEntity
  8
1
  6
Continuous
100
AcDbCircle
 10
124.8788519999999
 20
113.9874999999999
 30
0.0
 40
1.587499999999999
100
AcDbArc
 50
12.108509
 51
32.909052
  0
ARC
  5
BBDC
330
BA93
100
AcDbEntity
  8
1
  6
Continuous
100
AcDbCircle
 10
124.8788519999999
 20
113.9874999999999
 30
0.0
 40
1.587499999999999
100
AcDbArc
 50
335.4270200000001
 51
353.9614919999999
  0
ARC
  5
BBDD
330
BA93
100
AcDbEntity
  8
1
  6
Continuous
100
AcDbCircle
 10
124.8788519999999
 20
113.9874999999999
 30
0.0
 40
1.587499999999999
100
AcDbArc
 50
186.038508
 51
204.57298
  0
ARC
  5
BBDE
330
BA93
100
AcDbEntity
  8
1
  6
Continuous
100
AcDbCircle
 10
124.8788519999999
 20
113.9874999999999
 30
0.0
 40
1.587499999999999
100
AcDbArc
 50
147.0909479999999
 51
167.891491
  0
ARC
  5
BBDF
330
BA93
100
AcDbEntity
  8
1
  6
Continuous
100
AcDbCircle
 10
114.8788519999999
 20
113.9874999999999
 30
0.0
 40
1.587499999999999
100
AcDbArc
 50
147.0909479999999
 51
167.891491
  0
ARC
  5
BBE0
330
BA93
100
AcDbEntity
  8
1
  6
Continuous
100
AcDbCircle
 10
114.8788519999999
 20
113.9874999999999
 30
0.0
 40
1.587499999999999
100
AcDbArc
 50
186.038508
 51
204.57298
  0
ARC
  5
BBE1
330
BA93
100
AcDbEntity
  8
1
  6
Continuous
100
AcDbCircle
 10
114.8788519999999
 20
113.9874999999999
 30
0.0
 40
1.587499999999999
100
AcDbArc
 50
335.4270200000001
 51
353.9614919999999
  0
ARC
  5
BBE2
330
BA93
100
AcDbEntity
  8
1
  6
Continuous
100
AcDbCircle
 10
114.8788519999999
 20
113.9874999999999
 30
0.0
 40
1.587499999999999
100
AcDbArc
 50
12.108509
 51
32.909052
  0
ARC
  5
BBE3
330
BA93
100
AcDbEntity
  8
1
  6
Continuous
100
AcDbCircle
 10
74.87885199999998
 20
113.9874999999999
 30
0.0
 40
1.587499999999999
100
AcDbArc
 50
147.0909479999999
 51
167.891491
  0
ARC
  5
BBE4
330
BA93
100
AcDbEntity
  8
1
  6
Continuous
100
AcDbCircle
 10
74.87885199999998
 20
113.9874999999999
 30
0.0
 40
1.587499999999999
100
AcDbArc
 50
186.038508
 51
204.57298
  0
ARC
  5
BBE5
330
BA93
100
AcDbEntity
  8
1
  6
Continuous
100
AcDbCircle
 10
74.87885199999998
 20
113.9874999999999
 30
0.0
 40
1.587499999999999
100
AcDbArc
 50
335.4270200000001
 51
353.9614919999999
  0
ARC
  5
BBE6
330
BA93
100
AcDbEntity
  8
1
  6
Continuous
100
AcDbCircle
 10
74.87885199999998
 20
113.9874999999999
 30
0.0
 40
1.587499999999999
100
AcDbArc
 50
12.108509
 51
32.909052
  0
ARC
  5
BBE7
330
BA93
100
AcDbEntity
  8
1
  6
Continuous
100
AcDbCircle
 10
84.87885199999999
 20
113.9874999999999
 30
0.0
 40
1.587499999999999
100
AcDbArc
 50
12.108509
 51
32.909052
  0
ARC
  5
BBE8
330
BA93
100
AcDbEntity
  8
1
  6
Continuous
100
AcDbCircle
 10
84.87885199999999
 20
113.9874999999999
 30
0.0
 40
1.587499999999999
100
AcDbArc
 50
335.4270200000001
 51
353.9614919999999
  0
ARC
  5
BBE9
330
BA93
100
AcDbEntity
  8
1
  6
Continuous
100
AcDbCircle
 10
84.87885199999999
 20
113.9874999999999
 30
0.0
 40
1.587499999999999
100
AcDbArc
 50
186.038508
 51
204.57298
  0
ARC
  5
BBEA
330
BA93
100
AcDbEntity
  8
1
  6
Continuous
100
AcDbCircle
 10
84.87885199999999
 20
113.9874999999999
 30
0.0
 40
1.587499999999999
100
AcDbArc
 50
147.0909479999999
 51
167.891491
  0
ARC
  5
BBEB
330
BA93
100
AcDbEntity
  8
1
  6
Continuous
100
AcDbCircle
 10
94.87885199999999
 20
113.9874999999999
 30
0.0
 40
1.587499999999999
100
AcDbArc
 50
12.108509
 51
32.909052
  0
ARC
  5
BBEC
330
BA93
100
AcDbEntity
  8
1
  6
Continuous
100
AcDbCircle
 10
94.87885199999999
 20
113.9874999999999
 30
0.0
 40
1.587499999999999
100
AcDbArc
 50
335.4270200000001
 51
353.9614919999999
  0
ARC
  5
BBED
330
BA93
100
AcDbEntity
  8
1
  6
Continuous
100
AcDbCircle
 10
94.87885199999999
 20
113.9874999999999
 30
0.0
 40
1.587499999999999
100
AcDbArc
 50
186.038508
 51
204.57298
  0
ARC
  5
BBEE
330
BA93
100
AcDbEntity
  8
1
  6
Continuous
100
AcDbCircle
 10
94.87885199999999
 20
113.9874999999999
 30
0.0
 40
1.587499999999999
100
AcDbArc
 50
147.0909479999999
 51
167.891491
  0
ARC
  5
BBEF
330
BA93
100
AcDbEntity
  8
1
  6
Continuous
100
AcDbCircle
 10
104.878852
 20
113.9874999999999
 30
0.0
 40
1.587499999999999
100
AcDbArc
 50
147.0909479999999
 51
167.891491
  0
ARC
  5
BBF0
330
BA93
100
AcDbEntity
  8
1
  6
Continuous
100
AcDbCircle
 10
104.878852
 20
113.9874999999999
 30
0.0
 40
1.587499999999999
100
AcDbArc
 50
186.038508
 51
204.57298
  0
ARC
  5
BBF1
330
BA93
100
AcDbEntity
  8
1
  6
Continuous
100
AcDbCircle
 10
104.878852
 20
113.9874999999999
 30
0.0
 40
1.587499999999999
100
AcDbArc
 50
335.4270200000001
 51
353.9614919999999
  0
ARC
  5
BBF2
330
BA93
100
AcDbEntity
  8
1
  6
Continuous
100
AcDbCircle
 10
104.878852
 20
113.9874999999999
 30
0.0
 40
1.587499999999999
100
AcDbArc
 50
12.108509
 51
32.909052
  0
LINE
  5
BBF3
330
BA93
100
AcDbEntity
  8
1
  6
Continuous
100
AcDbLine
 10
26.559746
 20
127.448359
 30
0.0
 11
28.41969199999999
 21
129.175725
 31
0.0
  0
LINE
  5
BBF4
330
BA93
100
AcDbEntity
  8
1
  6
Continuous
100
AcDbLine
 10
25.607033
 20
128.474195
 30
0.0
 11
27.46698
 21
130.2015609999999
 31
0.0
  0
ARC
  5
BBF5
330
BA93
100
AcDbEntity
  8
1
  6
Continuous
100
AcDbCircle
 10
26.89999999999999
 20
127.081989
 30
0.0
 40
0.5
100
AcDbArc
 50
132.8834129999999
 51
180.0
  0
ARC
  5
BBF6
330
BA93
100
AcDbEntity
  8
1
  6
Continuous
100
AcDbCircle
 10
26.89999999999999
 20
127.081989
 30
0.0
 40
1.9
100
AcDbArc
 50
132.8834129999999
 51
180.0
  0
LINE
  5
BBF7
330
BA93
100
AcDbEntity
  8
4
  6
CENTER
100
AcDbLine
 10
20.0
 20
121.0
 30
0.0
 11
38.0
 21
121.0
 31
0.0
  0
ARC
  5
BBF8
330
BA93
100
AcDbEntity
  8
1
  6
Continuous
100
AcDbCircle
 10
31.49104
 20
125.6410399999999
 30
0.0
 40
1.50896
100
AcDbArc
 50
0.0
 51
130.0162919999999
  0
LINE
  5
BBF9
330
BA93
100
AcDbEntity
  8
1
  6
Continuous
100
AcDbLine
 10
30.943724
 20
128.672665
 30
0.0
 11
32.078071
 21
129.5220379999999
 31
0.0
  0
LINE
  5
BBFA
330
BA93
100
AcDbEntity
  8
1
  6
Continuous
100
AcDbLine
 10
27.73607199999998
 20
126.2999999999999
 30
0.0
 11
28.36098699999999
 21
126.906695
 31
0.0
  0
LINE
  5
BBFB
330
BA93
100
AcDbEntity
  8
1
  6
Continuous
100
AcDbLine
 10
30.943724
 20
113.327335
 30
0.0
 11
32.078071
 21
112.4779619999999
 31
0.0
  0
ARC
  5
BBFC
330
BA93
100
AcDbEntity
  8
1
  6
Continuous
100
AcDbCircle
 10
31.49104
 20
116.35896
 30
0.0
 40
1.50896
100
AcDbArc
 50
229.983708
 51
0.0
  0
ARC
  5
BBFD
330
BA93
100
AcDbEntity
  8
1
  6
Continuous
100
AcDbCircle
 10
29.5
 20
113.9874999999999
 30
0.0
 40
2.987499999999998
100
AcDbArc
 50
227.116587
 51
329.6497479999998
  0
LINE
  5
BBFE
330
BA93
100
AcDbEntity
  8
1
  6
Continuous
100
AcDbLine
 10
27.73607199999998
 20
115.7
 30
0.0
 11
28.36098699999999
 21
115.093305
 31
0.0
  0
ARC
  5
BBFF
330
BA93
100
AcDbEntity
  8
1
  6
Continuous
100
AcDbCircle
 10
26.89999999999999
 20
114.918011
 30
0.0
 40
1.9
100
AcDbArc
 50
180.0
 51
227.116587
  0
ARC
  5
BC00
330
BA93
100
AcDbEntity
  8
1
  6
Continuous
100
AcDbCircle
 10
26.89999999999999
 20
114.918011
 30
0.0
 40
0.5
100
AcDbArc
 50
180.0
 51
227.116587
  0
LINE
  5
BC01
330
BA93
100
AcDbEntity
  8
1
  6
Continuous
100
AcDbLine
 10
25.607033
 20
113.525805
 30
0.0
 11
27.46698
 21
111.7984389999999
 31
0.0
  0
LINE
  5
BC02
330
BA93
100
AcDbEntity
  8
1
  6
Continuous
100
AcDbLine
 10
26.559746
 20
114.5516409999999
 30
0.0
 11
28.41969199999999
 21
112.824275
 31
0.0
  0
ARC
  5
BC03
330
BA93
100
AcDbEntity
  8
1
  6
Continuous
100
AcDbCircle
 10
29.5
 20
113.9874999999999
 30
0.0
 40
1.587499999999999
100
AcDbArc
 50
18.435313
 51
145.449896
  0
LINE
  5
BC04
330
BA93
100
AcDbEntity
  8
1
  6
Continuous
100
AcDbLine
 10
26.89999999999999
 20
126.9950149999999
 30
0.0
 11
26.89999999999999
 21
126.2999999999999
 31
0.0
  0
LINE
  5
BC05
330
BA93
100
AcDbEntity
  8
1
  6
Continuous
100
AcDbLine
 10
27.4
 20
127.0
 30
0.0
 11
27.4
 21
126.2999999999999
 31
0.0
  0
LINE
  5
BC06
330
BA93
100
AcDbEntity
  8
1
  6
Continuous
100
AcDbLine
 10
32.20000000000001
 20
128.1795
 30
0.0
 11
32.20000000000001
 21
127.6795
 31
0.0
  0
LINE
  5
BC07
330
BA93
100
AcDbEntity
  8
1
  6
Continuous
100
AcDbLine
 10
27.4
 20
127.0
 30
0.0
 11
32.20000000000001
 21
127.6795
 31
0.0
  0
LINE
  5
BC08
330
BA93
100
AcDbEntity
  8
1
  6
Continuous
100
AcDbLine
 10
27.32991699999999
 20
127.490079
 30
0.0
 11
32.20000000000001
 21
128.1795
 31
0.0
  0
ARC
  5
BC09
330
BA93
100
AcDbEntity
  8
1
  6
Continuous
100
AcDbCircle
 10
27.4
 20
126.9950149999999
 30
0.0
 40
0.5
100
AcDbArc
 50
98.05739500000001
 51
180.0
  0
ARC
  5
BC0A
330
BA93
100
AcDbEntity
  8
1
  6
Continuous
100
AcDbCircle
 10
29.5
 20
128.0124999999999
 30
0.0
 40
1.587499999999999
100
AcDbArc
 50
214.550104
 51
341.5646869999999
  0
LINE
  5
BC0B
330
BA93
100
AcDbEntity
  8
1
  6
Continuous
100
AcDbLine
 10
27.32991699999999
 20
114.5099209999999
 30
0.0
 11
32.20000000000001
 21
113.8204999999999
 31
0.0
  0
LINE
  5
BC0C
330
BA93
100
AcDbEntity
  8
1
  6
Continuous
100
AcDbLine
 10
27.4
 20
115.0
 30
0.0
 11
32.20000000000001
 21
114.3205
 31
0.0
  0
LINE
  5
BC0D
330
BA93
100
AcDbEntity
  8
1
  6
Continuous
100
AcDbLine
 10
32.20000000000001
 20
113.8204999999999
 30
0.0
 11
32.20000000000001
 21
114.3205
 31
0.0
  0
LINE
  5
BC0E
330
BA93
100
AcDbEntity
  8
1
  6
Continuous
100
AcDbLine
 10
27.4
 20
115.0
 30
0.0
 11
27.4
 21
115.7
 31
0.0
  0
ARC
  5
BC0F
330
BA93
100
AcDbEntity
  8
1
  6
Continuous
100
AcDbCircle
 10
27.4
 20
115.004985
 30
0.0
 40
0.5
100
AcDbArc
 50
180.0
 51
261.9426049999999
  0
LINE
  5
BC10
330
BA93
100
AcDbEntity
  8
1
  6
Continuous
100
AcDbLine
 10
26.89999999999999
 20
115.004985
 30
0.0
 11
26.89999999999999
 21
115.7
 31
0.0
  0
ARC
  5
BC11
330
BA93
100
AcDbEntity
  8
1
  6
Continuous
100
AcDbCircle
 10
29.5
 20
113.9874999999999
 30
0.0
 40
1.587499999999999
100
AcDbArc
 50
164.228362
 51
359.656848
  0
LINE
  5
BC12
330
BA93
100
AcDbEntity
  8
1
  6
Continuous
100
AcDbLine
 10
69.478852
 20
201.0
 30
0.0
 11
69.478852
 21
193.921929
 31
0.0
  0
LINE
  5
BC13
330
BA93
100
AcDbEntity
  8
1
  6
Continuous
100
AcDbLine
 10
469.4788519999998
 20
201.0
 30
0.0
 11
469.4788519999998
 21
193.921929
 31
0.0
  0
LINE
  5
BC14
330
BA93
100
AcDbEntity
  8
1
  6
Continuous
100
AcDbLine
 10
469.4788519999998
 20
201.0
 30
0.0
 11
69.478852
 21
201.0
 31
0.0
  0
LINE
  5
BC15
330
BA93
100
AcDbEntity
  8
1
  6
Continuous
100
AcDbLine
 10
170.8788519999998
 20
193.0
 30
0.0
 11
70.87885199999998
 21
193.0
 31
0.0
  0
LINE
  5
BC16
330
BA93
100
AcDbEntity
  8
1
  6
Continuous
100
AcDbLine
 10
69.478852
 20
193.921929
 30
0.0
 11
469.4788519999998
 21
193.921929
 31
0.0
  0
LINE
  5
BC17
330
BA93
100
AcDbEntity
  8
1
  6
Continuous
100
AcDbLine
 10
170.8788519999998
 20
193.0
 30
0.0
 11
170.8788519999998
 21
193.921929
 31
0.0
  0
LINE
  5
BC18
330
BA93
100
AcDbEntity
  8
4
  6
CENTER
100
AcDbLine
 10
90.878852
 20
196.421929
 30
0.0
 11
90.878852
 21
190.5
 31
0.0
  0
LINE
  5
BC19
330
BA93
100
AcDbEntity
  8
4
  6
CENTER
100
AcDbLine
 10
150.8788519999999
 20
196.421929
 30
0.0
 11
150.8788519999999
 21
190.5
 31
0.0
  0
LINE
  5
BC1A
330
BA93
100
AcDbEntity
  8
4
  6
CENTER
100
AcDbLine
 10
449.4788519999998
 20
203.5
 30
0.0
 11
449.4788519999998
 21
198.5
 31
0.0
  0
LINE
  5
BC1B
330
BA93
100
AcDbEntity
  8
4
  6
CENTER
100
AcDbLine
 10
434.4788519999998
 20
203.5
 30
0.0
 11
434.4788519999998
 21
198.5
 31
0.0
  0
LINE
  5
BC1C
330
BA93
100
AcDbEntity
  8
4
  6
CENTER
100
AcDbLine
 10
189.4788519999999
 20
203.5
 30
0.0
 11
189.4788519999999
 21
198.5
 31
0.0
  0
LINE
  5
BC1D
330
BA93
100
AcDbEntity
  8
4
  6
CENTER
100
AcDbLine
 10
104.4788519999999
 20
203.5
 30
0.0
 11
104.4788519999999
 21
198.5
 31
0.0
  0
LINE
  5
BC1E
330
BA93
100
AcDbEntity
  8
4
  6
CENTER
100
AcDbLine
 10
89.47885199999998
 20
203.5
 30
0.0
 11
89.47885199999998
 21
198.5
 31
0.0
  0
LINE
  5
BC1F
330
BA93
100
AcDbEntity
  8
3
  6
DASHED
100
AcDbLine
 10
170.8788519999998
 20
198.5
 30
0.0
 11
70.87885199999998
 21
198.5
 31
0.0
  0
LINE
  5
BC20
330
BA93
100
AcDbEntity
  8
3
  6
DASHED
100
AcDbLine
 10
170.8788519999998
 20
193.921929
 30
0.0
 11
170.8788519999998
 21
198.5
 31
0.0
  0
LINE
  5
BC21
330
BA93
100
AcDbEntity
  8
3
  6
DASHED
100
AcDbLine
 10
70.87885199999998
 20
198.5
 30
0.0
 11
70.87885199999998
 21
193.921929
 31
0.0
  0
LINE
  5
BC22
330
BA93
100
AcDbEntity
  8
4
  6
CENTER
100
AcDbLine
 10
64.478852
 20
273.0
 30
0.0
 11
474.4788519999998
 21
273.0
 31
0.0
  0
LINE
  5
BC23
330
BA93
100
AcDbEntity
  8
1
  6
Continuous
100
AcDbLine
 10
69.478852
 20
283.0
 30
0.0
 11
469.4788519999998
 21
283.0
 31
0.0
  0
LINE
  5
BC24
330
BA93
100
AcDbEntity
  8
1
  6
Continuous
100
AcDbLine
 10
469.4788519999998
 20
263.0
 30
0.0
 11
69.478852
 21
263.0
 31
0.0
  0
LINE
  5
BC25
330
BA93
100
AcDbEntity
  8
1
  6
Continuous
100
AcDbLine
 10
70.87885199999998
 20
279.1499999999999
 30
0.0
 11
71.06753799999999
 21
279.1499999999999
 31
0.0
  0
LINE
  5
BC26
330
BA93
100
AcDbEntity
  8
3
  6
DASHED
100
AcDbLine
 10
170.8788519999998
 20
266.85
 30
0.0
 11
71.06753799999999
 21
266.85
 31
0.0
  0
LINE
  5
BC27
330
BA93
100
AcDbEntity
  8
3
  6
DASHED
100
AcDbLine
 10
70.87885199999998
 20
267.3
 30
0.0
 11
70.87885199999998
 21
278.6999999999998
 31
0.0
  0
LINE
  5
BC28
330
BA93
100
AcDbEntity
  8
1
  6
Continuous
100
AcDbLine
 10
69.478852
 20
281.728427
 30
0.0
 11
69.478852
 21
283.0
 31
0.0
  0
ARC
  5
BC29
330
BA93
100
AcDbEntity
  8
1
  6
Continuous
100
AcDbCircle
 10
70.478852
 20
281.728427
 30
0.0
 40
1.0
100
AcDbArc
 50
180.0
 51
225.0
  0
LINE
  5
BC2A
330
BA93
100
AcDbEntity
  8
1
  6
Continuous
100
AcDbLine
 10
70.78595899999998
 20
280.0071069999999
 30
0.0
 11
69.771745
 21
281.02132
 31
0.0
  0
ARC
  5
BC2B
330
BA93
100
AcDbEntity
  8
1
  6
Continuous
100
AcDbCircle
 10
70.078852
 20
279.3
 30
0.0
 40
1.0
100
AcDbArc
 50
270.0
 51
45.0
  0
LINE
  5
BC2C
330
BA93
100
AcDbEntity
  8
1
  6
Continuous
100
AcDbLine
 10
70.078852
 20
267.7
 30
0.0
 11
69.478852
 21
267.7
 31
0.0
  0
LINE
  5
BC2D
330
BA93
100
AcDbEntity
  8
1
  6
Continuous
100
AcDbLine
 10
69.478852
 20
278.3
 30
0.0
 11
70.078852
 21
278.3
 31
0.0
  0
LINE
  5
BC2E
330
BA93
100
AcDbEntity
  8
1
  6
Continuous
100
AcDbLine
 10
69.478852
 20
267.7
 30
0.0
 11
69.478852
 21
278.3
 31
0.0
  0
LINE
  5
BC2F
330
BA93
100
AcDbEntity
  8
4
  6
CENTER
100
AcDbLine
 10
90.878852
 20
268.7843659999999
 30
0.0
 11
90.878852
 21
277.2934029999999
 31
0.0
  0
CIRCLE
  5
BC30
330
BA93
100
AcDbEntity
  8
1
  6
Continuous
100
AcDbCircle
 10
89.47885199999998
 20
273.0
 30
0.0
 40
1.6
  0
LINE
  5
BC31
330
BA93
100
AcDbEntity
  8
4
  6
CENTER
100
AcDbLine
 10
89.47885199999998
 20
270.6215439999999
 30
0.0
 11
89.47885199999998
 21
275.06945
 31
0.0
  0
ARC
  5
BC32
330
BA93
100
AcDbEntity
  8
1
  6
Continuous
100
AcDbCircle
 10
70.078852
 20
266.6999999999998
 30
0.0
 40
1.0
100
AcDbArc
 50
315.0
 51
90.0
  0
LINE
  5
BC33
330
BA93
100
AcDbEntity
  8
1
  6
Continuous
100
AcDbLine
 10
69.771745
 20
264.97868
 30
0.0
 11
70.78595899999998
 21
265.9928929999999
 31
0.0
  0
ARC
  5
BC34
330
BA93
100
AcDbEntity
  8
1
  6
Continuous
100
AcDbCircle
 10
70.478852
 20
264.2715729999998
 30
0.0
 40
1.0
100
AcDbArc
 50
135.0
 51
180.0
  0
LINE
  5
BC35
330
BA93
100
AcDbEntity
  8
1
  6
Continuous
100
AcDbLine
 10
69.478852
 20
263.0
 30
0.0
 11
69.478852
 21
264.2715729999998
 31
0.0
  0
ARC
  5
BC36
330
BA93
100
AcDbEntity
  8
1
  6
Continuous
100
AcDbCircle
 10
104.778852
 20
273.0
 30
0.0
 40
1.6
100
AcDbArc
 50
270.0
 51
90.0
  0
ARC
  5
BC37
330
BA93
100
AcDbEntity
  8
1
  6
Continuous
100
AcDbCircle
 10
104.178852
 20
273.0
 30
0.0
 40
1.6
100
AcDbArc
 50
90.0
 51
270.0
  0
LINE
  5
BC38
330
BA93
100
AcDbEntity
  8
1
  6
Continuous
100
AcDbLine
 10
104.778852
 20
271.3999999999999
 30
0.0
 11
104.178852
 21
271.3999999999999
 31
0.0
  0
LINE
  5
BC39
330
BA93
100
AcDbEntity
  8
1
  6
Continuous
100
AcDbLine
 10
104.178852
 20
274.6
 30
0.0
 11
104.778852
 21
274.6
 31
0.0
  0
LINE
  5
BC3A
330
BA93
100
AcDbEntity
  8
4
  6
CENTER
100
AcDbLine
 10
104.4788519999999
 20
270.23477
 30
0.0
 11
104.4788519999999
 21
275.649611
 31
0.0
  0
LINE
  5
BC3B
330
BA93
100
AcDbEntity
  8
4
  6
CENTER
100
AcDbLine
 10
150.8788519999999
 20
268.736019
 30
0.0
 11
150.8788519999999
 21
277.1000149999999
 31
0.0
  0
ARC
  5
BC3C
330
BA93
100
AcDbEntity
  8
1
  6
Continuous
100
AcDbCircle
 10
189.7788519999998
 20
273.0
 30
0.0
 40
1.6
100
AcDbArc
 50
270.0
 51
90.0
  0
LINE
  5
BC3D
330
BA93
100
AcDbEntity
  8
3
  6
DASHED
100
AcDbLine
 10
170.8788519999998
 20
279.1499999999999
 30
0.0
 11
170.8788519999998
 21
266.85
 31
0.0
  0
ARC
  5
BC3E
330
BA93
100
AcDbEntity
  8
1
  6
Continuous
100
AcDbCircle
 10
189.178852
 20
273.0
 30
0.0
 40
1.6
100
AcDbArc
 50
90.0
 51
270.0
  0
LINE
  5
BC3F
330
BA93
100
AcDbEntity
  8
1
  6
Continuous
100
AcDbLine
 10
189.7788519999998
 20
271.3999999999999
 30
0.0
 11
189.178852
 21
271.3999999999999
 31
0.0
  0
LINE
  5
BC40
330
BA93
100
AcDbEntity
  8
1
  6
Continuous
100
AcDbLine
 10
189.178852
 20
274.6
 30
0.0
 11
189.7788519999998
 21
274.6
 31
0.0
  0
LINE
  5
BC41
330
BA93
100
AcDbEntity
  8
4
  6
CENTER
100
AcDbLine
 10
189.4788519999999
 20
270.3314629999999
 30
0.0
 11
189.4788519999999
 21
275.601265
 31
0.0
  0
ARC
  5
BC42
330
BA93
100
AcDbEntity
  8
1
  6
Continuous
100
AcDbCircle
 10
434.7788519999999
 20
273.0
 30
0.0
 40
1.6
100
AcDbArc
 50
270.0
 51
90.0
  0
ARC
  5
BC43
330
BA93
100
AcDbEntity
  8
1
  6
Continuous
100
AcDbCircle
 10
434.1788519999998
 20
273.0
 30
0.0
 40
1.6
100
AcDbArc
 50
90.0
 51
270.0
  0
LINE
  5
BC44
330
BA93
100
AcDbEntity
  8
1
  6
Continuous
100
AcDbLine
 10
434.7788519999999
 20
271.3999999999999
 30
0.0
 11
434.1788519999998
 21
271.3999999999999
 31
0.0
  0
LINE
  5
BC45
330
BA93
100
AcDbEntity
  8
1
  6
Continuous
100
AcDbLine
 10
434.1788519999998
 20
274.6
 30
0.0
 11
434.7788519999999
 21
274.6
 31
0.0
  0
LINE
  5
BC46
330
BA93
100
AcDbEntity
  8
4
  6
CENTER
100
AcDbLine
 10
434.4788519999998
 20
270.1380759999998
 30
0.0
 11
434.4788519999998
 21
275.601265
 31
0.0
  0
ARC
  5
BC47
330
BA93
100
AcDbEntity
  8
1
  6
Continuous
100
AcDbCircle
 10
449.7788519999998
 20
273.0
 30
0.0
 40
1.6
100
AcDbArc
 50
270.0
 51
90.0
  0
ARC
  5
BC48
330
BA93
100
AcDbEntity
  8
1
  6
Continuous
100
AcDbCircle
 10
449.1788519999998
 20
273.0
 30
0.0
 40
1.6
100
AcDbArc
 50
90.0
 51
270.0
  0
LINE
  5
BC49
330
BA93
100
AcDbEntity
  8
1
  6
Continuous
100
AcDbLine
 10
449.7788519999998
 20
271.3999999999999
 30
0.0
 11
449.1788519999998
 21
271.3999999999999
 31
0.0
  0
LINE
  5
BC4A
330
BA93
100
AcDbEntity
  8
1
  6
Continuous
100
AcDbLine
 10
449.1788519999998
 20
274.6
 30
0.0
 11
449.7788519999998
 21
274.6
 31
0.0
  0
LINE
  5
BC4B
330
BA93
100
AcDbEntity
  8
4
  6
CENTER
100
AcDbLine
 10
449.4788519999998
 20
270.0897289999999
 30
0.0
 11
449.4788519999998
 21
276.133079
 31
0.0
  0
ARC
  5
BC4C
330
BA93
100
AcDbEntity
  8
1
  6
Continuous
100
AcDbCircle
 10
468.8788519999998
 20
266.6999999999998
 30
0.0
 40
1.0
100
AcDbArc
 50
90.0
 51
225.0
  0
LINE
  5
BC4D
330
BA93
100
AcDbEntity
  8
1
  6
Continuous
100
AcDbLine
 10
469.4788519999998
 20
267.7
 30
0.0
 11
469.4788519999998
 21
278.3
 31
0.0
  0
LINE
  5
BC4E
330
BA93
100
AcDbEntity
  8
1
  6
Continuous
100
AcDbLine
 10
468.8788519999998
 20
267.7
 30
0.0
 11
469.4788519999998
 21
267.7
 31
0.0
  0
LINE
  5
BC4F
330
BA93
100
AcDbEntity
  8
1
  6
Continuous
100
AcDbLine
 10
469.4788519999998
 20
278.3
 30
0.0
 11
468.8788519999998
 21
278.3
 31
0.0
  0
ARC
  5
BC50
330
BA93
100
AcDbEntity
  8
1
  6
Continuous
100
AcDbCircle
 10
468.8788519999998
 20
279.3
 30
0.0
 40
1.0
100
AcDbArc
 50
135.0
 51
270.0
  0
LINE
  5
BC51
330
BA93
100
AcDbEntity
  8
1
  6
Continuous
100
AcDbLine
 10
469.1859589999999
 20
281.02132
 30
0.0
 11
468.1717449999998
 21
280.0071069999999
 31
0.0
  0
ARC
  5
BC52
330
BA93
100
AcDbEntity
  8
1
  6
Continuous
100
AcDbCircle
 10
468.4788519999998
 20
281.728427
 30
0.0
 40
1.0
100
AcDbArc
 50
315.0
 51
0.0
  0
LINE
  5
BC53
330
BA93
100
AcDbEntity
  8
1
  6
Continuous
100
AcDbLine
 10
469.4788519999998
 20
283.0
 30
0.0
 11
469.4788519999998
 21
281.728427
 31
0.0
  0
LINE
  5
BC54
330
BA93
100
AcDbEntity
  8
1
  6
Continuous
100
AcDbLine
 10
469.4788519999998
 20
264.2715729999998
 30
0.0
 11
469.4788519999998
 21
263.0
 31
0.0
  0
ARC
  5
BC55
330
BA93
100
AcDbEntity
  8
1
  6
Continuous
100
AcDbCircle
 10
468.4788519999998
 20
264.2715729999998
 30
0.0
 40
1.0
100
AcDbArc
 50
0.0
 51
45.0
  0
LINE
  5
BC56
330
BA93
100
AcDbEntity
  8
1
  6
Continuous
100
AcDbLine
 10
468.1717449999998
 20
265.9928929999999
 30
0.0
 11
469.1859589999999
 21
264.97868
 31
0.0
  0
LINE
  5
BC57
330
BA93
100
AcDbEntity
  8
1
  6
Continuous
100
AcDbLine
 10
70.87885199999998
 20
278.6999999999998
 30
0.0
 11
70.87885199999998
 21
279.8999999999999
 31
0.0
  0
LINE
  5
BC58
330
BA93
100
AcDbEntity
  8
3
  6
DASHED
100
AcDbLine
 10
71.06753799999999
 20
279.1499999999999
 30
0.0
 11
170.8788519999998
 21
279.1499999999999
 31
0.0
  0
LINE
  5
BC59
330
BA93
100
AcDbEntity
  8
1
  6
Continuous
100
AcDbLine
 10
70.87885199999998
 20
267.3
 30
0.0
 11
70.87885199999998
 21
266.1
 31
0.0
  0
LINE
  5
BC5A
330
BA93
100
AcDbEntity
  8
1
  6
Continuous
100
AcDbLine
 10
70.87885199999998
 20
266.85
 30
0.0
 11
71.06753799999999
 21
266.85
 31
0.0
  0
LINE
  5
BC5B
330
BA93
100
AcDbEntity
  8
1
  6
Continuous
100
AcDbLine
 10
208.878852
 20
193.921929
 30
0.0
 11
208.878852
 21
193.8
 31
0.0
  0
LINE
  5
BC5C
330
BA93
100
AcDbEntity
  8
1
  6
Continuous
100
AcDbLine
 10
208.878852
 20
193.8
 30
0.0
 11
200.8788519999999
 21
193.8
 31
0.0
  0
LINE
  5
BC5D
330
BA93
100
AcDbEntity
  8
1
  6
Continuous
100
AcDbLine
 10
200.8788519999999
 20
193.8
 30
0.0
 11
200.8788519999999
 21
193.921929
 31
0.0
  0
LINE
  5
BC5E
330
BA93
100
AcDbEntity
  8
1
  6
Continuous
100
AcDbLine
 10
198.8788519999999
 20
193.8
 30
0.0
 11
190.8788519999999
 21
193.8
 31
0.0
  0
LINE
  5
BC5F
330
BA93
100
AcDbEntity
  8
1
  6
Continuous
100
AcDbLine
 10
198.8788519999999
 20
193.921929
 30
0.0
 11
198.8788519999999
 21
193.8
 31
0.0
  0
LINE
  5
BC60
330
BA93
100
AcDbEntity
  8
1
  6
Continuous
100
AcDbLine
 10
190.8788519999999
 20
193.8
 30
0.0
 11
190.8788519999999
 21
193.921929
 31
0.0
  0
LINE
  5
BC61
330
BA93
100
AcDbEntity
  8
1
  6
Continuous
100
AcDbLine
 10
180.878852
 20
193.8
 30
0.0
 11
180.878852
 21
193.921929
 31
0.0
  0
LINE
  5
BC62
330
BA93
100
AcDbEntity
  8
1
  6
Continuous
100
AcDbLine
 10
188.878852
 20
193.921929
 30
0.0
 11
188.878852
 21
193.8
 31
0.0
  0
LINE
  5
BC63
330
BA93
100
AcDbEntity
  8
1
  6
Continuous
100
AcDbLine
 10
188.878852
 20
193.8
 30
0.0
 11
180.878852
 21
193.8
 31
0.0
  0
LINE
  5
BC64
330
BA93
100
AcDbEntity
  8
1
  6
Continuous
100
AcDbLine
 10
178.8788519999999
 20
193.8
 30
0.0
 11
170.8788519999998
 21
193.8
 31
0.0
  0
LINE
  5
BC65
330
BA93
100
AcDbEntity
  8
1
  6
Continuous
100
AcDbLine
 10
178.8788519999999
 20
193.921929
 30
0.0
 11
178.8788519999999
 21
193.8
 31
0.0
  0
LINE
  5
BC66
330
BA93
100
AcDbEntity
  8
1
  6
Continuous
100
AcDbLine
 10
168.8788519999999
 20
193.921929
 30
0.0
 11
168.8788519999999
 21
193.8
 31
0.0
  0
LINE
  5
BC67
330
BA93
100
AcDbEntity
  8
1
  6
Continuous
100
AcDbLine
 10
160.878852
 20
193.8
 30
0.0
 11
160.878852
 21
193.921929
 31
0.0
  0
LINE
  5
BC68
330
BA93
100
AcDbEntity
  8
1
  6
Continuous
100
AcDbLine
 10
168.8788519999999
 20
193.8
 30
0.0
 11
160.878852
 21
193.8
 31
0.0
  0
LINE
  5
BC69
330
BA93
100
AcDbEntity
  8
1
  6
Continuous
100
AcDbLine
 10
158.878852
 20
193.8
 30
0.0
 11
150.8788519999999
 21
193.8
 31
0.0
  0
LINE
  5
BC6A
330
BA93
100
AcDbEntity
  8
1
  6
Continuous
100
AcDbLine
 10
150.8788519999999
 20
193.8
 30
0.0
 11
150.8788519999999
 21
193.921929
 31
0.0
  0
LINE
  5
BC6B
330
BA93
100
AcDbEntity
  8
1
  6
Continuous
100
AcDbLine
 10
158.878852
 20
193.921929
 30
0.0
 11
158.878852
 21
193.8
 31
0.0
  0
LINE
  5
BC6C
330
BA93
100
AcDbEntity
  8
1
  6
Continuous
100
AcDbLine
 10
148.8788519999999
 20
193.8
 30
0.0
 11
140.8788519999999
 21
193.8
 31
0.0
  0
LINE
  5
BC6D
330
BA93
100
AcDbEntity
  8
1
  6
Continuous
100
AcDbLine
 10
140.8788519999999
 20
193.8
 30
0.0
 11
140.8788519999999
 21
193.921929
 31
0.0
  0
LINE
  5
BC6E
330
BA93
100
AcDbEntity
  8
1
  6
Continuous
100
AcDbLine
 10
148.8788519999999
 20
193.921929
 30
0.0
 11
148.8788519999999
 21
193.8
 31
0.0
  0
LINE
  5
BC6F
330
BA93
100
AcDbEntity
  8
1
  6
Continuous
100
AcDbLine
 10
138.878852
 20
193.921929
 30
0.0
 11
138.878852
 21
193.8
 31
0.0
  0
LINE
  5
BC70
330
BA93
100
AcDbEntity
  8
1
  6
Continuous
100
AcDbLine
 10
130.878852
 20
193.8
 30
0.0
 11
130.878852
 21
193.921929
 31
0.0
  0
LINE
  5
BC71
330
BA93
100
AcDbEntity
  8
1
  6
Continuous
100
AcDbLine
 10
138.878852
 20
193.8
 30
0.0
 11
130.878852
 21
193.8
 31
0.0
  0
LINE
  5
BC72
330
BA93
100
AcDbEntity
  8
1
  6
Continuous
100
AcDbLine
 10
128.8788519999999
 20
193.8
 30
0.0
 11
120.8788519999999
 21
193.8
 31
0.0
  0
LINE
  5
BC73
330
BA93
100
AcDbEntity
  8
1
  6
Continuous
100
AcDbLine
 10
120.8788519999999
 20
193.8
 30
0.0
 11
120.8788519999999
 21
193.921929
 31
0.0
  0
LINE
  5
BC74
330
BA93
100
AcDbEntity
  8
1
  6
Continuous
100
AcDbLine
 10
128.8788519999999
 20
193.921929
 30
0.0
 11
128.8788519999999
 21
193.8
 31
0.0
  0
LINE
  5
BC75
330
BA93
100
AcDbEntity
  8
1
  6
Continuous
100
AcDbLine
 10
118.8788519999999
 20
193.921929
 30
0.0
 11
118.8788519999999
 21
193.8
 31
0.0
  0
LINE
  5
BC76
330
BA93
100
AcDbEntity
  8
1
  6
Continuous
100
AcDbLine
 10
110.878852
 20
193.8
 30
0.0
 11
110.878852
 21
193.921929
 31
0.0
  0
LINE
  5
BC77
330
BA93
100
AcDbEntity
  8
1
  6
Continuous
100
AcDbLine
 10
118.8788519999999
 20
193.8
 30
0.0
 11
110.878852
 21
193.8
 31
0.0
  0
LINE
  5
BC78
330
BA93
100
AcDbEntity
  8
1
  6
Continuous
100
AcDbLine
 10
108.878852
 20
193.8
 30
0.0
 11
100.8788519999999
 21
193.8
 31
0.0
  0
LINE
  5
BC79
330
BA93
100
AcDbEntity
  8
1
  6
Continuous
100
AcDbLine
 10
100.8788519999999
 20
193.8
 30
0.0
 11
100.8788519999999
 21
193.921929
 31
0.0
  0
LINE
  5
BC7A
330
BA93
100
AcDbEntity
  8
1
  6
Continuous
100
AcDbLine
 10
108.878852
 20
193.921929
 30
0.0
 11
108.878852
 21
193.8
 31
0.0
  0
LINE
  5
BC7B
330
BA93
100
AcDbEntity
  8
1
  6
Continuous
100
AcDbLine
 10
98.87885199999999
 20
193.8
 30
0.0
 11
90.878852
 21
193.8
 31
0.0
  0
LINE
  5
BC7C
330
BA93
100
AcDbEntity
  8
1
  6
Continuous
100
AcDbLine
 10
90.878852
 20
193.8
 30
0.0
 11
90.878852
 21
193.921929
 31
0.0
  0
LINE
  5
BC7D
330
BA93
100
AcDbEntity
  8
1
  6
Continuous
100
AcDbLine
 10
98.87885199999999
 20
193.921929
 30
0.0
 11
98.87885199999999
 21
193.8
 31
0.0
  0
LINE
  5
BC7E
330
BA93
100
AcDbEntity
  8
1
  6
Continuous
100
AcDbLine
 10
88.87885199999997
 20
193.921929
 30
0.0
 11
88.87885199999997
 21
193.8
 31
0.0
  0
LINE
  5
BC7F
330
BA93
100
AcDbEntity
  8
1
  6
Continuous
100
AcDbLine
 10
80.87885199999998
 20
193.8
 30
0.0
 11
80.87885199999998
 21
193.921929
 31
0.0
  0
LINE
  5
BC80
330
BA93
100
AcDbEntity
  8
1
  6
Continuous
100
AcDbLine
 10
88.87885199999997
 20
193.8
 30
0.0
 11
80.87885199999998
 21
193.8
 31
0.0
  0
LINE
  5
BC81
330
BA93
100
AcDbEntity
  8
1
  6
Continuous
100
AcDbLine
 10
78.87885199999998
 20
193.8
 30
0.0
 11
70.87885199999998
 21
193.8
 31
0.0
  0
LINE
  5
BC82
330
BA93
100
AcDbEntity
  8
1
  6
Continuous
100
AcDbLine
 10
70.87885199999998
 20
193.0
 30
0.0
 11
70.87885199999998
 21
193.921929
 31
0.0
  0
LINE
  5
BC83
330
BA93
100
AcDbEntity
  8
1
  6
Continuous
100
AcDbLine
 10
78.87885199999998
 20
193.921929
 30
0.0
 11
78.87885199999998
 21
193.8
 31
0.0
  0
LINE
  5
BC84
330
BA93
100
AcDbEntity
  8
1
  6
Continuous
100
AcDbLine
 10
25.5
 20
115.7
 30
0.0
 11
31.0
 21
115.7
 31
0.0
  0
LINE
  5
BC85
330
BA93
100
AcDbEntity
  8
1
  6
Continuous
100
AcDbLine
 10
31.0
 20
126.2999999999999
 30
0.0
 11
25.5
 21
126.2999999999999
 31
0.0
  0
LINE
  5
BC86
330
BA93
100
AcDbEntity
  8
1
  6
Continuous
100
AcDbLine
 10
32.0
 20
125.2999999999999
 30
0.0
 11
32.0
 21
116.7
 31
0.0
  0
ARC
  5
BC87
330
BA93
100
AcDbEntity
  8
1
  6
Continuous
100
AcDbCircle
 10
31.0
 20
125.2999999999999
 30
0.0
 40
1.0
100
AcDbArc
 50
0.0
 51
90.0
  0
ARC
  5
BC88
330
BA93
100
AcDbEntity
  8
1
  6
Continuous
100
AcDbCircle
 10
31.0
 20
116.7
 30
0.0
 40
1.0
100
AcDbArc
 50
270.0
 51
0.0
  0
LINE
  5
BC89
330
BA93
100
AcDbEntity
  8
1
  6
Continuous
100
AcDbLine
 10
26.4
 20
115.7
 30
0.0
 11
26.4
 21
114.918011
 31
0.0
  0
ARC
  5
BC8A
330
BA93
100
AcDbEntity
  8
1
  6
Continuous
100
AcDbCircle
 10
25.5
 20
126.8
 30
0.0
 40
0.5
100
AcDbArc
 50
180.0
 51
270.0
  0
ARC
  5
BC8B
330
BA93
100
AcDbEntity
  8
1
  6
Continuous
100
AcDbCircle
 10
25.5
 20
115.2
 30
0.0
 40
0.5
100
AcDbArc
 50
90.0
 51
180.0
  0
ARC
  5
BC8C
330
BA93
100
AcDbEntity
  8
1
  6
Continuous
100
AcDbCircle
 10
507.957703
 20
116.7
 30
0.0
 40
1.0
100
AcDbArc
 50
180.0
 51
270.0
  0
ARC
  5
BC8D
330
BA93
100
AcDbEntity
  8
1
  6
Continuous
100
AcDbCircle
 10
507.957703
 20
125.2999999999999
 30
0.0
 40
1.0
100
AcDbArc
 50
90.0
 51
180.0
  0
LINE
  5
BC8E
330
BA93
100
AcDbEntity
  8
1
  6
Continuous
100
AcDbLine
 10
511.5577029999998
 20
115.0
 30
0.0
 11
506.7577029999998
 21
114.3205
 31
0.0
  0
LINE
  5
BC8F
330
BA93
100
AcDbEntity
  8
1
  6
Continuous
100
AcDbLine
 10
511.627786
 20
114.5099209999999
 30
0.0
 11
506.7577029999998
 21
113.8204999999999
 31
0.0
  0
LINE
  5
BC90
330
BA93
100
AcDbEntity
  8
1
  6
Continuous
100
AcDbLine
 10
511.627786
 20
127.490079
 30
0.0
 11
506.7577029999998
 21
128.1795
 31
0.0
  0
LINE
  5
BC91
330
BA93
100
AcDbEntity
  8
1
  6
Continuous
100
AcDbLine
 10
511.5577029999998
 20
127.0
 30
0.0
 11
506.7577029999998
 21
127.6795
 31
0.0
  0
ARC
  5
BC92
330
BA93
100
AcDbEntity
  8
1
  6
Continuous
100
AcDbCircle
 10
509.4577029999999
 20
113.9874999999999
 30
0.0
 40
2.987499999999998
100
AcDbArc
 50
210.350252
 51
312.8834129999999
  0
ARC
  5
BC93
330
BA93
100
AcDbEntity
  8
1
  6
Continuous
100
AcDbCircle
 10
507.466663
 20
116.35896
 30
0.0
 40
1.50896
100
AcDbArc
 50
180.0
 51
310.0162919999998
  0
LINE
  5
BC94
330
BA93
100
AcDbEntity
  8
1
  6
Continuous
100
AcDbLine
 10
508.013979
 20
113.327335
 30
0.0
 11
506.879632
 21
112.4779619999999
 31
0.0
  0
LINE
  5
BC95
330
BA93
100
AcDbEntity
  8
1
  6
Continuous
100
AcDbLine
 10
508.013979
 20
128.672665
 30
0.0
 11
506.879632
 21
129.5220379999999
 31
0.0
  0
ARC
  5
BC96
330
BA93
100
AcDbEntity
  8
1
  6
Continuous
100
AcDbCircle
 10
507.466663
 20
125.6410399999999
 30
0.0
 40
1.50896
100
AcDbArc
 50
49.983708
 51
180.0
  0
LINE
  5
BC97
330
BA93
100
AcDbEntity
  8
4
  6
CENTER
100
AcDbLine
 10
518.957703
 20
121.0
 30
0.0
 11
500.9577029999999
 21
121.0
 31
0.0
  0
ARC
  5
BC98
330
BA93
100
AcDbEntity
  8
1
  6
Continuous
100
AcDbCircle
 10
509.4577029999999
 20
128.0124999999999
 30
0.0
 40
2.987499999999998
100
AcDbArc
 50
47.116587
 51
149.6497479999999
  0
LINE
  5
BC99
330
BA93
100
AcDbEntity
  8
1
  6
Continuous
100
AcDbLine
 10
513.957703
 20
127.081989
 30
0.0
 11
513.957703
 21
114.918011
 31
0.0
  0
ARC
  5
BC9A
330
BA93
100
AcDbEntity
  8
1
  6
Continuous
100
AcDbCircle
 10
513.457703
 20
115.2
 30
0.0
 40
0.5
100
AcDbArc
 50
0.0
 51
90.0
  0
LINE
  5
BC9B
330
BA93
100
AcDbEntity
  8
1
  6
Continuous
100
AcDbLine
 10
513.457703
 20
115.7
 30
0.0
 11
507.957703
 21
115.7
 31
0.0
  0
ARC
  5
BC9C
330
BA93
100
AcDbEntity
  8
1
  6
Continuous
100
AcDbCircle
 10
513.457703
 20
126.8
 30
0.0
 40
0.5
100
AcDbArc
 50
270.0
 51
0.0
  0
LINE
  5
BC9D
330
BA93
100
AcDbEntity
  8
1
  6
Continuous
100
AcDbLine
 10
507.957703
 20
126.2999999999999
 30
0.0
 11
513.457703
 21
126.2999999999999
 31
0.0
  0
LINE
  5
BC9E
330
BA93
100
AcDbEntity
  8
1
  6
Continuous
100
AcDbLine
 10
512.5577029999998
 20
115.7
 30
0.0
 11
512.5577029999998
 21
114.918011
 31
0.0
  0
LINE
  5
BC9F
330
BA93
100
AcDbEntity
  8
1
  6
Continuous
100
AcDbLine
 10
512.5577029999998
 20
127.081989
 30
0.0
 11
512.5577029999998
 21
126.2999999999999
 31
0.0
  0
LINE
  5
BCA0
330
BA93
100
AcDbEntity
  8
1
  6
Continuous
100
AcDbLine
 10
511.2216309999998
 20
115.7
 30
0.0
 11
510.596717
 21
115.093305
 31
0.0
  0
LINE
  5
BCA1
330
BA93
100
AcDbEntity
  8
1
  6
Continuous
100
AcDbLine
 10
512.0577029999998
 20
115.004985
 30
0.0
 11
512.0577029999998
 21
115.7
 31
0.0
  0
LINE
  5
BCA2
330
BA93
100
AcDbEntity
  8
1
  6
Continuous
100
AcDbLine
 10
511.5577029999998
 20
115.0
 30
0.0
 11
511.5577029999998
 21
115.7
 31
0.0
  0
LINE
  5
BCA3
330
BA93
100
AcDbEntity
  8
1
  6
Continuous
100
AcDbLine
 10
512.0577029999998
 20
126.9950149999999
 30
0.0
 11
512.0577029999998
 21
126.2999999999999
 31
0.0
  0
LINE
  5
BCA4
330
BA93
100
AcDbEntity
  8
1
  6
Continuous
100
AcDbLine
 10
511.5577029999998
 20
127.0
 30
0.0
 11
511.5577029999998
 21
126.2999999999999
 31
0.0
  0
LINE
  5
BCA5
330
BA93
100
AcDbEntity
  8
1
  6
Continuous
100
AcDbLine
 10
511.2216309999998
 20
126.2999999999999
 30
0.0
 11
510.596717
 21
126.906695
 31
0.0
  0
ARC
  5
BCA6
330
BA93
100
AcDbEntity
  8
1
  6
Continuous
100
AcDbCircle
 10
509.4577029999999
 20
113.9874999999999
 30
0.0
 40
1.587499999999999
100
AcDbArc
 50
180.343152
 51
15.771638
  0
ARC
  5
BCA7
330
BA93
100
AcDbEntity
  8
1
  6
Continuous
100
AcDbCircle
 10
511.5577029999998
 20
115.004985
 30
0.0
 40
0.5
100
AcDbArc
 50
278.0573949999999
 51
0.0
  0
ARC
  5
BCA8
330
BA93
100
AcDbEntity
  8
1
  6
Continuous
100
AcDbCircle
 10
509.4577029999999
 20
128.0124999999999
 30
0.0
 40
1.587499999999999
100
AcDbArc
 50
198.4353129999999
 51
325.449896
  0
ARC
  5
BCA9
330
BA93
100
AcDbEntity
  8
1
  6
Continuous
100
AcDbCircle
 10
511.5577029999998
 20
126.9950149999999
 30
0.0
 40
0.5
100
AcDbArc
 50
0.0
 51
81.942605
  0
ARC
  5
BCAA
330
BA93
100
AcDbEntity
  8
1
  6
Continuous
100
AcDbCircle
 10
509.4577029999999
 20
113.9874999999999
 30
0.0
 40
1.587499999999999
100
AcDbArc
 50
34.55010399999999
 51
161.5646869999999
  0
LINE
  5
BCAB
330
BA93
100
AcDbEntity
  8
1
  6
Continuous
100
AcDbLine
 10
512.397958
 20
114.5516409999999
 30
0.0
 11
510.5380109999998
 21
112.824275
 31
0.0
  0
LINE
  5
BCAC
330
BA93
100
AcDbEntity
  8
1
  6
Continuous
100
AcDbLine
 10
513.35067
 20
113.525805
 30
0.0
 11
511.490723
 21
111.7984389999999
 31
0.0
  0
ARC
  5
BCAD
330
BA93
100
AcDbEntity
  8
1
  6
Continuous
100
AcDbCircle
 10
512.0577029999998
 20
114.918011
 30
0.0
 40
0.5
100
AcDbArc
 50
312.8834129999999
 51
0.0
  0
ARC
  5
BCAE
330
BA93
100
AcDbEntity
  8
1
  6
Continuous
100
AcDbCircle
 10
512.0577029999998
 20
114.918011
 30
0.0
 40
1.9
100
AcDbArc
 50
312.8834129999999
 51
0.0
  0
ARC
  5
BCAF
330
BA93
100
AcDbEntity
  8
1
  6
Continuous
100
AcDbCircle
 10
512.0577029999998
 20
127.081989
 30
0.0
 40
1.9
100
AcDbArc
 50
0.0
 51
47.116587
  0
ARC
  5
BCB0
330
BA93
100
AcDbEntity
  8
1
  6
Continuous
100
AcDbCircle
 10
512.0577029999998
 20
127.081989
 30
0.0
 40
0.5
100
AcDbArc
 50
0.0
 51
47.116587
  0
LINE
  5
BCB1
330
BA93
100
AcDbEntity
  8
1
  6
Continuous
100
AcDbLine
 10
513.35067
 20
128.474195
 30
0.0
 11
511.490723
 21
130.2015609999999
 31
0.0
  0
LINE
  5
BCB2
330
BA93
100
AcDbEntity
  8
1
  6
Continuous
100
AcDbLine
 10
512.397958
 20
127.448359
 30
0.0
 11
510.5380109999998
 21
129.175725
 31
0.0
  0
ARC
  5
BCB3
330
BA93
100
AcDbEntity
  8
1
  6
Continuous
100
AcDbCircle
 10
509.4577029999999
 20
128.0124999999999
 30
0.0
 40
1.587499999999999
100
AcDbArc
 50
344.2283619999998
 51
179.6568479999999
  0
LINE
  5
BCB4
330
BA93
100
AcDbEntity
  8
1
  6
Continuous
100
AcDbLine
 10
506.9577029999998
 20
125.2999999999999
 30
0.0
 11
506.9577029999998
 21
116.7
 31
0.0
  0
LINE
  5
BCB5
330
BA93
100
AcDbEntity
  8
1
  6
Continuous
100
AcDbLine
 10
506.7577029999998
 20
113.8204999999999
 30
0.0
 11
506.7577029999998
 21
114.3205
 31
0.0
  0
LINE
  5
BCB6
330
BA93
100
AcDbEntity
  8
1
  6
Continuous
100
AcDbLine
 10
506.7577029999998
 20
128.1795
 30
0.0
 11
506.7577029999998
 21
127.6795
 31
0.0
  0
LINE
  5
BCB7
330
BA93
100
AcDbEntity
  8
1
  6
Continuous
100
AcDbLine
 10
505.9577029999998
 20
125.6410399999999
 30
0.0
 11
505.9577029999998
 21
116.35896
 31
0.0
  0
LINE
  5
BCB8
330
BA93
100
AcDbEntity
  8
4
  6
CENTER
100
AcDbLine
 10
448.0788519999999
 20
125.263981
 30
0.0
 11
448.0788519999999
 21
116.899985
 31
0.0
  0
CIRCLE
  5
BCB9
330
BA93
100
AcDbEntity
  8
1
  6
Continuous
100
AcDbCircle
 10
90.878852
 20
121.0
 30
0.0
 40
1.2295
  0
CIRCLE
  5
BCBA
330
BA93
100
AcDbEntity
  8
1
  6
Continuous
100
AcDbCircle
 10
150.8788519999999
 20
121.0
 30
0.0
 40
1.2295
  0
LINE
  5
BCBB
330
BA93
100
AcDbEntity
  8
4
  6
CENTER
100
AcDbLine
 10
349.478852
 20
203.5
 30
0.0
 11
349.478852
 21
198.5
 31
0.0
  0
ARC
  5
BCBC
330
BA93
100
AcDbEntity
  8
1
  6
Continuous
100
AcDbCircle
 10
349.7788519999998
 20
273.0
 30
0.0
 40
1.6
100
AcDbArc
 50
270.0
 51
90.0
  0
ARC
  5
BCBD
330
BA93
100
AcDbEntity
  8
1
  6
Continuous
100
AcDbCircle
 10
349.178852
 20
273.0
 30
0.0
 40
1.6
100
AcDbArc
 50
90.0
 51
270.0
  0
LINE
  5
BCBE
330
BA93
100
AcDbEntity
  8
1
  6
Continuous
100
AcDbLine
 10
349.7788519999998
 20
271.3999999999999
 30
0.0
 11
349.178852
 21
271.3999999999999
 31
0.0
  0
LINE
  5
BCBF
330
BA93
100
AcDbEntity
  8
1
  6
Continuous
100
AcDbLine
 10
349.178852
 20
274.6
 30
0.0
 11
349.7788519999998
 21
274.6
 31
0.0
  0
LINE
  5
BCC0
330
BA93
100
AcDbEntity
  8
4
  6
CENTER
100
AcDbLine
 10
349.478852
 20
270.0897289999999
 30
0.0
 11
349.478852
 21
276.133079
 31
0.0
  0
LINE
  5
BCC1
330
BA93
100
AcDbEntity
  8
4
  6
CENTER
100
AcDbLine
 10
349.478852
 20
123.910271
 30
0.0
 11
349.478852
 21
117.866921
 31
0.0
  0
ARC
  5
BCC2
330
BA93
100
AcDbEntity
  8
1
  6
Continuous
100
AcDbCircle
 10
209.8788519999998
 20
127.6795
 30
0.0
 40
1.0
100
AcDbArc
 50
180.0
 51
0.0
  0
LINE
  5
BCC3
330
BA93
100
AcDbEntity
  8
1
  6
Continuous
100
AcDbLine
 10
208.878852
 20
127.6795
 30
0.0
 11
208.878852
 21
128.1795
 31
0.0
  0
ARC
  5
BCC4
330
BA93
100
AcDbEntity
  8
1
  6
Continuous
100
AcDbCircle
 10
214.878852
 20
128.0124999999999
 30
0.0
 40
1.587499999999999
100
AcDbArc
 50
192.1085089999999
 51
347.8914909999998
  0
ARC
  5
BCC5
330
BA93
100
AcDbEntity
  8
1
  6
Continuous
100
AcDbCircle
 10
214.878852
 20
128.0124999999999
 30
0.0
 40
1.587499999999999
100
AcDbArc
 50
6.038508
 51
24.57297999999999
  0
ARC
  5
BCC6
330
BA93
100
AcDbEntity
  8
1
  6
Continuous
100
AcDbCircle
 10
214.878852
 20
128.0124999999999
 30
0.0
 40
1.587499999999999
100
AcDbArc
 50
155.4270199999999
 51
173.9614919999999
  0
LINE
  5
BCC7
330
BA93
100
AcDbEntity
  8
1
  6
Continuous
100
AcDbLine
 10
210.878852
 20
128.1795
 30
0.0
 11
218.878852
 21
128.1795
 31
0.0
  0
LINE
  5
BCC8
330
BA93
100
AcDbEntity
  8
1
  6
Continuous
100
AcDbLine
 10
210.878852
 20
127.6795
 30
0.0
 11
218.878852
 21
127.6795
 31
0.0
  0
LINE
  5
BCC9
330
BA93
100
AcDbEntity
  8
1
  6
Continuous
100
AcDbLine
 10
210.878852
 20
127.6795
 30
0.0
 11
210.878852
 21
128.1795
 31
0.0
  0
ARC
  5
BCCA
330
BA93
100
AcDbEntity
  8
1
  6
Continuous
100
AcDbCircle
 10
209.8788519999998
 20
114.3205
 30
0.0
 40
1.0
100
AcDbArc
 50
0.0
 51
180.0
  0
LINE
  5
BCCB
330
BA93
100
AcDbEntity
  8
1
  6
Continuous
100
AcDbLine
 10
208.878852
 20
114.3205
 30
0.0
 11
208.878852
 21
113.8204999999999
 31
0.0
  0
ARC
  5
BCCC
330
BA93
100
AcDbEntity
  8
1
  6
Continuous
100
AcDbCircle
 10
214.878852
 20
113.9874999999999
 30
0.0
 40
1.587499999999999
100
AcDbArc
 50
186.038508
 51
204.57298
  0
ARC
  5
BCCD
330
BA93
100
AcDbEntity
  8
1
  6
Continuous
100
AcDbCircle
 10
214.878852
 20
113.9874999999999
 30
0.0
 40
1.587499999999999
100
AcDbArc
 50
335.4270200000001
 51
353.9614919999999
  0
ARC
  5
BCCE
330
BA93
100
AcDbEntity
  8
1
  6
Continuous
100
AcDbCircle
 10
214.878852
 20
113.9874999999999
 30
0.0
 40
1.587499999999999
100
AcDbArc
 50
12.108509
 51
167.891491
  0
LINE
  5
BCCF
330
BA93
100
AcDbEntity
  8
1
  6
Continuous
100
AcDbLine
 10
210.878852
 20
113.8204999999999
 30
0.0
 11
218.878852
 21
113.8204999999999
 31
0.0
  0
LINE
  5
BCD0
330
BA93
100
AcDbEntity
  8
1
  6
Continuous
100
AcDbLine
 10
210.878852
 20
114.3205
 30
0.0
 11
218.878852
 21
114.3205
 31
0.0
  0
LINE
  5
BCD1
330
BA93
100
AcDbEntity
  8
1
  6
Continuous
100
AcDbLine
 10
210.878852
 20
114.3205
 30
0.0
 11
210.878852
 21
113.8204999999999
 31
0.0
  0
LINE
  5
BCD2
330
BA93
100
AcDbEntity
  8
1
  6
Continuous
100
AcDbLine
 10
220.878852
 20
127.6795
 30
0.0
 11
228.878852
 21
127.6795
 31
0.0
  0
LINE
  5
BCD3
330
BA93
100
AcDbEntity
  8
1
  6
Continuous
100
AcDbLine
 10
220.878852
 20
128.1795
 30
0.0
 11
228.878852
 21
128.1795
 31
0.0
  0
LINE
  5
BCD4
330
BA93
100
AcDbEntity
  8
1
  6
Continuous
100
AcDbLine
 10
220.878852
 20
127.6795
 30
0.0
 11
220.878852
 21
128.1795
 31
0.0
  0
ARC
  5
BCD5
330
BA93
100
AcDbEntity
  8
1
  6
Continuous
100
AcDbCircle
 10
224.878852
 20
128.0124999999999
 30
0.0
 40
1.587499999999999
100
AcDbArc
 50
155.4270199999999
 51
173.9614919999999
  0
ARC
  5
BCD6
330
BA93
100
AcDbEntity
  8
1
  6
Continuous
100
AcDbCircle
 10
224.878852
 20
128.0124999999999
 30
0.0
 40
1.587499999999999
100
AcDbArc
 50
6.038508
 51
24.57297999999999
  0
ARC
  5
BCD7
330
BA93
100
AcDbEntity
  8
1
  6
Continuous
100
AcDbCircle
 10
224.878852
 20
128.0124999999999
 30
0.0
 40
1.587499999999999
100
AcDbArc
 50
192.1085089999999
 51
347.8914909999998
  0
LINE
  5
BCD8
330
BA93
100
AcDbEntity
  8
1
  6
Continuous
100
AcDbLine
 10
218.878852
 20
127.6795
 30
0.0
 11
218.878852
 21
128.1795
 31
0.0
  0
ARC
  5
BCD9
330
BA93
100
AcDbEntity
  8
1
  6
Continuous
100
AcDbCircle
 10
219.8788519999999
 20
127.6795
 30
0.0
 40
1.0
100
AcDbArc
 50
180.0
 51
0.0
  0
LINE
  5
BCDA
330
BA93
100
AcDbEntity
  8
1
  6
Continuous
100
AcDbLine
 10
220.878852
 20
114.3205
 30
0.0
 11
228.878852
 21
114.3205
 31
0.0
  0
LINE
  5
BCDB
330
BA93
100
AcDbEntity
  8
1
  6
Continuous
100
AcDbLine
 10
220.878852
 20
113.8204999999999
 30
0.0
 11
228.878852
 21
113.8204999999999
 31
0.0
  0
LINE
  5
BCDC
330
BA93
100
AcDbEntity
  8
1
  6
Continuous
100
AcDbLine
 10
220.878852
 20
114.3205
 30
0.0
 11
220.878852
 21
113.8204999999999
 31
0.0
  0
ARC
  5
BCDD
330
BA93
100
AcDbEntity
  8
1
  6
Continuous
100
AcDbCircle
 10
224.878852
 20
113.9874999999999
 30
0.0
 40
1.587499999999999
100
AcDbArc
 50
12.108509
 51
167.891491
  0
ARC
  5
BCDE
330
BA93
100
AcDbEntity
  8
1
  6
Continuous
100
AcDbCircle
 10
224.878852
 20
113.9874999999999
 30
0.0
 40
1.587499999999999
100
AcDbArc
 50
335.4270200000001
 51
353.9614919999999
  0
ARC
  5
BCDF
330
BA93
100
AcDbEntity
  8
1
  6
Continuous
100
AcDbCircle
 10
224.878852
 20
113.9874999999999
 30
0.0
 40
1.587499999999999
100
AcDbArc
 50
186.038508
 51
204.57298
  0
LINE
  5
BCE0
330
BA93
100
AcDbEntity
  8
1
  6
Continuous
100
AcDbLine
 10
218.878852
 20
114.3205
 30
0.0
 11
218.878852
 21
113.8204999999999
 31
0.0
  0
ARC
  5
BCE1
330
BA93
100
AcDbEntity
  8
1
  6
Continuous
100
AcDbCircle
 10
219.8788519999999
 20
114.3205
 30
0.0
 40
1.0
100
AcDbArc
 50
0.0
 51
180.0
  0
ARC
  5
BCE2
330
BA93
100
AcDbEntity
  8
1
  6
Continuous
100
AcDbCircle
 10
229.878852
 20
127.6795
 30
0.0
 40
1.0
100
AcDbArc
 50
180.0
 51
0.0
  0
LINE
  5
BCE3
330
BA93
100
AcDbEntity
  8
1
  6
Continuous
100
AcDbLine
 10
228.878852
 20
127.6795
 30
0.0
 11
228.878852
 21
128.1795
 31
0.0
  0
ARC
  5
BCE4
330
BA93
100
AcDbEntity
  8
1
  6
Continuous
100
AcDbCircle
 10
234.8788519999998
 20
128.0124999999999
 30
0.0
 40
1.587499999999999
100
AcDbArc
 50
192.1085089999999
 51
347.8914909999998
  0
ARC
  5
BCE5
330
BA93
100
AcDbEntity
  8
1
  6
Continuous
100
AcDbCircle
 10
234.8788519999998
 20
128.0124999999999
 30
0.0
 40
1.587499999999999
100
AcDbArc
 50
6.038508
 51
24.57297999999999
  0
ARC
  5
BCE6
330
BA93
100
AcDbEntity
  8
1
  6
Continuous
100
AcDbCircle
 10
234.8788519999998
 20
128.0124999999999
 30
0.0
 40
1.587499999999999
100
AcDbArc
 50
155.4270199999999
 51
173.9614919999999
  0
LINE
  5
BCE7
330
BA93
100
AcDbEntity
  8
1
  6
Continuous
100
AcDbLine
 10
230.8788519999999
 20
127.6795
 30
0.0
 11
230.8788519999999
 21
128.1795
 31
0.0
  0
LINE
  5
BCE8
330
BA93
100
AcDbEntity
  8
1
  6
Continuous
100
AcDbLine
 10
230.8788519999999
 20
128.1795
 30
0.0
 11
238.8788519999998
 21
128.1795
 31
0.0
  0
LINE
  5
BCE9
330
BA93
100
AcDbEntity
  8
1
  6
Continuous
100
AcDbLine
 10
230.8788519999999
 20
127.6795
 30
0.0
 11
238.8788519999998
 21
127.6795
 31
0.0
  0
ARC
  5
BCEA
330
BA93
100
AcDbEntity
  8
1
  6
Continuous
100
AcDbCircle
 10
229.878852
 20
114.3205
 30
0.0
 40
1.0
100
AcDbArc
 50
0.0
 51
180.0
  0
LINE
  5
BCEB
330
BA93
100
AcDbEntity
  8
1
  6
Continuous
100
AcDbLine
 10
228.878852
 20
114.3205
 30
0.0
 11
228.878852
 21
113.8204999999999
 31
0.0
  0
ARC
  5
BCEC
330
BA93
100
AcDbEntity
  8
1
  6
Continuous
100
AcDbCircle
 10
234.8788519999998
 20
113.9874999999999
 30
0.0
 40
1.587499999999999
100
AcDbArc
 50
186.038508
 51
204.57298
  0
ARC
  5
BCED
330
BA93
100
AcDbEntity
  8
1
  6
Continuous
100
AcDbCircle
 10
234.8788519999998
 20
113.9874999999999
 30
0.0
 40
1.587499999999999
100
AcDbArc
 50
335.4270200000001
 51
353.9614919999999
  0
ARC
  5
BCEE
330
BA93
100
AcDbEntity
  8
1
  6
Continuous
100
AcDbCircle
 10
234.8788519999998
 20
113.9874999999999
 30
0.0
 40
1.587499999999999
100
AcDbArc
 50
12.108509
 51
167.891491
  0
LINE
  5
BCEF
330
BA93
100
AcDbEntity
  8
1
  6
Continuous
100
AcDbLine
 10
230.8788519999999
 20
114.3205
 30
0.0
 11
230.8788519999999
 21
113.8204999999999
 31
0.0
  0
LINE
  5
BCF0
330
BA93
100
AcDbEntity
  8
1
  6
Continuous
100
AcDbLine
 10
230.8788519999999
 20
113.8204999999999
 30
0.0
 11
238.8788519999998
 21
113.8204999999999
 31
0.0
  0
LINE
  5
BCF1
330
BA93
100
AcDbEntity
  8
1
  6
Continuous
100
AcDbLine
 10
230.8788519999999
 20
114.3205
 30
0.0
 11
238.8788519999998
 21
114.3205
 31
0.0
  0
LINE
  5
BCF2
330
BA93
100
AcDbEntity
  8
1
  6
Continuous
100
AcDbLine
 10
240.8788519999998
 20
114.3205
 30
0.0
 11
248.8788519999999
 21
114.3205
 31
0.0
  0
LINE
  5
BCF3
330
BA93
100
AcDbEntity
  8
1
  6
Continuous
100
AcDbLine
 10
240.8788519999998
 20
113.8204999999999
 30
0.0
 11
248.8788519999999
 21
113.8204999999999
 31
0.0
  0
LINE
  5
BCF4
330
BA93
100
AcDbEntity
  8
1
  6
Continuous
100
AcDbLine
 10
240.8788519999998
 20
127.6795
 30
0.0
 11
248.8788519999999
 21
127.6795
 31
0.0
  0
LINE
  5
BCF5
330
BA93
100
AcDbEntity
  8
1
  6
Continuous
100
AcDbLine
 10
240.8788519999998
 20
128.1795
 30
0.0
 11
248.8788519999999
 21
128.1795
 31
0.0
  0
LINE
  5
BCF6
330
BA93
100
AcDbEntity
  8
1
  6
Continuous
100
AcDbLine
 10
240.8788519999998
 20
114.3205
 30
0.0
 11
240.8788519999998
 21
113.8204999999999
 31
0.0
  0
LINE
  5
BCF7
330
BA93
100
AcDbEntity
  8
1
  6
Continuous
100
AcDbLine
 10
238.8788519999998
 20
114.3205
 30
0.0
 11
238.8788519999998
 21
113.8204999999999
 31
0.0
  0
ARC
  5
BCF8
330
BA93
100
AcDbEntity
  8
1
  6
Continuous
100
AcDbCircle
 10
239.878852
 20
114.3205
 30
0.0
 40
1.0
100
AcDbArc
 50
0.0
 51
180.0
  0
LINE
  5
BCF9
330
BA93
100
AcDbEntity
  8
1
  6
Continuous
100
AcDbLine
 10
240.8788519999998
 20
127.6795
 30
0.0
 11
240.8788519999998
 21
128.1795
 31
0.0
  0
LINE
  5
BCFA
330
BA93
100
AcDbEntity
  8
1
  6
Continuous
100
AcDbLine
 10
238.8788519999998
 20
127.6795
 30
0.0
 11
238.8788519999998
 21
128.1795
 31
0.0
  0
ARC
  5
BCFB
330
BA93
100
AcDbEntity
  8
1
  6
Continuous
100
AcDbCircle
 10
239.878852
 20
127.6795
 30
0.0
 40
1.0
100
AcDbArc
 50
180.0
 51
0.0
  0
ARC
  5
BCFC
330
BA93
100
AcDbEntity
  8
1
  6
Continuous
100
AcDbCircle
 10
244.8788519999999
 20
113.9874999999999
 30
0.0
 40
1.587499999999999
100
AcDbArc
 50
12.108509
 51
167.891491
  0
ARC
  5
BCFD
330
BA93
100
AcDbEntity
  8
1
  6
Continuous
100
AcDbCircle
 10
244.8788519999999
 20
113.9874999999999
 30
0.0
 40
1.587499999999999
100
AcDbArc
 50
335.4270200000001
 51
353.9614919999999
  0
ARC
  5
BCFE
330
BA93
100
AcDbEntity
  8
1
  6
Continuous
100
AcDbCircle
 10
244.8788519999999
 20
113.9874999999999
 30
0.0
 40
1.587499999999999
100
AcDbArc
 50
186.038508
 51
204.57298
  0
ARC
  5
BCFF
330
BA93
100
AcDbEntity
  8
1
  6
Continuous
100
AcDbCircle
 10
244.8788519999999
 20
128.0124999999999
 30
0.0
 40
1.587499999999999
100
AcDbArc
 50
155.4270199999999
 51
173.9614919999999
  0
ARC
  5
BD00
330
BA93
100
AcDbEntity
  8
1
  6
Continuous
100
AcDbCircle
 10
244.8788519999999
 20
128.0124999999999
 30
0.0
 40
1.587499999999999
100
AcDbArc
 50
6.038508
 51
24.57297999999999
  0
ARC
  5
BD01
330
BA93
100
AcDbEntity
  8
1
  6
Continuous
100
AcDbCircle
 10
244.8788519999999
 20
128.0124999999999
 30
0.0
 40
1.587499999999999
100
AcDbArc
 50
192.1085089999999
 51
347.8914909999998
  0
LINE
  5
BD02
330
BA93
100
AcDbEntity
  8
1
  6
Continuous
100
AcDbLine
 10
250.8788519999999
 20
128.1795
 30
0.0
 11
258.878852
 21
128.1795
 31
0.0
  0
LINE
  5
BD03
330
BA93
100
AcDbEntity
  8
1
  6
Continuous
100
AcDbLine
 10
250.8788519999999
 20
127.6795
 30
0.0
 11
258.878852
 21
127.6795
 31
0.0
  0
ARC
  5
BD04
330
BA93
100
AcDbEntity
  8
1
  6
Continuous
100
AcDbCircle
 10
254.878852
 20
128.0124999999999
 30
0.0
 40
1.587499999999999
100
AcDbArc
 50
192.1085089999999
 51
347.8914909999998
  0
ARC
  5
BD05
330
BA93
100
AcDbEntity
  8
1
  6
Continuous
100
AcDbCircle
 10
254.878852
 20
128.0124999999999
 30
0.0
 40
1.587499999999999
100
AcDbArc
 50
6.038508
 51
24.57297999999999
  0
ARC
  5
BD06
330
BA93
100
AcDbEntity
  8
1
  6
Continuous
100
AcDbCircle
 10
254.878852
 20
128.0124999999999
 30
0.0
 40
1.587499999999999
100
AcDbArc
 50
155.4270199999999
 51
173.9614919999999
  0
ARC
  5
BD07
330
BA93
100
AcDbEntity
  8
1
  6
Continuous
100
AcDbCircle
 10
249.878852
 20
127.6795
 30
0.0
 40
1.0
100
AcDbArc
 50
180.0
 51
0.0
  0
LINE
  5
BD08
330
BA93
100
AcDbEntity
  8
1
  6
Continuous
100
AcDbLine
 10
248.8788519999999
 20
127.6795
 30
0.0
 11
248.8788519999999
 21
128.1795
 31
0.0
  0
LINE
  5
BD09
330
BA93
100
AcDbEntity
  8
1
  6
Continuous
100
AcDbLine
 10
250.8788519999999
 20
127.6795
 30
0.0
 11
250.8788519999999
 21
128.1795
 31
0.0
  0
LINE
  5
BD0A
330
BA93
100
AcDbEntity
  8
1
  6
Continuous
100
AcDbLine
 10
250.8788519999999
 20
113.8204999999999
 30
0.0
 11
258.878852
 21
113.8204999999999
 31
0.0
  0
LINE
  5
BD0B
330
BA93
100
AcDbEntity
  8
1
  6
Continuous
100
AcDbLine
 10
250.8788519999999
 20
114.3205
 30
0.0
 11
258.878852
 21
114.3205
 31
0.0
  0
ARC
  5
BD0C
330
BA93
100
AcDbEntity
  8
1
  6
Continuous
100
AcDbCircle
 10
254.878852
 20
113.9874999999999
 30
0.0
 40
1.587499999999999
100
AcDbArc
 50
186.038508
 51
204.57298
  0
ARC
  5
BD0D
330
BA93
100
AcDbEntity
  8
1
  6
Continuous
100
AcDbCircle
 10
254.878852
 20
113.9874999999999
 30
0.0
 40
1.587499999999999
100
AcDbArc
 50
335.4270200000001
 51
353.9614919999999
  0
ARC
  5
BD0E
330
BA93
100
AcDbEntity
  8
1
  6
Continuous
100
AcDbCircle
 10
254.878852
 20
113.9874999999999
 30
0.0
 40
1.587499999999999
100
AcDbArc
 50
12.108509
 51
167.891491
  0
ARC
  5
BD0F
330
BA93
100
AcDbEntity
  8
1
  6
Continuous
100
AcDbCircle
 10
249.878852
 20
114.3205
 30
0.0
 40
1.0
100
AcDbArc
 50
0.0
 51
180.0
  0
LINE
  5
BD10
330
BA93
100
AcDbEntity
  8
1
  6
Continuous
100
AcDbLine
 10
248.8788519999999
 20
114.3205
 30
0.0
 11
248.8788519999999
 21
113.8204999999999
 31
0.0
  0
LINE
  5
BD11
330
BA93
100
AcDbEntity
  8
1
  6
Continuous
100
AcDbLine
 10
250.8788519999999
 20
114.3205
 30
0.0
 11
250.8788519999999
 21
113.8204999999999
 31
0.0
  0
LINE
  5
BD12
330
BA93
100
AcDbEntity
  8
1
  6
Continuous
100
AcDbLine
 10
210.878852
 20
193.8
 30
0.0
 11
210.878852
 21
193.921929
 31
0.0
  0
LINE
  5
BD13
330
BA93
100
AcDbEntity
  8
1
  6
Continuous
100
AcDbLine
 10
218.878852
 20
193.8
 30
0.0
 11
210.878852
 21
193.8
 31
0.0
  0
LINE
  5
BD14
330
BA93
100
AcDbEntity
  8
1
  6
Continuous
100
AcDbLine
 10
218.878852
 20
193.921929
 30
0.0
 11
218.878852
 21
193.8
 31
0.0
  0
LINE
  5
BD15
330
BA93
100
AcDbEntity
  8
1
  6
Continuous
100
AcDbLine
 10
228.878852
 20
193.8
 30
0.0
 11
220.878852
 21
193.8
 31
0.0
  0
LINE
  5
BD16
330
BA93
100
AcDbEntity
  8
1
  6
Continuous
100
AcDbLine
 10
220.878852
 20
193.8
 30
0.0
 11
220.878852
 21
193.921929
 31
0.0
  0
LINE
  5
BD17
330
BA93
100
AcDbEntity
  8
1
  6
Continuous
100
AcDbLine
 10
228.878852
 20
193.921929
 30
0.0
 11
228.878852
 21
193.8
 31
0.0
  0
LINE
  5
BD18
330
BA93
100
AcDbEntity
  8
1
  6
Continuous
100
AcDbLine
 10
238.8788519999998
 20
193.921929
 30
0.0
 11
238.8788519999998
 21
193.8
 31
0.0
  0
LINE
  5
BD19
330
BA93
100
AcDbEntity
  8
1
  6
Continuous
100
AcDbLine
 10
230.8788519999999
 20
193.8
 30
0.0
 11
230.8788519999999
 21
193.921929
 31
0.0
  0
LINE
  5
BD1A
330
BA93
100
AcDbEntity
  8
1
  6
Continuous
100
AcDbLine
 10
238.8788519999998
 20
193.8
 30
0.0
 11
230.8788519999999
 21
193.8
 31
0.0
  0
LINE
  5
BD1B
330
BA93
100
AcDbEntity
  8
1
  6
Continuous
100
AcDbLine
 10
248.8788519999999
 20
193.8
 30
0.0
 11
240.8788519999998
 21
193.8
 31
0.0
  0
LINE
  5
BD1C
330
BA93
100
AcDbEntity
  8
1
  6
Continuous
100
AcDbLine
 10
240.8788519999998
 20
193.8
 30
0.0
 11
240.8788519999998
 21
193.921929
 31
0.0
  0
LINE
  5
BD1D
330
BA93
100
AcDbEntity
  8
1
  6
Continuous
100
AcDbLine
 10
248.8788519999999
 20
193.921929
 30
0.0
 11
248.8788519999999
 21
193.8
 31
0.0
  0
LINE
  5
BD1E
330
BA93
100
AcDbEntity
  8
1
  6
Continuous
100
AcDbLine
 10
258.878852
 20
193.8
 30
0.0
 11
250.8788519999999
 21
193.8
 31
0.0
  0
LINE
  5
BD1F
330
BA93
100
AcDbEntity
  8
1
  6
Continuous
100
AcDbLine
 10
250.8788519999999
 20
193.8
 30
0.0
 11
250.8788519999999
 21
193.921929
 31
0.0
  0
LINE
  5
BD20
330
BA93
100
AcDbEntity
  8
1
  6
Continuous
100
AcDbLine
 10
258.878852
 20
193.921929
 30
0.0
 11
258.878852
 21
193.8
 31
0.0
  0
LINE
  5
BD21
330
BA93
100
AcDbEntity
  8
1
  6
Continuous
100
AcDbLine
 10
349.178852
 20
119.4
 30
0.0
 11
349.7788519999998
 21
119.4
 31
0.0
  0
LINE
  5
BD22
330
BA93
100
AcDbEntity
  8
1
  6
Continuous
100
AcDbLine
 10
349.7788519999998
 20
122.5999999999998
 30
0.0
 11
349.178852
 21
122.5999999999998
 31
0.0
  0
ARC
  5
BD23
330
BA93
100
AcDbEntity
  8
1
  6
Continuous
100
AcDbCircle
 10
349.178852
 20
121.0
 30
0.0
 40
1.6
100
AcDbArc
 50
90.0
 51
270.0
  0
ARC
  5
BD24
330
BA93
100
AcDbEntity
  8
1
  6
Continuous
100
AcDbCircle
 10
349.7788519999998
 20
121.0
 30
0.0
 40
1.6
100
AcDbArc
 50
270.0
 51
90.0
  0
ARC
  5
BD25
330
BA93
100
AcDbEntity
  8
1
  6
Continuous
100
AcDbCircle
 10
169.8788519999999
 20
114.3205
 30
0.0
 40
1.0
100
AcDbArc
 50
148.028322
 51
180.0
  0
ARC
  5
BD26
330
BA93
100
AcDbEntity
  8
1
  6
Continuous
100
AcDbCircle
 10
169.8788519999999
 20
127.6795
 30
0.0
 40
1.0
100
AcDbArc
 50
328.028322
 51
0.0
  0
LINE
  5
BD27
330
BA93
100
AcDbEntity
  8
1
  6
Continuous
100
AcDbLine
 10
270.878852
 20
113.8204999999999
 30
0.0
 11
278.878852
 21
113.8204999999999
 31
0.0
  0
LINE
  5
BD28
330
BA93
100
AcDbEntity
  8
1
  6
Continuous
100
AcDbLine
 10
270.878852
 20
114.3205
 30
0.0
 11
278.878852
 21
114.3205
 31
0.0
  0
ARC
  5
BD29
330
BA93
100
AcDbEntity
  8
1
  6
Continuous
100
AcDbCircle
 10
274.878852
 20
113.9874999999999
 30
0.0
 40
1.587499999999999
100
AcDbArc
 50
12.108509
 51
167.891491
  0
LINE
  5
BD2A
330
BA93
100
AcDbEntity
  8
1
  6
Continuous
100
AcDbLine
 10
270.878852
 20
128.1795
 30
0.0
 11
278.878852
 21
128.1795
 31
0.0
  0
LINE
  5
BD2B
330
BA93
100
AcDbEntity
  8
1
  6
Continuous
100
AcDbLine
 10
270.878852
 20
127.6795
 30
0.0
 11
278.878852
 21
127.6795
 31
0.0
  0
ARC
  5
BD2C
330
BA93
100
AcDbEntity
  8
1
  6
Continuous
100
AcDbCircle
 10
274.878852
 20
128.0124999999999
 30
0.0
 40
1.587499999999999
100
AcDbArc
 50
192.1085089999999
 51
347.8914909999998
  0
ARC
  5
BD2D
330
BA93
100
AcDbEntity
  8
1
  6
Continuous
100
AcDbCircle
 10
259.8788519999998
 20
114.3205
 30
0.0
 40
1.0
100
AcDbArc
 50
0.0
 51
180.0
  0
ARC
  5
BD2E
330
BA93
100
AcDbEntity
  8
1
  6
Continuous
100
AcDbCircle
 10
259.8788519999998
 20
127.6795
 30
0.0
 40
1.0
100
AcDbArc
 50
180.0
 51
0.0
  0
LINE
  5
BD2F
330
BA93
100
AcDbEntity
  8
1
  6
Continuous
100
AcDbLine
 10
258.878852
 20
114.3205
 30
0.0
 11
258.878852
 21
113.8204999999999
 31
0.0
  0
LINE
  5
BD30
330
BA93
100
AcDbEntity
  8
1
  6
Continuous
100
AcDbLine
 10
258.878852
 20
127.6795
 30
0.0
 11
258.878852
 21
128.1795
 31
0.0
  0
ARC
  5
BD31
330
BA93
100
AcDbEntity
  8
1
  6
Continuous
100
AcDbCircle
 10
274.878852
 20
113.9874999999999
 30
0.0
 40
1.587499999999999
100
AcDbArc
 50
186.038508
 51
204.57298
  0
ARC
  5
BD32
330
BA93
100
AcDbEntity
  8
1
  6
Continuous
100
AcDbCircle
 10
269.8788519999999
 20
114.3205
 30
0.0
 40
1.0
100
AcDbArc
 50
0.0
 51
180.0
  0
LINE
  5
BD33
330
BA93
100
AcDbEntity
  8
1
  6
Continuous
100
AcDbLine
 10
268.878852
 20
114.3205
 30
0.0
 11
268.878852
 21
113.8204999999999
 31
0.0
  0
LINE
  5
BD34
330
BA93
100
AcDbEntity
  8
1
  6
Continuous
100
AcDbLine
 10
270.878852
 20
114.3205
 30
0.0
 11
270.878852
 21
113.8204999999999
 31
0.0
  0
LINE
  5
BD35
330
BA93
100
AcDbEntity
  8
1
  6
Continuous
100
AcDbLine
 10
260.878852
 20
114.3205
 30
0.0
 11
260.878852
 21
113.8204999999999
 31
0.0
  0
ARC
  5
BD36
330
BA93
100
AcDbEntity
  8
1
  6
Continuous
100
AcDbCircle
 10
264.878852
 20
113.9874999999999
 30
0.0
 40
1.587499999999999
100
AcDbArc
 50
12.108509
 51
167.891491
  0
ARC
  5
BD37
330
BA93
100
AcDbEntity
  8
1
  6
Continuous
100
AcDbCircle
 10
264.878852
 20
113.9874999999999
 30
0.0
 40
1.587499999999999
100
AcDbArc
 50
335.4270200000001
 51
353.9614919999999
  0
ARC
  5
BD38
330
BA93
100
AcDbEntity
  8
1
  6
Continuous
100
AcDbCircle
 10
264.878852
 20
113.9874999999999
 30
0.0
 40
1.587499999999999
100
AcDbArc
 50
186.038508
 51
204.57298
  0
LINE
  5
BD39
330
BA93
100
AcDbEntity
  8
1
  6
Continuous
100
AcDbLine
 10
260.878852
 20
114.3205
 30
0.0
 11
268.878852
 21
114.3205
 31
0.0
  0
LINE
  5
BD3A
330
BA93
100
AcDbEntity
  8
1
  6
Continuous
100
AcDbLine
 10
260.878852
 20
113.8204999999999
 30
0.0
 11
268.878852
 21
113.8204999999999
 31
0.0
  0
ARC
  5
BD3B
330
BA93
100
AcDbEntity
  8
1
  6
Continuous
100
AcDbCircle
 10
274.878852
 20
128.0124999999999
 30
0.0
 40
1.587499999999999
100
AcDbArc
 50
155.4270199999999
 51
173.9614919999999
  0
ARC
  5
BD3C
330
BA93
100
AcDbEntity
  8
1
  6
Continuous
100
AcDbCircle
 10
269.8788519999999
 20
127.6795
 30
0.0
 40
1.0
100
AcDbArc
 50
180.0
 51
0.0
  0
LINE
  5
BD3D
330
BA93
100
AcDbEntity
  8
1
  6
Continuous
100
AcDbLine
 10
268.878852
 20
127.6795
 30
0.0
 11
268.878852
 21
128.1795
 31
0.0
  0
LINE
  5
BD3E
330
BA93
100
AcDbEntity
  8
1
  6
Continuous
100
AcDbLine
 10
270.878852
 20
127.6795
 30
0.0
 11
270.878852
 21
128.1795
 31
0.0
  0
LINE
  5
BD3F
330
BA93
100
AcDbEntity
  8
1
  6
Continuous
100
AcDbLine
 10
260.878852
 20
127.6795
 30
0.0
 11
260.878852
 21
128.1795
 31
0.0
  0
ARC
  5
BD40
330
BA93
100
AcDbEntity
  8
1
  6
Continuous
100
AcDbCircle
 10
264.878852
 20
128.0124999999999
 30
0.0
 40
1.587499999999999
100
AcDbArc
 50
155.4270199999999
 51
173.9614919999999
  0
ARC
  5
BD41
330
BA93
100
AcDbEntity
  8
1
  6
Continuous
100
AcDbCircle
 10
264.878852
 20
128.0124999999999
 30
0.0
 40
1.587499999999999
100
AcDbArc
 50
6.038508
 51
24.57297999999999
  0
ARC
  5
BD42
330
BA93
100
AcDbEntity
  8
1
  6
Continuous
100
AcDbCircle
 10
264.878852
 20
128.0124999999999
 30
0.0
 40
1.587499999999999
100
AcDbArc
 50
192.1085089999999
 51
347.8914909999998
  0
LINE
  5
BD43
330
BA93
100
AcDbEntity
  8
1
  6
Continuous
100
AcDbLine
 10
260.878852
 20
127.6795
 30
0.0
 11
268.878852
 21
127.6795
 31
0.0
  0
LINE
  5
BD44
330
BA93
100
AcDbEntity
  8
1
  6
Continuous
100
AcDbLine
 10
260.878852
 20
128.1795
 30
0.0
 11
268.878852
 21
128.1795
 31
0.0
  0
ARC
  5
BD45
330
BA93
100
AcDbEntity
  8
1
  6
Continuous
100
AcDbCircle
 10
274.878852
 20
113.9874999999999
 30
0.0
 40
1.587499999999999
100
AcDbArc
 50
335.4270200000001
 51
353.9614919999999
  0
ARC
  5
BD46
330
BA93
100
AcDbEntity
  8
1
  6
Continuous
100
AcDbCircle
 10
274.878852
 20
128.0124999999999
 30
0.0
 40
1.587499999999999
100
AcDbArc
 50
6.038508
 51
24.57297999999999
  0
LINE
  5
BD47
330
BA93
100
AcDbEntity
  8
1
  6
Continuous
100
AcDbLine
 10
280.8788519999998
 20
113.8204999999999
 30
0.0
 11
288.8788519999998
 21
113.8204999999999
 31
0.0
  0
LINE
  5
BD48
330
BA93
100
AcDbEntity
  8
1
  6
Continuous
100
AcDbLine
 10
280.8788519999998
 20
114.3205
 30
0.0
 11
288.8788519999998
 21
114.3205
 31
0.0
  0
ARC
  5
BD49
330
BA93
100
AcDbEntity
  8
1
  6
Continuous
100
AcDbCircle
 10
284.8788519999999
 20
113.9874999999999
 30
0.0
 40
1.587499999999999
100
AcDbArc
 50
12.108509
 51
167.891491
  0
LINE
  5
BD4A
330
BA93
100
AcDbEntity
  8
1
  6
Continuous
100
AcDbLine
 10
280.8788519999998
 20
128.1795
 30
0.0
 11
288.8788519999998
 21
128.1795
 31
0.0
  0
LINE
  5
BD4B
330
BA93
100
AcDbEntity
  8
1
  6
Continuous
100
AcDbLine
 10
280.8788519999998
 20
127.6795
 30
0.0
 11
288.8788519999998
 21
127.6795
 31
0.0
  0
ARC
  5
BD4C
330
BA93
100
AcDbEntity
  8
1
  6
Continuous
100
AcDbCircle
 10
284.8788519999999
 20
128.0124999999999
 30
0.0
 40
1.587499999999999
100
AcDbArc
 50
192.1085089999999
 51
347.8914909999998
  0
ARC
  5
BD4D
330
BA93
100
AcDbEntity
  8
1
  6
Continuous
100
AcDbCircle
 10
284.8788519999999
 20
113.9874999999999
 30
0.0
 40
1.587499999999999
100
AcDbArc
 50
186.038508
 51
204.57298
  0
ARC
  5
BD4E
330
BA93
100
AcDbEntity
  8
1
  6
Continuous
100
AcDbCircle
 10
279.878852
 20
114.3205
 30
0.0
 40
1.0
100
AcDbArc
 50
0.0
 51
180.0
  0
LINE
  5
BD4F
330
BA93
100
AcDbEntity
  8
1
  6
Continuous
100
AcDbLine
 10
278.878852
 20
114.3205
 30
0.0
 11
278.878852
 21
113.8204999999999
 31
0.0
  0
LINE
  5
BD50
330
BA93
100
AcDbEntity
  8
1
  6
Continuous
100
AcDbLine
 10
280.8788519999998
 20
114.3205
 30
0.0
 11
280.8788519999998
 21
113.8204999999999
 31
0.0
  0
ARC
  5
BD51
330
BA93
100
AcDbEntity
  8
1
  6
Continuous
100
AcDbCircle
 10
284.8788519999999
 20
128.0124999999999
 30
0.0
 40
1.587499999999999
100
AcDbArc
 50
155.4270199999999
 51
173.9614919999999
  0
ARC
  5
BD52
330
BA93
100
AcDbEntity
  8
1
  6
Continuous
100
AcDbCircle
 10
279.878852
 20
127.6795
 30
0.0
 40
1.0
100
AcDbArc
 50
180.0
 51
0.0
  0
LINE
  5
BD53
330
BA93
100
AcDbEntity
  8
1
  6
Continuous
100
AcDbLine
 10
278.878852
 20
127.6795
 30
0.0
 11
278.878852
 21
128.1795
 31
0.0
  0
LINE
  5
BD54
330
BA93
100
AcDbEntity
  8
1
  6
Continuous
100
AcDbLine
 10
280.8788519999998
 20
127.6795
 30
0.0
 11
280.8788519999998
 21
128.1795
 31
0.0
  0
LINE
  5
BD55
330
BA93
100
AcDbEntity
  8
1
  6
Continuous
100
AcDbLine
 10
300.8788519999999
 20
127.6795
 30
0.0
 11
308.878852
 21
127.6795
 31
0.0
  0
LINE
  5
BD56
330
BA93
100
AcDbEntity
  8
1
  6
Continuous
100
AcDbLine
 10
300.8788519999999
 20
128.1795
 30
0.0
 11
308.878852
 21
128.1795
 31
0.0
  0
LINE
  5
BD57
330
BA93
100
AcDbEntity
  8
1
  6
Continuous
100
AcDbLine
 10
300.8788519999999
 20
114.3205
 30
0.0
 11
308.878852
 21
114.3205
 31
0.0
  0
LINE
  5
BD58
330
BA93
100
AcDbEntity
  8
1
  6
Continuous
100
AcDbLine
 10
300.8788519999999
 20
113.8204999999999
 30
0.0
 11
308.878852
 21
113.8204999999999
 31
0.0
  0
LINE
  5
BD59
330
BA93
100
AcDbEntity
  8
1
  6
Continuous
100
AcDbLine
 10
290.8788519999998
 20
128.1795
 30
0.0
 11
298.8788519999999
 21
128.1795
 31
0.0
  0
LINE
  5
BD5A
330
BA93
100
AcDbEntity
  8
1
  6
Continuous
100
AcDbLine
 10
290.8788519999998
 20
127.6795
 30
0.0
 11
298.8788519999999
 21
127.6795
 31
0.0
  0
ARC
  5
BD5B
330
BA93
100
AcDbEntity
  8
1
  6
Continuous
100
AcDbCircle
 10
294.8788519999999
 20
128.0124999999999
 30
0.0
 40
1.587499999999999
100
AcDbArc
 50
192.1085089999999
 51
347.8914909999998
  0
ARC
  5
BD5C
330
BA93
100
AcDbEntity
  8
1
  6
Continuous
100
AcDbCircle
 10
294.8788519999999
 20
128.0124999999999
 30
0.0
 40
1.587499999999999
100
AcDbArc
 50
6.038508
 51
24.57297999999999
  0
ARC
  5
BD5D
330
BA93
100
AcDbEntity
  8
1
  6
Continuous
100
AcDbCircle
 10
294.8788519999999
 20
128.0124999999999
 30
0.0
 40
1.587499999999999
100
AcDbArc
 50
155.4270199999999
 51
173.9614919999999
  0
LINE
  5
BD5E
330
BA93
100
AcDbEntity
  8
1
  6
Continuous
100
AcDbLine
 10
290.8788519999998
 20
127.6795
 30
0.0
 11
290.8788519999998
 21
128.1795
 31
0.0
  0
LINE
  5
BD5F
330
BA93
100
AcDbEntity
  8
1
  6
Continuous
100
AcDbLine
 10
300.8788519999999
 20
127.6795
 30
0.0
 11
300.8788519999999
 21
128.1795
 31
0.0
  0
LINE
  5
BD60
330
BA93
100
AcDbEntity
  8
1
  6
Continuous
100
AcDbLine
 10
298.8788519999999
 20
127.6795
 30
0.0
 11
298.8788519999999
 21
128.1795
 31
0.0
  0
ARC
  5
BD61
330
BA93
100
AcDbEntity
  8
1
  6
Continuous
100
AcDbCircle
 10
299.878852
 20
127.6795
 30
0.0
 40
1.0
100
AcDbArc
 50
180.0
 51
0.0
  0
LINE
  5
BD62
330
BA93
100
AcDbEntity
  8
1
  6
Continuous
100
AcDbLine
 10
290.8788519999998
 20
113.8204999999999
 30
0.0
 11
298.8788519999999
 21
113.8204999999999
 31
0.0
  0
LINE
  5
BD63
330
BA93
100
AcDbEntity
  8
1
  6
Continuous
100
AcDbLine
 10
290.8788519999998
 20
114.3205
 30
0.0
 11
298.8788519999999
 21
114.3205
 31
0.0
  0
ARC
  5
BD64
330
BA93
100
AcDbEntity
  8
1
  6
Continuous
100
AcDbCircle
 10
294.8788519999999
 20
113.9874999999999
 30
0.0
 40
1.587499999999999
100
AcDbArc
 50
186.038508
 51
204.57298
  0
ARC
  5
BD65
330
BA93
100
AcDbEntity
  8
1
  6
Continuous
100
AcDbCircle
 10
294.8788519999999
 20
113.9874999999999
 30
0.0
 40
1.587499999999999
100
AcDbArc
 50
335.4270200000001
 51
353.9614919999999
  0
ARC
  5
BD66
330
BA93
100
AcDbEntity
  8
1
  6
Continuous
100
AcDbCircle
 10
294.8788519999999
 20
113.9874999999999
 30
0.0
 40
1.587499999999999
100
AcDbArc
 50
12.108509
 51
167.891491
  0
LINE
  5
BD67
330
BA93
100
AcDbEntity
  8
1
  6
Continuous
100
AcDbLine
 10
290.8788519999998
 20
114.3205
 30
0.0
 11
290.8788519999998
 21
113.8204999999999
 31
0.0
  0
LINE
  5
BD68
330
BA93
100
AcDbEntity
  8
1
  6
Continuous
100
AcDbLine
 10
300.8788519999999
 20
114.3205
 30
0.0
 11
300.8788519999999
 21
113.8204999999999
 31
0.0
  0
LINE
  5
BD69
330
BA93
100
AcDbEntity
  8
1
  6
Continuous
100
AcDbLine
 10
298.8788519999999
 20
114.3205
 30
0.0
 11
298.8788519999999
 21
113.8204999999999
 31
0.0
  0
ARC
  5
BD6A
330
BA93
100
AcDbEntity
  8
1
  6
Continuous
100
AcDbCircle
 10
299.878852
 20
114.3205
 30
0.0
 40
1.0
100
AcDbArc
 50
0.0
 51
180.0
  0
LINE
  5
BD6B
330
BA93
100
AcDbEntity
  8
1
  6
Continuous
100
AcDbLine
 10
288.8788519999998
 20
127.6795
 30
0.0
 11
288.8788519999998
 21
128.1795
 31
0.0
  0
LINE
  5
BD6C
330
BA93
100
AcDbEntity
  8
1
  6
Continuous
100
AcDbLine
 10
288.8788519999998
 20
114.3205
 30
0.0
 11
288.8788519999998
 21
113.8204999999999
 31
0.0
  0
ARC
  5
BD6D
330
BA93
100
AcDbEntity
  8
1
  6
Continuous
100
AcDbCircle
 10
289.878852
 20
127.6795
 30
0.0
 40
1.0
100
AcDbArc
 50
180.0
 51
0.0
  0
ARC
  5
BD6E
330
BA93
100
AcDbEntity
  8
1
  6
Continuous
100
AcDbCircle
 10
289.878852
 20
114.3205
 30
0.0
 40
1.0
100
AcDbArc
 50
0.0
 51
180.0
  0
ARC
  5
BD6F
330
BA93
100
AcDbEntity
  8
1
  6
Continuous
100
AcDbCircle
 10
284.8788519999999
 20
113.9874999999999
 30
0.0
 40
1.587499999999999
100
AcDbArc
 50
335.4270200000001
 51
353.9614919999999
  0
ARC
  5
BD70
330
BA93
100
AcDbEntity
  8
1
  6
Continuous
100
AcDbCircle
 10
284.8788519999999
 20
128.0124999999999
 30
0.0
 40
1.587499999999999
100
AcDbArc
 50
6.038508
 51
24.57297999999999
  0
ARC
  5
BD71
330
BA93
100
AcDbEntity
  8
1
  6
Continuous
100
AcDbCircle
 10
304.878852
 20
128.0124999999999
 30
0.0
 40
1.587499999999999
100
AcDbArc
 50
6.038508
 51
24.57297999999999
  0
ARC
  5
BD72
330
BA93
100
AcDbEntity
  8
1
  6
Continuous
100
AcDbCircle
 10
304.878852
 20
113.9874999999999
 30
0.0
 40
1.587499999999999
100
AcDbArc
 50
335.4270200000001
 51
353.9614919999999
  0
LINE
  5
BD73
330
BA93
100
AcDbEntity
  8
1
  6
Continuous
100
AcDbLine
 10
308.878852
 20
128.1795
 30
0.0
 11
308.878852
 21
113.8204999999999
 31
0.0
  0
ARC
  5
BD74
330
BA93
100
AcDbEntity
  8
1
  6
Continuous
100
AcDbCircle
 10
304.878852
 20
128.0124999999999
 30
0.0
 40
1.587499999999999
100
AcDbArc
 50
155.4270199999999
 51
173.9614919999999
  0
ARC
  5
BD75
330
BA93
100
AcDbEntity
  8
1
  6
Continuous
100
AcDbCircle
 10
304.878852
 20
113.9874999999999
 30
0.0
 40
1.587499999999999
100
AcDbArc
 50
186.038508
 51
204.57298
  0
ARC
  5
BD76
330
BA93
100
AcDbEntity
  8
1
  6
Continuous
100
AcDbCircle
 10
304.878852
 20
128.0124999999999
 30
0.0
 40
1.587499999999999
100
AcDbArc
 50
192.1085089999999
 51
347.8914909999998
  0
ARC
  5
BD77
330
BA93
100
AcDbEntity
  8
1
  6
Continuous
100
AcDbCircle
 10
304.878852
 20
113.9874999999999
 30
0.0
 40
1.587499999999999
100
AcDbArc
 50
12.108509
 51
167.891491
  0
LINE
  5
BD78
330
BA93
100
AcDbEntity
  8
1
  6
Continuous
100
AcDbLine
 10
288.8788519999998
 20
193.8
 30
0.0
 11
280.8788519999998
 21
193.8
 31
0.0
  0
LINE
  5
BD79
330
BA93
100
AcDbEntity
  8
1
  6
Continuous
100
AcDbLine
 10
268.878852
 20
193.8
 30
0.0
 11
260.878852
 21
193.8
 31
0.0
  0
LINE
  5
BD7A
330
BA93
100
AcDbEntity
  8
1
  6
Continuous
100
AcDbLine
 10
260.878852
 20
193.8
 30
0.0
 11
260.878852
 21
193.921929
 31
0.0
  0
LINE
  5
BD7B
330
BA93
100
AcDbEntity
  8
1
  6
Continuous
100
AcDbLine
 10
268.878852
 20
193.921929
 30
0.0
 11
268.878852
 21
193.8
 31
0.0
  0
LINE
  5
BD7C
330
BA93
100
AcDbEntity
  8
1
  6
Continuous
100
AcDbLine
 10
280.8788519999998
 20
193.8
 30
0.0
 11
280.8788519999998
 21
193.921929
 31
0.0
  0
LINE
  5
BD7D
330
BA93
100
AcDbEntity
  8
1
  6
Continuous
100
AcDbLine
 10
278.878852
 20
193.921929
 30
0.0
 11
278.878852
 21
193.8
 31
0.0
  0
LINE
  5
BD7E
330
BA93
100
AcDbEntity
  8
1
  6
Continuous
100
AcDbLine
 10
270.878852
 20
193.8
 30
0.0
 11
270.878852
 21
193.921929
 31
0.0
  0
LINE
  5
BD7F
330
BA93
100
AcDbEntity
  8
1
  6
Continuous
100
AcDbLine
 10
278.878852
 20
193.8
 30
0.0
 11
270.878852
 21
193.8
 31
0.0
  0
LINE
  5
BD80
330
BA93
100
AcDbEntity
  8
1
  6
Continuous
100
AcDbLine
 10
288.8788519999998
 20
193.921929
 30
0.0
 11
288.8788519999998
 21
193.8
 31
0.0
  0
LINE
  5
BD81
330
BA93
100
AcDbEntity
  8
1
  6
Continuous
100
AcDbLine
 10
308.878852
 20
193.8
 30
0.0
 11
300.8788519999999
 21
193.8
 31
0.0
  0
LINE
  5
BD82
330
BA93
100
AcDbEntity
  8
1
  6
Continuous
100
AcDbLine
 10
298.8788519999999
 20
193.8
 30
0.0
 11
290.8788519999998
 21
193.8
 31
0.0
  0
LINE
  5
BD83
330
BA93
100
AcDbEntity
  8
1
  6
Continuous
100
AcDbLine
 10
290.8788519999998
 20
193.8
 30
0.0
 11
290.8788519999998
 21
193.921929
 31
0.0
  0
LINE
  5
BD84
330
BA93
100
AcDbEntity
  8
1
  6
Continuous
100
AcDbLine
 10
298.8788519999999
 20
193.921929
 30
0.0
 11
298.8788519999999
 21
193.8
 31
0.0
  0
LINE
  5
BD85
330
BA93
100
AcDbEntity
  8
1
  6
Continuous
100
AcDbLine
 10
300.8788519999999
 20
193.8
 30
0.0
 11
300.8788519999999
 21
193.921929
 31
0.0
  0
LINE
  5
BD86
330
BA93
100
AcDbEntity
  8
1
  6
Continuous
100
AcDbLine
 10
308.878852
 20
193.921929
 30
0.0
 11
308.878852
 21
193.8
 31
0.0
  0
LINE
  5
BD87
330
BA93
100
AcDbEntity
  8
1
  6
Continuous
100
AcDbLine
 10
258.878852
 20
48.2
 30
0.0
 11
250.8788519999999
 21
48.2
 31
0.0
  0
LINE
  5
BD88
330
BA93
100
AcDbEntity
  8
1
  6
Continuous
100
AcDbLine
 10
69.478852
 20
48.078071
 30
0.0
 11
469.4788519999998
 21
48.078071
 31
0.0
  0
LINE
  5
BD89
330
BA93
100
AcDbEntity
  8
1
  6
Continuous
100
AcDbLine
 10
469.4788519999998
 20
41.0
 30
0.0
 11
69.478852
 21
41.0
 31
0.0
  0
LINE
  5
BD8A
330
BA93
100
AcDbEntity
  8
1
  6
Continuous
100
AcDbLine
 10
128.8788519999999
 20
48.2
 30
0.0
 11
120.8788519999999
 21
48.2
 31
0.0
  0
LINE
  5
BD8B
330
BA93
100
AcDbEntity
  8
3
  6
DASHED
100
AcDbLine
 10
170.8788519999998
 20
43.5
 30
0.0
 11
70.87885199999998
 21
43.5
 31
0.0
  0
LINE
  5
BD8C
330
BA93
100
AcDbEntity
  8
1
  6
Continuous
100
AcDbLine
 10
170.8788519999998
 20
49.0
 30
0.0
 11
70.87885199999998
 21
49.0
 31
0.0
  0
LINE
  5
BD8D
330
BA93
100
AcDbEntity
  8
1
  6
Continuous
100
AcDbLine
 10
98.87885199999999
 20
48.2
 30
0.0
 11
90.878852
 21
48.2
 31
0.0
  0
LINE
  5
BD8E
330
BA93
100
AcDbEntity
  8
3
  6
DASHED
100
AcDbLine
 10
70.87885199999998
 20
43.5
 30
0.0
 11
70.87885199999998
 21
48.078071
 31
0.0
  0
LINE
  5
BD8F
330
BA93
100
AcDbEntity
  8
1
  6
Continuous
100
AcDbLine
 10
69.478852
 20
41.0
 30
0.0
 11
69.478852
 21
48.078071
 31
0.0
  0
LINE
  5
BD90
330
BA93
100
AcDbEntity
  8
1
  6
Continuous
100
AcDbLine
 10
78.87885199999998
 20
48.078071
 30
0.0
 11
78.87885199999998
 21
48.2
 31
0.0
  0
LINE
  5
BD91
330
BA93
100
AcDbEntity
  8
1
  6
Continuous
100
AcDbLine
 10
70.87885199999998
 20
49.0
 30
0.0
 11
70.87885199999998
 21
48.078071
 31
0.0
  0
LINE
  5
BD92
330
BA93
100
AcDbEntity
  8
1
  6
Continuous
100
AcDbLine
 10
78.87885199999998
 20
48.2
 30
0.0
 11
70.87885199999998
 21
48.2
 31
0.0
  0
LINE
  5
BD93
330
BA93
100
AcDbEntity
  8
1
  6
Continuous
100
AcDbLine
 10
88.87885199999997
 20
48.2
 30
0.0
 11
80.87885199999998
 21
48.2
 31
0.0
  0
LINE
  5
BD94
330
BA93
100
AcDbEntity
  8
1
  6
Continuous
100
AcDbLine
 10
80.87885199999998
 20
48.2
 30
0.0
 11
80.87885199999998
 21
48.078071
 31
0.0
  0
LINE
  5
BD95
330
BA93
100
AcDbEntity
  8
1
  6
Continuous
100
AcDbLine
 10
88.87885199999997
 20
48.078071
 30
0.0
 11
88.87885199999997
 21
48.2
 31
0.0
  0
LINE
  5
BD96
330
BA93
100
AcDbEntity
  8
1
  6
Continuous
100
AcDbLine
 10
90.878852
 20
48.2
 30
0.0
 11
90.878852
 21
48.078071
 31
0.0
  0
LINE
  5
BD97
330
BA93
100
AcDbEntity
  8
4
  6
CENTER
100
AcDbLine
 10
90.878852
 20
45.578071
 30
0.0
 11
90.878852
 21
51.5
 31
0.0
  0
LINE
  5
BD98
330
BA93
100
AcDbEntity
  8
4
  6
CENTER
100
AcDbLine
 10
89.47885199999998
 20
38.5
 30
0.0
 11
89.47885199999998
 21
43.5
 31
0.0
  0
LINE
  5
BD99
330
BA93
100
AcDbEntity
  8
1
  6
Continuous
100
AcDbLine
 10
118.8788519999999
 20
48.2
 30
0.0
 11
110.878852
 21
48.2
 31
0.0
  0
LINE
  5
BD9A
330
BA93
100
AcDbEntity
  8
1
  6
Continuous
100
AcDbLine
 10
98.87885199999999
 20
48.078071
 30
0.0
 11
98.87885199999999
 21
48.2
 31
0.0
  0
LINE
  5
BD9B
330
BA93
100
AcDbEntity
  8
1
  6
Continuous
100
AcDbLine
 10
108.878852
 20
48.078071
 30
0.0
 11
108.878852
 21
48.2
 31
0.0
  0
LINE
  5
BD9C
330
BA93
100
AcDbEntity
  8
1
  6
Continuous
100
AcDbLine
 10
100.8788519999999
 20
48.2
 30
0.0
 11
100.8788519999999
 21
48.078071
 31
0.0
  0
LINE
  5
BD9D
330
BA93
100
AcDbEntity
  8
1
  6
Continuous
100
AcDbLine
 10
108.878852
 20
48.2
 30
0.0
 11
100.8788519999999
 21
48.2
 31
0.0
  0
LINE
  5
BD9E
330
BA93
100
AcDbEntity
  8
1
  6
Continuous
100
AcDbLine
 10
110.878852
 20
48.2
 30
0.0
 11
110.878852
 21
48.078071
 31
0.0
  0
LINE
  5
BD9F
330
BA93
100
AcDbEntity
  8
1
  6
Continuous
100
AcDbLine
 10
118.8788519999999
 20
48.078071
 30
0.0
 11
118.8788519999999
 21
48.2
 31
0.0
  0
LINE
  5
BDA0
330
BA93
100
AcDbEntity
  8
1
  6
Continuous
100
AcDbLine
 10
120.8788519999999
 20
48.2
 30
0.0
 11
120.8788519999999
 21
48.078071
 31
0.0
  0
LINE
  5
BDA1
330
BA93
100
AcDbEntity
  8
4
  6
CENTER
100
AcDbLine
 10
104.4788519999999
 20
38.5
 30
0.0
 11
104.4788519999999
 21
43.5
 31
0.0
  0
LINE
  5
BDA2
330
BA93
100
AcDbEntity
  8
1
  6
Continuous
100
AcDbLine
 10
198.8788519999999
 20
48.2
 30
0.0
 11
190.8788519999999
 21
48.2
 31
0.0
  0
LINE
  5
BDA3
330
BA93
100
AcDbEntity
  8
1
  6
Continuous
100
AcDbLine
 10
148.8788519999999
 20
48.2
 30
0.0
 11
140.8788519999999
 21
48.2
 31
0.0
  0
LINE
  5
BDA4
330
BA93
100
AcDbEntity
  8
1
  6
Continuous
100
AcDbLine
 10
128.8788519999999
 20
48.078071
 30
0.0
 11
128.8788519999999
 21
48.2
 31
0.0
  0
LINE
  5
BDA5
330
BA93
100
AcDbEntity
  8
1
  6
Continuous
100
AcDbLine
 10
138.878852
 20
48.2
 30
0.0
 11
130.878852
 21
48.2
 31
0.0
  0
LINE
  5
BDA6
330
BA93
100
AcDbEntity
  8
1
  6
Continuous
100
AcDbLine
 10
130.878852
 20
48.2
 30
0.0
 11
130.878852
 21
48.078071
 31
0.0
  0
LINE
  5
BDA7
330
BA93
100
AcDbEntity
  8
1
  6
Continuous
100
AcDbLine
 10
138.878852
 20
48.078071
 30
0.0
 11
138.878852
 21
48.2
 31
0.0
  0
LINE
  5
BDA8
330
BA93
100
AcDbEntity
  8
1
  6
Continuous
100
AcDbLine
 10
140.8788519999999
 20
48.2
 30
0.0
 11
140.8788519999999
 21
48.078071
 31
0.0
  0
LINE
  5
BDA9
330
BA93
100
AcDbEntity
  8
1
  6
Continuous
100
AcDbLine
 10
148.8788519999999
 20
48.078071
 30
0.0
 11
148.8788519999999
 21
48.2
 31
0.0
  0
LINE
  5
BDAA
330
BA93
100
AcDbEntity
  8
1
  6
Continuous
100
AcDbLine
 10
158.878852
 20
48.078071
 30
0.0
 11
158.878852
 21
48.2
 31
0.0
  0
LINE
  5
BDAB
330
BA93
100
AcDbEntity
  8
1
  6
Continuous
100
AcDbLine
 10
150.8788519999999
 20
48.2
 30
0.0
 11
150.8788519999999
 21
48.078071
 31
0.0
  0
LINE
  5
BDAC
330
BA93
100
AcDbEntity
  8
1
  6
Continuous
100
AcDbLine
 10
158.878852
 20
48.2
 30
0.0
 11
150.8788519999999
 21
48.2
 31
0.0
  0
LINE
  5
BDAD
330
BA93
100
AcDbEntity
  8
4
  6
CENTER
100
AcDbLine
 10
150.8788519999999
 20
45.578071
 30
0.0
 11
150.8788519999999
 21
51.5
 31
0.0
  0
LINE
  5
BDAE
330
BA93
100
AcDbEntity
  8
3
  6
DASHED
100
AcDbLine
 10
170.8788519999998
 20
48.078071
 30
0.0
 11
170.8788519999998
 21
43.5
 31
0.0
  0
LINE
  5
BDAF
330
BA93
100
AcDbEntity
  8
1
  6
Continuous
100
AcDbLine
 10
178.8788519999999
 20
48.2
 30
0.0
 11
170.8788519999998
 21
48.2
 31
0.0
  0
LINE
  5
BDB0
330
BA93
100
AcDbEntity
  8
1
  6
Continuous
100
AcDbLine
 10
168.8788519999999
 20
48.2
 30
0.0
 11
160.878852
 21
48.2
 31
0.0
  0
LINE
  5
BDB1
330
BA93
100
AcDbEntity
  8
1
  6
Continuous
100
AcDbLine
 10
160.878852
 20
48.2
 30
0.0
 11
160.878852
 21
48.078071
 31
0.0
  0
LINE
  5
BDB2
330
BA93
100
AcDbEntity
  8
1
  6
Continuous
100
AcDbLine
 10
168.8788519999999
 20
48.078071
 30
0.0
 11
168.8788519999999
 21
48.2
 31
0.0
  0
LINE
  5
BDB3
330
BA93
100
AcDbEntity
  8
1
  6
Continuous
100
AcDbLine
 10
170.8788519999998
 20
49.0
 30
0.0
 11
170.8788519999998
 21
48.078071
 31
0.0
  0
LINE
  5
BDB4
330
BA93
100
AcDbEntity
  8
1
  6
Continuous
100
AcDbLine
 10
178.8788519999999
 20
48.078071
 30
0.0
 11
178.8788519999999
 21
48.2
 31
0.0
  0
LINE
  5
BDB5
330
BA93
100
AcDbEntity
  8
1
  6
Continuous
100
AcDbLine
 10
188.878852
 20
48.2
 30
0.0
 11
180.878852
 21
48.2
 31
0.0
  0
LINE
  5
BDB6
330
BA93
100
AcDbEntity
  8
1
  6
Continuous
100
AcDbLine
 10
188.878852
 20
48.078071
 30
0.0
 11
188.878852
 21
48.2
 31
0.0
  0
LINE
  5
BDB7
330
BA93
100
AcDbEntity
  8
1
  6
Continuous
100
AcDbLine
 10
180.878852
 20
48.2
 30
0.0
 11
180.878852
 21
48.078071
 31
0.0
  0
LINE
  5
BDB8
330
BA93
100
AcDbEntity
  8
1
  6
Continuous
100
AcDbLine
 10
190.8788519999999
 20
48.2
 30
0.0
 11
190.8788519999999
 21
48.078071
 31
0.0
  0
LINE
  5
BDB9
330
BA93
100
AcDbEntity
  8
4
  6
CENTER
100
AcDbLine
 10
189.4788519999999
 20
38.5
 30
0.0
 11
189.4788519999999
 21
43.5
 31
0.0
  0
LINE
  5
BDBA
330
BA93
100
AcDbEntity
  8
1
  6
Continuous
100
AcDbLine
 10
228.878852
 20
48.2
 30
0.0
 11
220.878852
 21
48.2
 31
0.0
  0
LINE
  5
BDBB
330
BA93
100
AcDbEntity
  8
1
  6
Continuous
100
AcDbLine
 10
208.878852
 20
48.2
 30
0.0
 11
200.8788519999999
 21
48.2
 31
0.0
  0
LINE
  5
BDBC
330
BA93
100
AcDbEntity
  8
1
  6
Continuous
100
AcDbLine
 10
198.8788519999999
 20
48.078071
 30
0.0
 11
198.8788519999999
 21
48.2
 31
0.0
  0
LINE
  5
BDBD
330
BA93
100
AcDbEntity
  8
1
  6
Continuous
100
AcDbLine
 10
200.8788519999999
 20
48.2
 30
0.0
 11
200.8788519999999
 21
48.078071
 31
0.0
  0
LINE
  5
BDBE
330
BA93
100
AcDbEntity
  8
1
  6
Continuous
100
AcDbLine
 10
220.878852
 20
48.2
 30
0.0
 11
220.878852
 21
48.078071
 31
0.0
  0
LINE
  5
BDBF
330
BA93
100
AcDbEntity
  8
1
  6
Continuous
100
AcDbLine
 10
218.878852
 20
48.078071
 30
0.0
 11
218.878852
 21
48.2
 31
0.0
  0
LINE
  5
BDC0
330
BA93
100
AcDbEntity
  8
1
  6
Continuous
100
AcDbLine
 10
218.878852
 20
48.2
 30
0.0
 11
210.878852
 21
48.2
 31
0.0
  0
LINE
  5
BDC1
330
BA93
100
AcDbEntity
  8
1
  6
Continuous
100
AcDbLine
 10
210.878852
 20
48.2
 30
0.0
 11
210.878852
 21
48.078071
 31
0.0
  0
LINE
  5
BDC2
330
BA93
100
AcDbEntity
  8
1
  6
Continuous
100
AcDbLine
 10
208.878852
 20
48.078071
 30
0.0
 11
208.878852
 21
48.2
 31
0.0
  0
LINE
  5
BDC3
330
BA93
100
AcDbEntity
  8
1
  6
Continuous
100
AcDbLine
 10
238.8788519999998
 20
48.2
 30
0.0
 11
230.8788519999999
 21
48.2
 31
0.0
  0
LINE
  5
BDC4
330
BA93
100
AcDbEntity
  8
1
  6
Continuous
100
AcDbLine
 10
230.8788519999999
 20
48.2
 30
0.0
 11
230.8788519999999
 21
48.078071
 31
0.0
  0
LINE
  5
BDC5
330
BA93
100
AcDbEntity
  8
1
  6
Continuous
100
AcDbLine
 10
238.8788519999998
 20
48.078071
 30
0.0
 11
238.8788519999998
 21
48.2
 31
0.0
  0
LINE
  5
BDC6
330
BA93
100
AcDbEntity
  8
1
  6
Continuous
100
AcDbLine
 10
228.878852
 20
48.078071
 30
0.0
 11
228.878852
 21
48.2
 31
0.0
  0
LINE
  5
BDC7
330
BA93
100
AcDbEntity
  8
1
  6
Continuous
100
AcDbLine
 10
250.8788519999999
 20
48.2
 30
0.0
 11
250.8788519999999
 21
48.078071
 31
0.0
  0
LINE
  5
BDC8
330
BA93
100
AcDbEntity
  8
1
  6
Continuous
100
AcDbLine
 10
248.8788519999999
 20
48.078071
 30
0.0
 11
248.8788519999999
 21
48.2
 31
0.0
  0
LINE
  5
BDC9
330
BA93
100
AcDbEntity
  8
1
  6
Continuous
100
AcDbLine
 10
240.8788519999998
 20
48.2
 30
0.0
 11
240.8788519999998
 21
48.078071
 31
0.0
  0
LINE
  5
BDCA
330
BA93
100
AcDbEntity
  8
1
  6
Continuous
100
AcDbLine
 10
248.8788519999999
 20
48.2
 30
0.0
 11
240.8788519999998
 21
48.2
 31
0.0
  0
LINE
  5
BDCB
330
BA93
100
AcDbEntity
  8
1
  6
Continuous
100
AcDbLine
 10
288.8788519999998
 20
48.2
 30
0.0
 11
280.8788519999998
 21
48.2
 31
0.0
  0
LINE
  5
BDCC
330
BA93
100
AcDbEntity
  8
1
  6
Continuous
100
AcDbLine
 10
278.878852
 20
48.2
 30
0.0
 11
270.878852
 21
48.2
 31
0.0
  0
LINE
  5
BDCD
330
BA93
100
AcDbEntity
  8
1
  6
Continuous
100
AcDbLine
 10
270.878852
 20
48.2
 30
0.0
 11
270.878852
 21
48.078071
 31
0.0
  0
LINE
  5
BDCE
330
BA93
100
AcDbEntity
  8
1
  6
Continuous
100
AcDbLine
 10
268.878852
 20
48.078071
 30
0.0
 11
268.878852
 21
48.2
 31
0.0
  0
LINE
  5
BDCF
330
BA93
100
AcDbEntity
  8
1
  6
Continuous
100
AcDbLine
 10
260.878852
 20
48.2
 30
0.0
 11
260.878852
 21
48.078071
 31
0.0
  0
LINE
  5
BDD0
330
BA93
100
AcDbEntity
  8
1
  6
Continuous
100
AcDbLine
 10
268.878852
 20
48.2
 30
0.0
 11
260.878852
 21
48.2
 31
0.0
  0
LINE
  5
BDD1
330
BA93
100
AcDbEntity
  8
1
  6
Continuous
100
AcDbLine
 10
258.878852
 20
48.078071
 30
0.0
 11
258.878852
 21
48.2
 31
0.0
  0
LINE
  5
BDD2
330
BA93
100
AcDbEntity
  8
1
  6
Continuous
100
AcDbLine
 10
278.878852
 20
48.078071
 30
0.0
 11
278.878852
 21
48.2
 31
0.0
  0
LINE
  5
BDD3
330
BA93
100
AcDbEntity
  8
1
  6
Continuous
100
AcDbLine
 10
280.8788519999998
 20
48.2
 30
0.0
 11
280.8788519999998
 21
48.078071
 31
0.0
  0
LINE
  5
BDD4
330
BA93
100
AcDbEntity
  8
1
  6
Continuous
100
AcDbLine
 10
308.878852
 20
48.2
 30
0.0
 11
300.8788519999999
 21
48.2
 31
0.0
  0
LINE
  5
BDD5
330
BA93
100
AcDbEntity
  8
1
  6
Continuous
100
AcDbLine
 10
300.8788519999999
 20
48.2
 30
0.0
 11
300.8788519999999
 21
48.078071
 31
0.0
  0
LINE
  5
BDD6
330
BA93
100
AcDbEntity
  8
1
  6
Continuous
100
AcDbLine
 10
298.8788519999999
 20
48.078071
 30
0.0
 11
298.8788519999999
 21
48.2
 31
0.0
  0
LINE
  5
BDD7
330
BA93
100
AcDbEntity
  8
1
  6
Continuous
100
AcDbLine
 10
290.8788519999998
 20
48.2
 30
0.0
 11
290.8788519999998
 21
48.078071
 31
0.0
  0
LINE
  5
BDD8
330
BA93
100
AcDbEntity
  8
1
  6
Continuous
100
AcDbLine
 10
298.8788519999999
 20
48.2
 30
0.0
 11
290.8788519999998
 21
48.2
 31
0.0
  0
LINE
  5
BDD9
330
BA93
100
AcDbEntity
  8
1
  6
Continuous
100
AcDbLine
 10
288.8788519999998
 20
48.078071
 30
0.0
 11
288.8788519999998
 21
48.2
 31
0.0
  0
LINE
  5
BDDA
330
BA93
100
AcDbEntity
  8
1
  6
Continuous
100
AcDbLine
 10
308.878852
 20
48.078071
 30
0.0
 11
308.878852
 21
48.2
 31
0.0
  0
LINE
  5
BDDB
330
BA93
100
AcDbEntity
  8
4
  6
CENTER
100
AcDbLine
 10
349.478852
 20
38.5
 30
0.0
 11
349.478852
 21
43.5
 31
0.0
  0
LINE
  5
BDDC
330
BA93
100
AcDbEntity
  8
4
  6
CENTER
100
AcDbLine
 10
434.4788519999998
 20
38.5
 30
0.0
 11
434.4788519999998
 21
43.5
 31
0.0
  0
LINE
  5
BDDD
330
BA93
100
AcDbEntity
  8
1
  6
Continuous
100
AcDbLine
 10
469.4788519999998
 20
41.0
 30
0.0
 11
469.4788519999998
 21
48.078071
 31
0.0
  0
LINE
  5
BDDE
330
BA93
100
AcDbEntity
  8
4
  6
CENTER
100
AcDbLine
 10
449.4788519999998
 20
38.5
 30
0.0
 11
449.4788519999998
 21
43.5
 31
0.0
  0
LINE
  5
BDDF
330
BA93
100
AcDbEntity
  8
5
  6
PHANTOM
100
AcDbLine
 10
368.078852
 20
114.85
 30
0.0
 11
468.078852
 21
114.85
 31
0.0
  0
LINE
  5
BDE0
330
BA93
100
AcDbEntity
  8
5
  6
PHANTOM
100
AcDbLine
 10
468.078852
 20
127.15
 30
0.0
 11
368.078852
 21
127.15
 31
0.0
  0
LINE
  5
BDE1
330
BA93
100
AcDbEntity
  8
5
  6
PHANTOM
100
AcDbLine
 10
368.078852
 20
127.15
 30
0.0
 11
368.078852
 21
114.85
 31
0.0
  0
CIRCLE
  5
BDE2
330
BA93
100
AcDbEntity
  8
5
  6
PHANTOM
100
AcDbCircle
 10
388.0788519999999
 20
121.0
 30
0.0
 40
1.2295
  0
LINE
  5
BDE3
330
BA93
100
AcDbEntity
  8
4
  6
CENTER
100
AcDbLine
 10
388.0788519999999
 20
125.2156339999999
 30
0.0
 11
388.0788519999999
 21
116.706597
 31
0.0
  0
CIRCLE
  5
BDE4
330
BA93
100
AcDbEntity
  8
5
  6
PHANTOM
100
AcDbCircle
 10
388.0788519999999
 20
121.0
 30
0.0
 40
1.5
  0
CIRCLE
  5
BDE5
330
BA93
100
AcDbEntity
  8
5
  6
PHANTOM
100
AcDbCircle
 10
448.0788519999999
 20
121.0
 30
0.0
 40
1.2295
  0
CIRCLE
  5
BDE6
330
BA93
100
AcDbEntity
  8
5
  6
PHANTOM
100
AcDbCircle
 10
448.0788519999999
 20
121.0
 30
0.0
 40
1.5
  0
LINE
  5
BDE7
330
BA93
100
AcDbEntity
  8
5
  6
PHANTOM
100
AcDbLine
 10
468.078852
 20
126.2999999999999
 30
0.0
 11
468.078852
 21
127.15
 31
0.0
  0
LINE
  5
BDE8
330
BA93
100
AcDbEntity
  8
5
  6
PHANTOM
100
AcDbLine
 10
468.078852
 20
115.7
 30
0.0
 11
468.078852
 21
114.85
 31
0.0
  0
ENDSEC
  0
SECTION
  2
OBJECTS
  0
DICTIONARY
  5
BA81
330
0
100
AcDbDictionary
281
     1
  3
ACAD_CIP_PREVIOUS_PRODUCT_INFO
350
BE48
  3
ACAD_COLOR
350
BE2A
  3
ACAD_DETAILVIEWSTYLE
350
BE43
  3
ACAD_GROUP
350
BA82
  3
ACAD_LAYOUT
350
BA8E
  3
ACAD_MATERIAL
350
BDF8
  3
ACAD_MLEADERSTYLE
350
BE3F
  3
ACAD_MLINESTYLE
350
BA8B
  3
ACAD_PLOTSETTINGS
350
BA8D
  3
ACAD_PLOTSTYLENAME
350
BDF6
  3
ACAD_SCALELIST
350
BE2D
  3
ACAD_SECTIONVIEWSTYLE
350
BE41
  3
ACAD_TABLESTYLE
350
BE2B
  3
ACAD_VISUALSTYLE
350
BE11
  3
ACDB_RECOMPOSE_DATA
350
BE66
  3
AcDbVariableDictionary
350
BE59
  3
DWGPROPS
350
BE67
  0
DICTIONARY
  5
BE49
330
BA85
100
AcDbDictionary
280
     1
281
     1
  3
ADSK_XREC_LAYER_RECONCILED
360
BE4A
  0
DICTIONARY
  5
BE4B
330
BA9B
100
AcDbDictionary
280
     1
281
     1
  3
ADSK_XREC_LAYER_RECONCILED
360
BE4C
  0
DICTIONARY
  5
BE4D
330
BA9C
100
AcDbDictionary
280
     1
281
     1
  3
ADSK_XREC_LAYER_RECONCILED
360
BE4E
  0
DICTIONARY
  5
BE4F
330
BA9D
100
AcDbDictionary
280
     1
281
     1
  3
ADSK_XREC_LAYER_RECONCILED
360
BE50
  0
DICTIONARY
  5
BE51
330
BA9E
100
AcDbDictionary
280
     1
281
     1
  3
ADSK_XREC_LAYER_RECONCILED
360
BE52
  0
DICTIONARY
  5
BE53
330
BA9F
100
AcDbDictionary
280
     1
281
     1
  3
ADSK_XREC_LAYER_RECONCILED
360
BE54
  0
DICTIONARY
  5
BE55
330
BAA0
100
AcDbDictionary
280
     1
281
     1
  3
ADSK_XREC_LAYER_RECONCILED
360
BE56
  0
DICTIONARY
  5
BE57
330
BAA1
100
AcDbDictionary
280
     1
281
     1
  3
ADSK_XREC_LAYER_RECONCILED
360
BE58
  0
DICTIONARY
  5
BDF1
330
BA93
100
AcDbDictionary
281
     1
  3
ACAD_LAYOUTSELFREF
350
BDF2
  0
DICTIONARY
  5
BDEF
330
BA8F
100
AcDbDictionary
281
     1
  3
ACAD_LAYOUTSELFREF
350
BDF0
  0
XRECORD
  5
BE48
102
{ACAD_REACTORS
330
BA81
102
}
330
BA81
100
AcDbXrecord
280
     1
300
ACDLT
300
2014
300
ACDLT_F_S
  0
DICTIONARY
  5
BE2A
102
{ACAD_REACTORS
330
BA81
102
}
330
BA81
100
AcDbDictionary
281
     1
  0
DICTIONARY
  5
BE43
102
{ACAD_REACTORS
330
BA81
102
}
330
BA81
100
AcDbDictionary
281
     1
  3
Imperial24
350
BE44
  0
DICTIONARY
  5
BA82
102
{ACAD_REACTORS
330
BA81
102
}
330
BA81
100
AcDbDictionary
281
     1
  0
DICTIONARY
  5
BA8E
102
{ACAD_REACTORS
330
BA81
102
}
330
BA81
100
AcDbDictionary
281
     1
  3
Model
350
BE45
  3
レイアウト1
350
BE46
  0
DICTIONARY
  5
BDF8
102
{ACAD_REACTORS
330
BA81
102
}
330
BA81
100
AcDbDictionary
281
     1
  3
ByBlock
350
BE01
  3
ByLayer
350
BDF9
  3
Global
350
BE09
  0
DICTIONARY
  5
BE3F
102
{ACAD_REACTORS
330
BA81
102
}
330
BA81
100
AcDbDictionary
281
     1
  3
Standard
350
BE40
  0
DICTIONARY
  5
BA8B
102
{ACAD_REACTORS
330
BA81
102
}
330
BA81
100
AcDbDictionary
281
     1
  3
STANDARD
350
BA8C
  0
DICTIONARY
  5
BA8D
102
{ACAD_REACTORS
330
BA81
102
}
330
BA81
100
AcDbDictionary
281
     1
  0
ACDBDICTIONARYWDFLT
  5
BDF6
102
{ACAD_REACTORS
330
BA81
102
}
330
BA81
100
AcDbDictionary
281
     1
  3
Normal
350
BDF7
100
AcDbDictionaryWithDefault
340
BDF7
  0
DICTIONARY
  5
BE2D
102
{ACAD_REACTORS
330
BA81
102
}
330
BA81
100
AcDbDictionary
281
     1
  3
A0
350
BE2E
  3
A1
350
BE2F
  3
A2
350
BE30
  3
A3
350
BE31
  3
A4
350
BE32
  3
A5
350
BE33
  3
A6
350
BE34
  3
A7
350
BE35
  3
A8
350
BE36
  3
A9
350
BE37
  3
B0
350
BE38
  3
B1
350
BE39
  3
B2
350
BE3A
  3
B3
350
BE3B
  3
B4
350
BE3C
  3
B5
350
BE3D
  3
B6
350
BE3E
  0
DICTIONARY
  5
BE41
102
{ACAD_REACTORS
330
BA81
102
}
330
BA81
100
AcDbDictionary
281
     1
  3
Imperial24
350
BE42
  0
DICTIONARY
  5
BE2B
102
{ACAD_REACTORS
330
BA81
102
}
330
BA81
100
AcDbDictionary
281
     1
  3
Standard
350
BE2C
  0
DICTIONARY
  5
BE11
102
{ACAD_REACTORS
330
BA81
102
}
330
BA81
100
AcDbDictionary
281
     1
  3
2dWireframe
350
BE17
  3
Basic
350
BE16
  3
Brighten
350
BE1D
  3
ColorChange
350
BE21
  3
Conceptual
350
BE1A
  3
Dim
350
BE1C
  3
EdgeColorOff
350
BE29
  3
Facepattern
350
BE20
  3
Flat
350
BE12
  3
FlatWithEdges
350
BE13
  3
Gouraud
350
BE14
  3
GouraudWithEdges
350
BE15
  3
Hidden
350
BE19
  3
JitterOff
350
BE27
  3
Linepattern
350
BE1F
  3
OverhangOff
350
BE28
  3
Realistic
350
BE1B
  3
Shaded
350
BE26
  3
Shaded with edges
350
BE25
  3
Shades of Gray
350
BE22
  3
Sketchy
350
BE23
  3
Thicken
350
BE1E
  3
Wireframe
350
BE18
  3
X-Ray
350
BE24
  0
XRECORD
  5
BE66
102
{ACAD_REACTORS
330
BA81
102
}
330
BA81
100
AcDbXrecord
280
     1
 90
        1
330
BE2C
  0
DICTIONARY
  5
BE59
102
{ACAD_REACTORS
330
BA81
102
}
330
BA81
100
AcDbDictionary
281
     1
  3
CANNOSCALE
350
BE5E
  3
CMLEADERSTYLE
350
BE5B
  3
CTABLESTYLE
350
BE5A
  3
CVIEWDETAILSTYLE
350
BE5C
  3
CVIEWSECTIONSTYLE
350
BE5D
  3
DIMASSOC
350
BE61
  3
INDEXCTL
350
BE60
  3
SORTENTS
350
BE5F
  3
XCLIPFRAME
350
BE62
  0
XRECORD
  5
BE67
102
{ACAD_REACTORS
330
BA81
102
}
330
BA81
100
AcDbXrecord
280
     1
  1
DWGPROPS COOKIE
  2

  3

  4

  6

  7

  8
Yoshitsune
  9

300
=
301
=
302
=
303
=
304
=
305
=
306
=
307
=
308
=
309
=
 40
0.000011712962963
 41
2451233.43277662
 42
2457192.661936679
  1

 90
        0
  0
XRECORD
  5
BE4A
102
{ACAD_REACTORS
330
BE49
102
}
330
BE49
100
AcDbXrecord
280
     1
290
     1
  0
XRECORD
  5
BE4C
102
{ACAD_REACTORS
330
BE4B
102
}
330
BE4B
100
AcDbXrecord
280
     1
290
     1
  0
XRECORD
  5
BE4E
102
{ACAD_REACTORS
330
BE4D
102
}
330
BE4D
100
AcDbXrecord
280
     1
290
     1
  0
XRECORD
  5
BE50
102
{ACAD_REACTORS
330
BE4F
102
}
330
BE4F
100
AcDbXrecord
280
     1
290
     1
  0
XRECORD
  5
BE52
102
{ACAD_REACTORS
330
BE51
102
}
330
BE51
100
AcDbXrecord
280
     1
290
     1
  0
XRECORD
  5
BE54
102
{ACAD_REACTORS
330
BE53
102
}
330
BE53
100
AcDbXrecord
280
     1
290
     1
  0
XRECORD
  5
BE56
102
{ACAD_REACTORS
330
BE55
102
}
330
BE55
100
AcDbXrecord
280
     1
290
     1
  0
XRECORD
  5
BE58
102
{ACAD_REACTORS
330
BE57
102
}
330
BE57
100
AcDbXrecord
280
     1
290
     1
  0
XRECORD
  5
BDF2
102
{ACAD_REACTORS
330
BDF1
102
}
330
BDF1
100
AcDbXrecord
280
     1
340
BA93
  0
XRECORD
  5
BDF0
102
{ACAD_REACTORS
330
BDEF
102
}
330
BDEF
100
AcDbXrecord
280
     1
340
BA8F
  0
ACDBDETAILVIEWSTYLE
  5
BE44
102
{ACAD_XDICTIONARY
360
BE9F
102
}
102
{ACAD_REACTORS
330
BE43
102
}
330
BE43
100
AcDbModelDocViewStyle
 70
     0
  3
Imperial24
290
     0
100
AcDbDetailViewStyle
 70
     0
 71
     0
 90
        3
 71
     1
340
BA86
 40
0.24
340
0
 40
0.24
300

 40
0.36
280
     3
 71
     2
340
BA8A
 90
       25
 71
     3
340
BA86
 40
0.24
 90
        1
 40
0.75
 90
        1
300
%<\AcVar ViewType \f "%tc1">% %<\AcVar ViewDetailId>%\PSCALE %<\AcVar ViewScale \f "%sn">%
 71
     4
340
BA8A
 90
       25
340
BA8A
 90
       25
280
     0
  0
LAYOUT
  5
BE45
102
{ACAD_XDICTIONARY
360
BEA1
102
}
102
{ACAD_REACTORS
330
BA8E
102
}
330
BA8E
100
AcDbPlotSettings
  1

  2
Canon LBP9100C
  4

  6

 40
0.0
 41
0.0
 42
0.0
 43
0.0
 44
0.0
 45
0.0
 46
0.0
 47
0.0
 48
0.0
 49
0.0
140
0.0
141
0.0
142
1.0
143
1.0
 70
  1712
 72
     0
 73
     0
 74
     0
  7

 75
     0
147
1.0
148
0.0
149
0.0
100
AcDbLayout
  1
Model
 70
     1
 71
     0
 10
0.0
 20
0.0
 11
12.0
 21
9.0
 12
0.0
 22
0.0
 32
0.0
 14
0.0
 24
0.0
 34
0.0
 15
0.0
 25
0.0
 35
0.0
146
0.0
 13
0.0
 23
0.0
 33
0.0
 16
1.0
 26
0.0
 36
0.0
 17
0.0
 27
1.0
 37
0.0
 76
     0
330
BA93
331
BDEE
  0
LAYOUT
  5
BE46
102
{ACAD_XDICTIONARY
360
BEA3
102
}
102
{ACAD_REACTORS
330
BA8E
102
}
330
BA8E
100
AcDbPlotSettings
  1

  2
Canon LBP9100C
  4

  6

 40
0.0
 41
0.0
 42
0.0
 43
0.0
 44
0.0
 45
0.0
 46
0.0
 47
0.0
 48
0.0
 49
0.0
140
0.0
141
0.0
142
1.0
143
1.0
 70
   688
 72
     0
 73
     0
 74
     5
  7

 75
    16
147
1.0
148
0.0
149
0.0
100
AcDbLayout
  1
レイアウト1
 70
     0
 71
     1
 10
0.0
 20
0.0
 11
420.0
 21
297.0
 12
0.0
 22
0.0
 32
0.0
 14
1.000000000000000E+20
 24
1.000000000000000E+20
 34
1.000000000000000E+20
 15
-1.000000000000000E+20
 25
-1.000000000000000E+20
 35
-1.000000000000000E+20
146
0.0
 13
0.0
 23
0.0
 33
0.0
 16
1.0
 26
0.0
 36
0.0
 17
0.0
 27
1.0
 37
0.0
 76
     0
330
BA8F
  0
MATERIAL
  5
BE01
102
{ACAD_XDICTIONARY
360
BE02
102
}
102
{ACAD_REACTORS
330
BDF8
102
}
330
BDF8
100
AcDbMaterial
  1
ByBlock
 72
     0
 43
0.0208333333333333
 43
0.0
 43
0.0
 43
0.0
 43
0.0
 43
0.0208333333333333
 43
0.0
 43
0.0
 43
0.0
 43
0.0
 43
1.0
 43
0.0
 43
0.0
 43
0.0
 43
0.0
 43
1.0
 77
     0
 47
0.0208333333333333
 47
0.0
 47
0.0
 47
0.0
 47
0.0
 47
0.0208333333333333
 47
0.0
 47
0.0
 47
0.0
 47
0.0
 47
1.0
 47
0.0
 47
0.0
 47
0.0
 47
0.0
 47
1.0
171
     0
 49
0.0208333333333333
 49
0.0
 49
0.0
 49
0.0
 49
0.0
 49
0.0208333333333333
 49
0.0
 49
0.0
 49
0.0
 49
0.0
 49
1.0
 49
0.0
 49
0.0
 49
0.0
 49
0.0
 49
1.0
175
     0
142
0.0208333333333333
142
0.0
142
0.0
142
0.0
142
0.0
142
0.0208333333333333
142
0.0
142
0.0
142
0.0
142
0.0
142
1.0
142
0.0
142
0.0
142
0.0
142
0.0
142
1.0
179
     0
144
0.0208333333333333
144
0.0
144
0.0
144
0.0
144
0.0
144
0.0208333333333333
144
0.0
144
0.0
144
0.0
144
0.0
144
1.0
144
0.0
144
0.0
144
0.0
144
0.0
144
1.0
147
0.0208333333333333
147
0.0
147
0.0
147
0.0
147
0.0
147
0.0208333333333333
147
0.0
147
0.0
147
0.0
147
0.0
147
1.0
147
0.0
147
0.0
147
0.0
147
0.0
147
1.0
  0
MATERIAL
  5
BDF9
102
{ACAD_XDICTIONARY
360
BDFA
102
}
102
{ACAD_REACTORS
330
BDF8
102
}
330
BDF8
100
AcDbMaterial
  1
ByLayer
 72
     0
 43
0.0208333333333333
 43
0.0
 43
0.0
 43
0.0
 43
0.0
 43
0.0208333333333333
 43
0.0
 43
0.0
 43
0.0
 43
0.0
 43
1.0
 43
0.0
 43
0.0
 43
0.0
 43
0.0
 43
1.0
 77
     0
 47
0.0208333333333333
 47
0.0
 47
0.0
 47
0.0
 47
0.0
 47
0.0208333333333333
 47
0.0
 47
0.0
 47
0.0
 47
0.0
 47
1.0
 47
0.0
 47
0.0
 47
0.0
 47
0.0
 47
1.0
171
     0
 49
0.0208333333333333
 49
0.0
 49
0.0
 49
0.0
 49
0.0
 49
0.0208333333333333
 49
0.0
 49
0.0
 49
0.0
 49
0.0
 49
1.0
 49
0.0
 49
0.0
 49
0.0
 49
0.0
 49
1.0
175
     0
142
0.0208333333333333
142
0.0
142
0.0
142
0.0
142
0.0
142
0.0208333333333333
142
0.0
142
0.0
142
0.0
142
0.0
142
1.0
142
0.0
142
0.0
142
0.0
142
0.0
142
1.0
179
     0
144
0.0208333333333333
144
0.0
144
0.0
144
0.0
144
0.0
144
0.0208333333333333
144
0.0
144
0.0
144
0.0
144
0.0
144
1.0
144
0.0
144
0.0
144
0.0
144
0.0
144
1.0
147
0.0208333333333333
147
0.0
147
0.0
147
0.0
147
0.0
147
0.0208333333333333
147
0.0
147
0.0
147
0.0
147
0.0
147
1.0
147
0.0
147
0.0
147
0.0
147
0.0
147
1.0
  0
MATERIAL
  5
BE09
102
{ACAD_XDICTIONARY
360
BE0A
102
}
102
{ACAD_REACTORS
330
BDF8
102
}
330
BDF8
100
AcDbMaterial
  1
Global
 72
     0
 43
0.0208333333333333
 43
0.0
 43
0.0
 43
0.0
 43
0.0
 43
0.0208333333333333
 43
0.0
 43
0.0
 43
0.0
 43
0.0
 43
1.0
 43
0.0
 43
0.0
 43
0.0
 43
0.0
 43
1.0
 77
     0
 47
0.0208333333333333
 47
0.0
 47
0.0
 47
0.0
 47
0.0
 47
0.0208333333333333
 47
0.0
 47
0.0
 47
0.0
 47
0.0
 47
1.0
 47
0.0
 47
0.0
 47
0.0
 47
0.0
 47
1.0
171
     0
 49
0.0208333333333333
 49
0.0
 49
0.0
 49
0.0
 49
0.0
 49
0.0208333333333333
 49
0.0
 49
0.0
 49
0.0
 49
0.0
 49
1.0
 49
0.0
 49
0.0
 49
0.0
 49
0.0
 49
1.0
175
     0
142
0.0208333333333333
142
0.0
142
0.0
142
0.0
142
0.0
142
0.0208333333333333
142
0.0
142
0.0
142
0.0
142
0.0
142
1.0
142
0.0
142
0.0
142
0.0
142
0.0
142
1.0
179
     0
144
0.0208333333333333
144
0.0
144
0.0
144
0.0
144
0.0
144
0.0208333333333333
144
0.0
144
0.0
144
0.0
144
0.0
144
1.0
144
0.0
144
0.0
144
0.0
144
0.0
144
1.0
147
0.0208333333333333
147
0.0
147
0.0
147
0.0
147
0.0
147
0.0208333333333333
147
0.0
147
0.0
147
0.0
147
0.0
147
1.0
147
0.0
147
0.0
147
0.0
147
0.0
147
1.0
  0
MLEADERSTYLE
  5
BE40
102
{ACAD_REACTORS
330
BE3F
102
}
330
BE3F
100
AcDbMLeaderStyle
170
     2
171
     1
172
     0
 90
        2
 40
0.0
 41
0.0
173
     1
 91
-1056964608
340
BA88
 92
       -2
290
     1
 42
0.09
291
     1
 43
0.36
  3
Standard
 44
0.18
300

342
BA86
174
     1
178
     6
175
     1
176
     0
 93
-1056964608
 45
0.18
292
     0
297
     0
 46
0.18
 94
-1056964608
 47
1.0
 49
1.0
140
1.0
293
     1
141
0.0
294
     1
177
     0
142
1.0
295
     0
296
     0
143
0.125
1001
ACAD_MLEADERVER
1070
     2
  0
MLINESTYLE
  5
BA8C
102
{ACAD_REACTORS
330
BA8B
102
}
330
BA8B
100
AcDbMlineStyle
  2
STANDARD
 70
     0
  3

 62
   256
 51
90.0
 52
90.0
 71
     2
 49
0.5
 62
   256
  6
BYLAYER
 49
-0.5
 62
   256
  6
BYLAYER
  0
ACDBPLACEHOLDER
  5
BDF7
102
{ACAD_REACTORS
330
BDF6
102
}
330
BDF6
  0
SCALE
  5
BE2E
102
{ACAD_REACTORS
330
BE2D
102
}
330
BE2D
100
AcDbScale
 70
     0
300
1:1
140
1.0
141
1.0
290
     1
  0
SCALE
  5
BE2F
102
{ACAD_REACTORS
330
BE2D
102
}
330
BE2D
100
AcDbScale
 70
     0
300
1/128" = 1'-0"
140
0.0078125
141
12.0
290
     0
  0
SCALE
  5
BE30
102
{ACAD_REACTORS
330
BE2D
102
}
330
BE2D
100
AcDbScale
 70
     0
300
1/64" = 1'-0"
140
0.015625
141
12.0
290
     0
  0
SCALE
  5
BE31
102
{ACAD_REACTORS
330
BE2D
102
}
330
BE2D
100
AcDbScale
 70
     0
300
1/32" = 1'-0"
140
0.03125
141
12.0
290
     0
  0
SCALE
  5
BE32
102
{ACAD_REACTORS
330
BE2D
102
}
330
BE2D
100
AcDbScale
 70
     0
300
1/16" = 1'-0"
140
0.0625
141
12.0
290
     0
  0
SCALE
  5
BE33
102
{ACAD_REACTORS
330
BE2D
102
}
330
BE2D
100
AcDbScale
 70
     0
300
3/32" = 1'-0"
140
0.09375
141
12.0
290
     0
  0
SCALE
  5
BE34
102
{ACAD_REACTORS
330
BE2D
102
}
330
BE2D
100
AcDbScale
 70
     0
300
1/8" = 1'-0"
140
0.125
141
12.0
290
     0
  0
SCALE
  5
BE35
102
{ACAD_REACTORS
330
BE2D
102
}
330
BE2D
100
AcDbScale
 70
     0
300
3/16" = 1'-0"
140
0.1875
141
12.0
290
     0
  0
SCALE
  5
BE36
102
{ACAD_REACTORS
330
BE2D
102
}
330
BE2D
100
AcDbScale
 70
     0
300
1/4" = 1'-0"
140
0.25
141
12.0
290
     0
  0
SCALE
  5
BE37
102
{ACAD_REACTORS
330
BE2D
102
}
330
BE2D
100
AcDbScale
 70
     0
300
3/8" = 1'-0"
140
0.375
141
12.0
290
     0
  0
SCALE
  5
BE38
102
{ACAD_REACTORS
330
BE2D
102
}
330
BE2D
100
AcDbScale
 70
     0
300
1/2" = 1'-0"
140
0.5
141
12.0
290
     0
  0
SCALE
  5
BE39
102
{ACAD_REACTORS
330
BE2D
102
}
330
BE2D
100
AcDbScale
 70
     0
300
3/4" = 1'-0"
140
0.75
141
12.0
290
     0
  0
SCALE
  5
BE3A
102
{ACAD_REACTORS
330
BE2D
102
}
330
BE2D
100
AcDbScale
 70
     0
300
1" = 1'-0"
140
1.0
141
12.0
290
     0
  0
SCALE
  5
BE3B
102
{ACAD_REACTORS
330
BE2D
102
}
330
BE2D
100
AcDbScale
 70
     0
300
1-1/2" = 1'-0"
140
1.5
141
12.0
290
     0
  0
SCALE
  5
BE3C
102
{ACAD_REACTORS
330
BE2D
102
}
330
BE2D
100
AcDbScale
 70
     0
300
3" = 1'-0"
140
3.0
141
12.0
290
     0
  0
SCALE
  5
BE3D
102
{ACAD_REACTORS
330
BE2D
102
}
330
BE2D
100
AcDbScale
 70
     0
300
6" = 1'-0"
140
6.0
141
12.0
290
     0
  0
SCALE
  5
BE3E
102
{ACAD_REACTORS
330
BE2D
102
}
330
BE2D
100
AcDbScale
 70
     0
300
1'-0" = 1'-0"
140
12.0
141
12.0
290
     0
  0
ACDBSECTIONVIEWSTYLE
  5
BE42
102
{ACAD_XDICTIONARY
360
BE9D
102
}
102
{ACAD_REACTORS
330
BE41
102
}
330
BE41
100
AcDbModelDocViewStyle
 70
     0
  3
Imperial24
290
     0
100
AcDbSectionViewStyle
 70
     0
 71
     0
 90
       78
 71
     1
340
BA86
 40
0.24
340
0
340
0
 40
0.24
300
I, O, Q, S, X, Z
 40
0.48
 90
        3
 40
0.18
 90
        1
 71
     2
340
BA8A
 90
       25
340
BA8A
 90
       50
 40
0.24
 40
0.0
 40
0.24
 71
     3
340
BA86
 40
0.24
 90
        1
 40
0.75
 90
        1
300
%<\AcVar ViewType \f "%tc1">% %<\AcVar ViewSectionStartId>%-%<\AcVar ViewSectionEndId>%\PSCALE %<\AcVar ViewScale \f "%sn">%
 71
     4
300
ANSI31
 40
1.0
 90
        0
290
     0
290
     0
 90
        6
 40
0.0
 40
1.570796326794896
 40
0.2617993877991494
 40
1.308996938995747
 40
-0.2617993877991494
 40
1.832595714594046
  0
TABLESTYLE
  5
BE2C
102
{ACAD_XDICTIONARY
360
BE64
102
}
102
{ACAD_REACTORS
330
BE2B
102
}
330
BE2B
100
AcDbTableStyle
  3
Standard
 70
     0
 71
     0
 40
0.06
 41
0.06
280
     0
281
     0
  7
STANDARD
140
0.18
170
     2
 62
     0
 63
     7
283
     0
274
    -2
284
     1
 64
     0
275
    -2
285
     1
 65
     0
276
    -2
286
     1
 66
     0
277
    -2
287
     1
 67
     0
278
    -2
288
     1
 68
     0
279
    -2
289
     1
 69
     0
  7
STANDARD
140
0.25
170
     5
 62
     0
 63
     7
283
     0
274
    -2
284
     1
 64
     0
275
    -2
285
     1
 65
     0
276
    -2
286
     1
 66
     0
277
    -2
287
     1
 67
     0
278
    -2
288
     1
 68
     0
279
    -2
289
     1
 69
     0
  7
STANDARD
140
0.18
170
     5
 62
     0
 63
     7
283
     0
274
    -2
284
     1
 64
     0
275
    -2
285
     1
 65
     0
276
    -2
286
     1
 66
     0
277
    -2
287
     1
 67
     0
278
    -2
288
     1
 68
     0
279
    -2
289
     1
 69
     0
  0
VISUALSTYLE
  5
BE17
102
{ACAD_XDICTIONARY
360
BE75
102
}
102
{ACAD_REACTORS
330
BE11
102
}
330
BE11
100
AcDbVisualStyle
  2
2dWireframe
 70
     4
 71
     0
 72
     2
 73
     0
 90
        0
 40
-0.6
 41
-30.0
 62
     5
 63
     7
 74
     1
 91
        4
 64
     7
 65
   257
 75
     1
175
     1
 42
1.0
 92
        0
 66
   257
 43
1.0
 76
     1
 77
     6
 78
     2
 67
     7
 79
     5
170
     0
171
     0
290
     0
174
     0
 93
        1
 44
0.0
173
     0
291
     0
 45
0.0
1001
ACAD
1000
AcDbSavedByObjectVersion
1070
     0
  0
VISUALSTYLE
  5
BE16
102
{ACAD_XDICTIONARY
360
BE73
102
}
102
{ACAD_REACTORS
330
BE11
102
}
330
BE11
100
AcDbVisualStyle
  2
Basic
 70
     7
 71
     1
 72
     0
 73
     1
 90
        0
 40
-0.6
 41
-30.0
 62
     5
 63
     7
 74
     0
 91
        4
 64
     7
 65
   257
 75
     1
175
     1
 42
1.0
 92
        8
 66
     7
 43
1.0
 76
     1
 77
     6
 78
     2
 67
     7
 79
     5
170
     0
171
     0
290
     0
174
     0
 93
        1
 44
0.0
173
     0
291
     1
 45
0.0
1001
ACAD
1000
AcDbSavedByObjectVersion
1070
     0
  0
VISUALSTYLE
  5
BE1D
102
{ACAD_XDICTIONARY
360
BE81
102
}
102
{ACAD_REACTORS
330
BE11
102
}
330
BE11
100
AcDbVisualStyle
  2
Brighten
 70
    12
 71
     2
 72
     2
 73
     0
 90
        0
 40
-0.6
 41
-30.0
 62
     5
 63
     7
 74
     1
 91
        4
 64
     7
 65
   257
 75
     1
175
     1
 42
1.0
 92
        8
 66
     7
 43
1.0
 76
     1
 77
     6
 78
     2
 67
     7
 79
     5
170
     0
171
     0
290
     0
174
     0
 93
        1
 44
50.0
173
     0
291
     1
 45
0.0
1001
ACAD
1000
AcDbSavedByObjectVersion
1070
     0
  0
VISUALSTYLE
  5
BE21
102
{ACAD_XDICTIONARY
360
BE89
102
}
102
{ACAD_REACTORS
330
BE11
102
}
330
BE11
100
AcDbVisualStyle
  2
ColorChange
 70
    16
 71
     2
 72
     2
 73
     3
 90
        0
 40
-0.6
 41
-30.0
 62
     5
 63
     8
 74
     1
 91
        4
 64
     7
 65
   257
 75
     1
175
     1
 42
1.0
 92
        8
 66
     8
 43
1.0
 76
     1
 77
     6
 78
     2
 67
     7
 79
     5
170
     0
171
     0
290
     0
174
     0
 93
        1
 44
0.0
173
     0
291
     1
 45
0.0
1001
ACAD
1000
AcDbSavedByObjectVersion
1070
     0
  0
VISUALSTYLE
  5
BE1A
102
{ACAD_XDICTIONARY
360
BE7B
102
}
102
{ACAD_REACTORS
330
BE11
102
}
330
BE11
100
AcDbVisualStyle
  2
Conceptual
 70
     9
 71
     3
 72
     2
 73
     0
 90
        0
 40
-0.6
 41
-30.0
 62
     5
 63
     7
 74
     2
 91
        2
 64
     7
 65
   257
 75
     1
175
     1
 42
179.0
 92
        8
 66
     7
 43
1.0
 76
     1
 77
     6
 78
     2
 67
     7
 79
     3
170
     0
171
     0
290
     0
174
     0
 93
        1
 44
0.0
173
     0
291
     0
 45
0.0
1001
ACAD
1000
AcDbSavedByObjectVersion
1070
     0
  0
VISUALSTYLE
  5
BE1C
102
{ACAD_XDICTIONARY
360
BE7F
102
}
102
{ACAD_REACTORS
330
BE11
102
}
330
BE11
100
AcDbVisualStyle
  2
Dim
 70
    11
 71
     2
 72
     2
 73
     0
 90
        0
 40
-0.6
 41
-30.0
 62
     5
 63
     7
 74
     1
 91
        4
 64
     7
 65
   257
 75
     1
175
     1
 42
1.0
 92
        8
 66
     7
 43
1.0
 76
     1
 77
     6
 78
     2
 67
     7
 79
     5
170
     0
171
     0
290
     0
174
     0
 93
        1
 44
-50.0
173
     0
291
     1
 45
0.0
1001
ACAD
1000
AcDbSavedByObjectVersion
1070
     0
  0
VISUALSTYLE
  5
BE29
102
{ACAD_XDICTIONARY
360
BE99
102
}
102
{ACAD_REACTORS
330
BE11
102
}
330
BE11
100
AcDbVisualStyle
  2
EdgeColorOff
 70
    22
 71
     2
 72
     2
 73
     0
 90
        0
 40
-0.6
 41
-30.0
 62
     5
 63
     7
 74
     1
 91
        4
 64
     7
 65
   257
 75
     1
175
     1
 42
1.0
 92
        8
 66
     7
 43
1.0
 76
     1
 77
     6
 78
     2
 67
     7
 79
     5
170
     0
171
     0
290
     0
174
     0
 93
        1
 44
0.0
173
     0
291
     1
 45
0.0
1001
ACAD
1000
AcDbSavedByObjectVersion
1070
     0
  0
VISUALSTYLE
  5
BE20
102
{ACAD_XDICTIONARY
360
BE87
102
}
102
{ACAD_REACTORS
330
BE11
102
}
330
BE11
100
AcDbVisualStyle
  2
Facepattern
 70
    15
 71
     2
 72
     2
 73
     0
 90
        0
 40
-0.6
 41
-30.0
 62
     5
 63
     7
 74
     1
 91
        4
 64
     7
 65
   257
 75
     1
175
     1
 42
1.0
 92
        8
 66
     7
 43
1.0
 76
     1
 77
     6
 78
     2
 67
     7
 79
     5
170
     0
171
     0
290
     0
174
     0
 93
        1
 44
0.0
173
     0
291
     1
 45
0.0
1001
ACAD
1000
AcDbSavedByObjectVersion
1070
     0
  0
VISUALSTYLE
  5
BE12
102
{ACAD_XDICTIONARY
360
BE6B
102
}
102
{ACAD_REACTORS
330
BE11
102
}
330
BE11
100
AcDbVisualStyle
  2
Flat
 70
     0
 71
     2
 72
     1
 73
     1
 90
        2
 40
-0.6
 41
30.0
 62
     5
 63
     7
 74
     0
 91
        0
 64
     7
 65
   257
 75
     1
175
     1
 42
1.0
 92
        8
 66
     7
 43
1.0
 76
     1
 77
     6
 78
     2
 67
     7
 79
     5
170
     0
171
     0
290
     0
174
     0
 93
       13
 44
0.0
173
     0
291
     1
 45
0.0
1001
ACAD
1000
AcDbSavedByObjectVersion
1070
     0
  0
VISUALSTYLE
  5
BE13
102
{ACAD_XDICTIONARY
360
BE6D
102
}
102
{ACAD_REACTORS
330
BE11
102
}
330
BE11
100
AcDbVisualStyle
  2
FlatWithEdges
 70
     1
 71
     2
 72
     1
 73
     1
 90
        2
 40
-0.6
 41
30.0
 62
     5
 63
     7
 74
     1
 91
        0
 64
     7
 65
   257
 75
     1
175
     1
 42
1.0
 92
        0
 66
   257
 43
1.0
 76
     1
 77
     6
 78
     2
 67
     7
 79
     5
170
     0
171
     0
290
     0
174
     0
 93
       13
 44
0.0
173
     0
291
     1
 45
0.0
1001
ACAD
1000
AcDbSavedByObjectVersion
1070
     0
  0
VISUALSTYLE
  5
BE14
102
{ACAD_XDICTIONARY
360
BE6F
102
}
102
{ACAD_REACTORS
330
BE11
102
}
330
BE11
100
AcDbVisualStyle
  2
Gouraud
 70
     2
 71
     2
 72
     2
 73
     1
 90
        2
 40
-0.6
 41
30.0
 62
     5
 63
     7
 74
     0
 91
        0
 64
     7
 65
   257
 75
     1
175
     1
 42
1.0
 92
        0
 66
     7
 43
1.0
 76
     1
 77
     6
 78
     2
 67
     7
 79
     5
170
     0
171
     0
290
     0
174
     0
 93
       13
 44
0.0
173
     0
291
     1
 45
0.0
1001
ACAD
1000
AcDbSavedByObjectVersion
1070
     0
  0
VISUALSTYLE
  5
BE15
102
{ACAD_XDICTIONARY
360
BE71
102
}
102
{ACAD_REACTORS
330
BE11
102
}
330
BE11
100
AcDbVisualStyle
  2
GouraudWithEdges
 70
     3
 71
     2
 72
     2
 73
     1
 90
        2
 40
-0.6
 41
30.0
 62
     5
 63
     7
 74
     1
 91
        0
 64
     7
 65
   257
 75
     1
175
     1
 42
1.0
 92
        0
 66
   257
 43
1.0
 76
     1
 77
     6
 78
     2
 67
     7
 79
     5
170
     0
171
     0
290
     0
174
     0
 93
       13
 44
0.0
173
     0
291
     1
 45
0.0
1001
ACAD
1000
AcDbSavedByObjectVersion
1070
     0
  0
VISUALSTYLE
  5
BE19
102
{ACAD_XDICTIONARY
360
BE79
102
}
102
{ACAD_REACTORS
330
BE11
102
}
330
BE11
100
AcDbVisualStyle
  2
Hidden
 70
     6
 71
     1
 72
     2
 73
     2
 90
        0
 40
-0.6
 41
-30.0
 62
     5
 63
     7
 74
     2
 91
        2
 64
     7
 65
   257
 75
     2
175
     1
 42
40.0
 92
        0
 66
   257
 43
1.0
 76
     1
 77
     6
 78
     2
 67
     7
 79
     3
170
     0
171
     0
290
     0
174
     0
 93
        1
 44
0.0
173
     0
291
     0
 45
0.0
1001
ACAD
1000
AcDbSavedByObjectVersion
1070
     0
  0
VISUALSTYLE
  5
BE27
102
{ACAD_XDICTIONARY
360
BE95
102
}
102
{ACAD_REACTORS
330
BE11
102
}
330
BE11
100
AcDbVisualStyle
  2
JitterOff
 70
    20
 71
     2
 72
     2
 73
     0
 90
        0
 40
-0.6
 41
-30.0
 62
     5
 63
     7
 74
     1
 91
        4
 64
     7
 65
   257
 75
     1
175
     1
 42
1.0
 92
       10
 66
     7
 43
1.0
 76
     1
 77
     6
 78
     2
 67
     7
 79
     5
170
     0
171
     0
290
     0
174
     0
 93
        1
 44
0.0
173
     0
291
     1
 45
0.0
1001
ACAD
1000
AcDbSavedByObjectVersion
1070
     0
  0
VISUALSTYLE
  5
BE1F
102
{ACAD_XDICTIONARY
360
BE85
102
}
102
{ACAD_REACTORS
330
BE11
102
}
330
BE11
100
AcDbVisualStyle
  2
Linepattern
 70
    14
 71
     2
 72
     2
 73
     0
 90
        0
 40
-0.6
 41
-30.0
 62
     5
 63
     7
 74
     1
 91
        4
 64
     7
 65
   257
 75
     7
175
     7
 42
1.0
 92
        8
 66
     7
 43
1.0
 76
     1
 77
     6
 78
     2
 67
     7
 79
     5
170
     0
171
     0
290
     0
174
     0
 93
        1
 44
0.0
173
     0
291
     1
 45
0.0
1001
ACAD
1000
AcDbSavedByObjectVersion
1070
     0
  0
VISUALSTYLE
  5
BE28
102
{ACAD_XDICTIONARY
360
BE97
102
}
102
{ACAD_REACTORS
330
BE11
102
}
330
BE11
100
AcDbVisualStyle
  2
OverhangOff
 70
    21
 71
     2
 72
     2
 73
     0
 90
        0
 40
-0.6
 41
-30.0
 62
     5
 63
     7
 74
     1
 91
        4
 64
     7
 65
   257
 75
     1
175
     1
 42
1.0
 92
        9
 66
     7
 43
1.0
 76
     1
 77
     6
 78
     2
 67
     7
 79
     5
170
     0
171
     0
290
     0
174
     0
 93
        1
 44
0.0
173
     0
291
     1
 45
0.0
1001
ACAD
1000
AcDbSavedByObjectVersion
1070
     0
  0
VISUALSTYLE
  5
BE1B
102
{ACAD_XDICTIONARY
360
BE7D
102
}
102
{ACAD_REACTORS
330
BE11
102
}
330
BE11
100
AcDbVisualStyle
  2
Realistic
 70
     8
 71
     2
 72
     3
 73
     0
 90
        2
 40
-0.6
 41
30.0
 62
     5
 63
     7
 74
     0
 91
        0
 64
     7
 65
   257
 75
     1
175
     1
 42
1.0
 92
        8
 66
   257
 43
1.0
 76
     1
 77
     6
 78
     2
 67
     7
 79
     3
170
     0
171
     0
290
     0
174
     0
 93
       13
 44
0.0
173
     0
291
     0
 45
0.0
1001
ACAD
1000
AcDbSavedByObjectVersion
1070
     0
  0
VISUALSTYLE
  5
BE26
102
{ACAD_XDICTIONARY
360
BE93
102
}
102
{ACAD_REACTORS
330
BE11
102
}
330
BE11
100
AcDbVisualStyle
  2
Shaded
 70
    27
 71
     2
 72
     2
 73
     1
 90
        2
 40
-0.6
 41
30.0
 62
     5
 63
     7
 74
     0
 91
        4
 64
     7
 65
   257
 75
     1
175
     1
 42
1.0
 92
        8
 66
   257
 43
1.0
 76
     1
 77
     6
 78
     2
 67
     8
 79
     3
170
     0
171
     0
290
     0
174
     0
 93
        5
 44
0.0
173
     0
291
     0
 45
0.0
1001
ACAD
1000
AcDbSavedByObjectVersion
1070
     0
  0
VISUALSTYLE
  5
BE25
102
{ACAD_XDICTIONARY
360
BE91
102
}
102
{ACAD_REACTORS
330
BE11
102
}
330
BE11
100
AcDbVisualStyle
  2
Shaded with edges
 70
    26
 71
     2
 72
     2
 73
     1
 90
        2
 40
-0.6
 41
30.0
 62
     5
 63
     7
 74
     1
 91
       10
 64
     7
 65
   257
 75
     2
175
     1
 42
1.0
 92
        8
 66
   257
 43
1.0
 76
     1
 77
     6
 78
     2
 67
     7
 79
     3
170
     0
171
     0
290
     0
174
     0
 93
        5
 44
0.0
173
     0
291
     0
 45
0.0
1001
ACAD
1000
AcDbSavedByObjectVersion
1070
     0
  0
VISUALSTYLE
  5
BE22
102
{ACAD_XDICTIONARY
360
BE8B
102
}
102
{ACAD_REACTORS
330
BE11
102
}
330
BE11
100
AcDbVisualStyle
  2
Shades of Gray
 70
    23
 71
     2
 72
     2
 73
     3
 90
        0
 40
-0.6
 41
-30.0
 62
     5
 63
     7
 74
     2
 91
        2
 64
     7
 65
     7
 75
     1
175
     1
 42
40.0
 92
        8
 66
     7
 43
1.0
 76
     1
 77
     6
 78
     2
 67
     7
 79
     3
170
     0
171
     0
290
     0
174
     0
 93
        1
 44
0.0
173
     0
291
     0
 45
0.0
1001
ACAD
1000
AcDbSavedByObjectVersion
1070
     0
  0
VISUALSTYLE
  5
BE23
102
{ACAD_XDICTIONARY
360
BE8D
102
}
102
{ACAD_REACTORS
330
BE11
102
}
330
BE11
100
AcDbVisualStyle
  2
Sketchy
 70
    24
 71
     1
 72
     2
 73
     2
 90
        0
 40
-0.6
 41
-30.0
 62
     5
 63
     7
 74
     2
 91
        2
 64
     7
 65
     7
 75
     1
175
     1
 42
40.0
 92
       11
 66
     7
 43
1.0
 76
     1
 77
     6
 78
     2
 67
     7
 79
     6
170
     0
171
     0
290
     0
174
     0
 93
        1
 44
0.0
173
     0
291
     0
 45
0.0
1001
ACAD
1000
AcDbSavedByObjectVersion
1070
     0
  0
VISUALSTYLE
  5
BE1E
102
{ACAD_XDICTIONARY
360
BE83
102
}
102
{ACAD_REACTORS
330
BE11
102
}
330
BE11
100
AcDbVisualStyle
  2
Thicken
 70
    13
 71
     2
 72
     2
 73
     0
 90
        0
 40
-0.6
 41
-30.0
 62
     5
 63
     7
 74
     1
 91
        4
 64
     7
 65
   257
 75
     1
175
     1
 42
1.0
 92
       12
 66
     7
 43
1.0
 76
     1
 77
     6
 78
     2
 67
     7
 79
     5
170
     0
171
     0
290
     0
174
     0
 93
        1
 44
0.0
173
     0
291
     1
 45
0.0
1001
ACAD
1000
AcDbSavedByObjectVersion
1070
     0
  0
VISUALSTYLE
  5
BE18
102
{ACAD_XDICTIONARY
360
BE77
102
}
102
{ACAD_REACTORS
330
BE11
102
}
330
BE11
100
AcDbVisualStyle
  2
Wireframe
 70
     5
 71
     0
 72
     2
 73
     0
 90
        0
 40
-0.6
 41
-30.0
 62
     5
 63
     7
 74
     1
 91
        4
 64
     7
 65
   257
 75
     1
175
     1
 42
1.0
 92
        0
 66
   257
 43
1.0
 76
     1
 77
     6
 78
     2
 67
     7
 79
     3
170
     0
171
     0
290
     0
174
     0
 93
        1
 44
0.0
173
     0
291
     0
 45
0.0
1001
ACAD
1000
AcDbSavedByObjectVersion
1070
     0
  0
VISUALSTYLE
  5
BE24
102
{ACAD_XDICTIONARY
360
BE8F
102
}
102
{ACAD_REACTORS
330
BE11
102
}
330
BE11
100
AcDbVisualStyle
  2
X-Ray
 70
    25
 71
     2
 72
     2
 73
     1
 90
        1
 40
0.5
 41
-30.0
 62
     5
 63
     7
 74
     1
 91
        0
 64
     7
 65
   257
 75
     1
175
     1
 42
1.0
 92
        8
 66
     7
 43
1.0
 76
     1
 77
     6
 78
     2
 67
     7
 79
     3
170
     0
171
     0
290
     0
174
     0
 93
       13
 44
0.0
173
     0
291
     0
 45
0.0
1001
ACAD
1000
AcDbSavedByObjectVersion
1070
     0
  0
DICTIONARYVAR
  5
BE5E
102
{ACAD_REACTORS
330
BE59
102
}
330
BE59
100
DictionaryVariables
280
     0
  1
1:1
  0
DICTIONARYVAR
  5
BE5B
102
{ACAD_REACTORS
330
BE59
102
}
330
BE59
100
DictionaryVariables
280
     0
  1
STANDARD
  0
DICTIONARYVAR
  5
BE5A
102
{ACAD_REACTORS
330
BE59
102
}
330
BE59
100
DictionaryVariables
280
     0
  1
STANDARD
  0
DICTIONARYVAR
  5
BE5C
102
{ACAD_REACTORS
330
BE59
102
}
330
BE59
100
DictionaryVariables
280
     0
  1
Imperial24
  0
DICTIONARYVAR
  5
BE5D
102
{ACAD_REACTORS
330
BE59
102
}
330
BE59
100
DictionaryVariables
280
     0
  1
Imperial24
  0
DICTIONARYVAR
  5
BE61
102
{ACAD_REACTORS
330
BE59
102
}
330
BE59
100
DictionaryVariables
280
     0
  1
1
  0
DICTIONARYVAR
  5
BE60
102
{ACAD_REACTORS
330
BE59
102
}
330
BE59
100
DictionaryVariables
280
     0
  1
0
  0
DICTIONARYVAR
  5
BE5F
102
{ACAD_REACTORS
330
BE59
102
}
330
BE59
100
DictionaryVariables
280
     0
  1
127
  0
DICTIONARYVAR
  5
BE62
102
{ACAD_REACTORS
330
BE59
102
}
330
BE59
100
DictionaryVariables
280
     0
  1
2
  0
DICTIONARY
  5
BE9F
330
BE44
100
AcDbDictionary
280
     1
281
     1
  3
ACAD_XREC_ROUNDTRIP
360
BEA0
  0
DICTIONARY
  5
BEA1
330
BE45
100
AcDbDictionary
280
     1
281
     1
  3
ACAD_XREC_ROUNDTRIP
360
BEA2
  0
DICTIONARY
  5
BEA3
330
BE46
100
AcDbDictionary
280
     1
281
     1
  3
ACAD_XREC_ROUNDTRIP
360
BEA4
  0
DICTIONARY
  5
BE02
330
BE01
100
AcDbDictionary
280
     1
281
     1
  3
ACAD_XREC_ROUNDTRIP
360
BE69
  3
BUMPTILE
360
BE04
  3
DIFFUSETILE
360
BE03
  3
OPACITYTILE
360
BE07
  3
REFLECTIONTILE
360
BE06
  3
REFRACTIONTILE
360
BE08
  3
SPECULARTILE
360
BE05
  0
DICTIONARY
  5
BDFA
330
BDF9
100
AcDbDictionary
280
     1
281
     1
  3
ACAD_XREC_ROUNDTRIP
360
BE68
  3
BUMPTILE
360
BDFC
  3
DIFFUSETILE
360
BDFB
  3
OPACITYTILE
360
BDFF
  3
REFLECTIONTILE
360
BDFE
  3
REFRACTIONTILE
360
BE00
  3
SPECULARTILE
360
BDFD
  0
DICTIONARY
  5
BE0A
330
BE09
100
AcDbDictionary
280
     1
281
     1
  3
ACAD_XREC_ROUNDTRIP
360
BE6A
  3
BUMPTILE
360
BE0C
  3
DIFFUSETILE
360
BE0B
  3
OPACITYTILE
360
BE0F
  3
REFLECTIONTILE
360
BE0E
  3
REFRACTIONTILE
360
BE10
  3
SPECULARTILE
360
BE0D
  0
DICTIONARY
  5
BE9D
330
BE42
100
AcDbDictionary
280
     1
281
     1
  3
ACAD_XREC_ROUNDTRIP
360
BE9E
  0
DICTIONARY
  5
BE64
330
BE2C
100
AcDbDictionary
280
     1
281
     1
  3
ACAD_ROUNDTRIP_2008_TABLESTYLE_CELLSTYLEMAP
360
BE65
  3
ACAD_XREC_ROUNDTRIP
360
BE9B
  0
DICTIONARY
  5
BE75
330
BE17
100
AcDbDictionary
280
     1
281
     1
  3
ACAD_XREC_ROUNDTRIP
360
BE76
  0
DICTIONARY
  5
BE73
330
BE16
100
AcDbDictionary
280
     1
281
     1
  3
ACAD_XREC_ROUNDTRIP
360
BE74
  0
DICTIONARY
  5
BE81
330
BE1D
100
AcDbDictionary
280
     1
281
     1
  3
ACAD_XREC_ROUNDTRIP
360
BE82
  0
DICTIONARY
  5
BE89
330
BE21
100
AcDbDictionary
280
     1
281
     1
  3
ACAD_XREC_ROUNDTRIP
360
BE8A
  0
DICTIONARY
  5
BE7B
330
BE1A
100
AcDbDictionary
280
     1
281
     1
  3
ACAD_XREC_ROUNDTRIP
360
BE7C
  0
DICTIONARY
  5
BE7F
330
BE1C
100
AcDbDictionary
280
     1
281
     1
  3
ACAD_XREC_ROUNDTRIP
360
BE80
  0
DICTIONARY
  5
BE99
330
BE29
100
AcDbDictionary
280
     1
281
     1
  3
ACAD_XREC_ROUNDTRIP
360
BE9A
  0
DICTIONARY
  5
BE87
330
BE20
100
AcDbDictionary
280
     1
281
     1
  3
ACAD_XREC_ROUNDTRIP
360
BE88
  0
DICTIONARY
  5
BE6B
330
BE12
100
AcDbDictionary
280
     1
281
     1
  3
ACAD_XREC_ROUNDTRIP
360
BE6C
  0
DICTIONARY
  5
BE6D
330
BE13
100
AcDbDictionary
280
     1
281
     1
  3
ACAD_XREC_ROUNDTRIP
360
BE6E
  0
DICTIONARY
  5
BE6F
330
BE14
100
AcDbDictionary
280
     1
281
     1
  3
ACAD_XREC_ROUNDTRIP
360
BE70
  0
DICTIONARY
  5
BE71
330
BE15
100
AcDbDictionary
280
     1
281
     1
  3
ACAD_XREC_ROUNDTRIP
360
BE72
  0
DICTIONARY
  5
BE79
330
BE19
100
AcDbDictionary
280
     1
281
     1
  3
ACAD_XREC_ROUNDTRIP
360
BE7A
  0
DICTIONARY
  5
BE95
330
BE27
100
AcDbDictionary
280
     1
281
     1
  3
ACAD_XREC_ROUNDTRIP
360
BE96
  0
DICTIONARY
  5
BE85
330
BE1F
100
AcDbDictionary
280
     1
281
     1
  3
ACAD_XREC_ROUNDTRIP
360
BE86
  0
DICTIONARY
  5
BE97
330
BE28
100
AcDbDictionary
280
     1
281
     1
  3
ACAD_XREC_ROUNDTRIP
360
BE98
  0
DICTIONARY
  5
BE7D
330
BE1B
100
AcDbDictionary
280
     1
281
     1
  3
ACAD_XREC_ROUNDTRIP
360
BE7E
  0
DICTIONARY
  5
BE93
330
BE26
100
AcDbDictionary
280
     1
281
     1
  3
ACAD_XREC_ROUNDTRIP
360
BE94
  0
DICTIONARY
  5
BE91
330
BE25
100
AcDbDictionary
280
     1
281
     1
  3
ACAD_XREC_ROUNDTRIP
360
BE92
  0
DICTIONARY
  5
BE8B
330
BE22
100
AcDbDictionary
280
     1
281
     1
  3
ACAD_XREC_ROUNDTRIP
360
BE8C
  0
DICTIONARY
  5
BE8D
330
BE23
100
AcDbDictionary
280
     1
281
     1
  3
ACAD_XREC_ROUNDTRIP
360
BE8E
  0
DICTIONARY
  5
BE83
330
BE1E
100
AcDbDictionary
280
     1
281
     1
  3
ACAD_XREC_ROUNDTRIP
360
BE84
  0
DICTIONARY
  5
BE77
330
BE18
100
AcDbDictionary
280
     1
281
     1
  3
ACAD_XREC_ROUNDTRIP
360
BE78
  0
DICTIONARY
  5
BE8F
330
BE24
100
AcDbDictionary
280
     1
281
     1
  3
ACAD_XREC_ROUNDTRIP
360
BE90
  0
XRECORD
  5
BEA0
102
{ACAD_REACTORS
330
BE9F
102
}
330
BE9F
100
AcDbXrecord
280
     1
102
DISPLAYNAME
  1
Imperial24
102
FLAGS
 90
        0
  0
XRECORD
  5
BEA2
102
{ACAD_REACTORS
330
BEA1
102
}
330
BEA1
100
AcDbXrecord
280
     1
102
SHADEPLOT
 70
     0
102
SHADEPLOTRESLEVEL
 70
     2
102
SHADEPLOTCUSTOMDPI
 70
   300
  0
XRECORD
  5
BEA4
102
{ACAD_REACTORS
330
BEA3
102
}
330
BEA3
100
AcDbXrecord
280
     1
102
SHADEPLOT
 70
     0
102
SHADEPLOTRESLEVEL
 70
     2
102
SHADEPLOTCUSTOMDPI
 70
   300
  0
XRECORD
  5
BE69
102
{ACAD_REACTORS
330
BE02
102
}
330
BE02
100
AcDbXrecord
280
     1
102
MATERIAL
148
0.0
149
0.0
149
0.0
 93
        0
 94
      127
282
     0
 72
     0
 77
     0
171
     0
175
     0
179
     0
273
     0
  0
XRECORD
  5
BE04
102
{ACAD_REACTORS
330
BE02
102
}
330
BE02
100
AcDbXrecord
280
     1
270
     1
271
     1
  0
XRECORD
  5
BE03
102
{ACAD_REACTORS
330
BE02
102
}
330
BE02
100
AcDbXrecord
280
     1
270
     1
271
     1
  0
XRECORD
  5
BE07
102
{ACAD_REACTORS
330
BE02
102
}
330
BE02
100
AcDbXrecord
280
     1
270
     1
271
     1
  0
XRECORD
  5
BE06
102
{ACAD_REACTORS
330
BE02
102
}
330
BE02
100
AcDbXrecord
280
     1
270
     1
271
     1
  0
XRECORD
  5
BE08
102
{ACAD_REACTORS
330
BE02
102
}
330
BE02
100
AcDbXrecord
280
     1
270
     1
271
     1
  0
XRECORD
  5
BE05
102
{ACAD_REACTORS
330
BE02
102
}
330
BE02
100
AcDbXrecord
280
     1
270
     1
271
     1
  0
XRECORD
  5
BE68
102
{ACAD_REACTORS
330
BDFA
102
}
330
BDFA
100
AcDbXrecord
280
     1
102
MATERIAL
148
0.0
149
0.0
149
0.0
 93
        0
 94
      127
282
     0
 72
     0
 77
     0
171
     0
175
     0
179
     0
273
     0
  0
XRECORD
  5
BDFC
102
{ACAD_REACTORS
330
BDFA
102
}
330
BDFA
100
AcDbXrecord
280
     1
270
     1
271
     1
  0
XRECORD
  5
BDFB
102
{ACAD_REACTORS
330
BDFA
102
}
330
BDFA
100
AcDbXrecord
280
     1
270
     1
271
     1
  0
XRECORD
  5
BDFF
102
{ACAD_REACTORS
330
BDFA
102
}
330
BDFA
100
AcDbXrecord
280
     1
270
     1
271
     1
  0
XRECORD
  5
BDFE
102
{ACAD_REACTORS
330
BDFA
102
}
330
BDFA
100
AcDbXrecord
280
     1
270
     1
271
     1
  0
XRECORD
  5
BE00
102
{ACAD_REACTORS
330
BDFA
102
}
330
BDFA
100
AcDbXrecord
280
     1
270
     1
271
     1
  0
XRECORD
  5
BDFD
102
{ACAD_REACTORS
330
BDFA
102
}
330
BDFA
100
AcDbXrecord
280
     1
270
     1
271
     1
  0
XRECORD
  5
BE6A
102
{ACAD_REACTORS
330
BE0A
102
}
330
BE0A
100
AcDbXrecord
280
     1
102
MATERIAL
148
0.0
149
0.0
149
0.0
 93
        0
 94
      127
282
     0
 72
     0
 77
     0
171
     0
175
     0
179
     0
273
     0
  0
XRECORD
  5
BE0C
102
{ACAD_REACTORS
330
BE0A
102
}
330
BE0A
100
AcDbXrecord
280
     1
270
     1
271
     1
  0
XRECORD
  5
BE0B
102
{ACAD_REACTORS
330
BE0A
102
}
330
BE0A
100
AcDbXrecord
280
     1
270
     1
271
     1
  0
XRECORD
  5
BE0F
102
{ACAD_REACTORS
330
BE0A
102
}
330
BE0A
100
AcDbXrecord
280
     1
270
     1
271
     1
  0
XRECORD
  5
BE0E
102
{ACAD_REACTORS
330
BE0A
102
}
330
BE0A
100
AcDbXrecord
280
     1
270
     1
271
     1
  0
XRECORD
  5
BE10
102
{ACAD_REACTORS
330
BE0A
102
}
330
BE0A
100
AcDbXrecord
280
     1
270
     1
271
     1
  0
XRECORD
  5
BE0D
102
{ACAD_REACTORS
330
BE0A
102
}
330
BE0A
100
AcDbXrecord
280
     1
270
     1
271
     1
  0
XRECORD
  5
BE9E
102
{ACAD_REACTORS
330
BE9D
102
}
330
BE9D
100
AcDbXrecord
280
     1
102
DISPLAYNAME
  1
Imperial24
102
FLAGS
 90
        0
  0
CELLSTYLEMAP
  5
BE65
102
{ACAD_REACTORS
330
BE64
102
}
330
BE64
100
AcDbCellStyleMap
 90
        3
300
CELLSTYLE
  1
TABLEFORMAT_BEGIN
 90
        5
170
     1
 91
        0
 92
    32768
 62
   257
 93
        1
300
CONTENTFORMAT
  1
CONTENTFORMAT_BEGIN
 90
        0
 91
        0
 92
      512
 93
        0
300

 40
0.0
140
1.0
 94
        5
 62
     0
340
BA86
144
0.25
309
CONTENTFORMAT_END
171
     0
 94
        0
309
TABLEFORMAT_END
  1
CELLSTYLE_BEGIN
 90
        1
 91
        1
300
_TITLE
309
CELLSTYLE_END
300
CELLSTYLE
  1
TABLEFORMAT_BEGIN
 90
        5
170
     1
 91
        0
 92
        0
 62
   257
 93
        1
300
CONTENTFORMAT
  1
CONTENTFORMAT_BEGIN
 90
        0
 91
        0
 92
      512
 93
        0
300

 40
0.0
140
1.0
 94
        5
 62
     0
340
BA86
144
0.18
309
CONTENTFORMAT_END
171
     0
 94
        0
309
TABLEFORMAT_END
  1
CELLSTYLE_BEGIN
 90
        2
 91
        1
300
_HEADER
309
CELLSTYLE_END
300
CELLSTYLE
  1
TABLEFORMAT_BEGIN
 90
        5
170
     1
 91
        0
 92
        0
 62
   257
 93
        1
300
CONTENTFORMAT
  1
CONTENTFORMAT_BEGIN
 90
        0
 91
        0
 92
      512
 93
        0
300

 40
0.0
140
1.0
 94
        2
 62
     0
340
BA86
144
0.18
309
CONTENTFORMAT_END
171
     0
 94
        0
309
TABLEFORMAT_END
  1
CELLSTYLE_BEGIN
 90
        3
 91
        2
300
_DATA
309
CELLSTYLE_END
  0
XRECORD
  5
BE9B
102
{ACAD_REACTORS
330
BE64
102
}
330
BE64
100
AcDbXrecord
280
     1
102
ACAD_ROUNDTRIP_PRE2007_TABLESTYLE
 90
      512
 91
        0
  1

 92
      512
 93
        0
  2

 94
      512
 95
        0
  3

  0
XRECORD
  5
BE76
102
{ACAD_REACTORS
330
BE75
102
}
330
BE75
100
AcDbXrecord
280
     1
102
RTVSPost2010Prop28
280
     1
102
RTVSPost2010PropOp28
 70
     1
102
RTVSPost2010Prop29
280
     1
102
RTVSPost2010PropOp29
 70
     1
102
RTVSPost2010Prop30
280
     0
102
RTVSPost2010PropOp30
 70
     1
102
RTVSPost2010Prop31
280
     0
102
RTVSPost2010PropOp31
 70
     1
102
RTVSPost2010Prop32
280
     0
102
RTVSPost2010PropOp32
 70
     1
102
RTVSPost2010Prop33
280
     0
102
RTVSPost2010PropOp33
 70
     1
102
RTVSPost2010Prop34
280
     0
102
RTVSPost2010PropOp34
 70
     1
102
RTVSPost2010Prop35
280
     0
102
RTVSPost2010PropOp35
 70
     1
102
RTVSPost2010Prop36
280
     0
102
RTVSPost2010PropOp36
 70
     1
102
RTVSPost2010Prop37
 90
       50
102
RTVSPost2010PropOp37
 70
     1
102
RTVSPost2010Prop38
140
0.0
102
RTVSPost2010PropOp38
 70
     1
102
RTVSPost2010Prop39
140
1.0
102
RTVSPost2010PropOp39
 70
     1
102
RTVSPost2010Prop40
 90
        0
102
RTVSPost2010PropOp40
 70
     1
102
RTVSPost2010Prop41ColorIndex
 90
       18
102
RTVSPost2010Prop41ColorRGB
 90
        0
102
RTVSPost2010PropOp41
 70
     1
102
RTVSPost2010Prop42
 90
       50
102
RTVSPost2010PropOp42
 70
     1
102
RTVSPost2010Prop43
 90
        3
102
RTVSPost2010PropOp43
 70
     1
102
RTVSPost2010Prop44ColorIndex
 90
        5
102
RTVSPost2010Prop44ColorRGB
 90
      255
102
RTVSPost2010PropOp44
 70
     1
102
RTVSPost2010Prop45
280
     0
102
RTVSPost2010PropOp45
 70
     1
102
RTVSPost2010Prop46
 90
       50
102
RTVSPost2010PropOp46
 70
     1
102
RTVSPost2010Prop47
 90
       50
102
RTVSPost2010PropOp47
 70
     1
102
RTVSPost2010Prop48
 90
       50
102
RTVSPost2010PropOp48
 70
     1
102
RTVSPost2010Prop49
280
     0
102
RTVSPost2010PropOp49
 70
     1
102
RTVSPost2010Prop50
 90
       50
102
RTVSPost2010PropOp50
 70
     1
102
RTVSPost2010Prop51ColorIndex
 90
      256
102
RTVSPost2010Prop51ColorRGB
 90
-16777216
102
RTVSPost2010PropOp51
 70
     0
102
RTVSPost2010Prop52
140
1.0
102
RTVSPost2010PropOp52
 70
     0
102
RTVSPost2010Prop53
 90
        2
102
RTVSPost2010PropOp53
 70
     1
102
RTVSPost2010Prop54
  1
strokes_ogs.tif
102
RTVSPost2010PropOp54
 70
     1
102
RTVSPost2010Prop55
280
     0
102
RTVSPost2010PropOp55
 70
     1
102
RTVSPost2010Prop56
140
1.0
102
RTVSPost2010PropOp56
 70
     1
102
RTVSPost2010Prop57
140
1.0
102
RTVSPost2010PropOp57
 70
     1
102
RTVSPropertyOp0
 70
     1
102
RTVSPropertyOp1
 70
     1
102
RTVSPropertyOp2
 70
     1
102
RTVSPropertyOp3
 70
     1
102
RTVSPropertyOp4
 70
     1
102
RTVSPropertyOp5
 70
     1
102
RTVSPropertyOp6
 70
     1
102
RTVSPropertyOp7
 70
     1
102
RTVSPropertyOp8
 70
     1
102
RTVSPropertyOp9
 70
     1
102
RTVSPropertyOp10
 70
     1
102
RTVSPropertyOp11
 70
     1
102
RTVSPropertyOp12
 70
     1
102
RTVSPropertyOp13
 70
     1
102
RTVSPropertyOp14
 70
     1
102
RTVSPropertyOp15
 70
     1
102
RTVSPropertyOp16
 70
     1
102
RTVSPropertyOp17
 70
     1
102
RTVSPropertyOp18
 70
     1
102
RTVSPropertyOp19
 70
     1
102
RTVSPropertyOp20
 70
     1
102
RTVSPropertyOp21
 70
     1
102
RTVSPropertyOp22
 70
     1
102
RTVSPropertyOp23
 70
     1
102
RTVSPropertyOp24
 70
     1
102
RTVSPropertyOp25
 70
     1
102
RTVSPropertyOp26
 70
     1
102
RTVSPropertyOp27
 70
     1
102
RTVSPropertyOp28
 70
     1
102
RTVSPropertyOp29
 70
     1
102
RTVSPropertyOp30
 70
     1
102
RTVSPropertyOp31
 70
     1
102
RTVSPropertyOp32
 70
     1
102
RTVSPropertyOp33
 70
     1
102
RTVSPropertyOp34
 70
     1
102
RTVSPropertyOp35
 70
     1
102
RTVSPropertyOp36
 70
     1
102
RTVSPropertyOp37
 70
     1
102
RTVSPropertyOp38
 70
     1
102
RTVSPropertyOp39
 70
     1
102
RTVSPropertyOp40
 70
     1
102
RTVSPropertyOp41
 70
     1
102
RTVSPropertyOp42
 70
     1
102
RTVSPropertyOp43
 70
     1
102
RTVSPropertyOp44
 70
     1
102
RTVSPropertyOp45
 70
     1
102
RTVSPropertyOp46
 70
     1
102
RTVSPropertyOp47
 70
     1
102
RTVSPropertyOp48
 70
     1
102
RTVSPropertyOp49
 70
     1
102
RTVSPropertyOp50
 70
     1
102
RTVSPropertyOp51
 70
     0
102
RTVSPropertyOp52
 70
     0
102
RTVSPropertyOp53
 70
     1
102
RTVSPropertyOp54
 70
     1
102
RTVSPropertyOp55
 70
     1
102
RTVSPropertyOp56
 70
     1
102
RTVSPropertyOp57
 70
     1
102
RTVSPropertyOp58
 70
     1
102
RTVSPropertyOp59
 70
     1
102
RTVSPropertyOp60
 70
     1
102
RTVSPropertyOp61
 70
     1
102
RTVSPropertyOp62
 70
     1
  0
XRECORD
  5
BE74
102
{ACAD_REACTORS
330
BE73
102
}
330
BE73
100
AcDbXrecord
280
     1
102
RTVSPost2010Prop28
280
     0
102
RTVSPost2010PropOp28
 70
     1
102
RTVSPost2010Prop29
280
     1
102
RTVSPost2010PropOp29
 70
     1
102
RTVSPost2010Prop30
280
     1
102
RTVSPost2010PropOp30
 70
     1
102
RTVSPost2010Prop31
280
     0
102
RTVSPost2010PropOp31
 70
     1
102
RTVSPost2010Prop32
280
     0
102
RTVSPost2010PropOp32
 70
     1
102
RTVSPost2010Prop33
280
     0
102
RTVSPost2010PropOp33
 70
     1
102
RTVSPost2010Prop34
280
     0
102
RTVSPost2010PropOp34
 70
     1
102
RTVSPost2010Prop35
280
     0
102
RTVSPost2010PropOp35
 70
     1
102
RTVSPost2010Prop36
280
     0
102
RTVSPost2010PropOp36
 70
     1
102
RTVSPost2010Prop37
 90
       50
102
RTVSPost2010PropOp37
 70
     1
102
RTVSPost2010Prop38
140
0.0
102
RTVSPost2010PropOp38
 70
     1
102
RTVSPost2010Prop39
140
1.0
102
RTVSPost2010PropOp39
 70
     1
102
RTVSPost2010Prop40
 90
        0
102
RTVSPost2010PropOp40
 70
     1
102
RTVSPost2010Prop41ColorIndex
 90
       18
102
RTVSPost2010Prop41ColorRGB
 90
        0
102
RTVSPost2010PropOp41
 70
     1
102
RTVSPost2010Prop42
 90
       50
102
RTVSPost2010PropOp42
 70
     1
102
RTVSPost2010Prop43
 90
        3
102
RTVSPost2010PropOp43
 70
     1
102
RTVSPost2010Prop44ColorIndex
 90
        5
102
RTVSPost2010Prop44ColorRGB
 90
      255
102
RTVSPost2010PropOp44
 70
     1
102
RTVSPost2010Prop45
280
     0
102
RTVSPost2010PropOp45
 70
     1
102
RTVSPost2010Prop46
 90
       50
102
RTVSPost2010PropOp46
 70
     1
102
RTVSPost2010Prop47
 90
       50
102
RTVSPost2010PropOp47
 70
     1
102
RTVSPost2010Prop48
 90
       50
102
RTVSPost2010PropOp48
 70
     1
102
RTVSPost2010Prop49
280
     0
102
RTVSPost2010PropOp49
 70
     1
102
RTVSPost2010Prop50
 90
       50
102
RTVSPost2010PropOp50
 70
     1
102
RTVSPost2010Prop51ColorIndex
 90
      256
102
RTVSPost2010Prop51ColorRGB
 90
-16777216
102
RTVSPost2010PropOp51
 70
     0
102
RTVSPost2010Prop52
140
1.0
102
RTVSPost2010PropOp52
 70
     0
102
RTVSPost2010Prop53
 90
        2
102
RTVSPost2010PropOp53
 70
     1
102
RTVSPost2010Prop54
  1
strokes_ogs.tif
102
RTVSPost2010PropOp54
 70
     1
102
RTVSPost2010Prop55
280
     0
102
RTVSPost2010PropOp55
 70
     1
102
RTVSPost2010Prop56
140
1.0
102
RTVSPost2010PropOp56
 70
     1
102
RTVSPost2010Prop57
140
1.0
102
RTVSPost2010PropOp57
 70
     1
102
RTVSPropertyOp0
 70
     1
102
RTVSPropertyOp1
 70
     1
102
RTVSPropertyOp2
 70
     1
102
RTVSPropertyOp3
 70
     1
102
RTVSPropertyOp4
 70
     1
102
RTVSPropertyOp5
 70
     1
102
RTVSPropertyOp6
 70
     1
102
RTVSPropertyOp7
 70
     1
102
RTVSPropertyOp8
 70
     1
102
RTVSPropertyOp9
 70
     1
102
RTVSPropertyOp10
 70
     1
102
RTVSPropertyOp11
 70
     1
102
RTVSPropertyOp12
 70
     1
102
RTVSPropertyOp13
 70
     1
102
RTVSPropertyOp14
 70
     1
102
RTVSPropertyOp15
 70
     1
102
RTVSPropertyOp16
 70
     1
102
RTVSPropertyOp17
 70
     1
102
RTVSPropertyOp18
 70
     1
102
RTVSPropertyOp19
 70
     1
102
RTVSPropertyOp20
 70
     1
102
RTVSPropertyOp21
 70
     1
102
RTVSPropertyOp22
 70
     1
102
RTVSPropertyOp23
 70
     1
102
RTVSPropertyOp24
 70
     1
102
RTVSPropertyOp25
 70
     1
102
RTVSPropertyOp26
 70
     1
102
RTVSPropertyOp27
 70
     1
102
RTVSPropertyOp28
 70
     1
102
RTVSPropertyOp29
 70
     1
102
RTVSPropertyOp30
 70
     1
102
RTVSPropertyOp31
 70
     1
102
RTVSPropertyOp32
 70
     1
102
RTVSPropertyOp33
 70
     1
102
RTVSPropertyOp34
 70
     1
102
RTVSPropertyOp35
 70
     1
102
RTVSPropertyOp36
 70
     1
102
RTVSPropertyOp37
 70
     1
102
RTVSPropertyOp38
 70
     1
102
RTVSPropertyOp39
 70
     1
102
RTVSPropertyOp40
 70
     1
102
RTVSPropertyOp41
 70
     1
102
RTVSPropertyOp42
 70
     1
102
RTVSPropertyOp43
 70
     1
102
RTVSPropertyOp44
 70
     1
102
RTVSPropertyOp45
 70
     1
102
RTVSPropertyOp46
 70
     1
102
RTVSPropertyOp47
 70
     1
102
RTVSPropertyOp48
 70
     1
102
RTVSPropertyOp49
 70
     1
102
RTVSPropertyOp50
 70
     1
102
RTVSPropertyOp51
 70
     0
102
RTVSPropertyOp52
 70
     0
102
RTVSPropertyOp53
 70
     1
102
RTVSPropertyOp54
 70
     1
102
RTVSPropertyOp55
 70
     1
102
RTVSPropertyOp56
 70
     1
102
RTVSPropertyOp57
 70
     1
102
RTVSPropertyOp58
 70
     1
102
RTVSPropertyOp59
 70
     1
102
RTVSPropertyOp60
 70
     1
102
RTVSPropertyOp61
 70
     1
102
RTVSPropertyOp62
 70
     1
  0
XRECORD
  5
BE82
102
{ACAD_REACTORS
330
BE81
102
}
330
BE81
100
AcDbXrecord
280
     1
102
RTVSPost2010Prop28
280
     0
102
RTVSPost2010PropOp28
 70
     1
102
RTVSPost2010Prop29
280
     1
102
RTVSPost2010PropOp29
 70
     1
102
RTVSPost2010Prop30
280
     1
102
RTVSPost2010PropOp30
 70
     1
102
RTVSPost2010Prop31
280
     0
102
RTVSPost2010PropOp31
 70
     1
102
RTVSPost2010Prop32
280
     0
102
RTVSPost2010PropOp32
 70
     1
102
RTVSPost2010Prop33
280
     0
102
RTVSPost2010PropOp33
 70
     1
102
RTVSPost2010Prop34
280
     0
102
RTVSPost2010PropOp34
 70
     1
102
RTVSPost2010Prop35
280
     0
102
RTVSPost2010PropOp35
 70
     1
102
RTVSPost2010Prop36
280
     0
102
RTVSPost2010PropOp36
 70
     1
102
RTVSPost2010Prop37
 90
       50
102
RTVSPost2010PropOp37
 70
     1
102
RTVSPost2010Prop38
140
0.0
102
RTVSPost2010PropOp38
 70
     1
102
RTVSPost2010Prop39
140
1.0
102
RTVSPost2010PropOp39
 70
     1
102
RTVSPost2010Prop40
 90
        0
102
RTVSPost2010PropOp40
 70
     1
102
RTVSPost2010Prop41ColorIndex
 90
       18
102
RTVSPost2010Prop41ColorRGB
 90
        0
102
RTVSPost2010PropOp41
 70
     1
102
RTVSPost2010Prop42
 90
       50
102
RTVSPost2010PropOp42
 70
     1
102
RTVSPost2010Prop43
 90
        3
102
RTVSPost2010PropOp43
 70
     1
102
RTVSPost2010Prop44ColorIndex
 90
        5
102
RTVSPost2010Prop44ColorRGB
 90
      255
102
RTVSPost2010PropOp44
 70
     1
102
RTVSPost2010Prop45
280
     0
102
RTVSPost2010PropOp45
 70
     1
102
RTVSPost2010Prop46
 90
       50
102
RTVSPost2010PropOp46
 70
     1
102
RTVSPost2010Prop47
 90
       50
102
RTVSPost2010PropOp47
 70
     1
102
RTVSPost2010Prop48
 90
       50
102
RTVSPost2010PropOp48
 70
     1
102
RTVSPost2010Prop49
280
     0
102
RTVSPost2010PropOp49
 70
     1
102
RTVSPost2010Prop50
 90
       50
102
RTVSPost2010PropOp50
 70
     1
102
RTVSPost2010Prop51ColorIndex
 90
      256
102
RTVSPost2010Prop51ColorRGB
 90
-16777216
102
RTVSPost2010PropOp51
 70
     0
102
RTVSPost2010Prop52
140
1.0
102
RTVSPost2010PropOp52
 70
     0
102
RTVSPost2010Prop53
 90
        2
102
RTVSPost2010PropOp53
 70
     1
102
RTVSPost2010Prop54
  1
strokes_ogs.tif
102
RTVSPost2010PropOp54
 70
     1
102
RTVSPost2010Prop55
280
     0
102
RTVSPost2010PropOp55
 70
     1
102
RTVSPost2010Prop56
140
1.0
102
RTVSPost2010PropOp56
 70
     1
102
RTVSPost2010Prop57
140
1.0
102
RTVSPost2010PropOp57
 70
     1
102
RTVSPropertyOp0
 70
     1
102
RTVSPropertyOp1
 70
     1
102
RTVSPropertyOp2
 70
     1
102
RTVSPropertyOp3
 70
     1
102
RTVSPropertyOp4
 70
     1
102
RTVSPropertyOp5
 70
     1
102
RTVSPropertyOp6
 70
     1
102
RTVSPropertyOp7
 70
     1
102
RTVSPropertyOp8
 70
     1
102
RTVSPropertyOp9
 70
     1
102
RTVSPropertyOp10
 70
     1
102
RTVSPropertyOp11
 70
     1
102
RTVSPropertyOp12
 70
     1
102
RTVSPropertyOp13
 70
     1
102
RTVSPropertyOp14
 70
     1
102
RTVSPropertyOp15
 70
     1
102
RTVSPropertyOp16
 70
     1
102
RTVSPropertyOp17
 70
     1
102
RTVSPropertyOp18
 70
     1
102
RTVSPropertyOp19
 70
     1
102
RTVSPropertyOp20
 70
     1
102
RTVSPropertyOp21
 70
     1
102
RTVSPropertyOp22
 70
     1
102
RTVSPropertyOp23
 70
     1
102
RTVSPropertyOp24
 70
     1
102
RTVSPropertyOp25
 70
     1
102
RTVSPropertyOp26
 70
     1
102
RTVSPropertyOp27
 70
     1
102
RTVSPropertyOp28
 70
     1
102
RTVSPropertyOp29
 70
     1
102
RTVSPropertyOp30
 70
     1
102
RTVSPropertyOp31
 70
     1
102
RTVSPropertyOp32
 70
     1
102
RTVSPropertyOp33
 70
     1
102
RTVSPropertyOp34
 70
     1
102
RTVSPropertyOp35
 70
     1
102
RTVSPropertyOp36
 70
     1
102
RTVSPropertyOp37
 70
     1
102
RTVSPropertyOp38
 70
     1
102
RTVSPropertyOp39
 70
     1
102
RTVSPropertyOp40
 70
     1
102
RTVSPropertyOp41
 70
     1
102
RTVSPropertyOp42
 70
     1
102
RTVSPropertyOp43
 70
     1
102
RTVSPropertyOp44
 70
     1
102
RTVSPropertyOp45
 70
     1
102
RTVSPropertyOp46
 70
     1
102
RTVSPropertyOp47
 70
     1
102
RTVSPropertyOp48
 70
     1
102
RTVSPropertyOp49
 70
     1
102
RTVSPropertyOp50
 70
     1
102
RTVSPropertyOp51
 70
     0
102
RTVSPropertyOp52
 70
     0
102
RTVSPropertyOp53
 70
     1
102
RTVSPropertyOp54
 70
     1
102
RTVSPropertyOp55
 70
     1
102
RTVSPropertyOp56
 70
     1
102
RTVSPropertyOp57
 70
     1
102
RTVSPropertyOp58
 70
     1
102
RTVSPropertyOp59
 70
     1
102
RTVSPropertyOp60
 70
     1
102
RTVSPropertyOp61
 70
     1
102
RTVSPropertyOp62
 70
     1
  0
XRECORD
  5
BE8A
102
{ACAD_REACTORS
330
BE89
102
}
330
BE89
100
AcDbXrecord
280
     1
102
RTVSPost2010Prop28
280
     0
102
RTVSPost2010PropOp28
 70
     1
102
RTVSPost2010Prop29
280
     1
102
RTVSPost2010PropOp29
 70
     1
102
RTVSPost2010Prop30
280
     1
102
RTVSPost2010PropOp30
 70
     1
102
RTVSPost2010Prop31
280
     0
102
RTVSPost2010PropOp31
 70
     1
102
RTVSPost2010Prop32
280
     0
102
RTVSPost2010PropOp32
 70
     1
102
RTVSPost2010Prop33
280
     0
102
RTVSPost2010PropOp33
 70
     1
102
RTVSPost2010Prop34
280
     0
102
RTVSPost2010PropOp34
 70
     1
102
RTVSPost2010Prop35
280
     0
102
RTVSPost2010PropOp35
 70
     1
102
RTVSPost2010Prop36
280
     0
102
RTVSPost2010PropOp36
 70
     1
102
RTVSPost2010Prop37
 90
       50
102
RTVSPost2010PropOp37
 70
     1
102
RTVSPost2010Prop38
140
0.0
102
RTVSPost2010PropOp38
 70
     1
102
RTVSPost2010Prop39
140
1.0
102
RTVSPost2010PropOp39
 70
     1
102
RTVSPost2010Prop40
 90
        0
102
RTVSPost2010PropOp40
 70
     1
102
RTVSPost2010Prop41ColorIndex
 90
       18
102
RTVSPost2010Prop41ColorRGB
 90
        0
102
RTVSPost2010PropOp41
 70
     1
102
RTVSPost2010Prop42
 90
       50
102
RTVSPost2010PropOp42
 70
     1
102
RTVSPost2010Prop43
 90
        3
102
RTVSPost2010PropOp43
 70
     1
102
RTVSPost2010Prop44ColorIndex
 90
        5
102
RTVSPost2010Prop44ColorRGB
 90
      255
102
RTVSPost2010PropOp44
 70
     1
102
RTVSPost2010Prop45
280
     0
102
RTVSPost2010PropOp45
 70
     1
102
RTVSPost2010Prop46
 90
       50
102
RTVSPost2010PropOp46
 70
     1
102
RTVSPost2010Prop47
 90
       50
102
RTVSPost2010PropOp47
 70
     1
102
RTVSPost2010Prop48
 90
       50
102
RTVSPost2010PropOp48
 70
     1
102
RTVSPost2010Prop49
280
     0
102
RTVSPost2010PropOp49
 70
     1
102
RTVSPost2010Prop50
 90
       50
102
RTVSPost2010PropOp50
 70
     1
102
RTVSPost2010Prop51ColorIndex
 90
      256
102
RTVSPost2010Prop51ColorRGB
 90
-16777216
102
RTVSPost2010PropOp51
 70
     0
102
RTVSPost2010Prop52
140
1.0
102
RTVSPost2010PropOp52
 70
     0
102
RTVSPost2010Prop53
 90
        2
102
RTVSPost2010PropOp53
 70
     1
102
RTVSPost2010Prop54
  1
strokes_ogs.tif
102
RTVSPost2010PropOp54
 70
     1
102
RTVSPost2010Prop55
280
     0
102
RTVSPost2010PropOp55
 70
     1
102
RTVSPost2010Prop56
140
1.0
102
RTVSPost2010PropOp56
 70
     1
102
RTVSPost2010Prop57
140
1.0
102
RTVSPost2010PropOp57
 70
     1
102
RTVSPropertyOp0
 70
     1
102
RTVSPropertyOp1
 70
     1
102
RTVSPropertyOp2
 70
     1
102
RTVSPropertyOp3
 70
     1
102
RTVSPropertyOp4
 70
     1
102
RTVSPropertyOp5
 70
     1
102
RTVSPropertyOp6
 70
     1
102
RTVSPropertyOp7
 70
     1
102
RTVSPropertyOp8
 70
     1
102
RTVSPropertyOp9
 70
     1
102
RTVSPropertyOp10
 70
     1
102
RTVSPropertyOp11
 70
     1
102
RTVSPropertyOp12
 70
     1
102
RTVSPropertyOp13
 70
     1
102
RTVSPropertyOp14
 70
     1
102
RTVSPropertyOp15
 70
     1
102
RTVSPropertyOp16
 70
     1
102
RTVSPropertyOp17
 70
     1
102
RTVSPropertyOp18
 70
     1
102
RTVSPropertyOp19
 70
     1
102
RTVSPropertyOp20
 70
     1
102
RTVSPropertyOp21
 70
     1
102
RTVSPropertyOp22
 70
     1
102
RTVSPropertyOp23
 70
     1
102
RTVSPropertyOp24
 70
     1
102
RTVSPropertyOp25
 70
     1
102
RTVSPropertyOp26
 70
     1
102
RTVSPropertyOp27
 70
     1
102
RTVSPropertyOp28
 70
     1
102
RTVSPropertyOp29
 70
     1
102
RTVSPropertyOp30
 70
     1
102
RTVSPropertyOp31
 70
     1
102
RTVSPropertyOp32
 70
     1
102
RTVSPropertyOp33
 70
     1
102
RTVSPropertyOp34
 70
     1
102
RTVSPropertyOp35
 70
     1
102
RTVSPropertyOp36
 70
     1
102
RTVSPropertyOp37
 70
     1
102
RTVSPropertyOp38
 70
     1
102
RTVSPropertyOp39
 70
     1
102
RTVSPropertyOp40
 70
     1
102
RTVSPropertyOp41
 70
     1
102
RTVSPropertyOp42
 70
     1
102
RTVSPropertyOp43
 70
     1
102
RTVSPropertyOp44
 70
     1
102
RTVSPropertyOp45
 70
     1
102
RTVSPropertyOp46
 70
     1
102
RTVSPropertyOp47
 70
     1
102
RTVSPropertyOp48
 70
     1
102
RTVSPropertyOp49
 70
     1
102
RTVSPropertyOp50
 70
     1
102
RTVSPropertyOp51
 70
     0
102
RTVSPropertyOp52
 70
     0
102
RTVSPropertyOp53
 70
     1
102
RTVSPropertyOp54
 70
     1
102
RTVSPropertyOp55
 70
     1
102
RTVSPropertyOp56
 70
     1
102
RTVSPropertyOp57
 70
     1
102
RTVSPropertyOp58
 70
     1
102
RTVSPropertyOp59
 70
     1
102
RTVSPropertyOp60
 70
     1
102
RTVSPropertyOp61
 70
     1
102
RTVSPropertyOp62
 70
     1
  0
XRECORD
  5
BE7C
102
{ACAD_REACTORS
330
BE7B
102
}
330
BE7B
100
AcDbXrecord
280
     1
102
RTVSPost2010Prop28
280
     0
102
RTVSPost2010PropOp28
 70
     1
102
RTVSPost2010Prop29
280
     1
102
RTVSPost2010PropOp29
 70
     1
102
RTVSPost2010Prop30
280
     1
102
RTVSPost2010PropOp30
 70
     1
102
RTVSPost2010Prop31
280
     0
102
RTVSPost2010PropOp31
 70
     1
102
RTVSPost2010Prop32
280
     0
102
RTVSPost2010PropOp32
 70
     1
102
RTVSPost2010Prop33
280
     0
102
RTVSPost2010PropOp33
 70
     1
102
RTVSPost2010Prop34
280
     0
102
RTVSPost2010PropOp34
 70
     1
102
RTVSPost2010Prop35
280
     0
102
RTVSPost2010PropOp35
 70
     1
102
RTVSPost2010Prop36
280
     0
102
RTVSPost2010PropOp36
 70
     1
102
RTVSPost2010Prop37
 90
       50
102
RTVSPost2010PropOp37
 70
     1
102
RTVSPost2010Prop38
140
0.0
102
RTVSPost2010PropOp38
 70
     1
102
RTVSPost2010Prop39
140
1.0
102
RTVSPost2010PropOp39
 70
     1
102
RTVSPost2010Prop40
 90
        0
102
RTVSPost2010PropOp40
 70
     1
102
RTVSPost2010Prop41ColorIndex
 90
       18
102
RTVSPost2010Prop41ColorRGB
 90
        0
102
RTVSPost2010PropOp41
 70
     1
102
RTVSPost2010Prop42
 90
       50
102
RTVSPost2010PropOp42
 70
     1
102
RTVSPost2010Prop43
 90
        3
102
RTVSPost2010PropOp43
 70
     1
102
RTVSPost2010Prop44ColorIndex
 90
        5
102
RTVSPost2010Prop44ColorRGB
 90
      255
102
RTVSPost2010PropOp44
 70
     1
102
RTVSPost2010Prop45
280
     0
102
RTVSPost2010PropOp45
 70
     1
102
RTVSPost2010Prop46
 90
       50
102
RTVSPost2010PropOp46
 70
     1
102
RTVSPost2010Prop47
 90
       50
102
RTVSPost2010PropOp47
 70
     1
102
RTVSPost2010Prop48
 90
       50
102
RTVSPost2010PropOp48
 70
     1
102
RTVSPost2010Prop49
280
     0
102
RTVSPost2010PropOp49
 70
     1
102
RTVSPost2010Prop50
 90
       50
102
RTVSPost2010PropOp50
 70
     1
102
RTVSPost2010Prop51ColorIndex
 90
      256
102
RTVSPost2010Prop51ColorRGB
 90
-16777216
102
RTVSPost2010PropOp51
 70
     0
102
RTVSPost2010Prop52
140
1.0
102
RTVSPost2010PropOp52
 70
     0
102
RTVSPost2010Prop53
 90
        2
102
RTVSPost2010PropOp53
 70
     1
102
RTVSPost2010Prop54
  1
strokes_ogs.tif
102
RTVSPost2010PropOp54
 70
     1
102
RTVSPost2010Prop55
280
     0
102
RTVSPost2010PropOp55
 70
     1
102
RTVSPost2010Prop56
140
1.0
102
RTVSPost2010PropOp56
 70
     1
102
RTVSPost2010Prop57
140
1.0
102
RTVSPost2010PropOp57
 70
     1
102
RTVSPropertyOp0
 70
     1
102
RTVSPropertyOp1
 70
     1
102
RTVSPropertyOp2
 70
     1
102
RTVSPropertyOp3
 70
     1
102
RTVSPropertyOp4
 70
     1
102
RTVSPropertyOp5
 70
     1
102
RTVSPropertyOp6
 70
     1
102
RTVSPropertyOp7
 70
     1
102
RTVSPropertyOp8
 70
     1
102
RTVSPropertyOp9
 70
     1
102
RTVSPropertyOp10
 70
     1
102
RTVSPropertyOp11
 70
     1
102
RTVSPropertyOp12
 70
     1
102
RTVSPropertyOp13
 70
     1
102
RTVSPropertyOp14
 70
     1
102
RTVSPropertyOp15
 70
     1
102
RTVSPropertyOp16
 70
     1
102
RTVSPropertyOp17
 70
     1
102
RTVSPropertyOp18
 70
     1
102
RTVSPropertyOp19
 70
     1
102
RTVSPropertyOp20
 70
     1
102
RTVSPropertyOp21
 70
     1
102
RTVSPropertyOp22
 70
     1
102
RTVSPropertyOp23
 70
     1
102
RTVSPropertyOp24
 70
     1
102
RTVSPropertyOp25
 70
     1
102
RTVSPropertyOp26
 70
     1
102
RTVSPropertyOp27
 70
     1
102
RTVSPropertyOp28
 70
     1
102
RTVSPropertyOp29
 70
     1
102
RTVSPropertyOp30
 70
     1
102
RTVSPropertyOp31
 70
     1
102
RTVSPropertyOp32
 70
     1
102
RTVSPropertyOp33
 70
     1
102
RTVSPropertyOp34
 70
     1
102
RTVSPropertyOp35
 70
     1
102
RTVSPropertyOp36
 70
     1
102
RTVSPropertyOp37
 70
     1
102
RTVSPropertyOp38
 70
     1
102
RTVSPropertyOp39
 70
     1
102
RTVSPropertyOp40
 70
     1
102
RTVSPropertyOp41
 70
     1
102
RTVSPropertyOp42
 70
     1
102
RTVSPropertyOp43
 70
     1
102
RTVSPropertyOp44
 70
     1
102
RTVSPropertyOp45
 70
     1
102
RTVSPropertyOp46
 70
     1
102
RTVSPropertyOp47
 70
     1
102
RTVSPropertyOp48
 70
     1
102
RTVSPropertyOp49
 70
     1
102
RTVSPropertyOp50
 70
     1
102
RTVSPropertyOp51
 70
     0
102
RTVSPropertyOp52
 70
     0
102
RTVSPropertyOp53
 70
     1
102
RTVSPropertyOp54
 70
     1
102
RTVSPropertyOp55
 70
     1
102
RTVSPropertyOp56
 70
     1
102
RTVSPropertyOp57
 70
     1
102
RTVSPropertyOp58
 70
     1
102
RTVSPropertyOp59
 70
     1
102
RTVSPropertyOp60
 70
     1
102
RTVSPropertyOp61
 70
     1
102
RTVSPropertyOp62
 70
     1
  0
XRECORD
  5
BE80
102
{ACAD_REACTORS
330
BE7F
102
}
330
BE7F
100
AcDbXrecord
280
     1
102
RTVSPost2010Prop28
280
     0
102
RTVSPost2010PropOp28
 70
     1
102
RTVSPost2010Prop29
280
     1
102
RTVSPost2010PropOp29
 70
     1
102
RTVSPost2010Prop30
280
     1
102
RTVSPost2010PropOp30
 70
     1
102
RTVSPost2010Prop31
280
     0
102
RTVSPost2010PropOp31
 70
     1
102
RTVSPost2010Prop32
280
     0
102
RTVSPost2010PropOp32
 70
     1
102
RTVSPost2010Prop33
280
     0
102
RTVSPost2010PropOp33
 70
     1
102
RTVSPost2010Prop34
280
     0
102
RTVSPost2010PropOp34
 70
     1
102
RTVSPost2010Prop35
280
     0
102
RTVSPost2010PropOp35
 70
     1
102
RTVSPost2010Prop36
280
     0
102
RTVSPost2010PropOp36
 70
     1
102
RTVSPost2010Prop37
 90
       50
102
RTVSPost2010PropOp37
 70
     1
102
RTVSPost2010Prop38
140
0.0
102
RTVSPost2010PropOp38
 70
     1
102
RTVSPost2010Prop39
140
1.0
102
RTVSPost2010PropOp39
 70
     1
102
RTVSPost2010Prop40
 90
        0
102
RTVSPost2010PropOp40
 70
     1
102
RTVSPost2010Prop41ColorIndex
 90
       18
102
RTVSPost2010Prop41ColorRGB
 90
        0
102
RTVSPost2010PropOp41
 70
     1
102
RTVSPost2010Prop42
 90
       50
102
RTVSPost2010PropOp42
 70
     1
102
RTVSPost2010Prop43
 90
        3
102
RTVSPost2010PropOp43
 70
     1
102
RTVSPost2010Prop44ColorIndex
 90
        5
102
RTVSPost2010Prop44ColorRGB
 90
      255
102
RTVSPost2010PropOp44
 70
     1
102
RTVSPost2010Prop45
280
     0
102
RTVSPost2010PropOp45
 70
     1
102
RTVSPost2010Prop46
 90
       50
102
RTVSPost2010PropOp46
 70
     1
102
RTVSPost2010Prop47
 90
       50
102
RTVSPost2010PropOp47
 70
     1
102
RTVSPost2010Prop48
 90
       50
102
RTVSPost2010PropOp48
 70
     1
102
RTVSPost2010Prop49
280
     0
102
RTVSPost2010PropOp49
 70
     1
102
RTVSPost2010Prop50
 90
       50
102
RTVSPost2010PropOp50
 70
     1
102
RTVSPost2010Prop51ColorIndex
 90
      256
102
RTVSPost2010Prop51ColorRGB
 90
-16777216
102
RTVSPost2010PropOp51
 70
     0
102
RTVSPost2010Prop52
140
1.0
102
RTVSPost2010PropOp52
 70
     0
102
RTVSPost2010Prop53
 90
        2
102
RTVSPost2010PropOp53
 70
     1
102
RTVSPost2010Prop54
  1
strokes_ogs.tif
102
RTVSPost2010PropOp54
 70
     1
102
RTVSPost2010Prop55
280
     0
102
RTVSPost2010PropOp55
 70
     1
102
RTVSPost2010Prop56
140
1.0
102
RTVSPost2010PropOp56
 70
     1
102
RTVSPost2010Prop57
140
1.0
102
RTVSPost2010PropOp57
 70
     1
102
RTVSPropertyOp0
 70
     1
102
RTVSPropertyOp1
 70
     1
102
RTVSPropertyOp2
 70
     1
102
RTVSPropertyOp3
 70
     1
102
RTVSPropertyOp4
 70
     1
102
RTVSPropertyOp5
 70
     1
102
RTVSPropertyOp6
 70
     1
102
RTVSPropertyOp7
 70
     1
102
RTVSPropertyOp8
 70
     1
102
RTVSPropertyOp9
 70
     1
102
RTVSPropertyOp10
 70
     1
102
RTVSPropertyOp11
 70
     1
102
RTVSPropertyOp12
 70
     1
102
RTVSPropertyOp13
 70
     1
102
RTVSPropertyOp14
 70
     1
102
RTVSPropertyOp15
 70
     1
102
RTVSPropertyOp16
 70
     1
102
RTVSPropertyOp17
 70
     1
102
RTVSPropertyOp18
 70
     1
102
RTVSPropertyOp19
 70
     1
102
RTVSPropertyOp20
 70
     1
102
RTVSPropertyOp21
 70
     1
102
RTVSPropertyOp22
 70
     1
102
RTVSPropertyOp23
 70
     1
102
RTVSPropertyOp24
 70
     1
102
RTVSPropertyOp25
 70
     1
102
RTVSPropertyOp26
 70
     1
102
RTVSPropertyOp27
 70
     1
102
RTVSPropertyOp28
 70
     1
102
RTVSPropertyOp29
 70
     1
102
RTVSPropertyOp30
 70
     1
102
RTVSPropertyOp31
 70
     1
102
RTVSPropertyOp32
 70
     1
102
RTVSPropertyOp33
 70
     1
102
RTVSPropertyOp34
 70
     1
102
RTVSPropertyOp35
 70
     1
102
RTVSPropertyOp36
 70
     1
102
RTVSPropertyOp37
 70
     1
102
RTVSPropertyOp38
 70
     1
102
RTVSPropertyOp39
 70
     1
102
RTVSPropertyOp40
 70
     1
102
RTVSPropertyOp41
 70
     1
102
RTVSPropertyOp42
 70
     1
102
RTVSPropertyOp43
 70
     1
102
RTVSPropertyOp44
 70
     1
102
RTVSPropertyOp45
 70
     1
102
RTVSPropertyOp46
 70
     1
102
RTVSPropertyOp47
 70
     1
102
RTVSPropertyOp48
 70
     1
102
RTVSPropertyOp49
 70
     1
102
RTVSPropertyOp50
 70
     1
102
RTVSPropertyOp51
 70
     0
102
RTVSPropertyOp52
 70
     0
102
RTVSPropertyOp53
 70
     1
102
RTVSPropertyOp54
 70
     1
102
RTVSPropertyOp55
 70
     1
102
RTVSPropertyOp56
 70
     1
102
RTVSPropertyOp57
 70
     1
102
RTVSPropertyOp58
 70
     1
102
RTVSPropertyOp59
 70
     1
102
RTVSPropertyOp60
 70
     1
102
RTVSPropertyOp61
 70
     1
102
RTVSPropertyOp62
 70
     1
  0
XRECORD
  5
BE9A
102
{ACAD_REACTORS
330
BE99
102
}
330
BE99
100
AcDbXrecord
280
     1
102
RTVSPost2010Prop28
280
     0
102
RTVSPost2010PropOp28
 70
     1
102
RTVSPost2010Prop29
280
     1
102
RTVSPost2010PropOp29
 70
     1
102
RTVSPost2010Prop30
280
     1
102
RTVSPost2010PropOp30
 70
     1
102
RTVSPost2010Prop31
280
     0
102
RTVSPost2010PropOp31
 70
     1
102
RTVSPost2010Prop32
280
     0
102
RTVSPost2010PropOp32
 70
     1
102
RTVSPost2010Prop33
280
     0
102
RTVSPost2010PropOp33
 70
     1
102
RTVSPost2010Prop34
280
     0
102
RTVSPost2010PropOp34
 70
     1
102
RTVSPost2010Prop35
280
     0
102
RTVSPost2010PropOp35
 70
     1
102
RTVSPost2010Prop36
280
     0
102
RTVSPost2010PropOp36
 70
     1
102
RTVSPost2010Prop37
 90
       50
102
RTVSPost2010PropOp37
 70
     0
102
RTVSPost2010Prop38
140
0.0
102
RTVSPost2010PropOp38
 70
     0
102
RTVSPost2010Prop39
140
1.0
102
RTVSPost2010PropOp39
 70
     0
102
RTVSPost2010Prop40
 90
        0
102
RTVSPost2010PropOp40
 70
     0
102
RTVSPost2010Prop41ColorIndex
 90
       18
102
RTVSPost2010Prop41ColorRGB
 90
        0
102
RTVSPost2010PropOp41
 70
     0
102
RTVSPost2010Prop42
 90
       50
102
RTVSPost2010PropOp42
 70
     0
102
RTVSPost2010Prop43
 90
        3
102
RTVSPost2010PropOp43
 70
     0
102
RTVSPost2010Prop44ColorIndex
 90
        5
102
RTVSPost2010Prop44ColorRGB
 90
      255
102
RTVSPost2010PropOp44
 70
     0
102
RTVSPost2010Prop45
280
     0
102
RTVSPost2010PropOp45
 70
     1
102
RTVSPost2010Prop46
 90
       50
102
RTVSPost2010PropOp46
 70
     0
102
RTVSPost2010Prop47
 90
       50
102
RTVSPost2010PropOp47
 70
     0
102
RTVSPost2010Prop48
 90
       50
102
RTVSPost2010PropOp48
 70
     0
102
RTVSPost2010Prop49
280
     0
102
RTVSPost2010PropOp49
 70
     1
102
RTVSPost2010Prop50
 90
       50
102
RTVSPost2010PropOp50
 70
     0
102
RTVSPost2010Prop51ColorIndex
 90
      256
102
RTVSPost2010Prop51ColorRGB
 90
-16777216
102
RTVSPost2010PropOp51
 70
     0
102
RTVSPost2010Prop52
140
1.0
102
RTVSPost2010PropOp52
 70
     0
102
RTVSPost2010Prop53
 90
        2
102
RTVSPost2010PropOp53
 70
     0
102
RTVSPost2010Prop54
  1
strokes_ogs.tif
102
RTVSPost2010PropOp54
 70
     0
102
RTVSPost2010Prop55
280
     0
102
RTVSPost2010PropOp55
 70
     1
102
RTVSPost2010Prop56
140
1.0
102
RTVSPost2010PropOp56
 70
     0
102
RTVSPost2010Prop57
140
1.0
102
RTVSPost2010PropOp57
 70
     0
102
RTVSPropertyOp0
 70
     0
102
RTVSPropertyOp1
 70
     0
102
RTVSPropertyOp2
 70
     0
102
RTVSPropertyOp3
 70
     0
102
RTVSPropertyOp4
 70
     0
102
RTVSPropertyOp5
 70
     0
102
RTVSPropertyOp6
 70
     0
102
RTVSPropertyOp7
 70
     0
102
RTVSPropertyOp8
 70
     0
102
RTVSPropertyOp9
 70
     0
102
RTVSPropertyOp10
 70
     0
102
RTVSPropertyOp11
 70
     0
102
RTVSPropertyOp12
 70
     0
102
RTVSPropertyOp13
 70
     0
102
RTVSPropertyOp14
 70
     2
102
RTVSPropertyOp15
 70
     0
102
RTVSPropertyOp16
 70
     0
102
RTVSPropertyOp17
 70
     0
102
RTVSPropertyOp18
 70
     0
102
RTVSPropertyOp19
 70
     0
102
RTVSPropertyOp20
 70
     0
102
RTVSPropertyOp21
 70
     0
102
RTVSPropertyOp22
 70
     0
102
RTVSPropertyOp23
 70
     0
102
RTVSPropertyOp24
 70
     0
102
RTVSPropertyOp25
 70
     0
102
RTVSPropertyOp26
 70
     0
102
RTVSPropertyOp27
 70
     0
102
RTVSPropertyOp28
 70
     1
102
RTVSPropertyOp29
 70
     1
102
RTVSPropertyOp30
 70
     1
102
RTVSPropertyOp31
 70
     1
102
RTVSPropertyOp32
 70
     1
102
RTVSPropertyOp33
 70
     1
102
RTVSPropertyOp34
 70
     1
102
RTVSPropertyOp35
 70
     1
102
RTVSPropertyOp36
 70
     1
102
RTVSPropertyOp37
 70
     0
102
RTVSPropertyOp38
 70
     0
102
RTVSPropertyOp39
 70
     0
102
RTVSPropertyOp40
 70
     0
102
RTVSPropertyOp41
 70
     0
102
RTVSPropertyOp42
 70
     0
102
RTVSPropertyOp43
 70
     0
102
RTVSPropertyOp44
 70
     0
102
RTVSPropertyOp45
 70
     1
102
RTVSPropertyOp46
 70
     0
102
RTVSPropertyOp47
 70
     0
102
RTVSPropertyOp48
 70
     0
102
RTVSPropertyOp49
 70
     1
102
RTVSPropertyOp50
 70
     0
102
RTVSPropertyOp51
 70
     0
102
RTVSPropertyOp52
 70
     0
102
RTVSPropertyOp53
 70
     0
102
RTVSPropertyOp54
 70
     0
102
RTVSPropertyOp55
 70
     1
102
RTVSPropertyOp56
 70
     0
102
RTVSPropertyOp57
 70
     0
102
RTVSPropertyOp58
 70
     0
102
RTVSPropertyOp59
 70
     0
102
RTVSPropertyOp60
 70
     0
102
RTVSPropertyOp61
 70
     0
102
RTVSPropertyOp62
 70
     0
  0
XRECORD
  5
BE88
102
{ACAD_REACTORS
330
BE87
102
}
330
BE87
100
AcDbXrecord
280
     1
102
RTVSPost2010Prop28
280
     0
102
RTVSPost2010PropOp28
 70
     1
102
RTVSPost2010Prop29
280
     1
102
RTVSPost2010PropOp29
 70
     1
102
RTVSPost2010Prop30
280
     1
102
RTVSPost2010PropOp30
 70
     1
102
RTVSPost2010Prop31
280
     0
102
RTVSPost2010PropOp31
 70
     1
102
RTVSPost2010Prop32
280
     0
102
RTVSPost2010PropOp32
 70
     1
102
RTVSPost2010Prop33
280
     0
102
RTVSPost2010PropOp33
 70
     1
102
RTVSPost2010Prop34
280
     0
102
RTVSPost2010PropOp34
 70
     1
102
RTVSPost2010Prop35
280
     0
102
RTVSPost2010PropOp35
 70
     1
102
RTVSPost2010Prop36
280
     0
102
RTVSPost2010PropOp36
 70
     1
102
RTVSPost2010Prop37
 90
       50
102
RTVSPost2010PropOp37
 70
     1
102
RTVSPost2010Prop38
140
0.0
102
RTVSPost2010PropOp38
 70
     1
102
RTVSPost2010Prop39
140
1.0
102
RTVSPost2010PropOp39
 70
     1
102
RTVSPost2010Prop40
 90
        0
102
RTVSPost2010PropOp40
 70
     1
102
RTVSPost2010Prop41ColorIndex
 90
       18
102
RTVSPost2010Prop41ColorRGB
 90
        0
102
RTVSPost2010PropOp41
 70
     1
102
RTVSPost2010Prop42
 90
       50
102
RTVSPost2010PropOp42
 70
     1
102
RTVSPost2010Prop43
 90
        3
102
RTVSPost2010PropOp43
 70
     1
102
RTVSPost2010Prop44ColorIndex
 90
        5
102
RTVSPost2010Prop44ColorRGB
 90
      255
102
RTVSPost2010PropOp44
 70
     1
102
RTVSPost2010Prop45
280
     0
102
RTVSPost2010PropOp45
 70
     1
102
RTVSPost2010Prop46
 90
       50
102
RTVSPost2010PropOp46
 70
     1
102
RTVSPost2010Prop47
 90
       50
102
RTVSPost2010PropOp47
 70
     1
102
RTVSPost2010Prop48
 90
       50
102
RTVSPost2010PropOp48
 70
     1
102
RTVSPost2010Prop49
280
     0
102
RTVSPost2010PropOp49
 70
     1
102
RTVSPost2010Prop50
 90
       50
102
RTVSPost2010PropOp50
 70
     1
102
RTVSPost2010Prop51ColorIndex
 90
      256
102
RTVSPost2010Prop51ColorRGB
 90
-16777216
102
RTVSPost2010PropOp51
 70
     0
102
RTVSPost2010Prop52
140
1.0
102
RTVSPost2010PropOp52
 70
     0
102
RTVSPost2010Prop53
 90
        2
102
RTVSPost2010PropOp53
 70
     1
102
RTVSPost2010Prop54
  1
strokes_ogs.tif
102
RTVSPost2010PropOp54
 70
     1
102
RTVSPost2010Prop55
280
     0
102
RTVSPost2010PropOp55
 70
     1
102
RTVSPost2010Prop56
140
1.0
102
RTVSPost2010PropOp56
 70
     1
102
RTVSPost2010Prop57
140
1.0
102
RTVSPost2010PropOp57
 70
     1
102
RTVSPropertyOp0
 70
     1
102
RTVSPropertyOp1
 70
     1
102
RTVSPropertyOp2
 70
     1
102
RTVSPropertyOp3
 70
     1
102
RTVSPropertyOp4
 70
     1
102
RTVSPropertyOp5
 70
     1
102
RTVSPropertyOp6
 70
     1
102
RTVSPropertyOp7
 70
     1
102
RTVSPropertyOp8
 70
     1
102
RTVSPropertyOp9
 70
     1
102
RTVSPropertyOp10
 70
     1
102
RTVSPropertyOp11
 70
     1
102
RTVSPropertyOp12
 70
     1
102
RTVSPropertyOp13
 70
     1
102
RTVSPropertyOp14
 70
     1
102
RTVSPropertyOp15
 70
     1
102
RTVSPropertyOp16
 70
     1
102
RTVSPropertyOp17
 70
     1
102
RTVSPropertyOp18
 70
     1
102
RTVSPropertyOp19
 70
     1
102
RTVSPropertyOp20
 70
     1
102
RTVSPropertyOp21
 70
     1
102
RTVSPropertyOp22
 70
     1
102
RTVSPropertyOp23
 70
     1
102
RTVSPropertyOp24
 70
     1
102
RTVSPropertyOp25
 70
     1
102
RTVSPropertyOp26
 70
     1
102
RTVSPropertyOp27
 70
     1
102
RTVSPropertyOp28
 70
     1
102
RTVSPropertyOp29
 70
     1
102
RTVSPropertyOp30
 70
     1
102
RTVSPropertyOp31
 70
     1
102
RTVSPropertyOp32
 70
     1
102
RTVSPropertyOp33
 70
     1
102
RTVSPropertyOp34
 70
     1
102
RTVSPropertyOp35
 70
     1
102
RTVSPropertyOp36
 70
     1
102
RTVSPropertyOp37
 70
     1
102
RTVSPropertyOp38
 70
     1
102
RTVSPropertyOp39
 70
     1
102
RTVSPropertyOp40
 70
     1
102
RTVSPropertyOp41
 70
     1
102
RTVSPropertyOp42
 70
     1
102
RTVSPropertyOp43
 70
     1
102
RTVSPropertyOp44
 70
     1
102
RTVSPropertyOp45
 70
     1
102
RTVSPropertyOp46
 70
     1
102
RTVSPropertyOp47
 70
     1
102
RTVSPropertyOp48
 70
     1
102
RTVSPropertyOp49
 70
     1
102
RTVSPropertyOp50
 70
     1
102
RTVSPropertyOp51
 70
     0
102
RTVSPropertyOp52
 70
     0
102
RTVSPropertyOp53
 70
     1
102
RTVSPropertyOp54
 70
     1
102
RTVSPropertyOp55
 70
     1
102
RTVSPropertyOp56
 70
     1
102
RTVSPropertyOp57
 70
     1
102
RTVSPropertyOp58
 70
     1
102
RTVSPropertyOp59
 70
     1
102
RTVSPropertyOp60
 70
     1
102
RTVSPropertyOp61
 70
     1
102
RTVSPropertyOp62
 70
     1
  0
XRECORD
  5
BE6C
102
{ACAD_REACTORS
330
BE6B
102
}
330
BE6B
100
AcDbXrecord
280
     1
102
RTVSPost2010Prop28
280
     0
102
RTVSPost2010PropOp28
 70
     1
102
RTVSPost2010Prop29
280
     1
102
RTVSPost2010PropOp29
 70
     1
102
RTVSPost2010Prop30
280
     1
102
RTVSPost2010PropOp30
 70
     1
102
RTVSPost2010Prop31
280
     0
102
RTVSPost2010PropOp31
 70
     1
102
RTVSPost2010Prop32
280
     0
102
RTVSPost2010PropOp32
 70
     1
102
RTVSPost2010Prop33
280
     0
102
RTVSPost2010PropOp33
 70
     1
102
RTVSPost2010Prop34
280
     0
102
RTVSPost2010PropOp34
 70
     1
102
RTVSPost2010Prop35
280
     0
102
RTVSPost2010PropOp35
 70
     1
102
RTVSPost2010Prop36
280
     0
102
RTVSPost2010PropOp36
 70
     1
102
RTVSPost2010Prop37
 90
       50
102
RTVSPost2010PropOp37
 70
     1
102
RTVSPost2010Prop38
140
0.0
102
RTVSPost2010PropOp38
 70
     1
102
RTVSPost2010Prop39
140
1.0
102
RTVSPost2010PropOp39
 70
     1
102
RTVSPost2010Prop40
 90
        0
102
RTVSPost2010PropOp40
 70
     1
102
RTVSPost2010Prop41ColorIndex
 90
       18
102
RTVSPost2010Prop41ColorRGB
 90
        0
102
RTVSPost2010PropOp41
 70
     1
102
RTVSPost2010Prop42
 90
       50
102
RTVSPost2010PropOp42
 70
     1
102
RTVSPost2010Prop43
 90
        3
102
RTVSPost2010PropOp43
 70
     1
102
RTVSPost2010Prop44ColorIndex
 90
        5
102
RTVSPost2010Prop44ColorRGB
 90
      255
102
RTVSPost2010PropOp44
 70
     1
102
RTVSPost2010Prop45
280
     0
102
RTVSPost2010PropOp45
 70
     1
102
RTVSPost2010Prop46
 90
       50
102
RTVSPost2010PropOp46
 70
     1
102
RTVSPost2010Prop47
 90
       50
102
RTVSPost2010PropOp47
 70
     1
102
RTVSPost2010Prop48
 90
       50
102
RTVSPost2010PropOp48
 70
     1
102
RTVSPost2010Prop49
280
     0
102
RTVSPost2010PropOp49
 70
     1
102
RTVSPost2010Prop50
 90
       50
102
RTVSPost2010PropOp50
 70
     1
102
RTVSPost2010Prop51ColorIndex
 90
      256
102
RTVSPost2010Prop51ColorRGB
 90
-16777216
102
RTVSPost2010PropOp51
 70
     0
102
RTVSPost2010Prop52
140
1.0
102
RTVSPost2010PropOp52
 70
     0
102
RTVSPost2010Prop53
 90
        2
102
RTVSPost2010PropOp53
 70
     1
102
RTVSPost2010Prop54
  1
strokes_ogs.tif
102
RTVSPost2010PropOp54
 70
     1
102
RTVSPost2010Prop55
280
     0
102
RTVSPost2010PropOp55
 70
     1
102
RTVSPost2010Prop56
140
1.0
102
RTVSPost2010PropOp56
 70
     1
102
RTVSPost2010Prop57
140
1.0
102
RTVSPost2010PropOp57
 70
     1
102
RTVSPropertyOp0
 70
     1
102
RTVSPropertyOp1
 70
     1
102
RTVSPropertyOp2
 70
     1
102
RTVSPropertyOp3
 70
     1
102
RTVSPropertyOp4
 70
     1
102
RTVSPropertyOp5
 70
     1
102
RTVSPropertyOp6
 70
     1
102
RTVSPropertyOp7
 70
     1
102
RTVSPropertyOp8
 70
     1
102
RTVSPropertyOp9
 70
     1
102
RTVSPropertyOp10
 70
     1
102
RTVSPropertyOp11
 70
     1
102
RTVSPropertyOp12
 70
     1
102
RTVSPropertyOp13
 70
     1
102
RTVSPropertyOp14
 70
     1
102
RTVSPropertyOp15
 70
     1
102
RTVSPropertyOp16
 70
     1
102
RTVSPropertyOp17
 70
     1
102
RTVSPropertyOp18
 70
     1
102
RTVSPropertyOp19
 70
     1
102
RTVSPropertyOp20
 70
     1
102
RTVSPropertyOp21
 70
     1
102
RTVSPropertyOp22
 70
     1
102
RTVSPropertyOp23
 70
     1
102
RTVSPropertyOp24
 70
     1
102
RTVSPropertyOp25
 70
     1
102
RTVSPropertyOp26
 70
     1
102
RTVSPropertyOp27
 70
     1
102
RTVSPropertyOp28
 70
     1
102
RTVSPropertyOp29
 70
     1
102
RTVSPropertyOp30
 70
     1
102
RTVSPropertyOp31
 70
     1
102
RTVSPropertyOp32
 70
     1
102
RTVSPropertyOp33
 70
     1
102
RTVSPropertyOp34
 70
     1
102
RTVSPropertyOp35
 70
     1
102
RTVSPropertyOp36
 70
     1
102
RTVSPropertyOp37
 70
     1
102
RTVSPropertyOp38
 70
     1
102
RTVSPropertyOp39
 70
     1
102
RTVSPropertyOp40
 70
     1
102
RTVSPropertyOp41
 70
     1
102
RTVSPropertyOp42
 70
     1
102
RTVSPropertyOp43
 70
     1
102
RTVSPropertyOp44
 70
     1
102
RTVSPropertyOp45
 70
     1
102
RTVSPropertyOp46
 70
     1
102
RTVSPropertyOp47
 70
     1
102
RTVSPropertyOp48
 70
     1
102
RTVSPropertyOp49
 70
     1
102
RTVSPropertyOp50
 70
     1
102
RTVSPropertyOp51
 70
     0
102
RTVSPropertyOp52
 70
     0
102
RTVSPropertyOp53
 70
     1
102
RTVSPropertyOp54
 70
     1
102
RTVSPropertyOp55
 70
     1
102
RTVSPropertyOp56
 70
     1
102
RTVSPropertyOp57
 70
     1
102
RTVSPropertyOp58
 70
     1
102
RTVSPropertyOp59
 70
     1
102
RTVSPropertyOp60
 70
     1
102
RTVSPropertyOp61
 70
     1
102
RTVSPropertyOp62
 70
     1
  0
XRECORD
  5
BE6E
102
{ACAD_REACTORS
330
BE6D
102
}
330
BE6D
100
AcDbXrecord
280
     1
102
RTVSPost2010Prop28
280
     0
102
RTVSPost2010PropOp28
 70
     1
102
RTVSPost2010Prop29
280
     1
102
RTVSPost2010PropOp29
 70
     1
102
RTVSPost2010Prop30
280
     1
102
RTVSPost2010PropOp30
 70
     1
102
RTVSPost2010Prop31
280
     0
102
RTVSPost2010PropOp31
 70
     1
102
RTVSPost2010Prop32
280
     0
102
RTVSPost2010PropOp32
 70
     1
102
RTVSPost2010Prop33
280
     0
102
RTVSPost2010PropOp33
 70
     1
102
RTVSPost2010Prop34
280
     0
102
RTVSPost2010PropOp34
 70
     1
102
RTVSPost2010Prop35
280
     0
102
RTVSPost2010PropOp35
 70
     1
102
RTVSPost2010Prop36
280
     0
102
RTVSPost2010PropOp36
 70
     1
102
RTVSPost2010Prop37
 90
       50
102
RTVSPost2010PropOp37
 70
     1
102
RTVSPost2010Prop38
140
0.0
102
RTVSPost2010PropOp38
 70
     1
102
RTVSPost2010Prop39
140
1.0
102
RTVSPost2010PropOp39
 70
     1
102
RTVSPost2010Prop40
 90
        0
102
RTVSPost2010PropOp40
 70
     1
102
RTVSPost2010Prop41ColorIndex
 90
       18
102
RTVSPost2010Prop41ColorRGB
 90
        0
102
RTVSPost2010PropOp41
 70
     1
102
RTVSPost2010Prop42
 90
       50
102
RTVSPost2010PropOp42
 70
     1
102
RTVSPost2010Prop43
 90
        3
102
RTVSPost2010PropOp43
 70
     1
102
RTVSPost2010Prop44ColorIndex
 90
        5
102
RTVSPost2010Prop44ColorRGB
 90
      255
102
RTVSPost2010PropOp44
 70
     1
102
RTVSPost2010Prop45
280
     0
102
RTVSPost2010PropOp45
 70
     1
102
RTVSPost2010Prop46
 90
       50
102
RTVSPost2010PropOp46
 70
     1
102
RTVSPost2010Prop47
 90
       50
102
RTVSPost2010PropOp47
 70
     1
102
RTVSPost2010Prop48
 90
       50
102
RTVSPost2010PropOp48
 70
     1
102
RTVSPost2010Prop49
280
     0
102
RTVSPost2010PropOp49
 70
     1
102
RTVSPost2010Prop50
 90
       50
102
RTVSPost2010PropOp50
 70
     1
102
RTVSPost2010Prop51ColorIndex
 90
      256
102
RTVSPost2010Prop51ColorRGB
 90
-16777216
102
RTVSPost2010PropOp51
 70
     0
102
RTVSPost2010Prop52
140
1.0
102
RTVSPost2010PropOp52
 70
     0
102
RTVSPost2010Prop53
 90
        2
102
RTVSPost2010PropOp53
 70
     1
102
RTVSPost2010Prop54
  1
strokes_ogs.tif
102
RTVSPost2010PropOp54
 70
     1
102
RTVSPost2010Prop55
280
     0
102
RTVSPost2010PropOp55
 70
     1
102
RTVSPost2010Prop56
140
1.0
102
RTVSPost2010PropOp56
 70
     1
102
RTVSPost2010Prop57
140
1.0
102
RTVSPost2010PropOp57
 70
     1
102
RTVSPropertyOp0
 70
     1
102
RTVSPropertyOp1
 70
     1
102
RTVSPropertyOp2
 70
     1
102
RTVSPropertyOp3
 70
     1
102
RTVSPropertyOp4
 70
     1
102
RTVSPropertyOp5
 70
     1
102
RTVSPropertyOp6
 70
     1
102
RTVSPropertyOp7
 70
     1
102
RTVSPropertyOp8
 70
     1
102
RTVSPropertyOp9
 70
     1
102
RTVSPropertyOp10
 70
     1
102
RTVSPropertyOp11
 70
     1
102
RTVSPropertyOp12
 70
     1
102
RTVSPropertyOp13
 70
     1
102
RTVSPropertyOp14
 70
     1
102
RTVSPropertyOp15
 70
     1
102
RTVSPropertyOp16
 70
     1
102
RTVSPropertyOp17
 70
     1
102
RTVSPropertyOp18
 70
     1
102
RTVSPropertyOp19
 70
     1
102
RTVSPropertyOp20
 70
     1
102
RTVSPropertyOp21
 70
     1
102
RTVSPropertyOp22
 70
     1
102
RTVSPropertyOp23
 70
     1
102
RTVSPropertyOp24
 70
     1
102
RTVSPropertyOp25
 70
     1
102
RTVSPropertyOp26
 70
     1
102
RTVSPropertyOp27
 70
     1
102
RTVSPropertyOp28
 70
     1
102
RTVSPropertyOp29
 70
     1
102
RTVSPropertyOp30
 70
     1
102
RTVSPropertyOp31
 70
     1
102
RTVSPropertyOp32
 70
     1
102
RTVSPropertyOp33
 70
     1
102
RTVSPropertyOp34
 70
     1
102
RTVSPropertyOp35
 70
     1
102
RTVSPropertyOp36
 70
     1
102
RTVSPropertyOp37
 70
     1
102
RTVSPropertyOp38
 70
     1
102
RTVSPropertyOp39
 70
     1
102
RTVSPropertyOp40
 70
     1
102
RTVSPropertyOp41
 70
     1
102
RTVSPropertyOp42
 70
     1
102
RTVSPropertyOp43
 70
     1
102
RTVSPropertyOp44
 70
     1
102
RTVSPropertyOp45
 70
     1
102
RTVSPropertyOp46
 70
     1
102
RTVSPropertyOp47
 70
     1
102
RTVSPropertyOp48
 70
     1
102
RTVSPropertyOp49
 70
     1
102
RTVSPropertyOp50
 70
     1
102
RTVSPropertyOp51
 70
     0
102
RTVSPropertyOp52
 70
     0
102
RTVSPropertyOp53
 70
     1
102
RTVSPropertyOp54
 70
     1
102
RTVSPropertyOp55
 70
     1
102
RTVSPropertyOp56
 70
     1
102
RTVSPropertyOp57
 70
     1
102
RTVSPropertyOp58
 70
     1
102
RTVSPropertyOp59
 70
     1
102
RTVSPropertyOp60
 70
     1
102
RTVSPropertyOp61
 70
     1
102
RTVSPropertyOp62
 70
     1
  0
XRECORD
  5
BE70
102
{ACAD_REACTORS
330
BE6F
102
}
330
BE6F
100
AcDbXrecord
280
     1
102
RTVSPost2010Prop28
280
     0
102
RTVSPost2010PropOp28
 70
     1
102
RTVSPost2010Prop29
280
     1
102
RTVSPost2010PropOp29
 70
     1
102
RTVSPost2010Prop30
280
     1
102
RTVSPost2010PropOp30
 70
     1
102
RTVSPost2010Prop31
280
     0
102
RTVSPost2010PropOp31
 70
     1
102
RTVSPost2010Prop32
280
     0
102
RTVSPost2010PropOp32
 70
     1
102
RTVSPost2010Prop33
280
     0
102
RTVSPost2010PropOp33
 70
     1
102
RTVSPost2010Prop34
280
     0
102
RTVSPost2010PropOp34
 70
     1
102
RTVSPost2010Prop35
280
     0
102
RTVSPost2010PropOp35
 70
     1
102
RTVSPost2010Prop36
280
     0
102
RTVSPost2010PropOp36
 70
     1
102
RTVSPost2010Prop37
 90
       50
102
RTVSPost2010PropOp37
 70
     1
102
RTVSPost2010Prop38
140
0.0
102
RTVSPost2010PropOp38
 70
     1
102
RTVSPost2010Prop39
140
1.0
102
RTVSPost2010PropOp39
 70
     1
102
RTVSPost2010Prop40
 90
        0
102
RTVSPost2010PropOp40
 70
     1
102
RTVSPost2010Prop41ColorIndex
 90
       18
102
RTVSPost2010Prop41ColorRGB
 90
        0
102
RTVSPost2010PropOp41
 70
     1
102
RTVSPost2010Prop42
 90
       50
102
RTVSPost2010PropOp42
 70
     1
102
RTVSPost2010Prop43
 90
        3
102
RTVSPost2010PropOp43
 70
     1
102
RTVSPost2010Prop44ColorIndex
 90
        5
102
RTVSPost2010Prop44ColorRGB
 90
      255
102
RTVSPost2010PropOp44
 70
     1
102
RTVSPost2010Prop45
280
     0
102
RTVSPost2010PropOp45
 70
     1
102
RTVSPost2010Prop46
 90
       50
102
RTVSPost2010PropOp46
 70
     1
102
RTVSPost2010Prop47
 90
       50
102
RTVSPost2010PropOp47
 70
     1
102
RTVSPost2010Prop48
 90
       50
102
RTVSPost2010PropOp48
 70
     1
102
RTVSPost2010Prop49
280
     0
102
RTVSPost2010PropOp49
 70
     1
102
RTVSPost2010Prop50
 90
       50
102
RTVSPost2010PropOp50
 70
     1
102
RTVSPost2010Prop51ColorIndex
 90
      256
102
RTVSPost2010Prop51ColorRGB
 90
-16777216
102
RTVSPost2010PropOp51
 70
     0
102
RTVSPost2010Prop52
140
1.0
102
RTVSPost2010PropOp52
 70
     0
102
RTVSPost2010Prop53
 90
        2
102
RTVSPost2010PropOp53
 70
     1
102
RTVSPost2010Prop54
  1
strokes_ogs.tif
102
RTVSPost2010PropOp54
 70
     1
102
RTVSPost2010Prop55
280
     0
102
RTVSPost2010PropOp55
 70
     1
102
RTVSPost2010Prop56
140
1.0
102
RTVSPost2010PropOp56
 70
     1
102
RTVSPost2010Prop57
140
1.0
102
RTVSPost2010PropOp57
 70
     1
102
RTVSPropertyOp0
 70
     1
102
RTVSPropertyOp1
 70
     1
102
RTVSPropertyOp2
 70
     1
102
RTVSPropertyOp3
 70
     1
102
RTVSPropertyOp4
 70
     1
102
RTVSPropertyOp5
 70
     1
102
RTVSPropertyOp6
 70
     1
102
RTVSPropertyOp7
 70
     1
102
RTVSPropertyOp8
 70
     1
102
RTVSPropertyOp9
 70
     1
102
RTVSPropertyOp10
 70
     1
102
RTVSPropertyOp11
 70
     1
102
RTVSPropertyOp12
 70
     1
102
RTVSPropertyOp13
 70
     1
102
RTVSPropertyOp14
 70
     1
102
RTVSPropertyOp15
 70
     1
102
RTVSPropertyOp16
 70
     1
102
RTVSPropertyOp17
 70
     1
102
RTVSPropertyOp18
 70
     1
102
RTVSPropertyOp19
 70
     1
102
RTVSPropertyOp20
 70
     1
102
RTVSPropertyOp21
 70
     1
102
RTVSPropertyOp22
 70
     1
102
RTVSPropertyOp23
 70
     1
102
RTVSPropertyOp24
 70
     1
102
RTVSPropertyOp25
 70
     1
102
RTVSPropertyOp26
 70
     1
102
RTVSPropertyOp27
 70
     1
102
RTVSPropertyOp28
 70
     1
102
RTVSPropertyOp29
 70
     1
102
RTVSPropertyOp30
 70
     1
102
RTVSPropertyOp31
 70
     1
102
RTVSPropertyOp32
 70
     1
102
RTVSPropertyOp33
 70
     1
102
RTVSPropertyOp34
 70
     1
102
RTVSPropertyOp35
 70
     1
102
RTVSPropertyOp36
 70
     1
102
RTVSPropertyOp37
 70
     1
102
RTVSPropertyOp38
 70
     1
102
RTVSPropertyOp39
 70
     1
102
RTVSPropertyOp40
 70
     1
102
RTVSPropertyOp41
 70
     1
102
RTVSPropertyOp42
 70
     1
102
RTVSPropertyOp43
 70
     1
102
RTVSPropertyOp44
 70
     1
102
RTVSPropertyOp45
 70
     1
102
RTVSPropertyOp46
 70
     1
102
RTVSPropertyOp47
 70
     1
102
RTVSPropertyOp48
 70
     1
102
RTVSPropertyOp49
 70
     1
102
RTVSPropertyOp50
 70
     1
102
RTVSPropertyOp51
 70
     0
102
RTVSPropertyOp52
 70
     0
102
RTVSPropertyOp53
 70
     1
102
RTVSPropertyOp54
 70
     1
102
RTVSPropertyOp55
 70
     1
102
RTVSPropertyOp56
 70
     1
102
RTVSPropertyOp57
 70
     1
102
RTVSPropertyOp58
 70
     1
102
RTVSPropertyOp59
 70
     1
102
RTVSPropertyOp60
 70
     1
102
RTVSPropertyOp61
 70
     1
102
RTVSPropertyOp62
 70
     1
  0
XRECORD
  5
BE72
102
{ACAD_REACTORS
330
BE71
102
}
330
BE71
100
AcDbXrecord
280
     1
102
RTVSPost2010Prop28
280
     0
102
RTVSPost2010PropOp28
 70
     1
102
RTVSPost2010Prop29
280
     1
102
RTVSPost2010PropOp29
 70
     1
102
RTVSPost2010Prop30
280
     1
102
RTVSPost2010PropOp30
 70
     1
102
RTVSPost2010Prop31
280
     0
102
RTVSPost2010PropOp31
 70
     1
102
RTVSPost2010Prop32
280
     0
102
RTVSPost2010PropOp32
 70
     1
102
RTVSPost2010Prop33
280
     0
102
RTVSPost2010PropOp33
 70
     1
102
RTVSPost2010Prop34
280
     0
102
RTVSPost2010PropOp34
 70
     1
102
RTVSPost2010Prop35
280
     0
102
RTVSPost2010PropOp35
 70
     1
102
RTVSPost2010Prop36
280
     0
102
RTVSPost2010PropOp36
 70
     1
102
RTVSPost2010Prop37
 90
       50
102
RTVSPost2010PropOp37
 70
     1
102
RTVSPost2010Prop38
140
0.0
102
RTVSPost2010PropOp38
 70
     1
102
RTVSPost2010Prop39
140
1.0
102
RTVSPost2010PropOp39
 70
     1
102
RTVSPost2010Prop40
 90
        0
102
RTVSPost2010PropOp40
 70
     1
102
RTVSPost2010Prop41ColorIndex
 90
       18
102
RTVSPost2010Prop41ColorRGB
 90
        0
102
RTVSPost2010PropOp41
 70
     1
102
RTVSPost2010Prop42
 90
       50
102
RTVSPost2010PropOp42
 70
     1
102
RTVSPost2010Prop43
 90
        3
102
RTVSPost2010PropOp43
 70
     1
102
RTVSPost2010Prop44ColorIndex
 90
        5
102
RTVSPost2010Prop44ColorRGB
 90
      255
102
RTVSPost2010PropOp44
 70
     1
102
RTVSPost2010Prop45
280
     0
102
RTVSPost2010PropOp45
 70
     1
102
RTVSPost2010Prop46
 90
       50
102
RTVSPost2010PropOp46
 70
     1
102
RTVSPost2010Prop47
 90
       50
102
RTVSPost2010PropOp47
 70
     1
102
RTVSPost2010Prop48
 90
       50
102
RTVSPost2010PropOp48
 70
     1
102
RTVSPost2010Prop49
280
     0
102
RTVSPost2010PropOp49
 70
     1
102
RTVSPost2010Prop50
 90
       50
102
RTVSPost2010PropOp50
 70
     1
102
RTVSPost2010Prop51ColorIndex
 90
      256
102
RTVSPost2010Prop51ColorRGB
 90
-16777216
102
RTVSPost2010PropOp51
 70
     0
102
RTVSPost2010Prop52
140
1.0
102
RTVSPost2010PropOp52
 70
     0
102
RTVSPost2010Prop53
 90
        2
102
RTVSPost2010PropOp53
 70
     1
102
RTVSPost2010Prop54
  1
strokes_ogs.tif
102
RTVSPost2010PropOp54
 70
     1
102
RTVSPost2010Prop55
280
     0
102
RTVSPost2010PropOp55
 70
     1
102
RTVSPost2010Prop56
140
1.0
102
RTVSPost2010PropOp56
 70
     1
102
RTVSPost2010Prop57
140
1.0
102
RTVSPost2010PropOp57
 70
     1
102
RTVSPropertyOp0
 70
     1
102
RTVSPropertyOp1
 70
     1
102
RTVSPropertyOp2
 70
     1
102
RTVSPropertyOp3
 70
     1
102
RTVSPropertyOp4
 70
     1
102
RTVSPropertyOp5
 70
     1
102
RTVSPropertyOp6
 70
     1
102
RTVSPropertyOp7
 70
     1
102
RTVSPropertyOp8
 70
     1
102
RTVSPropertyOp9
 70
     1
102
RTVSPropertyOp10
 70
     1
102
RTVSPropertyOp11
 70
     1
102
RTVSPropertyOp12
 70
     1
102
RTVSPropertyOp13
 70
     1
102
RTVSPropertyOp14
 70
     1
102
RTVSPropertyOp15
 70
     1
102
RTVSPropertyOp16
 70
     1
102
RTVSPropertyOp17
 70
     1
102
RTVSPropertyOp18
 70
     1
102
RTVSPropertyOp19
 70
     1
102
RTVSPropertyOp20
 70
     1
102
RTVSPropertyOp21
 70
     1
102
RTVSPropertyOp22
 70
     1
102
RTVSPropertyOp23
 70
     1
102
RTVSPropertyOp24
 70
     1
102
RTVSPropertyOp25
 70
     1
102
RTVSPropertyOp26
 70
     1
102
RTVSPropertyOp27
 70
     1
102
RTVSPropertyOp28
 70
     1
102
RTVSPropertyOp29
 70
     1
102
RTVSPropertyOp30
 70
     1
102
RTVSPropertyOp31
 70
     1
102
RTVSPropertyOp32
 70
     1
102
RTVSPropertyOp33
 70
     1
102
RTVSPropertyOp34
 70
     1
102
RTVSPropertyOp35
 70
     1
102
RTVSPropertyOp36
 70
     1
102
RTVSPropertyOp37
 70
     1
102
RTVSPropertyOp38
 70
     1
102
RTVSPropertyOp39
 70
     1
102
RTVSPropertyOp40
 70
     1
102
RTVSPropertyOp41
 70
     1
102
RTVSPropertyOp42
 70
     1
102
RTVSPropertyOp43
 70
     1
102
RTVSPropertyOp44
 70
     1
102
RTVSPropertyOp45
 70
     1
102
RTVSPropertyOp46
 70
     1
102
RTVSPropertyOp47
 70
     1
102
RTVSPropertyOp48
 70
     1
102
RTVSPropertyOp49
 70
     1
102
RTVSPropertyOp50
 70
     1
102
RTVSPropertyOp51
 70
     0
102
RTVSPropertyOp52
 70
     0
102
RTVSPropertyOp53
 70
     1
102
RTVSPropertyOp54
 70
     1
102
RTVSPropertyOp55
 70
     1
102
RTVSPropertyOp56
 70
     1
102
RTVSPropertyOp57
 70
     1
102
RTVSPropertyOp58
 70
     1
102
RTVSPropertyOp59
 70
     1
102
RTVSPropertyOp60
 70
     1
102
RTVSPropertyOp61
 70
     1
102
RTVSPropertyOp62
 70
     1
  0
XRECORD
  5
BE7A
102
{ACAD_REACTORS
330
BE79
102
}
330
BE79
100
AcDbXrecord
280
     1
102
RTVSPost2010Prop28
280
     0
102
RTVSPost2010PropOp28
 70
     1
102
RTVSPost2010Prop29
280
     1
102
RTVSPost2010PropOp29
 70
     1
102
RTVSPost2010Prop30
280
     1
102
RTVSPost2010PropOp30
 70
     1
102
RTVSPost2010Prop31
280
     0
102
RTVSPost2010PropOp31
 70
     1
102
RTVSPost2010Prop32
280
     0
102
RTVSPost2010PropOp32
 70
     1
102
RTVSPost2010Prop33
280
     0
102
RTVSPost2010PropOp33
 70
     1
102
RTVSPost2010Prop34
280
     0
102
RTVSPost2010PropOp34
 70
     1
102
RTVSPost2010Prop35
280
     0
102
RTVSPost2010PropOp35
 70
     1
102
RTVSPost2010Prop36
280
     0
102
RTVSPost2010PropOp36
 70
     1
102
RTVSPost2010Prop37
 90
       50
102
RTVSPost2010PropOp37
 70
     1
102
RTVSPost2010Prop38
140
0.0
102
RTVSPost2010PropOp38
 70
     1
102
RTVSPost2010Prop39
140
1.0
102
RTVSPost2010PropOp39
 70
     1
102
RTVSPost2010Prop40
 90
        0
102
RTVSPost2010PropOp40
 70
     1
102
RTVSPost2010Prop41ColorIndex
 90
       18
102
RTVSPost2010Prop41ColorRGB
 90
        0
102
RTVSPost2010PropOp41
 70
     1
102
RTVSPost2010Prop42
 90
       50
102
RTVSPost2010PropOp42
 70
     1
102
RTVSPost2010Prop43
 90
        3
102
RTVSPost2010PropOp43
 70
     1
102
RTVSPost2010Prop44ColorIndex
 90
        5
102
RTVSPost2010Prop44ColorRGB
 90
      255
102
RTVSPost2010PropOp44
 70
     1
102
RTVSPost2010Prop45
280
     0
102
RTVSPost2010PropOp45
 70
     1
102
RTVSPost2010Prop46
 90
       50
102
RTVSPost2010PropOp46
 70
     1
102
RTVSPost2010Prop47
 90
       50
102
RTVSPost2010PropOp47
 70
     1
102
RTVSPost2010Prop48
 90
       50
102
RTVSPost2010PropOp48
 70
     1
102
RTVSPost2010Prop49
280
     0
102
RTVSPost2010PropOp49
 70
     1
102
RTVSPost2010Prop50
 90
       50
102
RTVSPost2010PropOp50
 70
     1
102
RTVSPost2010Prop51ColorIndex
 90
      256
102
RTVSPost2010Prop51ColorRGB
 90
-16777216
102
RTVSPost2010PropOp51
 70
     0
102
RTVSPost2010Prop52
140
1.0
102
RTVSPost2010PropOp52
 70
     0
102
RTVSPost2010Prop53
 90
        2
102
RTVSPost2010PropOp53
 70
     1
102
RTVSPost2010Prop54
  1
strokes_ogs.tif
102
RTVSPost2010PropOp54
 70
     1
102
RTVSPost2010Prop55
280
     0
102
RTVSPost2010PropOp55
 70
     1
102
RTVSPost2010Prop56
140
1.0
102
RTVSPost2010PropOp56
 70
     1
102
RTVSPost2010Prop57
140
1.0
102
RTVSPost2010PropOp57
 70
     1
102
RTVSPropertyOp0
 70
     1
102
RTVSPropertyOp1
 70
     1
102
RTVSPropertyOp2
 70
     1
102
RTVSPropertyOp3
 70
     1
102
RTVSPropertyOp4
 70
     1
102
RTVSPropertyOp5
 70
     1
102
RTVSPropertyOp6
 70
     1
102
RTVSPropertyOp7
 70
     1
102
RTVSPropertyOp8
 70
     1
102
RTVSPropertyOp9
 70
     1
102
RTVSPropertyOp10
 70
     1
102
RTVSPropertyOp11
 70
     1
102
RTVSPropertyOp12
 70
     1
102
RTVSPropertyOp13
 70
     1
102
RTVSPropertyOp14
 70
     1
102
RTVSPropertyOp15
 70
     1
102
RTVSPropertyOp16
 70
     1
102
RTVSPropertyOp17
 70
     1
102
RTVSPropertyOp18
 70
     1
102
RTVSPropertyOp19
 70
     1
102
RTVSPropertyOp20
 70
     1
102
RTVSPropertyOp21
 70
     1
102
RTVSPropertyOp22
 70
     1
102
RTVSPropertyOp23
 70
     1
102
RTVSPropertyOp24
 70
     1
102
RTVSPropertyOp25
 70
     1
102
RTVSPropertyOp26
 70
     1
102
RTVSPropertyOp27
 70
     1
102
RTVSPropertyOp28
 70
     1
102
RTVSPropertyOp29
 70
     1
102
RTVSPropertyOp30
 70
     1
102
RTVSPropertyOp31
 70
     1
102
RTVSPropertyOp32
 70
     1
102
RTVSPropertyOp33
 70
     1
102
RTVSPropertyOp34
 70
     1
102
RTVSPropertyOp35
 70
     1
102
RTVSPropertyOp36
 70
     1
102
RTVSPropertyOp37
 70
     1
102
RTVSPropertyOp38
 70
     1
102
RTVSPropertyOp39
 70
     1
102
RTVSPropertyOp40
 70
     1
102
RTVSPropertyOp41
 70
     1
102
RTVSPropertyOp42
 70
     1
102
RTVSPropertyOp43
 70
     1
102
RTVSPropertyOp44
 70
     1
102
RTVSPropertyOp45
 70
     1
102
RTVSPropertyOp46
 70
     1
102
RTVSPropertyOp47
 70
     1
102
RTVSPropertyOp48
 70
     1
102
RTVSPropertyOp49
 70
     1
102
RTVSPropertyOp50
 70
     1
102
RTVSPropertyOp51
 70
     0
102
RTVSPropertyOp52
 70
     0
102
RTVSPropertyOp53
 70
     1
102
RTVSPropertyOp54
 70
     1
102
RTVSPropertyOp55
 70
     1
102
RTVSPropertyOp56
 70
     1
102
RTVSPropertyOp57
 70
     1
102
RTVSPropertyOp58
 70
     1
102
RTVSPropertyOp59
 70
     1
102
RTVSPropertyOp60
 70
     1
102
RTVSPropertyOp61
 70
     1
102
RTVSPropertyOp62
 70
     1
  0
XRECORD
  5
BE96
102
{ACAD_REACTORS
330
BE95
102
}
330
BE95
100
AcDbXrecord
280
     1
102
RTVSPost2010Prop28
280
     0
102
RTVSPost2010PropOp28
 70
     1
102
RTVSPost2010Prop29
280
     1
102
RTVSPost2010PropOp29
 70
     1
102
RTVSPost2010Prop30
280
     1
102
RTVSPost2010PropOp30
 70
     1
102
RTVSPost2010Prop31
280
     0
102
RTVSPost2010PropOp31
 70
     1
102
RTVSPost2010Prop32
280
     0
102
RTVSPost2010PropOp32
 70
     1
102
RTVSPost2010Prop33
280
     0
102
RTVSPost2010PropOp33
 70
     1
102
RTVSPost2010Prop34
280
     0
102
RTVSPost2010PropOp34
 70
     1
102
RTVSPost2010Prop35
280
     0
102
RTVSPost2010PropOp35
 70
     1
102
RTVSPost2010Prop36
280
     0
102
RTVSPost2010PropOp36
 70
     1
102
RTVSPost2010Prop37
 90
       50
102
RTVSPost2010PropOp37
 70
     0
102
RTVSPost2010Prop38
140
0.0
102
RTVSPost2010PropOp38
 70
     0
102
RTVSPost2010Prop39
140
1.0
102
RTVSPost2010PropOp39
 70
     0
102
RTVSPost2010Prop40
 90
        0
102
RTVSPost2010PropOp40
 70
     0
102
RTVSPost2010Prop41ColorIndex
 90
       18
102
RTVSPost2010Prop41ColorRGB
 90
        0
102
RTVSPost2010PropOp41
 70
     0
102
RTVSPost2010Prop42
 90
       50
102
RTVSPost2010PropOp42
 70
     0
102
RTVSPost2010Prop43
 90
        3
102
RTVSPost2010PropOp43
 70
     0
102
RTVSPost2010Prop44ColorIndex
 90
        5
102
RTVSPost2010Prop44ColorRGB
 90
      255
102
RTVSPost2010PropOp44
 70
     0
102
RTVSPost2010Prop45
280
     0
102
RTVSPost2010PropOp45
 70
     1
102
RTVSPost2010Prop46
 90
       50
102
RTVSPost2010PropOp46
 70
     0
102
RTVSPost2010Prop47
 90
       50
102
RTVSPost2010PropOp47
 70
     0
102
RTVSPost2010Prop48
 90
       50
102
RTVSPost2010PropOp48
 70
     0
102
RTVSPost2010Prop49
280
     0
102
RTVSPost2010PropOp49
 70
     1
102
RTVSPost2010Prop50
 90
       50
102
RTVSPost2010PropOp50
 70
     0
102
RTVSPost2010Prop51ColorIndex
 90
      256
102
RTVSPost2010Prop51ColorRGB
 90
-16777216
102
RTVSPost2010PropOp51
 70
     0
102
RTVSPost2010Prop52
140
1.0
102
RTVSPost2010PropOp52
 70
     0
102
RTVSPost2010Prop53
 90
        2
102
RTVSPost2010PropOp53
 70
     0
102
RTVSPost2010Prop54
  1
strokes_ogs.tif
102
RTVSPost2010PropOp54
 70
     0
102
RTVSPost2010Prop55
280
     0
102
RTVSPost2010PropOp55
 70
     1
102
RTVSPost2010Prop56
140
1.0
102
RTVSPost2010PropOp56
 70
     0
102
RTVSPost2010Prop57
140
1.0
102
RTVSPost2010PropOp57
 70
     0
102
RTVSPropertyOp0
 70
     0
102
RTVSPropertyOp1
 70
     0
102
RTVSPropertyOp2
 70
     0
102
RTVSPropertyOp3
 70
     0
102
RTVSPropertyOp4
 70
     0
102
RTVSPropertyOp5
 70
     0
102
RTVSPropertyOp6
 70
     0
102
RTVSPropertyOp7
 70
     0
102
RTVSPropertyOp8
 70
     0
102
RTVSPropertyOp9
 70
     0
102
RTVSPropertyOp10
 70
     0
102
RTVSPropertyOp11
 70
     0
102
RTVSPropertyOp12
 70
     0
102
RTVSPropertyOp13
 70
     0
102
RTVSPropertyOp14
 70
     2
102
RTVSPropertyOp15
 70
     0
102
RTVSPropertyOp16
 70
     0
102
RTVSPropertyOp17
 70
     0
102
RTVSPropertyOp18
 70
     0
102
RTVSPropertyOp19
 70
     0
102
RTVSPropertyOp20
 70
     0
102
RTVSPropertyOp21
 70
     0
102
RTVSPropertyOp22
 70
     0
102
RTVSPropertyOp23
 70
     0
102
RTVSPropertyOp24
 70
     0
102
RTVSPropertyOp25
 70
     0
102
RTVSPropertyOp26
 70
     0
102
RTVSPropertyOp27
 70
     0
102
RTVSPropertyOp28
 70
     1
102
RTVSPropertyOp29
 70
     1
102
RTVSPropertyOp30
 70
     1
102
RTVSPropertyOp31
 70
     1
102
RTVSPropertyOp32
 70
     1
102
RTVSPropertyOp33
 70
     1
102
RTVSPropertyOp34
 70
     1
102
RTVSPropertyOp35
 70
     1
102
RTVSPropertyOp36
 70
     1
102
RTVSPropertyOp37
 70
     0
102
RTVSPropertyOp38
 70
     0
102
RTVSPropertyOp39
 70
     0
102
RTVSPropertyOp40
 70
     0
102
RTVSPropertyOp41
 70
     0
102
RTVSPropertyOp42
 70
     0
102
RTVSPropertyOp43
 70
     0
102
RTVSPropertyOp44
 70
     0
102
RTVSPropertyOp45
 70
     1
102
RTVSPropertyOp46
 70
     0
102
RTVSPropertyOp47
 70
     0
102
RTVSPropertyOp48
 70
     0
102
RTVSPropertyOp49
 70
     1
102
RTVSPropertyOp50
 70
     0
102
RTVSPropertyOp51
 70
     0
102
RTVSPropertyOp52
 70
     0
102
RTVSPropertyOp53
 70
     0
102
RTVSPropertyOp54
 70
     0
102
RTVSPropertyOp55
 70
     1
102
RTVSPropertyOp56
 70
     0
102
RTVSPropertyOp57
 70
     0
102
RTVSPropertyOp58
 70
     0
102
RTVSPropertyOp59
 70
     0
102
RTVSPropertyOp60
 70
     0
102
RTVSPropertyOp61
 70
     0
102
RTVSPropertyOp62
 70
     0
  0
XRECORD
  5
BE86
102
{ACAD_REACTORS
330
BE85
102
}
330
BE85
100
AcDbXrecord
280
     1
102
RTVSPost2010Prop28
280
     0
102
RTVSPost2010PropOp28
 70
     1
102
RTVSPost2010Prop29
280
     1
102
RTVSPost2010PropOp29
 70
     1
102
RTVSPost2010Prop30
280
     1
102
RTVSPost2010PropOp30
 70
     1
102
RTVSPost2010Prop31
280
     0
102
RTVSPost2010PropOp31
 70
     1
102
RTVSPost2010Prop32
280
     0
102
RTVSPost2010PropOp32
 70
     1
102
RTVSPost2010Prop33
280
     0
102
RTVSPost2010PropOp33
 70
     1
102
RTVSPost2010Prop34
280
     0
102
RTVSPost2010PropOp34
 70
     1
102
RTVSPost2010Prop35
280
     0
102
RTVSPost2010PropOp35
 70
     1
102
RTVSPost2010Prop36
280
     0
102
RTVSPost2010PropOp36
 70
     1
102
RTVSPost2010Prop37
 90
       50
102
RTVSPost2010PropOp37
 70
     1
102
RTVSPost2010Prop38
140
0.0
102
RTVSPost2010PropOp38
 70
     1
102
RTVSPost2010Prop39
140
1.0
102
RTVSPost2010PropOp39
 70
     1
102
RTVSPost2010Prop40
 90
        0
102
RTVSPost2010PropOp40
 70
     1
102
RTVSPost2010Prop41ColorIndex
 90
       18
102
RTVSPost2010Prop41ColorRGB
 90
        0
102
RTVSPost2010PropOp41
 70
     1
102
RTVSPost2010Prop42
 90
       50
102
RTVSPost2010PropOp42
 70
     1
102
RTVSPost2010Prop43
 90
        3
102
RTVSPost2010PropOp43
 70
     1
102
RTVSPost2010Prop44ColorIndex
 90
        5
102
RTVSPost2010Prop44ColorRGB
 90
      255
102
RTVSPost2010PropOp44
 70
     1
102
RTVSPost2010Prop45
280
     0
102
RTVSPost2010PropOp45
 70
     1
102
RTVSPost2010Prop46
 90
       50
102
RTVSPost2010PropOp46
 70
     1
102
RTVSPost2010Prop47
 90
       50
102
RTVSPost2010PropOp47
 70
     1
102
RTVSPost2010Prop48
 90
       50
102
RTVSPost2010PropOp48
 70
     1
102
RTVSPost2010Prop49
280
     0
102
RTVSPost2010PropOp49
 70
     1
102
RTVSPost2010Prop50
 90
       50
102
RTVSPost2010PropOp50
 70
     1
102
RTVSPost2010Prop51ColorIndex
 90
      256
102
RTVSPost2010Prop51ColorRGB
 90
-16777216
102
RTVSPost2010PropOp51
 70
     0
102
RTVSPost2010Prop52
140
1.0
102
RTVSPost2010PropOp52
 70
     0
102
RTVSPost2010Prop53
 90
        2
102
RTVSPost2010PropOp53
 70
     1
102
RTVSPost2010Prop54
  1
strokes_ogs.tif
102
RTVSPost2010PropOp54
 70
     1
102
RTVSPost2010Prop55
280
     0
102
RTVSPost2010PropOp55
 70
     1
102
RTVSPost2010Prop56
140
1.0
102
RTVSPost2010PropOp56
 70
     1
102
RTVSPost2010Prop57
140
1.0
102
RTVSPost2010PropOp57
 70
     1
102
RTVSPropertyOp0
 70
     1
102
RTVSPropertyOp1
 70
     1
102
RTVSPropertyOp2
 70
     1
102
RTVSPropertyOp3
 70
     1
102
RTVSPropertyOp4
 70
     1
102
RTVSPropertyOp5
 70
     1
102
RTVSPropertyOp6
 70
     1
102
RTVSPropertyOp7
 70
     1
102
RTVSPropertyOp8
 70
     1
102
RTVSPropertyOp9
 70
     1
102
RTVSPropertyOp10
 70
     1
102
RTVSPropertyOp11
 70
     1
102
RTVSPropertyOp12
 70
     1
102
RTVSPropertyOp13
 70
     1
102
RTVSPropertyOp14
 70
     1
102
RTVSPropertyOp15
 70
     1
102
RTVSPropertyOp16
 70
     1
102
RTVSPropertyOp17
 70
     1
102
RTVSPropertyOp18
 70
     1
102
RTVSPropertyOp19
 70
     1
102
RTVSPropertyOp20
 70
     1
102
RTVSPropertyOp21
 70
     1
102
RTVSPropertyOp22
 70
     1
102
RTVSPropertyOp23
 70
     1
102
RTVSPropertyOp24
 70
     1
102
RTVSPropertyOp25
 70
     1
102
RTVSPropertyOp26
 70
     1
102
RTVSPropertyOp27
 70
     1
102
RTVSPropertyOp28
 70
     1
102
RTVSPropertyOp29
 70
     1
102
RTVSPropertyOp30
 70
     1
102
RTVSPropertyOp31
 70
     1
102
RTVSPropertyOp32
 70
     1
102
RTVSPropertyOp33
 70
     1
102
RTVSPropertyOp34
 70
     1
102
RTVSPropertyOp35
 70
     1
102
RTVSPropertyOp36
 70
     1
102
RTVSPropertyOp37
 70
     1
102
RTVSPropertyOp38
 70
     1
102
RTVSPropertyOp39
 70
     1
102
RTVSPropertyOp40
 70
     1
102
RTVSPropertyOp41
 70
     1
102
RTVSPropertyOp42
 70
     1
102
RTVSPropertyOp43
 70
     1
102
RTVSPropertyOp44
 70
     1
102
RTVSPropertyOp45
 70
     1
102
RTVSPropertyOp46
 70
     1
102
RTVSPropertyOp47
 70
     1
102
RTVSPropertyOp48
 70
     1
102
RTVSPropertyOp49
 70
     1
102
RTVSPropertyOp50
 70
     1
102
RTVSPropertyOp51
 70
     0
102
RTVSPropertyOp52
 70
     0
102
RTVSPropertyOp53
 70
     1
102
RTVSPropertyOp54
 70
     1
102
RTVSPropertyOp55
 70
     1
102
RTVSPropertyOp56
 70
     1
102
RTVSPropertyOp57
 70
     1
102
RTVSPropertyOp58
 70
     1
102
RTVSPropertyOp59
 70
     1
102
RTVSPropertyOp60
 70
     1
102
RTVSPropertyOp61
 70
     1
102
RTVSPropertyOp62
 70
     1
  0
XRECORD
  5
BE98
102
{ACAD_REACTORS
330
BE97
102
}
330
BE97
100
AcDbXrecord
280
     1
102
RTVSPost2010Prop28
280
     0
102
RTVSPost2010PropOp28
 70
     1
102
RTVSPost2010Prop29
280
     1
102
RTVSPost2010PropOp29
 70
     1
102
RTVSPost2010Prop30
280
     1
102
RTVSPost2010PropOp30
 70
     1
102
RTVSPost2010Prop31
280
     0
102
RTVSPost2010PropOp31
 70
     1
102
RTVSPost2010Prop32
280
     0
102
RTVSPost2010PropOp32
 70
     1
102
RTVSPost2010Prop33
280
     0
102
RTVSPost2010PropOp33
 70
     1
102
RTVSPost2010Prop34
280
     0
102
RTVSPost2010PropOp34
 70
     1
102
RTVSPost2010Prop35
280
     0
102
RTVSPost2010PropOp35
 70
     1
102
RTVSPost2010Prop36
280
     0
102
RTVSPost2010PropOp36
 70
     1
102
RTVSPost2010Prop37
 90
       50
102
RTVSPost2010PropOp37
 70
     0
102
RTVSPost2010Prop38
140
0.0
102
RTVSPost2010PropOp38
 70
     0
102
RTVSPost2010Prop39
140
1.0
102
RTVSPost2010PropOp39
 70
     0
102
RTVSPost2010Prop40
 90
        0
102
RTVSPost2010PropOp40
 70
     0
102
RTVSPost2010Prop41ColorIndex
 90
       18
102
RTVSPost2010Prop41ColorRGB
 90
        0
102
RTVSPost2010PropOp41
 70
     0
102
RTVSPost2010Prop42
 90
       50
102
RTVSPost2010PropOp42
 70
     0
102
RTVSPost2010Prop43
 90
        3
102
RTVSPost2010PropOp43
 70
     0
102
RTVSPost2010Prop44ColorIndex
 90
        5
102
RTVSPost2010Prop44ColorRGB
 90
      255
102
RTVSPost2010PropOp44
 70
     0
102
RTVSPost2010Prop45
280
     0
102
RTVSPost2010PropOp45
 70
     1
102
RTVSPost2010Prop46
 90
       50
102
RTVSPost2010PropOp46
 70
     0
102
RTVSPost2010Prop47
 90
       50
102
RTVSPost2010PropOp47
 70
     0
102
RTVSPost2010Prop48
 90
       50
102
RTVSPost2010PropOp48
 70
     0
102
RTVSPost2010Prop49
280
     0
102
RTVSPost2010PropOp49
 70
     1
102
RTVSPost2010Prop50
 90
       50
102
RTVSPost2010PropOp50
 70
     0
102
RTVSPost2010Prop51ColorIndex
 90
      256
102
RTVSPost2010Prop51ColorRGB
 90
-16777216
102
RTVSPost2010PropOp51
 70
     0
102
RTVSPost2010Prop52
140
1.0
102
RTVSPost2010PropOp52
 70
     0
102
RTVSPost2010Prop53
 90
        2
102
RTVSPost2010PropOp53
 70
     0
102
RTVSPost2010Prop54
  1
strokes_ogs.tif
102
RTVSPost2010PropOp54
 70
     0
102
RTVSPost2010Prop55
280
     0
102
RTVSPost2010PropOp55
 70
     1
102
RTVSPost2010Prop56
140
1.0
102
RTVSPost2010PropOp56
 70
     0
102
RTVSPost2010Prop57
140
1.0
102
RTVSPost2010PropOp57
 70
     0
102
RTVSPropertyOp0
 70
     0
102
RTVSPropertyOp1
 70
     0
102
RTVSPropertyOp2
 70
     0
102
RTVSPropertyOp3
 70
     0
102
RTVSPropertyOp4
 70
     0
102
RTVSPropertyOp5
 70
     0
102
RTVSPropertyOp6
 70
     0
102
RTVSPropertyOp7
 70
     0
102
RTVSPropertyOp8
 70
     0
102
RTVSPropertyOp9
 70
     0
102
RTVSPropertyOp10
 70
     0
102
RTVSPropertyOp11
 70
     0
102
RTVSPropertyOp12
 70
     0
102
RTVSPropertyOp13
 70
     0
102
RTVSPropertyOp14
 70
     2
102
RTVSPropertyOp15
 70
     0
102
RTVSPropertyOp16
 70
     0
102
RTVSPropertyOp17
 70
     0
102
RTVSPropertyOp18
 70
     0
102
RTVSPropertyOp19
 70
     0
102
RTVSPropertyOp20
 70
     0
102
RTVSPropertyOp21
 70
     0
102
RTVSPropertyOp22
 70
     0
102
RTVSPropertyOp23
 70
     0
102
RTVSPropertyOp24
 70
     0
102
RTVSPropertyOp25
 70
     0
102
RTVSPropertyOp26
 70
     0
102
RTVSPropertyOp27
 70
     0
102
RTVSPropertyOp28
 70
     1
102
RTVSPropertyOp29
 70
     1
102
RTVSPropertyOp30
 70
     1
102
RTVSPropertyOp31
 70
     1
102
RTVSPropertyOp32
 70
     1
102
RTVSPropertyOp33
 70
     1
102
RTVSPropertyOp34
 70
     1
102
RTVSPropertyOp35
 70
     1
102
RTVSPropertyOp36
 70
     1
102
RTVSPropertyOp37
 70
     0
102
RTVSPropertyOp38
 70
     0
102
RTVSPropertyOp39
 70
     0
102
RTVSPropertyOp40
 70
     0
102
RTVSPropertyOp41
 70
     0
102
RTVSPropertyOp42
 70
     0
102
RTVSPropertyOp43
 70
     0
102
RTVSPropertyOp44
 70
     0
102
RTVSPropertyOp45
 70
     1
102
RTVSPropertyOp46
 70
     0
102
RTVSPropertyOp47
 70
     0
102
RTVSPropertyOp48
 70
     0
102
RTVSPropertyOp49
 70
     1
102
RTVSPropertyOp50
 70
     0
102
RTVSPropertyOp51
 70
     0
102
RTVSPropertyOp52
 70
     0
102
RTVSPropertyOp53
 70
     0
102
RTVSPropertyOp54
 70
     0
102
RTVSPropertyOp55
 70
     1
102
RTVSPropertyOp56
 70
     0
102
RTVSPropertyOp57
 70
     0
102
RTVSPropertyOp58
 70
     0
102
RTVSPropertyOp59
 70
     0
102
RTVSPropertyOp60
 70
     0
102
RTVSPropertyOp61
 70
     0
102
RTVSPropertyOp62
 70
     0
  0
XRECORD
  5
BE7E
102
{ACAD_REACTORS
330
BE7D
102
}
330
BE7D
100
AcDbXrecord
280
     1
102
RTVSPost2010Prop28
280
     0
102
RTVSPost2010PropOp28
 70
     1
102
RTVSPost2010Prop29
280
     1
102
RTVSPost2010PropOp29
 70
     1
102
RTVSPost2010Prop30
280
     1
102
RTVSPost2010PropOp30
 70
     1
102
RTVSPost2010Prop31
280
     0
102
RTVSPost2010PropOp31
 70
     1
102
RTVSPost2010Prop32
280
     0
102
RTVSPost2010PropOp32
 70
     1
102
RTVSPost2010Prop33
280
     0
102
RTVSPost2010PropOp33
 70
     1
102
RTVSPost2010Prop34
280
     0
102
RTVSPost2010PropOp34
 70
     1
102
RTVSPost2010Prop35
280
     0
102
RTVSPost2010PropOp35
 70
     1
102
RTVSPost2010Prop36
280
     0
102
RTVSPost2010PropOp36
 70
     1
102
RTVSPost2010Prop37
 90
       50
102
RTVSPost2010PropOp37
 70
     1
102
RTVSPost2010Prop38
140
0.0
102
RTVSPost2010PropOp38
 70
     1
102
RTVSPost2010Prop39
140
1.0
102
RTVSPost2010PropOp39
 70
     1
102
RTVSPost2010Prop40
 90
        0
102
RTVSPost2010PropOp40
 70
     1
102
RTVSPost2010Prop41ColorIndex
 90
       18
102
RTVSPost2010Prop41ColorRGB
 90
        0
102
RTVSPost2010PropOp41
 70
     1
102
RTVSPost2010Prop42
 90
       50
102
RTVSPost2010PropOp42
 70
     1
102
RTVSPost2010Prop43
 90
        3
102
RTVSPost2010PropOp43
 70
     1
102
RTVSPost2010Prop44ColorIndex
 90
        5
102
RTVSPost2010Prop44ColorRGB
 90
      255
102
RTVSPost2010PropOp44
 70
     1
102
RTVSPost2010Prop45
280
     0
102
RTVSPost2010PropOp45
 70
     1
102
RTVSPost2010Prop46
 90
       50
102
RTVSPost2010PropOp46
 70
     1
102
RTVSPost2010Prop47
 90
       50
102
RTVSPost2010PropOp47
 70
     1
102
RTVSPost2010Prop48
 90
       50
102
RTVSPost2010PropOp48
 70
     1
102
RTVSPost2010Prop49
280
     0
102
RTVSPost2010PropOp49
 70
     1
102
RTVSPost2010Prop50
 90
       50
102
RTVSPost2010PropOp50
 70
     1
102
RTVSPost2010Prop51ColorIndex
 90
      256
102
RTVSPost2010Prop51ColorRGB
 90
-16777216
102
RTVSPost2010PropOp51
 70
     0
102
RTVSPost2010Prop52
140
1.0
102
RTVSPost2010PropOp52
 70
     0
102
RTVSPost2010Prop53
 90
        2
102
RTVSPost2010PropOp53
 70
     1
102
RTVSPost2010Prop54
  1
strokes_ogs.tif
102
RTVSPost2010PropOp54
 70
     1
102
RTVSPost2010Prop55
280
     0
102
RTVSPost2010PropOp55
 70
     1
102
RTVSPost2010Prop56
140
1.0
102
RTVSPost2010PropOp56
 70
     1
102
RTVSPost2010Prop57
140
1.0
102
RTVSPost2010PropOp57
 70
     1
102
RTVSPropertyOp0
 70
     1
102
RTVSPropertyOp1
 70
     1
102
RTVSPropertyOp2
 70
     1
102
RTVSPropertyOp3
 70
     1
102
RTVSPropertyOp4
 70
     1
102
RTVSPropertyOp5
 70
     1
102
RTVSPropertyOp6
 70
     1
102
RTVSPropertyOp7
 70
     1
102
RTVSPropertyOp8
 70
     1
102
RTVSPropertyOp9
 70
     1
102
RTVSPropertyOp10
 70
     1
102
RTVSPropertyOp11
 70
     1
102
RTVSPropertyOp12
 70
     1
102
RTVSPropertyOp13
 70
     1
102
RTVSPropertyOp14
 70
     1
102
RTVSPropertyOp15
 70
     1
102
RTVSPropertyOp16
 70
     1
102
RTVSPropertyOp17
 70
     1
102
RTVSPropertyOp18
 70
     1
102
RTVSPropertyOp19
 70
     1
102
RTVSPropertyOp20
 70
     1
102
RTVSPropertyOp21
 70
     1
102
RTVSPropertyOp22
 70
     1
102
RTVSPropertyOp23
 70
     1
102
RTVSPropertyOp24
 70
     1
102
RTVSPropertyOp25
 70
     1
102
RTVSPropertyOp26
 70
     1
102
RTVSPropertyOp27
 70
     1
102
RTVSPropertyOp28
 70
     1
102
RTVSPropertyOp29
 70
     1
102
RTVSPropertyOp30
 70
     1
102
RTVSPropertyOp31
 70
     1
102
RTVSPropertyOp32
 70
     1
102
RTVSPropertyOp33
 70
     1
102
RTVSPropertyOp34
 70
     1
102
RTVSPropertyOp35
 70
     1
102
RTVSPropertyOp36
 70
     1
102
RTVSPropertyOp37
 70
     1
102
RTVSPropertyOp38
 70
     1
102
RTVSPropertyOp39
 70
     1
102
RTVSPropertyOp40
 70
     1
102
RTVSPropertyOp41
 70
     1
102
RTVSPropertyOp42
 70
     1
102
RTVSPropertyOp43
 70
     1
102
RTVSPropertyOp44
 70
     1
102
RTVSPropertyOp45
 70
     1
102
RTVSPropertyOp46
 70
     1
102
RTVSPropertyOp47
 70
     1
102
RTVSPropertyOp48
 70
     1
102
RTVSPropertyOp49
 70
     1
102
RTVSPropertyOp50
 70
     1
102
RTVSPropertyOp51
 70
     0
102
RTVSPropertyOp52
 70
     0
102
RTVSPropertyOp53
 70
     1
102
RTVSPropertyOp54
 70
     1
102
RTVSPropertyOp55
 70
     1
102
RTVSPropertyOp56
 70
     1
102
RTVSPropertyOp57
 70
     1
102
RTVSPropertyOp58
 70
     1
102
RTVSPropertyOp59
 70
     1
102
RTVSPropertyOp60
 70
     1
102
RTVSPropertyOp61
 70
     1
102
RTVSPropertyOp62
 70
     1
  0
XRECORD
  5
BE94
102
{ACAD_REACTORS
330
BE93
102
}
330
BE93
100
AcDbXrecord
280
     1
102
RTVSPost2010Prop28
280
     0
102
RTVSPost2010PropOp28
 70
     1
102
RTVSPost2010Prop29
280
     1
102
RTVSPost2010PropOp29
 70
     1
102
RTVSPost2010Prop30
280
     1
102
RTVSPost2010PropOp30
 70
     1
102
RTVSPost2010Prop31
280
     0
102
RTVSPost2010PropOp31
 70
     1
102
RTVSPost2010Prop32
280
     0
102
RTVSPost2010PropOp32
 70
     1
102
RTVSPost2010Prop33
280
     0
102
RTVSPost2010PropOp33
 70
     1
102
RTVSPost2010Prop34
280
     0
102
RTVSPost2010PropOp34
 70
     1
102
RTVSPost2010Prop35
280
     0
102
RTVSPost2010PropOp35
 70
     1
102
RTVSPost2010Prop36
280
     0
102
RTVSPost2010PropOp36
 70
     1
102
RTVSPost2010Prop37
 90
       50
102
RTVSPost2010PropOp37
 70
     1
102
RTVSPost2010Prop38
140
0.0
102
RTVSPost2010PropOp38
 70
     1
102
RTVSPost2010Prop39
140
1.0
102
RTVSPost2010PropOp39
 70
     1
102
RTVSPost2010Prop40
 90
        0
102
RTVSPost2010PropOp40
 70
     1
102
RTVSPost2010Prop41ColorIndex
 90
       18
102
RTVSPost2010Prop41ColorRGB
 90
        0
102
RTVSPost2010PropOp41
 70
     1
102
RTVSPost2010Prop42
 90
       50
102
RTVSPost2010PropOp42
 70
     1
102
RTVSPost2010Prop43
 90
        3
102
RTVSPost2010PropOp43
 70
     1
102
RTVSPost2010Prop44ColorIndex
 90
        5
102
RTVSPost2010Prop44ColorRGB
 90
      255
102
RTVSPost2010PropOp44
 70
     1
102
RTVSPost2010Prop45
280
     0
102
RTVSPost2010PropOp45
 70
     1
102
RTVSPost2010Prop46
 90
       50
102
RTVSPost2010PropOp46
 70
     1
102
RTVSPost2010Prop47
 90
       50
102
RTVSPost2010PropOp47
 70
     1
102
RTVSPost2010Prop48
 90
       50
102
RTVSPost2010PropOp48
 70
     1
102
RTVSPost2010Prop49
280
     0
102
RTVSPost2010PropOp49
 70
     1
102
RTVSPost2010Prop50
 90
       50
102
RTVSPost2010PropOp50
 70
     1
102
RTVSPost2010Prop51ColorIndex
 90
      256
102
RTVSPost2010Prop51ColorRGB
 90
-16777216
102
RTVSPost2010PropOp51
 70
     0
102
RTVSPost2010Prop52
140
1.0
102
RTVSPost2010PropOp52
 70
     0
102
RTVSPost2010Prop53
 90
        2
102
RTVSPost2010PropOp53
 70
     1
102
RTVSPost2010Prop54
  1
strokes_ogs.tif
102
RTVSPost2010PropOp54
 70
     1
102
RTVSPost2010Prop55
280
     0
102
RTVSPost2010PropOp55
 70
     1
102
RTVSPost2010Prop56
140
1.0
102
RTVSPost2010PropOp56
 70
     1
102
RTVSPost2010Prop57
140
1.0
102
RTVSPost2010PropOp57
 70
     1
102
RTVSPropertyOp0
 70
     1
102
RTVSPropertyOp1
 70
     1
102
RTVSPropertyOp2
 70
     1
102
RTVSPropertyOp3
 70
     1
102
RTVSPropertyOp4
 70
     1
102
RTVSPropertyOp5
 70
     1
102
RTVSPropertyOp6
 70
     1
102
RTVSPropertyOp7
 70
     1
102
RTVSPropertyOp8
 70
     1
102
RTVSPropertyOp9
 70
     1
102
RTVSPropertyOp10
 70
     1
102
RTVSPropertyOp11
 70
     1
102
RTVSPropertyOp12
 70
     1
102
RTVSPropertyOp13
 70
     1
102
RTVSPropertyOp14
 70
     1
102
RTVSPropertyOp15
 70
     1
102
RTVSPropertyOp16
 70
     1
102
RTVSPropertyOp17
 70
     1
102
RTVSPropertyOp18
 70
     1
102
RTVSPropertyOp19
 70
     1
102
RTVSPropertyOp20
 70
     1
102
RTVSPropertyOp21
 70
     1
102
RTVSPropertyOp22
 70
     1
102
RTVSPropertyOp23
 70
     1
102
RTVSPropertyOp24
 70
     1
102
RTVSPropertyOp25
 70
     1
102
RTVSPropertyOp26
 70
     1
102
RTVSPropertyOp27
 70
     1
102
RTVSPropertyOp28
 70
     1
102
RTVSPropertyOp29
 70
     1
102
RTVSPropertyOp30
 70
     1
102
RTVSPropertyOp31
 70
     1
102
RTVSPropertyOp32
 70
     1
102
RTVSPropertyOp33
 70
     1
102
RTVSPropertyOp34
 70
     1
102
RTVSPropertyOp35
 70
     1
102
RTVSPropertyOp36
 70
     1
102
RTVSPropertyOp37
 70
     1
102
RTVSPropertyOp38
 70
     1
102
RTVSPropertyOp39
 70
     1
102
RTVSPropertyOp40
 70
     1
102
RTVSPropertyOp41
 70
     1
102
RTVSPropertyOp42
 70
     1
102
RTVSPropertyOp43
 70
     1
102
RTVSPropertyOp44
 70
     1
102
RTVSPropertyOp45
 70
     1
102
RTVSPropertyOp46
 70
     1
102
RTVSPropertyOp47
 70
     1
102
RTVSPropertyOp48
 70
     1
102
RTVSPropertyOp49
 70
     1
102
RTVSPropertyOp50
 70
     1
102
RTVSPropertyOp51
 70
     0
102
RTVSPropertyOp52
 70
     0
102
RTVSPropertyOp53
 70
     1
102
RTVSPropertyOp54
 70
     1
102
RTVSPropertyOp55
 70
     1
102
RTVSPropertyOp56
 70
     1
102
RTVSPropertyOp57
 70
     1
102
RTVSPropertyOp58
 70
     1
102
RTVSPropertyOp59
 70
     1
102
RTVSPropertyOp60
 70
     1
102
RTVSPropertyOp61
 70
     1
102
RTVSPropertyOp62
 70
     1
  0
XRECORD
  5
BE92
102
{ACAD_REACTORS
330
BE91
102
}
330
BE91
100
AcDbXrecord
280
     1
102
RTVSPost2010Prop28
280
     0
102
RTVSPost2010PropOp28
 70
     1
102
RTVSPost2010Prop29
280
     1
102
RTVSPost2010PropOp29
 70
     1
102
RTVSPost2010Prop30
280
     1
102
RTVSPost2010PropOp30
 70
     1
102
RTVSPost2010Prop31
280
     0
102
RTVSPost2010PropOp31
 70
     1
102
RTVSPost2010Prop32
280
     0
102
RTVSPost2010PropOp32
 70
     1
102
RTVSPost2010Prop33
280
     0
102
RTVSPost2010PropOp33
 70
     1
102
RTVSPost2010Prop34
280
     0
102
RTVSPost2010PropOp34
 70
     1
102
RTVSPost2010Prop35
280
     0
102
RTVSPost2010PropOp35
 70
     1
102
RTVSPost2010Prop36
280
     0
102
RTVSPost2010PropOp36
 70
     1
102
RTVSPost2010Prop37
 90
       50
102
RTVSPost2010PropOp37
 70
     1
102
RTVSPost2010Prop38
140
0.0
102
RTVSPost2010PropOp38
 70
     1
102
RTVSPost2010Prop39
140
1.0
102
RTVSPost2010PropOp39
 70
     1
102
RTVSPost2010Prop40
 90
        0
102
RTVSPost2010PropOp40
 70
     1
102
RTVSPost2010Prop41ColorIndex
 90
       18
102
RTVSPost2010Prop41ColorRGB
 90
        0
102
RTVSPost2010PropOp41
 70
     1
102
RTVSPost2010Prop42
 90
       50
102
RTVSPost2010PropOp42
 70
     1
102
RTVSPost2010Prop43
 90
        3
102
RTVSPost2010PropOp43
 70
     1
102
RTVSPost2010Prop44ColorIndex
 90
        5
102
RTVSPost2010Prop44ColorRGB
 90
      255
102
RTVSPost2010PropOp44
 70
     1
102
RTVSPost2010Prop45
280
     0
102
RTVSPost2010PropOp45
 70
     1
102
RTVSPost2010Prop46
 90
       50
102
RTVSPost2010PropOp46
 70
     1
102
RTVSPost2010Prop47
 90
       50
102
RTVSPost2010PropOp47
 70
     1
102
RTVSPost2010Prop48
 90
       50
102
RTVSPost2010PropOp48
 70
     1
102
RTVSPost2010Prop49
280
     0
102
RTVSPost2010PropOp49
 70
     1
102
RTVSPost2010Prop50
 90
       50
102
RTVSPost2010PropOp50
 70
     1
102
RTVSPost2010Prop51ColorIndex
 90
      256
102
RTVSPost2010Prop51ColorRGB
 90
-16777216
102
RTVSPost2010PropOp51
 70
     0
102
RTVSPost2010Prop52
140
1.0
102
RTVSPost2010PropOp52
 70
     0
102
RTVSPost2010Prop53
 90
        2
102
RTVSPost2010PropOp53
 70
     1
102
RTVSPost2010Prop54
  1
strokes_ogs.tif
102
RTVSPost2010PropOp54
 70
     1
102
RTVSPost2010Prop55
280
     0
102
RTVSPost2010PropOp55
 70
     1
102
RTVSPost2010Prop56
140
1.0
102
RTVSPost2010PropOp56
 70
     1
102
RTVSPost2010Prop57
140
1.0
102
RTVSPost2010PropOp57
 70
     1
102
RTVSPropertyOp0
 70
     1
102
RTVSPropertyOp1
 70
     1
102
RTVSPropertyOp2
 70
     1
102
RTVSPropertyOp3
 70
     1
102
RTVSPropertyOp4
 70
     1
102
RTVSPropertyOp5
 70
     1
102
RTVSPropertyOp6
 70
     1
102
RTVSPropertyOp7
 70
     1
102
RTVSPropertyOp8
 70
     1
102
RTVSPropertyOp9
 70
     1
102
RTVSPropertyOp10
 70
     1
102
RTVSPropertyOp11
 70
     1
102
RTVSPropertyOp12
 70
     1
102
RTVSPropertyOp13
 70
     1
102
RTVSPropertyOp14
 70
     1
102
RTVSPropertyOp15
 70
     1
102
RTVSPropertyOp16
 70
     1
102
RTVSPropertyOp17
 70
     1
102
RTVSPropertyOp18
 70
     1
102
RTVSPropertyOp19
 70
     1
102
RTVSPropertyOp20
 70
     1
102
RTVSPropertyOp21
 70
     1
102
RTVSPropertyOp22
 70
     1
102
RTVSPropertyOp23
 70
     1
102
RTVSPropertyOp24
 70
     1
102
RTVSPropertyOp25
 70
     1
102
RTVSPropertyOp26
 70
     1
102
RTVSPropertyOp27
 70
     1
102
RTVSPropertyOp28
 70
     1
102
RTVSPropertyOp29
 70
     1
102
RTVSPropertyOp30
 70
     1
102
RTVSPropertyOp31
 70
     1
102
RTVSPropertyOp32
 70
     1
102
RTVSPropertyOp33
 70
     1
102
RTVSPropertyOp34
 70
     1
102
RTVSPropertyOp35
 70
     1
102
RTVSPropertyOp36
 70
     1
102
RTVSPropertyOp37
 70
     1
102
RTVSPropertyOp38
 70
     1
102
RTVSPropertyOp39
 70
     1
102
RTVSPropertyOp40
 70
     1
102
RTVSPropertyOp41
 70
     1
102
RTVSPropertyOp42
 70
     1
102
RTVSPropertyOp43
 70
     1
102
RTVSPropertyOp44
 70
     1
102
RTVSPropertyOp45
 70
     1
102
RTVSPropertyOp46
 70
     1
102
RTVSPropertyOp47
 70
     1
102
RTVSPropertyOp48
 70
     1
102
RTVSPropertyOp49
 70
     1
102
RTVSPropertyOp50
 70
     1
102
RTVSPropertyOp51
 70
     0
102
RTVSPropertyOp52
 70
     0
102
RTVSPropertyOp53
 70
     1
102
RTVSPropertyOp54
 70
     1
102
RTVSPropertyOp55
 70
     1
102
RTVSPropertyOp56
 70
     1
102
RTVSPropertyOp57
 70
     1
102
RTVSPropertyOp58
 70
     1
102
RTVSPropertyOp59
 70
     1
102
RTVSPropertyOp60
 70
     1
102
RTVSPropertyOp61
 70
     1
102
RTVSPropertyOp62
 70
     1
  0
XRECORD
  5
BE8C
102
{ACAD_REACTORS
330
BE8B
102
}
330
BE8B
100
AcDbXrecord
280
     1
102
RTVSPost2010Prop28
280
     0
102
RTVSPost2010PropOp28
 70
     1
102
RTVSPost2010Prop29
280
     1
102
RTVSPost2010PropOp29
 70
     1
102
RTVSPost2010Prop30
280
     1
102
RTVSPost2010PropOp30
 70
     1
102
RTVSPost2010Prop31
280
     0
102
RTVSPost2010PropOp31
 70
     1
102
RTVSPost2010Prop32
280
     0
102
RTVSPost2010PropOp32
 70
     1
102
RTVSPost2010Prop33
280
     0
102
RTVSPost2010PropOp33
 70
     1
102
RTVSPost2010Prop34
280
     0
102
RTVSPost2010PropOp34
 70
     1
102
RTVSPost2010Prop35
280
     0
102
RTVSPost2010PropOp35
 70
     1
102
RTVSPost2010Prop36
280
     0
102
RTVSPost2010PropOp36
 70
     1
102
RTVSPost2010Prop37
 90
       50
102
RTVSPost2010PropOp37
 70
     1
102
RTVSPost2010Prop38
140
0.0
102
RTVSPost2010PropOp38
 70
     1
102
RTVSPost2010Prop39
140
1.0
102
RTVSPost2010PropOp39
 70
     1
102
RTVSPost2010Prop40
 90
        0
102
RTVSPost2010PropOp40
 70
     1
102
RTVSPost2010Prop41ColorIndex
 90
       18
102
RTVSPost2010Prop41ColorRGB
 90
        0
102
RTVSPost2010PropOp41
 70
     1
102
RTVSPost2010Prop42
 90
       50
102
RTVSPost2010PropOp42
 70
     1
102
RTVSPost2010Prop43
 90
        3
102
RTVSPost2010PropOp43
 70
     1
102
RTVSPost2010Prop44ColorIndex
 90
        5
102
RTVSPost2010Prop44ColorRGB
 90
      255
102
RTVSPost2010PropOp44
 70
     1
102
RTVSPost2010Prop45
280
     0
102
RTVSPost2010PropOp45
 70
     1
102
RTVSPost2010Prop46
 90
       50
102
RTVSPost2010PropOp46
 70
     1
102
RTVSPost2010Prop47
 90
       50
102
RTVSPost2010PropOp47
 70
     1
102
RTVSPost2010Prop48
 90
       50
102
RTVSPost2010PropOp48
 70
     1
102
RTVSPost2010Prop49
280
     0
102
RTVSPost2010PropOp49
 70
     1
102
RTVSPost2010Prop50
 90
       50
102
RTVSPost2010PropOp50
 70
     1
102
RTVSPost2010Prop51ColorIndex
 90
      256
102
RTVSPost2010Prop51ColorRGB
 90
-16777216
102
RTVSPost2010PropOp51
 70
     0
102
RTVSPost2010Prop52
140
1.0
102
RTVSPost2010PropOp52
 70
     0
102
RTVSPost2010Prop53
 90
        2
102
RTVSPost2010PropOp53
 70
     1
102
RTVSPost2010Prop54
  1
strokes_ogs.tif
102
RTVSPost2010PropOp54
 70
     1
102
RTVSPost2010Prop55
280
     0
102
RTVSPost2010PropOp55
 70
     1
102
RTVSPost2010Prop56
140
1.0
102
RTVSPost2010PropOp56
 70
     1
102
RTVSPost2010Prop57
140
1.0
102
RTVSPost2010PropOp57
 70
     1
102
RTVSPropertyOp0
 70
     1
102
RTVSPropertyOp1
 70
     1
102
RTVSPropertyOp2
 70
     1
102
RTVSPropertyOp3
 70
     1
102
RTVSPropertyOp4
 70
     1
102
RTVSPropertyOp5
 70
     1
102
RTVSPropertyOp6
 70
     1
102
RTVSPropertyOp7
 70
     1
102
RTVSPropertyOp8
 70
     1
102
RTVSPropertyOp9
 70
     1
102
RTVSPropertyOp10
 70
     1
102
RTVSPropertyOp11
 70
     1
102
RTVSPropertyOp12
 70
     1
102
RTVSPropertyOp13
 70
     1
102
RTVSPropertyOp14
 70
     1
102
RTVSPropertyOp15
 70
     1
102
RTVSPropertyOp16
 70
     1
102
RTVSPropertyOp17
 70
     1
102
RTVSPropertyOp18
 70
     1
102
RTVSPropertyOp19
 70
     1
102
RTVSPropertyOp20
 70
     1
102
RTVSPropertyOp21
 70
     1
102
RTVSPropertyOp22
 70
     1
102
RTVSPropertyOp23
 70
     1
102
RTVSPropertyOp24
 70
     1
102
RTVSPropertyOp25
 70
     1
102
RTVSPropertyOp26
 70
     1
102
RTVSPropertyOp27
 70
     1
102
RTVSPropertyOp28
 70
     1
102
RTVSPropertyOp29
 70
     1
102
RTVSPropertyOp30
 70
     1
102
RTVSPropertyOp31
 70
     1
102
RTVSPropertyOp32
 70
     1
102
RTVSPropertyOp33
 70
     1
102
RTVSPropertyOp34
 70
     1
102
RTVSPropertyOp35
 70
     1
102
RTVSPropertyOp36
 70
     1
102
RTVSPropertyOp37
 70
     1
102
RTVSPropertyOp38
 70
     1
102
RTVSPropertyOp39
 70
     1
102
RTVSPropertyOp40
 70
     1
102
RTVSPropertyOp41
 70
     1
102
RTVSPropertyOp42
 70
     1
102
RTVSPropertyOp43
 70
     1
102
RTVSPropertyOp44
 70
     1
102
RTVSPropertyOp45
 70
     1
102
RTVSPropertyOp46
 70
     1
102
RTVSPropertyOp47
 70
     1
102
RTVSPropertyOp48
 70
     1
102
RTVSPropertyOp49
 70
     1
102
RTVSPropertyOp50
 70
     1
102
RTVSPropertyOp51
 70
     0
102
RTVSPropertyOp52
 70
     0
102
RTVSPropertyOp53
 70
     1
102
RTVSPropertyOp54
 70
     1
102
RTVSPropertyOp55
 70
     1
102
RTVSPropertyOp56
 70
     1
102
RTVSPropertyOp57
 70
     1
102
RTVSPropertyOp58
 70
     1
102
RTVSPropertyOp59
 70
     1
102
RTVSPropertyOp60
 70
     1
102
RTVSPropertyOp61
 70
     1
102
RTVSPropertyOp62
 70
     1
  0
XRECORD
  5
BE8E
102
{ACAD_REACTORS
330
BE8D
102
}
330
BE8D
100
AcDbXrecord
280
     1
102
RTVSPost2010Prop28
280
     0
102
RTVSPost2010PropOp28
 70
     1
102
RTVSPost2010Prop29
280
     1
102
RTVSPost2010PropOp29
 70
     1
102
RTVSPost2010Prop30
280
     1
102
RTVSPost2010PropOp30
 70
     1
102
RTVSPost2010Prop31
280
     0
102
RTVSPost2010PropOp31
 70
     1
102
RTVSPost2010Prop32
280
     0
102
RTVSPost2010PropOp32
 70
     1
102
RTVSPost2010Prop33
280
     0
102
RTVSPost2010PropOp33
 70
     1
102
RTVSPost2010Prop34
280
     0
102
RTVSPost2010PropOp34
 70
     1
102
RTVSPost2010Prop35
280
     0
102
RTVSPost2010PropOp35
 70
     1
102
RTVSPost2010Prop36
280
     0
102
RTVSPost2010PropOp36
 70
     1
102
RTVSPost2010Prop37
 90
       50
102
RTVSPost2010PropOp37
 70
     1
102
RTVSPost2010Prop38
140
0.0
102
RTVSPost2010PropOp38
 70
     1
102
RTVSPost2010Prop39
140
1.0
102
RTVSPost2010PropOp39
 70
     1
102
RTVSPost2010Prop40
 90
        0
102
RTVSPost2010PropOp40
 70
     1
102
RTVSPost2010Prop41ColorIndex
 90
       18
102
RTVSPost2010Prop41ColorRGB
 90
        0
102
RTVSPost2010PropOp41
 70
     1
102
RTVSPost2010Prop42
 90
       50
102
RTVSPost2010PropOp42
 70
     1
102
RTVSPost2010Prop43
 90
        3
102
RTVSPost2010PropOp43
 70
     1
102
RTVSPost2010Prop44ColorIndex
 90
        5
102
RTVSPost2010Prop44ColorRGB
 90
      255
102
RTVSPost2010PropOp44
 70
     1
102
RTVSPost2010Prop45
280
     0
102
RTVSPost2010PropOp45
 70
     1
102
RTVSPost2010Prop46
 90
       50
102
RTVSPost2010PropOp46
 70
     1
102
RTVSPost2010Prop47
 90
       50
102
RTVSPost2010PropOp47
 70
     1
102
RTVSPost2010Prop48
 90
       50
102
RTVSPost2010PropOp48
 70
     1
102
RTVSPost2010Prop49
280
     0
102
RTVSPost2010PropOp49
 70
     1
102
RTVSPost2010Prop50
 90
       50
102
RTVSPost2010PropOp50
 70
     1
102
RTVSPost2010Prop51ColorIndex
 90
      256
102
RTVSPost2010Prop51ColorRGB
 90
-16777216
102
RTVSPost2010PropOp51
 70
     0
102
RTVSPost2010Prop52
140
1.0
102
RTVSPost2010PropOp52
 70
     0
102
RTVSPost2010Prop53
 90
        2
102
RTVSPost2010PropOp53
 70
     1
102
RTVSPost2010Prop54
  1
strokes_ogs.tif
102
RTVSPost2010PropOp54
 70
     1
102
RTVSPost2010Prop55
280
     0
102
RTVSPost2010PropOp55
 70
     1
102
RTVSPost2010Prop56
140
1.0
102
RTVSPost2010PropOp56
 70
     1
102
RTVSPost2010Prop57
140
1.0
102
RTVSPost2010PropOp57
 70
     1
102
RTVSPropertyOp0
 70
     1
102
RTVSPropertyOp1
 70
     1
102
RTVSPropertyOp2
 70
     1
102
RTVSPropertyOp3
 70
     1
102
RTVSPropertyOp4
 70
     1
102
RTVSPropertyOp5
 70
     1
102
RTVSPropertyOp6
 70
     1
102
RTVSPropertyOp7
 70
     1
102
RTVSPropertyOp8
 70
     1
102
RTVSPropertyOp9
 70
     1
102
RTVSPropertyOp10
 70
     1
102
RTVSPropertyOp11
 70
     1
102
RTVSPropertyOp12
 70
     1
102
RTVSPropertyOp13
 70
     1
102
RTVSPropertyOp14
 70
     1
102
RTVSPropertyOp15
 70
     1
102
RTVSPropertyOp16
 70
     1
102
RTVSPropertyOp17
 70
     1
102
RTVSPropertyOp18
 70
     1
102
RTVSPropertyOp19
 70
     1
102
RTVSPropertyOp20
 70
     1
102
RTVSPropertyOp21
 70
     1
102
RTVSPropertyOp22
 70
     1
102
RTVSPropertyOp23
 70
     1
102
RTVSPropertyOp24
 70
     1
102
RTVSPropertyOp25
 70
     1
102
RTVSPropertyOp26
 70
     1
102
RTVSPropertyOp27
 70
     1
102
RTVSPropertyOp28
 70
     1
102
RTVSPropertyOp29
 70
     1
102
RTVSPropertyOp30
 70
     1
102
RTVSPropertyOp31
 70
     1
102
RTVSPropertyOp32
 70
     1
102
RTVSPropertyOp33
 70
     1
102
RTVSPropertyOp34
 70
     1
102
RTVSPropertyOp35
 70
     1
102
RTVSPropertyOp36
 70
     1
102
RTVSPropertyOp37
 70
     1
102
RTVSPropertyOp38
 70
     1
102
RTVSPropertyOp39
 70
     1
102
RTVSPropertyOp40
 70
     1
102
RTVSPropertyOp41
 70
     1
102
RTVSPropertyOp42
 70
     1
102
RTVSPropertyOp43
 70
     1
102
RTVSPropertyOp44
 70
     1
102
RTVSPropertyOp45
 70
     1
102
RTVSPropertyOp46
 70
     1
102
RTVSPropertyOp47
 70
     1
102
RTVSPropertyOp48
 70
     1
102
RTVSPropertyOp49
 70
     1
102
RTVSPropertyOp50
 70
     1
102
RTVSPropertyOp51
 70
     0
102
RTVSPropertyOp52
 70
     0
102
RTVSPropertyOp53
 70
     1
102
RTVSPropertyOp54
 70
     1
102
RTVSPropertyOp55
 70
     1
102
RTVSPropertyOp56
 70
     1
102
RTVSPropertyOp57
 70
     1
102
RTVSPropertyOp58
 70
     1
102
RTVSPropertyOp59
 70
     1
102
RTVSPropertyOp60
 70
     1
102
RTVSPropertyOp61
 70
     1
102
RTVSPropertyOp62
 70
     1
  0
XRECORD
  5
BE84
102
{ACAD_REACTORS
330
BE83
102
}
330
BE83
100
AcDbXrecord
280
     1
102
RTVSPost2010Prop28
280
     0
102
RTVSPost2010PropOp28
 70
     1
102
RTVSPost2010Prop29
280
     1
102
RTVSPost2010PropOp29
 70
     1
102
RTVSPost2010Prop30
280
     1
102
RTVSPost2010PropOp30
 70
     1
102
RTVSPost2010Prop31
280
     0
102
RTVSPost2010PropOp31
 70
     1
102
RTVSPost2010Prop32
280
     0
102
RTVSPost2010PropOp32
 70
     1
102
RTVSPost2010Prop33
280
     0
102
RTVSPost2010PropOp33
 70
     1
102
RTVSPost2010Prop34
280
     0
102
RTVSPost2010PropOp34
 70
     1
102
RTVSPost2010Prop35
280
     0
102
RTVSPost2010PropOp35
 70
     1
102
RTVSPost2010Prop36
280
     0
102
RTVSPost2010PropOp36
 70
     1
102
RTVSPost2010Prop37
 90
       50
102
RTVSPost2010PropOp37
 70
     1
102
RTVSPost2010Prop38
140
0.0
102
RTVSPost2010PropOp38
 70
     1
102
RTVSPost2010Prop39
140
1.0
102
RTVSPost2010PropOp39
 70
     1
102
RTVSPost2010Prop40
 90
        0
102
RTVSPost2010PropOp40
 70
     1
102
RTVSPost2010Prop41ColorIndex
 90
       18
102
RTVSPost2010Prop41ColorRGB
 90
        0
102
RTVSPost2010PropOp41
 70
     1
102
RTVSPost2010Prop42
 90
       50
102
RTVSPost2010PropOp42
 70
     1
102
RTVSPost2010Prop43
 90
        3
102
RTVSPost2010PropOp43
 70
     1
102
RTVSPost2010Prop44ColorIndex
 90
        5
102
RTVSPost2010Prop44ColorRGB
 90
      255
102
RTVSPost2010PropOp44
 70
     1
102
RTVSPost2010Prop45
280
     0
102
RTVSPost2010PropOp45
 70
     1
102
RTVSPost2010Prop46
 90
       50
102
RTVSPost2010PropOp46
 70
     1
102
RTVSPost2010Prop47
 90
       50
102
RTVSPost2010PropOp47
 70
     1
102
RTVSPost2010Prop48
 90
       50
102
RTVSPost2010PropOp48
 70
     1
102
RTVSPost2010Prop49
280
     0
102
RTVSPost2010PropOp49
 70
     1
102
RTVSPost2010Prop50
 90
       50
102
RTVSPost2010PropOp50
 70
     1
102
RTVSPost2010Prop51ColorIndex
 90
      256
102
RTVSPost2010Prop51ColorRGB
 90
-16777216
102
RTVSPost2010PropOp51
 70
     0
102
RTVSPost2010Prop52
140
1.0
102
RTVSPost2010PropOp52
 70
     0
102
RTVSPost2010Prop53
 90
        2
102
RTVSPost2010PropOp53
 70
     1
102
RTVSPost2010Prop54
  1
strokes_ogs.tif
102
RTVSPost2010PropOp54
 70
     1
102
RTVSPost2010Prop55
280
     0
102
RTVSPost2010PropOp55
 70
     1
102
RTVSPost2010Prop56
140
1.0
102
RTVSPost2010PropOp56
 70
     1
102
RTVSPost2010Prop57
140
1.0
102
RTVSPost2010PropOp57
 70
     1
102
RTVSPropertyOp0
 70
     1
102
RTVSPropertyOp1
 70
     1
102
RTVSPropertyOp2
 70
     1
102
RTVSPropertyOp3
 70
     1
102
RTVSPropertyOp4
 70
     1
102
RTVSPropertyOp5
 70
     1
102
RTVSPropertyOp6
 70
     1
102
RTVSPropertyOp7
 70
     1
102
RTVSPropertyOp8
 70
     1
102
RTVSPropertyOp9
 70
     1
102
RTVSPropertyOp10
 70
     1
102
RTVSPropertyOp11
 70
     1
102
RTVSPropertyOp12
 70
     1
102
RTVSPropertyOp13
 70
     1
102
RTVSPropertyOp14
 70
     1
102
RTVSPropertyOp15
 70
     1
102
RTVSPropertyOp16
 70
     1
102
RTVSPropertyOp17
 70
     1
102
RTVSPropertyOp18
 70
     1
102
RTVSPropertyOp19
 70
     1
102
RTVSPropertyOp20
 70
     1
102
RTVSPropertyOp21
 70
     1
102
RTVSPropertyOp22
 70
     1
102
RTVSPropertyOp23
 70
     1
102
RTVSPropertyOp24
 70
     1
102
RTVSPropertyOp25
 70
     1
102
RTVSPropertyOp26
 70
     1
102
RTVSPropertyOp27
 70
     1
102
RTVSPropertyOp28
 70
     1
102
RTVSPropertyOp29
 70
     1
102
RTVSPropertyOp30
 70
     1
102
RTVSPropertyOp31
 70
     1
102
RTVSPropertyOp32
 70
     1
102
RTVSPropertyOp33
 70
     1
102
RTVSPropertyOp34
 70
     1
102
RTVSPropertyOp35
 70
     1
102
RTVSPropertyOp36
 70
     1
102
RTVSPropertyOp37
 70
     1
102
RTVSPropertyOp38
 70
     1
102
RTVSPropertyOp39
 70
     1
102
RTVSPropertyOp40
 70
     1
102
RTVSPropertyOp41
 70
     1
102
RTVSPropertyOp42
 70
     1
102
RTVSPropertyOp43
 70
     1
102
RTVSPropertyOp44
 70
     1
102
RTVSPropertyOp45
 70
     1
102
RTVSPropertyOp46
 70
     1
102
RTVSPropertyOp47
 70
     1
102
RTVSPropertyOp48
 70
     1
102
RTVSPropertyOp49
 70
     1
102
RTVSPropertyOp50
 70
     1
102
RTVSPropertyOp51
 70
     0
102
RTVSPropertyOp52
 70
     0
102
RTVSPropertyOp53
 70
     1
102
RTVSPropertyOp54
 70
     1
102
RTVSPropertyOp55
 70
     1
102
RTVSPropertyOp56
 70
     1
102
RTVSPropertyOp57
 70
     1
102
RTVSPropertyOp58
 70
     1
102
RTVSPropertyOp59
 70
     1
102
RTVSPropertyOp60
 70
     1
102
RTVSPropertyOp61
 70
     1
102
RTVSPropertyOp62
 70
     1
  0
XRECORD
  5
BE78
102
{ACAD_REACTORS
330
BE77
102
}
330
BE77
100
AcDbXrecord
280
     1
102
RTVSPost2010Prop28
280
     0
102
RTVSPost2010PropOp28
 70
     1
102
RTVSPost2010Prop29
280
     1
102
RTVSPost2010PropOp29
 70
     1
102
RTVSPost2010Prop30
280
     1
102
RTVSPost2010PropOp30
 70
     1
102
RTVSPost2010Prop31
280
     0
102
RTVSPost2010PropOp31
 70
     1
102
RTVSPost2010Prop32
280
     0
102
RTVSPost2010PropOp32
 70
     1
102
RTVSPost2010Prop33
280
     0
102
RTVSPost2010PropOp33
 70
     1
102
RTVSPost2010Prop34
280
     0
102
RTVSPost2010PropOp34
 70
     1
102
RTVSPost2010Prop35
280
     0
102
RTVSPost2010PropOp35
 70
     1
102
RTVSPost2010Prop36
280
     0
102
RTVSPost2010PropOp36
 70
     1
102
RTVSPost2010Prop37
 90
       50
102
RTVSPost2010PropOp37
 70
     1
102
RTVSPost2010Prop38
140
0.0
102
RTVSPost2010PropOp38
 70
     1
102
RTVSPost2010Prop39
140
1.0
102
RTVSPost2010PropOp39
 70
     1
102
RTVSPost2010Prop40
 90
        0
102
RTVSPost2010PropOp40
 70
     1
102
RTVSPost2010Prop41ColorIndex
 90
       18
102
RTVSPost2010Prop41ColorRGB
 90
        0
102
RTVSPost2010PropOp41
 70
     1
102
RTVSPost2010Prop42
 90
       50
102
RTVSPost2010PropOp42
 70
     1
102
RTVSPost2010Prop43
 90
        3
102
RTVSPost2010PropOp43
 70
     1
102
RTVSPost2010Prop44ColorIndex
 90
        5
102
RTVSPost2010Prop44ColorRGB
 90
      255
102
RTVSPost2010PropOp44
 70
     1
102
RTVSPost2010Prop45
280
     0
102
RTVSPost2010PropOp45
 70
     1
102
RTVSPost2010Prop46
 90
       50
102
RTVSPost2010PropOp46
 70
     1
102
RTVSPost2010Prop47
 90
       50
102
RTVSPost2010PropOp47
 70
     1
102
RTVSPost2010Prop48
 90
       50
102
RTVSPost2010PropOp48
 70
     1
102
RTVSPost2010Prop49
280
     0
102
RTVSPost2010PropOp49
 70
     1
102
RTVSPost2010Prop50
 90
       50
102
RTVSPost2010PropOp50
 70
     1
102
RTVSPost2010Prop51ColorIndex
 90
      256
102
RTVSPost2010Prop51ColorRGB
 90
-16777216
102
RTVSPost2010PropOp51
 70
     0
102
RTVSPost2010Prop52
140
1.0
102
RTVSPost2010PropOp52
 70
     0
102
RTVSPost2010Prop53
 90
        2
102
RTVSPost2010PropOp53
 70
     1
102
RTVSPost2010Prop54
  1
strokes_ogs.tif
102
RTVSPost2010PropOp54
 70
     1
102
RTVSPost2010Prop55
280
     0
102
RTVSPost2010PropOp55
 70
     1
102
RTVSPost2010Prop56
140
1.0
102
RTVSPost2010PropOp56
 70
     1
102
RTVSPost2010Prop57
140
1.0
102
RTVSPost2010PropOp57
 70
     1
102
RTVSPropertyOp0
 70
     1
102
RTVSPropertyOp1
 70
     1
102
RTVSPropertyOp2
 70
     1
102
RTVSPropertyOp3
 70
     1
102
RTVSPropertyOp4
 70
     1
102
RTVSPropertyOp5
 70
     1
102
RTVSPropertyOp6
 70
     1
102
RTVSPropertyOp7
 70
     1
102
RTVSPropertyOp8
 70
     1
102
RTVSPropertyOp9
 70
     1
102
RTVSPropertyOp10
 70
     1
102
RTVSPropertyOp11
 70
     1
102
RTVSPropertyOp12
 70
     1
102
RTVSPropertyOp13
 70
     1
102
RTVSPropertyOp14
 70
     1
102
RTVSPropertyOp15
 70
     1
102
RTVSPropertyOp16
 70
     1
102
RTVSPropertyOp17
 70
     1
102
RTVSPropertyOp18
 70
     1
102
RTVSPropertyOp19
 70
     1
102
RTVSPropertyOp20
 70
     1
102
RTVSPropertyOp21
 70
     1
102
RTVSPropertyOp22
 70
     1
102
RTVSPropertyOp23
 70
     1
102
RTVSPropertyOp24
 70
     1
102
RTVSPropertyOp25
 70
     1
102
RTVSPropertyOp26
 70
     1
102
RTVSPropertyOp27
 70
     1
102
RTVSPropertyOp28
 70
     1
102
RTVSPropertyOp29
 70
     1
102
RTVSPropertyOp30
 70
     1
102
RTVSPropertyOp31
 70
     1
102
RTVSPropertyOp32
 70
     1
102
RTVSPropertyOp33
 70
     1
102
RTVSPropertyOp34
 70
     1
102
RTVSPropertyOp35
 70
     1
102
RTVSPropertyOp36
 70
     1
102
RTVSPropertyOp37
 70
     1
102
RTVSPropertyOp38
 70
     1
102
RTVSPropertyOp39
 70
     1
102
RTVSPropertyOp40
 70
     1
102
RTVSPropertyOp41
 70
     1
102
RTVSPropertyOp42
 70
     1
102
RTVSPropertyOp43
 70
     1
102
RTVSPropertyOp44
 70
     1
102
RTVSPropertyOp45
 70
     1
102
RTVSPropertyOp46
 70
     1
102
RTVSPropertyOp47
 70
     1
102
RTVSPropertyOp48
 70
     1
102
RTVSPropertyOp49
 70
     1
102
RTVSPropertyOp50
 70
     1
102
RTVSPropertyOp51
 70
     0
102
RTVSPropertyOp52
 70
     0
102
RTVSPropertyOp53
 70
     1
102
RTVSPropertyOp54
 70
     1
102
RTVSPropertyOp55
 70
     1
102
RTVSPropertyOp56
 70
     1
102
RTVSPropertyOp57
 70
     1
102
RTVSPropertyOp58
 70
     1
102
RTVSPropertyOp59
 70
     1
102
RTVSPropertyOp60
 70
     1
102
RTVSPropertyOp61
 70
     1
102
RTVSPropertyOp62
 70
     1
  0
XRECORD
  5
BE90
102
{ACAD_REACTORS
330
BE8F
102
}
330
BE8F
100
AcDbXrecord
280
     1
102
RTVSPost2010Prop28
280
     0
102
RTVSPost2010PropOp28
 70
     1
102
RTVSPost2010Prop29
280
     1
102
RTVSPost2010PropOp29
 70
     1
102
RTVSPost2010Prop30
280
     1
102
RTVSPost2010PropOp30
 70
     1
102
RTVSPost2010Prop31
280
     0
102
RTVSPost2010PropOp31
 70
     1
102
RTVSPost2010Prop32
280
     0
102
RTVSPost2010PropOp32
 70
     1
102
RTVSPost2010Prop33
280
     0
102
RTVSPost2010PropOp33
 70
     1
102
RTVSPost2010Prop34
280
     0
102
RTVSPost2010PropOp34
 70
     1
102
RTVSPost2010Prop35
280
     0
102
RTVSPost2010PropOp35
 70
     1
102
RTVSPost2010Prop36
280
     0
102
RTVSPost2010PropOp36
 70
     1
102
RTVSPost2010Prop37
 90
       50
102
RTVSPost2010PropOp37
 70
     1
102
RTVSPost2010Prop38
140
0.0
102
RTVSPost2010PropOp38
 70
     1
102
RTVSPost2010Prop39
140
1.0
102
RTVSPost2010PropOp39
 70
     1
102
RTVSPost2010Prop40
 90
        0
102
RTVSPost2010PropOp40
 70
     1
102
RTVSPost2010Prop41ColorIndex
 90
       18
102
RTVSPost2010Prop41ColorRGB
 90
        0
102
RTVSPost2010PropOp41
 70
     1
102
RTVSPost2010Prop42
 90
       50
102
RTVSPost2010PropOp42
 70
     1
102
RTVSPost2010Prop43
 90
        3
102
RTVSPost2010PropOp43
 70
     1
102
RTVSPost2010Prop44ColorIndex
 90
        5
102
RTVSPost2010Prop44ColorRGB
 90
      255
102
RTVSPost2010PropOp44
 70
     1
102
RTVSPost2010Prop45
280
     0
102
RTVSPost2010PropOp45
 70
     1
102
RTVSPost2010Prop46
 90
       50
102
RTVSPost2010PropOp46
 70
     1
102
RTVSPost2010Prop47
 90
       50
102
RTVSPost2010PropOp47
 70
     1
102
RTVSPost2010Prop48
 90
       50
102
RTVSPost2010PropOp48
 70
     1
102
RTVSPost2010Prop49
280
     0
102
RTVSPost2010PropOp49
 70
     1
102
RTVSPost2010Prop50
 90
       50
102
RTVSPost2010PropOp50
 70
     1
102
RTVSPost2010Prop51ColorIndex
 90
      256
102
RTVSPost2010Prop51ColorRGB
 90
-16777216
102
RTVSPost2010PropOp51
 70
     0
102
RTVSPost2010Prop52
140
1.0
102
RTVSPost2010PropOp52
 70
     0
102
RTVSPost2010Prop53
 90
        2
102
RTVSPost2010PropOp53
 70
     1
102
RTVSPost2010Prop54
  1
strokes_ogs.tif
102
RTVSPost2010PropOp54
 70
     1
102
RTVSPost2010Prop55
280
     0
102
RTVSPost2010PropOp55
 70
     1
102
RTVSPost2010Prop56
140
1.0
102
RTVSPost2010PropOp56
 70
     1
102
RTVSPost2010Prop57
140
1.0
102
RTVSPost2010PropOp57
 70
     1
102
RTVSPropertyOp0
 70
     1
102
RTVSPropertyOp1
 70
     1
102
RTVSPropertyOp2
 70
     1
102
RTVSPropertyOp3
 70
     1
102
RTVSPropertyOp4
 70
     1
102
RTVSPropertyOp5
 70
     1
102
RTVSPropertyOp6
 70
     1
102
RTVSPropertyOp7
 70
     1
102
RTVSPropertyOp8
 70
     1
102
RTVSPropertyOp9
 70
     1
102
RTVSPropertyOp10
 70
     1
102
RTVSPropertyOp11
 70
     1
102
RTVSPropertyOp12
 70
     1
102
RTVSPropertyOp13
 70
     1
102
RTVSPropertyOp14
 70
     1
102
RTVSPropertyOp15
 70
     1
102
RTVSPropertyOp16
 70
     1
102
RTVSPropertyOp17
 70
     1
102
RTVSPropertyOp18
 70
     1
102
RTVSPropertyOp19
 70
     1
102
RTVSPropertyOp20
 70
     1
102
RTVSPropertyOp21
 70
     1
102
RTVSPropertyOp22
 70
     1
102
RTVSPropertyOp23
 70
     1
102
RTVSPropertyOp24
 70
     1
102
RTVSPropertyOp25
 70
     1
102
RTVSPropertyOp26
 70
     1
102
RTVSPropertyOp27
 70
     1
102
RTVSPropertyOp28
 70
     1
102
RTVSPropertyOp29
 70
     1
102
RTVSPropertyOp30
 70
     1
102
RTVSPropertyOp31
 70
     1
102
RTVSPropertyOp32
 70
     1
102
RTVSPropertyOp33
 70
     1
102
RTVSPropertyOp34
 70
     1
102
RTVSPropertyOp35
 70
     1
102
RTVSPropertyOp36
 70
     1
102
RTVSPropertyOp37
 70
     1
102
RTVSPropertyOp38
 70
     1
102
RTVSPropertyOp39
 70
     1
102
RTVSPropertyOp40
 70
     1
102
RTVSPropertyOp41
 70
     1
102
RTVSPropertyOp42
 70
     1
102
RTVSPropertyOp43
 70
     1
102
RTVSPropertyOp44
 70
     1
102
RTVSPropertyOp45
 70
     1
102
RTVSPropertyOp46
 70
     1
102
RTVSPropertyOp47
 70
     1
102
RTVSPropertyOp48
 70
     1
102
RTVSPropertyOp49
 70
     1
102
RTVSPropertyOp50
 70
     1
102
RTVSPropertyOp51
 70
     0
102
RTVSPropertyOp52
 70
     0
102
RTVSPropertyOp53
 70
     1
102
RTVSPropertyOp54
 70
     1
102
RTVSPropertyOp55
 70
     1
102
RTVSPropertyOp56
 70
     1
102
RTVSPropertyOp57
 70
     1
102
RTVSPropertyOp58
 70
     1
102
RTVSPropertyOp59
 70
     1
102
RTVSPropertyOp60
 70
     1
102
RTVSPropertyOp61
 70
     1
102
RTVSPropertyOp62
 70
     1
  0
ENDSEC
  0
EOF
