  0
SECTION
  2
HEADER
  9
$ACADVER
  1
AC1015
  9
$ACADMAINTVER
 70
    20
  9
$DWGCODEPAGE
  3
ANSI_932
  9
$INSBASE
 10
0.0
 20
0.0
 30
0.0
  9
$EXTMIN
 10
10.0
 20
9.999999999999998
 30
0.0
  9
$EXTMAX
 10
480.2999999999998
 20
346.0
 30
0.0
  9
$LIMMIN
 10
0.0
 20
0.0
  9
$LIMMAX
 10
594.0
 20
409.4999999999997
  9
$ORTHOMODE
 70
     1
  9
$REGENMODE
 70
     1
  9
$FILLMODE
 70
     1
  9
$QTEXTMODE
 70
     0
  9
$MIRRTEXT
 70
     1
  9
$LTSCALE
 40
20.0
  9
$ATTMODE
 70
     1
  9
$TEXTSIZE
 40
5.0
  9
$TRACEWID
 40
1.0
  9
$TEXTSTYLE
  7
STANDARD
  9
$CLAYER
  8
0
  9
$CELTYPE
  6
BYLAYER
  9
$CECOLOR
 62
   256
  9
$CELTSCALE
 40
1.0
  9
$DISPSILH
 70
     0
  9
$DIMSCALE
 40
1.0
  9
$DIMASZ
 40
3.0
  9
$DIMEXO
 40
1.0
  9
$DIMDLI
 40
10.0
  9
$DIMRND
 40
0.0
  9
$DIMDLE
 40
0.0
  9
$DIMEXE
 40
1.0
  9
$DIMTP
 40
0.0
  9
$DIMTM
 40
0.0
  9
$DIMTXT
 40
3.2
  9
$DIMCEN
 40
0.0
  9
$DIMTSZ
 40
0.0
  9
$DIMTOL
 70
     0
  9
$DIMLIM
 70
     0
  9
$DIMTIH
 70
     0
  9
$DIMTOH
 70
     0
  9
$DIMSE1
 70
     0
  9
$DIMSE2
 70
     0
  9
$DIMTAD
 70
     3
  9
$DIMZIN
 70
     8
  9
$DIMBLK
  1

  9
$DIMASO
 70
     1
  9
$DIMSHO
 70
     1
  9
$DIMPOST
  1

  9
$DIMAPOST
  1

  9
$DIMALT
 70
     0
  9
$DIMALTD
 70
     2
  9
$DIMALTF
 40
25.4
  9
$DIMLFAC
 40
1.0
  9
$DIMTOFL
 70
     1
  9
$DIMTVP
 40
0.0
  9
$DIMTIX
 70
     0
  9
$DIMSOXD
 70
     0
  9
$DIMSAH
 70
     1
  9
$DIMBLK1
  1

  9
$DIMBLK2
  1

  9
$DIMSTYLE
  2
STANDARD
  9
$DIMCLRD
 70
     0
  9
$DIMCLRE
 70
     0
  9
$DIMCLRT
 70
     0
  9
$DIMTFAC
 40
1.0
  9
$DIMGAP
 40
1.0
  9
$DIMJUST
 70
     0
  9
$DIMSD1
 70
     0
  9
$DIMSD2
 70
     0
  9
$DIMTOLJ
 70
     1
  9
$DIMTZIN
 70
     0
  9
$DIMALTZ
 70
     0
  9
$DIMALTTZ
 70
     0
  9
$DIMUPT
 70
     0
  9
$DIMDEC
 70
     4
  9
$DIMTDEC
 70
     4
  9
$DIMALTU
 70
     2
  9
$DIMALTTD
 70
     2
  9
$DIMTXSTY
  7
STANDARD
  9
$DIMAUNIT
 70
     0
  9
$DIMADEC
 70
     0
  9
$DIMALTRND
 40
0.0
  9
$DIMAZIN
 70
     0
  9
$DIMDSEP
 70
    46
  9
$DIMATFIT
 70
     3
  9
$DIMFRAC
 70
     0
  9
$DIMLDRBLK
  1

  9
$DIMLUNIT
 70
     2
  9
$DIMLWD
 70
    -2
  9
$DIMLWE
 70
    -2
  9
$DIMTMOVE
 70
     0
  9
$LUNITS
 70
     2
  9
$LUPREC
 70
     4
  9
$SKETCHINC
 40
1.0
  9
$FILLETRAD
 40
0.0
  9
$AUNITS
 70
     0
  9
$AUPREC
 70
     2
  9
$MENU
  1
.
  9
$ELEVATION
 40
0.0
  9
$PELEVATION
 40
0.0
  9
$THICKNESS
 40
0.0
  9
$LIMCHECK
 70
     0
  9
$CHAMFERA
 40
10.0
  9
$CHAMFERB
 40
10.0
  9
$CHAMFERC
 40
0.0
  9
$CHAMFERD
 40
0.0
  9
$SKPOLY
 70
     0
  9
$TDCREATE
 40
2451233.434540741
  9
$TDUCREATE
 40
2451233.059540741
  9
$TDUPDATE
 40
2457192.662008067
  9
$TDUUPDATE
 40
2457192.287008067
  9
$TDINDWG
 40
0.0000117245
  9
$TDUSRTIMER
 40
0.0000114236
  9
$USRTIMER
 70
     1
  9
$ANGBASE
 50
0.0
  9
$ANGDIR
 70
     0
  9
$PDMODE
 70
     0
  9
$PDSIZE
 40
0.0
  9
$PLINEWID
 40
0.0
  9
$SPLFRAME
 70
     0
  9
$SPLINETYPE
 70
     6
  9
$SPLINESEGS
 70
     8
  9
$HANDSEED
  5
B529
  9
$SURFTAB1
 70
     6
  9
$SURFTAB2
 70
     6
  9
$SURFTYPE
 70
     6
  9
$SURFU
 70
     6
  9
$SURFV
 70
     6
  9
$UCSBASE
  2

  9
$UCSNAME
  2

  9
$UCSORG
 10
0.0
 20
0.0
 30
0.0
  9
$UCSXDIR
 10
1.0
 20
0.0
 30
0.0
  9
$UCSYDIR
 10
0.0
 20
1.0
 30
0.0
  9
$UCSORTHOREF
  2

  9
$UCSORTHOVIEW
 70
     0
  9
$UCSORGTOP
 10
0.0
 20
0.0
 30
0.0
  9
$UCSORGBOTTOM
 10
0.0
 20
0.0
 30
0.0
  9
$UCSORGLEFT
 10
0.0
 20
0.0
 30
0.0
  9
$UCSORGRIGHT
 10
0.0
 20
0.0
 30
0.0
  9
$UCSORGFRONT
 10
0.0
 20
0.0
 30
0.0
  9
$UCSORGBACK
 10
0.0
 20
0.0
 30
0.0
  9
$PUCSBASE
  2

  9
$PUCSNAME
  2

  9
$PUCSORG
 10
0.0
 20
0.0
 30
0.0
  9
$PUCSXDIR
 10
1.0
 20
0.0
 30
0.0
  9
$PUCSYDIR
 10
0.0
 20
1.0
 30
0.0
  9
$PUCSORTHOREF
  2

  9
$PUCSORTHOVIEW
 70
     0
  9
$PUCSORGTOP
 10
0.0
 20
0.0
 30
0.0
  9
$PUCSORGBOTTOM
 10
0.0
 20
0.0
 30
0.0
  9
$PUCSORGLEFT
 10
0.0
 20
0.0
 30
0.0
  9
$PUCSORGRIGHT
 10
0.0
 20
0.0
 30
0.0
  9
$PUCSORGFRONT
 10
0.0
 20
0.0
 30
0.0
  9
$PUCSORGBACK
 10
0.0
 20
0.0
 30
0.0
  9
$USERI1
 70
     0
  9
$USERI2
 70
     0
  9
$USERI3
 70
     0
  9
$USERI4
 70
     0
  9
$USERI5
 70
     0
  9
$USERR1
 40
0.0
  9
$USERR2
 40
0.0
  9
$USERR3
 40
0.0
  9
$USERR4
 40
0.0
  9
$USERR5
 40
0.0
  9
$WORLDVIEW
 70
     1
  9
$SHADEDGE
 70
     3
  9
$SHADEDIF
 70
    70
  9
$TILEMODE
 70
     1
  9
$MAXACTVP
 70
    16
  9
$PINSBASE
 10
0.0
 20
0.0
 30
0.0
  9
$PLIMCHECK
 70
     0
  9
$PEXTMIN
 10
1.000000000000000E+20
 20
1.000000000000000E+20
 30
1.000000000000000E+20
  9
$PEXTMAX
 10
-1.000000000000000E+20
 20
-1.000000000000000E+20
 30
-1.000000000000000E+20
  9
$PLIMMIN
 10
0.0
 20
0.0
  9
$PLIMMAX
 10
420.0
 20
297.0
  9
$UNITMODE
 70
     0
  9
$VISRETAIN
 70
     0
  9
$PLINEGEN
 70
     0
  9
$PSLTSCALE
 70
     0
  9
$TREEDEPTH
 70
  3020
  9
$CMLSTYLE
  2
STANDARD
  9
$CMLJUST
 70
     0
  9
$CMLSCALE
 40
1.0
  9
$PROXYGRAPHICS
 70
     1
  9
$MEASUREMENT
 70
     0
  9
$CELWEIGHT
370
    -1
  9
$ENDCAPS
280
     0
  9
$JOINSTYLE
280
     0
  9
$LWDISPLAY
290
     0
  9
$INSUNITS
 70
     0
  9
$HYPERLINKBASE
  1

  9
$STYLESHEET
  1

  9
$XEDIT
290
     1
  9
$CEPSNTYPE
380
     0
  9
$PSTYLEMODE
290
     1
  9
$FINGERPRINTGUID
  2
{77E67339-06DD-42E7-A637-B19C6962F897}
  9
$VERSIONGUID
  2
{754F59DC-9F71-40A2-9F8A-8E3C519C2ED0}
  9
$EXTNAMES
290
     1
  9
$PSVPSCALE
 40
0.0
  9
$OLESTARTUP
290
     0
  0
ENDSEC
  0
SECTION
  2
CLASSES
  0
CLASS
  1
ACDBDICTIONARYWDFLT
  2
AcDbDictionaryWithDefault
  3
ObjectDBX Classes
 90
        0
280
     0
281
     0
  0
CLASS
  1
ACDBPLACEHOLDER
  2
AcDbPlaceHolder
  3
ObjectDBX Classes
 90
        0
280
     0
281
     0
  0
CLASS
  1
LAYOUT
  2
AcDbLayout
  3
ObjectDBX Classes
 90
        0
280
     0
281
     0
  0
CLASS
  1
DICTIONARYVAR
  2
AcDbDictionaryVar
  3
ObjectDBX Classes
 90
        0
280
     0
281
     0
  0
CLASS
  1
MATERIAL
  2
AcDbMaterial
  3
ObjectDBX Classes
 90
     1153
280
     0
281
     0
  0
CLASS
  1
VISUALSTYLE
  2
AcDbVisualStyle
  3
ObjectDBX Classes
 90
     4095
280
     0
281
     0
  0
CLASS
  1
TABLESTYLE
  2
AcDbTableStyle
  3
ObjectDBX Classes
 90
     4095
280
     0
281
     0
  0
CLASS
  1
SCALE
  2
AcDbScale
  3
ObjectDBX Classes
 90
     1153
280
     0
281
     0
  0
CLASS
  1
MLEADERSTYLE
  2
AcDbMLeaderStyle
  3
ACDB_MLEADERSTYLE_CLASS
 90
     4095
280
     0
281
     0
  0
CLASS
  1
ACDBSECTIONVIEWSTYLE
  2
AcDbSectionViewStyle
  3
ObjectDBX Classes
 90
     1025
280
     0
281
     0
  0
CLASS
  1
ACDBDETAILVIEWSTYLE
  2
AcDbDetailViewStyle
  3
ObjectDBX Classes
 90
     1025
280
     0
281
     0
  0
CLASS
  1
CELLSTYLEMAP
  2
AcDbCellStyleMap
  3
ObjectDBX Classes
 90
     1152
280
     0
281
     0
  0
ENDSEC
  0
SECTION
  2
TABLES
  0
TABLE
  2
VPORT
  5
B269
330
0
100
AcDbSymbolTable
 70
     1
  0
VPORT
  5
B472
330
B269
100
AcDbSymbolTableRecord
100
AcDbViewportTableRecord
  2
*ACTIVE
 70
     0
 10
0.0
 20
0.0
 11
1.0
 21
1.0
 12
346.9368612380768
 22
178.0065316840268
 13
0.0
 23
0.0
 14
10.0
 24
10.0
 15
10.0
 25
10.0
 16
0.0
 26
0.0
 36
1.0
 17
0.0
 27
0.0
 37
0.0
 40
339.8013827258832
 41
1.899603698811096
 42
50.0
 43
0.0
 44
0.0
 50
0.0
 51
0.0
 71
     0
 72
   100
 73
     1
 74
     0
 75
     0
 76
     0
 77
     0
 78
     0
281
     0
 65
     1
110
0.0
120
0.0
130
0.0
111
1.0
121
0.0
131
0.0
112
0.0
122
1.0
132
0.0
 79
     0
146
0.0
1001
ACAD_NAV_VCDISPLAY
1070
     3
  0
ENDTAB
  0
TABLE
  2
LTYPE
  5
B266
330
0
100
AcDbSymbolTable
 70
     4
  0
LTYPE
  5
B274
330
B266
100
AcDbSymbolTableRecord
100
AcDbLinetypeTableRecord
  2
BYBLOCK
 70
     0
  3

 72
    65
 73
     0
 40
0.0
  0
LTYPE
  5
B275
330
B266
100
AcDbSymbolTableRecord
100
AcDbLinetypeTableRecord
  2
BYLAYER
 70
     0
  3

 72
    65
 73
     0
 40
0.0
  0
LTYPE
  5
B276
330
B266
100
AcDbSymbolTableRecord
100
AcDbLinetypeTableRecord
  2
CONTINUOUS
 70
     0
  3
Solid line
 72
    65
 73
     0
 40
0.0
  0
LTYPE
  5
B284
330
B266
100
AcDbSymbolTableRecord
100
AcDbLinetypeTableRecord
  2
DASHED
 70
     0
  3
__ __ __ __ __ __ __ __ __ __ __ __ __ __ __ __
 72
    65
 73
     2
 40
0.75
 49
0.5
 74
     0
 49
-0.25
 74
     0
  0
LTYPE
  5
B285
330
B266
100
AcDbSymbolTableRecord
100
AcDbLinetypeTableRecord
  2
CENTER
 70
     0
  3
____ _ ____ _ ____ _ ____ _ ____ _ ____ _ ____ 
 72
    65
 73
     4
 40
2.0
 49
1.25
 74
     0
 49
-0.25
 74
     0
 49
0.25
 74
     0
 49
-0.25
 74
     0
  0
LTYPE
  5
B286
330
B266
100
AcDbSymbolTableRecord
100
AcDbLinetypeTableRecord
  2
PHANTOM
 70
     0
  3
______  __  __  ______  __  __  ______  __  __ 
 72
    65
 73
     6
 40
2.5
 49
1.25
 74
     0
 49
-0.25
 74
     0
 49
0.25
 74
     0
 49
-0.25
 74
     0
 49
0.25
 74
     0
 49
-0.25
 74
     0
  0
ENDTAB
  0
TABLE
  2
LAYER
  5
B263
330
0
100
AcDbSymbolTable
 70
     8
  0
LAYER
  5
B271
102
{ACAD_XDICTIONARY
360
B4CD
102
}
330
B263
100
AcDbSymbolTableRecord
100
AcDbLayerTableRecord
  2
0
 70
     0
 62
     7
  6
CONTINUOUS
370
    -3
390
B47B
  0
LAYER
  5
B287
102
{ACAD_XDICTIONARY
360
B4CF
102
}
330
B263
100
AcDbSymbolTableRecord
100
AcDbLayerTableRecord
  2
4
 70
     0
 62
     1
  6
CENTER
370
    -3
390
B47B
  0
LAYER
  5
B288
102
{ACAD_XDICTIONARY
360
B4D1
102
}
330
B263
100
AcDbSymbolTableRecord
100
AcDbLayerTableRecord
  2
5
 70
     0
 62
     6
  6
PHANTOM
370
    -3
390
B47B
  0
LAYER
  5
B289
102
{ACAD_XDICTIONARY
360
B4D3
102
}
330
B263
100
AcDbSymbolTableRecord
100
AcDbLayerTableRecord
  2
1
 70
     0
 62
     7
  6
CONTINUOUS
370
    -3
390
B47B
  0
LAYER
  5
B28A
102
{ACAD_XDICTIONARY
360
B4D5
102
}
330
B263
100
AcDbSymbolTableRecord
100
AcDbLayerTableRecord
  2
2
 70
     0
 62
     4
  6
CONTINUOUS
370
    -3
390
B47B
  0
LAYER
  5
B28B
102
{ACAD_XDICTIONARY
360
B4D7
102
}
330
B263
100
AcDbSymbolTableRecord
100
AcDbLayerTableRecord
  2
3
 70
     0
 62
     2
  6
DASHED
370
    -3
390
B47B
  0
LAYER
  5
B28C
102
{ACAD_XDICTIONARY
360
B4D9
102
}
330
B263
100
AcDbSymbolTableRecord
100
AcDbLayerTableRecord
  2
6
 70
     0
 62
     5
  6
CONTINUOUS
370
    -3
390
B47B
  0
LAYER
  5
B28D
102
{ACAD_XDICTIONARY
360
B4DB
102
}
330
B263
100
AcDbSymbolTableRecord
100
AcDbLayerTableRecord
  2
7
 70
     0
 62
     3
  6
CONTINUOUS
370
    -3
390
B47B
  0
ENDTAB
  0
TABLE
  2
STYLE
  5
B264
330
0
100
AcDbSymbolTable
 70
     1
  0
STYLE
  5
B272
330
B264
100
AcDbSymbolTableRecord
100
AcDbTextStyleTableRecord
  2
STANDARD
 70
     0
 40
0.0
 41
1.0
 50
0.0
 71
     0
 42
5.0
  3
txt
  4

  0
ENDTAB
  0
TABLE
  2
VIEW
  5
B267
330
0
100
AcDbSymbolTable
 70
     0
  0
ENDTAB
  0
TABLE
  2
UCS
  5
B268
330
0
100
AcDbSymbolTable
 70
     0
  0
ENDTAB
  0
TABLE
  2
APPID
  5
B26A
330
0
100
AcDbSymbolTable
 70
     3
  0
APPID
  5
B273
330
B26A
100
AcDbSymbolTableRecord
100
AcDbRegAppTableRecord
  2
ACAD
 70
     0
  0
APPID
  5
B4E7
330
B26A
100
AcDbSymbolTableRecord
100
AcDbRegAppTableRecord
  2
ACAD_NAV_VCDISPLAY
 70
     0
  0
APPID
  5
B520
330
B26A
100
AcDbSymbolTableRecord
100
AcDbRegAppTableRecord
  2
ACAD_MLEADERVER
 70
     0
  0
ENDTAB
  0
TABLE
  2
DIMSTYLE
  5
B26B
330
0
100
AcDbSymbolTable
 70
     1
100
AcDbDimStyleTable
 71
     0
  0
DIMSTYLE
105
B28F
330
B26B
100
AcDbSymbolTableRecord
100
AcDbDimStyleTableRecord
  2
STANDARD
 70
     0
 41
3.0
 42
1.0
 43
10.0
 44
1.0
 73
     0
 74
     0
 77
     3
 78
     8
140
3.2
141
0.0
147
1.0
172
     1
173
     1
284
     8
285
     8
286
     8
340
B272
  0
ENDTAB
  0
TABLE
  2
BLOCK_RECORD
  5
B262
330
0
100
AcDbSymbolTable
 70
     0
  0
BLOCK_RECORD
  5
B27F
102
{ACAD_XDICTIONARY
360
B475
102
}
330
B262
100
AcDbSymbolTableRecord
100
AcDbBlockTableRecord
  2
*MODEL_SPACE
340
B4C9
  0
BLOCK_RECORD
  5
B27B
102
{ACAD_XDICTIONARY
360
B473
102
}
330
B262
100
AcDbSymbolTableRecord
100
AcDbBlockTableRecord
  2
*PAPER_SPACE
340
B4CA
  0
ENDTAB
  0
ENDSEC
  0
SECTION
  2
BLOCKS
  0
BLOCK
  5
B280
330
B27F
100
AcDbEntity
  8
0
100
AcDbBlockBegin
  2
*MODEL_SPACE
 70
     0
 10
0.0
 20
0.0
 30
0.0
  3
*MODEL_SPACE
  1

  0
ENDBLK
  5
B281
330
B27F
100
AcDbEntity
  8
0
100
AcDbBlockEnd
  0
BLOCK
  5
B27C
330
B27B
100
AcDbEntity
 67
     1
  8
0
100
AcDbBlockBegin
  2
*PAPER_SPACE
 70
     0
 10
0.0
 20
0.0
 30
0.0
  3
*PAPER_SPACE
  1

  0
ENDBLK
  5
B27D
330
B27B
100
AcDbEntity
 67
     1
  8
0
100
AcDbBlockEnd
  0
ENDSEC
  0
SECTION
  2
ENTITIES
  0
TEXT
  5
B297
330
B27F
100
AcDbEntity
  8
7
  6
Continuous
100
AcDbText
 10
10.0
 20
18.0
 30
0.0
 40
3.0
  1
TYPE No.TM-233-1
100
AcDbText
  0
TEXT
  5
B298
330
B27F
100
AcDbEntity
  8
7
  6
Continuous
100
AcDbText
 10
10.0
 20
26.0
 30
0.0
 40
3.0
  1
CODE No.6032
100
AcDbText
  0
TEXT
  5
B299
330
B27F
100
AcDbEntity
  8
1
  6
Continuous
100
AcDbText
 10
10.0
 20
10.0
 30
0.0
 40
1.399999999999999
  1
LAYER
100
AcDbText
  0
TEXT
  5
B29A
330
B27F
100
AcDbEntity
  8
1
  6
Continuous
100
AcDbText
 10
17.97951099999998
 20
10.04873699999998
 30
0.0
 40
1.399999999999999
  1
1
100
AcDbText
  0
TEXT
  5
B29B
330
B27F
100
AcDbEntity
  8
7
  6
Continuous
100
AcDbText
 10
29.97951099999999
 20
10.04873699999998
 30
0.0
 40
1.399999999999999
  1
7
100
AcDbText
  0
TEXT
  5
B29C
330
B27F
100
AcDbEntity
  8
4
  6
CENTER
100
AcDbText
 10
23.97951099999999
 20
10.04873699999998
 30
0.0
 40
1.399999999999999
  1
4
100
AcDbText
  0
TEXT
  5
B29D
330
B27F
100
AcDbEntity
  8
3
  6
DASHED
100
AcDbText
 10
21.979511
 20
10.04873699999998
 30
0.0
 40
1.399999999999999
  1
3
100
AcDbText
  0
TEXT
  5
B29E
330
B27F
100
AcDbEntity
  8
2
  6
Continuous
100
AcDbText
 10
19.97951099999999
 20
10.04873699999998
 30
0.0
 40
1.399999999999999
  1
2
100
AcDbText
  0
TEXT
  5
B29F
330
B27F
100
AcDbEntity
  8
6
  6
Continuous
100
AcDbText
 10
27.979511
 20
10.04873699999998
 30
0.0
 40
1.399999999999999
  1
6
100
AcDbText
  0
TEXT
  5
B2A0
330
B27F
100
AcDbEntity
  8
5
  6
PHANTOM
100
AcDbText
 10
25.97951099999999
 20
10.04873699999998
 30
0.0
 40
1.399999999999999
  1
5
100
AcDbText
  0
LINE
  5
B2A1
330
B27F
100
AcDbEntity
  8
4
  6
CENTER
100
AcDbLine
 10
382.3
 20
145.1589569999999
 30
0.0
 11
382.3
 21
138.7474469999999
 31
0.0
  0
LINE
  5
B2A2
330
B27F
100
AcDbEntity
  8
4
  6
CENTER
100
AcDbLine
 10
337.3
 20
145.429866
 30
0.0
 11
337.3
 21
139.1086579999999
 31
0.0
  0
LINE
  5
B2A3
330
B27F
100
AcDbEntity
  8
4
  6
CENTER
100
AcDbLine
 10
118.3
 20
144.978351
 30
0.0
 11
118.3
 21
138.83775
 31
0.0
  0
LINE
  5
B2A4
330
B27F
100
AcDbEntity
  8
4
  6
CENTER
100
AcDbLine
 10
203.3
 20
144.978351
 30
0.0
 11
203.3
 21
139.018355
 31
0.0
  0
LINE
  5
B2A5
330
B27F
100
AcDbEntity
  8
4
  6
CENTER
100
AcDbLine
 10
248.3
 20
144.8880479999999
 30
0.0
 11
248.3
 21
139.289264
 31
0.0
  0
LINE
  5
B2A6
330
B27F
100
AcDbEntity
  8
4
  6
CENTER
100
AcDbLine
 10
252.3
 20
144.8880479999999
 30
0.0
 11
252.3
 21
139.018355
 31
0.0
  0
LINE
  5
B2A7
330
B27F
100
AcDbEntity
  8
1
  6
Continuous
100
AcDbLine
 10
228.8
 20
148.6794999999998
 30
0.0
 11
228.8
 21
149.1794999999999
 31
0.0
  0
LINE
  5
B2A8
330
B27F
100
AcDbEntity
  8
1
  6
Continuous
100
AcDbLine
 10
220.8
 20
148.6794999999998
 30
0.0
 11
228.8
 21
148.6794999999998
 31
0.0
  0
LINE
  5
B2A9
330
B27F
100
AcDbEntity
  8
1
  6
Continuous
100
AcDbLine
 10
220.8
 20
149.1794999999999
 30
0.0
 11
228.8
 21
149.1794999999999
 31
0.0
  0
LINE
  5
B2AA
330
B27F
100
AcDbEntity
  8
1
  6
Continuous
100
AcDbLine
 10
228.8
 20
135.3205
 30
0.0
 11
228.8
 21
134.8205
 31
0.0
  0
LINE
  5
B2AB
330
B27F
100
AcDbEntity
  8
1
  6
Continuous
100
AcDbLine
 10
220.8
 20
135.3205
 30
0.0
 11
228.8
 21
135.3205
 31
0.0
  0
LINE
  5
B2AC
330
B27F
100
AcDbEntity
  8
1
  6
Continuous
100
AcDbLine
 10
220.8
 20
134.8205
 30
0.0
 11
228.8
 21
134.8205
 31
0.0
  0
LINE
  5
B2AD
330
B27F
100
AcDbEntity
  8
1
  6
Continuous
100
AcDbLine
 10
220.8
 20
149.1794999999999
 30
0.0
 11
220.8
 21
148.15
 31
0.0
  0
ARC
  5
B2AE
330
B27F
100
AcDbEntity
  8
1
  6
Continuous
100
AcDbCircle
 10
229.8
 20
148.6794999999998
 30
0.0
 40
1.0
100
AcDbArc
 50
180.0
 51
211.9716779999999
  0
ARC
  5
B2AF
330
B27F
100
AcDbEntity
  8
1
  6
Continuous
100
AcDbCircle
 10
239.8
 20
148.6794999999998
 30
0.0
 40
1.0
100
AcDbArc
 50
180.0
 51
211.9716779999999
  0
LINE
  5
B2B0
330
B27F
100
AcDbEntity
  8
1
  6
Continuous
100
AcDbLine
 10
238.8
 20
148.6794999999998
 30
0.0
 11
238.8
 21
149.1794999999999
 31
0.0
  0
LINE
  5
B2B1
330
B27F
100
AcDbEntity
  8
1
  6
Continuous
100
AcDbLine
 10
230.8
 20
148.6794999999998
 30
0.0
 11
238.8
 21
148.6794999999998
 31
0.0
  0
LINE
  5
B2B2
330
B27F
100
AcDbEntity
  8
1
  6
Continuous
100
AcDbLine
 10
230.8
 20
149.1794999999999
 30
0.0
 11
238.8
 21
149.1794999999999
 31
0.0
  0
LINE
  5
B2B3
330
B27F
100
AcDbEntity
  8
1
  6
Continuous
100
AcDbLine
 10
238.8
 20
135.3205
 30
0.0
 11
238.8
 21
134.8205
 31
0.0
  0
LINE
  5
B2B4
330
B27F
100
AcDbEntity
  8
1
  6
Continuous
100
AcDbLine
 10
230.8
 20
135.3205
 30
0.0
 11
238.8
 21
135.3205
 31
0.0
  0
LINE
  5
B2B5
330
B27F
100
AcDbEntity
  8
1
  6
Continuous
100
AcDbLine
 10
230.8
 20
134.8205
 30
0.0
 11
238.8
 21
134.8205
 31
0.0
  0
LINE
  5
B2B6
330
B27F
100
AcDbEntity
  8
1
  6
Continuous
100
AcDbLine
 10
230.8
 20
149.1794999999999
 30
0.0
 11
230.8
 21
148.6794999999998
 31
0.0
  0
LINE
  5
B2B7
330
B27F
100
AcDbEntity
  8
1
  6
Continuous
100
AcDbLine
 10
230.8
 20
134.8205
 30
0.0
 11
230.8
 21
135.3205
 31
0.0
  0
ARC
  5
B2B8
330
B27F
100
AcDbEntity
  8
1
  6
Continuous
100
AcDbCircle
 10
229.8
 20
135.3205
 30
0.0
 40
1.0
100
AcDbArc
 50
0.0
 51
31.97167800000001
  0
ARC
  5
B2B9
330
B27F
100
AcDbEntity
  8
1
  6
Continuous
100
AcDbCircle
 10
249.8
 20
148.6794999999998
 30
0.0
 40
1.0
100
AcDbArc
 50
180.0
 51
211.9716779999999
  0
LINE
  5
B2BA
330
B27F
100
AcDbEntity
  8
1
  6
Continuous
100
AcDbLine
 10
248.7999999999999
 20
148.6794999999998
 30
0.0
 11
248.7999999999999
 21
149.1794999999999
 31
0.0
  0
LINE
  5
B2BB
330
B27F
100
AcDbEntity
  8
1
  6
Continuous
100
AcDbLine
 10
240.8
 20
148.6794999999998
 30
0.0
 11
248.7999999999999
 21
148.6794999999998
 31
0.0
  0
LINE
  5
B2BC
330
B27F
100
AcDbEntity
  8
1
  6
Continuous
100
AcDbLine
 10
240.8
 20
149.1794999999999
 30
0.0
 11
248.7999999999999
 21
149.1794999999999
 31
0.0
  0
LINE
  5
B2BD
330
B27F
100
AcDbEntity
  8
1
  6
Continuous
100
AcDbLine
 10
248.7999999999999
 20
135.3205
 30
0.0
 11
248.7999999999999
 21
134.8205
 31
0.0
  0
LINE
  5
B2BE
330
B27F
100
AcDbEntity
  8
1
  6
Continuous
100
AcDbLine
 10
240.8
 20
135.3205
 30
0.0
 11
248.7999999999999
 21
135.3205
 31
0.0
  0
LINE
  5
B2BF
330
B27F
100
AcDbEntity
  8
1
  6
Continuous
100
AcDbLine
 10
240.8
 20
134.8205
 30
0.0
 11
248.7999999999999
 21
134.8205
 31
0.0
  0
LINE
  5
B2C0
330
B27F
100
AcDbEntity
  8
1
  6
Continuous
100
AcDbLine
 10
240.8
 20
149.1794999999999
 30
0.0
 11
240.8
 21
148.6794999999998
 31
0.0
  0
LINE
  5
B2C1
330
B27F
100
AcDbEntity
  8
1
  6
Continuous
100
AcDbLine
 10
240.8
 20
134.8205
 30
0.0
 11
240.8
 21
135.3205
 31
0.0
  0
ARC
  5
B2C2
330
B27F
100
AcDbEntity
  8
1
  6
Continuous
100
AcDbCircle
 10
239.8
 20
135.3205
 30
0.0
 40
1.0
100
AcDbArc
 50
0.0
 51
31.97167800000001
  0
ARC
  5
B2C3
330
B27F
100
AcDbEntity
  8
1
  6
Continuous
100
AcDbCircle
 10
259.8
 20
148.6794999999998
 30
0.0
 40
1.0
100
AcDbArc
 50
180.0
 51
211.9716779999999
  0
LINE
  5
B2C4
330
B27F
100
AcDbEntity
  8
1
  6
Continuous
100
AcDbLine
 10
258.8
 20
148.6794999999998
 30
0.0
 11
258.8
 21
149.1794999999999
 31
0.0
  0
LINE
  5
B2C5
330
B27F
100
AcDbEntity
  8
1
  6
Continuous
100
AcDbLine
 10
250.8
 20
148.6794999999998
 30
0.0
 11
258.8
 21
148.6794999999998
 31
0.0
  0
LINE
  5
B2C6
330
B27F
100
AcDbEntity
  8
1
  6
Continuous
100
AcDbLine
 10
250.8
 20
149.1794999999999
 30
0.0
 11
258.8
 21
149.1794999999999
 31
0.0
  0
LINE
  5
B2C7
330
B27F
100
AcDbEntity
  8
1
  6
Continuous
100
AcDbLine
 10
258.8
 20
135.3205
 30
0.0
 11
258.8
 21
134.8205
 31
0.0
  0
LINE
  5
B2C8
330
B27F
100
AcDbEntity
  8
1
  6
Continuous
100
AcDbLine
 10
250.8
 20
135.3205
 30
0.0
 11
258.8
 21
135.3205
 31
0.0
  0
LINE
  5
B2C9
330
B27F
100
AcDbEntity
  8
1
  6
Continuous
100
AcDbLine
 10
250.8
 20
134.8205
 30
0.0
 11
258.8
 21
134.8205
 31
0.0
  0
LINE
  5
B2CA
330
B27F
100
AcDbEntity
  8
1
  6
Continuous
100
AcDbLine
 10
250.8
 20
149.1794999999999
 30
0.0
 11
250.8
 21
148.6794999999998
 31
0.0
  0
LINE
  5
B2CB
330
B27F
100
AcDbEntity
  8
1
  6
Continuous
100
AcDbLine
 10
250.8
 20
134.8205
 30
0.0
 11
250.8
 21
135.3205
 31
0.0
  0
ARC
  5
B2CC
330
B27F
100
AcDbEntity
  8
1
  6
Continuous
100
AcDbCircle
 10
249.8
 20
135.3205
 30
0.0
 40
1.0
100
AcDbArc
 50
0.0
 51
31.97167800000001
  0
ARC
  5
B2CD
330
B27F
100
AcDbEntity
  8
1
  6
Continuous
100
AcDbCircle
 10
269.7999999999999
 20
148.6794999999998
 30
0.0
 40
1.0
100
AcDbArc
 50
180.0
 51
211.9716779999999
  0
LINE
  5
B2CE
330
B27F
100
AcDbEntity
  8
1
  6
Continuous
100
AcDbLine
 10
268.8
 20
148.6794999999998
 30
0.0
 11
268.8
 21
149.1794999999999
 31
0.0
  0
LINE
  5
B2CF
330
B27F
100
AcDbEntity
  8
1
  6
Continuous
100
AcDbLine
 10
260.8
 20
148.6794999999998
 30
0.0
 11
268.8
 21
148.6794999999998
 31
0.0
  0
LINE
  5
B2D0
330
B27F
100
AcDbEntity
  8
1
  6
Continuous
100
AcDbLine
 10
260.8
 20
149.1794999999999
 30
0.0
 11
268.8
 21
149.1794999999999
 31
0.0
  0
LINE
  5
B2D1
330
B27F
100
AcDbEntity
  8
1
  6
Continuous
100
AcDbLine
 10
268.8
 20
135.3205
 30
0.0
 11
268.8
 21
134.8205
 31
0.0
  0
LINE
  5
B2D2
330
B27F
100
AcDbEntity
  8
1
  6
Continuous
100
AcDbLine
 10
260.8
 20
135.3205
 30
0.0
 11
268.8
 21
135.3205
 31
0.0
  0
LINE
  5
B2D3
330
B27F
100
AcDbEntity
  8
1
  6
Continuous
100
AcDbLine
 10
260.8
 20
134.8205
 30
0.0
 11
268.8
 21
134.8205
 31
0.0
  0
LINE
  5
B2D4
330
B27F
100
AcDbEntity
  8
1
  6
Continuous
100
AcDbLine
 10
260.8
 20
149.1794999999999
 30
0.0
 11
260.8
 21
148.6794999999998
 31
0.0
  0
LINE
  5
B2D5
330
B27F
100
AcDbEntity
  8
1
  6
Continuous
100
AcDbLine
 10
260.8
 20
134.8205
 30
0.0
 11
260.8
 21
135.3205
 31
0.0
  0
ARC
  5
B2D6
330
B27F
100
AcDbEntity
  8
1
  6
Continuous
100
AcDbCircle
 10
259.8
 20
135.3205
 30
0.0
 40
1.0
100
AcDbArc
 50
0.0
 51
31.97167800000001
  0
LINE
  5
B2D7
330
B27F
100
AcDbEntity
  8
1
  6
Continuous
100
AcDbLine
 10
270.8
 20
148.6794999999998
 30
0.0
 11
270.8
 21
149.1794999999999
 31
0.0
  0
LINE
  5
B2D8
330
B27F
100
AcDbEntity
  8
1
  6
Continuous
100
AcDbLine
 10
270.8
 20
148.6794999999998
 30
0.0
 11
278.8
 21
148.6794999999998
 31
0.0
  0
LINE
  5
B2D9
330
B27F
100
AcDbEntity
  8
1
  6
Continuous
100
AcDbLine
 10
270.8
 20
149.1794999999999
 30
0.0
 11
278.8
 21
149.1794999999999
 31
0.0
  0
LINE
  5
B2DA
330
B27F
100
AcDbEntity
  8
1
  6
Continuous
100
AcDbLine
 10
270.8
 20
135.3205
 30
0.0
 11
270.8
 21
134.8205
 31
0.0
  0
LINE
  5
B2DB
330
B27F
100
AcDbEntity
  8
1
  6
Continuous
100
AcDbLine
 10
270.8
 20
135.3205
 30
0.0
 11
278.8
 21
135.3205
 31
0.0
  0
LINE
  5
B2DC
330
B27F
100
AcDbEntity
  8
1
  6
Continuous
100
AcDbLine
 10
270.8
 20
134.8205
 30
0.0
 11
278.8
 21
134.8205
 31
0.0
  0
LINE
  5
B2DD
330
B27F
100
AcDbEntity
  8
1
  6
Continuous
100
AcDbLine
 10
278.8
 20
149.1999999999999
 30
0.0
 11
278.8
 21
148.15
 31
0.0
  0
ARC
  5
B2DE
330
B27F
100
AcDbEntity
  8
1
  6
Continuous
100
AcDbCircle
 10
269.7999999999999
 20
135.3205
 30
0.0
 40
1.0
100
AcDbArc
 50
0.0
 51
31.97167800000001
  0
LINE
  5
B2DF
330
B27F
100
AcDbEntity
  8
1
  6
Continuous
100
AcDbLine
 10
220.8
 20
135.85
 30
0.0
 11
220.8
 21
134.8205
 31
0.0
  0
LINE
  5
B2E0
330
B27F
100
AcDbEntity
  8
1
  6
Continuous
100
AcDbLine
 10
278.8
 20
135.85
 30
0.0
 11
278.8
 21
134.8205
 31
0.0
  0
ARC
  5
B2E1
330
B27F
100
AcDbEntity
  8
1
  6
Continuous
100
AcDbCircle
 10
229.8
 20
148.6794999999998
 30
0.0
 40
1.0
100
AcDbArc
 50
328.028322
 51
0.0
  0
ARC
  5
B2E2
330
B27F
100
AcDbEntity
  8
1
  6
Continuous
100
AcDbCircle
 10
239.8
 20
148.6794999999998
 30
0.0
 40
1.0
100
AcDbArc
 50
328.028322
 51
0.0
  0
ARC
  5
B2E3
330
B27F
100
AcDbEntity
  8
1
  6
Continuous
100
AcDbCircle
 10
249.8
 20
148.6794999999998
 30
0.0
 40
1.0
100
AcDbArc
 50
328.028322
 51
0.0
  0
ARC
  5
B2E4
330
B27F
100
AcDbEntity
  8
1
  6
Continuous
100
AcDbCircle
 10
259.8
 20
148.6794999999998
 30
0.0
 40
1.0
100
AcDbArc
 50
328.028322
 51
0.0
  0
ARC
  5
B2E5
330
B27F
100
AcDbEntity
  8
1
  6
Continuous
100
AcDbCircle
 10
269.7999999999999
 20
148.6794999999998
 30
0.0
 40
1.0
100
AcDbArc
 50
328.028322
 51
0.0
  0
ARC
  5
B2E6
330
B27F
100
AcDbEntity
  8
1
  6
Continuous
100
AcDbCircle
 10
269.7999999999999
 20
135.3205
 30
0.0
 40
1.0
100
AcDbArc
 50
148.028322
 51
180.0
  0
ARC
  5
B2E7
330
B27F
100
AcDbEntity
  8
1
  6
Continuous
100
AcDbCircle
 10
259.8
 20
135.3205
 30
0.0
 40
1.0
100
AcDbArc
 50
148.028322
 51
180.0
  0
ARC
  5
B2E8
330
B27F
100
AcDbEntity
  8
1
  6
Continuous
100
AcDbCircle
 10
249.8
 20
135.3205
 30
0.0
 40
1.0
100
AcDbArc
 50
148.028322
 51
180.0
  0
ARC
  5
B2E9
330
B27F
100
AcDbEntity
  8
1
  6
Continuous
100
AcDbCircle
 10
239.8
 20
135.3205
 30
0.0
 40
1.0
100
AcDbArc
 50
148.028322
 51
180.0
  0
ARC
  5
B2EA
330
B27F
100
AcDbEntity
  8
1
  6
Continuous
100
AcDbCircle
 10
229.8
 20
135.3205
 30
0.0
 40
1.0
100
AcDbArc
 50
148.028322
 51
180.0
  0
LINE
  5
B2EB
330
B27F
100
AcDbEntity
  8
1
  6
Continuous
100
AcDbLine
 10
280.3
 20
148.15
 30
0.0
 11
83.29999999999998
 21
148.15
 31
0.0
  0
LINE
  5
B2EC
330
B27F
100
AcDbEntity
  8
1
  6
Continuous
100
AcDbLine
 10
83.29999999999998
 20
148.15
 30
0.0
 11
83.29999999999998
 21
135.85
 31
0.0
  0
LINE
  5
B2ED
330
B27F
100
AcDbEntity
  8
1
  6
Continuous
100
AcDbLine
 10
83.29999999999998
 20
135.85
 30
0.0
 11
280.3
 21
135.85
 31
0.0
  0
LINE
  5
B2EE
330
B27F
100
AcDbEntity
  8
1
  6
Continuous
100
AcDbLine
 10
280.3
 20
143.0
 30
0.0
 11
277.3
 21
142.0
 31
0.0
  0
LINE
  5
B2EF
330
B27F
100
AcDbEntity
  8
1
  6
Continuous
100
AcDbLine
 10
277.3
 20
142.0
 30
0.0
 11
280.3
 21
141.0
 31
0.0
  0
LINE
  5
B2F0
330
B27F
100
AcDbEntity
  8
1
  6
Continuous
100
AcDbLine
 10
280.3
 20
142.0
 30
0.0
 11
277.3
 21
142.0
 31
0.0
  0
ARC
  5
B2F1
330
B27F
100
AcDbEntity
  8
1
  6
Continuous
100
AcDbCircle
 10
416.6999999999998
 20
148.3
 30
0.0
 40
1.0
100
AcDbArc
 50
135.0
 51
270.0
  0
LINE
  5
B2F2
330
B27F
100
AcDbEntity
  8
1
  6
Continuous
100
AcDbLine
 10
415.9928929999998
 20
149.0071069999999
 30
0.0
 11
417.0071069999998
 21
150.02132
 31
0.0
  0
ARC
  5
B2F3
330
B27F
100
AcDbEntity
  8
1
  6
Continuous
100
AcDbCircle
 10
416.3
 20
150.728427
 30
0.0
 40
1.0
100
AcDbArc
 50
315.0
 51
0.0
  0
LINE
  5
B2F4
330
B27F
100
AcDbEntity
  8
1
  6
Continuous
100
AcDbLine
 10
417.3
 20
150.728427
 30
0.0
 11
417.3
 21
152.0
 31
0.0
  0
LINE
  5
B2F5
330
B27F
100
AcDbEntity
  8
1
  6
Continuous
100
AcDbLine
 10
417.27847
 20
133.4779619999999
 30
0.0
 11
217.3
 21
133.4779619999999
 31
0.0
  0
LINE
  5
B2F6
330
B27F
100
AcDbEntity
  8
1
  6
Continuous
100
AcDbLine
 10
217.3
 20
134.327335
 30
0.0
 11
416.6584509999998
 21
134.327335
 31
0.0
  0
LINE
  5
B2F7
330
B27F
100
AcDbEntity
  8
1
  6
Continuous
100
AcDbLine
 10
416.6584509999998
 20
149.672665
 30
0.0
 11
217.3
 21
149.672665
 31
0.0
  0
LINE
  5
B2F8
330
B27F
100
AcDbEntity
  8
1
  6
Continuous
100
AcDbLine
 10
217.3
 20
150.5220379999999
 30
0.0
 11
417.27847
 21
150.5220379999999
 31
0.0
  0
LINE
  5
B2F9
330
B27F
100
AcDbEntity
  8
4
  6
CENTER
100
AcDbLine
 10
420.3
 20
142.0
 30
0.0
 11
80.0
 21
142.0
 31
0.0
  0
LINE
  5
B2FA
330
B27F
100
AcDbEntity
  8
1
  6
Continuous
100
AcDbLine
 10
417.3
 20
152.0
 30
0.0
 11
217.3
 21
152.0
 31
0.0
  0
LINE
  5
B2FB
330
B27F
100
AcDbEntity
  8
1
  6
Continuous
100
AcDbLine
 10
217.3
 20
132.0
 30
0.0
 11
417.3
 21
132.0
 31
0.0
  0
LINE
  5
B2FC
330
B27F
100
AcDbEntity
  8
1
  6
Continuous
100
AcDbLine
 10
417.3
 20
132.0
 30
0.0
 11
417.3
 21
133.2715729999998
 31
0.0
  0
ARC
  5
B2FD
330
B27F
100
AcDbEntity
  8
1
  6
Continuous
100
AcDbCircle
 10
416.3
 20
133.2715729999998
 30
0.0
 40
1.0
100
AcDbArc
 50
0.0
 51
45.0
  0
LINE
  5
B2FE
330
B27F
100
AcDbEntity
  8
1
  6
Continuous
100
AcDbLine
 10
417.0071069999998
 20
133.9786799999999
 30
0.0
 11
415.9928929999998
 21
134.9928929999999
 31
0.0
  0
ARC
  5
B2FF
330
B27F
100
AcDbEntity
  8
1
  6
Continuous
100
AcDbCircle
 10
416.6999999999998
 20
135.6999999999999
 30
0.0
 40
1.0
100
AcDbArc
 50
90.0
 51
225.0
  0
LINE
  5
B300
330
B27F
100
AcDbEntity
  8
1
  6
Continuous
100
AcDbLine
 10
417.3
 20
136.6999999999999
 30
0.0
 11
415.8999999999998
 21
136.6999999999999
 31
0.0
  0
LINE
  5
B301
330
B27F
100
AcDbEntity
  8
1
  6
Continuous
100
AcDbLine
 10
415.8999999999998
 20
136.6999999999999
 30
0.0
 11
415.8999999999998
 21
147.3
 31
0.0
  0
LINE
  5
B302
330
B27F
100
AcDbEntity
  8
1
  6
Continuous
100
AcDbLine
 10
415.8999999999998
 20
147.3
 30
0.0
 11
417.3
 21
147.3
 31
0.0
  0
LINE
  5
B303
330
B27F
100
AcDbEntity
  8
1
  6
Continuous
100
AcDbLine
 10
417.3
 20
147.3
 30
0.0
 11
417.3
 21
136.6999999999999
 31
0.0
  0
LINE
  5
B304
330
B27F
100
AcDbEntity
  8
4
  6
CENTER
100
AcDbLine
 10
103.2999999999999
 20
145.3395629999999
 30
0.0
 11
103.2999999999999
 21
138.83775
 31
0.0
  0
CIRCLE
  5
B305
330
B27F
100
AcDbEntity
  8
1
  6
Continuous
100
AcDbCircle
 10
103.2999999999999
 20
142.0
 30
0.0
 40
1.6
  0
LINE
  5
B306
330
B27F
100
AcDbEntity
  8
1
  6
Continuous
100
AcDbLine
 10
118.0
 20
140.4
 30
0.0
 11
118.5999999999998
 21
140.4
 31
0.0
  0
LINE
  5
B307
330
B27F
100
AcDbEntity
  8
1
  6
Continuous
100
AcDbLine
 10
118.5999999999998
 20
143.5999999999999
 30
0.0
 11
118.0
 21
143.5999999999999
 31
0.0
  0
ARC
  5
B308
330
B27F
100
AcDbEntity
  8
1
  6
Continuous
100
AcDbCircle
 10
118.0
 20
142.0
 30
0.0
 40
1.6
100
AcDbArc
 50
90.0
 51
270.0
  0
ARC
  5
B309
330
B27F
100
AcDbEntity
  8
1
  6
Continuous
100
AcDbCircle
 10
118.5999999999998
 20
142.0
 30
0.0
 40
1.6
100
AcDbArc
 50
270.0
 51
90.0
  0
LINE
  5
B30A
330
B27F
100
AcDbEntity
  8
4
  6
CENTER
100
AcDbLine
 10
158.3
 20
146.9499999999999
 30
0.0
 11
158.3
 21
137.05
 31
0.0
  0
CIRCLE
  5
B30B
330
B27F
100
AcDbEntity
  8
1
  6
Continuous
100
AcDbCircle
 10
158.3
 20
142.0
 30
0.0
 40
3.649999999999999
  0
LINE
  5
B30C
330
B27F
100
AcDbEntity
  8
1
  6
Continuous
100
AcDbLine
 10
203.0
 20
140.4
 30
0.0
 11
203.6
 21
140.4
 31
0.0
  0
LINE
  5
B30D
330
B27F
100
AcDbEntity
  8
1
  6
Continuous
100
AcDbLine
 10
203.6
 20
143.5999999999999
 30
0.0
 11
203.0
 21
143.5999999999999
 31
0.0
  0
ARC
  5
B30E
330
B27F
100
AcDbEntity
  8
1
  6
Continuous
100
AcDbCircle
 10
203.0
 20
142.0
 30
0.0
 40
1.6
100
AcDbArc
 50
90.0
 51
270.0
  0
ARC
  5
B30F
330
B27F
100
AcDbEntity
  8
1
  6
Continuous
100
AcDbCircle
 10
203.6
 20
142.0
 30
0.0
 40
1.6
100
AcDbArc
 50
270.0
 51
90.0
  0
LINE
  5
B310
330
B27F
100
AcDbEntity
  8
4
  6
CENTER
100
AcDbLine
 10
237.3
 20
144.8880479999999
 30
0.0
 11
237.3
 21
139.4698699999999
 31
0.0
  0
LINE
  5
B311
330
B27F
100
AcDbEntity
  8
1
  6
Continuous
100
AcDbLine
 10
217.3
 20
132.0
 30
0.0
 11
217.3
 21
135.85
 31
0.0
  0
LINE
  5
B312
330
B27F
100
AcDbEntity
  8
1
  6
Continuous
100
AcDbLine
 10
217.3
 20
148.15
 30
0.0
 11
217.3
 21
152.0
 31
0.0
  0
LINE
  5
B313
330
B27F
100
AcDbEntity
  8
3
  6
DASHED
100
AcDbLine
 10
217.3
 20
135.85
 30
0.0
 11
217.3
 21
148.15
 31
0.0
  0
LINE
  5
B314
330
B27F
100
AcDbEntity
  8
4
  6
CENTER
100
AcDbLine
 10
263.3
 20
144.978351
 30
0.0
 11
263.3
 21
139.3795669999998
 31
0.0
  0
LINE
  5
B315
330
B27F
100
AcDbEntity
  8
1
  6
Continuous
100
AcDbLine
 10
248.6
 20
140.4
 30
0.0
 11
248.0
 21
140.4
 31
0.0
  0
LINE
  5
B316
330
B27F
100
AcDbEntity
  8
1
  6
Continuous
100
AcDbLine
 10
248.0
 20
143.5999999999999
 30
0.0
 11
248.6
 21
143.5999999999999
 31
0.0
  0
ARC
  5
B317
330
B27F
100
AcDbEntity
  8
1
  6
Continuous
100
AcDbCircle
 10
248.6
 20
142.0
 30
0.0
 40
1.6
100
AcDbArc
 50
270.0
 51
90.0
  0
ARC
  5
B318
330
B27F
100
AcDbEntity
  8
1
  6
Continuous
100
AcDbCircle
 10
248.0
 20
142.0
 30
0.0
 40
1.6
100
AcDbArc
 50
90.0
 51
270.0
  0
LINE
  5
B319
330
B27F
100
AcDbEntity
  8
1
  6
Continuous
100
AcDbLine
 10
280.3
 20
135.85
 30
0.0
 11
280.3
 21
148.15
 31
0.0
  0
LINE
  5
B31A
330
B27F
100
AcDbEntity
  8
1
  6
Continuous
100
AcDbLine
 10
337.0
 20
140.4
 30
0.0
 11
337.6
 21
140.4
 31
0.0
  0
LINE
  5
B31B
330
B27F
100
AcDbEntity
  8
1
  6
Continuous
100
AcDbLine
 10
337.6
 20
143.5999999999999
 30
0.0
 11
337.0
 21
143.5999999999999
 31
0.0
  0
ARC
  5
B31C
330
B27F
100
AcDbEntity
  8
1
  6
Continuous
100
AcDbCircle
 10
337.0
 20
142.0
 30
0.0
 40
1.6
100
AcDbArc
 50
90.0
 51
270.0
  0
ARC
  5
B31D
330
B27F
100
AcDbEntity
  8
1
  6
Continuous
100
AcDbCircle
 10
337.6
 20
142.0
 30
0.0
 40
1.6
100
AcDbArc
 50
270.0
 51
90.0
  0
LINE
  5
B31E
330
B27F
100
AcDbEntity
  8
4
  6
CENTER
100
AcDbLine
 10
362.3
 20
147.145622
 30
0.0
 11
362.3
 21
137.212296
 31
0.0
  0
CIRCLE
  5
B31F
330
B27F
100
AcDbEntity
  8
1
  6
Continuous
100
AcDbCircle
 10
362.3
 20
142.0
 30
0.0
 40
3.649999999999999
  0
LINE
  5
B320
330
B27F
100
AcDbEntity
  8
4
  6
CENTER
100
AcDbLine
 10
397.3
 20
145.1589569999999
 30
0.0
 11
397.3
 21
138.83775
 31
0.0
  0
LINE
  5
B321
330
B27F
100
AcDbEntity
  8
1
  6
Continuous
100
AcDbLine
 10
382.0
 20
140.4
 30
0.0
 11
382.6
 21
140.4
 31
0.0
  0
LINE
  5
B322
330
B27F
100
AcDbEntity
  8
1
  6
Continuous
100
AcDbLine
 10
382.6
 20
143.5999999999999
 30
0.0
 11
382.0
 21
143.5999999999999
 31
0.0
  0
ARC
  5
B323
330
B27F
100
AcDbEntity
  8
1
  6
Continuous
100
AcDbCircle
 10
382.0
 20
142.0
 30
0.0
 40
1.6
100
AcDbArc
 50
90.0
 51
270.0
  0
ARC
  5
B324
330
B27F
100
AcDbEntity
  8
1
  6
Continuous
100
AcDbCircle
 10
382.6
 20
142.0
 30
0.0
 40
1.6
100
AcDbArc
 50
270.0
 51
90.0
  0
ARC
  5
B325
330
B27F
100
AcDbEntity
  8
1
  6
Continuous
100
AcDbCircle
 10
224.8
 20
149.0124999999999
 30
0.0
 40
1.587499999999999
100
AcDbArc
 50
327.090948
 51
347.8914909999998
  0
ARC
  5
B326
330
B27F
100
AcDbEntity
  8
1
  6
Continuous
100
AcDbCircle
 10
224.8
 20
149.0124999999999
 30
0.0
 40
1.587499999999999
100
AcDbArc
 50
6.038508
 51
24.57297999999999
  0
ARC
  5
B327
330
B27F
100
AcDbEntity
  8
1
  6
Continuous
100
AcDbCircle
 10
224.8
 20
149.0124999999999
 30
0.0
 40
1.587499999999999
100
AcDbArc
 50
155.4270199999999
 51
173.9614919999999
  0
ARC
  5
B328
330
B27F
100
AcDbEntity
  8
1
  6
Continuous
100
AcDbCircle
 10
224.8
 20
149.0124999999999
 30
0.0
 40
1.587499999999999
100
AcDbArc
 50
192.1085089999999
 51
212.9090519999999
  0
LINE
  5
B329
330
B27F
100
AcDbEntity
  8
4
  6
CENTER
100
AcDbLine
 10
480.2999999999998
 20
142.0
 30
0.0
 11
462.3
 21
142.0
 31
0.0
  0
LINE
  5
B32A
330
B27F
100
AcDbEntity
  8
1
  6
Continuous
100
AcDbLine
 10
467.3
 20
146.64104
 30
0.0
 11
467.3
 21
137.35896
 31
0.0
  0
LINE
  5
B32B
330
B27F
100
AcDbEntity
  8
1
  6
Continuous
100
AcDbLine
 10
468.1
 20
149.1794999999999
 30
0.0
 11
468.1
 21
148.6794999999998
 31
0.0
  0
LINE
  5
B32C
330
B27F
100
AcDbEntity
  8
1
  6
Continuous
100
AcDbLine
 10
468.1
 20
134.8205
 30
0.0
 11
468.1
 21
135.3205
 31
0.0
  0
LINE
  5
B32D
330
B27F
100
AcDbEntity
  8
1
  6
Continuous
100
AcDbLine
 10
468.2999999999998
 20
146.3
 30
0.0
 11
468.2999999999998
 21
137.7
 31
0.0
  0
ARC
  5
B32E
330
B27F
100
AcDbEntity
  8
1
  6
Continuous
100
AcDbCircle
 10
470.8
 20
149.0124999999999
 30
0.0
 40
1.587499999999999
100
AcDbArc
 50
344.2283619999998
 51
179.6568479999999
  0
LINE
  5
B32F
330
B27F
100
AcDbEntity
  8
1
  6
Continuous
100
AcDbLine
 10
473.7402539999997
 20
148.448359
 30
0.0
 11
471.8803079999998
 21
150.1757249999998
 31
0.0
  0
LINE
  5
B330
330
B27F
100
AcDbEntity
  8
1
  6
Continuous
100
AcDbLine
 10
474.692967
 20
149.474195
 30
0.0
 11
472.83302
 21
151.2015609999999
 31
0.0
  0
ARC
  5
B331
330
B27F
100
AcDbEntity
  8
1
  6
Continuous
100
AcDbCircle
 10
473.3999999999999
 20
148.081989
 30
0.0
 40
0.5
100
AcDbArc
 50
0.0
 51
47.116587
  0
ARC
  5
B332
330
B27F
100
AcDbEntity
  8
1
  6
Continuous
100
AcDbCircle
 10
473.3999999999999
 20
148.081989
 30
0.0
 40
1.9
100
AcDbArc
 50
0.0
 51
47.116587
  0
ARC
  5
B333
330
B27F
100
AcDbEntity
  8
1
  6
Continuous
100
AcDbCircle
 10
473.3999999999999
 20
135.918011
 30
0.0
 40
1.9
100
AcDbArc
 50
312.8834129999999
 51
0.0
  0
ARC
  5
B334
330
B27F
100
AcDbEntity
  8
1
  6
Continuous
100
AcDbCircle
 10
473.3999999999999
 20
135.918011
 30
0.0
 40
0.5
100
AcDbArc
 50
312.8834129999999
 51
0.0
  0
LINE
  5
B335
330
B27F
100
AcDbEntity
  8
1
  6
Continuous
100
AcDbLine
 10
474.692967
 20
134.5258049999999
 30
0.0
 11
472.83302
 21
132.798439
 31
0.0
  0
LINE
  5
B336
330
B27F
100
AcDbEntity
  8
1
  6
Continuous
100
AcDbLine
 10
473.7402539999997
 20
135.5516409999999
 30
0.0
 11
471.8803079999998
 21
133.824275
 31
0.0
  0
ARC
  5
B337
330
B27F
100
AcDbEntity
  8
1
  6
Continuous
100
AcDbCircle
 10
470.8
 20
134.9875
 30
0.0
 40
1.587499999999999
100
AcDbArc
 50
34.55010399999999
 51
161.5646869999999
  0
ARC
  5
B338
330
B27F
100
AcDbEntity
  8
1
  6
Continuous
100
AcDbCircle
 10
472.9
 20
147.995015
 30
0.0
 40
0.5
100
AcDbArc
 50
0.0
 51
81.942605
  0
ARC
  5
B339
330
B27F
100
AcDbEntity
  8
1
  6
Continuous
100
AcDbCircle
 10
470.8
 20
149.0124999999999
 30
0.0
 40
1.587499999999999
100
AcDbArc
 50
198.4353129999999
 51
325.449896
  0
ARC
  5
B33A
330
B27F
100
AcDbEntity
  8
1
  6
Continuous
100
AcDbCircle
 10
472.9
 20
136.004985
 30
0.0
 40
0.5
100
AcDbArc
 50
278.0573949999999
 51
0.0
  0
ARC
  5
B33B
330
B27F
100
AcDbEntity
  8
1
  6
Continuous
100
AcDbCircle
 10
470.8
 20
134.9875
 30
0.0
 40
1.587499999999999
100
AcDbArc
 50
180.343152
 51
15.771638
  0
LINE
  5
B33C
330
B27F
100
AcDbEntity
  8
1
  6
Continuous
100
AcDbLine
 10
472.563928
 20
147.3
 30
0.0
 11
471.9390129999998
 21
147.9066949999999
 31
0.0
  0
LINE
  5
B33D
330
B27F
100
AcDbEntity
  8
1
  6
Continuous
100
AcDbLine
 10
472.9
 20
148.0
 30
0.0
 11
472.9
 21
147.3
 31
0.0
  0
LINE
  5
B33E
330
B27F
100
AcDbEntity
  8
1
  6
Continuous
100
AcDbLine
 10
473.3999999999999
 20
147.995015
 30
0.0
 11
473.3999999999999
 21
147.3
 31
0.0
  0
LINE
  5
B33F
330
B27F
100
AcDbEntity
  8
1
  6
Continuous
100
AcDbLine
 10
472.9
 20
136.0
 30
0.0
 11
472.9
 21
136.6999999999999
 31
0.0
  0
LINE
  5
B340
330
B27F
100
AcDbEntity
  8
1
  6
Continuous
100
AcDbLine
 10
473.3999999999999
 20
136.004985
 30
0.0
 11
473.3999999999999
 21
136.6999999999999
 31
0.0
  0
LINE
  5
B341
330
B27F
100
AcDbEntity
  8
1
  6
Continuous
100
AcDbLine
 10
472.563928
 20
136.6999999999999
 30
0.0
 11
471.9390129999998
 21
136.0933049999999
 31
0.0
  0
LINE
  5
B342
330
B27F
100
AcDbEntity
  8
1
  6
Continuous
100
AcDbLine
 10
473.8999999999998
 20
148.081989
 30
0.0
 11
473.8999999999998
 21
147.3
 31
0.0
  0
LINE
  5
B343
330
B27F
100
AcDbEntity
  8
1
  6
Continuous
100
AcDbLine
 10
473.8999999999998
 20
136.6999999999999
 30
0.0
 11
473.8999999999998
 21
135.918011
 31
0.0
  0
LINE
  5
B344
330
B27F
100
AcDbEntity
  8
1
  6
Continuous
100
AcDbLine
 10
469.3
 20
147.3
 30
0.0
 11
474.8
 21
147.3
 31
0.0
  0
ARC
  5
B345
330
B27F
100
AcDbEntity
  8
1
  6
Continuous
100
AcDbCircle
 10
474.8
 20
147.8
 30
0.0
 40
0.5
100
AcDbArc
 50
270.0
 51
0.0
  0
LINE
  5
B346
330
B27F
100
AcDbEntity
  8
1
  6
Continuous
100
AcDbLine
 10
474.8
 20
136.6999999999999
 30
0.0
 11
469.3
 21
136.6999999999999
 31
0.0
  0
ARC
  5
B347
330
B27F
100
AcDbEntity
  8
1
  6
Continuous
100
AcDbCircle
 10
474.8
 20
136.1999999999998
 30
0.0
 40
0.5
100
AcDbArc
 50
0.0
 51
90.0
  0
LINE
  5
B348
330
B27F
100
AcDbEntity
  8
1
  6
Continuous
100
AcDbLine
 10
475.3
 20
148.081989
 30
0.0
 11
475.3
 21
135.918011
 31
0.0
  0
ARC
  5
B349
330
B27F
100
AcDbEntity
  8
1
  6
Continuous
100
AcDbCircle
 10
470.8
 20
149.0124999999999
 30
0.0
 40
2.987499999999998
100
AcDbArc
 50
47.116587
 51
149.6497479999999
  0
ARC
  5
B34A
330
B27F
100
AcDbEntity
  8
1
  6
Continuous
100
AcDbCircle
 10
468.8089599999998
 20
146.64104
 30
0.0
 40
1.50896
100
AcDbArc
 50
49.983708
 51
180.0
  0
LINE
  5
B34B
330
B27F
100
AcDbEntity
  8
1
  6
Continuous
100
AcDbLine
 10
469.3562759999998
 20
149.672665
 30
0.0
 11
468.2219289999999
 21
150.5220379999999
 31
0.0
  0
LINE
  5
B34C
330
B27F
100
AcDbEntity
  8
1
  6
Continuous
100
AcDbLine
 10
469.3562759999998
 20
134.327335
 30
0.0
 11
468.2219289999999
 21
133.4779619999999
 31
0.0
  0
ARC
  5
B34D
330
B27F
100
AcDbEntity
  8
1
  6
Continuous
100
AcDbCircle
 10
468.8089599999998
 20
137.35896
 30
0.0
 40
1.50896
100
AcDbArc
 50
180.0
 51
310.0162919999998
  0
ARC
  5
B34E
330
B27F
100
AcDbEntity
  8
1
  6
Continuous
100
AcDbCircle
 10
470.8
 20
134.9875
 30
0.0
 40
2.987499999999998
100
AcDbArc
 50
210.350252
 51
312.8834129999999
  0
LINE
  5
B34F
330
B27F
100
AcDbEntity
  8
1
  6
Continuous
100
AcDbLine
 10
472.9
 20
148.0
 30
0.0
 11
468.1
 21
148.6794999999998
 31
0.0
  0
LINE
  5
B350
330
B27F
100
AcDbEntity
  8
1
  6
Continuous
100
AcDbLine
 10
472.9700829999998
 20
148.490079
 30
0.0
 11
468.1
 21
149.1794999999999
 31
0.0
  0
LINE
  5
B351
330
B27F
100
AcDbEntity
  8
1
  6
Continuous
100
AcDbLine
 10
472.9700829999998
 20
135.5099209999999
 30
0.0
 11
468.1
 21
134.8205
 31
0.0
  0
LINE
  5
B352
330
B27F
100
AcDbEntity
  8
1
  6
Continuous
100
AcDbLine
 10
472.9
 20
136.0
 30
0.0
 11
468.1
 21
135.3205
 31
0.0
  0
ARC
  5
B353
330
B27F
100
AcDbEntity
  8
1
  6
Continuous
100
AcDbCircle
 10
469.3
 20
146.3
 30
0.0
 40
1.0
100
AcDbArc
 50
90.0
 51
180.0
  0
ARC
  5
B354
330
B27F
100
AcDbEntity
  8
1
  6
Continuous
100
AcDbCircle
 10
469.3
 20
137.7
 30
0.0
 40
1.0
100
AcDbArc
 50
180.0
 51
270.0
  0
LINE
  5
B355
330
B27F
100
AcDbEntity
  8
1
  6
Continuous
100
AcDbLine
 10
27.32991699999999
 20
135.5099209999999
 30
0.0
 11
32.20000000000001
 21
134.8205
 31
0.0
  0
LINE
  5
B356
330
B27F
100
AcDbEntity
  8
1
  6
Continuous
100
AcDbLine
 10
27.4
 20
136.0
 30
0.0
 11
32.20000000000001
 21
135.3205
 31
0.0
  0
LINE
  5
B357
330
B27F
100
AcDbEntity
  8
1
  6
Continuous
100
AcDbLine
 10
30.943724
 20
134.327335
 30
0.0
 11
32.078071
 21
133.4779619999999
 31
0.0
  0
ARC
  5
B358
330
B27F
100
AcDbEntity
  8
1
  6
Continuous
100
AcDbCircle
 10
29.5
 20
134.9875
 30
0.0
 40
2.987499999999998
100
AcDbArc
 50
227.116587
 51
329.6497479999998
  0
ARC
  5
B359
330
B27F
100
AcDbEntity
  8
1
  6
Continuous
100
AcDbCircle
 10
31.49104
 20
137.35896
 30
0.0
 40
1.50896
100
AcDbArc
 50
229.983708
 51
0.0
  0
ARC
  5
B35A
330
B27F
100
AcDbEntity
  8
1
  6
Continuous
100
AcDbCircle
 10
29.5
 20
149.0124999999999
 30
0.0
 40
2.987499999999998
100
AcDbArc
 50
30.350252
 51
132.8834129999999
  0
LINE
  5
B35B
330
B27F
100
AcDbEntity
  8
4
  6
CENTER
100
AcDbLine
 10
22.0
 20
142.0
 30
0.0
 11
36.0
 21
142.0
 31
0.0
  0
ARC
  5
B35C
330
B27F
100
AcDbEntity
  8
1
  6
Continuous
100
AcDbCircle
 10
31.49104
 20
146.64104
 30
0.0
 40
1.50896
100
AcDbArc
 50
0.0
 51
130.0162919999999
  0
LINE
  5
B35D
330
B27F
100
AcDbEntity
  8
1
  6
Continuous
100
AcDbLine
 10
30.943724
 20
149.672665
 30
0.0
 11
32.078071
 21
150.5220379999999
 31
0.0
  0
LINE
  5
B35E
330
B27F
100
AcDbEntity
  8
1
  6
Continuous
100
AcDbLine
 10
27.4
 20
148.0
 30
0.0
 11
32.20000000000001
 21
148.6794999999998
 31
0.0
  0
LINE
  5
B35F
330
B27F
100
AcDbEntity
  8
1
  6
Continuous
100
AcDbLine
 10
27.32991699999999
 20
148.490079
 30
0.0
 11
32.20000000000001
 21
149.1794999999999
 31
0.0
  0
LINE
  5
B360
330
B27F
100
AcDbEntity
  8
1
  6
Continuous
100
AcDbLine
 10
26.69999999999999
 20
146.098959
 30
0.0
 11
26.69999999999999
 21
137.901041
 31
0.0
  0
LINE
  5
B361
330
B27F
100
AcDbEntity
  8
1
  6
Continuous
100
AcDbLine
 10
28.1
 20
146.098959
 30
0.0
 11
28.1
 21
137.901041
 31
0.0
  0
LINE
  5
B362
330
B27F
100
AcDbEntity
  8
1
  6
Continuous
100
AcDbLine
 10
25.0
 20
148.081989
 30
0.0
 11
25.0
 21
135.918011
 31
0.0
  0
LINE
  5
B363
330
B27F
100
AcDbEntity
  8
1
  6
Continuous
100
AcDbLine
 10
26.4
 20
146.5588239999999
 30
0.0
 11
26.4
 21
137.441176
 31
0.0
  0
LINE
  5
B364
330
B27F
100
AcDbEntity
  8
1
  6
Continuous
100
AcDbLine
 10
31.8
 20
146.64104
 30
0.0
 11
31.8
 21
137.35896
 31
0.0
  0
LINE
  5
B365
330
B27F
100
AcDbEntity
  8
1
  6
Continuous
100
AcDbLine
 10
29.39999999999999
 20
145.314461
 30
0.0
 11
29.39999999999999
 21
138.6855389999998
 31
0.0
  0
LINE
  5
B366
330
B27F
100
AcDbEntity
  8
1
  6
Continuous
100
AcDbLine
 10
28.9
 20
145.314461
 30
0.0
 11
28.9
 21
138.6855389999998
 31
0.0
  0
ARC
  5
B367
330
B27F
100
AcDbEntity
  8
1
  6
Continuous
100
AcDbCircle
 10
29.5
 20
134.9875
 30
0.0
 40
1.587499999999999
100
AcDbArc
 50
18.435313
 51
145.449896
  0
ARC
  5
B368
330
B27F
100
AcDbEntity
  8
1
  6
Continuous
100
AcDbCircle
 10
29.5
 20
134.9875
 30
0.0
 40
1.587499999999999
100
AcDbArc
 50
164.228362
 51
359.656848
  0
ARC
  5
B369
330
B27F
100
AcDbEntity
  8
1
  6
Continuous
100
AcDbCircle
 10
28.9
 20
138.6855389999998
 30
0.0
 40
0.5
100
AcDbArc
 50
300.5406049999999
 51
0.0
  0
ARC
  5
B36A
330
B27F
100
AcDbEntity
  8
1
  6
Continuous
100
AcDbCircle
 10
31.49104
 20
137.35896
 30
0.0
 40
0.30896
100
AcDbArc
 50
229.983708
 51
0.0
  0
ARC
  5
B36B
330
B27F
100
AcDbEntity
  8
1
  6
Continuous
100
AcDbCircle
 10
26.2
 20
137.901041
 30
0.0
 40
1.9
100
AcDbArc
 50
297.8972709999998
 51
0.0
  0
LINE
  5
B36C
330
B27F
100
AcDbEntity
  8
1
  6
Continuous
100
AcDbLine
 10
26.91429600000001
 20
136.1293599999999
 30
0.0
 11
27.088987
 21
136.221844
 31
0.0
  0
LINE
  5
B36D
330
B27F
100
AcDbEntity
  8
1
  6
Continuous
100
AcDbLine
 10
26.89999999999999
 20
136.004985
 30
0.0
 11
26.89999999999999
 21
136.1214909999999
 31
0.0
  0
LINE
  5
B36E
330
B27F
100
AcDbEntity
  8
1
  6
Continuous
100
AcDbLine
 10
27.4
 20
136.0
 30
0.0
 11
27.4
 21
136.427949
 31
0.0
  0
LINE
  5
B36F
330
B27F
100
AcDbEntity
  8
1
  6
Continuous
100
AcDbLine
 10
28.079209
 20
137.620734
 30
0.0
 11
29.15407399999999
 21
138.254904
 31
0.0
  0
ARC
  5
B370
330
B27F
100
AcDbEntity
  8
1
  6
Continuous
100
AcDbCircle
 10
29.5
 20
134.9875
 30
0.0
 40
2.7875
100
AcDbArc
 50
49.983708
 51
122.12208
  0
LINE
  5
B371
330
B27F
100
AcDbEntity
  8
1
  6
Continuous
100
AcDbLine
 10
27.700075
 20
136.734947
 30
0.0
 11
28.36098699999999
 21
136.0933049999999
 31
0.0
  0
LINE
  5
B372
330
B27F
100
AcDbEntity
  8
1
  6
Continuous
100
AcDbLine
 10
28.1
 20
138.2135389999999
 30
0.0
 11
28.9
 21
138.6855389999998
 31
0.0
  0
ARC
  5
B373
330
B27F
100
AcDbEntity
  8
1
  6
Continuous
100
AcDbCircle
 10
26.89999999999999
 20
135.918011
 30
0.0
 40
1.9
100
AcDbArc
 50
157.4085689999998
 51
227.116587
  0
ARC
  5
B374
330
B27F
100
AcDbEntity
  8
1
  6
Continuous
100
AcDbCircle
 10
25.60742499999999
 20
136.4558309999999
 30
0.0
 40
0.5
100
AcDbArc
 50
117.8972709999999
 51
157.4085689999998
  0
LINE
  5
B375
330
B27F
100
AcDbEntity
  8
1
  6
Continuous
100
AcDbLine
 10
25.0
 20
136.6999999999999
 30
0.0
 11
26.433944
 21
137.459147
 31
0.0
  0
ARC
  5
B376
330
B27F
100
AcDbEntity
  8
1
  6
Continuous
100
AcDbCircle
 10
26.2
 20
137.901041
 30
0.0
 40
0.5
100
AcDbArc
 50
297.8972709999998
 51
0.0
  0
ARC
  5
B377
330
B27F
100
AcDbEntity
  8
1
  6
Continuous
100
AcDbCircle
 10
27.4
 20
136.004985
 30
0.0
 40
0.5
100
AcDbArc
 50
180.0
 51
261.9426049999999
  0
LINE
  5
B378
330
B27F
100
AcDbEntity
  8
1
  6
Continuous
100
AcDbLine
 10
25.607033
 20
134.5258049999999
 30
0.0
 11
27.46698
 21
132.798439
 31
0.0
  0
LINE
  5
B379
330
B27F
100
AcDbEntity
  8
1
  6
Continuous
100
AcDbLine
 10
26.807986
 20
135.3210959999999
 30
0.0
 11
28.41969199999999
 21
133.824275
 31
0.0
  0
ARC
  5
B37A
330
B27F
100
AcDbEntity
  8
1
  6
Continuous
100
AcDbCircle
 10
27.14824
 20
135.687466
 30
0.0
 40
0.5
100
AcDbArc
 50
117.8972709999999
 51
227.116587
  0
ARC
  5
B37B
330
B27F
100
AcDbEntity
  8
1
  6
Continuous
100
AcDbCircle
 10
27.14824
 20
148.3125339999999
 30
0.0
 40
0.5
100
AcDbArc
 50
132.8834129999999
 51
242.102729
  0
LINE
  5
B37C
330
B27F
100
AcDbEntity
  8
1
  6
Continuous
100
AcDbLine
 10
26.91429600000001
 20
147.8706399999999
 30
0.0
 11
27.088987
 21
147.7781559999999
 31
0.0
  0
ARC
  5
B37D
330
B27F
100
AcDbEntity
  8
1
  6
Continuous
100
AcDbCircle
 10
26.2
 20
146.098959
 30
0.0
 40
1.9
100
AcDbArc
 50
0.0
 51
62.10272899999999
  0
ARC
  5
B37E
330
B27F
100
AcDbEntity
  8
1
  6
Continuous
100
AcDbCircle
 10
26.2
 20
146.098959
 30
0.0
 40
0.5
100
AcDbArc
 50
0.0
 51
62.10272899999999
  0
ARC
  5
B37F
330
B27F
100
AcDbEntity
  8
1
  6
Continuous
100
AcDbCircle
 10
25.60742499999999
 20
147.5441689999998
 30
0.0
 40
0.5
100
AcDbArc
 50
202.591431
 51
242.102729
  0
LINE
  5
B380
330
B27F
100
AcDbEntity
  8
1
  6
Continuous
100
AcDbLine
 10
25.0
 20
147.3
 30
0.0
 11
26.433944
 21
146.5408529999999
 31
0.0
  0
ARC
  5
B381
330
B27F
100
AcDbEntity
  8
1
  6
Continuous
100
AcDbCircle
 10
29.5
 20
149.0124999999999
 30
0.0
 40
1.587499999999999
100
AcDbArc
 50
0.343152
 51
195.7716379999999
  0
LINE
  5
B382
330
B27F
100
AcDbEntity
  8
1
  6
Continuous
100
AcDbLine
 10
26.807986
 20
148.6789039999999
 30
0.0
 11
28.41969199999999
 21
150.1757249999998
 31
0.0
  0
LINE
  5
B383
330
B27F
100
AcDbEntity
  8
1
  6
Continuous
100
AcDbLine
 10
25.607033
 20
149.474195
 30
0.0
 11
27.46698
 21
151.2015609999999
 31
0.0
  0
ARC
  5
B384
330
B27F
100
AcDbEntity
  8
1
  6
Continuous
100
AcDbCircle
 10
26.89999999999999
 20
148.081989
 30
0.0
 40
1.9
100
AcDbArc
 50
132.8834129999999
 51
202.591431
  0
ARC
  5
B385
330
B27F
100
AcDbEntity
  8
1
  6
Continuous
100
AcDbCircle
 10
29.5
 20
149.0124999999999
 30
0.0
 40
2.7875
100
AcDbArc
 50
237.8779199999999
 51
310.0162919999998
  0
ARC
  5
B386
330
B27F
100
AcDbEntity
  8
1
  6
Continuous
100
AcDbCircle
 10
31.49104
 20
146.64104
 30
0.0
 40
0.30896
100
AcDbArc
 50
0.0
 51
130.0162919999999
  0
LINE
  5
B387
330
B27F
100
AcDbEntity
  8
1
  6
Continuous
100
AcDbLine
 10
27.700075
 20
147.2650529999999
 30
0.0
 11
28.36098699999999
 21
147.9066949999999
 31
0.0
  0
LINE
  5
B388
330
B27F
100
AcDbEntity
  8
1
  6
Continuous
100
AcDbLine
 10
26.89999999999999
 20
147.995015
 30
0.0
 11
26.89999999999999
 21
147.878509
 31
0.0
  0
LINE
  5
B389
330
B27F
100
AcDbEntity
  8
1
  6
Continuous
100
AcDbLine
 10
27.4
 20
148.0
 30
0.0
 11
27.4
 21
147.5720509999999
 31
0.0
  0
LINE
  5
B38A
330
B27F
100
AcDbEntity
  8
1
  6
Continuous
100
AcDbLine
 10
28.079209
 20
146.379266
 30
0.0
 11
29.15407399999999
 21
145.7450959999999
 31
0.0
  0
LINE
  5
B38B
330
B27F
100
AcDbEntity
  8
1
  6
Continuous
100
AcDbLine
 10
28.1
 20
145.786461
 30
0.0
 11
28.9
 21
145.314461
 31
0.0
  0
ARC
  5
B38C
330
B27F
100
AcDbEntity
  8
1
  6
Continuous
100
AcDbCircle
 10
28.9
 20
145.314461
 30
0.0
 40
0.5
100
AcDbArc
 50
0.0
 51
59.45939499999999
  0
ARC
  5
B38D
330
B27F
100
AcDbEntity
  8
1
  6
Continuous
100
AcDbCircle
 10
27.4
 20
147.995015
 30
0.0
 40
0.5
100
AcDbArc
 50
98.05739500000001
 51
180.0
  0
ARC
  5
B38E
330
B27F
100
AcDbEntity
  8
1
  6
Continuous
100
AcDbCircle
 10
29.5
 20
149.0124999999999
 30
0.0
 40
1.587499999999999
100
AcDbArc
 50
214.550104
 51
341.5646869999999
  0
LINE
  5
B38F
330
B27F
100
AcDbEntity
  8
1
  6
Continuous
100
AcDbLine
 10
32.20000000000001
 20
134.8205
 30
0.0
 11
32.20000000000001
 21
135.3205
 31
0.0
  0
LINE
  5
B390
330
B27F
100
AcDbEntity
  8
1
  6
Continuous
100
AcDbLine
 10
32.20000000000001
 20
149.1794999999999
 30
0.0
 11
32.20000000000001
 21
148.6794999999998
 31
0.0
  0
ARC
  5
B391
330
B27F
100
AcDbEntity
  8
1
  6
Continuous
100
AcDbCircle
 10
473.15176
 20
148.3125339999999
 30
0.0
 40
0.5
100
AcDbArc
 50
299.767381
 51
47.116587
  0
ARC
  5
B392
330
B27F
100
AcDbEntity
  8
1
  6
Continuous
100
AcDbCircle
 10
474.1
 20
146.098959
 30
0.0
 40
1.9
100
AcDbArc
 50
129.1667109999999
 51
140.792799
  0
ARC
  5
B393
330
B27F
100
AcDbEntity
  8
1
  6
Continuous
100
AcDbCircle
 10
473.15176
 20
135.687466
 30
0.0
 40
0.5
100
AcDbArc
 50
312.8834129999999
 51
60.23261899999999
  0
ARC
  5
B394
330
B27F
100
AcDbEntity
  8
1
  6
Continuous
100
AcDbCircle
 10
474.1
 20
137.901041
 30
0.0
 40
1.9
100
AcDbArc
 50
219.2072009999999
 51
230.8332889999999
  0
LINE
  5
B395
330
B27F
100
AcDbEntity
  8
1
  6
Continuous
100
AcDbLine
 10
33.0
 20
146.64104
 30
0.0
 11
33.0
 21
137.35896
 31
0.0
  0
ARC
  5
B396
330
B27F
100
AcDbEntity
  8
1
  6
Continuous
100
AcDbCircle
 10
234.8
 20
149.0124999999999
 30
0.0
 40
1.587499999999999
100
AcDbArc
 50
327.090948
 51
347.8914909999998
  0
ARC
  5
B397
330
B27F
100
AcDbEntity
  8
1
  6
Continuous
100
AcDbCircle
 10
234.8
 20
149.0124999999999
 30
0.0
 40
1.587499999999999
100
AcDbArc
 50
6.038508
 51
24.57297999999999
  0
ARC
  5
B398
330
B27F
100
AcDbEntity
  8
1
  6
Continuous
100
AcDbCircle
 10
234.8
 20
149.0124999999999
 30
0.0
 40
1.587499999999999
100
AcDbArc
 50
155.4270199999999
 51
173.9614919999999
  0
ARC
  5
B399
330
B27F
100
AcDbEntity
  8
1
  6
Continuous
100
AcDbCircle
 10
234.8
 20
149.0124999999999
 30
0.0
 40
1.587499999999999
100
AcDbArc
 50
192.1085089999999
 51
212.9090519999999
  0
ARC
  5
B39A
330
B27F
100
AcDbEntity
  8
1
  6
Continuous
100
AcDbCircle
 10
244.7999999999999
 20
149.0124999999999
 30
0.0
 40
1.587499999999999
100
AcDbArc
 50
192.1085089999999
 51
212.9090519999999
  0
ARC
  5
B39B
330
B27F
100
AcDbEntity
  8
1
  6
Continuous
100
AcDbCircle
 10
244.7999999999999
 20
149.0124999999999
 30
0.0
 40
1.587499999999999
100
AcDbArc
 50
155.4270199999999
 51
173.9614919999999
  0
ARC
  5
B39C
330
B27F
100
AcDbEntity
  8
1
  6
Continuous
100
AcDbCircle
 10
244.7999999999999
 20
149.0124999999999
 30
0.0
 40
1.587499999999999
100
AcDbArc
 50
6.038508
 51
24.57297999999999
  0
ARC
  5
B39D
330
B27F
100
AcDbEntity
  8
1
  6
Continuous
100
AcDbCircle
 10
244.7999999999999
 20
149.0124999999999
 30
0.0
 40
1.587499999999999
100
AcDbArc
 50
327.090948
 51
347.8914909999998
  0
ARC
  5
B39E
330
B27F
100
AcDbEntity
  8
1
  6
Continuous
100
AcDbCircle
 10
254.8
 20
149.0124999999999
 30
0.0
 40
1.587499999999999
100
AcDbArc
 50
192.1085089999999
 51
212.9090519999999
  0
ARC
  5
B39F
330
B27F
100
AcDbEntity
  8
1
  6
Continuous
100
AcDbCircle
 10
254.8
 20
149.0124999999999
 30
0.0
 40
1.587499999999999
100
AcDbArc
 50
155.4270199999999
 51
173.9614919999999
  0
ARC
  5
B3A0
330
B27F
100
AcDbEntity
  8
1
  6
Continuous
100
AcDbCircle
 10
254.8
 20
149.0124999999999
 30
0.0
 40
1.587499999999999
100
AcDbArc
 50
327.090948
 51
347.8914909999998
  0
ARC
  5
B3A1
330
B27F
100
AcDbEntity
  8
1
  6
Continuous
100
AcDbCircle
 10
254.8
 20
149.0124999999999
 30
0.0
 40
1.587499999999999
100
AcDbArc
 50
6.038508
 51
24.57297999999999
  0
ARC
  5
B3A2
330
B27F
100
AcDbEntity
  8
1
  6
Continuous
100
AcDbCircle
 10
264.8
 20
149.0124999999999
 30
0.0
 40
1.587499999999999
100
AcDbArc
 50
6.038508
 51
24.57297999999999
  0
ARC
  5
B3A3
330
B27F
100
AcDbEntity
  8
1
  6
Continuous
100
AcDbCircle
 10
264.8
 20
149.0124999999999
 30
0.0
 40
1.587499999999999
100
AcDbArc
 50
327.090948
 51
347.8914909999998
  0
ARC
  5
B3A4
330
B27F
100
AcDbEntity
  8
1
  6
Continuous
100
AcDbCircle
 10
264.8
 20
149.0124999999999
 30
0.0
 40
1.587499999999999
100
AcDbArc
 50
155.4270199999999
 51
173.9614919999999
  0
ARC
  5
B3A5
330
B27F
100
AcDbEntity
  8
1
  6
Continuous
100
AcDbCircle
 10
264.8
 20
149.0124999999999
 30
0.0
 40
1.587499999999999
100
AcDbArc
 50
192.1085089999999
 51
212.9090519999999
  0
ARC
  5
B3A6
330
B27F
100
AcDbEntity
  8
1
  6
Continuous
100
AcDbCircle
 10
274.8
 20
149.0124999999999
 30
0.0
 40
1.587499999999999
100
AcDbArc
 50
192.1085089999999
 51
212.9090519999999
  0
ARC
  5
B3A7
330
B27F
100
AcDbEntity
  8
1
  6
Continuous
100
AcDbCircle
 10
274.8
 20
149.0124999999999
 30
0.0
 40
1.587499999999999
100
AcDbArc
 50
155.4270199999999
 51
173.9614919999999
  0
ARC
  5
B3A8
330
B27F
100
AcDbEntity
  8
1
  6
Continuous
100
AcDbCircle
 10
274.8
 20
149.0124999999999
 30
0.0
 40
1.587499999999999
100
AcDbArc
 50
327.090948
 51
347.8914909999998
  0
ARC
  5
B3A9
330
B27F
100
AcDbEntity
  8
1
  6
Continuous
100
AcDbCircle
 10
274.8
 20
149.0124999999999
 30
0.0
 40
1.587499999999999
100
AcDbArc
 50
6.038508
 51
24.57297999999999
  0
ARC
  5
B3AA
330
B27F
100
AcDbEntity
  8
1
  6
Continuous
100
AcDbCircle
 10
224.8
 20
134.9875
 30
0.0
 40
1.587499999999999
100
AcDbArc
 50
12.108509
 51
32.909052
  0
ARC
  5
B3AB
330
B27F
100
AcDbEntity
  8
1
  6
Continuous
100
AcDbCircle
 10
224.8
 20
134.9875
 30
0.0
 40
1.587499999999999
100
AcDbArc
 50
335.4270200000001
 51
353.9614919999999
  0
ARC
  5
B3AC
330
B27F
100
AcDbEntity
  8
1
  6
Continuous
100
AcDbCircle
 10
224.8
 20
134.9875
 30
0.0
 40
1.587499999999999
100
AcDbArc
 50
186.038508
 51
204.57298
  0
ARC
  5
B3AD
330
B27F
100
AcDbEntity
  8
1
  6
Continuous
100
AcDbCircle
 10
224.8
 20
134.9875
 30
0.0
 40
1.587499999999999
100
AcDbArc
 50
147.0909479999999
 51
167.891491
  0
ARC
  5
B3AE
330
B27F
100
AcDbEntity
  8
1
  6
Continuous
100
AcDbCircle
 10
234.8
 20
134.9875
 30
0.0
 40
1.587499999999999
100
AcDbArc
 50
147.0909479999999
 51
167.891491
  0
ARC
  5
B3AF
330
B27F
100
AcDbEntity
  8
1
  6
Continuous
100
AcDbCircle
 10
234.8
 20
134.9875
 30
0.0
 40
1.587499999999999
100
AcDbArc
 50
186.038508
 51
204.57298
  0
ARC
  5
B3B0
330
B27F
100
AcDbEntity
  8
1
  6
Continuous
100
AcDbCircle
 10
234.8
 20
134.9875
 30
0.0
 40
1.587499999999999
100
AcDbArc
 50
335.4270200000001
 51
353.9614919999999
  0
ARC
  5
B3B1
330
B27F
100
AcDbEntity
  8
1
  6
Continuous
100
AcDbCircle
 10
234.8
 20
134.9875
 30
0.0
 40
1.587499999999999
100
AcDbArc
 50
12.108509
 51
32.909052
  0
ARC
  5
B3B2
330
B27F
100
AcDbEntity
  8
1
  6
Continuous
100
AcDbCircle
 10
244.7999999999999
 20
134.9875
 30
0.0
 40
1.587499999999999
100
AcDbArc
 50
147.0909479999999
 51
167.891491
  0
ARC
  5
B3B3
330
B27F
100
AcDbEntity
  8
1
  6
Continuous
100
AcDbCircle
 10
244.7999999999999
 20
134.9875
 30
0.0
 40
1.587499999999999
100
AcDbArc
 50
186.038508
 51
204.57298
  0
ARC
  5
B3B4
330
B27F
100
AcDbEntity
  8
1
  6
Continuous
100
AcDbCircle
 10
244.7999999999999
 20
134.9875
 30
0.0
 40
1.587499999999999
100
AcDbArc
 50
12.108509
 51
32.909052
  0
ARC
  5
B3B5
330
B27F
100
AcDbEntity
  8
1
  6
Continuous
100
AcDbCircle
 10
244.7999999999999
 20
134.9875
 30
0.0
 40
1.587499999999999
100
AcDbArc
 50
335.4270200000001
 51
353.9614919999999
  0
ARC
  5
B3B6
330
B27F
100
AcDbEntity
  8
1
  6
Continuous
100
AcDbCircle
 10
254.8
 20
134.9875
 30
0.0
 40
1.587499999999999
100
AcDbArc
 50
335.4270200000001
 51
353.9614919999999
  0
ARC
  5
B3B7
330
B27F
100
AcDbEntity
  8
1
  6
Continuous
100
AcDbCircle
 10
254.8
 20
134.9875
 30
0.0
 40
1.587499999999999
100
AcDbArc
 50
12.108509
 51
32.909052
  0
ARC
  5
B3B8
330
B27F
100
AcDbEntity
  8
1
  6
Continuous
100
AcDbCircle
 10
254.8
 20
134.9875
 30
0.0
 40
1.587499999999999
100
AcDbArc
 50
186.038508
 51
204.57298
  0
ARC
  5
B3B9
330
B27F
100
AcDbEntity
  8
1
  6
Continuous
100
AcDbCircle
 10
254.8
 20
134.9875
 30
0.0
 40
1.587499999999999
100
AcDbArc
 50
147.0909479999999
 51
167.891491
  0
ARC
  5
B3BA
330
B27F
100
AcDbEntity
  8
1
  6
Continuous
100
AcDbCircle
 10
264.8
 20
134.9875
 30
0.0
 40
1.587499999999999
100
AcDbArc
 50
147.0909479999999
 51
167.891491
  0
ARC
  5
B3BB
330
B27F
100
AcDbEntity
  8
1
  6
Continuous
100
AcDbCircle
 10
264.8
 20
134.9875
 30
0.0
 40
1.587499999999999
100
AcDbArc
 50
186.038508
 51
204.57298
  0
ARC
  5
B3BC
330
B27F
100
AcDbEntity
  8
1
  6
Continuous
100
AcDbCircle
 10
264.8
 20
134.9875
 30
0.0
 40
1.587499999999999
100
AcDbArc
 50
12.108509
 51
32.909052
  0
ARC
  5
B3BD
330
B27F
100
AcDbEntity
  8
1
  6
Continuous
100
AcDbCircle
 10
264.8
 20
134.9875
 30
0.0
 40
1.587499999999999
100
AcDbArc
 50
335.4270200000001
 51
353.9614919999999
  0
ARC
  5
B3BE
330
B27F
100
AcDbEntity
  8
1
  6
Continuous
100
AcDbCircle
 10
274.8
 20
134.9875
 30
0.0
 40
1.587499999999999
100
AcDbArc
 50
186.038508
 51
204.57298
  0
ARC
  5
B3BF
330
B27F
100
AcDbEntity
  8
1
  6
Continuous
100
AcDbCircle
 10
274.8
 20
134.9875
 30
0.0
 40
1.587499999999999
100
AcDbArc
 50
147.0909479999999
 51
167.891491
  0
ARC
  5
B3C0
330
B27F
100
AcDbEntity
  8
1
  6
Continuous
100
AcDbCircle
 10
274.8
 20
134.9875
 30
0.0
 40
1.587499999999999
100
AcDbArc
 50
335.4270200000001
 51
353.9614919999999
  0
ARC
  5
B3C1
330
B27F
100
AcDbEntity
  8
1
  6
Continuous
100
AcDbCircle
 10
274.8
 20
134.9875
 30
0.0
 40
1.587499999999999
100
AcDbArc
 50
12.108509
 51
32.909052
  0
LINE
  5
B3C2
330
B27F
100
AcDbEntity
  8
1
  6
Continuous
100
AcDbLine
 10
83.29999999999998
 20
240.5
 30
0.0
 11
83.29999999999998
 21
235.0
 31
0.0
  0
LINE
  5
B3C3
330
B27F
100
AcDbEntity
  8
1
  6
Continuous
100
AcDbLine
 10
280.3
 20
235.0
 30
0.0
 11
280.3
 21
235.9219289999999
 31
0.0
  0
LINE
  5
B3C4
330
B27F
100
AcDbEntity
  8
1
  6
Continuous
100
AcDbLine
 10
280.3
 20
235.0
 30
0.0
 11
83.29999999999998
 21
235.0
 31
0.0
  0
LINE
  5
B3C5
330
B27F
100
AcDbEntity
  8
3
  6
DASHED
100
AcDbLine
 10
280.3
 20
240.5
 30
0.0
 11
217.3
 21
240.5
 31
0.0
  0
LINE
  5
B3C6
330
B27F
100
AcDbEntity
  8
1
  6
Continuous
100
AcDbLine
 10
217.3
 20
235.9219289999999
 30
0.0
 11
417.3
 21
235.9219289999999
 31
0.0
  0
LINE
  5
B3C7
330
B27F
100
AcDbEntity
  8
1
  6
Continuous
100
AcDbLine
 10
417.3
 20
243.0
 30
0.0
 11
217.3
 21
243.0
 31
0.0
  0
LINE
  5
B3C8
330
B27F
100
AcDbEntity
  8
1
  6
Continuous
100
AcDbLine
 10
217.3
 20
235.9219289999999
 30
0.0
 11
217.3
 21
243.0
 31
0.0
  0
LINE
  5
B3C9
330
B27F
100
AcDbEntity
  8
1
  6
Continuous
100
AcDbLine
 10
417.3
 20
235.9219289999999
 30
0.0
 11
417.3
 21
243.0
 31
0.0
  0
LINE
  5
B3CA
330
B27F
100
AcDbEntity
  8
1
  6
Continuous
100
AcDbLine
 10
217.3
 20
240.5
 30
0.0
 11
83.29999999999998
 21
240.5
 31
0.0
  0
LINE
  5
B3CB
330
B27F
100
AcDbEntity
  8
3
  6
DASHED
100
AcDbLine
 10
280.3
 20
235.9219289999999
 30
0.0
 11
280.3
 21
240.5
 31
0.0
  0
LINE
  5
B3CC
330
B27F
100
AcDbEntity
  8
4
  6
CENTER
100
AcDbLine
 10
397.3
 20
246.0
 30
0.0
 11
397.3
 21
240.082188
 31
0.0
  0
LINE
  5
B3CD
330
B27F
100
AcDbEntity
  8
4
  6
CENTER
100
AcDbLine
 10
382.3
 20
246.0
 30
0.0
 11
382.3
 21
239.991885
 31
0.0
  0
LINE
  5
B3CE
330
B27F
100
AcDbEntity
  8
4
  6
CENTER
100
AcDbLine
 10
362.3
 20
246.0
 30
0.0
 11
362.3
 21
239.991885
 31
0.0
  0
LINE
  5
B3CF
330
B27F
100
AcDbEntity
  8
4
  6
CENTER
100
AcDbLine
 10
337.3
 20
246.0
 30
0.0
 11
337.3
 21
240.3530959999999
 31
0.0
  0
LINE
  5
B3D0
330
B27F
100
AcDbEntity
  8
4
  6
CENTER
100
AcDbLine
 10
252.3
 20
246.0
 30
0.0
 11
252.3
 21
240.2627929999999
 31
0.0
  0
LINE
  5
B3D1
330
B27F
100
AcDbEntity
  8
4
  6
CENTER
100
AcDbLine
 10
237.3
 20
246.0
 30
0.0
 11
237.3
 21
240.7143079999999
 31
0.0
  0
LINE
  5
B3D2
330
B27F
100
AcDbEntity
  8
4
  6
CENTER
100
AcDbLine
 10
263.3
 20
237.739768
 30
0.0
 11
263.3
 21
232.5
 31
0.0
  0
LINE
  5
B3D3
330
B27F
100
AcDbEntity
  8
4
  6
CENTER
100
AcDbLine
 10
248.3
 20
237.649465
 30
0.0
 11
248.3
 21
232.5
 31
0.0
  0
LINE
  5
B3D4
330
B27F
100
AcDbEntity
  8
4
  6
CENTER
100
AcDbLine
 10
203.3
 20
237.739768
 30
0.0
 11
203.3
 21
232.5
 31
0.0
  0
LINE
  5
B3D5
330
B27F
100
AcDbEntity
  8
4
  6
CENTER
100
AcDbLine
 10
158.3
 20
237.739768
 30
0.0
 11
158.3
 21
232.5
 31
0.0
  0
LINE
  5
B3D6
330
B27F
100
AcDbEntity
  8
4
  6
CENTER
100
AcDbLine
 10
118.3
 20
237.739768
 30
0.0
 11
118.3
 21
232.5
 31
0.0
  0
LINE
  5
B3D7
330
B27F
100
AcDbEntity
  8
4
  6
CENTER
100
AcDbLine
 10
103.2999999999999
 20
238.10098
 30
0.0
 11
103.2999999999999
 21
232.5
 31
0.0
  0
LINE
  5
B3D8
330
B27F
100
AcDbEntity
  8
1
  6
Continuous
100
AcDbLine
 10
228.8
 20
235.8
 30
0.0
 11
220.8
 21
235.8
 31
0.0
  0
LINE
  5
B3D9
330
B27F
100
AcDbEntity
  8
1
  6
Continuous
100
AcDbLine
 10
220.8
 20
235.8
 30
0.0
 11
220.8
 21
235.9219289999999
 31
0.0
  0
LINE
  5
B3DA
330
B27F
100
AcDbEntity
  8
1
  6
Continuous
100
AcDbLine
 10
228.8
 20
235.8
 30
0.0
 11
228.8
 21
235.9219289999999
 31
0.0
  0
LINE
  5
B3DB
330
B27F
100
AcDbEntity
  8
1
  6
Continuous
100
AcDbLine
 10
238.8
 20
235.8
 30
0.0
 11
230.8
 21
235.8
 31
0.0
  0
LINE
  5
B3DC
330
B27F
100
AcDbEntity
  8
1
  6
Continuous
100
AcDbLine
 10
230.8
 20
235.8
 30
0.0
 11
230.8
 21
235.9219289999999
 31
0.0
  0
LINE
  5
B3DD
330
B27F
100
AcDbEntity
  8
1
  6
Continuous
100
AcDbLine
 10
238.8
 20
235.8
 30
0.0
 11
238.8
 21
235.9219289999999
 31
0.0
  0
LINE
  5
B3DE
330
B27F
100
AcDbEntity
  8
1
  6
Continuous
100
AcDbLine
 10
248.7999999999999
 20
235.8
 30
0.0
 11
248.7999999999999
 21
235.9219289999999
 31
0.0
  0
LINE
  5
B3DF
330
B27F
100
AcDbEntity
  8
1
  6
Continuous
100
AcDbLine
 10
240.8
 20
235.8
 30
0.0
 11
240.8
 21
235.9219289999999
 31
0.0
  0
LINE
  5
B3E0
330
B27F
100
AcDbEntity
  8
1
  6
Continuous
100
AcDbLine
 10
248.7999999999999
 20
235.8
 30
0.0
 11
240.8
 21
235.8
 31
0.0
  0
LINE
  5
B3E1
330
B27F
100
AcDbEntity
  8
1
  6
Continuous
100
AcDbLine
 10
258.8
 20
235.8
 30
0.0
 11
250.8
 21
235.8
 31
0.0
  0
LINE
  5
B3E2
330
B27F
100
AcDbEntity
  8
1
  6
Continuous
100
AcDbLine
 10
250.8
 20
235.8
 30
0.0
 11
250.8
 21
235.9219289999999
 31
0.0
  0
LINE
  5
B3E3
330
B27F
100
AcDbEntity
  8
1
  6
Continuous
100
AcDbLine
 10
258.8
 20
235.8
 30
0.0
 11
258.8
 21
235.9219289999999
 31
0.0
  0
LINE
  5
B3E4
330
B27F
100
AcDbEntity
  8
1
  6
Continuous
100
AcDbLine
 10
268.8
 20
235.8
 30
0.0
 11
268.8
 21
235.9219289999999
 31
0.0
  0
LINE
  5
B3E5
330
B27F
100
AcDbEntity
  8
1
  6
Continuous
100
AcDbLine
 10
260.8
 20
235.8
 30
0.0
 11
260.8
 21
235.9219289999999
 31
0.0
  0
LINE
  5
B3E6
330
B27F
100
AcDbEntity
  8
1
  6
Continuous
100
AcDbLine
 10
268.8
 20
235.8
 30
0.0
 11
260.8
 21
235.8
 31
0.0
  0
LINE
  5
B3E7
330
B27F
100
AcDbEntity
  8
1
  6
Continuous
100
AcDbLine
 10
278.8
 20
235.8
 30
0.0
 11
270.8
 21
235.8
 31
0.0
  0
LINE
  5
B3E8
330
B27F
100
AcDbEntity
  8
1
  6
Continuous
100
AcDbLine
 10
270.8
 20
235.8
 30
0.0
 11
270.8
 21
235.9219289999999
 31
0.0
  0
LINE
  5
B3E9
330
B27F
100
AcDbEntity
  8
1
  6
Continuous
100
AcDbLine
 10
278.8
 20
235.8
 30
0.0
 11
278.8
 21
235.9219289999999
 31
0.0
  0
LINE
  5
B3EA
330
B27F
100
AcDbEntity
  8
1
  6
Continuous
100
AcDbLine
 10
217.3
 20
43.5
 30
0.0
 11
83.29999999999998
 21
43.5
 31
0.0
  0
LINE
  5
B3EB
330
B27F
100
AcDbEntity
  8
1
  6
Continuous
100
AcDbLine
 10
280.3
 20
49.0
 30
0.0
 11
83.29999999999998
 21
49.0
 31
0.0
  0
LINE
  5
B3EC
330
B27F
100
AcDbEntity
  8
1
  6
Continuous
100
AcDbLine
 10
83.29999999999998
 20
43.5
 30
0.0
 11
83.29999999999998
 21
49.0
 31
0.0
  0
LINE
  5
B3ED
330
B27F
100
AcDbEntity
  8
4
  6
CENTER
100
AcDbLine
 10
103.2999999999999
 20
45.89902
 30
0.0
 11
103.2999999999999
 21
51.5
 31
0.0
  0
LINE
  5
B3EE
330
B27F
100
AcDbEntity
  8
4
  6
CENTER
100
AcDbLine
 10
118.3
 20
46.260232
 30
0.0
 11
118.3
 21
51.5
 31
0.0
  0
LINE
  5
B3EF
330
B27F
100
AcDbEntity
  8
4
  6
CENTER
100
AcDbLine
 10
158.3
 20
46.260232
 30
0.0
 11
158.3
 21
51.5
 31
0.0
  0
LINE
  5
B3F0
330
B27F
100
AcDbEntity
  8
1
  6
Continuous
100
AcDbLine
 10
417.3
 20
41.0
 30
0.0
 11
217.3
 21
41.0
 31
0.0
  0
LINE
  5
B3F1
330
B27F
100
AcDbEntity
  8
1
  6
Continuous
100
AcDbLine
 10
217.3
 20
48.078071
 30
0.0
 11
417.3
 21
48.078071
 31
0.0
  0
LINE
  5
B3F2
330
B27F
100
AcDbEntity
  8
1
  6
Continuous
100
AcDbLine
 10
248.7999999999999
 20
48.2
 30
0.0
 11
240.8
 21
48.2
 31
0.0
  0
LINE
  5
B3F3
330
B27F
100
AcDbEntity
  8
3
  6
DASHED
100
AcDbLine
 10
280.3
 20
43.5
 30
0.0
 11
217.3
 21
43.5
 31
0.0
  0
LINE
  5
B3F4
330
B27F
100
AcDbEntity
  8
4
  6
CENTER
100
AcDbLine
 10
203.3
 20
46.260232
 30
0.0
 11
203.3
 21
51.5
 31
0.0
  0
LINE
  5
B3F5
330
B27F
100
AcDbEntity
  8
4
  6
CENTER
100
AcDbLine
 10
237.3
 20
38.0
 30
0.0
 11
237.3
 21
43.28569199999999
 31
0.0
  0
LINE
  5
B3F6
330
B27F
100
AcDbEntity
  8
1
  6
Continuous
100
AcDbLine
 10
228.8
 20
48.2
 30
0.0
 11
220.8
 21
48.2
 31
0.0
  0
LINE
  5
B3F7
330
B27F
100
AcDbEntity
  8
1
  6
Continuous
100
AcDbLine
 10
220.8
 20
48.2
 30
0.0
 11
220.8
 21
48.078071
 31
0.0
  0
LINE
  5
B3F8
330
B27F
100
AcDbEntity
  8
1
  6
Continuous
100
AcDbLine
 10
217.3
 20
48.078071
 30
0.0
 11
217.3
 21
41.0
 31
0.0
  0
LINE
  5
B3F9
330
B27F
100
AcDbEntity
  8
1
  6
Continuous
100
AcDbLine
 10
240.8
 20
48.2
 30
0.0
 11
240.8
 21
48.078071
 31
0.0
  0
LINE
  5
B3FA
330
B27F
100
AcDbEntity
  8
1
  6
Continuous
100
AcDbLine
 10
238.8
 20
48.2
 30
0.0
 11
238.8
 21
48.078071
 31
0.0
  0
LINE
  5
B3FB
330
B27F
100
AcDbEntity
  8
1
  6
Continuous
100
AcDbLine
 10
230.8
 20
48.2
 30
0.0
 11
230.8
 21
48.078071
 31
0.0
  0
LINE
  5
B3FC
330
B27F
100
AcDbEntity
  8
1
  6
Continuous
100
AcDbLine
 10
238.8
 20
48.2
 30
0.0
 11
230.8
 21
48.2
 31
0.0
  0
LINE
  5
B3FD
330
B27F
100
AcDbEntity
  8
1
  6
Continuous
100
AcDbLine
 10
228.8
 20
48.2
 30
0.0
 11
228.8
 21
48.078071
 31
0.0
  0
LINE
  5
B3FE
330
B27F
100
AcDbEntity
  8
1
  6
Continuous
100
AcDbLine
 10
278.8
 20
48.2
 30
0.0
 11
270.8
 21
48.2
 31
0.0
  0
LINE
  5
B3FF
330
B27F
100
AcDbEntity
  8
4
  6
CENTER
100
AcDbLine
 10
252.3
 20
38.0
 30
0.0
 11
252.3
 21
43.73720699999998
 31
0.0
  0
LINE
  5
B400
330
B27F
100
AcDbEntity
  8
1
  6
Continuous
100
AcDbLine
 10
258.8
 20
48.2
 30
0.0
 11
258.8
 21
48.078071
 31
0.0
  0
LINE
  5
B401
330
B27F
100
AcDbEntity
  8
1
  6
Continuous
100
AcDbLine
 10
250.8
 20
48.2
 30
0.0
 11
250.8
 21
48.078071
 31
0.0
  0
LINE
  5
B402
330
B27F
100
AcDbEntity
  8
1
  6
Continuous
100
AcDbLine
 10
258.8
 20
48.2
 30
0.0
 11
250.8
 21
48.2
 31
0.0
  0
LINE
  5
B403
330
B27F
100
AcDbEntity
  8
1
  6
Continuous
100
AcDbLine
 10
248.7999999999999
 20
48.2
 30
0.0
 11
248.7999999999999
 21
48.078071
 31
0.0
  0
LINE
  5
B404
330
B27F
100
AcDbEntity
  8
4
  6
CENTER
100
AcDbLine
 10
248.3
 20
46.350535
 30
0.0
 11
248.3
 21
51.5
 31
0.0
  0
LINE
  5
B405
330
B27F
100
AcDbEntity
  8
1
  6
Continuous
100
AcDbLine
 10
270.8
 20
48.2
 30
0.0
 11
270.8
 21
48.078071
 31
0.0
  0
LINE
  5
B406
330
B27F
100
AcDbEntity
  8
1
  6
Continuous
100
AcDbLine
 10
268.8
 20
48.2
 30
0.0
 11
260.8
 21
48.2
 31
0.0
  0
LINE
  5
B407
330
B27F
100
AcDbEntity
  8
1
  6
Continuous
100
AcDbLine
 10
260.8
 20
48.2
 30
0.0
 11
260.8
 21
48.078071
 31
0.0
  0
LINE
  5
B408
330
B27F
100
AcDbEntity
  8
1
  6
Continuous
100
AcDbLine
 10
268.8
 20
48.2
 30
0.0
 11
268.8
 21
48.078071
 31
0.0
  0
LINE
  5
B409
330
B27F
100
AcDbEntity
  8
4
  6
CENTER
100
AcDbLine
 10
263.3
 20
46.260232
 30
0.0
 11
263.3
 21
51.5
 31
0.0
  0
LINE
  5
B40A
330
B27F
100
AcDbEntity
  8
1
  6
Continuous
100
AcDbLine
 10
278.8
 20
48.2
 30
0.0
 11
278.8
 21
48.078071
 31
0.0
  0
LINE
  5
B40B
330
B27F
100
AcDbEntity
  8
3
  6
DASHED
100
AcDbLine
 10
280.3
 20
48.078071
 30
0.0
 11
280.3
 21
43.5
 31
0.0
  0
LINE
  5
B40C
330
B27F
100
AcDbEntity
  8
1
  6
Continuous
100
AcDbLine
 10
280.3
 20
49.0
 30
0.0
 11
280.3
 21
48.078071
 31
0.0
  0
LINE
  5
B40D
330
B27F
100
AcDbEntity
  8
4
  6
CENTER
100
AcDbLine
 10
337.3
 20
38.0
 30
0.0
 11
337.3
 21
43.64690399999999
 31
0.0
  0
LINE
  5
B40E
330
B27F
100
AcDbEntity
  8
4
  6
CENTER
100
AcDbLine
 10
362.3
 20
38.0
 30
0.0
 11
362.3
 21
44.00811499999998
 31
0.0
  0
LINE
  5
B40F
330
B27F
100
AcDbEntity
  8
4
  6
CENTER
100
AcDbLine
 10
382.3
 20
38.0
 30
0.0
 11
382.3
 21
44.00811499999998
 31
0.0
  0
LINE
  5
B410
330
B27F
100
AcDbEntity
  8
4
  6
CENTER
100
AcDbLine
 10
397.3
 20
38.0
 30
0.0
 11
397.3
 21
43.91781199999999
 31
0.0
  0
LINE
  5
B411
330
B27F
100
AcDbEntity
  8
1
  6
Continuous
100
AcDbLine
 10
417.3
 20
48.078071
 30
0.0
 11
417.3
 21
41.0
 31
0.0
  0
LINE
  5
B412
330
B27F
100
AcDbEntity
  8
3
  6
DASHED
100
AcDbLine
 10
280.3
 20
329.85
 30
0.0
 11
217.3
 21
329.85
 31
0.0
  0
LINE
  5
B413
330
B27F
100
AcDbEntity
  8
1
  6
Continuous
100
AcDbLine
 10
83.29999999999998
 20
342.1499999999999
 30
0.0
 11
217.3
 21
342.1499999999999
 31
0.0
  0
LINE
  5
B414
330
B27F
100
AcDbEntity
  8
4
  6
CENTER
100
AcDbLine
 10
420.3
 20
336.0
 30
0.0
 11
80.0
 21
336.0
 31
0.0
  0
LINE
  5
B415
330
B27F
100
AcDbEntity
  8
1
  6
Continuous
100
AcDbLine
 10
83.29999999999998
 20
329.85
 30
0.0
 11
83.29999999999998
 21
342.1499999999999
 31
0.0
  0
LINE
  5
B416
330
B27F
100
AcDbEntity
  8
4
  6
CENTER
100
AcDbLine
 10
103.2999999999999
 20
332.660437
 30
0.0
 11
103.2999999999999
 21
339.1622499999999
 31
0.0
  0
CIRCLE
  5
B417
330
B27F
100
AcDbEntity
  8
1
  6
Continuous
100
AcDbCircle
 10
103.2999999999999
 20
336.0
 30
0.0
 40
1.6
  0
LINE
  5
B418
330
B27F
100
AcDbEntity
  8
1
  6
Continuous
100
AcDbLine
 10
118.5999999999998
 20
334.3999999999998
 30
0.0
 11
118.0
 21
334.3999999999998
 31
0.0
  0
LINE
  5
B419
330
B27F
100
AcDbEntity
  8
1
  6
Continuous
100
AcDbLine
 10
118.0
 20
337.6
 30
0.0
 11
118.5999999999998
 21
337.6
 31
0.0
  0
LINE
  5
B41A
330
B27F
100
AcDbEntity
  8
4
  6
CENTER
100
AcDbLine
 10
118.3
 20
333.021649
 30
0.0
 11
118.3
 21
339.1622499999999
 31
0.0
  0
ARC
  5
B41B
330
B27F
100
AcDbEntity
  8
1
  6
Continuous
100
AcDbCircle
 10
118.0
 20
336.0
 30
0.0
 40
1.6
100
AcDbArc
 50
90.0
 51
270.0
  0
ARC
  5
B41C
330
B27F
100
AcDbEntity
  8
1
  6
Continuous
100
AcDbCircle
 10
118.5999999999998
 20
336.0
 30
0.0
 40
1.6
100
AcDbArc
 50
270.0
 51
90.0
  0
LINE
  5
B41D
330
B27F
100
AcDbEntity
  8
4
  6
CENTER
100
AcDbLine
 10
158.3
 20
331.05
 30
0.0
 11
158.3
 21
340.9499999999998
 31
0.0
  0
CIRCLE
  5
B41E
330
B27F
100
AcDbEntity
  8
1
  6
Continuous
100
AcDbCircle
 10
158.3
 20
336.0
 30
0.0
 40
3.649999999999999
  0
ARC
  5
B41F
330
B27F
100
AcDbEntity
  8
1
  6
Continuous
100
AcDbCircle
 10
416.6999999999998
 20
329.7
 30
0.0
 40
1.0
100
AcDbArc
 50
90.0
 51
225.0
  0
LINE
  5
B420
330
B27F
100
AcDbEntity
  8
3
  6
DASHED
100
AcDbLine
 10
280.3
 20
342.1499999999999
 30
0.0
 11
280.3
 21
329.85
 31
0.0
  0
LINE
  5
B421
330
B27F
100
AcDbEntity
  8
1
  6
Continuous
100
AcDbLine
 10
217.3
 20
346.0
 30
0.0
 11
417.3
 21
346.0
 31
0.0
  0
LINE
  5
B422
330
B27F
100
AcDbEntity
  8
1
  6
Continuous
100
AcDbLine
 10
203.6
 20
334.3999999999998
 30
0.0
 11
203.0
 21
334.3999999999998
 31
0.0
  0
LINE
  5
B423
330
B27F
100
AcDbEntity
  8
1
  6
Continuous
100
AcDbLine
 10
203.0
 20
337.6
 30
0.0
 11
203.6
 21
337.6
 31
0.0
  0
LINE
  5
B424
330
B27F
100
AcDbEntity
  8
4
  6
CENTER
100
AcDbLine
 10
203.3
 20
333.021649
 30
0.0
 11
203.3
 21
338.981645
 31
0.0
  0
ARC
  5
B425
330
B27F
100
AcDbEntity
  8
1
  6
Continuous
100
AcDbCircle
 10
203.0
 20
336.0
 30
0.0
 40
1.6
100
AcDbArc
 50
90.0
 51
270.0
  0
ARC
  5
B426
330
B27F
100
AcDbEntity
  8
1
  6
Continuous
100
AcDbCircle
 10
203.6
 20
336.0
 30
0.0
 40
1.6
100
AcDbArc
 50
270.0
 51
90.0
  0
LINE
  5
B427
330
B27F
100
AcDbEntity
  8
4
  6
CENTER
100
AcDbLine
 10
237.3
 20
333.1119519999999
 30
0.0
 11
237.3
 21
338.53013
 31
0.0
  0
LINE
  5
B428
330
B27F
100
AcDbEntity
  8
1
  6
Continuous
100
AcDbLine
 10
252.0
 20
334.3999999999998
 30
0.0
 11
252.5999999999999
 21
334.3999999999998
 31
0.0
  0
LINE
  5
B429
330
B27F
100
AcDbEntity
  8
1
  6
Continuous
100
AcDbLine
 10
252.5999999999999
 20
337.6
 30
0.0
 11
252.0
 21
337.6
 31
0.0
  0
LINE
  5
B42A
330
B27F
100
AcDbEntity
  8
4
  6
CENTER
100
AcDbLine
 10
248.3
 20
333.1119519999999
 30
0.0
 11
248.3
 21
338.7107359999999
 31
0.0
  0
ARC
  5
B42B
330
B27F
100
AcDbEntity
  8
1
  6
Continuous
100
AcDbCircle
 10
252.5999999999999
 20
336.0
 30
0.0
 40
1.6
100
AcDbArc
 50
270.0
 51
90.0
  0
ARC
  5
B42C
330
B27F
100
AcDbEntity
  8
1
  6
Continuous
100
AcDbCircle
 10
252.0
 20
336.0
 30
0.0
 40
1.6
100
AcDbArc
 50
90.0
 51
270.0
  0
LINE
  5
B42D
330
B27F
100
AcDbEntity
  8
4
  6
CENTER
100
AcDbLine
 10
252.3
 20
333.1119519999999
 30
0.0
 11
252.3
 21
338.981645
 31
0.0
  0
LINE
  5
B42E
330
B27F
100
AcDbEntity
  8
4
  6
CENTER
100
AcDbLine
 10
263.3
 20
333.021649
 30
0.0
 11
263.3
 21
338.6204329999998
 31
0.0
  0
CIRCLE
  5
B42F
330
B27F
100
AcDbEntity
  8
1
  6
Continuous
100
AcDbCircle
 10
237.3
 20
336.0
 30
0.0
 40
1.6
  0
ARC
  5
B430
330
B27F
100
AcDbEntity
  8
1
  6
Continuous
100
AcDbCircle
 10
337.6
 20
336.0
 30
0.0
 40
1.6
100
AcDbArc
 50
270.0
 51
90.0
  0
LINE
  5
B431
330
B27F
100
AcDbEntity
  8
1
  6
Continuous
100
AcDbLine
 10
337.6
 20
334.3999999999998
 30
0.0
 11
337.0
 21
334.3999999999998
 31
0.0
  0
LINE
  5
B432
330
B27F
100
AcDbEntity
  8
1
  6
Continuous
100
AcDbLine
 10
337.0
 20
337.6
 30
0.0
 11
337.6
 21
337.6
 31
0.0
  0
LINE
  5
B433
330
B27F
100
AcDbEntity
  8
4
  6
CENTER
100
AcDbLine
 10
337.3
 20
332.570134
 30
0.0
 11
337.3
 21
338.891342
 31
0.0
  0
ARC
  5
B434
330
B27F
100
AcDbEntity
  8
1
  6
Continuous
100
AcDbCircle
 10
337.0
 20
336.0
 30
0.0
 40
1.6
100
AcDbArc
 50
90.0
 51
270.0
  0
LINE
  5
B435
330
B27F
100
AcDbEntity
  8
4
  6
CENTER
100
AcDbLine
 10
362.3
 20
330.8543779999999
 30
0.0
 11
362.3
 21
340.787704
 31
0.0
  0
CIRCLE
  5
B436
330
B27F
100
AcDbEntity
  8
1
  6
Continuous
100
AcDbCircle
 10
362.3
 20
336.0
 30
0.0
 40
3.649999999999999
  0
LINE
  5
B437
330
B27F
100
AcDbEntity
  8
1
  6
Continuous
100
AcDbLine
 10
382.6
 20
334.3999999999998
 30
0.0
 11
382.0
 21
334.3999999999998
 31
0.0
  0
LINE
  5
B438
330
B27F
100
AcDbEntity
  8
1
  6
Continuous
100
AcDbLine
 10
382.0
 20
337.6
 30
0.0
 11
382.6
 21
337.6
 31
0.0
  0
LINE
  5
B439
330
B27F
100
AcDbEntity
  8
4
  6
CENTER
100
AcDbLine
 10
382.3
 20
332.841043
 30
0.0
 11
382.3
 21
339.2525529999999
 31
0.0
  0
ARC
  5
B43A
330
B27F
100
AcDbEntity
  8
1
  6
Continuous
100
AcDbCircle
 10
382.0
 20
336.0
 30
0.0
 40
1.6
100
AcDbArc
 50
90.0
 51
270.0
  0
ARC
  5
B43B
330
B27F
100
AcDbEntity
  8
1
  6
Continuous
100
AcDbCircle
 10
382.6
 20
336.0
 30
0.0
 40
1.6
100
AcDbArc
 50
270.0
 51
90.0
  0
LINE
  5
B43C
330
B27F
100
AcDbEntity
  8
4
  6
CENTER
100
AcDbLine
 10
397.3
 20
332.841043
 30
0.0
 11
397.3
 21
339.1622499999999
 31
0.0
  0
LINE
  5
B43D
330
B27F
100
AcDbEntity
  8
1
  6
Continuous
100
AcDbLine
 10
416.6999999999998
 20
330.6999999999998
 30
0.0
 11
417.3
 21
330.6999999999998
 31
0.0
  0
LINE
  5
B43E
330
B27F
100
AcDbEntity
  8
1
  6
Continuous
100
AcDbLine
 10
417.3
 20
346.0
 30
0.0
 11
417.3
 21
344.728427
 31
0.0
  0
ARC
  5
B43F
330
B27F
100
AcDbEntity
  8
1
  6
Continuous
100
AcDbCircle
 10
416.3
 20
344.728427
 30
0.0
 40
1.0
100
AcDbArc
 50
315.0
 51
0.0
  0
LINE
  5
B440
330
B27F
100
AcDbEntity
  8
1
  6
Continuous
100
AcDbLine
 10
417.0071069999998
 20
344.02132
 30
0.0
 11
415.9928929999998
 21
343.0071069999999
 31
0.0
  0
ARC
  5
B441
330
B27F
100
AcDbEntity
  8
1
  6
Continuous
100
AcDbCircle
 10
416.6999999999998
 20
342.3
 30
0.0
 40
1.0
100
AcDbArc
 50
135.0
 51
270.0
  0
LINE
  5
B442
330
B27F
100
AcDbEntity
  8
1
  6
Continuous
100
AcDbLine
 10
417.3
 20
341.3
 30
0.0
 11
416.6999999999998
 21
341.3
 31
0.0
  0
LINE
  5
B443
330
B27F
100
AcDbEntity
  8
1
  6
Continuous
100
AcDbLine
 10
417.3
 20
330.6999999999998
 30
0.0
 11
417.3
 21
341.3
 31
0.0
  0
LINE
  5
B444
330
B27F
100
AcDbEntity
  8
1
  6
Continuous
100
AcDbLine
 10
417.3
 20
326.0
 30
0.0
 11
217.3
 21
326.0
 31
0.0
  0
LINE
  5
B445
330
B27F
100
AcDbEntity
  8
1
  6
Continuous
100
AcDbLine
 10
217.3
 20
346.0
 30
0.0
 11
217.3
 21
326.0
 31
0.0
  0
LINE
  5
B446
330
B27F
100
AcDbEntity
  8
1
  6
Continuous
100
AcDbLine
 10
415.9928929999998
 20
328.9928929999998
 30
0.0
 11
417.0071069999998
 21
327.97868
 31
0.0
  0
ARC
  5
B447
330
B27F
100
AcDbEntity
  8
1
  6
Continuous
100
AcDbCircle
 10
416.3
 20
327.2715729999998
 30
0.0
 40
1.0
100
AcDbArc
 50
0.0
 51
45.0
  0
LINE
  5
B448
330
B27F
100
AcDbEntity
  8
1
  6
Continuous
100
AcDbLine
 10
417.3
 20
327.2715729999998
 30
0.0
 11
417.3
 21
326.0
 31
0.0
  0
LINE
  5
B449
330
B27F
100
AcDbEntity
  8
3
  6
DASHED
100
AcDbLine
 10
217.3
 20
342.1499999999999
 30
0.0
 11
280.3
 21
342.1499999999999
 31
0.0
  0
LINE
  5
B44A
330
B27F
100
AcDbEntity
  8
1
  6
Continuous
100
AcDbLine
 10
217.3
 20
329.85
 30
0.0
 11
83.29999999999998
 21
329.85
 31
0.0
  0
LINE
  5
B44B
330
B27F
100
AcDbEntity
  8
1
  6
Continuous
100
AcDbLine
 10
220.8
 20
341.3
 30
0.0
 11
220.8
 21
330.6999999999998
 31
0.0
  0
LINE
  5
B44C
330
B27F
100
AcDbEntity
  8
1
  6
Continuous
100
AcDbLine
 10
220.8
 20
341.3
 30
0.0
 11
217.3
 21
341.3
 31
0.0
  0
LINE
  5
B44D
330
B27F
100
AcDbEntity
  8
1
  6
Continuous
100
AcDbLine
 10
220.8
 20
340.3999999999999
 30
0.0
 11
217.3
 21
340.3999999999999
 31
0.0
  0
LINE
  5
B44E
330
B27F
100
AcDbEntity
  8
1
  6
Continuous
100
AcDbLine
 10
220.8
 20
330.6999999999998
 30
0.0
 11
217.3
 21
330.6999999999998
 31
0.0
  0
LINE
  5
B44F
330
B27F
100
AcDbEntity
  8
1
  6
Continuous
100
AcDbLine
 10
220.8
 20
331.6
 30
0.0
 11
217.3
 21
331.6
 31
0.0
  0
LINE
  5
B450
330
B27F
100
AcDbEntity
  8
1
  6
Continuous
100
AcDbLine
 10
83.29999999999998
 20
340.225
 30
0.0
 11
217.3
 21
340.225
 31
0.0
  0
LINE
  5
B451
330
B27F
100
AcDbEntity
  8
1
  6
Continuous
100
AcDbLine
 10
83.29999999999998
 20
331.7749999999999
 30
0.0
 11
217.3
 21
331.7749999999999
 31
0.0
  0
LINE
  5
B452
330
B27F
100
AcDbEntity
  8
3
  6
DASHED
100
AcDbLine
 10
217.3
 20
340.225
 30
0.0
 11
280.3
 21
340.225
 31
0.0
  0
LINE
  5
B453
330
B27F
100
AcDbEntity
  8
3
  6
DASHED
100
AcDbLine
 10
217.3
 20
331.7749999999999
 30
0.0
 11
280.3
 21
331.7749999999999
 31
0.0
  0
LINE
  5
B454
330
B27F
100
AcDbEntity
  8
5
  6
PHANTOM
100
AcDbLine
 10
414.2999999999998
 20
148.15
 30
0.0
 11
280.3
 21
148.15
 31
0.0
  0
LINE
  5
B455
330
B27F
100
AcDbEntity
  8
5
  6
PHANTOM
100
AcDbLine
 10
280.3
 20
135.85
 30
0.0
 11
414.2999999999998
 21
135.85
 31
0.0
  0
CIRCLE
  5
B456
330
B27F
100
AcDbEntity
  8
5
  6
PHANTOM
100
AcDbCircle
 10
237.3
 20
142.0
 30
0.0
 40
1.6
  0
LINE
  5
B457
330
B27F
100
AcDbEntity
  8
5
  6
PHANTOM
100
AcDbLine
 10
252.0
 20
140.4
 30
0.0
 11
252.5999999999999
 21
140.4
 31
0.0
  0
LINE
  5
B458
330
B27F
100
AcDbEntity
  8
5
  6
PHANTOM
100
AcDbLine
 10
252.5999999999999
 20
143.5999999999999
 30
0.0
 11
252.0
 21
143.5999999999999
 31
0.0
  0
ARC
  5
B459
330
B27F
100
AcDbEntity
  8
5
  6
PHANTOM
100
AcDbCircle
 10
252.0
 20
142.0
 30
0.0
 40
1.6
100
AcDbArc
 50
90.0
 51
270.0
  0
ARC
  5
B45A
330
B27F
100
AcDbEntity
  8
5
  6
PHANTOM
100
AcDbCircle
 10
252.5999999999999
 20
142.0
 30
0.0
 40
1.6
100
AcDbArc
 50
270.0
 51
90.0
  0
CIRCLE
  5
B45B
330
B27F
100
AcDbEntity
  8
5
  6
PHANTOM
100
AcDbCircle
 10
292.3
 20
142.0
 30
0.0
 40
3.649999999999999
  0
LINE
  5
B45C
330
B27F
100
AcDbEntity
  8
4
  6
CENTER
100
AcDbLine
 10
292.3
 20
146.9499999999999
 30
0.0
 11
292.3
 21
137.05
 31
0.0
  0
LINE
  5
B45D
330
B27F
100
AcDbEntity
  8
5
  6
PHANTOM
100
AcDbLine
 10
414.2999999999998
 20
143.0
 30
0.0
 11
411.3
 21
142.0
 31
0.0
  0
LINE
  5
B45E
330
B27F
100
AcDbEntity
  8
5
  6
PHANTOM
100
AcDbLine
 10
411.3
 20
142.0
 30
0.0
 11
414.2999999999998
 21
141.0
 31
0.0
  0
LINE
  5
B45F
330
B27F
100
AcDbEntity
  8
5
  6
PHANTOM
100
AcDbLine
 10
414.2999999999998
 20
142.0
 30
0.0
 11
411.3
 21
142.0
 31
0.0
  0
LINE
  5
B460
330
B27F
100
AcDbEntity
  8
5
  6
PHANTOM
100
AcDbLine
 10
414.2999999999998
 20
135.85
 30
0.0
 11
414.2999999999998
 21
148.15
 31
0.0
  0
ARC
  5
B461
330
B27F
100
AcDbEntity
  8
1
  6
Continuous
100
AcDbCircle
 10
397.6
 20
336.0
 30
0.0
 40
1.6
100
AcDbArc
 50
270.0
 51
90.0
  0
LINE
  5
B462
330
B27F
100
AcDbEntity
  8
1
  6
Continuous
100
AcDbLine
 10
397.6
 20
334.3999999999998
 30
0.0
 11
397.0
 21
334.3999999999998
 31
0.0
  0
LINE
  5
B463
330
B27F
100
AcDbEntity
  8
1
  6
Continuous
100
AcDbLine
 10
397.0
 20
337.6
 30
0.0
 11
397.6
 21
337.6
 31
0.0
  0
ARC
  5
B464
330
B27F
100
AcDbEntity
  8
1
  6
Continuous
100
AcDbCircle
 10
397.0
 20
336.0
 30
0.0
 40
1.6
100
AcDbArc
 50
90.0
 51
270.0
  0
ARC
  5
B465
330
B27F
100
AcDbEntity
  8
1
  6
Continuous
100
AcDbCircle
 10
397.6
 20
142.0
 30
0.0
 40
1.6
100
AcDbArc
 50
270.0
 51
90.0
  0
LINE
  5
B466
330
B27F
100
AcDbEntity
  8
1
  6
Continuous
100
AcDbLine
 10
397.0
 20
140.4
 30
0.0
 11
397.6
 21
140.4
 31
0.0
  0
LINE
  5
B467
330
B27F
100
AcDbEntity
  8
1
  6
Continuous
100
AcDbLine
 10
397.6
 20
143.5999999999999
 30
0.0
 11
397.0
 21
143.5999999999999
 31
0.0
  0
ARC
  5
B468
330
B27F
100
AcDbEntity
  8
1
  6
Continuous
100
AcDbCircle
 10
397.0
 20
142.0
 30
0.0
 40
1.6
100
AcDbArc
 50
90.0
 51
270.0
  0
LINE
  5
B469
330
B27F
100
AcDbEntity
  8
1
  6
Continuous
100
AcDbLine
 10
263.6
 20
140.4
 30
0.0
 11
263.0
 21
140.4
 31
0.0
  0
LINE
  5
B46A
330
B27F
100
AcDbEntity
  8
1
  6
Continuous
100
AcDbLine
 10
263.0
 20
143.5999999999999
 30
0.0
 11
263.6
 21
143.5999999999999
 31
0.0
  0
ARC
  5
B46B
330
B27F
100
AcDbEntity
  8
1
  6
Continuous
100
AcDbCircle
 10
263.6
 20
142.0
 30
0.0
 40
1.6
100
AcDbArc
 50
270.0
 51
90.0
  0
ARC
  5
B46C
330
B27F
100
AcDbEntity
  8
1
  6
Continuous
100
AcDbCircle
 10
263.0
 20
142.0
 30
0.0
 40
1.6
100
AcDbArc
 50
90.0
 51
270.0
  0
ENDSEC
  0
SECTION
  2
OBJECTS
  0
DICTIONARY
  5
B26D
330
0
100
AcDbDictionary
281
     1
  3
ACAD_CIP_PREVIOUS_PRODUCT_INFO
350
B4CC
  3
ACAD_COLOR
350
B4AE
  3
ACAD_DETAILVIEWSTYLE
350
B4C7
  3
ACAD_GROUP
350
B26E
  3
ACAD_LAYOUT
350
B27A
  3
ACAD_MATERIAL
350
B47C
  3
ACAD_MLEADERSTYLE
350
B4C3
  3
ACAD_MLINESTYLE
350
B277
  3
ACAD_PLOTSETTINGS
350
B279
  3
ACAD_PLOTSTYLENAME
350
B47A
  3
ACAD_SCALELIST
350
B4B1
  3
ACAD_SECTIONVIEWSTYLE
350
B4C5
  3
ACAD_TABLESTYLE
350
B4AF
  3
ACAD_VISUALSTYLE
350
B495
  3
ACDB_RECOMPOSE_DATA
350
B4EA
  3
AcDbVariableDictionary
350
B4DD
  3
DWGPROPS
350
B4EB
  0
DICTIONARY
  5
B4CD
330
B271
100
AcDbDictionary
280
     1
281
     1
  3
ADSK_XREC_LAYER_RECONCILED
360
B4CE
  0
DICTIONARY
  5
B4CF
330
B287
100
AcDbDictionary
280
     1
281
     1
  3
ADSK_XREC_LAYER_RECONCILED
360
B4D0
  0
DICTIONARY
  5
B4D1
330
B288
100
AcDbDictionary
280
     1
281
     1
  3
ADSK_XREC_LAYER_RECONCILED
360
B4D2
  0
DICTIONARY
  5
B4D3
330
B289
100
AcDbDictionary
280
     1
281
     1
  3
ADSK_XREC_LAYER_RECONCILED
360
B4D4
  0
DICTIONARY
  5
B4D5
330
B28A
100
AcDbDictionary
280
     1
281
     1
  3
ADSK_XREC_LAYER_RECONCILED
360
B4D6
  0
DICTIONARY
  5
B4D7
330
B28B
100
AcDbDictionary
280
     1
281
     1
  3
ADSK_XREC_LAYER_RECONCILED
360
B4D8
  0
DICTIONARY
  5
B4D9
330
B28C
100
AcDbDictionary
280
     1
281
     1
  3
ADSK_XREC_LAYER_RECONCILED
360
B4DA
  0
DICTIONARY
  5
B4DB
330
B28D
100
AcDbDictionary
280
     1
281
     1
  3
ADSK_XREC_LAYER_RECONCILED
360
B4DC
  0
DICTIONARY
  5
B475
330
B27F
100
AcDbDictionary
281
     1
  3
ACAD_LAYOUTSELFREF
350
B476
  0
DICTIONARY
  5
B473
330
B27B
100
AcDbDictionary
281
     1
  3
ACAD_LAYOUTSELFREF
350
B474
  0
XRECORD
  5
B4CC
102
{ACAD_REACTORS
330
B26D
102
}
330
B26D
100
AcDbXrecord
280
     1
300
ACDLT
300
2014
300
ACDLT_F_S
  0
DICTIONARY
  5
B4AE
102
{ACAD_REACTORS
330
B26D
102
}
330
B26D
100
AcDbDictionary
281
     1
  0
DICTIONARY
  5
B4C7
102
{ACAD_REACTORS
330
B26D
102
}
330
B26D
100
AcDbDictionary
281
     1
  3
Imperial24
350
B4C8
  0
DICTIONARY
  5
B26E
102
{ACAD_REACTORS
330
B26D
102
}
330
B26D
100
AcDbDictionary
281
     1
  0
DICTIONARY
  5
B27A
102
{ACAD_REACTORS
330
B26D
102
}
330
B26D
100
AcDbDictionary
281
     1
  3
Model
350
B4C9
  3
レイアウト1
350
B4CA
  0
DICTIONARY
  5
B47C
102
{ACAD_REACTORS
330
B26D
102
}
330
B26D
100
AcDbDictionary
281
     1
  3
ByBlock
350
B485
  3
ByLayer
350
B47D
  3
Global
350
B48D
  0
DICTIONARY
  5
B4C3
102
{ACAD_REACTORS
330
B26D
102
}
330
B26D
100
AcDbDictionary
281
     1
  3
Standard
350
B4C4
  0
DICTIONARY
  5
B277
102
{ACAD_REACTORS
330
B26D
102
}
330
B26D
100
AcDbDictionary
281
     1
  3
STANDARD
350
B278
  0
DICTIONARY
  5
B279
102
{ACAD_REACTORS
330
B26D
102
}
330
B26D
100
AcDbDictionary
281
     1
  0
ACDBDICTIONARYWDFLT
  5
B47A
102
{ACAD_REACTORS
330
B26D
102
}
330
B26D
100
AcDbDictionary
281
     1
  3
Normal
350
B47B
100
AcDbDictionaryWithDefault
340
B47B
  0
DICTIONARY
  5
B4B1
102
{ACAD_REACTORS
330
B26D
102
}
330
B26D
100
AcDbDictionary
281
     1
  3
A0
350
B4B2
  3
A1
350
B4B3
  3
A2
350
B4B4
  3
A3
350
B4B5
  3
A4
350
B4B6
  3
A5
350
B4B7
  3
A6
350
B4B8
  3
A7
350
B4B9
  3
A8
350
B4BA
  3
A9
350
B4BB
  3
B0
350
B4BC
  3
B1
350
B4BD
  3
B2
350
B4BE
  3
B3
350
B4BF
  3
B4
350
B4C0
  3
B5
350
B4C1
  3
B6
350
B4C2
  0
DICTIONARY
  5
B4C5
102
{ACAD_REACTORS
330
B26D
102
}
330
B26D
100
AcDbDictionary
281
     1
  3
Imperial24
350
B4C6
  0
DICTIONARY
  5
B4AF
102
{ACAD_REACTORS
330
B26D
102
}
330
B26D
100
AcDbDictionary
281
     1
  3
Standard
350
B4B0
  0
DICTIONARY
  5
B495
102
{ACAD_REACTORS
330
B26D
102
}
330
B26D
100
AcDbDictionary
281
     1
  3
2dWireframe
350
B49B
  3
Basic
350
B49A
  3
Brighten
350
B4A1
  3
ColorChange
350
B4A5
  3
Conceptual
350
B49E
  3
Dim
350
B4A0
  3
EdgeColorOff
350
B4AD
  3
Facepattern
350
B4A4
  3
Flat
350
B496
  3
FlatWithEdges
350
B497
  3
Gouraud
350
B498
  3
GouraudWithEdges
350
B499
  3
Hidden
350
B49D
  3
JitterOff
350
B4AB
  3
Linepattern
350
B4A3
  3
OverhangOff
350
B4AC
  3
Realistic
350
B49F
  3
Shaded
350
B4AA
  3
Shaded with edges
350
B4A9
  3
Shades of Gray
350
B4A6
  3
Sketchy
350
B4A7
  3
Thicken
350
B4A2
  3
Wireframe
350
B49C
  3
X-Ray
350
B4A8
  0
XRECORD
  5
B4EA
102
{ACAD_REACTORS
330
B26D
102
}
330
B26D
100
AcDbXrecord
280
     1
 90
        1
330
B4B0
  0
DICTIONARY
  5
B4DD
102
{ACAD_REACTORS
330
B26D
102
}
330
B26D
100
AcDbDictionary
281
     1
  3
CANNOSCALE
350
B4E2
  3
CMLEADERSTYLE
350
B4DF
  3
CTABLESTYLE
350
B4DE
  3
CVIEWDETAILSTYLE
350
B4E0
  3
CVIEWSECTIONSTYLE
350
B4E1
  3
DIMASSOC
350
B4E5
  3
INDEXCTL
350
B4E4
  3
SORTENTS
350
B4E3
  3
XCLIPFRAME
350
B4E6
  0
XRECORD
  5
B4EB
102
{ACAD_REACTORS
330
B26D
102
}
330
B26D
100
AcDbXrecord
280
     1
  1
DWGPROPS COOKIE
  2

  3

  4

  6

  7

  8
Yoshitsune
  9

300
=
301
=
302
=
303
=
304
=
305
=
306
=
307
=
308
=
309
=
 40
0.0000109722222222
 41
2451233.434540741
 42
2457192.662008067
  1

 90
        0
  0
XRECORD
  5
B4CE
102
{ACAD_REACTORS
330
B4CD
102
}
330
B4CD
100
AcDbXrecord
280
     1
290
     1
  0
XRECORD
  5
B4D0
102
{ACAD_REACTORS
330
B4CF
102
}
330
B4CF
100
AcDbXrecord
280
     1
290
     1
  0
XRECORD
  5
B4D2
102
{ACAD_REACTORS
330
B4D1
102
}
330
B4D1
100
AcDbXrecord
280
     1
290
     1
  0
XRECORD
  5
B4D4
102
{ACAD_REACTORS
330
B4D3
102
}
330
B4D3
100
AcDbXrecord
280
     1
290
     1
  0
XRECORD
  5
B4D6
102
{ACAD_REACTORS
330
B4D5
102
}
330
B4D5
100
AcDbXrecord
280
     1
290
     1
  0
XRECORD
  5
B4D8
102
{ACAD_REACTORS
330
B4D7
102
}
330
B4D7
100
AcDbXrecord
280
     1
290
     1
  0
XRECORD
  5
B4DA
102
{ACAD_REACTORS
330
B4D9
102
}
330
B4D9
100
AcDbXrecord
280
     1
290
     1
  0
XRECORD
  5
B4DC
102
{ACAD_REACTORS
330
B4DB
102
}
330
B4DB
100
AcDbXrecord
280
     1
290
     1
  0
XRECORD
  5
B476
102
{ACAD_REACTORS
330
B475
102
}
330
B475
100
AcDbXrecord
280
     1
340
B27F
  0
XRECORD
  5
B474
102
{ACAD_REACTORS
330
B473
102
}
330
B473
100
AcDbXrecord
280
     1
340
B27B
  0
ACDBDETAILVIEWSTYLE
  5
B4C8
102
{ACAD_XDICTIONARY
360
B523
102
}
102
{ACAD_REACTORS
330
B4C7
102
}
330
B4C7
100
AcDbModelDocViewStyle
 70
     0
  3
Imperial24
290
     0
100
AcDbDetailViewStyle
 70
     0
 71
     0
 90
        3
 71
     1
340
B272
 40
0.24
340
0
 40
0.24
300

 40
0.36
280
     3
 71
     2
340
B276
 90
       25
 71
     3
340
B272
 40
0.24
 90
        1
 40
0.75
 90
        1
300
%<\AcVar ViewType \f "%tc1">% %<\AcVar ViewDetailId>%\PSCALE %<\AcVar ViewScale \f "%sn">%
 71
     4
340
B276
 90
       25
340
B276
 90
       25
280
     0
  0
LAYOUT
  5
B4C9
102
{ACAD_XDICTIONARY
360
B525
102
}
102
{ACAD_REACTORS
330
B27A
102
}
330
B27A
100
AcDbPlotSettings
  1

  2
Canon LBP9100C
  4

  6

 40
0.0
 41
0.0
 42
0.0
 43
0.0
 44
0.0
 45
0.0
 46
0.0
 47
0.0
 48
0.0
 49
0.0
140
0.0
141
0.0
142
1.0
143
1.0
 70
  1712
 72
     0
 73
     0
 74
     0
  7

 75
     0
147
1.0
148
0.0
149
0.0
100
AcDbLayout
  1
Model
 70
     1
 71
     0
 10
0.0
 20
0.0
 11
12.0
 21
9.0
 12
0.0
 22
0.0
 32
0.0
 14
0.0
 24
0.0
 34
0.0
 15
0.0
 25
0.0
 35
0.0
146
0.0
 13
0.0
 23
0.0
 33
0.0
 16
1.0
 26
0.0
 36
0.0
 17
0.0
 27
1.0
 37
0.0
 76
     0
330
B27F
331
B472
  0
LAYOUT
  5
B4CA
102
{ACAD_XDICTIONARY
360
B527
102
}
102
{ACAD_REACTORS
330
B27A
102
}
330
B27A
100
AcDbPlotSettings
  1

  2
Canon LBP9100C
  4

  6

 40
0.0
 41
0.0
 42
0.0
 43
0.0
 44
0.0
 45
0.0
 46
0.0
 47
0.0
 48
0.0
 49
0.0
140
0.0
141
0.0
142
1.0
143
1.0
 70
   688
 72
     0
 73
     0
 74
     5
  7

 75
    16
147
1.0
148
0.0
149
0.0
100
AcDbLayout
  1
レイアウト1
 70
     0
 71
     1
 10
0.0
 20
0.0
 11
420.0
 21
297.0
 12
0.0
 22
0.0
 32
0.0
 14
1.000000000000000E+20
 24
1.000000000000000E+20
 34
1.000000000000000E+20
 15
-1.000000000000000E+20
 25
-1.000000000000000E+20
 35
-1.000000000000000E+20
146
0.0
 13
0.0
 23
0.0
 33
0.0
 16
1.0
 26
0.0
 36
0.0
 17
0.0
 27
1.0
 37
0.0
 76
     0
330
B27B
  0
MATERIAL
  5
B485
102
{ACAD_XDICTIONARY
360
B486
102
}
102
{ACAD_REACTORS
330
B47C
102
}
330
B47C
100
AcDbMaterial
  1
ByBlock
 72
     0
 43
0.0208333333333333
 43
0.0
 43
0.0
 43
0.0
 43
0.0
 43
0.0208333333333333
 43
0.0
 43
0.0
 43
0.0
 43
0.0
 43
1.0
 43
0.0
 43
0.0
 43
0.0
 43
0.0
 43
1.0
 77
     0
 47
0.0208333333333333
 47
0.0
 47
0.0
 47
0.0
 47
0.0
 47
0.0208333333333333
 47
0.0
 47
0.0
 47
0.0
 47
0.0
 47
1.0
 47
0.0
 47
0.0
 47
0.0
 47
0.0
 47
1.0
171
     0
 49
0.0208333333333333
 49
0.0
 49
0.0
 49
0.0
 49
0.0
 49
0.0208333333333333
 49
0.0
 49
0.0
 49
0.0
 49
0.0
 49
1.0
 49
0.0
 49
0.0
 49
0.0
 49
0.0
 49
1.0
175
     0
142
0.0208333333333333
142
0.0
142
0.0
142
0.0
142
0.0
142
0.0208333333333333
142
0.0
142
0.0
142
0.0
142
0.0
142
1.0
142
0.0
142
0.0
142
0.0
142
0.0
142
1.0
179
     0
144
0.0208333333333333
144
0.0
144
0.0
144
0.0
144
0.0
144
0.0208333333333333
144
0.0
144
0.0
144
0.0
144
0.0
144
1.0
144
0.0
144
0.0
144
0.0
144
0.0
144
1.0
147
0.0208333333333333
147
0.0
147
0.0
147
0.0
147
0.0
147
0.0208333333333333
147
0.0
147
0.0
147
0.0
147
0.0
147
1.0
147
0.0
147
0.0
147
0.0
147
0.0
147
1.0
  0
MATERIAL
  5
B47D
102
{ACAD_XDICTIONARY
360
B47E
102
}
102
{ACAD_REACTORS
330
B47C
102
}
330
B47C
100
AcDbMaterial
  1
ByLayer
 72
     0
 43
0.0208333333333333
 43
0.0
 43
0.0
 43
0.0
 43
0.0
 43
0.0208333333333333
 43
0.0
 43
0.0
 43
0.0
 43
0.0
 43
1.0
 43
0.0
 43
0.0
 43
0.0
 43
0.0
 43
1.0
 77
     0
 47
0.0208333333333333
 47
0.0
 47
0.0
 47
0.0
 47
0.0
 47
0.0208333333333333
 47
0.0
 47
0.0
 47
0.0
 47
0.0
 47
1.0
 47
0.0
 47
0.0
 47
0.0
 47
0.0
 47
1.0
171
     0
 49
0.0208333333333333
 49
0.0
 49
0.0
 49
0.0
 49
0.0
 49
0.0208333333333333
 49
0.0
 49
0.0
 49
0.0
 49
0.0
 49
1.0
 49
0.0
 49
0.0
 49
0.0
 49
0.0
 49
1.0
175
     0
142
0.0208333333333333
142
0.0
142
0.0
142
0.0
142
0.0
142
0.0208333333333333
142
0.0
142
0.0
142
0.0
142
0.0
142
1.0
142
0.0
142
0.0
142
0.0
142
0.0
142
1.0
179
     0
144
0.0208333333333333
144
0.0
144
0.0
144
0.0
144
0.0
144
0.0208333333333333
144
0.0
144
0.0
144
0.0
144
0.0
144
1.0
144
0.0
144
0.0
144
0.0
144
0.0
144
1.0
147
0.0208333333333333
147
0.0
147
0.0
147
0.0
147
0.0
147
0.0208333333333333
147
0.0
147
0.0
147
0.0
147
0.0
147
1.0
147
0.0
147
0.0
147
0.0
147
0.0
147
1.0
  0
MATERIAL
  5
B48D
102
{ACAD_XDICTIONARY
360
B48E
102
}
102
{ACAD_REACTORS
330
B47C
102
}
330
B47C
100
AcDbMaterial
  1
Global
 72
     0
 43
0.0208333333333333
 43
0.0
 43
0.0
 43
0.0
 43
0.0
 43
0.0208333333333333
 43
0.0
 43
0.0
 43
0.0
 43
0.0
 43
1.0
 43
0.0
 43
0.0
 43
0.0
 43
0.0
 43
1.0
 77
     0
 47
0.0208333333333333
 47
0.0
 47
0.0
 47
0.0
 47
0.0
 47
0.0208333333333333
 47
0.0
 47
0.0
 47
0.0
 47
0.0
 47
1.0
 47
0.0
 47
0.0
 47
0.0
 47
0.0
 47
1.0
171
     0
 49
0.0208333333333333
 49
0.0
 49
0.0
 49
0.0
 49
0.0
 49
0.0208333333333333
 49
0.0
 49
0.0
 49
0.0
 49
0.0
 49
1.0
 49
0.0
 49
0.0
 49
0.0
 49
0.0
 49
1.0
175
     0
142
0.0208333333333333
142
0.0
142
0.0
142
0.0
142
0.0
142
0.0208333333333333
142
0.0
142
0.0
142
0.0
142
0.0
142
1.0
142
0.0
142
0.0
142
0.0
142
0.0
142
1.0
179
     0
144
0.0208333333333333
144
0.0
144
0.0
144
0.0
144
0.0
144
0.0208333333333333
144
0.0
144
0.0
144
0.0
144
0.0
144
1.0
144
0.0
144
0.0
144
0.0
144
0.0
144
1.0
147
0.0208333333333333
147
0.0
147
0.0
147
0.0
147
0.0
147
0.0208333333333333
147
0.0
147
0.0
147
0.0
147
0.0
147
1.0
147
0.0
147
0.0
147
0.0
147
0.0
147
1.0
  0
MLEADERSTYLE
  5
B4C4
102
{ACAD_REACTORS
330
B4C3
102
}
330
B4C3
100
AcDbMLeaderStyle
170
     2
171
     1
172
     0
 90
        2
 40
0.0
 41
0.0
173
     1
 91
-1056964608
340
B274
 92
       -2
290
     1
 42
0.09
291
     1
 43
0.36
  3
Standard
 44
0.18
300

342
B272
174
     1
178
     6
175
     1
176
     0
 93
-1056964608
 45
0.18
292
     0
297
     0
 46
0.18
 94
-1056964608
 47
1.0
 49
1.0
140
1.0
293
     1
141
0.0
294
     1
177
     0
142
1.0
295
     0
296
     0
143
0.125
1001
ACAD_MLEADERVER
1070
     2
  0
MLINESTYLE
  5
B278
102
{ACAD_REACTORS
330
B277
102
}
330
B277
100
AcDbMlineStyle
  2
STANDARD
 70
     0
  3

 62
   256
 51
90.0
 52
90.0
 71
     2
 49
0.5
 62
   256
  6
BYLAYER
 49
-0.5
 62
   256
  6
BYLAYER
  0
ACDBPLACEHOLDER
  5
B47B
102
{ACAD_REACTORS
330
B47A
102
}
330
B47A
  0
SCALE
  5
B4B2
102
{ACAD_REACTORS
330
B4B1
102
}
330
B4B1
100
AcDbScale
 70
     0
300
1:1
140
1.0
141
1.0
290
     1
  0
SCALE
  5
B4B3
102
{ACAD_REACTORS
330
B4B1
102
}
330
B4B1
100
AcDbScale
 70
     0
300
1/128" = 1'-0"
140
0.0078125
141
12.0
290
     0
  0
SCALE
  5
B4B4
102
{ACAD_REACTORS
330
B4B1
102
}
330
B4B1
100
AcDbScale
 70
     0
300
1/64" = 1'-0"
140
0.015625
141
12.0
290
     0
  0
SCALE
  5
B4B5
102
{ACAD_REACTORS
330
B4B1
102
}
330
B4B1
100
AcDbScale
 70
     0
300
1/32" = 1'-0"
140
0.03125
141
12.0
290
     0
  0
SCALE
  5
B4B6
102
{ACAD_REACTORS
330
B4B1
102
}
330
B4B1
100
AcDbScale
 70
     0
300
1/16" = 1'-0"
140
0.0625
141
12.0
290
     0
  0
SCALE
  5
B4B7
102
{ACAD_REACTORS
330
B4B1
102
}
330
B4B1
100
AcDbScale
 70
     0
300
3/32" = 1'-0"
140
0.09375
141
12.0
290
     0
  0
SCALE
  5
B4B8
102
{ACAD_REACTORS
330
B4B1
102
}
330
B4B1
100
AcDbScale
 70
     0
300
1/8" = 1'-0"
140
0.125
141
12.0
290
     0
  0
SCALE
  5
B4B9
102
{ACAD_REACTORS
330
B4B1
102
}
330
B4B1
100
AcDbScale
 70
     0
300
3/16" = 1'-0"
140
0.1875
141
12.0
290
     0
  0
SCALE
  5
B4BA
102
{ACAD_REACTORS
330
B4B1
102
}
330
B4B1
100
AcDbScale
 70
     0
300
1/4" = 1'-0"
140
0.25
141
12.0
290
     0
  0
SCALE
  5
B4BB
102
{ACAD_REACTORS
330
B4B1
102
}
330
B4B1
100
AcDbScale
 70
     0
300
3/8" = 1'-0"
140
0.375
141
12.0
290
     0
  0
SCALE
  5
B4BC
102
{ACAD_REACTORS
330
B4B1
102
}
330
B4B1
100
AcDbScale
 70
     0
300
1/2" = 1'-0"
140
0.5
141
12.0
290
     0
  0
SCALE
  5
B4BD
102
{ACAD_REACTORS
330
B4B1
102
}
330
B4B1
100
AcDbScale
 70
     0
300
3/4" = 1'-0"
140
0.75
141
12.0
290
     0
  0
SCALE
  5
B4BE
102
{ACAD_REACTORS
330
B4B1
102
}
330
B4B1
100
AcDbScale
 70
     0
300
1" = 1'-0"
140
1.0
141
12.0
290
     0
  0
SCALE
  5
B4BF
102
{ACAD_REACTORS
330
B4B1
102
}
330
B4B1
100
AcDbScale
 70
     0
300
1-1/2" = 1'-0"
140
1.5
141
12.0
290
     0
  0
SCALE
  5
B4C0
102
{ACAD_REACTORS
330
B4B1
102
}
330
B4B1
100
AcDbScale
 70
     0
300
3" = 1'-0"
140
3.0
141
12.0
290
     0
  0
SCALE
  5
B4C1
102
{ACAD_REACTORS
330
B4B1
102
}
330
B4B1
100
AcDbScale
 70
     0
300
6" = 1'-0"
140
6.0
141
12.0
290
     0
  0
SCALE
  5
B4C2
102
{ACAD_REACTORS
330
B4B1
102
}
330
B4B1
100
AcDbScale
 70
     0
300
1'-0" = 1'-0"
140
12.0
141
12.0
290
     0
  0
ACDBSECTIONVIEWSTYLE
  5
B4C6
102
{ACAD_XDICTIONARY
360
B521
102
}
102
{ACAD_REACTORS
330
B4C5
102
}
330
B4C5
100
AcDbModelDocViewStyle
 70
     0
  3
Imperial24
290
     0
100
AcDbSectionViewStyle
 70
     0
 71
     0
 90
       78
 71
     1
340
B272
 40
0.24
340
0
340
0
 40
0.24
300
I, O, Q, S, X, Z
 40
0.48
 90
        3
 40
0.18
 90
        1
 71
     2
340
B276
 90
       25
340
B276
 90
       50
 40
0.24
 40
0.0
 40
0.24
 71
     3
340
B272
 40
0.24
 90
        1
 40
0.75
 90
        1
300
%<\AcVar ViewType \f "%tc1">% %<\AcVar ViewSectionStartId>%-%<\AcVar ViewSectionEndId>%\PSCALE %<\AcVar ViewScale \f "%sn">%
 71
     4
300
ANSI31
 40
1.0
 90
        0
290
     0
290
     0
 90
        6
 40
0.0
 40
1.570796326794896
 40
0.2617993877991494
 40
1.308996938995747
 40
-0.2617993877991494
 40
1.832595714594046
  0
TABLESTYLE
  5
B4B0
102
{ACAD_XDICTIONARY
360
B4E8
102
}
102
{ACAD_REACTORS
330
B4AF
102
}
330
B4AF
100
AcDbTableStyle
  3
Standard
 70
     0
 71
     0
 40
0.06
 41
0.06
280
     0
281
     0
  7
STANDARD
140
0.18
170
     2
 62
     0
 63
     7
283
     0
274
    -2
284
     1
 64
     0
275
    -2
285
     1
 65
     0
276
    -2
286
     1
 66
     0
277
    -2
287
     1
 67
     0
278
    -2
288
     1
 68
     0
279
    -2
289
     1
 69
     0
  7
STANDARD
140
0.25
170
     5
 62
     0
 63
     7
283
     0
274
    -2
284
     1
 64
     0
275
    -2
285
     1
 65
     0
276
    -2
286
     1
 66
     0
277
    -2
287
     1
 67
     0
278
    -2
288
     1
 68
     0
279
    -2
289
     1
 69
     0
  7
STANDARD
140
0.18
170
     5
 62
     0
 63
     7
283
     0
274
    -2
284
     1
 64
     0
275
    -2
285
     1
 65
     0
276
    -2
286
     1
 66
     0
277
    -2
287
     1
 67
     0
278
    -2
288
     1
 68
     0
279
    -2
289
     1
 69
     0
  0
VISUALSTYLE
  5
B49B
102
{ACAD_XDICTIONARY
360
B4F9
102
}
102
{ACAD_REACTORS
330
B495
102
}
330
B495
100
AcDbVisualStyle
  2
2dWireframe
 70
     4
 71
     0
 72
     2
 73
     0
 90
        0
 40
-0.6
 41
-30.0
 62
     5
 63
     7
 74
     1
 91
        4
 64
     7
 65
   257
 75
     1
175
     1
 42
1.0
 92
        0
 66
   257
 43
1.0
 76
     1
 77
     6
 78
     2
 67
     7
 79
     5
170
     0
171
     0
290
     0
174
     0
 93
        1
 44
0.0
173
     0
291
     0
 45
0.0
1001
ACAD
1000
AcDbSavedByObjectVersion
1070
     0
  0
VISUALSTYLE
  5
B49A
102
{ACAD_XDICTIONARY
360
B4F7
102
}
102
{ACAD_REACTORS
330
B495
102
}
330
B495
100
AcDbVisualStyle
  2
Basic
 70
     7
 71
     1
 72
     0
 73
     1
 90
        0
 40
-0.6
 41
-30.0
 62
     5
 63
     7
 74
     0
 91
        4
 64
     7
 65
   257
 75
     1
175
     1
 42
1.0
 92
        8
 66
     7
 43
1.0
 76
     1
 77
     6
 78
     2
 67
     7
 79
     5
170
     0
171
     0
290
     0
174
     0
 93
        1
 44
0.0
173
     0
291
     1
 45
0.0
1001
ACAD
1000
AcDbSavedByObjectVersion
1070
     0
  0
VISUALSTYLE
  5
B4A1
102
{ACAD_XDICTIONARY
360
B505
102
}
102
{ACAD_REACTORS
330
B495
102
}
330
B495
100
AcDbVisualStyle
  2
Brighten
 70
    12
 71
     2
 72
     2
 73
     0
 90
        0
 40
-0.6
 41
-30.0
 62
     5
 63
     7
 74
     1
 91
        4
 64
     7
 65
   257
 75
     1
175
     1
 42
1.0
 92
        8
 66
     7
 43
1.0
 76
     1
 77
     6
 78
     2
 67
     7
 79
     5
170
     0
171
     0
290
     0
174
     0
 93
        1
 44
50.0
173
     0
291
     1
 45
0.0
1001
ACAD
1000
AcDbSavedByObjectVersion
1070
     0
  0
VISUALSTYLE
  5
B4A5
102
{ACAD_XDICTIONARY
360
B50D
102
}
102
{ACAD_REACTORS
330
B495
102
}
330
B495
100
AcDbVisualStyle
  2
ColorChange
 70
    16
 71
     2
 72
     2
 73
     3
 90
        0
 40
-0.6
 41
-30.0
 62
     5
 63
     8
 74
     1
 91
        4
 64
     7
 65
   257
 75
     1
175
     1
 42
1.0
 92
        8
 66
     8
 43
1.0
 76
     1
 77
     6
 78
     2
 67
     7
 79
     5
170
     0
171
     0
290
     0
174
     0
 93
        1
 44
0.0
173
     0
291
     1
 45
0.0
1001
ACAD
1000
AcDbSavedByObjectVersion
1070
     0
  0
VISUALSTYLE
  5
B49E
102
{ACAD_XDICTIONARY
360
B4FF
102
}
102
{ACAD_REACTORS
330
B495
102
}
330
B495
100
AcDbVisualStyle
  2
Conceptual
 70
     9
 71
     3
 72
     2
 73
     0
 90
        0
 40
-0.6
 41
-30.0
 62
     5
 63
     7
 74
     2
 91
        2
 64
     7
 65
   257
 75
     1
175
     1
 42
179.0
 92
        8
 66
     7
 43
1.0
 76
     1
 77
     6
 78
     2
 67
     7
 79
     3
170
     0
171
     0
290
     0
174
     0
 93
        1
 44
0.0
173
     0
291
     0
 45
0.0
1001
ACAD
1000
AcDbSavedByObjectVersion
1070
     0
  0
VISUALSTYLE
  5
B4A0
102
{ACAD_XDICTIONARY
360
B503
102
}
102
{ACAD_REACTORS
330
B495
102
}
330
B495
100
AcDbVisualStyle
  2
Dim
 70
    11
 71
     2
 72
     2
 73
     0
 90
        0
 40
-0.6
 41
-30.0
 62
     5
 63
     7
 74
     1
 91
        4
 64
     7
 65
   257
 75
     1
175
     1
 42
1.0
 92
        8
 66
     7
 43
1.0
 76
     1
 77
     6
 78
     2
 67
     7
 79
     5
170
     0
171
     0
290
     0
174
     0
 93
        1
 44
-50.0
173
     0
291
     1
 45
0.0
1001
ACAD
1000
AcDbSavedByObjectVersion
1070
     0
  0
VISUALSTYLE
  5
B4AD
102
{ACAD_XDICTIONARY
360
B51D
102
}
102
{ACAD_REACTORS
330
B495
102
}
330
B495
100
AcDbVisualStyle
  2
EdgeColorOff
 70
    22
 71
     2
 72
     2
 73
     0
 90
        0
 40
-0.6
 41
-30.0
 62
     5
 63
     7
 74
     1
 91
        4
 64
     7
 65
   257
 75
     1
175
     1
 42
1.0
 92
        8
 66
     7
 43
1.0
 76
     1
 77
     6
 78
     2
 67
     7
 79
     5
170
     0
171
     0
290
     0
174
     0
 93
        1
 44
0.0
173
     0
291
     1
 45
0.0
1001
ACAD
1000
AcDbSavedByObjectVersion
1070
     0
  0
VISUALSTYLE
  5
B4A4
102
{ACAD_XDICTIONARY
360
B50B
102
}
102
{ACAD_REACTORS
330
B495
102
}
330
B495
100
AcDbVisualStyle
  2
Facepattern
 70
    15
 71
     2
 72
     2
 73
     0
 90
        0
 40
-0.6
 41
-30.0
 62
     5
 63
     7
 74
     1
 91
        4
 64
     7
 65
   257
 75
     1
175
     1
 42
1.0
 92
        8
 66
     7
 43
1.0
 76
     1
 77
     6
 78
     2
 67
     7
 79
     5
170
     0
171
     0
290
     0
174
     0
 93
        1
 44
0.0
173
     0
291
     1
 45
0.0
1001
ACAD
1000
AcDbSavedByObjectVersion
1070
     0
  0
VISUALSTYLE
  5
B496
102
{ACAD_XDICTIONARY
360
B4EF
102
}
102
{ACAD_REACTORS
330
B495
102
}
330
B495
100
AcDbVisualStyle
  2
Flat
 70
     0
 71
     2
 72
     1
 73
     1
 90
        2
 40
-0.6
 41
30.0
 62
     5
 63
     7
 74
     0
 91
        0
 64
     7
 65
   257
 75
     1
175
     1
 42
1.0
 92
        8
 66
     7
 43
1.0
 76
     1
 77
     6
 78
     2
 67
     7
 79
     5
170
     0
171
     0
290
     0
174
     0
 93
       13
 44
0.0
173
     0
291
     1
 45
0.0
1001
ACAD
1000
AcDbSavedByObjectVersion
1070
     0
  0
VISUALSTYLE
  5
B497
102
{ACAD_XDICTIONARY
360
B4F1
102
}
102
{ACAD_REACTORS
330
B495
102
}
330
B495
100
AcDbVisualStyle
  2
FlatWithEdges
 70
     1
 71
     2
 72
     1
 73
     1
 90
        2
 40
-0.6
 41
30.0
 62
     5
 63
     7
 74
     1
 91
        0
 64
     7
 65
   257
 75
     1
175
     1
 42
1.0
 92
        0
 66
   257
 43
1.0
 76
     1
 77
     6
 78
     2
 67
     7
 79
     5
170
     0
171
     0
290
     0
174
     0
 93
       13
 44
0.0
173
     0
291
     1
 45
0.0
1001
ACAD
1000
AcDbSavedByObjectVersion
1070
     0
  0
VISUALSTYLE
  5
B498
102
{ACAD_XDICTIONARY
360
B4F3
102
}
102
{ACAD_REACTORS
330
B495
102
}
330
B495
100
AcDbVisualStyle
  2
Gouraud
 70
     2
 71
     2
 72
     2
 73
     1
 90
        2
 40
-0.6
 41
30.0
 62
     5
 63
     7
 74
     0
 91
        0
 64
     7
 65
   257
 75
     1
175
     1
 42
1.0
 92
        0
 66
     7
 43
1.0
 76
     1
 77
     6
 78
     2
 67
     7
 79
     5
170
     0
171
     0
290
     0
174
     0
 93
       13
 44
0.0
173
     0
291
     1
 45
0.0
1001
ACAD
1000
AcDbSavedByObjectVersion
1070
     0
  0
VISUALSTYLE
  5
B499
102
{ACAD_XDICTIONARY
360
B4F5
102
}
102
{ACAD_REACTORS
330
B495
102
}
330
B495
100
AcDbVisualStyle
  2
GouraudWithEdges
 70
     3
 71
     2
 72
     2
 73
     1
 90
        2
 40
-0.6
 41
30.0
 62
     5
 63
     7
 74
     1
 91
        0
 64
     7
 65
   257
 75
     1
175
     1
 42
1.0
 92
        0
 66
   257
 43
1.0
 76
     1
 77
     6
 78
     2
 67
     7
 79
     5
170
     0
171
     0
290
     0
174
     0
 93
       13
 44
0.0
173
     0
291
     1
 45
0.0
1001
ACAD
1000
AcDbSavedByObjectVersion
1070
     0
  0
VISUALSTYLE
  5
B49D
102
{ACAD_XDICTIONARY
360
B4FD
102
}
102
{ACAD_REACTORS
330
B495
102
}
330
B495
100
AcDbVisualStyle
  2
Hidden
 70
     6
 71
     1
 72
     2
 73
     2
 90
        0
 40
-0.6
 41
-30.0
 62
     5
 63
     7
 74
     2
 91
        2
 64
     7
 65
   257
 75
     2
175
     1
 42
40.0
 92
        0
 66
   257
 43
1.0
 76
     1
 77
     6
 78
     2
 67
     7
 79
     3
170
     0
171
     0
290
     0
174
     0
 93
        1
 44
0.0
173
     0
291
     0
 45
0.0
1001
ACAD
1000
AcDbSavedByObjectVersion
1070
     0
  0
VISUALSTYLE
  5
B4AB
102
{ACAD_XDICTIONARY
360
B519
102
}
102
{ACAD_REACTORS
330
B495
102
}
330
B495
100
AcDbVisualStyle
  2
JitterOff
 70
    20
 71
     2
 72
     2
 73
     0
 90
        0
 40
-0.6
 41
-30.0
 62
     5
 63
     7
 74
     1
 91
        4
 64
     7
 65
   257
 75
     1
175
     1
 42
1.0
 92
       10
 66
     7
 43
1.0
 76
     1
 77
     6
 78
     2
 67
     7
 79
     5
170
     0
171
     0
290
     0
174
     0
 93
        1
 44
0.0
173
     0
291
     1
 45
0.0
1001
ACAD
1000
AcDbSavedByObjectVersion
1070
     0
  0
VISUALSTYLE
  5
B4A3
102
{ACAD_XDICTIONARY
360
B509
102
}
102
{ACAD_REACTORS
330
B495
102
}
330
B495
100
AcDbVisualStyle
  2
Linepattern
 70
    14
 71
     2
 72
     2
 73
     0
 90
        0
 40
-0.6
 41
-30.0
 62
     5
 63
     7
 74
     1
 91
        4
 64
     7
 65
   257
 75
     7
175
     7
 42
1.0
 92
        8
 66
     7
 43
1.0
 76
     1
 77
     6
 78
     2
 67
     7
 79
     5
170
     0
171
     0
290
     0
174
     0
 93
        1
 44
0.0
173
     0
291
     1
 45
0.0
1001
ACAD
1000
AcDbSavedByObjectVersion
1070
     0
  0
VISUALSTYLE
  5
B4AC
102
{ACAD_XDICTIONARY
360
B51B
102
}
102
{ACAD_REACTORS
330
B495
102
}
330
B495
100
AcDbVisualStyle
  2
OverhangOff
 70
    21
 71
     2
 72
     2
 73
     0
 90
        0
 40
-0.6
 41
-30.0
 62
     5
 63
     7
 74
     1
 91
        4
 64
     7
 65
   257
 75
     1
175
     1
 42
1.0
 92
        9
 66
     7
 43
1.0
 76
     1
 77
     6
 78
     2
 67
     7
 79
     5
170
     0
171
     0
290
     0
174
     0
 93
        1
 44
0.0
173
     0
291
     1
 45
0.0
1001
ACAD
1000
AcDbSavedByObjectVersion
1070
     0
  0
VISUALSTYLE
  5
B49F
102
{ACAD_XDICTIONARY
360
B501
102
}
102
{ACAD_REACTORS
330
B495
102
}
330
B495
100
AcDbVisualStyle
  2
Realistic
 70
     8
 71
     2
 72
     3
 73
     0
 90
        2
 40
-0.6
 41
30.0
 62
     5
 63
     7
 74
     0
 91
        0
 64
     7
 65
   257
 75
     1
175
     1
 42
1.0
 92
        8
 66
   257
 43
1.0
 76
     1
 77
     6
 78
     2
 67
     7
 79
     3
170
     0
171
     0
290
     0
174
     0
 93
       13
 44
0.0
173
     0
291
     0
 45
0.0
1001
ACAD
1000
AcDbSavedByObjectVersion
1070
     0
  0
VISUALSTYLE
  5
B4AA
102
{ACAD_XDICTIONARY
360
B517
102
}
102
{ACAD_REACTORS
330
B495
102
}
330
B495
100
AcDbVisualStyle
  2
Shaded
 70
    27
 71
     2
 72
     2
 73
     1
 90
        2
 40
-0.6
 41
30.0
 62
     5
 63
     7
 74
     0
 91
        4
 64
     7
 65
   257
 75
     1
175
     1
 42
1.0
 92
        8
 66
   257
 43
1.0
 76
     1
 77
     6
 78
     2
 67
     8
 79
     3
170
     0
171
     0
290
     0
174
     0
 93
        5
 44
0.0
173
     0
291
     0
 45
0.0
1001
ACAD
1000
AcDbSavedByObjectVersion
1070
     0
  0
VISUALSTYLE
  5
B4A9
102
{ACAD_XDICTIONARY
360
B515
102
}
102
{ACAD_REACTORS
330
B495
102
}
330
B495
100
AcDbVisualStyle
  2
Shaded with edges
 70
    26
 71
     2
 72
     2
 73
     1
 90
        2
 40
-0.6
 41
30.0
 62
     5
 63
     7
 74
     1
 91
       10
 64
     7
 65
   257
 75
     2
175
     1
 42
1.0
 92
        8
 66
   257
 43
1.0
 76
     1
 77
     6
 78
     2
 67
     7
 79
     3
170
     0
171
     0
290
     0
174
     0
 93
        5
 44
0.0
173
     0
291
     0
 45
0.0
1001
ACAD
1000
AcDbSavedByObjectVersion
1070
     0
  0
VISUALSTYLE
  5
B4A6
102
{ACAD_XDICTIONARY
360
B50F
102
}
102
{ACAD_REACTORS
330
B495
102
}
330
B495
100
AcDbVisualStyle
  2
Shades of Gray
 70
    23
 71
     2
 72
     2
 73
     3
 90
        0
 40
-0.6
 41
-30.0
 62
     5
 63
     7
 74
     2
 91
        2
 64
     7
 65
     7
 75
     1
175
     1
 42
40.0
 92
        8
 66
     7
 43
1.0
 76
     1
 77
     6
 78
     2
 67
     7
 79
     3
170
     0
171
     0
290
     0
174
     0
 93
        1
 44
0.0
173
     0
291
     0
 45
0.0
1001
ACAD
1000
AcDbSavedByObjectVersion
1070
     0
  0
VISUALSTYLE
  5
B4A7
102
{ACAD_XDICTIONARY
360
B511
102
}
102
{ACAD_REACTORS
330
B495
102
}
330
B495
100
AcDbVisualStyle
  2
Sketchy
 70
    24
 71
     1
 72
     2
 73
     2
 90
        0
 40
-0.6
 41
-30.0
 62
     5
 63
     7
 74
     2
 91
        2
 64
     7
 65
     7
 75
     1
175
     1
 42
40.0
 92
       11
 66
     7
 43
1.0
 76
     1
 77
     6
 78
     2
 67
     7
 79
     6
170
     0
171
     0
290
     0
174
     0
 93
        1
 44
0.0
173
     0
291
     0
 45
0.0
1001
ACAD
1000
AcDbSavedByObjectVersion
1070
     0
  0
VISUALSTYLE
  5
B4A2
102
{ACAD_XDICTIONARY
360
B507
102
}
102
{ACAD_REACTORS
330
B495
102
}
330
B495
100
AcDbVisualStyle
  2
Thicken
 70
    13
 71
     2
 72
     2
 73
     0
 90
        0
 40
-0.6
 41
-30.0
 62
     5
 63
     7
 74
     1
 91
        4
 64
     7
 65
   257
 75
     1
175
     1
 42
1.0
 92
       12
 66
     7
 43
1.0
 76
     1
 77
     6
 78
     2
 67
     7
 79
     5
170
     0
171
     0
290
     0
174
     0
 93
        1
 44
0.0
173
     0
291
     1
 45
0.0
1001
ACAD
1000
AcDbSavedByObjectVersion
1070
     0
  0
VISUALSTYLE
  5
B49C
102
{ACAD_XDICTIONARY
360
B4FB
102
}
102
{ACAD_REACTORS
330
B495
102
}
330
B495
100
AcDbVisualStyle
  2
Wireframe
 70
     5
 71
     0
 72
     2
 73
     0
 90
        0
 40
-0.6
 41
-30.0
 62
     5
 63
     7
 74
     1
 91
        4
 64
     7
 65
   257
 75
     1
175
     1
 42
1.0
 92
        0
 66
   257
 43
1.0
 76
     1
 77
     6
 78
     2
 67
     7
 79
     3
170
     0
171
     0
290
     0
174
     0
 93
        1
 44
0.0
173
     0
291
     0
 45
0.0
1001
ACAD
1000
AcDbSavedByObjectVersion
1070
     0
  0
VISUALSTYLE
  5
B4A8
102
{ACAD_XDICTIONARY
360
B513
102
}
102
{ACAD_REACTORS
330
B495
102
}
330
B495
100
AcDbVisualStyle
  2
X-Ray
 70
    25
 71
     2
 72
     2
 73
     1
 90
        1
 40
0.5
 41
-30.0
 62
     5
 63
     7
 74
     1
 91
        0
 64
     7
 65
   257
 75
     1
175
     1
 42
1.0
 92
        8
 66
     7
 43
1.0
 76
     1
 77
     6
 78
     2
 67
     7
 79
     3
170
     0
171
     0
290
     0
174
     0
 93
       13
 44
0.0
173
     0
291
     0
 45
0.0
1001
ACAD
1000
AcDbSavedByObjectVersion
1070
     0
  0
DICTIONARYVAR
  5
B4E2
102
{ACAD_REACTORS
330
B4DD
102
}
330
B4DD
100
DictionaryVariables
280
     0
  1
1:1
  0
DICTIONARYVAR
  5
B4DF
102
{ACAD_REACTORS
330
B4DD
102
}
330
B4DD
100
DictionaryVariables
280
     0
  1
STANDARD
  0
DICTIONARYVAR
  5
B4DE
102
{ACAD_REACTORS
330
B4DD
102
}
330
B4DD
100
DictionaryVariables
280
     0
  1
STANDARD
  0
DICTIONARYVAR
  5
B4E0
102
{ACAD_REACTORS
330
B4DD
102
}
330
B4DD
100
DictionaryVariables
280
     0
  1
Imperial24
  0
DICTIONARYVAR
  5
B4E1
102
{ACAD_REACTORS
330
B4DD
102
}
330
B4DD
100
DictionaryVariables
280
     0
  1
Imperial24
  0
DICTIONARYVAR
  5
B4E5
102
{ACAD_REACTORS
330
B4DD
102
}
330
B4DD
100
DictionaryVariables
280
     0
  1
1
  0
DICTIONARYVAR
  5
B4E4
102
{ACAD_REACTORS
330
B4DD
102
}
330
B4DD
100
DictionaryVariables
280
     0
  1
0
  0
DICTIONARYVAR
  5
B4E3
102
{ACAD_REACTORS
330
B4DD
102
}
330
B4DD
100
DictionaryVariables
280
     0
  1
127
  0
DICTIONARYVAR
  5
B4E6
102
{ACAD_REACTORS
330
B4DD
102
}
330
B4DD
100
DictionaryVariables
280
     0
  1
2
  0
DICTIONARY
  5
B523
330
B4C8
100
AcDbDictionary
280
     1
281
     1
  3
ACAD_XREC_ROUNDTRIP
360
B524
  0
DICTIONARY
  5
B525
330
B4C9
100
AcDbDictionary
280
     1
281
     1
  3
ACAD_XREC_ROUNDTRIP
360
B526
  0
DICTIONARY
  5
B527
330
B4CA
100
AcDbDictionary
280
     1
281
     1
  3
ACAD_XREC_ROUNDTRIP
360
B528
  0
DICTIONARY
  5
B486
330
B485
100
AcDbDictionary
280
     1
281
     1
  3
ACAD_XREC_ROUNDTRIP
360
B4ED
  3
BUMPTILE
360
B488
  3
DIFFUSETILE
360
B487
  3
OPACITYTILE
360
B48B
  3
REFLECTIONTILE
360
B48A
  3
REFRACTIONTILE
360
B48C
  3
SPECULARTILE
360
B489
  0
DICTIONARY
  5
B47E
330
B47D
100
AcDbDictionary
280
     1
281
     1
  3
ACAD_XREC_ROUNDTRIP
360
B4EC
  3
BUMPTILE
360
B480
  3
DIFFUSETILE
360
B47F
  3
OPACITYTILE
360
B483
  3
REFLECTIONTILE
360
B482
  3
REFRACTIONTILE
360
B484
  3
SPECULARTILE
360
B481
  0
DICTIONARY
  5
B48E
330
B48D
100
AcDbDictionary
280
     1
281
     1
  3
ACAD_XREC_ROUNDTRIP
360
B4EE
  3
BUMPTILE
360
B490
  3
DIFFUSETILE
360
B48F
  3
OPACITYTILE
360
B493
  3
REFLECTIONTILE
360
B492
  3
REFRACTIONTILE
360
B494
  3
SPECULARTILE
360
B491
  0
DICTIONARY
  5
B521
330
B4C6
100
AcDbDictionary
280
     1
281
     1
  3
ACAD_XREC_ROUNDTRIP
360
B522
  0
DICTIONARY
  5
B4E8
330
B4B0
100
AcDbDictionary
280
     1
281
     1
  3
ACAD_ROUNDTRIP_2008_TABLESTYLE_CELLSTYLEMAP
360
B4E9
  3
ACAD_XREC_ROUNDTRIP
360
B51F
  0
DICTIONARY
  5
B4F9
330
B49B
100
AcDbDictionary
280
     1
281
     1
  3
ACAD_XREC_ROUNDTRIP
360
B4FA
  0
DICTIONARY
  5
B4F7
330
B49A
100
AcDbDictionary
280
     1
281
     1
  3
ACAD_XREC_ROUNDTRIP
360
B4F8
  0
DICTIONARY
  5
B505
330
B4A1
100
AcDbDictionary
280
     1
281
     1
  3
ACAD_XREC_ROUNDTRIP
360
B506
  0
DICTIONARY
  5
B50D
330
B4A5
100
AcDbDictionary
280
     1
281
     1
  3
ACAD_XREC_ROUNDTRIP
360
B50E
  0
DICTIONARY
  5
B4FF
330
B49E
100
AcDbDictionary
280
     1
281
     1
  3
ACAD_XREC_ROUNDTRIP
360
B500
  0
DICTIONARY
  5
B503
330
B4A0
100
AcDbDictionary
280
     1
281
     1
  3
ACAD_XREC_ROUNDTRIP
360
B504
  0
DICTIONARY
  5
B51D
330
B4AD
100
AcDbDictionary
280
     1
281
     1
  3
ACAD_XREC_ROUNDTRIP
360
B51E
  0
DICTIONARY
  5
B50B
330
B4A4
100
AcDbDictionary
280
     1
281
     1
  3
ACAD_XREC_ROUNDTRIP
360
B50C
  0
DICTIONARY
  5
B4EF
330
B496
100
AcDbDictionary
280
     1
281
     1
  3
ACAD_XREC_ROUNDTRIP
360
B4F0
  0
DICTIONARY
  5
B4F1
330
B497
100
AcDbDictionary
280
     1
281
     1
  3
ACAD_XREC_ROUNDTRIP
360
B4F2
  0
DICTIONARY
  5
B4F3
330
B498
100
AcDbDictionary
280
     1
281
     1
  3
ACAD_XREC_ROUNDTRIP
360
B4F4
  0
DICTIONARY
  5
B4F5
330
B499
100
AcDbDictionary
280
     1
281
     1
  3
ACAD_XREC_ROUNDTRIP
360
B4F6
  0
DICTIONARY
  5
B4FD
330
B49D
100
AcDbDictionary
280
     1
281
     1
  3
ACAD_XREC_ROUNDTRIP
360
B4FE
  0
DICTIONARY
  5
B519
330
B4AB
100
AcDbDictionary
280
     1
281
     1
  3
ACAD_XREC_ROUNDTRIP
360
B51A
  0
DICTIONARY
  5
B509
330
B4A3
100
AcDbDictionary
280
     1
281
     1
  3
ACAD_XREC_ROUNDTRIP
360
B50A
  0
DICTIONARY
  5
B51B
330
B4AC
100
AcDbDictionary
280
     1
281
     1
  3
ACAD_XREC_ROUNDTRIP
360
B51C
  0
DICTIONARY
  5
B501
330
B49F
100
AcDbDictionary
280
     1
281
     1
  3
ACAD_XREC_ROUNDTRIP
360
B502
  0
DICTIONARY
  5
B517
330
B4AA
100
AcDbDictionary
280
     1
281
     1
  3
ACAD_XREC_ROUNDTRIP
360
B518
  0
DICTIONARY
  5
B515
330
B4A9
100
AcDbDictionary
280
     1
281
     1
  3
ACAD_XREC_ROUNDTRIP
360
B516
  0
DICTIONARY
  5
B50F
330
B4A6
100
AcDbDictionary
280
     1
281
     1
  3
ACAD_XREC_ROUNDTRIP
360
B510
  0
DICTIONARY
  5
B511
330
B4A7
100
AcDbDictionary
280
     1
281
     1
  3
ACAD_XREC_ROUNDTRIP
360
B512
  0
DICTIONARY
  5
B507
330
B4A2
100
AcDbDictionary
280
     1
281
     1
  3
ACAD_XREC_ROUNDTRIP
360
B508
  0
DICTIONARY
  5
B4FB
330
B49C
100
AcDbDictionary
280
     1
281
     1
  3
ACAD_XREC_ROUNDTRIP
360
B4FC
  0
DICTIONARY
  5
B513
330
B4A8
100
AcDbDictionary
280
     1
281
     1
  3
ACAD_XREC_ROUNDTRIP
360
B514
  0
XRECORD
  5
B524
102
{ACAD_REACTORS
330
B523
102
}
330
B523
100
AcDbXrecord
280
     1
102
DISPLAYNAME
  1
Imperial24
102
FLAGS
 90
        0
  0
XRECORD
  5
B526
102
{ACAD_REACTORS
330
B525
102
}
330
B525
100
AcDbXrecord
280
     1
102
SHADEPLOT
 70
     0
102
SHADEPLOTRESLEVEL
 70
     2
102
SHADEPLOTCUSTOMDPI
 70
   300
  0
XRECORD
  5
B528
102
{ACAD_REACTORS
330
B527
102
}
330
B527
100
AcDbXrecord
280
     1
102
SHADEPLOT
 70
     0
102
SHADEPLOTRESLEVEL
 70
     2
102
SHADEPLOTCUSTOMDPI
 70
   300
  0
XRECORD
  5
B4ED
102
{ACAD_REACTORS
330
B486
102
}
330
B486
100
AcDbXrecord
280
     1
102
MATERIAL
148
0.0
149
0.0
149
0.0
 93
        0
 94
      127
282
     0
 72
     0
 77
     0
171
     0
175
     0
179
     0
273
     0
  0
XRECORD
  5
B488
102
{ACAD_REACTORS
330
B486
102
}
330
B486
100
AcDbXrecord
280
     1
270
     1
271
     1
  0
XRECORD
  5
B487
102
{ACAD_REACTORS
330
B486
102
}
330
B486
100
AcDbXrecord
280
     1
270
     1
271
     1
  0
XRECORD
  5
B48B
102
{ACAD_REACTORS
330
B486
102
}
330
B486
100
AcDbXrecord
280
     1
270
     1
271
     1
  0
XRECORD
  5
B48A
102
{ACAD_REACTORS
330
B486
102
}
330
B486
100
AcDbXrecord
280
     1
270
     1
271
     1
  0
XRECORD
  5
B48C
102
{ACAD_REACTORS
330
B486
102
}
330
B486
100
AcDbXrecord
280
     1
270
     1
271
     1
  0
XRECORD
  5
B489
102
{ACAD_REACTORS
330
B486
102
}
330
B486
100
AcDbXrecord
280
     1
270
     1
271
     1
  0
XRECORD
  5
B4EC
102
{ACAD_REACTORS
330
B47E
102
}
330
B47E
100
AcDbXrecord
280
     1
102
MATERIAL
148
0.0
149
0.0
149
0.0
 93
        0
 94
      127
282
     0
 72
     0
 77
     0
171
     0
175
     0
179
     0
273
     0
  0
XRECORD
  5
B480
102
{ACAD_REACTORS
330
B47E
102
}
330
B47E
100
AcDbXrecord
280
     1
270
     1
271
     1
  0
XRECORD
  5
B47F
102
{ACAD_REACTORS
330
B47E
102
}
330
B47E
100
AcDbXrecord
280
     1
270
     1
271
     1
  0
XRECORD
  5
B483
102
{ACAD_REACTORS
330
B47E
102
}
330
B47E
100
AcDbXrecord
280
     1
270
     1
271
     1
  0
XRECORD
  5
B482
102
{ACAD_REACTORS
330
B47E
102
}
330
B47E
100
AcDbXrecord
280
     1
270
     1
271
     1
  0
XRECORD
  5
B484
102
{ACAD_REACTORS
330
B47E
102
}
330
B47E
100
AcDbXrecord
280
     1
270
     1
271
     1
  0
XRECORD
  5
B481
102
{ACAD_REACTORS
330
B47E
102
}
330
B47E
100
AcDbXrecord
280
     1
270
     1
271
     1
  0
XRECORD
  5
B4EE
102
{ACAD_REACTORS
330
B48E
102
}
330
B48E
100
AcDbXrecord
280
     1
102
MATERIAL
148
0.0
149
0.0
149
0.0
 93
        0
 94
      127
282
     0
 72
     0
 77
     0
171
     0
175
     0
179
     0
273
     0
  0
XRECORD
  5
B490
102
{ACAD_REACTORS
330
B48E
102
}
330
B48E
100
AcDbXrecord
280
     1
270
     1
271
     1
  0
XRECORD
  5
B48F
102
{ACAD_REACTORS
330
B48E
102
}
330
B48E
100
AcDbXrecord
280
     1
270
     1
271
     1
  0
XRECORD
  5
B493
102
{ACAD_REACTORS
330
B48E
102
}
330
B48E
100
AcDbXrecord
280
     1
270
     1
271
     1
  0
XRECORD
  5
B492
102
{ACAD_REACTORS
330
B48E
102
}
330
B48E
100
AcDbXrecord
280
     1
270
     1
271
     1
  0
XRECORD
  5
B494
102
{ACAD_REACTORS
330
B48E
102
}
330
B48E
100
AcDbXrecord
280
     1
270
     1
271
     1
  0
XRECORD
  5
B491
102
{ACAD_REACTORS
330
B48E
102
}
330
B48E
100
AcDbXrecord
280
     1
270
     1
271
     1
  0
XRECORD
  5
B522
102
{ACAD_REACTORS
330
B521
102
}
330
B521
100
AcDbXrecord
280
     1
102
DISPLAYNAME
  1
Imperial24
102
FLAGS
 90
        0
  0
CELLSTYLEMAP
  5
B4E9
102
{ACAD_REACTORS
330
B4E8
102
}
330
B4E8
100
AcDbCellStyleMap
 90
        3
300
CELLSTYLE
  1
TABLEFORMAT_BEGIN
 90
        5
170
     1
 91
        0
 92
    32768
 62
   257
 93
        1
300
CONTENTFORMAT
  1
CONTENTFORMAT_BEGIN
 90
        0
 91
        0
 92
      512
 93
        0
300

 40
0.0
140
1.0
 94
        5
 62
     0
340
B272
144
0.25
309
CONTENTFORMAT_END
171
     0
 94
        0
309
TABLEFORMAT_END
  1
CELLSTYLE_BEGIN
 90
        1
 91
        1
300
_TITLE
309
CELLSTYLE_END
300
CELLSTYLE
  1
TABLEFORMAT_BEGIN
 90
        5
170
     1
 91
        0
 92
        0
 62
   257
 93
        1
300
CONTENTFORMAT
  1
CONTENTFORMAT_BEGIN
 90
        0
 91
        0
 92
      512
 93
        0
300

 40
0.0
140
1.0
 94
        5
 62
     0
340
B272
144
0.18
309
CONTENTFORMAT_END
171
     0
 94
        0
309
TABLEFORMAT_END
  1
CELLSTYLE_BEGIN
 90
        2
 91
        1
300
_HEADER
309
CELLSTYLE_END
300
CELLSTYLE
  1
TABLEFORMAT_BEGIN
 90
        5
170
     1
 91
        0
 92
        0
 62
   257
 93
        1
300
CONTENTFORMAT
  1
CONTENTFORMAT_BEGIN
 90
        0
 91
        0
 92
      512
 93
        0
300

 40
0.0
140
1.0
 94
        2
 62
     0
340
B272
144
0.18
309
CONTENTFORMAT_END
171
     0
 94
        0
309
TABLEFORMAT_END
  1
CELLSTYLE_BEGIN
 90
        3
 91
        2
300
_DATA
309
CELLSTYLE_END
  0
XRECORD
  5
B51F
102
{ACAD_REACTORS
330
B4E8
102
}
330
B4E8
100
AcDbXrecord
280
     1
102
ACAD_ROUNDTRIP_PRE2007_TABLESTYLE
 90
      512
 91
        0
  1

 92
      512
 93
        0
  2

 94
      512
 95
        0
  3

  0
XRECORD
  5
B4FA
102
{ACAD_REACTORS
330
B4F9
102
}
330
B4F9
100
AcDbXrecord
280
     1
102
RTVSPost2010Prop28
280
     1
102
RTVSPost2010PropOp28
 70
     1
102
RTVSPost2010Prop29
280
     1
102
RTVSPost2010PropOp29
 70
     1
102
RTVSPost2010Prop30
280
     0
102
RTVSPost2010PropOp30
 70
     1
102
RTVSPost2010Prop31
280
     0
102
RTVSPost2010PropOp31
 70
     1
102
RTVSPost2010Prop32
280
     0
102
RTVSPost2010PropOp32
 70
     1
102
RTVSPost2010Prop33
280
     0
102
RTVSPost2010PropOp33
 70
     1
102
RTVSPost2010Prop34
280
     0
102
RTVSPost2010PropOp34
 70
     1
102
RTVSPost2010Prop35
280
     0
102
RTVSPost2010PropOp35
 70
     1
102
RTVSPost2010Prop36
280
     0
102
RTVSPost2010PropOp36
 70
     1
102
RTVSPost2010Prop37
 90
       50
102
RTVSPost2010PropOp37
 70
     1
102
RTVSPost2010Prop38
140
0.0
102
RTVSPost2010PropOp38
 70
     1
102
RTVSPost2010Prop39
140
1.0
102
RTVSPost2010PropOp39
 70
     1
102
RTVSPost2010Prop40
 90
        0
102
RTVSPost2010PropOp40
 70
     1
102
RTVSPost2010Prop41ColorIndex
 90
       18
102
RTVSPost2010Prop41ColorRGB
 90
        0
102
RTVSPost2010PropOp41
 70
     1
102
RTVSPost2010Prop42
 90
       50
102
RTVSPost2010PropOp42
 70
     1
102
RTVSPost2010Prop43
 90
        3
102
RTVSPost2010PropOp43
 70
     1
102
RTVSPost2010Prop44ColorIndex
 90
        5
102
RTVSPost2010Prop44ColorRGB
 90
      255
102
RTVSPost2010PropOp44
 70
     1
102
RTVSPost2010Prop45
280
     0
102
RTVSPost2010PropOp45
 70
     1
102
RTVSPost2010Prop46
 90
       50
102
RTVSPost2010PropOp46
 70
     1
102
RTVSPost2010Prop47
 90
       50
102
RTVSPost2010PropOp47
 70
     1
102
RTVSPost2010Prop48
 90
       50
102
RTVSPost2010PropOp48
 70
     1
102
RTVSPost2010Prop49
280
     0
102
RTVSPost2010PropOp49
 70
     1
102
RTVSPost2010Prop50
 90
       50
102
RTVSPost2010PropOp50
 70
     1
102
RTVSPost2010Prop51ColorIndex
 90
      256
102
RTVSPost2010Prop51ColorRGB
 90
-16777216
102
RTVSPost2010PropOp51
 70
     0
102
RTVSPost2010Prop52
140
1.0
102
RTVSPost2010PropOp52
 70
     0
102
RTVSPost2010Prop53
 90
        2
102
RTVSPost2010PropOp53
 70
     1
102
RTVSPost2010Prop54
  1
strokes_ogs.tif
102
RTVSPost2010PropOp54
 70
     1
102
RTVSPost2010Prop55
280
     0
102
RTVSPost2010PropOp55
 70
     1
102
RTVSPost2010Prop56
140
1.0
102
RTVSPost2010PropOp56
 70
     1
102
RTVSPost2010Prop57
140
1.0
102
RTVSPost2010PropOp57
 70
     1
102
RTVSPropertyOp0
 70
     1
102
RTVSPropertyOp1
 70
     1
102
RTVSPropertyOp2
 70
     1
102
RTVSPropertyOp3
 70
     1
102
RTVSPropertyOp4
 70
     1
102
RTVSPropertyOp5
 70
     1
102
RTVSPropertyOp6
 70
     1
102
RTVSPropertyOp7
 70
     1
102
RTVSPropertyOp8
 70
     1
102
RTVSPropertyOp9
 70
     1
102
RTVSPropertyOp10
 70
     1
102
RTVSPropertyOp11
 70
     1
102
RTVSPropertyOp12
 70
     1
102
RTVSPropertyOp13
 70
     1
102
RTVSPropertyOp14
 70
     1
102
RTVSPropertyOp15
 70
     1
102
RTVSPropertyOp16
 70
     1
102
RTVSPropertyOp17
 70
     1
102
RTVSPropertyOp18
 70
     1
102
RTVSPropertyOp19
 70
     1
102
RTVSPropertyOp20
 70
     1
102
RTVSPropertyOp21
 70
     1
102
RTVSPropertyOp22
 70
     1
102
RTVSPropertyOp23
 70
     1
102
RTVSPropertyOp24
 70
     1
102
RTVSPropertyOp25
 70
     1
102
RTVSPropertyOp26
 70
     1
102
RTVSPropertyOp27
 70
     1
102
RTVSPropertyOp28
 70
     1
102
RTVSPropertyOp29
 70
     1
102
RTVSPropertyOp30
 70
     1
102
RTVSPropertyOp31
 70
     1
102
RTVSPropertyOp32
 70
     1
102
RTVSPropertyOp33
 70
     1
102
RTVSPropertyOp34
 70
     1
102
RTVSPropertyOp35
 70
     1
102
RTVSPropertyOp36
 70
     1
102
RTVSPropertyOp37
 70
     1
102
RTVSPropertyOp38
 70
     1
102
RTVSPropertyOp39
 70
     1
102
RTVSPropertyOp40
 70
     1
102
RTVSPropertyOp41
 70
     1
102
RTVSPropertyOp42
 70
     1
102
RTVSPropertyOp43
 70
     1
102
RTVSPropertyOp44
 70
     1
102
RTVSPropertyOp45
 70
     1
102
RTVSPropertyOp46
 70
     1
102
RTVSPropertyOp47
 70
     1
102
RTVSPropertyOp48
 70
     1
102
RTVSPropertyOp49
 70
     1
102
RTVSPropertyOp50
 70
     1
102
RTVSPropertyOp51
 70
     0
102
RTVSPropertyOp52
 70
     0
102
RTVSPropertyOp53
 70
     1
102
RTVSPropertyOp54
 70
     1
102
RTVSPropertyOp55
 70
     1
102
RTVSPropertyOp56
 70
     1
102
RTVSPropertyOp57
 70
     1
102
RTVSPropertyOp58
 70
     1
102
RTVSPropertyOp59
 70
     1
102
RTVSPropertyOp60
 70
     1
102
RTVSPropertyOp61
 70
     1
102
RTVSPropertyOp62
 70
     1
  0
XRECORD
  5
B4F8
102
{ACAD_REACTORS
330
B4F7
102
}
330
B4F7
100
AcDbXrecord
280
     1
102
RTVSPost2010Prop28
280
     0
102
RTVSPost2010PropOp28
 70
     1
102
RTVSPost2010Prop29
280
     1
102
RTVSPost2010PropOp29
 70
     1
102
RTVSPost2010Prop30
280
     1
102
RTVSPost2010PropOp30
 70
     1
102
RTVSPost2010Prop31
280
     0
102
RTVSPost2010PropOp31
 70
     1
102
RTVSPost2010Prop32
280
     0
102
RTVSPost2010PropOp32
 70
     1
102
RTVSPost2010Prop33
280
     0
102
RTVSPost2010PropOp33
 70
     1
102
RTVSPost2010Prop34
280
     0
102
RTVSPost2010PropOp34
 70
     1
102
RTVSPost2010Prop35
280
     0
102
RTVSPost2010PropOp35
 70
     1
102
RTVSPost2010Prop36
280
     0
102
RTVSPost2010PropOp36
 70
     1
102
RTVSPost2010Prop37
 90
       50
102
RTVSPost2010PropOp37
 70
     1
102
RTVSPost2010Prop38
140
0.0
102
RTVSPost2010PropOp38
 70
     1
102
RTVSPost2010Prop39
140
1.0
102
RTVSPost2010PropOp39
 70
     1
102
RTVSPost2010Prop40
 90
        0
102
RTVSPost2010PropOp40
 70
     1
102
RTVSPost2010Prop41ColorIndex
 90
       18
102
RTVSPost2010Prop41ColorRGB
 90
        0
102
RTVSPost2010PropOp41
 70
     1
102
RTVSPost2010Prop42
 90
       50
102
RTVSPost2010PropOp42
 70
     1
102
RTVSPost2010Prop43
 90
        3
102
RTVSPost2010PropOp43
 70
     1
102
RTVSPost2010Prop44ColorIndex
 90
        5
102
RTVSPost2010Prop44ColorRGB
 90
      255
102
RTVSPost2010PropOp44
 70
     1
102
RTVSPost2010Prop45
280
     0
102
RTVSPost2010PropOp45
 70
     1
102
RTVSPost2010Prop46
 90
       50
102
RTVSPost2010PropOp46
 70
     1
102
RTVSPost2010Prop47
 90
       50
102
RTVSPost2010PropOp47
 70
     1
102
RTVSPost2010Prop48
 90
       50
102
RTVSPost2010PropOp48
 70
     1
102
RTVSPost2010Prop49
280
     0
102
RTVSPost2010PropOp49
 70
     1
102
RTVSPost2010Prop50
 90
       50
102
RTVSPost2010PropOp50
 70
     1
102
RTVSPost2010Prop51ColorIndex
 90
      256
102
RTVSPost2010Prop51ColorRGB
 90
-16777216
102
RTVSPost2010PropOp51
 70
     0
102
RTVSPost2010Prop52
140
1.0
102
RTVSPost2010PropOp52
 70
     0
102
RTVSPost2010Prop53
 90
        2
102
RTVSPost2010PropOp53
 70
     1
102
RTVSPost2010Prop54
  1
strokes_ogs.tif
102
RTVSPost2010PropOp54
 70
     1
102
RTVSPost2010Prop55
280
     0
102
RTVSPost2010PropOp55
 70
     1
102
RTVSPost2010Prop56
140
1.0
102
RTVSPost2010PropOp56
 70
     1
102
RTVSPost2010Prop57
140
1.0
102
RTVSPost2010PropOp57
 70
     1
102
RTVSPropertyOp0
 70
     1
102
RTVSPropertyOp1
 70
     1
102
RTVSPropertyOp2
 70
     1
102
RTVSPropertyOp3
 70
     1
102
RTVSPropertyOp4
 70
     1
102
RTVSPropertyOp5
 70
     1
102
RTVSPropertyOp6
 70
     1
102
RTVSPropertyOp7
 70
     1
102
RTVSPropertyOp8
 70
     1
102
RTVSPropertyOp9
 70
     1
102
RTVSPropertyOp10
 70
     1
102
RTVSPropertyOp11
 70
     1
102
RTVSPropertyOp12
 70
     1
102
RTVSPropertyOp13
 70
     1
102
RTVSPropertyOp14
 70
     1
102
RTVSPropertyOp15
 70
     1
102
RTVSPropertyOp16
 70
     1
102
RTVSPropertyOp17
 70
     1
102
RTVSPropertyOp18
 70
     1
102
RTVSPropertyOp19
 70
     1
102
RTVSPropertyOp20
 70
     1
102
RTVSPropertyOp21
 70
     1
102
RTVSPropertyOp22
 70
     1
102
RTVSPropertyOp23
 70
     1
102
RTVSPropertyOp24
 70
     1
102
RTVSPropertyOp25
 70
     1
102
RTVSPropertyOp26
 70
     1
102
RTVSPropertyOp27
 70
     1
102
RTVSPropertyOp28
 70
     1
102
RTVSPropertyOp29
 70
     1
102
RTVSPropertyOp30
 70
     1
102
RTVSPropertyOp31
 70
     1
102
RTVSPropertyOp32
 70
     1
102
RTVSPropertyOp33
 70
     1
102
RTVSPropertyOp34
 70
     1
102
RTVSPropertyOp35
 70
     1
102
RTVSPropertyOp36
 70
     1
102
RTVSPropertyOp37
 70
     1
102
RTVSPropertyOp38
 70
     1
102
RTVSPropertyOp39
 70
     1
102
RTVSPropertyOp40
 70
     1
102
RTVSPropertyOp41
 70
     1
102
RTVSPropertyOp42
 70
     1
102
RTVSPropertyOp43
 70
     1
102
RTVSPropertyOp44
 70
     1
102
RTVSPropertyOp45
 70
     1
102
RTVSPropertyOp46
 70
     1
102
RTVSPropertyOp47
 70
     1
102
RTVSPropertyOp48
 70
     1
102
RTVSPropertyOp49
 70
     1
102
RTVSPropertyOp50
 70
     1
102
RTVSPropertyOp51
 70
     0
102
RTVSPropertyOp52
 70
     0
102
RTVSPropertyOp53
 70
     1
102
RTVSPropertyOp54
 70
     1
102
RTVSPropertyOp55
 70
     1
102
RTVSPropertyOp56
 70
     1
102
RTVSPropertyOp57
 70
     1
102
RTVSPropertyOp58
 70
     1
102
RTVSPropertyOp59
 70
     1
102
RTVSPropertyOp60
 70
     1
102
RTVSPropertyOp61
 70
     1
102
RTVSPropertyOp62
 70
     1
  0
XRECORD
  5
B506
102
{ACAD_REACTORS
330
B505
102
}
330
B505
100
AcDbXrecord
280
     1
102
RTVSPost2010Prop28
280
     0
102
RTVSPost2010PropOp28
 70
     1
102
RTVSPost2010Prop29
280
     1
102
RTVSPost2010PropOp29
 70
     1
102
RTVSPost2010Prop30
280
     1
102
RTVSPost2010PropOp30
 70
     1
102
RTVSPost2010Prop31
280
     0
102
RTVSPost2010PropOp31
 70
     1
102
RTVSPost2010Prop32
280
     0
102
RTVSPost2010PropOp32
 70
     1
102
RTVSPost2010Prop33
280
     0
102
RTVSPost2010PropOp33
 70
     1
102
RTVSPost2010Prop34
280
     0
102
RTVSPost2010PropOp34
 70
     1
102
RTVSPost2010Prop35
280
     0
102
RTVSPost2010PropOp35
 70
     1
102
RTVSPost2010Prop36
280
     0
102
RTVSPost2010PropOp36
 70
     1
102
RTVSPost2010Prop37
 90
       50
102
RTVSPost2010PropOp37
 70
     1
102
RTVSPost2010Prop38
140
0.0
102
RTVSPost2010PropOp38
 70
     1
102
RTVSPost2010Prop39
140
1.0
102
RTVSPost2010PropOp39
 70
     1
102
RTVSPost2010Prop40
 90
        0
102
RTVSPost2010PropOp40
 70
     1
102
RTVSPost2010Prop41ColorIndex
 90
       18
102
RTVSPost2010Prop41ColorRGB
 90
        0
102
RTVSPost2010PropOp41
 70
     1
102
RTVSPost2010Prop42
 90
       50
102
RTVSPost2010PropOp42
 70
     1
102
RTVSPost2010Prop43
 90
        3
102
RTVSPost2010PropOp43
 70
     1
102
RTVSPost2010Prop44ColorIndex
 90
        5
102
RTVSPost2010Prop44ColorRGB
 90
      255
102
RTVSPost2010PropOp44
 70
     1
102
RTVSPost2010Prop45
280
     0
102
RTVSPost2010PropOp45
 70
     1
102
RTVSPost2010Prop46
 90
       50
102
RTVSPost2010PropOp46
 70
     1
102
RTVSPost2010Prop47
 90
       50
102
RTVSPost2010PropOp47
 70
     1
102
RTVSPost2010Prop48
 90
       50
102
RTVSPost2010PropOp48
 70
     1
102
RTVSPost2010Prop49
280
     0
102
RTVSPost2010PropOp49
 70
     1
102
RTVSPost2010Prop50
 90
       50
102
RTVSPost2010PropOp50
 70
     1
102
RTVSPost2010Prop51ColorIndex
 90
      256
102
RTVSPost2010Prop51ColorRGB
 90
-16777216
102
RTVSPost2010PropOp51
 70
     0
102
RTVSPost2010Prop52
140
1.0
102
RTVSPost2010PropOp52
 70
     0
102
RTVSPost2010Prop53
 90
        2
102
RTVSPost2010PropOp53
 70
     1
102
RTVSPost2010Prop54
  1
strokes_ogs.tif
102
RTVSPost2010PropOp54
 70
     1
102
RTVSPost2010Prop55
280
     0
102
RTVSPost2010PropOp55
 70
     1
102
RTVSPost2010Prop56
140
1.0
102
RTVSPost2010PropOp56
 70
     1
102
RTVSPost2010Prop57
140
1.0
102
RTVSPost2010PropOp57
 70
     1
102
RTVSPropertyOp0
 70
     1
102
RTVSPropertyOp1
 70
     1
102
RTVSPropertyOp2
 70
     1
102
RTVSPropertyOp3
 70
     1
102
RTVSPropertyOp4
 70
     1
102
RTVSPropertyOp5
 70
     1
102
RTVSPropertyOp6
 70
     1
102
RTVSPropertyOp7
 70
     1
102
RTVSPropertyOp8
 70
     1
102
RTVSPropertyOp9
 70
     1
102
RTVSPropertyOp10
 70
     1
102
RTVSPropertyOp11
 70
     1
102
RTVSPropertyOp12
 70
     1
102
RTVSPropertyOp13
 70
     1
102
RTVSPropertyOp14
 70
     1
102
RTVSPropertyOp15
 70
     1
102
RTVSPropertyOp16
 70
     1
102
RTVSPropertyOp17
 70
     1
102
RTVSPropertyOp18
 70
     1
102
RTVSPropertyOp19
 70
     1
102
RTVSPropertyOp20
 70
     1
102
RTVSPropertyOp21
 70
     1
102
RTVSPropertyOp22
 70
     1
102
RTVSPropertyOp23
 70
     1
102
RTVSPropertyOp24
 70
     1
102
RTVSPropertyOp25
 70
     1
102
RTVSPropertyOp26
 70
     1
102
RTVSPropertyOp27
 70
     1
102
RTVSPropertyOp28
 70
     1
102
RTVSPropertyOp29
 70
     1
102
RTVSPropertyOp30
 70
     1
102
RTVSPropertyOp31
 70
     1
102
RTVSPropertyOp32
 70
     1
102
RTVSPropertyOp33
 70
     1
102
RTVSPropertyOp34
 70
     1
102
RTVSPropertyOp35
 70
     1
102
RTVSPropertyOp36
 70
     1
102
RTVSPropertyOp37
 70
     1
102
RTVSPropertyOp38
 70
     1
102
RTVSPropertyOp39
 70
     1
102
RTVSPropertyOp40
 70
     1
102
RTVSPropertyOp41
 70
     1
102
RTVSPropertyOp42
 70
     1
102
RTVSPropertyOp43
 70
     1
102
RTVSPropertyOp44
 70
     1
102
RTVSPropertyOp45
 70
     1
102
RTVSPropertyOp46
 70
     1
102
RTVSPropertyOp47
 70
     1
102
RTVSPropertyOp48
 70
     1
102
RTVSPropertyOp49
 70
     1
102
RTVSPropertyOp50
 70
     1
102
RTVSPropertyOp51
 70
     0
102
RTVSPropertyOp52
 70
     0
102
RTVSPropertyOp53
 70
     1
102
RTVSPropertyOp54
 70
     1
102
RTVSPropertyOp55
 70
     1
102
RTVSPropertyOp56
 70
     1
102
RTVSPropertyOp57
 70
     1
102
RTVSPropertyOp58
 70
     1
102
RTVSPropertyOp59
 70
     1
102
RTVSPropertyOp60
 70
     1
102
RTVSPropertyOp61
 70
     1
102
RTVSPropertyOp62
 70
     1
  0
XRECORD
  5
B50E
102
{ACAD_REACTORS
330
B50D
102
}
330
B50D
100
AcDbXrecord
280
     1
102
RTVSPost2010Prop28
280
     0
102
RTVSPost2010PropOp28
 70
     1
102
RTVSPost2010Prop29
280
     1
102
RTVSPost2010PropOp29
 70
     1
102
RTVSPost2010Prop30
280
     1
102
RTVSPost2010PropOp30
 70
     1
102
RTVSPost2010Prop31
280
     0
102
RTVSPost2010PropOp31
 70
     1
102
RTVSPost2010Prop32
280
     0
102
RTVSPost2010PropOp32
 70
     1
102
RTVSPost2010Prop33
280
     0
102
RTVSPost2010PropOp33
 70
     1
102
RTVSPost2010Prop34
280
     0
102
RTVSPost2010PropOp34
 70
     1
102
RTVSPost2010Prop35
280
     0
102
RTVSPost2010PropOp35
 70
     1
102
RTVSPost2010Prop36
280
     0
102
RTVSPost2010PropOp36
 70
     1
102
RTVSPost2010Prop37
 90
       50
102
RTVSPost2010PropOp37
 70
     1
102
RTVSPost2010Prop38
140
0.0
102
RTVSPost2010PropOp38
 70
     1
102
RTVSPost2010Prop39
140
1.0
102
RTVSPost2010PropOp39
 70
     1
102
RTVSPost2010Prop40
 90
        0
102
RTVSPost2010PropOp40
 70
     1
102
RTVSPost2010Prop41ColorIndex
 90
       18
102
RTVSPost2010Prop41ColorRGB
 90
        0
102
RTVSPost2010PropOp41
 70
     1
102
RTVSPost2010Prop42
 90
       50
102
RTVSPost2010PropOp42
 70
     1
102
RTVSPost2010Prop43
 90
        3
102
RTVSPost2010PropOp43
 70
     1
102
RTVSPost2010Prop44ColorIndex
 90
        5
102
RTVSPost2010Prop44ColorRGB
 90
      255
102
RTVSPost2010PropOp44
 70
     1
102
RTVSPost2010Prop45
280
     0
102
RTVSPost2010PropOp45
 70
     1
102
RTVSPost2010Prop46
 90
       50
102
RTVSPost2010PropOp46
 70
     1
102
RTVSPost2010Prop47
 90
       50
102
RTVSPost2010PropOp47
 70
     1
102
RTVSPost2010Prop48
 90
       50
102
RTVSPost2010PropOp48
 70
     1
102
RTVSPost2010Prop49
280
     0
102
RTVSPost2010PropOp49
 70
     1
102
RTVSPost2010Prop50
 90
       50
102
RTVSPost2010PropOp50
 70
     1
102
RTVSPost2010Prop51ColorIndex
 90
      256
102
RTVSPost2010Prop51ColorRGB
 90
-16777216
102
RTVSPost2010PropOp51
 70
     0
102
RTVSPost2010Prop52
140
1.0
102
RTVSPost2010PropOp52
 70
     0
102
RTVSPost2010Prop53
 90
        2
102
RTVSPost2010PropOp53
 70
     1
102
RTVSPost2010Prop54
  1
strokes_ogs.tif
102
RTVSPost2010PropOp54
 70
     1
102
RTVSPost2010Prop55
280
     0
102
RTVSPost2010PropOp55
 70
     1
102
RTVSPost2010Prop56
140
1.0
102
RTVSPost2010PropOp56
 70
     1
102
RTVSPost2010Prop57
140
1.0
102
RTVSPost2010PropOp57
 70
     1
102
RTVSPropertyOp0
 70
     1
102
RTVSPropertyOp1
 70
     1
102
RTVSPropertyOp2
 70
     1
102
RTVSPropertyOp3
 70
     1
102
RTVSPropertyOp4
 70
     1
102
RTVSPropertyOp5
 70
     1
102
RTVSPropertyOp6
 70
     1
102
RTVSPropertyOp7
 70
     1
102
RTVSPropertyOp8
 70
     1
102
RTVSPropertyOp9
 70
     1
102
RTVSPropertyOp10
 70
     1
102
RTVSPropertyOp11
 70
     1
102
RTVSPropertyOp12
 70
     1
102
RTVSPropertyOp13
 70
     1
102
RTVSPropertyOp14
 70
     1
102
RTVSPropertyOp15
 70
     1
102
RTVSPropertyOp16
 70
     1
102
RTVSPropertyOp17
 70
     1
102
RTVSPropertyOp18
 70
     1
102
RTVSPropertyOp19
 70
     1
102
RTVSPropertyOp20
 70
     1
102
RTVSPropertyOp21
 70
     1
102
RTVSPropertyOp22
 70
     1
102
RTVSPropertyOp23
 70
     1
102
RTVSPropertyOp24
 70
     1
102
RTVSPropertyOp25
 70
     1
102
RTVSPropertyOp26
 70
     1
102
RTVSPropertyOp27
 70
     1
102
RTVSPropertyOp28
 70
     1
102
RTVSPropertyOp29
 70
     1
102
RTVSPropertyOp30
 70
     1
102
RTVSPropertyOp31
 70
     1
102
RTVSPropertyOp32
 70
     1
102
RTVSPropertyOp33
 70
     1
102
RTVSPropertyOp34
 70
     1
102
RTVSPropertyOp35
 70
     1
102
RTVSPropertyOp36
 70
     1
102
RTVSPropertyOp37
 70
     1
102
RTVSPropertyOp38
 70
     1
102
RTVSPropertyOp39
 70
     1
102
RTVSPropertyOp40
 70
     1
102
RTVSPropertyOp41
 70
     1
102
RTVSPropertyOp42
 70
     1
102
RTVSPropertyOp43
 70
     1
102
RTVSPropertyOp44
 70
     1
102
RTVSPropertyOp45
 70
     1
102
RTVSPropertyOp46
 70
     1
102
RTVSPropertyOp47
 70
     1
102
RTVSPropertyOp48
 70
     1
102
RTVSPropertyOp49
 70
     1
102
RTVSPropertyOp50
 70
     1
102
RTVSPropertyOp51
 70
     0
102
RTVSPropertyOp52
 70
     0
102
RTVSPropertyOp53
 70
     1
102
RTVSPropertyOp54
 70
     1
102
RTVSPropertyOp55
 70
     1
102
RTVSPropertyOp56
 70
     1
102
RTVSPropertyOp57
 70
     1
102
RTVSPropertyOp58
 70
     1
102
RTVSPropertyOp59
 70
     1
102
RTVSPropertyOp60
 70
     1
102
RTVSPropertyOp61
 70
     1
102
RTVSPropertyOp62
 70
     1
  0
XRECORD
  5
B500
102
{ACAD_REACTORS
330
B4FF
102
}
330
B4FF
100
AcDbXrecord
280
     1
102
RTVSPost2010Prop28
280
     0
102
RTVSPost2010PropOp28
 70
     1
102
RTVSPost2010Prop29
280
     1
102
RTVSPost2010PropOp29
 70
     1
102
RTVSPost2010Prop30
280
     1
102
RTVSPost2010PropOp30
 70
     1
102
RTVSPost2010Prop31
280
     0
102
RTVSPost2010PropOp31
 70
     1
102
RTVSPost2010Prop32
280
     0
102
RTVSPost2010PropOp32
 70
     1
102
RTVSPost2010Prop33
280
     0
102
RTVSPost2010PropOp33
 70
     1
102
RTVSPost2010Prop34
280
     0
102
RTVSPost2010PropOp34
 70
     1
102
RTVSPost2010Prop35
280
     0
102
RTVSPost2010PropOp35
 70
     1
102
RTVSPost2010Prop36
280
     0
102
RTVSPost2010PropOp36
 70
     1
102
RTVSPost2010Prop37
 90
       50
102
RTVSPost2010PropOp37
 70
     1
102
RTVSPost2010Prop38
140
0.0
102
RTVSPost2010PropOp38
 70
     1
102
RTVSPost2010Prop39
140
1.0
102
RTVSPost2010PropOp39
 70
     1
102
RTVSPost2010Prop40
 90
        0
102
RTVSPost2010PropOp40
 70
     1
102
RTVSPost2010Prop41ColorIndex
 90
       18
102
RTVSPost2010Prop41ColorRGB
 90
        0
102
RTVSPost2010PropOp41
 70
     1
102
RTVSPost2010Prop42
 90
       50
102
RTVSPost2010PropOp42
 70
     1
102
RTVSPost2010Prop43
 90
        3
102
RTVSPost2010PropOp43
 70
     1
102
RTVSPost2010Prop44ColorIndex
 90
        5
102
RTVSPost2010Prop44ColorRGB
 90
      255
102
RTVSPost2010PropOp44
 70
     1
102
RTVSPost2010Prop45
280
     0
102
RTVSPost2010PropOp45
 70
     1
102
RTVSPost2010Prop46
 90
       50
102
RTVSPost2010PropOp46
 70
     1
102
RTVSPost2010Prop47
 90
       50
102
RTVSPost2010PropOp47
 70
     1
102
RTVSPost2010Prop48
 90
       50
102
RTVSPost2010PropOp48
 70
     1
102
RTVSPost2010Prop49
280
     0
102
RTVSPost2010PropOp49
 70
     1
102
RTVSPost2010Prop50
 90
       50
102
RTVSPost2010PropOp50
 70
     1
102
RTVSPost2010Prop51ColorIndex
 90
      256
102
RTVSPost2010Prop51ColorRGB
 90
-16777216
102
RTVSPost2010PropOp51
 70
     0
102
RTVSPost2010Prop52
140
1.0
102
RTVSPost2010PropOp52
 70
     0
102
RTVSPost2010Prop53
 90
        2
102
RTVSPost2010PropOp53
 70
     1
102
RTVSPost2010Prop54
  1
strokes_ogs.tif
102
RTVSPost2010PropOp54
 70
     1
102
RTVSPost2010Prop55
280
     0
102
RTVSPost2010PropOp55
 70
     1
102
RTVSPost2010Prop56
140
1.0
102
RTVSPost2010PropOp56
 70
     1
102
RTVSPost2010Prop57
140
1.0
102
RTVSPost2010PropOp57
 70
     1
102
RTVSPropertyOp0
 70
     1
102
RTVSPropertyOp1
 70
     1
102
RTVSPropertyOp2
 70
     1
102
RTVSPropertyOp3
 70
     1
102
RTVSPropertyOp4
 70
     1
102
RTVSPropertyOp5
 70
     1
102
RTVSPropertyOp6
 70
     1
102
RTVSPropertyOp7
 70
     1
102
RTVSPropertyOp8
 70
     1
102
RTVSPropertyOp9
 70
     1
102
RTVSPropertyOp10
 70
     1
102
RTVSPropertyOp11
 70
     1
102
RTVSPropertyOp12
 70
     1
102
RTVSPropertyOp13
 70
     1
102
RTVSPropertyOp14
 70
     1
102
RTVSPropertyOp15
 70
     1
102
RTVSPropertyOp16
 70
     1
102
RTVSPropertyOp17
 70
     1
102
RTVSPropertyOp18
 70
     1
102
RTVSPropertyOp19
 70
     1
102
RTVSPropertyOp20
 70
     1
102
RTVSPropertyOp21
 70
     1
102
RTVSPropertyOp22
 70
     1
102
RTVSPropertyOp23
 70
     1
102
RTVSPropertyOp24
 70
     1
102
RTVSPropertyOp25
 70
     1
102
RTVSPropertyOp26
 70
     1
102
RTVSPropertyOp27
 70
     1
102
RTVSPropertyOp28
 70
     1
102
RTVSPropertyOp29
 70
     1
102
RTVSPropertyOp30
 70
     1
102
RTVSPropertyOp31
 70
     1
102
RTVSPropertyOp32
 70
     1
102
RTVSPropertyOp33
 70
     1
102
RTVSPropertyOp34
 70
     1
102
RTVSPropertyOp35
 70
     1
102
RTVSPropertyOp36
 70
     1
102
RTVSPropertyOp37
 70
     1
102
RTVSPropertyOp38
 70
     1
102
RTVSPropertyOp39
 70
     1
102
RTVSPropertyOp40
 70
     1
102
RTVSPropertyOp41
 70
     1
102
RTVSPropertyOp42
 70
     1
102
RTVSPropertyOp43
 70
     1
102
RTVSPropertyOp44
 70
     1
102
RTVSPropertyOp45
 70
     1
102
RTVSPropertyOp46
 70
     1
102
RTVSPropertyOp47
 70
     1
102
RTVSPropertyOp48
 70
     1
102
RTVSPropertyOp49
 70
     1
102
RTVSPropertyOp50
 70
     1
102
RTVSPropertyOp51
 70
     0
102
RTVSPropertyOp52
 70
     0
102
RTVSPropertyOp53
 70
     1
102
RTVSPropertyOp54
 70
     1
102
RTVSPropertyOp55
 70
     1
102
RTVSPropertyOp56
 70
     1
102
RTVSPropertyOp57
 70
     1
102
RTVSPropertyOp58
 70
     1
102
RTVSPropertyOp59
 70
     1
102
RTVSPropertyOp60
 70
     1
102
RTVSPropertyOp61
 70
     1
102
RTVSPropertyOp62
 70
     1
  0
XRECORD
  5
B504
102
{ACAD_REACTORS
330
B503
102
}
330
B503
100
AcDbXrecord
280
     1
102
RTVSPost2010Prop28
280
     0
102
RTVSPost2010PropOp28
 70
     1
102
RTVSPost2010Prop29
280
     1
102
RTVSPost2010PropOp29
 70
     1
102
RTVSPost2010Prop30
280
     1
102
RTVSPost2010PropOp30
 70
     1
102
RTVSPost2010Prop31
280
     0
102
RTVSPost2010PropOp31
 70
     1
102
RTVSPost2010Prop32
280
     0
102
RTVSPost2010PropOp32
 70
     1
102
RTVSPost2010Prop33
280
     0
102
RTVSPost2010PropOp33
 70
     1
102
RTVSPost2010Prop34
280
     0
102
RTVSPost2010PropOp34
 70
     1
102
RTVSPost2010Prop35
280
     0
102
RTVSPost2010PropOp35
 70
     1
102
RTVSPost2010Prop36
280
     0
102
RTVSPost2010PropOp36
 70
     1
102
RTVSPost2010Prop37
 90
       50
102
RTVSPost2010PropOp37
 70
     1
102
RTVSPost2010Prop38
140
0.0
102
RTVSPost2010PropOp38
 70
     1
102
RTVSPost2010Prop39
140
1.0
102
RTVSPost2010PropOp39
 70
     1
102
RTVSPost2010Prop40
 90
        0
102
RTVSPost2010PropOp40
 70
     1
102
RTVSPost2010Prop41ColorIndex
 90
       18
102
RTVSPost2010Prop41ColorRGB
 90
        0
102
RTVSPost2010PropOp41
 70
     1
102
RTVSPost2010Prop42
 90
       50
102
RTVSPost2010PropOp42
 70
     1
102
RTVSPost2010Prop43
 90
        3
102
RTVSPost2010PropOp43
 70
     1
102
RTVSPost2010Prop44ColorIndex
 90
        5
102
RTVSPost2010Prop44ColorRGB
 90
      255
102
RTVSPost2010PropOp44
 70
     1
102
RTVSPost2010Prop45
280
     0
102
RTVSPost2010PropOp45
 70
     1
102
RTVSPost2010Prop46
 90
       50
102
RTVSPost2010PropOp46
 70
     1
102
RTVSPost2010Prop47
 90
       50
102
RTVSPost2010PropOp47
 70
     1
102
RTVSPost2010Prop48
 90
       50
102
RTVSPost2010PropOp48
 70
     1
102
RTVSPost2010Prop49
280
     0
102
RTVSPost2010PropOp49
 70
     1
102
RTVSPost2010Prop50
 90
       50
102
RTVSPost2010PropOp50
 70
     1
102
RTVSPost2010Prop51ColorIndex
 90
      256
102
RTVSPost2010Prop51ColorRGB
 90
-16777216
102
RTVSPost2010PropOp51
 70
     0
102
RTVSPost2010Prop52
140
1.0
102
RTVSPost2010PropOp52
 70
     0
102
RTVSPost2010Prop53
 90
        2
102
RTVSPost2010PropOp53
 70
     1
102
RTVSPost2010Prop54
  1
strokes_ogs.tif
102
RTVSPost2010PropOp54
 70
     1
102
RTVSPost2010Prop55
280
     0
102
RTVSPost2010PropOp55
 70
     1
102
RTVSPost2010Prop56
140
1.0
102
RTVSPost2010PropOp56
 70
     1
102
RTVSPost2010Prop57
140
1.0
102
RTVSPost2010PropOp57
 70
     1
102
RTVSPropertyOp0
 70
     1
102
RTVSPropertyOp1
 70
     1
102
RTVSPropertyOp2
 70
     1
102
RTVSPropertyOp3
 70
     1
102
RTVSPropertyOp4
 70
     1
102
RTVSPropertyOp5
 70
     1
102
RTVSPropertyOp6
 70
     1
102
RTVSPropertyOp7
 70
     1
102
RTVSPropertyOp8
 70
     1
102
RTVSPropertyOp9
 70
     1
102
RTVSPropertyOp10
 70
     1
102
RTVSPropertyOp11
 70
     1
102
RTVSPropertyOp12
 70
     1
102
RTVSPropertyOp13
 70
     1
102
RTVSPropertyOp14
 70
     1
102
RTVSPropertyOp15
 70
     1
102
RTVSPropertyOp16
 70
     1
102
RTVSPropertyOp17
 70
     1
102
RTVSPropertyOp18
 70
     1
102
RTVSPropertyOp19
 70
     1
102
RTVSPropertyOp20
 70
     1
102
RTVSPropertyOp21
 70
     1
102
RTVSPropertyOp22
 70
     1
102
RTVSPropertyOp23
 70
     1
102
RTVSPropertyOp24
 70
     1
102
RTVSPropertyOp25
 70
     1
102
RTVSPropertyOp26
 70
     1
102
RTVSPropertyOp27
 70
     1
102
RTVSPropertyOp28
 70
     1
102
RTVSPropertyOp29
 70
     1
102
RTVSPropertyOp30
 70
     1
102
RTVSPropertyOp31
 70
     1
102
RTVSPropertyOp32
 70
     1
102
RTVSPropertyOp33
 70
     1
102
RTVSPropertyOp34
 70
     1
102
RTVSPropertyOp35
 70
     1
102
RTVSPropertyOp36
 70
     1
102
RTVSPropertyOp37
 70
     1
102
RTVSPropertyOp38
 70
     1
102
RTVSPropertyOp39
 70
     1
102
RTVSPropertyOp40
 70
     1
102
RTVSPropertyOp41
 70
     1
102
RTVSPropertyOp42
 70
     1
102
RTVSPropertyOp43
 70
     1
102
RTVSPropertyOp44
 70
     1
102
RTVSPropertyOp45
 70
     1
102
RTVSPropertyOp46
 70
     1
102
RTVSPropertyOp47
 70
     1
102
RTVSPropertyOp48
 70
     1
102
RTVSPropertyOp49
 70
     1
102
RTVSPropertyOp50
 70
     1
102
RTVSPropertyOp51
 70
     0
102
RTVSPropertyOp52
 70
     0
102
RTVSPropertyOp53
 70
     1
102
RTVSPropertyOp54
 70
     1
102
RTVSPropertyOp55
 70
     1
102
RTVSPropertyOp56
 70
     1
102
RTVSPropertyOp57
 70
     1
102
RTVSPropertyOp58
 70
     1
102
RTVSPropertyOp59
 70
     1
102
RTVSPropertyOp60
 70
     1
102
RTVSPropertyOp61
 70
     1
102
RTVSPropertyOp62
 70
     1
  0
XRECORD
  5
B51E
102
{ACAD_REACTORS
330
B51D
102
}
330
B51D
100
AcDbXrecord
280
     1
102
RTVSPost2010Prop28
280
     0
102
RTVSPost2010PropOp28
 70
     1
102
RTVSPost2010Prop29
280
     1
102
RTVSPost2010PropOp29
 70
     1
102
RTVSPost2010Prop30
280
     1
102
RTVSPost2010PropOp30
 70
     1
102
RTVSPost2010Prop31
280
     0
102
RTVSPost2010PropOp31
 70
     1
102
RTVSPost2010Prop32
280
     0
102
RTVSPost2010PropOp32
 70
     1
102
RTVSPost2010Prop33
280
     0
102
RTVSPost2010PropOp33
 70
     1
102
RTVSPost2010Prop34
280
     0
102
RTVSPost2010PropOp34
 70
     1
102
RTVSPost2010Prop35
280
     0
102
RTVSPost2010PropOp35
 70
     1
102
RTVSPost2010Prop36
280
     0
102
RTVSPost2010PropOp36
 70
     1
102
RTVSPost2010Prop37
 90
       50
102
RTVSPost2010PropOp37
 70
     0
102
RTVSPost2010Prop38
140
0.0
102
RTVSPost2010PropOp38
 70
     0
102
RTVSPost2010Prop39
140
1.0
102
RTVSPost2010PropOp39
 70
     0
102
RTVSPost2010Prop40
 90
        0
102
RTVSPost2010PropOp40
 70
     0
102
RTVSPost2010Prop41ColorIndex
 90
       18
102
RTVSPost2010Prop41ColorRGB
 90
        0
102
RTVSPost2010PropOp41
 70
     0
102
RTVSPost2010Prop42
 90
       50
102
RTVSPost2010PropOp42
 70
     0
102
RTVSPost2010Prop43
 90
        3
102
RTVSPost2010PropOp43
 70
     0
102
RTVSPost2010Prop44ColorIndex
 90
        5
102
RTVSPost2010Prop44ColorRGB
 90
      255
102
RTVSPost2010PropOp44
 70
     0
102
RTVSPost2010Prop45
280
     0
102
RTVSPost2010PropOp45
 70
     1
102
RTVSPost2010Prop46
 90
       50
102
RTVSPost2010PropOp46
 70
     0
102
RTVSPost2010Prop47
 90
       50
102
RTVSPost2010PropOp47
 70
     0
102
RTVSPost2010Prop48
 90
       50
102
RTVSPost2010PropOp48
 70
     0
102
RTVSPost2010Prop49
280
     0
102
RTVSPost2010PropOp49
 70
     1
102
RTVSPost2010Prop50
 90
       50
102
RTVSPost2010PropOp50
 70
     0
102
RTVSPost2010Prop51ColorIndex
 90
      256
102
RTVSPost2010Prop51ColorRGB
 90
-16777216
102
RTVSPost2010PropOp51
 70
     0
102
RTVSPost2010Prop52
140
1.0
102
RTVSPost2010PropOp52
 70
     0
102
RTVSPost2010Prop53
 90
        2
102
RTVSPost2010PropOp53
 70
     0
102
RTVSPost2010Prop54
  1
strokes_ogs.tif
102
RTVSPost2010PropOp54
 70
     0
102
RTVSPost2010Prop55
280
     0
102
RTVSPost2010PropOp55
 70
     1
102
RTVSPost2010Prop56
140
1.0
102
RTVSPost2010PropOp56
 70
     0
102
RTVSPost2010Prop57
140
1.0
102
RTVSPost2010PropOp57
 70
     0
102
RTVSPropertyOp0
 70
     0
102
RTVSPropertyOp1
 70
     0
102
RTVSPropertyOp2
 70
     0
102
RTVSPropertyOp3
 70
     0
102
RTVSPropertyOp4
 70
     0
102
RTVSPropertyOp5
 70
     0
102
RTVSPropertyOp6
 70
     0
102
RTVSPropertyOp7
 70
     0
102
RTVSPropertyOp8
 70
     0
102
RTVSPropertyOp9
 70
     0
102
RTVSPropertyOp10
 70
     0
102
RTVSPropertyOp11
 70
     0
102
RTVSPropertyOp12
 70
     0
102
RTVSPropertyOp13
 70
     0
102
RTVSPropertyOp14
 70
     2
102
RTVSPropertyOp15
 70
     0
102
RTVSPropertyOp16
 70
     0
102
RTVSPropertyOp17
 70
     0
102
RTVSPropertyOp18
 70
     0
102
RTVSPropertyOp19
 70
     0
102
RTVSPropertyOp20
 70
     0
102
RTVSPropertyOp21
 70
     0
102
RTVSPropertyOp22
 70
     0
102
RTVSPropertyOp23
 70
     0
102
RTVSPropertyOp24
 70
     0
102
RTVSPropertyOp25
 70
     0
102
RTVSPropertyOp26
 70
     0
102
RTVSPropertyOp27
 70
     0
102
RTVSPropertyOp28
 70
     1
102
RTVSPropertyOp29
 70
     1
102
RTVSPropertyOp30
 70
     1
102
RTVSPropertyOp31
 70
     1
102
RTVSPropertyOp32
 70
     1
102
RTVSPropertyOp33
 70
     1
102
RTVSPropertyOp34
 70
     1
102
RTVSPropertyOp35
 70
     1
102
RTVSPropertyOp36
 70
     1
102
RTVSPropertyOp37
 70
     0
102
RTVSPropertyOp38
 70
     0
102
RTVSPropertyOp39
 70
     0
102
RTVSPropertyOp40
 70
     0
102
RTVSPropertyOp41
 70
     0
102
RTVSPropertyOp42
 70
     0
102
RTVSPropertyOp43
 70
     0
102
RTVSPropertyOp44
 70
     0
102
RTVSPropertyOp45
 70
     1
102
RTVSPropertyOp46
 70
     0
102
RTVSPropertyOp47
 70
     0
102
RTVSPropertyOp48
 70
     0
102
RTVSPropertyOp49
 70
     1
102
RTVSPropertyOp50
 70
     0
102
RTVSPropertyOp51
 70
     0
102
RTVSPropertyOp52
 70
     0
102
RTVSPropertyOp53
 70
     0
102
RTVSPropertyOp54
 70
     0
102
RTVSPropertyOp55
 70
     1
102
RTVSPropertyOp56
 70
     0
102
RTVSPropertyOp57
 70
     0
102
RTVSPropertyOp58
 70
     0
102
RTVSPropertyOp59
 70
     0
102
RTVSPropertyOp60
 70
     0
102
RTVSPropertyOp61
 70
     0
102
RTVSPropertyOp62
 70
     0
  0
XRECORD
  5
B50C
102
{ACAD_REACTORS
330
B50B
102
}
330
B50B
100
AcDbXrecord
280
     1
102
RTVSPost2010Prop28
280
     0
102
RTVSPost2010PropOp28
 70
     1
102
RTVSPost2010Prop29
280
     1
102
RTVSPost2010PropOp29
 70
     1
102
RTVSPost2010Prop30
280
     1
102
RTVSPost2010PropOp30
 70
     1
102
RTVSPost2010Prop31
280
     0
102
RTVSPost2010PropOp31
 70
     1
102
RTVSPost2010Prop32
280
     0
102
RTVSPost2010PropOp32
 70
     1
102
RTVSPost2010Prop33
280
     0
102
RTVSPost2010PropOp33
 70
     1
102
RTVSPost2010Prop34
280
     0
102
RTVSPost2010PropOp34
 70
     1
102
RTVSPost2010Prop35
280
     0
102
RTVSPost2010PropOp35
 70
     1
102
RTVSPost2010Prop36
280
     0
102
RTVSPost2010PropOp36
 70
     1
102
RTVSPost2010Prop37
 90
       50
102
RTVSPost2010PropOp37
 70
     1
102
RTVSPost2010Prop38
140
0.0
102
RTVSPost2010PropOp38
 70
     1
102
RTVSPost2010Prop39
140
1.0
102
RTVSPost2010PropOp39
 70
     1
102
RTVSPost2010Prop40
 90
        0
102
RTVSPost2010PropOp40
 70
     1
102
RTVSPost2010Prop41ColorIndex
 90
       18
102
RTVSPost2010Prop41ColorRGB
 90
        0
102
RTVSPost2010PropOp41
 70
     1
102
RTVSPost2010Prop42
 90
       50
102
RTVSPost2010PropOp42
 70
     1
102
RTVSPost2010Prop43
 90
        3
102
RTVSPost2010PropOp43
 70
     1
102
RTVSPost2010Prop44ColorIndex
 90
        5
102
RTVSPost2010Prop44ColorRGB
 90
      255
102
RTVSPost2010PropOp44
 70
     1
102
RTVSPost2010Prop45
280
     0
102
RTVSPost2010PropOp45
 70
     1
102
RTVSPost2010Prop46
 90
       50
102
RTVSPost2010PropOp46
 70
     1
102
RTVSPost2010Prop47
 90
       50
102
RTVSPost2010PropOp47
 70
     1
102
RTVSPost2010Prop48
 90
       50
102
RTVSPost2010PropOp48
 70
     1
102
RTVSPost2010Prop49
280
     0
102
RTVSPost2010PropOp49
 70
     1
102
RTVSPost2010Prop50
 90
       50
102
RTVSPost2010PropOp50
 70
     1
102
RTVSPost2010Prop51ColorIndex
 90
      256
102
RTVSPost2010Prop51ColorRGB
 90
-16777216
102
RTVSPost2010PropOp51
 70
     0
102
RTVSPost2010Prop52
140
1.0
102
RTVSPost2010PropOp52
 70
     0
102
RTVSPost2010Prop53
 90
        2
102
RTVSPost2010PropOp53
 70
     1
102
RTVSPost2010Prop54
  1
strokes_ogs.tif
102
RTVSPost2010PropOp54
 70
     1
102
RTVSPost2010Prop55
280
     0
102
RTVSPost2010PropOp55
 70
     1
102
RTVSPost2010Prop56
140
1.0
102
RTVSPost2010PropOp56
 70
     1
102
RTVSPost2010Prop57
140
1.0
102
RTVSPost2010PropOp57
 70
     1
102
RTVSPropertyOp0
 70
     1
102
RTVSPropertyOp1
 70
     1
102
RTVSPropertyOp2
 70
     1
102
RTVSPropertyOp3
 70
     1
102
RTVSPropertyOp4
 70
     1
102
RTVSPropertyOp5
 70
     1
102
RTVSPropertyOp6
 70
     1
102
RTVSPropertyOp7
 70
     1
102
RTVSPropertyOp8
 70
     1
102
RTVSPropertyOp9
 70
     1
102
RTVSPropertyOp10
 70
     1
102
RTVSPropertyOp11
 70
     1
102
RTVSPropertyOp12
 70
     1
102
RTVSPropertyOp13
 70
     1
102
RTVSPropertyOp14
 70
     1
102
RTVSPropertyOp15
 70
     1
102
RTVSPropertyOp16
 70
     1
102
RTVSPropertyOp17
 70
     1
102
RTVSPropertyOp18
 70
     1
102
RTVSPropertyOp19
 70
     1
102
RTVSPropertyOp20
 70
     1
102
RTVSPropertyOp21
 70
     1
102
RTVSPropertyOp22
 70
     1
102
RTVSPropertyOp23
 70
     1
102
RTVSPropertyOp24
 70
     1
102
RTVSPropertyOp25
 70
     1
102
RTVSPropertyOp26
 70
     1
102
RTVSPropertyOp27
 70
     1
102
RTVSPropertyOp28
 70
     1
102
RTVSPropertyOp29
 70
     1
102
RTVSPropertyOp30
 70
     1
102
RTVSPropertyOp31
 70
     1
102
RTVSPropertyOp32
 70
     1
102
RTVSPropertyOp33
 70
     1
102
RTVSPropertyOp34
 70
     1
102
RTVSPropertyOp35
 70
     1
102
RTVSPropertyOp36
 70
     1
102
RTVSPropertyOp37
 70
     1
102
RTVSPropertyOp38
 70
     1
102
RTVSPropertyOp39
 70
     1
102
RTVSPropertyOp40
 70
     1
102
RTVSPropertyOp41
 70
     1
102
RTVSPropertyOp42
 70
     1
102
RTVSPropertyOp43
 70
     1
102
RTVSPropertyOp44
 70
     1
102
RTVSPropertyOp45
 70
     1
102
RTVSPropertyOp46
 70
     1
102
RTVSPropertyOp47
 70
     1
102
RTVSPropertyOp48
 70
     1
102
RTVSPropertyOp49
 70
     1
102
RTVSPropertyOp50
 70
     1
102
RTVSPropertyOp51
 70
     0
102
RTVSPropertyOp52
 70
     0
102
RTVSPropertyOp53
 70
     1
102
RTVSPropertyOp54
 70
     1
102
RTVSPropertyOp55
 70
     1
102
RTVSPropertyOp56
 70
     1
102
RTVSPropertyOp57
 70
     1
102
RTVSPropertyOp58
 70
     1
102
RTVSPropertyOp59
 70
     1
102
RTVSPropertyOp60
 70
     1
102
RTVSPropertyOp61
 70
     1
102
RTVSPropertyOp62
 70
     1
  0
XRECORD
  5
B4F0
102
{ACAD_REACTORS
330
B4EF
102
}
330
B4EF
100
AcDbXrecord
280
     1
102
RTVSPost2010Prop28
280
     0
102
RTVSPost2010PropOp28
 70
     1
102
RTVSPost2010Prop29
280
     1
102
RTVSPost2010PropOp29
 70
     1
102
RTVSPost2010Prop30
280
     1
102
RTVSPost2010PropOp30
 70
     1
102
RTVSPost2010Prop31
280
     0
102
RTVSPost2010PropOp31
 70
     1
102
RTVSPost2010Prop32
280
     0
102
RTVSPost2010PropOp32
 70
     1
102
RTVSPost2010Prop33
280
     0
102
RTVSPost2010PropOp33
 70
     1
102
RTVSPost2010Prop34
280
     0
102
RTVSPost2010PropOp34
 70
     1
102
RTVSPost2010Prop35
280
     0
102
RTVSPost2010PropOp35
 70
     1
102
RTVSPost2010Prop36
280
     0
102
RTVSPost2010PropOp36
 70
     1
102
RTVSPost2010Prop37
 90
       50
102
RTVSPost2010PropOp37
 70
     1
102
RTVSPost2010Prop38
140
0.0
102
RTVSPost2010PropOp38
 70
     1
102
RTVSPost2010Prop39
140
1.0
102
RTVSPost2010PropOp39
 70
     1
102
RTVSPost2010Prop40
 90
        0
102
RTVSPost2010PropOp40
 70
     1
102
RTVSPost2010Prop41ColorIndex
 90
       18
102
RTVSPost2010Prop41ColorRGB
 90
        0
102
RTVSPost2010PropOp41
 70
     1
102
RTVSPost2010Prop42
 90
       50
102
RTVSPost2010PropOp42
 70
     1
102
RTVSPost2010Prop43
 90
        3
102
RTVSPost2010PropOp43
 70
     1
102
RTVSPost2010Prop44ColorIndex
 90
        5
102
RTVSPost2010Prop44ColorRGB
 90
      255
102
RTVSPost2010PropOp44
 70
     1
102
RTVSPost2010Prop45
280
     0
102
RTVSPost2010PropOp45
 70
     1
102
RTVSPost2010Prop46
 90
       50
102
RTVSPost2010PropOp46
 70
     1
102
RTVSPost2010Prop47
 90
       50
102
RTVSPost2010PropOp47
 70
     1
102
RTVSPost2010Prop48
 90
       50
102
RTVSPost2010PropOp48
 70
     1
102
RTVSPost2010Prop49
280
     0
102
RTVSPost2010PropOp49
 70
     1
102
RTVSPost2010Prop50
 90
       50
102
RTVSPost2010PropOp50
 70
     1
102
RTVSPost2010Prop51ColorIndex
 90
      256
102
RTVSPost2010Prop51ColorRGB
 90
-16777216
102
RTVSPost2010PropOp51
 70
     0
102
RTVSPost2010Prop52
140
1.0
102
RTVSPost2010PropOp52
 70
     0
102
RTVSPost2010Prop53
 90
        2
102
RTVSPost2010PropOp53
 70
     1
102
RTVSPost2010Prop54
  1
strokes_ogs.tif
102
RTVSPost2010PropOp54
 70
     1
102
RTVSPost2010Prop55
280
     0
102
RTVSPost2010PropOp55
 70
     1
102
RTVSPost2010Prop56
140
1.0
102
RTVSPost2010PropOp56
 70
     1
102
RTVSPost2010Prop57
140
1.0
102
RTVSPost2010PropOp57
 70
     1
102
RTVSPropertyOp0
 70
     1
102
RTVSPropertyOp1
 70
     1
102
RTVSPropertyOp2
 70
     1
102
RTVSPropertyOp3
 70
     1
102
RTVSPropertyOp4
 70
     1
102
RTVSPropertyOp5
 70
     1
102
RTVSPropertyOp6
 70
     1
102
RTVSPropertyOp7
 70
     1
102
RTVSPropertyOp8
 70
     1
102
RTVSPropertyOp9
 70
     1
102
RTVSPropertyOp10
 70
     1
102
RTVSPropertyOp11
 70
     1
102
RTVSPropertyOp12
 70
     1
102
RTVSPropertyOp13
 70
     1
102
RTVSPropertyOp14
 70
     1
102
RTVSPropertyOp15
 70
     1
102
RTVSPropertyOp16
 70
     1
102
RTVSPropertyOp17
 70
     1
102
RTVSPropertyOp18
 70
     1
102
RTVSPropertyOp19
 70
     1
102
RTVSPropertyOp20
 70
     1
102
RTVSPropertyOp21
 70
     1
102
RTVSPropertyOp22
 70
     1
102
RTVSPropertyOp23
 70
     1
102
RTVSPropertyOp24
 70
     1
102
RTVSPropertyOp25
 70
     1
102
RTVSPropertyOp26
 70
     1
102
RTVSPropertyOp27
 70
     1
102
RTVSPropertyOp28
 70
     1
102
RTVSPropertyOp29
 70
     1
102
RTVSPropertyOp30
 70
     1
102
RTVSPropertyOp31
 70
     1
102
RTVSPropertyOp32
 70
     1
102
RTVSPropertyOp33
 70
     1
102
RTVSPropertyOp34
 70
     1
102
RTVSPropertyOp35
 70
     1
102
RTVSPropertyOp36
 70
     1
102
RTVSPropertyOp37
 70
     1
102
RTVSPropertyOp38
 70
     1
102
RTVSPropertyOp39
 70
     1
102
RTVSPropertyOp40
 70
     1
102
RTVSPropertyOp41
 70
     1
102
RTVSPropertyOp42
 70
     1
102
RTVSPropertyOp43
 70
     1
102
RTVSPropertyOp44
 70
     1
102
RTVSPropertyOp45
 70
     1
102
RTVSPropertyOp46
 70
     1
102
RTVSPropertyOp47
 70
     1
102
RTVSPropertyOp48
 70
     1
102
RTVSPropertyOp49
 70
     1
102
RTVSPropertyOp50
 70
     1
102
RTVSPropertyOp51
 70
     0
102
RTVSPropertyOp52
 70
     0
102
RTVSPropertyOp53
 70
     1
102
RTVSPropertyOp54
 70
     1
102
RTVSPropertyOp55
 70
     1
102
RTVSPropertyOp56
 70
     1
102
RTVSPropertyOp57
 70
     1
102
RTVSPropertyOp58
 70
     1
102
RTVSPropertyOp59
 70
     1
102
RTVSPropertyOp60
 70
     1
102
RTVSPropertyOp61
 70
     1
102
RTVSPropertyOp62
 70
     1
  0
XRECORD
  5
B4F2
102
{ACAD_REACTORS
330
B4F1
102
}
330
B4F1
100
AcDbXrecord
280
     1
102
RTVSPost2010Prop28
280
     0
102
RTVSPost2010PropOp28
 70
     1
102
RTVSPost2010Prop29
280
     1
102
RTVSPost2010PropOp29
 70
     1
102
RTVSPost2010Prop30
280
     1
102
RTVSPost2010PropOp30
 70
     1
102
RTVSPost2010Prop31
280
     0
102
RTVSPost2010PropOp31
 70
     1
102
RTVSPost2010Prop32
280
     0
102
RTVSPost2010PropOp32
 70
     1
102
RTVSPost2010Prop33
280
     0
102
RTVSPost2010PropOp33
 70
     1
102
RTVSPost2010Prop34
280
     0
102
RTVSPost2010PropOp34
 70
     1
102
RTVSPost2010Prop35
280
     0
102
RTVSPost2010PropOp35
 70
     1
102
RTVSPost2010Prop36
280
     0
102
RTVSPost2010PropOp36
 70
     1
102
RTVSPost2010Prop37
 90
       50
102
RTVSPost2010PropOp37
 70
     1
102
RTVSPost2010Prop38
140
0.0
102
RTVSPost2010PropOp38
 70
     1
102
RTVSPost2010Prop39
140
1.0
102
RTVSPost2010PropOp39
 70
     1
102
RTVSPost2010Prop40
 90
        0
102
RTVSPost2010PropOp40
 70
     1
102
RTVSPost2010Prop41ColorIndex
 90
       18
102
RTVSPost2010Prop41ColorRGB
 90
        0
102
RTVSPost2010PropOp41
 70
     1
102
RTVSPost2010Prop42
 90
       50
102
RTVSPost2010PropOp42
 70
     1
102
RTVSPost2010Prop43
 90
        3
102
RTVSPost2010PropOp43
 70
     1
102
RTVSPost2010Prop44ColorIndex
 90
        5
102
RTVSPost2010Prop44ColorRGB
 90
      255
102
RTVSPost2010PropOp44
 70
     1
102
RTVSPost2010Prop45
280
     0
102
RTVSPost2010PropOp45
 70
     1
102
RTVSPost2010Prop46
 90
       50
102
RTVSPost2010PropOp46
 70
     1
102
RTVSPost2010Prop47
 90
       50
102
RTVSPost2010PropOp47
 70
     1
102
RTVSPost2010Prop48
 90
       50
102
RTVSPost2010PropOp48
 70
     1
102
RTVSPost2010Prop49
280
     0
102
RTVSPost2010PropOp49
 70
     1
102
RTVSPost2010Prop50
 90
       50
102
RTVSPost2010PropOp50
 70
     1
102
RTVSPost2010Prop51ColorIndex
 90
      256
102
RTVSPost2010Prop51ColorRGB
 90
-16777216
102
RTVSPost2010PropOp51
 70
     0
102
RTVSPost2010Prop52
140
1.0
102
RTVSPost2010PropOp52
 70
     0
102
RTVSPost2010Prop53
 90
        2
102
RTVSPost2010PropOp53
 70
     1
102
RTVSPost2010Prop54
  1
strokes_ogs.tif
102
RTVSPost2010PropOp54
 70
     1
102
RTVSPost2010Prop55
280
     0
102
RTVSPost2010PropOp55
 70
     1
102
RTVSPost2010Prop56
140
1.0
102
RTVSPost2010PropOp56
 70
     1
102
RTVSPost2010Prop57
140
1.0
102
RTVSPost2010PropOp57
 70
     1
102
RTVSPropertyOp0
 70
     1
102
RTVSPropertyOp1
 70
     1
102
RTVSPropertyOp2
 70
     1
102
RTVSPropertyOp3
 70
     1
102
RTVSPropertyOp4
 70
     1
102
RTVSPropertyOp5
 70
     1
102
RTVSPropertyOp6
 70
     1
102
RTVSPropertyOp7
 70
     1
102
RTVSPropertyOp8
 70
     1
102
RTVSPropertyOp9
 70
     1
102
RTVSPropertyOp10
 70
     1
102
RTVSPropertyOp11
 70
     1
102
RTVSPropertyOp12
 70
     1
102
RTVSPropertyOp13
 70
     1
102
RTVSPropertyOp14
 70
     1
102
RTVSPropertyOp15
 70
     1
102
RTVSPropertyOp16
 70
     1
102
RTVSPropertyOp17
 70
     1
102
RTVSPropertyOp18
 70
     1
102
RTVSPropertyOp19
 70
     1
102
RTVSPropertyOp20
 70
     1
102
RTVSPropertyOp21
 70
     1
102
RTVSPropertyOp22
 70
     1
102
RTVSPropertyOp23
 70
     1
102
RTVSPropertyOp24
 70
     1
102
RTVSPropertyOp25
 70
     1
102
RTVSPropertyOp26
 70
     1
102
RTVSPropertyOp27
 70
     1
102
RTVSPropertyOp28
 70
     1
102
RTVSPropertyOp29
 70
     1
102
RTVSPropertyOp30
 70
     1
102
RTVSPropertyOp31
 70
     1
102
RTVSPropertyOp32
 70
     1
102
RTVSPropertyOp33
 70
     1
102
RTVSPropertyOp34
 70
     1
102
RTVSPropertyOp35
 70
     1
102
RTVSPropertyOp36
 70
     1
102
RTVSPropertyOp37
 70
     1
102
RTVSPropertyOp38
 70
     1
102
RTVSPropertyOp39
 70
     1
102
RTVSPropertyOp40
 70
     1
102
RTVSPropertyOp41
 70
     1
102
RTVSPropertyOp42
 70
     1
102
RTVSPropertyOp43
 70
     1
102
RTVSPropertyOp44
 70
     1
102
RTVSPropertyOp45
 70
     1
102
RTVSPropertyOp46
 70
     1
102
RTVSPropertyOp47
 70
     1
102
RTVSPropertyOp48
 70
     1
102
RTVSPropertyOp49
 70
     1
102
RTVSPropertyOp50
 70
     1
102
RTVSPropertyOp51
 70
     0
102
RTVSPropertyOp52
 70
     0
102
RTVSPropertyOp53
 70
     1
102
RTVSPropertyOp54
 70
     1
102
RTVSPropertyOp55
 70
     1
102
RTVSPropertyOp56
 70
     1
102
RTVSPropertyOp57
 70
     1
102
RTVSPropertyOp58
 70
     1
102
RTVSPropertyOp59
 70
     1
102
RTVSPropertyOp60
 70
     1
102
RTVSPropertyOp61
 70
     1
102
RTVSPropertyOp62
 70
     1
  0
XRECORD
  5
B4F4
102
{ACAD_REACTORS
330
B4F3
102
}
330
B4F3
100
AcDbXrecord
280
     1
102
RTVSPost2010Prop28
280
     0
102
RTVSPost2010PropOp28
 70
     1
102
RTVSPost2010Prop29
280
     1
102
RTVSPost2010PropOp29
 70
     1
102
RTVSPost2010Prop30
280
     1
102
RTVSPost2010PropOp30
 70
     1
102
RTVSPost2010Prop31
280
     0
102
RTVSPost2010PropOp31
 70
     1
102
RTVSPost2010Prop32
280
     0
102
RTVSPost2010PropOp32
 70
     1
102
RTVSPost2010Prop33
280
     0
102
RTVSPost2010PropOp33
 70
     1
102
RTVSPost2010Prop34
280
     0
102
RTVSPost2010PropOp34
 70
     1
102
RTVSPost2010Prop35
280
     0
102
RTVSPost2010PropOp35
 70
     1
102
RTVSPost2010Prop36
280
     0
102
RTVSPost2010PropOp36
 70
     1
102
RTVSPost2010Prop37
 90
       50
102
RTVSPost2010PropOp37
 70
     1
102
RTVSPost2010Prop38
140
0.0
102
RTVSPost2010PropOp38
 70
     1
102
RTVSPost2010Prop39
140
1.0
102
RTVSPost2010PropOp39
 70
     1
102
RTVSPost2010Prop40
 90
        0
102
RTVSPost2010PropOp40
 70
     1
102
RTVSPost2010Prop41ColorIndex
 90
       18
102
RTVSPost2010Prop41ColorRGB
 90
        0
102
RTVSPost2010PropOp41
 70
     1
102
RTVSPost2010Prop42
 90
       50
102
RTVSPost2010PropOp42
 70
     1
102
RTVSPost2010Prop43
 90
        3
102
RTVSPost2010PropOp43
 70
     1
102
RTVSPost2010Prop44ColorIndex
 90
        5
102
RTVSPost2010Prop44ColorRGB
 90
      255
102
RTVSPost2010PropOp44
 70
     1
102
RTVSPost2010Prop45
280
     0
102
RTVSPost2010PropOp45
 70
     1
102
RTVSPost2010Prop46
 90
       50
102
RTVSPost2010PropOp46
 70
     1
102
RTVSPost2010Prop47
 90
       50
102
RTVSPost2010PropOp47
 70
     1
102
RTVSPost2010Prop48
 90
       50
102
RTVSPost2010PropOp48
 70
     1
102
RTVSPost2010Prop49
280
     0
102
RTVSPost2010PropOp49
 70
     1
102
RTVSPost2010Prop50
 90
       50
102
RTVSPost2010PropOp50
 70
     1
102
RTVSPost2010Prop51ColorIndex
 90
      256
102
RTVSPost2010Prop51ColorRGB
 90
-16777216
102
RTVSPost2010PropOp51
 70
     0
102
RTVSPost2010Prop52
140
1.0
102
RTVSPost2010PropOp52
 70
     0
102
RTVSPost2010Prop53
 90
        2
102
RTVSPost2010PropOp53
 70
     1
102
RTVSPost2010Prop54
  1
strokes_ogs.tif
102
RTVSPost2010PropOp54
 70
     1
102
RTVSPost2010Prop55
280
     0
102
RTVSPost2010PropOp55
 70
     1
102
RTVSPost2010Prop56
140
1.0
102
RTVSPost2010PropOp56
 70
     1
102
RTVSPost2010Prop57
140
1.0
102
RTVSPost2010PropOp57
 70
     1
102
RTVSPropertyOp0
 70
     1
102
RTVSPropertyOp1
 70
     1
102
RTVSPropertyOp2
 70
     1
102
RTVSPropertyOp3
 70
     1
102
RTVSPropertyOp4
 70
     1
102
RTVSPropertyOp5
 70
     1
102
RTVSPropertyOp6
 70
     1
102
RTVSPropertyOp7
 70
     1
102
RTVSPropertyOp8
 70
     1
102
RTVSPropertyOp9
 70
     1
102
RTVSPropertyOp10
 70
     1
102
RTVSPropertyOp11
 70
     1
102
RTVSPropertyOp12
 70
     1
102
RTVSPropertyOp13
 70
     1
102
RTVSPropertyOp14
 70
     1
102
RTVSPropertyOp15
 70
     1
102
RTVSPropertyOp16
 70
     1
102
RTVSPropertyOp17
 70
     1
102
RTVSPropertyOp18
 70
     1
102
RTVSPropertyOp19
 70
     1
102
RTVSPropertyOp20
 70
     1
102
RTVSPropertyOp21
 70
     1
102
RTVSPropertyOp22
 70
     1
102
RTVSPropertyOp23
 70
     1
102
RTVSPropertyOp24
 70
     1
102
RTVSPropertyOp25
 70
     1
102
RTVSPropertyOp26
 70
     1
102
RTVSPropertyOp27
 70
     1
102
RTVSPropertyOp28
 70
     1
102
RTVSPropertyOp29
 70
     1
102
RTVSPropertyOp30
 70
     1
102
RTVSPropertyOp31
 70
     1
102
RTVSPropertyOp32
 70
     1
102
RTVSPropertyOp33
 70
     1
102
RTVSPropertyOp34
 70
     1
102
RTVSPropertyOp35
 70
     1
102
RTVSPropertyOp36
 70
     1
102
RTVSPropertyOp37
 70
     1
102
RTVSPropertyOp38
 70
     1
102
RTVSPropertyOp39
 70
     1
102
RTVSPropertyOp40
 70
     1
102
RTVSPropertyOp41
 70
     1
102
RTVSPropertyOp42
 70
     1
102
RTVSPropertyOp43
 70
     1
102
RTVSPropertyOp44
 70
     1
102
RTVSPropertyOp45
 70
     1
102
RTVSPropertyOp46
 70
     1
102
RTVSPropertyOp47
 70
     1
102
RTVSPropertyOp48
 70
     1
102
RTVSPropertyOp49
 70
     1
102
RTVSPropertyOp50
 70
     1
102
RTVSPropertyOp51
 70
     0
102
RTVSPropertyOp52
 70
     0
102
RTVSPropertyOp53
 70
     1
102
RTVSPropertyOp54
 70
     1
102
RTVSPropertyOp55
 70
     1
102
RTVSPropertyOp56
 70
     1
102
RTVSPropertyOp57
 70
     1
102
RTVSPropertyOp58
 70
     1
102
RTVSPropertyOp59
 70
     1
102
RTVSPropertyOp60
 70
     1
102
RTVSPropertyOp61
 70
     1
102
RTVSPropertyOp62
 70
     1
  0
XRECORD
  5
B4F6
102
{ACAD_REACTORS
330
B4F5
102
}
330
B4F5
100
AcDbXrecord
280
     1
102
RTVSPost2010Prop28
280
     0
102
RTVSPost2010PropOp28
 70
     1
102
RTVSPost2010Prop29
280
     1
102
RTVSPost2010PropOp29
 70
     1
102
RTVSPost2010Prop30
280
     1
102
RTVSPost2010PropOp30
 70
     1
102
RTVSPost2010Prop31
280
     0
102
RTVSPost2010PropOp31
 70
     1
102
RTVSPost2010Prop32
280
     0
102
RTVSPost2010PropOp32
 70
     1
102
RTVSPost2010Prop33
280
     0
102
RTVSPost2010PropOp33
 70
     1
102
RTVSPost2010Prop34
280
     0
102
RTVSPost2010PropOp34
 70
     1
102
RTVSPost2010Prop35
280
     0
102
RTVSPost2010PropOp35
 70
     1
102
RTVSPost2010Prop36
280
     0
102
RTVSPost2010PropOp36
 70
     1
102
RTVSPost2010Prop37
 90
       50
102
RTVSPost2010PropOp37
 70
     1
102
RTVSPost2010Prop38
140
0.0
102
RTVSPost2010PropOp38
 70
     1
102
RTVSPost2010Prop39
140
1.0
102
RTVSPost2010PropOp39
 70
     1
102
RTVSPost2010Prop40
 90
        0
102
RTVSPost2010PropOp40
 70
     1
102
RTVSPost2010Prop41ColorIndex
 90
       18
102
RTVSPost2010Prop41ColorRGB
 90
        0
102
RTVSPost2010PropOp41
 70
     1
102
RTVSPost2010Prop42
 90
       50
102
RTVSPost2010PropOp42
 70
     1
102
RTVSPost2010Prop43
 90
        3
102
RTVSPost2010PropOp43
 70
     1
102
RTVSPost2010Prop44ColorIndex
 90
        5
102
RTVSPost2010Prop44ColorRGB
 90
      255
102
RTVSPost2010PropOp44
 70
     1
102
RTVSPost2010Prop45
280
     0
102
RTVSPost2010PropOp45
 70
     1
102
RTVSPost2010Prop46
 90
       50
102
RTVSPost2010PropOp46
 70
     1
102
RTVSPost2010Prop47
 90
       50
102
RTVSPost2010PropOp47
 70
     1
102
RTVSPost2010Prop48
 90
       50
102
RTVSPost2010PropOp48
 70
     1
102
RTVSPost2010Prop49
280
     0
102
RTVSPost2010PropOp49
 70
     1
102
RTVSPost2010Prop50
 90
       50
102
RTVSPost2010PropOp50
 70
     1
102
RTVSPost2010Prop51ColorIndex
 90
      256
102
RTVSPost2010Prop51ColorRGB
 90
-16777216
102
RTVSPost2010PropOp51
 70
     0
102
RTVSPost2010Prop52
140
1.0
102
RTVSPost2010PropOp52
 70
     0
102
RTVSPost2010Prop53
 90
        2
102
RTVSPost2010PropOp53
 70
     1
102
RTVSPost2010Prop54
  1
strokes_ogs.tif
102
RTVSPost2010PropOp54
 70
     1
102
RTVSPost2010Prop55
280
     0
102
RTVSPost2010PropOp55
 70
     1
102
RTVSPost2010Prop56
140
1.0
102
RTVSPost2010PropOp56
 70
     1
102
RTVSPost2010Prop57
140
1.0
102
RTVSPost2010PropOp57
 70
     1
102
RTVSPropertyOp0
 70
     1
102
RTVSPropertyOp1
 70
     1
102
RTVSPropertyOp2
 70
     1
102
RTVSPropertyOp3
 70
     1
102
RTVSPropertyOp4
 70
     1
102
RTVSPropertyOp5
 70
     1
102
RTVSPropertyOp6
 70
     1
102
RTVSPropertyOp7
 70
     1
102
RTVSPropertyOp8
 70
     1
102
RTVSPropertyOp9
 70
     1
102
RTVSPropertyOp10
 70
     1
102
RTVSPropertyOp11
 70
     1
102
RTVSPropertyOp12
 70
     1
102
RTVSPropertyOp13
 70
     1
102
RTVSPropertyOp14
 70
     1
102
RTVSPropertyOp15
 70
     1
102
RTVSPropertyOp16
 70
     1
102
RTVSPropertyOp17
 70
     1
102
RTVSPropertyOp18
 70
     1
102
RTVSPropertyOp19
 70
     1
102
RTVSPropertyOp20
 70
     1
102
RTVSPropertyOp21
 70
     1
102
RTVSPropertyOp22
 70
     1
102
RTVSPropertyOp23
 70
     1
102
RTVSPropertyOp24
 70
     1
102
RTVSPropertyOp25
 70
     1
102
RTVSPropertyOp26
 70
     1
102
RTVSPropertyOp27
 70
     1
102
RTVSPropertyOp28
 70
     1
102
RTVSPropertyOp29
 70
     1
102
RTVSPropertyOp30
 70
     1
102
RTVSPropertyOp31
 70
     1
102
RTVSPropertyOp32
 70
     1
102
RTVSPropertyOp33
 70
     1
102
RTVSPropertyOp34
 70
     1
102
RTVSPropertyOp35
 70
     1
102
RTVSPropertyOp36
 70
     1
102
RTVSPropertyOp37
 70
     1
102
RTVSPropertyOp38
 70
     1
102
RTVSPropertyOp39
 70
     1
102
RTVSPropertyOp40
 70
     1
102
RTVSPropertyOp41
 70
     1
102
RTVSPropertyOp42
 70
     1
102
RTVSPropertyOp43
 70
     1
102
RTVSPropertyOp44
 70
     1
102
RTVSPropertyOp45
 70
     1
102
RTVSPropertyOp46
 70
     1
102
RTVSPropertyOp47
 70
     1
102
RTVSPropertyOp48
 70
     1
102
RTVSPropertyOp49
 70
     1
102
RTVSPropertyOp50
 70
     1
102
RTVSPropertyOp51
 70
     0
102
RTVSPropertyOp52
 70
     0
102
RTVSPropertyOp53
 70
     1
102
RTVSPropertyOp54
 70
     1
102
RTVSPropertyOp55
 70
     1
102
RTVSPropertyOp56
 70
     1
102
RTVSPropertyOp57
 70
     1
102
RTVSPropertyOp58
 70
     1
102
RTVSPropertyOp59
 70
     1
102
RTVSPropertyOp60
 70
     1
102
RTVSPropertyOp61
 70
     1
102
RTVSPropertyOp62
 70
     1
  0
XRECORD
  5
B4FE
102
{ACAD_REACTORS
330
B4FD
102
}
330
B4FD
100
AcDbXrecord
280
     1
102
RTVSPost2010Prop28
280
     0
102
RTVSPost2010PropOp28
 70
     1
102
RTVSPost2010Prop29
280
     1
102
RTVSPost2010PropOp29
 70
     1
102
RTVSPost2010Prop30
280
     1
102
RTVSPost2010PropOp30
 70
     1
102
RTVSPost2010Prop31
280
     0
102
RTVSPost2010PropOp31
 70
     1
102
RTVSPost2010Prop32
280
     0
102
RTVSPost2010PropOp32
 70
     1
102
RTVSPost2010Prop33
280
     0
102
RTVSPost2010PropOp33
 70
     1
102
RTVSPost2010Prop34
280
     0
102
RTVSPost2010PropOp34
 70
     1
102
RTVSPost2010Prop35
280
     0
102
RTVSPost2010PropOp35
 70
     1
102
RTVSPost2010Prop36
280
     0
102
RTVSPost2010PropOp36
 70
     1
102
RTVSPost2010Prop37
 90
       50
102
RTVSPost2010PropOp37
 70
     1
102
RTVSPost2010Prop38
140
0.0
102
RTVSPost2010PropOp38
 70
     1
102
RTVSPost2010Prop39
140
1.0
102
RTVSPost2010PropOp39
 70
     1
102
RTVSPost2010Prop40
 90
        0
102
RTVSPost2010PropOp40
 70
     1
102
RTVSPost2010Prop41ColorIndex
 90
       18
102
RTVSPost2010Prop41ColorRGB
 90
        0
102
RTVSPost2010PropOp41
 70
     1
102
RTVSPost2010Prop42
 90
       50
102
RTVSPost2010PropOp42
 70
     1
102
RTVSPost2010Prop43
 90
        3
102
RTVSPost2010PropOp43
 70
     1
102
RTVSPost2010Prop44ColorIndex
 90
        5
102
RTVSPost2010Prop44ColorRGB
 90
      255
102
RTVSPost2010PropOp44
 70
     1
102
RTVSPost2010Prop45
280
     0
102
RTVSPost2010PropOp45
 70
     1
102
RTVSPost2010Prop46
 90
       50
102
RTVSPost2010PropOp46
 70
     1
102
RTVSPost2010Prop47
 90
       50
102
RTVSPost2010PropOp47
 70
     1
102
RTVSPost2010Prop48
 90
       50
102
RTVSPost2010PropOp48
 70
     1
102
RTVSPost2010Prop49
280
     0
102
RTVSPost2010PropOp49
 70
     1
102
RTVSPost2010Prop50
 90
       50
102
RTVSPost2010PropOp50
 70
     1
102
RTVSPost2010Prop51ColorIndex
 90
      256
102
RTVSPost2010Prop51ColorRGB
 90
-16777216
102
RTVSPost2010PropOp51
 70
     0
102
RTVSPost2010Prop52
140
1.0
102
RTVSPost2010PropOp52
 70
     0
102
RTVSPost2010Prop53
 90
        2
102
RTVSPost2010PropOp53
 70
     1
102
RTVSPost2010Prop54
  1
strokes_ogs.tif
102
RTVSPost2010PropOp54
 70
     1
102
RTVSPost2010Prop55
280
     0
102
RTVSPost2010PropOp55
 70
     1
102
RTVSPost2010Prop56
140
1.0
102
RTVSPost2010PropOp56
 70
     1
102
RTVSPost2010Prop57
140
1.0
102
RTVSPost2010PropOp57
 70
     1
102
RTVSPropertyOp0
 70
     1
102
RTVSPropertyOp1
 70
     1
102
RTVSPropertyOp2
 70
     1
102
RTVSPropertyOp3
 70
     1
102
RTVSPropertyOp4
 70
     1
102
RTVSPropertyOp5
 70
     1
102
RTVSPropertyOp6
 70
     1
102
RTVSPropertyOp7
 70
     1
102
RTVSPropertyOp8
 70
     1
102
RTVSPropertyOp9
 70
     1
102
RTVSPropertyOp10
 70
     1
102
RTVSPropertyOp11
 70
     1
102
RTVSPropertyOp12
 70
     1
102
RTVSPropertyOp13
 70
     1
102
RTVSPropertyOp14
 70
     1
102
RTVSPropertyOp15
 70
     1
102
RTVSPropertyOp16
 70
     1
102
RTVSPropertyOp17
 70
     1
102
RTVSPropertyOp18
 70
     1
102
RTVSPropertyOp19
 70
     1
102
RTVSPropertyOp20
 70
     1
102
RTVSPropertyOp21
 70
     1
102
RTVSPropertyOp22
 70
     1
102
RTVSPropertyOp23
 70
     1
102
RTVSPropertyOp24
 70
     1
102
RTVSPropertyOp25
 70
     1
102
RTVSPropertyOp26
 70
     1
102
RTVSPropertyOp27
 70
     1
102
RTVSPropertyOp28
 70
     1
102
RTVSPropertyOp29
 70
     1
102
RTVSPropertyOp30
 70
     1
102
RTVSPropertyOp31
 70
     1
102
RTVSPropertyOp32
 70
     1
102
RTVSPropertyOp33
 70
     1
102
RTVSPropertyOp34
 70
     1
102
RTVSPropertyOp35
 70
     1
102
RTVSPropertyOp36
 70
     1
102
RTVSPropertyOp37
 70
     1
102
RTVSPropertyOp38
 70
     1
102
RTVSPropertyOp39
 70
     1
102
RTVSPropertyOp40
 70
     1
102
RTVSPropertyOp41
 70
     1
102
RTVSPropertyOp42
 70
     1
102
RTVSPropertyOp43
 70
     1
102
RTVSPropertyOp44
 70
     1
102
RTVSPropertyOp45
 70
     1
102
RTVSPropertyOp46
 70
     1
102
RTVSPropertyOp47
 70
     1
102
RTVSPropertyOp48
 70
     1
102
RTVSPropertyOp49
 70
     1
102
RTVSPropertyOp50
 70
     1
102
RTVSPropertyOp51
 70
     0
102
RTVSPropertyOp52
 70
     0
102
RTVSPropertyOp53
 70
     1
102
RTVSPropertyOp54
 70
     1
102
RTVSPropertyOp55
 70
     1
102
RTVSPropertyOp56
 70
     1
102
RTVSPropertyOp57
 70
     1
102
RTVSPropertyOp58
 70
     1
102
RTVSPropertyOp59
 70
     1
102
RTVSPropertyOp60
 70
     1
102
RTVSPropertyOp61
 70
     1
102
RTVSPropertyOp62
 70
     1
  0
XRECORD
  5
B51A
102
{ACAD_REACTORS
330
B519
102
}
330
B519
100
AcDbXrecord
280
     1
102
RTVSPost2010Prop28
280
     0
102
RTVSPost2010PropOp28
 70
     1
102
RTVSPost2010Prop29
280
     1
102
RTVSPost2010PropOp29
 70
     1
102
RTVSPost2010Prop30
280
     1
102
RTVSPost2010PropOp30
 70
     1
102
RTVSPost2010Prop31
280
     0
102
RTVSPost2010PropOp31
 70
     1
102
RTVSPost2010Prop32
280
     0
102
RTVSPost2010PropOp32
 70
     1
102
RTVSPost2010Prop33
280
     0
102
RTVSPost2010PropOp33
 70
     1
102
RTVSPost2010Prop34
280
     0
102
RTVSPost2010PropOp34
 70
     1
102
RTVSPost2010Prop35
280
     0
102
RTVSPost2010PropOp35
 70
     1
102
RTVSPost2010Prop36
280
     0
102
RTVSPost2010PropOp36
 70
     1
102
RTVSPost2010Prop37
 90
       50
102
RTVSPost2010PropOp37
 70
     0
102
RTVSPost2010Prop38
140
0.0
102
RTVSPost2010PropOp38
 70
     0
102
RTVSPost2010Prop39
140
1.0
102
RTVSPost2010PropOp39
 70
     0
102
RTVSPost2010Prop40
 90
        0
102
RTVSPost2010PropOp40
 70
     0
102
RTVSPost2010Prop41ColorIndex
 90
       18
102
RTVSPost2010Prop41ColorRGB
 90
        0
102
RTVSPost2010PropOp41
 70
     0
102
RTVSPost2010Prop42
 90
       50
102
RTVSPost2010PropOp42
 70
     0
102
RTVSPost2010Prop43
 90
        3
102
RTVSPost2010PropOp43
 70
     0
102
RTVSPost2010Prop44ColorIndex
 90
        5
102
RTVSPost2010Prop44ColorRGB
 90
      255
102
RTVSPost2010PropOp44
 70
     0
102
RTVSPost2010Prop45
280
     0
102
RTVSPost2010PropOp45
 70
     1
102
RTVSPost2010Prop46
 90
       50
102
RTVSPost2010PropOp46
 70
     0
102
RTVSPost2010Prop47
 90
       50
102
RTVSPost2010PropOp47
 70
     0
102
RTVSPost2010Prop48
 90
       50
102
RTVSPost2010PropOp48
 70
     0
102
RTVSPost2010Prop49
280
     0
102
RTVSPost2010PropOp49
 70
     1
102
RTVSPost2010Prop50
 90
       50
102
RTVSPost2010PropOp50
 70
     0
102
RTVSPost2010Prop51ColorIndex
 90
      256
102
RTVSPost2010Prop51ColorRGB
 90
-16777216
102
RTVSPost2010PropOp51
 70
     0
102
RTVSPost2010Prop52
140
1.0
102
RTVSPost2010PropOp52
 70
     0
102
RTVSPost2010Prop53
 90
        2
102
RTVSPost2010PropOp53
 70
     0
102
RTVSPost2010Prop54
  1
strokes_ogs.tif
102
RTVSPost2010PropOp54
 70
     0
102
RTVSPost2010Prop55
280
     0
102
RTVSPost2010PropOp55
 70
     1
102
RTVSPost2010Prop56
140
1.0
102
RTVSPost2010PropOp56
 70
     0
102
RTVSPost2010Prop57
140
1.0
102
RTVSPost2010PropOp57
 70
     0
102
RTVSPropertyOp0
 70
     0
102
RTVSPropertyOp1
 70
     0
102
RTVSPropertyOp2
 70
     0
102
RTVSPropertyOp3
 70
     0
102
RTVSPropertyOp4
 70
     0
102
RTVSPropertyOp5
 70
     0
102
RTVSPropertyOp6
 70
     0
102
RTVSPropertyOp7
 70
     0
102
RTVSPropertyOp8
 70
     0
102
RTVSPropertyOp9
 70
     0
102
RTVSPropertyOp10
 70
     0
102
RTVSPropertyOp11
 70
     0
102
RTVSPropertyOp12
 70
     0
102
RTVSPropertyOp13
 70
     0
102
RTVSPropertyOp14
 70
     2
102
RTVSPropertyOp15
 70
     0
102
RTVSPropertyOp16
 70
     0
102
RTVSPropertyOp17
 70
     0
102
RTVSPropertyOp18
 70
     0
102
RTVSPropertyOp19
 70
     0
102
RTVSPropertyOp20
 70
     0
102
RTVSPropertyOp21
 70
     0
102
RTVSPropertyOp22
 70
     0
102
RTVSPropertyOp23
 70
     0
102
RTVSPropertyOp24
 70
     0
102
RTVSPropertyOp25
 70
     0
102
RTVSPropertyOp26
 70
     0
102
RTVSPropertyOp27
 70
     0
102
RTVSPropertyOp28
 70
     1
102
RTVSPropertyOp29
 70
     1
102
RTVSPropertyOp30
 70
     1
102
RTVSPropertyOp31
 70
     1
102
RTVSPropertyOp32
 70
     1
102
RTVSPropertyOp33
 70
     1
102
RTVSPropertyOp34
 70
     1
102
RTVSPropertyOp35
 70
     1
102
RTVSPropertyOp36
 70
     1
102
RTVSPropertyOp37
 70
     0
102
RTVSPropertyOp38
 70
     0
102
RTVSPropertyOp39
 70
     0
102
RTVSPropertyOp40
 70
     0
102
RTVSPropertyOp41
 70
     0
102
RTVSPropertyOp42
 70
     0
102
RTVSPropertyOp43
 70
     0
102
RTVSPropertyOp44
 70
     0
102
RTVSPropertyOp45
 70
     1
102
RTVSPropertyOp46
 70
     0
102
RTVSPropertyOp47
 70
     0
102
RTVSPropertyOp48
 70
     0
102
RTVSPropertyOp49
 70
     1
102
RTVSPropertyOp50
 70
     0
102
RTVSPropertyOp51
 70
     0
102
RTVSPropertyOp52
 70
     0
102
RTVSPropertyOp53
 70
     0
102
RTVSPropertyOp54
 70
     0
102
RTVSPropertyOp55
 70
     1
102
RTVSPropertyOp56
 70
     0
102
RTVSPropertyOp57
 70
     0
102
RTVSPropertyOp58
 70
     0
102
RTVSPropertyOp59
 70
     0
102
RTVSPropertyOp60
 70
     0
102
RTVSPropertyOp61
 70
     0
102
RTVSPropertyOp62
 70
     0
  0
XRECORD
  5
B50A
102
{ACAD_REACTORS
330
B509
102
}
330
B509
100
AcDbXrecord
280
     1
102
RTVSPost2010Prop28
280
     0
102
RTVSPost2010PropOp28
 70
     1
102
RTVSPost2010Prop29
280
     1
102
RTVSPost2010PropOp29
 70
     1
102
RTVSPost2010Prop30
280
     1
102
RTVSPost2010PropOp30
 70
     1
102
RTVSPost2010Prop31
280
     0
102
RTVSPost2010PropOp31
 70
     1
102
RTVSPost2010Prop32
280
     0
102
RTVSPost2010PropOp32
 70
     1
102
RTVSPost2010Prop33
280
     0
102
RTVSPost2010PropOp33
 70
     1
102
RTVSPost2010Prop34
280
     0
102
RTVSPost2010PropOp34
 70
     1
102
RTVSPost2010Prop35
280
     0
102
RTVSPost2010PropOp35
 70
     1
102
RTVSPost2010Prop36
280
     0
102
RTVSPost2010PropOp36
 70
     1
102
RTVSPost2010Prop37
 90
       50
102
RTVSPost2010PropOp37
 70
     1
102
RTVSPost2010Prop38
140
0.0
102
RTVSPost2010PropOp38
 70
     1
102
RTVSPost2010Prop39
140
1.0
102
RTVSPost2010PropOp39
 70
     1
102
RTVSPost2010Prop40
 90
        0
102
RTVSPost2010PropOp40
 70
     1
102
RTVSPost2010Prop41ColorIndex
 90
       18
102
RTVSPost2010Prop41ColorRGB
 90
        0
102
RTVSPost2010PropOp41
 70
     1
102
RTVSPost2010Prop42
 90
       50
102
RTVSPost2010PropOp42
 70
     1
102
RTVSPost2010Prop43
 90
        3
102
RTVSPost2010PropOp43
 70
     1
102
RTVSPost2010Prop44ColorIndex
 90
        5
102
RTVSPost2010Prop44ColorRGB
 90
      255
102
RTVSPost2010PropOp44
 70
     1
102
RTVSPost2010Prop45
280
     0
102
RTVSPost2010PropOp45
 70
     1
102
RTVSPost2010Prop46
 90
       50
102
RTVSPost2010PropOp46
 70
     1
102
RTVSPost2010Prop47
 90
       50
102
RTVSPost2010PropOp47
 70
     1
102
RTVSPost2010Prop48
 90
       50
102
RTVSPost2010PropOp48
 70
     1
102
RTVSPost2010Prop49
280
     0
102
RTVSPost2010PropOp49
 70
     1
102
RTVSPost2010Prop50
 90
       50
102
RTVSPost2010PropOp50
 70
     1
102
RTVSPost2010Prop51ColorIndex
 90
      256
102
RTVSPost2010Prop51ColorRGB
 90
-16777216
102
RTVSPost2010PropOp51
 70
     0
102
RTVSPost2010Prop52
140
1.0
102
RTVSPost2010PropOp52
 70
     0
102
RTVSPost2010Prop53
 90
        2
102
RTVSPost2010PropOp53
 70
     1
102
RTVSPost2010Prop54
  1
strokes_ogs.tif
102
RTVSPost2010PropOp54
 70
     1
102
RTVSPost2010Prop55
280
     0
102
RTVSPost2010PropOp55
 70
     1
102
RTVSPost2010Prop56
140
1.0
102
RTVSPost2010PropOp56
 70
     1
102
RTVSPost2010Prop57
140
1.0
102
RTVSPost2010PropOp57
 70
     1
102
RTVSPropertyOp0
 70
     1
102
RTVSPropertyOp1
 70
     1
102
RTVSPropertyOp2
 70
     1
102
RTVSPropertyOp3
 70
     1
102
RTVSPropertyOp4
 70
     1
102
RTVSPropertyOp5
 70
     1
102
RTVSPropertyOp6
 70
     1
102
RTVSPropertyOp7
 70
     1
102
RTVSPropertyOp8
 70
     1
102
RTVSPropertyOp9
 70
     1
102
RTVSPropertyOp10
 70
     1
102
RTVSPropertyOp11
 70
     1
102
RTVSPropertyOp12
 70
     1
102
RTVSPropertyOp13
 70
     1
102
RTVSPropertyOp14
 70
     1
102
RTVSPropertyOp15
 70
     1
102
RTVSPropertyOp16
 70
     1
102
RTVSPropertyOp17
 70
     1
102
RTVSPropertyOp18
 70
     1
102
RTVSPropertyOp19
 70
     1
102
RTVSPropertyOp20
 70
     1
102
RTVSPropertyOp21
 70
     1
102
RTVSPropertyOp22
 70
     1
102
RTVSPropertyOp23
 70
     1
102
RTVSPropertyOp24
 70
     1
102
RTVSPropertyOp25
 70
     1
102
RTVSPropertyOp26
 70
     1
102
RTVSPropertyOp27
 70
     1
102
RTVSPropertyOp28
 70
     1
102
RTVSPropertyOp29
 70
     1
102
RTVSPropertyOp30
 70
     1
102
RTVSPropertyOp31
 70
     1
102
RTVSPropertyOp32
 70
     1
102
RTVSPropertyOp33
 70
     1
102
RTVSPropertyOp34
 70
     1
102
RTVSPropertyOp35
 70
     1
102
RTVSPropertyOp36
 70
     1
102
RTVSPropertyOp37
 70
     1
102
RTVSPropertyOp38
 70
     1
102
RTVSPropertyOp39
 70
     1
102
RTVSPropertyOp40
 70
     1
102
RTVSPropertyOp41
 70
     1
102
RTVSPropertyOp42
 70
     1
102
RTVSPropertyOp43
 70
     1
102
RTVSPropertyOp44
 70
     1
102
RTVSPropertyOp45
 70
     1
102
RTVSPropertyOp46
 70
     1
102
RTVSPropertyOp47
 70
     1
102
RTVSPropertyOp48
 70
     1
102
RTVSPropertyOp49
 70
     1
102
RTVSPropertyOp50
 70
     1
102
RTVSPropertyOp51
 70
     0
102
RTVSPropertyOp52
 70
     0
102
RTVSPropertyOp53
 70
     1
102
RTVSPropertyOp54
 70
     1
102
RTVSPropertyOp55
 70
     1
102
RTVSPropertyOp56
 70
     1
102
RTVSPropertyOp57
 70
     1
102
RTVSPropertyOp58
 70
     1
102
RTVSPropertyOp59
 70
     1
102
RTVSPropertyOp60
 70
     1
102
RTVSPropertyOp61
 70
     1
102
RTVSPropertyOp62
 70
     1
  0
XRECORD
  5
B51C
102
{ACAD_REACTORS
330
B51B
102
}
330
B51B
100
AcDbXrecord
280
     1
102
RTVSPost2010Prop28
280
     0
102
RTVSPost2010PropOp28
 70
     1
102
RTVSPost2010Prop29
280
     1
102
RTVSPost2010PropOp29
 70
     1
102
RTVSPost2010Prop30
280
     1
102
RTVSPost2010PropOp30
 70
     1
102
RTVSPost2010Prop31
280
     0
102
RTVSPost2010PropOp31
 70
     1
102
RTVSPost2010Prop32
280
     0
102
RTVSPost2010PropOp32
 70
     1
102
RTVSPost2010Prop33
280
     0
102
RTVSPost2010PropOp33
 70
     1
102
RTVSPost2010Prop34
280
     0
102
RTVSPost2010PropOp34
 70
     1
102
RTVSPost2010Prop35
280
     0
102
RTVSPost2010PropOp35
 70
     1
102
RTVSPost2010Prop36
280
     0
102
RTVSPost2010PropOp36
 70
     1
102
RTVSPost2010Prop37
 90
       50
102
RTVSPost2010PropOp37
 70
     0
102
RTVSPost2010Prop38
140
0.0
102
RTVSPost2010PropOp38
 70
     0
102
RTVSPost2010Prop39
140
1.0
102
RTVSPost2010PropOp39
 70
     0
102
RTVSPost2010Prop40
 90
        0
102
RTVSPost2010PropOp40
 70
     0
102
RTVSPost2010Prop41ColorIndex
 90
       18
102
RTVSPost2010Prop41ColorRGB
 90
        0
102
RTVSPost2010PropOp41
 70
     0
102
RTVSPost2010Prop42
 90
       50
102
RTVSPost2010PropOp42
 70
     0
102
RTVSPost2010Prop43
 90
        3
102
RTVSPost2010PropOp43
 70
     0
102
RTVSPost2010Prop44ColorIndex
 90
        5
102
RTVSPost2010Prop44ColorRGB
 90
      255
102
RTVSPost2010PropOp44
 70
     0
102
RTVSPost2010Prop45
280
     0
102
RTVSPost2010PropOp45
 70
     1
102
RTVSPost2010Prop46
 90
       50
102
RTVSPost2010PropOp46
 70
     0
102
RTVSPost2010Prop47
 90
       50
102
RTVSPost2010PropOp47
 70
     0
102
RTVSPost2010Prop48
 90
       50
102
RTVSPost2010PropOp48
 70
     0
102
RTVSPost2010Prop49
280
     0
102
RTVSPost2010PropOp49
 70
     1
102
RTVSPost2010Prop50
 90
       50
102
RTVSPost2010PropOp50
 70
     0
102
RTVSPost2010Prop51ColorIndex
 90
      256
102
RTVSPost2010Prop51ColorRGB
 90
-16777216
102
RTVSPost2010PropOp51
 70
     0
102
RTVSPost2010Prop52
140
1.0
102
RTVSPost2010PropOp52
 70
     0
102
RTVSPost2010Prop53
 90
        2
102
RTVSPost2010PropOp53
 70
     0
102
RTVSPost2010Prop54
  1
strokes_ogs.tif
102
RTVSPost2010PropOp54
 70
     0
102
RTVSPost2010Prop55
280
     0
102
RTVSPost2010PropOp55
 70
     1
102
RTVSPost2010Prop56
140
1.0
102
RTVSPost2010PropOp56
 70
     0
102
RTVSPost2010Prop57
140
1.0
102
RTVSPost2010PropOp57
 70
     0
102
RTVSPropertyOp0
 70
     0
102
RTVSPropertyOp1
 70
     0
102
RTVSPropertyOp2
 70
     0
102
RTVSPropertyOp3
 70
     0
102
RTVSPropertyOp4
 70
     0
102
RTVSPropertyOp5
 70
     0
102
RTVSPropertyOp6
 70
     0
102
RTVSPropertyOp7
 70
     0
102
RTVSPropertyOp8
 70
     0
102
RTVSPropertyOp9
 70
     0
102
RTVSPropertyOp10
 70
     0
102
RTVSPropertyOp11
 70
     0
102
RTVSPropertyOp12
 70
     0
102
RTVSPropertyOp13
 70
     0
102
RTVSPropertyOp14
 70
     2
102
RTVSPropertyOp15
 70
     0
102
RTVSPropertyOp16
 70
     0
102
RTVSPropertyOp17
 70
     0
102
RTVSPropertyOp18
 70
     0
102
RTVSPropertyOp19
 70
     0
102
RTVSPropertyOp20
 70
     0
102
RTVSPropertyOp21
 70
     0
102
RTVSPropertyOp22
 70
     0
102
RTVSPropertyOp23
 70
     0
102
RTVSPropertyOp24
 70
     0
102
RTVSPropertyOp25
 70
     0
102
RTVSPropertyOp26
 70
     0
102
RTVSPropertyOp27
 70
     0
102
RTVSPropertyOp28
 70
     1
102
RTVSPropertyOp29
 70
     1
102
RTVSPropertyOp30
 70
     1
102
RTVSPropertyOp31
 70
     1
102
RTVSPropertyOp32
 70
     1
102
RTVSPropertyOp33
 70
     1
102
RTVSPropertyOp34
 70
     1
102
RTVSPropertyOp35
 70
     1
102
RTVSPropertyOp36
 70
     1
102
RTVSPropertyOp37
 70
     0
102
RTVSPropertyOp38
 70
     0
102
RTVSPropertyOp39
 70
     0
102
RTVSPropertyOp40
 70
     0
102
RTVSPropertyOp41
 70
     0
102
RTVSPropertyOp42
 70
     0
102
RTVSPropertyOp43
 70
     0
102
RTVSPropertyOp44
 70
     0
102
RTVSPropertyOp45
 70
     1
102
RTVSPropertyOp46
 70
     0
102
RTVSPropertyOp47
 70
     0
102
RTVSPropertyOp48
 70
     0
102
RTVSPropertyOp49
 70
     1
102
RTVSPropertyOp50
 70
     0
102
RTVSPropertyOp51
 70
     0
102
RTVSPropertyOp52
 70
     0
102
RTVSPropertyOp53
 70
     0
102
RTVSPropertyOp54
 70
     0
102
RTVSPropertyOp55
 70
     1
102
RTVSPropertyOp56
 70
     0
102
RTVSPropertyOp57
 70
     0
102
RTVSPropertyOp58
 70
     0
102
RTVSPropertyOp59
 70
     0
102
RTVSPropertyOp60
 70
     0
102
RTVSPropertyOp61
 70
     0
102
RTVSPropertyOp62
 70
     0
  0
XRECORD
  5
B502
102
{ACAD_REACTORS
330
B501
102
}
330
B501
100
AcDbXrecord
280
     1
102
RTVSPost2010Prop28
280
     0
102
RTVSPost2010PropOp28
 70
     1
102
RTVSPost2010Prop29
280
     1
102
RTVSPost2010PropOp29
 70
     1
102
RTVSPost2010Prop30
280
     1
102
RTVSPost2010PropOp30
 70
     1
102
RTVSPost2010Prop31
280
     0
102
RTVSPost2010PropOp31
 70
     1
102
RTVSPost2010Prop32
280
     0
102
RTVSPost2010PropOp32
 70
     1
102
RTVSPost2010Prop33
280
     0
102
RTVSPost2010PropOp33
 70
     1
102
RTVSPost2010Prop34
280
     0
102
RTVSPost2010PropOp34
 70
     1
102
RTVSPost2010Prop35
280
     0
102
RTVSPost2010PropOp35
 70
     1
102
RTVSPost2010Prop36
280
     0
102
RTVSPost2010PropOp36
 70
     1
102
RTVSPost2010Prop37
 90
       50
102
RTVSPost2010PropOp37
 70
     1
102
RTVSPost2010Prop38
140
0.0
102
RTVSPost2010PropOp38
 70
     1
102
RTVSPost2010Prop39
140
1.0
102
RTVSPost2010PropOp39
 70
     1
102
RTVSPost2010Prop40
 90
        0
102
RTVSPost2010PropOp40
 70
     1
102
RTVSPost2010Prop41ColorIndex
 90
       18
102
RTVSPost2010Prop41ColorRGB
 90
        0
102
RTVSPost2010PropOp41
 70
     1
102
RTVSPost2010Prop42
 90
       50
102
RTVSPost2010PropOp42
 70
     1
102
RTVSPost2010Prop43
 90
        3
102
RTVSPost2010PropOp43
 70
     1
102
RTVSPost2010Prop44ColorIndex
 90
        5
102
RTVSPost2010Prop44ColorRGB
 90
      255
102
RTVSPost2010PropOp44
 70
     1
102
RTVSPost2010Prop45
280
     0
102
RTVSPost2010PropOp45
 70
     1
102
RTVSPost2010Prop46
 90
       50
102
RTVSPost2010PropOp46
 70
     1
102
RTVSPost2010Prop47
 90
       50
102
RTVSPost2010PropOp47
 70
     1
102
RTVSPost2010Prop48
 90
       50
102
RTVSPost2010PropOp48
 70
     1
102
RTVSPost2010Prop49
280
     0
102
RTVSPost2010PropOp49
 70
     1
102
RTVSPost2010Prop50
 90
       50
102
RTVSPost2010PropOp50
 70
     1
102
RTVSPost2010Prop51ColorIndex
 90
      256
102
RTVSPost2010Prop51ColorRGB
 90
-16777216
102
RTVSPost2010PropOp51
 70
     0
102
RTVSPost2010Prop52
140
1.0
102
RTVSPost2010PropOp52
 70
     0
102
RTVSPost2010Prop53
 90
        2
102
RTVSPost2010PropOp53
 70
     1
102
RTVSPost2010Prop54
  1
strokes_ogs.tif
102
RTVSPost2010PropOp54
 70
     1
102
RTVSPost2010Prop55
280
     0
102
RTVSPost2010PropOp55
 70
     1
102
RTVSPost2010Prop56
140
1.0
102
RTVSPost2010PropOp56
 70
     1
102
RTVSPost2010Prop57
140
1.0
102
RTVSPost2010PropOp57
 70
     1
102
RTVSPropertyOp0
 70
     1
102
RTVSPropertyOp1
 70
     1
102
RTVSPropertyOp2
 70
     1
102
RTVSPropertyOp3
 70
     1
102
RTVSPropertyOp4
 70
     1
102
RTVSPropertyOp5
 70
     1
102
RTVSPropertyOp6
 70
     1
102
RTVSPropertyOp7
 70
     1
102
RTVSPropertyOp8
 70
     1
102
RTVSPropertyOp9
 70
     1
102
RTVSPropertyOp10
 70
     1
102
RTVSPropertyOp11
 70
     1
102
RTVSPropertyOp12
 70
     1
102
RTVSPropertyOp13
 70
     1
102
RTVSPropertyOp14
 70
     1
102
RTVSPropertyOp15
 70
     1
102
RTVSPropertyOp16
 70
     1
102
RTVSPropertyOp17
 70
     1
102
RTVSPropertyOp18
 70
     1
102
RTVSPropertyOp19
 70
     1
102
RTVSPropertyOp20
 70
     1
102
RTVSPropertyOp21
 70
     1
102
RTVSPropertyOp22
 70
     1
102
RTVSPropertyOp23
 70
     1
102
RTVSPropertyOp24
 70
     1
102
RTVSPropertyOp25
 70
     1
102
RTVSPropertyOp26
 70
     1
102
RTVSPropertyOp27
 70
     1
102
RTVSPropertyOp28
 70
     1
102
RTVSPropertyOp29
 70
     1
102
RTVSPropertyOp30
 70
     1
102
RTVSPropertyOp31
 70
     1
102
RTVSPropertyOp32
 70
     1
102
RTVSPropertyOp33
 70
     1
102
RTVSPropertyOp34
 70
     1
102
RTVSPropertyOp35
 70
     1
102
RTVSPropertyOp36
 70
     1
102
RTVSPropertyOp37
 70
     1
102
RTVSPropertyOp38
 70
     1
102
RTVSPropertyOp39
 70
     1
102
RTVSPropertyOp40
 70
     1
102
RTVSPropertyOp41
 70
     1
102
RTVSPropertyOp42
 70
     1
102
RTVSPropertyOp43
 70
     1
102
RTVSPropertyOp44
 70
     1
102
RTVSPropertyOp45
 70
     1
102
RTVSPropertyOp46
 70
     1
102
RTVSPropertyOp47
 70
     1
102
RTVSPropertyOp48
 70
     1
102
RTVSPropertyOp49
 70
     1
102
RTVSPropertyOp50
 70
     1
102
RTVSPropertyOp51
 70
     0
102
RTVSPropertyOp52
 70
     0
102
RTVSPropertyOp53
 70
     1
102
RTVSPropertyOp54
 70
     1
102
RTVSPropertyOp55
 70
     1
102
RTVSPropertyOp56
 70
     1
102
RTVSPropertyOp57
 70
     1
102
RTVSPropertyOp58
 70
     1
102
RTVSPropertyOp59
 70
     1
102
RTVSPropertyOp60
 70
     1
102
RTVSPropertyOp61
 70
     1
102
RTVSPropertyOp62
 70
     1
  0
XRECORD
  5
B518
102
{ACAD_REACTORS
330
B517
102
}
330
B517
100
AcDbXrecord
280
     1
102
RTVSPost2010Prop28
280
     0
102
RTVSPost2010PropOp28
 70
     1
102
RTVSPost2010Prop29
280
     1
102
RTVSPost2010PropOp29
 70
     1
102
RTVSPost2010Prop30
280
     1
102
RTVSPost2010PropOp30
 70
     1
102
RTVSPost2010Prop31
280
     0
102
RTVSPost2010PropOp31
 70
     1
102
RTVSPost2010Prop32
280
     0
102
RTVSPost2010PropOp32
 70
     1
102
RTVSPost2010Prop33
280
     0
102
RTVSPost2010PropOp33
 70
     1
102
RTVSPost2010Prop34
280
     0
102
RTVSPost2010PropOp34
 70
     1
102
RTVSPost2010Prop35
280
     0
102
RTVSPost2010PropOp35
 70
     1
102
RTVSPost2010Prop36
280
     0
102
RTVSPost2010PropOp36
 70
     1
102
RTVSPost2010Prop37
 90
       50
102
RTVSPost2010PropOp37
 70
     1
102
RTVSPost2010Prop38
140
0.0
102
RTVSPost2010PropOp38
 70
     1
102
RTVSPost2010Prop39
140
1.0
102
RTVSPost2010PropOp39
 70
     1
102
RTVSPost2010Prop40
 90
        0
102
RTVSPost2010PropOp40
 70
     1
102
RTVSPost2010Prop41ColorIndex
 90
       18
102
RTVSPost2010Prop41ColorRGB
 90
        0
102
RTVSPost2010PropOp41
 70
     1
102
RTVSPost2010Prop42
 90
       50
102
RTVSPost2010PropOp42
 70
     1
102
RTVSPost2010Prop43
 90
        3
102
RTVSPost2010PropOp43
 70
     1
102
RTVSPost2010Prop44ColorIndex
 90
        5
102
RTVSPost2010Prop44ColorRGB
 90
      255
102
RTVSPost2010PropOp44
 70
     1
102
RTVSPost2010Prop45
280
     0
102
RTVSPost2010PropOp45
 70
     1
102
RTVSPost2010Prop46
 90
       50
102
RTVSPost2010PropOp46
 70
     1
102
RTVSPost2010Prop47
 90
       50
102
RTVSPost2010PropOp47
 70
     1
102
RTVSPost2010Prop48
 90
       50
102
RTVSPost2010PropOp48
 70
     1
102
RTVSPost2010Prop49
280
     0
102
RTVSPost2010PropOp49
 70
     1
102
RTVSPost2010Prop50
 90
       50
102
RTVSPost2010PropOp50
 70
     1
102
RTVSPost2010Prop51ColorIndex
 90
      256
102
RTVSPost2010Prop51ColorRGB
 90
-16777216
102
RTVSPost2010PropOp51
 70
     0
102
RTVSPost2010Prop52
140
1.0
102
RTVSPost2010PropOp52
 70
     0
102
RTVSPost2010Prop53
 90
        2
102
RTVSPost2010PropOp53
 70
     1
102
RTVSPost2010Prop54
  1
strokes_ogs.tif
102
RTVSPost2010PropOp54
 70
     1
102
RTVSPost2010Prop55
280
     0
102
RTVSPost2010PropOp55
 70
     1
102
RTVSPost2010Prop56
140
1.0
102
RTVSPost2010PropOp56
 70
     1
102
RTVSPost2010Prop57
140
1.0
102
RTVSPost2010PropOp57
 70
     1
102
RTVSPropertyOp0
 70
     1
102
RTVSPropertyOp1
 70
     1
102
RTVSPropertyOp2
 70
     1
102
RTVSPropertyOp3
 70
     1
102
RTVSPropertyOp4
 70
     1
102
RTVSPropertyOp5
 70
     1
102
RTVSPropertyOp6
 70
     1
102
RTVSPropertyOp7
 70
     1
102
RTVSPropertyOp8
 70
     1
102
RTVSPropertyOp9
 70
     1
102
RTVSPropertyOp10
 70
     1
102
RTVSPropertyOp11
 70
     1
102
RTVSPropertyOp12
 70
     1
102
RTVSPropertyOp13
 70
     1
102
RTVSPropertyOp14
 70
     1
102
RTVSPropertyOp15
 70
     1
102
RTVSPropertyOp16
 70
     1
102
RTVSPropertyOp17
 70
     1
102
RTVSPropertyOp18
 70
     1
102
RTVSPropertyOp19
 70
     1
102
RTVSPropertyOp20
 70
     1
102
RTVSPropertyOp21
 70
     1
102
RTVSPropertyOp22
 70
     1
102
RTVSPropertyOp23
 70
     1
102
RTVSPropertyOp24
 70
     1
102
RTVSPropertyOp25
 70
     1
102
RTVSPropertyOp26
 70
     1
102
RTVSPropertyOp27
 70
     1
102
RTVSPropertyOp28
 70
     1
102
RTVSPropertyOp29
 70
     1
102
RTVSPropertyOp30
 70
     1
102
RTVSPropertyOp31
 70
     1
102
RTVSPropertyOp32
 70
     1
102
RTVSPropertyOp33
 70
     1
102
RTVSPropertyOp34
 70
     1
102
RTVSPropertyOp35
 70
     1
102
RTVSPropertyOp36
 70
     1
102
RTVSPropertyOp37
 70
     1
102
RTVSPropertyOp38
 70
     1
102
RTVSPropertyOp39
 70
     1
102
RTVSPropertyOp40
 70
     1
102
RTVSPropertyOp41
 70
     1
102
RTVSPropertyOp42
 70
     1
102
RTVSPropertyOp43
 70
     1
102
RTVSPropertyOp44
 70
     1
102
RTVSPropertyOp45
 70
     1
102
RTVSPropertyOp46
 70
     1
102
RTVSPropertyOp47
 70
     1
102
RTVSPropertyOp48
 70
     1
102
RTVSPropertyOp49
 70
     1
102
RTVSPropertyOp50
 70
     1
102
RTVSPropertyOp51
 70
     0
102
RTVSPropertyOp52
 70
     0
102
RTVSPropertyOp53
 70
     1
102
RTVSPropertyOp54
 70
     1
102
RTVSPropertyOp55
 70
     1
102
RTVSPropertyOp56
 70
     1
102
RTVSPropertyOp57
 70
     1
102
RTVSPropertyOp58
 70
     1
102
RTVSPropertyOp59
 70
     1
102
RTVSPropertyOp60
 70
     1
102
RTVSPropertyOp61
 70
     1
102
RTVSPropertyOp62
 70
     1
  0
XRECORD
  5
B516
102
{ACAD_REACTORS
330
B515
102
}
330
B515
100
AcDbXrecord
280
     1
102
RTVSPost2010Prop28
280
     0
102
RTVSPost2010PropOp28
 70
     1
102
RTVSPost2010Prop29
280
     1
102
RTVSPost2010PropOp29
 70
     1
102
RTVSPost2010Prop30
280
     1
102
RTVSPost2010PropOp30
 70
     1
102
RTVSPost2010Prop31
280
     0
102
RTVSPost2010PropOp31
 70
     1
102
RTVSPost2010Prop32
280
     0
102
RTVSPost2010PropOp32
 70
     1
102
RTVSPost2010Prop33
280
     0
102
RTVSPost2010PropOp33
 70
     1
102
RTVSPost2010Prop34
280
     0
102
RTVSPost2010PropOp34
 70
     1
102
RTVSPost2010Prop35
280
     0
102
RTVSPost2010PropOp35
 70
     1
102
RTVSPost2010Prop36
280
     0
102
RTVSPost2010PropOp36
 70
     1
102
RTVSPost2010Prop37
 90
       50
102
RTVSPost2010PropOp37
 70
     1
102
RTVSPost2010Prop38
140
0.0
102
RTVSPost2010PropOp38
 70
     1
102
RTVSPost2010Prop39
140
1.0
102
RTVSPost2010PropOp39
 70
     1
102
RTVSPost2010Prop40
 90
        0
102
RTVSPost2010PropOp40
 70
     1
102
RTVSPost2010Prop41ColorIndex
 90
       18
102
RTVSPost2010Prop41ColorRGB
 90
        0
102
RTVSPost2010PropOp41
 70
     1
102
RTVSPost2010Prop42
 90
       50
102
RTVSPost2010PropOp42
 70
     1
102
RTVSPost2010Prop43
 90
        3
102
RTVSPost2010PropOp43
 70
     1
102
RTVSPost2010Prop44ColorIndex
 90
        5
102
RTVSPost2010Prop44ColorRGB
 90
      255
102
RTVSPost2010PropOp44
 70
     1
102
RTVSPost2010Prop45
280
     0
102
RTVSPost2010PropOp45
 70
     1
102
RTVSPost2010Prop46
 90
       50
102
RTVSPost2010PropOp46
 70
     1
102
RTVSPost2010Prop47
 90
       50
102
RTVSPost2010PropOp47
 70
     1
102
RTVSPost2010Prop48
 90
       50
102
RTVSPost2010PropOp48
 70
     1
102
RTVSPost2010Prop49
280
     0
102
RTVSPost2010PropOp49
 70
     1
102
RTVSPost2010Prop50
 90
       50
102
RTVSPost2010PropOp50
 70
     1
102
RTVSPost2010Prop51ColorIndex
 90
      256
102
RTVSPost2010Prop51ColorRGB
 90
-16777216
102
RTVSPost2010PropOp51
 70
     0
102
RTVSPost2010Prop52
140
1.0
102
RTVSPost2010PropOp52
 70
     0
102
RTVSPost2010Prop53
 90
        2
102
RTVSPost2010PropOp53
 70
     1
102
RTVSPost2010Prop54
  1
strokes_ogs.tif
102
RTVSPost2010PropOp54
 70
     1
102
RTVSPost2010Prop55
280
     0
102
RTVSPost2010PropOp55
 70
     1
102
RTVSPost2010Prop56
140
1.0
102
RTVSPost2010PropOp56
 70
     1
102
RTVSPost2010Prop57
140
1.0
102
RTVSPost2010PropOp57
 70
     1
102
RTVSPropertyOp0
 70
     1
102
RTVSPropertyOp1
 70
     1
102
RTVSPropertyOp2
 70
     1
102
RTVSPropertyOp3
 70
     1
102
RTVSPropertyOp4
 70
     1
102
RTVSPropertyOp5
 70
     1
102
RTVSPropertyOp6
 70
     1
102
RTVSPropertyOp7
 70
     1
102
RTVSPropertyOp8
 70
     1
102
RTVSPropertyOp9
 70
     1
102
RTVSPropertyOp10
 70
     1
102
RTVSPropertyOp11
 70
     1
102
RTVSPropertyOp12
 70
     1
102
RTVSPropertyOp13
 70
     1
102
RTVSPropertyOp14
 70
     1
102
RTVSPropertyOp15
 70
     1
102
RTVSPropertyOp16
 70
     1
102
RTVSPropertyOp17
 70
     1
102
RTVSPropertyOp18
 70
     1
102
RTVSPropertyOp19
 70
     1
102
RTVSPropertyOp20
 70
     1
102
RTVSPropertyOp21
 70
     1
102
RTVSPropertyOp22
 70
     1
102
RTVSPropertyOp23
 70
     1
102
RTVSPropertyOp24
 70
     1
102
RTVSPropertyOp25
 70
     1
102
RTVSPropertyOp26
 70
     1
102
RTVSPropertyOp27
 70
     1
102
RTVSPropertyOp28
 70
     1
102
RTVSPropertyOp29
 70
     1
102
RTVSPropertyOp30
 70
     1
102
RTVSPropertyOp31
 70
     1
102
RTVSPropertyOp32
 70
     1
102
RTVSPropertyOp33
 70
     1
102
RTVSPropertyOp34
 70
     1
102
RTVSPropertyOp35
 70
     1
102
RTVSPropertyOp36
 70
     1
102
RTVSPropertyOp37
 70
     1
102
RTVSPropertyOp38
 70
     1
102
RTVSPropertyOp39
 70
     1
102
RTVSPropertyOp40
 70
     1
102
RTVSPropertyOp41
 70
     1
102
RTVSPropertyOp42
 70
     1
102
RTVSPropertyOp43
 70
     1
102
RTVSPropertyOp44
 70
     1
102
RTVSPropertyOp45
 70
     1
102
RTVSPropertyOp46
 70
     1
102
RTVSPropertyOp47
 70
     1
102
RTVSPropertyOp48
 70
     1
102
RTVSPropertyOp49
 70
     1
102
RTVSPropertyOp50
 70
     1
102
RTVSPropertyOp51
 70
     0
102
RTVSPropertyOp52
 70
     0
102
RTVSPropertyOp53
 70
     1
102
RTVSPropertyOp54
 70
     1
102
RTVSPropertyOp55
 70
     1
102
RTVSPropertyOp56
 70
     1
102
RTVSPropertyOp57
 70
     1
102
RTVSPropertyOp58
 70
     1
102
RTVSPropertyOp59
 70
     1
102
RTVSPropertyOp60
 70
     1
102
RTVSPropertyOp61
 70
     1
102
RTVSPropertyOp62
 70
     1
  0
XRECORD
  5
B510
102
{ACAD_REACTORS
330
B50F
102
}
330
B50F
100
AcDbXrecord
280
     1
102
RTVSPost2010Prop28
280
     0
102
RTVSPost2010PropOp28
 70
     1
102
RTVSPost2010Prop29
280
     1
102
RTVSPost2010PropOp29
 70
     1
102
RTVSPost2010Prop30
280
     1
102
RTVSPost2010PropOp30
 70
     1
102
RTVSPost2010Prop31
280
     0
102
RTVSPost2010PropOp31
 70
     1
102
RTVSPost2010Prop32
280
     0
102
RTVSPost2010PropOp32
 70
     1
102
RTVSPost2010Prop33
280
     0
102
RTVSPost2010PropOp33
 70
     1
102
RTVSPost2010Prop34
280
     0
102
RTVSPost2010PropOp34
 70
     1
102
RTVSPost2010Prop35
280
     0
102
RTVSPost2010PropOp35
 70
     1
102
RTVSPost2010Prop36
280
     0
102
RTVSPost2010PropOp36
 70
     1
102
RTVSPost2010Prop37
 90
       50
102
RTVSPost2010PropOp37
 70
     1
102
RTVSPost2010Prop38
140
0.0
102
RTVSPost2010PropOp38
 70
     1
102
RTVSPost2010Prop39
140
1.0
102
RTVSPost2010PropOp39
 70
     1
102
RTVSPost2010Prop40
 90
        0
102
RTVSPost2010PropOp40
 70
     1
102
RTVSPost2010Prop41ColorIndex
 90
       18
102
RTVSPost2010Prop41ColorRGB
 90
        0
102
RTVSPost2010PropOp41
 70
     1
102
RTVSPost2010Prop42
 90
       50
102
RTVSPost2010PropOp42
 70
     1
102
RTVSPost2010Prop43
 90
        3
102
RTVSPost2010PropOp43
 70
     1
102
RTVSPost2010Prop44ColorIndex
 90
        5
102
RTVSPost2010Prop44ColorRGB
 90
      255
102
RTVSPost2010PropOp44
 70
     1
102
RTVSPost2010Prop45
280
     0
102
RTVSPost2010PropOp45
 70
     1
102
RTVSPost2010Prop46
 90
       50
102
RTVSPost2010PropOp46
 70
     1
102
RTVSPost2010Prop47
 90
       50
102
RTVSPost2010PropOp47
 70
     1
102
RTVSPost2010Prop48
 90
       50
102
RTVSPost2010PropOp48
 70
     1
102
RTVSPost2010Prop49
280
     0
102
RTVSPost2010PropOp49
 70
     1
102
RTVSPost2010Prop50
 90
       50
102
RTVSPost2010PropOp50
 70
     1
102
RTVSPost2010Prop51ColorIndex
 90
      256
102
RTVSPost2010Prop51ColorRGB
 90
-16777216
102
RTVSPost2010PropOp51
 70
     0
102
RTVSPost2010Prop52
140
1.0
102
RTVSPost2010PropOp52
 70
     0
102
RTVSPost2010Prop53
 90
        2
102
RTVSPost2010PropOp53
 70
     1
102
RTVSPost2010Prop54
  1
strokes_ogs.tif
102
RTVSPost2010PropOp54
 70
     1
102
RTVSPost2010Prop55
280
     0
102
RTVSPost2010PropOp55
 70
     1
102
RTVSPost2010Prop56
140
1.0
102
RTVSPost2010PropOp56
 70
     1
102
RTVSPost2010Prop57
140
1.0
102
RTVSPost2010PropOp57
 70
     1
102
RTVSPropertyOp0
 70
     1
102
RTVSPropertyOp1
 70
     1
102
RTVSPropertyOp2
 70
     1
102
RTVSPropertyOp3
 70
     1
102
RTVSPropertyOp4
 70
     1
102
RTVSPropertyOp5
 70
     1
102
RTVSPropertyOp6
 70
     1
102
RTVSPropertyOp7
 70
     1
102
RTVSPropertyOp8
 70
     1
102
RTVSPropertyOp9
 70
     1
102
RTVSPropertyOp10
 70
     1
102
RTVSPropertyOp11
 70
     1
102
RTVSPropertyOp12
 70
     1
102
RTVSPropertyOp13
 70
     1
102
RTVSPropertyOp14
 70
     1
102
RTVSPropertyOp15
 70
     1
102
RTVSPropertyOp16
 70
     1
102
RTVSPropertyOp17
 70
     1
102
RTVSPropertyOp18
 70
     1
102
RTVSPropertyOp19
 70
     1
102
RTVSPropertyOp20
 70
     1
102
RTVSPropertyOp21
 70
     1
102
RTVSPropertyOp22
 70
     1
102
RTVSPropertyOp23
 70
     1
102
RTVSPropertyOp24
 70
     1
102
RTVSPropertyOp25
 70
     1
102
RTVSPropertyOp26
 70
     1
102
RTVSPropertyOp27
 70
     1
102
RTVSPropertyOp28
 70
     1
102
RTVSPropertyOp29
 70
     1
102
RTVSPropertyOp30
 70
     1
102
RTVSPropertyOp31
 70
     1
102
RTVSPropertyOp32
 70
     1
102
RTVSPropertyOp33
 70
     1
102
RTVSPropertyOp34
 70
     1
102
RTVSPropertyOp35
 70
     1
102
RTVSPropertyOp36
 70
     1
102
RTVSPropertyOp37
 70
     1
102
RTVSPropertyOp38
 70
     1
102
RTVSPropertyOp39
 70
     1
102
RTVSPropertyOp40
 70
     1
102
RTVSPropertyOp41
 70
     1
102
RTVSPropertyOp42
 70
     1
102
RTVSPropertyOp43
 70
     1
102
RTVSPropertyOp44
 70
     1
102
RTVSPropertyOp45
 70
     1
102
RTVSPropertyOp46
 70
     1
102
RTVSPropertyOp47
 70
     1
102
RTVSPropertyOp48
 70
     1
102
RTVSPropertyOp49
 70
     1
102
RTVSPropertyOp50
 70
     1
102
RTVSPropertyOp51
 70
     0
102
RTVSPropertyOp52
 70
     0
102
RTVSPropertyOp53
 70
     1
102
RTVSPropertyOp54
 70
     1
102
RTVSPropertyOp55
 70
     1
102
RTVSPropertyOp56
 70
     1
102
RTVSPropertyOp57
 70
     1
102
RTVSPropertyOp58
 70
     1
102
RTVSPropertyOp59
 70
     1
102
RTVSPropertyOp60
 70
     1
102
RTVSPropertyOp61
 70
     1
102
RTVSPropertyOp62
 70
     1
  0
XRECORD
  5
B512
102
{ACAD_REACTORS
330
B511
102
}
330
B511
100
AcDbXrecord
280
     1
102
RTVSPost2010Prop28
280
     0
102
RTVSPost2010PropOp28
 70
     1
102
RTVSPost2010Prop29
280
     1
102
RTVSPost2010PropOp29
 70
     1
102
RTVSPost2010Prop30
280
     1
102
RTVSPost2010PropOp30
 70
     1
102
RTVSPost2010Prop31
280
     0
102
RTVSPost2010PropOp31
 70
     1
102
RTVSPost2010Prop32
280
     0
102
RTVSPost2010PropOp32
 70
     1
102
RTVSPost2010Prop33
280
     0
102
RTVSPost2010PropOp33
 70
     1
102
RTVSPost2010Prop34
280
     0
102
RTVSPost2010PropOp34
 70
     1
102
RTVSPost2010Prop35
280
     0
102
RTVSPost2010PropOp35
 70
     1
102
RTVSPost2010Prop36
280
     0
102
RTVSPost2010PropOp36
 70
     1
102
RTVSPost2010Prop37
 90
       50
102
RTVSPost2010PropOp37
 70
     1
102
RTVSPost2010Prop38
140
0.0
102
RTVSPost2010PropOp38
 70
     1
102
RTVSPost2010Prop39
140
1.0
102
RTVSPost2010PropOp39
 70
     1
102
RTVSPost2010Prop40
 90
        0
102
RTVSPost2010PropOp40
 70
     1
102
RTVSPost2010Prop41ColorIndex
 90
       18
102
RTVSPost2010Prop41ColorRGB
 90
        0
102
RTVSPost2010PropOp41
 70
     1
102
RTVSPost2010Prop42
 90
       50
102
RTVSPost2010PropOp42
 70
     1
102
RTVSPost2010Prop43
 90
        3
102
RTVSPost2010PropOp43
 70
     1
102
RTVSPost2010Prop44ColorIndex
 90
        5
102
RTVSPost2010Prop44ColorRGB
 90
      255
102
RTVSPost2010PropOp44
 70
     1
102
RTVSPost2010Prop45
280
     0
102
RTVSPost2010PropOp45
 70
     1
102
RTVSPost2010Prop46
 90
       50
102
RTVSPost2010PropOp46
 70
     1
102
RTVSPost2010Prop47
 90
       50
102
RTVSPost2010PropOp47
 70
     1
102
RTVSPost2010Prop48
 90
       50
102
RTVSPost2010PropOp48
 70
     1
102
RTVSPost2010Prop49
280
     0
102
RTVSPost2010PropOp49
 70
     1
102
RTVSPost2010Prop50
 90
       50
102
RTVSPost2010PropOp50
 70
     1
102
RTVSPost2010Prop51ColorIndex
 90
      256
102
RTVSPost2010Prop51ColorRGB
 90
-16777216
102
RTVSPost2010PropOp51
 70
     0
102
RTVSPost2010Prop52
140
1.0
102
RTVSPost2010PropOp52
 70
     0
102
RTVSPost2010Prop53
 90
        2
102
RTVSPost2010PropOp53
 70
     1
102
RTVSPost2010Prop54
  1
strokes_ogs.tif
102
RTVSPost2010PropOp54
 70
     1
102
RTVSPost2010Prop55
280
     0
102
RTVSPost2010PropOp55
 70
     1
102
RTVSPost2010Prop56
140
1.0
102
RTVSPost2010PropOp56
 70
     1
102
RTVSPost2010Prop57
140
1.0
102
RTVSPost2010PropOp57
 70
     1
102
RTVSPropertyOp0
 70
     1
102
RTVSPropertyOp1
 70
     1
102
RTVSPropertyOp2
 70
     1
102
RTVSPropertyOp3
 70
     1
102
RTVSPropertyOp4
 70
     1
102
RTVSPropertyOp5
 70
     1
102
RTVSPropertyOp6
 70
     1
102
RTVSPropertyOp7
 70
     1
102
RTVSPropertyOp8
 70
     1
102
RTVSPropertyOp9
 70
     1
102
RTVSPropertyOp10
 70
     1
102
RTVSPropertyOp11
 70
     1
102
RTVSPropertyOp12
 70
     1
102
RTVSPropertyOp13
 70
     1
102
RTVSPropertyOp14
 70
     1
102
RTVSPropertyOp15
 70
     1
102
RTVSPropertyOp16
 70
     1
102
RTVSPropertyOp17
 70
     1
102
RTVSPropertyOp18
 70
     1
102
RTVSPropertyOp19
 70
     1
102
RTVSPropertyOp20
 70
     1
102
RTVSPropertyOp21
 70
     1
102
RTVSPropertyOp22
 70
     1
102
RTVSPropertyOp23
 70
     1
102
RTVSPropertyOp24
 70
     1
102
RTVSPropertyOp25
 70
     1
102
RTVSPropertyOp26
 70
     1
102
RTVSPropertyOp27
 70
     1
102
RTVSPropertyOp28
 70
     1
102
RTVSPropertyOp29
 70
     1
102
RTVSPropertyOp30
 70
     1
102
RTVSPropertyOp31
 70
     1
102
RTVSPropertyOp32
 70
     1
102
RTVSPropertyOp33
 70
     1
102
RTVSPropertyOp34
 70
     1
102
RTVSPropertyOp35
 70
     1
102
RTVSPropertyOp36
 70
     1
102
RTVSPropertyOp37
 70
     1
102
RTVSPropertyOp38
 70
     1
102
RTVSPropertyOp39
 70
     1
102
RTVSPropertyOp40
 70
     1
102
RTVSPropertyOp41
 70
     1
102
RTVSPropertyOp42
 70
     1
102
RTVSPropertyOp43
 70
     1
102
RTVSPropertyOp44
 70
     1
102
RTVSPropertyOp45
 70
     1
102
RTVSPropertyOp46
 70
     1
102
RTVSPropertyOp47
 70
     1
102
RTVSPropertyOp48
 70
     1
102
RTVSPropertyOp49
 70
     1
102
RTVSPropertyOp50
 70
     1
102
RTVSPropertyOp51
 70
     0
102
RTVSPropertyOp52
 70
     0
102
RTVSPropertyOp53
 70
     1
102
RTVSPropertyOp54
 70
     1
102
RTVSPropertyOp55
 70
     1
102
RTVSPropertyOp56
 70
     1
102
RTVSPropertyOp57
 70
     1
102
RTVSPropertyOp58
 70
     1
102
RTVSPropertyOp59
 70
     1
102
RTVSPropertyOp60
 70
     1
102
RTVSPropertyOp61
 70
     1
102
RTVSPropertyOp62
 70
     1
  0
XRECORD
  5
B508
102
{ACAD_REACTORS
330
B507
102
}
330
B507
100
AcDbXrecord
280
     1
102
RTVSPost2010Prop28
280
     0
102
RTVSPost2010PropOp28
 70
     1
102
RTVSPost2010Prop29
280
     1
102
RTVSPost2010PropOp29
 70
     1
102
RTVSPost2010Prop30
280
     1
102
RTVSPost2010PropOp30
 70
     1
102
RTVSPost2010Prop31
280
     0
102
RTVSPost2010PropOp31
 70
     1
102
RTVSPost2010Prop32
280
     0
102
RTVSPost2010PropOp32
 70
     1
102
RTVSPost2010Prop33
280
     0
102
RTVSPost2010PropOp33
 70
     1
102
RTVSPost2010Prop34
280
     0
102
RTVSPost2010PropOp34
 70
     1
102
RTVSPost2010Prop35
280
     0
102
RTVSPost2010PropOp35
 70
     1
102
RTVSPost2010Prop36
280
     0
102
RTVSPost2010PropOp36
 70
     1
102
RTVSPost2010Prop37
 90
       50
102
RTVSPost2010PropOp37
 70
     1
102
RTVSPost2010Prop38
140
0.0
102
RTVSPost2010PropOp38
 70
     1
102
RTVSPost2010Prop39
140
1.0
102
RTVSPost2010PropOp39
 70
     1
102
RTVSPost2010Prop40
 90
        0
102
RTVSPost2010PropOp40
 70
     1
102
RTVSPost2010Prop41ColorIndex
 90
       18
102
RTVSPost2010Prop41ColorRGB
 90
        0
102
RTVSPost2010PropOp41
 70
     1
102
RTVSPost2010Prop42
 90
       50
102
RTVSPost2010PropOp42
 70
     1
102
RTVSPost2010Prop43
 90
        3
102
RTVSPost2010PropOp43
 70
     1
102
RTVSPost2010Prop44ColorIndex
 90
        5
102
RTVSPost2010Prop44ColorRGB
 90
      255
102
RTVSPost2010PropOp44
 70
     1
102
RTVSPost2010Prop45
280
     0
102
RTVSPost2010PropOp45
 70
     1
102
RTVSPost2010Prop46
 90
       50
102
RTVSPost2010PropOp46
 70
     1
102
RTVSPost2010Prop47
 90
       50
102
RTVSPost2010PropOp47
 70
     1
102
RTVSPost2010Prop48
 90
       50
102
RTVSPost2010PropOp48
 70
     1
102
RTVSPost2010Prop49
280
     0
102
RTVSPost2010PropOp49
 70
     1
102
RTVSPost2010Prop50
 90
       50
102
RTVSPost2010PropOp50
 70
     1
102
RTVSPost2010Prop51ColorIndex
 90
      256
102
RTVSPost2010Prop51ColorRGB
 90
-16777216
102
RTVSPost2010PropOp51
 70
     0
102
RTVSPost2010Prop52
140
1.0
102
RTVSPost2010PropOp52
 70
     0
102
RTVSPost2010Prop53
 90
        2
102
RTVSPost2010PropOp53
 70
     1
102
RTVSPost2010Prop54
  1
strokes_ogs.tif
102
RTVSPost2010PropOp54
 70
     1
102
RTVSPost2010Prop55
280
     0
102
RTVSPost2010PropOp55
 70
     1
102
RTVSPost2010Prop56
140
1.0
102
RTVSPost2010PropOp56
 70
     1
102
RTVSPost2010Prop57
140
1.0
102
RTVSPost2010PropOp57
 70
     1
102
RTVSPropertyOp0
 70
     1
102
RTVSPropertyOp1
 70
     1
102
RTVSPropertyOp2
 70
     1
102
RTVSPropertyOp3
 70
     1
102
RTVSPropertyOp4
 70
     1
102
RTVSPropertyOp5
 70
     1
102
RTVSPropertyOp6
 70
     1
102
RTVSPropertyOp7
 70
     1
102
RTVSPropertyOp8
 70
     1
102
RTVSPropertyOp9
 70
     1
102
RTVSPropertyOp10
 70
     1
102
RTVSPropertyOp11
 70
     1
102
RTVSPropertyOp12
 70
     1
102
RTVSPropertyOp13
 70
     1
102
RTVSPropertyOp14
 70
     1
102
RTVSPropertyOp15
 70
     1
102
RTVSPropertyOp16
 70
     1
102
RTVSPropertyOp17
 70
     1
102
RTVSPropertyOp18
 70
     1
102
RTVSPropertyOp19
 70
     1
102
RTVSPropertyOp20
 70
     1
102
RTVSPropertyOp21
 70
     1
102
RTVSPropertyOp22
 70
     1
102
RTVSPropertyOp23
 70
     1
102
RTVSPropertyOp24
 70
     1
102
RTVSPropertyOp25
 70
     1
102
RTVSPropertyOp26
 70
     1
102
RTVSPropertyOp27
 70
     1
102
RTVSPropertyOp28
 70
     1
102
RTVSPropertyOp29
 70
     1
102
RTVSPropertyOp30
 70
     1
102
RTVSPropertyOp31
 70
     1
102
RTVSPropertyOp32
 70
     1
102
RTVSPropertyOp33
 70
     1
102
RTVSPropertyOp34
 70
     1
102
RTVSPropertyOp35
 70
     1
102
RTVSPropertyOp36
 70
     1
102
RTVSPropertyOp37
 70
     1
102
RTVSPropertyOp38
 70
     1
102
RTVSPropertyOp39
 70
     1
102
RTVSPropertyOp40
 70
     1
102
RTVSPropertyOp41
 70
     1
102
RTVSPropertyOp42
 70
     1
102
RTVSPropertyOp43
 70
     1
102
RTVSPropertyOp44
 70
     1
102
RTVSPropertyOp45
 70
     1
102
RTVSPropertyOp46
 70
     1
102
RTVSPropertyOp47
 70
     1
102
RTVSPropertyOp48
 70
     1
102
RTVSPropertyOp49
 70
     1
102
RTVSPropertyOp50
 70
     1
102
RTVSPropertyOp51
 70
     0
102
RTVSPropertyOp52
 70
     0
102
RTVSPropertyOp53
 70
     1
102
RTVSPropertyOp54
 70
     1
102
RTVSPropertyOp55
 70
     1
102
RTVSPropertyOp56
 70
     1
102
RTVSPropertyOp57
 70
     1
102
RTVSPropertyOp58
 70
     1
102
RTVSPropertyOp59
 70
     1
102
RTVSPropertyOp60
 70
     1
102
RTVSPropertyOp61
 70
     1
102
RTVSPropertyOp62
 70
     1
  0
XRECORD
  5
B4FC
102
{ACAD_REACTORS
330
B4FB
102
}
330
B4FB
100
AcDbXrecord
280
     1
102
RTVSPost2010Prop28
280
     0
102
RTVSPost2010PropOp28
 70
     1
102
RTVSPost2010Prop29
280
     1
102
RTVSPost2010PropOp29
 70
     1
102
RTVSPost2010Prop30
280
     1
102
RTVSPost2010PropOp30
 70
     1
102
RTVSPost2010Prop31
280
     0
102
RTVSPost2010PropOp31
 70
     1
102
RTVSPost2010Prop32
280
     0
102
RTVSPost2010PropOp32
 70
     1
102
RTVSPost2010Prop33
280
     0
102
RTVSPost2010PropOp33
 70
     1
102
RTVSPost2010Prop34
280
     0
102
RTVSPost2010PropOp34
 70
     1
102
RTVSPost2010Prop35
280
     0
102
RTVSPost2010PropOp35
 70
     1
102
RTVSPost2010Prop36
280
     0
102
RTVSPost2010PropOp36
 70
     1
102
RTVSPost2010Prop37
 90
       50
102
RTVSPost2010PropOp37
 70
     1
102
RTVSPost2010Prop38
140
0.0
102
RTVSPost2010PropOp38
 70
     1
102
RTVSPost2010Prop39
140
1.0
102
RTVSPost2010PropOp39
 70
     1
102
RTVSPost2010Prop40
 90
        0
102
RTVSPost2010PropOp40
 70
     1
102
RTVSPost2010Prop41ColorIndex
 90
       18
102
RTVSPost2010Prop41ColorRGB
 90
        0
102
RTVSPost2010PropOp41
 70
     1
102
RTVSPost2010Prop42
 90
       50
102
RTVSPost2010PropOp42
 70
     1
102
RTVSPost2010Prop43
 90
        3
102
RTVSPost2010PropOp43
 70
     1
102
RTVSPost2010Prop44ColorIndex
 90
        5
102
RTVSPost2010Prop44ColorRGB
 90
      255
102
RTVSPost2010PropOp44
 70
     1
102
RTVSPost2010Prop45
280
     0
102
RTVSPost2010PropOp45
 70
     1
102
RTVSPost2010Prop46
 90
       50
102
RTVSPost2010PropOp46
 70
     1
102
RTVSPost2010Prop47
 90
       50
102
RTVSPost2010PropOp47
 70
     1
102
RTVSPost2010Prop48
 90
       50
102
RTVSPost2010PropOp48
 70
     1
102
RTVSPost2010Prop49
280
     0
102
RTVSPost2010PropOp49
 70
     1
102
RTVSPost2010Prop50
 90
       50
102
RTVSPost2010PropOp50
 70
     1
102
RTVSPost2010Prop51ColorIndex
 90
      256
102
RTVSPost2010Prop51ColorRGB
 90
-16777216
102
RTVSPost2010PropOp51
 70
     0
102
RTVSPost2010Prop52
140
1.0
102
RTVSPost2010PropOp52
 70
     0
102
RTVSPost2010Prop53
 90
        2
102
RTVSPost2010PropOp53
 70
     1
102
RTVSPost2010Prop54
  1
strokes_ogs.tif
102
RTVSPost2010PropOp54
 70
     1
102
RTVSPost2010Prop55
280
     0
102
RTVSPost2010PropOp55
 70
     1
102
RTVSPost2010Prop56
140
1.0
102
RTVSPost2010PropOp56
 70
     1
102
RTVSPost2010Prop57
140
1.0
102
RTVSPost2010PropOp57
 70
     1
102
RTVSPropertyOp0
 70
     1
102
RTVSPropertyOp1
 70
     1
102
RTVSPropertyOp2
 70
     1
102
RTVSPropertyOp3
 70
     1
102
RTVSPropertyOp4
 70
     1
102
RTVSPropertyOp5
 70
     1
102
RTVSPropertyOp6
 70
     1
102
RTVSPropertyOp7
 70
     1
102
RTVSPropertyOp8
 70
     1
102
RTVSPropertyOp9
 70
     1
102
RTVSPropertyOp10
 70
     1
102
RTVSPropertyOp11
 70
     1
102
RTVSPropertyOp12
 70
     1
102
RTVSPropertyOp13
 70
     1
102
RTVSPropertyOp14
 70
     1
102
RTVSPropertyOp15
 70
     1
102
RTVSPropertyOp16
 70
     1
102
RTVSPropertyOp17
 70
     1
102
RTVSPropertyOp18
 70
     1
102
RTVSPropertyOp19
 70
     1
102
RTVSPropertyOp20
 70
     1
102
RTVSPropertyOp21
 70
     1
102
RTVSPropertyOp22
 70
     1
102
RTVSPropertyOp23
 70
     1
102
RTVSPropertyOp24
 70
     1
102
RTVSPropertyOp25
 70
     1
102
RTVSPropertyOp26
 70
     1
102
RTVSPropertyOp27
 70
     1
102
RTVSPropertyOp28
 70
     1
102
RTVSPropertyOp29
 70
     1
102
RTVSPropertyOp30
 70
     1
102
RTVSPropertyOp31
 70
     1
102
RTVSPropertyOp32
 70
     1
102
RTVSPropertyOp33
 70
     1
102
RTVSPropertyOp34
 70
     1
102
RTVSPropertyOp35
 70
     1
102
RTVSPropertyOp36
 70
     1
102
RTVSPropertyOp37
 70
     1
102
RTVSPropertyOp38
 70
     1
102
RTVSPropertyOp39
 70
     1
102
RTVSPropertyOp40
 70
     1
102
RTVSPropertyOp41
 70
     1
102
RTVSPropertyOp42
 70
     1
102
RTVSPropertyOp43
 70
     1
102
RTVSPropertyOp44
 70
     1
102
RTVSPropertyOp45
 70
     1
102
RTVSPropertyOp46
 70
     1
102
RTVSPropertyOp47
 70
     1
102
RTVSPropertyOp48
 70
     1
102
RTVSPropertyOp49
 70
     1
102
RTVSPropertyOp50
 70
     1
102
RTVSPropertyOp51
 70
     0
102
RTVSPropertyOp52
 70
     0
102
RTVSPropertyOp53
 70
     1
102
RTVSPropertyOp54
 70
     1
102
RTVSPropertyOp55
 70
     1
102
RTVSPropertyOp56
 70
     1
102
RTVSPropertyOp57
 70
     1
102
RTVSPropertyOp58
 70
     1
102
RTVSPropertyOp59
 70
     1
102
RTVSPropertyOp60
 70
     1
102
RTVSPropertyOp61
 70
     1
102
RTVSPropertyOp62
 70
     1
  0
XRECORD
  5
B514
102
{ACAD_REACTORS
330
B513
102
}
330
B513
100
AcDbXrecord
280
     1
102
RTVSPost2010Prop28
280
     0
102
RTVSPost2010PropOp28
 70
     1
102
RTVSPost2010Prop29
280
     1
102
RTVSPost2010PropOp29
 70
     1
102
RTVSPost2010Prop30
280
     1
102
RTVSPost2010PropOp30
 70
     1
102
RTVSPost2010Prop31
280
     0
102
RTVSPost2010PropOp31
 70
     1
102
RTVSPost2010Prop32
280
     0
102
RTVSPost2010PropOp32
 70
     1
102
RTVSPost2010Prop33
280
     0
102
RTVSPost2010PropOp33
 70
     1
102
RTVSPost2010Prop34
280
     0
102
RTVSPost2010PropOp34
 70
     1
102
RTVSPost2010Prop35
280
     0
102
RTVSPost2010PropOp35
 70
     1
102
RTVSPost2010Prop36
280
     0
102
RTVSPost2010PropOp36
 70
     1
102
RTVSPost2010Prop37
 90
       50
102
RTVSPost2010PropOp37
 70
     1
102
RTVSPost2010Prop38
140
0.0
102
RTVSPost2010PropOp38
 70
     1
102
RTVSPost2010Prop39
140
1.0
102
RTVSPost2010PropOp39
 70
     1
102
RTVSPost2010Prop40
 90
        0
102
RTVSPost2010PropOp40
 70
     1
102
RTVSPost2010Prop41ColorIndex
 90
       18
102
RTVSPost2010Prop41ColorRGB
 90
        0
102
RTVSPost2010PropOp41
 70
     1
102
RTVSPost2010Prop42
 90
       50
102
RTVSPost2010PropOp42
 70
     1
102
RTVSPost2010Prop43
 90
        3
102
RTVSPost2010PropOp43
 70
     1
102
RTVSPost2010Prop44ColorIndex
 90
        5
102
RTVSPost2010Prop44ColorRGB
 90
      255
102
RTVSPost2010PropOp44
 70
     1
102
RTVSPost2010Prop45
280
     0
102
RTVSPost2010PropOp45
 70
     1
102
RTVSPost2010Prop46
 90
       50
102
RTVSPost2010PropOp46
 70
     1
102
RTVSPost2010Prop47
 90
       50
102
RTVSPost2010PropOp47
 70
     1
102
RTVSPost2010Prop48
 90
       50
102
RTVSPost2010PropOp48
 70
     1
102
RTVSPost2010Prop49
280
     0
102
RTVSPost2010PropOp49
 70
     1
102
RTVSPost2010Prop50
 90
       50
102
RTVSPost2010PropOp50
 70
     1
102
RTVSPost2010Prop51ColorIndex
 90
      256
102
RTVSPost2010Prop51ColorRGB
 90
-16777216
102
RTVSPost2010PropOp51
 70
     0
102
RTVSPost2010Prop52
140
1.0
102
RTVSPost2010PropOp52
 70
     0
102
RTVSPost2010Prop53
 90
        2
102
RTVSPost2010PropOp53
 70
     1
102
RTVSPost2010Prop54
  1
strokes_ogs.tif
102
RTVSPost2010PropOp54
 70
     1
102
RTVSPost2010Prop55
280
     0
102
RTVSPost2010PropOp55
 70
     1
102
RTVSPost2010Prop56
140
1.0
102
RTVSPost2010PropOp56
 70
     1
102
RTVSPost2010Prop57
140
1.0
102
RTVSPost2010PropOp57
 70
     1
102
RTVSPropertyOp0
 70
     1
102
RTVSPropertyOp1
 70
     1
102
RTVSPropertyOp2
 70
     1
102
RTVSPropertyOp3
 70
     1
102
RTVSPropertyOp4
 70
     1
102
RTVSPropertyOp5
 70
     1
102
RTVSPropertyOp6
 70
     1
102
RTVSPropertyOp7
 70
     1
102
RTVSPropertyOp8
 70
     1
102
RTVSPropertyOp9
 70
     1
102
RTVSPropertyOp10
 70
     1
102
RTVSPropertyOp11
 70
     1
102
RTVSPropertyOp12
 70
     1
102
RTVSPropertyOp13
 70
     1
102
RTVSPropertyOp14
 70
     1
102
RTVSPropertyOp15
 70
     1
102
RTVSPropertyOp16
 70
     1
102
RTVSPropertyOp17
 70
     1
102
RTVSPropertyOp18
 70
     1
102
RTVSPropertyOp19
 70
     1
102
RTVSPropertyOp20
 70
     1
102
RTVSPropertyOp21
 70
     1
102
RTVSPropertyOp22
 70
     1
102
RTVSPropertyOp23
 70
     1
102
RTVSPropertyOp24
 70
     1
102
RTVSPropertyOp25
 70
     1
102
RTVSPropertyOp26
 70
     1
102
RTVSPropertyOp27
 70
     1
102
RTVSPropertyOp28
 70
     1
102
RTVSPropertyOp29
 70
     1
102
RTVSPropertyOp30
 70
     1
102
RTVSPropertyOp31
 70
     1
102
RTVSPropertyOp32
 70
     1
102
RTVSPropertyOp33
 70
     1
102
RTVSPropertyOp34
 70
     1
102
RTVSPropertyOp35
 70
     1
102
RTVSPropertyOp36
 70
     1
102
RTVSPropertyOp37
 70
     1
102
RTVSPropertyOp38
 70
     1
102
RTVSPropertyOp39
 70
     1
102
RTVSPropertyOp40
 70
     1
102
RTVSPropertyOp41
 70
     1
102
RTVSPropertyOp42
 70
     1
102
RTVSPropertyOp43
 70
     1
102
RTVSPropertyOp44
 70
     1
102
RTVSPropertyOp45
 70
     1
102
RTVSPropertyOp46
 70
     1
102
RTVSPropertyOp47
 70
     1
102
RTVSPropertyOp48
 70
     1
102
RTVSPropertyOp49
 70
     1
102
RTVSPropertyOp50
 70
     1
102
RTVSPropertyOp51
 70
     0
102
RTVSPropertyOp52
 70
     0
102
RTVSPropertyOp53
 70
     1
102
RTVSPropertyOp54
 70
     1
102
RTVSPropertyOp55
 70
     1
102
RTVSPropertyOp56
 70
     1
102
RTVSPropertyOp57
 70
     1
102
RTVSPropertyOp58
 70
     1
102
RTVSPropertyOp59
 70
     1
102
RTVSPropertyOp60
 70
     1
102
RTVSPropertyOp61
 70
     1
102
RTVSPropertyOp62
 70
     1
  0
ENDSEC
  0
EOF
