  0
SECTION
  2
HEADER
  9
$ACADVER
  1
AC1015
  9
$ACADMAINTVER
 70
    20
  9
$DWGCODEPAGE
  3
ANSI_932
  9
$INSBASE
 10
0.0
 20
0.0
 30
0.0
  9
$EXTMIN
 10
10.0
 20
9.999999999999998
 30
0.0
  9
$EXTMAX
 10
670.2999999999998
 20
346.0
 30
0.0
  9
$LIMMIN
 10
0.0
 20
0.0
  9
$LIMMAX
 10
792.0
 20
546.0
  9
$ORTHOMODE
 70
     1
  9
$REGENMODE
 70
     1
  9
$FILLMODE
 70
     1
  9
$QTEXTMODE
 70
     0
  9
$MIRRTEXT
 70
     1
  9
$LTSCALE
 40
20.0
  9
$ATTMODE
 70
     1
  9
$TEXTSIZE
 40
5.0
  9
$TRACEWID
 40
1.0
  9
$TEXTSTYLE
  7
STANDARD
  9
$CLAYER
  8
0
  9
$CELTYPE
  6
BYLAYER
  9
$CECOLOR
 62
   256
  9
$CELTSCALE
 40
1.0
  9
$DISPSILH
 70
     0
  9
$DIMSCALE
 40
1.0
  9
$DIMASZ
 40
3.0
  9
$DIMEXO
 40
1.0
  9
$DIMDLI
 40
10.0
  9
$DIMRND
 40
0.0
  9
$DIMDLE
 40
0.0
  9
$DIMEXE
 40
1.0
  9
$DIMTP
 40
0.0
  9
$DIMTM
 40
0.0
  9
$DIMTXT
 40
2.5
  9
$DIMCEN
 40
0.0
  9
$DIMTSZ
 40
0.0
  9
$DIMTOL
 70
     0
  9
$DIMLIM
 70
     0
  9
$DIMTIH
 70
     0
  9
$DIMTOH
 70
     0
  9
$DIMSE1
 70
     0
  9
$DIMSE2
 70
     0
  9
$DIMTAD
 70
     3
  9
$DIMZIN
 70
     8
  9
$DIMBLK
  1

  9
$DIMASO
 70
     1
  9
$DIMSHO
 70
     1
  9
$DIMPOST
  1

  9
$DIMAPOST
  1

  9
$DIMALT
 70
     0
  9
$DIMALTD
 70
     2
  9
$DIMALTF
 40
25.4
  9
$DIMLFAC
 40
1.0
  9
$DIMTOFL
 70
     1
  9
$DIMTVP
 40
0.0
  9
$DIMTIX
 70
     0
  9
$DIMSOXD
 70
     0
  9
$DIMSAH
 70
     1
  9
$DIMBLK1
  1

  9
$DIMBLK2
  1

  9
$DIMSTYLE
  2
STANDARD
  9
$DIMCLRD
 70
     0
  9
$DIMCLRE
 70
     0
  9
$DIMCLRT
 70
     0
  9
$DIMTFAC
 40
1.0
  9
$DIMGAP
 40
1.0
  9
$DIMJUST
 70
     0
  9
$DIMSD1
 70
     0
  9
$DIMSD2
 70
     0
  9
$DIMTOLJ
 70
     1
  9
$DIMTZIN
 70
     0
  9
$DIMALTZ
 70
     0
  9
$DIMALTTZ
 70
     0
  9
$DIMUPT
 70
     0
  9
$DIMDEC
 70
     4
  9
$DIMTDEC
 70
     4
  9
$DIMALTU
 70
     2
  9
$DIMALTTD
 70
     2
  9
$DIMTXSTY
  7
STANDARD
  9
$DIMAUNIT
 70
     0
  9
$DIMADEC
 70
     0
  9
$DIMALTRND
 40
0.0
  9
$DIMAZIN
 70
     0
  9
$DIMDSEP
 70
    46
  9
$DIMATFIT
 70
     3
  9
$DIMFRAC
 70
     0
  9
$DIMLDRBLK
  1

  9
$DIMLUNIT
 70
     2
  9
$DIMLWD
 70
    -2
  9
$DIMLWE
 70
    -2
  9
$DIMTMOVE
 70
     0
  9
$LUNITS
 70
     2
  9
$LUPREC
 70
     4
  9
$SKETCHINC
 40
1.0
  9
$FILLETRAD
 40
0.0
  9
$AUNITS
 70
     0
  9
$AUPREC
 70
     2
  9
$MENU
  1
.
  9
$ELEVATION
 40
0.0
  9
$PELEVATION
 40
0.0
  9
$THICKNESS
 40
0.0
  9
$LIMCHECK
 70
     0
  9
$CHAMFERA
 40
10.0
  9
$CHAMFERB
 40
10.0
  9
$CHAMFERC
 40
0.0
  9
$CHAMFERD
 40
0.0
  9
$SKPOLY
 70
     0
  9
$TDCREATE
 40
2451233.434808912
  9
$TDUCREATE
 40
2451233.059808913
  9
$TDUPDATE
 40
2457192.662020220
  9
$TDUUPDATE
 40
2457192.287020220
  9
$TDINDWG
 40
0.0000117014
  9
$TDUSRTIMER
 40
0.0000112037
  9
$USRTIMER
 70
     1
  9
$ANGBASE
 50
0.0
  9
$ANGDIR
 70
     0
  9
$PDMODE
 70
     0
  9
$PDSIZE
 40
0.0
  9
$PLINEWID
 40
0.0
  9
$SPLFRAME
 70
     0
  9
$SPLINETYPE
 70
     6
  9
$SPLINESEGS
 70
     8
  9
$HANDSEED
  5
C82C
  9
$SURFTAB1
 70
     6
  9
$SURFTAB2
 70
     6
  9
$SURFTYPE
 70
     6
  9
$SURFU
 70
     6
  9
$SURFV
 70
     6
  9
$UCSBASE
  2

  9
$UCSNAME
  2

  9
$UCSORG
 10
0.0
 20
0.0
 30
0.0
  9
$UCSXDIR
 10
1.0
 20
0.0
 30
0.0
  9
$UCSYDIR
 10
0.0
 20
1.0
 30
0.0
  9
$UCSORTHOREF
  2

  9
$UCSORTHOVIEW
 70
     0
  9
$UCSORGTOP
 10
0.0
 20
0.0
 30
0.0
  9
$UCSORGBOTTOM
 10
0.0
 20
0.0
 30
0.0
  9
$UCSORGLEFT
 10
0.0
 20
0.0
 30
0.0
  9
$UCSORGRIGHT
 10
0.0
 20
0.0
 30
0.0
  9
$UCSORGFRONT
 10
0.0
 20
0.0
 30
0.0
  9
$UCSORGBACK
 10
0.0
 20
0.0
 30
0.0
  9
$PUCSBASE
  2

  9
$PUCSNAME
  2

  9
$PUCSORG
 10
0.0
 20
0.0
 30
0.0
  9
$PUCSXDIR
 10
1.0
 20
0.0
 30
0.0
  9
$PUCSYDIR
 10
0.0
 20
1.0
 30
0.0
  9
$PUCSORTHOREF
  2

  9
$PUCSORTHOVIEW
 70
     0
  9
$PUCSORGTOP
 10
0.0
 20
0.0
 30
0.0
  9
$PUCSORGBOTTOM
 10
0.0
 20
0.0
 30
0.0
  9
$PUCSORGLEFT
 10
0.0
 20
0.0
 30
0.0
  9
$PUCSORGRIGHT
 10
0.0
 20
0.0
 30
0.0
  9
$PUCSORGFRONT
 10
0.0
 20
0.0
 30
0.0
  9
$PUCSORGBACK
 10
0.0
 20
0.0
 30
0.0
  9
$USERI1
 70
     0
  9
$USERI2
 70
     0
  9
$USERI3
 70
     0
  9
$USERI4
 70
     0
  9
$USERI5
 70
     0
  9
$USERR1
 40
0.0
  9
$USERR2
 40
0.0
  9
$USERR3
 40
0.0
  9
$USERR4
 40
0.0
  9
$USERR5
 40
0.0
  9
$WORLDVIEW
 70
     1
  9
$SHADEDGE
 70
     3
  9
$SHADEDIF
 70
    70
  9
$TILEMODE
 70
     1
  9
$MAXACTVP
 70
    16
  9
$PINSBASE
 10
0.0
 20
0.0
 30
0.0
  9
$PLIMCHECK
 70
     0
  9
$PEXTMIN
 10
1.000000000000000E+20
 20
1.000000000000000E+20
 30
1.000000000000000E+20
  9
$PEXTMAX
 10
-1.000000000000000E+20
 20
-1.000000000000000E+20
 30
-1.000000000000000E+20
  9
$PLIMMIN
 10
0.0
 20
0.0
  9
$PLIMMAX
 10
420.0
 20
297.0
  9
$UNITMODE
 70
     0
  9
$VISRETAIN
 70
     0
  9
$PLINEGEN
 70
     0
  9
$PSLTSCALE
 70
     0
  9
$TREEDEPTH
 70
  3020
  9
$CMLSTYLE
  2
STANDARD
  9
$CMLJUST
 70
     0
  9
$CMLSCALE
 40
1.0
  9
$PROXYGRAPHICS
 70
     1
  9
$MEASUREMENT
 70
     0
  9
$CELWEIGHT
370
    -1
  9
$ENDCAPS
280
     0
  9
$JOINSTYLE
280
     0
  9
$LWDISPLAY
290
     0
  9
$INSUNITS
 70
     0
  9
$HYPERLINKBASE
  1

  9
$STYLESHEET
  1

  9
$XEDIT
290
     1
  9
$CEPSNTYPE
380
     0
  9
$PSTYLEMODE
290
     1
  9
$FINGERPRINTGUID
  2
{639CD75B-ABA2-49C3-827C-D1D0F474A9E5}
  9
$VERSIONGUID
  2
{3CBD2390-A5BA-4A52-85AC-9355A201CD5E}
  9
$EXTNAMES
290
     1
  9
$PSVPSCALE
 40
0.0
  9
$OLESTARTUP
290
     0
  0
ENDSEC
  0
SECTION
  2
CLASSES
  0
CLASS
  1
ACDBDICTIONARYWDFLT
  2
AcDbDictionaryWithDefault
  3
ObjectDBX Classes
 90
        0
280
     0
281
     0
  0
CLASS
  1
ACDBPLACEHOLDER
  2
AcDbPlaceHolder
  3
ObjectDBX Classes
 90
        0
280
     0
281
     0
  0
CLASS
  1
LAYOUT
  2
AcDbLayout
  3
ObjectDBX Classes
 90
        0
280
     0
281
     0
  0
CLASS
  1
DICTIONARYVAR
  2
AcDbDictionaryVar
  3
ObjectDBX Classes
 90
        0
280
     0
281
     0
  0
CLASS
  1
MATERIAL
  2
AcDbMaterial
  3
ObjectDBX Classes
 90
     1153
280
     0
281
     0
  0
CLASS
  1
VISUALSTYLE
  2
AcDbVisualStyle
  3
ObjectDBX Classes
 90
     4095
280
     0
281
     0
  0
CLASS
  1
TABLESTYLE
  2
AcDbTableStyle
  3
ObjectDBX Classes
 90
     4095
280
     0
281
     0
  0
CLASS
  1
SCALE
  2
AcDbScale
  3
ObjectDBX Classes
 90
     1153
280
     0
281
     0
  0
CLASS
  1
MLEADERSTYLE
  2
AcDbMLeaderStyle
  3
ACDB_MLEADERSTYLE_CLASS
 90
     4095
280
     0
281
     0
  0
CLASS
  1
ACDBSECTIONVIEWSTYLE
  2
AcDbSectionViewStyle
  3
ObjectDBX Classes
 90
     1025
280
     0
281
     0
  0
CLASS
  1
ACDBDETAILVIEWSTYLE
  2
AcDbDetailViewStyle
  3
ObjectDBX Classes
 90
     1025
280
     0
281
     0
  0
CLASS
  1
CELLSTYLEMAP
  2
AcDbCellStyleMap
  3
ObjectDBX Classes
 90
     1152
280
     0
281
     0
  0
ENDSEC
  0
SECTION
  2
TABLES
  0
TABLE
  2
VPORT
  5
C535
330
0
100
AcDbSymbolTable
 70
     1
  0
VPORT
  5
C775
330
C535
100
AcDbSymbolTableRecord
100
AcDbViewportTableRecord
  2
*ACTIVE
 70
     0
 10
0.0
 20
0.0
 11
1.0
 21
1.0
 12
453.8376130415258
 22
178.002366272968
 13
0.0
 23
0.0
 14
10.0
 24
10.0
 15
10.0
 25
10.0
 16
0.0
 26
0.0
 36
1.0
 17
0.0
 27
0.0
 37
0.0
 40
379.5934789936198
 41
1.899603698811096
 42
50.0
 43
0.0
 44
0.0
 50
0.0
 51
0.0
 71
     0
 72
   100
 73
     1
 74
     0
 75
     0
 76
     0
 77
     0
 78
     0
281
     0
 65
     1
110
0.0
120
0.0
130
0.0
111
1.0
121
0.0
131
0.0
112
0.0
122
1.0
132
0.0
 79
     0
146
0.0
1001
ACAD_NAV_VCDISPLAY
1070
     3
  0
ENDTAB
  0
TABLE
  2
LTYPE
  5
C532
330
0
100
AcDbSymbolTable
 70
     4
  0
LTYPE
  5
C540
330
C532
100
AcDbSymbolTableRecord
100
AcDbLinetypeTableRecord
  2
BYBLOCK
 70
     0
  3

 72
    65
 73
     0
 40
0.0
  0
LTYPE
  5
C541
330
C532
100
AcDbSymbolTableRecord
100
AcDbLinetypeTableRecord
  2
BYLAYER
 70
     0
  3

 72
    65
 73
     0
 40
0.0
  0
LTYPE
  5
C542
330
C532
100
AcDbSymbolTableRecord
100
AcDbLinetypeTableRecord
  2
CONTINUOUS
 70
     0
  3
Solid line
 72
    65
 73
     0
 40
0.0
  0
LTYPE
  5
C550
330
C532
100
AcDbSymbolTableRecord
100
AcDbLinetypeTableRecord
  2
DASHED
 70
     0
  3
__ __ __ __ __ __ __ __ __ __ __ __ __ __ __ __
 72
    65
 73
     2
 40
0.75
 49
0.5
 74
     0
 49
-0.25
 74
     0
  0
LTYPE
  5
C551
330
C532
100
AcDbSymbolTableRecord
100
AcDbLinetypeTableRecord
  2
CENTER
 70
     0
  3
____ _ ____ _ ____ _ ____ _ ____ _ ____ _ ____ 
 72
    65
 73
     4
 40
2.0
 49
1.25
 74
     0
 49
-0.25
 74
     0
 49
0.25
 74
     0
 49
-0.25
 74
     0
  0
LTYPE
  5
C552
330
C532
100
AcDbSymbolTableRecord
100
AcDbLinetypeTableRecord
  2
PHANTOM
 70
     0
  3
______  __  __  ______  __  __  ______  __  __ 
 72
    65
 73
     6
 40
2.5
 49
1.25
 74
     0
 49
-0.25
 74
     0
 49
0.25
 74
     0
 49
-0.25
 74
     0
 49
0.25
 74
     0
 49
-0.25
 74
     0
  0
ENDTAB
  0
TABLE
  2
LAYER
  5
C52F
330
0
100
AcDbSymbolTable
 70
     8
  0
LAYER
  5
C53D
102
{ACAD_XDICTIONARY
360
C7D0
102
}
330
C52F
100
AcDbSymbolTableRecord
100
AcDbLayerTableRecord
  2
0
 70
     0
 62
     7
  6
CONTINUOUS
370
    -3
390
C77E
  0
LAYER
  5
C553
102
{ACAD_XDICTIONARY
360
C7D2
102
}
330
C52F
100
AcDbSymbolTableRecord
100
AcDbLayerTableRecord
  2
4
 70
     0
 62
     1
  6
CENTER
370
    -3
390
C77E
  0
LAYER
  5
C554
102
{ACAD_XDICTIONARY
360
C7D4
102
}
330
C52F
100
AcDbSymbolTableRecord
100
AcDbLayerTableRecord
  2
5
 70
     0
 62
     6
  6
PHANTOM
370
    -3
390
C77E
  0
LAYER
  5
C555
102
{ACAD_XDICTIONARY
360
C7D6
102
}
330
C52F
100
AcDbSymbolTableRecord
100
AcDbLayerTableRecord
  2
1
 70
     0
 62
     7
  6
CONTINUOUS
370
    -3
390
C77E
  0
LAYER
  5
C556
102
{ACAD_XDICTIONARY
360
C7D8
102
}
330
C52F
100
AcDbSymbolTableRecord
100
AcDbLayerTableRecord
  2
2
 70
     0
 62
     4
  6
CONTINUOUS
370
    -3
390
C77E
  0
LAYER
  5
C557
102
{ACAD_XDICTIONARY
360
C7DA
102
}
330
C52F
100
AcDbSymbolTableRecord
100
AcDbLayerTableRecord
  2
3
 70
     0
 62
     2
  6
DASHED
370
    -3
390
C77E
  0
LAYER
  5
C558
102
{ACAD_XDICTIONARY
360
C7DC
102
}
330
C52F
100
AcDbSymbolTableRecord
100
AcDbLayerTableRecord
  2
6
 70
     0
 62
     5
  6
CONTINUOUS
370
    -3
390
C77E
  0
LAYER
  5
C559
102
{ACAD_XDICTIONARY
360
C7DE
102
}
330
C52F
100
AcDbSymbolTableRecord
100
AcDbLayerTableRecord
  2
7
 70
     0
 62
     3
  6
CONTINUOUS
370
    -3
390
C77E
  0
ENDTAB
  0
TABLE
  2
STYLE
  5
C530
330
0
100
AcDbSymbolTable
 70
     1
  0
STYLE
  5
C53E
330
C530
100
AcDbSymbolTableRecord
100
AcDbTextStyleTableRecord
  2
STANDARD
 70
     0
 40
0.0
 41
1.0
 50
0.0
 71
     0
 42
5.0
  3
txt
  4

  0
ENDTAB
  0
TABLE
  2
VIEW
  5
C533
330
0
100
AcDbSymbolTable
 70
     0
  0
ENDTAB
  0
TABLE
  2
UCS
  5
C534
330
0
100
AcDbSymbolTable
 70
     0
  0
ENDTAB
  0
TABLE
  2
APPID
  5
C536
330
0
100
AcDbSymbolTable
 70
     3
  0
APPID
  5
C53F
330
C536
100
AcDbSymbolTableRecord
100
AcDbRegAppTableRecord
  2
ACAD
 70
     0
  0
APPID
  5
C7EA
330
C536
100
AcDbSymbolTableRecord
100
AcDbRegAppTableRecord
  2
ACAD_NAV_VCDISPLAY
 70
     0
  0
APPID
  5
C823
330
C536
100
AcDbSymbolTableRecord
100
AcDbRegAppTableRecord
  2
ACAD_MLEADERVER
 70
     0
  0
ENDTAB
  0
TABLE
  2
DIMSTYLE
  5
C537
330
0
100
AcDbSymbolTable
 70
     1
100
AcDbDimStyleTable
 71
     0
  0
DIMSTYLE
105
C55B
330
C537
100
AcDbSymbolTableRecord
100
AcDbDimStyleTableRecord
  2
STANDARD
 70
     0
 41
3.0
 42
1.0
 43
10.0
 44
1.0
 73
     0
 74
     0
 77
     3
 78
     8
140
2.5
141
0.0
147
1.0
172
     1
173
     1
284
     8
285
     8
286
     8
340
C53E
  0
ENDTAB
  0
TABLE
  2
BLOCK_RECORD
  5
C52E
330
0
100
AcDbSymbolTable
 70
     0
  0
BLOCK_RECORD
  5
C54B
102
{ACAD_XDICTIONARY
360
C778
102
}
330
C52E
100
AcDbSymbolTableRecord
100
AcDbBlockTableRecord
  2
*MODEL_SPACE
340
C7CC
  0
BLOCK_RECORD
  5
C547
102
{ACAD_XDICTIONARY
360
C776
102
}
330
C52E
100
AcDbSymbolTableRecord
100
AcDbBlockTableRecord
  2
*PAPER_SPACE
340
C7CD
  0
ENDTAB
  0
ENDSEC
  0
SECTION
  2
BLOCKS
  0
BLOCK
  5
C54C
330
C54B
100
AcDbEntity
  8
0
100
AcDbBlockBegin
  2
*MODEL_SPACE
 70
     0
 10
0.0
 20
0.0
 30
0.0
  3
*MODEL_SPACE
  1

  0
ENDBLK
  5
C54D
330
C54B
100
AcDbEntity
  8
0
100
AcDbBlockEnd
  0
BLOCK
  5
C548
330
C547
100
AcDbEntity
 67
     1
  8
0
100
AcDbBlockBegin
  2
*PAPER_SPACE
 70
     0
 10
0.0
 20
0.0
 30
0.0
  3
*PAPER_SPACE
  1

  0
ENDBLK
  5
C549
330
C547
100
AcDbEntity
 67
     1
  8
0
100
AcDbBlockEnd
  0
ENDSEC
  0
SECTION
  2
ENTITIES
  0
TEXT
  5
C563
330
C54B
100
AcDbEntity
  8
7
  6
Continuous
100
AcDbText
 10
10.0
 20
18.0
 30
0.0
 40
3.0
  1
TYPE No.TM-233-2
100
AcDbText
  0
TEXT
  5
C564
330
C54B
100
AcDbEntity
  8
7
  6
Continuous
100
AcDbText
 10
10.0
 20
26.0
 30
0.0
 40
3.0
  1
CODE No.6033
100
AcDbText
  0
TEXT
  5
C565
330
C54B
100
AcDbEntity
  8
1
  6
Continuous
100
AcDbText
 10
10.0
 20
10.0
 30
0.0
 40
1.399999999999999
  1
LAYER
100
AcDbText
  0
TEXT
  5
C566
330
C54B
100
AcDbEntity
  8
1
  6
Continuous
100
AcDbText
 10
17.97951099999998
 20
10.04873699999998
 30
0.0
 40
1.399999999999999
  1
1
100
AcDbText
  0
TEXT
  5
C567
330
C54B
100
AcDbEntity
  8
7
  6
Continuous
100
AcDbText
 10
29.97951099999999
 20
10.04873699999998
 30
0.0
 40
1.399999999999999
  1
7
100
AcDbText
  0
TEXT
  5
C568
330
C54B
100
AcDbEntity
  8
4
  6
CENTER
100
AcDbText
 10
23.97951099999999
 20
10.04873699999998
 30
0.0
 40
1.399999999999999
  1
4
100
AcDbText
  0
TEXT
  5
C569
330
C54B
100
AcDbEntity
  8
3
  6
DASHED
100
AcDbText
 10
21.979511
 20
10.04873699999998
 30
0.0
 40
1.399999999999999
  1
3
100
AcDbText
  0
TEXT
  5
C56A
330
C54B
100
AcDbEntity
  8
2
  6
Continuous
100
AcDbText
 10
19.97951099999999
 20
10.04873699999998
 30
0.0
 40
1.399999999999999
  1
2
100
AcDbText
  0
TEXT
  5
C56B
330
C54B
100
AcDbEntity
  8
6
  6
Continuous
100
AcDbText
 10
27.979511
 20
10.04873699999998
 30
0.0
 40
1.399999999999999
  1
6
100
AcDbText
  0
TEXT
  5
C56C
330
C54B
100
AcDbEntity
  8
5
  6
PHANTOM
100
AcDbText
 10
25.97951099999999
 20
10.04873699999998
 30
0.0
 40
1.399999999999999
  1
5
100
AcDbText
  0
LINE
  5
C56D
330
C54B
100
AcDbEntity
  8
4
  6
CENTER
100
AcDbLine
 10
572.2999999999998
 20
145.1589569999999
 30
0.0
 11
572.2999999999998
 21
138.7474469999999
 31
0.0
  0
LINE
  5
C56E
330
C54B
100
AcDbEntity
  8
4
  6
CENTER
100
AcDbLine
 10
427.3
 20
145.429866
 30
0.0
 11
427.3
 21
139.1086579999999
 31
0.0
  0
LINE
  5
C56F
330
C54B
100
AcDbEntity
  8
4
  6
CENTER
100
AcDbLine
 10
118.3
 20
144.978351
 30
0.0
 11
118.3
 21
138.83775
 31
0.0
  0
LINE
  5
C570
330
C54B
100
AcDbEntity
  8
4
  6
CENTER
100
AcDbLine
 10
203.3
 20
144.978351
 30
0.0
 11
203.3
 21
139.018355
 31
0.0
  0
LINE
  5
C571
330
C54B
100
AcDbEntity
  8
4
  6
CENTER
100
AcDbLine
 10
348.3
 20
144.8880479999999
 30
0.0
 11
348.3
 21
139.289264
 31
0.0
  0
LINE
  5
C572
330
C54B
100
AcDbEntity
  8
1
  6
Continuous
100
AcDbLine
 10
318.8
 20
148.6794999999998
 30
0.0
 11
318.8
 21
149.1794999999999
 31
0.0
  0
LINE
  5
C573
330
C54B
100
AcDbEntity
  8
1
  6
Continuous
100
AcDbLine
 10
310.8
 20
148.6794999999998
 30
0.0
 11
318.8
 21
148.6794999999998
 31
0.0
  0
LINE
  5
C574
330
C54B
100
AcDbEntity
  8
1
  6
Continuous
100
AcDbLine
 10
310.8
 20
149.1794999999999
 30
0.0
 11
318.8
 21
149.1794999999999
 31
0.0
  0
LINE
  5
C575
330
C54B
100
AcDbEntity
  8
1
  6
Continuous
100
AcDbLine
 10
318.8
 20
135.3205
 30
0.0
 11
318.8
 21
134.8205
 31
0.0
  0
LINE
  5
C576
330
C54B
100
AcDbEntity
  8
1
  6
Continuous
100
AcDbLine
 10
310.8
 20
135.3205
 30
0.0
 11
318.8
 21
135.3205
 31
0.0
  0
LINE
  5
C577
330
C54B
100
AcDbEntity
  8
1
  6
Continuous
100
AcDbLine
 10
310.8
 20
134.8205
 30
0.0
 11
318.8
 21
134.8205
 31
0.0
  0
LINE
  5
C578
330
C54B
100
AcDbEntity
  8
1
  6
Continuous
100
AcDbLine
 10
310.8
 20
149.1794999999999
 30
0.0
 11
310.8
 21
148.15
 31
0.0
  0
ARC
  5
C579
330
C54B
100
AcDbEntity
  8
1
  6
Continuous
100
AcDbCircle
 10
319.8
 20
148.6794999999998
 30
0.0
 40
1.0
100
AcDbArc
 50
180.0
 51
211.9716779999999
  0
ARC
  5
C57A
330
C54B
100
AcDbEntity
  8
1
  6
Continuous
100
AcDbCircle
 10
329.8
 20
148.6794999999998
 30
0.0
 40
1.0
100
AcDbArc
 50
180.0
 51
211.9716779999999
  0
LINE
  5
C57B
330
C54B
100
AcDbEntity
  8
1
  6
Continuous
100
AcDbLine
 10
328.8
 20
148.6794999999998
 30
0.0
 11
328.8
 21
149.1794999999999
 31
0.0
  0
LINE
  5
C57C
330
C54B
100
AcDbEntity
  8
1
  6
Continuous
100
AcDbLine
 10
320.8
 20
148.6794999999998
 30
0.0
 11
328.8
 21
148.6794999999998
 31
0.0
  0
LINE
  5
C57D
330
C54B
100
AcDbEntity
  8
1
  6
Continuous
100
AcDbLine
 10
320.8
 20
149.1794999999999
 30
0.0
 11
328.8
 21
149.1794999999999
 31
0.0
  0
LINE
  5
C57E
330
C54B
100
AcDbEntity
  8
1
  6
Continuous
100
AcDbLine
 10
328.8
 20
135.3205
 30
0.0
 11
328.8
 21
134.8205
 31
0.0
  0
LINE
  5
C57F
330
C54B
100
AcDbEntity
  8
1
  6
Continuous
100
AcDbLine
 10
320.8
 20
135.3205
 30
0.0
 11
328.8
 21
135.3205
 31
0.0
  0
LINE
  5
C580
330
C54B
100
AcDbEntity
  8
1
  6
Continuous
100
AcDbLine
 10
320.8
 20
134.8205
 30
0.0
 11
328.8
 21
134.8205
 31
0.0
  0
LINE
  5
C581
330
C54B
100
AcDbEntity
  8
1
  6
Continuous
100
AcDbLine
 10
320.8
 20
149.1794999999999
 30
0.0
 11
320.8
 21
148.6794999999998
 31
0.0
  0
LINE
  5
C582
330
C54B
100
AcDbEntity
  8
1
  6
Continuous
100
AcDbLine
 10
320.8
 20
134.8205
 30
0.0
 11
320.8
 21
135.3205
 31
0.0
  0
ARC
  5
C583
330
C54B
100
AcDbEntity
  8
1
  6
Continuous
100
AcDbCircle
 10
319.8
 20
135.3205
 30
0.0
 40
1.0
100
AcDbArc
 50
0.0
 51
31.97167800000001
  0
ARC
  5
C584
330
C54B
100
AcDbEntity
  8
1
  6
Continuous
100
AcDbCircle
 10
339.8
 20
148.6794999999998
 30
0.0
 40
1.0
100
AcDbArc
 50
180.0
 51
211.9716779999999
  0
LINE
  5
C585
330
C54B
100
AcDbEntity
  8
1
  6
Continuous
100
AcDbLine
 10
338.8
 20
148.6794999999998
 30
0.0
 11
338.8
 21
149.1794999999999
 31
0.0
  0
LINE
  5
C586
330
C54B
100
AcDbEntity
  8
1
  6
Continuous
100
AcDbLine
 10
330.8
 20
148.6794999999998
 30
0.0
 11
338.8
 21
148.6794999999998
 31
0.0
  0
LINE
  5
C587
330
C54B
100
AcDbEntity
  8
1
  6
Continuous
100
AcDbLine
 10
330.8
 20
149.1794999999999
 30
0.0
 11
338.8
 21
149.1794999999999
 31
0.0
  0
LINE
  5
C588
330
C54B
100
AcDbEntity
  8
1
  6
Continuous
100
AcDbLine
 10
338.8
 20
135.3205
 30
0.0
 11
338.8
 21
134.8205
 31
0.0
  0
LINE
  5
C589
330
C54B
100
AcDbEntity
  8
1
  6
Continuous
100
AcDbLine
 10
330.8
 20
135.3205
 30
0.0
 11
338.8
 21
135.3205
 31
0.0
  0
LINE
  5
C58A
330
C54B
100
AcDbEntity
  8
1
  6
Continuous
100
AcDbLine
 10
330.8
 20
134.8205
 30
0.0
 11
338.8
 21
134.8205
 31
0.0
  0
LINE
  5
C58B
330
C54B
100
AcDbEntity
  8
1
  6
Continuous
100
AcDbLine
 10
330.8
 20
149.1794999999999
 30
0.0
 11
330.8
 21
148.6794999999998
 31
0.0
  0
LINE
  5
C58C
330
C54B
100
AcDbEntity
  8
1
  6
Continuous
100
AcDbLine
 10
330.8
 20
134.8205
 30
0.0
 11
330.8
 21
135.3205
 31
0.0
  0
ARC
  5
C58D
330
C54B
100
AcDbEntity
  8
1
  6
Continuous
100
AcDbCircle
 10
329.8
 20
135.3205
 30
0.0
 40
1.0
100
AcDbArc
 50
0.0
 51
31.97167800000001
  0
ARC
  5
C58E
330
C54B
100
AcDbEntity
  8
1
  6
Continuous
100
AcDbCircle
 10
349.8
 20
148.6794999999998
 30
0.0
 40
1.0
100
AcDbArc
 50
180.0
 51
211.9716779999999
  0
LINE
  5
C58F
330
C54B
100
AcDbEntity
  8
1
  6
Continuous
100
AcDbLine
 10
348.7999999999999
 20
148.6794999999998
 30
0.0
 11
348.7999999999999
 21
149.1794999999999
 31
0.0
  0
LINE
  5
C590
330
C54B
100
AcDbEntity
  8
1
  6
Continuous
100
AcDbLine
 10
340.8
 20
148.6794999999998
 30
0.0
 11
348.7999999999999
 21
148.6794999999998
 31
0.0
  0
LINE
  5
C591
330
C54B
100
AcDbEntity
  8
1
  6
Continuous
100
AcDbLine
 10
340.8
 20
149.1794999999999
 30
0.0
 11
348.7999999999999
 21
149.1794999999999
 31
0.0
  0
LINE
  5
C592
330
C54B
100
AcDbEntity
  8
1
  6
Continuous
100
AcDbLine
 10
348.7999999999999
 20
135.3205
 30
0.0
 11
348.7999999999999
 21
134.8205
 31
0.0
  0
LINE
  5
C593
330
C54B
100
AcDbEntity
  8
1
  6
Continuous
100
AcDbLine
 10
340.8
 20
135.3205
 30
0.0
 11
348.7999999999999
 21
135.3205
 31
0.0
  0
LINE
  5
C594
330
C54B
100
AcDbEntity
  8
1
  6
Continuous
100
AcDbLine
 10
340.8
 20
134.8205
 30
0.0
 11
348.7999999999999
 21
134.8205
 31
0.0
  0
LINE
  5
C595
330
C54B
100
AcDbEntity
  8
1
  6
Continuous
100
AcDbLine
 10
340.8
 20
149.1794999999999
 30
0.0
 11
340.8
 21
148.6794999999998
 31
0.0
  0
LINE
  5
C596
330
C54B
100
AcDbEntity
  8
1
  6
Continuous
100
AcDbLine
 10
340.8
 20
134.8205
 30
0.0
 11
340.8
 21
135.3205
 31
0.0
  0
ARC
  5
C597
330
C54B
100
AcDbEntity
  8
1
  6
Continuous
100
AcDbCircle
 10
339.8
 20
135.3205
 30
0.0
 40
1.0
100
AcDbArc
 50
0.0
 51
31.97167800000001
  0
ARC
  5
C598
330
C54B
100
AcDbEntity
  8
1
  6
Continuous
100
AcDbCircle
 10
359.8
 20
148.6794999999998
 30
0.0
 40
1.0
100
AcDbArc
 50
180.0
 51
211.9716779999999
  0
LINE
  5
C599
330
C54B
100
AcDbEntity
  8
1
  6
Continuous
100
AcDbLine
 10
358.8
 20
148.6794999999998
 30
0.0
 11
358.8
 21
149.1794999999999
 31
0.0
  0
LINE
  5
C59A
330
C54B
100
AcDbEntity
  8
1
  6
Continuous
100
AcDbLine
 10
350.8
 20
148.6794999999998
 30
0.0
 11
358.8
 21
148.6794999999998
 31
0.0
  0
LINE
  5
C59B
330
C54B
100
AcDbEntity
  8
1
  6
Continuous
100
AcDbLine
 10
350.8
 20
149.1794999999999
 30
0.0
 11
358.8
 21
149.1794999999999
 31
0.0
  0
LINE
  5
C59C
330
C54B
100
AcDbEntity
  8
1
  6
Continuous
100
AcDbLine
 10
358.8
 20
135.3205
 30
0.0
 11
358.8
 21
134.8205
 31
0.0
  0
LINE
  5
C59D
330
C54B
100
AcDbEntity
  8
1
  6
Continuous
100
AcDbLine
 10
350.8
 20
135.3205
 30
0.0
 11
358.8
 21
135.3205
 31
0.0
  0
LINE
  5
C59E
330
C54B
100
AcDbEntity
  8
1
  6
Continuous
100
AcDbLine
 10
350.8
 20
134.8205
 30
0.0
 11
358.8
 21
134.8205
 31
0.0
  0
LINE
  5
C59F
330
C54B
100
AcDbEntity
  8
1
  6
Continuous
100
AcDbLine
 10
350.8
 20
149.1794999999999
 30
0.0
 11
350.8
 21
148.6794999999998
 31
0.0
  0
LINE
  5
C5A0
330
C54B
100
AcDbEntity
  8
1
  6
Continuous
100
AcDbLine
 10
350.8
 20
134.8205
 30
0.0
 11
350.8
 21
135.3205
 31
0.0
  0
ARC
  5
C5A1
330
C54B
100
AcDbEntity
  8
1
  6
Continuous
100
AcDbCircle
 10
349.8
 20
135.3205
 30
0.0
 40
1.0
100
AcDbArc
 50
0.0
 51
31.97167800000001
  0
LINE
  5
C5A2
330
C54B
100
AcDbEntity
  8
1
  6
Continuous
100
AcDbLine
 10
360.8
 20
148.6794999999998
 30
0.0
 11
360.8
 21
149.1794999999999
 31
0.0
  0
LINE
  5
C5A3
330
C54B
100
AcDbEntity
  8
1
  6
Continuous
100
AcDbLine
 10
360.8
 20
148.6794999999998
 30
0.0
 11
368.8
 21
148.6794999999998
 31
0.0
  0
LINE
  5
C5A4
330
C54B
100
AcDbEntity
  8
1
  6
Continuous
100
AcDbLine
 10
360.8
 20
149.1794999999999
 30
0.0
 11
368.8
 21
149.1794999999999
 31
0.0
  0
LINE
  5
C5A5
330
C54B
100
AcDbEntity
  8
1
  6
Continuous
100
AcDbLine
 10
360.8
 20
135.3205
 30
0.0
 11
360.8
 21
134.8205
 31
0.0
  0
LINE
  5
C5A6
330
C54B
100
AcDbEntity
  8
1
  6
Continuous
100
AcDbLine
 10
360.8
 20
135.3205
 30
0.0
 11
368.8
 21
135.3205
 31
0.0
  0
LINE
  5
C5A7
330
C54B
100
AcDbEntity
  8
1
  6
Continuous
100
AcDbLine
 10
360.8
 20
134.8205
 30
0.0
 11
368.8
 21
134.8205
 31
0.0
  0
ARC
  5
C5A8
330
C54B
100
AcDbEntity
  8
1
  6
Continuous
100
AcDbCircle
 10
359.8
 20
135.3205
 30
0.0
 40
1.0
100
AcDbArc
 50
0.0
 51
31.97167800000001
  0
LINE
  5
C5A9
330
C54B
100
AcDbEntity
  8
1
  6
Continuous
100
AcDbLine
 10
310.8
 20
135.85
 30
0.0
 11
310.8
 21
134.8205
 31
0.0
  0
ARC
  5
C5AA
330
C54B
100
AcDbEntity
  8
1
  6
Continuous
100
AcDbCircle
 10
319.8
 20
148.6794999999998
 30
0.0
 40
1.0
100
AcDbArc
 50
328.028322
 51
0.0
  0
ARC
  5
C5AB
330
C54B
100
AcDbEntity
  8
1
  6
Continuous
100
AcDbCircle
 10
329.8
 20
148.6794999999998
 30
0.0
 40
1.0
100
AcDbArc
 50
328.028322
 51
0.0
  0
ARC
  5
C5AC
330
C54B
100
AcDbEntity
  8
1
  6
Continuous
100
AcDbCircle
 10
339.8
 20
148.6794999999998
 30
0.0
 40
1.0
100
AcDbArc
 50
328.028322
 51
0.0
  0
ARC
  5
C5AD
330
C54B
100
AcDbEntity
  8
1
  6
Continuous
100
AcDbCircle
 10
349.8
 20
148.6794999999998
 30
0.0
 40
1.0
100
AcDbArc
 50
328.028322
 51
0.0
  0
ARC
  5
C5AE
330
C54B
100
AcDbEntity
  8
1
  6
Continuous
100
AcDbCircle
 10
359.8
 20
148.6794999999998
 30
0.0
 40
1.0
100
AcDbArc
 50
328.028322
 51
0.0
  0
ARC
  5
C5AF
330
C54B
100
AcDbEntity
  8
1
  6
Continuous
100
AcDbCircle
 10
359.8
 20
135.3205
 30
0.0
 40
1.0
100
AcDbArc
 50
148.028322
 51
180.0
  0
ARC
  5
C5B0
330
C54B
100
AcDbEntity
  8
1
  6
Continuous
100
AcDbCircle
 10
349.8
 20
135.3205
 30
0.0
 40
1.0
100
AcDbArc
 50
148.028322
 51
180.0
  0
ARC
  5
C5B1
330
C54B
100
AcDbEntity
  8
1
  6
Continuous
100
AcDbCircle
 10
339.8
 20
135.3205
 30
0.0
 40
1.0
100
AcDbArc
 50
148.028322
 51
180.0
  0
ARC
  5
C5B2
330
C54B
100
AcDbEntity
  8
1
  6
Continuous
100
AcDbCircle
 10
329.8
 20
135.3205
 30
0.0
 40
1.0
100
AcDbArc
 50
148.028322
 51
180.0
  0
ARC
  5
C5B3
330
C54B
100
AcDbEntity
  8
1
  6
Continuous
100
AcDbCircle
 10
319.8
 20
135.3205
 30
0.0
 40
1.0
100
AcDbArc
 50
148.028322
 51
180.0
  0
LINE
  5
C5B4
330
C54B
100
AcDbEntity
  8
1
  6
Continuous
100
AcDbLine
 10
380.3
 20
148.15
 30
0.0
 11
83.29999999999998
 21
148.15
 31
0.0
  0
LINE
  5
C5B5
330
C54B
100
AcDbEntity
  8
1
  6
Continuous
100
AcDbLine
 10
83.29999999999998
 20
148.15
 30
0.0
 11
83.29999999999998
 21
135.85
 31
0.0
  0
LINE
  5
C5B6
330
C54B
100
AcDbEntity
  8
1
  6
Continuous
100
AcDbLine
 10
83.29999999999998
 20
135.85
 30
0.0
 11
380.3
 21
135.85
 31
0.0
  0
LINE
  5
C5B7
330
C54B
100
AcDbEntity
  8
1
  6
Continuous
100
AcDbLine
 10
380.3
 20
143.0
 30
0.0
 11
377.3
 21
142.0
 31
0.0
  0
LINE
  5
C5B8
330
C54B
100
AcDbEntity
  8
1
  6
Continuous
100
AcDbLine
 10
377.3
 20
142.0
 30
0.0
 11
380.3
 21
141.0
 31
0.0
  0
LINE
  5
C5B9
330
C54B
100
AcDbEntity
  8
1
  6
Continuous
100
AcDbLine
 10
380.3
 20
142.0
 30
0.0
 11
377.3
 21
142.0
 31
0.0
  0
ARC
  5
C5BA
330
C54B
100
AcDbEntity
  8
1
  6
Continuous
100
AcDbCircle
 10
606.7000000000001
 20
148.3
 30
0.0
 40
1.0
100
AcDbArc
 50
135.0
 51
270.0
  0
LINE
  5
C5BB
330
C54B
100
AcDbEntity
  8
1
  6
Continuous
100
AcDbLine
 10
605.9928929999998
 20
149.0071069999999
 30
0.0
 11
607.007107
 21
150.02132
 31
0.0
  0
ARC
  5
C5BC
330
C54B
100
AcDbEntity
  8
1
  6
Continuous
100
AcDbCircle
 10
606.2999999999998
 20
150.728427
 30
0.0
 40
1.0
100
AcDbArc
 50
315.0
 51
0.0
  0
LINE
  5
C5BD
330
C54B
100
AcDbEntity
  8
1
  6
Continuous
100
AcDbLine
 10
607.2999999999998
 20
150.728427
 30
0.0
 11
607.2999999999998
 21
152.0
 31
0.0
  0
LINE
  5
C5BE
330
C54B
100
AcDbEntity
  8
1
  6
Continuous
100
AcDbLine
 10
607.2784699999997
 20
133.4779619999999
 30
0.0
 11
307.3
 21
133.4779619999999
 31
0.0
  0
LINE
  5
C5BF
330
C54B
100
AcDbEntity
  8
1
  6
Continuous
100
AcDbLine
 10
307.3
 20
134.327335
 30
0.0
 11
606.658451
 21
134.327335
 31
0.0
  0
LINE
  5
C5C0
330
C54B
100
AcDbEntity
  8
1
  6
Continuous
100
AcDbLine
 10
606.658451
 20
149.672665
 30
0.0
 11
307.3
 21
149.672665
 31
0.0
  0
LINE
  5
C5C1
330
C54B
100
AcDbEntity
  8
1
  6
Continuous
100
AcDbLine
 10
307.3
 20
150.5220379999999
 30
0.0
 11
607.2784699999997
 21
150.5220379999999
 31
0.0
  0
LINE
  5
C5C2
330
C54B
100
AcDbEntity
  8
4
  6
CENTER
100
AcDbLine
 10
610.2999999999998
 20
142.0
 30
0.0
 11
80.0
 21
142.0
 31
0.0
  0
LINE
  5
C5C3
330
C54B
100
AcDbEntity
  8
1
  6
Continuous
100
AcDbLine
 10
607.2999999999998
 20
152.0
 30
0.0
 11
307.3
 21
152.0
 31
0.0
  0
LINE
  5
C5C4
330
C54B
100
AcDbEntity
  8
1
  6
Continuous
100
AcDbLine
 10
307.3
 20
132.0
 30
0.0
 11
607.2999999999998
 21
132.0
 31
0.0
  0
LINE
  5
C5C5
330
C54B
100
AcDbEntity
  8
1
  6
Continuous
100
AcDbLine
 10
607.2999999999998
 20
132.0
 30
0.0
 11
607.2999999999998
 21
133.2715729999998
 31
0.0
  0
ARC
  5
C5C6
330
C54B
100
AcDbEntity
  8
1
  6
Continuous
100
AcDbCircle
 10
606.2999999999998
 20
133.2715729999998
 30
0.0
 40
1.0
100
AcDbArc
 50
0.0
 51
45.0
  0
LINE
  5
C5C7
330
C54B
100
AcDbEntity
  8
1
  6
Continuous
100
AcDbLine
 10
607.007107
 20
133.9786799999999
 30
0.0
 11
605.9928929999998
 21
134.9928929999999
 31
0.0
  0
ARC
  5
C5C8
330
C54B
100
AcDbEntity
  8
1
  6
Continuous
100
AcDbCircle
 10
606.7000000000001
 20
135.6999999999999
 30
0.0
 40
1.0
100
AcDbArc
 50
90.0
 51
225.0
  0
LINE
  5
C5C9
330
C54B
100
AcDbEntity
  8
1
  6
Continuous
100
AcDbLine
 10
607.2999999999998
 20
136.6999999999999
 30
0.0
 11
605.9
 21
136.6999999999999
 31
0.0
  0
LINE
  5
C5CA
330
C54B
100
AcDbEntity
  8
1
  6
Continuous
100
AcDbLine
 10
605.9
 20
136.6999999999999
 30
0.0
 11
605.9
 21
147.3
 31
0.0
  0
LINE
  5
C5CB
330
C54B
100
AcDbEntity
  8
1
  6
Continuous
100
AcDbLine
 10
605.9
 20
147.3
 30
0.0
 11
607.2999999999998
 21
147.3
 31
0.0
  0
LINE
  5
C5CC
330
C54B
100
AcDbEntity
  8
1
  6
Continuous
100
AcDbLine
 10
607.2999999999998
 20
147.3
 30
0.0
 11
607.2999999999998
 21
136.6999999999999
 31
0.0
  0
LINE
  5
C5CD
330
C54B
100
AcDbEntity
  8
4
  6
CENTER
100
AcDbLine
 10
103.2999999999999
 20
145.3395629999999
 30
0.0
 11
103.2999999999999
 21
138.83775
 31
0.0
  0
CIRCLE
  5
C5CE
330
C54B
100
AcDbEntity
  8
1
  6
Continuous
100
AcDbCircle
 10
103.2999999999999
 20
142.0
 30
0.0
 40
1.6
  0
LINE
  5
C5CF
330
C54B
100
AcDbEntity
  8
1
  6
Continuous
100
AcDbLine
 10
118.0
 20
140.4
 30
0.0
 11
118.5999999999998
 21
140.4
 31
0.0
  0
LINE
  5
C5D0
330
C54B
100
AcDbEntity
  8
1
  6
Continuous
100
AcDbLine
 10
118.5999999999998
 20
143.5999999999999
 30
0.0
 11
118.0
 21
143.5999999999999
 31
0.0
  0
ARC
  5
C5D1
330
C54B
100
AcDbEntity
  8
1
  6
Continuous
100
AcDbCircle
 10
118.0
 20
142.0
 30
0.0
 40
1.6
100
AcDbArc
 50
90.0
 51
270.0
  0
ARC
  5
C5D2
330
C54B
100
AcDbEntity
  8
1
  6
Continuous
100
AcDbCircle
 10
118.5999999999998
 20
142.0
 30
0.0
 40
1.6
100
AcDbArc
 50
270.0
 51
90.0
  0
LINE
  5
C5D3
330
C54B
100
AcDbEntity
  8
4
  6
CENTER
100
AcDbLine
 10
158.3
 20
146.9499999999999
 30
0.0
 11
158.3
 21
137.05
 31
0.0
  0
CIRCLE
  5
C5D4
330
C54B
100
AcDbEntity
  8
1
  6
Continuous
100
AcDbCircle
 10
158.3
 20
142.0
 30
0.0
 40
3.649999999999999
  0
LINE
  5
C5D5
330
C54B
100
AcDbEntity
  8
1
  6
Continuous
100
AcDbLine
 10
203.0
 20
140.4
 30
0.0
 11
203.6
 21
140.4
 31
0.0
  0
LINE
  5
C5D6
330
C54B
100
AcDbEntity
  8
1
  6
Continuous
100
AcDbLine
 10
203.6
 20
143.5999999999999
 30
0.0
 11
203.0
 21
143.5999999999999
 31
0.0
  0
ARC
  5
C5D7
330
C54B
100
AcDbEntity
  8
1
  6
Continuous
100
AcDbCircle
 10
203.0
 20
142.0
 30
0.0
 40
1.6
100
AcDbArc
 50
90.0
 51
270.0
  0
ARC
  5
C5D8
330
C54B
100
AcDbEntity
  8
1
  6
Continuous
100
AcDbCircle
 10
203.6
 20
142.0
 30
0.0
 40
1.6
100
AcDbArc
 50
270.0
 51
90.0
  0
LINE
  5
C5D9
330
C54B
100
AcDbEntity
  8
4
  6
CENTER
100
AcDbLine
 10
327.3
 20
144.8880479999999
 30
0.0
 11
327.3
 21
139.4698699999999
 31
0.0
  0
LINE
  5
C5DA
330
C54B
100
AcDbEntity
  8
1
  6
Continuous
100
AcDbLine
 10
307.3
 20
132.0
 30
0.0
 11
307.3
 21
135.85
 31
0.0
  0
LINE
  5
C5DB
330
C54B
100
AcDbEntity
  8
1
  6
Continuous
100
AcDbLine
 10
307.3
 20
148.15
 30
0.0
 11
307.3
 21
152.0
 31
0.0
  0
LINE
  5
C5DC
330
C54B
100
AcDbEntity
  8
3
  6
DASHED
100
AcDbLine
 10
307.3
 20
135.85
 30
0.0
 11
307.3
 21
148.15
 31
0.0
  0
LINE
  5
C5DD
330
C54B
100
AcDbEntity
  8
4
  6
CENTER
100
AcDbLine
 10
363.3
 20
144.978351
 30
0.0
 11
363.3
 21
139.3795669999998
 31
0.0
  0
LINE
  5
C5DE
330
C54B
100
AcDbEntity
  8
1
  6
Continuous
100
AcDbLine
 10
348.6
 20
140.4
 30
0.0
 11
348.0
 21
140.4
 31
0.0
  0
LINE
  5
C5DF
330
C54B
100
AcDbEntity
  8
1
  6
Continuous
100
AcDbLine
 10
348.0
 20
143.5999999999999
 30
0.0
 11
348.6
 21
143.5999999999999
 31
0.0
  0
ARC
  5
C5E0
330
C54B
100
AcDbEntity
  8
1
  6
Continuous
100
AcDbCircle
 10
348.6
 20
142.0
 30
0.0
 40
1.6
100
AcDbArc
 50
270.0
 51
90.0
  0
ARC
  5
C5E1
330
C54B
100
AcDbEntity
  8
1
  6
Continuous
100
AcDbCircle
 10
348.0
 20
142.0
 30
0.0
 40
1.6
100
AcDbArc
 50
90.0
 51
270.0
  0
LINE
  5
C5E2
330
C54B
100
AcDbEntity
  8
1
  6
Continuous
100
AcDbLine
 10
380.3
 20
135.85
 30
0.0
 11
380.3
 21
148.15
 31
0.0
  0
LINE
  5
C5E3
330
C54B
100
AcDbEntity
  8
1
  6
Continuous
100
AcDbLine
 10
427.0
 20
140.4
 30
0.0
 11
427.6
 21
140.4
 31
0.0
  0
LINE
  5
C5E4
330
C54B
100
AcDbEntity
  8
1
  6
Continuous
100
AcDbLine
 10
427.6
 20
143.5999999999999
 30
0.0
 11
427.0
 21
143.5999999999999
 31
0.0
  0
ARC
  5
C5E5
330
C54B
100
AcDbEntity
  8
1
  6
Continuous
100
AcDbCircle
 10
427.0
 20
142.0
 30
0.0
 40
1.6
100
AcDbArc
 50
90.0
 51
270.0
  0
ARC
  5
C5E6
330
C54B
100
AcDbEntity
  8
1
  6
Continuous
100
AcDbCircle
 10
427.6
 20
142.0
 30
0.0
 40
1.6
100
AcDbArc
 50
270.0
 51
90.0
  0
LINE
  5
C5E7
330
C54B
100
AcDbEntity
  8
4
  6
CENTER
100
AcDbLine
 10
552.2999999999998
 20
147.145622
 30
0.0
 11
552.2999999999998
 21
137.212296
 31
0.0
  0
CIRCLE
  5
C5E8
330
C54B
100
AcDbEntity
  8
1
  6
Continuous
100
AcDbCircle
 10
552.2999999999998
 20
142.0
 30
0.0
 40
3.649999999999999
  0
LINE
  5
C5E9
330
C54B
100
AcDbEntity
  8
4
  6
CENTER
100
AcDbLine
 10
587.2999999999998
 20
145.1589569999999
 30
0.0
 11
587.2999999999998
 21
138.83775
 31
0.0
  0
LINE
  5
C5EA
330
C54B
100
AcDbEntity
  8
1
  6
Continuous
100
AcDbLine
 10
572.0
 20
140.4
 30
0.0
 11
572.5999999999998
 21
140.4
 31
0.0
  0
LINE
  5
C5EB
330
C54B
100
AcDbEntity
  8
1
  6
Continuous
100
AcDbLine
 10
572.5999999999998
 20
143.5999999999999
 30
0.0
 11
572.0
 21
143.5999999999999
 31
0.0
  0
ARC
  5
C5EC
330
C54B
100
AcDbEntity
  8
1
  6
Continuous
100
AcDbCircle
 10
572.0
 20
142.0
 30
0.0
 40
1.6
100
AcDbArc
 50
90.0
 51
270.0
  0
ARC
  5
C5ED
330
C54B
100
AcDbEntity
  8
1
  6
Continuous
100
AcDbCircle
 10
572.5999999999998
 20
142.0
 30
0.0
 40
1.6
100
AcDbArc
 50
270.0
 51
90.0
  0
ARC
  5
C5EE
330
C54B
100
AcDbEntity
  8
1
  6
Continuous
100
AcDbCircle
 10
314.8
 20
149.0124999999999
 30
0.0
 40
1.587499999999999
100
AcDbArc
 50
327.090948
 51
347.8914909999998
  0
ARC
  5
C5EF
330
C54B
100
AcDbEntity
  8
1
  6
Continuous
100
AcDbCircle
 10
314.8
 20
149.0124999999999
 30
0.0
 40
1.587499999999999
100
AcDbArc
 50
6.038508
 51
24.57297999999999
  0
ARC
  5
C5F0
330
C54B
100
AcDbEntity
  8
1
  6
Continuous
100
AcDbCircle
 10
314.8
 20
149.0124999999999
 30
0.0
 40
1.587499999999999
100
AcDbArc
 50
155.4270199999999
 51
173.9614919999999
  0
ARC
  5
C5F1
330
C54B
100
AcDbEntity
  8
1
  6
Continuous
100
AcDbCircle
 10
314.8
 20
149.0124999999999
 30
0.0
 40
1.587499999999999
100
AcDbArc
 50
192.1085089999999
 51
212.9090519999999
  0
LINE
  5
C5F2
330
C54B
100
AcDbEntity
  8
4
  6
CENTER
100
AcDbLine
 10
670.2999999999998
 20
142.0
 30
0.0
 11
652.2999999999998
 21
142.0
 31
0.0
  0
LINE
  5
C5F3
330
C54B
100
AcDbEntity
  8
1
  6
Continuous
100
AcDbLine
 10
657.2999999999998
 20
146.64104
 30
0.0
 11
657.2999999999998
 21
137.35896
 31
0.0
  0
LINE
  5
C5F4
330
C54B
100
AcDbEntity
  8
1
  6
Continuous
100
AcDbLine
 10
658.1
 20
149.1794999999999
 30
0.0
 11
658.1
 21
148.6794999999998
 31
0.0
  0
LINE
  5
C5F5
330
C54B
100
AcDbEntity
  8
1
  6
Continuous
100
AcDbLine
 10
658.1
 20
134.8205
 30
0.0
 11
658.1
 21
135.3205
 31
0.0
  0
LINE
  5
C5F6
330
C54B
100
AcDbEntity
  8
1
  6
Continuous
100
AcDbLine
 10
658.2999999999998
 20
146.3
 30
0.0
 11
658.2999999999998
 21
137.7
 31
0.0
  0
ARC
  5
C5F7
330
C54B
100
AcDbEntity
  8
1
  6
Continuous
100
AcDbCircle
 10
660.7999999999998
 20
149.0124999999999
 30
0.0
 40
1.587499999999999
100
AcDbArc
 50
344.2283619999998
 51
179.6568479999999
  0
LINE
  5
C5F8
330
C54B
100
AcDbEntity
  8
1
  6
Continuous
100
AcDbLine
 10
663.7402540000001
 20
148.448359
 30
0.0
 11
661.880308
 21
150.1757249999998
 31
0.0
  0
LINE
  5
C5F9
330
C54B
100
AcDbEntity
  8
1
  6
Continuous
100
AcDbLine
 10
664.6929669999998
 20
149.474195
 30
0.0
 11
662.83302
 21
151.2015609999999
 31
0.0
  0
ARC
  5
C5FA
330
C54B
100
AcDbEntity
  8
1
  6
Continuous
100
AcDbCircle
 10
663.4
 20
148.081989
 30
0.0
 40
0.5
100
AcDbArc
 50
0.0
 51
47.116587
  0
ARC
  5
C5FB
330
C54B
100
AcDbEntity
  8
1
  6
Continuous
100
AcDbCircle
 10
663.4
 20
148.081989
 30
0.0
 40
1.9
100
AcDbArc
 50
0.0
 51
47.116587
  0
ARC
  5
C5FC
330
C54B
100
AcDbEntity
  8
1
  6
Continuous
100
AcDbCircle
 10
663.4
 20
135.918011
 30
0.0
 40
1.9
100
AcDbArc
 50
312.8834129999999
 51
0.0
  0
ARC
  5
C5FD
330
C54B
100
AcDbEntity
  8
1
  6
Continuous
100
AcDbCircle
 10
663.4
 20
135.918011
 30
0.0
 40
0.5
100
AcDbArc
 50
312.8834129999999
 51
0.0
  0
LINE
  5
C5FE
330
C54B
100
AcDbEntity
  8
1
  6
Continuous
100
AcDbLine
 10
664.6929669999998
 20
134.5258049999999
 30
0.0
 11
662.83302
 21
132.798439
 31
0.0
  0
LINE
  5
C5FF
330
C54B
100
AcDbEntity
  8
1
  6
Continuous
100
AcDbLine
 10
663.7402540000001
 20
135.5516409999999
 30
0.0
 11
661.880308
 21
133.824275
 31
0.0
  0
ARC
  5
C600
330
C54B
100
AcDbEntity
  8
1
  6
Continuous
100
AcDbCircle
 10
660.7999999999998
 20
134.9875
 30
0.0
 40
1.587499999999999
100
AcDbArc
 50
34.55010399999999
 51
161.5646869999999
  0
ARC
  5
C601
330
C54B
100
AcDbEntity
  8
1
  6
Continuous
100
AcDbCircle
 10
662.8999999999997
 20
147.995015
 30
0.0
 40
0.5
100
AcDbArc
 50
0.0
 51
81.942605
  0
ARC
  5
C602
330
C54B
100
AcDbEntity
  8
1
  6
Continuous
100
AcDbCircle
 10
660.7999999999998
 20
149.0124999999999
 30
0.0
 40
1.587499999999999
100
AcDbArc
 50
198.4353129999999
 51
325.449896
  0
ARC
  5
C603
330
C54B
100
AcDbEntity
  8
1
  6
Continuous
100
AcDbCircle
 10
662.8999999999997
 20
136.004985
 30
0.0
 40
0.5
100
AcDbArc
 50
278.0573949999999
 51
0.0
  0
ARC
  5
C604
330
C54B
100
AcDbEntity
  8
1
  6
Continuous
100
AcDbCircle
 10
660.7999999999998
 20
134.9875
 30
0.0
 40
1.587499999999999
100
AcDbArc
 50
180.343152
 51
15.771638
  0
LINE
  5
C605
330
C54B
100
AcDbEntity
  8
1
  6
Continuous
100
AcDbLine
 10
662.563928
 20
147.3
 30
0.0
 11
661.9390130000001
 21
147.9066949999999
 31
0.0
  0
LINE
  5
C606
330
C54B
100
AcDbEntity
  8
1
  6
Continuous
100
AcDbLine
 10
662.8999999999997
 20
148.0
 30
0.0
 11
662.8999999999997
 21
147.3
 31
0.0
  0
LINE
  5
C607
330
C54B
100
AcDbEntity
  8
1
  6
Continuous
100
AcDbLine
 10
663.4
 20
147.995015
 30
0.0
 11
663.4
 21
147.3
 31
0.0
  0
LINE
  5
C608
330
C54B
100
AcDbEntity
  8
1
  6
Continuous
100
AcDbLine
 10
662.8999999999997
 20
136.0
 30
0.0
 11
662.8999999999997
 21
136.6999999999999
 31
0.0
  0
LINE
  5
C609
330
C54B
100
AcDbEntity
  8
1
  6
Continuous
100
AcDbLine
 10
663.4
 20
136.004985
 30
0.0
 11
663.4
 21
136.6999999999999
 31
0.0
  0
LINE
  5
C60A
330
C54B
100
AcDbEntity
  8
1
  6
Continuous
100
AcDbLine
 10
662.563928
 20
136.6999999999999
 30
0.0
 11
661.9390130000001
 21
136.0933049999999
 31
0.0
  0
LINE
  5
C60B
330
C54B
100
AcDbEntity
  8
1
  6
Continuous
100
AcDbLine
 10
663.9
 20
148.081989
 30
0.0
 11
663.9
 21
147.3
 31
0.0
  0
LINE
  5
C60C
330
C54B
100
AcDbEntity
  8
1
  6
Continuous
100
AcDbLine
 10
663.9
 20
136.6999999999999
 30
0.0
 11
663.9
 21
135.918011
 31
0.0
  0
LINE
  5
C60D
330
C54B
100
AcDbEntity
  8
1
  6
Continuous
100
AcDbLine
 10
659.2999999999998
 20
147.3
 30
0.0
 11
664.7999999999998
 21
147.3
 31
0.0
  0
ARC
  5
C60E
330
C54B
100
AcDbEntity
  8
1
  6
Continuous
100
AcDbCircle
 10
664.7999999999998
 20
147.8
 30
0.0
 40
0.5
100
AcDbArc
 50
270.0
 51
0.0
  0
LINE
  5
C60F
330
C54B
100
AcDbEntity
  8
1
  6
Continuous
100
AcDbLine
 10
664.7999999999998
 20
136.6999999999999
 30
0.0
 11
659.2999999999998
 21
136.6999999999999
 31
0.0
  0
ARC
  5
C610
330
C54B
100
AcDbEntity
  8
1
  6
Continuous
100
AcDbCircle
 10
664.7999999999998
 20
136.1999999999998
 30
0.0
 40
0.5
100
AcDbArc
 50
0.0
 51
90.0
  0
LINE
  5
C611
330
C54B
100
AcDbEntity
  8
1
  6
Continuous
100
AcDbLine
 10
665.2999999999998
 20
148.081989
 30
0.0
 11
665.2999999999998
 21
135.918011
 31
0.0
  0
ARC
  5
C612
330
C54B
100
AcDbEntity
  8
1
  6
Continuous
100
AcDbCircle
 10
660.7999999999998
 20
149.0124999999999
 30
0.0
 40
2.987499999999998
100
AcDbArc
 50
47.116587
 51
149.6497479999999
  0
ARC
  5
C613
330
C54B
100
AcDbEntity
  8
1
  6
Continuous
100
AcDbCircle
 10
658.8089599999998
 20
146.64104
 30
0.0
 40
1.50896
100
AcDbArc
 50
49.983708
 51
180.0
  0
LINE
  5
C614
330
C54B
100
AcDbEntity
  8
1
  6
Continuous
100
AcDbLine
 10
659.356276
 20
149.672665
 30
0.0
 11
658.2219290000002
 21
150.5220379999999
 31
0.0
  0
LINE
  5
C615
330
C54B
100
AcDbEntity
  8
1
  6
Continuous
100
AcDbLine
 10
659.356276
 20
134.327335
 30
0.0
 11
658.2219290000002
 21
133.4779619999999
 31
0.0
  0
ARC
  5
C616
330
C54B
100
AcDbEntity
  8
1
  6
Continuous
100
AcDbCircle
 10
658.8089599999998
 20
137.35896
 30
0.0
 40
1.50896
100
AcDbArc
 50
180.0
 51
310.0162919999998
  0
ARC
  5
C617
330
C54B
100
AcDbEntity
  8
1
  6
Continuous
100
AcDbCircle
 10
660.7999999999998
 20
134.9875
 30
0.0
 40
2.987499999999998
100
AcDbArc
 50
210.350252
 51
312.8834129999999
  0
LINE
  5
C618
330
C54B
100
AcDbEntity
  8
1
  6
Continuous
100
AcDbLine
 10
662.8999999999997
 20
148.0
 30
0.0
 11
658.1
 21
148.6794999999998
 31
0.0
  0
LINE
  5
C619
330
C54B
100
AcDbEntity
  8
1
  6
Continuous
100
AcDbLine
 10
662.9700830000001
 20
148.490079
 30
0.0
 11
658.1
 21
149.1794999999999
 31
0.0
  0
LINE
  5
C61A
330
C54B
100
AcDbEntity
  8
1
  6
Continuous
100
AcDbLine
 10
662.9700830000001
 20
135.5099209999999
 30
0.0
 11
658.1
 21
134.8205
 31
0.0
  0
LINE
  5
C61B
330
C54B
100
AcDbEntity
  8
1
  6
Continuous
100
AcDbLine
 10
662.8999999999997
 20
136.0
 30
0.0
 11
658.1
 21
135.3205
 31
0.0
  0
ARC
  5
C61C
330
C54B
100
AcDbEntity
  8
1
  6
Continuous
100
AcDbCircle
 10
659.2999999999998
 20
146.3
 30
0.0
 40
1.0
100
AcDbArc
 50
90.0
 51
180.0
  0
ARC
  5
C61D
330
C54B
100
AcDbEntity
  8
1
  6
Continuous
100
AcDbCircle
 10
659.2999999999998
 20
137.7
 30
0.0
 40
1.0
100
AcDbArc
 50
180.0
 51
270.0
  0
LINE
  5
C61E
330
C54B
100
AcDbEntity
  8
1
  6
Continuous
100
AcDbLine
 10
27.32991699999999
 20
135.5099209999999
 30
0.0
 11
32.20000000000001
 21
134.8205
 31
0.0
  0
LINE
  5
C61F
330
C54B
100
AcDbEntity
  8
1
  6
Continuous
100
AcDbLine
 10
27.4
 20
136.0
 30
0.0
 11
32.20000000000001
 21
135.3205
 31
0.0
  0
LINE
  5
C620
330
C54B
100
AcDbEntity
  8
1
  6
Continuous
100
AcDbLine
 10
30.943724
 20
134.327335
 30
0.0
 11
32.078071
 21
133.4779619999999
 31
0.0
  0
ARC
  5
C621
330
C54B
100
AcDbEntity
  8
1
  6
Continuous
100
AcDbCircle
 10
29.5
 20
134.9875
 30
0.0
 40
2.987499999999998
100
AcDbArc
 50
227.116587
 51
329.6497479999998
  0
ARC
  5
C622
330
C54B
100
AcDbEntity
  8
1
  6
Continuous
100
AcDbCircle
 10
31.49104
 20
137.35896
 30
0.0
 40
1.50896
100
AcDbArc
 50
229.983708
 51
0.0
  0
ARC
  5
C623
330
C54B
100
AcDbEntity
  8
1
  6
Continuous
100
AcDbCircle
 10
29.5
 20
149.0124999999999
 30
0.0
 40
2.987499999999998
100
AcDbArc
 50
30.350252
 51
132.8834129999999
  0
LINE
  5
C624
330
C54B
100
AcDbEntity
  8
4
  6
CENTER
100
AcDbLine
 10
22.0
 20
142.0
 30
0.0
 11
36.0
 21
142.0
 31
0.0
  0
ARC
  5
C625
330
C54B
100
AcDbEntity
  8
1
  6
Continuous
100
AcDbCircle
 10
31.49104
 20
146.64104
 30
0.0
 40
1.50896
100
AcDbArc
 50
0.0
 51
130.0162919999999
  0
LINE
  5
C626
330
C54B
100
AcDbEntity
  8
1
  6
Continuous
100
AcDbLine
 10
30.943724
 20
149.672665
 30
0.0
 11
32.078071
 21
150.5220379999999
 31
0.0
  0
LINE
  5
C627
330
C54B
100
AcDbEntity
  8
1
  6
Continuous
100
AcDbLine
 10
27.4
 20
148.0
 30
0.0
 11
32.20000000000001
 21
148.6794999999998
 31
0.0
  0
LINE
  5
C628
330
C54B
100
AcDbEntity
  8
1
  6
Continuous
100
AcDbLine
 10
27.32991699999999
 20
148.490079
 30
0.0
 11
32.20000000000001
 21
149.1794999999999
 31
0.0
  0
LINE
  5
C629
330
C54B
100
AcDbEntity
  8
1
  6
Continuous
100
AcDbLine
 10
26.69999999999999
 20
146.098959
 30
0.0
 11
26.69999999999999
 21
137.901041
 31
0.0
  0
LINE
  5
C62A
330
C54B
100
AcDbEntity
  8
1
  6
Continuous
100
AcDbLine
 10
28.1
 20
146.098959
 30
0.0
 11
28.1
 21
137.901041
 31
0.0
  0
LINE
  5
C62B
330
C54B
100
AcDbEntity
  8
1
  6
Continuous
100
AcDbLine
 10
25.0
 20
148.081989
 30
0.0
 11
25.0
 21
135.918011
 31
0.0
  0
LINE
  5
C62C
330
C54B
100
AcDbEntity
  8
1
  6
Continuous
100
AcDbLine
 10
26.4
 20
146.5588239999999
 30
0.0
 11
26.4
 21
137.441176
 31
0.0
  0
LINE
  5
C62D
330
C54B
100
AcDbEntity
  8
1
  6
Continuous
100
AcDbLine
 10
31.8
 20
146.64104
 30
0.0
 11
31.8
 21
137.35896
 31
0.0
  0
LINE
  5
C62E
330
C54B
100
AcDbEntity
  8
1
  6
Continuous
100
AcDbLine
 10
29.39999999999999
 20
145.314461
 30
0.0
 11
29.39999999999999
 21
138.6855389999998
 31
0.0
  0
LINE
  5
C62F
330
C54B
100
AcDbEntity
  8
1
  6
Continuous
100
AcDbLine
 10
28.9
 20
145.314461
 30
0.0
 11
28.9
 21
138.6855389999998
 31
0.0
  0
ARC
  5
C630
330
C54B
100
AcDbEntity
  8
1
  6
Continuous
100
AcDbCircle
 10
29.5
 20
134.9875
 30
0.0
 40
1.587499999999999
100
AcDbArc
 50
18.435313
 51
145.449896
  0
ARC
  5
C631
330
C54B
100
AcDbEntity
  8
1
  6
Continuous
100
AcDbCircle
 10
29.5
 20
134.9875
 30
0.0
 40
1.587499999999999
100
AcDbArc
 50
164.228362
 51
359.656848
  0
ARC
  5
C632
330
C54B
100
AcDbEntity
  8
1
  6
Continuous
100
AcDbCircle
 10
28.9
 20
138.6855389999998
 30
0.0
 40
0.5
100
AcDbArc
 50
300.5406049999999
 51
0.0
  0
ARC
  5
C633
330
C54B
100
AcDbEntity
  8
1
  6
Continuous
100
AcDbCircle
 10
31.49104
 20
137.35896
 30
0.0
 40
0.30896
100
AcDbArc
 50
229.983708
 51
0.0
  0
ARC
  5
C634
330
C54B
100
AcDbEntity
  8
1
  6
Continuous
100
AcDbCircle
 10
26.2
 20
137.901041
 30
0.0
 40
1.9
100
AcDbArc
 50
297.8972709999998
 51
0.0
  0
LINE
  5
C635
330
C54B
100
AcDbEntity
  8
1
  6
Continuous
100
AcDbLine
 10
26.91429600000001
 20
136.1293599999999
 30
0.0
 11
27.088987
 21
136.221844
 31
0.0
  0
LINE
  5
C636
330
C54B
100
AcDbEntity
  8
1
  6
Continuous
100
AcDbLine
 10
26.89999999999999
 20
136.004985
 30
0.0
 11
26.89999999999999
 21
136.1214909999999
 31
0.0
  0
LINE
  5
C637
330
C54B
100
AcDbEntity
  8
1
  6
Continuous
100
AcDbLine
 10
27.4
 20
136.0
 30
0.0
 11
27.4
 21
136.427949
 31
0.0
  0
LINE
  5
C638
330
C54B
100
AcDbEntity
  8
1
  6
Continuous
100
AcDbLine
 10
28.079209
 20
137.620734
 30
0.0
 11
29.15407399999999
 21
138.254904
 31
0.0
  0
ARC
  5
C639
330
C54B
100
AcDbEntity
  8
1
  6
Continuous
100
AcDbCircle
 10
29.5
 20
134.9875
 30
0.0
 40
2.7875
100
AcDbArc
 50
49.983708
 51
122.12208
  0
LINE
  5
C63A
330
C54B
100
AcDbEntity
  8
1
  6
Continuous
100
AcDbLine
 10
27.700075
 20
136.734947
 30
0.0
 11
28.36098699999999
 21
136.0933049999999
 31
0.0
  0
LINE
  5
C63B
330
C54B
100
AcDbEntity
  8
1
  6
Continuous
100
AcDbLine
 10
28.1
 20
138.2135389999999
 30
0.0
 11
28.9
 21
138.6855389999998
 31
0.0
  0
ARC
  5
C63C
330
C54B
100
AcDbEntity
  8
1
  6
Continuous
100
AcDbCircle
 10
26.89999999999999
 20
135.918011
 30
0.0
 40
1.9
100
AcDbArc
 50
157.4085689999998
 51
227.116587
  0
ARC
  5
C63D
330
C54B
100
AcDbEntity
  8
1
  6
Continuous
100
AcDbCircle
 10
25.60742499999999
 20
136.4558309999999
 30
0.0
 40
0.5
100
AcDbArc
 50
117.8972709999999
 51
157.4085689999998
  0
LINE
  5
C63E
330
C54B
100
AcDbEntity
  8
1
  6
Continuous
100
AcDbLine
 10
25.0
 20
136.6999999999999
 30
0.0
 11
26.433944
 21
137.459147
 31
0.0
  0
ARC
  5
C63F
330
C54B
100
AcDbEntity
  8
1
  6
Continuous
100
AcDbCircle
 10
26.2
 20
137.901041
 30
0.0
 40
0.5
100
AcDbArc
 50
297.8972709999998
 51
0.0
  0
ARC
  5
C640
330
C54B
100
AcDbEntity
  8
1
  6
Continuous
100
AcDbCircle
 10
27.4
 20
136.004985
 30
0.0
 40
0.5
100
AcDbArc
 50
180.0
 51
261.9426049999999
  0
LINE
  5
C641
330
C54B
100
AcDbEntity
  8
1
  6
Continuous
100
AcDbLine
 10
25.607033
 20
134.5258049999999
 30
0.0
 11
27.46698
 21
132.798439
 31
0.0
  0
LINE
  5
C642
330
C54B
100
AcDbEntity
  8
1
  6
Continuous
100
AcDbLine
 10
26.807986
 20
135.3210959999999
 30
0.0
 11
28.41969199999999
 21
133.824275
 31
0.0
  0
ARC
  5
C643
330
C54B
100
AcDbEntity
  8
1
  6
Continuous
100
AcDbCircle
 10
27.14824
 20
135.687466
 30
0.0
 40
0.5
100
AcDbArc
 50
117.8972709999999
 51
227.116587
  0
ARC
  5
C644
330
C54B
100
AcDbEntity
  8
1
  6
Continuous
100
AcDbCircle
 10
27.14824
 20
148.3125339999999
 30
0.0
 40
0.5
100
AcDbArc
 50
132.8834129999999
 51
242.102729
  0
LINE
  5
C645
330
C54B
100
AcDbEntity
  8
1
  6
Continuous
100
AcDbLine
 10
26.91429600000001
 20
147.8706399999999
 30
0.0
 11
27.088987
 21
147.7781559999999
 31
0.0
  0
ARC
  5
C646
330
C54B
100
AcDbEntity
  8
1
  6
Continuous
100
AcDbCircle
 10
26.2
 20
146.098959
 30
0.0
 40
1.9
100
AcDbArc
 50
0.0
 51
62.10272899999999
  0
ARC
  5
C647
330
C54B
100
AcDbEntity
  8
1
  6
Continuous
100
AcDbCircle
 10
26.2
 20
146.098959
 30
0.0
 40
0.5
100
AcDbArc
 50
0.0
 51
62.10272899999999
  0
ARC
  5
C648
330
C54B
100
AcDbEntity
  8
1
  6
Continuous
100
AcDbCircle
 10
25.60742499999999
 20
147.5441689999998
 30
0.0
 40
0.5
100
AcDbArc
 50
202.591431
 51
242.102729
  0
LINE
  5
C649
330
C54B
100
AcDbEntity
  8
1
  6
Continuous
100
AcDbLine
 10
25.0
 20
147.3
 30
0.0
 11
26.433944
 21
146.5408529999999
 31
0.0
  0
ARC
  5
C64A
330
C54B
100
AcDbEntity
  8
1
  6
Continuous
100
AcDbCircle
 10
29.5
 20
149.0124999999999
 30
0.0
 40
1.587499999999999
100
AcDbArc
 50
0.343152
 51
195.7716379999999
  0
LINE
  5
C64B
330
C54B
100
AcDbEntity
  8
1
  6
Continuous
100
AcDbLine
 10
26.807986
 20
148.6789039999999
 30
0.0
 11
28.41969199999999
 21
150.1757249999998
 31
0.0
  0
LINE
  5
C64C
330
C54B
100
AcDbEntity
  8
1
  6
Continuous
100
AcDbLine
 10
25.607033
 20
149.474195
 30
0.0
 11
27.46698
 21
151.2015609999999
 31
0.0
  0
ARC
  5
C64D
330
C54B
100
AcDbEntity
  8
1
  6
Continuous
100
AcDbCircle
 10
26.89999999999999
 20
148.081989
 30
0.0
 40
1.9
100
AcDbArc
 50
132.8834129999999
 51
202.591431
  0
ARC
  5
C64E
330
C54B
100
AcDbEntity
  8
1
  6
Continuous
100
AcDbCircle
 10
29.5
 20
149.0124999999999
 30
0.0
 40
2.7875
100
AcDbArc
 50
237.8779199999999
 51
310.0162919999998
  0
ARC
  5
C64F
330
C54B
100
AcDbEntity
  8
1
  6
Continuous
100
AcDbCircle
 10
31.49104
 20
146.64104
 30
0.0
 40
0.30896
100
AcDbArc
 50
0.0
 51
130.0162919999999
  0
LINE
  5
C650
330
C54B
100
AcDbEntity
  8
1
  6
Continuous
100
AcDbLine
 10
27.700075
 20
147.2650529999999
 30
0.0
 11
28.36098699999999
 21
147.9066949999999
 31
0.0
  0
LINE
  5
C651
330
C54B
100
AcDbEntity
  8
1
  6
Continuous
100
AcDbLine
 10
26.89999999999999
 20
147.995015
 30
0.0
 11
26.89999999999999
 21
147.878509
 31
0.0
  0
LINE
  5
C652
330
C54B
100
AcDbEntity
  8
1
  6
Continuous
100
AcDbLine
 10
27.4
 20
148.0
 30
0.0
 11
27.4
 21
147.5720509999999
 31
0.0
  0
LINE
  5
C653
330
C54B
100
AcDbEntity
  8
1
  6
Continuous
100
AcDbLine
 10
28.079209
 20
146.379266
 30
0.0
 11
29.15407399999999
 21
145.7450959999999
 31
0.0
  0
LINE
  5
C654
330
C54B
100
AcDbEntity
  8
1
  6
Continuous
100
AcDbLine
 10
28.1
 20
145.786461
 30
0.0
 11
28.9
 21
145.314461
 31
0.0
  0
ARC
  5
C655
330
C54B
100
AcDbEntity
  8
1
  6
Continuous
100
AcDbCircle
 10
28.9
 20
145.314461
 30
0.0
 40
0.5
100
AcDbArc
 50
0.0
 51
59.45939499999999
  0
ARC
  5
C656
330
C54B
100
AcDbEntity
  8
1
  6
Continuous
100
AcDbCircle
 10
27.4
 20
147.995015
 30
0.0
 40
0.5
100
AcDbArc
 50
98.05739500000001
 51
180.0
  0
ARC
  5
C657
330
C54B
100
AcDbEntity
  8
1
  6
Continuous
100
AcDbCircle
 10
29.5
 20
149.0124999999999
 30
0.0
 40
1.587499999999999
100
AcDbArc
 50
214.550104
 51
341.5646869999999
  0
LINE
  5
C658
330
C54B
100
AcDbEntity
  8
1
  6
Continuous
100
AcDbLine
 10
32.20000000000001
 20
134.8205
 30
0.0
 11
32.20000000000001
 21
135.3205
 31
0.0
  0
LINE
  5
C659
330
C54B
100
AcDbEntity
  8
1
  6
Continuous
100
AcDbLine
 10
32.20000000000001
 20
149.1794999999999
 30
0.0
 11
32.20000000000001
 21
148.6794999999998
 31
0.0
  0
ARC
  5
C65A
330
C54B
100
AcDbEntity
  8
1
  6
Continuous
100
AcDbCircle
 10
663.1517599999997
 20
148.3125339999999
 30
0.0
 40
0.5
100
AcDbArc
 50
299.767381
 51
47.116587
  0
ARC
  5
C65B
330
C54B
100
AcDbEntity
  8
1
  6
Continuous
100
AcDbCircle
 10
664.1
 20
146.098959
 30
0.0
 40
1.9
100
AcDbArc
 50
129.1667109999999
 51
140.792799
  0
ARC
  5
C65C
330
C54B
100
AcDbEntity
  8
1
  6
Continuous
100
AcDbCircle
 10
663.1517599999997
 20
135.687466
 30
0.0
 40
0.5
100
AcDbArc
 50
312.8834129999999
 51
60.23261899999999
  0
ARC
  5
C65D
330
C54B
100
AcDbEntity
  8
1
  6
Continuous
100
AcDbCircle
 10
664.1
 20
137.901041
 30
0.0
 40
1.9
100
AcDbArc
 50
219.2072009999999
 51
230.8332889999999
  0
LINE
  5
C65E
330
C54B
100
AcDbEntity
  8
1
  6
Continuous
100
AcDbLine
 10
33.0
 20
146.64104
 30
0.0
 11
33.0
 21
137.35896
 31
0.0
  0
ARC
  5
C65F
330
C54B
100
AcDbEntity
  8
1
  6
Continuous
100
AcDbCircle
 10
324.8
 20
149.0124999999999
 30
0.0
 40
1.587499999999999
100
AcDbArc
 50
327.090948
 51
347.8914909999998
  0
ARC
  5
C660
330
C54B
100
AcDbEntity
  8
1
  6
Continuous
100
AcDbCircle
 10
324.8
 20
149.0124999999999
 30
0.0
 40
1.587499999999999
100
AcDbArc
 50
6.038508
 51
24.57297999999999
  0
ARC
  5
C661
330
C54B
100
AcDbEntity
  8
1
  6
Continuous
100
AcDbCircle
 10
324.8
 20
149.0124999999999
 30
0.0
 40
1.587499999999999
100
AcDbArc
 50
155.4270199999999
 51
173.9614919999999
  0
ARC
  5
C662
330
C54B
100
AcDbEntity
  8
1
  6
Continuous
100
AcDbCircle
 10
324.8
 20
149.0124999999999
 30
0.0
 40
1.587499999999999
100
AcDbArc
 50
192.1085089999999
 51
212.9090519999999
  0
ARC
  5
C663
330
C54B
100
AcDbEntity
  8
1
  6
Continuous
100
AcDbCircle
 10
334.8
 20
149.0124999999999
 30
0.0
 40
1.587499999999999
100
AcDbArc
 50
192.1085089999999
 51
212.9090519999999
  0
ARC
  5
C664
330
C54B
100
AcDbEntity
  8
1
  6
Continuous
100
AcDbCircle
 10
334.8
 20
149.0124999999999
 30
0.0
 40
1.587499999999999
100
AcDbArc
 50
155.4270199999999
 51
173.9614919999999
  0
ARC
  5
C665
330
C54B
100
AcDbEntity
  8
1
  6
Continuous
100
AcDbCircle
 10
334.8
 20
149.0124999999999
 30
0.0
 40
1.587499999999999
100
AcDbArc
 50
6.038508
 51
24.57297999999999
  0
ARC
  5
C666
330
C54B
100
AcDbEntity
  8
1
  6
Continuous
100
AcDbCircle
 10
334.8
 20
149.0124999999999
 30
0.0
 40
1.587499999999999
100
AcDbArc
 50
327.090948
 51
347.8914909999998
  0
ARC
  5
C667
330
C54B
100
AcDbEntity
  8
1
  6
Continuous
100
AcDbCircle
 10
344.8
 20
149.0124999999999
 30
0.0
 40
1.587499999999999
100
AcDbArc
 50
192.1085089999999
 51
212.9090519999999
  0
ARC
  5
C668
330
C54B
100
AcDbEntity
  8
1
  6
Continuous
100
AcDbCircle
 10
344.8
 20
149.0124999999999
 30
0.0
 40
1.587499999999999
100
AcDbArc
 50
155.4270199999999
 51
173.9614919999999
  0
ARC
  5
C669
330
C54B
100
AcDbEntity
  8
1
  6
Continuous
100
AcDbCircle
 10
344.8
 20
149.0124999999999
 30
0.0
 40
1.587499999999999
100
AcDbArc
 50
327.090948
 51
347.8914909999998
  0
ARC
  5
C66A
330
C54B
100
AcDbEntity
  8
1
  6
Continuous
100
AcDbCircle
 10
344.8
 20
149.0124999999999
 30
0.0
 40
1.587499999999999
100
AcDbArc
 50
6.038508
 51
24.57297999999999
  0
ARC
  5
C66B
330
C54B
100
AcDbEntity
  8
1
  6
Continuous
100
AcDbCircle
 10
354.8
 20
149.0124999999999
 30
0.0
 40
1.587499999999999
100
AcDbArc
 50
6.038508
 51
24.57297999999999
  0
ARC
  5
C66C
330
C54B
100
AcDbEntity
  8
1
  6
Continuous
100
AcDbCircle
 10
354.8
 20
149.0124999999999
 30
0.0
 40
1.587499999999999
100
AcDbArc
 50
327.090948
 51
347.8914909999998
  0
ARC
  5
C66D
330
C54B
100
AcDbEntity
  8
1
  6
Continuous
100
AcDbCircle
 10
354.8
 20
149.0124999999999
 30
0.0
 40
1.587499999999999
100
AcDbArc
 50
155.4270199999999
 51
173.9614919999999
  0
ARC
  5
C66E
330
C54B
100
AcDbEntity
  8
1
  6
Continuous
100
AcDbCircle
 10
354.8
 20
149.0124999999999
 30
0.0
 40
1.587499999999999
100
AcDbArc
 50
192.1085089999999
 51
212.9090519999999
  0
ARC
  5
C66F
330
C54B
100
AcDbEntity
  8
1
  6
Continuous
100
AcDbCircle
 10
364.8
 20
149.0124999999999
 30
0.0
 40
1.587499999999999
100
AcDbArc
 50
192.1085089999999
 51
212.9090519999999
  0
ARC
  5
C670
330
C54B
100
AcDbEntity
  8
1
  6
Continuous
100
AcDbCircle
 10
364.8
 20
149.0124999999999
 30
0.0
 40
1.587499999999999
100
AcDbArc
 50
155.4270199999999
 51
173.9614919999999
  0
ARC
  5
C671
330
C54B
100
AcDbEntity
  8
1
  6
Continuous
100
AcDbCircle
 10
364.8
 20
149.0124999999999
 30
0.0
 40
1.587499999999999
100
AcDbArc
 50
327.090948
 51
347.8914909999998
  0
ARC
  5
C672
330
C54B
100
AcDbEntity
  8
1
  6
Continuous
100
AcDbCircle
 10
364.8
 20
149.0124999999999
 30
0.0
 40
1.587499999999999
100
AcDbArc
 50
6.038508
 51
24.57297999999999
  0
ARC
  5
C673
330
C54B
100
AcDbEntity
  8
1
  6
Continuous
100
AcDbCircle
 10
314.8
 20
134.9875
 30
0.0
 40
1.587499999999999
100
AcDbArc
 50
12.108509
 51
32.909052
  0
ARC
  5
C674
330
C54B
100
AcDbEntity
  8
1
  6
Continuous
100
AcDbCircle
 10
314.8
 20
134.9875
 30
0.0
 40
1.587499999999999
100
AcDbArc
 50
335.4270200000001
 51
353.9614919999999
  0
ARC
  5
C675
330
C54B
100
AcDbEntity
  8
1
  6
Continuous
100
AcDbCircle
 10
314.8
 20
134.9875
 30
0.0
 40
1.587499999999999
100
AcDbArc
 50
186.038508
 51
204.57298
  0
ARC
  5
C676
330
C54B
100
AcDbEntity
  8
1
  6
Continuous
100
AcDbCircle
 10
314.8
 20
134.9875
 30
0.0
 40
1.587499999999999
100
AcDbArc
 50
147.0909479999999
 51
167.891491
  0
ARC
  5
C677
330
C54B
100
AcDbEntity
  8
1
  6
Continuous
100
AcDbCircle
 10
324.8
 20
134.9875
 30
0.0
 40
1.587499999999999
100
AcDbArc
 50
147.0909479999999
 51
167.891491
  0
ARC
  5
C678
330
C54B
100
AcDbEntity
  8
1
  6
Continuous
100
AcDbCircle
 10
324.8
 20
134.9875
 30
0.0
 40
1.587499999999999
100
AcDbArc
 50
186.038508
 51
204.57298
  0
ARC
  5
C679
330
C54B
100
AcDbEntity
  8
1
  6
Continuous
100
AcDbCircle
 10
324.8
 20
134.9875
 30
0.0
 40
1.587499999999999
100
AcDbArc
 50
335.4270200000001
 51
353.9614919999999
  0
ARC
  5
C67A
330
C54B
100
AcDbEntity
  8
1
  6
Continuous
100
AcDbCircle
 10
324.8
 20
134.9875
 30
0.0
 40
1.587499999999999
100
AcDbArc
 50
12.108509
 51
32.909052
  0
ARC
  5
C67B
330
C54B
100
AcDbEntity
  8
1
  6
Continuous
100
AcDbCircle
 10
334.8
 20
134.9875
 30
0.0
 40
1.587499999999999
100
AcDbArc
 50
147.0909479999999
 51
167.891491
  0
ARC
  5
C67C
330
C54B
100
AcDbEntity
  8
1
  6
Continuous
100
AcDbCircle
 10
334.8
 20
134.9875
 30
0.0
 40
1.587499999999999
100
AcDbArc
 50
186.038508
 51
204.57298
  0
ARC
  5
C67D
330
C54B
100
AcDbEntity
  8
1
  6
Continuous
100
AcDbCircle
 10
334.8
 20
134.9875
 30
0.0
 40
1.587499999999999
100
AcDbArc
 50
12.108509
 51
32.909052
  0
ARC
  5
C67E
330
C54B
100
AcDbEntity
  8
1
  6
Continuous
100
AcDbCircle
 10
334.8
 20
134.9875
 30
0.0
 40
1.587499999999999
100
AcDbArc
 50
335.4270200000001
 51
353.9614919999999
  0
ARC
  5
C67F
330
C54B
100
AcDbEntity
  8
1
  6
Continuous
100
AcDbCircle
 10
344.8
 20
134.9875
 30
0.0
 40
1.587499999999999
100
AcDbArc
 50
335.4270200000001
 51
353.9614919999999
  0
ARC
  5
C680
330
C54B
100
AcDbEntity
  8
1
  6
Continuous
100
AcDbCircle
 10
344.8
 20
134.9875
 30
0.0
 40
1.587499999999999
100
AcDbArc
 50
12.108509
 51
32.909052
  0
ARC
  5
C681
330
C54B
100
AcDbEntity
  8
1
  6
Continuous
100
AcDbCircle
 10
344.8
 20
134.9875
 30
0.0
 40
1.587499999999999
100
AcDbArc
 50
186.038508
 51
204.57298
  0
ARC
  5
C682
330
C54B
100
AcDbEntity
  8
1
  6
Continuous
100
AcDbCircle
 10
344.8
 20
134.9875
 30
0.0
 40
1.587499999999999
100
AcDbArc
 50
147.0909479999999
 51
167.891491
  0
ARC
  5
C683
330
C54B
100
AcDbEntity
  8
1
  6
Continuous
100
AcDbCircle
 10
354.8
 20
134.9875
 30
0.0
 40
1.587499999999999
100
AcDbArc
 50
147.0909479999999
 51
167.891491
  0
ARC
  5
C684
330
C54B
100
AcDbEntity
  8
1
  6
Continuous
100
AcDbCircle
 10
354.8
 20
134.9875
 30
0.0
 40
1.587499999999999
100
AcDbArc
 50
186.038508
 51
204.57298
  0
ARC
  5
C685
330
C54B
100
AcDbEntity
  8
1
  6
Continuous
100
AcDbCircle
 10
354.8
 20
134.9875
 30
0.0
 40
1.587499999999999
100
AcDbArc
 50
12.108509
 51
32.909052
  0
ARC
  5
C686
330
C54B
100
AcDbEntity
  8
1
  6
Continuous
100
AcDbCircle
 10
354.8
 20
134.9875
 30
0.0
 40
1.587499999999999
100
AcDbArc
 50
335.4270200000001
 51
353.9614919999999
  0
ARC
  5
C687
330
C54B
100
AcDbEntity
  8
1
  6
Continuous
100
AcDbCircle
 10
364.8
 20
134.9875
 30
0.0
 40
1.587499999999999
100
AcDbArc
 50
186.038508
 51
204.57298
  0
ARC
  5
C688
330
C54B
100
AcDbEntity
  8
1
  6
Continuous
100
AcDbCircle
 10
364.8
 20
134.9875
 30
0.0
 40
1.587499999999999
100
AcDbArc
 50
147.0909479999999
 51
167.891491
  0
ARC
  5
C689
330
C54B
100
AcDbEntity
  8
1
  6
Continuous
100
AcDbCircle
 10
364.8
 20
134.9875
 30
0.0
 40
1.587499999999999
100
AcDbArc
 50
335.4270200000001
 51
353.9614919999999
  0
ARC
  5
C68A
330
C54B
100
AcDbEntity
  8
1
  6
Continuous
100
AcDbCircle
 10
364.8
 20
134.9875
 30
0.0
 40
1.587499999999999
100
AcDbArc
 50
12.108509
 51
32.909052
  0
LINE
  5
C68B
330
C54B
100
AcDbEntity
  8
1
  6
Continuous
100
AcDbLine
 10
83.29999999999998
 20
240.5
 30
0.0
 11
83.29999999999998
 21
235.0
 31
0.0
  0
LINE
  5
C68C
330
C54B
100
AcDbEntity
  8
1
  6
Continuous
100
AcDbLine
 10
380.3
 20
235.0
 30
0.0
 11
380.3
 21
235.9219289999999
 31
0.0
  0
LINE
  5
C68D
330
C54B
100
AcDbEntity
  8
1
  6
Continuous
100
AcDbLine
 10
380.3
 20
235.0
 30
0.0
 11
83.29999999999998
 21
235.0
 31
0.0
  0
LINE
  5
C68E
330
C54B
100
AcDbEntity
  8
3
  6
DASHED
100
AcDbLine
 10
380.3
 20
240.5
 30
0.0
 11
307.3
 21
240.5
 31
0.0
  0
LINE
  5
C68F
330
C54B
100
AcDbEntity
  8
1
  6
Continuous
100
AcDbLine
 10
307.3
 20
235.9219289999999
 30
0.0
 11
607.2999999999998
 21
235.9219289999999
 31
0.0
  0
LINE
  5
C690
330
C54B
100
AcDbEntity
  8
1
  6
Continuous
100
AcDbLine
 10
607.2999999999998
 20
243.0
 30
0.0
 11
307.3
 21
243.0
 31
0.0
  0
LINE
  5
C691
330
C54B
100
AcDbEntity
  8
1
  6
Continuous
100
AcDbLine
 10
307.3
 20
235.9219289999999
 30
0.0
 11
307.3
 21
243.0
 31
0.0
  0
LINE
  5
C692
330
C54B
100
AcDbEntity
  8
1
  6
Continuous
100
AcDbLine
 10
607.2999999999998
 20
235.9219289999999
 30
0.0
 11
607.2999999999998
 21
243.0
 31
0.0
  0
LINE
  5
C693
330
C54B
100
AcDbEntity
  8
1
  6
Continuous
100
AcDbLine
 10
307.3
 20
240.5
 30
0.0
 11
83.29999999999998
 21
240.5
 31
0.0
  0
LINE
  5
C694
330
C54B
100
AcDbEntity
  8
3
  6
DASHED
100
AcDbLine
 10
380.3
 20
235.9219289999999
 30
0.0
 11
380.3
 21
240.5
 31
0.0
  0
LINE
  5
C695
330
C54B
100
AcDbEntity
  8
4
  6
CENTER
100
AcDbLine
 10
587.2999999999998
 20
246.0
 30
0.0
 11
587.2999999999998
 21
240.082188
 31
0.0
  0
LINE
  5
C696
330
C54B
100
AcDbEntity
  8
4
  6
CENTER
100
AcDbLine
 10
572.2999999999998
 20
246.0
 30
0.0
 11
572.2999999999998
 21
239.991885
 31
0.0
  0
LINE
  5
C697
330
C54B
100
AcDbEntity
  8
4
  6
CENTER
100
AcDbLine
 10
552.2999999999998
 20
246.0
 30
0.0
 11
552.2999999999998
 21
239.991885
 31
0.0
  0
LINE
  5
C698
330
C54B
100
AcDbEntity
  8
4
  6
CENTER
100
AcDbLine
 10
427.3
 20
246.0
 30
0.0
 11
427.3
 21
240.3530959999999
 31
0.0
  0
LINE
  5
C699
330
C54B
100
AcDbEntity
  8
4
  6
CENTER
100
AcDbLine
 10
342.3
 20
246.0
 30
0.0
 11
342.3
 21
240.2627929999999
 31
0.0
  0
LINE
  5
C69A
330
C54B
100
AcDbEntity
  8
4
  6
CENTER
100
AcDbLine
 10
327.3
 20
246.0
 30
0.0
 11
327.3
 21
240.7143079999999
 31
0.0
  0
LINE
  5
C69B
330
C54B
100
AcDbEntity
  8
4
  6
CENTER
100
AcDbLine
 10
363.3
 20
237.739768
 30
0.0
 11
363.3
 21
232.5
 31
0.0
  0
LINE
  5
C69C
330
C54B
100
AcDbEntity
  8
4
  6
CENTER
100
AcDbLine
 10
348.3
 20
237.649465
 30
0.0
 11
348.3
 21
232.5
 31
0.0
  0
LINE
  5
C69D
330
C54B
100
AcDbEntity
  8
4
  6
CENTER
100
AcDbLine
 10
203.3
 20
237.739768
 30
0.0
 11
203.3
 21
232.5
 31
0.0
  0
LINE
  5
C69E
330
C54B
100
AcDbEntity
  8
4
  6
CENTER
100
AcDbLine
 10
158.3
 20
237.739768
 30
0.0
 11
158.3
 21
232.5
 31
0.0
  0
LINE
  5
C69F
330
C54B
100
AcDbEntity
  8
4
  6
CENTER
100
AcDbLine
 10
118.3
 20
237.739768
 30
0.0
 11
118.3
 21
232.5
 31
0.0
  0
LINE
  5
C6A0
330
C54B
100
AcDbEntity
  8
4
  6
CENTER
100
AcDbLine
 10
103.2999999999999
 20
238.10098
 30
0.0
 11
103.2999999999999
 21
232.5
 31
0.0
  0
LINE
  5
C6A1
330
C54B
100
AcDbEntity
  8
1
  6
Continuous
100
AcDbLine
 10
318.8
 20
235.8
 30
0.0
 11
310.8
 21
235.8
 31
0.0
  0
LINE
  5
C6A2
330
C54B
100
AcDbEntity
  8
1
  6
Continuous
100
AcDbLine
 10
310.8
 20
235.8
 30
0.0
 11
310.8
 21
235.9219289999999
 31
0.0
  0
LINE
  5
C6A3
330
C54B
100
AcDbEntity
  8
1
  6
Continuous
100
AcDbLine
 10
318.8
 20
235.8
 30
0.0
 11
318.8
 21
235.9219289999999
 31
0.0
  0
LINE
  5
C6A4
330
C54B
100
AcDbEntity
  8
1
  6
Continuous
100
AcDbLine
 10
328.8
 20
235.8
 30
0.0
 11
320.8
 21
235.8
 31
0.0
  0
LINE
  5
C6A5
330
C54B
100
AcDbEntity
  8
1
  6
Continuous
100
AcDbLine
 10
320.8
 20
235.8
 30
0.0
 11
320.8
 21
235.9219289999999
 31
0.0
  0
LINE
  5
C6A6
330
C54B
100
AcDbEntity
  8
1
  6
Continuous
100
AcDbLine
 10
328.8
 20
235.8
 30
0.0
 11
328.8
 21
235.9219289999999
 31
0.0
  0
LINE
  5
C6A7
330
C54B
100
AcDbEntity
  8
1
  6
Continuous
100
AcDbLine
 10
338.8
 20
235.8
 30
0.0
 11
338.8
 21
235.9219289999999
 31
0.0
  0
LINE
  5
C6A8
330
C54B
100
AcDbEntity
  8
1
  6
Continuous
100
AcDbLine
 10
330.8
 20
235.8
 30
0.0
 11
330.8
 21
235.9219289999999
 31
0.0
  0
LINE
  5
C6A9
330
C54B
100
AcDbEntity
  8
1
  6
Continuous
100
AcDbLine
 10
338.8
 20
235.8
 30
0.0
 11
330.8
 21
235.8
 31
0.0
  0
LINE
  5
C6AA
330
C54B
100
AcDbEntity
  8
1
  6
Continuous
100
AcDbLine
 10
348.7999999999999
 20
235.8
 30
0.0
 11
340.8
 21
235.8
 31
0.0
  0
LINE
  5
C6AB
330
C54B
100
AcDbEntity
  8
1
  6
Continuous
100
AcDbLine
 10
340.8
 20
235.8
 30
0.0
 11
340.8
 21
235.9219289999999
 31
0.0
  0
LINE
  5
C6AC
330
C54B
100
AcDbEntity
  8
1
  6
Continuous
100
AcDbLine
 10
348.7999999999999
 20
235.8
 30
0.0
 11
348.7999999999999
 21
235.9219289999999
 31
0.0
  0
LINE
  5
C6AD
330
C54B
100
AcDbEntity
  8
1
  6
Continuous
100
AcDbLine
 10
358.8
 20
235.8
 30
0.0
 11
358.8
 21
235.9219289999999
 31
0.0
  0
LINE
  5
C6AE
330
C54B
100
AcDbEntity
  8
1
  6
Continuous
100
AcDbLine
 10
350.8
 20
235.8
 30
0.0
 11
350.8
 21
235.9219289999999
 31
0.0
  0
LINE
  5
C6AF
330
C54B
100
AcDbEntity
  8
1
  6
Continuous
100
AcDbLine
 10
358.8
 20
235.8
 30
0.0
 11
350.8
 21
235.8
 31
0.0
  0
LINE
  5
C6B0
330
C54B
100
AcDbEntity
  8
1
  6
Continuous
100
AcDbLine
 10
368.8
 20
235.8
 30
0.0
 11
360.8
 21
235.8
 31
0.0
  0
LINE
  5
C6B1
330
C54B
100
AcDbEntity
  8
1
  6
Continuous
100
AcDbLine
 10
360.8
 20
235.8
 30
0.0
 11
360.8
 21
235.9219289999999
 31
0.0
  0
LINE
  5
C6B2
330
C54B
100
AcDbEntity
  8
1
  6
Continuous
100
AcDbLine
 10
368.8
 20
235.8
 30
0.0
 11
368.8
 21
235.9219289999999
 31
0.0
  0
LINE
  5
C6B3
330
C54B
100
AcDbEntity
  8
1
  6
Continuous
100
AcDbLine
 10
307.3
 20
43.5
 30
0.0
 11
83.29999999999998
 21
43.5
 31
0.0
  0
LINE
  5
C6B4
330
C54B
100
AcDbEntity
  8
1
  6
Continuous
100
AcDbLine
 10
380.3
 20
49.0
 30
0.0
 11
83.29999999999998
 21
49.0
 31
0.0
  0
LINE
  5
C6B5
330
C54B
100
AcDbEntity
  8
1
  6
Continuous
100
AcDbLine
 10
83.29999999999998
 20
43.5
 30
0.0
 11
83.29999999999998
 21
49.0
 31
0.0
  0
LINE
  5
C6B6
330
C54B
100
AcDbEntity
  8
4
  6
CENTER
100
AcDbLine
 10
103.2999999999999
 20
45.89902
 30
0.0
 11
103.2999999999999
 21
51.5
 31
0.0
  0
LINE
  5
C6B7
330
C54B
100
AcDbEntity
  8
4
  6
CENTER
100
AcDbLine
 10
118.3
 20
46.260232
 30
0.0
 11
118.3
 21
51.5
 31
0.0
  0
LINE
  5
C6B8
330
C54B
100
AcDbEntity
  8
4
  6
CENTER
100
AcDbLine
 10
158.3
 20
46.260232
 30
0.0
 11
158.3
 21
51.5
 31
0.0
  0
LINE
  5
C6B9
330
C54B
100
AcDbEntity
  8
1
  6
Continuous
100
AcDbLine
 10
607.2999999999998
 20
41.0
 30
0.0
 11
307.3
 21
41.0
 31
0.0
  0
LINE
  5
C6BA
330
C54B
100
AcDbEntity
  8
1
  6
Continuous
100
AcDbLine
 10
307.3
 20
48.078071
 30
0.0
 11
607.2999999999998
 21
48.078071
 31
0.0
  0
LINE
  5
C6BB
330
C54B
100
AcDbEntity
  8
1
  6
Continuous
100
AcDbLine
 10
338.8
 20
48.2
 30
0.0
 11
330.8
 21
48.2
 31
0.0
  0
LINE
  5
C6BC
330
C54B
100
AcDbEntity
  8
3
  6
DASHED
100
AcDbLine
 10
380.3
 20
43.5
 30
0.0
 11
307.3
 21
43.5
 31
0.0
  0
LINE
  5
C6BD
330
C54B
100
AcDbEntity
  8
4
  6
CENTER
100
AcDbLine
 10
203.3
 20
46.260232
 30
0.0
 11
203.3
 21
51.5
 31
0.0
  0
LINE
  5
C6BE
330
C54B
100
AcDbEntity
  8
4
  6
CENTER
100
AcDbLine
 10
327.3
 20
38.0
 30
0.0
 11
327.3
 21
43.28569199999999
 31
0.0
  0
LINE
  5
C6BF
330
C54B
100
AcDbEntity
  8
1
  6
Continuous
100
AcDbLine
 10
318.8
 20
48.2
 30
0.0
 11
310.8
 21
48.2
 31
0.0
  0
LINE
  5
C6C0
330
C54B
100
AcDbEntity
  8
1
  6
Continuous
100
AcDbLine
 10
310.8
 20
48.2
 30
0.0
 11
310.8
 21
48.078071
 31
0.0
  0
LINE
  5
C6C1
330
C54B
100
AcDbEntity
  8
1
  6
Continuous
100
AcDbLine
 10
307.3
 20
48.078071
 30
0.0
 11
307.3
 21
41.0
 31
0.0
  0
LINE
  5
C6C2
330
C54B
100
AcDbEntity
  8
1
  6
Continuous
100
AcDbLine
 10
330.8
 20
48.2
 30
0.0
 11
330.8
 21
48.078071
 31
0.0
  0
LINE
  5
C6C3
330
C54B
100
AcDbEntity
  8
1
  6
Continuous
100
AcDbLine
 10
328.8
 20
48.2
 30
0.0
 11
328.8
 21
48.078071
 31
0.0
  0
LINE
  5
C6C4
330
C54B
100
AcDbEntity
  8
1
  6
Continuous
100
AcDbLine
 10
320.8
 20
48.2
 30
0.0
 11
320.8
 21
48.078071
 31
0.0
  0
LINE
  5
C6C5
330
C54B
100
AcDbEntity
  8
1
  6
Continuous
100
AcDbLine
 10
328.8
 20
48.2
 30
0.0
 11
320.8
 21
48.2
 31
0.0
  0
LINE
  5
C6C6
330
C54B
100
AcDbEntity
  8
1
  6
Continuous
100
AcDbLine
 10
318.8
 20
48.2
 30
0.0
 11
318.8
 21
48.078071
 31
0.0
  0
LINE
  5
C6C7
330
C54B
100
AcDbEntity
  8
1
  6
Continuous
100
AcDbLine
 10
368.8
 20
48.2
 30
0.0
 11
360.8
 21
48.2
 31
0.0
  0
LINE
  5
C6C8
330
C54B
100
AcDbEntity
  8
4
  6
CENTER
100
AcDbLine
 10
342.3
 20
38.0
 30
0.0
 11
342.3
 21
43.73720699999998
 31
0.0
  0
LINE
  5
C6C9
330
C54B
100
AcDbEntity
  8
1
  6
Continuous
100
AcDbLine
 10
348.7999999999999
 20
48.2
 30
0.0
 11
348.7999999999999
 21
48.078071
 31
0.0
  0
LINE
  5
C6CA
330
C54B
100
AcDbEntity
  8
1
  6
Continuous
100
AcDbLine
 10
340.8
 20
48.2
 30
0.0
 11
340.8
 21
48.078071
 31
0.0
  0
LINE
  5
C6CB
330
C54B
100
AcDbEntity
  8
1
  6
Continuous
100
AcDbLine
 10
348.7999999999999
 20
48.2
 30
0.0
 11
340.8
 21
48.2
 31
0.0
  0
LINE
  5
C6CC
330
C54B
100
AcDbEntity
  8
1
  6
Continuous
100
AcDbLine
 10
338.8
 20
48.2
 30
0.0
 11
338.8
 21
48.078071
 31
0.0
  0
LINE
  5
C6CD
330
C54B
100
AcDbEntity
  8
4
  6
CENTER
100
AcDbLine
 10
348.3
 20
46.350535
 30
0.0
 11
348.3
 21
51.5
 31
0.0
  0
LINE
  5
C6CE
330
C54B
100
AcDbEntity
  8
1
  6
Continuous
100
AcDbLine
 10
360.8
 20
48.2
 30
0.0
 11
360.8
 21
48.078071
 31
0.0
  0
LINE
  5
C6CF
330
C54B
100
AcDbEntity
  8
1
  6
Continuous
100
AcDbLine
 10
358.8
 20
48.2
 30
0.0
 11
350.8
 21
48.2
 31
0.0
  0
LINE
  5
C6D0
330
C54B
100
AcDbEntity
  8
1
  6
Continuous
100
AcDbLine
 10
350.8
 20
48.2
 30
0.0
 11
350.8
 21
48.078071
 31
0.0
  0
LINE
  5
C6D1
330
C54B
100
AcDbEntity
  8
1
  6
Continuous
100
AcDbLine
 10
358.8
 20
48.2
 30
0.0
 11
358.8
 21
48.078071
 31
0.0
  0
LINE
  5
C6D2
330
C54B
100
AcDbEntity
  8
4
  6
CENTER
100
AcDbLine
 10
363.3
 20
46.260232
 30
0.0
 11
363.3
 21
51.5
 31
0.0
  0
LINE
  5
C6D3
330
C54B
100
AcDbEntity
  8
1
  6
Continuous
100
AcDbLine
 10
368.8
 20
48.2
 30
0.0
 11
368.8
 21
48.078071
 31
0.0
  0
LINE
  5
C6D4
330
C54B
100
AcDbEntity
  8
3
  6
DASHED
100
AcDbLine
 10
380.3
 20
48.078071
 30
0.0
 11
380.3
 21
43.5
 31
0.0
  0
LINE
  5
C6D5
330
C54B
100
AcDbEntity
  8
1
  6
Continuous
100
AcDbLine
 10
380.3
 20
49.0
 30
0.0
 11
380.3
 21
48.078071
 31
0.0
  0
LINE
  5
C6D6
330
C54B
100
AcDbEntity
  8
4
  6
CENTER
100
AcDbLine
 10
427.3
 20
38.0
 30
0.0
 11
427.3
 21
43.64690399999999
 31
0.0
  0
LINE
  5
C6D7
330
C54B
100
AcDbEntity
  8
4
  6
CENTER
100
AcDbLine
 10
552.2999999999998
 20
38.0
 30
0.0
 11
552.2999999999998
 21
44.00811499999998
 31
0.0
  0
LINE
  5
C6D8
330
C54B
100
AcDbEntity
  8
4
  6
CENTER
100
AcDbLine
 10
572.2999999999998
 20
38.0
 30
0.0
 11
572.2999999999998
 21
44.00811499999998
 31
0.0
  0
LINE
  5
C6D9
330
C54B
100
AcDbEntity
  8
4
  6
CENTER
100
AcDbLine
 10
587.2999999999998
 20
38.0
 30
0.0
 11
587.2999999999998
 21
43.91781199999999
 31
0.0
  0
LINE
  5
C6DA
330
C54B
100
AcDbEntity
  8
1
  6
Continuous
100
AcDbLine
 10
607.2999999999998
 20
48.078071
 30
0.0
 11
607.2999999999998
 21
41.0
 31
0.0
  0
LINE
  5
C6DB
330
C54B
100
AcDbEntity
  8
3
  6
DASHED
100
AcDbLine
 10
380.3
 20
329.85
 30
0.0
 11
307.3
 21
329.85
 31
0.0
  0
LINE
  5
C6DC
330
C54B
100
AcDbEntity
  8
1
  6
Continuous
100
AcDbLine
 10
83.29999999999998
 20
342.1499999999999
 30
0.0
 11
307.3
 21
342.1499999999999
 31
0.0
  0
LINE
  5
C6DD
330
C54B
100
AcDbEntity
  8
4
  6
CENTER
100
AcDbLine
 10
610.2999999999998
 20
336.0
 30
0.0
 11
80.0
 21
336.0
 31
0.0
  0
LINE
  5
C6DE
330
C54B
100
AcDbEntity
  8
1
  6
Continuous
100
AcDbLine
 10
83.29999999999998
 20
329.85
 30
0.0
 11
83.29999999999998
 21
342.1499999999999
 31
0.0
  0
LINE
  5
C6DF
330
C54B
100
AcDbEntity
  8
4
  6
CENTER
100
AcDbLine
 10
103.2999999999999
 20
332.660437
 30
0.0
 11
103.2999999999999
 21
339.1622499999999
 31
0.0
  0
CIRCLE
  5
C6E0
330
C54B
100
AcDbEntity
  8
1
  6
Continuous
100
AcDbCircle
 10
103.2999999999999
 20
336.0
 30
0.0
 40
1.6
  0
LINE
  5
C6E1
330
C54B
100
AcDbEntity
  8
1
  6
Continuous
100
AcDbLine
 10
118.5999999999998
 20
334.3999999999998
 30
0.0
 11
118.0
 21
334.3999999999998
 31
0.0
  0
LINE
  5
C6E2
330
C54B
100
AcDbEntity
  8
1
  6
Continuous
100
AcDbLine
 10
118.0
 20
337.6
 30
0.0
 11
118.5999999999998
 21
337.6
 31
0.0
  0
LINE
  5
C6E3
330
C54B
100
AcDbEntity
  8
4
  6
CENTER
100
AcDbLine
 10
118.3
 20
333.021649
 30
0.0
 11
118.3
 21
339.1622499999999
 31
0.0
  0
ARC
  5
C6E4
330
C54B
100
AcDbEntity
  8
1
  6
Continuous
100
AcDbCircle
 10
118.0
 20
336.0
 30
0.0
 40
1.6
100
AcDbArc
 50
90.0
 51
270.0
  0
ARC
  5
C6E5
330
C54B
100
AcDbEntity
  8
1
  6
Continuous
100
AcDbCircle
 10
118.5999999999998
 20
336.0
 30
0.0
 40
1.6
100
AcDbArc
 50
270.0
 51
90.0
  0
LINE
  5
C6E6
330
C54B
100
AcDbEntity
  8
4
  6
CENTER
100
AcDbLine
 10
158.3
 20
331.05
 30
0.0
 11
158.3
 21
340.9499999999998
 31
0.0
  0
CIRCLE
  5
C6E7
330
C54B
100
AcDbEntity
  8
1
  6
Continuous
100
AcDbCircle
 10
158.3
 20
336.0
 30
0.0
 40
3.649999999999999
  0
ARC
  5
C6E8
330
C54B
100
AcDbEntity
  8
1
  6
Continuous
100
AcDbCircle
 10
606.7000000000001
 20
329.7
 30
0.0
 40
1.0
100
AcDbArc
 50
90.0
 51
225.0
  0
LINE
  5
C6E9
330
C54B
100
AcDbEntity
  8
3
  6
DASHED
100
AcDbLine
 10
380.3
 20
342.1499999999999
 30
0.0
 11
380.3
 21
329.85
 31
0.0
  0
LINE
  5
C6EA
330
C54B
100
AcDbEntity
  8
1
  6
Continuous
100
AcDbLine
 10
307.3
 20
346.0
 30
0.0
 11
607.2999999999998
 21
346.0
 31
0.0
  0
LINE
  5
C6EB
330
C54B
100
AcDbEntity
  8
1
  6
Continuous
100
AcDbLine
 10
203.6
 20
334.3999999999998
 30
0.0
 11
203.0
 21
334.3999999999998
 31
0.0
  0
LINE
  5
C6EC
330
C54B
100
AcDbEntity
  8
1
  6
Continuous
100
AcDbLine
 10
203.0
 20
337.6
 30
0.0
 11
203.6
 21
337.6
 31
0.0
  0
LINE
  5
C6ED
330
C54B
100
AcDbEntity
  8
4
  6
CENTER
100
AcDbLine
 10
203.3
 20
333.021649
 30
0.0
 11
203.3
 21
338.981645
 31
0.0
  0
ARC
  5
C6EE
330
C54B
100
AcDbEntity
  8
1
  6
Continuous
100
AcDbCircle
 10
203.0
 20
336.0
 30
0.0
 40
1.6
100
AcDbArc
 50
90.0
 51
270.0
  0
ARC
  5
C6EF
330
C54B
100
AcDbEntity
  8
1
  6
Continuous
100
AcDbCircle
 10
203.6
 20
336.0
 30
0.0
 40
1.6
100
AcDbArc
 50
270.0
 51
90.0
  0
LINE
  5
C6F0
330
C54B
100
AcDbEntity
  8
4
  6
CENTER
100
AcDbLine
 10
327.3
 20
333.1119519999999
 30
0.0
 11
327.3
 21
338.53013
 31
0.0
  0
LINE
  5
C6F1
330
C54B
100
AcDbEntity
  8
1
  6
Continuous
100
AcDbLine
 10
342.0
 20
334.3999999999998
 30
0.0
 11
342.6
 21
334.3999999999998
 31
0.0
  0
LINE
  5
C6F2
330
C54B
100
AcDbEntity
  8
1
  6
Continuous
100
AcDbLine
 10
342.6
 20
337.6
 30
0.0
 11
342.0
 21
337.6
 31
0.0
  0
LINE
  5
C6F3
330
C54B
100
AcDbEntity
  8
4
  6
CENTER
100
AcDbLine
 10
348.3
 20
333.1119519999999
 30
0.0
 11
348.3
 21
338.7107359999999
 31
0.0
  0
ARC
  5
C6F4
330
C54B
100
AcDbEntity
  8
1
  6
Continuous
100
AcDbCircle
 10
342.6
 20
336.0
 30
0.0
 40
1.6
100
AcDbArc
 50
270.0
 51
90.0
  0
ARC
  5
C6F5
330
C54B
100
AcDbEntity
  8
1
  6
Continuous
100
AcDbCircle
 10
342.0
 20
336.0
 30
0.0
 40
1.6
100
AcDbArc
 50
90.0
 51
270.0
  0
LINE
  5
C6F6
330
C54B
100
AcDbEntity
  8
4
  6
CENTER
100
AcDbLine
 10
342.3
 20
333.1119519999999
 30
0.0
 11
342.3
 21
338.981645
 31
0.0
  0
LINE
  5
C6F7
330
C54B
100
AcDbEntity
  8
4
  6
CENTER
100
AcDbLine
 10
363.3
 20
333.021649
 30
0.0
 11
363.3
 21
338.6204329999998
 31
0.0
  0
CIRCLE
  5
C6F8
330
C54B
100
AcDbEntity
  8
1
  6
Continuous
100
AcDbCircle
 10
327.3
 20
336.0
 30
0.0
 40
1.6
  0
ARC
  5
C6F9
330
C54B
100
AcDbEntity
  8
1
  6
Continuous
100
AcDbCircle
 10
427.6
 20
336.0
 30
0.0
 40
1.6
100
AcDbArc
 50
270.0
 51
90.0
  0
LINE
  5
C6FA
330
C54B
100
AcDbEntity
  8
1
  6
Continuous
100
AcDbLine
 10
427.6
 20
334.3999999999998
 30
0.0
 11
427.0
 21
334.3999999999998
 31
0.0
  0
LINE
  5
C6FB
330
C54B
100
AcDbEntity
  8
1
  6
Continuous
100
AcDbLine
 10
427.0
 20
337.6
 30
0.0
 11
427.6
 21
337.6
 31
0.0
  0
LINE
  5
C6FC
330
C54B
100
AcDbEntity
  8
4
  6
CENTER
100
AcDbLine
 10
427.3
 20
332.570134
 30
0.0
 11
427.3
 21
338.891342
 31
0.0
  0
ARC
  5
C6FD
330
C54B
100
AcDbEntity
  8
1
  6
Continuous
100
AcDbCircle
 10
427.0
 20
336.0
 30
0.0
 40
1.6
100
AcDbArc
 50
90.0
 51
270.0
  0
LINE
  5
C6FE
330
C54B
100
AcDbEntity
  8
4
  6
CENTER
100
AcDbLine
 10
552.2999999999998
 20
330.8543779999999
 30
0.0
 11
552.2999999999998
 21
340.787704
 31
0.0
  0
CIRCLE
  5
C6FF
330
C54B
100
AcDbEntity
  8
1
  6
Continuous
100
AcDbCircle
 10
552.2999999999998
 20
336.0
 30
0.0
 40
3.649999999999999
  0
LINE
  5
C700
330
C54B
100
AcDbEntity
  8
1
  6
Continuous
100
AcDbLine
 10
572.5999999999998
 20
334.3999999999998
 30
0.0
 11
572.0
 21
334.3999999999998
 31
0.0
  0
LINE
  5
C701
330
C54B
100
AcDbEntity
  8
1
  6
Continuous
100
AcDbLine
 10
572.0
 20
337.6
 30
0.0
 11
572.5999999999998
 21
337.6
 31
0.0
  0
LINE
  5
C702
330
C54B
100
AcDbEntity
  8
4
  6
CENTER
100
AcDbLine
 10
572.2999999999998
 20
332.841043
 30
0.0
 11
572.2999999999998
 21
339.2525529999999
 31
0.0
  0
ARC
  5
C703
330
C54B
100
AcDbEntity
  8
1
  6
Continuous
100
AcDbCircle
 10
572.0
 20
336.0
 30
0.0
 40
1.6
100
AcDbArc
 50
90.0
 51
270.0
  0
ARC
  5
C704
330
C54B
100
AcDbEntity
  8
1
  6
Continuous
100
AcDbCircle
 10
572.5999999999998
 20
336.0
 30
0.0
 40
1.6
100
AcDbArc
 50
270.0
 51
90.0
  0
LINE
  5
C705
330
C54B
100
AcDbEntity
  8
4
  6
CENTER
100
AcDbLine
 10
587.2999999999998
 20
332.841043
 30
0.0
 11
587.2999999999998
 21
339.1622499999999
 31
0.0
  0
LINE
  5
C706
330
C54B
100
AcDbEntity
  8
1
  6
Continuous
100
AcDbLine
 10
606.7000000000001
 20
330.6999999999998
 30
0.0
 11
607.2999999999998
 21
330.6999999999998
 31
0.0
  0
LINE
  5
C707
330
C54B
100
AcDbEntity
  8
1
  6
Continuous
100
AcDbLine
 10
607.2999999999998
 20
346.0
 30
0.0
 11
607.2999999999998
 21
344.728427
 31
0.0
  0
ARC
  5
C708
330
C54B
100
AcDbEntity
  8
1
  6
Continuous
100
AcDbCircle
 10
606.2999999999998
 20
344.728427
 30
0.0
 40
1.0
100
AcDbArc
 50
315.0
 51
0.0
  0
LINE
  5
C709
330
C54B
100
AcDbEntity
  8
1
  6
Continuous
100
AcDbLine
 10
607.007107
 20
344.02132
 30
0.0
 11
605.9928929999998
 21
343.0071069999999
 31
0.0
  0
ARC
  5
C70A
330
C54B
100
AcDbEntity
  8
1
  6
Continuous
100
AcDbCircle
 10
606.7000000000001
 20
342.3
 30
0.0
 40
1.0
100
AcDbArc
 50
135.0
 51
270.0
  0
LINE
  5
C70B
330
C54B
100
AcDbEntity
  8
1
  6
Continuous
100
AcDbLine
 10
607.2999999999998
 20
341.3
 30
0.0
 11
606.7000000000001
 21
341.3
 31
0.0
  0
LINE
  5
C70C
330
C54B
100
AcDbEntity
  8
1
  6
Continuous
100
AcDbLine
 10
607.2999999999998
 20
330.6999999999998
 30
0.0
 11
607.2999999999998
 21
341.3
 31
0.0
  0
LINE
  5
C70D
330
C54B
100
AcDbEntity
  8
1
  6
Continuous
100
AcDbLine
 10
607.2999999999998
 20
326.0
 30
0.0
 11
307.3
 21
326.0
 31
0.0
  0
LINE
  5
C70E
330
C54B
100
AcDbEntity
  8
1
  6
Continuous
100
AcDbLine
 10
307.3
 20
346.0
 30
0.0
 11
307.3
 21
326.0
 31
0.0
  0
LINE
  5
C70F
330
C54B
100
AcDbEntity
  8
1
  6
Continuous
100
AcDbLine
 10
605.9928929999998
 20
328.9928929999998
 30
0.0
 11
607.007107
 21
327.97868
 31
0.0
  0
ARC
  5
C710
330
C54B
100
AcDbEntity
  8
1
  6
Continuous
100
AcDbCircle
 10
606.2999999999998
 20
327.2715729999998
 30
0.0
 40
1.0
100
AcDbArc
 50
0.0
 51
45.0
  0
LINE
  5
C711
330
C54B
100
AcDbEntity
  8
1
  6
Continuous
100
AcDbLine
 10
607.2999999999998
 20
327.2715729999998
 30
0.0
 11
607.2999999999998
 21
326.0
 31
0.0
  0
LINE
  5
C712
330
C54B
100
AcDbEntity
  8
3
  6
DASHED
100
AcDbLine
 10
307.3
 20
342.1499999999999
 30
0.0
 11
380.3
 21
342.1499999999999
 31
0.0
  0
LINE
  5
C713
330
C54B
100
AcDbEntity
  8
1
  6
Continuous
100
AcDbLine
 10
307.3
 20
329.85
 30
0.0
 11
83.29999999999998
 21
329.85
 31
0.0
  0
LINE
  5
C714
330
C54B
100
AcDbEntity
  8
1
  6
Continuous
100
AcDbLine
 10
310.8
 20
341.3
 30
0.0
 11
310.8
 21
330.6999999999998
 31
0.0
  0
LINE
  5
C715
330
C54B
100
AcDbEntity
  8
1
  6
Continuous
100
AcDbLine
 10
310.8
 20
341.3
 30
0.0
 11
307.3
 21
341.3
 31
0.0
  0
LINE
  5
C716
330
C54B
100
AcDbEntity
  8
1
  6
Continuous
100
AcDbLine
 10
310.8
 20
340.3999999999999
 30
0.0
 11
307.3
 21
340.3999999999999
 31
0.0
  0
LINE
  5
C717
330
C54B
100
AcDbEntity
  8
1
  6
Continuous
100
AcDbLine
 10
310.8
 20
330.6999999999998
 30
0.0
 11
307.3
 21
330.6999999999998
 31
0.0
  0
LINE
  5
C718
330
C54B
100
AcDbEntity
  8
1
  6
Continuous
100
AcDbLine
 10
310.8
 20
331.6
 30
0.0
 11
307.3
 21
331.6
 31
0.0
  0
LINE
  5
C719
330
C54B
100
AcDbEntity
  8
1
  6
Continuous
100
AcDbLine
 10
83.29999999999998
 20
340.225
 30
0.0
 11
307.3
 21
340.225
 31
0.0
  0
LINE
  5
C71A
330
C54B
100
AcDbEntity
  8
1
  6
Continuous
100
AcDbLine
 10
83.29999999999998
 20
331.7749999999999
 30
0.0
 11
307.3
 21
331.7749999999999
 31
0.0
  0
LINE
  5
C71B
330
C54B
100
AcDbEntity
  8
3
  6
DASHED
100
AcDbLine
 10
307.3
 20
340.225
 30
0.0
 11
380.3
 21
340.225
 31
0.0
  0
LINE
  5
C71C
330
C54B
100
AcDbEntity
  8
3
  6
DASHED
100
AcDbLine
 10
307.3
 20
331.7749999999999
 30
0.0
 11
380.3
 21
331.7749999999999
 31
0.0
  0
ARC
  5
C71D
330
C54B
100
AcDbEntity
  8
1
  6
Continuous
100
AcDbCircle
 10
587.6
 20
336.0
 30
0.0
 40
1.6
100
AcDbArc
 50
270.0
 51
90.0
  0
LINE
  5
C71E
330
C54B
100
AcDbEntity
  8
1
  6
Continuous
100
AcDbLine
 10
587.6
 20
334.3999999999998
 30
0.0
 11
587.0
 21
334.3999999999998
 31
0.0
  0
LINE
  5
C71F
330
C54B
100
AcDbEntity
  8
1
  6
Continuous
100
AcDbLine
 10
587.0
 20
337.6
 30
0.0
 11
587.6
 21
337.6
 31
0.0
  0
ARC
  5
C720
330
C54B
100
AcDbEntity
  8
1
  6
Continuous
100
AcDbCircle
 10
587.0
 20
336.0
 30
0.0
 40
1.6
100
AcDbArc
 50
90.0
 51
270.0
  0
ARC
  5
C721
330
C54B
100
AcDbEntity
  8
1
  6
Continuous
100
AcDbCircle
 10
587.6
 20
142.0
 30
0.0
 40
1.6
100
AcDbArc
 50
270.0
 51
90.0
  0
LINE
  5
C722
330
C54B
100
AcDbEntity
  8
1
  6
Continuous
100
AcDbLine
 10
587.0
 20
140.4
 30
0.0
 11
587.6
 21
140.4
 31
0.0
  0
LINE
  5
C723
330
C54B
100
AcDbEntity
  8
1
  6
Continuous
100
AcDbLine
 10
587.6
 20
143.5999999999999
 30
0.0
 11
587.0
 21
143.5999999999999
 31
0.0
  0
ARC
  5
C724
330
C54B
100
AcDbEntity
  8
1
  6
Continuous
100
AcDbCircle
 10
587.0
 20
142.0
 30
0.0
 40
1.6
100
AcDbArc
 50
90.0
 51
270.0
  0
LINE
  5
C725
330
C54B
100
AcDbEntity
  8
1
  6
Continuous
100
AcDbLine
 10
363.6
 20
140.4
 30
0.0
 11
363.0
 21
140.4
 31
0.0
  0
LINE
  5
C726
330
C54B
100
AcDbEntity
  8
1
  6
Continuous
100
AcDbLine
 10
363.0
 20
143.5999999999999
 30
0.0
 11
363.6
 21
143.5999999999999
 31
0.0
  0
ARC
  5
C727
330
C54B
100
AcDbEntity
  8
1
  6
Continuous
100
AcDbCircle
 10
363.6
 20
142.0
 30
0.0
 40
1.6
100
AcDbArc
 50
270.0
 51
90.0
  0
ARC
  5
C728
330
C54B
100
AcDbEntity
  8
1
  6
Continuous
100
AcDbCircle
 10
363.0
 20
142.0
 30
0.0
 40
1.6
100
AcDbArc
 50
90.0
 51
270.0
  0
LINE
  5
C729
330
C54B
100
AcDbEntity
  8
1
  6
Continuous
100
AcDbLine
 10
378.8
 20
235.8
 30
0.0
 11
370.8
 21
235.8
 31
0.0
  0
LINE
  5
C72A
330
C54B
100
AcDbEntity
  8
1
  6
Continuous
100
AcDbLine
 10
370.8
 20
235.8
 30
0.0
 11
370.8
 21
235.9219289999999
 31
0.0
  0
LINE
  5
C72B
330
C54B
100
AcDbEntity
  8
1
  6
Continuous
100
AcDbLine
 10
378.8
 20
235.8
 30
0.0
 11
378.8
 21
235.9219289999999
 31
0.0
  0
LINE
  5
C72C
330
C54B
100
AcDbEntity
  8
4
  6
CENTER
100
AcDbLine
 10
342.3
 20
144.8880479999999
 30
0.0
 11
342.3
 21
139.4698699999999
 31
0.0
  0
LINE
  5
C72D
330
C54B
100
AcDbEntity
  8
1
  6
Continuous
100
AcDbLine
 10
370.8
 20
148.6794999999998
 30
0.0
 11
378.8
 21
148.6794999999998
 31
0.0
  0
LINE
  5
C72E
330
C54B
100
AcDbEntity
  8
1
  6
Continuous
100
AcDbLine
 10
370.8
 20
149.1794999999999
 30
0.0
 11
378.8
 21
149.1794999999999
 31
0.0
  0
ARC
  5
C72F
330
C54B
100
AcDbEntity
  8
1
  6
Continuous
100
AcDbCircle
 10
374.8
 20
149.0124999999999
 30
0.0
 40
1.587499999999999
100
AcDbArc
 50
192.1085089999999
 51
212.9090519999999
  0
ARC
  5
C730
330
C54B
100
AcDbEntity
  8
1
  6
Continuous
100
AcDbCircle
 10
374.8
 20
149.0124999999999
 30
0.0
 40
1.587499999999999
100
AcDbArc
 50
155.4270199999999
 51
173.9614919999999
  0
ARC
  5
C731
330
C54B
100
AcDbEntity
  8
1
  6
Continuous
100
AcDbCircle
 10
374.8
 20
149.0124999999999
 30
0.0
 40
1.587499999999999
100
AcDbArc
 50
327.090948
 51
347.8914909999998
  0
ARC
  5
C732
330
C54B
100
AcDbEntity
  8
1
  6
Continuous
100
AcDbCircle
 10
374.8
 20
149.0124999999999
 30
0.0
 40
1.587499999999999
100
AcDbArc
 50
6.038508
 51
24.57297999999999
  0
ARC
  5
C733
330
C54B
100
AcDbEntity
  8
1
  6
Continuous
100
AcDbCircle
 10
369.8
 20
148.6794999999998
 30
0.0
 40
1.0
100
AcDbArc
 50
180.0
 51
211.9716779999999
  0
LINE
  5
C734
330
C54B
100
AcDbEntity
  8
1
  6
Continuous
100
AcDbLine
 10
368.8
 20
148.6794999999998
 30
0.0
 11
368.8
 21
149.1794999999999
 31
0.0
  0
LINE
  5
C735
330
C54B
100
AcDbEntity
  8
1
  6
Continuous
100
AcDbLine
 10
370.8
 20
148.6794999999998
 30
0.0
 11
370.8
 21
149.1794999999999
 31
0.0
  0
ARC
  5
C736
330
C54B
100
AcDbEntity
  8
1
  6
Continuous
100
AcDbCircle
 10
369.8
 20
148.6794999999998
 30
0.0
 40
1.0
100
AcDbArc
 50
328.028322
 51
0.0
  0
LINE
  5
C737
330
C54B
100
AcDbEntity
  8
1
  6
Continuous
100
AcDbLine
 10
378.8
 20
149.1999999999999
 30
0.0
 11
378.8
 21
148.15
 31
0.0
  0
LINE
  5
C738
330
C54B
100
AcDbEntity
  8
1
  6
Continuous
100
AcDbLine
 10
370.8
 20
135.3205
 30
0.0
 11
378.8
 21
135.3205
 31
0.0
  0
LINE
  5
C739
330
C54B
100
AcDbEntity
  8
1
  6
Continuous
100
AcDbLine
 10
370.8
 20
134.8205
 30
0.0
 11
378.8
 21
134.8205
 31
0.0
  0
ARC
  5
C73A
330
C54B
100
AcDbEntity
  8
1
  6
Continuous
100
AcDbCircle
 10
374.8
 20
134.9875
 30
0.0
 40
1.587499999999999
100
AcDbArc
 50
186.038508
 51
204.57298
  0
ARC
  5
C73B
330
C54B
100
AcDbEntity
  8
1
  6
Continuous
100
AcDbCircle
 10
374.8
 20
134.9875
 30
0.0
 40
1.587499999999999
100
AcDbArc
 50
147.0909479999999
 51
167.891491
  0
ARC
  5
C73C
330
C54B
100
AcDbEntity
  8
1
  6
Continuous
100
AcDbCircle
 10
374.8
 20
134.9875
 30
0.0
 40
1.587499999999999
100
AcDbArc
 50
335.4270200000001
 51
353.9614919999999
  0
ARC
  5
C73D
330
C54B
100
AcDbEntity
  8
1
  6
Continuous
100
AcDbCircle
 10
374.8
 20
134.9875
 30
0.0
 40
1.587499999999999
100
AcDbArc
 50
12.108509
 51
32.909052
  0
LINE
  5
C73E
330
C54B
100
AcDbEntity
  8
1
  6
Continuous
100
AcDbLine
 10
368.8
 20
135.3205
 30
0.0
 11
368.8
 21
134.8205
 31
0.0
  0
LINE
  5
C73F
330
C54B
100
AcDbEntity
  8
1
  6
Continuous
100
AcDbLine
 10
370.8
 20
135.3205
 30
0.0
 11
370.8
 21
134.8205
 31
0.0
  0
ARC
  5
C740
330
C54B
100
AcDbEntity
  8
1
  6
Continuous
100
AcDbCircle
 10
369.8
 20
135.3205
 30
0.0
 40
1.0
100
AcDbArc
 50
0.0
 51
31.97167800000001
  0
ARC
  5
C741
330
C54B
100
AcDbEntity
  8
1
  6
Continuous
100
AcDbCircle
 10
369.8
 20
135.3205
 30
0.0
 40
1.0
100
AcDbArc
 50
148.028322
 51
180.0
  0
LINE
  5
C742
330
C54B
100
AcDbEntity
  8
1
  6
Continuous
100
AcDbLine
 10
378.8
 20
135.85
 30
0.0
 11
378.8
 21
134.8205
 31
0.0
  0
LINE
  5
C743
330
C54B
100
AcDbEntity
  8
1
  6
Continuous
100
AcDbLine
 10
378.8
 20
48.2
 30
0.0
 11
370.8
 21
48.2
 31
0.0
  0
LINE
  5
C744
330
C54B
100
AcDbEntity
  8
1
  6
Continuous
100
AcDbLine
 10
370.8
 20
48.2
 30
0.0
 11
370.8
 21
48.078071
 31
0.0
  0
LINE
  5
C745
330
C54B
100
AcDbEntity
  8
1
  6
Continuous
100
AcDbLine
 10
378.8
 20
48.2
 30
0.0
 11
378.8
 21
48.078071
 31
0.0
  0
LINE
  5
C746
330
C54B
100
AcDbEntity
  8
4
  6
CENTER
100
AcDbLine
 10
293.3
 20
45.89902
 30
0.0
 11
293.3
 21
51.5
 31
0.0
  0
LINE
  5
C747
330
C54B
100
AcDbEntity
  8
4
  6
CENTER
100
AcDbLine
 10
487.3
 20
38.0
 30
0.0
 11
487.3
 21
43.28569199999999
 31
0.0
  0
ARC
  5
C748
330
C54B
100
AcDbEntity
  8
1
  6
Continuous
100
AcDbCircle
 10
293.6
 20
142.0
 30
0.0
 40
1.6
100
AcDbArc
 50
270.0
 51
90.0
  0
ARC
  5
C749
330
C54B
100
AcDbEntity
  8
1
  6
Continuous
100
AcDbCircle
 10
293.0
 20
142.0
 30
0.0
 40
1.6
100
AcDbArc
 50
90.0
 51
270.0
  0
LINE
  5
C74A
330
C54B
100
AcDbEntity
  8
1
  6
Continuous
100
AcDbLine
 10
293.6
 20
143.5999999999999
 30
0.0
 11
293.0
 21
143.5999999999999
 31
0.0
  0
LINE
  5
C74B
330
C54B
100
AcDbEntity
  8
1
  6
Continuous
100
AcDbLine
 10
293.0
 20
140.4
 30
0.0
 11
293.6
 21
140.4
 31
0.0
  0
LINE
  5
C74C
330
C54B
100
AcDbEntity
  8
4
  6
CENTER
100
AcDbLine
 10
293.3
 20
144.978351
 30
0.0
 11
293.3
 21
139.018355
 31
0.0
  0
LINE
  5
C74D
330
C54B
100
AcDbEntity
  8
4
  6
CENTER
100
AcDbLine
 10
487.3
 20
145.429866
 30
0.0
 11
487.3
 21
139.1086579999999
 31
0.0
  0
LINE
  5
C74E
330
C54B
100
AcDbEntity
  8
1
  6
Continuous
100
AcDbLine
 10
487.0
 20
140.4
 30
0.0
 11
487.6
 21
140.4
 31
0.0
  0
LINE
  5
C74F
330
C54B
100
AcDbEntity
  8
1
  6
Continuous
100
AcDbLine
 10
487.6
 20
143.5999999999999
 30
0.0
 11
487.0
 21
143.5999999999999
 31
0.0
  0
ARC
  5
C750
330
C54B
100
AcDbEntity
  8
1
  6
Continuous
100
AcDbCircle
 10
487.0
 20
142.0
 30
0.0
 40
1.6
100
AcDbArc
 50
90.0
 51
270.0
  0
ARC
  5
C751
330
C54B
100
AcDbEntity
  8
1
  6
Continuous
100
AcDbCircle
 10
487.6
 20
142.0
 30
0.0
 40
1.6
100
AcDbArc
 50
270.0
 51
90.0
  0
LINE
  5
C752
330
C54B
100
AcDbEntity
  8
4
  6
CENTER
100
AcDbLine
 10
293.3
 20
238.10098
 30
0.0
 11
293.3
 21
232.5
 31
0.0
  0
LINE
  5
C753
330
C54B
100
AcDbEntity
  8
4
  6
CENTER
100
AcDbLine
 10
487.3
 20
246.0
 30
0.0
 11
487.3
 21
240.7143079999999
 31
0.0
  0
ARC
  5
C754
330
C54B
100
AcDbEntity
  8
1
  6
Continuous
100
AcDbCircle
 10
487.6
 20
336.0
 30
0.0
 40
1.6
100
AcDbArc
 50
270.0
 51
90.0
  0
LINE
  5
C755
330
C54B
100
AcDbEntity
  8
1
  6
Continuous
100
AcDbLine
 10
487.6
 20
334.3999999999998
 30
0.0
 11
487.0
 21
334.3999999999998
 31
0.0
  0
LINE
  5
C756
330
C54B
100
AcDbEntity
  8
1
  6
Continuous
100
AcDbLine
 10
487.0
 20
337.6
 30
0.0
 11
487.6
 21
337.6
 31
0.0
  0
LINE
  5
C757
330
C54B
100
AcDbEntity
  8
4
  6
CENTER
100
AcDbLine
 10
487.3
 20
332.570134
 30
0.0
 11
487.3
 21
338.891342
 31
0.0
  0
ARC
  5
C758
330
C54B
100
AcDbEntity
  8
1
  6
Continuous
100
AcDbCircle
 10
487.0
 20
336.0
 30
0.0
 40
1.6
100
AcDbArc
 50
90.0
 51
270.0
  0
ARC
  5
C759
330
C54B
100
AcDbEntity
  8
1
  6
Continuous
100
AcDbCircle
 10
293.6
 20
336.0
 30
0.0
 40
1.6
100
AcDbArc
 50
270.0
 51
90.0
  0
ARC
  5
C75A
330
C54B
100
AcDbEntity
  8
1
  6
Continuous
100
AcDbCircle
 10
293.0
 20
336.0
 30
0.0
 40
1.6
100
AcDbArc
 50
90.0
 51
270.0
  0
LINE
  5
C75B
330
C54B
100
AcDbEntity
  8
4
  6
CENTER
100
AcDbLine
 10
293.3
 20
333.021649
 30
0.0
 11
293.3
 21
338.981645
 31
0.0
  0
LINE
  5
C75C
330
C54B
100
AcDbEntity
  8
1
  6
Continuous
100
AcDbLine
 10
293.0
 20
337.6
 30
0.0
 11
293.6
 21
337.6
 31
0.0
  0
LINE
  5
C75D
330
C54B
100
AcDbEntity
  8
1
  6
Continuous
100
AcDbLine
 10
293.6
 20
334.3999999999998
 30
0.0
 11
293.0
 21
334.3999999999998
 31
0.0
  0
LINE
  5
C75E
330
C54B
100
AcDbEntity
  8
5
  6
PHANTOM
100
AcDbLine
 10
380.3
 20
135.85
 30
0.0
 11
604.2999999999998
 21
135.85
 31
0.0
  0
LINE
  5
C75F
330
C54B
100
AcDbEntity
  8
5
  6
PHANTOM
100
AcDbLine
 10
604.2999999999998
 20
148.15
 30
0.0
 11
380.3
 21
148.15
 31
0.0
  0
LINE
  5
C760
330
C54B
100
AcDbEntity
  8
5
  6
PHANTOM
100
AcDbLine
 10
604.2999999999998
 20
135.85
 30
0.0
 11
604.2999999999998
 21
148.15
 31
0.0
  0
LINE
  5
C761
330
C54B
100
AcDbEntity
  8
5
  6
PHANTOM
100
AcDbLine
 10
604.2999999999998
 20
142.0
 30
0.0
 11
601.2999999999998
 21
142.0
 31
0.0
  0
LINE
  5
C762
330
C54B
100
AcDbEntity
  8
5
  6
PHANTOM
100
AcDbLine
 10
601.2999999999998
 20
142.0
 30
0.0
 11
604.2999999999998
 21
141.0
 31
0.0
  0
LINE
  5
C763
330
C54B
100
AcDbEntity
  8
5
  6
PHANTOM
100
AcDbLine
 10
604.2999999999998
 20
143.0
 30
0.0
 11
601.2999999999998
 21
142.0
 31
0.0
  0
LINE
  5
C764
330
C54B
100
AcDbEntity
  8
4
  6
CENTER
100
AcDbLine
 10
517.3
 20
144.978351
 30
0.0
 11
517.3
 21
139.018355
 31
0.0
  0
ARC
  5
C765
330
C54B
100
AcDbEntity
  8
5
  6
PHANTOM
100
AcDbCircle
 10
517.6
 20
142.0
 30
0.0
 40
1.6
100
AcDbArc
 50
270.0
 51
90.0
  0
ARC
  5
C766
330
C54B
100
AcDbEntity
  8
5
  6
PHANTOM
100
AcDbCircle
 10
517.0
 20
142.0
 30
0.0
 40
1.6
100
AcDbArc
 50
90.0
 51
270.0
  0
LINE
  5
C767
330
C54B
100
AcDbEntity
  8
5
  6
PHANTOM
100
AcDbLine
 10
517.6
 20
143.5999999999999
 30
0.0
 11
517.0
 21
143.5999999999999
 31
0.0
  0
LINE
  5
C768
330
C54B
100
AcDbEntity
  8
5
  6
PHANTOM
100
AcDbLine
 10
517.0
 20
140.4
 30
0.0
 11
517.6
 21
140.4
 31
0.0
  0
CIRCLE
  5
C769
330
C54B
100
AcDbEntity
  8
5
  6
PHANTOM
100
AcDbCircle
 10
382.3
 20
142.0
 30
0.0
 40
3.649999999999999
  0
LINE
  5
C76A
330
C54B
100
AcDbEntity
  8
4
  6
CENTER
100
AcDbLine
 10
382.3
 20
146.9499999999999
 30
0.0
 11
382.3
 21
137.05
 31
0.0
  0
ARC
  5
C76B
330
C54B
100
AcDbEntity
  8
5
  6
PHANTOM
100
AcDbCircle
 10
342.6
 20
142.0
 30
0.0
 40
1.6
100
AcDbArc
 50
270.0
 51
90.0
  0
ARC
  5
C76C
330
C54B
100
AcDbEntity
  8
5
  6
PHANTOM
100
AcDbCircle
 10
342.0
 20
142.0
 30
0.0
 40
1.6
100
AcDbArc
 50
90.0
 51
270.0
  0
LINE
  5
C76D
330
C54B
100
AcDbEntity
  8
5
  6
PHANTOM
100
AcDbLine
 10
342.6
 20
143.5999999999999
 30
0.0
 11
342.0
 21
143.5999999999999
 31
0.0
  0
LINE
  5
C76E
330
C54B
100
AcDbEntity
  8
5
  6
PHANTOM
100
AcDbLine
 10
342.0
 20
140.4
 30
0.0
 11
342.6
 21
140.4
 31
0.0
  0
CIRCLE
  5
C76F
330
C54B
100
AcDbEntity
  8
5
  6
PHANTOM
100
AcDbCircle
 10
327.3
 20
142.0
 30
0.0
 40
1.6
  0
ENDSEC
  0
SECTION
  2
OBJECTS
  0
DICTIONARY
  5
C539
330
0
100
AcDbDictionary
281
     1
  3
ACAD_CIP_PREVIOUS_PRODUCT_INFO
350
C7CF
  3
ACAD_COLOR
350
C7B1
  3
ACAD_DETAILVIEWSTYLE
350
C7CA
  3
ACAD_GROUP
350
C53A
  3
ACAD_LAYOUT
350
C546
  3
ACAD_MATERIAL
350
C77F
  3
ACAD_MLEADERSTYLE
350
C7C6
  3
ACAD_MLINESTYLE
350
C543
  3
ACAD_PLOTSETTINGS
350
C545
  3
ACAD_PLOTSTYLENAME
350
C77D
  3
ACAD_SCALELIST
350
C7B4
  3
ACAD_SECTIONVIEWSTYLE
350
C7C8
  3
ACAD_TABLESTYLE
350
C7B2
  3
ACAD_VISUALSTYLE
350
C798
  3
ACDB_RECOMPOSE_DATA
350
C7ED
  3
AcDbVariableDictionary
350
C7E0
  3
DWGPROPS
350
C7EE
  0
DICTIONARY
  5
C7D0
330
C53D
100
AcDbDictionary
280
     1
281
     1
  3
ADSK_XREC_LAYER_RECONCILED
360
C7D1
  0
DICTIONARY
  5
C7D2
330
C553
100
AcDbDictionary
280
     1
281
     1
  3
ADSK_XREC_LAYER_RECONCILED
360
C7D3
  0
DICTIONARY
  5
C7D4
330
C554
100
AcDbDictionary
280
     1
281
     1
  3
ADSK_XREC_LAYER_RECONCILED
360
C7D5
  0
DICTIONARY
  5
C7D6
330
C555
100
AcDbDictionary
280
     1
281
     1
  3
ADSK_XREC_LAYER_RECONCILED
360
C7D7
  0
DICTIONARY
  5
C7D8
330
C556
100
AcDbDictionary
280
     1
281
     1
  3
ADSK_XREC_LAYER_RECONCILED
360
C7D9
  0
DICTIONARY
  5
C7DA
330
C557
100
AcDbDictionary
280
     1
281
     1
  3
ADSK_XREC_LAYER_RECONCILED
360
C7DB
  0
DICTIONARY
  5
C7DC
330
C558
100
AcDbDictionary
280
     1
281
     1
  3
ADSK_XREC_LAYER_RECONCILED
360
C7DD
  0
DICTIONARY
  5
C7DE
330
C559
100
AcDbDictionary
280
     1
281
     1
  3
ADSK_XREC_LAYER_RECONCILED
360
C7DF
  0
DICTIONARY
  5
C778
330
C54B
100
AcDbDictionary
281
     1
  3
ACAD_LAYOUTSELFREF
350
C779
  0
DICTIONARY
  5
C776
330
C547
100
AcDbDictionary
281
     1
  3
ACAD_LAYOUTSELFREF
350
C777
  0
XRECORD
  5
C7CF
102
{ACAD_REACTORS
330
C539
102
}
330
C539
100
AcDbXrecord
280
     1
300
ACDLT
300
2014
300
ACDLT_F_S
  0
DICTIONARY
  5
C7B1
102
{ACAD_REACTORS
330
C539
102
}
330
C539
100
AcDbDictionary
281
     1
  0
DICTIONARY
  5
C7CA
102
{ACAD_REACTORS
330
C539
102
}
330
C539
100
AcDbDictionary
281
     1
  3
Imperial24
350
C7CB
  0
DICTIONARY
  5
C53A
102
{ACAD_REACTORS
330
C539
102
}
330
C539
100
AcDbDictionary
281
     1
  0
DICTIONARY
  5
C546
102
{ACAD_REACTORS
330
C539
102
}
330
C539
100
AcDbDictionary
281
     1
  3
Model
350
C7CC
  3
レイアウト1
350
C7CD
  0
DICTIONARY
  5
C77F
102
{ACAD_REACTORS
330
C539
102
}
330
C539
100
AcDbDictionary
281
     1
  3
ByBlock
350
C788
  3
ByLayer
350
C780
  3
Global
350
C790
  0
DICTIONARY
  5
C7C6
102
{ACAD_REACTORS
330
C539
102
}
330
C539
100
AcDbDictionary
281
     1
  3
Standard
350
C7C7
  0
DICTIONARY
  5
C543
102
{ACAD_REACTORS
330
C539
102
}
330
C539
100
AcDbDictionary
281
     1
  3
STANDARD
350
C544
  0
DICTIONARY
  5
C545
102
{ACAD_REACTORS
330
C539
102
}
330
C539
100
AcDbDictionary
281
     1
  0
ACDBDICTIONARYWDFLT
  5
C77D
102
{ACAD_REACTORS
330
C539
102
}
330
C539
100
AcDbDictionary
281
     1
  3
Normal
350
C77E
100
AcDbDictionaryWithDefault
340
C77E
  0
DICTIONARY
  5
C7B4
102
{ACAD_REACTORS
330
C539
102
}
330
C539
100
AcDbDictionary
281
     1
  3
A0
350
C7B5
  3
A1
350
C7B6
  3
A2
350
C7B7
  3
A3
350
C7B8
  3
A4
350
C7B9
  3
A5
350
C7BA
  3
A6
350
C7BB
  3
A7
350
C7BC
  3
A8
350
C7BD
  3
A9
350
C7BE
  3
B0
350
C7BF
  3
B1
350
C7C0
  3
B2
350
C7C1
  3
B3
350
C7C2
  3
B4
350
C7C3
  3
B5
350
C7C4
  3
B6
350
C7C5
  0
DICTIONARY
  5
C7C8
102
{ACAD_REACTORS
330
C539
102
}
330
C539
100
AcDbDictionary
281
     1
  3
Imperial24
350
C7C9
  0
DICTIONARY
  5
C7B2
102
{ACAD_REACTORS
330
C539
102
}
330
C539
100
AcDbDictionary
281
     1
  3
Standard
350
C7B3
  0
DICTIONARY
  5
C798
102
{ACAD_REACTORS
330
C539
102
}
330
C539
100
AcDbDictionary
281
     1
  3
2dWireframe
350
C79E
  3
Basic
350
C79D
  3
Brighten
350
C7A4
  3
ColorChange
350
C7A8
  3
Conceptual
350
C7A1
  3
Dim
350
C7A3
  3
EdgeColorOff
350
C7B0
  3
Facepattern
350
C7A7
  3
Flat
350
C799
  3
FlatWithEdges
350
C79A
  3
Gouraud
350
C79B
  3
GouraudWithEdges
350
C79C
  3
Hidden
350
C7A0
  3
JitterOff
350
C7AE
  3
Linepattern
350
C7A6
  3
OverhangOff
350
C7AF
  3
Realistic
350
C7A2
  3
Shaded
350
C7AD
  3
Shaded with edges
350
C7AC
  3
Shades of Gray
350
C7A9
  3
Sketchy
350
C7AA
  3
Thicken
350
C7A5
  3
Wireframe
350
C79F
  3
X-Ray
350
C7AB
  0
XRECORD
  5
C7ED
102
{ACAD_REACTORS
330
C539
102
}
330
C539
100
AcDbXrecord
280
     1
 90
        1
330
C7B3
  0
DICTIONARY
  5
C7E0
102
{ACAD_REACTORS
330
C539
102
}
330
C539
100
AcDbDictionary
281
     1
  3
CANNOSCALE
350
C7E5
  3
CMLEADERSTYLE
350
C7E2
  3
CTABLESTYLE
350
C7E1
  3
CVIEWDETAILSTYLE
350
C7E3
  3
CVIEWSECTIONSTYLE
350
C7E4
  3
DIMASSOC
350
C7E8
  3
INDEXCTL
350
C7E7
  3
SORTENTS
350
C7E6
  3
XCLIPFRAME
350
C7E9
  0
XRECORD
  5
C7EE
102
{ACAD_REACTORS
330
C539
102
}
330
C539
100
AcDbXrecord
280
     1
  1
DWGPROPS COOKIE
  2

  3

  4

  6

  7

  8
Yoshitsune
  9

300
=
301
=
302
=
303
=
304
=
305
=
306
=
307
=
308
=
309
=
 40
0.0000109953703704
 41
2451233.434808912
 42
2457192.66202022
  1

 90
        0
  0
XRECORD
  5
C7D1
102
{ACAD_REACTORS
330
C7D0
102
}
330
C7D0
100
AcDbXrecord
280
     1
290
     1
  0
XRECORD
  5
C7D3
102
{ACAD_REACTORS
330
C7D2
102
}
330
C7D2
100
AcDbXrecord
280
     1
290
     1
  0
XRECORD
  5
C7D5
102
{ACAD_REACTORS
330
C7D4
102
}
330
C7D4
100
AcDbXrecord
280
     1
290
     1
  0
XRECORD
  5
C7D7
102
{ACAD_REACTORS
330
C7D6
102
}
330
C7D6
100
AcDbXrecord
280
     1
290
     1
  0
XRECORD
  5
C7D9
102
{ACAD_REACTORS
330
C7D8
102
}
330
C7D8
100
AcDbXrecord
280
     1
290
     1
  0
XRECORD
  5
C7DB
102
{ACAD_REACTORS
330
C7DA
102
}
330
C7DA
100
AcDbXrecord
280
     1
290
     1
  0
XRECORD
  5
C7DD
102
{ACAD_REACTORS
330
C7DC
102
}
330
C7DC
100
AcDbXrecord
280
     1
290
     1
  0
XRECORD
  5
C7DF
102
{ACAD_REACTORS
330
C7DE
102
}
330
C7DE
100
AcDbXrecord
280
     1
290
     1
  0
XRECORD
  5
C779
102
{ACAD_REACTORS
330
C778
102
}
330
C778
100
AcDbXrecord
280
     1
340
C54B
  0
XRECORD
  5
C777
102
{ACAD_REACTORS
330
C776
102
}
330
C776
100
AcDbXrecord
280
     1
340
C547
  0
ACDBDETAILVIEWSTYLE
  5
C7CB
102
{ACAD_XDICTIONARY
360
C826
102
}
102
{ACAD_REACTORS
330
C7CA
102
}
330
C7CA
100
AcDbModelDocViewStyle
 70
     0
  3
Imperial24
290
     0
100
AcDbDetailViewStyle
 70
     0
 71
     0
 90
        3
 71
     1
340
C53E
 40
0.24
340
0
 40
0.24
300

 40
0.36
280
     3
 71
     2
340
C542
 90
       25
 71
     3
340
C53E
 40
0.24
 90
        1
 40
0.75
 90
        1
300
%<\AcVar ViewType \f "%tc1">% %<\AcVar ViewDetailId>%\PSCALE %<\AcVar ViewScale \f "%sn">%
 71
     4
340
C542
 90
       25
340
C542
 90
       25
280
     0
  0
LAYOUT
  5
C7CC
102
{ACAD_XDICTIONARY
360
C828
102
}
102
{ACAD_REACTORS
330
C546
102
}
330
C546
100
AcDbPlotSettings
  1

  2
Canon LBP9100C
  4

  6

 40
0.0
 41
0.0
 42
0.0
 43
0.0
 44
0.0
 45
0.0
 46
0.0
 47
0.0
 48
0.0
 49
0.0
140
0.0
141
0.0
142
1.0
143
1.0
 70
  1712
 72
     0
 73
     0
 74
     0
  7

 75
     0
147
1.0
148
0.0
149
0.0
100
AcDbLayout
  1
Model
 70
     1
 71
     0
 10
0.0
 20
0.0
 11
12.0
 21
9.0
 12
0.0
 22
0.0
 32
0.0
 14
0.0
 24
0.0
 34
0.0
 15
0.0
 25
0.0
 35
0.0
146
0.0
 13
0.0
 23
0.0
 33
0.0
 16
1.0
 26
0.0
 36
0.0
 17
0.0
 27
1.0
 37
0.0
 76
     0
330
C54B
331
C775
  0
LAYOUT
  5
C7CD
102
{ACAD_XDICTIONARY
360
C82A
102
}
102
{ACAD_REACTORS
330
C546
102
}
330
C546
100
AcDbPlotSettings
  1

  2
Canon LBP9100C
  4

  6

 40
0.0
 41
0.0
 42
0.0
 43
0.0
 44
0.0
 45
0.0
 46
0.0
 47
0.0
 48
0.0
 49
0.0
140
0.0
141
0.0
142
1.0
143
1.0
 70
   688
 72
     0
 73
     0
 74
     5
  7

 75
    16
147
1.0
148
0.0
149
0.0
100
AcDbLayout
  1
レイアウト1
 70
     0
 71
     1
 10
0.0
 20
0.0
 11
420.0
 21
297.0
 12
0.0
 22
0.0
 32
0.0
 14
1.000000000000000E+20
 24
1.000000000000000E+20
 34
1.000000000000000E+20
 15
-1.000000000000000E+20
 25
-1.000000000000000E+20
 35
-1.000000000000000E+20
146
0.0
 13
0.0
 23
0.0
 33
0.0
 16
1.0
 26
0.0
 36
0.0
 17
0.0
 27
1.0
 37
0.0
 76
     0
330
C547
  0
MATERIAL
  5
C788
102
{ACAD_XDICTIONARY
360
C789
102
}
102
{ACAD_REACTORS
330
C77F
102
}
330
C77F
100
AcDbMaterial
  1
ByBlock
 72
     0
 43
0.0208333333333333
 43
0.0
 43
0.0
 43
0.0
 43
0.0
 43
0.0208333333333333
 43
0.0
 43
0.0
 43
0.0
 43
0.0
 43
1.0
 43
0.0
 43
0.0
 43
0.0
 43
0.0
 43
1.0
 77
     0
 47
0.0208333333333333
 47
0.0
 47
0.0
 47
0.0
 47
0.0
 47
0.0208333333333333
 47
0.0
 47
0.0
 47
0.0
 47
0.0
 47
1.0
 47
0.0
 47
0.0
 47
0.0
 47
0.0
 47
1.0
171
     0
 49
0.0208333333333333
 49
0.0
 49
0.0
 49
0.0
 49
0.0
 49
0.0208333333333333
 49
0.0
 49
0.0
 49
0.0
 49
0.0
 49
1.0
 49
0.0
 49
0.0
 49
0.0
 49
0.0
 49
1.0
175
     0
142
0.0208333333333333
142
0.0
142
0.0
142
0.0
142
0.0
142
0.0208333333333333
142
0.0
142
0.0
142
0.0
142
0.0
142
1.0
142
0.0
142
0.0
142
0.0
142
0.0
142
1.0
179
     0
144
0.0208333333333333
144
0.0
144
0.0
144
0.0
144
0.0
144
0.0208333333333333
144
0.0
144
0.0
144
0.0
144
0.0
144
1.0
144
0.0
144
0.0
144
0.0
144
0.0
144
1.0
147
0.0208333333333333
147
0.0
147
0.0
147
0.0
147
0.0
147
0.0208333333333333
147
0.0
147
0.0
147
0.0
147
0.0
147
1.0
147
0.0
147
0.0
147
0.0
147
0.0
147
1.0
  0
MATERIAL
  5
C780
102
{ACAD_XDICTIONARY
360
C781
102
}
102
{ACAD_REACTORS
330
C77F
102
}
330
C77F
100
AcDbMaterial
  1
ByLayer
 72
     0
 43
0.0208333333333333
 43
0.0
 43
0.0
 43
0.0
 43
0.0
 43
0.0208333333333333
 43
0.0
 43
0.0
 43
0.0
 43
0.0
 43
1.0
 43
0.0
 43
0.0
 43
0.0
 43
0.0
 43
1.0
 77
     0
 47
0.0208333333333333
 47
0.0
 47
0.0
 47
0.0
 47
0.0
 47
0.0208333333333333
 47
0.0
 47
0.0
 47
0.0
 47
0.0
 47
1.0
 47
0.0
 47
0.0
 47
0.0
 47
0.0
 47
1.0
171
     0
 49
0.0208333333333333
 49
0.0
 49
0.0
 49
0.0
 49
0.0
 49
0.0208333333333333
 49
0.0
 49
0.0
 49
0.0
 49
0.0
 49
1.0
 49
0.0
 49
0.0
 49
0.0
 49
0.0
 49
1.0
175
     0
142
0.0208333333333333
142
0.0
142
0.0
142
0.0
142
0.0
142
0.0208333333333333
142
0.0
142
0.0
142
0.0
142
0.0
142
1.0
142
0.0
142
0.0
142
0.0
142
0.0
142
1.0
179
     0
144
0.0208333333333333
144
0.0
144
0.0
144
0.0
144
0.0
144
0.0208333333333333
144
0.0
144
0.0
144
0.0
144
0.0
144
1.0
144
0.0
144
0.0
144
0.0
144
0.0
144
1.0
147
0.0208333333333333
147
0.0
147
0.0
147
0.0
147
0.0
147
0.0208333333333333
147
0.0
147
0.0
147
0.0
147
0.0
147
1.0
147
0.0
147
0.0
147
0.0
147
0.0
147
1.0
  0
MATERIAL
  5
C790
102
{ACAD_XDICTIONARY
360
C791
102
}
102
{ACAD_REACTORS
330
C77F
102
}
330
C77F
100
AcDbMaterial
  1
Global
 72
     0
 43
0.0208333333333333
 43
0.0
 43
0.0
 43
0.0
 43
0.0
 43
0.0208333333333333
 43
0.0
 43
0.0
 43
0.0
 43
0.0
 43
1.0
 43
0.0
 43
0.0
 43
0.0
 43
0.0
 43
1.0
 77
     0
 47
0.0208333333333333
 47
0.0
 47
0.0
 47
0.0
 47
0.0
 47
0.0208333333333333
 47
0.0
 47
0.0
 47
0.0
 47
0.0
 47
1.0
 47
0.0
 47
0.0
 47
0.0
 47
0.0
 47
1.0
171
     0
 49
0.0208333333333333
 49
0.0
 49
0.0
 49
0.0
 49
0.0
 49
0.0208333333333333
 49
0.0
 49
0.0
 49
0.0
 49
0.0
 49
1.0
 49
0.0
 49
0.0
 49
0.0
 49
0.0
 49
1.0
175
     0
142
0.0208333333333333
142
0.0
142
0.0
142
0.0
142
0.0
142
0.0208333333333333
142
0.0
142
0.0
142
0.0
142
0.0
142
1.0
142
0.0
142
0.0
142
0.0
142
0.0
142
1.0
179
     0
144
0.0208333333333333
144
0.0
144
0.0
144
0.0
144
0.0
144
0.0208333333333333
144
0.0
144
0.0
144
0.0
144
0.0
144
1.0
144
0.0
144
0.0
144
0.0
144
0.0
144
1.0
147
0.0208333333333333
147
0.0
147
0.0
147
0.0
147
0.0
147
0.0208333333333333
147
0.0
147
0.0
147
0.0
147
0.0
147
1.0
147
0.0
147
0.0
147
0.0
147
0.0
147
1.0
  0
MLEADERSTYLE
  5
C7C7
102
{ACAD_REACTORS
330
C7C6
102
}
330
C7C6
100
AcDbMLeaderStyle
170
     2
171
     1
172
     0
 90
        2
 40
0.0
 41
0.0
173
     1
 91
-1056964608
340
C540
 92
       -2
290
     1
 42
0.09
291
     1
 43
0.36
  3
Standard
 44
0.18
300

342
C53E
174
     1
178
     6
175
     1
176
     0
 93
-1056964608
 45
0.18
292
     0
297
     0
 46
0.18
 94
-1056964608
 47
1.0
 49
1.0
140
1.0
293
     1
141
0.0
294
     1
177
     0
142
1.0
295
     0
296
     0
143
0.125
1001
ACAD_MLEADERVER
1070
     2
  0
MLINESTYLE
  5
C544
102
{ACAD_REACTORS
330
C543
102
}
330
C543
100
AcDbMlineStyle
  2
STANDARD
 70
     0
  3

 62
   256
 51
90.0
 52
90.0
 71
     2
 49
0.5
 62
   256
  6
BYLAYER
 49
-0.5
 62
   256
  6
BYLAYER
  0
ACDBPLACEHOLDER
  5
C77E
102
{ACAD_REACTORS
330
C77D
102
}
330
C77D
  0
SCALE
  5
C7B5
102
{ACAD_REACTORS
330
C7B4
102
}
330
C7B4
100
AcDbScale
 70
     0
300
1:1
140
1.0
141
1.0
290
     1
  0
SCALE
  5
C7B6
102
{ACAD_REACTORS
330
C7B4
102
}
330
C7B4
100
AcDbScale
 70
     0
300
1/128" = 1'-0"
140
0.0078125
141
12.0
290
     0
  0
SCALE
  5
C7B7
102
{ACAD_REACTORS
330
C7B4
102
}
330
C7B4
100
AcDbScale
 70
     0
300
1/64" = 1'-0"
140
0.015625
141
12.0
290
     0
  0
SCALE
  5
C7B8
102
{ACAD_REACTORS
330
C7B4
102
}
330
C7B4
100
AcDbScale
 70
     0
300
1/32" = 1'-0"
140
0.03125
141
12.0
290
     0
  0
SCALE
  5
C7B9
102
{ACAD_REACTORS
330
C7B4
102
}
330
C7B4
100
AcDbScale
 70
     0
300
1/16" = 1'-0"
140
0.0625
141
12.0
290
     0
  0
SCALE
  5
C7BA
102
{ACAD_REACTORS
330
C7B4
102
}
330
C7B4
100
AcDbScale
 70
     0
300
3/32" = 1'-0"
140
0.09375
141
12.0
290
     0
  0
SCALE
  5
C7BB
102
{ACAD_REACTORS
330
C7B4
102
}
330
C7B4
100
AcDbScale
 70
     0
300
1/8" = 1'-0"
140
0.125
141
12.0
290
     0
  0
SCALE
  5
C7BC
102
{ACAD_REACTORS
330
C7B4
102
}
330
C7B4
100
AcDbScale
 70
     0
300
3/16" = 1'-0"
140
0.1875
141
12.0
290
     0
  0
SCALE
  5
C7BD
102
{ACAD_REACTORS
330
C7B4
102
}
330
C7B4
100
AcDbScale
 70
     0
300
1/4" = 1'-0"
140
0.25
141
12.0
290
     0
  0
SCALE
  5
C7BE
102
{ACAD_REACTORS
330
C7B4
102
}
330
C7B4
100
AcDbScale
 70
     0
300
3/8" = 1'-0"
140
0.375
141
12.0
290
     0
  0
SCALE
  5
C7BF
102
{ACAD_REACTORS
330
C7B4
102
}
330
C7B4
100
AcDbScale
 70
     0
300
1/2" = 1'-0"
140
0.5
141
12.0
290
     0
  0
SCALE
  5
C7C0
102
{ACAD_REACTORS
330
C7B4
102
}
330
C7B4
100
AcDbScale
 70
     0
300
3/4" = 1'-0"
140
0.75
141
12.0
290
     0
  0
SCALE
  5
C7C1
102
{ACAD_REACTORS
330
C7B4
102
}
330
C7B4
100
AcDbScale
 70
     0
300
1" = 1'-0"
140
1.0
141
12.0
290
     0
  0
SCALE
  5
C7C2
102
{ACAD_REACTORS
330
C7B4
102
}
330
C7B4
100
AcDbScale
 70
     0
300
1-1/2" = 1'-0"
140
1.5
141
12.0
290
     0
  0
SCALE
  5
C7C3
102
{ACAD_REACTORS
330
C7B4
102
}
330
C7B4
100
AcDbScale
 70
     0
300
3" = 1'-0"
140
3.0
141
12.0
290
     0
  0
SCALE
  5
C7C4
102
{ACAD_REACTORS
330
C7B4
102
}
330
C7B4
100
AcDbScale
 70
     0
300
6" = 1'-0"
140
6.0
141
12.0
290
     0
  0
SCALE
  5
C7C5
102
{ACAD_REACTORS
330
C7B4
102
}
330
C7B4
100
AcDbScale
 70
     0
300
1'-0" = 1'-0"
140
12.0
141
12.0
290
     0
  0
ACDBSECTIONVIEWSTYLE
  5
C7C9
102
{ACAD_XDICTIONARY
360
C824
102
}
102
{ACAD_REACTORS
330
C7C8
102
}
330
C7C8
100
AcDbModelDocViewStyle
 70
     0
  3
Imperial24
290
     0
100
AcDbSectionViewStyle
 70
     0
 71
     0
 90
       78
 71
     1
340
C53E
 40
0.24
340
0
340
0
 40
0.24
300
I, O, Q, S, X, Z
 40
0.48
 90
        3
 40
0.18
 90
        1
 71
     2
340
C542
 90
       25
340
C542
 90
       50
 40
0.24
 40
0.0
 40
0.24
 71
     3
340
C53E
 40
0.24
 90
        1
 40
0.75
 90
        1
300
%<\AcVar ViewType \f "%tc1">% %<\AcVar ViewSectionStartId>%-%<\AcVar ViewSectionEndId>%\PSCALE %<\AcVar ViewScale \f "%sn">%
 71
     4
300
ANSI31
 40
1.0
 90
        0
290
     0
290
     0
 90
        6
 40
0.0
 40
1.570796326794896
 40
0.2617993877991494
 40
1.308996938995747
 40
-0.2617993877991494
 40
1.832595714594046
  0
TABLESTYLE
  5
C7B3
102
{ACAD_XDICTIONARY
360
C7EB
102
}
102
{ACAD_REACTORS
330
C7B2
102
}
330
C7B2
100
AcDbTableStyle
  3
Standard
 70
     0
 71
     0
 40
0.06
 41
0.06
280
     0
281
     0
  7
STANDARD
140
0.18
170
     2
 62
     0
 63
     7
283
     0
274
    -2
284
     1
 64
     0
275
    -2
285
     1
 65
     0
276
    -2
286
     1
 66
     0
277
    -2
287
     1
 67
     0
278
    -2
288
     1
 68
     0
279
    -2
289
     1
 69
     0
  7
STANDARD
140
0.25
170
     5
 62
     0
 63
     7
283
     0
274
    -2
284
     1
 64
     0
275
    -2
285
     1
 65
     0
276
    -2
286
     1
 66
     0
277
    -2
287
     1
 67
     0
278
    -2
288
     1
 68
     0
279
    -2
289
     1
 69
     0
  7
STANDARD
140
0.18
170
     5
 62
     0
 63
     7
283
     0
274
    -2
284
     1
 64
     0
275
    -2
285
     1
 65
     0
276
    -2
286
     1
 66
     0
277
    -2
287
     1
 67
     0
278
    -2
288
     1
 68
     0
279
    -2
289
     1
 69
     0
  0
VISUALSTYLE
  5
C79E
102
{ACAD_XDICTIONARY
360
C7FC
102
}
102
{ACAD_REACTORS
330
C798
102
}
330
C798
100
AcDbVisualStyle
  2
2dWireframe
 70
     4
 71
     0
 72
     2
 73
     0
 90
        0
 40
-0.6
 41
-30.0
 62
     5
 63
     7
 74
     1
 91
        4
 64
     7
 65
   257
 75
     1
175
     1
 42
1.0
 92
        0
 66
   257
 43
1.0
 76
     1
 77
     6
 78
     2
 67
     7
 79
     5
170
     0
171
     0
290
     0
174
     0
 93
        1
 44
0.0
173
     0
291
     0
 45
0.0
1001
ACAD
1000
AcDbSavedByObjectVersion
1070
     0
  0
VISUALSTYLE
  5
C79D
102
{ACAD_XDICTIONARY
360
C7FA
102
}
102
{ACAD_REACTORS
330
C798
102
}
330
C798
100
AcDbVisualStyle
  2
Basic
 70
     7
 71
     1
 72
     0
 73
     1
 90
        0
 40
-0.6
 41
-30.0
 62
     5
 63
     7
 74
     0
 91
        4
 64
     7
 65
   257
 75
     1
175
     1
 42
1.0
 92
        8
 66
     7
 43
1.0
 76
     1
 77
     6
 78
     2
 67
     7
 79
     5
170
     0
171
     0
290
     0
174
     0
 93
        1
 44
0.0
173
     0
291
     1
 45
0.0
1001
ACAD
1000
AcDbSavedByObjectVersion
1070
     0
  0
VISUALSTYLE
  5
C7A4
102
{ACAD_XDICTIONARY
360
C808
102
}
102
{ACAD_REACTORS
330
C798
102
}
330
C798
100
AcDbVisualStyle
  2
Brighten
 70
    12
 71
     2
 72
     2
 73
     0
 90
        0
 40
-0.6
 41
-30.0
 62
     5
 63
     7
 74
     1
 91
        4
 64
     7
 65
   257
 75
     1
175
     1
 42
1.0
 92
        8
 66
     7
 43
1.0
 76
     1
 77
     6
 78
     2
 67
     7
 79
     5
170
     0
171
     0
290
     0
174
     0
 93
        1
 44
50.0
173
     0
291
     1
 45
0.0
1001
ACAD
1000
AcDbSavedByObjectVersion
1070
     0
  0
VISUALSTYLE
  5
C7A8
102
{ACAD_XDICTIONARY
360
C810
102
}
102
{ACAD_REACTORS
330
C798
102
}
330
C798
100
AcDbVisualStyle
  2
ColorChange
 70
    16
 71
     2
 72
     2
 73
     3
 90
        0
 40
-0.6
 41
-30.0
 62
     5
 63
     8
 74
     1
 91
        4
 64
     7
 65
   257
 75
     1
175
     1
 42
1.0
 92
        8
 66
     8
 43
1.0
 76
     1
 77
     6
 78
     2
 67
     7
 79
     5
170
     0
171
     0
290
     0
174
     0
 93
        1
 44
0.0
173
     0
291
     1
 45
0.0
1001
ACAD
1000
AcDbSavedByObjectVersion
1070
     0
  0
VISUALSTYLE
  5
C7A1
102
{ACAD_XDICTIONARY
360
C802
102
}
102
{ACAD_REACTORS
330
C798
102
}
330
C798
100
AcDbVisualStyle
  2
Conceptual
 70
     9
 71
     3
 72
     2
 73
     0
 90
        0
 40
-0.6
 41
-30.0
 62
     5
 63
     7
 74
     2
 91
        2
 64
     7
 65
   257
 75
     1
175
     1
 42
179.0
 92
        8
 66
     7
 43
1.0
 76
     1
 77
     6
 78
     2
 67
     7
 79
     3
170
     0
171
     0
290
     0
174
     0
 93
        1
 44
0.0
173
     0
291
     0
 45
0.0
1001
ACAD
1000
AcDbSavedByObjectVersion
1070
     0
  0
VISUALSTYLE
  5
C7A3
102
{ACAD_XDICTIONARY
360
C806
102
}
102
{ACAD_REACTORS
330
C798
102
}
330
C798
100
AcDbVisualStyle
  2
Dim
 70
    11
 71
     2
 72
     2
 73
     0
 90
        0
 40
-0.6
 41
-30.0
 62
     5
 63
     7
 74
     1
 91
        4
 64
     7
 65
   257
 75
     1
175
     1
 42
1.0
 92
        8
 66
     7
 43
1.0
 76
     1
 77
     6
 78
     2
 67
     7
 79
     5
170
     0
171
     0
290
     0
174
     0
 93
        1
 44
-50.0
173
     0
291
     1
 45
0.0
1001
ACAD
1000
AcDbSavedByObjectVersion
1070
     0
  0
VISUALSTYLE
  5
C7B0
102
{ACAD_XDICTIONARY
360
C820
102
}
102
{ACAD_REACTORS
330
C798
102
}
330
C798
100
AcDbVisualStyle
  2
EdgeColorOff
 70
    22
 71
     2
 72
     2
 73
     0
 90
        0
 40
-0.6
 41
-30.0
 62
     5
 63
     7
 74
     1
 91
        4
 64
     7
 65
   257
 75
     1
175
     1
 42
1.0
 92
        8
 66
     7
 43
1.0
 76
     1
 77
     6
 78
     2
 67
     7
 79
     5
170
     0
171
     0
290
     0
174
     0
 93
        1
 44
0.0
173
     0
291
     1
 45
0.0
1001
ACAD
1000
AcDbSavedByObjectVersion
1070
     0
  0
VISUALSTYLE
  5
C7A7
102
{ACAD_XDICTIONARY
360
C80E
102
}
102
{ACAD_REACTORS
330
C798
102
}
330
C798
100
AcDbVisualStyle
  2
Facepattern
 70
    15
 71
     2
 72
     2
 73
     0
 90
        0
 40
-0.6
 41
-30.0
 62
     5
 63
     7
 74
     1
 91
        4
 64
     7
 65
   257
 75
     1
175
     1
 42
1.0
 92
        8
 66
     7
 43
1.0
 76
     1
 77
     6
 78
     2
 67
     7
 79
     5
170
     0
171
     0
290
     0
174
     0
 93
        1
 44
0.0
173
     0
291
     1
 45
0.0
1001
ACAD
1000
AcDbSavedByObjectVersion
1070
     0
  0
VISUALSTYLE
  5
C799
102
{ACAD_XDICTIONARY
360
C7F2
102
}
102
{ACAD_REACTORS
330
C798
102
}
330
C798
100
AcDbVisualStyle
  2
Flat
 70
     0
 71
     2
 72
     1
 73
     1
 90
        2
 40
-0.6
 41
30.0
 62
     5
 63
     7
 74
     0
 91
        0
 64
     7
 65
   257
 75
     1
175
     1
 42
1.0
 92
        8
 66
     7
 43
1.0
 76
     1
 77
     6
 78
     2
 67
     7
 79
     5
170
     0
171
     0
290
     0
174
     0
 93
       13
 44
0.0
173
     0
291
     1
 45
0.0
1001
ACAD
1000
AcDbSavedByObjectVersion
1070
     0
  0
VISUALSTYLE
  5
C79A
102
{ACAD_XDICTIONARY
360
C7F4
102
}
102
{ACAD_REACTORS
330
C798
102
}
330
C798
100
AcDbVisualStyle
  2
FlatWithEdges
 70
     1
 71
     2
 72
     1
 73
     1
 90
        2
 40
-0.6
 41
30.0
 62
     5
 63
     7
 74
     1
 91
        0
 64
     7
 65
   257
 75
     1
175
     1
 42
1.0
 92
        0
 66
   257
 43
1.0
 76
     1
 77
     6
 78
     2
 67
     7
 79
     5
170
     0
171
     0
290
     0
174
     0
 93
       13
 44
0.0
173
     0
291
     1
 45
0.0
1001
ACAD
1000
AcDbSavedByObjectVersion
1070
     0
  0
VISUALSTYLE
  5
C79B
102
{ACAD_XDICTIONARY
360
C7F6
102
}
102
{ACAD_REACTORS
330
C798
102
}
330
C798
100
AcDbVisualStyle
  2
Gouraud
 70
     2
 71
     2
 72
     2
 73
     1
 90
        2
 40
-0.6
 41
30.0
 62
     5
 63
     7
 74
     0
 91
        0
 64
     7
 65
   257
 75
     1
175
     1
 42
1.0
 92
        0
 66
     7
 43
1.0
 76
     1
 77
     6
 78
     2
 67
     7
 79
     5
170
     0
171
     0
290
     0
174
     0
 93
       13
 44
0.0
173
     0
291
     1
 45
0.0
1001
ACAD
1000
AcDbSavedByObjectVersion
1070
     0
  0
VISUALSTYLE
  5
C79C
102
{ACAD_XDICTIONARY
360
C7F8
102
}
102
{ACAD_REACTORS
330
C798
102
}
330
C798
100
AcDbVisualStyle
  2
GouraudWithEdges
 70
     3
 71
     2
 72
     2
 73
     1
 90
        2
 40
-0.6
 41
30.0
 62
     5
 63
     7
 74
     1
 91
        0
 64
     7
 65
   257
 75
     1
175
     1
 42
1.0
 92
        0
 66
   257
 43
1.0
 76
     1
 77
     6
 78
     2
 67
     7
 79
     5
170
     0
171
     0
290
     0
174
     0
 93
       13
 44
0.0
173
     0
291
     1
 45
0.0
1001
ACAD
1000
AcDbSavedByObjectVersion
1070
     0
  0
VISUALSTYLE
  5
C7A0
102
{ACAD_XDICTIONARY
360
C800
102
}
102
{ACAD_REACTORS
330
C798
102
}
330
C798
100
AcDbVisualStyle
  2
Hidden
 70
     6
 71
     1
 72
     2
 73
     2
 90
        0
 40
-0.6
 41
-30.0
 62
     5
 63
     7
 74
     2
 91
        2
 64
     7
 65
   257
 75
     2
175
     1
 42
40.0
 92
        0
 66
   257
 43
1.0
 76
     1
 77
     6
 78
     2
 67
     7
 79
     3
170
     0
171
     0
290
     0
174
     0
 93
        1
 44
0.0
173
     0
291
     0
 45
0.0
1001
ACAD
1000
AcDbSavedByObjectVersion
1070
     0
  0
VISUALSTYLE
  5
C7AE
102
{ACAD_XDICTIONARY
360
C81C
102
}
102
{ACAD_REACTORS
330
C798
102
}
330
C798
100
AcDbVisualStyle
  2
JitterOff
 70
    20
 71
     2
 72
     2
 73
     0
 90
        0
 40
-0.6
 41
-30.0
 62
     5
 63
     7
 74
     1
 91
        4
 64
     7
 65
   257
 75
     1
175
     1
 42
1.0
 92
       10
 66
     7
 43
1.0
 76
     1
 77
     6
 78
     2
 67
     7
 79
     5
170
     0
171
     0
290
     0
174
     0
 93
        1
 44
0.0
173
     0
291
     1
 45
0.0
1001
ACAD
1000
AcDbSavedByObjectVersion
1070
     0
  0
VISUALSTYLE
  5
C7A6
102
{ACAD_XDICTIONARY
360
C80C
102
}
102
{ACAD_REACTORS
330
C798
102
}
330
C798
100
AcDbVisualStyle
  2
Linepattern
 70
    14
 71
     2
 72
     2
 73
     0
 90
        0
 40
-0.6
 41
-30.0
 62
     5
 63
     7
 74
     1
 91
        4
 64
     7
 65
   257
 75
     7
175
     7
 42
1.0
 92
        8
 66
     7
 43
1.0
 76
     1
 77
     6
 78
     2
 67
     7
 79
     5
170
     0
171
     0
290
     0
174
     0
 93
        1
 44
0.0
173
     0
291
     1
 45
0.0
1001
ACAD
1000
AcDbSavedByObjectVersion
1070
     0
  0
VISUALSTYLE
  5
C7AF
102
{ACAD_XDICTIONARY
360
C81E
102
}
102
{ACAD_REACTORS
330
C798
102
}
330
C798
100
AcDbVisualStyle
  2
OverhangOff
 70
    21
 71
     2
 72
     2
 73
     0
 90
        0
 40
-0.6
 41
-30.0
 62
     5
 63
     7
 74
     1
 91
        4
 64
     7
 65
   257
 75
     1
175
     1
 42
1.0
 92
        9
 66
     7
 43
1.0
 76
     1
 77
     6
 78
     2
 67
     7
 79
     5
170
     0
171
     0
290
     0
174
     0
 93
        1
 44
0.0
173
     0
291
     1
 45
0.0
1001
ACAD
1000
AcDbSavedByObjectVersion
1070
     0
  0
VISUALSTYLE
  5
C7A2
102
{ACAD_XDICTIONARY
360
C804
102
}
102
{ACAD_REACTORS
330
C798
102
}
330
C798
100
AcDbVisualStyle
  2
Realistic
 70
     8
 71
     2
 72
     3
 73
     0
 90
        2
 40
-0.6
 41
30.0
 62
     5
 63
     7
 74
     0
 91
        0
 64
     7
 65
   257
 75
     1
175
     1
 42
1.0
 92
        8
 66
   257
 43
1.0
 76
     1
 77
     6
 78
     2
 67
     7
 79
     3
170
     0
171
     0
290
     0
174
     0
 93
       13
 44
0.0
173
     0
291
     0
 45
0.0
1001
ACAD
1000
AcDbSavedByObjectVersion
1070
     0
  0
VISUALSTYLE
  5
C7AD
102
{ACAD_XDICTIONARY
360
C81A
102
}
102
{ACAD_REACTORS
330
C798
102
}
330
C798
100
AcDbVisualStyle
  2
Shaded
 70
    27
 71
     2
 72
     2
 73
     1
 90
        2
 40
-0.6
 41
30.0
 62
     5
 63
     7
 74
     0
 91
        4
 64
     7
 65
   257
 75
     1
175
     1
 42
1.0
 92
        8
 66
   257
 43
1.0
 76
     1
 77
     6
 78
     2
 67
     8
 79
     3
170
     0
171
     0
290
     0
174
     0
 93
        5
 44
0.0
173
     0
291
     0
 45
0.0
1001
ACAD
1000
AcDbSavedByObjectVersion
1070
     0
  0
VISUALSTYLE
  5
C7AC
102
{ACAD_XDICTIONARY
360
C818
102
}
102
{ACAD_REACTORS
330
C798
102
}
330
C798
100
AcDbVisualStyle
  2
Shaded with edges
 70
    26
 71
     2
 72
     2
 73
     1
 90
        2
 40
-0.6
 41
30.0
 62
     5
 63
     7
 74
     1
 91
       10
 64
     7
 65
   257
 75
     2
175
     1
 42
1.0
 92
        8
 66
   257
 43
1.0
 76
     1
 77
     6
 78
     2
 67
     7
 79
     3
170
     0
171
     0
290
     0
174
     0
 93
        5
 44
0.0
173
     0
291
     0
 45
0.0
1001
ACAD
1000
AcDbSavedByObjectVersion
1070
     0
  0
VISUALSTYLE
  5
C7A9
102
{ACAD_XDICTIONARY
360
C812
102
}
102
{ACAD_REACTORS
330
C798
102
}
330
C798
100
AcDbVisualStyle
  2
Shades of Gray
 70
    23
 71
     2
 72
     2
 73
     3
 90
        0
 40
-0.6
 41
-30.0
 62
     5
 63
     7
 74
     2
 91
        2
 64
     7
 65
     7
 75
     1
175
     1
 42
40.0
 92
        8
 66
     7
 43
1.0
 76
     1
 77
     6
 78
     2
 67
     7
 79
     3
170
     0
171
     0
290
     0
174
     0
 93
        1
 44
0.0
173
     0
291
     0
 45
0.0
1001
ACAD
1000
AcDbSavedByObjectVersion
1070
     0
  0
VISUALSTYLE
  5
C7AA
102
{ACAD_XDICTIONARY
360
C814
102
}
102
{ACAD_REACTORS
330
C798
102
}
330
C798
100
AcDbVisualStyle
  2
Sketchy
 70
    24
 71
     1
 72
     2
 73
     2
 90
        0
 40
-0.6
 41
-30.0
 62
     5
 63
     7
 74
     2
 91
        2
 64
     7
 65
     7
 75
     1
175
     1
 42
40.0
 92
       11
 66
     7
 43
1.0
 76
     1
 77
     6
 78
     2
 67
     7
 79
     6
170
     0
171
     0
290
     0
174
     0
 93
        1
 44
0.0
173
     0
291
     0
 45
0.0
1001
ACAD
1000
AcDbSavedByObjectVersion
1070
     0
  0
VISUALSTYLE
  5
C7A5
102
{ACAD_XDICTIONARY
360
C80A
102
}
102
{ACAD_REACTORS
330
C798
102
}
330
C798
100
AcDbVisualStyle
  2
Thicken
 70
    13
 71
     2
 72
     2
 73
     0
 90
        0
 40
-0.6
 41
-30.0
 62
     5
 63
     7
 74
     1
 91
        4
 64
     7
 65
   257
 75
     1
175
     1
 42
1.0
 92
       12
 66
     7
 43
1.0
 76
     1
 77
     6
 78
     2
 67
     7
 79
     5
170
     0
171
     0
290
     0
174
     0
 93
        1
 44
0.0
173
     0
291
     1
 45
0.0
1001
ACAD
1000
AcDbSavedByObjectVersion
1070
     0
  0
VISUALSTYLE
  5
C79F
102
{ACAD_XDICTIONARY
360
C7FE
102
}
102
{ACAD_REACTORS
330
C798
102
}
330
C798
100
AcDbVisualStyle
  2
Wireframe
 70
     5
 71
     0
 72
     2
 73
     0
 90
        0
 40
-0.6
 41
-30.0
 62
     5
 63
     7
 74
     1
 91
        4
 64
     7
 65
   257
 75
     1
175
     1
 42
1.0
 92
        0
 66
   257
 43
1.0
 76
     1
 77
     6
 78
     2
 67
     7
 79
     3
170
     0
171
     0
290
     0
174
     0
 93
        1
 44
0.0
173
     0
291
     0
 45
0.0
1001
ACAD
1000
AcDbSavedByObjectVersion
1070
     0
  0
VISUALSTYLE
  5
C7AB
102
{ACAD_XDICTIONARY
360
C816
102
}
102
{ACAD_REACTORS
330
C798
102
}
330
C798
100
AcDbVisualStyle
  2
X-Ray
 70
    25
 71
     2
 72
     2
 73
     1
 90
        1
 40
0.5
 41
-30.0
 62
     5
 63
     7
 74
     1
 91
        0
 64
     7
 65
   257
 75
     1
175
     1
 42
1.0
 92
        8
 66
     7
 43
1.0
 76
     1
 77
     6
 78
     2
 67
     7
 79
     3
170
     0
171
     0
290
     0
174
     0
 93
       13
 44
0.0
173
     0
291
     0
 45
0.0
1001
ACAD
1000
AcDbSavedByObjectVersion
1070
     0
  0
DICTIONARYVAR
  5
C7E5
102
{ACAD_REACTORS
330
C7E0
102
}
330
C7E0
100
DictionaryVariables
280
     0
  1
1:1
  0
DICTIONARYVAR
  5
C7E2
102
{ACAD_REACTORS
330
C7E0
102
}
330
C7E0
100
DictionaryVariables
280
     0
  1
STANDARD
  0
DICTIONARYVAR
  5
C7E1
102
{ACAD_REACTORS
330
C7E0
102
}
330
C7E0
100
DictionaryVariables
280
     0
  1
STANDARD
  0
DICTIONARYVAR
  5
C7E3
102
{ACAD_REACTORS
330
C7E0
102
}
330
C7E0
100
DictionaryVariables
280
     0
  1
Imperial24
  0
DICTIONARYVAR
  5
C7E4
102
{ACAD_REACTORS
330
C7E0
102
}
330
C7E0
100
DictionaryVariables
280
     0
  1
Imperial24
  0
DICTIONARYVAR
  5
C7E8
102
{ACAD_REACTORS
330
C7E0
102
}
330
C7E0
100
DictionaryVariables
280
     0
  1
1
  0
DICTIONARYVAR
  5
C7E7
102
{ACAD_REACTORS
330
C7E0
102
}
330
C7E0
100
DictionaryVariables
280
     0
  1
0
  0
DICTIONARYVAR
  5
C7E6
102
{ACAD_REACTORS
330
C7E0
102
}
330
C7E0
100
DictionaryVariables
280
     0
  1
127
  0
DICTIONARYVAR
  5
C7E9
102
{ACAD_REACTORS
330
C7E0
102
}
330
C7E0
100
DictionaryVariables
280
     0
  1
2
  0
DICTIONARY
  5
C826
330
C7CB
100
AcDbDictionary
280
     1
281
     1
  3
ACAD_XREC_ROUNDTRIP
360
C827
  0
DICTIONARY
  5
C828
330
C7CC
100
AcDbDictionary
280
     1
281
     1
  3
ACAD_XREC_ROUNDTRIP
360
C829
  0
DICTIONARY
  5
C82A
330
C7CD
100
AcDbDictionary
280
     1
281
     1
  3
ACAD_XREC_ROUNDTRIP
360
C82B
  0
DICTIONARY
  5
C789
330
C788
100
AcDbDictionary
280
     1
281
     1
  3
ACAD_XREC_ROUNDTRIP
360
C7F0
  3
BUMPTILE
360
C78B
  3
DIFFUSETILE
360
C78A
  3
OPACITYTILE
360
C78E
  3
REFLECTIONTILE
360
C78D
  3
REFRACTIONTILE
360
C78F
  3
SPECULARTILE
360
C78C
  0
DICTIONARY
  5
C781
330
C780
100
AcDbDictionary
280
     1
281
     1
  3
ACAD_XREC_ROUNDTRIP
360
C7EF
  3
BUMPTILE
360
C783
  3
DIFFUSETILE
360
C782
  3
OPACITYTILE
360
C786
  3
REFLECTIONTILE
360
C785
  3
REFRACTIONTILE
360
C787
  3
SPECULARTILE
360
C784
  0
DICTIONARY
  5
C791
330
C790
100
AcDbDictionary
280
     1
281
     1
  3
ACAD_XREC_ROUNDTRIP
360
C7F1
  3
BUMPTILE
360
C793
  3
DIFFUSETILE
360
C792
  3
OPACITYTILE
360
C796
  3
REFLECTIONTILE
360
C795
  3
REFRACTIONTILE
360
C797
  3
SPECULARTILE
360
C794
  0
DICTIONARY
  5
C824
330
C7C9
100
AcDbDictionary
280
     1
281
     1
  3
ACAD_XREC_ROUNDTRIP
360
C825
  0
DICTIONARY
  5
C7EB
330
C7B3
100
AcDbDictionary
280
     1
281
     1
  3
ACAD_ROUNDTRIP_2008_TABLESTYLE_CELLSTYLEMAP
360
C7EC
  3
ACAD_XREC_ROUNDTRIP
360
C822
  0
DICTIONARY
  5
C7FC
330
C79E
100
AcDbDictionary
280
     1
281
     1
  3
ACAD_XREC_ROUNDTRIP
360
C7FD
  0
DICTIONARY
  5
C7FA
330
C79D
100
AcDbDictionary
280
     1
281
     1
  3
ACAD_XREC_ROUNDTRIP
360
C7FB
  0
DICTIONARY
  5
C808
330
C7A4
100
AcDbDictionary
280
     1
281
     1
  3
ACAD_XREC_ROUNDTRIP
360
C809
  0
DICTIONARY
  5
C810
330
C7A8
100
AcDbDictionary
280
     1
281
     1
  3
ACAD_XREC_ROUNDTRIP
360
C811
  0
DICTIONARY
  5
C802
330
C7A1
100
AcDbDictionary
280
     1
281
     1
  3
ACAD_XREC_ROUNDTRIP
360
C803
  0
DICTIONARY
  5
C806
330
C7A3
100
AcDbDictionary
280
     1
281
     1
  3
ACAD_XREC_ROUNDTRIP
360
C807
  0
DICTIONARY
  5
C820
330
C7B0
100
AcDbDictionary
280
     1
281
     1
  3
ACAD_XREC_ROUNDTRIP
360
C821
  0
DICTIONARY
  5
C80E
330
C7A7
100
AcDbDictionary
280
     1
281
     1
  3
ACAD_XREC_ROUNDTRIP
360
C80F
  0
DICTIONARY
  5
C7F2
330
C799
100
AcDbDictionary
280
     1
281
     1
  3
ACAD_XREC_ROUNDTRIP
360
C7F3
  0
DICTIONARY
  5
C7F4
330
C79A
100
AcDbDictionary
280
     1
281
     1
  3
ACAD_XREC_ROUNDTRIP
360
C7F5
  0
DICTIONARY
  5
C7F6
330
C79B
100
AcDbDictionary
280
     1
281
     1
  3
ACAD_XREC_ROUNDTRIP
360
C7F7
  0
DICTIONARY
  5
C7F8
330
C79C
100
AcDbDictionary
280
     1
281
     1
  3
ACAD_XREC_ROUNDTRIP
360
C7F9
  0
DICTIONARY
  5
C800
330
C7A0
100
AcDbDictionary
280
     1
281
     1
  3
ACAD_XREC_ROUNDTRIP
360
C801
  0
DICTIONARY
  5
C81C
330
C7AE
100
AcDbDictionary
280
     1
281
     1
  3
ACAD_XREC_ROUNDTRIP
360
C81D
  0
DICTIONARY
  5
C80C
330
C7A6
100
AcDbDictionary
280
     1
281
     1
  3
ACAD_XREC_ROUNDTRIP
360
C80D
  0
DICTIONARY
  5
C81E
330
C7AF
100
AcDbDictionary
280
     1
281
     1
  3
ACAD_XREC_ROUNDTRIP
360
C81F
  0
DICTIONARY
  5
C804
330
C7A2
100
AcDbDictionary
280
     1
281
     1
  3
ACAD_XREC_ROUNDTRIP
360
C805
  0
DICTIONARY
  5
C81A
330
C7AD
100
AcDbDictionary
280
     1
281
     1
  3
ACAD_XREC_ROUNDTRIP
360
C81B
  0
DICTIONARY
  5
C818
330
C7AC
100
AcDbDictionary
280
     1
281
     1
  3
ACAD_XREC_ROUNDTRIP
360
C819
  0
DICTIONARY
  5
C812
330
C7A9
100
AcDbDictionary
280
     1
281
     1
  3
ACAD_XREC_ROUNDTRIP
360
C813
  0
DICTIONARY
  5
C814
330
C7AA
100
AcDbDictionary
280
     1
281
     1
  3
ACAD_XREC_ROUNDTRIP
360
C815
  0
DICTIONARY
  5
C80A
330
C7A5
100
AcDbDictionary
280
     1
281
     1
  3
ACAD_XREC_ROUNDTRIP
360
C80B
  0
DICTIONARY
  5
C7FE
330
C79F
100
AcDbDictionary
280
     1
281
     1
  3
ACAD_XREC_ROUNDTRIP
360
C7FF
  0
DICTIONARY
  5
C816
330
C7AB
100
AcDbDictionary
280
     1
281
     1
  3
ACAD_XREC_ROUNDTRIP
360
C817
  0
XRECORD
  5
C827
102
{ACAD_REACTORS
330
C826
102
}
330
C826
100
AcDbXrecord
280
     1
102
DISPLAYNAME
  1
Imperial24
102
FLAGS
 90
        0
  0
XRECORD
  5
C829
102
{ACAD_REACTORS
330
C828
102
}
330
C828
100
AcDbXrecord
280
     1
102
SHADEPLOT
 70
     0
102
SHADEPLOTRESLEVEL
 70
     2
102
SHADEPLOTCUSTOMDPI
 70
   300
  0
XRECORD
  5
C82B
102
{ACAD_REACTORS
330
C82A
102
}
330
C82A
100
AcDbXrecord
280
     1
102
SHADEPLOT
 70
     0
102
SHADEPLOTRESLEVEL
 70
     2
102
SHADEPLOTCUSTOMDPI
 70
   300
  0
XRECORD
  5
C7F0
102
{ACAD_REACTORS
330
C789
102
}
330
C789
100
AcDbXrecord
280
     1
102
MATERIAL
148
0.0
149
0.0
149
0.0
 93
        0
 94
      127
282
     0
 72
     0
 77
     0
171
     0
175
     0
179
     0
273
     0
  0
XRECORD
  5
C78B
102
{ACAD_REACTORS
330
C789
102
}
330
C789
100
AcDbXrecord
280
     1
270
     1
271
     1
  0
XRECORD
  5
C78A
102
{ACAD_REACTORS
330
C789
102
}
330
C789
100
AcDbXrecord
280
     1
270
     1
271
     1
  0
XRECORD
  5
C78E
102
{ACAD_REACTORS
330
C789
102
}
330
C789
100
AcDbXrecord
280
     1
270
     1
271
     1
  0
XRECORD
  5
C78D
102
{ACAD_REACTORS
330
C789
102
}
330
C789
100
AcDbXrecord
280
     1
270
     1
271
     1
  0
XRECORD
  5
C78F
102
{ACAD_REACTORS
330
C789
102
}
330
C789
100
AcDbXrecord
280
     1
270
     1
271
     1
  0
XRECORD
  5
C78C
102
{ACAD_REACTORS
330
C789
102
}
330
C789
100
AcDbXrecord
280
     1
270
     1
271
     1
  0
XRECORD
  5
C7EF
102
{ACAD_REACTORS
330
C781
102
}
330
C781
100
AcDbXrecord
280
     1
102
MATERIAL
148
0.0
149
0.0
149
0.0
 93
        0
 94
      127
282
     0
 72
     0
 77
     0
171
     0
175
     0
179
     0
273
     0
  0
XRECORD
  5
C783
102
{ACAD_REACTORS
330
C781
102
}
330
C781
100
AcDbXrecord
280
     1
270
     1
271
     1
  0
XRECORD
  5
C782
102
{ACAD_REACTORS
330
C781
102
}
330
C781
100
AcDbXrecord
280
     1
270
     1
271
     1
  0
XRECORD
  5
C786
102
{ACAD_REACTORS
330
C781
102
}
330
C781
100
AcDbXrecord
280
     1
270
     1
271
     1
  0
XRECORD
  5
C785
102
{ACAD_REACTORS
330
C781
102
}
330
C781
100
AcDbXrecord
280
     1
270
     1
271
     1
  0
XRECORD
  5
C787
102
{ACAD_REACTORS
330
C781
102
}
330
C781
100
AcDbXrecord
280
     1
270
     1
271
     1
  0
XRECORD
  5
C784
102
{ACAD_REACTORS
330
C781
102
}
330
C781
100
AcDbXrecord
280
     1
270
     1
271
     1
  0
XRECORD
  5
C7F1
102
{ACAD_REACTORS
330
C791
102
}
330
C791
100
AcDbXrecord
280
     1
102
MATERIAL
148
0.0
149
0.0
149
0.0
 93
        0
 94
      127
282
     0
 72
     0
 77
     0
171
     0
175
     0
179
     0
273
     0
  0
XRECORD
  5
C793
102
{ACAD_REACTORS
330
C791
102
}
330
C791
100
AcDbXrecord
280
     1
270
     1
271
     1
  0
XRECORD
  5
C792
102
{ACAD_REACTORS
330
C791
102
}
330
C791
100
AcDbXrecord
280
     1
270
     1
271
     1
  0
XRECORD
  5
C796
102
{ACAD_REACTORS
330
C791
102
}
330
C791
100
AcDbXrecord
280
     1
270
     1
271
     1
  0
XRECORD
  5
C795
102
{ACAD_REACTORS
330
C791
102
}
330
C791
100
AcDbXrecord
280
     1
270
     1
271
     1
  0
XRECORD
  5
C797
102
{ACAD_REACTORS
330
C791
102
}
330
C791
100
AcDbXrecord
280
     1
270
     1
271
     1
  0
XRECORD
  5
C794
102
{ACAD_REACTORS
330
C791
102
}
330
C791
100
AcDbXrecord
280
     1
270
     1
271
     1
  0
XRECORD
  5
C825
102
{ACAD_REACTORS
330
C824
102
}
330
C824
100
AcDbXrecord
280
     1
102
DISPLAYNAME
  1
Imperial24
102
FLAGS
 90
        0
  0
CELLSTYLEMAP
  5
C7EC
102
{ACAD_REACTORS
330
C7EB
102
}
330
C7EB
100
AcDbCellStyleMap
 90
        3
300
CELLSTYLE
  1
TABLEFORMAT_BEGIN
 90
        5
170
     1
 91
        0
 92
    32768
 62
   257
 93
        1
300
CONTENTFORMAT
  1
CONTENTFORMAT_BEGIN
 90
        0
 91
        0
 92
      512
 93
        0
300

 40
0.0
140
1.0
 94
        5
 62
     0
340
C53E
144
0.25
309
CONTENTFORMAT_END
171
     0
 94
        0
309
TABLEFORMAT_END
  1
CELLSTYLE_BEGIN
 90
        1
 91
        1
300
_TITLE
309
CELLSTYLE_END
300
CELLSTYLE
  1
TABLEFORMAT_BEGIN
 90
        5
170
     1
 91
        0
 92
        0
 62
   257
 93
        1
300
CONTENTFORMAT
  1
CONTENTFORMAT_BEGIN
 90
        0
 91
        0
 92
      512
 93
        0
300

 40
0.0
140
1.0
 94
        5
 62
     0
340
C53E
144
0.18
309
CONTENTFORMAT_END
171
     0
 94
        0
309
TABLEFORMAT_END
  1
CELLSTYLE_BEGIN
 90
        2
 91
        1
300
_HEADER
309
CELLSTYLE_END
300
CELLSTYLE
  1
TABLEFORMAT_BEGIN
 90
        5
170
     1
 91
        0
 92
        0
 62
   257
 93
        1
300
CONTENTFORMAT
  1
CONTENTFORMAT_BEGIN
 90
        0
 91
        0
 92
      512
 93
        0
300

 40
0.0
140
1.0
 94
        2
 62
     0
340
C53E
144
0.18
309
CONTENTFORMAT_END
171
     0
 94
        0
309
TABLEFORMAT_END
  1
CELLSTYLE_BEGIN
 90
        3
 91
        2
300
_DATA
309
CELLSTYLE_END
  0
XRECORD
  5
C822
102
{ACAD_REACTORS
330
C7EB
102
}
330
C7EB
100
AcDbXrecord
280
     1
102
ACAD_ROUNDTRIP_PRE2007_TABLESTYLE
 90
      512
 91
        0
  1

 92
      512
 93
        0
  2

 94
      512
 95
        0
  3

  0
XRECORD
  5
C7FD
102
{ACAD_REACTORS
330
C7FC
102
}
330
C7FC
100
AcDbXrecord
280
     1
102
RTVSPost2010Prop28
280
     1
102
RTVSPost2010PropOp28
 70
     1
102
RTVSPost2010Prop29
280
     1
102
RTVSPost2010PropOp29
 70
     1
102
RTVSPost2010Prop30
280
     0
102
RTVSPost2010PropOp30
 70
     1
102
RTVSPost2010Prop31
280
     0
102
RTVSPost2010PropOp31
 70
     1
102
RTVSPost2010Prop32
280
     0
102
RTVSPost2010PropOp32
 70
     1
102
RTVSPost2010Prop33
280
     0
102
RTVSPost2010PropOp33
 70
     1
102
RTVSPost2010Prop34
280
     0
102
RTVSPost2010PropOp34
 70
     1
102
RTVSPost2010Prop35
280
     0
102
RTVSPost2010PropOp35
 70
     1
102
RTVSPost2010Prop36
280
     0
102
RTVSPost2010PropOp36
 70
     1
102
RTVSPost2010Prop37
 90
       50
102
RTVSPost2010PropOp37
 70
     1
102
RTVSPost2010Prop38
140
0.0
102
RTVSPost2010PropOp38
 70
     1
102
RTVSPost2010Prop39
140
1.0
102
RTVSPost2010PropOp39
 70
     1
102
RTVSPost2010Prop40
 90
        0
102
RTVSPost2010PropOp40
 70
     1
102
RTVSPost2010Prop41ColorIndex
 90
       18
102
RTVSPost2010Prop41ColorRGB
 90
        0
102
RTVSPost2010PropOp41
 70
     1
102
RTVSPost2010Prop42
 90
       50
102
RTVSPost2010PropOp42
 70
     1
102
RTVSPost2010Prop43
 90
        3
102
RTVSPost2010PropOp43
 70
     1
102
RTVSPost2010Prop44ColorIndex
 90
        5
102
RTVSPost2010Prop44ColorRGB
 90
      255
102
RTVSPost2010PropOp44
 70
     1
102
RTVSPost2010Prop45
280
     0
102
RTVSPost2010PropOp45
 70
     1
102
RTVSPost2010Prop46
 90
       50
102
RTVSPost2010PropOp46
 70
     1
102
RTVSPost2010Prop47
 90
       50
102
RTVSPost2010PropOp47
 70
     1
102
RTVSPost2010Prop48
 90
       50
102
RTVSPost2010PropOp48
 70
     1
102
RTVSPost2010Prop49
280
     0
102
RTVSPost2010PropOp49
 70
     1
102
RTVSPost2010Prop50
 90
       50
102
RTVSPost2010PropOp50
 70
     1
102
RTVSPost2010Prop51ColorIndex
 90
      256
102
RTVSPost2010Prop51ColorRGB
 90
-16777216
102
RTVSPost2010PropOp51
 70
     0
102
RTVSPost2010Prop52
140
1.0
102
RTVSPost2010PropOp52
 70
     0
102
RTVSPost2010Prop53
 90
        2
102
RTVSPost2010PropOp53
 70
     1
102
RTVSPost2010Prop54
  1
strokes_ogs.tif
102
RTVSPost2010PropOp54
 70
     1
102
RTVSPost2010Prop55
280
     0
102
RTVSPost2010PropOp55
 70
     1
102
RTVSPost2010Prop56
140
1.0
102
RTVSPost2010PropOp56
 70
     1
102
RTVSPost2010Prop57
140
1.0
102
RTVSPost2010PropOp57
 70
     1
102
RTVSPropertyOp0
 70
     1
102
RTVSPropertyOp1
 70
     1
102
RTVSPropertyOp2
 70
     1
102
RTVSPropertyOp3
 70
     1
102
RTVSPropertyOp4
 70
     1
102
RTVSPropertyOp5
 70
     1
102
RTVSPropertyOp6
 70
     1
102
RTVSPropertyOp7
 70
     1
102
RTVSPropertyOp8
 70
     1
102
RTVSPropertyOp9
 70
     1
102
RTVSPropertyOp10
 70
     1
102
RTVSPropertyOp11
 70
     1
102
RTVSPropertyOp12
 70
     1
102
RTVSPropertyOp13
 70
     1
102
RTVSPropertyOp14
 70
     1
102
RTVSPropertyOp15
 70
     1
102
RTVSPropertyOp16
 70
     1
102
RTVSPropertyOp17
 70
     1
102
RTVSPropertyOp18
 70
     1
102
RTVSPropertyOp19
 70
     1
102
RTVSPropertyOp20
 70
     1
102
RTVSPropertyOp21
 70
     1
102
RTVSPropertyOp22
 70
     1
102
RTVSPropertyOp23
 70
     1
102
RTVSPropertyOp24
 70
     1
102
RTVSPropertyOp25
 70
     1
102
RTVSPropertyOp26
 70
     1
102
RTVSPropertyOp27
 70
     1
102
RTVSPropertyOp28
 70
     1
102
RTVSPropertyOp29
 70
     1
102
RTVSPropertyOp30
 70
     1
102
RTVSPropertyOp31
 70
     1
102
RTVSPropertyOp32
 70
     1
102
RTVSPropertyOp33
 70
     1
102
RTVSPropertyOp34
 70
     1
102
RTVSPropertyOp35
 70
     1
102
RTVSPropertyOp36
 70
     1
102
RTVSPropertyOp37
 70
     1
102
RTVSPropertyOp38
 70
     1
102
RTVSPropertyOp39
 70
     1
102
RTVSPropertyOp40
 70
     1
102
RTVSPropertyOp41
 70
     1
102
RTVSPropertyOp42
 70
     1
102
RTVSPropertyOp43
 70
     1
102
RTVSPropertyOp44
 70
     1
102
RTVSPropertyOp45
 70
     1
102
RTVSPropertyOp46
 70
     1
102
RTVSPropertyOp47
 70
     1
102
RTVSPropertyOp48
 70
     1
102
RTVSPropertyOp49
 70
     1
102
RTVSPropertyOp50
 70
     1
102
RTVSPropertyOp51
 70
     0
102
RTVSPropertyOp52
 70
     0
102
RTVSPropertyOp53
 70
     1
102
RTVSPropertyOp54
 70
     1
102
RTVSPropertyOp55
 70
     1
102
RTVSPropertyOp56
 70
     1
102
RTVSPropertyOp57
 70
     1
102
RTVSPropertyOp58
 70
     1
102
RTVSPropertyOp59
 70
     1
102
RTVSPropertyOp60
 70
     1
102
RTVSPropertyOp61
 70
     1
102
RTVSPropertyOp62
 70
     1
  0
XRECORD
  5
C7FB
102
{ACAD_REACTORS
330
C7FA
102
}
330
C7FA
100
AcDbXrecord
280
     1
102
RTVSPost2010Prop28
280
     0
102
RTVSPost2010PropOp28
 70
     1
102
RTVSPost2010Prop29
280
     1
102
RTVSPost2010PropOp29
 70
     1
102
RTVSPost2010Prop30
280
     1
102
RTVSPost2010PropOp30
 70
     1
102
RTVSPost2010Prop31
280
     0
102
RTVSPost2010PropOp31
 70
     1
102
RTVSPost2010Prop32
280
     0
102
RTVSPost2010PropOp32
 70
     1
102
RTVSPost2010Prop33
280
     0
102
RTVSPost2010PropOp33
 70
     1
102
RTVSPost2010Prop34
280
     0
102
RTVSPost2010PropOp34
 70
     1
102
RTVSPost2010Prop35
280
     0
102
RTVSPost2010PropOp35
 70
     1
102
RTVSPost2010Prop36
280
     0
102
RTVSPost2010PropOp36
 70
     1
102
RTVSPost2010Prop37
 90
       50
102
RTVSPost2010PropOp37
 70
     1
102
RTVSPost2010Prop38
140
0.0
102
RTVSPost2010PropOp38
 70
     1
102
RTVSPost2010Prop39
140
1.0
102
RTVSPost2010PropOp39
 70
     1
102
RTVSPost2010Prop40
 90
        0
102
RTVSPost2010PropOp40
 70
     1
102
RTVSPost2010Prop41ColorIndex
 90
       18
102
RTVSPost2010Prop41ColorRGB
 90
        0
102
RTVSPost2010PropOp41
 70
     1
102
RTVSPost2010Prop42
 90
       50
102
RTVSPost2010PropOp42
 70
     1
102
RTVSPost2010Prop43
 90
        3
102
RTVSPost2010PropOp43
 70
     1
102
RTVSPost2010Prop44ColorIndex
 90
        5
102
RTVSPost2010Prop44ColorRGB
 90
      255
102
RTVSPost2010PropOp44
 70
     1
102
RTVSPost2010Prop45
280
     0
102
RTVSPost2010PropOp45
 70
     1
102
RTVSPost2010Prop46
 90
       50
102
RTVSPost2010PropOp46
 70
     1
102
RTVSPost2010Prop47
 90
       50
102
RTVSPost2010PropOp47
 70
     1
102
RTVSPost2010Prop48
 90
       50
102
RTVSPost2010PropOp48
 70
     1
102
RTVSPost2010Prop49
280
     0
102
RTVSPost2010PropOp49
 70
     1
102
RTVSPost2010Prop50
 90
       50
102
RTVSPost2010PropOp50
 70
     1
102
RTVSPost2010Prop51ColorIndex
 90
      256
102
RTVSPost2010Prop51ColorRGB
 90
-16777216
102
RTVSPost2010PropOp51
 70
     0
102
RTVSPost2010Prop52
140
1.0
102
RTVSPost2010PropOp52
 70
     0
102
RTVSPost2010Prop53
 90
        2
102
RTVSPost2010PropOp53
 70
     1
102
RTVSPost2010Prop54
  1
strokes_ogs.tif
102
RTVSPost2010PropOp54
 70
     1
102
RTVSPost2010Prop55
280
     0
102
RTVSPost2010PropOp55
 70
     1
102
RTVSPost2010Prop56
140
1.0
102
RTVSPost2010PropOp56
 70
     1
102
RTVSPost2010Prop57
140
1.0
102
RTVSPost2010PropOp57
 70
     1
102
RTVSPropertyOp0
 70
     1
102
RTVSPropertyOp1
 70
     1
102
RTVSPropertyOp2
 70
     1
102
RTVSPropertyOp3
 70
     1
102
RTVSPropertyOp4
 70
     1
102
RTVSPropertyOp5
 70
     1
102
RTVSPropertyOp6
 70
     1
102
RTVSPropertyOp7
 70
     1
102
RTVSPropertyOp8
 70
     1
102
RTVSPropertyOp9
 70
     1
102
RTVSPropertyOp10
 70
     1
102
RTVSPropertyOp11
 70
     1
102
RTVSPropertyOp12
 70
     1
102
RTVSPropertyOp13
 70
     1
102
RTVSPropertyOp14
 70
     1
102
RTVSPropertyOp15
 70
     1
102
RTVSPropertyOp16
 70
     1
102
RTVSPropertyOp17
 70
     1
102
RTVSPropertyOp18
 70
     1
102
RTVSPropertyOp19
 70
     1
102
RTVSPropertyOp20
 70
     1
102
RTVSPropertyOp21
 70
     1
102
RTVSPropertyOp22
 70
     1
102
RTVSPropertyOp23
 70
     1
102
RTVSPropertyOp24
 70
     1
102
RTVSPropertyOp25
 70
     1
102
RTVSPropertyOp26
 70
     1
102
RTVSPropertyOp27
 70
     1
102
RTVSPropertyOp28
 70
     1
102
RTVSPropertyOp29
 70
     1
102
RTVSPropertyOp30
 70
     1
102
RTVSPropertyOp31
 70
     1
102
RTVSPropertyOp32
 70
     1
102
RTVSPropertyOp33
 70
     1
102
RTVSPropertyOp34
 70
     1
102
RTVSPropertyOp35
 70
     1
102
RTVSPropertyOp36
 70
     1
102
RTVSPropertyOp37
 70
     1
102
RTVSPropertyOp38
 70
     1
102
RTVSPropertyOp39
 70
     1
102
RTVSPropertyOp40
 70
     1
102
RTVSPropertyOp41
 70
     1
102
RTVSPropertyOp42
 70
     1
102
RTVSPropertyOp43
 70
     1
102
RTVSPropertyOp44
 70
     1
102
RTVSPropertyOp45
 70
     1
102
RTVSPropertyOp46
 70
     1
102
RTVSPropertyOp47
 70
     1
102
RTVSPropertyOp48
 70
     1
102
RTVSPropertyOp49
 70
     1
102
RTVSPropertyOp50
 70
     1
102
RTVSPropertyOp51
 70
     0
102
RTVSPropertyOp52
 70
     0
102
RTVSPropertyOp53
 70
     1
102
RTVSPropertyOp54
 70
     1
102
RTVSPropertyOp55
 70
     1
102
RTVSPropertyOp56
 70
     1
102
RTVSPropertyOp57
 70
     1
102
RTVSPropertyOp58
 70
     1
102
RTVSPropertyOp59
 70
     1
102
RTVSPropertyOp60
 70
     1
102
RTVSPropertyOp61
 70
     1
102
RTVSPropertyOp62
 70
     1
  0
XRECORD
  5
C809
102
{ACAD_REACTORS
330
C808
102
}
330
C808
100
AcDbXrecord
280
     1
102
RTVSPost2010Prop28
280
     0
102
RTVSPost2010PropOp28
 70
     1
102
RTVSPost2010Prop29
280
     1
102
RTVSPost2010PropOp29
 70
     1
102
RTVSPost2010Prop30
280
     1
102
RTVSPost2010PropOp30
 70
     1
102
RTVSPost2010Prop31
280
     0
102
RTVSPost2010PropOp31
 70
     1
102
RTVSPost2010Prop32
280
     0
102
RTVSPost2010PropOp32
 70
     1
102
RTVSPost2010Prop33
280
     0
102
RTVSPost2010PropOp33
 70
     1
102
RTVSPost2010Prop34
280
     0
102
RTVSPost2010PropOp34
 70
     1
102
RTVSPost2010Prop35
280
     0
102
RTVSPost2010PropOp35
 70
     1
102
RTVSPost2010Prop36
280
     0
102
RTVSPost2010PropOp36
 70
     1
102
RTVSPost2010Prop37
 90
       50
102
RTVSPost2010PropOp37
 70
     1
102
RTVSPost2010Prop38
140
0.0
102
RTVSPost2010PropOp38
 70
     1
102
RTVSPost2010Prop39
140
1.0
102
RTVSPost2010PropOp39
 70
     1
102
RTVSPost2010Prop40
 90
        0
102
RTVSPost2010PropOp40
 70
     1
102
RTVSPost2010Prop41ColorIndex
 90
       18
102
RTVSPost2010Prop41ColorRGB
 90
        0
102
RTVSPost2010PropOp41
 70
     1
102
RTVSPost2010Prop42
 90
       50
102
RTVSPost2010PropOp42
 70
     1
102
RTVSPost2010Prop43
 90
        3
102
RTVSPost2010PropOp43
 70
     1
102
RTVSPost2010Prop44ColorIndex
 90
        5
102
RTVSPost2010Prop44ColorRGB
 90
      255
102
RTVSPost2010PropOp44
 70
     1
102
RTVSPost2010Prop45
280
     0
102
RTVSPost2010PropOp45
 70
     1
102
RTVSPost2010Prop46
 90
       50
102
RTVSPost2010PropOp46
 70
     1
102
RTVSPost2010Prop47
 90
       50
102
RTVSPost2010PropOp47
 70
     1
102
RTVSPost2010Prop48
 90
       50
102
RTVSPost2010PropOp48
 70
     1
102
RTVSPost2010Prop49
280
     0
102
RTVSPost2010PropOp49
 70
     1
102
RTVSPost2010Prop50
 90
       50
102
RTVSPost2010PropOp50
 70
     1
102
RTVSPost2010Prop51ColorIndex
 90
      256
102
RTVSPost2010Prop51ColorRGB
 90
-16777216
102
RTVSPost2010PropOp51
 70
     0
102
RTVSPost2010Prop52
140
1.0
102
RTVSPost2010PropOp52
 70
     0
102
RTVSPost2010Prop53
 90
        2
102
RTVSPost2010PropOp53
 70
     1
102
RTVSPost2010Prop54
  1
strokes_ogs.tif
102
RTVSPost2010PropOp54
 70
     1
102
RTVSPost2010Prop55
280
     0
102
RTVSPost2010PropOp55
 70
     1
102
RTVSPost2010Prop56
140
1.0
102
RTVSPost2010PropOp56
 70
     1
102
RTVSPost2010Prop57
140
1.0
102
RTVSPost2010PropOp57
 70
     1
102
RTVSPropertyOp0
 70
     1
102
RTVSPropertyOp1
 70
     1
102
RTVSPropertyOp2
 70
     1
102
RTVSPropertyOp3
 70
     1
102
RTVSPropertyOp4
 70
     1
102
RTVSPropertyOp5
 70
     1
102
RTVSPropertyOp6
 70
     1
102
RTVSPropertyOp7
 70
     1
102
RTVSPropertyOp8
 70
     1
102
RTVSPropertyOp9
 70
     1
102
RTVSPropertyOp10
 70
     1
102
RTVSPropertyOp11
 70
     1
102
RTVSPropertyOp12
 70
     1
102
RTVSPropertyOp13
 70
     1
102
RTVSPropertyOp14
 70
     1
102
RTVSPropertyOp15
 70
     1
102
RTVSPropertyOp16
 70
     1
102
RTVSPropertyOp17
 70
     1
102
RTVSPropertyOp18
 70
     1
102
RTVSPropertyOp19
 70
     1
102
RTVSPropertyOp20
 70
     1
102
RTVSPropertyOp21
 70
     1
102
RTVSPropertyOp22
 70
     1
102
RTVSPropertyOp23
 70
     1
102
RTVSPropertyOp24
 70
     1
102
RTVSPropertyOp25
 70
     1
102
RTVSPropertyOp26
 70
     1
102
RTVSPropertyOp27
 70
     1
102
RTVSPropertyOp28
 70
     1
102
RTVSPropertyOp29
 70
     1
102
RTVSPropertyOp30
 70
     1
102
RTVSPropertyOp31
 70
     1
102
RTVSPropertyOp32
 70
     1
102
RTVSPropertyOp33
 70
     1
102
RTVSPropertyOp34
 70
     1
102
RTVSPropertyOp35
 70
     1
102
RTVSPropertyOp36
 70
     1
102
RTVSPropertyOp37
 70
     1
102
RTVSPropertyOp38
 70
     1
102
RTVSPropertyOp39
 70
     1
102
RTVSPropertyOp40
 70
     1
102
RTVSPropertyOp41
 70
     1
102
RTVSPropertyOp42
 70
     1
102
RTVSPropertyOp43
 70
     1
102
RTVSPropertyOp44
 70
     1
102
RTVSPropertyOp45
 70
     1
102
RTVSPropertyOp46
 70
     1
102
RTVSPropertyOp47
 70
     1
102
RTVSPropertyOp48
 70
     1
102
RTVSPropertyOp49
 70
     1
102
RTVSPropertyOp50
 70
     1
102
RTVSPropertyOp51
 70
     0
102
RTVSPropertyOp52
 70
     0
102
RTVSPropertyOp53
 70
     1
102
RTVSPropertyOp54
 70
     1
102
RTVSPropertyOp55
 70
     1
102
RTVSPropertyOp56
 70
     1
102
RTVSPropertyOp57
 70
     1
102
RTVSPropertyOp58
 70
     1
102
RTVSPropertyOp59
 70
     1
102
RTVSPropertyOp60
 70
     1
102
RTVSPropertyOp61
 70
     1
102
RTVSPropertyOp62
 70
     1
  0
XRECORD
  5
C811
102
{ACAD_REACTORS
330
C810
102
}
330
C810
100
AcDbXrecord
280
     1
102
RTVSPost2010Prop28
280
     0
102
RTVSPost2010PropOp28
 70
     1
102
RTVSPost2010Prop29
280
     1
102
RTVSPost2010PropOp29
 70
     1
102
RTVSPost2010Prop30
280
     1
102
RTVSPost2010PropOp30
 70
     1
102
RTVSPost2010Prop31
280
     0
102
RTVSPost2010PropOp31
 70
     1
102
RTVSPost2010Prop32
280
     0
102
RTVSPost2010PropOp32
 70
     1
102
RTVSPost2010Prop33
280
     0
102
RTVSPost2010PropOp33
 70
     1
102
RTVSPost2010Prop34
280
     0
102
RTVSPost2010PropOp34
 70
     1
102
RTVSPost2010Prop35
280
     0
102
RTVSPost2010PropOp35
 70
     1
102
RTVSPost2010Prop36
280
     0
102
RTVSPost2010PropOp36
 70
     1
102
RTVSPost2010Prop37
 90
       50
102
RTVSPost2010PropOp37
 70
     1
102
RTVSPost2010Prop38
140
0.0
102
RTVSPost2010PropOp38
 70
     1
102
RTVSPost2010Prop39
140
1.0
102
RTVSPost2010PropOp39
 70
     1
102
RTVSPost2010Prop40
 90
        0
102
RTVSPost2010PropOp40
 70
     1
102
RTVSPost2010Prop41ColorIndex
 90
       18
102
RTVSPost2010Prop41ColorRGB
 90
        0
102
RTVSPost2010PropOp41
 70
     1
102
RTVSPost2010Prop42
 90
       50
102
RTVSPost2010PropOp42
 70
     1
102
RTVSPost2010Prop43
 90
        3
102
RTVSPost2010PropOp43
 70
     1
102
RTVSPost2010Prop44ColorIndex
 90
        5
102
RTVSPost2010Prop44ColorRGB
 90
      255
102
RTVSPost2010PropOp44
 70
     1
102
RTVSPost2010Prop45
280
     0
102
RTVSPost2010PropOp45
 70
     1
102
RTVSPost2010Prop46
 90
       50
102
RTVSPost2010PropOp46
 70
     1
102
RTVSPost2010Prop47
 90
       50
102
RTVSPost2010PropOp47
 70
     1
102
RTVSPost2010Prop48
 90
       50
102
RTVSPost2010PropOp48
 70
     1
102
RTVSPost2010Prop49
280
     0
102
RTVSPost2010PropOp49
 70
     1
102
RTVSPost2010Prop50
 90
       50
102
RTVSPost2010PropOp50
 70
     1
102
RTVSPost2010Prop51ColorIndex
 90
      256
102
RTVSPost2010Prop51ColorRGB
 90
-16777216
102
RTVSPost2010PropOp51
 70
     0
102
RTVSPost2010Prop52
140
1.0
102
RTVSPost2010PropOp52
 70
     0
102
RTVSPost2010Prop53
 90
        2
102
RTVSPost2010PropOp53
 70
     1
102
RTVSPost2010Prop54
  1
strokes_ogs.tif
102
RTVSPost2010PropOp54
 70
     1
102
RTVSPost2010Prop55
280
     0
102
RTVSPost2010PropOp55
 70
     1
102
RTVSPost2010Prop56
140
1.0
102
RTVSPost2010PropOp56
 70
     1
102
RTVSPost2010Prop57
140
1.0
102
RTVSPost2010PropOp57
 70
     1
102
RTVSPropertyOp0
 70
     1
102
RTVSPropertyOp1
 70
     1
102
RTVSPropertyOp2
 70
     1
102
RTVSPropertyOp3
 70
     1
102
RTVSPropertyOp4
 70
     1
102
RTVSPropertyOp5
 70
     1
102
RTVSPropertyOp6
 70
     1
102
RTVSPropertyOp7
 70
     1
102
RTVSPropertyOp8
 70
     1
102
RTVSPropertyOp9
 70
     1
102
RTVSPropertyOp10
 70
     1
102
RTVSPropertyOp11
 70
     1
102
RTVSPropertyOp12
 70
     1
102
RTVSPropertyOp13
 70
     1
102
RTVSPropertyOp14
 70
     1
102
RTVSPropertyOp15
 70
     1
102
RTVSPropertyOp16
 70
     1
102
RTVSPropertyOp17
 70
     1
102
RTVSPropertyOp18
 70
     1
102
RTVSPropertyOp19
 70
     1
102
RTVSPropertyOp20
 70
     1
102
RTVSPropertyOp21
 70
     1
102
RTVSPropertyOp22
 70
     1
102
RTVSPropertyOp23
 70
     1
102
RTVSPropertyOp24
 70
     1
102
RTVSPropertyOp25
 70
     1
102
RTVSPropertyOp26
 70
     1
102
RTVSPropertyOp27
 70
     1
102
RTVSPropertyOp28
 70
     1
102
RTVSPropertyOp29
 70
     1
102
RTVSPropertyOp30
 70
     1
102
RTVSPropertyOp31
 70
     1
102
RTVSPropertyOp32
 70
     1
102
RTVSPropertyOp33
 70
     1
102
RTVSPropertyOp34
 70
     1
102
RTVSPropertyOp35
 70
     1
102
RTVSPropertyOp36
 70
     1
102
RTVSPropertyOp37
 70
     1
102
RTVSPropertyOp38
 70
     1
102
RTVSPropertyOp39
 70
     1
102
RTVSPropertyOp40
 70
     1
102
RTVSPropertyOp41
 70
     1
102
RTVSPropertyOp42
 70
     1
102
RTVSPropertyOp43
 70
     1
102
RTVSPropertyOp44
 70
     1
102
RTVSPropertyOp45
 70
     1
102
RTVSPropertyOp46
 70
     1
102
RTVSPropertyOp47
 70
     1
102
RTVSPropertyOp48
 70
     1
102
RTVSPropertyOp49
 70
     1
102
RTVSPropertyOp50
 70
     1
102
RTVSPropertyOp51
 70
     0
102
RTVSPropertyOp52
 70
     0
102
RTVSPropertyOp53
 70
     1
102
RTVSPropertyOp54
 70
     1
102
RTVSPropertyOp55
 70
     1
102
RTVSPropertyOp56
 70
     1
102
RTVSPropertyOp57
 70
     1
102
RTVSPropertyOp58
 70
     1
102
RTVSPropertyOp59
 70
     1
102
RTVSPropertyOp60
 70
     1
102
RTVSPropertyOp61
 70
     1
102
RTVSPropertyOp62
 70
     1
  0
XRECORD
  5
C803
102
{ACAD_REACTORS
330
C802
102
}
330
C802
100
AcDbXrecord
280
     1
102
RTVSPost2010Prop28
280
     0
102
RTVSPost2010PropOp28
 70
     1
102
RTVSPost2010Prop29
280
     1
102
RTVSPost2010PropOp29
 70
     1
102
RTVSPost2010Prop30
280
     1
102
RTVSPost2010PropOp30
 70
     1
102
RTVSPost2010Prop31
280
     0
102
RTVSPost2010PropOp31
 70
     1
102
RTVSPost2010Prop32
280
     0
102
RTVSPost2010PropOp32
 70
     1
102
RTVSPost2010Prop33
280
     0
102
RTVSPost2010PropOp33
 70
     1
102
RTVSPost2010Prop34
280
     0
102
RTVSPost2010PropOp34
 70
     1
102
RTVSPost2010Prop35
280
     0
102
RTVSPost2010PropOp35
 70
     1
102
RTVSPost2010Prop36
280
     0
102
RTVSPost2010PropOp36
 70
     1
102
RTVSPost2010Prop37
 90
       50
102
RTVSPost2010PropOp37
 70
     1
102
RTVSPost2010Prop38
140
0.0
102
RTVSPost2010PropOp38
 70
     1
102
RTVSPost2010Prop39
140
1.0
102
RTVSPost2010PropOp39
 70
     1
102
RTVSPost2010Prop40
 90
        0
102
RTVSPost2010PropOp40
 70
     1
102
RTVSPost2010Prop41ColorIndex
 90
       18
102
RTVSPost2010Prop41ColorRGB
 90
        0
102
RTVSPost2010PropOp41
 70
     1
102
RTVSPost2010Prop42
 90
       50
102
RTVSPost2010PropOp42
 70
     1
102
RTVSPost2010Prop43
 90
        3
102
RTVSPost2010PropOp43
 70
     1
102
RTVSPost2010Prop44ColorIndex
 90
        5
102
RTVSPost2010Prop44ColorRGB
 90
      255
102
RTVSPost2010PropOp44
 70
     1
102
RTVSPost2010Prop45
280
     0
102
RTVSPost2010PropOp45
 70
     1
102
RTVSPost2010Prop46
 90
       50
102
RTVSPost2010PropOp46
 70
     1
102
RTVSPost2010Prop47
 90
       50
102
RTVSPost2010PropOp47
 70
     1
102
RTVSPost2010Prop48
 90
       50
102
RTVSPost2010PropOp48
 70
     1
102
RTVSPost2010Prop49
280
     0
102
RTVSPost2010PropOp49
 70
     1
102
RTVSPost2010Prop50
 90
       50
102
RTVSPost2010PropOp50
 70
     1
102
RTVSPost2010Prop51ColorIndex
 90
      256
102
RTVSPost2010Prop51ColorRGB
 90
-16777216
102
RTVSPost2010PropOp51
 70
     0
102
RTVSPost2010Prop52
140
1.0
102
RTVSPost2010PropOp52
 70
     0
102
RTVSPost2010Prop53
 90
        2
102
RTVSPost2010PropOp53
 70
     1
102
RTVSPost2010Prop54
  1
strokes_ogs.tif
102
RTVSPost2010PropOp54
 70
     1
102
RTVSPost2010Prop55
280
     0
102
RTVSPost2010PropOp55
 70
     1
102
RTVSPost2010Prop56
140
1.0
102
RTVSPost2010PropOp56
 70
     1
102
RTVSPost2010Prop57
140
1.0
102
RTVSPost2010PropOp57
 70
     1
102
RTVSPropertyOp0
 70
     1
102
RTVSPropertyOp1
 70
     1
102
RTVSPropertyOp2
 70
     1
102
RTVSPropertyOp3
 70
     1
102
RTVSPropertyOp4
 70
     1
102
RTVSPropertyOp5
 70
     1
102
RTVSPropertyOp6
 70
     1
102
RTVSPropertyOp7
 70
     1
102
RTVSPropertyOp8
 70
     1
102
RTVSPropertyOp9
 70
     1
102
RTVSPropertyOp10
 70
     1
102
RTVSPropertyOp11
 70
     1
102
RTVSPropertyOp12
 70
     1
102
RTVSPropertyOp13
 70
     1
102
RTVSPropertyOp14
 70
     1
102
RTVSPropertyOp15
 70
     1
102
RTVSPropertyOp16
 70
     1
102
RTVSPropertyOp17
 70
     1
102
RTVSPropertyOp18
 70
     1
102
RTVSPropertyOp19
 70
     1
102
RTVSPropertyOp20
 70
     1
102
RTVSPropertyOp21
 70
     1
102
RTVSPropertyOp22
 70
     1
102
RTVSPropertyOp23
 70
     1
102
RTVSPropertyOp24
 70
     1
102
RTVSPropertyOp25
 70
     1
102
RTVSPropertyOp26
 70
     1
102
RTVSPropertyOp27
 70
     1
102
RTVSPropertyOp28
 70
     1
102
RTVSPropertyOp29
 70
     1
102
RTVSPropertyOp30
 70
     1
102
RTVSPropertyOp31
 70
     1
102
RTVSPropertyOp32
 70
     1
102
RTVSPropertyOp33
 70
     1
102
RTVSPropertyOp34
 70
     1
102
RTVSPropertyOp35
 70
     1
102
RTVSPropertyOp36
 70
     1
102
RTVSPropertyOp37
 70
     1
102
RTVSPropertyOp38
 70
     1
102
RTVSPropertyOp39
 70
     1
102
RTVSPropertyOp40
 70
     1
102
RTVSPropertyOp41
 70
     1
102
RTVSPropertyOp42
 70
     1
102
RTVSPropertyOp43
 70
     1
102
RTVSPropertyOp44
 70
     1
102
RTVSPropertyOp45
 70
     1
102
RTVSPropertyOp46
 70
     1
102
RTVSPropertyOp47
 70
     1
102
RTVSPropertyOp48
 70
     1
102
RTVSPropertyOp49
 70
     1
102
RTVSPropertyOp50
 70
     1
102
RTVSPropertyOp51
 70
     0
102
RTVSPropertyOp52
 70
     0
102
RTVSPropertyOp53
 70
     1
102
RTVSPropertyOp54
 70
     1
102
RTVSPropertyOp55
 70
     1
102
RTVSPropertyOp56
 70
     1
102
RTVSPropertyOp57
 70
     1
102
RTVSPropertyOp58
 70
     1
102
RTVSPropertyOp59
 70
     1
102
RTVSPropertyOp60
 70
     1
102
RTVSPropertyOp61
 70
     1
102
RTVSPropertyOp62
 70
     1
  0
XRECORD
  5
C807
102
{ACAD_REACTORS
330
C806
102
}
330
C806
100
AcDbXrecord
280
     1
102
RTVSPost2010Prop28
280
     0
102
RTVSPost2010PropOp28
 70
     1
102
RTVSPost2010Prop29
280
     1
102
RTVSPost2010PropOp29
 70
     1
102
RTVSPost2010Prop30
280
     1
102
RTVSPost2010PropOp30
 70
     1
102
RTVSPost2010Prop31
280
     0
102
RTVSPost2010PropOp31
 70
     1
102
RTVSPost2010Prop32
280
     0
102
RTVSPost2010PropOp32
 70
     1
102
RTVSPost2010Prop33
280
     0
102
RTVSPost2010PropOp33
 70
     1
102
RTVSPost2010Prop34
280
     0
102
RTVSPost2010PropOp34
 70
     1
102
RTVSPost2010Prop35
280
     0
102
RTVSPost2010PropOp35
 70
     1
102
RTVSPost2010Prop36
280
     0
102
RTVSPost2010PropOp36
 70
     1
102
RTVSPost2010Prop37
 90
       50
102
RTVSPost2010PropOp37
 70
     1
102
RTVSPost2010Prop38
140
0.0
102
RTVSPost2010PropOp38
 70
     1
102
RTVSPost2010Prop39
140
1.0
102
RTVSPost2010PropOp39
 70
     1
102
RTVSPost2010Prop40
 90
        0
102
RTVSPost2010PropOp40
 70
     1
102
RTVSPost2010Prop41ColorIndex
 90
       18
102
RTVSPost2010Prop41ColorRGB
 90
        0
102
RTVSPost2010PropOp41
 70
     1
102
RTVSPost2010Prop42
 90
       50
102
RTVSPost2010PropOp42
 70
     1
102
RTVSPost2010Prop43
 90
        3
102
RTVSPost2010PropOp43
 70
     1
102
RTVSPost2010Prop44ColorIndex
 90
        5
102
RTVSPost2010Prop44ColorRGB
 90
      255
102
RTVSPost2010PropOp44
 70
     1
102
RTVSPost2010Prop45
280
     0
102
RTVSPost2010PropOp45
 70
     1
102
RTVSPost2010Prop46
 90
       50
102
RTVSPost2010PropOp46
 70
     1
102
RTVSPost2010Prop47
 90
       50
102
RTVSPost2010PropOp47
 70
     1
102
RTVSPost2010Prop48
 90
       50
102
RTVSPost2010PropOp48
 70
     1
102
RTVSPost2010Prop49
280
     0
102
RTVSPost2010PropOp49
 70
     1
102
RTVSPost2010Prop50
 90
       50
102
RTVSPost2010PropOp50
 70
     1
102
RTVSPost2010Prop51ColorIndex
 90
      256
102
RTVSPost2010Prop51ColorRGB
 90
-16777216
102
RTVSPost2010PropOp51
 70
     0
102
RTVSPost2010Prop52
140
1.0
102
RTVSPost2010PropOp52
 70
     0
102
RTVSPost2010Prop53
 90
        2
102
RTVSPost2010PropOp53
 70
     1
102
RTVSPost2010Prop54
  1
strokes_ogs.tif
102
RTVSPost2010PropOp54
 70
     1
102
RTVSPost2010Prop55
280
     0
102
RTVSPost2010PropOp55
 70
     1
102
RTVSPost2010Prop56
140
1.0
102
RTVSPost2010PropOp56
 70
     1
102
RTVSPost2010Prop57
140
1.0
102
RTVSPost2010PropOp57
 70
     1
102
RTVSPropertyOp0
 70
     1
102
RTVSPropertyOp1
 70
     1
102
RTVSPropertyOp2
 70
     1
102
RTVSPropertyOp3
 70
     1
102
RTVSPropertyOp4
 70
     1
102
RTVSPropertyOp5
 70
     1
102
RTVSPropertyOp6
 70
     1
102
RTVSPropertyOp7
 70
     1
102
RTVSPropertyOp8
 70
     1
102
RTVSPropertyOp9
 70
     1
102
RTVSPropertyOp10
 70
     1
102
RTVSPropertyOp11
 70
     1
102
RTVSPropertyOp12
 70
     1
102
RTVSPropertyOp13
 70
     1
102
RTVSPropertyOp14
 70
     1
102
RTVSPropertyOp15
 70
     1
102
RTVSPropertyOp16
 70
     1
102
RTVSPropertyOp17
 70
     1
102
RTVSPropertyOp18
 70
     1
102
RTVSPropertyOp19
 70
     1
102
RTVSPropertyOp20
 70
     1
102
RTVSPropertyOp21
 70
     1
102
RTVSPropertyOp22
 70
     1
102
RTVSPropertyOp23
 70
     1
102
RTVSPropertyOp24
 70
     1
102
RTVSPropertyOp25
 70
     1
102
RTVSPropertyOp26
 70
     1
102
RTVSPropertyOp27
 70
     1
102
RTVSPropertyOp28
 70
     1
102
RTVSPropertyOp29
 70
     1
102
RTVSPropertyOp30
 70
     1
102
RTVSPropertyOp31
 70
     1
102
RTVSPropertyOp32
 70
     1
102
RTVSPropertyOp33
 70
     1
102
RTVSPropertyOp34
 70
     1
102
RTVSPropertyOp35
 70
     1
102
RTVSPropertyOp36
 70
     1
102
RTVSPropertyOp37
 70
     1
102
RTVSPropertyOp38
 70
     1
102
RTVSPropertyOp39
 70
     1
102
RTVSPropertyOp40
 70
     1
102
RTVSPropertyOp41
 70
     1
102
RTVSPropertyOp42
 70
     1
102
RTVSPropertyOp43
 70
     1
102
RTVSPropertyOp44
 70
     1
102
RTVSPropertyOp45
 70
     1
102
RTVSPropertyOp46
 70
     1
102
RTVSPropertyOp47
 70
     1
102
RTVSPropertyOp48
 70
     1
102
RTVSPropertyOp49
 70
     1
102
RTVSPropertyOp50
 70
     1
102
RTVSPropertyOp51
 70
     0
102
RTVSPropertyOp52
 70
     0
102
RTVSPropertyOp53
 70
     1
102
RTVSPropertyOp54
 70
     1
102
RTVSPropertyOp55
 70
     1
102
RTVSPropertyOp56
 70
     1
102
RTVSPropertyOp57
 70
     1
102
RTVSPropertyOp58
 70
     1
102
RTVSPropertyOp59
 70
     1
102
RTVSPropertyOp60
 70
     1
102
RTVSPropertyOp61
 70
     1
102
RTVSPropertyOp62
 70
     1
  0
XRECORD
  5
C821
102
{ACAD_REACTORS
330
C820
102
}
330
C820
100
AcDbXrecord
280
     1
102
RTVSPost2010Prop28
280
     0
102
RTVSPost2010PropOp28
 70
     1
102
RTVSPost2010Prop29
280
     1
102
RTVSPost2010PropOp29
 70
     1
102
RTVSPost2010Prop30
280
     1
102
RTVSPost2010PropOp30
 70
     1
102
RTVSPost2010Prop31
280
     0
102
RTVSPost2010PropOp31
 70
     1
102
RTVSPost2010Prop32
280
     0
102
RTVSPost2010PropOp32
 70
     1
102
RTVSPost2010Prop33
280
     0
102
RTVSPost2010PropOp33
 70
     1
102
RTVSPost2010Prop34
280
     0
102
RTVSPost2010PropOp34
 70
     1
102
RTVSPost2010Prop35
280
     0
102
RTVSPost2010PropOp35
 70
     1
102
RTVSPost2010Prop36
280
     0
102
RTVSPost2010PropOp36
 70
     1
102
RTVSPost2010Prop37
 90
       50
102
RTVSPost2010PropOp37
 70
     0
102
RTVSPost2010Prop38
140
0.0
102
RTVSPost2010PropOp38
 70
     0
102
RTVSPost2010Prop39
140
1.0
102
RTVSPost2010PropOp39
 70
     0
102
RTVSPost2010Prop40
 90
        0
102
RTVSPost2010PropOp40
 70
     0
102
RTVSPost2010Prop41ColorIndex
 90
       18
102
RTVSPost2010Prop41ColorRGB
 90
        0
102
RTVSPost2010PropOp41
 70
     0
102
RTVSPost2010Prop42
 90
       50
102
RTVSPost2010PropOp42
 70
     0
102
RTVSPost2010Prop43
 90
        3
102
RTVSPost2010PropOp43
 70
     0
102
RTVSPost2010Prop44ColorIndex
 90
        5
102
RTVSPost2010Prop44ColorRGB
 90
      255
102
RTVSPost2010PropOp44
 70
     0
102
RTVSPost2010Prop45
280
     0
102
RTVSPost2010PropOp45
 70
     1
102
RTVSPost2010Prop46
 90
       50
102
RTVSPost2010PropOp46
 70
     0
102
RTVSPost2010Prop47
 90
       50
102
RTVSPost2010PropOp47
 70
     0
102
RTVSPost2010Prop48
 90
       50
102
RTVSPost2010PropOp48
 70
     0
102
RTVSPost2010Prop49
280
     0
102
RTVSPost2010PropOp49
 70
     1
102
RTVSPost2010Prop50
 90
       50
102
RTVSPost2010PropOp50
 70
     0
102
RTVSPost2010Prop51ColorIndex
 90
      256
102
RTVSPost2010Prop51ColorRGB
 90
-16777216
102
RTVSPost2010PropOp51
 70
     0
102
RTVSPost2010Prop52
140
1.0
102
RTVSPost2010PropOp52
 70
     0
102
RTVSPost2010Prop53
 90
        2
102
RTVSPost2010PropOp53
 70
     0
102
RTVSPost2010Prop54
  1
strokes_ogs.tif
102
RTVSPost2010PropOp54
 70
     0
102
RTVSPost2010Prop55
280
     0
102
RTVSPost2010PropOp55
 70
     1
102
RTVSPost2010Prop56
140
1.0
102
RTVSPost2010PropOp56
 70
     0
102
RTVSPost2010Prop57
140
1.0
102
RTVSPost2010PropOp57
 70
     0
102
RTVSPropertyOp0
 70
     0
102
RTVSPropertyOp1
 70
     0
102
RTVSPropertyOp2
 70
     0
102
RTVSPropertyOp3
 70
     0
102
RTVSPropertyOp4
 70
     0
102
RTVSPropertyOp5
 70
     0
102
RTVSPropertyOp6
 70
     0
102
RTVSPropertyOp7
 70
     0
102
RTVSPropertyOp8
 70
     0
102
RTVSPropertyOp9
 70
     0
102
RTVSPropertyOp10
 70
     0
102
RTVSPropertyOp11
 70
     0
102
RTVSPropertyOp12
 70
     0
102
RTVSPropertyOp13
 70
     0
102
RTVSPropertyOp14
 70
     2
102
RTVSPropertyOp15
 70
     0
102
RTVSPropertyOp16
 70
     0
102
RTVSPropertyOp17
 70
     0
102
RTVSPropertyOp18
 70
     0
102
RTVSPropertyOp19
 70
     0
102
RTVSPropertyOp20
 70
     0
102
RTVSPropertyOp21
 70
     0
102
RTVSPropertyOp22
 70
     0
102
RTVSPropertyOp23
 70
     0
102
RTVSPropertyOp24
 70
     0
102
RTVSPropertyOp25
 70
     0
102
RTVSPropertyOp26
 70
     0
102
RTVSPropertyOp27
 70
     0
102
RTVSPropertyOp28
 70
     1
102
RTVSPropertyOp29
 70
     1
102
RTVSPropertyOp30
 70
     1
102
RTVSPropertyOp31
 70
     1
102
RTVSPropertyOp32
 70
     1
102
RTVSPropertyOp33
 70
     1
102
RTVSPropertyOp34
 70
     1
102
RTVSPropertyOp35
 70
     1
102
RTVSPropertyOp36
 70
     1
102
RTVSPropertyOp37
 70
     0
102
RTVSPropertyOp38
 70
     0
102
RTVSPropertyOp39
 70
     0
102
RTVSPropertyOp40
 70
     0
102
RTVSPropertyOp41
 70
     0
102
RTVSPropertyOp42
 70
     0
102
RTVSPropertyOp43
 70
     0
102
RTVSPropertyOp44
 70
     0
102
RTVSPropertyOp45
 70
     1
102
RTVSPropertyOp46
 70
     0
102
RTVSPropertyOp47
 70
     0
102
RTVSPropertyOp48
 70
     0
102
RTVSPropertyOp49
 70
     1
102
RTVSPropertyOp50
 70
     0
102
RTVSPropertyOp51
 70
     0
102
RTVSPropertyOp52
 70
     0
102
RTVSPropertyOp53
 70
     0
102
RTVSPropertyOp54
 70
     0
102
RTVSPropertyOp55
 70
     1
102
RTVSPropertyOp56
 70
     0
102
RTVSPropertyOp57
 70
     0
102
RTVSPropertyOp58
 70
     0
102
RTVSPropertyOp59
 70
     0
102
RTVSPropertyOp60
 70
     0
102
RTVSPropertyOp61
 70
     0
102
RTVSPropertyOp62
 70
     0
  0
XRECORD
  5
C80F
102
{ACAD_REACTORS
330
C80E
102
}
330
C80E
100
AcDbXrecord
280
     1
102
RTVSPost2010Prop28
280
     0
102
RTVSPost2010PropOp28
 70
     1
102
RTVSPost2010Prop29
280
     1
102
RTVSPost2010PropOp29
 70
     1
102
RTVSPost2010Prop30
280
     1
102
RTVSPost2010PropOp30
 70
     1
102
RTVSPost2010Prop31
280
     0
102
RTVSPost2010PropOp31
 70
     1
102
RTVSPost2010Prop32
280
     0
102
RTVSPost2010PropOp32
 70
     1
102
RTVSPost2010Prop33
280
     0
102
RTVSPost2010PropOp33
 70
     1
102
RTVSPost2010Prop34
280
     0
102
RTVSPost2010PropOp34
 70
     1
102
RTVSPost2010Prop35
280
     0
102
RTVSPost2010PropOp35
 70
     1
102
RTVSPost2010Prop36
280
     0
102
RTVSPost2010PropOp36
 70
     1
102
RTVSPost2010Prop37
 90
       50
102
RTVSPost2010PropOp37
 70
     1
102
RTVSPost2010Prop38
140
0.0
102
RTVSPost2010PropOp38
 70
     1
102
RTVSPost2010Prop39
140
1.0
102
RTVSPost2010PropOp39
 70
     1
102
RTVSPost2010Prop40
 90
        0
102
RTVSPost2010PropOp40
 70
     1
102
RTVSPost2010Prop41ColorIndex
 90
       18
102
RTVSPost2010Prop41ColorRGB
 90
        0
102
RTVSPost2010PropOp41
 70
     1
102
RTVSPost2010Prop42
 90
       50
102
RTVSPost2010PropOp42
 70
     1
102
RTVSPost2010Prop43
 90
        3
102
RTVSPost2010PropOp43
 70
     1
102
RTVSPost2010Prop44ColorIndex
 90
        5
102
RTVSPost2010Prop44ColorRGB
 90
      255
102
RTVSPost2010PropOp44
 70
     1
102
RTVSPost2010Prop45
280
     0
102
RTVSPost2010PropOp45
 70
     1
102
RTVSPost2010Prop46
 90
       50
102
RTVSPost2010PropOp46
 70
     1
102
RTVSPost2010Prop47
 90
       50
102
RTVSPost2010PropOp47
 70
     1
102
RTVSPost2010Prop48
 90
       50
102
RTVSPost2010PropOp48
 70
     1
102
RTVSPost2010Prop49
280
     0
102
RTVSPost2010PropOp49
 70
     1
102
RTVSPost2010Prop50
 90
       50
102
RTVSPost2010PropOp50
 70
     1
102
RTVSPost2010Prop51ColorIndex
 90
      256
102
RTVSPost2010Prop51ColorRGB
 90
-16777216
102
RTVSPost2010PropOp51
 70
     0
102
RTVSPost2010Prop52
140
1.0
102
RTVSPost2010PropOp52
 70
     0
102
RTVSPost2010Prop53
 90
        2
102
RTVSPost2010PropOp53
 70
     1
102
RTVSPost2010Prop54
  1
strokes_ogs.tif
102
RTVSPost2010PropOp54
 70
     1
102
RTVSPost2010Prop55
280
     0
102
RTVSPost2010PropOp55
 70
     1
102
RTVSPost2010Prop56
140
1.0
102
RTVSPost2010PropOp56
 70
     1
102
RTVSPost2010Prop57
140
1.0
102
RTVSPost2010PropOp57
 70
     1
102
RTVSPropertyOp0
 70
     1
102
RTVSPropertyOp1
 70
     1
102
RTVSPropertyOp2
 70
     1
102
RTVSPropertyOp3
 70
     1
102
RTVSPropertyOp4
 70
     1
102
RTVSPropertyOp5
 70
     1
102
RTVSPropertyOp6
 70
     1
102
RTVSPropertyOp7
 70
     1
102
RTVSPropertyOp8
 70
     1
102
RTVSPropertyOp9
 70
     1
102
RTVSPropertyOp10
 70
     1
102
RTVSPropertyOp11
 70
     1
102
RTVSPropertyOp12
 70
     1
102
RTVSPropertyOp13
 70
     1
102
RTVSPropertyOp14
 70
     1
102
RTVSPropertyOp15
 70
     1
102
RTVSPropertyOp16
 70
     1
102
RTVSPropertyOp17
 70
     1
102
RTVSPropertyOp18
 70
     1
102
RTVSPropertyOp19
 70
     1
102
RTVSPropertyOp20
 70
     1
102
RTVSPropertyOp21
 70
     1
102
RTVSPropertyOp22
 70
     1
102
RTVSPropertyOp23
 70
     1
102
RTVSPropertyOp24
 70
     1
102
RTVSPropertyOp25
 70
     1
102
RTVSPropertyOp26
 70
     1
102
RTVSPropertyOp27
 70
     1
102
RTVSPropertyOp28
 70
     1
102
RTVSPropertyOp29
 70
     1
102
RTVSPropertyOp30
 70
     1
102
RTVSPropertyOp31
 70
     1
102
RTVSPropertyOp32
 70
     1
102
RTVSPropertyOp33
 70
     1
102
RTVSPropertyOp34
 70
     1
102
RTVSPropertyOp35
 70
     1
102
RTVSPropertyOp36
 70
     1
102
RTVSPropertyOp37
 70
     1
102
RTVSPropertyOp38
 70
     1
102
RTVSPropertyOp39
 70
     1
102
RTVSPropertyOp40
 70
     1
102
RTVSPropertyOp41
 70
     1
102
RTVSPropertyOp42
 70
     1
102
RTVSPropertyOp43
 70
     1
102
RTVSPropertyOp44
 70
     1
102
RTVSPropertyOp45
 70
     1
102
RTVSPropertyOp46
 70
     1
102
RTVSPropertyOp47
 70
     1
102
RTVSPropertyOp48
 70
     1
102
RTVSPropertyOp49
 70
     1
102
RTVSPropertyOp50
 70
     1
102
RTVSPropertyOp51
 70
     0
102
RTVSPropertyOp52
 70
     0
102
RTVSPropertyOp53
 70
     1
102
RTVSPropertyOp54
 70
     1
102
RTVSPropertyOp55
 70
     1
102
RTVSPropertyOp56
 70
     1
102
RTVSPropertyOp57
 70
     1
102
RTVSPropertyOp58
 70
     1
102
RTVSPropertyOp59
 70
     1
102
RTVSPropertyOp60
 70
     1
102
RTVSPropertyOp61
 70
     1
102
RTVSPropertyOp62
 70
     1
  0
XRECORD
  5
C7F3
102
{ACAD_REACTORS
330
C7F2
102
}
330
C7F2
100
AcDbXrecord
280
     1
102
RTVSPost2010Prop28
280
     0
102
RTVSPost2010PropOp28
 70
     1
102
RTVSPost2010Prop29
280
     1
102
RTVSPost2010PropOp29
 70
     1
102
RTVSPost2010Prop30
280
     1
102
RTVSPost2010PropOp30
 70
     1
102
RTVSPost2010Prop31
280
     0
102
RTVSPost2010PropOp31
 70
     1
102
RTVSPost2010Prop32
280
     0
102
RTVSPost2010PropOp32
 70
     1
102
RTVSPost2010Prop33
280
     0
102
RTVSPost2010PropOp33
 70
     1
102
RTVSPost2010Prop34
280
     0
102
RTVSPost2010PropOp34
 70
     1
102
RTVSPost2010Prop35
280
     0
102
RTVSPost2010PropOp35
 70
     1
102
RTVSPost2010Prop36
280
     0
102
RTVSPost2010PropOp36
 70
     1
102
RTVSPost2010Prop37
 90
       50
102
RTVSPost2010PropOp37
 70
     1
102
RTVSPost2010Prop38
140
0.0
102
RTVSPost2010PropOp38
 70
     1
102
RTVSPost2010Prop39
140
1.0
102
RTVSPost2010PropOp39
 70
     1
102
RTVSPost2010Prop40
 90
        0
102
RTVSPost2010PropOp40
 70
     1
102
RTVSPost2010Prop41ColorIndex
 90
       18
102
RTVSPost2010Prop41ColorRGB
 90
        0
102
RTVSPost2010PropOp41
 70
     1
102
RTVSPost2010Prop42
 90
       50
102
RTVSPost2010PropOp42
 70
     1
102
RTVSPost2010Prop43
 90
        3
102
RTVSPost2010PropOp43
 70
     1
102
RTVSPost2010Prop44ColorIndex
 90
        5
102
RTVSPost2010Prop44ColorRGB
 90
      255
102
RTVSPost2010PropOp44
 70
     1
102
RTVSPost2010Prop45
280
     0
102
RTVSPost2010PropOp45
 70
     1
102
RTVSPost2010Prop46
 90
       50
102
RTVSPost2010PropOp46
 70
     1
102
RTVSPost2010Prop47
 90
       50
102
RTVSPost2010PropOp47
 70
     1
102
RTVSPost2010Prop48
 90
       50
102
RTVSPost2010PropOp48
 70
     1
102
RTVSPost2010Prop49
280
     0
102
RTVSPost2010PropOp49
 70
     1
102
RTVSPost2010Prop50
 90
       50
102
RTVSPost2010PropOp50
 70
     1
102
RTVSPost2010Prop51ColorIndex
 90
      256
102
RTVSPost2010Prop51ColorRGB
 90
-16777216
102
RTVSPost2010PropOp51
 70
     0
102
RTVSPost2010Prop52
140
1.0
102
RTVSPost2010PropOp52
 70
     0
102
RTVSPost2010Prop53
 90
        2
102
RTVSPost2010PropOp53
 70
     1
102
RTVSPost2010Prop54
  1
strokes_ogs.tif
102
RTVSPost2010PropOp54
 70
     1
102
RTVSPost2010Prop55
280
     0
102
RTVSPost2010PropOp55
 70
     1
102
RTVSPost2010Prop56
140
1.0
102
RTVSPost2010PropOp56
 70
     1
102
RTVSPost2010Prop57
140
1.0
102
RTVSPost2010PropOp57
 70
     1
102
RTVSPropertyOp0
 70
     1
102
RTVSPropertyOp1
 70
     1
102
RTVSPropertyOp2
 70
     1
102
RTVSPropertyOp3
 70
     1
102
RTVSPropertyOp4
 70
     1
102
RTVSPropertyOp5
 70
     1
102
RTVSPropertyOp6
 70
     1
102
RTVSPropertyOp7
 70
     1
102
RTVSPropertyOp8
 70
     1
102
RTVSPropertyOp9
 70
     1
102
RTVSPropertyOp10
 70
     1
102
RTVSPropertyOp11
 70
     1
102
RTVSPropertyOp12
 70
     1
102
RTVSPropertyOp13
 70
     1
102
RTVSPropertyOp14
 70
     1
102
RTVSPropertyOp15
 70
     1
102
RTVSPropertyOp16
 70
     1
102
RTVSPropertyOp17
 70
     1
102
RTVSPropertyOp18
 70
     1
102
RTVSPropertyOp19
 70
     1
102
RTVSPropertyOp20
 70
     1
102
RTVSPropertyOp21
 70
     1
102
RTVSPropertyOp22
 70
     1
102
RTVSPropertyOp23
 70
     1
102
RTVSPropertyOp24
 70
     1
102
RTVSPropertyOp25
 70
     1
102
RTVSPropertyOp26
 70
     1
102
RTVSPropertyOp27
 70
     1
102
RTVSPropertyOp28
 70
     1
102
RTVSPropertyOp29
 70
     1
102
RTVSPropertyOp30
 70
     1
102
RTVSPropertyOp31
 70
     1
102
RTVSPropertyOp32
 70
     1
102
RTVSPropertyOp33
 70
     1
102
RTVSPropertyOp34
 70
     1
102
RTVSPropertyOp35
 70
     1
102
RTVSPropertyOp36
 70
     1
102
RTVSPropertyOp37
 70
     1
102
RTVSPropertyOp38
 70
     1
102
RTVSPropertyOp39
 70
     1
102
RTVSPropertyOp40
 70
     1
102
RTVSPropertyOp41
 70
     1
102
RTVSPropertyOp42
 70
     1
102
RTVSPropertyOp43
 70
     1
102
RTVSPropertyOp44
 70
     1
102
RTVSPropertyOp45
 70
     1
102
RTVSPropertyOp46
 70
     1
102
RTVSPropertyOp47
 70
     1
102
RTVSPropertyOp48
 70
     1
102
RTVSPropertyOp49
 70
     1
102
RTVSPropertyOp50
 70
     1
102
RTVSPropertyOp51
 70
     0
102
RTVSPropertyOp52
 70
     0
102
RTVSPropertyOp53
 70
     1
102
RTVSPropertyOp54
 70
     1
102
RTVSPropertyOp55
 70
     1
102
RTVSPropertyOp56
 70
     1
102
RTVSPropertyOp57
 70
     1
102
RTVSPropertyOp58
 70
     1
102
RTVSPropertyOp59
 70
     1
102
RTVSPropertyOp60
 70
     1
102
RTVSPropertyOp61
 70
     1
102
RTVSPropertyOp62
 70
     1
  0
XRECORD
  5
C7F5
102
{ACAD_REACTORS
330
C7F4
102
}
330
C7F4
100
AcDbXrecord
280
     1
102
RTVSPost2010Prop28
280
     0
102
RTVSPost2010PropOp28
 70
     1
102
RTVSPost2010Prop29
280
     1
102
RTVSPost2010PropOp29
 70
     1
102
RTVSPost2010Prop30
280
     1
102
RTVSPost2010PropOp30
 70
     1
102
RTVSPost2010Prop31
280
     0
102
RTVSPost2010PropOp31
 70
     1
102
RTVSPost2010Prop32
280
     0
102
RTVSPost2010PropOp32
 70
     1
102
RTVSPost2010Prop33
280
     0
102
RTVSPost2010PropOp33
 70
     1
102
RTVSPost2010Prop34
280
     0
102
RTVSPost2010PropOp34
 70
     1
102
RTVSPost2010Prop35
280
     0
102
RTVSPost2010PropOp35
 70
     1
102
RTVSPost2010Prop36
280
     0
102
RTVSPost2010PropOp36
 70
     1
102
RTVSPost2010Prop37
 90
       50
102
RTVSPost2010PropOp37
 70
     1
102
RTVSPost2010Prop38
140
0.0
102
RTVSPost2010PropOp38
 70
     1
102
RTVSPost2010Prop39
140
1.0
102
RTVSPost2010PropOp39
 70
     1
102
RTVSPost2010Prop40
 90
        0
102
RTVSPost2010PropOp40
 70
     1
102
RTVSPost2010Prop41ColorIndex
 90
       18
102
RTVSPost2010Prop41ColorRGB
 90
        0
102
RTVSPost2010PropOp41
 70
     1
102
RTVSPost2010Prop42
 90
       50
102
RTVSPost2010PropOp42
 70
     1
102
RTVSPost2010Prop43
 90
        3
102
RTVSPost2010PropOp43
 70
     1
102
RTVSPost2010Prop44ColorIndex
 90
        5
102
RTVSPost2010Prop44ColorRGB
 90
      255
102
RTVSPost2010PropOp44
 70
     1
102
RTVSPost2010Prop45
280
     0
102
RTVSPost2010PropOp45
 70
     1
102
RTVSPost2010Prop46
 90
       50
102
RTVSPost2010PropOp46
 70
     1
102
RTVSPost2010Prop47
 90
       50
102
RTVSPost2010PropOp47
 70
     1
102
RTVSPost2010Prop48
 90
       50
102
RTVSPost2010PropOp48
 70
     1
102
RTVSPost2010Prop49
280
     0
102
RTVSPost2010PropOp49
 70
     1
102
RTVSPost2010Prop50
 90
       50
102
RTVSPost2010PropOp50
 70
     1
102
RTVSPost2010Prop51ColorIndex
 90
      256
102
RTVSPost2010Prop51ColorRGB
 90
-16777216
102
RTVSPost2010PropOp51
 70
     0
102
RTVSPost2010Prop52
140
1.0
102
RTVSPost2010PropOp52
 70
     0
102
RTVSPost2010Prop53
 90
        2
102
RTVSPost2010PropOp53
 70
     1
102
RTVSPost2010Prop54
  1
strokes_ogs.tif
102
RTVSPost2010PropOp54
 70
     1
102
RTVSPost2010Prop55
280
     0
102
RTVSPost2010PropOp55
 70
     1
102
RTVSPost2010Prop56
140
1.0
102
RTVSPost2010PropOp56
 70
     1
102
RTVSPost2010Prop57
140
1.0
102
RTVSPost2010PropOp57
 70
     1
102
RTVSPropertyOp0
 70
     1
102
RTVSPropertyOp1
 70
     1
102
RTVSPropertyOp2
 70
     1
102
RTVSPropertyOp3
 70
     1
102
RTVSPropertyOp4
 70
     1
102
RTVSPropertyOp5
 70
     1
102
RTVSPropertyOp6
 70
     1
102
RTVSPropertyOp7
 70
     1
102
RTVSPropertyOp8
 70
     1
102
RTVSPropertyOp9
 70
     1
102
RTVSPropertyOp10
 70
     1
102
RTVSPropertyOp11
 70
     1
102
RTVSPropertyOp12
 70
     1
102
RTVSPropertyOp13
 70
     1
102
RTVSPropertyOp14
 70
     1
102
RTVSPropertyOp15
 70
     1
102
RTVSPropertyOp16
 70
     1
102
RTVSPropertyOp17
 70
     1
102
RTVSPropertyOp18
 70
     1
102
RTVSPropertyOp19
 70
     1
102
RTVSPropertyOp20
 70
     1
102
RTVSPropertyOp21
 70
     1
102
RTVSPropertyOp22
 70
     1
102
RTVSPropertyOp23
 70
     1
102
RTVSPropertyOp24
 70
     1
102
RTVSPropertyOp25
 70
     1
102
RTVSPropertyOp26
 70
     1
102
RTVSPropertyOp27
 70
     1
102
RTVSPropertyOp28
 70
     1
102
RTVSPropertyOp29
 70
     1
102
RTVSPropertyOp30
 70
     1
102
RTVSPropertyOp31
 70
     1
102
RTVSPropertyOp32
 70
     1
102
RTVSPropertyOp33
 70
     1
102
RTVSPropertyOp34
 70
     1
102
RTVSPropertyOp35
 70
     1
102
RTVSPropertyOp36
 70
     1
102
RTVSPropertyOp37
 70
     1
102
RTVSPropertyOp38
 70
     1
102
RTVSPropertyOp39
 70
     1
102
RTVSPropertyOp40
 70
     1
102
RTVSPropertyOp41
 70
     1
102
RTVSPropertyOp42
 70
     1
102
RTVSPropertyOp43
 70
     1
102
RTVSPropertyOp44
 70
     1
102
RTVSPropertyOp45
 70
     1
102
RTVSPropertyOp46
 70
     1
102
RTVSPropertyOp47
 70
     1
102
RTVSPropertyOp48
 70
     1
102
RTVSPropertyOp49
 70
     1
102
RTVSPropertyOp50
 70
     1
102
RTVSPropertyOp51
 70
     0
102
RTVSPropertyOp52
 70
     0
102
RTVSPropertyOp53
 70
     1
102
RTVSPropertyOp54
 70
     1
102
RTVSPropertyOp55
 70
     1
102
RTVSPropertyOp56
 70
     1
102
RTVSPropertyOp57
 70
     1
102
RTVSPropertyOp58
 70
     1
102
RTVSPropertyOp59
 70
     1
102
RTVSPropertyOp60
 70
     1
102
RTVSPropertyOp61
 70
     1
102
RTVSPropertyOp62
 70
     1
  0
XRECORD
  5
C7F7
102
{ACAD_REACTORS
330
C7F6
102
}
330
C7F6
100
AcDbXrecord
280
     1
102
RTVSPost2010Prop28
280
     0
102
RTVSPost2010PropOp28
 70
     1
102
RTVSPost2010Prop29
280
     1
102
RTVSPost2010PropOp29
 70
     1
102
RTVSPost2010Prop30
280
     1
102
RTVSPost2010PropOp30
 70
     1
102
RTVSPost2010Prop31
280
     0
102
RTVSPost2010PropOp31
 70
     1
102
RTVSPost2010Prop32
280
     0
102
RTVSPost2010PropOp32
 70
     1
102
RTVSPost2010Prop33
280
     0
102
RTVSPost2010PropOp33
 70
     1
102
RTVSPost2010Prop34
280
     0
102
RTVSPost2010PropOp34
 70
     1
102
RTVSPost2010Prop35
280
     0
102
RTVSPost2010PropOp35
 70
     1
102
RTVSPost2010Prop36
280
     0
102
RTVSPost2010PropOp36
 70
     1
102
RTVSPost2010Prop37
 90
       50
102
RTVSPost2010PropOp37
 70
     1
102
RTVSPost2010Prop38
140
0.0
102
RTVSPost2010PropOp38
 70
     1
102
RTVSPost2010Prop39
140
1.0
102
RTVSPost2010PropOp39
 70
     1
102
RTVSPost2010Prop40
 90
        0
102
RTVSPost2010PropOp40
 70
     1
102
RTVSPost2010Prop41ColorIndex
 90
       18
102
RTVSPost2010Prop41ColorRGB
 90
        0
102
RTVSPost2010PropOp41
 70
     1
102
RTVSPost2010Prop42
 90
       50
102
RTVSPost2010PropOp42
 70
     1
102
RTVSPost2010Prop43
 90
        3
102
RTVSPost2010PropOp43
 70
     1
102
RTVSPost2010Prop44ColorIndex
 90
        5
102
RTVSPost2010Prop44ColorRGB
 90
      255
102
RTVSPost2010PropOp44
 70
     1
102
RTVSPost2010Prop45
280
     0
102
RTVSPost2010PropOp45
 70
     1
102
RTVSPost2010Prop46
 90
       50
102
RTVSPost2010PropOp46
 70
     1
102
RTVSPost2010Prop47
 90
       50
102
RTVSPost2010PropOp47
 70
     1
102
RTVSPost2010Prop48
 90
       50
102
RTVSPost2010PropOp48
 70
     1
102
RTVSPost2010Prop49
280
     0
102
RTVSPost2010PropOp49
 70
     1
102
RTVSPost2010Prop50
 90
       50
102
RTVSPost2010PropOp50
 70
     1
102
RTVSPost2010Prop51ColorIndex
 90
      256
102
RTVSPost2010Prop51ColorRGB
 90
-16777216
102
RTVSPost2010PropOp51
 70
     0
102
RTVSPost2010Prop52
140
1.0
102
RTVSPost2010PropOp52
 70
     0
102
RTVSPost2010Prop53
 90
        2
102
RTVSPost2010PropOp53
 70
     1
102
RTVSPost2010Prop54
  1
strokes_ogs.tif
102
RTVSPost2010PropOp54
 70
     1
102
RTVSPost2010Prop55
280
     0
102
RTVSPost2010PropOp55
 70
     1
102
RTVSPost2010Prop56
140
1.0
102
RTVSPost2010PropOp56
 70
     1
102
RTVSPost2010Prop57
140
1.0
102
RTVSPost2010PropOp57
 70
     1
102
RTVSPropertyOp0
 70
     1
102
RTVSPropertyOp1
 70
     1
102
RTVSPropertyOp2
 70
     1
102
RTVSPropertyOp3
 70
     1
102
RTVSPropertyOp4
 70
     1
102
RTVSPropertyOp5
 70
     1
102
RTVSPropertyOp6
 70
     1
102
RTVSPropertyOp7
 70
     1
102
RTVSPropertyOp8
 70
     1
102
RTVSPropertyOp9
 70
     1
102
RTVSPropertyOp10
 70
     1
102
RTVSPropertyOp11
 70
     1
102
RTVSPropertyOp12
 70
     1
102
RTVSPropertyOp13
 70
     1
102
RTVSPropertyOp14
 70
     1
102
RTVSPropertyOp15
 70
     1
102
RTVSPropertyOp16
 70
     1
102
RTVSPropertyOp17
 70
     1
102
RTVSPropertyOp18
 70
     1
102
RTVSPropertyOp19
 70
     1
102
RTVSPropertyOp20
 70
     1
102
RTVSPropertyOp21
 70
     1
102
RTVSPropertyOp22
 70
     1
102
RTVSPropertyOp23
 70
     1
102
RTVSPropertyOp24
 70
     1
102
RTVSPropertyOp25
 70
     1
102
RTVSPropertyOp26
 70
     1
102
RTVSPropertyOp27
 70
     1
102
RTVSPropertyOp28
 70
     1
102
RTVSPropertyOp29
 70
     1
102
RTVSPropertyOp30
 70
     1
102
RTVSPropertyOp31
 70
     1
102
RTVSPropertyOp32
 70
     1
102
RTVSPropertyOp33
 70
     1
102
RTVSPropertyOp34
 70
     1
102
RTVSPropertyOp35
 70
     1
102
RTVSPropertyOp36
 70
     1
102
RTVSPropertyOp37
 70
     1
102
RTVSPropertyOp38
 70
     1
102
RTVSPropertyOp39
 70
     1
102
RTVSPropertyOp40
 70
     1
102
RTVSPropertyOp41
 70
     1
102
RTVSPropertyOp42
 70
     1
102
RTVSPropertyOp43
 70
     1
102
RTVSPropertyOp44
 70
     1
102
RTVSPropertyOp45
 70
     1
102
RTVSPropertyOp46
 70
     1
102
RTVSPropertyOp47
 70
     1
102
RTVSPropertyOp48
 70
     1
102
RTVSPropertyOp49
 70
     1
102
RTVSPropertyOp50
 70
     1
102
RTVSPropertyOp51
 70
     0
102
RTVSPropertyOp52
 70
     0
102
RTVSPropertyOp53
 70
     1
102
RTVSPropertyOp54
 70
     1
102
RTVSPropertyOp55
 70
     1
102
RTVSPropertyOp56
 70
     1
102
RTVSPropertyOp57
 70
     1
102
RTVSPropertyOp58
 70
     1
102
RTVSPropertyOp59
 70
     1
102
RTVSPropertyOp60
 70
     1
102
RTVSPropertyOp61
 70
     1
102
RTVSPropertyOp62
 70
     1
  0
XRECORD
  5
C7F9
102
{ACAD_REACTORS
330
C7F8
102
}
330
C7F8
100
AcDbXrecord
280
     1
102
RTVSPost2010Prop28
280
     0
102
RTVSPost2010PropOp28
 70
     1
102
RTVSPost2010Prop29
280
     1
102
RTVSPost2010PropOp29
 70
     1
102
RTVSPost2010Prop30
280
     1
102
RTVSPost2010PropOp30
 70
     1
102
RTVSPost2010Prop31
280
     0
102
RTVSPost2010PropOp31
 70
     1
102
RTVSPost2010Prop32
280
     0
102
RTVSPost2010PropOp32
 70
     1
102
RTVSPost2010Prop33
280
     0
102
RTVSPost2010PropOp33
 70
     1
102
RTVSPost2010Prop34
280
     0
102
RTVSPost2010PropOp34
 70
     1
102
RTVSPost2010Prop35
280
     0
102
RTVSPost2010PropOp35
 70
     1
102
RTVSPost2010Prop36
280
     0
102
RTVSPost2010PropOp36
 70
     1
102
RTVSPost2010Prop37
 90
       50
102
RTVSPost2010PropOp37
 70
     1
102
RTVSPost2010Prop38
140
0.0
102
RTVSPost2010PropOp38
 70
     1
102
RTVSPost2010Prop39
140
1.0
102
RTVSPost2010PropOp39
 70
     1
102
RTVSPost2010Prop40
 90
        0
102
RTVSPost2010PropOp40
 70
     1
102
RTVSPost2010Prop41ColorIndex
 90
       18
102
RTVSPost2010Prop41ColorRGB
 90
        0
102
RTVSPost2010PropOp41
 70
     1
102
RTVSPost2010Prop42
 90
       50
102
RTVSPost2010PropOp42
 70
     1
102
RTVSPost2010Prop43
 90
        3
102
RTVSPost2010PropOp43
 70
     1
102
RTVSPost2010Prop44ColorIndex
 90
        5
102
RTVSPost2010Prop44ColorRGB
 90
      255
102
RTVSPost2010PropOp44
 70
     1
102
RTVSPost2010Prop45
280
     0
102
RTVSPost2010PropOp45
 70
     1
102
RTVSPost2010Prop46
 90
       50
102
RTVSPost2010PropOp46
 70
     1
102
RTVSPost2010Prop47
 90
       50
102
RTVSPost2010PropOp47
 70
     1
102
RTVSPost2010Prop48
 90
       50
102
RTVSPost2010PropOp48
 70
     1
102
RTVSPost2010Prop49
280
     0
102
RTVSPost2010PropOp49
 70
     1
102
RTVSPost2010Prop50
 90
       50
102
RTVSPost2010PropOp50
 70
     1
102
RTVSPost2010Prop51ColorIndex
 90
      256
102
RTVSPost2010Prop51ColorRGB
 90
-16777216
102
RTVSPost2010PropOp51
 70
     0
102
RTVSPost2010Prop52
140
1.0
102
RTVSPost2010PropOp52
 70
     0
102
RTVSPost2010Prop53
 90
        2
102
RTVSPost2010PropOp53
 70
     1
102
RTVSPost2010Prop54
  1
strokes_ogs.tif
102
RTVSPost2010PropOp54
 70
     1
102
RTVSPost2010Prop55
280
     0
102
RTVSPost2010PropOp55
 70
     1
102
RTVSPost2010Prop56
140
1.0
102
RTVSPost2010PropOp56
 70
     1
102
RTVSPost2010Prop57
140
1.0
102
RTVSPost2010PropOp57
 70
     1
102
RTVSPropertyOp0
 70
     1
102
RTVSPropertyOp1
 70
     1
102
RTVSPropertyOp2
 70
     1
102
RTVSPropertyOp3
 70
     1
102
RTVSPropertyOp4
 70
     1
102
RTVSPropertyOp5
 70
     1
102
RTVSPropertyOp6
 70
     1
102
RTVSPropertyOp7
 70
     1
102
RTVSPropertyOp8
 70
     1
102
RTVSPropertyOp9
 70
     1
102
RTVSPropertyOp10
 70
     1
102
RTVSPropertyOp11
 70
     1
102
RTVSPropertyOp12
 70
     1
102
RTVSPropertyOp13
 70
     1
102
RTVSPropertyOp14
 70
     1
102
RTVSPropertyOp15
 70
     1
102
RTVSPropertyOp16
 70
     1
102
RTVSPropertyOp17
 70
     1
102
RTVSPropertyOp18
 70
     1
102
RTVSPropertyOp19
 70
     1
102
RTVSPropertyOp20
 70
     1
102
RTVSPropertyOp21
 70
     1
102
RTVSPropertyOp22
 70
     1
102
RTVSPropertyOp23
 70
     1
102
RTVSPropertyOp24
 70
     1
102
RTVSPropertyOp25
 70
     1
102
RTVSPropertyOp26
 70
     1
102
RTVSPropertyOp27
 70
     1
102
RTVSPropertyOp28
 70
     1
102
RTVSPropertyOp29
 70
     1
102
RTVSPropertyOp30
 70
     1
102
RTVSPropertyOp31
 70
     1
102
RTVSPropertyOp32
 70
     1
102
RTVSPropertyOp33
 70
     1
102
RTVSPropertyOp34
 70
     1
102
RTVSPropertyOp35
 70
     1
102
RTVSPropertyOp36
 70
     1
102
RTVSPropertyOp37
 70
     1
102
RTVSPropertyOp38
 70
     1
102
RTVSPropertyOp39
 70
     1
102
RTVSPropertyOp40
 70
     1
102
RTVSPropertyOp41
 70
     1
102
RTVSPropertyOp42
 70
     1
102
RTVSPropertyOp43
 70
     1
102
RTVSPropertyOp44
 70
     1
102
RTVSPropertyOp45
 70
     1
102
RTVSPropertyOp46
 70
     1
102
RTVSPropertyOp47
 70
     1
102
RTVSPropertyOp48
 70
     1
102
RTVSPropertyOp49
 70
     1
102
RTVSPropertyOp50
 70
     1
102
RTVSPropertyOp51
 70
     0
102
RTVSPropertyOp52
 70
     0
102
RTVSPropertyOp53
 70
     1
102
RTVSPropertyOp54
 70
     1
102
RTVSPropertyOp55
 70
     1
102
RTVSPropertyOp56
 70
     1
102
RTVSPropertyOp57
 70
     1
102
RTVSPropertyOp58
 70
     1
102
RTVSPropertyOp59
 70
     1
102
RTVSPropertyOp60
 70
     1
102
RTVSPropertyOp61
 70
     1
102
RTVSPropertyOp62
 70
     1
  0
XRECORD
  5
C801
102
{ACAD_REACTORS
330
C800
102
}
330
C800
100
AcDbXrecord
280
     1
102
RTVSPost2010Prop28
280
     0
102
RTVSPost2010PropOp28
 70
     1
102
RTVSPost2010Prop29
280
     1
102
RTVSPost2010PropOp29
 70
     1
102
RTVSPost2010Prop30
280
     1
102
RTVSPost2010PropOp30
 70
     1
102
RTVSPost2010Prop31
280
     0
102
RTVSPost2010PropOp31
 70
     1
102
RTVSPost2010Prop32
280
     0
102
RTVSPost2010PropOp32
 70
     1
102
RTVSPost2010Prop33
280
     0
102
RTVSPost2010PropOp33
 70
     1
102
RTVSPost2010Prop34
280
     0
102
RTVSPost2010PropOp34
 70
     1
102
RTVSPost2010Prop35
280
     0
102
RTVSPost2010PropOp35
 70
     1
102
RTVSPost2010Prop36
280
     0
102
RTVSPost2010PropOp36
 70
     1
102
RTVSPost2010Prop37
 90
       50
102
RTVSPost2010PropOp37
 70
     1
102
RTVSPost2010Prop38
140
0.0
102
RTVSPost2010PropOp38
 70
     1
102
RTVSPost2010Prop39
140
1.0
102
RTVSPost2010PropOp39
 70
     1
102
RTVSPost2010Prop40
 90
        0
102
RTVSPost2010PropOp40
 70
     1
102
RTVSPost2010Prop41ColorIndex
 90
       18
102
RTVSPost2010Prop41ColorRGB
 90
        0
102
RTVSPost2010PropOp41
 70
     1
102
RTVSPost2010Prop42
 90
       50
102
RTVSPost2010PropOp42
 70
     1
102
RTVSPost2010Prop43
 90
        3
102
RTVSPost2010PropOp43
 70
     1
102
RTVSPost2010Prop44ColorIndex
 90
        5
102
RTVSPost2010Prop44ColorRGB
 90
      255
102
RTVSPost2010PropOp44
 70
     1
102
RTVSPost2010Prop45
280
     0
102
RTVSPost2010PropOp45
 70
     1
102
RTVSPost2010Prop46
 90
       50
102
RTVSPost2010PropOp46
 70
     1
102
RTVSPost2010Prop47
 90
       50
102
RTVSPost2010PropOp47
 70
     1
102
RTVSPost2010Prop48
 90
       50
102
RTVSPost2010PropOp48
 70
     1
102
RTVSPost2010Prop49
280
     0
102
RTVSPost2010PropOp49
 70
     1
102
RTVSPost2010Prop50
 90
       50
102
RTVSPost2010PropOp50
 70
     1
102
RTVSPost2010Prop51ColorIndex
 90
      256
102
RTVSPost2010Prop51ColorRGB
 90
-16777216
102
RTVSPost2010PropOp51
 70
     0
102
RTVSPost2010Prop52
140
1.0
102
RTVSPost2010PropOp52
 70
     0
102
RTVSPost2010Prop53
 90
        2
102
RTVSPost2010PropOp53
 70
     1
102
RTVSPost2010Prop54
  1
strokes_ogs.tif
102
RTVSPost2010PropOp54
 70
     1
102
RTVSPost2010Prop55
280
     0
102
RTVSPost2010PropOp55
 70
     1
102
RTVSPost2010Prop56
140
1.0
102
RTVSPost2010PropOp56
 70
     1
102
RTVSPost2010Prop57
140
1.0
102
RTVSPost2010PropOp57
 70
     1
102
RTVSPropertyOp0
 70
     1
102
RTVSPropertyOp1
 70
     1
102
RTVSPropertyOp2
 70
     1
102
RTVSPropertyOp3
 70
     1
102
RTVSPropertyOp4
 70
     1
102
RTVSPropertyOp5
 70
     1
102
RTVSPropertyOp6
 70
     1
102
RTVSPropertyOp7
 70
     1
102
RTVSPropertyOp8
 70
     1
102
RTVSPropertyOp9
 70
     1
102
RTVSPropertyOp10
 70
     1
102
RTVSPropertyOp11
 70
     1
102
RTVSPropertyOp12
 70
     1
102
RTVSPropertyOp13
 70
     1
102
RTVSPropertyOp14
 70
     1
102
RTVSPropertyOp15
 70
     1
102
RTVSPropertyOp16
 70
     1
102
RTVSPropertyOp17
 70
     1
102
RTVSPropertyOp18
 70
     1
102
RTVSPropertyOp19
 70
     1
102
RTVSPropertyOp20
 70
     1
102
RTVSPropertyOp21
 70
     1
102
RTVSPropertyOp22
 70
     1
102
RTVSPropertyOp23
 70
     1
102
RTVSPropertyOp24
 70
     1
102
RTVSPropertyOp25
 70
     1
102
RTVSPropertyOp26
 70
     1
102
RTVSPropertyOp27
 70
     1
102
RTVSPropertyOp28
 70
     1
102
RTVSPropertyOp29
 70
     1
102
RTVSPropertyOp30
 70
     1
102
RTVSPropertyOp31
 70
     1
102
RTVSPropertyOp32
 70
     1
102
RTVSPropertyOp33
 70
     1
102
RTVSPropertyOp34
 70
     1
102
RTVSPropertyOp35
 70
     1
102
RTVSPropertyOp36
 70
     1
102
RTVSPropertyOp37
 70
     1
102
RTVSPropertyOp38
 70
     1
102
RTVSPropertyOp39
 70
     1
102
RTVSPropertyOp40
 70
     1
102
RTVSPropertyOp41
 70
     1
102
RTVSPropertyOp42
 70
     1
102
RTVSPropertyOp43
 70
     1
102
RTVSPropertyOp44
 70
     1
102
RTVSPropertyOp45
 70
     1
102
RTVSPropertyOp46
 70
     1
102
RTVSPropertyOp47
 70
     1
102
RTVSPropertyOp48
 70
     1
102
RTVSPropertyOp49
 70
     1
102
RTVSPropertyOp50
 70
     1
102
RTVSPropertyOp51
 70
     0
102
RTVSPropertyOp52
 70
     0
102
RTVSPropertyOp53
 70
     1
102
RTVSPropertyOp54
 70
     1
102
RTVSPropertyOp55
 70
     1
102
RTVSPropertyOp56
 70
     1
102
RTVSPropertyOp57
 70
     1
102
RTVSPropertyOp58
 70
     1
102
RTVSPropertyOp59
 70
     1
102
RTVSPropertyOp60
 70
     1
102
RTVSPropertyOp61
 70
     1
102
RTVSPropertyOp62
 70
     1
  0
XRECORD
  5
C81D
102
{ACAD_REACTORS
330
C81C
102
}
330
C81C
100
AcDbXrecord
280
     1
102
RTVSPost2010Prop28
280
     0
102
RTVSPost2010PropOp28
 70
     1
102
RTVSPost2010Prop29
280
     1
102
RTVSPost2010PropOp29
 70
     1
102
RTVSPost2010Prop30
280
     1
102
RTVSPost2010PropOp30
 70
     1
102
RTVSPost2010Prop31
280
     0
102
RTVSPost2010PropOp31
 70
     1
102
RTVSPost2010Prop32
280
     0
102
RTVSPost2010PropOp32
 70
     1
102
RTVSPost2010Prop33
280
     0
102
RTVSPost2010PropOp33
 70
     1
102
RTVSPost2010Prop34
280
     0
102
RTVSPost2010PropOp34
 70
     1
102
RTVSPost2010Prop35
280
     0
102
RTVSPost2010PropOp35
 70
     1
102
RTVSPost2010Prop36
280
     0
102
RTVSPost2010PropOp36
 70
     1
102
RTVSPost2010Prop37
 90
       50
102
RTVSPost2010PropOp37
 70
     0
102
RTVSPost2010Prop38
140
0.0
102
RTVSPost2010PropOp38
 70
     0
102
RTVSPost2010Prop39
140
1.0
102
RTVSPost2010PropOp39
 70
     0
102
RTVSPost2010Prop40
 90
        0
102
RTVSPost2010PropOp40
 70
     0
102
RTVSPost2010Prop41ColorIndex
 90
       18
102
RTVSPost2010Prop41ColorRGB
 90
        0
102
RTVSPost2010PropOp41
 70
     0
102
RTVSPost2010Prop42
 90
       50
102
RTVSPost2010PropOp42
 70
     0
102
RTVSPost2010Prop43
 90
        3
102
RTVSPost2010PropOp43
 70
     0
102
RTVSPost2010Prop44ColorIndex
 90
        5
102
RTVSPost2010Prop44ColorRGB
 90
      255
102
RTVSPost2010PropOp44
 70
     0
102
RTVSPost2010Prop45
280
     0
102
RTVSPost2010PropOp45
 70
     1
102
RTVSPost2010Prop46
 90
       50
102
RTVSPost2010PropOp46
 70
     0
102
RTVSPost2010Prop47
 90
       50
102
RTVSPost2010PropOp47
 70
     0
102
RTVSPost2010Prop48
 90
       50
102
RTVSPost2010PropOp48
 70
     0
102
RTVSPost2010Prop49
280
     0
102
RTVSPost2010PropOp49
 70
     1
102
RTVSPost2010Prop50
 90
       50
102
RTVSPost2010PropOp50
 70
     0
102
RTVSPost2010Prop51ColorIndex
 90
      256
102
RTVSPost2010Prop51ColorRGB
 90
-16777216
102
RTVSPost2010PropOp51
 70
     0
102
RTVSPost2010Prop52
140
1.0
102
RTVSPost2010PropOp52
 70
     0
102
RTVSPost2010Prop53
 90
        2
102
RTVSPost2010PropOp53
 70
     0
102
RTVSPost2010Prop54
  1
strokes_ogs.tif
102
RTVSPost2010PropOp54
 70
     0
102
RTVSPost2010Prop55
280
     0
102
RTVSPost2010PropOp55
 70
     1
102
RTVSPost2010Prop56
140
1.0
102
RTVSPost2010PropOp56
 70
     0
102
RTVSPost2010Prop57
140
1.0
102
RTVSPost2010PropOp57
 70
     0
102
RTVSPropertyOp0
 70
     0
102
RTVSPropertyOp1
 70
     0
102
RTVSPropertyOp2
 70
     0
102
RTVSPropertyOp3
 70
     0
102
RTVSPropertyOp4
 70
     0
102
RTVSPropertyOp5
 70
     0
102
RTVSPropertyOp6
 70
     0
102
RTVSPropertyOp7
 70
     0
102
RTVSPropertyOp8
 70
     0
102
RTVSPropertyOp9
 70
     0
102
RTVSPropertyOp10
 70
     0
102
RTVSPropertyOp11
 70
     0
102
RTVSPropertyOp12
 70
     0
102
RTVSPropertyOp13
 70
     0
102
RTVSPropertyOp14
 70
     2
102
RTVSPropertyOp15
 70
     0
102
RTVSPropertyOp16
 70
     0
102
RTVSPropertyOp17
 70
     0
102
RTVSPropertyOp18
 70
     0
102
RTVSPropertyOp19
 70
     0
102
RTVSPropertyOp20
 70
     0
102
RTVSPropertyOp21
 70
     0
102
RTVSPropertyOp22
 70
     0
102
RTVSPropertyOp23
 70
     0
102
RTVSPropertyOp24
 70
     0
102
RTVSPropertyOp25
 70
     0
102
RTVSPropertyOp26
 70
     0
102
RTVSPropertyOp27
 70
     0
102
RTVSPropertyOp28
 70
     1
102
RTVSPropertyOp29
 70
     1
102
RTVSPropertyOp30
 70
     1
102
RTVSPropertyOp31
 70
     1
102
RTVSPropertyOp32
 70
     1
102
RTVSPropertyOp33
 70
     1
102
RTVSPropertyOp34
 70
     1
102
RTVSPropertyOp35
 70
     1
102
RTVSPropertyOp36
 70
     1
102
RTVSPropertyOp37
 70
     0
102
RTVSPropertyOp38
 70
     0
102
RTVSPropertyOp39
 70
     0
102
RTVSPropertyOp40
 70
     0
102
RTVSPropertyOp41
 70
     0
102
RTVSPropertyOp42
 70
     0
102
RTVSPropertyOp43
 70
     0
102
RTVSPropertyOp44
 70
     0
102
RTVSPropertyOp45
 70
     1
102
RTVSPropertyOp46
 70
     0
102
RTVSPropertyOp47
 70
     0
102
RTVSPropertyOp48
 70
     0
102
RTVSPropertyOp49
 70
     1
102
RTVSPropertyOp50
 70
     0
102
RTVSPropertyOp51
 70
     0
102
RTVSPropertyOp52
 70
     0
102
RTVSPropertyOp53
 70
     0
102
RTVSPropertyOp54
 70
     0
102
RTVSPropertyOp55
 70
     1
102
RTVSPropertyOp56
 70
     0
102
RTVSPropertyOp57
 70
     0
102
RTVSPropertyOp58
 70
     0
102
RTVSPropertyOp59
 70
     0
102
RTVSPropertyOp60
 70
     0
102
RTVSPropertyOp61
 70
     0
102
RTVSPropertyOp62
 70
     0
  0
XRECORD
  5
C80D
102
{ACAD_REACTORS
330
C80C
102
}
330
C80C
100
AcDbXrecord
280
     1
102
RTVSPost2010Prop28
280
     0
102
RTVSPost2010PropOp28
 70
     1
102
RTVSPost2010Prop29
280
     1
102
RTVSPost2010PropOp29
 70
     1
102
RTVSPost2010Prop30
280
     1
102
RTVSPost2010PropOp30
 70
     1
102
RTVSPost2010Prop31
280
     0
102
RTVSPost2010PropOp31
 70
     1
102
RTVSPost2010Prop32
280
     0
102
RTVSPost2010PropOp32
 70
     1
102
RTVSPost2010Prop33
280
     0
102
RTVSPost2010PropOp33
 70
     1
102
RTVSPost2010Prop34
280
     0
102
RTVSPost2010PropOp34
 70
     1
102
RTVSPost2010Prop35
280
     0
102
RTVSPost2010PropOp35
 70
     1
102
RTVSPost2010Prop36
280
     0
102
RTVSPost2010PropOp36
 70
     1
102
RTVSPost2010Prop37
 90
       50
102
RTVSPost2010PropOp37
 70
     1
102
RTVSPost2010Prop38
140
0.0
102
RTVSPost2010PropOp38
 70
     1
102
RTVSPost2010Prop39
140
1.0
102
RTVSPost2010PropOp39
 70
     1
102
RTVSPost2010Prop40
 90
        0
102
RTVSPost2010PropOp40
 70
     1
102
RTVSPost2010Prop41ColorIndex
 90
       18
102
RTVSPost2010Prop41ColorRGB
 90
        0
102
RTVSPost2010PropOp41
 70
     1
102
RTVSPost2010Prop42
 90
       50
102
RTVSPost2010PropOp42
 70
     1
102
RTVSPost2010Prop43
 90
        3
102
RTVSPost2010PropOp43
 70
     1
102
RTVSPost2010Prop44ColorIndex
 90
        5
102
RTVSPost2010Prop44ColorRGB
 90
      255
102
RTVSPost2010PropOp44
 70
     1
102
RTVSPost2010Prop45
280
     0
102
RTVSPost2010PropOp45
 70
     1
102
RTVSPost2010Prop46
 90
       50
102
RTVSPost2010PropOp46
 70
     1
102
RTVSPost2010Prop47
 90
       50
102
RTVSPost2010PropOp47
 70
     1
102
RTVSPost2010Prop48
 90
       50
102
RTVSPost2010PropOp48
 70
     1
102
RTVSPost2010Prop49
280
     0
102
RTVSPost2010PropOp49
 70
     1
102
RTVSPost2010Prop50
 90
       50
102
RTVSPost2010PropOp50
 70
     1
102
RTVSPost2010Prop51ColorIndex
 90
      256
102
RTVSPost2010Prop51ColorRGB
 90
-16777216
102
RTVSPost2010PropOp51
 70
     0
102
RTVSPost2010Prop52
140
1.0
102
RTVSPost2010PropOp52
 70
     0
102
RTVSPost2010Prop53
 90
        2
102
RTVSPost2010PropOp53
 70
     1
102
RTVSPost2010Prop54
  1
strokes_ogs.tif
102
RTVSPost2010PropOp54
 70
     1
102
RTVSPost2010Prop55
280
     0
102
RTVSPost2010PropOp55
 70
     1
102
RTVSPost2010Prop56
140
1.0
102
RTVSPost2010PropOp56
 70
     1
102
RTVSPost2010Prop57
140
1.0
102
RTVSPost2010PropOp57
 70
     1
102
RTVSPropertyOp0
 70
     1
102
RTVSPropertyOp1
 70
     1
102
RTVSPropertyOp2
 70
     1
102
RTVSPropertyOp3
 70
     1
102
RTVSPropertyOp4
 70
     1
102
RTVSPropertyOp5
 70
     1
102
RTVSPropertyOp6
 70
     1
102
RTVSPropertyOp7
 70
     1
102
RTVSPropertyOp8
 70
     1
102
RTVSPropertyOp9
 70
     1
102
RTVSPropertyOp10
 70
     1
102
RTVSPropertyOp11
 70
     1
102
RTVSPropertyOp12
 70
     1
102
RTVSPropertyOp13
 70
     1
102
RTVSPropertyOp14
 70
     1
102
RTVSPropertyOp15
 70
     1
102
RTVSPropertyOp16
 70
     1
102
RTVSPropertyOp17
 70
     1
102
RTVSPropertyOp18
 70
     1
102
RTVSPropertyOp19
 70
     1
102
RTVSPropertyOp20
 70
     1
102
RTVSPropertyOp21
 70
     1
102
RTVSPropertyOp22
 70
     1
102
RTVSPropertyOp23
 70
     1
102
RTVSPropertyOp24
 70
     1
102
RTVSPropertyOp25
 70
     1
102
RTVSPropertyOp26
 70
     1
102
RTVSPropertyOp27
 70
     1
102
RTVSPropertyOp28
 70
     1
102
RTVSPropertyOp29
 70
     1
102
RTVSPropertyOp30
 70
     1
102
RTVSPropertyOp31
 70
     1
102
RTVSPropertyOp32
 70
     1
102
RTVSPropertyOp33
 70
     1
102
RTVSPropertyOp34
 70
     1
102
RTVSPropertyOp35
 70
     1
102
RTVSPropertyOp36
 70
     1
102
RTVSPropertyOp37
 70
     1
102
RTVSPropertyOp38
 70
     1
102
RTVSPropertyOp39
 70
     1
102
RTVSPropertyOp40
 70
     1
102
RTVSPropertyOp41
 70
     1
102
RTVSPropertyOp42
 70
     1
102
RTVSPropertyOp43
 70
     1
102
RTVSPropertyOp44
 70
     1
102
RTVSPropertyOp45
 70
     1
102
RTVSPropertyOp46
 70
     1
102
RTVSPropertyOp47
 70
     1
102
RTVSPropertyOp48
 70
     1
102
RTVSPropertyOp49
 70
     1
102
RTVSPropertyOp50
 70
     1
102
RTVSPropertyOp51
 70
     0
102
RTVSPropertyOp52
 70
     0
102
RTVSPropertyOp53
 70
     1
102
RTVSPropertyOp54
 70
     1
102
RTVSPropertyOp55
 70
     1
102
RTVSPropertyOp56
 70
     1
102
RTVSPropertyOp57
 70
     1
102
RTVSPropertyOp58
 70
     1
102
RTVSPropertyOp59
 70
     1
102
RTVSPropertyOp60
 70
     1
102
RTVSPropertyOp61
 70
     1
102
RTVSPropertyOp62
 70
     1
  0
XRECORD
  5
C81F
102
{ACAD_REACTORS
330
C81E
102
}
330
C81E
100
AcDbXrecord
280
     1
102
RTVSPost2010Prop28
280
     0
102
RTVSPost2010PropOp28
 70
     1
102
RTVSPost2010Prop29
280
     1
102
RTVSPost2010PropOp29
 70
     1
102
RTVSPost2010Prop30
280
     1
102
RTVSPost2010PropOp30
 70
     1
102
RTVSPost2010Prop31
280
     0
102
RTVSPost2010PropOp31
 70
     1
102
RTVSPost2010Prop32
280
     0
102
RTVSPost2010PropOp32
 70
     1
102
RTVSPost2010Prop33
280
     0
102
RTVSPost2010PropOp33
 70
     1
102
RTVSPost2010Prop34
280
     0
102
RTVSPost2010PropOp34
 70
     1
102
RTVSPost2010Prop35
280
     0
102
RTVSPost2010PropOp35
 70
     1
102
RTVSPost2010Prop36
280
     0
102
RTVSPost2010PropOp36
 70
     1
102
RTVSPost2010Prop37
 90
       50
102
RTVSPost2010PropOp37
 70
     0
102
RTVSPost2010Prop38
140
0.0
102
RTVSPost2010PropOp38
 70
     0
102
RTVSPost2010Prop39
140
1.0
102
RTVSPost2010PropOp39
 70
     0
102
RTVSPost2010Prop40
 90
        0
102
RTVSPost2010PropOp40
 70
     0
102
RTVSPost2010Prop41ColorIndex
 90
       18
102
RTVSPost2010Prop41ColorRGB
 90
        0
102
RTVSPost2010PropOp41
 70
     0
102
RTVSPost2010Prop42
 90
       50
102
RTVSPost2010PropOp42
 70
     0
102
RTVSPost2010Prop43
 90
        3
102
RTVSPost2010PropOp43
 70
     0
102
RTVSPost2010Prop44ColorIndex
 90
        5
102
RTVSPost2010Prop44ColorRGB
 90
      255
102
RTVSPost2010PropOp44
 70
     0
102
RTVSPost2010Prop45
280
     0
102
RTVSPost2010PropOp45
 70
     1
102
RTVSPost2010Prop46
 90
       50
102
RTVSPost2010PropOp46
 70
     0
102
RTVSPost2010Prop47
 90
       50
102
RTVSPost2010PropOp47
 70
     0
102
RTVSPost2010Prop48
 90
       50
102
RTVSPost2010PropOp48
 70
     0
102
RTVSPost2010Prop49
280
     0
102
RTVSPost2010PropOp49
 70
     1
102
RTVSPost2010Prop50
 90
       50
102
RTVSPost2010PropOp50
 70
     0
102
RTVSPost2010Prop51ColorIndex
 90
      256
102
RTVSPost2010Prop51ColorRGB
 90
-16777216
102
RTVSPost2010PropOp51
 70
     0
102
RTVSPost2010Prop52
140
1.0
102
RTVSPost2010PropOp52
 70
     0
102
RTVSPost2010Prop53
 90
        2
102
RTVSPost2010PropOp53
 70
     0
102
RTVSPost2010Prop54
  1
strokes_ogs.tif
102
RTVSPost2010PropOp54
 70
     0
102
RTVSPost2010Prop55
280
     0
102
RTVSPost2010PropOp55
 70
     1
102
RTVSPost2010Prop56
140
1.0
102
RTVSPost2010PropOp56
 70
     0
102
RTVSPost2010Prop57
140
1.0
102
RTVSPost2010PropOp57
 70
     0
102
RTVSPropertyOp0
 70
     0
102
RTVSPropertyOp1
 70
     0
102
RTVSPropertyOp2
 70
     0
102
RTVSPropertyOp3
 70
     0
102
RTVSPropertyOp4
 70
     0
102
RTVSPropertyOp5
 70
     0
102
RTVSPropertyOp6
 70
     0
102
RTVSPropertyOp7
 70
     0
102
RTVSPropertyOp8
 70
     0
102
RTVSPropertyOp9
 70
     0
102
RTVSPropertyOp10
 70
     0
102
RTVSPropertyOp11
 70
     0
102
RTVSPropertyOp12
 70
     0
102
RTVSPropertyOp13
 70
     0
102
RTVSPropertyOp14
 70
     2
102
RTVSPropertyOp15
 70
     0
102
RTVSPropertyOp16
 70
     0
102
RTVSPropertyOp17
 70
     0
102
RTVSPropertyOp18
 70
     0
102
RTVSPropertyOp19
 70
     0
102
RTVSPropertyOp20
 70
     0
102
RTVSPropertyOp21
 70
     0
102
RTVSPropertyOp22
 70
     0
102
RTVSPropertyOp23
 70
     0
102
RTVSPropertyOp24
 70
     0
102
RTVSPropertyOp25
 70
     0
102
RTVSPropertyOp26
 70
     0
102
RTVSPropertyOp27
 70
     0
102
RTVSPropertyOp28
 70
     1
102
RTVSPropertyOp29
 70
     1
102
RTVSPropertyOp30
 70
     1
102
RTVSPropertyOp31
 70
     1
102
RTVSPropertyOp32
 70
     1
102
RTVSPropertyOp33
 70
     1
102
RTVSPropertyOp34
 70
     1
102
RTVSPropertyOp35
 70
     1
102
RTVSPropertyOp36
 70
     1
102
RTVSPropertyOp37
 70
     0
102
RTVSPropertyOp38
 70
     0
102
RTVSPropertyOp39
 70
     0
102
RTVSPropertyOp40
 70
     0
102
RTVSPropertyOp41
 70
     0
102
RTVSPropertyOp42
 70
     0
102
RTVSPropertyOp43
 70
     0
102
RTVSPropertyOp44
 70
     0
102
RTVSPropertyOp45
 70
     1
102
RTVSPropertyOp46
 70
     0
102
RTVSPropertyOp47
 70
     0
102
RTVSPropertyOp48
 70
     0
102
RTVSPropertyOp49
 70
     1
102
RTVSPropertyOp50
 70
     0
102
RTVSPropertyOp51
 70
     0
102
RTVSPropertyOp52
 70
     0
102
RTVSPropertyOp53
 70
     0
102
RTVSPropertyOp54
 70
     0
102
RTVSPropertyOp55
 70
     1
102
RTVSPropertyOp56
 70
     0
102
RTVSPropertyOp57
 70
     0
102
RTVSPropertyOp58
 70
     0
102
RTVSPropertyOp59
 70
     0
102
RTVSPropertyOp60
 70
     0
102
RTVSPropertyOp61
 70
     0
102
RTVSPropertyOp62
 70
     0
  0
XRECORD
  5
C805
102
{ACAD_REACTORS
330
C804
102
}
330
C804
100
AcDbXrecord
280
     1
102
RTVSPost2010Prop28
280
     0
102
RTVSPost2010PropOp28
 70
     1
102
RTVSPost2010Prop29
280
     1
102
RTVSPost2010PropOp29
 70
     1
102
RTVSPost2010Prop30
280
     1
102
RTVSPost2010PropOp30
 70
     1
102
RTVSPost2010Prop31
280
     0
102
RTVSPost2010PropOp31
 70
     1
102
RTVSPost2010Prop32
280
     0
102
RTVSPost2010PropOp32
 70
     1
102
RTVSPost2010Prop33
280
     0
102
RTVSPost2010PropOp33
 70
     1
102
RTVSPost2010Prop34
280
     0
102
RTVSPost2010PropOp34
 70
     1
102
RTVSPost2010Prop35
280
     0
102
RTVSPost2010PropOp35
 70
     1
102
RTVSPost2010Prop36
280
     0
102
RTVSPost2010PropOp36
 70
     1
102
RTVSPost2010Prop37
 90
       50
102
RTVSPost2010PropOp37
 70
     1
102
RTVSPost2010Prop38
140
0.0
102
RTVSPost2010PropOp38
 70
     1
102
RTVSPost2010Prop39
140
1.0
102
RTVSPost2010PropOp39
 70
     1
102
RTVSPost2010Prop40
 90
        0
102
RTVSPost2010PropOp40
 70
     1
102
RTVSPost2010Prop41ColorIndex
 90
       18
102
RTVSPost2010Prop41ColorRGB
 90
        0
102
RTVSPost2010PropOp41
 70
     1
102
RTVSPost2010Prop42
 90
       50
102
RTVSPost2010PropOp42
 70
     1
102
RTVSPost2010Prop43
 90
        3
102
RTVSPost2010PropOp43
 70
     1
102
RTVSPost2010Prop44ColorIndex
 90
        5
102
RTVSPost2010Prop44ColorRGB
 90
      255
102
RTVSPost2010PropOp44
 70
     1
102
RTVSPost2010Prop45
280
     0
102
RTVSPost2010PropOp45
 70
     1
102
RTVSPost2010Prop46
 90
       50
102
RTVSPost2010PropOp46
 70
     1
102
RTVSPost2010Prop47
 90
       50
102
RTVSPost2010PropOp47
 70
     1
102
RTVSPost2010Prop48
 90
       50
102
RTVSPost2010PropOp48
 70
     1
102
RTVSPost2010Prop49
280
     0
102
RTVSPost2010PropOp49
 70
     1
102
RTVSPost2010Prop50
 90
       50
102
RTVSPost2010PropOp50
 70
     1
102
RTVSPost2010Prop51ColorIndex
 90
      256
102
RTVSPost2010Prop51ColorRGB
 90
-16777216
102
RTVSPost2010PropOp51
 70
     0
102
RTVSPost2010Prop52
140
1.0
102
RTVSPost2010PropOp52
 70
     0
102
RTVSPost2010Prop53
 90
        2
102
RTVSPost2010PropOp53
 70
     1
102
RTVSPost2010Prop54
  1
strokes_ogs.tif
102
RTVSPost2010PropOp54
 70
     1
102
RTVSPost2010Prop55
280
     0
102
RTVSPost2010PropOp55
 70
     1
102
RTVSPost2010Prop56
140
1.0
102
RTVSPost2010PropOp56
 70
     1
102
RTVSPost2010Prop57
140
1.0
102
RTVSPost2010PropOp57
 70
     1
102
RTVSPropertyOp0
 70
     1
102
RTVSPropertyOp1
 70
     1
102
RTVSPropertyOp2
 70
     1
102
RTVSPropertyOp3
 70
     1
102
RTVSPropertyOp4
 70
     1
102
RTVSPropertyOp5
 70
     1
102
RTVSPropertyOp6
 70
     1
102
RTVSPropertyOp7
 70
     1
102
RTVSPropertyOp8
 70
     1
102
RTVSPropertyOp9
 70
     1
102
RTVSPropertyOp10
 70
     1
102
RTVSPropertyOp11
 70
     1
102
RTVSPropertyOp12
 70
     1
102
RTVSPropertyOp13
 70
     1
102
RTVSPropertyOp14
 70
     1
102
RTVSPropertyOp15
 70
     1
102
RTVSPropertyOp16
 70
     1
102
RTVSPropertyOp17
 70
     1
102
RTVSPropertyOp18
 70
     1
102
RTVSPropertyOp19
 70
     1
102
RTVSPropertyOp20
 70
     1
102
RTVSPropertyOp21
 70
     1
102
RTVSPropertyOp22
 70
     1
102
RTVSPropertyOp23
 70
     1
102
RTVSPropertyOp24
 70
     1
102
RTVSPropertyOp25
 70
     1
102
RTVSPropertyOp26
 70
     1
102
RTVSPropertyOp27
 70
     1
102
RTVSPropertyOp28
 70
     1
102
RTVSPropertyOp29
 70
     1
102
RTVSPropertyOp30
 70
     1
102
RTVSPropertyOp31
 70
     1
102
RTVSPropertyOp32
 70
     1
102
RTVSPropertyOp33
 70
     1
102
RTVSPropertyOp34
 70
     1
102
RTVSPropertyOp35
 70
     1
102
RTVSPropertyOp36
 70
     1
102
RTVSPropertyOp37
 70
     1
102
RTVSPropertyOp38
 70
     1
102
RTVSPropertyOp39
 70
     1
102
RTVSPropertyOp40
 70
     1
102
RTVSPropertyOp41
 70
     1
102
RTVSPropertyOp42
 70
     1
102
RTVSPropertyOp43
 70
     1
102
RTVSPropertyOp44
 70
     1
102
RTVSPropertyOp45
 70
     1
102
RTVSPropertyOp46
 70
     1
102
RTVSPropertyOp47
 70
     1
102
RTVSPropertyOp48
 70
     1
102
RTVSPropertyOp49
 70
     1
102
RTVSPropertyOp50
 70
     1
102
RTVSPropertyOp51
 70
     0
102
RTVSPropertyOp52
 70
     0
102
RTVSPropertyOp53
 70
     1
102
RTVSPropertyOp54
 70
     1
102
RTVSPropertyOp55
 70
     1
102
RTVSPropertyOp56
 70
     1
102
RTVSPropertyOp57
 70
     1
102
RTVSPropertyOp58
 70
     1
102
RTVSPropertyOp59
 70
     1
102
RTVSPropertyOp60
 70
     1
102
RTVSPropertyOp61
 70
     1
102
RTVSPropertyOp62
 70
     1
  0
XRECORD
  5
C81B
102
{ACAD_REACTORS
330
C81A
102
}
330
C81A
100
AcDbXrecord
280
     1
102
RTVSPost2010Prop28
280
     0
102
RTVSPost2010PropOp28
 70
     1
102
RTVSPost2010Prop29
280
     1
102
RTVSPost2010PropOp29
 70
     1
102
RTVSPost2010Prop30
280
     1
102
RTVSPost2010PropOp30
 70
     1
102
RTVSPost2010Prop31
280
     0
102
RTVSPost2010PropOp31
 70
     1
102
RTVSPost2010Prop32
280
     0
102
RTVSPost2010PropOp32
 70
     1
102
RTVSPost2010Prop33
280
     0
102
RTVSPost2010PropOp33
 70
     1
102
RTVSPost2010Prop34
280
     0
102
RTVSPost2010PropOp34
 70
     1
102
RTVSPost2010Prop35
280
     0
102
RTVSPost2010PropOp35
 70
     1
102
RTVSPost2010Prop36
280
     0
102
RTVSPost2010PropOp36
 70
     1
102
RTVSPost2010Prop37
 90
       50
102
RTVSPost2010PropOp37
 70
     1
102
RTVSPost2010Prop38
140
0.0
102
RTVSPost2010PropOp38
 70
     1
102
RTVSPost2010Prop39
140
1.0
102
RTVSPost2010PropOp39
 70
     1
102
RTVSPost2010Prop40
 90
        0
102
RTVSPost2010PropOp40
 70
     1
102
RTVSPost2010Prop41ColorIndex
 90
       18
102
RTVSPost2010Prop41ColorRGB
 90
        0
102
RTVSPost2010PropOp41
 70
     1
102
RTVSPost2010Prop42
 90
       50
102
RTVSPost2010PropOp42
 70
     1
102
RTVSPost2010Prop43
 90
        3
102
RTVSPost2010PropOp43
 70
     1
102
RTVSPost2010Prop44ColorIndex
 90
        5
102
RTVSPost2010Prop44ColorRGB
 90
      255
102
RTVSPost2010PropOp44
 70
     1
102
RTVSPost2010Prop45
280
     0
102
RTVSPost2010PropOp45
 70
     1
102
RTVSPost2010Prop46
 90
       50
102
RTVSPost2010PropOp46
 70
     1
102
RTVSPost2010Prop47
 90
       50
102
RTVSPost2010PropOp47
 70
     1
102
RTVSPost2010Prop48
 90
       50
102
RTVSPost2010PropOp48
 70
     1
102
RTVSPost2010Prop49
280
     0
102
RTVSPost2010PropOp49
 70
     1
102
RTVSPost2010Prop50
 90
       50
102
RTVSPost2010PropOp50
 70
     1
102
RTVSPost2010Prop51ColorIndex
 90
      256
102
RTVSPost2010Prop51ColorRGB
 90
-16777216
102
RTVSPost2010PropOp51
 70
     0
102
RTVSPost2010Prop52
140
1.0
102
RTVSPost2010PropOp52
 70
     0
102
RTVSPost2010Prop53
 90
        2
102
RTVSPost2010PropOp53
 70
     1
102
RTVSPost2010Prop54
  1
strokes_ogs.tif
102
RTVSPost2010PropOp54
 70
     1
102
RTVSPost2010Prop55
280
     0
102
RTVSPost2010PropOp55
 70
     1
102
RTVSPost2010Prop56
140
1.0
102
RTVSPost2010PropOp56
 70
     1
102
RTVSPost2010Prop57
140
1.0
102
RTVSPost2010PropOp57
 70
     1
102
RTVSPropertyOp0
 70
     1
102
RTVSPropertyOp1
 70
     1
102
RTVSPropertyOp2
 70
     1
102
RTVSPropertyOp3
 70
     1
102
RTVSPropertyOp4
 70
     1
102
RTVSPropertyOp5
 70
     1
102
RTVSPropertyOp6
 70
     1
102
RTVSPropertyOp7
 70
     1
102
RTVSPropertyOp8
 70
     1
102
RTVSPropertyOp9
 70
     1
102
RTVSPropertyOp10
 70
     1
102
RTVSPropertyOp11
 70
     1
102
RTVSPropertyOp12
 70
     1
102
RTVSPropertyOp13
 70
     1
102
RTVSPropertyOp14
 70
     1
102
RTVSPropertyOp15
 70
     1
102
RTVSPropertyOp16
 70
     1
102
RTVSPropertyOp17
 70
     1
102
RTVSPropertyOp18
 70
     1
102
RTVSPropertyOp19
 70
     1
102
RTVSPropertyOp20
 70
     1
102
RTVSPropertyOp21
 70
     1
102
RTVSPropertyOp22
 70
     1
102
RTVSPropertyOp23
 70
     1
102
RTVSPropertyOp24
 70
     1
102
RTVSPropertyOp25
 70
     1
102
RTVSPropertyOp26
 70
     1
102
RTVSPropertyOp27
 70
     1
102
RTVSPropertyOp28
 70
     1
102
RTVSPropertyOp29
 70
     1
102
RTVSPropertyOp30
 70
     1
102
RTVSPropertyOp31
 70
     1
102
RTVSPropertyOp32
 70
     1
102
RTVSPropertyOp33
 70
     1
102
RTVSPropertyOp34
 70
     1
102
RTVSPropertyOp35
 70
     1
102
RTVSPropertyOp36
 70
     1
102
RTVSPropertyOp37
 70
     1
102
RTVSPropertyOp38
 70
     1
102
RTVSPropertyOp39
 70
     1
102
RTVSPropertyOp40
 70
     1
102
RTVSPropertyOp41
 70
     1
102
RTVSPropertyOp42
 70
     1
102
RTVSPropertyOp43
 70
     1
102
RTVSPropertyOp44
 70
     1
102
RTVSPropertyOp45
 70
     1
102
RTVSPropertyOp46
 70
     1
102
RTVSPropertyOp47
 70
     1
102
RTVSPropertyOp48
 70
     1
102
RTVSPropertyOp49
 70
     1
102
RTVSPropertyOp50
 70
     1
102
RTVSPropertyOp51
 70
     0
102
RTVSPropertyOp52
 70
     0
102
RTVSPropertyOp53
 70
     1
102
RTVSPropertyOp54
 70
     1
102
RTVSPropertyOp55
 70
     1
102
RTVSPropertyOp56
 70
     1
102
RTVSPropertyOp57
 70
     1
102
RTVSPropertyOp58
 70
     1
102
RTVSPropertyOp59
 70
     1
102
RTVSPropertyOp60
 70
     1
102
RTVSPropertyOp61
 70
     1
102
RTVSPropertyOp62
 70
     1
  0
XRECORD
  5
C819
102
{ACAD_REACTORS
330
C818
102
}
330
C818
100
AcDbXrecord
280
     1
102
RTVSPost2010Prop28
280
     0
102
RTVSPost2010PropOp28
 70
     1
102
RTVSPost2010Prop29
280
     1
102
RTVSPost2010PropOp29
 70
     1
102
RTVSPost2010Prop30
280
     1
102
RTVSPost2010PropOp30
 70
     1
102
RTVSPost2010Prop31
280
     0
102
RTVSPost2010PropOp31
 70
     1
102
RTVSPost2010Prop32
280
     0
102
RTVSPost2010PropOp32
 70
     1
102
RTVSPost2010Prop33
280
     0
102
RTVSPost2010PropOp33
 70
     1
102
RTVSPost2010Prop34
280
     0
102
RTVSPost2010PropOp34
 70
     1
102
RTVSPost2010Prop35
280
     0
102
RTVSPost2010PropOp35
 70
     1
102
RTVSPost2010Prop36
280
     0
102
RTVSPost2010PropOp36
 70
     1
102
RTVSPost2010Prop37
 90
       50
102
RTVSPost2010PropOp37
 70
     1
102
RTVSPost2010Prop38
140
0.0
102
RTVSPost2010PropOp38
 70
     1
102
RTVSPost2010Prop39
140
1.0
102
RTVSPost2010PropOp39
 70
     1
102
RTVSPost2010Prop40
 90
        0
102
RTVSPost2010PropOp40
 70
     1
102
RTVSPost2010Prop41ColorIndex
 90
       18
102
RTVSPost2010Prop41ColorRGB
 90
        0
102
RTVSPost2010PropOp41
 70
     1
102
RTVSPost2010Prop42
 90
       50
102
RTVSPost2010PropOp42
 70
     1
102
RTVSPost2010Prop43
 90
        3
102
RTVSPost2010PropOp43
 70
     1
102
RTVSPost2010Prop44ColorIndex
 90
        5
102
RTVSPost2010Prop44ColorRGB
 90
      255
102
RTVSPost2010PropOp44
 70
     1
102
RTVSPost2010Prop45
280
     0
102
RTVSPost2010PropOp45
 70
     1
102
RTVSPost2010Prop46
 90
       50
102
RTVSPost2010PropOp46
 70
     1
102
RTVSPost2010Prop47
 90
       50
102
RTVSPost2010PropOp47
 70
     1
102
RTVSPost2010Prop48
 90
       50
102
RTVSPost2010PropOp48
 70
     1
102
RTVSPost2010Prop49
280
     0
102
RTVSPost2010PropOp49
 70
     1
102
RTVSPost2010Prop50
 90
       50
102
RTVSPost2010PropOp50
 70
     1
102
RTVSPost2010Prop51ColorIndex
 90
      256
102
RTVSPost2010Prop51ColorRGB
 90
-16777216
102
RTVSPost2010PropOp51
 70
     0
102
RTVSPost2010Prop52
140
1.0
102
RTVSPost2010PropOp52
 70
     0
102
RTVSPost2010Prop53
 90
        2
102
RTVSPost2010PropOp53
 70
     1
102
RTVSPost2010Prop54
  1
strokes_ogs.tif
102
RTVSPost2010PropOp54
 70
     1
102
RTVSPost2010Prop55
280
     0
102
RTVSPost2010PropOp55
 70
     1
102
RTVSPost2010Prop56
140
1.0
102
RTVSPost2010PropOp56
 70
     1
102
RTVSPost2010Prop57
140
1.0
102
RTVSPost2010PropOp57
 70
     1
102
RTVSPropertyOp0
 70
     1
102
RTVSPropertyOp1
 70
     1
102
RTVSPropertyOp2
 70
     1
102
RTVSPropertyOp3
 70
     1
102
RTVSPropertyOp4
 70
     1
102
RTVSPropertyOp5
 70
     1
102
RTVSPropertyOp6
 70
     1
102
RTVSPropertyOp7
 70
     1
102
RTVSPropertyOp8
 70
     1
102
RTVSPropertyOp9
 70
     1
102
RTVSPropertyOp10
 70
     1
102
RTVSPropertyOp11
 70
     1
102
RTVSPropertyOp12
 70
     1
102
RTVSPropertyOp13
 70
     1
102
RTVSPropertyOp14
 70
     1
102
RTVSPropertyOp15
 70
     1
102
RTVSPropertyOp16
 70
     1
102
RTVSPropertyOp17
 70
     1
102
RTVSPropertyOp18
 70
     1
102
RTVSPropertyOp19
 70
     1
102
RTVSPropertyOp20
 70
     1
102
RTVSPropertyOp21
 70
     1
102
RTVSPropertyOp22
 70
     1
102
RTVSPropertyOp23
 70
     1
102
RTVSPropertyOp24
 70
     1
102
RTVSPropertyOp25
 70
     1
102
RTVSPropertyOp26
 70
     1
102
RTVSPropertyOp27
 70
     1
102
RTVSPropertyOp28
 70
     1
102
RTVSPropertyOp29
 70
     1
102
RTVSPropertyOp30
 70
     1
102
RTVSPropertyOp31
 70
     1
102
RTVSPropertyOp32
 70
     1
102
RTVSPropertyOp33
 70
     1
102
RTVSPropertyOp34
 70
     1
102
RTVSPropertyOp35
 70
     1
102
RTVSPropertyOp36
 70
     1
102
RTVSPropertyOp37
 70
     1
102
RTVSPropertyOp38
 70
     1
102
RTVSPropertyOp39
 70
     1
102
RTVSPropertyOp40
 70
     1
102
RTVSPropertyOp41
 70
     1
102
RTVSPropertyOp42
 70
     1
102
RTVSPropertyOp43
 70
     1
102
RTVSPropertyOp44
 70
     1
102
RTVSPropertyOp45
 70
     1
102
RTVSPropertyOp46
 70
     1
102
RTVSPropertyOp47
 70
     1
102
RTVSPropertyOp48
 70
     1
102
RTVSPropertyOp49
 70
     1
102
RTVSPropertyOp50
 70
     1
102
RTVSPropertyOp51
 70
     0
102
RTVSPropertyOp52
 70
     0
102
RTVSPropertyOp53
 70
     1
102
RTVSPropertyOp54
 70
     1
102
RTVSPropertyOp55
 70
     1
102
RTVSPropertyOp56
 70
     1
102
RTVSPropertyOp57
 70
     1
102
RTVSPropertyOp58
 70
     1
102
RTVSPropertyOp59
 70
     1
102
RTVSPropertyOp60
 70
     1
102
RTVSPropertyOp61
 70
     1
102
RTVSPropertyOp62
 70
     1
  0
XRECORD
  5
C813
102
{ACAD_REACTORS
330
C812
102
}
330
C812
100
AcDbXrecord
280
     1
102
RTVSPost2010Prop28
280
     0
102
RTVSPost2010PropOp28
 70
     1
102
RTVSPost2010Prop29
280
     1
102
RTVSPost2010PropOp29
 70
     1
102
RTVSPost2010Prop30
280
     1
102
RTVSPost2010PropOp30
 70
     1
102
RTVSPost2010Prop31
280
     0
102
RTVSPost2010PropOp31
 70
     1
102
RTVSPost2010Prop32
280
     0
102
RTVSPost2010PropOp32
 70
     1
102
RTVSPost2010Prop33
280
     0
102
RTVSPost2010PropOp33
 70
     1
102
RTVSPost2010Prop34
280
     0
102
RTVSPost2010PropOp34
 70
     1
102
RTVSPost2010Prop35
280
     0
102
RTVSPost2010PropOp35
 70
     1
102
RTVSPost2010Prop36
280
     0
102
RTVSPost2010PropOp36
 70
     1
102
RTVSPost2010Prop37
 90
       50
102
RTVSPost2010PropOp37
 70
     1
102
RTVSPost2010Prop38
140
0.0
102
RTVSPost2010PropOp38
 70
     1
102
RTVSPost2010Prop39
140
1.0
102
RTVSPost2010PropOp39
 70
     1
102
RTVSPost2010Prop40
 90
        0
102
RTVSPost2010PropOp40
 70
     1
102
RTVSPost2010Prop41ColorIndex
 90
       18
102
RTVSPost2010Prop41ColorRGB
 90
        0
102
RTVSPost2010PropOp41
 70
     1
102
RTVSPost2010Prop42
 90
       50
102
RTVSPost2010PropOp42
 70
     1
102
RTVSPost2010Prop43
 90
        3
102
RTVSPost2010PropOp43
 70
     1
102
RTVSPost2010Prop44ColorIndex
 90
        5
102
RTVSPost2010Prop44ColorRGB
 90
      255
102
RTVSPost2010PropOp44
 70
     1
102
RTVSPost2010Prop45
280
     0
102
RTVSPost2010PropOp45
 70
     1
102
RTVSPost2010Prop46
 90
       50
102
RTVSPost2010PropOp46
 70
     1
102
RTVSPost2010Prop47
 90
       50
102
RTVSPost2010PropOp47
 70
     1
102
RTVSPost2010Prop48
 90
       50
102
RTVSPost2010PropOp48
 70
     1
102
RTVSPost2010Prop49
280
     0
102
RTVSPost2010PropOp49
 70
     1
102
RTVSPost2010Prop50
 90
       50
102
RTVSPost2010PropOp50
 70
     1
102
RTVSPost2010Prop51ColorIndex
 90
      256
102
RTVSPost2010Prop51ColorRGB
 90
-16777216
102
RTVSPost2010PropOp51
 70
     0
102
RTVSPost2010Prop52
140
1.0
102
RTVSPost2010PropOp52
 70
     0
102
RTVSPost2010Prop53
 90
        2
102
RTVSPost2010PropOp53
 70
     1
102
RTVSPost2010Prop54
  1
strokes_ogs.tif
102
RTVSPost2010PropOp54
 70
     1
102
RTVSPost2010Prop55
280
     0
102
RTVSPost2010PropOp55
 70
     1
102
RTVSPost2010Prop56
140
1.0
102
RTVSPost2010PropOp56
 70
     1
102
RTVSPost2010Prop57
140
1.0
102
RTVSPost2010PropOp57
 70
     1
102
RTVSPropertyOp0
 70
     1
102
RTVSPropertyOp1
 70
     1
102
RTVSPropertyOp2
 70
     1
102
RTVSPropertyOp3
 70
     1
102
RTVSPropertyOp4
 70
     1
102
RTVSPropertyOp5
 70
     1
102
RTVSPropertyOp6
 70
     1
102
RTVSPropertyOp7
 70
     1
102
RTVSPropertyOp8
 70
     1
102
RTVSPropertyOp9
 70
     1
102
RTVSPropertyOp10
 70
     1
102
RTVSPropertyOp11
 70
     1
102
RTVSPropertyOp12
 70
     1
102
RTVSPropertyOp13
 70
     1
102
RTVSPropertyOp14
 70
     1
102
RTVSPropertyOp15
 70
     1
102
RTVSPropertyOp16
 70
     1
102
RTVSPropertyOp17
 70
     1
102
RTVSPropertyOp18
 70
     1
102
RTVSPropertyOp19
 70
     1
102
RTVSPropertyOp20
 70
     1
102
RTVSPropertyOp21
 70
     1
102
RTVSPropertyOp22
 70
     1
102
RTVSPropertyOp23
 70
     1
102
RTVSPropertyOp24
 70
     1
102
RTVSPropertyOp25
 70
     1
102
RTVSPropertyOp26
 70
     1
102
RTVSPropertyOp27
 70
     1
102
RTVSPropertyOp28
 70
     1
102
RTVSPropertyOp29
 70
     1
102
RTVSPropertyOp30
 70
     1
102
RTVSPropertyOp31
 70
     1
102
RTVSPropertyOp32
 70
     1
102
RTVSPropertyOp33
 70
     1
102
RTVSPropertyOp34
 70
     1
102
RTVSPropertyOp35
 70
     1
102
RTVSPropertyOp36
 70
     1
102
RTVSPropertyOp37
 70
     1
102
RTVSPropertyOp38
 70
     1
102
RTVSPropertyOp39
 70
     1
102
RTVSPropertyOp40
 70
     1
102
RTVSPropertyOp41
 70
     1
102
RTVSPropertyOp42
 70
     1
102
RTVSPropertyOp43
 70
     1
102
RTVSPropertyOp44
 70
     1
102
RTVSPropertyOp45
 70
     1
102
RTVSPropertyOp46
 70
     1
102
RTVSPropertyOp47
 70
     1
102
RTVSPropertyOp48
 70
     1
102
RTVSPropertyOp49
 70
     1
102
RTVSPropertyOp50
 70
     1
102
RTVSPropertyOp51
 70
     0
102
RTVSPropertyOp52
 70
     0
102
RTVSPropertyOp53
 70
     1
102
RTVSPropertyOp54
 70
     1
102
RTVSPropertyOp55
 70
     1
102
RTVSPropertyOp56
 70
     1
102
RTVSPropertyOp57
 70
     1
102
RTVSPropertyOp58
 70
     1
102
RTVSPropertyOp59
 70
     1
102
RTVSPropertyOp60
 70
     1
102
RTVSPropertyOp61
 70
     1
102
RTVSPropertyOp62
 70
     1
  0
XRECORD
  5
C815
102
{ACAD_REACTORS
330
C814
102
}
330
C814
100
AcDbXrecord
280
     1
102
RTVSPost2010Prop28
280
     0
102
RTVSPost2010PropOp28
 70
     1
102
RTVSPost2010Prop29
280
     1
102
RTVSPost2010PropOp29
 70
     1
102
RTVSPost2010Prop30
280
     1
102
RTVSPost2010PropOp30
 70
     1
102
RTVSPost2010Prop31
280
     0
102
RTVSPost2010PropOp31
 70
     1
102
RTVSPost2010Prop32
280
     0
102
RTVSPost2010PropOp32
 70
     1
102
RTVSPost2010Prop33
280
     0
102
RTVSPost2010PropOp33
 70
     1
102
RTVSPost2010Prop34
280
     0
102
RTVSPost2010PropOp34
 70
     1
102
RTVSPost2010Prop35
280
     0
102
RTVSPost2010PropOp35
 70
     1
102
RTVSPost2010Prop36
280
     0
102
RTVSPost2010PropOp36
 70
     1
102
RTVSPost2010Prop37
 90
       50
102
RTVSPost2010PropOp37
 70
     1
102
RTVSPost2010Prop38
140
0.0
102
RTVSPost2010PropOp38
 70
     1
102
RTVSPost2010Prop39
140
1.0
102
RTVSPost2010PropOp39
 70
     1
102
RTVSPost2010Prop40
 90
        0
102
RTVSPost2010PropOp40
 70
     1
102
RTVSPost2010Prop41ColorIndex
 90
       18
102
RTVSPost2010Prop41ColorRGB
 90
        0
102
RTVSPost2010PropOp41
 70
     1
102
RTVSPost2010Prop42
 90
       50
102
RTVSPost2010PropOp42
 70
     1
102
RTVSPost2010Prop43
 90
        3
102
RTVSPost2010PropOp43
 70
     1
102
RTVSPost2010Prop44ColorIndex
 90
        5
102
RTVSPost2010Prop44ColorRGB
 90
      255
102
RTVSPost2010PropOp44
 70
     1
102
RTVSPost2010Prop45
280
     0
102
RTVSPost2010PropOp45
 70
     1
102
RTVSPost2010Prop46
 90
       50
102
RTVSPost2010PropOp46
 70
     1
102
RTVSPost2010Prop47
 90
       50
102
RTVSPost2010PropOp47
 70
     1
102
RTVSPost2010Prop48
 90
       50
102
RTVSPost2010PropOp48
 70
     1
102
RTVSPost2010Prop49
280
     0
102
RTVSPost2010PropOp49
 70
     1
102
RTVSPost2010Prop50
 90
       50
102
RTVSPost2010PropOp50
 70
     1
102
RTVSPost2010Prop51ColorIndex
 90
      256
102
RTVSPost2010Prop51ColorRGB
 90
-16777216
102
RTVSPost2010PropOp51
 70
     0
102
RTVSPost2010Prop52
140
1.0
102
RTVSPost2010PropOp52
 70
     0
102
RTVSPost2010Prop53
 90
        2
102
RTVSPost2010PropOp53
 70
     1
102
RTVSPost2010Prop54
  1
strokes_ogs.tif
102
RTVSPost2010PropOp54
 70
     1
102
RTVSPost2010Prop55
280
     0
102
RTVSPost2010PropOp55
 70
     1
102
RTVSPost2010Prop56
140
1.0
102
RTVSPost2010PropOp56
 70
     1
102
RTVSPost2010Prop57
140
1.0
102
RTVSPost2010PropOp57
 70
     1
102
RTVSPropertyOp0
 70
     1
102
RTVSPropertyOp1
 70
     1
102
RTVSPropertyOp2
 70
     1
102
RTVSPropertyOp3
 70
     1
102
RTVSPropertyOp4
 70
     1
102
RTVSPropertyOp5
 70
     1
102
RTVSPropertyOp6
 70
     1
102
RTVSPropertyOp7
 70
     1
102
RTVSPropertyOp8
 70
     1
102
RTVSPropertyOp9
 70
     1
102
RTVSPropertyOp10
 70
     1
102
RTVSPropertyOp11
 70
     1
102
RTVSPropertyOp12
 70
     1
102
RTVSPropertyOp13
 70
     1
102
RTVSPropertyOp14
 70
     1
102
RTVSPropertyOp15
 70
     1
102
RTVSPropertyOp16
 70
     1
102
RTVSPropertyOp17
 70
     1
102
RTVSPropertyOp18
 70
     1
102
RTVSPropertyOp19
 70
     1
102
RTVSPropertyOp20
 70
     1
102
RTVSPropertyOp21
 70
     1
102
RTVSPropertyOp22
 70
     1
102
RTVSPropertyOp23
 70
     1
102
RTVSPropertyOp24
 70
     1
102
RTVSPropertyOp25
 70
     1
102
RTVSPropertyOp26
 70
     1
102
RTVSPropertyOp27
 70
     1
102
RTVSPropertyOp28
 70
     1
102
RTVSPropertyOp29
 70
     1
102
RTVSPropertyOp30
 70
     1
102
RTVSPropertyOp31
 70
     1
102
RTVSPropertyOp32
 70
     1
102
RTVSPropertyOp33
 70
     1
102
RTVSPropertyOp34
 70
     1
102
RTVSPropertyOp35
 70
     1
102
RTVSPropertyOp36
 70
     1
102
RTVSPropertyOp37
 70
     1
102
RTVSPropertyOp38
 70
     1
102
RTVSPropertyOp39
 70
     1
102
RTVSPropertyOp40
 70
     1
102
RTVSPropertyOp41
 70
     1
102
RTVSPropertyOp42
 70
     1
102
RTVSPropertyOp43
 70
     1
102
RTVSPropertyOp44
 70
     1
102
RTVSPropertyOp45
 70
     1
102
RTVSPropertyOp46
 70
     1
102
RTVSPropertyOp47
 70
     1
102
RTVSPropertyOp48
 70
     1
102
RTVSPropertyOp49
 70
     1
102
RTVSPropertyOp50
 70
     1
102
RTVSPropertyOp51
 70
     0
102
RTVSPropertyOp52
 70
     0
102
RTVSPropertyOp53
 70
     1
102
RTVSPropertyOp54
 70
     1
102
RTVSPropertyOp55
 70
     1
102
RTVSPropertyOp56
 70
     1
102
RTVSPropertyOp57
 70
     1
102
RTVSPropertyOp58
 70
     1
102
RTVSPropertyOp59
 70
     1
102
RTVSPropertyOp60
 70
     1
102
RTVSPropertyOp61
 70
     1
102
RTVSPropertyOp62
 70
     1
  0
XRECORD
  5
C80B
102
{ACAD_REACTORS
330
C80A
102
}
330
C80A
100
AcDbXrecord
280
     1
102
RTVSPost2010Prop28
280
     0
102
RTVSPost2010PropOp28
 70
     1
102
RTVSPost2010Prop29
280
     1
102
RTVSPost2010PropOp29
 70
     1
102
RTVSPost2010Prop30
280
     1
102
RTVSPost2010PropOp30
 70
     1
102
RTVSPost2010Prop31
280
     0
102
RTVSPost2010PropOp31
 70
     1
102
RTVSPost2010Prop32
280
     0
102
RTVSPost2010PropOp32
 70
     1
102
RTVSPost2010Prop33
280
     0
102
RTVSPost2010PropOp33
 70
     1
102
RTVSPost2010Prop34
280
     0
102
RTVSPost2010PropOp34
 70
     1
102
RTVSPost2010Prop35
280
     0
102
RTVSPost2010PropOp35
 70
     1
102
RTVSPost2010Prop36
280
     0
102
RTVSPost2010PropOp36
 70
     1
102
RTVSPost2010Prop37
 90
       50
102
RTVSPost2010PropOp37
 70
     1
102
RTVSPost2010Prop38
140
0.0
102
RTVSPost2010PropOp38
 70
     1
102
RTVSPost2010Prop39
140
1.0
102
RTVSPost2010PropOp39
 70
     1
102
RTVSPost2010Prop40
 90
        0
102
RTVSPost2010PropOp40
 70
     1
102
RTVSPost2010Prop41ColorIndex
 90
       18
102
RTVSPost2010Prop41ColorRGB
 90
        0
102
RTVSPost2010PropOp41
 70
     1
102
RTVSPost2010Prop42
 90
       50
102
RTVSPost2010PropOp42
 70
     1
102
RTVSPost2010Prop43
 90
        3
102
RTVSPost2010PropOp43
 70
     1
102
RTVSPost2010Prop44ColorIndex
 90
        5
102
RTVSPost2010Prop44ColorRGB
 90
      255
102
RTVSPost2010PropOp44
 70
     1
102
RTVSPost2010Prop45
280
     0
102
RTVSPost2010PropOp45
 70
     1
102
RTVSPost2010Prop46
 90
       50
102
RTVSPost2010PropOp46
 70
     1
102
RTVSPost2010Prop47
 90
       50
102
RTVSPost2010PropOp47
 70
     1
102
RTVSPost2010Prop48
 90
       50
102
RTVSPost2010PropOp48
 70
     1
102
RTVSPost2010Prop49
280
     0
102
RTVSPost2010PropOp49
 70
     1
102
RTVSPost2010Prop50
 90
       50
102
RTVSPost2010PropOp50
 70
     1
102
RTVSPost2010Prop51ColorIndex
 90
      256
102
RTVSPost2010Prop51ColorRGB
 90
-16777216
102
RTVSPost2010PropOp51
 70
     0
102
RTVSPost2010Prop52
140
1.0
102
RTVSPost2010PropOp52
 70
     0
102
RTVSPost2010Prop53
 90
        2
102
RTVSPost2010PropOp53
 70
     1
102
RTVSPost2010Prop54
  1
strokes_ogs.tif
102
RTVSPost2010PropOp54
 70
     1
102
RTVSPost2010Prop55
280
     0
102
RTVSPost2010PropOp55
 70
     1
102
RTVSPost2010Prop56
140
1.0
102
RTVSPost2010PropOp56
 70
     1
102
RTVSPost2010Prop57
140
1.0
102
RTVSPost2010PropOp57
 70
     1
102
RTVSPropertyOp0
 70
     1
102
RTVSPropertyOp1
 70
     1
102
RTVSPropertyOp2
 70
     1
102
RTVSPropertyOp3
 70
     1
102
RTVSPropertyOp4
 70
     1
102
RTVSPropertyOp5
 70
     1
102
RTVSPropertyOp6
 70
     1
102
RTVSPropertyOp7
 70
     1
102
RTVSPropertyOp8
 70
     1
102
RTVSPropertyOp9
 70
     1
102
RTVSPropertyOp10
 70
     1
102
RTVSPropertyOp11
 70
     1
102
RTVSPropertyOp12
 70
     1
102
RTVSPropertyOp13
 70
     1
102
RTVSPropertyOp14
 70
     1
102
RTVSPropertyOp15
 70
     1
102
RTVSPropertyOp16
 70
     1
102
RTVSPropertyOp17
 70
     1
102
RTVSPropertyOp18
 70
     1
102
RTVSPropertyOp19
 70
     1
102
RTVSPropertyOp20
 70
     1
102
RTVSPropertyOp21
 70
     1
102
RTVSPropertyOp22
 70
     1
102
RTVSPropertyOp23
 70
     1
102
RTVSPropertyOp24
 70
     1
102
RTVSPropertyOp25
 70
     1
102
RTVSPropertyOp26
 70
     1
102
RTVSPropertyOp27
 70
     1
102
RTVSPropertyOp28
 70
     1
102
RTVSPropertyOp29
 70
     1
102
RTVSPropertyOp30
 70
     1
102
RTVSPropertyOp31
 70
     1
102
RTVSPropertyOp32
 70
     1
102
RTVSPropertyOp33
 70
     1
102
RTVSPropertyOp34
 70
     1
102
RTVSPropertyOp35
 70
     1
102
RTVSPropertyOp36
 70
     1
102
RTVSPropertyOp37
 70
     1
102
RTVSPropertyOp38
 70
     1
102
RTVSPropertyOp39
 70
     1
102
RTVSPropertyOp40
 70
     1
102
RTVSPropertyOp41
 70
     1
102
RTVSPropertyOp42
 70
     1
102
RTVSPropertyOp43
 70
     1
102
RTVSPropertyOp44
 70
     1
102
RTVSPropertyOp45
 70
     1
102
RTVSPropertyOp46
 70
     1
102
RTVSPropertyOp47
 70
     1
102
RTVSPropertyOp48
 70
     1
102
RTVSPropertyOp49
 70
     1
102
RTVSPropertyOp50
 70
     1
102
RTVSPropertyOp51
 70
     0
102
RTVSPropertyOp52
 70
     0
102
RTVSPropertyOp53
 70
     1
102
RTVSPropertyOp54
 70
     1
102
RTVSPropertyOp55
 70
     1
102
RTVSPropertyOp56
 70
     1
102
RTVSPropertyOp57
 70
     1
102
RTVSPropertyOp58
 70
     1
102
RTVSPropertyOp59
 70
     1
102
RTVSPropertyOp60
 70
     1
102
RTVSPropertyOp61
 70
     1
102
RTVSPropertyOp62
 70
     1
  0
XRECORD
  5
C7FF
102
{ACAD_REACTORS
330
C7FE
102
}
330
C7FE
100
AcDbXrecord
280
     1
102
RTVSPost2010Prop28
280
     0
102
RTVSPost2010PropOp28
 70
     1
102
RTVSPost2010Prop29
280
     1
102
RTVSPost2010PropOp29
 70
     1
102
RTVSPost2010Prop30
280
     1
102
RTVSPost2010PropOp30
 70
     1
102
RTVSPost2010Prop31
280
     0
102
RTVSPost2010PropOp31
 70
     1
102
RTVSPost2010Prop32
280
     0
102
RTVSPost2010PropOp32
 70
     1
102
RTVSPost2010Prop33
280
     0
102
RTVSPost2010PropOp33
 70
     1
102
RTVSPost2010Prop34
280
     0
102
RTVSPost2010PropOp34
 70
     1
102
RTVSPost2010Prop35
280
     0
102
RTVSPost2010PropOp35
 70
     1
102
RTVSPost2010Prop36
280
     0
102
RTVSPost2010PropOp36
 70
     1
102
RTVSPost2010Prop37
 90
       50
102
RTVSPost2010PropOp37
 70
     1
102
RTVSPost2010Prop38
140
0.0
102
RTVSPost2010PropOp38
 70
     1
102
RTVSPost2010Prop39
140
1.0
102
RTVSPost2010PropOp39
 70
     1
102
RTVSPost2010Prop40
 90
        0
102
RTVSPost2010PropOp40
 70
     1
102
RTVSPost2010Prop41ColorIndex
 90
       18
102
RTVSPost2010Prop41ColorRGB
 90
        0
102
RTVSPost2010PropOp41
 70
     1
102
RTVSPost2010Prop42
 90
       50
102
RTVSPost2010PropOp42
 70
     1
102
RTVSPost2010Prop43
 90
        3
102
RTVSPost2010PropOp43
 70
     1
102
RTVSPost2010Prop44ColorIndex
 90
        5
102
RTVSPost2010Prop44ColorRGB
 90
      255
102
RTVSPost2010PropOp44
 70
     1
102
RTVSPost2010Prop45
280
     0
102
RTVSPost2010PropOp45
 70
     1
102
RTVSPost2010Prop46
 90
       50
102
RTVSPost2010PropOp46
 70
     1
102
RTVSPost2010Prop47
 90
       50
102
RTVSPost2010PropOp47
 70
     1
102
RTVSPost2010Prop48
 90
       50
102
RTVSPost2010PropOp48
 70
     1
102
RTVSPost2010Prop49
280
     0
102
RTVSPost2010PropOp49
 70
     1
102
RTVSPost2010Prop50
 90
       50
102
RTVSPost2010PropOp50
 70
     1
102
RTVSPost2010Prop51ColorIndex
 90
      256
102
RTVSPost2010Prop51ColorRGB
 90
-16777216
102
RTVSPost2010PropOp51
 70
     0
102
RTVSPost2010Prop52
140
1.0
102
RTVSPost2010PropOp52
 70
     0
102
RTVSPost2010Prop53
 90
        2
102
RTVSPost2010PropOp53
 70
     1
102
RTVSPost2010Prop54
  1
strokes_ogs.tif
102
RTVSPost2010PropOp54
 70
     1
102
RTVSPost2010Prop55
280
     0
102
RTVSPost2010PropOp55
 70
     1
102
RTVSPost2010Prop56
140
1.0
102
RTVSPost2010PropOp56
 70
     1
102
RTVSPost2010Prop57
140
1.0
102
RTVSPost2010PropOp57
 70
     1
102
RTVSPropertyOp0
 70
     1
102
RTVSPropertyOp1
 70
     1
102
RTVSPropertyOp2
 70
     1
102
RTVSPropertyOp3
 70
     1
102
RTVSPropertyOp4
 70
     1
102
RTVSPropertyOp5
 70
     1
102
RTVSPropertyOp6
 70
     1
102
RTVSPropertyOp7
 70
     1
102
RTVSPropertyOp8
 70
     1
102
RTVSPropertyOp9
 70
     1
102
RTVSPropertyOp10
 70
     1
102
RTVSPropertyOp11
 70
     1
102
RTVSPropertyOp12
 70
     1
102
RTVSPropertyOp13
 70
     1
102
RTVSPropertyOp14
 70
     1
102
RTVSPropertyOp15
 70
     1
102
RTVSPropertyOp16
 70
     1
102
RTVSPropertyOp17
 70
     1
102
RTVSPropertyOp18
 70
     1
102
RTVSPropertyOp19
 70
     1
102
RTVSPropertyOp20
 70
     1
102
RTVSPropertyOp21
 70
     1
102
RTVSPropertyOp22
 70
     1
102
RTVSPropertyOp23
 70
     1
102
RTVSPropertyOp24
 70
     1
102
RTVSPropertyOp25
 70
     1
102
RTVSPropertyOp26
 70
     1
102
RTVSPropertyOp27
 70
     1
102
RTVSPropertyOp28
 70
     1
102
RTVSPropertyOp29
 70
     1
102
RTVSPropertyOp30
 70
     1
102
RTVSPropertyOp31
 70
     1
102
RTVSPropertyOp32
 70
     1
102
RTVSPropertyOp33
 70
     1
102
RTVSPropertyOp34
 70
     1
102
RTVSPropertyOp35
 70
     1
102
RTVSPropertyOp36
 70
     1
102
RTVSPropertyOp37
 70
     1
102
RTVSPropertyOp38
 70
     1
102
RTVSPropertyOp39
 70
     1
102
RTVSPropertyOp40
 70
     1
102
RTVSPropertyOp41
 70
     1
102
RTVSPropertyOp42
 70
     1
102
RTVSPropertyOp43
 70
     1
102
RTVSPropertyOp44
 70
     1
102
RTVSPropertyOp45
 70
     1
102
RTVSPropertyOp46
 70
     1
102
RTVSPropertyOp47
 70
     1
102
RTVSPropertyOp48
 70
     1
102
RTVSPropertyOp49
 70
     1
102
RTVSPropertyOp50
 70
     1
102
RTVSPropertyOp51
 70
     0
102
RTVSPropertyOp52
 70
     0
102
RTVSPropertyOp53
 70
     1
102
RTVSPropertyOp54
 70
     1
102
RTVSPropertyOp55
 70
     1
102
RTVSPropertyOp56
 70
     1
102
RTVSPropertyOp57
 70
     1
102
RTVSPropertyOp58
 70
     1
102
RTVSPropertyOp59
 70
     1
102
RTVSPropertyOp60
 70
     1
102
RTVSPropertyOp61
 70
     1
102
RTVSPropertyOp62
 70
     1
  0
XRECORD
  5
C817
102
{ACAD_REACTORS
330
C816
102
}
330
C816
100
AcDbXrecord
280
     1
102
RTVSPost2010Prop28
280
     0
102
RTVSPost2010PropOp28
 70
     1
102
RTVSPost2010Prop29
280
     1
102
RTVSPost2010PropOp29
 70
     1
102
RTVSPost2010Prop30
280
     1
102
RTVSPost2010PropOp30
 70
     1
102
RTVSPost2010Prop31
280
     0
102
RTVSPost2010PropOp31
 70
     1
102
RTVSPost2010Prop32
280
     0
102
RTVSPost2010PropOp32
 70
     1
102
RTVSPost2010Prop33
280
     0
102
RTVSPost2010PropOp33
 70
     1
102
RTVSPost2010Prop34
280
     0
102
RTVSPost2010PropOp34
 70
     1
102
RTVSPost2010Prop35
280
     0
102
RTVSPost2010PropOp35
 70
     1
102
RTVSPost2010Prop36
280
     0
102
RTVSPost2010PropOp36
 70
     1
102
RTVSPost2010Prop37
 90
       50
102
RTVSPost2010PropOp37
 70
     1
102
RTVSPost2010Prop38
140
0.0
102
RTVSPost2010PropOp38
 70
     1
102
RTVSPost2010Prop39
140
1.0
102
RTVSPost2010PropOp39
 70
     1
102
RTVSPost2010Prop40
 90
        0
102
RTVSPost2010PropOp40
 70
     1
102
RTVSPost2010Prop41ColorIndex
 90
       18
102
RTVSPost2010Prop41ColorRGB
 90
        0
102
RTVSPost2010PropOp41
 70
     1
102
RTVSPost2010Prop42
 90
       50
102
RTVSPost2010PropOp42
 70
     1
102
RTVSPost2010Prop43
 90
        3
102
RTVSPost2010PropOp43
 70
     1
102
RTVSPost2010Prop44ColorIndex
 90
        5
102
RTVSPost2010Prop44ColorRGB
 90
      255
102
RTVSPost2010PropOp44
 70
     1
102
RTVSPost2010Prop45
280
     0
102
RTVSPost2010PropOp45
 70
     1
102
RTVSPost2010Prop46
 90
       50
102
RTVSPost2010PropOp46
 70
     1
102
RTVSPost2010Prop47
 90
       50
102
RTVSPost2010PropOp47
 70
     1
102
RTVSPost2010Prop48
 90
       50
102
RTVSPost2010PropOp48
 70
     1
102
RTVSPost2010Prop49
280
     0
102
RTVSPost2010PropOp49
 70
     1
102
RTVSPost2010Prop50
 90
       50
102
RTVSPost2010PropOp50
 70
     1
102
RTVSPost2010Prop51ColorIndex
 90
      256
102
RTVSPost2010Prop51ColorRGB
 90
-16777216
102
RTVSPost2010PropOp51
 70
     0
102
RTVSPost2010Prop52
140
1.0
102
RTVSPost2010PropOp52
 70
     0
102
RTVSPost2010Prop53
 90
        2
102
RTVSPost2010PropOp53
 70
     1
102
RTVSPost2010Prop54
  1
strokes_ogs.tif
102
RTVSPost2010PropOp54
 70
     1
102
RTVSPost2010Prop55
280
     0
102
RTVSPost2010PropOp55
 70
     1
102
RTVSPost2010Prop56
140
1.0
102
RTVSPost2010PropOp56
 70
     1
102
RTVSPost2010Prop57
140
1.0
102
RTVSPost2010PropOp57
 70
     1
102
RTVSPropertyOp0
 70
     1
102
RTVSPropertyOp1
 70
     1
102
RTVSPropertyOp2
 70
     1
102
RTVSPropertyOp3
 70
     1
102
RTVSPropertyOp4
 70
     1
102
RTVSPropertyOp5
 70
     1
102
RTVSPropertyOp6
 70
     1
102
RTVSPropertyOp7
 70
     1
102
RTVSPropertyOp8
 70
     1
102
RTVSPropertyOp9
 70
     1
102
RTVSPropertyOp10
 70
     1
102
RTVSPropertyOp11
 70
     1
102
RTVSPropertyOp12
 70
     1
102
RTVSPropertyOp13
 70
     1
102
RTVSPropertyOp14
 70
     1
102
RTVSPropertyOp15
 70
     1
102
RTVSPropertyOp16
 70
     1
102
RTVSPropertyOp17
 70
     1
102
RTVSPropertyOp18
 70
     1
102
RTVSPropertyOp19
 70
     1
102
RTVSPropertyOp20
 70
     1
102
RTVSPropertyOp21
 70
     1
102
RTVSPropertyOp22
 70
     1
102
RTVSPropertyOp23
 70
     1
102
RTVSPropertyOp24
 70
     1
102
RTVSPropertyOp25
 70
     1
102
RTVSPropertyOp26
 70
     1
102
RTVSPropertyOp27
 70
     1
102
RTVSPropertyOp28
 70
     1
102
RTVSPropertyOp29
 70
     1
102
RTVSPropertyOp30
 70
     1
102
RTVSPropertyOp31
 70
     1
102
RTVSPropertyOp32
 70
     1
102
RTVSPropertyOp33
 70
     1
102
RTVSPropertyOp34
 70
     1
102
RTVSPropertyOp35
 70
     1
102
RTVSPropertyOp36
 70
     1
102
RTVSPropertyOp37
 70
     1
102
RTVSPropertyOp38
 70
     1
102
RTVSPropertyOp39
 70
     1
102
RTVSPropertyOp40
 70
     1
102
RTVSPropertyOp41
 70
     1
102
RTVSPropertyOp42
 70
     1
102
RTVSPropertyOp43
 70
     1
102
RTVSPropertyOp44
 70
     1
102
RTVSPropertyOp45
 70
     1
102
RTVSPropertyOp46
 70
     1
102
RTVSPropertyOp47
 70
     1
102
RTVSPropertyOp48
 70
     1
102
RTVSPropertyOp49
 70
     1
102
RTVSPropertyOp50
 70
     1
102
RTVSPropertyOp51
 70
     0
102
RTVSPropertyOp52
 70
     0
102
RTVSPropertyOp53
 70
     1
102
RTVSPropertyOp54
 70
     1
102
RTVSPropertyOp55
 70
     1
102
RTVSPropertyOp56
 70
     1
102
RTVSPropertyOp57
 70
     1
102
RTVSPropertyOp58
 70
     1
102
RTVSPropertyOp59
 70
     1
102
RTVSPropertyOp60
 70
     1
102
RTVSPropertyOp61
 70
     1
102
RTVSPropertyOp62
 70
     1
  0
ENDSEC
  0
EOF
