------------------------------------------------------------------------S      1
1H,,1H;,7HUnknown,58HC:\iCADMX\tmp\trans3d_spg\PC017.7836.TM_244_3_15_14G      1
930.igs,6HspGate,31Hver18.9.1 (****-****-****-****),32,38,6,308,15,7HUnkG      2
nown,1.,2,2HMM,100,1.,13H221201.143147,0.01,10000.,7HUnknown,7HUnknown, G      3
8,7,13H971011.100908;                                                   G      4
     502       1       0       0       0       0       0       000010000D      1
     502       0       1       6       1       0       0  VERTEX       0D      2
     126       7       0       1       0       0       0       000010000D      3
     126       0       8       3       0       0       0 NBS-CRV       0D      4
     126      10       0       1       0       0       0       000010000D      5
     126       0       8       3       0       0       0 NBS-CRV       0D      6
     126      13       0       1       0       0       0       000010000D      7
     126       0       8       3       0       0       0 NBS-CRV       0D      8
     126      16       0       1       0       0       0       000010000D      9
     126       0       8       3       0       0       0 NBS-CRV       0D     10
     126      19       0       1       0       0       0       000010000D     11
     126       0       8       3       0       0       0 NBS-CRV       0D     12
     126      22       0       1       0       0       0       000010000D     13
     126       0       8       3       0       0       0 NBS-CRV       0D     14
     126      25       0       1       0       0       0       000010000D     15
     126       0       8       3       0       0       0 NBS-CRV       0D     16
     126      28       0       1       0       0       0       000010000D     17
     126       0       8       3       0       0       0 NBS-CRV       0D     18
     126      31       0       1       0       0       0       000010000D     19
     126       0       8       3       0       0       0 NBS-CRV       0D     20
     126      34       0       1       0       0       0       000010000D     21
     126       0       8       3       0       0       0 NBS-CRV       0D     22
     126      37       0       1       0       0       0       000010000D     23
     126       0       8       3       0       0       0 NBS-CRV       0D     24
     126      40       0       1       0       0       0       000010000D     25
     126       0       8       3       0       0       0 NBS-CRV       0D     26
     504      43       0       0       0       0       0       000010001D     27
     504       0       0       3       1       0       0    EDGE       0D     28
     314      46       0       0       0       0       0       000000200D     29
     314       0       0       1       0       0       0   COLOR       0D     30
     128      47       0       1       0       0       0       000010000D     31
     128       0     -29       4       0       0       0 NBS-SRF       0D     32
     126      51       0       0       0       0       0       000010501D     33
     126       0       8       3       0       0       0 NBS-CRV       0D     34
     126      54       0       0       0       0       0       000010501D     35
     126       0       8       4       0       0       0 NBS-CRV       0D     36
     126      58       0       0       0       0       0       000010501D     37
     126       0       8       3       0       0       0 NBS-CRV       0D     38
     126      61       0       0       0       0       0       000010501D     39
     126       0       8       4       0       0       0 NBS-CRV       0D     40
     508      65       0       0       0       0       0       000010000D     41
     508       0       0       2       1       0       0    LOOP       0D     42
     510      67       0       1       0       0       0       000010001D     43
     510       0     -29       1       1       0       0    FACE       0D     44
     128      68       0       1       0       0       0       000010000D     45
     128       0     -29       4       0       0       0 NBS-SRF       0D     46
     126      72       0       0       0       0       0       000010501D     47
     126       0       8       3       0       0       0 NBS-CRV       0D     48
     126      75       0       0       0       0       0       000010501D     49
     126       0       8       4       0       0       0 NBS-CRV       0D     50
     126      79       0       0       0       0       0       000010501D     51
     126       0       8       3       0       0       0 NBS-CRV       0D     52
     126      82       0       0       0       0       0       000010501D     53
     126       0       8       4       0       0       0 NBS-CRV       0D     54
     508      86       0       0       0       0       0       000010000D     55
     508       0       0       2       1       0       0    LOOP       0D     56
     510      88       0       1       0       0       0       000010001D     57
     510       0     -29       1       1       0       0    FACE       0D     58
     128      89       0       1       0       0       0       000010000D     59
     128       0     -29       4       0       0       0 NBS-SRF       0D     60
     126      93       0       0       0       0       0       000010501D     61
     126       0       8       4       0       0       0 NBS-CRV       0D     62
     126      97       0       0       0       0       0       000010501D     63
     126       0       8       4       0       0       0 NBS-CRV       0D     64
     126     101       0       0       0       0       0       000010501D     65
     126       0       8       3       0       0       0 NBS-CRV       0D     66
     126     104       0       0       0       0       0       000010501D     67
     126       0       8       4       0       0       0 NBS-CRV       0D     68
     508     108       0       0       0       0       0       000010000D     69
     508       0       0       2       1       0       0    LOOP       0D     70
     510     110       0       1       0       0       0       000010001D     71
     510       0     -29       1       1       0       0    FACE       0D     72
     128     111       0       1       0       0       0       000010000D     73
     128       0     -29       4       0       0       0 NBS-SRF       0D     74
     126     115       0       0       0       0       0       000010501D     75
     126       0       8       4       0       0       0 NBS-CRV       0D     76
     126     119       0       0       0       0       0       000010501D     77
     126       0       8       4       0       0       0 NBS-CRV       0D     78
     126     123       0       0       0       0       0       000010501D     79
     126       0       8       3       0       0       0 NBS-CRV       0D     80
     126     126       0       0       0       0       0       000010501D     81
     126       0       8       3       0       0       0 NBS-CRV       0D     82
     508     129       0       0       0       0       0       000010000D     83
     508       0       0       2       1       0       0    LOOP       0D     84
     510     131       0       1       0       0       0       000010001D     85
     510       0     -29       1       1       0       0    FACE       0D     86
     128     132       0       1       0       0       0       000010000D     87
     128       0     -29       4       0       0       0 NBS-SRF       0D     88
     126     136       0       0       0       0       0       000010501D     89
     126       0       8       3       0       0       0 NBS-CRV       0D     90
     126     139       0       0       0       0       0       000010501D     91
     126       0       8       4       0       0       0 NBS-CRV       0D     92
     126     143       0       0       0       0       0       000010501D     93
     126       0       8       3       0       0       0 NBS-CRV       0D     94
     126     146       0       0       0       0       0       000010501D     95
     126       0       8       4       0       0       0 NBS-CRV       0D     96
     508     150       0       0       0       0       0       000010000D     97
     508       0       0       2       1       0       0    LOOP       0D     98
     510     152       0       1       0       0       0       000010001D     99
     510       0     -29       1       1       0       0    FACE       0D    100
     128     153       0       1       0       0       0       000010000D    101
     128       0     -29       4       0       0       0 NBS-SRF       0D    102
     126     157       0       0       0       0       0       000010501D    103
     126       0       8       4       0       0       0 NBS-CRV       0D    104
     126     161       0       0       0       0       0       000010501D    105
     126       0       8       4       0       0       0 NBS-CRV       0D    106
     126     165       0       0       0       0       0       000010501D    107
     126       0       8       3       0       0       0 NBS-CRV       0D    108
     126     168       0       0       0       0       0       000010501D    109
     126       0       8       3       0       0       0 NBS-CRV       0D    110
     508     171       0       0       0       0       0       000010000D    111
     508       0       0       2       1       0       0    LOOP       0D    112
     510     173       0       1       0       0       0       000010001D    113
     510       0     -29       1       1       0       0    FACE       0D    114
     514     174       0       0       0       0       0       000010000D    115
     514       0       0       1       1       0       0   SHELL       0D    116
     406     175       0       0       0       0       0       000000000D    117
     406       0       0       1      15       0       0PROPERTY       0D    118
     186     176       0       0       0       0       0       000000001D    119
     186       0       1       3       0       0       0  B-REPS       0D    120
502,8,-54.9723933786154,200.,-13.5484368950129,                        1P      1
-39.9723933786154,200.,-13.5484368950129,-54.9723933786154,200.,       1P      2
-10.5484368950129,-39.9723933786154,200.,-10.5484368950129,            1P      3
-54.9723933786154,0.,-13.5484368950129,-39.9723933786154,0.,           1P      4
-13.5484368950129,-39.9723933786154,0.,-10.5484368950129,              1P      5
-54.9723933786154,0.,-10.5484368950129;                                1P      6
126,1,1,0,0,1,0,0.,0.,1.,1.,1.,1.,-54.9723933786154,200.,              3P      7
-13.5484368950129,-39.9723933786154,200.,-13.5484368950129,0.,         3P      8
1.,0.,0.,0.;                                                           3P      9
126,1,1,0,0,1,0,0.,0.,1.,1.,1.,1.,-54.9723933786154,200.,              5P     10
-10.5484368950129,-54.9723933786154,200.,-13.5484368950129,0.,         5P     11
1.,0.,0.,0.;                                                           5P     12
126,1,1,0,0,1,0,0.,0.,1.,1.,1.,1.,-39.9723933786154,200.,              7P     13
-10.5484368950129,-54.9723933786154,200.,-10.5484368950129,0.,         7P     14
1.,0.,0.,0.;                                                           7P     15
126,1,1,0,0,1,0,0.,0.,1.,1.,1.,1.,-39.9723933786154,200.,              9P     16
-13.5484368950129,-39.9723933786154,200.,-10.5484368950129,0.,         9P     17
1.,0.,0.,0.;                                                           9P     18
126,1,1,0,0,1,0,0.,0.,1.,1.,1.,1.,-54.9723933786154,0.,               11P     19
-13.5484368950129,-39.9723933786154,0.,-13.5484368950129,0.,1.,       11P     20
0.,0.,0.;                                                             11P     21
126,1,1,0,0,1,0,0.,0.,1.,1.,1.,1.,-39.9723933786154,0.,               13P     22
-13.5484368950129,-39.9723933786154,0.,-10.5484368950129,0.,1.,       13P     23
0.,0.,0.;                                                             13P     24
126,1,1,0,0,1,0,0.,0.,1.,1.,1.,1.,-39.9723933786154,0.,               15P     25
-10.5484368950129,-54.9723933786154,0.,-10.5484368950129,0.,1.,       15P     26
0.,0.,0.;                                                             15P     27
126,1,1,0,0,1,0,0.,0.,1.,1.,1.,1.,-54.9723933786154,0.,               17P     28
-10.5484368950129,-54.9723933786154,0.,-13.5484368950129,0.,1.,       17P     29
0.,0.,0.;                                                             17P     30
126,1,1,0,0,1,0,0.,0.,1.,1.,1.,1.,-54.9723933786154,200.,             19P     31
-10.5484368950129,-54.9723933786154,0.,-10.5484368950129,0.,1.,       19P     32
0.,0.,0.;                                                             19P     33
126,1,1,0,0,1,0,0.,0.,1.,1.,1.,1.,-54.9723933786154,200.,             21P     34
-13.5484368950129,-54.9723933786154,0.,-13.5484368950129,0.,1.,       21P     35
0.,0.,0.;                                                             21P     36
126,1,1,0,0,1,0,0.,0.,1.,1.,1.,1.,-39.9723933786154,200.,             23P     37
-13.5484368950129,-39.9723933786154,0.,-13.5484368950129,0.,1.,       23P     38
0.,0.,0.;                                                             23P     39
126,1,1,0,0,1,0,0.,0.,1.,1.,1.,1.,-39.9723933786154,200.,             25P     40
-10.5484368950129,-39.9723933786154,0.,-10.5484368950129,0.,1.,       25P     41
0.,0.,0.;                                                             25P     42
504,12,3,1,1,1,2,5,1,3,1,1,7,1,4,1,3,9,1,2,1,4,11,1,5,1,6,13,1,       27P     43
6,1,7,15,1,7,1,8,17,1,8,1,5,19,1,3,1,8,21,1,1,1,5,23,1,2,1,6,25,      27P     44
1,4,1,7;                                                              27P     45
314,65.8823529411765,65.8823529411765,65.8823529411765,0H;            29P     46
128,1,1,1,1,0,0,1,0,0,0.,0.,1.,1.,0.,0.,1.,1.,1.,1.,1.,1.,            31P     47
-56.4723933786154,200.,-13.8484368950129,-56.4723933786154,200.,      31P     48
-10.2484368950129,-38.4723933786154,200.,-13.8484368950129,           31P     49
-38.4723933786154,200.,-10.2484368950129,0.,1.,0.,1.;                 31P     50
126,1,1,0,0,1,0,0.,0.,1.,1.,1.,1.,0.0833333333333336,                 33P     51
0.0833333333333337,0.,0.0833333333333336,0.916666666666667,0.,        33P     52
0.,1.,0.,0.,0.;                                                       33P     53
126,3,3,0,0,1,0,0.,0.,0.,0.,1.,1.,1.,1.,1.,1.,1.,1.,                  35P     54
0.916666666666667,0.0833333333333333,0.,0.638888888888889,            35P     55
0.0833333333333333,0.,0.361111111111111,0.0833333333333333,0.,        35P     56
0.0833333333333336,0.0833333333333337,0.,0.,1.,0.,0.,0.;              35P     57
126,1,1,0,0,1,0,0.,0.,1.,1.,1.,1.,0.916666666666667,                  37P     58
0.916666666666667,0.,0.916666666666667,0.0833333333333333,0.,0.,      37P     59
1.,0.,0.,0.;                                                          37P     60
126,3,3,0,0,1,0,0.,0.,0.,0.,1.,1.,1.,1.,1.,1.,1.,1.,                  39P     61
0.0833333333333336,0.916666666666667,0.,0.361111111111111,            39P     62
0.916666666666667,0.,0.638888888888889,0.916666666666667,0.,          39P     63
0.916666666666667,0.916666666666667,0.,0.,1.,0.,0.,0.;                39P     64
508,4,0,27,1,0,1,0,33,0,27,2,0,1,0,35,0,27,3,0,1,0,37,0,27,4,0,       41P     65
1,0,39;                                                               41P     66
510,31,1,1,41;                                                        43P     67
128,1,1,1,1,0,0,1,0,0,0.,0.,1.,1.,0.,0.,1.,1.,1.,1.,1.,1.,            45P     68
-56.4723933786154,0.,-13.8484368950129,-38.4723933786154,0.,          45P     69
-13.8484368950129,-56.4723933786154,0.,-10.2484368950129,             45P     70
-38.4723933786154,0.,-10.2484368950129,0.,1.,0.,1.;                   45P     71
126,1,1,0,0,1,0,0.,0.,1.,1.,1.,1.,0.0833333333333337,                 47P     72
0.0833333333333336,0.,0.916666666666667,0.0833333333333336,0.,        47P     73
0.,1.,0.,0.,0.;                                                       47P     74
126,3,3,0,0,1,0,0.,0.,0.,0.,1.,1.,1.,1.,1.,1.,1.,1.,                  49P     75
0.916666666666667,0.0833333333333336,0.,0.916666666666667,            49P     76
0.361111111111111,0.,0.916666666666667,0.638888888888889,0.,          49P     77
0.916666666666667,0.916666666666667,0.,0.,1.,0.,0.,0.;                49P     78
126,1,1,0,0,1,0,0.,0.,1.,1.,1.,1.,0.916666666666667,                  51P     79
0.916666666666667,0.,0.0833333333333333,0.916666666666667,0.,0.,      51P     80
1.,0.,0.,0.;                                                          51P     81
126,3,3,0,0,1,0,0.,0.,0.,0.,1.,1.,1.,1.,1.,1.,1.,1.,                  53P     82
0.0833333333333333,0.916666666666667,0.,0.0833333333333333,           53P     83
0.638888888888889,0.,0.0833333333333333,0.361111111111111,0.,         53P     84
0.0833333333333337,0.0833333333333336,0.,0.,1.,0.,0.,0.;              53P     85
508,4,0,27,5,1,1,0,47,0,27,6,1,1,0,49,0,27,7,1,1,0,51,0,27,8,1,       55P     86
1,0,53;                                                               55P     87
510,45,1,1,55;                                                        57P     88
128,1,1,1,1,0,0,1,0,0,0.,0.,1.,1.,0.,0.,1.,1.,1.,1.,1.,1.,            59P     89
-54.9723933786154,-10.,-13.8484368950129,-54.9723933786154,-10.,      59P     90
-10.2484368950129,-54.9723933786154,210.,-13.8484368950129,           59P     91
-54.9723933786154,210.,-10.2484368950129,0.,1.,0.,1.;                 59P     92
126,3,3,0,0,1,0,0.,0.,0.,0.,1.,1.,1.,1.,1.,1.,1.,1.,                  61P     93
0.916666666666667,0.0454545454545455,0.,0.638888888888889,            61P     94
0.0454545454545455,0.,0.361111111111111,0.0454545454545455,0.,        61P     95
0.0833333333333335,0.0454545454545455,0.,0.,1.,0.,0.,0.;              61P     96
126,3,3,0,0,1,0,0.,0.,0.,0.,1.,1.,1.,1.,1.,1.,1.,1.,                  63P     97
0.916666666666667,0.954545454545455,0.,0.916666666666667,             63P     98
0.651515151515151,0.,0.916666666666667,0.348484848484848,0.,          63P     99
0.916666666666667,0.0454545454545455,0.,0.,1.,0.,0.,0.;               63P    100
126,1,1,0,0,1,0,0.,0.,1.,1.,1.,1.,0.916666666666667,                  65P    101
0.954545454545455,0.,0.0833333333333337,0.954545454545455,0.,0.,      65P    102
1.,0.,0.,0.;                                                          65P    103
126,3,3,0,0,1,0,0.,0.,0.,0.,1.,1.,1.,1.,1.,1.,1.,1.,                  67P    104
0.0833333333333337,0.954545454545455,0.,0.0833333333333332,           67P    105
0.651515151515151,0.,0.0833333333333332,0.348484848484848,0.,         67P    106
0.0833333333333335,0.0454545454545455,0.,0.,1.,0.,0.,0.;              67P    107
508,4,0,27,8,0,1,0,61,0,27,9,0,1,0,63,0,27,2,1,1,0,65,0,27,10,1,      69P    108
1,0,67;                                                               69P    109
510,59,1,1,69;                                                        71P    110
128,1,1,1,1,0,0,1,0,0,0.,0.,1.,1.,0.,0.,1.,1.,1.,1.,1.,1.,            73P    111
-38.4723933786154,-10.,-13.5484368950129,-56.4723933786154,-10.,      73P    112
-13.5484368950129,-38.4723933786154,210.,-13.5484368950129,           73P    113
-56.4723933786154,210.,-13.5484368950129,0.,1.,0.,1.;                 73P    114
126,3,3,0,0,1,0,0.,0.,0.,0.,1.,1.,1.,1.,1.,1.,1.,1.,                  75P    115
0.916666666666667,0.0454545454545455,0.,0.638888888888889,            75P    116
0.0454545454545455,0.,0.361111111111111,0.0454545454545455,0.,        75P    117
0.0833333333333333,0.0454545454545455,0.,0.,1.,0.,0.,0.;              75P    118
126,3,3,0,0,1,0,0.,0.,0.,0.,1.,1.,1.,1.,1.,1.,1.,1.,                  77P    119
0.916666666666667,0.954545454545455,0.,0.916666666666667,             77P    120
0.651515151515151,0.,0.916666666666667,0.348484848484848,0.,          77P    121
0.916666666666667,0.0454545454545455,0.,0.,1.,0.,0.,0.;               77P    122
126,1,1,0,0,1,0,0.,0.,1.,1.,1.,1.,0.916666666666667,                  79P    123
0.954545454545455,0.,0.0833333333333333,0.954545454545455,0.,0.,      79P    124
1.,0.,0.,0.;                                                          79P    125
126,1,1,0,0,1,0,0.,0.,1.,1.,1.,1.,0.0833333333333333,                 81P    126
0.954545454545455,0.,0.0833333333333333,0.0454545454545455,0.,        81P    127
0.,1.,0.,0.,0.;                                                       81P    128
508,4,0,27,5,0,1,0,75,0,27,10,0,1,0,77,0,27,1,1,1,0,79,0,27,11,       83P    129
1,1,0,81;                                                             83P    130
510,73,1,1,83;                                                        85P    131
128,1,1,1,1,0,0,1,0,0,0.,0.,1.,1.,0.,0.,1.,1.,1.,1.,1.,1.,            87P    132
-39.9723933786154,-10.,-10.2484368950129,-39.9723933786154,-10.,      87P    133
-13.8484368950129,-39.9723933786154,210.,-10.2484368950129,           87P    134
-39.9723933786154,210.,-13.8484368950129,0.,1.,0.,1.;                 87P    135
126,1,1,0,0,1,0,0.,0.,1.,1.,1.,1.,0.916666666666666,                  89P    136
0.0454545454545455,0.,0.0833333333333329,0.0454545454545455,0.,       89P    137
0.,1.,0.,0.,0.;                                                       89P    138
126,3,3,0,0,1,0,0.,0.,0.,0.,1.,1.,1.,1.,1.,1.,1.,1.,                  91P    139
0.916666666666667,0.954545454545455,0.,0.916666666666667,             91P    140
0.651515151515151,0.,0.916666666666667,0.348484848484848,0.,          91P    141
0.916666666666666,0.0454545454545455,0.,0.,1.,0.,0.,0.;               91P    142
126,1,1,0,0,1,0,0.,0.,1.,1.,1.,1.,0.916666666666667,                  93P    143
0.954545454545455,0.,0.0833333333333336,0.954545454545455,0.,0.,      93P    144
1.,0.,0.,0.;                                                          93P    145
126,3,3,0,0,1,0,0.,0.,0.,0.,1.,1.,1.,1.,1.,1.,1.,1.,                  95P    146
0.0833333333333336,0.954545454545455,0.,0.0833333333333336,           95P    147
0.651515151515151,0.,0.0833333333333336,0.348484848484848,0.,         95P    148
0.0833333333333329,0.0454545454545455,0.,0.,1.,0.,0.,0.;              95P    149
508,4,0,27,6,0,1,0,89,0,27,11,0,1,0,91,0,27,4,1,1,0,93,0,27,12,       97P    150
1,1,0,95;                                                             97P    151
510,87,1,1,97;                                                        99P    152
128,1,1,1,1,0,0,1,0,0,0.,0.,1.,1.,0.,0.,1.,1.,1.,1.,1.,1.,           101P    153
-56.4723933786154,-10.,-10.5484368950129,-38.4723933786154,-10.,     101P    154
-10.5484368950129,-56.4723933786154,210.,-10.5484368950129,          101P    155
-38.4723933786154,210.,-10.5484368950129,0.,1.,0.,1.;                101P    156
126,3,3,0,0,1,0,0.,0.,0.,0.,1.,1.,1.,1.,1.,1.,1.,1.,                 103P    157
0.916666666666667,0.0454545454545455,0.,0.638888888888889,           103P    158
0.0454545454545455,0.,0.361111111111111,0.0454545454545455,0.,       103P    159
0.0833333333333334,0.0454545454545455,0.,0.,1.,0.,0.,0.;             103P    160
126,3,3,0,0,1,0,0.,0.,0.,0.,1.,1.,1.,1.,1.,1.,1.,1.,                 105P    161
0.916666666666667,0.954545454545455,0.,0.916666666666667,            105P    162
0.651515151515151,0.,0.916666666666667,0.348484848484848,0.,         105P    163
0.916666666666667,0.0454545454545455,0.,0.,1.,0.,0.,0.;              105P    164
126,1,1,0,0,1,0,0.,0.,1.,1.,1.,1.,0.916666666666667,                 107P    165
0.954545454545455,0.,0.0833333333333334,0.954545454545455,0.,0.,     107P    166
1.,0.,0.,0.;                                                         107P    167
126,1,1,0,0,1,0,0.,0.,1.,1.,1.,1.,0.0833333333333334,                109P    168
0.954545454545455,0.,0.0833333333333334,0.0454545454545455,0.,       109P    169
0.,1.,0.,0.,0.;                                                      109P    170
508,4,0,27,7,0,1,0,103,0,27,12,0,1,0,105,0,27,3,1,1,0,107,0,27,      111P    171
9,1,1,0,109;                                                         111P    172
510,101,1,1,111;                                                     113P    173
514,6,43,1,57,1,71,1,85,1,99,1,113,1;                                115P    174
406,1,11HTM_244_3_15;                                                117P    175
186,115,1,0,0,                                                       119P    176
1,                                                                   119P    177
117;                                                                 119P    178
S      1G      4D    120P    178                                        T      1
