  0
SECTION
  2
HEADER
  9
$ACADVER
  1
AC1015
  9
$ACADMAINTVER
 70
    20
  9
$DWGCODEPAGE
  3
ANSI_932
  9
$INSBASE
 10
0.0
 20
0.0
 30
0.0
  9
$EXTMIN
 10
6.0
 20
9.999999999999998
 30
0.0
  9
$EXTMAX
 10
390.981781
 20
328.3236479999998
 30
0.0
  9
$LIMMIN
 10
0.000002
 20
0.0
  9
$LIMMAX
 10
495.0000019999998
 20
341.25
  9
$ORTHOMODE
 70
     1
  9
$REGENMODE
 70
     1
  9
$FILLMODE
 70
     1
  9
$QTEXTMODE
 70
     0
  9
$MIRRTEXT
 70
     1
  9
$LTSCALE
 40
1.0
  9
$ATTMODE
 70
     1
  9
$TEXTSIZE
 40
2.5
  9
$TRACEWID
 40
1.0
  9
$TEXTSTYLE
  7
STANDARD
  9
$CLAYER
  8
0
  9
$CELTYPE
  6
BYLAYER
  9
$CECOLOR
 62
   256
  9
$CELTSCALE
 40
1.0
  9
$DISPSILH
 70
     0
  9
$DIMSCALE
 40
1.0
  9
$DIMASZ
 40
3.0
  9
$DIMEXO
 40
1.0
  9
$DIMDLI
 40
10.0
  9
$DIMRND
 40
0.0
  9
$DIMDLE
 40
0.0
  9
$DIMEXE
 40
1.0
  9
$DIMTP
 40
0.0
  9
$DIMTM
 40
0.0
  9
$DIMTXT
 40
3.2
  9
$DIMCEN
 40
0.0
  9
$DIMTSZ
 40
0.0
  9
$DIMTOL
 70
     0
  9
$DIMLIM
 70
     0
  9
$DIMTIH
 70
     0
  9
$DIMTOH
 70
     0
  9
$DIMSE1
 70
     0
  9
$DIMSE2
 70
     0
  9
$DIMTAD
 70
     3
  9
$DIMZIN
 70
     8
  9
$DIMBLK
  1

  9
$DIMASO
 70
     1
  9
$DIMSHO
 70
     1
  9
$DIMPOST
  1

  9
$DIMAPOST
  1

  9
$DIMALT
 70
     0
  9
$DIMALTD
 70
     2
  9
$DIMALTF
 40
25.4
  9
$DIMLFAC
 40
1.0
  9
$DIMTOFL
 70
     1
  9
$DIMTVP
 40
0.0
  9
$DIMTIX
 70
     0
  9
$DIMSOXD
 70
     0
  9
$DIMSAH
 70
     1
  9
$DIMBLK1
  1
OPEN
  9
$DIMBLK2
  1
OPEN
  9
$DIMSTYLE
  2
STANDARD
  9
$DIMCLRD
 70
     0
  9
$DIMCLRE
 70
     0
  9
$DIMCLRT
 70
     0
  9
$DIMTFAC
 40
1.0
  9
$DIMGAP
 40
1.0
  9
$DIMJUST
 70
     0
  9
$DIMSD1
 70
     0
  9
$DIMSD2
 70
     0
  9
$DIMTOLJ
 70
     1
  9
$DIMTZIN
 70
     0
  9
$DIMALTZ
 70
     0
  9
$DIMALTTZ
 70
     0
  9
$DIMUPT
 70
     0
  9
$DIMDEC
 70
     4
  9
$DIMTDEC
 70
     4
  9
$DIMALTU
 70
     2
  9
$DIMALTTD
 70
     2
  9
$DIMTXSTY
  7
STANDARD
  9
$DIMAUNIT
 70
     0
  9
$DIMADEC
 70
     0
  9
$DIMALTRND
 40
0.0
  9
$DIMAZIN
 70
     0
  9
$DIMDSEP
 70
    46
  9
$DIMATFIT
 70
     3
  9
$DIMFRAC
 70
     0
  9
$DIMLDRBLK
  1
OPEN
  9
$DIMLUNIT
 70
     2
  9
$DIMLWD
 70
    -2
  9
$DIMLWE
 70
    -2
  9
$DIMTMOVE
 70
     0
  9
$LUNITS
 70
     2
  9
$LUPREC
 70
     4
  9
$SKETCHINC
 40
1.0
  9
$FILLETRAD
 40
10.0
  9
$AUNITS
 70
     0
  9
$AUPREC
 70
     0
  9
$MENU
  1
.
  9
$ELEVATION
 40
0.0
  9
$PELEVATION
 40
0.0
  9
$THICKNESS
 40
0.0
  9
$LIMCHECK
 70
     0
  9
$CHAMFERA
 40
10.0
  9
$CHAMFERB
 40
10.0
  9
$CHAMFERC
 40
0.0
  9
$CHAMFERD
 40
0.0
  9
$SKPOLY
 70
     0
  9
$TDCREATE
 40
2451640.665329005
  9
$TDUCREATE
 40
2451640.290329005
  9
$TDUPDATE
 40
2457192.622116748
  9
$TDUUPDATE
 40
2457192.247116748
  9
$TDINDWG
 40
0.0008374769
  9
$TDUSRTIMER
 40
0.0008369792
  9
$USRTIMER
 70
     1
  9
$ANGBASE
 50
0.0
  9
$ANGDIR
 70
     0
  9
$PDMODE
 70
     0
  9
$PDSIZE
 40
0.0
  9
$PLINEWID
 40
0.0
  9
$SPLFRAME
 70
     0
  9
$SPLINETYPE
 70
     6
  9
$SPLINESEGS
 70
     8
  9
$HANDSEED
  5
AB2
  9
$SURFTAB1
 70
     6
  9
$SURFTAB2
 70
     6
  9
$SURFTYPE
 70
     6
  9
$SURFU
 70
     6
  9
$SURFV
 70
     6
  9
$UCSBASE
  2

  9
$UCSNAME
  2

  9
$UCSORG
 10
0.0
 20
0.0
 30
0.0
  9
$UCSXDIR
 10
1.0
 20
0.0
 30
0.0
  9
$UCSYDIR
 10
0.0
 20
1.0
 30
0.0
  9
$UCSORTHOREF
  2

  9
$UCSORTHOVIEW
 70
     0
  9
$UCSORGTOP
 10
0.0
 20
0.0
 30
0.0
  9
$UCSORGBOTTOM
 10
0.0
 20
0.0
 30
0.0
  9
$UCSORGLEFT
 10
0.0
 20
0.0
 30
0.0
  9
$UCSORGRIGHT
 10
0.0
 20
0.0
 30
0.0
  9
$UCSORGFRONT
 10
0.0
 20
0.0
 30
0.0
  9
$UCSORGBACK
 10
0.0
 20
0.0
 30
0.0
  9
$PUCSBASE
  2

  9
$PUCSNAME
  2

  9
$PUCSORG
 10
0.0
 20
0.0
 30
0.0
  9
$PUCSXDIR
 10
1.0
 20
0.0
 30
0.0
  9
$PUCSYDIR
 10
0.0
 20
1.0
 30
0.0
  9
$PUCSORTHOREF
  2

  9
$PUCSORTHOVIEW
 70
     0
  9
$PUCSORGTOP
 10
0.0
 20
0.0
 30
0.0
  9
$PUCSORGBOTTOM
 10
0.0
 20
0.0
 30
0.0
  9
$PUCSORGLEFT
 10
0.0
 20
0.0
 30
0.0
  9
$PUCSORGRIGHT
 10
0.0
 20
0.0
 30
0.0
  9
$PUCSORGFRONT
 10
0.0
 20
0.0
 30
0.0
  9
$PUCSORGBACK
 10
0.0
 20
0.0
 30
0.0
  9
$USERI1
 70
     0
  9
$USERI2
 70
     0
  9
$USERI3
 70
     0
  9
$USERI4
 70
     0
  9
$USERI5
 70
     0
  9
$USERR1
 40
0.0
  9
$USERR2
 40
0.0
  9
$USERR3
 40
0.0
  9
$USERR4
 40
0.0
  9
$USERR5
 40
0.0
  9
$WORLDVIEW
 70
     1
  9
$SHADEDGE
 70
     3
  9
$SHADEDIF
 70
    70
  9
$TILEMODE
 70
     1
  9
$MAXACTVP
 70
    48
  9
$PINSBASE
 10
0.0
 20
0.0
 30
0.0
  9
$PLIMCHECK
 70
     0
  9
$PEXTMIN
 10
1.000000000000000E+20
 20
1.000000000000000E+20
 30
1.000000000000000E+20
  9
$PEXTMAX
 10
-1.000000000000000E+20
 20
-1.000000000000000E+20
 30
-1.000000000000000E+20
  9
$PLIMMIN
 10
0.0
 20
0.0
  9
$PLIMMAX
 10
420.0
 20
297.0
  9
$UNITMODE
 70
     0
  9
$VISRETAIN
 70
     1
  9
$PLINEGEN
 70
     0
  9
$PSLTSCALE
 70
     1
  9
$TREEDEPTH
 70
  3020
  9
$CMLSTYLE
  2
STANDARD
  9
$CMLJUST
 70
     0
  9
$CMLSCALE
 40
1.0
  9
$PROXYGRAPHICS
 70
     1
  9
$MEASUREMENT
 70
     0
  9
$CELWEIGHT
370
    -1
  9
$ENDCAPS
280
     0
  9
$JOINSTYLE
280
     0
  9
$LWDISPLAY
290
     0
  9
$INSUNITS
 70
     0
  9
$HYPERLINKBASE
  1

  9
$STYLESHEET
  1

  9
$XEDIT
290
     1
  9
$CEPSNTYPE
380
     0
  9
$PSTYLEMODE
290
     1
  9
$FINGERPRINTGUID
  2
{FB62A2B6-4E09-4CBE-8C5B-BC2BEA59FA3C}
  9
$VERSIONGUID
  2
{F89BFEA8-0F2E-49AA-8888-BD36F72391CD}
  9
$EXTNAMES
290
     1
  9
$PSVPSCALE
 40
0.0
  9
$OLESTARTUP
290
     0
  0
ENDSEC
  0
SECTION
  2
CLASSES
  0
CLASS
  1
ACDBDICTIONARYWDFLT
  2
AcDbDictionaryWithDefault
  3
ObjectDBX Classes
 90
        0
280
     0
281
     0
  0
CLASS
  1
ACDBPLACEHOLDER
  2
AcDbPlaceHolder
  3
ObjectDBX Classes
 90
        0
280
     0
281
     0
  0
CLASS
  1
LAYOUT
  2
AcDbLayout
  3
ObjectDBX Classes
 90
        0
280
     0
281
     0
  0
CLASS
  1
DICTIONARYVAR
  2
AcDbDictionaryVar
  3
ObjectDBX Classes
 90
        0
280
     0
281
     0
  0
CLASS
  1
MATERIAL
  2
AcDbMaterial
  3
ObjectDBX Classes
 90
     1153
280
     0
281
     0
  0
CLASS
  1
VISUALSTYLE
  2
AcDbVisualStyle
  3
ObjectDBX Classes
 90
     4095
280
     0
281
     0
  0
CLASS
  1
TABLESTYLE
  2
AcDbTableStyle
  3
ObjectDBX Classes
 90
     4095
280
     0
281
     0
  0
CLASS
  1
SCALE
  2
AcDbScale
  3
ObjectDBX Classes
 90
     1153
280
     0
281
     0
  0
CLASS
  1
MLEADERSTYLE
  2
AcDbMLeaderStyle
  3
ACDB_MLEADERSTYLE_CLASS
 90
     4095
280
     0
281
     0
  0
CLASS
  1
ACDBSECTIONVIEWSTYLE
  2
AcDbSectionViewStyle
  3
ObjectDBX Classes
 90
     1025
280
     0
281
     0
  0
CLASS
  1
ACDBDETAILVIEWSTYLE
  2
AcDbDetailViewStyle
  3
ObjectDBX Classes
 90
     1025
280
     0
281
     0
  0
CLASS
  1
CELLSTYLEMAP
  2
AcDbCellStyleMap
  3
ObjectDBX Classes
 90
     1152
280
     0
281
     0
  0
ENDSEC
  0
SECTION
  2
TABLES
  0
TABLE
  2
VPORT
  5
812
330
0
100
AcDbSymbolTable
 70
     1
  0
VPORT
  5
9FB
330
812
100
AcDbSymbolTableRecord
100
AcDbViewportTableRecord
  2
*ACTIVE
 70
     0
 10
0.0
 20
0.0
 11
1.0
 21
1.0
 12
294.9246887223432
 22
169.1670234979153
 13
0.0
 23
0.0
 14
10.0
 24
10.0
 15
10.0
 25
10.0
 16
0.0
 26
0.0
 36
1.0
 17
0.0
 27
0.0
 37
0.0
 40
321.9204249319513
 41
1.899603698811096
 42
50.0
 43
0.0
 44
0.0
 50
0.0
 51
0.0
 71
     0
 72
   100
 73
     1
 74
     0
 75
     0
 76
     0
 77
     0
 78
     0
281
     0
 65
     1
110
0.0
120
0.0
130
0.0
111
1.0
121
0.0
131
0.0
112
0.0
122
1.0
132
0.0
 79
     0
146
0.0
1001
ACAD_NAV_VCDISPLAY
1070
     3
  0
ENDTAB
  0
TABLE
  2
LTYPE
  5
80F
330
0
100
AcDbSymbolTable
 70
     4
  0
LTYPE
  5
81D
330
80F
100
AcDbSymbolTableRecord
100
AcDbLinetypeTableRecord
  2
BYBLOCK
 70
     0
  3

 72
    65
 73
     0
 40
0.0
  0
LTYPE
  5
81E
330
80F
100
AcDbSymbolTableRecord
100
AcDbLinetypeTableRecord
  2
BYLAYER
 70
     0
  3

 72
    65
 73
     0
 40
0.0
  0
LTYPE
  5
81F
330
80F
100
AcDbSymbolTableRecord
100
AcDbLinetypeTableRecord
  2
CONTINUOUS
 70
     0
  3
Solid line
 72
    65
 73
     0
 40
0.0
  0
LTYPE
  5
82D
330
80F
100
AcDbSymbolTableRecord
100
AcDbLinetypeTableRecord
  2
DASHED
 70
     0
  3
Dashed __ __ __ __ __ __ __ __ __ __ __ __ __ _
 72
    65
 73
     2
 40
19.05
 49
12.7
 74
     0
 49
-6.349999999999997
 74
     0
  0
LTYPE
  5
82E
330
80F
100
AcDbSymbolTableRecord
100
AcDbLinetypeTableRecord
  2
CENTER
 70
     0
  3
Center ____ _ ____ _ ____ _ ____ _ ____ _ ____
 72
    65
 73
     4
 40
50.8
 49
31.75
 74
     0
 49
-6.349999999999997
 74
     0
 49
6.349999999999997
 74
     0
 49
-6.349999999999997
 74
     0
  0
LTYPE
  5
82F
330
80F
100
AcDbSymbolTableRecord
100
AcDbLinetypeTableRecord
  2
PHANTOM
 70
     0
  3
Phantom ______  __  __  ______  __  __  ______
 72
    65
 73
     6
 40
63.5
 49
31.75
 74
     0
 49
-6.349999999999997
 74
     0
 49
6.349999999999997
 74
     0
 49
-6.349999999999997
 74
     0
 49
6.349999999999997
 74
     0
 49
-6.349999999999997
 74
     0
  0
ENDTAB
  0
TABLE
  2
LAYER
  5
80C
330
0
100
AcDbSymbolTable
 70
     8
  0
LAYER
  5
81A
102
{ACAD_XDICTIONARY
360
A56
102
}
330
80C
100
AcDbSymbolTableRecord
100
AcDbLayerTableRecord
  2
0
 70
     0
 62
     7
  6
CONTINUOUS
370
    -3
390
A04
  0
LAYER
  5
830
102
{ACAD_XDICTIONARY
360
A58
102
}
330
80C
100
AcDbSymbolTableRecord
100
AcDbLayerTableRecord
  2
4
 70
     0
 62
     1
  6
CENTER
370
    -3
390
A04
  0
LAYER
  5
831
102
{ACAD_XDICTIONARY
360
A5A
102
}
330
80C
100
AcDbSymbolTableRecord
100
AcDbLayerTableRecord
  2
5
 70
     0
 62
     6
  6
PHANTOM
370
    -3
390
A04
  0
LAYER
  5
832
102
{ACAD_XDICTIONARY
360
A5C
102
}
330
80C
100
AcDbSymbolTableRecord
100
AcDbLayerTableRecord
  2
1
 70
     0
 62
     7
  6
CONTINUOUS
370
    -3
390
A04
  0
LAYER
  5
833
102
{ACAD_XDICTIONARY
360
A5E
102
}
330
80C
100
AcDbSymbolTableRecord
100
AcDbLayerTableRecord
  2
2
 70
     0
 62
     4
  6
CONTINUOUS
370
    -3
390
A04
  0
LAYER
  5
834
102
{ACAD_XDICTIONARY
360
A60
102
}
330
80C
100
AcDbSymbolTableRecord
100
AcDbLayerTableRecord
  2
3
 70
     0
 62
     2
  6
DASHED
370
    -3
390
A04
  0
LAYER
  5
835
102
{ACAD_XDICTIONARY
360
A62
102
}
330
80C
100
AcDbSymbolTableRecord
100
AcDbLayerTableRecord
  2
6
 70
     0
 62
     5
  6
CONTINUOUS
370
    -3
390
A04
  0
LAYER
  5
836
102
{ACAD_XDICTIONARY
360
A64
102
}
330
80C
100
AcDbSymbolTableRecord
100
AcDbLayerTableRecord
  2
7
 70
     0
 62
     3
  6
CONTINUOUS
370
    -3
390
A04
  0
ENDTAB
  0
TABLE
  2
STYLE
  5
80D
330
0
100
AcDbSymbolTable
 70
     1
  0
STYLE
  5
81B
330
80D
100
AcDbSymbolTableRecord
100
AcDbTextStyleTableRecord
  2
STANDARD
 70
     0
 40
0.0
 41
1.0
 50
0.0
 71
     0
 42
2.5
  3
txt
  4

  0
ENDTAB
  0
TABLE
  2
VIEW
  5
810
330
0
100
AcDbSymbolTable
 70
     0
  0
ENDTAB
  0
TABLE
  2
UCS
  5
811
330
0
100
AcDbSymbolTable
 70
     0
  0
ENDTAB
  0
TABLE
  2
APPID
  5
813
330
0
100
AcDbSymbolTable
 70
     7
  0
APPID
  5
81C
330
813
100
AcDbSymbolTableRecord
100
AcDbRegAppTableRecord
  2
ACAD
 70
     0
  0
APPID
  5
837
330
813
100
AcDbSymbolTableRecord
100
AcDbRegAppTableRecord
  2
CONTENTTABDATA
 70
     0
  0
APPID
  5
838
330
813
100
AcDbSymbolTableRecord
100
AcDbRegAppTableRecord
  2
CONTENTCURRENTTAB
 70
     0
  0
APPID
  5
839
330
813
100
AcDbSymbolTableRecord
100
AcDbRegAppTableRecord
  2
CONTENTBLOCKDESCRIPTION
 70
     0
  0
APPID
  5
83A
330
813
100
AcDbSymbolTableRecord
100
AcDbRegAppTableRecord
  2
CONTENTBLOCKICON
 70
     0
  0
APPID
  5
A70
330
813
100
AcDbSymbolTableRecord
100
AcDbRegAppTableRecord
  2
ACAD_NAV_VCDISPLAY
 70
     0
  0
APPID
  5
AA9
330
813
100
AcDbSymbolTableRecord
100
AcDbRegAppTableRecord
  2
ACAD_MLEADERVER
 70
     0
  0
ENDTAB
  0
TABLE
  2
DIMSTYLE
  5
814
330
0
100
AcDbSymbolTable
 70
     1
100
AcDbDimStyleTable
 71
     0
  0
DIMSTYLE
105
83B
330
814
100
AcDbSymbolTableRecord
100
AcDbDimStyleTableRecord
  2
STANDARD
 70
     0
 41
3.0
 42
1.0
 43
10.0
 44
1.0
 73
     0
 74
     0
 77
     3
 78
     8
140
3.2
141
0.0
147
1.0
172
     1
173
     1
284
     8
285
     8
286
     8
340
81B
  0
ENDTAB
  0
TABLE
  2
BLOCK_RECORD
  5
80B
330
0
100
AcDbSymbolTable
 70
     1
  0
BLOCK_RECORD
  5
828
102
{ACAD_XDICTIONARY
360
9FE
102
}
330
80B
100
AcDbSymbolTableRecord
100
AcDbBlockTableRecord
  2
*MODEL_SPACE
340
A52
  0
BLOCK_RECORD
  5
824
102
{ACAD_XDICTIONARY
360
9FC
102
}
330
80B
100
AcDbSymbolTableRecord
100
AcDbBlockTableRecord
  2
*PAPER_SPACE
340
A53
  0
BLOCK_RECORD
  5
843
330
80B
100
AcDbSymbolTableRecord
100
AcDbBlockTableRecord
  2
_OPEN
340
0
  0
ENDTAB
  0
ENDSEC
  0
SECTION
  2
BLOCKS
  0
BLOCK
  5
829
330
828
100
AcDbEntity
  8
0
100
AcDbBlockBegin
  2
*MODEL_SPACE
 70
     0
 10
0.0
 20
0.0
 30
0.0
  3
*MODEL_SPACE
  1

  0
ENDBLK
  5
82A
330
828
100
AcDbEntity
  8
0
100
AcDbBlockEnd
  0
BLOCK
  5
825
330
824
100
AcDbEntity
 67
     1
  8
0
100
AcDbBlockBegin
  2
*PAPER_SPACE
 70
     0
 10
0.0
 20
0.0
 30
0.0
  3
*PAPER_SPACE
  1

  0
ENDBLK
  5
826
330
824
100
AcDbEntity
 67
     1
  8
0
100
AcDbBlockEnd
  0
BLOCK
  5
844
330
843
100
AcDbEntity
  8
0
100
AcDbBlockBegin
  2
_OPEN
 70
     0
 10
0.0
 20
0.0
 30
0.0
  3
_OPEN
  1

  0
LINE
  5
845
330
843
100
AcDbEntity
  8
0
  6
ByBlock
 62
     0
100
AcDbLine
 10
-1.0
 20
0.166667
 30
0.0
 11
0.0
 21
0.0
 31
0.0
  0
LINE
  5
846
330
843
100
AcDbEntity
  8
0
  6
ByBlock
 62
     0
100
AcDbLine
 10
0.0
 20
0.0
 30
0.0
 11
-1.0
 21
-0.166667
 31
0.0
  0
LINE
  5
847
330
843
100
AcDbEntity
  8
0
  6
ByBlock
 62
     0
100
AcDbLine
 10
0.0
 20
0.0
 30
0.0
 11
-1.0
 21
0.0
 31
0.0
  0
ENDBLK
  5
848
330
843
100
AcDbEntity
  8
0
100
AcDbBlockEnd
  0
ENDSEC
  0
SECTION
  2
ENTITIES
  0
LINE
  5
849
330
828
100
AcDbEntity
  8
4
  6
CENTER
100
AcDbLine
 10
152.627258
 20
172.764709
 30
0.0
 11
139.327255
 21
172.764709
 31
0.0
  0
LINE
  5
84A
330
828
100
AcDbEntity
  8
1
  6
Continuous
100
AcDbLine
 10
152.62726
 20
36.0
 30
0.0
 11
154.2272659999999
 21
36.0
 31
0.0
  0
LINE
  5
84B
330
828
100
AcDbEntity
  8
4
  6
CENTER
100
AcDbLine
 10
132.727257
 20
41.0
 30
0.0
 11
159.176231
 21
41.0
 31
0.0
  0
LINE
  5
84C
330
828
100
AcDbEntity
  8
1
  6
Continuous
100
AcDbLine
 10
152.62726
 20
46.0
 30
0.0
 11
154.2272659999999
 21
46.0
 31
0.0
  0
LINE
  5
84D
330
828
100
AcDbEntity
  8
1
  6
Continuous
100
AcDbLine
 10
144.027269
 20
29.44850499999999
 30
0.0
 11
144.027269
 21
52.55149499999999
 31
0.0
  0
LINE
  5
84E
330
828
100
AcDbEntity
  8
1
  6
Continuous
100
AcDbLine
 10
152.62726
 20
29.44853099999999
 30
0.0
 11
152.62726
 21
36.0
 31
0.0
  0
LINE
  5
84F
330
828
100
AcDbEntity
  8
1
  6
Continuous
100
AcDbLine
 10
154.2272659999999
 20
36.0
 30
0.0
 11
154.2272659999999
 21
46.0
 31
0.0
  0
LINE
  5
850
330
828
100
AcDbEntity
  8
1
  6
Continuous
100
AcDbLine
 10
152.62726
 20
46.0
 30
0.0
 11
152.62726
 21
52.55146899999999
 31
0.0
  0
LINE
  5
851
330
828
100
AcDbEntity
  8
4
  6
CENTER
100
AcDbLine
 10
148.327257
 20
25.0
 30
0.0
 11
148.327257
 21
57.0
 31
0.0
  0
LINE
  5
852
330
828
100
AcDbEntity
  8
4
  6
CENTER
100
AcDbLine
 10
142.3272569999998
 20
51.0
 30
0.0
 11
154.327257
 21
51.0
 31
0.0
  0
LINE
  5
853
330
828
100
AcDbEntity
  8
4
  6
CENTER
100
AcDbLine
 10
142.3272569999998
 20
31.0
 30
0.0
 11
154.327257
 21
31.0
 31
0.0
  0
LINE
  5
854
330
828
100
AcDbEntity
  8
1
  6
Continuous
100
AcDbLine
 10
140.327255
 20
45.0
 30
0.0
 11
140.327255
 21
37.0
 31
0.0
  0
LINE
  5
855
330
828
100
AcDbEntity
  8
1
  6
Continuous
100
AcDbLine
 10
140.827255
 20
238.2647089999999
 30
0.0
 11
140.827255
 21
223.3309779999999
 31
0.0
  0
LINE
  5
856
330
828
100
AcDbEntity
  8
1
  6
Continuous
100
AcDbLine
 10
142.427254
 20
238.2647089999999
 30
0.0
 11
142.427254
 21
223.005508
 31
0.0
  0
LINE
  5
857
330
828
100
AcDbEntity
  8
1
  6
Continuous
100
AcDbLine
 10
145.427254
 20
215.6113589999999
 30
0.0
 11
145.427254
 21
158.764709
 31
0.0
  0
LINE
  5
858
330
828
100
AcDbEntity
  8
1
  6
Continuous
100
AcDbLine
 10
143.827255
 20
215.9368289999999
 30
0.0
 11
143.827255
 21
158.764709
 31
0.0
  0
LINE
  5
859
330
828
100
AcDbEntity
  8
1
  6
Continuous
100
AcDbLine
 10
145.927254
 20
188.764709
 30
0.0
 11
145.927254
 21
130.101257
 31
0.0
  0
LINE
  5
85A
330
828
100
AcDbEntity
  8
1
  6
Continuous
100
AcDbLine
 10
147.52726
 20
188.764709
 30
0.0
 11
145.927254
 21
188.764709
 31
0.0
  0
LINE
  5
85B
330
828
100
AcDbEntity
  8
1
  6
Continuous
100
AcDbLine
 10
147.52726
 20
188.764709
 30
0.0
 11
147.52726
 21
129.592575
 31
0.0
  0
LINE
  5
85C
330
828
100
AcDbEntity
  8
1
  6
Continuous
100
AcDbLine
 10
148.127258
 20
21.20577099999999
 30
0.0
 11
147.52726
 21
21.20577099999999
 31
0.0
  0
LINE
  5
85D
330
828
100
AcDbEntity
  8
1
  6
Continuous
100
AcDbLine
 10
150.5272539999999
 20
122.523895
 30
0.0
 11
150.5272539999999
 21
107.264709
 31
0.0
  0
LINE
  5
85E
330
828
100
AcDbEntity
  8
1
  6
Continuous
100
AcDbLine
 10
152.12726
 20
122.0152209999999
 30
0.0
 11
152.12726
 21
107.264709
 31
0.0
  0
LINE
  5
85F
330
828
100
AcDbEntity
  8
4
  6
CENTER
100
AcDbLine
 10
158.727258
 20
112.264709
 30
0.0
 11
146.227258
 21
112.264709
 31
0.0
  0
LINE
  5
860
330
828
100
AcDbEntity
  8
1
  6
Continuous
100
AcDbLine
 10
152.12726
 20
107.264709
 30
0.0
 11
150.5272539999999
 21
107.264709
 31
0.0
  0
LINE
  5
861
330
828
100
AcDbEntity
  8
1
  6
Continuous
100
AcDbLine
 10
152.62726
 20
106.264709
 30
0.0
 11
144.027254
 21
106.264709
 31
0.0
  0
LINE
  5
862
330
828
100
AcDbEntity
  8
1
  6
Continuous
100
AcDbLine
 10
152.62726
 20
104.6647109999999
 30
0.0
 11
144.027254
 21
104.6647109999999
 31
0.0
  0
LINE
  5
863
330
828
100
AcDbEntity
  8
1
  6
Continuous
100
AcDbLine
 10
154.227258
 20
117.264709
 30
0.0
 11
154.227258
 21
106.264709
 31
0.0
  0
LINE
  5
864
330
828
100
AcDbEntity
  8
1
  6
Continuous
100
AcDbLine
 10
152.62726
 20
117.264709
 30
0.0
 11
152.62726
 21
104.6647109999999
 31
0.0
  0
LINE
  5
865
330
828
100
AcDbEntity
  8
1
  6
Continuous
100
AcDbLine
 10
144.027254
 20
106.264709
 30
0.0
 11
144.027254
 21
104.6647109999999
 31
0.0
  0
LINE
  5
866
330
828
100
AcDbEntity
  8
1
  6
Continuous
100
AcDbLine
 10
154.227258
 20
117.264709
 30
0.0
 11
152.62726
 21
117.264709
 31
0.0
  0
LINE
  5
867
330
828
100
AcDbEntity
  8
1
  6
Continuous
100
AcDbLine
 10
149.527254
 20
113.764709
 30
0.0
 11
149.527254
 21
110.764709
 31
0.0
  0
LINE
  5
868
330
828
100
AcDbEntity
  8
1
  6
Continuous
100
AcDbLine
 10
150.5272539999999
 20
114.264702
 30
0.0
 11
149.527254
 21
113.7647019999999
 31
0.0
  0
LINE
  5
869
330
828
100
AcDbEntity
  8
1
  6
Continuous
100
AcDbLine
 10
150.527261
 20
110.264709
 30
0.0
 11
149.527261
 21
110.764709
 31
0.0
  0
LINE
  5
86A
330
828
100
AcDbEntity
  8
1
  6
Continuous
100
AcDbLine
 10
152.62726
 20
108.264709
 30
0.0
 11
152.12726
 21
108.264709
 31
0.0
  0
LINE
  5
86B
330
828
100
AcDbEntity
  8
1
  6
Continuous
100
AcDbLine
 10
152.62726
 20
116.264709
 30
0.0
 11
152.12726
 21
116.264709
 31
0.0
  0
LINE
  5
86C
330
828
100
AcDbEntity
  8
1
  6
Continuous
100
AcDbLine
 10
140.327255
 20
45.0
 30
0.0
 11
140.827255
 21
45.0
 31
0.0
  0
LINE
  5
86D
330
828
100
AcDbEntity
  8
1
  6
Continuous
100
AcDbLine
 10
140.327255
 20
37.0
 30
0.0
 11
140.827255
 21
37.0
 31
0.0
  0
LINE
  5
86E
330
828
100
AcDbEntity
  8
1
  6
Continuous
100
AcDbLine
 10
155.727258
 20
38.0
 30
0.0
 11
154.227258
 21
38.0
 31
0.0
  0
LINE
  5
86F
330
828
100
AcDbEntity
  8
1
  6
Continuous
100
AcDbLine
 10
155.727258
 20
44.0
 30
0.0
 11
155.727258
 21
38.0
 31
0.0
  0
LINE
  5
870
330
828
100
AcDbEntity
  8
1
  6
Continuous
100
AcDbLine
 10
155.727258
 20
44.0
 30
0.0
 11
154.227258
 21
44.0
 31
0.0
  0
LINE
  5
871
330
828
100
AcDbEntity
  8
1
  6
Continuous
100
AcDbLine
 10
143.327255
 20
45.220095
 30
0.0
 11
143.327255
 21
21.191447
 31
0.0
  0
LINE
  5
872
330
828
100
AcDbEntity
  8
1
  6
Continuous
100
AcDbLine
 10
142.327255
 20
35.205767
 30
0.0
 11
142.327255
 21
31.20576699999999
 31
0.0
  0
LINE
  5
873
330
828
100
AcDbEntity
  8
1
  6
Continuous
100
AcDbLine
 10
143.327255
 20
35.70577099999999
 30
0.0
 11
142.327255
 21
35.205771
 31
0.0
  0
LINE
  5
874
330
828
100
AcDbEntity
  8
1
  6
Continuous
100
AcDbLine
 10
143.327255
 20
30.70577099999999
 30
0.0
 11
142.327255
 21
31.205769
 31
0.0
  0
LINE
  5
875
330
828
100
AcDbEntity
  8
4
  6
CENTER
100
AcDbLine
 10
148.327257
 20
109.264709
 30
0.0
 11
148.327257
 21
101.664711
 31
0.0
  0
LINE
  5
876
330
828
100
AcDbEntity
  8
1
  6
Continuous
100
AcDbLine
 10
145.927254
 20
22.20577099999999
 30
0.0
 11
145.427254
 21
22.20577099999999
 31
0.0
  0
LINE
  5
877
330
828
100
AcDbEntity
  8
1
  6
Continuous
100
AcDbLine
 10
143.827255
 20
45.220095
 30
0.0
 11
143.327255
 21
45.220095
 31
0.0
  0
LINE
  5
878
330
828
100
AcDbEntity
  8
1
  6
Continuous
100
AcDbLine
 10
143.827255
 20
21.191447
 30
0.0
 11
143.327255
 21
21.191447
 31
0.0
  0
LINE
  5
879
330
828
100
AcDbEntity
  8
1
  6
Continuous
100
AcDbLine
 10
22.73399599999998
 20
127.312196
 30
0.0
 11
35.830839
 21
129.6215209999998
 31
0.0
  0
LINE
  5
87A
330
828
100
AcDbEntity
  8
1
  6
Continuous
100
AcDbLine
 10
24.918436
 20
120.479731
 30
0.0
 11
36.64449899999999
 21
122.5473499999998
 31
0.0
  0
LINE
  5
87B
330
828
100
AcDbEntity
  8
4
  6
CENTER
100
AcDbLine
 10
25.0
 20
153.764709
 30
0.0
 11
25.0
 21
191.764709
 31
0.0
  0
LINE
  5
87C
330
828
100
AcDbEntity
  8
4
  6
CENTER
100
AcDbLine
 10
6.0
 20
172.764709
 30
0.0
 11
44.0
 21
172.764709
 31
0.0
  0
LINE
  5
87D
330
828
100
AcDbEntity
  8
1
  6
Continuous
100
AcDbLine
 10
9.0
 20
172.764709
 30
0.0
 11
11.0
 21
172.764709
 31
0.0
  0
LINE
  5
87E
330
828
100
AcDbEntity
  8
1
  6
Continuous
100
AcDbLine
 10
9.0
 20
172.764709
 30
0.0
 11
9.211249999999999
 21
170.1733089999999
 31
0.0
  0
LINE
  5
87F
330
828
100
AcDbEntity
  8
1
  6
Continuous
100
AcDbLine
 10
10.605308
 20
172.764709
 30
0.0
 11
10.79536199999999
 21
170.4333039999999
 31
0.0
  0
LINE
  5
880
330
828
100
AcDbEntity
  8
1
  6
Continuous
100
AcDbLine
 10
9.211249999999999
 20
170.1733089999999
 30
0.0
 11
10.79536199999999
 21
170.4333039999999
 31
0.0
  0
LINE
  5
881
330
828
100
AcDbEntity
  8
1
  6
Continuous
100
AcDbLine
 10
155.727258
 20
115.264709
 30
0.0
 11
154.227258
 21
115.264709
 31
0.0
  0
LINE
  5
882
330
828
100
AcDbEntity
  8
1
  6
Continuous
100
AcDbLine
 10
155.727258
 20
115.264709
 30
0.0
 11
155.727258
 21
109.264709
 31
0.0
  0
LINE
  5
883
330
828
100
AcDbEntity
  8
1
  6
Continuous
100
AcDbLine
 10
155.727258
 20
109.264709
 30
0.0
 11
154.227258
 21
109.264709
 31
0.0
  0
LINE
  5
884
330
828
100
AcDbEntity
  8
1
  6
Continuous
100
AcDbLine
 10
143.327255
 20
175.264709
 30
0.0
 11
142.327255
 21
174.764709
 31
0.0
  0
LINE
  5
885
330
828
100
AcDbEntity
  8
1
  6
Continuous
100
AcDbLine
 10
142.327255
 20
174.764709
 30
0.0
 11
142.327255
 21
170.764709
 31
0.0
  0
LINE
  5
886
330
828
100
AcDbEntity
  8
1
  6
Continuous
100
AcDbLine
 10
143.327255
 20
170.264709
 30
0.0
 11
142.327255
 21
170.764709
 31
0.0
  0
LINE
  5
887
330
828
100
AcDbEntity
  8
1
  6
Continuous
100
AcDbLine
 10
143.327255
 20
184.779037
 30
0.0
 11
143.327255
 21
160.750381
 31
0.0
  0
LINE
  5
888
330
828
100
AcDbEntity
  8
1
  6
Continuous
100
AcDbLine
 10
143.827255
 20
184.779037
 30
0.0
 11
143.327255
 21
184.779037
 31
0.0
  0
LINE
  5
889
330
828
100
AcDbEntity
  8
1
  6
Continuous
100
AcDbLine
 10
143.827255
 20
160.750381
 30
0.0
 11
143.327255
 21
160.750381
 31
0.0
  0
LINE
  5
88A
330
828
100
AcDbEntity
  8
1
  6
Continuous
100
AcDbLine
 10
145.927254
 20
161.764709
 30
0.0
 11
145.427254
 21
161.764709
 31
0.0
  0
LINE
  5
88B
330
828
100
AcDbEntity
  8
1
  6
Continuous
100
AcDbLine
 10
145.927254
 20
183.764709
 30
0.0
 11
145.427254
 21
183.764709
 31
0.0
  0
LINE
  5
88C
330
828
100
AcDbEntity
  8
1
  6
Continuous
100
AcDbLine
 10
148.127258
 20
184.764709
 30
0.0
 11
147.52726
 21
184.764709
 31
0.0
  0
LINE
  5
88D
330
828
100
AcDbEntity
  8
1
  6
Continuous
100
AcDbLine
 10
148.127258
 20
184.764709
 30
0.0
 11
148.127258
 21
160.764709
 31
0.0
  0
LINE
  5
88E
330
828
100
AcDbEntity
  8
1
  6
Continuous
100
AcDbLine
 10
149.627258
 20
176.514709
 30
0.0
 11
148.127258
 21
176.514709
 31
0.0
  0
LINE
  5
88F
330
828
100
AcDbEntity
  8
1
  6
Continuous
100
AcDbLine
 10
149.627258
 20
176.514709
 30
0.0
 11
149.627258
 21
169.014709
 31
0.0
  0
LINE
  5
890
330
828
100
AcDbEntity
  8
1
  6
Continuous
100
AcDbLine
 10
149.627258
 20
169.014709
 30
0.0
 11
148.127258
 21
169.014709
 31
0.0
  0
LINE
  5
891
330
828
100
AcDbEntity
  8
1
  6
Continuous
100
AcDbLine
 10
148.127258
 20
160.764709
 30
0.0
 11
147.52726
 21
160.764709
 31
0.0
  0
LINE
  5
892
330
828
100
AcDbEntity
  8
1
  6
Continuous
100
AcDbLine
 10
143.827255
 20
47.20577099999998
 30
0.0
 11
143.827255
 21
17.425766
 31
0.0
  0
LINE
  5
893
330
828
100
AcDbEntity
  8
1
  6
Continuous
100
AcDbLine
 10
143.827255
 20
47.20577099999998
 30
0.0
 11
144.027269
 21
47.20577099999998
 31
0.0
  0
LINE
  5
894
330
828
100
AcDbEntity
  8
1
  6
Continuous
100
AcDbLine
 10
145.427254
 20
27.92691599999999
 30
0.0
 11
145.427254
 21
19.00113
 31
0.0
  0
LINE
  5
895
330
828
100
AcDbEntity
  8
1
  6
Continuous
100
AcDbLine
 10
145.927254
 20
27.613655
 30
0.0
 11
145.927254
 21
17.425766
 31
0.0
  0
LINE
  5
896
330
828
100
AcDbEntity
  8
1
  6
Continuous
100
AcDbLine
 10
147.52726
 20
27.06440999999999
 30
0.0
 11
147.52726
 21
18.805771
 31
0.0
  0
LINE
  5
897
330
828
100
AcDbEntity
  8
1
  6
Continuous
100
AcDbLine
 10
143.827255
 20
17.20577099999999
 30
0.0
 11
145.927254
 21
17.20577099999999
 31
0.0
  0
LINE
  5
898
330
828
100
AcDbEntity
  8
1
  6
Continuous
100
AcDbLine
 10
148.127258
 20
27.003998
 30
0.0
 11
148.127258
 21
21.20577099999999
 31
0.0
  0
LINE
  5
899
330
828
100
AcDbEntity
  8
1
  6
Continuous
100
AcDbLine
 10
140.827255
 20
46.0
 30
0.0
 11
140.827255
 21
33.220001
 31
0.0
  0
LINE
  5
89A
330
828
100
AcDbEntity
  8
4
  6
CENTER
100
AcDbLine
 10
138.9449009999998
 20
33.205767
 30
0.0
 11
155.4164659999998
 21
33.205767
 31
0.0
  0
LINE
  5
89B
330
828
100
AcDbEntity
  8
1
  6
Continuous
100
AcDbLine
 10
152.62726
 20
309.529419
 30
0.0
 11
154.2272659999999
 21
309.529419
 31
0.0
  0
LINE
  5
89C
330
828
100
AcDbEntity
  8
4
  6
CENTER
100
AcDbLine
 10
132.727257
 20
304.529419
 30
0.0
 11
159.176231
 21
304.529419
 31
0.0
  0
LINE
  5
89D
330
828
100
AcDbEntity
  8
1
  6
Continuous
100
AcDbLine
 10
152.62726
 20
299.529419
 30
0.0
 11
154.2272659999999
 21
299.529419
 31
0.0
  0
LINE
  5
89E
330
828
100
AcDbEntity
  8
1
  6
Continuous
100
AcDbLine
 10
144.027269
 20
298.323648
 30
0.0
 11
144.027269
 21
292.9779169999998
 31
0.0
  0
LINE
  5
89F
330
828
100
AcDbEntity
  8
1
  6
Continuous
100
AcDbLine
 10
154.2272659999999
 20
309.529419
 30
0.0
 11
154.2272659999999
 21
299.529419
 31
0.0
  0
LINE
  5
8A0
330
828
100
AcDbEntity
  8
1
  6
Continuous
100
AcDbLine
 10
152.62726
 20
316.0808949999998
 30
0.0
 11
152.62726
 21
292.977942
 31
0.0
  0
LINE
  5
8A1
330
828
100
AcDbEntity
  8
4
  6
CENTER
100
AcDbLine
 10
148.327257
 20
320.529419
 30
0.0
 11
148.327257
 21
288.529419
 31
0.0
  0
LINE
  5
8A2
330
828
100
AcDbEntity
  8
4
  6
CENTER
100
AcDbLine
 10
142.3272569999998
 20
294.529419
 30
0.0
 11
154.327257
 21
294.529419
 31
0.0
  0
LINE
  5
8A3
330
828
100
AcDbEntity
  8
4
  6
CENTER
100
AcDbLine
 10
142.3272569999998
 20
314.529419
 30
0.0
 11
154.327257
 21
314.529419
 31
0.0
  0
LINE
  5
8A4
330
828
100
AcDbEntity
  8
1
  6
Continuous
100
AcDbLine
 10
135.327257
 20
290.529419
 30
0.0
 11
135.327257
 21
318.529419
 31
0.0
  0
LINE
  5
8A5
330
828
100
AcDbEntity
  8
1
  6
Continuous
100
AcDbLine
 10
136.327257
 20
290.529419
 30
0.0
 11
136.327257
 21
318.529419
 31
0.0
  0
LINE
  5
8A6
330
828
100
AcDbEntity
  8
1
  6
Continuous
100
AcDbLine
 10
140.327255
 20
300.529419
 30
0.0
 11
140.327255
 21
308.529419
 31
0.0
  0
LINE
  5
8A7
330
828
100
AcDbEntity
  8
1
  6
Continuous
100
AcDbLine
 10
143.927254
 20
301.529419
 30
0.0
 11
142.427254
 21
301.529419
 31
0.0
  0
LINE
  5
8A8
330
828
100
AcDbEntity
  8
1
  6
Continuous
100
AcDbLine
 10
143.927254
 20
307.529419
 30
0.0
 11
142.427254
 21
307.529419
 31
0.0
  0
LINE
  5
8A9
330
828
100
AcDbEntity
  8
1
  6
Continuous
100
AcDbLine
 10
140.327255
 20
300.529419
 30
0.0
 11
140.827255
 21
300.529419
 31
0.0
  0
LINE
  5
8AA
330
828
100
AcDbEntity
  8
1
  6
Continuous
100
AcDbLine
 10
140.327255
 20
308.529419
 30
0.0
 11
140.827255
 21
308.529419
 31
0.0
  0
LINE
  5
8AB
330
828
100
AcDbEntity
  8
1
  6
Continuous
100
AcDbLine
 10
155.727258
 20
307.529419
 30
0.0
 11
154.227258
 21
307.529419
 31
0.0
  0
LINE
  5
8AC
330
828
100
AcDbEntity
  8
1
  6
Continuous
100
AcDbLine
 10
155.727258
 20
301.529419
 30
0.0
 11
155.727258
 21
307.529419
 31
0.0
  0
LINE
  5
8AD
330
828
100
AcDbEntity
  8
1
  6
Continuous
100
AcDbLine
 10
155.727258
 20
301.529419
 30
0.0
 11
154.227258
 21
301.529419
 31
0.0
  0
LINE
  5
8AE
330
828
100
AcDbEntity
  8
1
  6
Continuous
100
AcDbLine
 10
143.327255
 20
300.3093049999999
 30
0.0
 11
143.327255
 21
300.979908
 31
0.0
  0
LINE
  5
8AF
330
828
100
AcDbEntity
  8
1
  6
Continuous
100
AcDbLine
 10
142.327255
 20
312.323648
 30
0.0
 11
142.327255
 21
314.323648
 31
0.0
  0
LINE
  5
8B0
330
828
100
AcDbEntity
  8
1
  6
Continuous
100
AcDbLine
 10
143.327255
 20
314.823648
 30
0.0
 11
142.327255
 21
314.323648
 31
0.0
  0
LINE
  5
8B1
330
828
100
AcDbEntity
  8
1
  6
Continuous
100
AcDbLine
 10
145.927254
 20
323.3236479999998
 30
0.0
 11
145.427254
 21
323.3236479999998
 31
0.0
  0
LINE
  5
8B2
330
828
100
AcDbEntity
  8
1
  6
Continuous
100
AcDbLine
 10
143.827255
 20
300.3093049999999
 30
0.0
 11
143.327255
 21
300.3093049999999
 31
0.0
  0
LINE
  5
8B3
330
828
100
AcDbEntity
  8
1
  6
Continuous
100
AcDbLine
 10
143.827255
 20
324.337961
 30
0.0
 11
143.327255
 21
324.337961
 31
0.0
  0
LINE
  5
8B4
330
828
100
AcDbEntity
  8
1
  6
Continuous
100
AcDbLine
 10
143.827255
 20
298.323648
 30
0.0
 11
143.827255
 21
301.119078
 31
0.0
  0
LINE
  5
8B5
330
828
100
AcDbEntity
  8
1
  6
Continuous
100
AcDbLine
 10
143.827255
 20
298.323648
 30
0.0
 11
145.427254
 21
298.323648
 31
0.0
  0
LINE
  5
8B6
330
828
100
AcDbEntity
  8
1
  6
Continuous
100
AcDbLine
 10
145.427254
 20
298.323648
 30
0.0
 11
145.427254
 21
328.103647
 31
0.0
  0
LINE
  5
8B7
330
828
100
AcDbEntity
  8
1
  6
Continuous
100
AcDbLine
 10
145.927254
 20
296.3236479999998
 30
0.0
 11
145.927254
 21
328.103647
 31
0.0
  0
LINE
  5
8B8
330
828
100
AcDbEntity
  8
1
  6
Continuous
100
AcDbLine
 10
147.52726
 20
296.3236479999998
 30
0.0
 11
147.52726
 21
326.7236419999999
 31
0.0
  0
LINE
  5
8B9
330
828
100
AcDbEntity
  8
1
  6
Continuous
100
AcDbLine
 10
143.827255
 20
328.3236479999998
 30
0.0
 11
145.927254
 21
328.3236479999998
 31
0.0
  0
LINE
  5
8BA
330
828
100
AcDbEntity
  8
1
  6
Continuous
100
AcDbLine
 10
148.127258
 20
299.323648
 30
0.0
 11
148.127258
 21
325.3236479999998
 31
0.0
  0
LINE
  5
8BB
330
828
100
AcDbEntity
  8
1
  6
Continuous
100
AcDbLine
 10
140.827255
 20
299.529419
 30
0.0
 11
140.827255
 21
312.3094179999998
 31
0.0
  0
LINE
  5
8BC
330
828
100
AcDbEntity
  8
1
  6
Continuous
100
AcDbLine
 10
142.427254
 20
299.529419
 30
0.0
 11
142.427254
 21
312.3094179999998
 31
0.0
  0
LINE
  5
8BD
330
828
100
AcDbEntity
  8
1
  6
Continuous
100
AcDbLine
 10
140.827255
 20
299.529419
 30
0.0
 11
142.427254
 21
299.529419
 31
0.0
  0
LINE
  5
8BE
330
828
100
AcDbEntity
  8
1
  6
Continuous
100
AcDbLine
 10
140.827255
 20
312.3094179999998
 30
0.0
 11
142.427254
 21
312.3094179999998
 31
0.0
  0
LINE
  5
8BF
330
828
100
AcDbEntity
  8
1
  6
Continuous
100
AcDbLine
 10
135.327257
 20
290.529419
 30
0.0
 11
136.327257
 21
290.529419
 31
0.0
  0
LINE
  5
8C0
330
828
100
AcDbEntity
  8
1
  6
Continuous
100
AcDbLine
 10
135.327257
 20
318.529419
 30
0.0
 11
136.327257
 21
318.529419
 31
0.0
  0
LINE
  5
8C1
330
828
100
AcDbEntity
  8
4
  6
CENTER
100
AcDbLine
 10
139.2405699999999
 20
312.323648
 30
0.0
 11
154.7104799999999
 21
312.323648
 31
0.0
  0
LINE
  5
8C2
330
828
100
AcDbEntity
  8
4
  6
CENTER
100
AcDbLine
 10
132.327257
 20
294.529419
 30
0.0
 11
139.327257
 21
294.529419
 31
0.0
  0
LINE
  5
8C3
330
828
100
AcDbEntity
  8
4
  6
CENTER
100
AcDbLine
 10
132.327257
 20
314.529419
 30
0.0
 11
139.327257
 21
314.529419
 31
0.0
  0
LINE
  5
8C4
330
828
100
AcDbEntity
  8
1
  6
Continuous
100
AcDbLine
 10
143.927254
 20
307.529419
 30
0.0
 11
143.927254
 21
301.529419
 31
0.0
  0
LINE
  5
8C5
330
828
100
AcDbEntity
  8
1
  6
Continuous
100
AcDbLine
 10
143.327255
 20
312.945417
 30
0.0
 11
143.327255
 21
324.337961
 31
0.0
  0
LINE
  5
8C6
330
828
100
AcDbEntity
  8
1
  6
Continuous
100
AcDbLine
 10
143.827255
 20
313.29875
 30
0.0
 11
143.827255
 21
328.103647
 31
0.0
  0
LINE
  5
8C7
330
828
100
AcDbEntity
  8
1
  6
Continuous
100
AcDbLine
 10
152.12726
 20
312.4534
 30
0.0
 11
152.12726
 21
299.529419
 31
0.0
  0
LINE
  5
8C8
330
828
100
AcDbEntity
  8
1
  6
Continuous
100
AcDbLine
 10
152.12726
 20
308.529419
 30
0.0
 11
152.62726
 21
308.529419
 31
0.0
  0
LINE
  5
8C9
330
828
100
AcDbEntity
  8
1
  6
Continuous
100
AcDbLine
 10
152.12726
 20
300.529419
 30
0.0
 11
152.62726
 21
300.529419
 31
0.0
  0
LINE
  5
8CA
330
828
100
AcDbEntity
  8
1
  6
Continuous
100
AcDbLine
 10
145.927254
 20
301.3236479999998
 30
0.0
 11
145.427254
 21
301.3236479999998
 31
0.0
  0
LINE
  5
8CB
330
828
100
AcDbEntity
  8
1
  6
Continuous
100
AcDbLine
 10
145.927254
 20
296.3236479999998
 30
0.0
 11
147.52726
 21
296.3236479999998
 31
0.0
  0
LINE
  5
8CC
330
828
100
AcDbEntity
  8
1
  6
Continuous
100
AcDbLine
 10
147.52726
 20
325.3236479999998
 30
0.0
 11
148.127258
 21
325.3236479999998
 31
0.0
  0
LINE
  5
8CD
330
828
100
AcDbEntity
  8
1
  6
Continuous
100
AcDbLine
 10
147.52726
 20
299.323648
 30
0.0
 11
148.127258
 21
299.323648
 31
0.0
  0
LINE
  5
8CE
330
828
100
AcDbEntity
  8
1
  6
Continuous
100
AcDbLine
 10
148.127258
 20
316.073648
 30
0.0
 11
149.627258
 21
316.073648
 31
0.0
  0
LINE
  5
8CF
330
828
100
AcDbEntity
  8
1
  6
Continuous
100
AcDbLine
 10
148.127258
 20
308.573648
 30
0.0
 11
149.627258
 21
308.573648
 31
0.0
  0
LINE
  5
8D0
330
828
100
AcDbEntity
  8
1
  6
Continuous
100
AcDbLine
 10
149.627258
 20
308.573648
 30
0.0
 11
149.627258
 21
316.073648
 31
0.0
  0
LINE
  5
8D1
330
828
100
AcDbEntity
  8
1
  6
Continuous
100
AcDbLine
 10
289.104624
 20
127.262456
 30
0.0
 11
276.0177609999999
 21
129.5700199999998
 31
0.0
  0
LINE
  5
8D2
330
828
100
AcDbEntity
  8
1
  6
Continuous
100
AcDbLine
 10
293.0602939999999
 20
106.264709
 30
0.0
 11
293.0602939999999
 21
104.6647109999999
 31
0.0
  0
LINE
  5
8D3
330
828
100
AcDbEntity
  8
1
  6
Continuous
100
AcDbLine
 10
265.060294
 20
106.264709
 30
0.0
 11
265.060294
 21
104.6647109999999
 31
0.0
  0
LINE
  5
8D4
330
828
100
AcDbEntity
  8
4
  6
CENTER
100
AcDbLine
 10
289.0602939999999
 20
109.264709
 30
0.0
 11
289.0602939999999
 21
101.664711
 31
0.0
  0
LINE
  5
8D5
330
828
100
AcDbEntity
  8
4
  6
CENTER
100
AcDbLine
 10
269.060294
 20
109.264709
 30
0.0
 11
269.060294
 21
101.664711
 31
0.0
  0
LINE
  5
8D6
330
828
100
AcDbEntity
  8
1
  6
Continuous
100
AcDbLine
 10
293.0602939999999
 20
104.6647109999999
 30
0.0
 11
265.060294
 21
104.6647109999999
 31
0.0
  0
LINE
  5
8D7
330
828
100
AcDbEntity
  8
1
  6
Continuous
100
AcDbLine
 10
284.060294
 20
112.264709
 30
0.0
 11
284.060294
 21
104.6647109999999
 31
0.0
  0
LINE
  5
8D8
330
828
100
AcDbEntity
  8
1
  6
Continuous
100
AcDbLine
 10
274.060294
 20
112.264709
 30
0.0
 11
274.060294
 21
104.6647109999999
 31
0.0
  0
LINE
  5
8D9
330
828
100
AcDbEntity
  8
4
  6
CENTER
100
AcDbLine
 10
287.0602939999999
 20
112.264709
 30
0.0
 11
271.060294
 21
112.264709
 31
0.0
  0
LINE
  5
8DA
330
828
100
AcDbEntity
  8
4
  6
CENTER
100
AcDbLine
 10
279.0602939999998
 20
120.264709
 30
0.0
 11
279.0602939999998
 21
101.664711
 31
0.0
  0
LINE
  5
8DB
330
828
100
AcDbEntity
  8
1
  6
Continuous
100
AcDbLine
 10
293.0602939999999
 20
106.264709
 30
0.0
 11
284.060294
 21
106.264709
 31
0.0
  0
LINE
  5
8DC
330
828
100
AcDbEntity
  8
1
  6
Continuous
100
AcDbLine
 10
286.920184
 20
120.4299899999998
 30
0.0
 11
275.2040999999999
 21
122.4958489999998
 31
0.0
  0
LINE
  5
8DD
330
828
100
AcDbEntity
  8
4
  6
CENTER
100
AcDbLine
 10
286.8545229999999
 20
153.764709
 30
0.0
 11
286.8545229999999
 21
191.764709
 31
0.0
  0
LINE
  5
8DE
330
828
100
AcDbEntity
  8
4
  6
CENTER
100
AcDbLine
 10
305.854523
 20
172.764709
 30
0.0
 11
267.8545229999999
 21
172.764709
 31
0.0
  0
LINE
  5
8DF
330
828
100
AcDbEntity
  8
1
  6
Continuous
100
AcDbLine
 10
302.8545229999999
 20
172.764709
 30
0.0
 11
302.6432649999998
 21
170.1733089999999
 31
0.0
  0
LINE
  5
8E0
330
828
100
AcDbEntity
  8
1
  6
Continuous
100
AcDbLine
 10
291.8545229999999
 20
184.764709
 30
0.0
 11
281.8545229999998
 21
184.764709
 31
0.0
  0
LINE
  5
8E1
330
828
100
AcDbEntity
  8
1
  6
Continuous
100
AcDbLine
 10
291.8545229999999
 20
160.764709
 30
0.0
 11
281.8545229999998
 21
160.764709
 31
0.0
  0
LINE
  5
8E2
330
828
100
AcDbEntity
  8
1
  6
Continuous
100
AcDbLine
 10
143.827255
 20
158.764709
 30
0.0
 11
145.427254
 21
158.764709
 31
0.0
  0
LINE
  5
8E3
330
828
100
AcDbEntity
  8
1
  6
Continuous
100
AcDbLine
 10
142.427254
 20
46.0
 30
0.0
 11
142.427254
 21
44.35466799999999
 31
0.0
  0
LINE
  5
8E4
330
828
100
AcDbEntity
  8
1
  6
Continuous
100
AcDbLine
 10
140.827255
 20
46.0
 30
0.0
 11
142.427254
 21
46.0
 31
0.0
  0
LINE
  5
8E5
330
828
100
AcDbEntity
  8
1
  6
Continuous
100
AcDbLine
 10
140.827255
 20
33.220001
 30
0.0
 11
142.327255
 21
32.15999999999999
 31
0.0
  0
LINE
  5
8E6
330
828
100
AcDbEntity
  8
1
  6
Continuous
100
AcDbLine
 10
140.827255
 20
44.799999
 30
0.0
 11
143.327255
 21
44.104168
 31
0.0
  0
LINE
  5
8E7
330
828
100
AcDbEntity
  8
1
  6
Continuous
100
AcDbLine
 10
142.427254
 20
300.7294009999998
 30
0.0
 11
145.427254
 21
301.5644229999999
 31
0.0
  0
LINE
  5
8E8
330
828
100
AcDbEntity
  8
1
  6
Continuous
100
AcDbLine
 10
142.427254
 20
312.3094179999998
 30
0.0
 11
145.427254
 21
314.429413
 31
0.0
  0
LINE
  5
8E9
330
828
100
AcDbEntity
  8
1
  6
Continuous
100
AcDbLine
 10
150.527261
 20
300.2460929999998
 30
0.0
 11
150.527261
 21
299.529419
 31
0.0
  0
LINE
  5
8EA
330
828
100
AcDbEntity
  8
1
  6
Continuous
100
AcDbLine
 10
150.527261
 20
299.529419
 30
0.0
 11
152.12726
 21
299.529419
 31
0.0
  0
LINE
  5
8EB
330
828
100
AcDbEntity
  8
1
  6
Continuous
100
AcDbLine
 10
149.627258
 20
313.7421259999999
 30
0.0
 11
152.12726
 21
312.4534
 31
0.0
  0
LINE
  5
8EC
330
828
100
AcDbEntity
  8
1
  6
Continuous
100
AcDbLine
 10
152.12726
 20
299.529419
 30
0.0
 11
148.127258
 21
301.3211059999998
 31
0.0
  0
LINE
  5
8ED
330
828
100
AcDbEntity
  8
4
  6
CENTER
100
AcDbLine
 10
371.081772
 20
172.764709
 30
0.0
 11
384.3817749999999
 21
172.764709
 31
0.0
  0
LINE
  5
8EE
330
828
100
AcDbEntity
  8
1
  6
Continuous
100
AcDbLine
 10
382.881775
 20
238.2647089999999
 30
0.0
 11
382.881775
 21
225.384888
 31
0.0
  0
LINE
  5
8EF
330
828
100
AcDbEntity
  8
1
  6
Continuous
100
AcDbLine
 10
381.281769
 20
238.2647089999999
 30
0.0
 11
381.281769
 21
225.0495759999998
 31
0.0
  0
LINE
  5
8F0
330
828
100
AcDbEntity
  8
1
  6
Continuous
100
AcDbLine
 10
381.281769
 20
238.2647089999999
 30
0.0
 11
382.881775
 21
238.2647089999999
 31
0.0
  0
LINE
  5
8F1
330
828
100
AcDbEntity
  8
1
  6
Continuous
100
AcDbLine
 10
378.2817689999998
 20
217.8709109999998
 30
0.0
 11
378.2817689999998
 21
172.764709
 31
0.0
  0
LINE
  5
8F2
330
828
100
AcDbEntity
  8
1
  6
Continuous
100
AcDbLine
 10
379.8817749999998
 20
218.2062069999998
 30
0.0
 11
379.8817749999998
 21
158.764709
 31
0.0
  0
LINE
  5
8F3
330
828
100
AcDbEntity
  8
1
  6
Continuous
100
AcDbLine
 10
377.781769
 20
188.764709
 30
0.0
 11
377.781769
 21
172.764709
 31
0.0
  0
LINE
  5
8F4
330
828
100
AcDbEntity
  8
1
  6
Continuous
100
AcDbLine
 10
376.1817779999999
 20
188.764709
 30
0.0
 11
377.781769
 21
188.764709
 31
0.0
  0
LINE
  5
8F5
330
828
100
AcDbEntity
  8
1
  6
Continuous
100
AcDbLine
 10
376.1817779999999
 20
188.764709
 30
0.0
 11
376.1817779999999
 21
127.280823
 31
0.0
  0
LINE
  5
8F6
330
828
100
AcDbEntity
  8
1
  6
Continuous
100
AcDbLine
 10
373.181784
 20
120.454948
 30
0.0
 11
373.181784
 21
107.264709
 31
0.0
  0
LINE
  5
8F7
330
828
100
AcDbEntity
  8
1
  6
Continuous
100
AcDbLine
 10
371.581778
 20
119.931633
 30
0.0
 11
371.581778
 21
107.264709
 31
0.0
  0
LINE
  5
8F8
330
828
100
AcDbEntity
  8
4
  6
CENTER
100
AcDbLine
 10
364.9817719999999
 20
112.264709
 30
0.0
 11
377.4817719999999
 21
112.264709
 31
0.0
  0
LINE
  5
8F9
330
828
100
AcDbEntity
  8
1
  6
Continuous
100
AcDbLine
 10
371.581778
 20
107.264709
 30
0.0
 11
373.181784
 21
107.264709
 31
0.0
  0
LINE
  5
8FA
330
828
100
AcDbEntity
  8
1
  6
Continuous
100
AcDbLine
 10
371.0817779999999
 20
106.264709
 30
0.0
 11
379.6817689999999
 21
106.264709
 31
0.0
  0
LINE
  5
8FB
330
828
100
AcDbEntity
  8
1
  6
Continuous
100
AcDbLine
 10
371.0817779999999
 20
104.6647109999999
 30
0.0
 11
379.6817689999999
 21
104.6647109999999
 31
0.0
  0
LINE
  5
8FC
330
828
100
AcDbEntity
  8
1
  6
Continuous
100
AcDbLine
 10
369.4817719999999
 20
117.264709
 30
0.0
 11
369.4817719999999
 21
106.264709
 31
0.0
  0
LINE
  5
8FD
330
828
100
AcDbEntity
  8
1
  6
Continuous
100
AcDbLine
 10
371.0817779999999
 20
117.264709
 30
0.0
 11
371.0817779999999
 21
104.6647109999999
 31
0.0
  0
LINE
  5
8FE
330
828
100
AcDbEntity
  8
1
  6
Continuous
100
AcDbLine
 10
379.681784
 20
106.264709
 30
0.0
 11
379.681784
 21
104.6647109999999
 31
0.0
  0
LINE
  5
8FF
330
828
100
AcDbEntity
  8
1
  6
Continuous
100
AcDbLine
 10
369.4817719999999
 20
117.264709
 30
0.0
 11
371.0817779999999
 21
117.264709
 31
0.0
  0
LINE
  5
900
330
828
100
AcDbEntity
  8
1
  6
Continuous
100
AcDbLine
 10
374.1817839999998
 20
113.764709
 30
0.0
 11
374.1817839999998
 21
110.764709
 31
0.0
  0
LINE
  5
901
330
828
100
AcDbEntity
  8
1
  6
Continuous
100
AcDbLine
 10
373.1817689999999
 20
114.264702
 30
0.0
 11
374.1817839999998
 21
113.7647019999999
 31
0.0
  0
LINE
  5
902
330
828
100
AcDbEntity
  8
1
  6
Continuous
100
AcDbLine
 10
373.1817689999999
 20
110.264709
 30
0.0
 11
374.1817689999999
 21
110.764709
 31
0.0
  0
LINE
  5
903
330
828
100
AcDbEntity
  8
1
  6
Continuous
100
AcDbLine
 10
371.0817779999999
 20
108.264709
 30
0.0
 11
371.581778
 21
108.264709
 31
0.0
  0
LINE
  5
904
330
828
100
AcDbEntity
  8
1
  6
Continuous
100
AcDbLine
 10
371.0817779999999
 20
116.264709
 30
0.0
 11
371.581778
 21
116.264709
 31
0.0
  0
LINE
  5
905
330
828
100
AcDbEntity
  8
4
  6
CENTER
100
AcDbLine
 10
375.381781
 20
109.264709
 30
0.0
 11
375.381781
 21
101.664711
 31
0.0
  0
LINE
  5
906
330
828
100
AcDbEntity
  8
1
  6
Continuous
100
AcDbLine
 10
367.9817719999999
 20
115.264709
 30
0.0
 11
369.4817719999999
 21
115.264709
 31
0.0
  0
LINE
  5
907
330
828
100
AcDbEntity
  8
1
  6
Continuous
100
AcDbLine
 10
367.9817719999999
 20
115.264709
 30
0.0
 11
367.9817719999999
 21
109.264709
 31
0.0
  0
LINE
  5
908
330
828
100
AcDbEntity
  8
1
  6
Continuous
100
AcDbLine
 10
367.9817719999999
 20
109.264709
 30
0.0
 11
369.4817719999999
 21
109.264709
 31
0.0
  0
LINE
  5
909
330
828
100
AcDbEntity
  8
1
  6
Continuous
100
AcDbLine
 10
380.381775
 20
175.264709
 30
0.0
 11
381.381775
 21
174.764709
 31
0.0
  0
LINE
  5
90A
330
828
100
AcDbEntity
  8
1
  6
Continuous
100
AcDbLine
 10
381.381775
 20
174.764709
 30
0.0
 11
381.381775
 21
170.764709
 31
0.0
  0
LINE
  5
90B
330
828
100
AcDbEntity
  8
1
  6
Continuous
100
AcDbLine
 10
380.381775
 20
170.264709
 30
0.0
 11
381.381775
 21
170.764709
 31
0.0
  0
LINE
  5
90C
330
828
100
AcDbEntity
  8
1
  6
Continuous
100
AcDbLine
 10
380.381775
 20
184.779037
 30
0.0
 11
380.381775
 21
160.750381
 31
0.0
  0
LINE
  5
90D
330
828
100
AcDbEntity
  8
1
  6
Continuous
100
AcDbLine
 10
379.8817749999998
 20
184.779037
 30
0.0
 11
380.381775
 21
184.779037
 31
0.0
  0
LINE
  5
90E
330
828
100
AcDbEntity
  8
1
  6
Continuous
100
AcDbLine
 10
379.8817749999998
 20
160.750381
 30
0.0
 11
380.381775
 21
160.750381
 31
0.0
  0
LINE
  5
90F
330
828
100
AcDbEntity
  8
1
  6
Continuous
100
AcDbLine
 10
377.781769
 20
161.764709
 30
0.0
 11
378.2817689999998
 21
161.764709
 31
0.0
  0
LINE
  5
910
330
828
100
AcDbEntity
  8
1
  6
Continuous
100
AcDbLine
 10
377.781769
 20
183.764709
 30
0.0
 11
378.2817689999998
 21
183.764709
 31
0.0
  0
LINE
  5
911
330
828
100
AcDbEntity
  8
1
  6
Continuous
100
AcDbLine
 10
375.581772
 20
184.764709
 30
0.0
 11
376.1817779999999
 21
184.764709
 31
0.0
  0
LINE
  5
912
330
828
100
AcDbEntity
  8
1
  6
Continuous
100
AcDbLine
 10
375.581772
 20
184.764709
 30
0.0
 11
375.581772
 21
160.764709
 31
0.0
  0
LINE
  5
913
330
828
100
AcDbEntity
  8
1
  6
Continuous
100
AcDbLine
 10
374.0817719999999
 20
176.514709
 30
0.0
 11
375.581772
 21
176.514709
 31
0.0
  0
LINE
  5
914
330
828
100
AcDbEntity
  8
1
  6
Continuous
100
AcDbLine
 10
374.0817719999999
 20
176.514709
 30
0.0
 11
374.0817719999999
 21
169.014709
 31
0.0
  0
LINE
  5
915
330
828
100
AcDbEntity
  8
1
  6
Continuous
100
AcDbLine
 10
374.0817719999999
 20
169.014709
 30
0.0
 11
375.581772
 21
169.014709
 31
0.0
  0
LINE
  5
916
330
828
100
AcDbEntity
  8
1
  6
Continuous
100
AcDbLine
 10
375.581772
 20
160.764709
 30
0.0
 11
376.1817779999999
 21
160.764709
 31
0.0
  0
LINE
  5
917
330
828
100
AcDbEntity
  8
1
  6
Continuous
100
AcDbLine
 10
383.381775
 20
237.264709
 30
0.0
 11
382.881775
 21
237.264709
 31
0.0
  0
LINE
  5
918
330
828
100
AcDbEntity
  8
1
  6
Continuous
100
AcDbLine
 10
383.381775
 20
237.264709
 30
0.0
 11
383.381775
 21
229.2647089999999
 31
0.0
  0
LINE
  5
919
330
828
100
AcDbEntity
  8
1
  6
Continuous
100
AcDbLine
 10
383.381775
 20
229.2647089999999
 30
0.0
 11
382.881775
 21
229.2647089999999
 31
0.0
  0
LINE
  5
91A
330
828
100
AcDbEntity
  8
1
  6
Continuous
100
AcDbLine
 10
379.781769
 20
236.2647089999999
 30
0.0
 11
381.281769
 21
236.2647089999999
 31
0.0
  0
LINE
  5
91B
330
828
100
AcDbEntity
  8
1
  6
Continuous
100
AcDbLine
 10
379.781769
 20
236.2647089999999
 30
0.0
 11
379.781769
 21
230.2647089999999
 31
0.0
  0
LINE
  5
91C
330
828
100
AcDbEntity
  8
1
  6
Continuous
100
AcDbLine
 10
379.781769
 20
230.2647089999999
 30
0.0
 11
381.281769
 21
230.2647089999999
 31
0.0
  0
LINE
  5
91D
330
828
100
AcDbEntity
  8
4
  6
CENTER
100
AcDbLine
 10
390.981781
 20
233.264709
 30
0.0
 11
376.781769
 21
233.264709
 31
0.0
  0
LINE
  5
91E
330
828
100
AcDbEntity
  8
1
  6
Continuous
100
AcDbLine
 10
379.8817749999998
 20
158.764709
 30
0.0
 11
378.2817689999998
 21
158.764709
 31
0.0
  0
LINE
  5
91F
330
828
100
AcDbEntity
  8
1
  6
Continuous
100
AcDbLine
 10
376.1817779999999
 20
170.1733089999999
 30
0.0
 11
379.8817749999998
 21
170.1733089999999
 31
0.0
  0
LINE
  5
920
330
828
100
AcDbEntity
  8
1
  6
Continuous
100
AcDbLine
 10
376.1817779999999
 20
172.764709
 30
0.0
 11
379.8817749999998
 21
172.764709
 31
0.0
  0
LINE
  5
921
330
828
100
AcDbEntity
  8
1
  6
Continuous
100
AcDbLine
 10
377.781769
 20
170.1733089999999
 30
0.0
 11
377.781769
 21
127.8041379999999
 31
0.0
  0
LINE
  5
922
330
828
100
AcDbEntity
  8
1
  6
Continuous
100
AcDbLine
 10
378.2817689999998
 20
170.1733089999999
 30
0.0
 11
378.2817689999998
 21
158.764709
 31
0.0
  0
LINE
  5
923
330
828
100
AcDbEntity
  8
1
  6
Continuous
100
AcDbLine
 10
145.927254
 20
158.6284939999998
 30
0.0
 11
147.52726
 21
158.6284939999998
 31
0.0
  0
LINE
  5
924
330
828
100
AcDbEntity
  8
1
  6
Continuous
100
AcDbLine
 10
143.827255
 20
184.748932
 30
0.0
 11
145.427254
 21
184.748932
 31
0.0
  0
LINE
  5
925
330
828
100
AcDbEntity
  8
1
  6
Continuous
100
AcDbLine
 10
146.221008
 20
129.1772919999999
 30
0.0
 11
150.5272539999999
 21
122.523895
 31
0.0
  0
LINE
  5
926
330
828
100
AcDbEntity
  8
1
  6
Continuous
100
AcDbLine
 10
147.52726
 20
129.592575
 30
0.0
 11
151.833505
 21
122.939186
 31
0.0
  0
LINE
  5
927
330
828
100
AcDbEntity
  8
1
  6
Continuous
100
AcDbLine
 10
371.8910129999999
 20
120.877121
 30
0.0
 11
376.1817779999999
 21
127.280823
 31
0.0
  0
LINE
  5
928
330
828
100
AcDbEntity
  8
1
  6
Continuous
100
AcDbLine
 10
377.4725339999998
 20
126.85865
 30
0.0
 11
373.181784
 21
120.454948
 31
0.0
  0
LINE
  5
929
330
828
100
AcDbEntity
  8
1
  6
Continuous
100
AcDbLine
 10
378.416397
 20
218.513306
 30
0.0
 11
381.281769
 21
225.0495759999998
 31
0.0
  0
LINE
  5
92A
330
828
100
AcDbEntity
  8
1
  6
Continuous
100
AcDbLine
 10
382.7471469999999
 20
224.742493
 30
0.0
 11
379.8817749999998
 21
218.2062069999998
 31
0.0
  0
LINE
  5
92B
330
828
100
AcDbEntity
  8
1
  6
Continuous
100
AcDbLine
 10
140.9544139999999
 20
222.705902
 30
0.0
 11
143.827255
 21
215.9368289999999
 31
0.0
  0
LINE
  5
92C
330
828
100
AcDbEntity
  8
1
  6
Continuous
100
AcDbLine
 10
142.427254
 20
223.005508
 30
0.0
 11
145.300102
 21
216.2364499999999
 31
0.0
  0
LINE
  5
92D
330
828
100
AcDbEntity
  8
1
  6
Continuous
100
AcDbLine
 10
143.827255
 20
17.425766
 30
0.0
 11
146.7369379999998
 21
17.425766
 31
0.0
  0
LINE
  5
92E
330
828
100
AcDbEntity
  8
1
  6
Continuous
100
AcDbLine
 10
143.827255
 20
17.425766
 30
0.0
 11
143.827255
 21
17.20577099999999
 31
0.0
  0
LINE
  5
92F
330
828
100
AcDbEntity
  8
1
  6
Continuous
100
AcDbLine
 10
143.827255
 20
328.103647
 30
0.0
 11
146.7369379999998
 21
328.103647
 31
0.0
  0
LINE
  5
930
330
828
100
AcDbEntity
  8
1
  6
Continuous
100
AcDbLine
 10
143.827255
 20
328.103647
 30
0.0
 11
143.827255
 21
328.3236479999998
 31
0.0
  0
LINE
  5
931
330
828
100
AcDbEntity
  8
1
  6
Continuous
100
AcDbLine
 10
274.060294
 20
106.264709
 30
0.0
 11
265.060294
 21
106.264709
 31
0.0
  0
LINE
  5
932
330
828
100
AcDbEntity
  8
1
  6
Continuous
100
AcDbLine
 10
143.827255
 20
19.00113
 30
0.0
 11
145.927254
 21
19.00113
 31
0.0
  0
CIRCLE
  5
933
330
828
100
AcDbEntity
  8
1
  6
Continuous
100
AcDbCircle
 10
148.327257
 20
31.0
 30
0.0
 40
1.649999999999999
  0
CIRCLE
  5
934
330
828
100
AcDbEntity
  8
1
  6
Continuous
100
AcDbCircle
 10
148.327257
 20
51.0
 30
0.0
 40
1.649999999999999
  0
ARC
  5
935
330
828
100
AcDbEntity
  8
1
  6
Continuous
100
AcDbCircle
 10
152.62726
 20
106.264709
 30
0.0
 40
1.6
100
AcDbArc
 50
269.9999969999999
 51
359.9999819999999
  0
ARC
  5
936
330
828
100
AcDbEntity
  8
1
  6
Continuous
100
AcDbCircle
 10
25.0
 20
172.764709
 30
0.0
 40
16.0
100
AcDbArc
 50
189.32084
 51
197.9168789999999
  0
ARC
  5
937
330
828
100
AcDbEntity
  8
1
  6
Continuous
100
AcDbCircle
 10
32.794229
 20
112.264709
 30
0.0
 40
5.0
100
AcDbArc
 50
197.729851
 51
6.815289999999999
  0
ARC
  5
938
330
828
100
AcDbEntity
  8
1
  6
Continuous
100
AcDbCircle
 10
25.0
 20
172.764709
 30
0.0
 40
14.0
100
AcDbArc
 50
180.000005
 51
48.72120500000001
  0
CIRCLE
  5
939
330
828
100
AcDbEntity
  8
1
  6
Continuous
100
AcDbCircle
 10
25.0
 20
172.764709
 30
0.0
 40
12.0
  0
CIRCLE
  5
93A
330
828
100
AcDbEntity
  8
1
  6
Continuous
100
AcDbCircle
 10
25.0
 20
172.764709
 30
0.0
 40
2.0
  0
CIRCLE
  5
93B
330
828
100
AcDbEntity
  8
1
  6
Continuous
100
AcDbCircle
 10
25.0
 20
172.764709
 30
0.0
 40
2.5
  0
CIRCLE
  5
93C
330
828
100
AcDbEntity
  8
1
  6
Continuous
100
AcDbCircle
 10
15.5
 20
172.764709
 30
0.0
 40
1.0
  0
CIRCLE
  5
93D
330
828
100
AcDbEntity
  8
1
  6
Continuous
100
AcDbCircle
 10
34.5
 20
172.764709
 30
0.0
 40
1.0
  0
CIRCLE
  5
93E
330
828
100
AcDbEntity
  8
1
  6
Continuous
100
AcDbCircle
 10
32.794229
 20
112.264709
 30
0.0
 40
1.5
  0
CIRCLE
  5
93F
330
828
100
AcDbEntity
  8
1
  6
Continuous
100
AcDbCircle
 10
32.794229
 20
112.264709
 30
0.0
 40
2.0
  0
ARC
  5
940
330
828
100
AcDbEntity
  8
1
  6
Continuous
100
AcDbCircle
 10
148.327257
 20
314.529419
 30
0.0
 40
1.649999999999999
100
AcDbArc
 50
329.110946
 51
38.012192
  0
CIRCLE
  5
941
330
828
100
AcDbEntity
  8
1
  6
Continuous
100
AcDbCircle
 10
148.327257
 20
294.529419
 30
0.0
 40
1.649999999999999
  0
ARC
  5
942
330
828
100
AcDbEntity
  8
1
  6
Continuous
100
AcDbCircle
 10
286.8545229999999
 20
172.764709
 30
0.0
 40
16.0
100
AcDbArc
 50
342.270149
 51
350.6791609999999
  0
ARC
  5
943
330
828
100
AcDbEntity
  8
1
  6
Continuous
100
AcDbCircle
 10
279.0602939999998
 20
112.264709
 30
0.0
 40
5.0
100
AcDbArc
 50
0.0
 51
180.000005
  0
ARC
  5
944
330
828
100
AcDbEntity
  8
1
  6
Continuous
100
AcDbCircle
 10
286.8545229999999
 20
172.764709
 30
0.0
 40
16.0
100
AcDbArc
 50
0.0
 51
232.393113
  0
CIRCLE
  5
945
330
828
100
AcDbEntity
  8
1
  6
Continuous
100
AcDbCircle
 10
279.0602939999998
 20
112.264709
 30
0.0
 40
3.0
  0
ARC
  5
946
330
828
100
AcDbEntity
  8
1
  6
Continuous
100
AcDbCircle
 10
286.8545229999999
 20
172.764709
 30
0.0
 40
13.0
100
AcDbArc
 50
292.619863
 51
67.380137
  0
CIRCLE
  5
947
330
828
100
AcDbEntity
  8
1
  6
Continuous
100
AcDbCircle
 10
286.8545229999999
 20
172.764709
 30
0.0
 40
3.75
  0
ARC
  5
948
330
828
100
AcDbEntity
  8
1
  6
Continuous
100
AcDbCircle
 10
286.8545229999999
 20
172.764709
 30
0.0
 40
13.0
100
AcDbArc
 50
112.6198679999999
 51
247.380135
  0
ARC
  5
949
330
828
100
AcDbEntity
  8
1
  6
Continuous
100
AcDbCircle
 10
148.327257
 20
294.529419
 30
0.0
 40
3.0
100
AcDbArc
 50
143.130198
 51
105.465949
  0
ARC
  5
94A
330
828
100
AcDbEntity
  8
1
  6
Continuous
100
AcDbCircle
 10
148.327257
 20
314.529419
 30
0.0
 40
3.0
100
AcDbArc
 50
330.740141
 51
93.82252499999998
  0
ARC
  5
94B
330
828
100
AcDbEntity
  8
1
  6
Continuous
100
AcDbCircle
 10
371.0817779999999
 20
106.264709
 30
0.0
 40
1.6
100
AcDbArc
 50
180.000022
 51
269.9999969999999
  0
ARC
  5
94C
330
828
100
AcDbEntity
  8
1
  6
Continuous
100
AcDbCircle
 10
25.0
 20
172.764709
 30
0.0
 40
16.0
100
AcDbArc
 50
145.535827
 51
180.000005
  0
ARC
  5
94D
330
828
100
AcDbEntity
  8
1
  6
Continuous
100
AcDbCircle
 10
147.52726
 20
130.101257
 30
0.0
 40
1.6
100
AcDbArc
 50
180.000005
 51
215.273506
  0
ARC
  5
94E
330
828
100
AcDbEntity
  8
1
  6
Continuous
100
AcDbCircle
 10
150.527261
 20
122.0152209999999
 30
0.0
 40
1.6
100
AcDbArc
 50
0.0
 51
35.273522
  0
ARC
  5
94F
330
828
100
AcDbEntity
  8
1
  6
Continuous
100
AcDbCircle
 10
376.1817779999999
 20
127.8041379999999
 30
0.0
 40
1.6
100
AcDbArc
 50
323.776969
 51
0.0
  0
ARC
  5
950
330
828
100
AcDbEntity
  8
1
  6
Continuous
100
AcDbCircle
 10
373.1817689999999
 20
119.931633
 30
0.0
 40
1.6
100
AcDbArc
 50
143.776957
 51
180.000005
  0
ARC
  5
951
330
828
100
AcDbEntity
  8
1
  6
Continuous
100
AcDbCircle
 10
142.427254
 20
223.3309779999999
 30
0.0
 40
1.6
100
AcDbArc
 50
180.000005
 51
202.9967329999998
  0
ARC
  5
952
330
828
100
AcDbEntity
  8
1
  6
Continuous
100
AcDbCircle
 10
143.827255
 20
215.6113589999999
 30
0.0
 40
1.6
100
AcDbArc
 50
0.0
 51
22.99673599999999
  0
ARC
  5
953
330
828
100
AcDbEntity
  8
1
  6
Continuous
100
AcDbCircle
 10
145.927254
 20
18.805771
 30
0.0
 40
1.6
100
AcDbArc
 50
269.9999969999999
 51
0.0
  0
ARC
  5
954
330
828
100
AcDbEntity
  8
1
  6
Continuous
100
AcDbCircle
 10
145.927254
 20
326.7236419999999
 30
0.0
 40
1.6
100
AcDbArc
 50
0.0
 51
90.00000300000001
  0
ARC
  5
955
330
828
100
AcDbEntity
  8
1
  6
Continuous
100
AcDbCircle
 10
381.2817839999998
 20
225.384888
 30
0.0
 40
1.6
100
AcDbArc
 50
336.3282909999999
 51
0.0
  0
ARC
  5
956
330
828
100
AcDbEntity
  8
1
  6
Continuous
100
AcDbCircle
 10
379.8817749999998
 20
217.8709109999998
 30
0.0
 40
1.6
100
AcDbArc
 50
156.3282909999998
 51
180.000005
  0
TEXT
  5
957
330
828
100
AcDbEntity
  8
6
  6
Continuous
100
AcDbText
 10
27.97945
 20
10.0487
 30
0.0
 40
1.399999999999999
  1
6
 41
1.069393
100
AcDbText
  0
TEXT
  5
958
330
828
100
AcDbEntity
  8
1
  6
Continuous
100
AcDbText
 10
17.97945
 20
10.0487
 30
0.0
 40
1.399999999999999
  1
1
 41
1.069393
100
AcDbText
  0
TEXT
  5
959
330
828
100
AcDbEntity
  8
1
  6
Continuous
100
AcDbText
 10
9.99995
 20
10.0
 30
0.0
 40
1.399999999999999
  1
LAYER
 41
1.009912999999997
100
AcDbText
  0
TEXT
  5
95A
330
828
100
AcDbEntity
  8
2
  6
Continuous
100
AcDbText
 10
19.97944999999998
 20
10.0487
 30
0.0
 40
1.399999999999999
  1
2
 41
1.069393
100
AcDbText
  0
TEXT
  5
95B
330
828
100
AcDbEntity
  8
3
  6
DASHED
100
AcDbText
 10
21.97945
 20
10.0487
 30
0.0
 40
1.399999999999999
  1
3
 41
1.069393
100
AcDbText
  0
TEXT
  5
95C
330
828
100
AcDbEntity
  8
4
  6
CENTER
100
AcDbText
 10
23.97944999999999
 20
10.0487
 30
0.0
 40
1.399999999999999
  1
4
 41
1.069393
100
AcDbText
  0
TEXT
  5
95D
330
828
100
AcDbEntity
  8
5
  6
PHANTOM
100
AcDbText
 10
25.97945
 20
10.0487
 30
0.0
 40
1.399999999999999
  1
5
 41
1.069393
100
AcDbText
  0
TEXT
  5
95E
330
828
100
AcDbEntity
  8
7
  6
Continuous
100
AcDbText
 10
10.00005
 20
26.0
 30
0.0
 40
3.0
  1
CODE No.5007
 41
1.003962999999999
100
AcDbText
  0
TEXT
  5
95F
330
828
100
AcDbEntity
  8
7
  6
Continuous
100
AcDbText
 10
10.00005
 20
18.0
 30
0.0
 40
3.0
  1
TYPE No.TM-27-L
 41
1.003152
100
AcDbText
  0
TEXT
  5
960
330
828
100
AcDbEntity
  8
7
  6
Continuous
100
AcDbText
 10
29.97944999999999
 20
10.0487
 30
0.0
 40
1.399999999999999
  1
7
 41
1.069393
100
AcDbText
  0
LINE
  5
961
330
828
100
AcDbEntity
  8
1
  6
Continuous
100
AcDbLine
 10
387.381775
 20
241.2647089999999
 30
0.0
 11
387.381775
 21
225.2647089999999
 31
0.0
  0
LINE
  5
962
330
828
100
AcDbEntity
  8
1
  6
Continuous
100
AcDbLine
 10
388.381775
 20
241.2647089999999
 30
0.0
 11
388.381775
 21
225.2647089999999
 31
0.0
  0
LINE
  5
963
330
828
100
AcDbEntity
  8
1
  6
Continuous
100
AcDbLine
 10
388.381775
 20
241.2647089999999
 30
0.0
 11
387.381775
 21
241.2647089999999
 31
0.0
  0
LINE
  5
964
330
828
100
AcDbEntity
  8
1
  6
Continuous
100
AcDbLine
 10
388.381775
 20
225.2647089999999
 30
0.0
 11
387.381775
 21
225.2647089999999
 31
0.0
  0
ARC
  5
965
330
828
100
AcDbEntity
  8
1
  6
Continuous
100
AcDbCircle
 10
388.7978719999999
 20
232.920841
 30
0.0
 40
6.5
100
AcDbArc
 50
102.5834359999999
 51
143.410503
  0
ARC
  5
966
330
828
100
AcDbEntity
  8
1
  6
Continuous
100
AcDbCircle
 10
388.7978719999999
 20
233.6085779999999
 30
0.0
 40
6.5
100
AcDbArc
 50
216.589497
 51
257.4165639999999
  0
ARC
  5
967
330
828
100
AcDbEntity
  8
1
  6
Continuous
100
AcDbCircle
 10
384.3817749999999
 20
236.1992679999999
 30
0.0
 40
1.0
100
AcDbArc
 50
143.410503
 51
180.0
  0
ARC
  5
968
330
828
100
AcDbEntity
  8
1
  6
Continuous
100
AcDbCircle
 10
384.3817749999999
 20
230.3301509999998
 30
0.0
 40
1.0
100
AcDbArc
 50
180.0
 51
216.589497
  0
LINE
  5
969
330
828
100
AcDbEntity
  8
1
  6
Continuous
100
AcDbLine
 10
140.327255
 20
237.264709
 30
0.0
 11
140.827255
 21
237.264709
 31
0.0
  0
LINE
  5
96A
330
828
100
AcDbEntity
  8
1
  6
Continuous
100
AcDbLine
 10
140.327255
 20
229.2647089999999
 30
0.0
 11
140.827255
 21
229.2647089999999
 31
0.0
  0
LINE
  5
96B
330
828
100
AcDbEntity
  8
4
  6
CENTER
100
AcDbLine
 10
132.727249
 20
233.264709
 30
0.0
 11
146.9272609999999
 21
233.264709
 31
0.0
  0
LINE
  5
96C
330
828
100
AcDbEntity
  8
1
  6
Continuous
100
AcDbLine
 10
140.827255
 20
238.2647089999999
 30
0.0
 11
140.827255
 21
225.384888
 31
0.0
  0
LINE
  5
96D
330
828
100
AcDbEntity
  8
1
  6
Continuous
100
AcDbLine
 10
142.4272609999999
 20
238.2647089999999
 30
0.0
 11
142.4272609999999
 21
225.0495759999998
 31
0.0
  0
LINE
  5
96E
330
828
100
AcDbEntity
  8
1
  6
Continuous
100
AcDbLine
 10
142.4272609999999
 20
238.2647089999999
 30
0.0
 11
140.827255
 21
238.2647089999999
 31
0.0
  0
LINE
  5
96F
330
828
100
AcDbEntity
  8
1
  6
Continuous
100
AcDbLine
 10
143.9272609999999
 20
236.2647089999999
 30
0.0
 11
142.4272609999999
 21
236.2647089999999
 31
0.0
  0
LINE
  5
970
330
828
100
AcDbEntity
  8
1
  6
Continuous
100
AcDbLine
 10
143.9272609999999
 20
236.2647089999999
 30
0.0
 11
143.9272609999999
 21
230.2647089999999
 31
0.0
  0
LINE
  5
971
330
828
100
AcDbEntity
  8
1
  6
Continuous
100
AcDbLine
 10
143.9272609999999
 20
230.2647089999999
 30
0.0
 11
142.4272609999999
 21
230.2647089999999
 31
0.0
  0
LINE
  5
972
330
828
100
AcDbEntity
  8
1
  6
Continuous
100
AcDbLine
 10
135.327255
 20
241.2647089999999
 30
0.0
 11
136.327255
 21
241.2647089999999
 31
0.0
  0
ARC
  5
973
330
828
100
AcDbEntity
  8
1
  6
Continuous
100
AcDbCircle
 10
139.327255
 20
236.1992679999999
 30
0.0
 40
1.0
100
AcDbArc
 50
0.0
 51
36.58949699999999
  0
ARC
  5
974
330
828
100
AcDbEntity
  8
1
  6
Continuous
100
AcDbCircle
 10
134.9111579999998
 20
232.920841
 30
0.0
 40
6.5
100
AcDbArc
 50
36.58949699999999
 51
77.41656399999998
  0
LINE
  5
975
330
828
100
AcDbEntity
  8
1
  6
Continuous
100
AcDbLine
 10
135.327255
 20
225.2647089999999
 30
0.0
 11
136.327255
 21
225.2647089999999
 31
0.0
  0
ARC
  5
976
330
828
100
AcDbEntity
  8
1
  6
Continuous
100
AcDbCircle
 10
134.9111579999998
 20
233.6085779999999
 30
0.0
 40
6.5
100
AcDbArc
 50
282.5834359999999
 51
323.410503
  0
ARC
  5
977
330
828
100
AcDbEntity
  8
1
  6
Continuous
100
AcDbCircle
 10
139.327255
 20
230.3301509999998
 30
0.0
 40
1.0
100
AcDbArc
 50
323.410503
 51
0.0
  0
LINE
  5
978
330
828
100
AcDbEntity
  8
1
  6
Continuous
100
AcDbLine
 10
135.327255
 20
241.2647089999999
 30
0.0
 11
135.327255
 21
225.2647089999999
 31
0.0
  0
LINE
  5
979
330
828
100
AcDbEntity
  8
1
  6
Continuous
100
AcDbLine
 10
136.327255
 20
241.2647089999999
 30
0.0
 11
136.327255
 21
225.2647089999999
 31
0.0
  0
LINE
  5
97A
330
828
100
AcDbEntity
  8
1
  6
Continuous
100
AcDbLine
 10
140.327255
 20
237.264709
 30
0.0
 11
140.327255
 21
229.2647089999999
 31
0.0
  0
ARC
  5
97B
330
828
100
AcDbEntity
  8
1
  6
Continuous
100
AcDbCircle
 10
139.327255
 20
307.463978
 30
0.0
 40
1.0
100
AcDbArc
 50
0.0
 51
36.58949699999999
  0
ARC
  5
97C
330
828
100
AcDbEntity
  8
1
  6
Continuous
100
AcDbCircle
 10
139.327255
 20
301.5948599999999
 30
0.0
 40
1.0
100
AcDbArc
 50
323.410503
 51
0.0
  0
ARC
  5
97D
330
828
100
AcDbEntity
  8
1
  6
Continuous
100
AcDbCircle
 10
134.9111579999998
 20
304.873288
 30
0.0
 40
6.5
100
AcDbArc
 50
282.5834359999999
 51
323.410503
  0
ARC
  5
97E
330
828
100
AcDbEntity
  8
1
  6
Continuous
100
AcDbCircle
 10
134.9111579999998
 20
304.18555
 30
0.0
 40
6.5
100
AcDbArc
 50
36.58949699999999
 51
77.41656399999998
  0
LINE
  5
97F
330
828
100
AcDbEntity
  8
1
  6
Continuous
100
AcDbLine
 10
135.327257
 20
27.0
 30
0.0
 11
135.327257
 21
55.0
 31
0.0
  0
LINE
  5
980
330
828
100
AcDbEntity
  8
1
  6
Continuous
100
AcDbLine
 10
136.327257
 20
27.0
 30
0.0
 11
136.327257
 21
55.0
 31
0.0
  0
ARC
  5
981
330
828
100
AcDbEntity
  8
1
  6
Continuous
100
AcDbCircle
 10
139.327255
 20
43.934559
 30
0.0
 40
1.0
100
AcDbArc
 50
0.0
 51
36.58949699999999
  0
LINE
  5
982
330
828
100
AcDbEntity
  8
1
  6
Continuous
100
AcDbLine
 10
135.327257
 20
27.0
 30
0.0
 11
136.327257
 21
27.0
 31
0.0
  0
LINE
  5
983
330
828
100
AcDbEntity
  8
4
  6
CENTER
100
AcDbLine
 10
132.327257
 20
31.0
 30
0.0
 11
139.327257
 21
31.0
 31
0.0
  0
ARC
  5
984
330
828
100
AcDbEntity
  8
1
  6
Continuous
100
AcDbCircle
 10
134.9111579999998
 20
41.34386899999999
 30
0.0
 40
6.5
100
AcDbArc
 50
282.5834359999999
 51
323.410503
  0
ARC
  5
985
330
828
100
AcDbEntity
  8
1
  6
Continuous
100
AcDbCircle
 10
139.327255
 20
38.06544099999999
 30
0.0
 40
1.0
100
AcDbArc
 50
323.410503
 51
0.0
  0
LINE
  5
986
330
828
100
AcDbEntity
  8
1
  6
Continuous
100
AcDbLine
 10
135.327257
 20
55.0
 30
0.0
 11
136.327257
 21
55.0
 31
0.0
  0
LINE
  5
987
330
828
100
AcDbEntity
  8
4
  6
CENTER
100
AcDbLine
 10
132.327257
 20
51.0
 30
0.0
 11
139.327257
 21
51.0
 31
0.0
  0
ARC
  5
988
330
828
100
AcDbEntity
  8
1
  6
Continuous
100
AcDbCircle
 10
134.9111579999998
 20
40.656131
 30
0.0
 40
6.5
100
AcDbArc
 50
36.58949699999999
 51
77.41656399999998
  0
ARC
  5
989
330
828
100
AcDbEntity
  8
1
  6
Continuous
100
AcDbCircle
 10
148.327257
 20
295.5294079999998
 30
0.0
 40
5.0
100
AcDbArc
 50
210.683691
 51
329.3166509999999
  0
ARC
  5
98A
330
828
100
AcDbEntity
  8
1
  6
Continuous
100
AcDbCircle
 10
148.327257
 20
313.5294299999998
 30
0.0
 40
5.0
100
AcDbArc
 50
30.68334899999999
 51
92.29242500000003
  0
ARC
  5
98B
330
828
100
AcDbEntity
  8
1
  6
Continuous
100
AcDbCircle
 10
148.327257
 20
50.000004
 30
0.0
 40
5.0
100
AcDbArc
 50
30.68334899999999
 51
149.3163089999999
  0
ARC
  5
98C
330
828
100
AcDbEntity
  8
1
  6
Continuous
100
AcDbCircle
 10
148.327257
 20
31.99999599999999
 30
0.0
 40
5.0
100
AcDbArc
 50
210.683691
 51
329.3166509999999
  0
LINE
  5
98D
330
828
100
AcDbEntity
  8
5
  6
PHANTOM
100
AcDbLine
 10
250.7080719999999
 20
145.108685
 30
0.0
 11
260.7286419999999
 21
136.7004279999999
 31
0.0
  0
LINE
  5
98E
330
828
100
AcDbEntity
  8
4
  6
CENTER
100
AcDbLine
 10
245.518868
 20
143.905333
 30
0.0
 11
245.518868
 21
111.905333
 31
0.0
  0
LINE
  5
98F
330
828
100
AcDbEntity
  8
4
  6
CENTER
100
AcDbLine
 10
234.518868
 20
127.905333
 30
0.0
 11
256.5188679999998
 21
127.905333
 31
0.0
  0
CIRCLE
  5
990
330
828
100
AcDbEntity
  8
5
  6
PHANTOM
100
AcDbCircle
 10
245.518868
 20
127.905333
 30
0.0
 40
3.0
  0
ARC
  5
991
330
828
100
AcDbEntity
  8
5
  6
PHANTOM
100
AcDbCircle
 10
256.0188679999999
 20
127.905333
 30
0.0
 40
18.5
100
AcDbArc
 50
136.397198
 51
223.6027899999999
  0
ARC
  5
992
330
828
100
AcDbEntity
  8
5
  6
PHANTOM
100
AcDbCircle
 10
245.518868
 20
127.905333
 30
0.0
 40
5.0
100
AcDbArc
 50
147.0583829999999
 51
316.5726579999998
  0
ARC
  5
993
330
828
100
AcDbEntity
  8
5
  6
PHANTOM
100
AcDbCircle
 10
245.518868
 20
127.905333
 30
0.0
 40
6.0
100
AcDbArc
 50
113.501073
 51
350.129968
  0
LINE
  5
994
330
828
100
AcDbEntity
  8
5
  6
PHANTOM
100
AcDbLine
 10
255.8336129999999
 20
131.5290249999998
 30
0.0
 11
246.813347
 21
139.097934
 31
0.0
  0
LINE
  5
995
330
828
100
AcDbEntity
  8
4
  6
CENTER
100
AcDbLine
 10
239.518868
 20
117.905333
 30
0.0
 11
251.518868
 21
117.905333
 31
0.0
  0
ARC
  5
996
330
828
100
AcDbEntity
  8
5
  6
PHANTOM
100
AcDbCircle
 10
245.518868
 20
117.905333
 30
0.0
 40
4.0
100
AcDbArc
 50
223.6027899999999
 51
316.397193
  0
CIRCLE
  5
997
330
828
100
AcDbEntity
  8
5
  6
PHANTOM
100
AcDbCircle
 10
245.518868
 20
117.905333
 30
0.0
 40
2.799999999999998
  0
ARC
  5
998
330
828
100
AcDbEntity
  8
5
  6
PHANTOM
100
AcDbCircle
 10
235.018868
 20
127.905333
 30
0.0
 40
18.5
100
AcDbArc
 50
316.3971829999999
 51
3.536141
  0
CIRCLE
  5
999
330
828
100
AcDbEntity
  8
5
  6
PHANTOM
100
AcDbCircle
 10
245.518868
 20
117.905333
 30
0.0
 40
1.8
  0
ARC
  5
99A
330
828
100
AcDbEntity
  8
5
  6
PHANTOM
100
AcDbCircle
 10
245.518868
 20
137.905333
 30
0.0
 40
1.8
100
AcDbArc
 50
42.980219
 51
251.136547
  0
ARC
  5
99B
330
828
100
AcDbEntity
  8
5
  6
PHANTOM
100
AcDbCircle
 10
245.518868
 20
137.905333
 30
0.0
 40
2.799999999999998
100
AcDbArc
 50
48.062006
 51
246.0547609999999
  0
ARC
  5
99C
330
828
100
AcDbEntity
  8
5
  6
PHANTOM
100
AcDbCircle
 10
245.5188649999998
 20
137.9053309999999
 30
0.0
 40
4.0
100
AcDbArc
 50
50.774163
 51
136.397212
  0
LINE
  5
99D
330
828
100
AcDbEntity
  8
4
  6
CENTER
100
AcDbLine
 10
239.518868
 20
137.905333
 30
0.0
 11
251.518868
 21
137.905333
 31
0.0
  0
LINE
  5
99E
330
828
100
AcDbEntity
  8
5
  6
PHANTOM
100
AcDbLine
 10
61.146451
 20
145.108686
 30
0.0
 11
51.12588
 21
136.7004279999999
 31
0.0
  0
CIRCLE
  5
99F
330
828
100
AcDbEntity
  8
5
  6
PHANTOM
100
AcDbCircle
 10
66.335655
 20
127.905333
 30
0.0
 40
3.0
  0
CIRCLE
  5
9A0
330
828
100
AcDbEntity
  8
5
  6
PHANTOM
100
AcDbCircle
 10
66.335655
 20
127.905333
 30
0.0
 40
2.0
  0
CIRCLE
  5
9A1
330
828
100
AcDbEntity
  8
5
  6
PHANTOM
100
AcDbCircle
 10
66.335655
 20
127.905333
 30
0.0
 40
1.5
  0
ARC
  5
9A2
330
828
100
AcDbEntity
  8
5
  6
PHANTOM
100
AcDbCircle
 10
66.335655
 20
127.905333
 30
0.0
 40
6.0
100
AcDbArc
 50
229.6274379999999
 51
227.926017
  0
LINE
  5
9A3
330
828
100
AcDbEntity
  8
5
  6
PHANTOM
100
AcDbLine
 10
56.020909
 20
131.5290259999999
 30
0.0
 11
59.54598299999999
 21
134.486917
 31
0.0
  0
LINE
  5
9A4
330
828
100
AcDbEntity
  8
1
  6
Continuous
100
AcDbLine
 10
290.6117699999999
 20
104.6647109999999
 30
0.0
 11
290.6117699999999
 21
106.264709
 31
0.0
  0
LINE
  5
9A5
330
828
100
AcDbEntity
  8
1
  6
Continuous
100
AcDbLine
 10
267.5088169999999
 20
104.6647109999999
 30
0.0
 11
267.5088169999999
 21
106.264709
 31
0.0
  0
LINE
  5
9A6
330
828
100
AcDbEntity
  8
1
  6
Continuous
100
AcDbLine
 10
302.0945699999999
 20
167.8922389999998
 30
0.0
 11
284.060294
 21
111.4848649999998
 31
0.0
  0
LINE
  5
9A7
330
828
100
AcDbEntity
  8
1
  6
Continuous
100
AcDbLine
 10
279.0067259999998
 20
155.556841
 30
0.0
 11
274.093043
 21
112.836035
 31
0.0
  0
ARC
  5
9A8
330
828
100
AcDbEntity
  8
1
  6
Continuous
100
AcDbCircle
 10
274.0394749999999
 20
156.1281669999999
 30
0.0
 40
5.0
100
AcDbArc
 50
353.438757
 51
52.393113
  0
LINE
  5
9A9
330
828
100
AcDbEntity
  8
5
  6
PHANTOM
100
AcDbLine
 10
280.3423829999999
 20
157.4215609999999
 30
0.0
 11
249.1501009999999
 21
124.468162
 31
0.0
  0
LINE
  5
9AA
330
828
100
AcDbEntity
  8
5
  6
PHANTOM
100
AcDbLine
 10
271.4653799999999
 20
177.1435529999999
 30
0.0
 11
241.322742
 21
130.624254
 31
0.0
  0
ARC
  5
9AB
330
828
100
AcDbEntity
  8
1
  6
Continuous
100
AcDbCircle
 10
25.0
 20
172.764709
 30
0.0
 40
16.0
100
AcDbArc
 50
307.6068869999998
 51
61.89475600000001
  0
LINE
  5
9AC
330
828
100
AcDbEntity
  8
1
  6
Continuous
100
AcDbLine
 10
9.759952999999999
 20
167.8922389999998
 30
0.0
 11
28.031714
 21
110.742062
 31
0.0
  0
LINE
  5
9AD
330
828
100
AcDbEntity
  8
1
  6
Continuous
100
AcDbLine
 10
32.847797
 20
155.556841
 30
0.0
 11
37.76148
 21
112.836035
 31
0.0
  0
LINE
  5
9AE
330
828
100
AcDbEntity
  8
4
  6
CENTER
100
AcDbLine
 10
32.794229
 20
120.264709
 30
0.0
 11
32.794229
 21
101.664711
 31
0.0
  0
LINE
  5
9AF
330
828
100
AcDbEntity
  8
1
  6
Continuous
100
AcDbLine
 10
18.794229
 20
106.264709
 30
0.0
 11
27.794229
 21
106.264709
 31
0.0
  0
LINE
  5
9B0
330
828
100
AcDbEntity
  8
1
  6
Continuous
100
AcDbLine
 10
18.794229
 20
104.6647109999999
 30
0.0
 11
46.794229
 21
104.6647109999999
 31
0.0
  0
LINE
  5
9B1
330
828
100
AcDbEntity
  8
4
  6
CENTER
100
AcDbLine
 10
24.794229
 20
112.264709
 30
0.0
 11
40.79422899999999
 21
112.264709
 31
0.0
  0
LINE
  5
9B2
330
828
100
AcDbEntity
  8
1
  6
Continuous
100
AcDbLine
 10
37.794229
 20
106.264709
 30
0.0
 11
46.794229
 21
106.264709
 31
0.0
  0
LINE
  5
9B3
330
828
100
AcDbEntity
  8
1
  6
Continuous
100
AcDbLine
 10
46.794229
 20
106.264709
 30
0.0
 11
46.794229
 21
104.6647109999999
 31
0.0
  0
LINE
  5
9B4
330
828
100
AcDbEntity
  8
4
  6
CENTER
100
AcDbLine
 10
42.794229
 20
109.264709
 30
0.0
 11
42.794229
 21
101.664711
 31
0.0
  0
LINE
  5
9B5
330
828
100
AcDbEntity
  8
1
  6
Continuous
100
AcDbLine
 10
37.794229
 20
112.264709
 30
0.0
 11
37.794229
 21
104.6647109999999
 31
0.0
  0
LINE
  5
9B6
330
828
100
AcDbEntity
  8
1
  6
Continuous
100
AcDbLine
 10
44.34570599999999
 20
104.6647109999999
 30
0.0
 11
44.34570599999999
 21
106.264709
 31
0.0
  0
LINE
  5
9B7
330
828
100
AcDbEntity
  8
1
  6
Continuous
100
AcDbLine
 10
27.794229
 20
111.4848649999998
 30
0.0
 11
27.794229
 21
104.6647109999999
 31
0.0
  0
LINE
  5
9B8
330
828
100
AcDbEntity
  8
4
  6
CENTER
100
AcDbLine
 10
22.794229
 20
109.264709
 30
0.0
 11
22.794229
 21
101.664711
 31
0.0
  0
LINE
  5
9B9
330
828
100
AcDbEntity
  8
1
  6
Continuous
100
AcDbLine
 10
21.242753
 20
104.6647109999999
 30
0.0
 11
21.242753
 21
106.264709
 31
0.0
  0
LINE
  5
9BA
330
828
100
AcDbEntity
  8
1
  6
Continuous
100
AcDbLine
 10
18.794229
 20
106.264709
 30
0.0
 11
18.794229
 21
104.6647109999999
 31
0.0
  0
ARC
  5
9BB
330
828
100
AcDbEntity
  8
1
  6
Continuous
100
AcDbCircle
 10
37.81504799999999
 20
156.1281669999999
 30
0.0
 40
5.0
100
AcDbArc
 50
127.606887
 51
186.561243
  0
LINE
  5
9BC
330
828
100
AcDbEntity
  8
5
  6
PHANTOM
100
AcDbLine
 10
31.51213999999999
 20
157.4215609999999
 30
0.0
 11
58.37087799999999
 21
129.046378
 31
0.0
  0
LINE
  5
9BD
330
828
100
AcDbEntity
  8
5
  6
PHANTOM
100
AcDbLine
 10
35.284602
 20
185.02142
 30
0.0
 11
63.80614300000001
 21
141.0039679999998
 31
0.0
  0
LINE
  5
9BE
330
828
100
AcDbEntity
  8
4
  6
CENTER
100
AcDbLine
 10
77.335655
 20
127.905333
 30
0.0
 11
55.335655
 21
127.905333
 31
0.0
  0
LINE
  5
9BF
330
828
100
AcDbEntity
  8
4
  6
CENTER
100
AcDbLine
 10
66.335655
 20
143.905333
 30
0.0
 11
66.335655
 21
111.905333
 31
0.0
  0
ARC
  5
9C0
330
828
100
AcDbEntity
  8
5
  6
PHANTOM
100
AcDbCircle
 10
55.835655
 20
127.905333
 30
0.0
 40
18.5
100
AcDbArc
 50
316.3972099999999
 51
43.602802
  0
ARC
  5
9C1
330
828
100
AcDbEntity
  8
5
  6
PHANTOM
100
AcDbCircle
 10
66.335655
 20
117.905333
 30
0.0
 40
4.0
100
AcDbArc
 50
223.6028069999999
 51
316.3972099999999
  0
LINE
  5
9C2
330
828
100
AcDbEntity
  8
4
  6
CENTER
100
AcDbLine
 10
72.335655
 20
117.905333
 30
0.0
 11
60.335655
 21
117.905333
 31
0.0
  0
CIRCLE
  5
9C3
330
828
100
AcDbEntity
  8
5
  6
PHANTOM
100
AcDbCircle
 10
66.335655
 20
117.905333
 30
0.0
 40
1.8
  0
LINE
  5
9C4
330
828
100
AcDbEntity
  8
4
  6
CENTER
100
AcDbLine
 10
72.335655
 20
137.905333
 30
0.0
 11
60.335655
 21
137.905333
 31
0.0
  0
ARC
  5
9C5
330
828
100
AcDbEntity
  8
5
  6
PHANTOM
100
AcDbCircle
 10
66.33565799999999
 20
137.9053309999999
 30
0.0
 40
4.0
100
AcDbArc
 50
43.60278799999998
 51
136.397188
  0
ARC
  5
9C6
330
828
100
AcDbEntity
  8
5
  6
PHANTOM
100
AcDbCircle
 10
76.835655
 20
127.905333
 30
0.0
 40
18.5
100
AcDbArc
 50
136.252812
 51
223.6028189999999
  0
CIRCLE
  5
9C7
330
828
100
AcDbEntity
  8
5
  6
PHANTOM
100
AcDbCircle
 10
66.335655
 20
137.905333
 30
0.0
 40
1.8
  0
ARC
  5
9C8
330
828
100
AcDbEntity
  8
1
  6
Continuous
100
AcDbCircle
 10
37.534748
 20
187.0433679999999
 30
0.0
 40
5.0
100
AcDbArc
 50
173.4273419999999
 51
228.7212049999999
  0
LINE
  5
9C9
330
828
100
AcDbEntity
  8
4
  6
CENTER
100
AcDbLine
 10
279.0602939999998
 20
244.2647089999999
 30
0.0
 11
279.0602939999998
 21
222.2647089999999
 31
0.0
  0
LINE
  5
9CA
330
828
100
AcDbEntity
  8
1
  6
Continuous
100
AcDbLine
 10
300.100863
 20
181.73881
 30
0.0
 11
283.840326
 21
234.731439
 31
0.0
  0
LINE
  5
9CB
330
828
100
AcDbEntity
  8
1
  6
Continuous
100
AcDbLine
 10
279.2869129999999
 20
187.615683
 30
0.0
 11
274.0931569999998
 21
232.6923939999999
 31
0.0
  0
LINE
  5
9CC
330
828
100
AcDbEntity
  8
1
  6
Continuous
100
AcDbLine
 10
275.2060129999999
 20
223.0338909999999
 30
0.0
 11
286.802249
 21
225.0786149999999
 31
0.0
  0
LINE
  5
9CD
330
828
100
AcDbEntity
  8
1
  6
Continuous
100
AcDbLine
 10
288.903271
 20
218.231446
 30
0.0
 11
276.021073
 21
215.9599679999999
 31
0.0
  0
LINE
  5
9CE
330
828
100
AcDbEntity
  8
4
  6
CENTER
100
AcDbLine
 10
295.0602939999999
 20
233.264709
 30
0.0
 11
263.060294
 21
233.264709
 31
0.0
  0
ARC
  5
9CF
330
828
100
AcDbEntity
  8
1
  6
Continuous
100
AcDbCircle
 10
279.0602939999998
 20
222.764709
 30
0.0
 40
18.5
100
AcDbArc
 50
46.39719799999999
 51
133.6027899999999
  0
ARC
  5
9D0
330
828
100
AcDbEntity
  8
1
  6
Continuous
100
AcDbCircle
 10
279.0602939999998
 20
243.764709
 30
0.0
 40
18.5
100
AcDbArc
 50
226.397183
 51
256.9857799999999
  0
CIRCLE
  5
9D1
330
828
100
AcDbEntity
  8
1
  6
Continuous
100
AcDbCircle
 10
269.060294
 20
233.264709
 30
0.0
 40
2.799999999999998
  0
ARC
  5
9D2
330
828
100
AcDbEntity
  8
1
  6
Continuous
100
AcDbCircle
 10
269.060294
 20
233.264709
 30
0.0
 40
4.0
100
AcDbArc
 50
133.6027899999999
 51
226.3971929999999
  0
LINE
  5
9D3
330
828
100
AcDbEntity
  8
4
  6
CENTER
100
AcDbLine
 10
269.060294
 20
239.264709
 30
0.0
 11
269.060294
 21
227.2647089999999
 31
0.0
  0
ARC
  5
9D4
330
828
100
AcDbEntity
  8
1
  6
Continuous
100
AcDbCircle
 10
279.0602939999998
 20
233.264709
 30
0.0
 40
5.0
100
AcDbArc
 50
17.05838299999999
 51
186.572658
  0
ARC
  5
9D5
330
828
100
AcDbEntity
  8
1
  6
Continuous
100
AcDbCircle
 10
279.0602939999998
 20
233.264709
 30
0.0
 40
6.0
100
AcDbArc
 50
343.6748099999999
 51
220.372557
  0
CIRCLE
  5
9D6
330
828
100
AcDbEntity
  8
1
  6
Continuous
100
AcDbCircle
 10
279.0602939999998
 20
233.264709
 30
0.0
 40
3.0
  0
CIRCLE
  5
9D7
330
828
100
AcDbEntity
  8
1
  6
Continuous
100
AcDbCircle
 10
269.060294
 20
233.264709
 30
0.0
 40
1.8
  0
LINE
  5
9D8
330
828
100
AcDbEntity
  8
4
  6
CENTER
100
AcDbLine
 10
289.0602939999999
 20
239.264709
 30
0.0
 11
289.0602939999999
 21
227.2647089999999
 31
0.0
  0
ARC
  5
9D9
330
828
100
AcDbEntity
  8
1
  6
Continuous
100
AcDbCircle
 10
289.060292
 20
233.2647109999999
 30
0.0
 40
4.0
100
AcDbArc
 50
313.6028119999999
 51
46.39721199999998
  0
CIRCLE
  5
9DA
330
828
100
AcDbEntity
  8
1
  6
Continuous
100
AcDbCircle
 10
289.0602939999999
 20
233.264709
 30
0.0
 40
2.799999999999998
  0
ARC
  5
9DB
330
828
100
AcDbEntity
  8
1
  6
Continuous
100
AcDbCircle
 10
279.0602939999998
 20
243.764709
 30
0.0
 40
18.5
100
AcDbArc
 50
293.015068
 51
313.747188
  0
CIRCLE
  5
9DC
330
828
100
AcDbEntity
  8
1
  6
Continuous
100
AcDbCircle
 10
289.0602939999999
 20
233.264709
 30
0.0
 40
1.8
  0
ARC
  5
9DD
330
828
100
AcDbEntity
  8
1
  6
Continuous
100
AcDbCircle
 10
274.3197749999998
 20
187.0433679999999
 30
0.0
 40
5.0
100
AcDbArc
 50
358.1052439999999
 51
6.572657999999998
  0
LINE
  5
9DE
330
828
100
AcDbEntity
  8
1
  6
Continuous
100
AcDbLine
 10
9.0
 20
172.764709
 30
0.0
 11
25.561224
 21
226.737271
 31
0.0
  0
LINE
  5
9DF
330
828
100
AcDbEntity
  8
4
  6
CENTER
100
AcDbLine
 10
32.794229
 20
244.2647089999999
 30
0.0
 11
32.794229
 21
222.2647089999999
 31
0.0
  0
LINE
  5
9E0
330
828
100
AcDbEntity
  8
1
  6
Continuous
100
AcDbLine
 10
32.56760999999999
 20
187.615683
 30
0.0
 11
36.96029699999999
 21
225.7398959999999
 31
0.0
  0
LINE
  5
9E1
330
828
100
AcDbEntity
  8
1
  6
Continuous
100
AcDbLine
 10
36.64850999999997
 20
223.03389
 30
0.0
 11
25.052274
 21
225.0786149999999
 31
0.0
  0
LINE
  5
9E2
330
828
100
AcDbEntity
  8
1
  6
Continuous
100
AcDbLine
 10
22.951252
 20
218.231446
 30
0.0
 11
35.83345
 21
215.9599669999999
 31
0.0
  0
LINE
  5
9E3
330
828
100
AcDbEntity
  8
4
  6
CENTER
100
AcDbLine
 10
16.794229
 20
233.264709
 30
0.0
 11
48.794229
 21
233.264709
 31
0.0
  0
CIRCLE
  5
9E4
330
828
100
AcDbEntity
  8
1
  6
Continuous
100
AcDbCircle
 10
32.794229
 20
233.264709
 30
0.0
 40
3.0
  0
ARC
  5
9E5
330
828
100
AcDbEntity
  8
1
  6
Continuous
100
AcDbCircle
 10
32.794229
 20
233.264709
 30
0.0
 40
6.0
100
AcDbArc
 50
319.627438
 51
317.926017
  0
ARC
  5
9E6
330
828
100
AcDbEntity
  8
1
  6
Continuous
100
AcDbCircle
 10
32.794229
 20
243.764709
 30
0.0
 40
18.5
100
AcDbArc
 50
226.252812
 51
313.602819
  0
ARC
  5
9E7
330
828
100
AcDbEntity
  8
1
  6
Continuous
100
AcDbCircle
 10
32.794229
 20
222.764709
 30
0.0
 40
18.5
100
AcDbArc
 50
46.39721
 51
133.602802
  0
LINE
  5
9E8
330
828
100
AcDbEntity
  8
4
  6
CENTER
100
AcDbLine
 10
22.794229
 20
239.264709
 30
0.0
 11
22.794229
 21
227.2647089999999
 31
0.0
  0
ARC
  5
9E9
330
828
100
AcDbEntity
  8
1
  6
Continuous
100
AcDbCircle
 10
22.794231
 20
233.2647109999999
 30
0.0
 40
4.0
100
AcDbArc
 50
133.6027879999998
 51
226.397188
  0
CIRCLE
  5
9EA
330
828
100
AcDbEntity
  8
1
  6
Continuous
100
AcDbCircle
 10
22.794229
 20
233.264709
 30
0.0
 40
1.8
  0
CIRCLE
  5
9EB
330
828
100
AcDbEntity
  8
1
  6
Continuous
100
AcDbCircle
 10
32.794229
 20
233.264709
 30
0.0
 40
2.0
  0
CIRCLE
  5
9EC
330
828
100
AcDbEntity
  8
1
  6
Continuous
100
AcDbCircle
 10
32.794229
 20
233.264709
 30
0.0
 40
1.5
  0
LINE
  5
9ED
330
828
100
AcDbEntity
  8
4
  6
CENTER
100
AcDbLine
 10
42.794229
 20
239.264709
 30
0.0
 11
42.794229
 21
227.2647089999999
 31
0.0
  0
CIRCLE
  5
9EE
330
828
100
AcDbEntity
  8
1
  6
Continuous
100
AcDbCircle
 10
42.794229
 20
233.264709
 30
0.0
 40
1.8
  0
ARC
  5
9EF
330
828
100
AcDbEntity
  8
1
  6
Continuous
100
AcDbCircle
 10
42.794229
 20
233.264709
 30
0.0
 40
4.0
100
AcDbArc
 50
313.602807
 51
46.39721
  0
ENDSEC
  0
SECTION
  2
OBJECTS
  0
DICTIONARY
  5
816
330
0
100
AcDbDictionary
281
     1
  3
ACAD_CIP_PREVIOUS_PRODUCT_INFO
350
A55
  3
ACAD_COLOR
350
A37
  3
ACAD_DETAILVIEWSTYLE
350
A50
  3
ACAD_GROUP
350
817
  3
ACAD_LAYOUT
350
823
  3
ACAD_MATERIAL
350
A05
  3
ACAD_MLEADERSTYLE
350
A4C
  3
ACAD_MLINESTYLE
350
820
  3
ACAD_PLOTSETTINGS
350
822
  3
ACAD_PLOTSTYLENAME
350
A03
  3
ACAD_SCALELIST
350
A3A
  3
ACAD_SECTIONVIEWSTYLE
350
A4E
  3
ACAD_TABLESTYLE
350
A38
  3
ACAD_VISUALSTYLE
350
A1E
  3
ACDB_RECOMPOSE_DATA
350
A73
  3
AcDbVariableDictionary
350
A66
  3
DWGPROPS
350
A74
  0
DICTIONARY
  5
A56
330
81A
100
AcDbDictionary
280
     1
281
     1
  3
ADSK_XREC_LAYER_RECONCILED
360
A57
  0
DICTIONARY
  5
A58
330
830
100
AcDbDictionary
280
     1
281
     1
  3
ADSK_XREC_LAYER_RECONCILED
360
A59
  0
DICTIONARY
  5
A5A
330
831
100
AcDbDictionary
280
     1
281
     1
  3
ADSK_XREC_LAYER_RECONCILED
360
A5B
  0
DICTIONARY
  5
A5C
330
832
100
AcDbDictionary
280
     1
281
     1
  3
ADSK_XREC_LAYER_RECONCILED
360
A5D
  0
DICTIONARY
  5
A5E
330
833
100
AcDbDictionary
280
     1
281
     1
  3
ADSK_XREC_LAYER_RECONCILED
360
A5F
  0
DICTIONARY
  5
A60
330
834
100
AcDbDictionary
280
     1
281
     1
  3
ADSK_XREC_LAYER_RECONCILED
360
A61
  0
DICTIONARY
  5
A62
330
835
100
AcDbDictionary
280
     1
281
     1
  3
ADSK_XREC_LAYER_RECONCILED
360
A63
  0
DICTIONARY
  5
A64
330
836
100
AcDbDictionary
280
     1
281
     1
  3
ADSK_XREC_LAYER_RECONCILED
360
A65
  0
DICTIONARY
  5
9FE
330
828
100
AcDbDictionary
281
     1
  3
ACAD_LAYOUTSELFREF
350
9FF
  0
DICTIONARY
  5
9FC
330
824
100
AcDbDictionary
281
     1
  3
ACAD_LAYOUTSELFREF
350
9FD
  0
XRECORD
  5
A55
102
{ACAD_REACTORS
330
816
102
}
330
816
100
AcDbXrecord
280
     1
300
ACDLT
300
2014
300
ACDLT_F_S
  0
DICTIONARY
  5
A37
102
{ACAD_REACTORS
330
816
102
}
330
816
100
AcDbDictionary
281
     1
  0
DICTIONARY
  5
A50
102
{ACAD_REACTORS
330
816
102
}
330
816
100
AcDbDictionary
281
     1
  3
Imperial24
350
A51
  0
DICTIONARY
  5
817
102
{ACAD_REACTORS
330
816
102
}
330
816
100
AcDbDictionary
281
     1
  0
DICTIONARY
  5
823
102
{ACAD_REACTORS
330
816
102
}
330
816
100
AcDbDictionary
281
     1
  3
Model
350
A52
  3
レイアウト1
350
A53
  0
DICTIONARY
  5
A05
102
{ACAD_REACTORS
330
816
102
}
330
816
100
AcDbDictionary
281
     1
  3
ByBlock
350
A0E
  3
ByLayer
350
A06
  3
Global
350
A16
  0
DICTIONARY
  5
A4C
102
{ACAD_REACTORS
330
816
102
}
330
816
100
AcDbDictionary
281
     1
  3
Standard
350
A4D
  0
DICTIONARY
  5
820
102
{ACAD_REACTORS
330
816
102
}
330
816
100
AcDbDictionary
281
     1
  3
STANDARD
350
821
  0
DICTIONARY
  5
822
102
{ACAD_REACTORS
330
816
102
}
330
816
100
AcDbDictionary
281
     1
  0
ACDBDICTIONARYWDFLT
  5
A03
102
{ACAD_REACTORS
330
816
102
}
330
816
100
AcDbDictionary
281
     1
  3
Normal
350
A04
100
AcDbDictionaryWithDefault
340
A04
  0
DICTIONARY
  5
A3A
102
{ACAD_REACTORS
330
816
102
}
330
816
100
AcDbDictionary
281
     1
  3
A0
350
A3B
  3
A1
350
A3C
  3
A2
350
A3D
  3
A3
350
A3E
  3
A4
350
A3F
  3
A5
350
A40
  3
A6
350
A41
  3
A7
350
A42
  3
A8
350
A43
  3
A9
350
A44
  3
B0
350
A45
  3
B1
350
A46
  3
B2
350
A47
  3
B3
350
A48
  3
B4
350
A49
  3
B5
350
A4A
  3
B6
350
A4B
  0
DICTIONARY
  5
A4E
102
{ACAD_REACTORS
330
816
102
}
330
816
100
AcDbDictionary
281
     1
  3
Imperial24
350
A4F
  0
DICTIONARY
  5
A38
102
{ACAD_REACTORS
330
816
102
}
330
816
100
AcDbDictionary
281
     1
  3
Standard
350
A39
  0
DICTIONARY
  5
A1E
102
{ACAD_REACTORS
330
816
102
}
330
816
100
AcDbDictionary
281
     1
  3
2dWireframe
350
A24
  3
Basic
350
A23
  3
Brighten
350
A2A
  3
ColorChange
350
A2E
  3
Conceptual
350
A27
  3
Dim
350
A29
  3
EdgeColorOff
350
A36
  3
Facepattern
350
A2D
  3
Flat
350
A1F
  3
FlatWithEdges
350
A20
  3
Gouraud
350
A21
  3
GouraudWithEdges
350
A22
  3
Hidden
350
A26
  3
JitterOff
350
A34
  3
Linepattern
350
A2C
  3
OverhangOff
350
A35
  3
Realistic
350
A28
  3
Shaded
350
A33
  3
Shaded with edges
350
A32
  3
Shades of Gray
350
A2F
  3
Sketchy
350
A30
  3
Thicken
350
A2B
  3
Wireframe
350
A25
  3
X-Ray
350
A31
  0
XRECORD
  5
A73
102
{ACAD_REACTORS
330
816
102
}
330
816
100
AcDbXrecord
280
     1
 90
        1
330
A39
  0
DICTIONARY
  5
A66
102
{ACAD_REACTORS
330
816
102
}
330
816
100
AcDbDictionary
281
     1
  3
CANNOSCALE
350
A6B
  3
CMLEADERSTYLE
350
A68
  3
CTABLESTYLE
350
A67
  3
CVIEWDETAILSTYLE
350
A69
  3
CVIEWSECTIONSTYLE
350
A6A
  3
DIMASSOC
350
A6E
  3
INDEXCTL
350
A6D
  3
SORTENTS
350
A6C
  3
XCLIPFRAME
350
A6F
  0
XRECORD
  5
A74
102
{ACAD_REACTORS
330
816
102
}
330
816
100
AcDbXrecord
280
     1
  1
DWGPROPS COOKIE
  2

  3

  4

  6

  7

  8
Yoshitsune
  9

300
=
301
=
302
=
303
=
304
=
305
=
306
=
307
=
308
=
309
=
 40
0.0008368055555556
 41
2451640.665329005
 42
2457192.622116748
  1

 90
        0
  0
XRECORD
  5
A57
102
{ACAD_REACTORS
330
A56
102
}
330
A56
100
AcDbXrecord
280
     1
290
     1
  0
XRECORD
  5
A59
102
{ACAD_REACTORS
330
A58
102
}
330
A58
100
AcDbXrecord
280
     1
290
     1
  0
XRECORD
  5
A5B
102
{ACAD_REACTORS
330
A5A
102
}
330
A5A
100
AcDbXrecord
280
     1
290
     1
  0
XRECORD
  5
A5D
102
{ACAD_REACTORS
330
A5C
102
}
330
A5C
100
AcDbXrecord
280
     1
290
     1
  0
XRECORD
  5
A5F
102
{ACAD_REACTORS
330
A5E
102
}
330
A5E
100
AcDbXrecord
280
     1
290
     1
  0
XRECORD
  5
A61
102
{ACAD_REACTORS
330
A60
102
}
330
A60
100
AcDbXrecord
280
     1
290
     1
  0
XRECORD
  5
A63
102
{ACAD_REACTORS
330
A62
102
}
330
A62
100
AcDbXrecord
280
     1
290
     1
  0
XRECORD
  5
A65
102
{ACAD_REACTORS
330
A64
102
}
330
A64
100
AcDbXrecord
280
     1
290
     1
  0
XRECORD
  5
9FF
102
{ACAD_REACTORS
330
9FE
102
}
330
9FE
100
AcDbXrecord
280
     1
340
828
  0
XRECORD
  5
9FD
102
{ACAD_REACTORS
330
9FC
102
}
330
9FC
100
AcDbXrecord
280
     1
340
824
  0
ACDBDETAILVIEWSTYLE
  5
A51
102
{ACAD_XDICTIONARY
360
AAC
102
}
102
{ACAD_REACTORS
330
A50
102
}
330
A50
100
AcDbModelDocViewStyle
 70
     0
  3
Imperial24
290
     0
100
AcDbDetailViewStyle
 70
     0
 71
     0
 90
        3
 71
     1
340
81B
 40
0.24
340
0
 40
0.24
300

 40
0.36
280
     3
 71
     2
340
81F
 90
       25
 71
     3
340
81B
 40
0.24
 90
        1
 40
0.75
 90
        1
300
%<\AcVar ViewType \f "%tc1">% %<\AcVar ViewDetailId>%\PSCALE %<\AcVar ViewScale \f "%sn">%
 71
     4
340
81F
 90
       25
340
81F
 90
       25
280
     0
  0
LAYOUT
  5
A52
102
{ACAD_XDICTIONARY
360
AAE
102
}
102
{ACAD_REACTORS
330
823
102
}
330
823
100
AcDbPlotSettings
  1

  2
Canon LBP9100C
  4

  6

 40
0.0
 41
0.0
 42
0.0
 43
0.0
 44
0.0
 45
0.0
 46
0.0
 47
0.0
 48
0.0
 49
0.0
140
0.0
141
0.0
142
1.0
143
1.0
 70
  1712
 72
     0
 73
     0
 74
     0
  7

 75
     0
147
1.0
148
0.0
149
0.0
100
AcDbLayout
  1
Model
 70
     1
 71
     0
 10
0.0
 20
0.0
 11
12.0
 21
9.0
 12
0.0
 22
0.0
 32
0.0
 14
0.0
 24
0.0
 34
0.0
 15
0.0
 25
0.0
 35
0.0
146
0.0
 13
0.0
 23
0.0
 33
0.0
 16
1.0
 26
0.0
 36
0.0
 17
0.0
 27
1.0
 37
0.0
 76
     0
330
828
331
9FB
  0
LAYOUT
  5
A53
102
{ACAD_XDICTIONARY
360
AB0
102
}
102
{ACAD_REACTORS
330
823
102
}
330
823
100
AcDbPlotSettings
  1

  2
Canon LBP9100C
  4

  6

 40
0.0
 41
0.0
 42
0.0
 43
0.0
 44
0.0
 45
0.0
 46
0.0
 47
0.0
 48
0.0
 49
0.0
140
0.0
141
0.0
142
1.0
143
1.0
 70
   688
 72
     0
 73
     0
 74
     5
  7

 75
    16
147
1.0
148
0.0
149
0.0
100
AcDbLayout
  1
レイアウト1
 70
     1
 71
     1
 10
0.0
 20
0.0
 11
420.0
 21
297.0
 12
0.0
 22
0.0
 32
0.0
 14
1.000000000000000E+20
 24
1.000000000000000E+20
 34
1.000000000000000E+20
 15
-1.000000000000000E+20
 25
-1.000000000000000E+20
 35
-1.000000000000000E+20
146
0.0
 13
0.0
 23
0.0
 33
0.0
 16
1.0
 26
0.0
 36
0.0
 17
0.0
 27
1.0
 37
0.0
 76
     0
330
824
  0
MATERIAL
  5
A0E
102
{ACAD_XDICTIONARY
360
A0F
102
}
102
{ACAD_REACTORS
330
A05
102
}
330
A05
100
AcDbMaterial
  1
ByBlock
 72
     0
 43
0.0208333333333333
 43
0.0
 43
0.0
 43
0.0
 43
0.0
 43
0.0208333333333333
 43
0.0
 43
0.0
 43
0.0
 43
0.0
 43
1.0
 43
0.0
 43
0.0
 43
0.0
 43
0.0
 43
1.0
 77
     0
 47
0.0208333333333333
 47
0.0
 47
0.0
 47
0.0
 47
0.0
 47
0.0208333333333333
 47
0.0
 47
0.0
 47
0.0
 47
0.0
 47
1.0
 47
0.0
 47
0.0
 47
0.0
 47
0.0
 47
1.0
171
     0
 49
0.0208333333333333
 49
0.0
 49
0.0
 49
0.0
 49
0.0
 49
0.0208333333333333
 49
0.0
 49
0.0
 49
0.0
 49
0.0
 49
1.0
 49
0.0
 49
0.0
 49
0.0
 49
0.0
 49
1.0
175
     0
142
0.0208333333333333
142
0.0
142
0.0
142
0.0
142
0.0
142
0.0208333333333333
142
0.0
142
0.0
142
0.0
142
0.0
142
1.0
142
0.0
142
0.0
142
0.0
142
0.0
142
1.0
179
     0
144
0.0208333333333333
144
0.0
144
0.0
144
0.0
144
0.0
144
0.0208333333333333
144
0.0
144
0.0
144
0.0
144
0.0
144
1.0
144
0.0
144
0.0
144
0.0
144
0.0
144
1.0
147
0.0208333333333333
147
0.0
147
0.0
147
0.0
147
0.0
147
0.0208333333333333
147
0.0
147
0.0
147
0.0
147
0.0
147
1.0
147
0.0
147
0.0
147
0.0
147
0.0
147
1.0
  0
MATERIAL
  5
A06
102
{ACAD_XDICTIONARY
360
A07
102
}
102
{ACAD_REACTORS
330
A05
102
}
330
A05
100
AcDbMaterial
  1
ByLayer
 72
     0
 43
0.0208333333333333
 43
0.0
 43
0.0
 43
0.0
 43
0.0
 43
0.0208333333333333
 43
0.0
 43
0.0
 43
0.0
 43
0.0
 43
1.0
 43
0.0
 43
0.0
 43
0.0
 43
0.0
 43
1.0
 77
     0
 47
0.0208333333333333
 47
0.0
 47
0.0
 47
0.0
 47
0.0
 47
0.0208333333333333
 47
0.0
 47
0.0
 47
0.0
 47
0.0
 47
1.0
 47
0.0
 47
0.0
 47
0.0
 47
0.0
 47
1.0
171
     0
 49
0.0208333333333333
 49
0.0
 49
0.0
 49
0.0
 49
0.0
 49
0.0208333333333333
 49
0.0
 49
0.0
 49
0.0
 49
0.0
 49
1.0
 49
0.0
 49
0.0
 49
0.0
 49
0.0
 49
1.0
175
     0
142
0.0208333333333333
142
0.0
142
0.0
142
0.0
142
0.0
142
0.0208333333333333
142
0.0
142
0.0
142
0.0
142
0.0
142
1.0
142
0.0
142
0.0
142
0.0
142
0.0
142
1.0
179
     0
144
0.0208333333333333
144
0.0
144
0.0
144
0.0
144
0.0
144
0.0208333333333333
144
0.0
144
0.0
144
0.0
144
0.0
144
1.0
144
0.0
144
0.0
144
0.0
144
0.0
144
1.0
147
0.0208333333333333
147
0.0
147
0.0
147
0.0
147
0.0
147
0.0208333333333333
147
0.0
147
0.0
147
0.0
147
0.0
147
1.0
147
0.0
147
0.0
147
0.0
147
0.0
147
1.0
  0
MATERIAL
  5
A16
102
{ACAD_XDICTIONARY
360
A17
102
}
102
{ACAD_REACTORS
330
A05
102
}
330
A05
100
AcDbMaterial
  1
Global
 72
     0
 43
0.0208333333333333
 43
0.0
 43
0.0
 43
0.0
 43
0.0
 43
0.0208333333333333
 43
0.0
 43
0.0
 43
0.0
 43
0.0
 43
1.0
 43
0.0
 43
0.0
 43
0.0
 43
0.0
 43
1.0
 77
     0
 47
0.0208333333333333
 47
0.0
 47
0.0
 47
0.0
 47
0.0
 47
0.0208333333333333
 47
0.0
 47
0.0
 47
0.0
 47
0.0
 47
1.0
 47
0.0
 47
0.0
 47
0.0
 47
0.0
 47
1.0
171
     0
 49
0.0208333333333333
 49
0.0
 49
0.0
 49
0.0
 49
0.0
 49
0.0208333333333333
 49
0.0
 49
0.0
 49
0.0
 49
0.0
 49
1.0
 49
0.0
 49
0.0
 49
0.0
 49
0.0
 49
1.0
175
     0
142
0.0208333333333333
142
0.0
142
0.0
142
0.0
142
0.0
142
0.0208333333333333
142
0.0
142
0.0
142
0.0
142
0.0
142
1.0
142
0.0
142
0.0
142
0.0
142
0.0
142
1.0
179
     0
144
0.0208333333333333
144
0.0
144
0.0
144
0.0
144
0.0
144
0.0208333333333333
144
0.0
144
0.0
144
0.0
144
0.0
144
1.0
144
0.0
144
0.0
144
0.0
144
0.0
144
1.0
147
0.0208333333333333
147
0.0
147
0.0
147
0.0
147
0.0
147
0.0208333333333333
147
0.0
147
0.0
147
0.0
147
0.0
147
1.0
147
0.0
147
0.0
147
0.0
147
0.0
147
1.0
  0
MLEADERSTYLE
  5
A4D
102
{ACAD_REACTORS
330
A4C
102
}
330
A4C
100
AcDbMLeaderStyle
170
     2
171
     1
172
     0
 90
        2
 40
0.0
 41
0.0
173
     1
 91
-1056964608
340
81D
 92
       -2
290
     1
 42
0.09
291
     1
 43
0.36
  3
Standard
 44
0.18
300

342
81B
174
     1
178
     6
175
     1
176
     0
 93
-1056964608
 45
0.18
292
     0
297
     0
 46
0.18
 94
-1056964608
 47
1.0
 49
1.0
140
1.0
293
     1
141
0.0
294
     1
177
     0
142
1.0
295
     0
296
     0
143
0.125
1001
ACAD_MLEADERVER
1070
     2
  0
MLINESTYLE
  5
821
102
{ACAD_REACTORS
330
820
102
}
330
820
100
AcDbMlineStyle
  2
STANDARD
 70
     0
  3

 62
   256
 51
90.0
 52
90.0
 71
     2
 49
0.5
 62
   256
  6
BYLAYER
 49
-0.5
 62
   256
  6
BYLAYER
  0
ACDBPLACEHOLDER
  5
A04
102
{ACAD_REACTORS
330
A03
102
}
330
A03
  0
SCALE
  5
A3B
102
{ACAD_REACTORS
330
A3A
102
}
330
A3A
100
AcDbScale
 70
     0
300
1:1
140
1.0
141
1.0
290
     1
  0
SCALE
  5
A3C
102
{ACAD_REACTORS
330
A3A
102
}
330
A3A
100
AcDbScale
 70
     0
300
1/128" = 1'-0"
140
0.0078125
141
12.0
290
     0
  0
SCALE
  5
A3D
102
{ACAD_REACTORS
330
A3A
102
}
330
A3A
100
AcDbScale
 70
     0
300
1/64" = 1'-0"
140
0.015625
141
12.0
290
     0
  0
SCALE
  5
A3E
102
{ACAD_REACTORS
330
A3A
102
}
330
A3A
100
AcDbScale
 70
     0
300
1/32" = 1'-0"
140
0.03125
141
12.0
290
     0
  0
SCALE
  5
A3F
102
{ACAD_REACTORS
330
A3A
102
}
330
A3A
100
AcDbScale
 70
     0
300
1/16" = 1'-0"
140
0.0625
141
12.0
290
     0
  0
SCALE
  5
A40
102
{ACAD_REACTORS
330
A3A
102
}
330
A3A
100
AcDbScale
 70
     0
300
3/32" = 1'-0"
140
0.09375
141
12.0
290
     0
  0
SCALE
  5
A41
102
{ACAD_REACTORS
330
A3A
102
}
330
A3A
100
AcDbScale
 70
     0
300
1/8" = 1'-0"
140
0.125
141
12.0
290
     0
  0
SCALE
  5
A42
102
{ACAD_REACTORS
330
A3A
102
}
330
A3A
100
AcDbScale
 70
     0
300
3/16" = 1'-0"
140
0.1875
141
12.0
290
     0
  0
SCALE
  5
A43
102
{ACAD_REACTORS
330
A3A
102
}
330
A3A
100
AcDbScale
 70
     0
300
1/4" = 1'-0"
140
0.25
141
12.0
290
     0
  0
SCALE
  5
A44
102
{ACAD_REACTORS
330
A3A
102
}
330
A3A
100
AcDbScale
 70
     0
300
3/8" = 1'-0"
140
0.375
141
12.0
290
     0
  0
SCALE
  5
A45
102
{ACAD_REACTORS
330
A3A
102
}
330
A3A
100
AcDbScale
 70
     0
300
1/2" = 1'-0"
140
0.5
141
12.0
290
     0
  0
SCALE
  5
A46
102
{ACAD_REACTORS
330
A3A
102
}
330
A3A
100
AcDbScale
 70
     0
300
3/4" = 1'-0"
140
0.75
141
12.0
290
     0
  0
SCALE
  5
A47
102
{ACAD_REACTORS
330
A3A
102
}
330
A3A
100
AcDbScale
 70
     0
300
1" = 1'-0"
140
1.0
141
12.0
290
     0
  0
SCALE
  5
A48
102
{ACAD_REACTORS
330
A3A
102
}
330
A3A
100
AcDbScale
 70
     0
300
1-1/2" = 1'-0"
140
1.5
141
12.0
290
     0
  0
SCALE
  5
A49
102
{ACAD_REACTORS
330
A3A
102
}
330
A3A
100
AcDbScale
 70
     0
300
3" = 1'-0"
140
3.0
141
12.0
290
     0
  0
SCALE
  5
A4A
102
{ACAD_REACTORS
330
A3A
102
}
330
A3A
100
AcDbScale
 70
     0
300
6" = 1'-0"
140
6.0
141
12.0
290
     0
  0
SCALE
  5
A4B
102
{ACAD_REACTORS
330
A3A
102
}
330
A3A
100
AcDbScale
 70
     0
300
1'-0" = 1'-0"
140
12.0
141
12.0
290
     0
  0
ACDBSECTIONVIEWSTYLE
  5
A4F
102
{ACAD_XDICTIONARY
360
AAA
102
}
102
{ACAD_REACTORS
330
A4E
102
}
330
A4E
100
AcDbModelDocViewStyle
 70
     0
  3
Imperial24
290
     0
100
AcDbSectionViewStyle
 70
     0
 71
     0
 90
       78
 71
     1
340
81B
 40
0.24
340
0
340
0
 40
0.24
300
I, O, Q, S, X, Z
 40
0.48
 90
        3
 40
0.18
 90
        1
 71
     2
340
81F
 90
       25
340
81F
 90
       50
 40
0.24
 40
0.0
 40
0.24
 71
     3
340
81B
 40
0.24
 90
        1
 40
0.75
 90
        1
300
%<\AcVar ViewType \f "%tc1">% %<\AcVar ViewSectionStartId>%-%<\AcVar ViewSectionEndId>%\PSCALE %<\AcVar ViewScale \f "%sn">%
 71
     4
300
ANSI31
 40
1.0
 90
        0
290
     0
290
     0
 90
        6
 40
0.0
 40
1.570796326794896
 40
0.2617993877991494
 40
1.308996938995747
 40
-0.2617993877991494
 40
1.832595714594046
  0
TABLESTYLE
  5
A39
102
{ACAD_XDICTIONARY
360
A71
102
}
102
{ACAD_REACTORS
330
A38
102
}
330
A38
100
AcDbTableStyle
  3
Standard
 70
     0
 71
     0
 40
0.06
 41
0.06
280
     0
281
     0
  7
STANDARD
140
0.18
170
     2
 62
     0
 63
     7
283
     0
274
    -2
284
     1
 64
     0
275
    -2
285
     1
 65
     0
276
    -2
286
     1
 66
     0
277
    -2
287
     1
 67
     0
278
    -2
288
     1
 68
     0
279
    -2
289
     1
 69
     0
  7
STANDARD
140
0.25
170
     5
 62
     0
 63
     7
283
     0
274
    -2
284
     1
 64
     0
275
    -2
285
     1
 65
     0
276
    -2
286
     1
 66
     0
277
    -2
287
     1
 67
     0
278
    -2
288
     1
 68
     0
279
    -2
289
     1
 69
     0
  7
STANDARD
140
0.18
170
     5
 62
     0
 63
     7
283
     0
274
    -2
284
     1
 64
     0
275
    -2
285
     1
 65
     0
276
    -2
286
     1
 66
     0
277
    -2
287
     1
 67
     0
278
    -2
288
     1
 68
     0
279
    -2
289
     1
 69
     0
  0
VISUALSTYLE
  5
A24
102
{ACAD_XDICTIONARY
360
A82
102
}
102
{ACAD_REACTORS
330
A1E
102
}
330
A1E
100
AcDbVisualStyle
  2
2dWireframe
 70
     4
 71
     0
 72
     2
 73
     0
 90
        0
 40
-0.6
 41
-30.0
 62
     5
 63
     7
 74
     1
 91
        4
 64
     7
 65
   257
 75
     1
175
     1
 42
1.0
 92
        0
 66
   257
 43
1.0
 76
     1
 77
     6
 78
     2
 67
     7
 79
     5
170
     0
171
     0
290
     0
174
     0
 93
        1
 44
0.0
173
     0
291
     0
 45
0.0
1001
ACAD
1000
AcDbSavedByObjectVersion
1070
     0
  0
VISUALSTYLE
  5
A23
102
{ACAD_XDICTIONARY
360
A80
102
}
102
{ACAD_REACTORS
330
A1E
102
}
330
A1E
100
AcDbVisualStyle
  2
Basic
 70
     7
 71
     1
 72
     0
 73
     1
 90
        0
 40
-0.6
 41
-30.0
 62
     5
 63
     7
 74
     0
 91
        4
 64
     7
 65
   257
 75
     1
175
     1
 42
1.0
 92
        8
 66
     7
 43
1.0
 76
     1
 77
     6
 78
     2
 67
     7
 79
     5
170
     0
171
     0
290
     0
174
     0
 93
        1
 44
0.0
173
     0
291
     1
 45
0.0
1001
ACAD
1000
AcDbSavedByObjectVersion
1070
     0
  0
VISUALSTYLE
  5
A2A
102
{ACAD_XDICTIONARY
360
A8E
102
}
102
{ACAD_REACTORS
330
A1E
102
}
330
A1E
100
AcDbVisualStyle
  2
Brighten
 70
    12
 71
     2
 72
     2
 73
     0
 90
        0
 40
-0.6
 41
-30.0
 62
     5
 63
     7
 74
     1
 91
        4
 64
     7
 65
   257
 75
     1
175
     1
 42
1.0
 92
        8
 66
     7
 43
1.0
 76
     1
 77
     6
 78
     2
 67
     7
 79
     5
170
     0
171
     0
290
     0
174
     0
 93
        1
 44
50.0
173
     0
291
     1
 45
0.0
1001
ACAD
1000
AcDbSavedByObjectVersion
1070
     0
  0
VISUALSTYLE
  5
A2E
102
{ACAD_XDICTIONARY
360
A96
102
}
102
{ACAD_REACTORS
330
A1E
102
}
330
A1E
100
AcDbVisualStyle
  2
ColorChange
 70
    16
 71
     2
 72
     2
 73
     3
 90
        0
 40
-0.6
 41
-30.0
 62
     5
 63
     8
 74
     1
 91
        4
 64
     7
 65
   257
 75
     1
175
     1
 42
1.0
 92
        8
 66
     8
 43
1.0
 76
     1
 77
     6
 78
     2
 67
     7
 79
     5
170
     0
171
     0
290
     0
174
     0
 93
        1
 44
0.0
173
     0
291
     1
 45
0.0
1001
ACAD
1000
AcDbSavedByObjectVersion
1070
     0
  0
VISUALSTYLE
  5
A27
102
{ACAD_XDICTIONARY
360
A88
102
}
102
{ACAD_REACTORS
330
A1E
102
}
330
A1E
100
AcDbVisualStyle
  2
Conceptual
 70
     9
 71
     3
 72
     2
 73
     0
 90
        0
 40
-0.6
 41
-30.0
 62
     5
 63
     7
 74
     2
 91
        2
 64
     7
 65
   257
 75
     1
175
     1
 42
179.0
 92
        8
 66
     7
 43
1.0
 76
     1
 77
     6
 78
     2
 67
     7
 79
     3
170
     0
171
     0
290
     0
174
     0
 93
        1
 44
0.0
173
     0
291
     0
 45
0.0
1001
ACAD
1000
AcDbSavedByObjectVersion
1070
     0
  0
VISUALSTYLE
  5
A29
102
{ACAD_XDICTIONARY
360
A8C
102
}
102
{ACAD_REACTORS
330
A1E
102
}
330
A1E
100
AcDbVisualStyle
  2
Dim
 70
    11
 71
     2
 72
     2
 73
     0
 90
        0
 40
-0.6
 41
-30.0
 62
     5
 63
     7
 74
     1
 91
        4
 64
     7
 65
   257
 75
     1
175
     1
 42
1.0
 92
        8
 66
     7
 43
1.0
 76
     1
 77
     6
 78
     2
 67
     7
 79
     5
170
     0
171
     0
290
     0
174
     0
 93
        1
 44
-50.0
173
     0
291
     1
 45
0.0
1001
ACAD
1000
AcDbSavedByObjectVersion
1070
     0
  0
VISUALSTYLE
  5
A36
102
{ACAD_XDICTIONARY
360
AA6
102
}
102
{ACAD_REACTORS
330
A1E
102
}
330
A1E
100
AcDbVisualStyle
  2
EdgeColorOff
 70
    22
 71
     2
 72
     2
 73
     0
 90
        0
 40
-0.6
 41
-30.0
 62
     5
 63
     7
 74
     1
 91
        4
 64
     7
 65
   257
 75
     1
175
     1
 42
1.0
 92
        8
 66
     7
 43
1.0
 76
     1
 77
     6
 78
     2
 67
     7
 79
     5
170
     0
171
     0
290
     0
174
     0
 93
        1
 44
0.0
173
     0
291
     1
 45
0.0
1001
ACAD
1000
AcDbSavedByObjectVersion
1070
     0
  0
VISUALSTYLE
  5
A2D
102
{ACAD_XDICTIONARY
360
A94
102
}
102
{ACAD_REACTORS
330
A1E
102
}
330
A1E
100
AcDbVisualStyle
  2
Facepattern
 70
    15
 71
     2
 72
     2
 73
     0
 90
        0
 40
-0.6
 41
-30.0
 62
     5
 63
     7
 74
     1
 91
        4
 64
     7
 65
   257
 75
     1
175
     1
 42
1.0
 92
        8
 66
     7
 43
1.0
 76
     1
 77
     6
 78
     2
 67
     7
 79
     5
170
     0
171
     0
290
     0
174
     0
 93
        1
 44
0.0
173
     0
291
     1
 45
0.0
1001
ACAD
1000
AcDbSavedByObjectVersion
1070
     0
  0
VISUALSTYLE
  5
A1F
102
{ACAD_XDICTIONARY
360
A78
102
}
102
{ACAD_REACTORS
330
A1E
102
}
330
A1E
100
AcDbVisualStyle
  2
Flat
 70
     0
 71
     2
 72
     1
 73
     1
 90
        2
 40
-0.6
 41
30.0
 62
     5
 63
     7
 74
     0
 91
        0
 64
     7
 65
   257
 75
     1
175
     1
 42
1.0
 92
        8
 66
     7
 43
1.0
 76
     1
 77
     6
 78
     2
 67
     7
 79
     5
170
     0
171
     0
290
     0
174
     0
 93
       13
 44
0.0
173
     0
291
     1
 45
0.0
1001
ACAD
1000
AcDbSavedByObjectVersion
1070
     0
  0
VISUALSTYLE
  5
A20
102
{ACAD_XDICTIONARY
360
A7A
102
}
102
{ACAD_REACTORS
330
A1E
102
}
330
A1E
100
AcDbVisualStyle
  2
FlatWithEdges
 70
     1
 71
     2
 72
     1
 73
     1
 90
        2
 40
-0.6
 41
30.0
 62
     5
 63
     7
 74
     1
 91
        0
 64
     7
 65
   257
 75
     1
175
     1
 42
1.0
 92
        0
 66
   257
 43
1.0
 76
     1
 77
     6
 78
     2
 67
     7
 79
     5
170
     0
171
     0
290
     0
174
     0
 93
       13
 44
0.0
173
     0
291
     1
 45
0.0
1001
ACAD
1000
AcDbSavedByObjectVersion
1070
     0
  0
VISUALSTYLE
  5
A21
102
{ACAD_XDICTIONARY
360
A7C
102
}
102
{ACAD_REACTORS
330
A1E
102
}
330
A1E
100
AcDbVisualStyle
  2
Gouraud
 70
     2
 71
     2
 72
     2
 73
     1
 90
        2
 40
-0.6
 41
30.0
 62
     5
 63
     7
 74
     0
 91
        0
 64
     7
 65
   257
 75
     1
175
     1
 42
1.0
 92
        0
 66
     7
 43
1.0
 76
     1
 77
     6
 78
     2
 67
     7
 79
     5
170
     0
171
     0
290
     0
174
     0
 93
       13
 44
0.0
173
     0
291
     1
 45
0.0
1001
ACAD
1000
AcDbSavedByObjectVersion
1070
     0
  0
VISUALSTYLE
  5
A22
102
{ACAD_XDICTIONARY
360
A7E
102
}
102
{ACAD_REACTORS
330
A1E
102
}
330
A1E
100
AcDbVisualStyle
  2
GouraudWithEdges
 70
     3
 71
     2
 72
     2
 73
     1
 90
        2
 40
-0.6
 41
30.0
 62
     5
 63
     7
 74
     1
 91
        0
 64
     7
 65
   257
 75
     1
175
     1
 42
1.0
 92
        0
 66
   257
 43
1.0
 76
     1
 77
     6
 78
     2
 67
     7
 79
     5
170
     0
171
     0
290
     0
174
     0
 93
       13
 44
0.0
173
     0
291
     1
 45
0.0
1001
ACAD
1000
AcDbSavedByObjectVersion
1070
     0
  0
VISUALSTYLE
  5
A26
102
{ACAD_XDICTIONARY
360
A86
102
}
102
{ACAD_REACTORS
330
A1E
102
}
330
A1E
100
AcDbVisualStyle
  2
Hidden
 70
     6
 71
     1
 72
     2
 73
     2
 90
        0
 40
-0.6
 41
-30.0
 62
     5
 63
     7
 74
     2
 91
        2
 64
     7
 65
   257
 75
     2
175
     1
 42
40.0
 92
        0
 66
   257
 43
1.0
 76
     1
 77
     6
 78
     2
 67
     7
 79
     3
170
     0
171
     0
290
     0
174
     0
 93
        1
 44
0.0
173
     0
291
     0
 45
0.0
1001
ACAD
1000
AcDbSavedByObjectVersion
1070
     0
  0
VISUALSTYLE
  5
A34
102
{ACAD_XDICTIONARY
360
AA2
102
}
102
{ACAD_REACTORS
330
A1E
102
}
330
A1E
100
AcDbVisualStyle
  2
JitterOff
 70
    20
 71
     2
 72
     2
 73
     0
 90
        0
 40
-0.6
 41
-30.0
 62
     5
 63
     7
 74
     1
 91
        4
 64
     7
 65
   257
 75
     1
175
     1
 42
1.0
 92
       10
 66
     7
 43
1.0
 76
     1
 77
     6
 78
     2
 67
     7
 79
     5
170
     0
171
     0
290
     0
174
     0
 93
        1
 44
0.0
173
     0
291
     1
 45
0.0
1001
ACAD
1000
AcDbSavedByObjectVersion
1070
     0
  0
VISUALSTYLE
  5
A2C
102
{ACAD_XDICTIONARY
360
A92
102
}
102
{ACAD_REACTORS
330
A1E
102
}
330
A1E
100
AcDbVisualStyle
  2
Linepattern
 70
    14
 71
     2
 72
     2
 73
     0
 90
        0
 40
-0.6
 41
-30.0
 62
     5
 63
     7
 74
     1
 91
        4
 64
     7
 65
   257
 75
     7
175
     7
 42
1.0
 92
        8
 66
     7
 43
1.0
 76
     1
 77
     6
 78
     2
 67
     7
 79
     5
170
     0
171
     0
290
     0
174
     0
 93
        1
 44
0.0
173
     0
291
     1
 45
0.0
1001
ACAD
1000
AcDbSavedByObjectVersion
1070
     0
  0
VISUALSTYLE
  5
A35
102
{ACAD_XDICTIONARY
360
AA4
102
}
102
{ACAD_REACTORS
330
A1E
102
}
330
A1E
100
AcDbVisualStyle
  2
OverhangOff
 70
    21
 71
     2
 72
     2
 73
     0
 90
        0
 40
-0.6
 41
-30.0
 62
     5
 63
     7
 74
     1
 91
        4
 64
     7
 65
   257
 75
     1
175
     1
 42
1.0
 92
        9
 66
     7
 43
1.0
 76
     1
 77
     6
 78
     2
 67
     7
 79
     5
170
     0
171
     0
290
     0
174
     0
 93
        1
 44
0.0
173
     0
291
     1
 45
0.0
1001
ACAD
1000
AcDbSavedByObjectVersion
1070
     0
  0
VISUALSTYLE
  5
A28
102
{ACAD_XDICTIONARY
360
A8A
102
}
102
{ACAD_REACTORS
330
A1E
102
}
330
A1E
100
AcDbVisualStyle
  2
Realistic
 70
     8
 71
     2
 72
     3
 73
     0
 90
        2
 40
-0.6
 41
30.0
 62
     5
 63
     7
 74
     0
 91
        0
 64
     7
 65
   257
 75
     1
175
     1
 42
1.0
 92
        8
 66
   257
 43
1.0
 76
     1
 77
     6
 78
     2
 67
     7
 79
     3
170
     0
171
     0
290
     0
174
     0
 93
       13
 44
0.0
173
     0
291
     0
 45
0.0
1001
ACAD
1000
AcDbSavedByObjectVersion
1070
     0
  0
VISUALSTYLE
  5
A33
102
{ACAD_XDICTIONARY
360
AA0
102
}
102
{ACAD_REACTORS
330
A1E
102
}
330
A1E
100
AcDbVisualStyle
  2
Shaded
 70
    27
 71
     2
 72
     2
 73
     1
 90
        2
 40
-0.6
 41
30.0
 62
     5
 63
     7
 74
     0
 91
        4
 64
     7
 65
   257
 75
     1
175
     1
 42
1.0
 92
        8
 66
   257
 43
1.0
 76
     1
 77
     6
 78
     2
 67
     8
 79
     3
170
     0
171
     0
290
     0
174
     0
 93
        5
 44
0.0
173
     0
291
     0
 45
0.0
1001
ACAD
1000
AcDbSavedByObjectVersion
1070
     0
  0
VISUALSTYLE
  5
A32
102
{ACAD_XDICTIONARY
360
A9E
102
}
102
{ACAD_REACTORS
330
A1E
102
}
330
A1E
100
AcDbVisualStyle
  2
Shaded with edges
 70
    26
 71
     2
 72
     2
 73
     1
 90
        2
 40
-0.6
 41
30.0
 62
     5
 63
     7
 74
     1
 91
       10
 64
     7
 65
   257
 75
     2
175
     1
 42
1.0
 92
        8
 66
   257
 43
1.0
 76
     1
 77
     6
 78
     2
 67
     7
 79
     3
170
     0
171
     0
290
     0
174
     0
 93
        5
 44
0.0
173
     0
291
     0
 45
0.0
1001
ACAD
1000
AcDbSavedByObjectVersion
1070
     0
  0
VISUALSTYLE
  5
A2F
102
{ACAD_XDICTIONARY
360
A98
102
}
102
{ACAD_REACTORS
330
A1E
102
}
330
A1E
100
AcDbVisualStyle
  2
Shades of Gray
 70
    23
 71
     2
 72
     2
 73
     3
 90
        0
 40
-0.6
 41
-30.0
 62
     5
 63
     7
 74
     2
 91
        2
 64
     7
 65
     7
 75
     1
175
     1
 42
40.0
 92
        8
 66
     7
 43
1.0
 76
     1
 77
     6
 78
     2
 67
     7
 79
     3
170
     0
171
     0
290
     0
174
     0
 93
        1
 44
0.0
173
     0
291
     0
 45
0.0
1001
ACAD
1000
AcDbSavedByObjectVersion
1070
     0
  0
VISUALSTYLE
  5
A30
102
{ACAD_XDICTIONARY
360
A9A
102
}
102
{ACAD_REACTORS
330
A1E
102
}
330
A1E
100
AcDbVisualStyle
  2
Sketchy
 70
    24
 71
     1
 72
     2
 73
     2
 90
        0
 40
-0.6
 41
-30.0
 62
     5
 63
     7
 74
     2
 91
        2
 64
     7
 65
     7
 75
     1
175
     1
 42
40.0
 92
       11
 66
     7
 43
1.0
 76
     1
 77
     6
 78
     2
 67
     7
 79
     6
170
     0
171
     0
290
     0
174
     0
 93
        1
 44
0.0
173
     0
291
     0
 45
0.0
1001
ACAD
1000
AcDbSavedByObjectVersion
1070
     0
  0
VISUALSTYLE
  5
A2B
102
{ACAD_XDICTIONARY
360
A90
102
}
102
{ACAD_REACTORS
330
A1E
102
}
330
A1E
100
AcDbVisualStyle
  2
Thicken
 70
    13
 71
     2
 72
     2
 73
     0
 90
        0
 40
-0.6
 41
-30.0
 62
     5
 63
     7
 74
     1
 91
        4
 64
     7
 65
   257
 75
     1
175
     1
 42
1.0
 92
       12
 66
     7
 43
1.0
 76
     1
 77
     6
 78
     2
 67
     7
 79
     5
170
     0
171
     0
290
     0
174
     0
 93
        1
 44
0.0
173
     0
291
     1
 45
0.0
1001
ACAD
1000
AcDbSavedByObjectVersion
1070
     0
  0
VISUALSTYLE
  5
A25
102
{ACAD_XDICTIONARY
360
A84
102
}
102
{ACAD_REACTORS
330
A1E
102
}
330
A1E
100
AcDbVisualStyle
  2
Wireframe
 70
     5
 71
     0
 72
     2
 73
     0
 90
        0
 40
-0.6
 41
-30.0
 62
     5
 63
     7
 74
     1
 91
        4
 64
     7
 65
   257
 75
     1
175
     1
 42
1.0
 92
        0
 66
   257
 43
1.0
 76
     1
 77
     6
 78
     2
 67
     7
 79
     3
170
     0
171
     0
290
     0
174
     0
 93
        1
 44
0.0
173
     0
291
     0
 45
0.0
1001
ACAD
1000
AcDbSavedByObjectVersion
1070
     0
  0
VISUALSTYLE
  5
A31
102
{ACAD_XDICTIONARY
360
A9C
102
}
102
{ACAD_REACTORS
330
A1E
102
}
330
A1E
100
AcDbVisualStyle
  2
X-Ray
 70
    25
 71
     2
 72
     2
 73
     1
 90
        1
 40
0.5
 41
-30.0
 62
     5
 63
     7
 74
     1
 91
        0
 64
     7
 65
   257
 75
     1
175
     1
 42
1.0
 92
        8
 66
     7
 43
1.0
 76
     1
 77
     6
 78
     2
 67
     7
 79
     3
170
     0
171
     0
290
     0
174
     0
 93
       13
 44
0.0
173
     0
291
     0
 45
0.0
1001
ACAD
1000
AcDbSavedByObjectVersion
1070
     0
  0
DICTIONARYVAR
  5
A6B
102
{ACAD_REACTORS
330
A66
102
}
330
A66
100
DictionaryVariables
280
     0
  1
1:1
  0
DICTIONARYVAR
  5
A68
102
{ACAD_REACTORS
330
A66
102
}
330
A66
100
DictionaryVariables
280
     0
  1
STANDARD
  0
DICTIONARYVAR
  5
A67
102
{ACAD_REACTORS
330
A66
102
}
330
A66
100
DictionaryVariables
280
     0
  1
STANDARD
  0
DICTIONARYVAR
  5
A69
102
{ACAD_REACTORS
330
A66
102
}
330
A66
100
DictionaryVariables
280
     0
  1
Imperial24
  0
DICTIONARYVAR
  5
A6A
102
{ACAD_REACTORS
330
A66
102
}
330
A66
100
DictionaryVariables
280
     0
  1
Imperial24
  0
DICTIONARYVAR
  5
A6E
102
{ACAD_REACTORS
330
A66
102
}
330
A66
100
DictionaryVariables
280
     0
  1
1
  0
DICTIONARYVAR
  5
A6D
102
{ACAD_REACTORS
330
A66
102
}
330
A66
100
DictionaryVariables
280
     0
  1
0
  0
DICTIONARYVAR
  5
A6C
102
{ACAD_REACTORS
330
A66
102
}
330
A66
100
DictionaryVariables
280
     0
  1
127
  0
DICTIONARYVAR
  5
A6F
102
{ACAD_REACTORS
330
A66
102
}
330
A66
100
DictionaryVariables
280
     0
  1
2
  0
DICTIONARY
  5
AAC
330
A51
100
AcDbDictionary
280
     1
281
     1
  3
ACAD_XREC_ROUNDTRIP
360
AAD
  0
DICTIONARY
  5
AAE
330
A52
100
AcDbDictionary
280
     1
281
     1
  3
ACAD_XREC_ROUNDTRIP
360
AAF
  0
DICTIONARY
  5
AB0
330
A53
100
AcDbDictionary
280
     1
281
     1
  3
ACAD_XREC_ROUNDTRIP
360
AB1
  0
DICTIONARY
  5
A0F
330
A0E
100
AcDbDictionary
280
     1
281
     1
  3
ACAD_XREC_ROUNDTRIP
360
A76
  3
BUMPTILE
360
A11
  3
DIFFUSETILE
360
A10
  3
OPACITYTILE
360
A14
  3
REFLECTIONTILE
360
A13
  3
REFRACTIONTILE
360
A15
  3
SPECULARTILE
360
A12
  0
DICTIONARY
  5
A07
330
A06
100
AcDbDictionary
280
     1
281
     1
  3
ACAD_XREC_ROUNDTRIP
360
A75
  3
BUMPTILE
360
A09
  3
DIFFUSETILE
360
A08
  3
OPACITYTILE
360
A0C
  3
REFLECTIONTILE
360
A0B
  3
REFRACTIONTILE
360
A0D
  3
SPECULARTILE
360
A0A
  0
DICTIONARY
  5
A17
330
A16
100
AcDbDictionary
280
     1
281
     1
  3
ACAD_XREC_ROUNDTRIP
360
A77
  3
BUMPTILE
360
A19
  3
DIFFUSETILE
360
A18
  3
OPACITYTILE
360
A1C
  3
REFLECTIONTILE
360
A1B
  3
REFRACTIONTILE
360
A1D
  3
SPECULARTILE
360
A1A
  0
DICTIONARY
  5
AAA
330
A4F
100
AcDbDictionary
280
     1
281
     1
  3
ACAD_XREC_ROUNDTRIP
360
AAB
  0
DICTIONARY
  5
A71
330
A39
100
AcDbDictionary
280
     1
281
     1
  3
ACAD_ROUNDTRIP_2008_TABLESTYLE_CELLSTYLEMAP
360
A72
  3
ACAD_XREC_ROUNDTRIP
360
AA8
  0
DICTIONARY
  5
A82
330
A24
100
AcDbDictionary
280
     1
281
     1
  3
ACAD_XREC_ROUNDTRIP
360
A83
  0
DICTIONARY
  5
A80
330
A23
100
AcDbDictionary
280
     1
281
     1
  3
ACAD_XREC_ROUNDTRIP
360
A81
  0
DICTIONARY
  5
A8E
330
A2A
100
AcDbDictionary
280
     1
281
     1
  3
ACAD_XREC_ROUNDTRIP
360
A8F
  0
DICTIONARY
  5
A96
330
A2E
100
AcDbDictionary
280
     1
281
     1
  3
ACAD_XREC_ROUNDTRIP
360
A97
  0
DICTIONARY
  5
A88
330
A27
100
AcDbDictionary
280
     1
281
     1
  3
ACAD_XREC_ROUNDTRIP
360
A89
  0
DICTIONARY
  5
A8C
330
A29
100
AcDbDictionary
280
     1
281
     1
  3
ACAD_XREC_ROUNDTRIP
360
A8D
  0
DICTIONARY
  5
AA6
330
A36
100
AcDbDictionary
280
     1
281
     1
  3
ACAD_XREC_ROUNDTRIP
360
AA7
  0
DICTIONARY
  5
A94
330
A2D
100
AcDbDictionary
280
     1
281
     1
  3
ACAD_XREC_ROUNDTRIP
360
A95
  0
DICTIONARY
  5
A78
330
A1F
100
AcDbDictionary
280
     1
281
     1
  3
ACAD_XREC_ROUNDTRIP
360
A79
  0
DICTIONARY
  5
A7A
330
A20
100
AcDbDictionary
280
     1
281
     1
  3
ACAD_XREC_ROUNDTRIP
360
A7B
  0
DICTIONARY
  5
A7C
330
A21
100
AcDbDictionary
280
     1
281
     1
  3
ACAD_XREC_ROUNDTRIP
360
A7D
  0
DICTIONARY
  5
A7E
330
A22
100
AcDbDictionary
280
     1
281
     1
  3
ACAD_XREC_ROUNDTRIP
360
A7F
  0
DICTIONARY
  5
A86
330
A26
100
AcDbDictionary
280
     1
281
     1
  3
ACAD_XREC_ROUNDTRIP
360
A87
  0
DICTIONARY
  5
AA2
330
A34
100
AcDbDictionary
280
     1
281
     1
  3
ACAD_XREC_ROUNDTRIP
360
AA3
  0
DICTIONARY
  5
A92
330
A2C
100
AcDbDictionary
280
     1
281
     1
  3
ACAD_XREC_ROUNDTRIP
360
A93
  0
DICTIONARY
  5
AA4
330
A35
100
AcDbDictionary
280
     1
281
     1
  3
ACAD_XREC_ROUNDTRIP
360
AA5
  0
DICTIONARY
  5
A8A
330
A28
100
AcDbDictionary
280
     1
281
     1
  3
ACAD_XREC_ROUNDTRIP
360
A8B
  0
DICTIONARY
  5
AA0
330
A33
100
AcDbDictionary
280
     1
281
     1
  3
ACAD_XREC_ROUNDTRIP
360
AA1
  0
DICTIONARY
  5
A9E
330
A32
100
AcDbDictionary
280
     1
281
     1
  3
ACAD_XREC_ROUNDTRIP
360
A9F
  0
DICTIONARY
  5
A98
330
A2F
100
AcDbDictionary
280
     1
281
     1
  3
ACAD_XREC_ROUNDTRIP
360
A99
  0
DICTIONARY
  5
A9A
330
A30
100
AcDbDictionary
280
     1
281
     1
  3
ACAD_XREC_ROUNDTRIP
360
A9B
  0
DICTIONARY
  5
A90
330
A2B
100
AcDbDictionary
280
     1
281
     1
  3
ACAD_XREC_ROUNDTRIP
360
A91
  0
DICTIONARY
  5
A84
330
A25
100
AcDbDictionary
280
     1
281
     1
  3
ACAD_XREC_ROUNDTRIP
360
A85
  0
DICTIONARY
  5
A9C
330
A31
100
AcDbDictionary
280
     1
281
     1
  3
ACAD_XREC_ROUNDTRIP
360
A9D
  0
XRECORD
  5
AAD
102
{ACAD_REACTORS
330
AAC
102
}
330
AAC
100
AcDbXrecord
280
     1
102
DISPLAYNAME
  1
Imperial24
102
FLAGS
 90
        0
  0
XRECORD
  5
AAF
102
{ACAD_REACTORS
330
AAE
102
}
330
AAE
100
AcDbXrecord
280
     1
102
SHADEPLOT
 70
     0
102
SHADEPLOTRESLEVEL
 70
     2
102
SHADEPLOTCUSTOMDPI
 70
   300
  0
XRECORD
  5
AB1
102
{ACAD_REACTORS
330
AB0
102
}
330
AB0
100
AcDbXrecord
280
     1
102
SHADEPLOT
 70
     0
102
SHADEPLOTRESLEVEL
 70
     2
102
SHADEPLOTCUSTOMDPI
 70
   300
  0
XRECORD
  5
A76
102
{ACAD_REACTORS
330
A0F
102
}
330
A0F
100
AcDbXrecord
280
     1
102
MATERIAL
148
0.0
149
0.0
149
0.0
 93
        0
 94
      127
282
     0
 72
     0
 77
     0
171
     0
175
     0
179
     0
273
     0
  0
XRECORD
  5
A11
102
{ACAD_REACTORS
330
A0F
102
}
330
A0F
100
AcDbXrecord
280
     1
270
     1
271
     1
  0
XRECORD
  5
A10
102
{ACAD_REACTORS
330
A0F
102
}
330
A0F
100
AcDbXrecord
280
     1
270
     1
271
     1
  0
XRECORD
  5
A14
102
{ACAD_REACTORS
330
A0F
102
}
330
A0F
100
AcDbXrecord
280
     1
270
     1
271
     1
  0
XRECORD
  5
A13
102
{ACAD_REACTORS
330
A0F
102
}
330
A0F
100
AcDbXrecord
280
     1
270
     1
271
     1
  0
XRECORD
  5
A15
102
{ACAD_REACTORS
330
A0F
102
}
330
A0F
100
AcDbXrecord
280
     1
270
     1
271
     1
  0
XRECORD
  5
A12
102
{ACAD_REACTORS
330
A0F
102
}
330
A0F
100
AcDbXrecord
280
     1
270
     1
271
     1
  0
XRECORD
  5
A75
102
{ACAD_REACTORS
330
A07
102
}
330
A07
100
AcDbXrecord
280
     1
102
MATERIAL
148
0.0
149
0.0
149
0.0
 93
        0
 94
      127
282
     0
 72
     0
 77
     0
171
     0
175
     0
179
     0
273
     0
  0
XRECORD
  5
A09
102
{ACAD_REACTORS
330
A07
102
}
330
A07
100
AcDbXrecord
280
     1
270
     1
271
     1
  0
XRECORD
  5
A08
102
{ACAD_REACTORS
330
A07
102
}
330
A07
100
AcDbXrecord
280
     1
270
     1
271
     1
  0
XRECORD
  5
A0C
102
{ACAD_REACTORS
330
A07
102
}
330
A07
100
AcDbXrecord
280
     1
270
     1
271
     1
  0
XRECORD
  5
A0B
102
{ACAD_REACTORS
330
A07
102
}
330
A07
100
AcDbXrecord
280
     1
270
     1
271
     1
  0
XRECORD
  5
A0D
102
{ACAD_REACTORS
330
A07
102
}
330
A07
100
AcDbXrecord
280
     1
270
     1
271
     1
  0
XRECORD
  5
A0A
102
{ACAD_REACTORS
330
A07
102
}
330
A07
100
AcDbXrecord
280
     1
270
     1
271
     1
  0
XRECORD
  5
A77
102
{ACAD_REACTORS
330
A17
102
}
330
A17
100
AcDbXrecord
280
     1
102
MATERIAL
148
0.0
149
0.0
149
0.0
 93
        0
 94
      127
282
     0
 72
     0
 77
     0
171
     0
175
     0
179
     0
273
     0
  0
XRECORD
  5
A19
102
{ACAD_REACTORS
330
A17
102
}
330
A17
100
AcDbXrecord
280
     1
270
     1
271
     1
  0
XRECORD
  5
A18
102
{ACAD_REACTORS
330
A17
102
}
330
A17
100
AcDbXrecord
280
     1
270
     1
271
     1
  0
XRECORD
  5
A1C
102
{ACAD_REACTORS
330
A17
102
}
330
A17
100
AcDbXrecord
280
     1
270
     1
271
     1
  0
XRECORD
  5
A1B
102
{ACAD_REACTORS
330
A17
102
}
330
A17
100
AcDbXrecord
280
     1
270
     1
271
     1
  0
XRECORD
  5
A1D
102
{ACAD_REACTORS
330
A17
102
}
330
A17
100
AcDbXrecord
280
     1
270
     1
271
     1
  0
XRECORD
  5
A1A
102
{ACAD_REACTORS
330
A17
102
}
330
A17
100
AcDbXrecord
280
     1
270
     1
271
     1
  0
XRECORD
  5
AAB
102
{ACAD_REACTORS
330
AAA
102
}
330
AAA
100
AcDbXrecord
280
     1
102
DISPLAYNAME
  1
Imperial24
102
FLAGS
 90
        0
  0
CELLSTYLEMAP
  5
A72
102
{ACAD_REACTORS
330
A71
102
}
330
A71
100
AcDbCellStyleMap
 90
        3
300
CELLSTYLE
  1
TABLEFORMAT_BEGIN
 90
        5
170
     1
 91
        0
 92
    32768
 62
   257
 93
        1
300
CONTENTFORMAT
  1
CONTENTFORMAT_BEGIN
 90
        0
 91
        0
 92
      512
 93
        0
300

 40
0.0
140
1.0
 94
        5
 62
     0
340
81B
144
0.25
309
CONTENTFORMAT_END
171
     0
 94
        0
309
TABLEFORMAT_END
  1
CELLSTYLE_BEGIN
 90
        1
 91
        1
300
_TITLE
309
CELLSTYLE_END
300
CELLSTYLE
  1
TABLEFORMAT_BEGIN
 90
        5
170
     1
 91
        0
 92
        0
 62
   257
 93
        1
300
CONTENTFORMAT
  1
CONTENTFORMAT_BEGIN
 90
        0
 91
        0
 92
      512
 93
        0
300

 40
0.0
140
1.0
 94
        5
 62
     0
340
81B
144
0.18
309
CONTENTFORMAT_END
171
     0
 94
        0
309
TABLEFORMAT_END
  1
CELLSTYLE_BEGIN
 90
        2
 91
        1
300
_HEADER
309
CELLSTYLE_END
300
CELLSTYLE
  1
TABLEFORMAT_BEGIN
 90
        5
170
     1
 91
        0
 92
        0
 62
   257
 93
        1
300
CONTENTFORMAT
  1
CONTENTFORMAT_BEGIN
 90
        0
 91
        0
 92
      512
 93
        0
300

 40
0.0
140
1.0
 94
        2
 62
     0
340
81B
144
0.18
309
CONTENTFORMAT_END
171
     0
 94
        0
309
TABLEFORMAT_END
  1
CELLSTYLE_BEGIN
 90
        3
 91
        2
300
_DATA
309
CELLSTYLE_END
  0
XRECORD
  5
AA8
102
{ACAD_REACTORS
330
A71
102
}
330
A71
100
AcDbXrecord
280
     1
102
ACAD_ROUNDTRIP_PRE2007_TABLESTYLE
 90
      512
 91
        0
  1

 92
      512
 93
        0
  2

 94
      512
 95
        0
  3

  0
XRECORD
  5
A83
102
{ACAD_REACTORS
330
A82
102
}
330
A82
100
AcDbXrecord
280
     1
102
RTVSPost2010Prop28
280
     1
102
RTVSPost2010PropOp28
 70
     1
102
RTVSPost2010Prop29
280
     1
102
RTVSPost2010PropOp29
 70
     1
102
RTVSPost2010Prop30
280
     0
102
RTVSPost2010PropOp30
 70
     1
102
RTVSPost2010Prop31
280
     0
102
RTVSPost2010PropOp31
 70
     1
102
RTVSPost2010Prop32
280
     0
102
RTVSPost2010PropOp32
 70
     1
102
RTVSPost2010Prop33
280
     0
102
RTVSPost2010PropOp33
 70
     1
102
RTVSPost2010Prop34
280
     0
102
RTVSPost2010PropOp34
 70
     1
102
RTVSPost2010Prop35
280
     0
102
RTVSPost2010PropOp35
 70
     1
102
RTVSPost2010Prop36
280
     0
102
RTVSPost2010PropOp36
 70
     1
102
RTVSPost2010Prop37
 90
       50
102
RTVSPost2010PropOp37
 70
     1
102
RTVSPost2010Prop38
140
0.0
102
RTVSPost2010PropOp38
 70
     1
102
RTVSPost2010Prop39
140
1.0
102
RTVSPost2010PropOp39
 70
     1
102
RTVSPost2010Prop40
 90
        0
102
RTVSPost2010PropOp40
 70
     1
102
RTVSPost2010Prop41ColorIndex
 90
       18
102
RTVSPost2010Prop41ColorRGB
 90
        0
102
RTVSPost2010PropOp41
 70
     1
102
RTVSPost2010Prop42
 90
       50
102
RTVSPost2010PropOp42
 70
     1
102
RTVSPost2010Prop43
 90
        3
102
RTVSPost2010PropOp43
 70
     1
102
RTVSPost2010Prop44ColorIndex
 90
        5
102
RTVSPost2010Prop44ColorRGB
 90
      255
102
RTVSPost2010PropOp44
 70
     1
102
RTVSPost2010Prop45
280
     0
102
RTVSPost2010PropOp45
 70
     1
102
RTVSPost2010Prop46
 90
       50
102
RTVSPost2010PropOp46
 70
     1
102
RTVSPost2010Prop47
 90
       50
102
RTVSPost2010PropOp47
 70
     1
102
RTVSPost2010Prop48
 90
       50
102
RTVSPost2010PropOp48
 70
     1
102
RTVSPost2010Prop49
280
     0
102
RTVSPost2010PropOp49
 70
     1
102
RTVSPost2010Prop50
 90
       50
102
RTVSPost2010PropOp50
 70
     1
102
RTVSPost2010Prop51ColorIndex
 90
      256
102
RTVSPost2010Prop51ColorRGB
 90
-16777216
102
RTVSPost2010PropOp51
 70
     0
102
RTVSPost2010Prop52
140
1.0
102
RTVSPost2010PropOp52
 70
     0
102
RTVSPost2010Prop53
 90
        2
102
RTVSPost2010PropOp53
 70
     1
102
RTVSPost2010Prop54
  1
strokes_ogs.tif
102
RTVSPost2010PropOp54
 70
     1
102
RTVSPost2010Prop55
280
     0
102
RTVSPost2010PropOp55
 70
     1
102
RTVSPost2010Prop56
140
1.0
102
RTVSPost2010PropOp56
 70
     1
102
RTVSPost2010Prop57
140
1.0
102
RTVSPost2010PropOp57
 70
     1
102
RTVSPropertyOp0
 70
     1
102
RTVSPropertyOp1
 70
     1
102
RTVSPropertyOp2
 70
     1
102
RTVSPropertyOp3
 70
     1
102
RTVSPropertyOp4
 70
     1
102
RTVSPropertyOp5
 70
     1
102
RTVSPropertyOp6
 70
     1
102
RTVSPropertyOp7
 70
     1
102
RTVSPropertyOp8
 70
     1
102
RTVSPropertyOp9
 70
     1
102
RTVSPropertyOp10
 70
     1
102
RTVSPropertyOp11
 70
     1
102
RTVSPropertyOp12
 70
     1
102
RTVSPropertyOp13
 70
     1
102
RTVSPropertyOp14
 70
     1
102
RTVSPropertyOp15
 70
     1
102
RTVSPropertyOp16
 70
     1
102
RTVSPropertyOp17
 70
     1
102
RTVSPropertyOp18
 70
     1
102
RTVSPropertyOp19
 70
     1
102
RTVSPropertyOp20
 70
     1
102
RTVSPropertyOp21
 70
     1
102
RTVSPropertyOp22
 70
     1
102
RTVSPropertyOp23
 70
     1
102
RTVSPropertyOp24
 70
     1
102
RTVSPropertyOp25
 70
     1
102
RTVSPropertyOp26
 70
     1
102
RTVSPropertyOp27
 70
     1
102
RTVSPropertyOp28
 70
     1
102
RTVSPropertyOp29
 70
     1
102
RTVSPropertyOp30
 70
     1
102
RTVSPropertyOp31
 70
     1
102
RTVSPropertyOp32
 70
     1
102
RTVSPropertyOp33
 70
     1
102
RTVSPropertyOp34
 70
     1
102
RTVSPropertyOp35
 70
     1
102
RTVSPropertyOp36
 70
     1
102
RTVSPropertyOp37
 70
     1
102
RTVSPropertyOp38
 70
     1
102
RTVSPropertyOp39
 70
     1
102
RTVSPropertyOp40
 70
     1
102
RTVSPropertyOp41
 70
     1
102
RTVSPropertyOp42
 70
     1
102
RTVSPropertyOp43
 70
     1
102
RTVSPropertyOp44
 70
     1
102
RTVSPropertyOp45
 70
     1
102
RTVSPropertyOp46
 70
     1
102
RTVSPropertyOp47
 70
     1
102
RTVSPropertyOp48
 70
     1
102
RTVSPropertyOp49
 70
     1
102
RTVSPropertyOp50
 70
     1
102
RTVSPropertyOp51
 70
     0
102
RTVSPropertyOp52
 70
     0
102
RTVSPropertyOp53
 70
     1
102
RTVSPropertyOp54
 70
     1
102
RTVSPropertyOp55
 70
     1
102
RTVSPropertyOp56
 70
     1
102
RTVSPropertyOp57
 70
     1
102
RTVSPropertyOp58
 70
     1
102
RTVSPropertyOp59
 70
     1
102
RTVSPropertyOp60
 70
     1
102
RTVSPropertyOp61
 70
     1
102
RTVSPropertyOp62
 70
     1
  0
XRECORD
  5
A81
102
{ACAD_REACTORS
330
A80
102
}
330
A80
100
AcDbXrecord
280
     1
102
RTVSPost2010Prop28
280
     0
102
RTVSPost2010PropOp28
 70
     1
102
RTVSPost2010Prop29
280
     1
102
RTVSPost2010PropOp29
 70
     1
102
RTVSPost2010Prop30
280
     1
102
RTVSPost2010PropOp30
 70
     1
102
RTVSPost2010Prop31
280
     0
102
RTVSPost2010PropOp31
 70
     1
102
RTVSPost2010Prop32
280
     0
102
RTVSPost2010PropOp32
 70
     1
102
RTVSPost2010Prop33
280
     0
102
RTVSPost2010PropOp33
 70
     1
102
RTVSPost2010Prop34
280
     0
102
RTVSPost2010PropOp34
 70
     1
102
RTVSPost2010Prop35
280
     0
102
RTVSPost2010PropOp35
 70
     1
102
RTVSPost2010Prop36
280
     0
102
RTVSPost2010PropOp36
 70
     1
102
RTVSPost2010Prop37
 90
       50
102
RTVSPost2010PropOp37
 70
     1
102
RTVSPost2010Prop38
140
0.0
102
RTVSPost2010PropOp38
 70
     1
102
RTVSPost2010Prop39
140
1.0
102
RTVSPost2010PropOp39
 70
     1
102
RTVSPost2010Prop40
 90
        0
102
RTVSPost2010PropOp40
 70
     1
102
RTVSPost2010Prop41ColorIndex
 90
       18
102
RTVSPost2010Prop41ColorRGB
 90
        0
102
RTVSPost2010PropOp41
 70
     1
102
RTVSPost2010Prop42
 90
       50
102
RTVSPost2010PropOp42
 70
     1
102
RTVSPost2010Prop43
 90
        3
102
RTVSPost2010PropOp43
 70
     1
102
RTVSPost2010Prop44ColorIndex
 90
        5
102
RTVSPost2010Prop44ColorRGB
 90
      255
102
RTVSPost2010PropOp44
 70
     1
102
RTVSPost2010Prop45
280
     0
102
RTVSPost2010PropOp45
 70
     1
102
RTVSPost2010Prop46
 90
       50
102
RTVSPost2010PropOp46
 70
     1
102
RTVSPost2010Prop47
 90
       50
102
RTVSPost2010PropOp47
 70
     1
102
RTVSPost2010Prop48
 90
       50
102
RTVSPost2010PropOp48
 70
     1
102
RTVSPost2010Prop49
280
     0
102
RTVSPost2010PropOp49
 70
     1
102
RTVSPost2010Prop50
 90
       50
102
RTVSPost2010PropOp50
 70
     1
102
RTVSPost2010Prop51ColorIndex
 90
      256
102
RTVSPost2010Prop51ColorRGB
 90
-16777216
102
RTVSPost2010PropOp51
 70
     0
102
RTVSPost2010Prop52
140
1.0
102
RTVSPost2010PropOp52
 70
     0
102
RTVSPost2010Prop53
 90
        2
102
RTVSPost2010PropOp53
 70
     1
102
RTVSPost2010Prop54
  1
strokes_ogs.tif
102
RTVSPost2010PropOp54
 70
     1
102
RTVSPost2010Prop55
280
     0
102
RTVSPost2010PropOp55
 70
     1
102
RTVSPost2010Prop56
140
1.0
102
RTVSPost2010PropOp56
 70
     1
102
RTVSPost2010Prop57
140
1.0
102
RTVSPost2010PropOp57
 70
     1
102
RTVSPropertyOp0
 70
     1
102
RTVSPropertyOp1
 70
     1
102
RTVSPropertyOp2
 70
     1
102
RTVSPropertyOp3
 70
     1
102
RTVSPropertyOp4
 70
     1
102
RTVSPropertyOp5
 70
     1
102
RTVSPropertyOp6
 70
     1
102
RTVSPropertyOp7
 70
     1
102
RTVSPropertyOp8
 70
     1
102
RTVSPropertyOp9
 70
     1
102
RTVSPropertyOp10
 70
     1
102
RTVSPropertyOp11
 70
     1
102
RTVSPropertyOp12
 70
     1
102
RTVSPropertyOp13
 70
     1
102
RTVSPropertyOp14
 70
     1
102
RTVSPropertyOp15
 70
     1
102
RTVSPropertyOp16
 70
     1
102
RTVSPropertyOp17
 70
     1
102
RTVSPropertyOp18
 70
     1
102
RTVSPropertyOp19
 70
     1
102
RTVSPropertyOp20
 70
     1
102
RTVSPropertyOp21
 70
     1
102
RTVSPropertyOp22
 70
     1
102
RTVSPropertyOp23
 70
     1
102
RTVSPropertyOp24
 70
     1
102
RTVSPropertyOp25
 70
     1
102
RTVSPropertyOp26
 70
     1
102
RTVSPropertyOp27
 70
     1
102
RTVSPropertyOp28
 70
     1
102
RTVSPropertyOp29
 70
     1
102
RTVSPropertyOp30
 70
     1
102
RTVSPropertyOp31
 70
     1
102
RTVSPropertyOp32
 70
     1
102
RTVSPropertyOp33
 70
     1
102
RTVSPropertyOp34
 70
     1
102
RTVSPropertyOp35
 70
     1
102
RTVSPropertyOp36
 70
     1
102
RTVSPropertyOp37
 70
     1
102
RTVSPropertyOp38
 70
     1
102
RTVSPropertyOp39
 70
     1
102
RTVSPropertyOp40
 70
     1
102
RTVSPropertyOp41
 70
     1
102
RTVSPropertyOp42
 70
     1
102
RTVSPropertyOp43
 70
     1
102
RTVSPropertyOp44
 70
     1
102
RTVSPropertyOp45
 70
     1
102
RTVSPropertyOp46
 70
     1
102
RTVSPropertyOp47
 70
     1
102
RTVSPropertyOp48
 70
     1
102
RTVSPropertyOp49
 70
     1
102
RTVSPropertyOp50
 70
     1
102
RTVSPropertyOp51
 70
     0
102
RTVSPropertyOp52
 70
     0
102
RTVSPropertyOp53
 70
     1
102
RTVSPropertyOp54
 70
     1
102
RTVSPropertyOp55
 70
     1
102
RTVSPropertyOp56
 70
     1
102
RTVSPropertyOp57
 70
     1
102
RTVSPropertyOp58
 70
     1
102
RTVSPropertyOp59
 70
     1
102
RTVSPropertyOp60
 70
     1
102
RTVSPropertyOp61
 70
     1
102
RTVSPropertyOp62
 70
     1
  0
XRECORD
  5
A8F
102
{ACAD_REACTORS
330
A8E
102
}
330
A8E
100
AcDbXrecord
280
     1
102
RTVSPost2010Prop28
280
     0
102
RTVSPost2010PropOp28
 70
     1
102
RTVSPost2010Prop29
280
     1
102
RTVSPost2010PropOp29
 70
     1
102
RTVSPost2010Prop30
280
     1
102
RTVSPost2010PropOp30
 70
     1
102
RTVSPost2010Prop31
280
     0
102
RTVSPost2010PropOp31
 70
     1
102
RTVSPost2010Prop32
280
     0
102
RTVSPost2010PropOp32
 70
     1
102
RTVSPost2010Prop33
280
     0
102
RTVSPost2010PropOp33
 70
     1
102
RTVSPost2010Prop34
280
     0
102
RTVSPost2010PropOp34
 70
     1
102
RTVSPost2010Prop35
280
     0
102
RTVSPost2010PropOp35
 70
     1
102
RTVSPost2010Prop36
280
     0
102
RTVSPost2010PropOp36
 70
     1
102
RTVSPost2010Prop37
 90
       50
102
RTVSPost2010PropOp37
 70
     1
102
RTVSPost2010Prop38
140
0.0
102
RTVSPost2010PropOp38
 70
     1
102
RTVSPost2010Prop39
140
1.0
102
RTVSPost2010PropOp39
 70
     1
102
RTVSPost2010Prop40
 90
        0
102
RTVSPost2010PropOp40
 70
     1
102
RTVSPost2010Prop41ColorIndex
 90
       18
102
RTVSPost2010Prop41ColorRGB
 90
        0
102
RTVSPost2010PropOp41
 70
     1
102
RTVSPost2010Prop42
 90
       50
102
RTVSPost2010PropOp42
 70
     1
102
RTVSPost2010Prop43
 90
        3
102
RTVSPost2010PropOp43
 70
     1
102
RTVSPost2010Prop44ColorIndex
 90
        5
102
RTVSPost2010Prop44ColorRGB
 90
      255
102
RTVSPost2010PropOp44
 70
     1
102
RTVSPost2010Prop45
280
     0
102
RTVSPost2010PropOp45
 70
     1
102
RTVSPost2010Prop46
 90
       50
102
RTVSPost2010PropOp46
 70
     1
102
RTVSPost2010Prop47
 90
       50
102
RTVSPost2010PropOp47
 70
     1
102
RTVSPost2010Prop48
 90
       50
102
RTVSPost2010PropOp48
 70
     1
102
RTVSPost2010Prop49
280
     0
102
RTVSPost2010PropOp49
 70
     1
102
RTVSPost2010Prop50
 90
       50
102
RTVSPost2010PropOp50
 70
     1
102
RTVSPost2010Prop51ColorIndex
 90
      256
102
RTVSPost2010Prop51ColorRGB
 90
-16777216
102
RTVSPost2010PropOp51
 70
     0
102
RTVSPost2010Prop52
140
1.0
102
RTVSPost2010PropOp52
 70
     0
102
RTVSPost2010Prop53
 90
        2
102
RTVSPost2010PropOp53
 70
     1
102
RTVSPost2010Prop54
  1
strokes_ogs.tif
102
RTVSPost2010PropOp54
 70
     1
102
RTVSPost2010Prop55
280
     0
102
RTVSPost2010PropOp55
 70
     1
102
RTVSPost2010Prop56
140
1.0
102
RTVSPost2010PropOp56
 70
     1
102
RTVSPost2010Prop57
140
1.0
102
RTVSPost2010PropOp57
 70
     1
102
RTVSPropertyOp0
 70
     1
102
RTVSPropertyOp1
 70
     1
102
RTVSPropertyOp2
 70
     1
102
RTVSPropertyOp3
 70
     1
102
RTVSPropertyOp4
 70
     1
102
RTVSPropertyOp5
 70
     1
102
RTVSPropertyOp6
 70
     1
102
RTVSPropertyOp7
 70
     1
102
RTVSPropertyOp8
 70
     1
102
RTVSPropertyOp9
 70
     1
102
RTVSPropertyOp10
 70
     1
102
RTVSPropertyOp11
 70
     1
102
RTVSPropertyOp12
 70
     1
102
RTVSPropertyOp13
 70
     1
102
RTVSPropertyOp14
 70
     1
102
RTVSPropertyOp15
 70
     1
102
RTVSPropertyOp16
 70
     1
102
RTVSPropertyOp17
 70
     1
102
RTVSPropertyOp18
 70
     1
102
RTVSPropertyOp19
 70
     1
102
RTVSPropertyOp20
 70
     1
102
RTVSPropertyOp21
 70
     1
102
RTVSPropertyOp22
 70
     1
102
RTVSPropertyOp23
 70
     1
102
RTVSPropertyOp24
 70
     1
102
RTVSPropertyOp25
 70
     1
102
RTVSPropertyOp26
 70
     1
102
RTVSPropertyOp27
 70
     1
102
RTVSPropertyOp28
 70
     1
102
RTVSPropertyOp29
 70
     1
102
RTVSPropertyOp30
 70
     1
102
RTVSPropertyOp31
 70
     1
102
RTVSPropertyOp32
 70
     1
102
RTVSPropertyOp33
 70
     1
102
RTVSPropertyOp34
 70
     1
102
RTVSPropertyOp35
 70
     1
102
RTVSPropertyOp36
 70
     1
102
RTVSPropertyOp37
 70
     1
102
RTVSPropertyOp38
 70
     1
102
RTVSPropertyOp39
 70
     1
102
RTVSPropertyOp40
 70
     1
102
RTVSPropertyOp41
 70
     1
102
RTVSPropertyOp42
 70
     1
102
RTVSPropertyOp43
 70
     1
102
RTVSPropertyOp44
 70
     1
102
RTVSPropertyOp45
 70
     1
102
RTVSPropertyOp46
 70
     1
102
RTVSPropertyOp47
 70
     1
102
RTVSPropertyOp48
 70
     1
102
RTVSPropertyOp49
 70
     1
102
RTVSPropertyOp50
 70
     1
102
RTVSPropertyOp51
 70
     0
102
RTVSPropertyOp52
 70
     0
102
RTVSPropertyOp53
 70
     1
102
RTVSPropertyOp54
 70
     1
102
RTVSPropertyOp55
 70
     1
102
RTVSPropertyOp56
 70
     1
102
RTVSPropertyOp57
 70
     1
102
RTVSPropertyOp58
 70
     1
102
RTVSPropertyOp59
 70
     1
102
RTVSPropertyOp60
 70
     1
102
RTVSPropertyOp61
 70
     1
102
RTVSPropertyOp62
 70
     1
  0
XRECORD
  5
A97
102
{ACAD_REACTORS
330
A96
102
}
330
A96
100
AcDbXrecord
280
     1
102
RTVSPost2010Prop28
280
     0
102
RTVSPost2010PropOp28
 70
     1
102
RTVSPost2010Prop29
280
     1
102
RTVSPost2010PropOp29
 70
     1
102
RTVSPost2010Prop30
280
     1
102
RTVSPost2010PropOp30
 70
     1
102
RTVSPost2010Prop31
280
     0
102
RTVSPost2010PropOp31
 70
     1
102
RTVSPost2010Prop32
280
     0
102
RTVSPost2010PropOp32
 70
     1
102
RTVSPost2010Prop33
280
     0
102
RTVSPost2010PropOp33
 70
     1
102
RTVSPost2010Prop34
280
     0
102
RTVSPost2010PropOp34
 70
     1
102
RTVSPost2010Prop35
280
     0
102
RTVSPost2010PropOp35
 70
     1
102
RTVSPost2010Prop36
280
     0
102
RTVSPost2010PropOp36
 70
     1
102
RTVSPost2010Prop37
 90
       50
102
RTVSPost2010PropOp37
 70
     1
102
RTVSPost2010Prop38
140
0.0
102
RTVSPost2010PropOp38
 70
     1
102
RTVSPost2010Prop39
140
1.0
102
RTVSPost2010PropOp39
 70
     1
102
RTVSPost2010Prop40
 90
        0
102
RTVSPost2010PropOp40
 70
     1
102
RTVSPost2010Prop41ColorIndex
 90
       18
102
RTVSPost2010Prop41ColorRGB
 90
        0
102
RTVSPost2010PropOp41
 70
     1
102
RTVSPost2010Prop42
 90
       50
102
RTVSPost2010PropOp42
 70
     1
102
RTVSPost2010Prop43
 90
        3
102
RTVSPost2010PropOp43
 70
     1
102
RTVSPost2010Prop44ColorIndex
 90
        5
102
RTVSPost2010Prop44ColorRGB
 90
      255
102
RTVSPost2010PropOp44
 70
     1
102
RTVSPost2010Prop45
280
     0
102
RTVSPost2010PropOp45
 70
     1
102
RTVSPost2010Prop46
 90
       50
102
RTVSPost2010PropOp46
 70
     1
102
RTVSPost2010Prop47
 90
       50
102
RTVSPost2010PropOp47
 70
     1
102
RTVSPost2010Prop48
 90
       50
102
RTVSPost2010PropOp48
 70
     1
102
RTVSPost2010Prop49
280
     0
102
RTVSPost2010PropOp49
 70
     1
102
RTVSPost2010Prop50
 90
       50
102
RTVSPost2010PropOp50
 70
     1
102
RTVSPost2010Prop51ColorIndex
 90
      256
102
RTVSPost2010Prop51ColorRGB
 90
-16777216
102
RTVSPost2010PropOp51
 70
     0
102
RTVSPost2010Prop52
140
1.0
102
RTVSPost2010PropOp52
 70
     0
102
RTVSPost2010Prop53
 90
        2
102
RTVSPost2010PropOp53
 70
     1
102
RTVSPost2010Prop54
  1
strokes_ogs.tif
102
RTVSPost2010PropOp54
 70
     1
102
RTVSPost2010Prop55
280
     0
102
RTVSPost2010PropOp55
 70
     1
102
RTVSPost2010Prop56
140
1.0
102
RTVSPost2010PropOp56
 70
     1
102
RTVSPost2010Prop57
140
1.0
102
RTVSPost2010PropOp57
 70
     1
102
RTVSPropertyOp0
 70
     1
102
RTVSPropertyOp1
 70
     1
102
RTVSPropertyOp2
 70
     1
102
RTVSPropertyOp3
 70
     1
102
RTVSPropertyOp4
 70
     1
102
RTVSPropertyOp5
 70
     1
102
RTVSPropertyOp6
 70
     1
102
RTVSPropertyOp7
 70
     1
102
RTVSPropertyOp8
 70
     1
102
RTVSPropertyOp9
 70
     1
102
RTVSPropertyOp10
 70
     1
102
RTVSPropertyOp11
 70
     1
102
RTVSPropertyOp12
 70
     1
102
RTVSPropertyOp13
 70
     1
102
RTVSPropertyOp14
 70
     1
102
RTVSPropertyOp15
 70
     1
102
RTVSPropertyOp16
 70
     1
102
RTVSPropertyOp17
 70
     1
102
RTVSPropertyOp18
 70
     1
102
RTVSPropertyOp19
 70
     1
102
RTVSPropertyOp20
 70
     1
102
RTVSPropertyOp21
 70
     1
102
RTVSPropertyOp22
 70
     1
102
RTVSPropertyOp23
 70
     1
102
RTVSPropertyOp24
 70
     1
102
RTVSPropertyOp25
 70
     1
102
RTVSPropertyOp26
 70
     1
102
RTVSPropertyOp27
 70
     1
102
RTVSPropertyOp28
 70
     1
102
RTVSPropertyOp29
 70
     1
102
RTVSPropertyOp30
 70
     1
102
RTVSPropertyOp31
 70
     1
102
RTVSPropertyOp32
 70
     1
102
RTVSPropertyOp33
 70
     1
102
RTVSPropertyOp34
 70
     1
102
RTVSPropertyOp35
 70
     1
102
RTVSPropertyOp36
 70
     1
102
RTVSPropertyOp37
 70
     1
102
RTVSPropertyOp38
 70
     1
102
RTVSPropertyOp39
 70
     1
102
RTVSPropertyOp40
 70
     1
102
RTVSPropertyOp41
 70
     1
102
RTVSPropertyOp42
 70
     1
102
RTVSPropertyOp43
 70
     1
102
RTVSPropertyOp44
 70
     1
102
RTVSPropertyOp45
 70
     1
102
RTVSPropertyOp46
 70
     1
102
RTVSPropertyOp47
 70
     1
102
RTVSPropertyOp48
 70
     1
102
RTVSPropertyOp49
 70
     1
102
RTVSPropertyOp50
 70
     1
102
RTVSPropertyOp51
 70
     0
102
RTVSPropertyOp52
 70
     0
102
RTVSPropertyOp53
 70
     1
102
RTVSPropertyOp54
 70
     1
102
RTVSPropertyOp55
 70
     1
102
RTVSPropertyOp56
 70
     1
102
RTVSPropertyOp57
 70
     1
102
RTVSPropertyOp58
 70
     1
102
RTVSPropertyOp59
 70
     1
102
RTVSPropertyOp60
 70
     1
102
RTVSPropertyOp61
 70
     1
102
RTVSPropertyOp62
 70
     1
  0
XRECORD
  5
A89
102
{ACAD_REACTORS
330
A88
102
}
330
A88
100
AcDbXrecord
280
     1
102
RTVSPost2010Prop28
280
     0
102
RTVSPost2010PropOp28
 70
     1
102
RTVSPost2010Prop29
280
     1
102
RTVSPost2010PropOp29
 70
     1
102
RTVSPost2010Prop30
280
     1
102
RTVSPost2010PropOp30
 70
     1
102
RTVSPost2010Prop31
280
     0
102
RTVSPost2010PropOp31
 70
     1
102
RTVSPost2010Prop32
280
     0
102
RTVSPost2010PropOp32
 70
     1
102
RTVSPost2010Prop33
280
     0
102
RTVSPost2010PropOp33
 70
     1
102
RTVSPost2010Prop34
280
     0
102
RTVSPost2010PropOp34
 70
     1
102
RTVSPost2010Prop35
280
     0
102
RTVSPost2010PropOp35
 70
     1
102
RTVSPost2010Prop36
280
     0
102
RTVSPost2010PropOp36
 70
     1
102
RTVSPost2010Prop37
 90
       50
102
RTVSPost2010PropOp37
 70
     1
102
RTVSPost2010Prop38
140
0.0
102
RTVSPost2010PropOp38
 70
     1
102
RTVSPost2010Prop39
140
1.0
102
RTVSPost2010PropOp39
 70
     1
102
RTVSPost2010Prop40
 90
        0
102
RTVSPost2010PropOp40
 70
     1
102
RTVSPost2010Prop41ColorIndex
 90
       18
102
RTVSPost2010Prop41ColorRGB
 90
        0
102
RTVSPost2010PropOp41
 70
     1
102
RTVSPost2010Prop42
 90
       50
102
RTVSPost2010PropOp42
 70
     1
102
RTVSPost2010Prop43
 90
        3
102
RTVSPost2010PropOp43
 70
     1
102
RTVSPost2010Prop44ColorIndex
 90
        5
102
RTVSPost2010Prop44ColorRGB
 90
      255
102
RTVSPost2010PropOp44
 70
     1
102
RTVSPost2010Prop45
280
     0
102
RTVSPost2010PropOp45
 70
     1
102
RTVSPost2010Prop46
 90
       50
102
RTVSPost2010PropOp46
 70
     1
102
RTVSPost2010Prop47
 90
       50
102
RTVSPost2010PropOp47
 70
     1
102
RTVSPost2010Prop48
 90
       50
102
RTVSPost2010PropOp48
 70
     1
102
RTVSPost2010Prop49
280
     0
102
RTVSPost2010PropOp49
 70
     1
102
RTVSPost2010Prop50
 90
       50
102
RTVSPost2010PropOp50
 70
     1
102
RTVSPost2010Prop51ColorIndex
 90
      256
102
RTVSPost2010Prop51ColorRGB
 90
-16777216
102
RTVSPost2010PropOp51
 70
     0
102
RTVSPost2010Prop52
140
1.0
102
RTVSPost2010PropOp52
 70
     0
102
RTVSPost2010Prop53
 90
        2
102
RTVSPost2010PropOp53
 70
     1
102
RTVSPost2010Prop54
  1
strokes_ogs.tif
102
RTVSPost2010PropOp54
 70
     1
102
RTVSPost2010Prop55
280
     0
102
RTVSPost2010PropOp55
 70
     1
102
RTVSPost2010Prop56
140
1.0
102
RTVSPost2010PropOp56
 70
     1
102
RTVSPost2010Prop57
140
1.0
102
RTVSPost2010PropOp57
 70
     1
102
RTVSPropertyOp0
 70
     1
102
RTVSPropertyOp1
 70
     1
102
RTVSPropertyOp2
 70
     1
102
RTVSPropertyOp3
 70
     1
102
RTVSPropertyOp4
 70
     1
102
RTVSPropertyOp5
 70
     1
102
RTVSPropertyOp6
 70
     1
102
RTVSPropertyOp7
 70
     1
102
RTVSPropertyOp8
 70
     1
102
RTVSPropertyOp9
 70
     1
102
RTVSPropertyOp10
 70
     1
102
RTVSPropertyOp11
 70
     1
102
RTVSPropertyOp12
 70
     1
102
RTVSPropertyOp13
 70
     1
102
RTVSPropertyOp14
 70
     1
102
RTVSPropertyOp15
 70
     1
102
RTVSPropertyOp16
 70
     1
102
RTVSPropertyOp17
 70
     1
102
RTVSPropertyOp18
 70
     1
102
RTVSPropertyOp19
 70
     1
102
RTVSPropertyOp20
 70
     1
102
RTVSPropertyOp21
 70
     1
102
RTVSPropertyOp22
 70
     1
102
RTVSPropertyOp23
 70
     1
102
RTVSPropertyOp24
 70
     1
102
RTVSPropertyOp25
 70
     1
102
RTVSPropertyOp26
 70
     1
102
RTVSPropertyOp27
 70
     1
102
RTVSPropertyOp28
 70
     1
102
RTVSPropertyOp29
 70
     1
102
RTVSPropertyOp30
 70
     1
102
RTVSPropertyOp31
 70
     1
102
RTVSPropertyOp32
 70
     1
102
RTVSPropertyOp33
 70
     1
102
RTVSPropertyOp34
 70
     1
102
RTVSPropertyOp35
 70
     1
102
RTVSPropertyOp36
 70
     1
102
RTVSPropertyOp37
 70
     1
102
RTVSPropertyOp38
 70
     1
102
RTVSPropertyOp39
 70
     1
102
RTVSPropertyOp40
 70
     1
102
RTVSPropertyOp41
 70
     1
102
RTVSPropertyOp42
 70
     1
102
RTVSPropertyOp43
 70
     1
102
RTVSPropertyOp44
 70
     1
102
RTVSPropertyOp45
 70
     1
102
RTVSPropertyOp46
 70
     1
102
RTVSPropertyOp47
 70
     1
102
RTVSPropertyOp48
 70
     1
102
RTVSPropertyOp49
 70
     1
102
RTVSPropertyOp50
 70
     1
102
RTVSPropertyOp51
 70
     0
102
RTVSPropertyOp52
 70
     0
102
RTVSPropertyOp53
 70
     1
102
RTVSPropertyOp54
 70
     1
102
RTVSPropertyOp55
 70
     1
102
RTVSPropertyOp56
 70
     1
102
RTVSPropertyOp57
 70
     1
102
RTVSPropertyOp58
 70
     1
102
RTVSPropertyOp59
 70
     1
102
RTVSPropertyOp60
 70
     1
102
RTVSPropertyOp61
 70
     1
102
RTVSPropertyOp62
 70
     1
  0
XRECORD
  5
A8D
102
{ACAD_REACTORS
330
A8C
102
}
330
A8C
100
AcDbXrecord
280
     1
102
RTVSPost2010Prop28
280
     0
102
RTVSPost2010PropOp28
 70
     1
102
RTVSPost2010Prop29
280
     1
102
RTVSPost2010PropOp29
 70
     1
102
RTVSPost2010Prop30
280
     1
102
RTVSPost2010PropOp30
 70
     1
102
RTVSPost2010Prop31
280
     0
102
RTVSPost2010PropOp31
 70
     1
102
RTVSPost2010Prop32
280
     0
102
RTVSPost2010PropOp32
 70
     1
102
RTVSPost2010Prop33
280
     0
102
RTVSPost2010PropOp33
 70
     1
102
RTVSPost2010Prop34
280
     0
102
RTVSPost2010PropOp34
 70
     1
102
RTVSPost2010Prop35
280
     0
102
RTVSPost2010PropOp35
 70
     1
102
RTVSPost2010Prop36
280
     0
102
RTVSPost2010PropOp36
 70
     1
102
RTVSPost2010Prop37
 90
       50
102
RTVSPost2010PropOp37
 70
     1
102
RTVSPost2010Prop38
140
0.0
102
RTVSPost2010PropOp38
 70
     1
102
RTVSPost2010Prop39
140
1.0
102
RTVSPost2010PropOp39
 70
     1
102
RTVSPost2010Prop40
 90
        0
102
RTVSPost2010PropOp40
 70
     1
102
RTVSPost2010Prop41ColorIndex
 90
       18
102
RTVSPost2010Prop41ColorRGB
 90
        0
102
RTVSPost2010PropOp41
 70
     1
102
RTVSPost2010Prop42
 90
       50
102
RTVSPost2010PropOp42
 70
     1
102
RTVSPost2010Prop43
 90
        3
102
RTVSPost2010PropOp43
 70
     1
102
RTVSPost2010Prop44ColorIndex
 90
        5
102
RTVSPost2010Prop44ColorRGB
 90
      255
102
RTVSPost2010PropOp44
 70
     1
102
RTVSPost2010Prop45
280
     0
102
RTVSPost2010PropOp45
 70
     1
102
RTVSPost2010Prop46
 90
       50
102
RTVSPost2010PropOp46
 70
     1
102
RTVSPost2010Prop47
 90
       50
102
RTVSPost2010PropOp47
 70
     1
102
RTVSPost2010Prop48
 90
       50
102
RTVSPost2010PropOp48
 70
     1
102
RTVSPost2010Prop49
280
     0
102
RTVSPost2010PropOp49
 70
     1
102
RTVSPost2010Prop50
 90
       50
102
RTVSPost2010PropOp50
 70
     1
102
RTVSPost2010Prop51ColorIndex
 90
      256
102
RTVSPost2010Prop51ColorRGB
 90
-16777216
102
RTVSPost2010PropOp51
 70
     0
102
RTVSPost2010Prop52
140
1.0
102
RTVSPost2010PropOp52
 70
     0
102
RTVSPost2010Prop53
 90
        2
102
RTVSPost2010PropOp53
 70
     1
102
RTVSPost2010Prop54
  1
strokes_ogs.tif
102
RTVSPost2010PropOp54
 70
     1
102
RTVSPost2010Prop55
280
     0
102
RTVSPost2010PropOp55
 70
     1
102
RTVSPost2010Prop56
140
1.0
102
RTVSPost2010PropOp56
 70
     1
102
RTVSPost2010Prop57
140
1.0
102
RTVSPost2010PropOp57
 70
     1
102
RTVSPropertyOp0
 70
     1
102
RTVSPropertyOp1
 70
     1
102
RTVSPropertyOp2
 70
     1
102
RTVSPropertyOp3
 70
     1
102
RTVSPropertyOp4
 70
     1
102
RTVSPropertyOp5
 70
     1
102
RTVSPropertyOp6
 70
     1
102
RTVSPropertyOp7
 70
     1
102
RTVSPropertyOp8
 70
     1
102
RTVSPropertyOp9
 70
     1
102
RTVSPropertyOp10
 70
     1
102
RTVSPropertyOp11
 70
     1
102
RTVSPropertyOp12
 70
     1
102
RTVSPropertyOp13
 70
     1
102
RTVSPropertyOp14
 70
     1
102
RTVSPropertyOp15
 70
     1
102
RTVSPropertyOp16
 70
     1
102
RTVSPropertyOp17
 70
     1
102
RTVSPropertyOp18
 70
     1
102
RTVSPropertyOp19
 70
     1
102
RTVSPropertyOp20
 70
     1
102
RTVSPropertyOp21
 70
     1
102
RTVSPropertyOp22
 70
     1
102
RTVSPropertyOp23
 70
     1
102
RTVSPropertyOp24
 70
     1
102
RTVSPropertyOp25
 70
     1
102
RTVSPropertyOp26
 70
     1
102
RTVSPropertyOp27
 70
     1
102
RTVSPropertyOp28
 70
     1
102
RTVSPropertyOp29
 70
     1
102
RTVSPropertyOp30
 70
     1
102
RTVSPropertyOp31
 70
     1
102
RTVSPropertyOp32
 70
     1
102
RTVSPropertyOp33
 70
     1
102
RTVSPropertyOp34
 70
     1
102
RTVSPropertyOp35
 70
     1
102
RTVSPropertyOp36
 70
     1
102
RTVSPropertyOp37
 70
     1
102
RTVSPropertyOp38
 70
     1
102
RTVSPropertyOp39
 70
     1
102
RTVSPropertyOp40
 70
     1
102
RTVSPropertyOp41
 70
     1
102
RTVSPropertyOp42
 70
     1
102
RTVSPropertyOp43
 70
     1
102
RTVSPropertyOp44
 70
     1
102
RTVSPropertyOp45
 70
     1
102
RTVSPropertyOp46
 70
     1
102
RTVSPropertyOp47
 70
     1
102
RTVSPropertyOp48
 70
     1
102
RTVSPropertyOp49
 70
     1
102
RTVSPropertyOp50
 70
     1
102
RTVSPropertyOp51
 70
     0
102
RTVSPropertyOp52
 70
     0
102
RTVSPropertyOp53
 70
     1
102
RTVSPropertyOp54
 70
     1
102
RTVSPropertyOp55
 70
     1
102
RTVSPropertyOp56
 70
     1
102
RTVSPropertyOp57
 70
     1
102
RTVSPropertyOp58
 70
     1
102
RTVSPropertyOp59
 70
     1
102
RTVSPropertyOp60
 70
     1
102
RTVSPropertyOp61
 70
     1
102
RTVSPropertyOp62
 70
     1
  0
XRECORD
  5
AA7
102
{ACAD_REACTORS
330
AA6
102
}
330
AA6
100
AcDbXrecord
280
     1
102
RTVSPost2010Prop28
280
     0
102
RTVSPost2010PropOp28
 70
     1
102
RTVSPost2010Prop29
280
     1
102
RTVSPost2010PropOp29
 70
     1
102
RTVSPost2010Prop30
280
     1
102
RTVSPost2010PropOp30
 70
     1
102
RTVSPost2010Prop31
280
     0
102
RTVSPost2010PropOp31
 70
     1
102
RTVSPost2010Prop32
280
     0
102
RTVSPost2010PropOp32
 70
     1
102
RTVSPost2010Prop33
280
     0
102
RTVSPost2010PropOp33
 70
     1
102
RTVSPost2010Prop34
280
     0
102
RTVSPost2010PropOp34
 70
     1
102
RTVSPost2010Prop35
280
     0
102
RTVSPost2010PropOp35
 70
     1
102
RTVSPost2010Prop36
280
     0
102
RTVSPost2010PropOp36
 70
     1
102
RTVSPost2010Prop37
 90
       50
102
RTVSPost2010PropOp37
 70
     0
102
RTVSPost2010Prop38
140
0.0
102
RTVSPost2010PropOp38
 70
     0
102
RTVSPost2010Prop39
140
1.0
102
RTVSPost2010PropOp39
 70
     0
102
RTVSPost2010Prop40
 90
        0
102
RTVSPost2010PropOp40
 70
     0
102
RTVSPost2010Prop41ColorIndex
 90
       18
102
RTVSPost2010Prop41ColorRGB
 90
        0
102
RTVSPost2010PropOp41
 70
     0
102
RTVSPost2010Prop42
 90
       50
102
RTVSPost2010PropOp42
 70
     0
102
RTVSPost2010Prop43
 90
        3
102
RTVSPost2010PropOp43
 70
     0
102
RTVSPost2010Prop44ColorIndex
 90
        5
102
RTVSPost2010Prop44ColorRGB
 90
      255
102
RTVSPost2010PropOp44
 70
     0
102
RTVSPost2010Prop45
280
     0
102
RTVSPost2010PropOp45
 70
     1
102
RTVSPost2010Prop46
 90
       50
102
RTVSPost2010PropOp46
 70
     0
102
RTVSPost2010Prop47
 90
       50
102
RTVSPost2010PropOp47
 70
     0
102
RTVSPost2010Prop48
 90
       50
102
RTVSPost2010PropOp48
 70
     0
102
RTVSPost2010Prop49
280
     0
102
RTVSPost2010PropOp49
 70
     1
102
RTVSPost2010Prop50
 90
       50
102
RTVSPost2010PropOp50
 70
     0
102
RTVSPost2010Prop51ColorIndex
 90
      256
102
RTVSPost2010Prop51ColorRGB
 90
-16777216
102
RTVSPost2010PropOp51
 70
     0
102
RTVSPost2010Prop52
140
1.0
102
RTVSPost2010PropOp52
 70
     0
102
RTVSPost2010Prop53
 90
        2
102
RTVSPost2010PropOp53
 70
     0
102
RTVSPost2010Prop54
  1
strokes_ogs.tif
102
RTVSPost2010PropOp54
 70
     0
102
RTVSPost2010Prop55
280
     0
102
RTVSPost2010PropOp55
 70
     1
102
RTVSPost2010Prop56
140
1.0
102
RTVSPost2010PropOp56
 70
     0
102
RTVSPost2010Prop57
140
1.0
102
RTVSPost2010PropOp57
 70
     0
102
RTVSPropertyOp0
 70
     0
102
RTVSPropertyOp1
 70
     0
102
RTVSPropertyOp2
 70
     0
102
RTVSPropertyOp3
 70
     0
102
RTVSPropertyOp4
 70
     0
102
RTVSPropertyOp5
 70
     0
102
RTVSPropertyOp6
 70
     0
102
RTVSPropertyOp7
 70
     0
102
RTVSPropertyOp8
 70
     0
102
RTVSPropertyOp9
 70
     0
102
RTVSPropertyOp10
 70
     0
102
RTVSPropertyOp11
 70
     0
102
RTVSPropertyOp12
 70
     0
102
RTVSPropertyOp13
 70
     0
102
RTVSPropertyOp14
 70
     2
102
RTVSPropertyOp15
 70
     0
102
RTVSPropertyOp16
 70
     0
102
RTVSPropertyOp17
 70
     0
102
RTVSPropertyOp18
 70
     0
102
RTVSPropertyOp19
 70
     0
102
RTVSPropertyOp20
 70
     0
102
RTVSPropertyOp21
 70
     0
102
RTVSPropertyOp22
 70
     0
102
RTVSPropertyOp23
 70
     0
102
RTVSPropertyOp24
 70
     0
102
RTVSPropertyOp25
 70
     0
102
RTVSPropertyOp26
 70
     0
102
RTVSPropertyOp27
 70
     0
102
RTVSPropertyOp28
 70
     1
102
RTVSPropertyOp29
 70
     1
102
RTVSPropertyOp30
 70
     1
102
RTVSPropertyOp31
 70
     1
102
RTVSPropertyOp32
 70
     1
102
RTVSPropertyOp33
 70
     1
102
RTVSPropertyOp34
 70
     1
102
RTVSPropertyOp35
 70
     1
102
RTVSPropertyOp36
 70
     1
102
RTVSPropertyOp37
 70
     0
102
RTVSPropertyOp38
 70
     0
102
RTVSPropertyOp39
 70
     0
102
RTVSPropertyOp40
 70
     0
102
RTVSPropertyOp41
 70
     0
102
RTVSPropertyOp42
 70
     0
102
RTVSPropertyOp43
 70
     0
102
RTVSPropertyOp44
 70
     0
102
RTVSPropertyOp45
 70
     1
102
RTVSPropertyOp46
 70
     0
102
RTVSPropertyOp47
 70
     0
102
RTVSPropertyOp48
 70
     0
102
RTVSPropertyOp49
 70
     1
102
RTVSPropertyOp50
 70
     0
102
RTVSPropertyOp51
 70
     0
102
RTVSPropertyOp52
 70
     0
102
RTVSPropertyOp53
 70
     0
102
RTVSPropertyOp54
 70
     0
102
RTVSPropertyOp55
 70
     1
102
RTVSPropertyOp56
 70
     0
102
RTVSPropertyOp57
 70
     0
102
RTVSPropertyOp58
 70
     0
102
RTVSPropertyOp59
 70
     0
102
RTVSPropertyOp60
 70
     0
102
RTVSPropertyOp61
 70
     0
102
RTVSPropertyOp62
 70
     0
  0
XRECORD
  5
A95
102
{ACAD_REACTORS
330
A94
102
}
330
A94
100
AcDbXrecord
280
     1
102
RTVSPost2010Prop28
280
     0
102
RTVSPost2010PropOp28
 70
     1
102
RTVSPost2010Prop29
280
     1
102
RTVSPost2010PropOp29
 70
     1
102
RTVSPost2010Prop30
280
     1
102
RTVSPost2010PropOp30
 70
     1
102
RTVSPost2010Prop31
280
     0
102
RTVSPost2010PropOp31
 70
     1
102
RTVSPost2010Prop32
280
     0
102
RTVSPost2010PropOp32
 70
     1
102
RTVSPost2010Prop33
280
     0
102
RTVSPost2010PropOp33
 70
     1
102
RTVSPost2010Prop34
280
     0
102
RTVSPost2010PropOp34
 70
     1
102
RTVSPost2010Prop35
280
     0
102
RTVSPost2010PropOp35
 70
     1
102
RTVSPost2010Prop36
280
     0
102
RTVSPost2010PropOp36
 70
     1
102
RTVSPost2010Prop37
 90
       50
102
RTVSPost2010PropOp37
 70
     1
102
RTVSPost2010Prop38
140
0.0
102
RTVSPost2010PropOp38
 70
     1
102
RTVSPost2010Prop39
140
1.0
102
RTVSPost2010PropOp39
 70
     1
102
RTVSPost2010Prop40
 90
        0
102
RTVSPost2010PropOp40
 70
     1
102
RTVSPost2010Prop41ColorIndex
 90
       18
102
RTVSPost2010Prop41ColorRGB
 90
        0
102
RTVSPost2010PropOp41
 70
     1
102
RTVSPost2010Prop42
 90
       50
102
RTVSPost2010PropOp42
 70
     1
102
RTVSPost2010Prop43
 90
        3
102
RTVSPost2010PropOp43
 70
     1
102
RTVSPost2010Prop44ColorIndex
 90
        5
102
RTVSPost2010Prop44ColorRGB
 90
      255
102
RTVSPost2010PropOp44
 70
     1
102
RTVSPost2010Prop45
280
     0
102
RTVSPost2010PropOp45
 70
     1
102
RTVSPost2010Prop46
 90
       50
102
RTVSPost2010PropOp46
 70
     1
102
RTVSPost2010Prop47
 90
       50
102
RTVSPost2010PropOp47
 70
     1
102
RTVSPost2010Prop48
 90
       50
102
RTVSPost2010PropOp48
 70
     1
102
RTVSPost2010Prop49
280
     0
102
RTVSPost2010PropOp49
 70
     1
102
RTVSPost2010Prop50
 90
       50
102
RTVSPost2010PropOp50
 70
     1
102
RTVSPost2010Prop51ColorIndex
 90
      256
102
RTVSPost2010Prop51ColorRGB
 90
-16777216
102
RTVSPost2010PropOp51
 70
     0
102
RTVSPost2010Prop52
140
1.0
102
RTVSPost2010PropOp52
 70
     0
102
RTVSPost2010Prop53
 90
        2
102
RTVSPost2010PropOp53
 70
     1
102
RTVSPost2010Prop54
  1
strokes_ogs.tif
102
RTVSPost2010PropOp54
 70
     1
102
RTVSPost2010Prop55
280
     0
102
RTVSPost2010PropOp55
 70
     1
102
RTVSPost2010Prop56
140
1.0
102
RTVSPost2010PropOp56
 70
     1
102
RTVSPost2010Prop57
140
1.0
102
RTVSPost2010PropOp57
 70
     1
102
RTVSPropertyOp0
 70
     1
102
RTVSPropertyOp1
 70
     1
102
RTVSPropertyOp2
 70
     1
102
RTVSPropertyOp3
 70
     1
102
RTVSPropertyOp4
 70
     1
102
RTVSPropertyOp5
 70
     1
102
RTVSPropertyOp6
 70
     1
102
RTVSPropertyOp7
 70
     1
102
RTVSPropertyOp8
 70
     1
102
RTVSPropertyOp9
 70
     1
102
RTVSPropertyOp10
 70
     1
102
RTVSPropertyOp11
 70
     1
102
RTVSPropertyOp12
 70
     1
102
RTVSPropertyOp13
 70
     1
102
RTVSPropertyOp14
 70
     1
102
RTVSPropertyOp15
 70
     1
102
RTVSPropertyOp16
 70
     1
102
RTVSPropertyOp17
 70
     1
102
RTVSPropertyOp18
 70
     1
102
RTVSPropertyOp19
 70
     1
102
RTVSPropertyOp20
 70
     1
102
RTVSPropertyOp21
 70
     1
102
RTVSPropertyOp22
 70
     1
102
RTVSPropertyOp23
 70
     1
102
RTVSPropertyOp24
 70
     1
102
RTVSPropertyOp25
 70
     1
102
RTVSPropertyOp26
 70
     1
102
RTVSPropertyOp27
 70
     1
102
RTVSPropertyOp28
 70
     1
102
RTVSPropertyOp29
 70
     1
102
RTVSPropertyOp30
 70
     1
102
RTVSPropertyOp31
 70
     1
102
RTVSPropertyOp32
 70
     1
102
RTVSPropertyOp33
 70
     1
102
RTVSPropertyOp34
 70
     1
102
RTVSPropertyOp35
 70
     1
102
RTVSPropertyOp36
 70
     1
102
RTVSPropertyOp37
 70
     1
102
RTVSPropertyOp38
 70
     1
102
RTVSPropertyOp39
 70
     1
102
RTVSPropertyOp40
 70
     1
102
RTVSPropertyOp41
 70
     1
102
RTVSPropertyOp42
 70
     1
102
RTVSPropertyOp43
 70
     1
102
RTVSPropertyOp44
 70
     1
102
RTVSPropertyOp45
 70
     1
102
RTVSPropertyOp46
 70
     1
102
RTVSPropertyOp47
 70
     1
102
RTVSPropertyOp48
 70
     1
102
RTVSPropertyOp49
 70
     1
102
RTVSPropertyOp50
 70
     1
102
RTVSPropertyOp51
 70
     0
102
RTVSPropertyOp52
 70
     0
102
RTVSPropertyOp53
 70
     1
102
RTVSPropertyOp54
 70
     1
102
RTVSPropertyOp55
 70
     1
102
RTVSPropertyOp56
 70
     1
102
RTVSPropertyOp57
 70
     1
102
RTVSPropertyOp58
 70
     1
102
RTVSPropertyOp59
 70
     1
102
RTVSPropertyOp60
 70
     1
102
RTVSPropertyOp61
 70
     1
102
RTVSPropertyOp62
 70
     1
  0
XRECORD
  5
A79
102
{ACAD_REACTORS
330
A78
102
}
330
A78
100
AcDbXrecord
280
     1
102
RTVSPost2010Prop28
280
     0
102
RTVSPost2010PropOp28
 70
     1
102
RTVSPost2010Prop29
280
     1
102
RTVSPost2010PropOp29
 70
     1
102
RTVSPost2010Prop30
280
     1
102
RTVSPost2010PropOp30
 70
     1
102
RTVSPost2010Prop31
280
     0
102
RTVSPost2010PropOp31
 70
     1
102
RTVSPost2010Prop32
280
     0
102
RTVSPost2010PropOp32
 70
     1
102
RTVSPost2010Prop33
280
     0
102
RTVSPost2010PropOp33
 70
     1
102
RTVSPost2010Prop34
280
     0
102
RTVSPost2010PropOp34
 70
     1
102
RTVSPost2010Prop35
280
     0
102
RTVSPost2010PropOp35
 70
     1
102
RTVSPost2010Prop36
280
     0
102
RTVSPost2010PropOp36
 70
     1
102
RTVSPost2010Prop37
 90
       50
102
RTVSPost2010PropOp37
 70
     1
102
RTVSPost2010Prop38
140
0.0
102
RTVSPost2010PropOp38
 70
     1
102
RTVSPost2010Prop39
140
1.0
102
RTVSPost2010PropOp39
 70
     1
102
RTVSPost2010Prop40
 90
        0
102
RTVSPost2010PropOp40
 70
     1
102
RTVSPost2010Prop41ColorIndex
 90
       18
102
RTVSPost2010Prop41ColorRGB
 90
        0
102
RTVSPost2010PropOp41
 70
     1
102
RTVSPost2010Prop42
 90
       50
102
RTVSPost2010PropOp42
 70
     1
102
RTVSPost2010Prop43
 90
        3
102
RTVSPost2010PropOp43
 70
     1
102
RTVSPost2010Prop44ColorIndex
 90
        5
102
RTVSPost2010Prop44ColorRGB
 90
      255
102
RTVSPost2010PropOp44
 70
     1
102
RTVSPost2010Prop45
280
     0
102
RTVSPost2010PropOp45
 70
     1
102
RTVSPost2010Prop46
 90
       50
102
RTVSPost2010PropOp46
 70
     1
102
RTVSPost2010Prop47
 90
       50
102
RTVSPost2010PropOp47
 70
     1
102
RTVSPost2010Prop48
 90
       50
102
RTVSPost2010PropOp48
 70
     1
102
RTVSPost2010Prop49
280
     0
102
RTVSPost2010PropOp49
 70
     1
102
RTVSPost2010Prop50
 90
       50
102
RTVSPost2010PropOp50
 70
     1
102
RTVSPost2010Prop51ColorIndex
 90
      256
102
RTVSPost2010Prop51ColorRGB
 90
-16777216
102
RTVSPost2010PropOp51
 70
     0
102
RTVSPost2010Prop52
140
1.0
102
RTVSPost2010PropOp52
 70
     0
102
RTVSPost2010Prop53
 90
        2
102
RTVSPost2010PropOp53
 70
     1
102
RTVSPost2010Prop54
  1
strokes_ogs.tif
102
RTVSPost2010PropOp54
 70
     1
102
RTVSPost2010Prop55
280
     0
102
RTVSPost2010PropOp55
 70
     1
102
RTVSPost2010Prop56
140
1.0
102
RTVSPost2010PropOp56
 70
     1
102
RTVSPost2010Prop57
140
1.0
102
RTVSPost2010PropOp57
 70
     1
102
RTVSPropertyOp0
 70
     1
102
RTVSPropertyOp1
 70
     1
102
RTVSPropertyOp2
 70
     1
102
RTVSPropertyOp3
 70
     1
102
RTVSPropertyOp4
 70
     1
102
RTVSPropertyOp5
 70
     1
102
RTVSPropertyOp6
 70
     1
102
RTVSPropertyOp7
 70
     1
102
RTVSPropertyOp8
 70
     1
102
RTVSPropertyOp9
 70
     1
102
RTVSPropertyOp10
 70
     1
102
RTVSPropertyOp11
 70
     1
102
RTVSPropertyOp12
 70
     1
102
RTVSPropertyOp13
 70
     1
102
RTVSPropertyOp14
 70
     1
102
RTVSPropertyOp15
 70
     1
102
RTVSPropertyOp16
 70
     1
102
RTVSPropertyOp17
 70
     1
102
RTVSPropertyOp18
 70
     1
102
RTVSPropertyOp19
 70
     1
102
RTVSPropertyOp20
 70
     1
102
RTVSPropertyOp21
 70
     1
102
RTVSPropertyOp22
 70
     1
102
RTVSPropertyOp23
 70
     1
102
RTVSPropertyOp24
 70
     1
102
RTVSPropertyOp25
 70
     1
102
RTVSPropertyOp26
 70
     1
102
RTVSPropertyOp27
 70
     1
102
RTVSPropertyOp28
 70
     1
102
RTVSPropertyOp29
 70
     1
102
RTVSPropertyOp30
 70
     1
102
RTVSPropertyOp31
 70
     1
102
RTVSPropertyOp32
 70
     1
102
RTVSPropertyOp33
 70
     1
102
RTVSPropertyOp34
 70
     1
102
RTVSPropertyOp35
 70
     1
102
RTVSPropertyOp36
 70
     1
102
RTVSPropertyOp37
 70
     1
102
RTVSPropertyOp38
 70
     1
102
RTVSPropertyOp39
 70
     1
102
RTVSPropertyOp40
 70
     1
102
RTVSPropertyOp41
 70
     1
102
RTVSPropertyOp42
 70
     1
102
RTVSPropertyOp43
 70
     1
102
RTVSPropertyOp44
 70
     1
102
RTVSPropertyOp45
 70
     1
102
RTVSPropertyOp46
 70
     1
102
RTVSPropertyOp47
 70
     1
102
RTVSPropertyOp48
 70
     1
102
RTVSPropertyOp49
 70
     1
102
RTVSPropertyOp50
 70
     1
102
RTVSPropertyOp51
 70
     0
102
RTVSPropertyOp52
 70
     0
102
RTVSPropertyOp53
 70
     1
102
RTVSPropertyOp54
 70
     1
102
RTVSPropertyOp55
 70
     1
102
RTVSPropertyOp56
 70
     1
102
RTVSPropertyOp57
 70
     1
102
RTVSPropertyOp58
 70
     1
102
RTVSPropertyOp59
 70
     1
102
RTVSPropertyOp60
 70
     1
102
RTVSPropertyOp61
 70
     1
102
RTVSPropertyOp62
 70
     1
  0
XRECORD
  5
A7B
102
{ACAD_REACTORS
330
A7A
102
}
330
A7A
100
AcDbXrecord
280
     1
102
RTVSPost2010Prop28
280
     0
102
RTVSPost2010PropOp28
 70
     1
102
RTVSPost2010Prop29
280
     1
102
RTVSPost2010PropOp29
 70
     1
102
RTVSPost2010Prop30
280
     1
102
RTVSPost2010PropOp30
 70
     1
102
RTVSPost2010Prop31
280
     0
102
RTVSPost2010PropOp31
 70
     1
102
RTVSPost2010Prop32
280
     0
102
RTVSPost2010PropOp32
 70
     1
102
RTVSPost2010Prop33
280
     0
102
RTVSPost2010PropOp33
 70
     1
102
RTVSPost2010Prop34
280
     0
102
RTVSPost2010PropOp34
 70
     1
102
RTVSPost2010Prop35
280
     0
102
RTVSPost2010PropOp35
 70
     1
102
RTVSPost2010Prop36
280
     0
102
RTVSPost2010PropOp36
 70
     1
102
RTVSPost2010Prop37
 90
       50
102
RTVSPost2010PropOp37
 70
     1
102
RTVSPost2010Prop38
140
0.0
102
RTVSPost2010PropOp38
 70
     1
102
RTVSPost2010Prop39
140
1.0
102
RTVSPost2010PropOp39
 70
     1
102
RTVSPost2010Prop40
 90
        0
102
RTVSPost2010PropOp40
 70
     1
102
RTVSPost2010Prop41ColorIndex
 90
       18
102
RTVSPost2010Prop41ColorRGB
 90
        0
102
RTVSPost2010PropOp41
 70
     1
102
RTVSPost2010Prop42
 90
       50
102
RTVSPost2010PropOp42
 70
     1
102
RTVSPost2010Prop43
 90
        3
102
RTVSPost2010PropOp43
 70
     1
102
RTVSPost2010Prop44ColorIndex
 90
        5
102
RTVSPost2010Prop44ColorRGB
 90
      255
102
RTVSPost2010PropOp44
 70
     1
102
RTVSPost2010Prop45
280
     0
102
RTVSPost2010PropOp45
 70
     1
102
RTVSPost2010Prop46
 90
       50
102
RTVSPost2010PropOp46
 70
     1
102
RTVSPost2010Prop47
 90
       50
102
RTVSPost2010PropOp47
 70
     1
102
RTVSPost2010Prop48
 90
       50
102
RTVSPost2010PropOp48
 70
     1
102
RTVSPost2010Prop49
280
     0
102
RTVSPost2010PropOp49
 70
     1
102
RTVSPost2010Prop50
 90
       50
102
RTVSPost2010PropOp50
 70
     1
102
RTVSPost2010Prop51ColorIndex
 90
      256
102
RTVSPost2010Prop51ColorRGB
 90
-16777216
102
RTVSPost2010PropOp51
 70
     0
102
RTVSPost2010Prop52
140
1.0
102
RTVSPost2010PropOp52
 70
     0
102
RTVSPost2010Prop53
 90
        2
102
RTVSPost2010PropOp53
 70
     1
102
RTVSPost2010Prop54
  1
strokes_ogs.tif
102
RTVSPost2010PropOp54
 70
     1
102
RTVSPost2010Prop55
280
     0
102
RTVSPost2010PropOp55
 70
     1
102
RTVSPost2010Prop56
140
1.0
102
RTVSPost2010PropOp56
 70
     1
102
RTVSPost2010Prop57
140
1.0
102
RTVSPost2010PropOp57
 70
     1
102
RTVSPropertyOp0
 70
     1
102
RTVSPropertyOp1
 70
     1
102
RTVSPropertyOp2
 70
     1
102
RTVSPropertyOp3
 70
     1
102
RTVSPropertyOp4
 70
     1
102
RTVSPropertyOp5
 70
     1
102
RTVSPropertyOp6
 70
     1
102
RTVSPropertyOp7
 70
     1
102
RTVSPropertyOp8
 70
     1
102
RTVSPropertyOp9
 70
     1
102
RTVSPropertyOp10
 70
     1
102
RTVSPropertyOp11
 70
     1
102
RTVSPropertyOp12
 70
     1
102
RTVSPropertyOp13
 70
     1
102
RTVSPropertyOp14
 70
     1
102
RTVSPropertyOp15
 70
     1
102
RTVSPropertyOp16
 70
     1
102
RTVSPropertyOp17
 70
     1
102
RTVSPropertyOp18
 70
     1
102
RTVSPropertyOp19
 70
     1
102
RTVSPropertyOp20
 70
     1
102
RTVSPropertyOp21
 70
     1
102
RTVSPropertyOp22
 70
     1
102
RTVSPropertyOp23
 70
     1
102
RTVSPropertyOp24
 70
     1
102
RTVSPropertyOp25
 70
     1
102
RTVSPropertyOp26
 70
     1
102
RTVSPropertyOp27
 70
     1
102
RTVSPropertyOp28
 70
     1
102
RTVSPropertyOp29
 70
     1
102
RTVSPropertyOp30
 70
     1
102
RTVSPropertyOp31
 70
     1
102
RTVSPropertyOp32
 70
     1
102
RTVSPropertyOp33
 70
     1
102
RTVSPropertyOp34
 70
     1
102
RTVSPropertyOp35
 70
     1
102
RTVSPropertyOp36
 70
     1
102
RTVSPropertyOp37
 70
     1
102
RTVSPropertyOp38
 70
     1
102
RTVSPropertyOp39
 70
     1
102
RTVSPropertyOp40
 70
     1
102
RTVSPropertyOp41
 70
     1
102
RTVSPropertyOp42
 70
     1
102
RTVSPropertyOp43
 70
     1
102
RTVSPropertyOp44
 70
     1
102
RTVSPropertyOp45
 70
     1
102
RTVSPropertyOp46
 70
     1
102
RTVSPropertyOp47
 70
     1
102
RTVSPropertyOp48
 70
     1
102
RTVSPropertyOp49
 70
     1
102
RTVSPropertyOp50
 70
     1
102
RTVSPropertyOp51
 70
     0
102
RTVSPropertyOp52
 70
     0
102
RTVSPropertyOp53
 70
     1
102
RTVSPropertyOp54
 70
     1
102
RTVSPropertyOp55
 70
     1
102
RTVSPropertyOp56
 70
     1
102
RTVSPropertyOp57
 70
     1
102
RTVSPropertyOp58
 70
     1
102
RTVSPropertyOp59
 70
     1
102
RTVSPropertyOp60
 70
     1
102
RTVSPropertyOp61
 70
     1
102
RTVSPropertyOp62
 70
     1
  0
XRECORD
  5
A7D
102
{ACAD_REACTORS
330
A7C
102
}
330
A7C
100
AcDbXrecord
280
     1
102
RTVSPost2010Prop28
280
     0
102
RTVSPost2010PropOp28
 70
     1
102
RTVSPost2010Prop29
280
     1
102
RTVSPost2010PropOp29
 70
     1
102
RTVSPost2010Prop30
280
     1
102
RTVSPost2010PropOp30
 70
     1
102
RTVSPost2010Prop31
280
     0
102
RTVSPost2010PropOp31
 70
     1
102
RTVSPost2010Prop32
280
     0
102
RTVSPost2010PropOp32
 70
     1
102
RTVSPost2010Prop33
280
     0
102
RTVSPost2010PropOp33
 70
     1
102
RTVSPost2010Prop34
280
     0
102
RTVSPost2010PropOp34
 70
     1
102
RTVSPost2010Prop35
280
     0
102
RTVSPost2010PropOp35
 70
     1
102
RTVSPost2010Prop36
280
     0
102
RTVSPost2010PropOp36
 70
     1
102
RTVSPost2010Prop37
 90
       50
102
RTVSPost2010PropOp37
 70
     1
102
RTVSPost2010Prop38
140
0.0
102
RTVSPost2010PropOp38
 70
     1
102
RTVSPost2010Prop39
140
1.0
102
RTVSPost2010PropOp39
 70
     1
102
RTVSPost2010Prop40
 90
        0
102
RTVSPost2010PropOp40
 70
     1
102
RTVSPost2010Prop41ColorIndex
 90
       18
102
RTVSPost2010Prop41ColorRGB
 90
        0
102
RTVSPost2010PropOp41
 70
     1
102
RTVSPost2010Prop42
 90
       50
102
RTVSPost2010PropOp42
 70
     1
102
RTVSPost2010Prop43
 90
        3
102
RTVSPost2010PropOp43
 70
     1
102
RTVSPost2010Prop44ColorIndex
 90
        5
102
RTVSPost2010Prop44ColorRGB
 90
      255
102
RTVSPost2010PropOp44
 70
     1
102
RTVSPost2010Prop45
280
     0
102
RTVSPost2010PropOp45
 70
     1
102
RTVSPost2010Prop46
 90
       50
102
RTVSPost2010PropOp46
 70
     1
102
RTVSPost2010Prop47
 90
       50
102
RTVSPost2010PropOp47
 70
     1
102
RTVSPost2010Prop48
 90
       50
102
RTVSPost2010PropOp48
 70
     1
102
RTVSPost2010Prop49
280
     0
102
RTVSPost2010PropOp49
 70
     1
102
RTVSPost2010Prop50
 90
       50
102
RTVSPost2010PropOp50
 70
     1
102
RTVSPost2010Prop51ColorIndex
 90
      256
102
RTVSPost2010Prop51ColorRGB
 90
-16777216
102
RTVSPost2010PropOp51
 70
     0
102
RTVSPost2010Prop52
140
1.0
102
RTVSPost2010PropOp52
 70
     0
102
RTVSPost2010Prop53
 90
        2
102
RTVSPost2010PropOp53
 70
     1
102
RTVSPost2010Prop54
  1
strokes_ogs.tif
102
RTVSPost2010PropOp54
 70
     1
102
RTVSPost2010Prop55
280
     0
102
RTVSPost2010PropOp55
 70
     1
102
RTVSPost2010Prop56
140
1.0
102
RTVSPost2010PropOp56
 70
     1
102
RTVSPost2010Prop57
140
1.0
102
RTVSPost2010PropOp57
 70
     1
102
RTVSPropertyOp0
 70
     1
102
RTVSPropertyOp1
 70
     1
102
RTVSPropertyOp2
 70
     1
102
RTVSPropertyOp3
 70
     1
102
RTVSPropertyOp4
 70
     1
102
RTVSPropertyOp5
 70
     1
102
RTVSPropertyOp6
 70
     1
102
RTVSPropertyOp7
 70
     1
102
RTVSPropertyOp8
 70
     1
102
RTVSPropertyOp9
 70
     1
102
RTVSPropertyOp10
 70
     1
102
RTVSPropertyOp11
 70
     1
102
RTVSPropertyOp12
 70
     1
102
RTVSPropertyOp13
 70
     1
102
RTVSPropertyOp14
 70
     1
102
RTVSPropertyOp15
 70
     1
102
RTVSPropertyOp16
 70
     1
102
RTVSPropertyOp17
 70
     1
102
RTVSPropertyOp18
 70
     1
102
RTVSPropertyOp19
 70
     1
102
RTVSPropertyOp20
 70
     1
102
RTVSPropertyOp21
 70
     1
102
RTVSPropertyOp22
 70
     1
102
RTVSPropertyOp23
 70
     1
102
RTVSPropertyOp24
 70
     1
102
RTVSPropertyOp25
 70
     1
102
RTVSPropertyOp26
 70
     1
102
RTVSPropertyOp27
 70
     1
102
RTVSPropertyOp28
 70
     1
102
RTVSPropertyOp29
 70
     1
102
RTVSPropertyOp30
 70
     1
102
RTVSPropertyOp31
 70
     1
102
RTVSPropertyOp32
 70
     1
102
RTVSPropertyOp33
 70
     1
102
RTVSPropertyOp34
 70
     1
102
RTVSPropertyOp35
 70
     1
102
RTVSPropertyOp36
 70
     1
102
RTVSPropertyOp37
 70
     1
102
RTVSPropertyOp38
 70
     1
102
RTVSPropertyOp39
 70
     1
102
RTVSPropertyOp40
 70
     1
102
RTVSPropertyOp41
 70
     1
102
RTVSPropertyOp42
 70
     1
102
RTVSPropertyOp43
 70
     1
102
RTVSPropertyOp44
 70
     1
102
RTVSPropertyOp45
 70
     1
102
RTVSPropertyOp46
 70
     1
102
RTVSPropertyOp47
 70
     1
102
RTVSPropertyOp48
 70
     1
102
RTVSPropertyOp49
 70
     1
102
RTVSPropertyOp50
 70
     1
102
RTVSPropertyOp51
 70
     0
102
RTVSPropertyOp52
 70
     0
102
RTVSPropertyOp53
 70
     1
102
RTVSPropertyOp54
 70
     1
102
RTVSPropertyOp55
 70
     1
102
RTVSPropertyOp56
 70
     1
102
RTVSPropertyOp57
 70
     1
102
RTVSPropertyOp58
 70
     1
102
RTVSPropertyOp59
 70
     1
102
RTVSPropertyOp60
 70
     1
102
RTVSPropertyOp61
 70
     1
102
RTVSPropertyOp62
 70
     1
  0
XRECORD
  5
A7F
102
{ACAD_REACTORS
330
A7E
102
}
330
A7E
100
AcDbXrecord
280
     1
102
RTVSPost2010Prop28
280
     0
102
RTVSPost2010PropOp28
 70
     1
102
RTVSPost2010Prop29
280
     1
102
RTVSPost2010PropOp29
 70
     1
102
RTVSPost2010Prop30
280
     1
102
RTVSPost2010PropOp30
 70
     1
102
RTVSPost2010Prop31
280
     0
102
RTVSPost2010PropOp31
 70
     1
102
RTVSPost2010Prop32
280
     0
102
RTVSPost2010PropOp32
 70
     1
102
RTVSPost2010Prop33
280
     0
102
RTVSPost2010PropOp33
 70
     1
102
RTVSPost2010Prop34
280
     0
102
RTVSPost2010PropOp34
 70
     1
102
RTVSPost2010Prop35
280
     0
102
RTVSPost2010PropOp35
 70
     1
102
RTVSPost2010Prop36
280
     0
102
RTVSPost2010PropOp36
 70
     1
102
RTVSPost2010Prop37
 90
       50
102
RTVSPost2010PropOp37
 70
     1
102
RTVSPost2010Prop38
140
0.0
102
RTVSPost2010PropOp38
 70
     1
102
RTVSPost2010Prop39
140
1.0
102
RTVSPost2010PropOp39
 70
     1
102
RTVSPost2010Prop40
 90
        0
102
RTVSPost2010PropOp40
 70
     1
102
RTVSPost2010Prop41ColorIndex
 90
       18
102
RTVSPost2010Prop41ColorRGB
 90
        0
102
RTVSPost2010PropOp41
 70
     1
102
RTVSPost2010Prop42
 90
       50
102
RTVSPost2010PropOp42
 70
     1
102
RTVSPost2010Prop43
 90
        3
102
RTVSPost2010PropOp43
 70
     1
102
RTVSPost2010Prop44ColorIndex
 90
        5
102
RTVSPost2010Prop44ColorRGB
 90
      255
102
RTVSPost2010PropOp44
 70
     1
102
RTVSPost2010Prop45
280
     0
102
RTVSPost2010PropOp45
 70
     1
102
RTVSPost2010Prop46
 90
       50
102
RTVSPost2010PropOp46
 70
     1
102
RTVSPost2010Prop47
 90
       50
102
RTVSPost2010PropOp47
 70
     1
102
RTVSPost2010Prop48
 90
       50
102
RTVSPost2010PropOp48
 70
     1
102
RTVSPost2010Prop49
280
     0
102
RTVSPost2010PropOp49
 70
     1
102
RTVSPost2010Prop50
 90
       50
102
RTVSPost2010PropOp50
 70
     1
102
RTVSPost2010Prop51ColorIndex
 90
      256
102
RTVSPost2010Prop51ColorRGB
 90
-16777216
102
RTVSPost2010PropOp51
 70
     0
102
RTVSPost2010Prop52
140
1.0
102
RTVSPost2010PropOp52
 70
     0
102
RTVSPost2010Prop53
 90
        2
102
RTVSPost2010PropOp53
 70
     1
102
RTVSPost2010Prop54
  1
strokes_ogs.tif
102
RTVSPost2010PropOp54
 70
     1
102
RTVSPost2010Prop55
280
     0
102
RTVSPost2010PropOp55
 70
     1
102
RTVSPost2010Prop56
140
1.0
102
RTVSPost2010PropOp56
 70
     1
102
RTVSPost2010Prop57
140
1.0
102
RTVSPost2010PropOp57
 70
     1
102
RTVSPropertyOp0
 70
     1
102
RTVSPropertyOp1
 70
     1
102
RTVSPropertyOp2
 70
     1
102
RTVSPropertyOp3
 70
     1
102
RTVSPropertyOp4
 70
     1
102
RTVSPropertyOp5
 70
     1
102
RTVSPropertyOp6
 70
     1
102
RTVSPropertyOp7
 70
     1
102
RTVSPropertyOp8
 70
     1
102
RTVSPropertyOp9
 70
     1
102
RTVSPropertyOp10
 70
     1
102
RTVSPropertyOp11
 70
     1
102
RTVSPropertyOp12
 70
     1
102
RTVSPropertyOp13
 70
     1
102
RTVSPropertyOp14
 70
     1
102
RTVSPropertyOp15
 70
     1
102
RTVSPropertyOp16
 70
     1
102
RTVSPropertyOp17
 70
     1
102
RTVSPropertyOp18
 70
     1
102
RTVSPropertyOp19
 70
     1
102
RTVSPropertyOp20
 70
     1
102
RTVSPropertyOp21
 70
     1
102
RTVSPropertyOp22
 70
     1
102
RTVSPropertyOp23
 70
     1
102
RTVSPropertyOp24
 70
     1
102
RTVSPropertyOp25
 70
     1
102
RTVSPropertyOp26
 70
     1
102
RTVSPropertyOp27
 70
     1
102
RTVSPropertyOp28
 70
     1
102
RTVSPropertyOp29
 70
     1
102
RTVSPropertyOp30
 70
     1
102
RTVSPropertyOp31
 70
     1
102
RTVSPropertyOp32
 70
     1
102
RTVSPropertyOp33
 70
     1
102
RTVSPropertyOp34
 70
     1
102
RTVSPropertyOp35
 70
     1
102
RTVSPropertyOp36
 70
     1
102
RTVSPropertyOp37
 70
     1
102
RTVSPropertyOp38
 70
     1
102
RTVSPropertyOp39
 70
     1
102
RTVSPropertyOp40
 70
     1
102
RTVSPropertyOp41
 70
     1
102
RTVSPropertyOp42
 70
     1
102
RTVSPropertyOp43
 70
     1
102
RTVSPropertyOp44
 70
     1
102
RTVSPropertyOp45
 70
     1
102
RTVSPropertyOp46
 70
     1
102
RTVSPropertyOp47
 70
     1
102
RTVSPropertyOp48
 70
     1
102
RTVSPropertyOp49
 70
     1
102
RTVSPropertyOp50
 70
     1
102
RTVSPropertyOp51
 70
     0
102
RTVSPropertyOp52
 70
     0
102
RTVSPropertyOp53
 70
     1
102
RTVSPropertyOp54
 70
     1
102
RTVSPropertyOp55
 70
     1
102
RTVSPropertyOp56
 70
     1
102
RTVSPropertyOp57
 70
     1
102
RTVSPropertyOp58
 70
     1
102
RTVSPropertyOp59
 70
     1
102
RTVSPropertyOp60
 70
     1
102
RTVSPropertyOp61
 70
     1
102
RTVSPropertyOp62
 70
     1
  0
XRECORD
  5
A87
102
{ACAD_REACTORS
330
A86
102
}
330
A86
100
AcDbXrecord
280
     1
102
RTVSPost2010Prop28
280
     0
102
RTVSPost2010PropOp28
 70
     1
102
RTVSPost2010Prop29
280
     1
102
RTVSPost2010PropOp29
 70
     1
102
RTVSPost2010Prop30
280
     1
102
RTVSPost2010PropOp30
 70
     1
102
RTVSPost2010Prop31
280
     0
102
RTVSPost2010PropOp31
 70
     1
102
RTVSPost2010Prop32
280
     0
102
RTVSPost2010PropOp32
 70
     1
102
RTVSPost2010Prop33
280
     0
102
RTVSPost2010PropOp33
 70
     1
102
RTVSPost2010Prop34
280
     0
102
RTVSPost2010PropOp34
 70
     1
102
RTVSPost2010Prop35
280
     0
102
RTVSPost2010PropOp35
 70
     1
102
RTVSPost2010Prop36
280
     0
102
RTVSPost2010PropOp36
 70
     1
102
RTVSPost2010Prop37
 90
       50
102
RTVSPost2010PropOp37
 70
     1
102
RTVSPost2010Prop38
140
0.0
102
RTVSPost2010PropOp38
 70
     1
102
RTVSPost2010Prop39
140
1.0
102
RTVSPost2010PropOp39
 70
     1
102
RTVSPost2010Prop40
 90
        0
102
RTVSPost2010PropOp40
 70
     1
102
RTVSPost2010Prop41ColorIndex
 90
       18
102
RTVSPost2010Prop41ColorRGB
 90
        0
102
RTVSPost2010PropOp41
 70
     1
102
RTVSPost2010Prop42
 90
       50
102
RTVSPost2010PropOp42
 70
     1
102
RTVSPost2010Prop43
 90
        3
102
RTVSPost2010PropOp43
 70
     1
102
RTVSPost2010Prop44ColorIndex
 90
        5
102
RTVSPost2010Prop44ColorRGB
 90
      255
102
RTVSPost2010PropOp44
 70
     1
102
RTVSPost2010Prop45
280
     0
102
RTVSPost2010PropOp45
 70
     1
102
RTVSPost2010Prop46
 90
       50
102
RTVSPost2010PropOp46
 70
     1
102
RTVSPost2010Prop47
 90
       50
102
RTVSPost2010PropOp47
 70
     1
102
RTVSPost2010Prop48
 90
       50
102
RTVSPost2010PropOp48
 70
     1
102
RTVSPost2010Prop49
280
     0
102
RTVSPost2010PropOp49
 70
     1
102
RTVSPost2010Prop50
 90
       50
102
RTVSPost2010PropOp50
 70
     1
102
RTVSPost2010Prop51ColorIndex
 90
      256
102
RTVSPost2010Prop51ColorRGB
 90
-16777216
102
RTVSPost2010PropOp51
 70
     0
102
RTVSPost2010Prop52
140
1.0
102
RTVSPost2010PropOp52
 70
     0
102
RTVSPost2010Prop53
 90
        2
102
RTVSPost2010PropOp53
 70
     1
102
RTVSPost2010Prop54
  1
strokes_ogs.tif
102
RTVSPost2010PropOp54
 70
     1
102
RTVSPost2010Prop55
280
     0
102
RTVSPost2010PropOp55
 70
     1
102
RTVSPost2010Prop56
140
1.0
102
RTVSPost2010PropOp56
 70
     1
102
RTVSPost2010Prop57
140
1.0
102
RTVSPost2010PropOp57
 70
     1
102
RTVSPropertyOp0
 70
     1
102
RTVSPropertyOp1
 70
     1
102
RTVSPropertyOp2
 70
     1
102
RTVSPropertyOp3
 70
     1
102
RTVSPropertyOp4
 70
     1
102
RTVSPropertyOp5
 70
     1
102
RTVSPropertyOp6
 70
     1
102
RTVSPropertyOp7
 70
     1
102
RTVSPropertyOp8
 70
     1
102
RTVSPropertyOp9
 70
     1
102
RTVSPropertyOp10
 70
     1
102
RTVSPropertyOp11
 70
     1
102
RTVSPropertyOp12
 70
     1
102
RTVSPropertyOp13
 70
     1
102
RTVSPropertyOp14
 70
     1
102
RTVSPropertyOp15
 70
     1
102
RTVSPropertyOp16
 70
     1
102
RTVSPropertyOp17
 70
     1
102
RTVSPropertyOp18
 70
     1
102
RTVSPropertyOp19
 70
     1
102
RTVSPropertyOp20
 70
     1
102
RTVSPropertyOp21
 70
     1
102
RTVSPropertyOp22
 70
     1
102
RTVSPropertyOp23
 70
     1
102
RTVSPropertyOp24
 70
     1
102
RTVSPropertyOp25
 70
     1
102
RTVSPropertyOp26
 70
     1
102
RTVSPropertyOp27
 70
     1
102
RTVSPropertyOp28
 70
     1
102
RTVSPropertyOp29
 70
     1
102
RTVSPropertyOp30
 70
     1
102
RTVSPropertyOp31
 70
     1
102
RTVSPropertyOp32
 70
     1
102
RTVSPropertyOp33
 70
     1
102
RTVSPropertyOp34
 70
     1
102
RTVSPropertyOp35
 70
     1
102
RTVSPropertyOp36
 70
     1
102
RTVSPropertyOp37
 70
     1
102
RTVSPropertyOp38
 70
     1
102
RTVSPropertyOp39
 70
     1
102
RTVSPropertyOp40
 70
     1
102
RTVSPropertyOp41
 70
     1
102
RTVSPropertyOp42
 70
     1
102
RTVSPropertyOp43
 70
     1
102
RTVSPropertyOp44
 70
     1
102
RTVSPropertyOp45
 70
     1
102
RTVSPropertyOp46
 70
     1
102
RTVSPropertyOp47
 70
     1
102
RTVSPropertyOp48
 70
     1
102
RTVSPropertyOp49
 70
     1
102
RTVSPropertyOp50
 70
     1
102
RTVSPropertyOp51
 70
     0
102
RTVSPropertyOp52
 70
     0
102
RTVSPropertyOp53
 70
     1
102
RTVSPropertyOp54
 70
     1
102
RTVSPropertyOp55
 70
     1
102
RTVSPropertyOp56
 70
     1
102
RTVSPropertyOp57
 70
     1
102
RTVSPropertyOp58
 70
     1
102
RTVSPropertyOp59
 70
     1
102
RTVSPropertyOp60
 70
     1
102
RTVSPropertyOp61
 70
     1
102
RTVSPropertyOp62
 70
     1
  0
XRECORD
  5
AA3
102
{ACAD_REACTORS
330
AA2
102
}
330
AA2
100
AcDbXrecord
280
     1
102
RTVSPost2010Prop28
280
     0
102
RTVSPost2010PropOp28
 70
     1
102
RTVSPost2010Prop29
280
     1
102
RTVSPost2010PropOp29
 70
     1
102
RTVSPost2010Prop30
280
     1
102
RTVSPost2010PropOp30
 70
     1
102
RTVSPost2010Prop31
280
     0
102
RTVSPost2010PropOp31
 70
     1
102
RTVSPost2010Prop32
280
     0
102
RTVSPost2010PropOp32
 70
     1
102
RTVSPost2010Prop33
280
     0
102
RTVSPost2010PropOp33
 70
     1
102
RTVSPost2010Prop34
280
     0
102
RTVSPost2010PropOp34
 70
     1
102
RTVSPost2010Prop35
280
     0
102
RTVSPost2010PropOp35
 70
     1
102
RTVSPost2010Prop36
280
     0
102
RTVSPost2010PropOp36
 70
     1
102
RTVSPost2010Prop37
 90
       50
102
RTVSPost2010PropOp37
 70
     0
102
RTVSPost2010Prop38
140
0.0
102
RTVSPost2010PropOp38
 70
     0
102
RTVSPost2010Prop39
140
1.0
102
RTVSPost2010PropOp39
 70
     0
102
RTVSPost2010Prop40
 90
        0
102
RTVSPost2010PropOp40
 70
     0
102
RTVSPost2010Prop41ColorIndex
 90
       18
102
RTVSPost2010Prop41ColorRGB
 90
        0
102
RTVSPost2010PropOp41
 70
     0
102
RTVSPost2010Prop42
 90
       50
102
RTVSPost2010PropOp42
 70
     0
102
RTVSPost2010Prop43
 90
        3
102
RTVSPost2010PropOp43
 70
     0
102
RTVSPost2010Prop44ColorIndex
 90
        5
102
RTVSPost2010Prop44ColorRGB
 90
      255
102
RTVSPost2010PropOp44
 70
     0
102
RTVSPost2010Prop45
280
     0
102
RTVSPost2010PropOp45
 70
     1
102
RTVSPost2010Prop46
 90
       50
102
RTVSPost2010PropOp46
 70
     0
102
RTVSPost2010Prop47
 90
       50
102
RTVSPost2010PropOp47
 70
     0
102
RTVSPost2010Prop48
 90
       50
102
RTVSPost2010PropOp48
 70
     0
102
RTVSPost2010Prop49
280
     0
102
RTVSPost2010PropOp49
 70
     1
102
RTVSPost2010Prop50
 90
       50
102
RTVSPost2010PropOp50
 70
     0
102
RTVSPost2010Prop51ColorIndex
 90
      256
102
RTVSPost2010Prop51ColorRGB
 90
-16777216
102
RTVSPost2010PropOp51
 70
     0
102
RTVSPost2010Prop52
140
1.0
102
RTVSPost2010PropOp52
 70
     0
102
RTVSPost2010Prop53
 90
        2
102
RTVSPost2010PropOp53
 70
     0
102
RTVSPost2010Prop54
  1
strokes_ogs.tif
102
RTVSPost2010PropOp54
 70
     0
102
RTVSPost2010Prop55
280
     0
102
RTVSPost2010PropOp55
 70
     1
102
RTVSPost2010Prop56
140
1.0
102
RTVSPost2010PropOp56
 70
     0
102
RTVSPost2010Prop57
140
1.0
102
RTVSPost2010PropOp57
 70
     0
102
RTVSPropertyOp0
 70
     0
102
RTVSPropertyOp1
 70
     0
102
RTVSPropertyOp2
 70
     0
102
RTVSPropertyOp3
 70
     0
102
RTVSPropertyOp4
 70
     0
102
RTVSPropertyOp5
 70
     0
102
RTVSPropertyOp6
 70
     0
102
RTVSPropertyOp7
 70
     0
102
RTVSPropertyOp8
 70
     0
102
RTVSPropertyOp9
 70
     0
102
RTVSPropertyOp10
 70
     0
102
RTVSPropertyOp11
 70
     0
102
RTVSPropertyOp12
 70
     0
102
RTVSPropertyOp13
 70
     0
102
RTVSPropertyOp14
 70
     2
102
RTVSPropertyOp15
 70
     0
102
RTVSPropertyOp16
 70
     0
102
RTVSPropertyOp17
 70
     0
102
RTVSPropertyOp18
 70
     0
102
RTVSPropertyOp19
 70
     0
102
RTVSPropertyOp20
 70
     0
102
RTVSPropertyOp21
 70
     0
102
RTVSPropertyOp22
 70
     0
102
RTVSPropertyOp23
 70
     0
102
RTVSPropertyOp24
 70
     0
102
RTVSPropertyOp25
 70
     0
102
RTVSPropertyOp26
 70
     0
102
RTVSPropertyOp27
 70
     0
102
RTVSPropertyOp28
 70
     1
102
RTVSPropertyOp29
 70
     1
102
RTVSPropertyOp30
 70
     1
102
RTVSPropertyOp31
 70
     1
102
RTVSPropertyOp32
 70
     1
102
RTVSPropertyOp33
 70
     1
102
RTVSPropertyOp34
 70
     1
102
RTVSPropertyOp35
 70
     1
102
RTVSPropertyOp36
 70
     1
102
RTVSPropertyOp37
 70
     0
102
RTVSPropertyOp38
 70
     0
102
RTVSPropertyOp39
 70
     0
102
RTVSPropertyOp40
 70
     0
102
RTVSPropertyOp41
 70
     0
102
RTVSPropertyOp42
 70
     0
102
RTVSPropertyOp43
 70
     0
102
RTVSPropertyOp44
 70
     0
102
RTVSPropertyOp45
 70
     1
102
RTVSPropertyOp46
 70
     0
102
RTVSPropertyOp47
 70
     0
102
RTVSPropertyOp48
 70
     0
102
RTVSPropertyOp49
 70
     1
102
RTVSPropertyOp50
 70
     0
102
RTVSPropertyOp51
 70
     0
102
RTVSPropertyOp52
 70
     0
102
RTVSPropertyOp53
 70
     0
102
RTVSPropertyOp54
 70
     0
102
RTVSPropertyOp55
 70
     1
102
RTVSPropertyOp56
 70
     0
102
RTVSPropertyOp57
 70
     0
102
RTVSPropertyOp58
 70
     0
102
RTVSPropertyOp59
 70
     0
102
RTVSPropertyOp60
 70
     0
102
RTVSPropertyOp61
 70
     0
102
RTVSPropertyOp62
 70
     0
  0
XRECORD
  5
A93
102
{ACAD_REACTORS
330
A92
102
}
330
A92
100
AcDbXrecord
280
     1
102
RTVSPost2010Prop28
280
     0
102
RTVSPost2010PropOp28
 70
     1
102
RTVSPost2010Prop29
280
     1
102
RTVSPost2010PropOp29
 70
     1
102
RTVSPost2010Prop30
280
     1
102
RTVSPost2010PropOp30
 70
     1
102
RTVSPost2010Prop31
280
     0
102
RTVSPost2010PropOp31
 70
     1
102
RTVSPost2010Prop32
280
     0
102
RTVSPost2010PropOp32
 70
     1
102
RTVSPost2010Prop33
280
     0
102
RTVSPost2010PropOp33
 70
     1
102
RTVSPost2010Prop34
280
     0
102
RTVSPost2010PropOp34
 70
     1
102
RTVSPost2010Prop35
280
     0
102
RTVSPost2010PropOp35
 70
     1
102
RTVSPost2010Prop36
280
     0
102
RTVSPost2010PropOp36
 70
     1
102
RTVSPost2010Prop37
 90
       50
102
RTVSPost2010PropOp37
 70
     1
102
RTVSPost2010Prop38
140
0.0
102
RTVSPost2010PropOp38
 70
     1
102
RTVSPost2010Prop39
140
1.0
102
RTVSPost2010PropOp39
 70
     1
102
RTVSPost2010Prop40
 90
        0
102
RTVSPost2010PropOp40
 70
     1
102
RTVSPost2010Prop41ColorIndex
 90
       18
102
RTVSPost2010Prop41ColorRGB
 90
        0
102
RTVSPost2010PropOp41
 70
     1
102
RTVSPost2010Prop42
 90
       50
102
RTVSPost2010PropOp42
 70
     1
102
RTVSPost2010Prop43
 90
        3
102
RTVSPost2010PropOp43
 70
     1
102
RTVSPost2010Prop44ColorIndex
 90
        5
102
RTVSPost2010Prop44ColorRGB
 90
      255
102
RTVSPost2010PropOp44
 70
     1
102
RTVSPost2010Prop45
280
     0
102
RTVSPost2010PropOp45
 70
     1
102
RTVSPost2010Prop46
 90
       50
102
RTVSPost2010PropOp46
 70
     1
102
RTVSPost2010Prop47
 90
       50
102
RTVSPost2010PropOp47
 70
     1
102
RTVSPost2010Prop48
 90
       50
102
RTVSPost2010PropOp48
 70
     1
102
RTVSPost2010Prop49
280
     0
102
RTVSPost2010PropOp49
 70
     1
102
RTVSPost2010Prop50
 90
       50
102
RTVSPost2010PropOp50
 70
     1
102
RTVSPost2010Prop51ColorIndex
 90
      256
102
RTVSPost2010Prop51ColorRGB
 90
-16777216
102
RTVSPost2010PropOp51
 70
     0
102
RTVSPost2010Prop52
140
1.0
102
RTVSPost2010PropOp52
 70
     0
102
RTVSPost2010Prop53
 90
        2
102
RTVSPost2010PropOp53
 70
     1
102
RTVSPost2010Prop54
  1
strokes_ogs.tif
102
RTVSPost2010PropOp54
 70
     1
102
RTVSPost2010Prop55
280
     0
102
RTVSPost2010PropOp55
 70
     1
102
RTVSPost2010Prop56
140
1.0
102
RTVSPost2010PropOp56
 70
     1
102
RTVSPost2010Prop57
140
1.0
102
RTVSPost2010PropOp57
 70
     1
102
RTVSPropertyOp0
 70
     1
102
RTVSPropertyOp1
 70
     1
102
RTVSPropertyOp2
 70
     1
102
RTVSPropertyOp3
 70
     1
102
RTVSPropertyOp4
 70
     1
102
RTVSPropertyOp5
 70
     1
102
RTVSPropertyOp6
 70
     1
102
RTVSPropertyOp7
 70
     1
102
RTVSPropertyOp8
 70
     1
102
RTVSPropertyOp9
 70
     1
102
RTVSPropertyOp10
 70
     1
102
RTVSPropertyOp11
 70
     1
102
RTVSPropertyOp12
 70
     1
102
RTVSPropertyOp13
 70
     1
102
RTVSPropertyOp14
 70
     1
102
RTVSPropertyOp15
 70
     1
102
RTVSPropertyOp16
 70
     1
102
RTVSPropertyOp17
 70
     1
102
RTVSPropertyOp18
 70
     1
102
RTVSPropertyOp19
 70
     1
102
RTVSPropertyOp20
 70
     1
102
RTVSPropertyOp21
 70
     1
102
RTVSPropertyOp22
 70
     1
102
RTVSPropertyOp23
 70
     1
102
RTVSPropertyOp24
 70
     1
102
RTVSPropertyOp25
 70
     1
102
RTVSPropertyOp26
 70
     1
102
RTVSPropertyOp27
 70
     1
102
RTVSPropertyOp28
 70
     1
102
RTVSPropertyOp29
 70
     1
102
RTVSPropertyOp30
 70
     1
102
RTVSPropertyOp31
 70
     1
102
RTVSPropertyOp32
 70
     1
102
RTVSPropertyOp33
 70
     1
102
RTVSPropertyOp34
 70
     1
102
RTVSPropertyOp35
 70
     1
102
RTVSPropertyOp36
 70
     1
102
RTVSPropertyOp37
 70
     1
102
RTVSPropertyOp38
 70
     1
102
RTVSPropertyOp39
 70
     1
102
RTVSPropertyOp40
 70
     1
102
RTVSPropertyOp41
 70
     1
102
RTVSPropertyOp42
 70
     1
102
RTVSPropertyOp43
 70
     1
102
RTVSPropertyOp44
 70
     1
102
RTVSPropertyOp45
 70
     1
102
RTVSPropertyOp46
 70
     1
102
RTVSPropertyOp47
 70
     1
102
RTVSPropertyOp48
 70
     1
102
RTVSPropertyOp49
 70
     1
102
RTVSPropertyOp50
 70
     1
102
RTVSPropertyOp51
 70
     0
102
RTVSPropertyOp52
 70
     0
102
RTVSPropertyOp53
 70
     1
102
RTVSPropertyOp54
 70
     1
102
RTVSPropertyOp55
 70
     1
102
RTVSPropertyOp56
 70
     1
102
RTVSPropertyOp57
 70
     1
102
RTVSPropertyOp58
 70
     1
102
RTVSPropertyOp59
 70
     1
102
RTVSPropertyOp60
 70
     1
102
RTVSPropertyOp61
 70
     1
102
RTVSPropertyOp62
 70
     1
  0
XRECORD
  5
AA5
102
{ACAD_REACTORS
330
AA4
102
}
330
AA4
100
AcDbXrecord
280
     1
102
RTVSPost2010Prop28
280
     0
102
RTVSPost2010PropOp28
 70
     1
102
RTVSPost2010Prop29
280
     1
102
RTVSPost2010PropOp29
 70
     1
102
RTVSPost2010Prop30
280
     1
102
RTVSPost2010PropOp30
 70
     1
102
RTVSPost2010Prop31
280
     0
102
RTVSPost2010PropOp31
 70
     1
102
RTVSPost2010Prop32
280
     0
102
RTVSPost2010PropOp32
 70
     1
102
RTVSPost2010Prop33
280
     0
102
RTVSPost2010PropOp33
 70
     1
102
RTVSPost2010Prop34
280
     0
102
RTVSPost2010PropOp34
 70
     1
102
RTVSPost2010Prop35
280
     0
102
RTVSPost2010PropOp35
 70
     1
102
RTVSPost2010Prop36
280
     0
102
RTVSPost2010PropOp36
 70
     1
102
RTVSPost2010Prop37
 90
       50
102
RTVSPost2010PropOp37
 70
     0
102
RTVSPost2010Prop38
140
0.0
102
RTVSPost2010PropOp38
 70
     0
102
RTVSPost2010Prop39
140
1.0
102
RTVSPost2010PropOp39
 70
     0
102
RTVSPost2010Prop40
 90
        0
102
RTVSPost2010PropOp40
 70
     0
102
RTVSPost2010Prop41ColorIndex
 90
       18
102
RTVSPost2010Prop41ColorRGB
 90
        0
102
RTVSPost2010PropOp41
 70
     0
102
RTVSPost2010Prop42
 90
       50
102
RTVSPost2010PropOp42
 70
     0
102
RTVSPost2010Prop43
 90
        3
102
RTVSPost2010PropOp43
 70
     0
102
RTVSPost2010Prop44ColorIndex
 90
        5
102
RTVSPost2010Prop44ColorRGB
 90
      255
102
RTVSPost2010PropOp44
 70
     0
102
RTVSPost2010Prop45
280
     0
102
RTVSPost2010PropOp45
 70
     1
102
RTVSPost2010Prop46
 90
       50
102
RTVSPost2010PropOp46
 70
     0
102
RTVSPost2010Prop47
 90
       50
102
RTVSPost2010PropOp47
 70
     0
102
RTVSPost2010Prop48
 90
       50
102
RTVSPost2010PropOp48
 70
     0
102
RTVSPost2010Prop49
280
     0
102
RTVSPost2010PropOp49
 70
     1
102
RTVSPost2010Prop50
 90
       50
102
RTVSPost2010PropOp50
 70
     0
102
RTVSPost2010Prop51ColorIndex
 90
      256
102
RTVSPost2010Prop51ColorRGB
 90
-16777216
102
RTVSPost2010PropOp51
 70
     0
102
RTVSPost2010Prop52
140
1.0
102
RTVSPost2010PropOp52
 70
     0
102
RTVSPost2010Prop53
 90
        2
102
RTVSPost2010PropOp53
 70
     0
102
RTVSPost2010Prop54
  1
strokes_ogs.tif
102
RTVSPost2010PropOp54
 70
     0
102
RTVSPost2010Prop55
280
     0
102
RTVSPost2010PropOp55
 70
     1
102
RTVSPost2010Prop56
140
1.0
102
RTVSPost2010PropOp56
 70
     0
102
RTVSPost2010Prop57
140
1.0
102
RTVSPost2010PropOp57
 70
     0
102
RTVSPropertyOp0
 70
     0
102
RTVSPropertyOp1
 70
     0
102
RTVSPropertyOp2
 70
     0
102
RTVSPropertyOp3
 70
     0
102
RTVSPropertyOp4
 70
     0
102
RTVSPropertyOp5
 70
     0
102
RTVSPropertyOp6
 70
     0
102
RTVSPropertyOp7
 70
     0
102
RTVSPropertyOp8
 70
     0
102
RTVSPropertyOp9
 70
     0
102
RTVSPropertyOp10
 70
     0
102
RTVSPropertyOp11
 70
     0
102
RTVSPropertyOp12
 70
     0
102
RTVSPropertyOp13
 70
     0
102
RTVSPropertyOp14
 70
     2
102
RTVSPropertyOp15
 70
     0
102
RTVSPropertyOp16
 70
     0
102
RTVSPropertyOp17
 70
     0
102
RTVSPropertyOp18
 70
     0
102
RTVSPropertyOp19
 70
     0
102
RTVSPropertyOp20
 70
     0
102
RTVSPropertyOp21
 70
     0
102
RTVSPropertyOp22
 70
     0
102
RTVSPropertyOp23
 70
     0
102
RTVSPropertyOp24
 70
     0
102
RTVSPropertyOp25
 70
     0
102
RTVSPropertyOp26
 70
     0
102
RTVSPropertyOp27
 70
     0
102
RTVSPropertyOp28
 70
     1
102
RTVSPropertyOp29
 70
     1
102
RTVSPropertyOp30
 70
     1
102
RTVSPropertyOp31
 70
     1
102
RTVSPropertyOp32
 70
     1
102
RTVSPropertyOp33
 70
     1
102
RTVSPropertyOp34
 70
     1
102
RTVSPropertyOp35
 70
     1
102
RTVSPropertyOp36
 70
     1
102
RTVSPropertyOp37
 70
     0
102
RTVSPropertyOp38
 70
     0
102
RTVSPropertyOp39
 70
     0
102
RTVSPropertyOp40
 70
     0
102
RTVSPropertyOp41
 70
     0
102
RTVSPropertyOp42
 70
     0
102
RTVSPropertyOp43
 70
     0
102
RTVSPropertyOp44
 70
     0
102
RTVSPropertyOp45
 70
     1
102
RTVSPropertyOp46
 70
     0
102
RTVSPropertyOp47
 70
     0
102
RTVSPropertyOp48
 70
     0
102
RTVSPropertyOp49
 70
     1
102
RTVSPropertyOp50
 70
     0
102
RTVSPropertyOp51
 70
     0
102
RTVSPropertyOp52
 70
     0
102
RTVSPropertyOp53
 70
     0
102
RTVSPropertyOp54
 70
     0
102
RTVSPropertyOp55
 70
     1
102
RTVSPropertyOp56
 70
     0
102
RTVSPropertyOp57
 70
     0
102
RTVSPropertyOp58
 70
     0
102
RTVSPropertyOp59
 70
     0
102
RTVSPropertyOp60
 70
     0
102
RTVSPropertyOp61
 70
     0
102
RTVSPropertyOp62
 70
     0
  0
XRECORD
  5
A8B
102
{ACAD_REACTORS
330
A8A
102
}
330
A8A
100
AcDbXrecord
280
     1
102
RTVSPost2010Prop28
280
     0
102
RTVSPost2010PropOp28
 70
     1
102
RTVSPost2010Prop29
280
     1
102
RTVSPost2010PropOp29
 70
     1
102
RTVSPost2010Prop30
280
     1
102
RTVSPost2010PropOp30
 70
     1
102
RTVSPost2010Prop31
280
     0
102
RTVSPost2010PropOp31
 70
     1
102
RTVSPost2010Prop32
280
     0
102
RTVSPost2010PropOp32
 70
     1
102
RTVSPost2010Prop33
280
     0
102
RTVSPost2010PropOp33
 70
     1
102
RTVSPost2010Prop34
280
     0
102
RTVSPost2010PropOp34
 70
     1
102
RTVSPost2010Prop35
280
     0
102
RTVSPost2010PropOp35
 70
     1
102
RTVSPost2010Prop36
280
     0
102
RTVSPost2010PropOp36
 70
     1
102
RTVSPost2010Prop37
 90
       50
102
RTVSPost2010PropOp37
 70
     1
102
RTVSPost2010Prop38
140
0.0
102
RTVSPost2010PropOp38
 70
     1
102
RTVSPost2010Prop39
140
1.0
102
RTVSPost2010PropOp39
 70
     1
102
RTVSPost2010Prop40
 90
        0
102
RTVSPost2010PropOp40
 70
     1
102
RTVSPost2010Prop41ColorIndex
 90
       18
102
RTVSPost2010Prop41ColorRGB
 90
        0
102
RTVSPost2010PropOp41
 70
     1
102
RTVSPost2010Prop42
 90
       50
102
RTVSPost2010PropOp42
 70
     1
102
RTVSPost2010Prop43
 90
        3
102
RTVSPost2010PropOp43
 70
     1
102
RTVSPost2010Prop44ColorIndex
 90
        5
102
RTVSPost2010Prop44ColorRGB
 90
      255
102
RTVSPost2010PropOp44
 70
     1
102
RTVSPost2010Prop45
280
     0
102
RTVSPost2010PropOp45
 70
     1
102
RTVSPost2010Prop46
 90
       50
102
RTVSPost2010PropOp46
 70
     1
102
RTVSPost2010Prop47
 90
       50
102
RTVSPost2010PropOp47
 70
     1
102
RTVSPost2010Prop48
 90
       50
102
RTVSPost2010PropOp48
 70
     1
102
RTVSPost2010Prop49
280
     0
102
RTVSPost2010PropOp49
 70
     1
102
RTVSPost2010Prop50
 90
       50
102
RTVSPost2010PropOp50
 70
     1
102
RTVSPost2010Prop51ColorIndex
 90
      256
102
RTVSPost2010Prop51ColorRGB
 90
-16777216
102
RTVSPost2010PropOp51
 70
     0
102
RTVSPost2010Prop52
140
1.0
102
RTVSPost2010PropOp52
 70
     0
102
RTVSPost2010Prop53
 90
        2
102
RTVSPost2010PropOp53
 70
     1
102
RTVSPost2010Prop54
  1
strokes_ogs.tif
102
RTVSPost2010PropOp54
 70
     1
102
RTVSPost2010Prop55
280
     0
102
RTVSPost2010PropOp55
 70
     1
102
RTVSPost2010Prop56
140
1.0
102
RTVSPost2010PropOp56
 70
     1
102
RTVSPost2010Prop57
140
1.0
102
RTVSPost2010PropOp57
 70
     1
102
RTVSPropertyOp0
 70
     1
102
RTVSPropertyOp1
 70
     1
102
RTVSPropertyOp2
 70
     1
102
RTVSPropertyOp3
 70
     1
102
RTVSPropertyOp4
 70
     1
102
RTVSPropertyOp5
 70
     1
102
RTVSPropertyOp6
 70
     1
102
RTVSPropertyOp7
 70
     1
102
RTVSPropertyOp8
 70
     1
102
RTVSPropertyOp9
 70
     1
102
RTVSPropertyOp10
 70
     1
102
RTVSPropertyOp11
 70
     1
102
RTVSPropertyOp12
 70
     1
102
RTVSPropertyOp13
 70
     1
102
RTVSPropertyOp14
 70
     1
102
RTVSPropertyOp15
 70
     1
102
RTVSPropertyOp16
 70
     1
102
RTVSPropertyOp17
 70
     1
102
RTVSPropertyOp18
 70
     1
102
RTVSPropertyOp19
 70
     1
102
RTVSPropertyOp20
 70
     1
102
RTVSPropertyOp21
 70
     1
102
RTVSPropertyOp22
 70
     1
102
RTVSPropertyOp23
 70
     1
102
RTVSPropertyOp24
 70
     1
102
RTVSPropertyOp25
 70
     1
102
RTVSPropertyOp26
 70
     1
102
RTVSPropertyOp27
 70
     1
102
RTVSPropertyOp28
 70
     1
102
RTVSPropertyOp29
 70
     1
102
RTVSPropertyOp30
 70
     1
102
RTVSPropertyOp31
 70
     1
102
RTVSPropertyOp32
 70
     1
102
RTVSPropertyOp33
 70
     1
102
RTVSPropertyOp34
 70
     1
102
RTVSPropertyOp35
 70
     1
102
RTVSPropertyOp36
 70
     1
102
RTVSPropertyOp37
 70
     1
102
RTVSPropertyOp38
 70
     1
102
RTVSPropertyOp39
 70
     1
102
RTVSPropertyOp40
 70
     1
102
RTVSPropertyOp41
 70
     1
102
RTVSPropertyOp42
 70
     1
102
RTVSPropertyOp43
 70
     1
102
RTVSPropertyOp44
 70
     1
102
RTVSPropertyOp45
 70
     1
102
RTVSPropertyOp46
 70
     1
102
RTVSPropertyOp47
 70
     1
102
RTVSPropertyOp48
 70
     1
102
RTVSPropertyOp49
 70
     1
102
RTVSPropertyOp50
 70
     1
102
RTVSPropertyOp51
 70
     0
102
RTVSPropertyOp52
 70
     0
102
RTVSPropertyOp53
 70
     1
102
RTVSPropertyOp54
 70
     1
102
RTVSPropertyOp55
 70
     1
102
RTVSPropertyOp56
 70
     1
102
RTVSPropertyOp57
 70
     1
102
RTVSPropertyOp58
 70
     1
102
RTVSPropertyOp59
 70
     1
102
RTVSPropertyOp60
 70
     1
102
RTVSPropertyOp61
 70
     1
102
RTVSPropertyOp62
 70
     1
  0
XRECORD
  5
AA1
102
{ACAD_REACTORS
330
AA0
102
}
330
AA0
100
AcDbXrecord
280
     1
102
RTVSPost2010Prop28
280
     0
102
RTVSPost2010PropOp28
 70
     1
102
RTVSPost2010Prop29
280
     1
102
RTVSPost2010PropOp29
 70
     1
102
RTVSPost2010Prop30
280
     1
102
RTVSPost2010PropOp30
 70
     1
102
RTVSPost2010Prop31
280
     0
102
RTVSPost2010PropOp31
 70
     1
102
RTVSPost2010Prop32
280
     0
102
RTVSPost2010PropOp32
 70
     1
102
RTVSPost2010Prop33
280
     0
102
RTVSPost2010PropOp33
 70
     1
102
RTVSPost2010Prop34
280
     0
102
RTVSPost2010PropOp34
 70
     1
102
RTVSPost2010Prop35
280
     0
102
RTVSPost2010PropOp35
 70
     1
102
RTVSPost2010Prop36
280
     0
102
RTVSPost2010PropOp36
 70
     1
102
RTVSPost2010Prop37
 90
       50
102
RTVSPost2010PropOp37
 70
     1
102
RTVSPost2010Prop38
140
0.0
102
RTVSPost2010PropOp38
 70
     1
102
RTVSPost2010Prop39
140
1.0
102
RTVSPost2010PropOp39
 70
     1
102
RTVSPost2010Prop40
 90
        0
102
RTVSPost2010PropOp40
 70
     1
102
RTVSPost2010Prop41ColorIndex
 90
       18
102
RTVSPost2010Prop41ColorRGB
 90
        0
102
RTVSPost2010PropOp41
 70
     1
102
RTVSPost2010Prop42
 90
       50
102
RTVSPost2010PropOp42
 70
     1
102
RTVSPost2010Prop43
 90
        3
102
RTVSPost2010PropOp43
 70
     1
102
RTVSPost2010Prop44ColorIndex
 90
        5
102
RTVSPost2010Prop44ColorRGB
 90
      255
102
RTVSPost2010PropOp44
 70
     1
102
RTVSPost2010Prop45
280
     0
102
RTVSPost2010PropOp45
 70
     1
102
RTVSPost2010Prop46
 90
       50
102
RTVSPost2010PropOp46
 70
     1
102
RTVSPost2010Prop47
 90
       50
102
RTVSPost2010PropOp47
 70
     1
102
RTVSPost2010Prop48
 90
       50
102
RTVSPost2010PropOp48
 70
     1
102
RTVSPost2010Prop49
280
     0
102
RTVSPost2010PropOp49
 70
     1
102
RTVSPost2010Prop50
 90
       50
102
RTVSPost2010PropOp50
 70
     1
102
RTVSPost2010Prop51ColorIndex
 90
      256
102
RTVSPost2010Prop51ColorRGB
 90
-16777216
102
RTVSPost2010PropOp51
 70
     0
102
RTVSPost2010Prop52
140
1.0
102
RTVSPost2010PropOp52
 70
     0
102
RTVSPost2010Prop53
 90
        2
102
RTVSPost2010PropOp53
 70
     1
102
RTVSPost2010Prop54
  1
strokes_ogs.tif
102
RTVSPost2010PropOp54
 70
     1
102
RTVSPost2010Prop55
280
     0
102
RTVSPost2010PropOp55
 70
     1
102
RTVSPost2010Prop56
140
1.0
102
RTVSPost2010PropOp56
 70
     1
102
RTVSPost2010Prop57
140
1.0
102
RTVSPost2010PropOp57
 70
     1
102
RTVSPropertyOp0
 70
     1
102
RTVSPropertyOp1
 70
     1
102
RTVSPropertyOp2
 70
     1
102
RTVSPropertyOp3
 70
     1
102
RTVSPropertyOp4
 70
     1
102
RTVSPropertyOp5
 70
     1
102
RTVSPropertyOp6
 70
     1
102
RTVSPropertyOp7
 70
     1
102
RTVSPropertyOp8
 70
     1
102
RTVSPropertyOp9
 70
     1
102
RTVSPropertyOp10
 70
     1
102
RTVSPropertyOp11
 70
     1
102
RTVSPropertyOp12
 70
     1
102
RTVSPropertyOp13
 70
     1
102
RTVSPropertyOp14
 70
     1
102
RTVSPropertyOp15
 70
     1
102
RTVSPropertyOp16
 70
     1
102
RTVSPropertyOp17
 70
     1
102
RTVSPropertyOp18
 70
     1
102
RTVSPropertyOp19
 70
     1
102
RTVSPropertyOp20
 70
     1
102
RTVSPropertyOp21
 70
     1
102
RTVSPropertyOp22
 70
     1
102
RTVSPropertyOp23
 70
     1
102
RTVSPropertyOp24
 70
     1
102
RTVSPropertyOp25
 70
     1
102
RTVSPropertyOp26
 70
     1
102
RTVSPropertyOp27
 70
     1
102
RTVSPropertyOp28
 70
     1
102
RTVSPropertyOp29
 70
     1
102
RTVSPropertyOp30
 70
     1
102
RTVSPropertyOp31
 70
     1
102
RTVSPropertyOp32
 70
     1
102
RTVSPropertyOp33
 70
     1
102
RTVSPropertyOp34
 70
     1
102
RTVSPropertyOp35
 70
     1
102
RTVSPropertyOp36
 70
     1
102
RTVSPropertyOp37
 70
     1
102
RTVSPropertyOp38
 70
     1
102
RTVSPropertyOp39
 70
     1
102
RTVSPropertyOp40
 70
     1
102
RTVSPropertyOp41
 70
     1
102
RTVSPropertyOp42
 70
     1
102
RTVSPropertyOp43
 70
     1
102
RTVSPropertyOp44
 70
     1
102
RTVSPropertyOp45
 70
     1
102
RTVSPropertyOp46
 70
     1
102
RTVSPropertyOp47
 70
     1
102
RTVSPropertyOp48
 70
     1
102
RTVSPropertyOp49
 70
     1
102
RTVSPropertyOp50
 70
     1
102
RTVSPropertyOp51
 70
     0
102
RTVSPropertyOp52
 70
     0
102
RTVSPropertyOp53
 70
     1
102
RTVSPropertyOp54
 70
     1
102
RTVSPropertyOp55
 70
     1
102
RTVSPropertyOp56
 70
     1
102
RTVSPropertyOp57
 70
     1
102
RTVSPropertyOp58
 70
     1
102
RTVSPropertyOp59
 70
     1
102
RTVSPropertyOp60
 70
     1
102
RTVSPropertyOp61
 70
     1
102
RTVSPropertyOp62
 70
     1
  0
XRECORD
  5
A9F
102
{ACAD_REACTORS
330
A9E
102
}
330
A9E
100
AcDbXrecord
280
     1
102
RTVSPost2010Prop28
280
     0
102
RTVSPost2010PropOp28
 70
     1
102
RTVSPost2010Prop29
280
     1
102
RTVSPost2010PropOp29
 70
     1
102
RTVSPost2010Prop30
280
     1
102
RTVSPost2010PropOp30
 70
     1
102
RTVSPost2010Prop31
280
     0
102
RTVSPost2010PropOp31
 70
     1
102
RTVSPost2010Prop32
280
     0
102
RTVSPost2010PropOp32
 70
     1
102
RTVSPost2010Prop33
280
     0
102
RTVSPost2010PropOp33
 70
     1
102
RTVSPost2010Prop34
280
     0
102
RTVSPost2010PropOp34
 70
     1
102
RTVSPost2010Prop35
280
     0
102
RTVSPost2010PropOp35
 70
     1
102
RTVSPost2010Prop36
280
     0
102
RTVSPost2010PropOp36
 70
     1
102
RTVSPost2010Prop37
 90
       50
102
RTVSPost2010PropOp37
 70
     1
102
RTVSPost2010Prop38
140
0.0
102
RTVSPost2010PropOp38
 70
     1
102
RTVSPost2010Prop39
140
1.0
102
RTVSPost2010PropOp39
 70
     1
102
RTVSPost2010Prop40
 90
        0
102
RTVSPost2010PropOp40
 70
     1
102
RTVSPost2010Prop41ColorIndex
 90
       18
102
RTVSPost2010Prop41ColorRGB
 90
        0
102
RTVSPost2010PropOp41
 70
     1
102
RTVSPost2010Prop42
 90
       50
102
RTVSPost2010PropOp42
 70
     1
102
RTVSPost2010Prop43
 90
        3
102
RTVSPost2010PropOp43
 70
     1
102
RTVSPost2010Prop44ColorIndex
 90
        5
102
RTVSPost2010Prop44ColorRGB
 90
      255
102
RTVSPost2010PropOp44
 70
     1
102
RTVSPost2010Prop45
280
     0
102
RTVSPost2010PropOp45
 70
     1
102
RTVSPost2010Prop46
 90
       50
102
RTVSPost2010PropOp46
 70
     1
102
RTVSPost2010Prop47
 90
       50
102
RTVSPost2010PropOp47
 70
     1
102
RTVSPost2010Prop48
 90
       50
102
RTVSPost2010PropOp48
 70
     1
102
RTVSPost2010Prop49
280
     0
102
RTVSPost2010PropOp49
 70
     1
102
RTVSPost2010Prop50
 90
       50
102
RTVSPost2010PropOp50
 70
     1
102
RTVSPost2010Prop51ColorIndex
 90
      256
102
RTVSPost2010Prop51ColorRGB
 90
-16777216
102
RTVSPost2010PropOp51
 70
     0
102
RTVSPost2010Prop52
140
1.0
102
RTVSPost2010PropOp52
 70
     0
102
RTVSPost2010Prop53
 90
        2
102
RTVSPost2010PropOp53
 70
     1
102
RTVSPost2010Prop54
  1
strokes_ogs.tif
102
RTVSPost2010PropOp54
 70
     1
102
RTVSPost2010Prop55
280
     0
102
RTVSPost2010PropOp55
 70
     1
102
RTVSPost2010Prop56
140
1.0
102
RTVSPost2010PropOp56
 70
     1
102
RTVSPost2010Prop57
140
1.0
102
RTVSPost2010PropOp57
 70
     1
102
RTVSPropertyOp0
 70
     1
102
RTVSPropertyOp1
 70
     1
102
RTVSPropertyOp2
 70
     1
102
RTVSPropertyOp3
 70
     1
102
RTVSPropertyOp4
 70
     1
102
RTVSPropertyOp5
 70
     1
102
RTVSPropertyOp6
 70
     1
102
RTVSPropertyOp7
 70
     1
102
RTVSPropertyOp8
 70
     1
102
RTVSPropertyOp9
 70
     1
102
RTVSPropertyOp10
 70
     1
102
RTVSPropertyOp11
 70
     1
102
RTVSPropertyOp12
 70
     1
102
RTVSPropertyOp13
 70
     1
102
RTVSPropertyOp14
 70
     1
102
RTVSPropertyOp15
 70
     1
102
RTVSPropertyOp16
 70
     1
102
RTVSPropertyOp17
 70
     1
102
RTVSPropertyOp18
 70
     1
102
RTVSPropertyOp19
 70
     1
102
RTVSPropertyOp20
 70
     1
102
RTVSPropertyOp21
 70
     1
102
RTVSPropertyOp22
 70
     1
102
RTVSPropertyOp23
 70
     1
102
RTVSPropertyOp24
 70
     1
102
RTVSPropertyOp25
 70
     1
102
RTVSPropertyOp26
 70
     1
102
RTVSPropertyOp27
 70
     1
102
RTVSPropertyOp28
 70
     1
102
RTVSPropertyOp29
 70
     1
102
RTVSPropertyOp30
 70
     1
102
RTVSPropertyOp31
 70
     1
102
RTVSPropertyOp32
 70
     1
102
RTVSPropertyOp33
 70
     1
102
RTVSPropertyOp34
 70
     1
102
RTVSPropertyOp35
 70
     1
102
RTVSPropertyOp36
 70
     1
102
RTVSPropertyOp37
 70
     1
102
RTVSPropertyOp38
 70
     1
102
RTVSPropertyOp39
 70
     1
102
RTVSPropertyOp40
 70
     1
102
RTVSPropertyOp41
 70
     1
102
RTVSPropertyOp42
 70
     1
102
RTVSPropertyOp43
 70
     1
102
RTVSPropertyOp44
 70
     1
102
RTVSPropertyOp45
 70
     1
102
RTVSPropertyOp46
 70
     1
102
RTVSPropertyOp47
 70
     1
102
RTVSPropertyOp48
 70
     1
102
RTVSPropertyOp49
 70
     1
102
RTVSPropertyOp50
 70
     1
102
RTVSPropertyOp51
 70
     0
102
RTVSPropertyOp52
 70
     0
102
RTVSPropertyOp53
 70
     1
102
RTVSPropertyOp54
 70
     1
102
RTVSPropertyOp55
 70
     1
102
RTVSPropertyOp56
 70
     1
102
RTVSPropertyOp57
 70
     1
102
RTVSPropertyOp58
 70
     1
102
RTVSPropertyOp59
 70
     1
102
RTVSPropertyOp60
 70
     1
102
RTVSPropertyOp61
 70
     1
102
RTVSPropertyOp62
 70
     1
  0
XRECORD
  5
A99
102
{ACAD_REACTORS
330
A98
102
}
330
A98
100
AcDbXrecord
280
     1
102
RTVSPost2010Prop28
280
     0
102
RTVSPost2010PropOp28
 70
     1
102
RTVSPost2010Prop29
280
     1
102
RTVSPost2010PropOp29
 70
     1
102
RTVSPost2010Prop30
280
     1
102
RTVSPost2010PropOp30
 70
     1
102
RTVSPost2010Prop31
280
     0
102
RTVSPost2010PropOp31
 70
     1
102
RTVSPost2010Prop32
280
     0
102
RTVSPost2010PropOp32
 70
     1
102
RTVSPost2010Prop33
280
     0
102
RTVSPost2010PropOp33
 70
     1
102
RTVSPost2010Prop34
280
     0
102
RTVSPost2010PropOp34
 70
     1
102
RTVSPost2010Prop35
280
     0
102
RTVSPost2010PropOp35
 70
     1
102
RTVSPost2010Prop36
280
     0
102
RTVSPost2010PropOp36
 70
     1
102
RTVSPost2010Prop37
 90
       50
102
RTVSPost2010PropOp37
 70
     1
102
RTVSPost2010Prop38
140
0.0
102
RTVSPost2010PropOp38
 70
     1
102
RTVSPost2010Prop39
140
1.0
102
RTVSPost2010PropOp39
 70
     1
102
RTVSPost2010Prop40
 90
        0
102
RTVSPost2010PropOp40
 70
     1
102
RTVSPost2010Prop41ColorIndex
 90
       18
102
RTVSPost2010Prop41ColorRGB
 90
        0
102
RTVSPost2010PropOp41
 70
     1
102
RTVSPost2010Prop42
 90
       50
102
RTVSPost2010PropOp42
 70
     1
102
RTVSPost2010Prop43
 90
        3
102
RTVSPost2010PropOp43
 70
     1
102
RTVSPost2010Prop44ColorIndex
 90
        5
102
RTVSPost2010Prop44ColorRGB
 90
      255
102
RTVSPost2010PropOp44
 70
     1
102
RTVSPost2010Prop45
280
     0
102
RTVSPost2010PropOp45
 70
     1
102
RTVSPost2010Prop46
 90
       50
102
RTVSPost2010PropOp46
 70
     1
102
RTVSPost2010Prop47
 90
       50
102
RTVSPost2010PropOp47
 70
     1
102
RTVSPost2010Prop48
 90
       50
102
RTVSPost2010PropOp48
 70
     1
102
RTVSPost2010Prop49
280
     0
102
RTVSPost2010PropOp49
 70
     1
102
RTVSPost2010Prop50
 90
       50
102
RTVSPost2010PropOp50
 70
     1
102
RTVSPost2010Prop51ColorIndex
 90
      256
102
RTVSPost2010Prop51ColorRGB
 90
-16777216
102
RTVSPost2010PropOp51
 70
     0
102
RTVSPost2010Prop52
140
1.0
102
RTVSPost2010PropOp52
 70
     0
102
RTVSPost2010Prop53
 90
        2
102
RTVSPost2010PropOp53
 70
     1
102
RTVSPost2010Prop54
  1
strokes_ogs.tif
102
RTVSPost2010PropOp54
 70
     1
102
RTVSPost2010Prop55
280
     0
102
RTVSPost2010PropOp55
 70
     1
102
RTVSPost2010Prop56
140
1.0
102
RTVSPost2010PropOp56
 70
     1
102
RTVSPost2010Prop57
140
1.0
102
RTVSPost2010PropOp57
 70
     1
102
RTVSPropertyOp0
 70
     1
102
RTVSPropertyOp1
 70
     1
102
RTVSPropertyOp2
 70
     1
102
RTVSPropertyOp3
 70
     1
102
RTVSPropertyOp4
 70
     1
102
RTVSPropertyOp5
 70
     1
102
RTVSPropertyOp6
 70
     1
102
RTVSPropertyOp7
 70
     1
102
RTVSPropertyOp8
 70
     1
102
RTVSPropertyOp9
 70
     1
102
RTVSPropertyOp10
 70
     1
102
RTVSPropertyOp11
 70
     1
102
RTVSPropertyOp12
 70
     1
102
RTVSPropertyOp13
 70
     1
102
RTVSPropertyOp14
 70
     1
102
RTVSPropertyOp15
 70
     1
102
RTVSPropertyOp16
 70
     1
102
RTVSPropertyOp17
 70
     1
102
RTVSPropertyOp18
 70
     1
102
RTVSPropertyOp19
 70
     1
102
RTVSPropertyOp20
 70
     1
102
RTVSPropertyOp21
 70
     1
102
RTVSPropertyOp22
 70
     1
102
RTVSPropertyOp23
 70
     1
102
RTVSPropertyOp24
 70
     1
102
RTVSPropertyOp25
 70
     1
102
RTVSPropertyOp26
 70
     1
102
RTVSPropertyOp27
 70
     1
102
RTVSPropertyOp28
 70
     1
102
RTVSPropertyOp29
 70
     1
102
RTVSPropertyOp30
 70
     1
102
RTVSPropertyOp31
 70
     1
102
RTVSPropertyOp32
 70
     1
102
RTVSPropertyOp33
 70
     1
102
RTVSPropertyOp34
 70
     1
102
RTVSPropertyOp35
 70
     1
102
RTVSPropertyOp36
 70
     1
102
RTVSPropertyOp37
 70
     1
102
RTVSPropertyOp38
 70
     1
102
RTVSPropertyOp39
 70
     1
102
RTVSPropertyOp40
 70
     1
102
RTVSPropertyOp41
 70
     1
102
RTVSPropertyOp42
 70
     1
102
RTVSPropertyOp43
 70
     1
102
RTVSPropertyOp44
 70
     1
102
RTVSPropertyOp45
 70
     1
102
RTVSPropertyOp46
 70
     1
102
RTVSPropertyOp47
 70
     1
102
RTVSPropertyOp48
 70
     1
102
RTVSPropertyOp49
 70
     1
102
RTVSPropertyOp50
 70
     1
102
RTVSPropertyOp51
 70
     0
102
RTVSPropertyOp52
 70
     0
102
RTVSPropertyOp53
 70
     1
102
RTVSPropertyOp54
 70
     1
102
RTVSPropertyOp55
 70
     1
102
RTVSPropertyOp56
 70
     1
102
RTVSPropertyOp57
 70
     1
102
RTVSPropertyOp58
 70
     1
102
RTVSPropertyOp59
 70
     1
102
RTVSPropertyOp60
 70
     1
102
RTVSPropertyOp61
 70
     1
102
RTVSPropertyOp62
 70
     1
  0
XRECORD
  5
A9B
102
{ACAD_REACTORS
330
A9A
102
}
330
A9A
100
AcDbXrecord
280
     1
102
RTVSPost2010Prop28
280
     0
102
RTVSPost2010PropOp28
 70
     1
102
RTVSPost2010Prop29
280
     1
102
RTVSPost2010PropOp29
 70
     1
102
RTVSPost2010Prop30
280
     1
102
RTVSPost2010PropOp30
 70
     1
102
RTVSPost2010Prop31
280
     0
102
RTVSPost2010PropOp31
 70
     1
102
RTVSPost2010Prop32
280
     0
102
RTVSPost2010PropOp32
 70
     1
102
RTVSPost2010Prop33
280
     0
102
RTVSPost2010PropOp33
 70
     1
102
RTVSPost2010Prop34
280
     0
102
RTVSPost2010PropOp34
 70
     1
102
RTVSPost2010Prop35
280
     0
102
RTVSPost2010PropOp35
 70
     1
102
RTVSPost2010Prop36
280
     0
102
RTVSPost2010PropOp36
 70
     1
102
RTVSPost2010Prop37
 90
       50
102
RTVSPost2010PropOp37
 70
     1
102
RTVSPost2010Prop38
140
0.0
102
RTVSPost2010PropOp38
 70
     1
102
RTVSPost2010Prop39
140
1.0
102
RTVSPost2010PropOp39
 70
     1
102
RTVSPost2010Prop40
 90
        0
102
RTVSPost2010PropOp40
 70
     1
102
RTVSPost2010Prop41ColorIndex
 90
       18
102
RTVSPost2010Prop41ColorRGB
 90
        0
102
RTVSPost2010PropOp41
 70
     1
102
RTVSPost2010Prop42
 90
       50
102
RTVSPost2010PropOp42
 70
     1
102
RTVSPost2010Prop43
 90
        3
102
RTVSPost2010PropOp43
 70
     1
102
RTVSPost2010Prop44ColorIndex
 90
        5
102
RTVSPost2010Prop44ColorRGB
 90
      255
102
RTVSPost2010PropOp44
 70
     1
102
RTVSPost2010Prop45
280
     0
102
RTVSPost2010PropOp45
 70
     1
102
RTVSPost2010Prop46
 90
       50
102
RTVSPost2010PropOp46
 70
     1
102
RTVSPost2010Prop47
 90
       50
102
RTVSPost2010PropOp47
 70
     1
102
RTVSPost2010Prop48
 90
       50
102
RTVSPost2010PropOp48
 70
     1
102
RTVSPost2010Prop49
280
     0
102
RTVSPost2010PropOp49
 70
     1
102
RTVSPost2010Prop50
 90
       50
102
RTVSPost2010PropOp50
 70
     1
102
RTVSPost2010Prop51ColorIndex
 90
      256
102
RTVSPost2010Prop51ColorRGB
 90
-16777216
102
RTVSPost2010PropOp51
 70
     0
102
RTVSPost2010Prop52
140
1.0
102
RTVSPost2010PropOp52
 70
     0
102
RTVSPost2010Prop53
 90
        2
102
RTVSPost2010PropOp53
 70
     1
102
RTVSPost2010Prop54
  1
strokes_ogs.tif
102
RTVSPost2010PropOp54
 70
     1
102
RTVSPost2010Prop55
280
     0
102
RTVSPost2010PropOp55
 70
     1
102
RTVSPost2010Prop56
140
1.0
102
RTVSPost2010PropOp56
 70
     1
102
RTVSPost2010Prop57
140
1.0
102
RTVSPost2010PropOp57
 70
     1
102
RTVSPropertyOp0
 70
     1
102
RTVSPropertyOp1
 70
     1
102
RTVSPropertyOp2
 70
     1
102
RTVSPropertyOp3
 70
     1
102
RTVSPropertyOp4
 70
     1
102
RTVSPropertyOp5
 70
     1
102
RTVSPropertyOp6
 70
     1
102
RTVSPropertyOp7
 70
     1
102
RTVSPropertyOp8
 70
     1
102
RTVSPropertyOp9
 70
     1
102
RTVSPropertyOp10
 70
     1
102
RTVSPropertyOp11
 70
     1
102
RTVSPropertyOp12
 70
     1
102
RTVSPropertyOp13
 70
     1
102
RTVSPropertyOp14
 70
     1
102
RTVSPropertyOp15
 70
     1
102
RTVSPropertyOp16
 70
     1
102
RTVSPropertyOp17
 70
     1
102
RTVSPropertyOp18
 70
     1
102
RTVSPropertyOp19
 70
     1
102
RTVSPropertyOp20
 70
     1
102
RTVSPropertyOp21
 70
     1
102
RTVSPropertyOp22
 70
     1
102
RTVSPropertyOp23
 70
     1
102
RTVSPropertyOp24
 70
     1
102
RTVSPropertyOp25
 70
     1
102
RTVSPropertyOp26
 70
     1
102
RTVSPropertyOp27
 70
     1
102
RTVSPropertyOp28
 70
     1
102
RTVSPropertyOp29
 70
     1
102
RTVSPropertyOp30
 70
     1
102
RTVSPropertyOp31
 70
     1
102
RTVSPropertyOp32
 70
     1
102
RTVSPropertyOp33
 70
     1
102
RTVSPropertyOp34
 70
     1
102
RTVSPropertyOp35
 70
     1
102
RTVSPropertyOp36
 70
     1
102
RTVSPropertyOp37
 70
     1
102
RTVSPropertyOp38
 70
     1
102
RTVSPropertyOp39
 70
     1
102
RTVSPropertyOp40
 70
     1
102
RTVSPropertyOp41
 70
     1
102
RTVSPropertyOp42
 70
     1
102
RTVSPropertyOp43
 70
     1
102
RTVSPropertyOp44
 70
     1
102
RTVSPropertyOp45
 70
     1
102
RTVSPropertyOp46
 70
     1
102
RTVSPropertyOp47
 70
     1
102
RTVSPropertyOp48
 70
     1
102
RTVSPropertyOp49
 70
     1
102
RTVSPropertyOp50
 70
     1
102
RTVSPropertyOp51
 70
     0
102
RTVSPropertyOp52
 70
     0
102
RTVSPropertyOp53
 70
     1
102
RTVSPropertyOp54
 70
     1
102
RTVSPropertyOp55
 70
     1
102
RTVSPropertyOp56
 70
     1
102
RTVSPropertyOp57
 70
     1
102
RTVSPropertyOp58
 70
     1
102
RTVSPropertyOp59
 70
     1
102
RTVSPropertyOp60
 70
     1
102
RTVSPropertyOp61
 70
     1
102
RTVSPropertyOp62
 70
     1
  0
XRECORD
  5
A91
102
{ACAD_REACTORS
330
A90
102
}
330
A90
100
AcDbXrecord
280
     1
102
RTVSPost2010Prop28
280
     0
102
RTVSPost2010PropOp28
 70
     1
102
RTVSPost2010Prop29
280
     1
102
RTVSPost2010PropOp29
 70
     1
102
RTVSPost2010Prop30
280
     1
102
RTVSPost2010PropOp30
 70
     1
102
RTVSPost2010Prop31
280
     0
102
RTVSPost2010PropOp31
 70
     1
102
RTVSPost2010Prop32
280
     0
102
RTVSPost2010PropOp32
 70
     1
102
RTVSPost2010Prop33
280
     0
102
RTVSPost2010PropOp33
 70
     1
102
RTVSPost2010Prop34
280
     0
102
RTVSPost2010PropOp34
 70
     1
102
RTVSPost2010Prop35
280
     0
102
RTVSPost2010PropOp35
 70
     1
102
RTVSPost2010Prop36
280
     0
102
RTVSPost2010PropOp36
 70
     1
102
RTVSPost2010Prop37
 90
       50
102
RTVSPost2010PropOp37
 70
     1
102
RTVSPost2010Prop38
140
0.0
102
RTVSPost2010PropOp38
 70
     1
102
RTVSPost2010Prop39
140
1.0
102
RTVSPost2010PropOp39
 70
     1
102
RTVSPost2010Prop40
 90
        0
102
RTVSPost2010PropOp40
 70
     1
102
RTVSPost2010Prop41ColorIndex
 90
       18
102
RTVSPost2010Prop41ColorRGB
 90
        0
102
RTVSPost2010PropOp41
 70
     1
102
RTVSPost2010Prop42
 90
       50
102
RTVSPost2010PropOp42
 70
     1
102
RTVSPost2010Prop43
 90
        3
102
RTVSPost2010PropOp43
 70
     1
102
RTVSPost2010Prop44ColorIndex
 90
        5
102
RTVSPost2010Prop44ColorRGB
 90
      255
102
RTVSPost2010PropOp44
 70
     1
102
RTVSPost2010Prop45
280
     0
102
RTVSPost2010PropOp45
 70
     1
102
RTVSPost2010Prop46
 90
       50
102
RTVSPost2010PropOp46
 70
     1
102
RTVSPost2010Prop47
 90
       50
102
RTVSPost2010PropOp47
 70
     1
102
RTVSPost2010Prop48
 90
       50
102
RTVSPost2010PropOp48
 70
     1
102
RTVSPost2010Prop49
280
     0
102
RTVSPost2010PropOp49
 70
     1
102
RTVSPost2010Prop50
 90
       50
102
RTVSPost2010PropOp50
 70
     1
102
RTVSPost2010Prop51ColorIndex
 90
      256
102
RTVSPost2010Prop51ColorRGB
 90
-16777216
102
RTVSPost2010PropOp51
 70
     0
102
RTVSPost2010Prop52
140
1.0
102
RTVSPost2010PropOp52
 70
     0
102
RTVSPost2010Prop53
 90
        2
102
RTVSPost2010PropOp53
 70
     1
102
RTVSPost2010Prop54
  1
strokes_ogs.tif
102
RTVSPost2010PropOp54
 70
     1
102
RTVSPost2010Prop55
280
     0
102
RTVSPost2010PropOp55
 70
     1
102
RTVSPost2010Prop56
140
1.0
102
RTVSPost2010PropOp56
 70
     1
102
RTVSPost2010Prop57
140
1.0
102
RTVSPost2010PropOp57
 70
     1
102
RTVSPropertyOp0
 70
     1
102
RTVSPropertyOp1
 70
     1
102
RTVSPropertyOp2
 70
     1
102
RTVSPropertyOp3
 70
     1
102
RTVSPropertyOp4
 70
     1
102
RTVSPropertyOp5
 70
     1
102
RTVSPropertyOp6
 70
     1
102
RTVSPropertyOp7
 70
     1
102
RTVSPropertyOp8
 70
     1
102
RTVSPropertyOp9
 70
     1
102
RTVSPropertyOp10
 70
     1
102
RTVSPropertyOp11
 70
     1
102
RTVSPropertyOp12
 70
     1
102
RTVSPropertyOp13
 70
     1
102
RTVSPropertyOp14
 70
     1
102
RTVSPropertyOp15
 70
     1
102
RTVSPropertyOp16
 70
     1
102
RTVSPropertyOp17
 70
     1
102
RTVSPropertyOp18
 70
     1
102
RTVSPropertyOp19
 70
     1
102
RTVSPropertyOp20
 70
     1
102
RTVSPropertyOp21
 70
     1
102
RTVSPropertyOp22
 70
     1
102
RTVSPropertyOp23
 70
     1
102
RTVSPropertyOp24
 70
     1
102
RTVSPropertyOp25
 70
     1
102
RTVSPropertyOp26
 70
     1
102
RTVSPropertyOp27
 70
     1
102
RTVSPropertyOp28
 70
     1
102
RTVSPropertyOp29
 70
     1
102
RTVSPropertyOp30
 70
     1
102
RTVSPropertyOp31
 70
     1
102
RTVSPropertyOp32
 70
     1
102
RTVSPropertyOp33
 70
     1
102
RTVSPropertyOp34
 70
     1
102
RTVSPropertyOp35
 70
     1
102
RTVSPropertyOp36
 70
     1
102
RTVSPropertyOp37
 70
     1
102
RTVSPropertyOp38
 70
     1
102
RTVSPropertyOp39
 70
     1
102
RTVSPropertyOp40
 70
     1
102
RTVSPropertyOp41
 70
     1
102
RTVSPropertyOp42
 70
     1
102
RTVSPropertyOp43
 70
     1
102
RTVSPropertyOp44
 70
     1
102
RTVSPropertyOp45
 70
     1
102
RTVSPropertyOp46
 70
     1
102
RTVSPropertyOp47
 70
     1
102
RTVSPropertyOp48
 70
     1
102
RTVSPropertyOp49
 70
     1
102
RTVSPropertyOp50
 70
     1
102
RTVSPropertyOp51
 70
     0
102
RTVSPropertyOp52
 70
     0
102
RTVSPropertyOp53
 70
     1
102
RTVSPropertyOp54
 70
     1
102
RTVSPropertyOp55
 70
     1
102
RTVSPropertyOp56
 70
     1
102
RTVSPropertyOp57
 70
     1
102
RTVSPropertyOp58
 70
     1
102
RTVSPropertyOp59
 70
     1
102
RTVSPropertyOp60
 70
     1
102
RTVSPropertyOp61
 70
     1
102
RTVSPropertyOp62
 70
     1
  0
XRECORD
  5
A85
102
{ACAD_REACTORS
330
A84
102
}
330
A84
100
AcDbXrecord
280
     1
102
RTVSPost2010Prop28
280
     0
102
RTVSPost2010PropOp28
 70
     1
102
RTVSPost2010Prop29
280
     1
102
RTVSPost2010PropOp29
 70
     1
102
RTVSPost2010Prop30
280
     1
102
RTVSPost2010PropOp30
 70
     1
102
RTVSPost2010Prop31
280
     0
102
RTVSPost2010PropOp31
 70
     1
102
RTVSPost2010Prop32
280
     0
102
RTVSPost2010PropOp32
 70
     1
102
RTVSPost2010Prop33
280
     0
102
RTVSPost2010PropOp33
 70
     1
102
RTVSPost2010Prop34
280
     0
102
RTVSPost2010PropOp34
 70
     1
102
RTVSPost2010Prop35
280
     0
102
RTVSPost2010PropOp35
 70
     1
102
RTVSPost2010Prop36
280
     0
102
RTVSPost2010PropOp36
 70
     1
102
RTVSPost2010Prop37
 90
       50
102
RTVSPost2010PropOp37
 70
     1
102
RTVSPost2010Prop38
140
0.0
102
RTVSPost2010PropOp38
 70
     1
102
RTVSPost2010Prop39
140
1.0
102
RTVSPost2010PropOp39
 70
     1
102
RTVSPost2010Prop40
 90
        0
102
RTVSPost2010PropOp40
 70
     1
102
RTVSPost2010Prop41ColorIndex
 90
       18
102
RTVSPost2010Prop41ColorRGB
 90
        0
102
RTVSPost2010PropOp41
 70
     1
102
RTVSPost2010Prop42
 90
       50
102
RTVSPost2010PropOp42
 70
     1
102
RTVSPost2010Prop43
 90
        3
102
RTVSPost2010PropOp43
 70
     1
102
RTVSPost2010Prop44ColorIndex
 90
        5
102
RTVSPost2010Prop44ColorRGB
 90
      255
102
RTVSPost2010PropOp44
 70
     1
102
RTVSPost2010Prop45
280
     0
102
RTVSPost2010PropOp45
 70
     1
102
RTVSPost2010Prop46
 90
       50
102
RTVSPost2010PropOp46
 70
     1
102
RTVSPost2010Prop47
 90
       50
102
RTVSPost2010PropOp47
 70
     1
102
RTVSPost2010Prop48
 90
       50
102
RTVSPost2010PropOp48
 70
     1
102
RTVSPost2010Prop49
280
     0
102
RTVSPost2010PropOp49
 70
     1
102
RTVSPost2010Prop50
 90
       50
102
RTVSPost2010PropOp50
 70
     1
102
RTVSPost2010Prop51ColorIndex
 90
      256
102
RTVSPost2010Prop51ColorRGB
 90
-16777216
102
RTVSPost2010PropOp51
 70
     0
102
RTVSPost2010Prop52
140
1.0
102
RTVSPost2010PropOp52
 70
     0
102
RTVSPost2010Prop53
 90
        2
102
RTVSPost2010PropOp53
 70
     1
102
RTVSPost2010Prop54
  1
strokes_ogs.tif
102
RTVSPost2010PropOp54
 70
     1
102
RTVSPost2010Prop55
280
     0
102
RTVSPost2010PropOp55
 70
     1
102
RTVSPost2010Prop56
140
1.0
102
RTVSPost2010PropOp56
 70
     1
102
RTVSPost2010Prop57
140
1.0
102
RTVSPost2010PropOp57
 70
     1
102
RTVSPropertyOp0
 70
     1
102
RTVSPropertyOp1
 70
     1
102
RTVSPropertyOp2
 70
     1
102
RTVSPropertyOp3
 70
     1
102
RTVSPropertyOp4
 70
     1
102
RTVSPropertyOp5
 70
     1
102
RTVSPropertyOp6
 70
     1
102
RTVSPropertyOp7
 70
     1
102
RTVSPropertyOp8
 70
     1
102
RTVSPropertyOp9
 70
     1
102
RTVSPropertyOp10
 70
     1
102
RTVSPropertyOp11
 70
     1
102
RTVSPropertyOp12
 70
     1
102
RTVSPropertyOp13
 70
     1
102
RTVSPropertyOp14
 70
     1
102
RTVSPropertyOp15
 70
     1
102
RTVSPropertyOp16
 70
     1
102
RTVSPropertyOp17
 70
     1
102
RTVSPropertyOp18
 70
     1
102
RTVSPropertyOp19
 70
     1
102
RTVSPropertyOp20
 70
     1
102
RTVSPropertyOp21
 70
     1
102
RTVSPropertyOp22
 70
     1
102
RTVSPropertyOp23
 70
     1
102
RTVSPropertyOp24
 70
     1
102
RTVSPropertyOp25
 70
     1
102
RTVSPropertyOp26
 70
     1
102
RTVSPropertyOp27
 70
     1
102
RTVSPropertyOp28
 70
     1
102
RTVSPropertyOp29
 70
     1
102
RTVSPropertyOp30
 70
     1
102
RTVSPropertyOp31
 70
     1
102
RTVSPropertyOp32
 70
     1
102
RTVSPropertyOp33
 70
     1
102
RTVSPropertyOp34
 70
     1
102
RTVSPropertyOp35
 70
     1
102
RTVSPropertyOp36
 70
     1
102
RTVSPropertyOp37
 70
     1
102
RTVSPropertyOp38
 70
     1
102
RTVSPropertyOp39
 70
     1
102
RTVSPropertyOp40
 70
     1
102
RTVSPropertyOp41
 70
     1
102
RTVSPropertyOp42
 70
     1
102
RTVSPropertyOp43
 70
     1
102
RTVSPropertyOp44
 70
     1
102
RTVSPropertyOp45
 70
     1
102
RTVSPropertyOp46
 70
     1
102
RTVSPropertyOp47
 70
     1
102
RTVSPropertyOp48
 70
     1
102
RTVSPropertyOp49
 70
     1
102
RTVSPropertyOp50
 70
     1
102
RTVSPropertyOp51
 70
     0
102
RTVSPropertyOp52
 70
     0
102
RTVSPropertyOp53
 70
     1
102
RTVSPropertyOp54
 70
     1
102
RTVSPropertyOp55
 70
     1
102
RTVSPropertyOp56
 70
     1
102
RTVSPropertyOp57
 70
     1
102
RTVSPropertyOp58
 70
     1
102
RTVSPropertyOp59
 70
     1
102
RTVSPropertyOp60
 70
     1
102
RTVSPropertyOp61
 70
     1
102
RTVSPropertyOp62
 70
     1
  0
XRECORD
  5
A9D
102
{ACAD_REACTORS
330
A9C
102
}
330
A9C
100
AcDbXrecord
280
     1
102
RTVSPost2010Prop28
280
     0
102
RTVSPost2010PropOp28
 70
     1
102
RTVSPost2010Prop29
280
     1
102
RTVSPost2010PropOp29
 70
     1
102
RTVSPost2010Prop30
280
     1
102
RTVSPost2010PropOp30
 70
     1
102
RTVSPost2010Prop31
280
     0
102
RTVSPost2010PropOp31
 70
     1
102
RTVSPost2010Prop32
280
     0
102
RTVSPost2010PropOp32
 70
     1
102
RTVSPost2010Prop33
280
     0
102
RTVSPost2010PropOp33
 70
     1
102
RTVSPost2010Prop34
280
     0
102
RTVSPost2010PropOp34
 70
     1
102
RTVSPost2010Prop35
280
     0
102
RTVSPost2010PropOp35
 70
     1
102
RTVSPost2010Prop36
280
     0
102
RTVSPost2010PropOp36
 70
     1
102
RTVSPost2010Prop37
 90
       50
102
RTVSPost2010PropOp37
 70
     1
102
RTVSPost2010Prop38
140
0.0
102
RTVSPost2010PropOp38
 70
     1
102
RTVSPost2010Prop39
140
1.0
102
RTVSPost2010PropOp39
 70
     1
102
RTVSPost2010Prop40
 90
        0
102
RTVSPost2010PropOp40
 70
     1
102
RTVSPost2010Prop41ColorIndex
 90
       18
102
RTVSPost2010Prop41ColorRGB
 90
        0
102
RTVSPost2010PropOp41
 70
     1
102
RTVSPost2010Prop42
 90
       50
102
RTVSPost2010PropOp42
 70
     1
102
RTVSPost2010Prop43
 90
        3
102
RTVSPost2010PropOp43
 70
     1
102
RTVSPost2010Prop44ColorIndex
 90
        5
102
RTVSPost2010Prop44ColorRGB
 90
      255
102
RTVSPost2010PropOp44
 70
     1
102
RTVSPost2010Prop45
280
     0
102
RTVSPost2010PropOp45
 70
     1
102
RTVSPost2010Prop46
 90
       50
102
RTVSPost2010PropOp46
 70
     1
102
RTVSPost2010Prop47
 90
       50
102
RTVSPost2010PropOp47
 70
     1
102
RTVSPost2010Prop48
 90
       50
102
RTVSPost2010PropOp48
 70
     1
102
RTVSPost2010Prop49
280
     0
102
RTVSPost2010PropOp49
 70
     1
102
RTVSPost2010Prop50
 90
       50
102
RTVSPost2010PropOp50
 70
     1
102
RTVSPost2010Prop51ColorIndex
 90
      256
102
RTVSPost2010Prop51ColorRGB
 90
-16777216
102
RTVSPost2010PropOp51
 70
     0
102
RTVSPost2010Prop52
140
1.0
102
RTVSPost2010PropOp52
 70
     0
102
RTVSPost2010Prop53
 90
        2
102
RTVSPost2010PropOp53
 70
     1
102
RTVSPost2010Prop54
  1
strokes_ogs.tif
102
RTVSPost2010PropOp54
 70
     1
102
RTVSPost2010Prop55
280
     0
102
RTVSPost2010PropOp55
 70
     1
102
RTVSPost2010Prop56
140
1.0
102
RTVSPost2010PropOp56
 70
     1
102
RTVSPost2010Prop57
140
1.0
102
RTVSPost2010PropOp57
 70
     1
102
RTVSPropertyOp0
 70
     1
102
RTVSPropertyOp1
 70
     1
102
RTVSPropertyOp2
 70
     1
102
RTVSPropertyOp3
 70
     1
102
RTVSPropertyOp4
 70
     1
102
RTVSPropertyOp5
 70
     1
102
RTVSPropertyOp6
 70
     1
102
RTVSPropertyOp7
 70
     1
102
RTVSPropertyOp8
 70
     1
102
RTVSPropertyOp9
 70
     1
102
RTVSPropertyOp10
 70
     1
102
RTVSPropertyOp11
 70
     1
102
RTVSPropertyOp12
 70
     1
102
RTVSPropertyOp13
 70
     1
102
RTVSPropertyOp14
 70
     1
102
RTVSPropertyOp15
 70
     1
102
RTVSPropertyOp16
 70
     1
102
RTVSPropertyOp17
 70
     1
102
RTVSPropertyOp18
 70
     1
102
RTVSPropertyOp19
 70
     1
102
RTVSPropertyOp20
 70
     1
102
RTVSPropertyOp21
 70
     1
102
RTVSPropertyOp22
 70
     1
102
RTVSPropertyOp23
 70
     1
102
RTVSPropertyOp24
 70
     1
102
RTVSPropertyOp25
 70
     1
102
RTVSPropertyOp26
 70
     1
102
RTVSPropertyOp27
 70
     1
102
RTVSPropertyOp28
 70
     1
102
RTVSPropertyOp29
 70
     1
102
RTVSPropertyOp30
 70
     1
102
RTVSPropertyOp31
 70
     1
102
RTVSPropertyOp32
 70
     1
102
RTVSPropertyOp33
 70
     1
102
RTVSPropertyOp34
 70
     1
102
RTVSPropertyOp35
 70
     1
102
RTVSPropertyOp36
 70
     1
102
RTVSPropertyOp37
 70
     1
102
RTVSPropertyOp38
 70
     1
102
RTVSPropertyOp39
 70
     1
102
RTVSPropertyOp40
 70
     1
102
RTVSPropertyOp41
 70
     1
102
RTVSPropertyOp42
 70
     1
102
RTVSPropertyOp43
 70
     1
102
RTVSPropertyOp44
 70
     1
102
RTVSPropertyOp45
 70
     1
102
RTVSPropertyOp46
 70
     1
102
RTVSPropertyOp47
 70
     1
102
RTVSPropertyOp48
 70
     1
102
RTVSPropertyOp49
 70
     1
102
RTVSPropertyOp50
 70
     1
102
RTVSPropertyOp51
 70
     0
102
RTVSPropertyOp52
 70
     0
102
RTVSPropertyOp53
 70
     1
102
RTVSPropertyOp54
 70
     1
102
RTVSPropertyOp55
 70
     1
102
RTVSPropertyOp56
 70
     1
102
RTVSPropertyOp57
 70
     1
102
RTVSPropertyOp58
 70
     1
102
RTVSPropertyOp59
 70
     1
102
RTVSPropertyOp60
 70
     1
102
RTVSPropertyOp61
 70
     1
102
RTVSPropertyOp62
 70
     1
  0
ENDSEC
  0
EOF
