  0
SECTION
  2
HEADER
  9
$ACADVER
  1
AC1015
  9
$ACADMAINTVER
 70
    20
  9
$DWGCODEPAGE
  3
ANSI_932
  9
$INSBASE
 10
0.0
 20
0.0
 30
0.0
  9
$EXTMIN
 10
6.0
 20
9.999999999999998
 30
0.0
  9
$EXTMAX
 10
400.5817809999999
 20
328.3236479999998
 30
0.0
  9
$LIMMIN
 10
0.000002
 20
0.0
  9
$LIMMAX
 10
495.0000019999998
 20
341.25
  9
$ORTHOMODE
 70
     1
  9
$REGENMODE
 70
     1
  9
$FILLMODE
 70
     1
  9
$QTEXTMODE
 70
     0
  9
$MIRRTEXT
 70
     1
  9
$LTSCALE
 40
1.0
  9
$ATTMODE
 70
     1
  9
$TEXTSIZE
 40
2.5
  9
$TRACEWID
 40
1.0
  9
$TEXTSTYLE
  7
STANDARD
  9
$CLAYER
  8
0
  9
$CELTYPE
  6
BYLAYER
  9
$CECOLOR
 62
   256
  9
$CELTSCALE
 40
1.0
  9
$DISPSILH
 70
     0
  9
$DIMSCALE
 40
1.0
  9
$DIMASZ
 40
3.0
  9
$DIMEXO
 40
1.0
  9
$DIMDLI
 40
10.0
  9
$DIMRND
 40
0.0
  9
$DIMDLE
 40
0.0
  9
$DIMEXE
 40
1.0
  9
$DIMTP
 40
0.0
  9
$DIMTM
 40
0.0
  9
$DIMTXT
 40
3.2
  9
$DIMCEN
 40
0.0
  9
$DIMTSZ
 40
0.0
  9
$DIMTOL
 70
     0
  9
$DIMLIM
 70
     0
  9
$DIMTIH
 70
     0
  9
$DIMTOH
 70
     0
  9
$DIMSE1
 70
     0
  9
$DIMSE2
 70
     0
  9
$DIMTAD
 70
     3
  9
$DIMZIN
 70
     8
  9
$DIMBLK
  1

  9
$DIMASO
 70
     1
  9
$DIMSHO
 70
     1
  9
$DIMPOST
  1

  9
$DIMAPOST
  1

  9
$DIMALT
 70
     0
  9
$DIMALTD
 70
     2
  9
$DIMALTF
 40
25.4
  9
$DIMLFAC
 40
1.0
  9
$DIMTOFL
 70
     1
  9
$DIMTVP
 40
0.0
  9
$DIMTIX
 70
     0
  9
$DIMSOXD
 70
     0
  9
$DIMSAH
 70
     1
  9
$DIMBLK1
  1
OPEN
  9
$DIMBLK2
  1
OPEN
  9
$DIMSTYLE
  2
STANDARD
  9
$DIMCLRD
 70
     0
  9
$DIMCLRE
 70
     0
  9
$DIMCLRT
 70
     0
  9
$DIMTFAC
 40
1.0
  9
$DIMGAP
 40
1.0
  9
$DIMJUST
 70
     0
  9
$DIMSD1
 70
     0
  9
$DIMSD2
 70
     0
  9
$DIMTOLJ
 70
     1
  9
$DIMTZIN
 70
     0
  9
$DIMALTZ
 70
     0
  9
$DIMALTTZ
 70
     0
  9
$DIMUPT
 70
     0
  9
$DIMDEC
 70
     4
  9
$DIMTDEC
 70
     4
  9
$DIMALTU
 70
     2
  9
$DIMALTTD
 70
     2
  9
$DIMTXSTY
  7
STANDARD
  9
$DIMAUNIT
 70
     0
  9
$DIMADEC
 70
     0
  9
$DIMALTRND
 40
0.0
  9
$DIMAZIN
 70
     0
  9
$DIMDSEP
 70
    46
  9
$DIMATFIT
 70
     3
  9
$DIMFRAC
 70
     0
  9
$DIMLDRBLK
  1
OPEN
  9
$DIMLUNIT
 70
     2
  9
$DIMLWD
 70
    -2
  9
$DIMLWE
 70
    -2
  9
$DIMTMOVE
 70
     0
  9
$LUNITS
 70
     2
  9
$LUPREC
 70
     4
  9
$SKETCHINC
 40
1.0
  9
$FILLETRAD
 40
10.0
  9
$AUNITS
 70
     0
  9
$AUPREC
 70
     0
  9
$MENU
  1
.
  9
$ELEVATION
 40
0.0
  9
$PELEVATION
 40
0.0
  9
$THICKNESS
 40
0.0
  9
$LIMCHECK
 70
     0
  9
$CHAMFERA
 40
10.0
  9
$CHAMFERB
 40
10.0
  9
$CHAMFERC
 40
0.0
  9
$CHAMFERD
 40
0.0
  9
$SKPOLY
 70
     0
  9
$TDCREATE
 40
2451640.666022002
  9
$TDUCREATE
 40
2451640.291022002
  9
$TDUPDATE
 40
2457192.622127743
  9
$TDUUPDATE
 40
2457192.247127743
  9
$TDINDWG
 40
0.0092652431
  9
$TDUSRTIMER
 40
0.0092647454
  9
$USRTIMER
 70
     1
  9
$ANGBASE
 50
0.0
  9
$ANGDIR
 70
     0
  9
$PDMODE
 70
     0
  9
$PDSIZE
 40
0.0
  9
$PLINEWID
 40
0.0
  9
$SPLFRAME
 70
     0
  9
$SPLINETYPE
 70
     6
  9
$SPLINESEGS
 70
     8
  9
$HANDSEED
  5
D35
  9
$SURFTAB1
 70
     6
  9
$SURFTAB2
 70
     6
  9
$SURFTYPE
 70
     6
  9
$SURFU
 70
     6
  9
$SURFV
 70
     6
  9
$UCSBASE
  2

  9
$UCSNAME
  2

  9
$UCSORG
 10
0.0
 20
0.0
 30
0.0
  9
$UCSXDIR
 10
1.0
 20
0.0
 30
0.0
  9
$UCSYDIR
 10
0.0
 20
1.0
 30
0.0
  9
$UCSORTHOREF
  2

  9
$UCSORTHOVIEW
 70
     0
  9
$UCSORGTOP
 10
0.0
 20
0.0
 30
0.0
  9
$UCSORGBOTTOM
 10
0.0
 20
0.0
 30
0.0
  9
$UCSORGLEFT
 10
0.0
 20
0.0
 30
0.0
  9
$UCSORGRIGHT
 10
0.0
 20
0.0
 30
0.0
  9
$UCSORGFRONT
 10
0.0
 20
0.0
 30
0.0
  9
$UCSORGBACK
 10
0.0
 20
0.0
 30
0.0
  9
$PUCSBASE
  2

  9
$PUCSNAME
  2

  9
$PUCSORG
 10
0.0
 20
0.0
 30
0.0
  9
$PUCSXDIR
 10
1.0
 20
0.0
 30
0.0
  9
$PUCSYDIR
 10
0.0
 20
1.0
 30
0.0
  9
$PUCSORTHOREF
  2

  9
$PUCSORTHOVIEW
 70
     0
  9
$PUCSORGTOP
 10
0.0
 20
0.0
 30
0.0
  9
$PUCSORGBOTTOM
 10
0.0
 20
0.0
 30
0.0
  9
$PUCSORGLEFT
 10
0.0
 20
0.0
 30
0.0
  9
$PUCSORGRIGHT
 10
0.0
 20
0.0
 30
0.0
  9
$PUCSORGFRONT
 10
0.0
 20
0.0
 30
0.0
  9
$PUCSORGBACK
 10
0.0
 20
0.0
 30
0.0
  9
$USERI1
 70
     0
  9
$USERI2
 70
     0
  9
$USERI3
 70
     0
  9
$USERI4
 70
     0
  9
$USERI5
 70
     0
  9
$USERR1
 40
0.0
  9
$USERR2
 40
0.0
  9
$USERR3
 40
0.0
  9
$USERR4
 40
0.0
  9
$USERR5
 40
0.0
  9
$WORLDVIEW
 70
     1
  9
$SHADEDGE
 70
     3
  9
$SHADEDIF
 70
    70
  9
$TILEMODE
 70
     1
  9
$MAXACTVP
 70
    48
  9
$PINSBASE
 10
0.0
 20
0.0
 30
0.0
  9
$PLIMCHECK
 70
     0
  9
$PEXTMIN
 10
1.000000000000000E+20
 20
1.000000000000000E+20
 30
1.000000000000000E+20
  9
$PEXTMAX
 10
-1.000000000000000E+20
 20
-1.000000000000000E+20
 30
-1.000000000000000E+20
  9
$PLIMMIN
 10
0.0
 20
0.0
  9
$PLIMMAX
 10
420.0
 20
297.0
  9
$UNITMODE
 70
     0
  9
$VISRETAIN
 70
     1
  9
$PLINEGEN
 70
     0
  9
$PSLTSCALE
 70
     1
  9
$TREEDEPTH
 70
  3020
  9
$CMLSTYLE
  2
STANDARD
  9
$CMLJUST
 70
     0
  9
$CMLSCALE
 40
1.0
  9
$PROXYGRAPHICS
 70
     1
  9
$MEASUREMENT
 70
     0
  9
$CELWEIGHT
370
    -1
  9
$ENDCAPS
280
     0
  9
$JOINSTYLE
280
     0
  9
$LWDISPLAY
290
     0
  9
$INSUNITS
 70
     0
  9
$HYPERLINKBASE
  1

  9
$STYLESHEET
  1

  9
$XEDIT
290
     1
  9
$CEPSNTYPE
380
     0
  9
$PSTYLEMODE
290
     1
  9
$FINGERPRINTGUID
  2
{BEFF6B92-2196-4FB0-8D09-9B801B04694B}
  9
$VERSIONGUID
  2
{695AB1E8-EDE7-43DB-9803-DD720D0B5CAA}
  9
$EXTNAMES
290
     1
  9
$PSVPSCALE
 40
0.0
  9
$OLESTARTUP
290
     0
  0
ENDSEC
  0
SECTION
  2
CLASSES
  0
CLASS
  1
ACDBDICTIONARYWDFLT
  2
AcDbDictionaryWithDefault
  3
ObjectDBX Classes
 90
        0
280
     0
281
     0
  0
CLASS
  1
ACDBPLACEHOLDER
  2
AcDbPlaceHolder
  3
ObjectDBX Classes
 90
        0
280
     0
281
     0
  0
CLASS
  1
LAYOUT
  2
AcDbLayout
  3
ObjectDBX Classes
 90
        0
280
     0
281
     0
  0
CLASS
  1
DICTIONARYVAR
  2
AcDbDictionaryVar
  3
ObjectDBX Classes
 90
        0
280
     0
281
     0
  0
CLASS
  1
MATERIAL
  2
AcDbMaterial
  3
ObjectDBX Classes
 90
     1153
280
     0
281
     0
  0
CLASS
  1
VISUALSTYLE
  2
AcDbVisualStyle
  3
ObjectDBX Classes
 90
     4095
280
     0
281
     0
  0
CLASS
  1
TABLESTYLE
  2
AcDbTableStyle
  3
ObjectDBX Classes
 90
     4095
280
     0
281
     0
  0
CLASS
  1
SCALE
  2
AcDbScale
  3
ObjectDBX Classes
 90
     1153
280
     0
281
     0
  0
CLASS
  1
MLEADERSTYLE
  2
AcDbMLeaderStyle
  3
ACDB_MLEADERSTYLE_CLASS
 90
     4095
280
     0
281
     0
  0
CLASS
  1
ACDBSECTIONVIEWSTYLE
  2
AcDbSectionViewStyle
  3
ObjectDBX Classes
 90
     1025
280
     0
281
     0
  0
CLASS
  1
ACDBDETAILVIEWSTYLE
  2
AcDbDetailViewStyle
  3
ObjectDBX Classes
 90
     1025
280
     0
281
     0
  0
CLASS
  1
CELLSTYLEMAP
  2
AcDbCellStyleMap
  3
ObjectDBX Classes
 90
     1152
280
     0
281
     0
  0
ENDSEC
  0
SECTION
  2
TABLES
  0
TABLE
  2
VPORT
  5
A95
330
0
100
AcDbSymbolTable
 70
     1
  0
VPORT
  5
C7E
330
A95
100
AcDbSymbolTableRecord
100
AcDbViewportTableRecord
  2
*ACTIVE
 70
     0
 10
0.0
 20
0.0
 11
1.0
 21
1.0
 12
299.7209075999972
 22
169.1670234979153
 13
0.0
 23
0.0
 14
10.0
 24
10.0
 15
10.0
 25
10.0
 16
0.0
 26
0.0
 36
1.0
 17
0.0
 27
0.0
 37
0.0
 40
321.9204249319513
 41
1.899603698811096
 42
50.0
 43
0.0
 44
0.0
 50
0.0
 51
0.0
 71
     0
 72
   100
 73
     1
 74
     0
 75
     0
 76
     0
 77
     0
 78
     0
281
     0
 65
     1
110
0.0
120
0.0
130
0.0
111
1.0
121
0.0
131
0.0
112
0.0
122
1.0
132
0.0
 79
     0
146
0.0
1001
ACAD_NAV_VCDISPLAY
1070
     3
  0
ENDTAB
  0
TABLE
  2
LTYPE
  5
A92
330
0
100
AcDbSymbolTable
 70
     4
  0
LTYPE
  5
AA0
330
A92
100
AcDbSymbolTableRecord
100
AcDbLinetypeTableRecord
  2
BYBLOCK
 70
     0
  3

 72
    65
 73
     0
 40
0.0
  0
LTYPE
  5
AA1
330
A92
100
AcDbSymbolTableRecord
100
AcDbLinetypeTableRecord
  2
BYLAYER
 70
     0
  3

 72
    65
 73
     0
 40
0.0
  0
LTYPE
  5
AA2
330
A92
100
AcDbSymbolTableRecord
100
AcDbLinetypeTableRecord
  2
CONTINUOUS
 70
     0
  3
Solid line
 72
    65
 73
     0
 40
0.0
  0
LTYPE
  5
AB0
330
A92
100
AcDbSymbolTableRecord
100
AcDbLinetypeTableRecord
  2
DASHED
 70
     0
  3
Dashed __ __ __ __ __ __ __ __ __ __ __ __ __ _
 72
    65
 73
     2
 40
19.05
 49
12.7
 74
     0
 49
-6.349999999999997
 74
     0
  0
LTYPE
  5
AB1
330
A92
100
AcDbSymbolTableRecord
100
AcDbLinetypeTableRecord
  2
CENTER
 70
     0
  3
Center ____ _ ____ _ ____ _ ____ _ ____ _ ____
 72
    65
 73
     4
 40
50.8
 49
31.75
 74
     0
 49
-6.349999999999997
 74
     0
 49
6.349999999999997
 74
     0
 49
-6.349999999999997
 74
     0
  0
LTYPE
  5
AB2
330
A92
100
AcDbSymbolTableRecord
100
AcDbLinetypeTableRecord
  2
PHANTOM
 70
     0
  3
Phantom ______  __  __  ______  __  __  ______
 72
    65
 73
     6
 40
63.5
 49
31.75
 74
     0
 49
-6.349999999999997
 74
     0
 49
6.349999999999997
 74
     0
 49
-6.349999999999997
 74
     0
 49
6.349999999999997
 74
     0
 49
-6.349999999999997
 74
     0
  0
ENDTAB
  0
TABLE
  2
LAYER
  5
A8F
330
0
100
AcDbSymbolTable
 70
     8
  0
LAYER
  5
A9D
102
{ACAD_XDICTIONARY
360
CD9
102
}
330
A8F
100
AcDbSymbolTableRecord
100
AcDbLayerTableRecord
  2
0
 70
     0
 62
     7
  6
CONTINUOUS
370
    -3
390
C87
  0
LAYER
  5
AB3
102
{ACAD_XDICTIONARY
360
CDB
102
}
330
A8F
100
AcDbSymbolTableRecord
100
AcDbLayerTableRecord
  2
4
 70
     0
 62
     1
  6
CENTER
370
    -3
390
C87
  0
LAYER
  5
AB4
102
{ACAD_XDICTIONARY
360
CDD
102
}
330
A8F
100
AcDbSymbolTableRecord
100
AcDbLayerTableRecord
  2
5
 70
     0
 62
     6
  6
PHANTOM
370
    -3
390
C87
  0
LAYER
  5
AB5
102
{ACAD_XDICTIONARY
360
CDF
102
}
330
A8F
100
AcDbSymbolTableRecord
100
AcDbLayerTableRecord
  2
1
 70
     0
 62
     7
  6
CONTINUOUS
370
    -3
390
C87
  0
LAYER
  5
AB6
102
{ACAD_XDICTIONARY
360
CE1
102
}
330
A8F
100
AcDbSymbolTableRecord
100
AcDbLayerTableRecord
  2
2
 70
     0
 62
     4
  6
CONTINUOUS
370
    -3
390
C87
  0
LAYER
  5
AB7
102
{ACAD_XDICTIONARY
360
CE3
102
}
330
A8F
100
AcDbSymbolTableRecord
100
AcDbLayerTableRecord
  2
3
 70
     0
 62
     2
  6
DASHED
370
    -3
390
C87
  0
LAYER
  5
AB8
102
{ACAD_XDICTIONARY
360
CE5
102
}
330
A8F
100
AcDbSymbolTableRecord
100
AcDbLayerTableRecord
  2
6
 70
     0
 62
     5
  6
CONTINUOUS
370
    -3
390
C87
  0
LAYER
  5
AB9
102
{ACAD_XDICTIONARY
360
CE7
102
}
330
A8F
100
AcDbSymbolTableRecord
100
AcDbLayerTableRecord
  2
7
 70
     0
 62
     3
  6
CONTINUOUS
370
    -3
390
C87
  0
ENDTAB
  0
TABLE
  2
STYLE
  5
A90
330
0
100
AcDbSymbolTable
 70
     1
  0
STYLE
  5
A9E
330
A90
100
AcDbSymbolTableRecord
100
AcDbTextStyleTableRecord
  2
STANDARD
 70
     0
 40
0.0
 41
1.0
 50
0.0
 71
     0
 42
2.5
  3
txt
  4

  0
ENDTAB
  0
TABLE
  2
VIEW
  5
A93
330
0
100
AcDbSymbolTable
 70
     0
  0
ENDTAB
  0
TABLE
  2
UCS
  5
A94
330
0
100
AcDbSymbolTable
 70
     0
  0
ENDTAB
  0
TABLE
  2
APPID
  5
A96
330
0
100
AcDbSymbolTable
 70
     7
  0
APPID
  5
A9F
330
A96
100
AcDbSymbolTableRecord
100
AcDbRegAppTableRecord
  2
ACAD
 70
     0
  0
APPID
  5
ABA
330
A96
100
AcDbSymbolTableRecord
100
AcDbRegAppTableRecord
  2
CONTENTTABDATA
 70
     0
  0
APPID
  5
ABB
330
A96
100
AcDbSymbolTableRecord
100
AcDbRegAppTableRecord
  2
CONTENTCURRENTTAB
 70
     0
  0
APPID
  5
ABC
330
A96
100
AcDbSymbolTableRecord
100
AcDbRegAppTableRecord
  2
CONTENTBLOCKDESCRIPTION
 70
     0
  0
APPID
  5
ABD
330
A96
100
AcDbSymbolTableRecord
100
AcDbRegAppTableRecord
  2
CONTENTBLOCKICON
 70
     0
  0
APPID
  5
CF3
330
A96
100
AcDbSymbolTableRecord
100
AcDbRegAppTableRecord
  2
ACAD_NAV_VCDISPLAY
 70
     0
  0
APPID
  5
D2C
330
A96
100
AcDbSymbolTableRecord
100
AcDbRegAppTableRecord
  2
ACAD_MLEADERVER
 70
     0
  0
ENDTAB
  0
TABLE
  2
DIMSTYLE
  5
A97
330
0
100
AcDbSymbolTable
 70
     1
100
AcDbDimStyleTable
 71
     0
  0
DIMSTYLE
105
ABE
330
A97
100
AcDbSymbolTableRecord
100
AcDbDimStyleTableRecord
  2
STANDARD
 70
     0
 41
3.0
 42
1.0
 43
10.0
 44
1.0
 73
     0
 74
     0
 77
     3
 78
     8
140
3.2
141
0.0
147
1.0
172
     1
173
     1
284
     8
285
     8
286
     8
340
A9E
  0
ENDTAB
  0
TABLE
  2
BLOCK_RECORD
  5
A8E
330
0
100
AcDbSymbolTable
 70
     1
  0
BLOCK_RECORD
  5
AAB
102
{ACAD_XDICTIONARY
360
C81
102
}
330
A8E
100
AcDbSymbolTableRecord
100
AcDbBlockTableRecord
  2
*MODEL_SPACE
340
CD5
  0
BLOCK_RECORD
  5
AA7
102
{ACAD_XDICTIONARY
360
C7F
102
}
330
A8E
100
AcDbSymbolTableRecord
100
AcDbBlockTableRecord
  2
*PAPER_SPACE
340
CD6
  0
BLOCK_RECORD
  5
AC6
330
A8E
100
AcDbSymbolTableRecord
100
AcDbBlockTableRecord
  2
_OPEN
340
0
  0
ENDTAB
  0
ENDSEC
  0
SECTION
  2
BLOCKS
  0
BLOCK
  5
AAC
330
AAB
100
AcDbEntity
  8
0
100
AcDbBlockBegin
  2
*MODEL_SPACE
 70
     0
 10
0.0
 20
0.0
 30
0.0
  3
*MODEL_SPACE
  1

  0
ENDBLK
  5
AAD
330
AAB
100
AcDbEntity
  8
0
100
AcDbBlockEnd
  0
BLOCK
  5
AA8
330
AA7
100
AcDbEntity
 67
     1
  8
0
100
AcDbBlockBegin
  2
*PAPER_SPACE
 70
     0
 10
0.0
 20
0.0
 30
0.0
  3
*PAPER_SPACE
  1

  0
ENDBLK
  5
AA9
330
AA7
100
AcDbEntity
 67
     1
  8
0
100
AcDbBlockEnd
  0
BLOCK
  5
AC7
330
AC6
100
AcDbEntity
  8
0
100
AcDbBlockBegin
  2
_OPEN
 70
     0
 10
0.0
 20
0.0
 30
0.0
  3
_OPEN
  1

  0
LINE
  5
AC8
330
AC6
100
AcDbEntity
  8
0
  6
ByBlock
 62
     0
100
AcDbLine
 10
-1.0
 20
0.166667
 30
0.0
 11
0.0
 21
0.0
 31
0.0
  0
LINE
  5
AC9
330
AC6
100
AcDbEntity
  8
0
  6
ByBlock
 62
     0
100
AcDbLine
 10
0.0
 20
0.0
 30
0.0
 11
-1.0
 21
-0.166667
 31
0.0
  0
LINE
  5
ACA
330
AC6
100
AcDbEntity
  8
0
  6
ByBlock
 62
     0
100
AcDbLine
 10
0.0
 20
0.0
 30
0.0
 11
-1.0
 21
0.0
 31
0.0
  0
ENDBLK
  5
ACB
330
AC6
100
AcDbEntity
  8
0
100
AcDbBlockEnd
  0
ENDSEC
  0
SECTION
  2
ENTITIES
  0
LINE
  5
ACC
330
AAB
100
AcDbEntity
  8
4
  6
CENTER
100
AcDbLine
 10
139.227257
 20
172.764709
 30
0.0
 11
152.52726
 21
172.764709
 31
0.0
  0
LINE
  5
ACD
330
AAB
100
AcDbEntity
  8
4
  6
CENTER
100
AcDbLine
 10
394.481781
 20
172.764709
 30
0.0
 11
381.1817779999998
 21
172.764709
 31
0.0
  0
TEXT
  5
ACE
330
AAB
100
AcDbEntity
  8
6
  6
Continuous
100
AcDbText
 10
27.97945
 20
10.0487
 30
0.0
 40
1.399999999999999
  1
6
 41
1.069393
100
AcDbText
  0
TEXT
  5
ACF
330
AAB
100
AcDbEntity
  8
1
  6
Continuous
100
AcDbText
 10
17.97945
 20
10.0487
 30
0.0
 40
1.399999999999999
  1
1
 41
1.069393
100
AcDbText
  0
TEXT
  5
AD0
330
AAB
100
AcDbEntity
  8
1
  6
Continuous
100
AcDbText
 10
9.99995
 20
10.0
 30
0.0
 40
1.399999999999999
  1
LAYER
 41
1.009912999999997
100
AcDbText
  0
TEXT
  5
AD1
330
AAB
100
AcDbEntity
  8
2
  6
Continuous
100
AcDbText
 10
19.97944999999998
 20
10.0487
 30
0.0
 40
1.399999999999999
  1
2
 41
1.069393
100
AcDbText
  0
TEXT
  5
AD2
330
AAB
100
AcDbEntity
  8
3
  6
DASHED
100
AcDbText
 10
21.97945
 20
10.0487
 30
0.0
 40
1.399999999999999
  1
3
 41
1.069393
100
AcDbText
  0
TEXT
  5
AD3
330
AAB
100
AcDbEntity
  8
4
  6
CENTER
100
AcDbText
 10
23.97944999999999
 20
10.0487
 30
0.0
 40
1.399999999999999
  1
4
 41
1.069393
100
AcDbText
  0
TEXT
  5
AD4
330
AAB
100
AcDbEntity
  8
5
  6
PHANTOM
100
AcDbText
 10
25.97945
 20
10.0487
 30
0.0
 40
1.399999999999999
  1
5
 41
1.069393
100
AcDbText
  0
TEXT
  5
AD5
330
AAB
100
AcDbEntity
  8
7
  6
Continuous
100
AcDbText
 10
10.00005
 20
26.0
 30
0.0
 40
3.0
  1
CODE No.5008
 41
1.003962999999999
100
AcDbText
  0
TEXT
  5
AD6
330
AAB
100
AcDbEntity
  8
7
  6
Continuous
100
AcDbText
 10
10.00005
 20
18.0
 30
0.0
 40
3.0
  1
TYPE No.TM-27-R
 41
1.003152
100
AcDbText
  0
TEXT
  5
AD7
330
AAB
100
AcDbEntity
  8
7
  6
Continuous
100
AcDbText
 10
29.97944999999999
 20
10.0487
 30
0.0
 40
1.399999999999999
  1
7
 41
1.069393
100
AcDbText
  0
LINE
  5
AD8
330
AAB
100
AcDbEntity
  8
1
  6
Continuous
100
AcDbLine
 10
151.02726
 20
238.2647089999999
 30
0.0
 11
151.02726
 21
223.3309779999999
 31
0.0
  0
LINE
  5
AD9
330
AAB
100
AcDbEntity
  8
1
  6
Continuous
100
AcDbLine
 10
149.4272609999999
 20
238.2647089999999
 30
0.0
 11
149.4272609999999
 21
223.005508
 31
0.0
  0
LINE
  5
ADA
330
AAB
100
AcDbEntity
  8
1
  6
Continuous
100
AcDbLine
 10
146.4272609999999
 20
215.6113589999999
 30
0.0
 11
146.4272609999999
 21
158.764709
 31
0.0
  0
LINE
  5
ADB
330
AAB
100
AcDbEntity
  8
1
  6
Continuous
100
AcDbLine
 10
148.02726
 20
215.9368289999999
 30
0.0
 11
148.02726
 21
158.764709
 31
0.0
  0
LINE
  5
ADC
330
AAB
100
AcDbEntity
  8
1
  6
Continuous
100
AcDbLine
 10
145.927261
 20
188.764709
 30
0.0
 11
145.927261
 21
130.101257
 31
0.0
  0
LINE
  5
ADD
330
AAB
100
AcDbEntity
  8
1
  6
Continuous
100
AcDbLine
 10
144.327255
 20
188.764709
 30
0.0
 11
145.927261
 21
188.764709
 31
0.0
  0
LINE
  5
ADE
330
AAB
100
AcDbEntity
  8
1
  6
Continuous
100
AcDbLine
 10
144.327255
 20
188.764709
 30
0.0
 11
144.327255
 21
129.592575
 31
0.0
  0
LINE
  5
ADF
330
AAB
100
AcDbEntity
  8
1
  6
Continuous
100
AcDbLine
 10
141.3272609999999
 20
122.523895
 30
0.0
 11
141.3272609999999
 21
107.264709
 31
0.0
  0
LINE
  5
AE0
330
AAB
100
AcDbEntity
  8
1
  6
Continuous
100
AcDbLine
 10
139.727255
 20
122.0152209999999
 30
0.0
 11
139.727255
 21
107.264709
 31
0.0
  0
LINE
  5
AE1
330
AAB
100
AcDbEntity
  8
4
  6
CENTER
100
AcDbLine
 10
133.1272569999999
 20
112.264709
 30
0.0
 11
145.6272569999999
 21
112.264709
 31
0.0
  0
LINE
  5
AE2
330
AAB
100
AcDbEntity
  8
1
  6
Continuous
100
AcDbLine
 10
139.727255
 20
107.264709
 30
0.0
 11
141.3272609999999
 21
107.264709
 31
0.0
  0
LINE
  5
AE3
330
AAB
100
AcDbEntity
  8
1
  6
Continuous
100
AcDbLine
 10
139.227255
 20
106.264709
 30
0.0
 11
147.8272609999999
 21
106.264709
 31
0.0
  0
LINE
  5
AE4
330
AAB
100
AcDbEntity
  8
1
  6
Continuous
100
AcDbLine
 10
139.227255
 20
104.6647109999999
 30
0.0
 11
147.8272609999999
 21
104.6647109999999
 31
0.0
  0
LINE
  5
AE5
330
AAB
100
AcDbEntity
  8
1
  6
Continuous
100
AcDbLine
 10
137.6272569999999
 20
117.264709
 30
0.0
 11
137.6272569999999
 21
106.264709
 31
0.0
  0
LINE
  5
AE6
330
AAB
100
AcDbEntity
  8
1
  6
Continuous
100
AcDbLine
 10
139.227255
 20
117.264709
 30
0.0
 11
139.227255
 21
104.6647109999999
 31
0.0
  0
LINE
  5
AE7
330
AAB
100
AcDbEntity
  8
1
  6
Continuous
100
AcDbLine
 10
147.8272609999999
 20
106.264709
 30
0.0
 11
147.8272609999999
 21
104.6647109999999
 31
0.0
  0
LINE
  5
AE8
330
AAB
100
AcDbEntity
  8
1
  6
Continuous
100
AcDbLine
 10
137.6272569999999
 20
117.264709
 30
0.0
 11
139.227255
 21
117.264709
 31
0.0
  0
LINE
  5
AE9
330
AAB
100
AcDbEntity
  8
1
  6
Continuous
100
AcDbLine
 10
142.3272609999999
 20
113.764709
 30
0.0
 11
142.3272609999999
 21
110.764709
 31
0.0
  0
LINE
  5
AEA
330
AAB
100
AcDbEntity
  8
1
  6
Continuous
100
AcDbLine
 10
141.3272609999999
 20
114.264702
 30
0.0
 11
142.3272609999999
 21
113.7647019999999
 31
0.0
  0
LINE
  5
AEB
330
AAB
100
AcDbEntity
  8
1
  6
Continuous
100
AcDbLine
 10
141.327254
 20
110.264709
 30
0.0
 11
142.327254
 21
110.764709
 31
0.0
  0
LINE
  5
AEC
330
AAB
100
AcDbEntity
  8
1
  6
Continuous
100
AcDbLine
 10
139.227255
 20
108.264709
 30
0.0
 11
139.727255
 21
108.264709
 31
0.0
  0
LINE
  5
AED
330
AAB
100
AcDbEntity
  8
1
  6
Continuous
100
AcDbLine
 10
139.227255
 20
116.264709
 30
0.0
 11
139.727255
 21
116.264709
 31
0.0
  0
LINE
  5
AEE
330
AAB
100
AcDbEntity
  8
4
  6
CENTER
100
AcDbLine
 10
143.5272579999999
 20
109.264709
 30
0.0
 11
143.5272579999999
 21
101.664711
 31
0.0
  0
LINE
  5
AEF
330
AAB
100
AcDbEntity
  8
1
  6
Continuous
100
AcDbLine
 10
136.1272569999999
 20
115.264709
 30
0.0
 11
137.6272569999999
 21
115.264709
 31
0.0
  0
LINE
  5
AF0
330
AAB
100
AcDbEntity
  8
1
  6
Continuous
100
AcDbLine
 10
136.1272569999999
 20
115.264709
 30
0.0
 11
136.1272569999999
 21
109.264709
 31
0.0
  0
LINE
  5
AF1
330
AAB
100
AcDbEntity
  8
1
  6
Continuous
100
AcDbLine
 10
136.1272569999999
 20
109.264709
 30
0.0
 11
137.6272569999999
 21
109.264709
 31
0.0
  0
LINE
  5
AF2
330
AAB
100
AcDbEntity
  8
1
  6
Continuous
100
AcDbLine
 10
148.52726
 20
175.264709
 30
0.0
 11
149.52726
 21
174.764709
 31
0.0
  0
LINE
  5
AF3
330
AAB
100
AcDbEntity
  8
1
  6
Continuous
100
AcDbLine
 10
149.52726
 20
174.764709
 30
0.0
 11
149.52726
 21
170.764709
 31
0.0
  0
LINE
  5
AF4
330
AAB
100
AcDbEntity
  8
1
  6
Continuous
100
AcDbLine
 10
148.52726
 20
170.264709
 30
0.0
 11
149.52726
 21
170.764709
 31
0.0
  0
LINE
  5
AF5
330
AAB
100
AcDbEntity
  8
1
  6
Continuous
100
AcDbLine
 10
148.52726
 20
184.779037
 30
0.0
 11
148.52726
 21
160.750381
 31
0.0
  0
LINE
  5
AF6
330
AAB
100
AcDbEntity
  8
1
  6
Continuous
100
AcDbLine
 10
148.02726
 20
184.779037
 30
0.0
 11
148.52726
 21
184.779037
 31
0.0
  0
LINE
  5
AF7
330
AAB
100
AcDbEntity
  8
1
  6
Continuous
100
AcDbLine
 10
148.02726
 20
160.750381
 30
0.0
 11
148.52726
 21
160.750381
 31
0.0
  0
LINE
  5
AF8
330
AAB
100
AcDbEntity
  8
1
  6
Continuous
100
AcDbLine
 10
145.927261
 20
161.764709
 30
0.0
 11
146.4272609999999
 21
161.764709
 31
0.0
  0
LINE
  5
AF9
330
AAB
100
AcDbEntity
  8
1
  6
Continuous
100
AcDbLine
 10
145.927261
 20
183.764709
 30
0.0
 11
146.4272609999999
 21
183.764709
 31
0.0
  0
LINE
  5
AFA
330
AAB
100
AcDbEntity
  8
1
  6
Continuous
100
AcDbLine
 10
143.727257
 20
184.764709
 30
0.0
 11
144.327255
 21
184.764709
 31
0.0
  0
LINE
  5
AFB
330
AAB
100
AcDbEntity
  8
1
  6
Continuous
100
AcDbLine
 10
143.727257
 20
184.764709
 30
0.0
 11
143.727257
 21
160.764709
 31
0.0
  0
LINE
  5
AFC
330
AAB
100
AcDbEntity
  8
1
  6
Continuous
100
AcDbLine
 10
142.227257
 20
176.514709
 30
0.0
 11
143.727257
 21
176.514709
 31
0.0
  0
LINE
  5
AFD
330
AAB
100
AcDbEntity
  8
1
  6
Continuous
100
AcDbLine
 10
142.227257
 20
176.514709
 30
0.0
 11
142.227257
 21
169.014709
 31
0.0
  0
LINE
  5
AFE
330
AAB
100
AcDbEntity
  8
1
  6
Continuous
100
AcDbLine
 10
142.227257
 20
169.014709
 30
0.0
 11
143.727257
 21
169.014709
 31
0.0
  0
LINE
  5
AFF
330
AAB
100
AcDbEntity
  8
1
  6
Continuous
100
AcDbLine
 10
143.727257
 20
160.764709
 30
0.0
 11
144.327255
 21
160.764709
 31
0.0
  0
LINE
  5
B00
330
AAB
100
AcDbEntity
  8
1
  6
Continuous
100
AcDbLine
 10
148.02726
 20
158.764709
 30
0.0
 11
146.4272609999999
 21
158.764709
 31
0.0
  0
LINE
  5
B01
330
AAB
100
AcDbEntity
  8
1
  6
Continuous
100
AcDbLine
 10
382.6817779999998
 20
238.2647089999999
 30
0.0
 11
382.6817779999998
 21
225.384888
 31
0.0
  0
LINE
  5
B02
330
AAB
100
AcDbEntity
  8
1
  6
Continuous
100
AcDbLine
 10
384.2817839999998
 20
238.2647089999999
 30
0.0
 11
384.2817839999998
 21
225.0495759999998
 31
0.0
  0
LINE
  5
B03
330
AAB
100
AcDbEntity
  8
1
  6
Continuous
100
AcDbLine
 10
384.2817839999998
 20
238.2647089999999
 30
0.0
 11
382.6817779999998
 21
238.2647089999999
 31
0.0
  0
LINE
  5
B04
330
AAB
100
AcDbEntity
  8
1
  6
Continuous
100
AcDbLine
 10
387.2817839999998
 20
217.8709109999998
 30
0.0
 11
387.2817839999998
 21
172.764709
 31
0.0
  0
LINE
  5
B05
330
AAB
100
AcDbEntity
  8
1
  6
Continuous
100
AcDbLine
 10
385.6817779999998
 20
218.2062069999998
 30
0.0
 11
385.6817779999998
 21
158.764709
 31
0.0
  0
LINE
  5
B06
330
AAB
100
AcDbEntity
  8
1
  6
Continuous
100
AcDbLine
 10
387.7817839999999
 20
188.764709
 30
0.0
 11
387.7817839999999
 21
172.764709
 31
0.0
  0
LINE
  5
B07
330
AAB
100
AcDbEntity
  8
1
  6
Continuous
100
AcDbLine
 10
389.381775
 20
188.764709
 30
0.0
 11
387.7817839999999
 21
188.764709
 31
0.0
  0
LINE
  5
B08
330
AAB
100
AcDbEntity
  8
1
  6
Continuous
100
AcDbLine
 10
389.381775
 20
188.764709
 30
0.0
 11
389.381775
 21
127.280823
 31
0.0
  0
LINE
  5
B09
330
AAB
100
AcDbEntity
  8
1
  6
Continuous
100
AcDbLine
 10
392.381769
 20
120.454948
 30
0.0
 11
392.381769
 21
107.264709
 31
0.0
  0
LINE
  5
B0A
330
AAB
100
AcDbEntity
  8
1
  6
Continuous
100
AcDbLine
 10
393.981775
 20
119.931633
 30
0.0
 11
393.981775
 21
107.264709
 31
0.0
  0
LINE
  5
B0B
330
AAB
100
AcDbEntity
  8
4
  6
CENTER
100
AcDbLine
 10
400.5817809999999
 20
112.264709
 30
0.0
 11
388.0817809999999
 21
112.264709
 31
0.0
  0
LINE
  5
B0C
330
AAB
100
AcDbEntity
  8
1
  6
Continuous
100
AcDbLine
 10
393.981775
 20
107.264709
 30
0.0
 11
392.381769
 21
107.264709
 31
0.0
  0
LINE
  5
B0D
330
AAB
100
AcDbEntity
  8
1
  6
Continuous
100
AcDbLine
 10
394.481775
 20
106.264709
 30
0.0
 11
385.881784
 21
106.264709
 31
0.0
  0
LINE
  5
B0E
330
AAB
100
AcDbEntity
  8
1
  6
Continuous
100
AcDbLine
 10
394.481775
 20
104.6647109999999
 30
0.0
 11
385.881784
 21
104.6647109999999
 31
0.0
  0
LINE
  5
B0F
330
AAB
100
AcDbEntity
  8
1
  6
Continuous
100
AcDbLine
 10
396.0817809999999
 20
117.264709
 30
0.0
 11
396.0817809999999
 21
106.264709
 31
0.0
  0
LINE
  5
B10
330
AAB
100
AcDbEntity
  8
1
  6
Continuous
100
AcDbLine
 10
394.481775
 20
117.264709
 30
0.0
 11
394.481775
 21
104.6647109999999
 31
0.0
  0
LINE
  5
B11
330
AAB
100
AcDbEntity
  8
1
  6
Continuous
100
AcDbLine
 10
385.881769
 20
106.264709
 30
0.0
 11
385.881769
 21
104.6647109999999
 31
0.0
  0
LINE
  5
B12
330
AAB
100
AcDbEntity
  8
1
  6
Continuous
100
AcDbLine
 10
396.0817809999999
 20
117.264709
 30
0.0
 11
394.481775
 21
117.264709
 31
0.0
  0
LINE
  5
B13
330
AAB
100
AcDbEntity
  8
1
  6
Continuous
100
AcDbLine
 10
391.381769
 20
113.764709
 30
0.0
 11
391.381769
 21
110.764709
 31
0.0
  0
LINE
  5
B14
330
AAB
100
AcDbEntity
  8
1
  6
Continuous
100
AcDbLine
 10
392.3817839999999
 20
114.264702
 30
0.0
 11
391.381769
 21
113.7647019999999
 31
0.0
  0
LINE
  5
B15
330
AAB
100
AcDbEntity
  8
1
  6
Continuous
100
AcDbLine
 10
392.3817839999999
 20
110.264709
 30
0.0
 11
391.381784
 21
110.764709
 31
0.0
  0
LINE
  5
B16
330
AAB
100
AcDbEntity
  8
1
  6
Continuous
100
AcDbLine
 10
394.481775
 20
108.264709
 30
0.0
 11
393.981775
 21
108.264709
 31
0.0
  0
LINE
  5
B17
330
AAB
100
AcDbEntity
  8
1
  6
Continuous
100
AcDbLine
 10
394.481775
 20
116.264709
 30
0.0
 11
393.981775
 21
116.264709
 31
0.0
  0
LINE
  5
B18
330
AAB
100
AcDbEntity
  8
4
  6
CENTER
100
AcDbLine
 10
390.181772
 20
109.264709
 30
0.0
 11
390.181772
 21
101.664711
 31
0.0
  0
LINE
  5
B19
330
AAB
100
AcDbEntity
  8
1
  6
Continuous
100
AcDbLine
 10
397.5817809999999
 20
115.264709
 30
0.0
 11
396.0817809999999
 21
115.264709
 31
0.0
  0
LINE
  5
B1A
330
AAB
100
AcDbEntity
  8
1
  6
Continuous
100
AcDbLine
 10
397.5817809999999
 20
115.264709
 30
0.0
 11
397.5817809999999
 21
109.264709
 31
0.0
  0
LINE
  5
B1B
330
AAB
100
AcDbEntity
  8
1
  6
Continuous
100
AcDbLine
 10
397.5817809999999
 20
109.264709
 30
0.0
 11
396.0817809999999
 21
109.264709
 31
0.0
  0
LINE
  5
B1C
330
AAB
100
AcDbEntity
  8
1
  6
Continuous
100
AcDbLine
 10
385.1817779999998
 20
175.264709
 30
0.0
 11
384.1817779999999
 21
174.764709
 31
0.0
  0
LINE
  5
B1D
330
AAB
100
AcDbEntity
  8
1
  6
Continuous
100
AcDbLine
 10
384.1817779999999
 20
174.764709
 30
0.0
 11
384.1817779999999
 21
170.764709
 31
0.0
  0
LINE
  5
B1E
330
AAB
100
AcDbEntity
  8
1
  6
Continuous
100
AcDbLine
 10
385.1817779999998
 20
170.264709
 30
0.0
 11
384.1817779999999
 21
170.764709
 31
0.0
  0
LINE
  5
B1F
330
AAB
100
AcDbEntity
  8
1
  6
Continuous
100
AcDbLine
 10
385.1817779999998
 20
184.779037
 30
0.0
 11
385.1817779999998
 21
160.750381
 31
0.0
  0
LINE
  5
B20
330
AAB
100
AcDbEntity
  8
1
  6
Continuous
100
AcDbLine
 10
385.6817779999998
 20
184.779037
 30
0.0
 11
385.1817779999998
 21
184.779037
 31
0.0
  0
LINE
  5
B21
330
AAB
100
AcDbEntity
  8
1
  6
Continuous
100
AcDbLine
 10
385.6817779999998
 20
160.750381
 30
0.0
 11
385.1817779999998
 21
160.750381
 31
0.0
  0
LINE
  5
B22
330
AAB
100
AcDbEntity
  8
1
  6
Continuous
100
AcDbLine
 10
387.7817839999999
 20
161.764709
 30
0.0
 11
387.2817839999998
 21
161.764709
 31
0.0
  0
LINE
  5
B23
330
AAB
100
AcDbEntity
  8
1
  6
Continuous
100
AcDbLine
 10
387.7817839999999
 20
183.764709
 30
0.0
 11
387.2817839999998
 21
183.764709
 31
0.0
  0
LINE
  5
B24
330
AAB
100
AcDbEntity
  8
1
  6
Continuous
100
AcDbLine
 10
389.981781
 20
184.764709
 30
0.0
 11
389.381775
 21
184.764709
 31
0.0
  0
LINE
  5
B25
330
AAB
100
AcDbEntity
  8
1
  6
Continuous
100
AcDbLine
 10
389.981781
 20
184.764709
 30
0.0
 11
389.981781
 21
160.764709
 31
0.0
  0
LINE
  5
B26
330
AAB
100
AcDbEntity
  8
1
  6
Continuous
100
AcDbLine
 10
391.481781
 20
176.514709
 30
0.0
 11
389.981781
 21
176.514709
 31
0.0
  0
LINE
  5
B27
330
AAB
100
AcDbEntity
  8
1
  6
Continuous
100
AcDbLine
 10
391.481781
 20
176.514709
 30
0.0
 11
391.481781
 21
169.014709
 31
0.0
  0
LINE
  5
B28
330
AAB
100
AcDbEntity
  8
1
  6
Continuous
100
AcDbLine
 10
391.481781
 20
169.014709
 30
0.0
 11
389.981781
 21
169.014709
 31
0.0
  0
LINE
  5
B29
330
AAB
100
AcDbEntity
  8
1
  6
Continuous
100
AcDbLine
 10
389.981781
 20
160.764709
 30
0.0
 11
389.381775
 21
160.764709
 31
0.0
  0
LINE
  5
B2A
330
AAB
100
AcDbEntity
  8
1
  6
Continuous
100
AcDbLine
 10
382.1817779999999
 20
237.264709
 30
0.0
 11
382.6817779999998
 21
237.264709
 31
0.0
  0
LINE
  5
B2B
330
AAB
100
AcDbEntity
  8
1
  6
Continuous
100
AcDbLine
 10
382.1817779999999
 20
237.264709
 30
0.0
 11
382.1817779999999
 21
229.2647089999999
 31
0.0
  0
LINE
  5
B2C
330
AAB
100
AcDbEntity
  8
1
  6
Continuous
100
AcDbLine
 10
382.1817779999999
 20
229.2647089999999
 30
0.0
 11
382.6817779999998
 21
229.2647089999999
 31
0.0
  0
LINE
  5
B2D
330
AAB
100
AcDbEntity
  8
1
  6
Continuous
100
AcDbLine
 10
385.7817839999999
 20
236.2647089999999
 30
0.0
 11
384.2817839999998
 21
236.2647089999999
 31
0.0
  0
LINE
  5
B2E
330
AAB
100
AcDbEntity
  8
1
  6
Continuous
100
AcDbLine
 10
385.7817839999999
 20
236.2647089999999
 30
0.0
 11
385.7817839999999
 21
230.2647089999999
 31
0.0
  0
LINE
  5
B2F
330
AAB
100
AcDbEntity
  8
1
  6
Continuous
100
AcDbLine
 10
385.7817839999999
 20
230.2647089999999
 30
0.0
 11
384.2817839999998
 21
230.2647089999999
 31
0.0
  0
LINE
  5
B30
330
AAB
100
AcDbEntity
  8
4
  6
CENTER
100
AcDbLine
 10
374.581772
 20
233.264709
 30
0.0
 11
388.7817839999998
 21
233.264709
 31
0.0
  0
LINE
  5
B31
330
AAB
100
AcDbEntity
  8
1
  6
Continuous
100
AcDbLine
 10
385.6817779999998
 20
158.764709
 30
0.0
 11
387.2817839999998
 21
158.764709
 31
0.0
  0
LINE
  5
B32
330
AAB
100
AcDbEntity
  8
1
  6
Continuous
100
AcDbLine
 10
389.381775
 20
170.1733089999999
 30
0.0
 11
385.6817779999998
 21
170.1733089999999
 31
0.0
  0
LINE
  5
B33
330
AAB
100
AcDbEntity
  8
1
  6
Continuous
100
AcDbLine
 10
389.381775
 20
172.764709
 30
0.0
 11
385.6817779999998
 21
172.764709
 31
0.0
  0
LINE
  5
B34
330
AAB
100
AcDbEntity
  8
1
  6
Continuous
100
AcDbLine
 10
387.7817839999999
 20
170.1733089999999
 30
0.0
 11
387.7817839999999
 21
127.8041379999999
 31
0.0
  0
LINE
  5
B35
330
AAB
100
AcDbEntity
  8
1
  6
Continuous
100
AcDbLine
 10
387.2817839999998
 20
170.1733089999999
 30
0.0
 11
387.2817839999998
 21
158.764709
 31
0.0
  0
LINE
  5
B36
330
AAB
100
AcDbEntity
  8
1
  6
Continuous
100
AcDbLine
 10
145.927261
 20
158.6284939999998
 30
0.0
 11
144.327255
 21
158.6284939999998
 31
0.0
  0
LINE
  5
B37
330
AAB
100
AcDbEntity
  8
1
  6
Continuous
100
AcDbLine
 10
148.02726
 20
184.748932
 30
0.0
 11
146.4272609999999
 21
184.748932
 31
0.0
  0
LINE
  5
B38
330
AAB
100
AcDbEntity
  8
1
  6
Continuous
100
AcDbLine
 10
145.633507
 20
129.1772919999999
 30
0.0
 11
141.3272609999999
 21
122.523895
 31
0.0
  0
LINE
  5
B39
330
AAB
100
AcDbEntity
  8
1
  6
Continuous
100
AcDbLine
 10
144.327255
 20
129.592575
 30
0.0
 11
140.0210099999999
 21
122.939186
 31
0.0
  0
LINE
  5
B3A
330
AAB
100
AcDbEntity
  8
1
  6
Continuous
100
AcDbLine
 10
393.6725399999998
 20
120.877121
 30
0.0
 11
389.381775
 21
127.280823
 31
0.0
  0
LINE
  5
B3B
330
AAB
100
AcDbEntity
  8
1
  6
Continuous
100
AcDbLine
 10
388.091019
 20
126.85865
 30
0.0
 11
392.381769
 21
120.454948
 31
0.0
  0
LINE
  5
B3C
330
AAB
100
AcDbEntity
  8
1
  6
Continuous
100
AcDbLine
 10
387.147156
 20
218.513306
 30
0.0
 11
384.2817839999998
 21
225.0495759999998
 31
0.0
  0
LINE
  5
B3D
330
AAB
100
AcDbEntity
  8
1
  6
Continuous
100
AcDbLine
 10
382.8164059999999
 20
224.742493
 30
0.0
 11
385.6817779999998
 21
218.2062069999998
 31
0.0
  0
LINE
  5
B3E
330
AAB
100
AcDbEntity
  8
1
  6
Continuous
100
AcDbLine
 10
150.900101
 20
222.705902
 30
0.0
 11
148.02726
 21
215.9368289999999
 31
0.0
  0
LINE
  5
B3F
330
AAB
100
AcDbEntity
  8
1
  6
Continuous
100
AcDbLine
 10
149.4272609999999
 20
223.005508
 30
0.0
 11
146.5544129999998
 21
216.2364499999999
 31
0.0
  0
ARC
  5
B40
330
AAB
100
AcDbEntity
  8
1
  6
Continuous
100
AcDbCircle
 10
139.227255
 20
106.264709
 30
0.0
 40
1.6
100
AcDbArc
 50
180.0000179999999
 51
270.0000029999998
  0
ARC
  5
B41
330
AAB
100
AcDbEntity
  8
1
  6
Continuous
100
AcDbCircle
 10
394.481775
 20
106.264709
 30
0.0
 40
1.6
100
AcDbArc
 50
270.0000029999998
 51
359.999978
  0
ARC
  5
B42
330
AAB
100
AcDbEntity
  8
1
  6
Continuous
100
AcDbCircle
 10
144.327255
 20
130.101257
 30
0.0
 40
1.6
100
AcDbArc
 50
324.7264939999999
 51
359.999995
  0
ARC
  5
B43
330
AAB
100
AcDbEntity
  8
1
  6
Continuous
100
AcDbCircle
 10
141.327254
 20
122.0152209999999
 30
0.0
 40
1.6
100
AcDbArc
 50
144.7264779999999
 51
180.0
  0
ARC
  5
B44
330
AAB
100
AcDbEntity
  8
1
  6
Continuous
100
AcDbCircle
 10
389.381775
 20
127.8041379999999
 30
0.0
 40
1.6
100
AcDbArc
 50
180.0
 51
216.2230309999999
  0
ARC
  5
B45
330
AAB
100
AcDbEntity
  8
1
  6
Continuous
100
AcDbCircle
 10
392.3817839999999
 20
119.931633
 30
0.0
 40
1.6
100
AcDbArc
 50
359.999995
 51
36.22304299999999
  0
ARC
  5
B46
330
AAB
100
AcDbEntity
  8
1
  6
Continuous
100
AcDbCircle
 10
149.4272609999999
 20
223.3309779999999
 30
0.0
 40
1.6
100
AcDbArc
 50
337.003267
 51
359.999995
  0
ARC
  5
B47
330
AAB
100
AcDbEntity
  8
1
  6
Continuous
100
AcDbCircle
 10
148.02726
 20
215.6113589999999
 30
0.0
 40
1.6
100
AcDbArc
 50
157.0032639999998
 51
180.0
  0
ARC
  5
B48
330
AAB
100
AcDbEntity
  8
1
  6
Continuous
100
AcDbCircle
 10
384.281769
 20
225.384888
 30
0.0
 40
1.6
100
AcDbArc
 50
180.0
 51
203.6717089999999
  0
ARC
  5
B49
330
AAB
100
AcDbEntity
  8
1
  6
Continuous
100
AcDbCircle
 10
385.6817779999998
 20
217.8709109999998
 30
0.0
 40
1.6
100
AcDbArc
 50
359.999995
 51
23.67170899999998
  0
LINE
  5
B4A
330
AAB
100
AcDbEntity
  8
1
  6
Continuous
100
AcDbLine
 10
378.1817779999999
 20
241.2647089999999
 30
0.0
 11
378.1817779999999
 21
225.2647089999999
 31
0.0
  0
LINE
  5
B4B
330
AAB
100
AcDbEntity
  8
1
  6
Continuous
100
AcDbLine
 10
377.1817779999998
 20
241.2647089999999
 30
0.0
 11
377.1817779999998
 21
225.2647089999999
 31
0.0
  0
LINE
  5
B4C
330
AAB
100
AcDbEntity
  8
1
  6
Continuous
100
AcDbLine
 10
377.1817779999998
 20
241.2647089999999
 30
0.0
 11
378.1817779999999
 21
241.2647089999999
 31
0.0
  0
LINE
  5
B4D
330
AAB
100
AcDbEntity
  8
1
  6
Continuous
100
AcDbLine
 10
377.1817779999998
 20
225.2647089999999
 30
0.0
 11
378.1817779999999
 21
225.2647089999999
 31
0.0
  0
ARC
  5
B4E
330
AAB
100
AcDbEntity
  8
1
  6
Continuous
100
AcDbCircle
 10
376.7656809999999
 20
232.920841
 30
0.0
 40
6.5
100
AcDbArc
 50
36.58949699999999
 51
77.41656399999998
  0
ARC
  5
B4F
330
AAB
100
AcDbEntity
  8
1
  6
Continuous
100
AcDbCircle
 10
376.7656809999999
 20
233.6085779999999
 30
0.0
 40
6.5
100
AcDbArc
 50
282.5834359999999
 51
323.410503
  0
ARC
  5
B50
330
AAB
100
AcDbEntity
  8
1
  6
Continuous
100
AcDbCircle
 10
381.1817779999998
 20
236.1992679999999
 30
0.0
 40
1.0
100
AcDbArc
 50
0.0
 51
36.58949699999999
  0
ARC
  5
B51
330
AAB
100
AcDbEntity
  8
1
  6
Continuous
100
AcDbCircle
 10
381.1817779999998
 20
230.3301509999998
 30
0.0
 40
1.0
100
AcDbArc
 50
323.410503
 51
0.0
  0
LINE
  5
B52
330
AAB
100
AcDbEntity
  8
1
  6
Continuous
100
AcDbLine
 10
151.52726
 20
237.264709
 30
0.0
 11
151.02726
 21
237.264709
 31
0.0
  0
LINE
  5
B53
330
AAB
100
AcDbEntity
  8
1
  6
Continuous
100
AcDbLine
 10
151.52726
 20
229.2647089999999
 30
0.0
 11
151.02726
 21
229.2647089999999
 31
0.0
  0
LINE
  5
B54
330
AAB
100
AcDbEntity
  8
4
  6
CENTER
100
AcDbLine
 10
159.127266
 20
233.264709
 30
0.0
 11
144.927254
 21
233.264709
 31
0.0
  0
LINE
  5
B55
330
AAB
100
AcDbEntity
  8
1
  6
Continuous
100
AcDbLine
 10
151.02726
 20
238.2647089999999
 30
0.0
 11
151.02726
 21
225.384888
 31
0.0
  0
LINE
  5
B56
330
AAB
100
AcDbEntity
  8
1
  6
Continuous
100
AcDbLine
 10
149.427254
 20
238.2647089999999
 30
0.0
 11
149.427254
 21
225.0495759999998
 31
0.0
  0
LINE
  5
B57
330
AAB
100
AcDbEntity
  8
1
  6
Continuous
100
AcDbLine
 10
149.427254
 20
238.2647089999999
 30
0.0
 11
151.02726
 21
238.2647089999999
 31
0.0
  0
LINE
  5
B58
330
AAB
100
AcDbEntity
  8
1
  6
Continuous
100
AcDbLine
 10
147.927254
 20
236.2647089999999
 30
0.0
 11
149.427254
 21
236.2647089999999
 31
0.0
  0
LINE
  5
B59
330
AAB
100
AcDbEntity
  8
1
  6
Continuous
100
AcDbLine
 10
147.927254
 20
236.2647089999999
 30
0.0
 11
147.927254
 21
230.2647089999999
 31
0.0
  0
LINE
  5
B5A
330
AAB
100
AcDbEntity
  8
1
  6
Continuous
100
AcDbLine
 10
147.927254
 20
230.2647089999999
 30
0.0
 11
149.427254
 21
230.2647089999999
 31
0.0
  0
LINE
  5
B5B
330
AAB
100
AcDbEntity
  8
1
  6
Continuous
100
AcDbLine
 10
156.52726
 20
241.2647089999999
 30
0.0
 11
155.52726
 21
241.2647089999999
 31
0.0
  0
ARC
  5
B5C
330
AAB
100
AcDbEntity
  8
1
  6
Continuous
100
AcDbCircle
 10
152.52726
 20
236.1992679999999
 30
0.0
 40
1.0
100
AcDbArc
 50
143.410503
 51
180.0
  0
ARC
  5
B5D
330
AAB
100
AcDbEntity
  8
1
  6
Continuous
100
AcDbCircle
 10
156.9433569999999
 20
232.920841
 30
0.0
 40
6.5
100
AcDbArc
 50
102.5834359999999
 51
143.410503
  0
LINE
  5
B5E
330
AAB
100
AcDbEntity
  8
1
  6
Continuous
100
AcDbLine
 10
156.52726
 20
225.2647089999999
 30
0.0
 11
155.52726
 21
225.2647089999999
 31
0.0
  0
ARC
  5
B5F
330
AAB
100
AcDbEntity
  8
1
  6
Continuous
100
AcDbCircle
 10
156.9433569999999
 20
233.6085779999999
 30
0.0
 40
6.5
100
AcDbArc
 50
216.589497
 51
257.4165639999999
  0
ARC
  5
B60
330
AAB
100
AcDbEntity
  8
1
  6
Continuous
100
AcDbCircle
 10
152.52726
 20
230.3301509999998
 30
0.0
 40
1.0
100
AcDbArc
 50
180.0
 51
216.589497
  0
LINE
  5
B61
330
AAB
100
AcDbEntity
  8
1
  6
Continuous
100
AcDbLine
 10
156.52726
 20
241.2647089999999
 30
0.0
 11
156.52726
 21
225.2647089999999
 31
0.0
  0
LINE
  5
B62
330
AAB
100
AcDbEntity
  8
1
  6
Continuous
100
AcDbLine
 10
155.52726
 20
241.2647089999999
 30
0.0
 11
155.52726
 21
225.2647089999999
 31
0.0
  0
LINE
  5
B63
330
AAB
100
AcDbEntity
  8
1
  6
Continuous
100
AcDbLine
 10
151.52726
 20
237.264709
 30
0.0
 11
151.52726
 21
229.2647089999999
 31
0.0
  0
LINE
  5
B64
330
AAB
100
AcDbEntity
  8
1
  6
Continuous
100
AcDbLine
 10
139.227257
 20
36.0
 30
0.0
 11
137.6272509999998
 21
36.0
 31
0.0
  0
LINE
  5
B65
330
AAB
100
AcDbEntity
  8
4
  6
CENTER
100
AcDbLine
 10
159.12726
 20
41.0
 30
0.0
 11
132.678286
 21
41.0
 31
0.0
  0
LINE
  5
B66
330
AAB
100
AcDbEntity
  8
1
  6
Continuous
100
AcDbLine
 10
139.227257
 20
46.0
 30
0.0
 11
137.6272509999998
 21
46.0
 31
0.0
  0
LINE
  5
B67
330
AAB
100
AcDbEntity
  8
1
  6
Continuous
100
AcDbLine
 10
147.827248
 20
29.44850499999999
 30
0.0
 11
147.827248
 21
52.55149499999999
 31
0.0
  0
LINE
  5
B68
330
AAB
100
AcDbEntity
  8
1
  6
Continuous
100
AcDbLine
 10
139.227257
 20
29.44853099999999
 30
0.0
 11
139.227257
 21
36.0
 31
0.0
  0
LINE
  5
B69
330
AAB
100
AcDbEntity
  8
1
  6
Continuous
100
AcDbLine
 10
137.6272509999998
 20
36.0
 30
0.0
 11
137.6272509999998
 21
46.0
 31
0.0
  0
LINE
  5
B6A
330
AAB
100
AcDbEntity
  8
1
  6
Continuous
100
AcDbLine
 10
139.227257
 20
46.0
 30
0.0
 11
139.227257
 21
52.55146899999999
 31
0.0
  0
LINE
  5
B6B
330
AAB
100
AcDbEntity
  8
4
  6
CENTER
100
AcDbLine
 10
143.52726
 20
25.0
 30
0.0
 11
143.52726
 21
57.0
 31
0.0
  0
LINE
  5
B6C
330
AAB
100
AcDbEntity
  8
4
  6
CENTER
100
AcDbLine
 10
149.52726
 20
51.0
 30
0.0
 11
137.52726
 21
51.0
 31
0.0
  0
LINE
  5
B6D
330
AAB
100
AcDbEntity
  8
4
  6
CENTER
100
AcDbLine
 10
149.52726
 20
31.0
 30
0.0
 11
137.52726
 21
31.0
 31
0.0
  0
LINE
  5
B6E
330
AAB
100
AcDbEntity
  8
1
  6
Continuous
100
AcDbLine
 10
151.527262
 20
45.0
 30
0.0
 11
151.527262
 21
37.0
 31
0.0
  0
LINE
  5
B6F
330
AAB
100
AcDbEntity
  8
1
  6
Continuous
100
AcDbLine
 10
143.727259
 20
21.20577099999999
 30
0.0
 11
144.3272569999998
 21
21.20577099999999
 31
0.0
  0
LINE
  5
B70
330
AAB
100
AcDbEntity
  8
1
  6
Continuous
100
AcDbLine
 10
151.527262
 20
45.0
 30
0.0
 11
151.027262
 21
45.0
 31
0.0
  0
LINE
  5
B71
330
AAB
100
AcDbEntity
  8
1
  6
Continuous
100
AcDbLine
 10
151.527262
 20
37.0
 30
0.0
 11
151.027262
 21
37.0
 31
0.0
  0
LINE
  5
B72
330
AAB
100
AcDbEntity
  8
1
  6
Continuous
100
AcDbLine
 10
136.127259
 20
38.0
 30
0.0
 11
137.627259
 21
38.0
 31
0.0
  0
LINE
  5
B73
330
AAB
100
AcDbEntity
  8
1
  6
Continuous
100
AcDbLine
 10
136.127259
 20
44.0
 30
0.0
 11
136.127259
 21
38.0
 31
0.0
  0
LINE
  5
B74
330
AAB
100
AcDbEntity
  8
1
  6
Continuous
100
AcDbLine
 10
136.127259
 20
44.0
 30
0.0
 11
137.627259
 21
44.0
 31
0.0
  0
LINE
  5
B75
330
AAB
100
AcDbEntity
  8
1
  6
Continuous
100
AcDbLine
 10
148.527262
 20
45.220095
 30
0.0
 11
148.527262
 21
21.191447
 31
0.0
  0
LINE
  5
B76
330
AAB
100
AcDbEntity
  8
1
  6
Continuous
100
AcDbLine
 10
149.527262
 20
35.205767
 30
0.0
 11
149.527262
 21
31.20576699999999
 31
0.0
  0
LINE
  5
B77
330
AAB
100
AcDbEntity
  8
1
  6
Continuous
100
AcDbLine
 10
148.527262
 20
35.70577099999999
 30
0.0
 11
149.527262
 21
35.205771
 31
0.0
  0
LINE
  5
B78
330
AAB
100
AcDbEntity
  8
1
  6
Continuous
100
AcDbLine
 10
148.527262
 20
30.70577099999999
 30
0.0
 11
149.527262
 21
31.205769
 31
0.0
  0
LINE
  5
B79
330
AAB
100
AcDbEntity
  8
1
  6
Continuous
100
AcDbLine
 10
145.9272629999999
 20
22.20577099999999
 30
0.0
 11
146.4272629999999
 21
22.20577099999999
 31
0.0
  0
LINE
  5
B7A
330
AAB
100
AcDbEntity
  8
1
  6
Continuous
100
AcDbLine
 10
148.027262
 20
45.220095
 30
0.0
 11
148.527262
 21
45.220095
 31
0.0
  0
LINE
  5
B7B
330
AAB
100
AcDbEntity
  8
1
  6
Continuous
100
AcDbLine
 10
148.027262
 20
21.191447
 30
0.0
 11
148.527262
 21
21.191447
 31
0.0
  0
LINE
  5
B7C
330
AAB
100
AcDbEntity
  8
1
  6
Continuous
100
AcDbLine
 10
269.1209999999999
 20
127.312196
 30
0.0
 11
256.024157
 21
129.6215209999998
 31
0.0
  0
LINE
  5
B7D
330
AAB
100
AcDbEntity
  8
1
  6
Continuous
100
AcDbLine
 10
266.9365599999998
 20
120.479731
 30
0.0
 11
255.210497
 21
122.5473499999998
 31
0.0
  0
LINE
  5
B7E
330
AAB
100
AcDbEntity
  8
4
  6
CENTER
100
AcDbLine
 10
266.8549959999999
 20
153.764709
 30
0.0
 11
266.8549959999999
 21
191.764709
 31
0.0
  0
LINE
  5
B7F
330
AAB
100
AcDbEntity
  8
4
  6
CENTER
100
AcDbLine
 10
285.8549959999999
 20
172.764709
 30
0.0
 11
247.854996
 21
172.764709
 31
0.0
  0
LINE
  5
B80
330
AAB
100
AcDbEntity
  8
1
  6
Continuous
100
AcDbLine
 10
282.8549959999999
 20
172.764709
 30
0.0
 11
280.8549959999999
 21
172.764709
 31
0.0
  0
LINE
  5
B81
330
AAB
100
AcDbEntity
  8
1
  6
Continuous
100
AcDbLine
 10
282.8549959999999
 20
172.764709
 30
0.0
 11
282.643746
 21
170.1733089999999
 31
0.0
  0
LINE
  5
B82
330
AAB
100
AcDbEntity
  8
1
  6
Continuous
100
AcDbLine
 10
281.2496879999999
 20
172.764709
 30
0.0
 11
281.0596339999999
 21
170.4333039999999
 31
0.0
  0
LINE
  5
B83
330
AAB
100
AcDbEntity
  8
1
  6
Continuous
100
AcDbLine
 10
282.643746
 20
170.1733089999999
 30
0.0
 11
281.0596339999999
 21
170.4333039999999
 31
0.0
  0
LINE
  5
B84
330
AAB
100
AcDbEntity
  8
1
  6
Continuous
100
AcDbLine
 10
148.027262
 20
47.20577099999998
 30
0.0
 11
148.027262
 21
17.425766
 31
0.0
  0
LINE
  5
B85
330
AAB
100
AcDbEntity
  8
1
  6
Continuous
100
AcDbLine
 10
148.027262
 20
47.20577099999998
 30
0.0
 11
147.827248
 21
47.20577099999998
 31
0.0
  0
LINE
  5
B86
330
AAB
100
AcDbEntity
  8
1
  6
Continuous
100
AcDbLine
 10
146.4272629999999
 20
27.92691599999999
 30
0.0
 11
146.4272629999999
 21
19.00113
 31
0.0
  0
LINE
  5
B87
330
AAB
100
AcDbEntity
  8
1
  6
Continuous
100
AcDbLine
 10
145.9272629999999
 20
27.613655
 30
0.0
 11
145.9272629999999
 21
17.425766
 31
0.0
  0
LINE
  5
B88
330
AAB
100
AcDbEntity
  8
1
  6
Continuous
100
AcDbLine
 10
144.3272569999998
 20
27.06440999999999
 30
0.0
 11
144.3272569999998
 21
18.805771
 31
0.0
  0
LINE
  5
B89
330
AAB
100
AcDbEntity
  8
1
  6
Continuous
100
AcDbLine
 10
148.027262
 20
17.20577099999999
 30
0.0
 11
145.9272629999999
 21
17.20577099999999
 31
0.0
  0
LINE
  5
B8A
330
AAB
100
AcDbEntity
  8
1
  6
Continuous
100
AcDbLine
 10
143.727259
 20
27.003998
 30
0.0
 11
143.727259
 21
21.20577099999999
 31
0.0
  0
LINE
  5
B8B
330
AAB
100
AcDbEntity
  8
1
  6
Continuous
100
AcDbLine
 10
151.027262
 20
46.0
 30
0.0
 11
151.027262
 21
33.220001
 31
0.0
  0
LINE
  5
B8C
330
AAB
100
AcDbEntity
  8
4
  6
CENTER
100
AcDbLine
 10
152.9096159999998
 20
33.205767
 30
0.0
 11
136.4380509999998
 21
33.205767
 31
0.0
  0
LINE
  5
B8D
330
AAB
100
AcDbEntity
  8
1
  6
Continuous
100
AcDbLine
 10
139.227257
 20
309.529419
 30
0.0
 11
137.6272509999998
 21
309.529419
 31
0.0
  0
LINE
  5
B8E
330
AAB
100
AcDbEntity
  8
4
  6
CENTER
100
AcDbLine
 10
159.12726
 20
304.529419
 30
0.0
 11
132.678286
 21
304.529419
 31
0.0
  0
LINE
  5
B8F
330
AAB
100
AcDbEntity
  8
1
  6
Continuous
100
AcDbLine
 10
139.227257
 20
299.529419
 30
0.0
 11
137.6272509999998
 21
299.529419
 31
0.0
  0
LINE
  5
B90
330
AAB
100
AcDbEntity
  8
1
  6
Continuous
100
AcDbLine
 10
147.827248
 20
298.323648
 30
0.0
 11
147.827248
 21
292.9779169999998
 31
0.0
  0
LINE
  5
B91
330
AAB
100
AcDbEntity
  8
1
  6
Continuous
100
AcDbLine
 10
137.6272509999998
 20
309.529419
 30
0.0
 11
137.6272509999998
 21
299.529419
 31
0.0
  0
LINE
  5
B92
330
AAB
100
AcDbEntity
  8
1
  6
Continuous
100
AcDbLine
 10
139.227257
 20
316.0808949999998
 30
0.0
 11
139.227257
 21
292.977942
 31
0.0
  0
LINE
  5
B93
330
AAB
100
AcDbEntity
  8
4
  6
CENTER
100
AcDbLine
 10
143.52726
 20
320.529419
 30
0.0
 11
143.52726
 21
288.529419
 31
0.0
  0
LINE
  5
B94
330
AAB
100
AcDbEntity
  8
4
  6
CENTER
100
AcDbLine
 10
149.52726
 20
294.529419
 30
0.0
 11
137.52726
 21
294.529419
 31
0.0
  0
LINE
  5
B95
330
AAB
100
AcDbEntity
  8
4
  6
CENTER
100
AcDbLine
 10
149.52726
 20
314.529419
 30
0.0
 11
137.52726
 21
314.529419
 31
0.0
  0
LINE
  5
B96
330
AAB
100
AcDbEntity
  8
1
  6
Continuous
100
AcDbLine
 10
156.52726
 20
290.529419
 30
0.0
 11
156.52726
 21
318.529419
 31
0.0
  0
LINE
  5
B97
330
AAB
100
AcDbEntity
  8
1
  6
Continuous
100
AcDbLine
 10
155.52726
 20
290.529419
 30
0.0
 11
155.52726
 21
318.529419
 31
0.0
  0
LINE
  5
B98
330
AAB
100
AcDbEntity
  8
1
  6
Continuous
100
AcDbLine
 10
151.527262
 20
300.529419
 30
0.0
 11
151.527262
 21
308.529419
 31
0.0
  0
LINE
  5
B99
330
AAB
100
AcDbEntity
  8
1
  6
Continuous
100
AcDbLine
 10
147.9272629999998
 20
301.529419
 30
0.0
 11
149.4272629999999
 21
301.529419
 31
0.0
  0
LINE
  5
B9A
330
AAB
100
AcDbEntity
  8
1
  6
Continuous
100
AcDbLine
 10
147.9272629999998
 20
307.529419
 30
0.0
 11
149.4272629999999
 21
307.529419
 31
0.0
  0
LINE
  5
B9B
330
AAB
100
AcDbEntity
  8
1
  6
Continuous
100
AcDbLine
 10
151.527262
 20
300.529419
 30
0.0
 11
151.027262
 21
300.529419
 31
0.0
  0
LINE
  5
B9C
330
AAB
100
AcDbEntity
  8
1
  6
Continuous
100
AcDbLine
 10
151.527262
 20
308.529419
 30
0.0
 11
151.027262
 21
308.529419
 31
0.0
  0
LINE
  5
B9D
330
AAB
100
AcDbEntity
  8
1
  6
Continuous
100
AcDbLine
 10
136.127259
 20
307.529419
 30
0.0
 11
137.627259
 21
307.529419
 31
0.0
  0
LINE
  5
B9E
330
AAB
100
AcDbEntity
  8
1
  6
Continuous
100
AcDbLine
 10
136.127259
 20
301.529419
 30
0.0
 11
136.127259
 21
307.529419
 31
0.0
  0
LINE
  5
B9F
330
AAB
100
AcDbEntity
  8
1
  6
Continuous
100
AcDbLine
 10
136.127259
 20
301.529419
 30
0.0
 11
137.627259
 21
301.529419
 31
0.0
  0
LINE
  5
BA0
330
AAB
100
AcDbEntity
  8
1
  6
Continuous
100
AcDbLine
 10
148.527262
 20
300.3093049999999
 30
0.0
 11
148.527262
 21
300.979908
 31
0.0
  0
LINE
  5
BA1
330
AAB
100
AcDbEntity
  8
1
  6
Continuous
100
AcDbLine
 10
149.527262
 20
312.323648
 30
0.0
 11
149.527262
 21
314.323648
 31
0.0
  0
LINE
  5
BA2
330
AAB
100
AcDbEntity
  8
1
  6
Continuous
100
AcDbLine
 10
148.527262
 20
314.823648
 30
0.0
 11
149.527262
 21
314.323648
 31
0.0
  0
LINE
  5
BA3
330
AAB
100
AcDbEntity
  8
1
  6
Continuous
100
AcDbLine
 10
145.9272629999999
 20
323.3236479999998
 30
0.0
 11
146.4272629999999
 21
323.3236479999998
 31
0.0
  0
LINE
  5
BA4
330
AAB
100
AcDbEntity
  8
1
  6
Continuous
100
AcDbLine
 10
148.027262
 20
300.3093049999999
 30
0.0
 11
148.527262
 21
300.3093049999999
 31
0.0
  0
LINE
  5
BA5
330
AAB
100
AcDbEntity
  8
1
  6
Continuous
100
AcDbLine
 10
148.027262
 20
324.337961
 30
0.0
 11
148.527262
 21
324.337961
 31
0.0
  0
LINE
  5
BA6
330
AAB
100
AcDbEntity
  8
1
  6
Continuous
100
AcDbLine
 10
148.027262
 20
298.323648
 30
0.0
 11
148.027262
 21
301.119078
 31
0.0
  0
LINE
  5
BA7
330
AAB
100
AcDbEntity
  8
1
  6
Continuous
100
AcDbLine
 10
148.027262
 20
298.323648
 30
0.0
 11
146.4272629999999
 21
298.323648
 31
0.0
  0
LINE
  5
BA8
330
AAB
100
AcDbEntity
  8
1
  6
Continuous
100
AcDbLine
 10
146.4272629999999
 20
298.323648
 30
0.0
 11
146.4272629999999
 21
328.103647
 31
0.0
  0
LINE
  5
BA9
330
AAB
100
AcDbEntity
  8
1
  6
Continuous
100
AcDbLine
 10
145.9272629999999
 20
296.3236479999998
 30
0.0
 11
145.9272629999999
 21
328.103647
 31
0.0
  0
LINE
  5
BAA
330
AAB
100
AcDbEntity
  8
1
  6
Continuous
100
AcDbLine
 10
144.3272569999998
 20
296.3236479999998
 30
0.0
 11
144.3272569999998
 21
326.7236419999999
 31
0.0
  0
LINE
  5
BAB
330
AAB
100
AcDbEntity
  8
1
  6
Continuous
100
AcDbLine
 10
148.027262
 20
328.3236479999998
 30
0.0
 11
145.9272629999999
 21
328.3236479999998
 31
0.0
  0
LINE
  5
BAC
330
AAB
100
AcDbEntity
  8
1
  6
Continuous
100
AcDbLine
 10
143.727259
 20
299.323648
 30
0.0
 11
143.727259
 21
325.3236479999998
 31
0.0
  0
LINE
  5
BAD
330
AAB
100
AcDbEntity
  8
1
  6
Continuous
100
AcDbLine
 10
151.027262
 20
299.529419
 30
0.0
 11
151.027262
 21
312.3094179999998
 31
0.0
  0
LINE
  5
BAE
330
AAB
100
AcDbEntity
  8
1
  6
Continuous
100
AcDbLine
 10
149.4272629999999
 20
299.529419
 30
0.0
 11
149.4272629999999
 21
312.3094179999998
 31
0.0
  0
LINE
  5
BAF
330
AAB
100
AcDbEntity
  8
1
  6
Continuous
100
AcDbLine
 10
151.027262
 20
299.529419
 30
0.0
 11
149.4272629999999
 21
299.529419
 31
0.0
  0
LINE
  5
BB0
330
AAB
100
AcDbEntity
  8
1
  6
Continuous
100
AcDbLine
 10
151.027262
 20
312.3094179999998
 30
0.0
 11
149.4272629999999
 21
312.3094179999998
 31
0.0
  0
LINE
  5
BB1
330
AAB
100
AcDbEntity
  8
1
  6
Continuous
100
AcDbLine
 10
156.52726
 20
290.529419
 30
0.0
 11
155.52726
 21
290.529419
 31
0.0
  0
LINE
  5
BB2
330
AAB
100
AcDbEntity
  8
1
  6
Continuous
100
AcDbLine
 10
156.52726
 20
318.529419
 30
0.0
 11
155.52726
 21
318.529419
 31
0.0
  0
LINE
  5
BB3
330
AAB
100
AcDbEntity
  8
4
  6
CENTER
100
AcDbLine
 10
152.6139469999999
 20
312.323648
 30
0.0
 11
137.1440369999999
 21
312.323648
 31
0.0
  0
LINE
  5
BB4
330
AAB
100
AcDbEntity
  8
4
  6
CENTER
100
AcDbLine
 10
159.52726
 20
294.529419
 30
0.0
 11
152.52726
 21
294.529419
 31
0.0
  0
LINE
  5
BB5
330
AAB
100
AcDbEntity
  8
4
  6
CENTER
100
AcDbLine
 10
159.52726
 20
314.529419
 30
0.0
 11
152.52726
 21
314.529419
 31
0.0
  0
LINE
  5
BB6
330
AAB
100
AcDbEntity
  8
1
  6
Continuous
100
AcDbLine
 10
147.9272629999998
 20
307.529419
 30
0.0
 11
147.9272629999998
 21
301.529419
 31
0.0
  0
LINE
  5
BB7
330
AAB
100
AcDbEntity
  8
1
  6
Continuous
100
AcDbLine
 10
148.527262
 20
312.945417
 30
0.0
 11
148.527262
 21
324.337961
 31
0.0
  0
LINE
  5
BB8
330
AAB
100
AcDbEntity
  8
1
  6
Continuous
100
AcDbLine
 10
148.027262
 20
313.29875
 30
0.0
 11
148.027262
 21
328.103647
 31
0.0
  0
LINE
  5
BB9
330
AAB
100
AcDbEntity
  8
1
  6
Continuous
100
AcDbLine
 10
139.727257
 20
312.4534
 30
0.0
 11
139.727257
 21
299.529419
 31
0.0
  0
LINE
  5
BBA
330
AAB
100
AcDbEntity
  8
1
  6
Continuous
100
AcDbLine
 10
139.727257
 20
308.529419
 30
0.0
 11
139.227257
 21
308.529419
 31
0.0
  0
LINE
  5
BBB
330
AAB
100
AcDbEntity
  8
1
  6
Continuous
100
AcDbLine
 10
139.727257
 20
300.529419
 30
0.0
 11
139.227257
 21
300.529419
 31
0.0
  0
LINE
  5
BBC
330
AAB
100
AcDbEntity
  8
1
  6
Continuous
100
AcDbLine
 10
145.9272629999999
 20
301.3236479999998
 30
0.0
 11
146.4272629999999
 21
301.3236479999998
 31
0.0
  0
LINE
  5
BBD
330
AAB
100
AcDbEntity
  8
1
  6
Continuous
100
AcDbLine
 10
145.9272629999999
 20
296.3236479999998
 30
0.0
 11
144.3272569999998
 21
296.3236479999998
 31
0.0
  0
LINE
  5
BBE
330
AAB
100
AcDbEntity
  8
1
  6
Continuous
100
AcDbLine
 10
144.3272569999998
 20
325.3236479999998
 30
0.0
 11
143.727259
 21
325.3236479999998
 31
0.0
  0
LINE
  5
BBF
330
AAB
100
AcDbEntity
  8
1
  6
Continuous
100
AcDbLine
 10
144.3272569999998
 20
299.323648
 30
0.0
 11
143.727259
 21
299.323648
 31
0.0
  0
LINE
  5
BC0
330
AAB
100
AcDbEntity
  8
1
  6
Continuous
100
AcDbLine
 10
143.727259
 20
316.073648
 30
0.0
 11
142.227259
 21
316.073648
 31
0.0
  0
LINE
  5
BC1
330
AAB
100
AcDbEntity
  8
1
  6
Continuous
100
AcDbLine
 10
143.727259
 20
308.573648
 30
0.0
 11
142.227259
 21
308.573648
 31
0.0
  0
LINE
  5
BC2
330
AAB
100
AcDbEntity
  8
1
  6
Continuous
100
AcDbLine
 10
142.227259
 20
308.573648
 30
0.0
 11
142.227259
 21
316.073648
 31
0.0
  0
LINE
  5
BC3
330
AAB
100
AcDbEntity
  8
1
  6
Continuous
100
AcDbLine
 10
22.749899
 20
127.262456
 30
0.0
 11
35.836762
 21
129.5700199999998
 31
0.0
  0
LINE
  5
BC4
330
AAB
100
AcDbEntity
  8
1
  6
Continuous
100
AcDbLine
 10
18.794229
 20
106.264709
 30
0.0
 11
18.794229
 21
104.6647109999999
 31
0.0
  0
LINE
  5
BC5
330
AAB
100
AcDbEntity
  8
1
  6
Continuous
100
AcDbLine
 10
46.794229
 20
106.264709
 30
0.0
 11
46.794229
 21
104.6647109999999
 31
0.0
  0
LINE
  5
BC6
330
AAB
100
AcDbEntity
  8
4
  6
CENTER
100
AcDbLine
 10
22.794229
 20
109.264709
 30
0.0
 11
22.794229
 21
101.664711
 31
0.0
  0
LINE
  5
BC7
330
AAB
100
AcDbEntity
  8
4
  6
CENTER
100
AcDbLine
 10
42.794229
 20
109.264709
 30
0.0
 11
42.794229
 21
101.664711
 31
0.0
  0
LINE
  5
BC8
330
AAB
100
AcDbEntity
  8
1
  6
Continuous
100
AcDbLine
 10
18.794229
 20
104.6647109999999
 30
0.0
 11
46.794229
 21
104.6647109999999
 31
0.0
  0
LINE
  5
BC9
330
AAB
100
AcDbEntity
  8
1
  6
Continuous
100
AcDbLine
 10
27.794229
 20
112.264709
 30
0.0
 11
27.794229
 21
104.6647109999999
 31
0.0
  0
LINE
  5
BCA
330
AAB
100
AcDbEntity
  8
1
  6
Continuous
100
AcDbLine
 10
37.794229
 20
112.264709
 30
0.0
 11
37.794229
 21
104.6647109999999
 31
0.0
  0
LINE
  5
BCB
330
AAB
100
AcDbEntity
  8
4
  6
CENTER
100
AcDbLine
 10
24.794229
 20
112.264709
 30
0.0
 11
40.79422899999999
 21
112.264709
 31
0.0
  0
LINE
  5
BCC
330
AAB
100
AcDbEntity
  8
4
  6
CENTER
100
AcDbLine
 10
32.794229
 20
120.264709
 30
0.0
 11
32.794229
 21
101.664711
 31
0.0
  0
LINE
  5
BCD
330
AAB
100
AcDbEntity
  8
1
  6
Continuous
100
AcDbLine
 10
18.794229
 20
106.264709
 30
0.0
 11
27.794229
 21
106.264709
 31
0.0
  0
LINE
  5
BCE
330
AAB
100
AcDbEntity
  8
1
  6
Continuous
100
AcDbLine
 10
24.934339
 20
120.4299899999998
 30
0.0
 11
36.65042299999999
 21
122.4958489999998
 31
0.0
  0
LINE
  5
BCF
330
AAB
100
AcDbEntity
  8
4
  6
CENTER
100
AcDbLine
 10
25.0
 20
153.764709
 30
0.0
 11
25.0
 21
191.764709
 31
0.0
  0
LINE
  5
BD0
330
AAB
100
AcDbEntity
  8
4
  6
CENTER
100
AcDbLine
 10
6.0
 20
172.764709
 30
0.0
 11
44.0
 21
172.764709
 31
0.0
  0
LINE
  5
BD1
330
AAB
100
AcDbEntity
  8
1
  6
Continuous
100
AcDbLine
 10
9.0
 20
172.764709
 30
0.0
 11
9.211258
 21
170.1733089999999
 31
0.0
  0
LINE
  5
BD2
330
AAB
100
AcDbEntity
  8
1
  6
Continuous
100
AcDbLine
 10
20.0
 20
184.764709
 30
0.0
 11
30.0
 21
184.764709
 31
0.0
  0
LINE
  5
BD3
330
AAB
100
AcDbEntity
  8
1
  6
Continuous
100
AcDbLine
 10
20.0
 20
160.764709
 30
0.0
 11
30.0
 21
160.764709
 31
0.0
  0
LINE
  5
BD4
330
AAB
100
AcDbEntity
  8
1
  6
Continuous
100
AcDbLine
 10
149.4272629999999
 20
46.0
 30
0.0
 11
149.4272629999999
 21
44.35466799999999
 31
0.0
  0
LINE
  5
BD5
330
AAB
100
AcDbEntity
  8
1
  6
Continuous
100
AcDbLine
 10
151.027262
 20
46.0
 30
0.0
 11
149.4272629999999
 21
46.0
 31
0.0
  0
LINE
  5
BD6
330
AAB
100
AcDbEntity
  8
1
  6
Continuous
100
AcDbLine
 10
151.027262
 20
33.220001
 30
0.0
 11
149.527262
 21
32.15999999999999
 31
0.0
  0
LINE
  5
BD7
330
AAB
100
AcDbEntity
  8
1
  6
Continuous
100
AcDbLine
 10
151.027262
 20
44.799999
 30
0.0
 11
148.527262
 21
44.104168
 31
0.0
  0
LINE
  5
BD8
330
AAB
100
AcDbEntity
  8
1
  6
Continuous
100
AcDbLine
 10
149.4272629999999
 20
300.7294009999998
 30
0.0
 11
146.4272629999999
 21
301.5644229999999
 31
0.0
  0
LINE
  5
BD9
330
AAB
100
AcDbEntity
  8
1
  6
Continuous
100
AcDbLine
 10
149.4272629999999
 20
312.3094179999998
 30
0.0
 11
146.4272629999999
 21
314.429413
 31
0.0
  0
LINE
  5
BDA
330
AAB
100
AcDbEntity
  8
1
  6
Continuous
100
AcDbLine
 10
141.327256
 20
300.2460929999998
 30
0.0
 11
141.327256
 21
299.529419
 31
0.0
  0
LINE
  5
BDB
330
AAB
100
AcDbEntity
  8
1
  6
Continuous
100
AcDbLine
 10
141.327256
 20
299.529419
 30
0.0
 11
139.727257
 21
299.529419
 31
0.0
  0
LINE
  5
BDC
330
AAB
100
AcDbEntity
  8
1
  6
Continuous
100
AcDbLine
 10
142.227259
 20
313.7421259999999
 30
0.0
 11
139.727257
 21
312.4534
 31
0.0
  0
LINE
  5
BDD
330
AAB
100
AcDbEntity
  8
1
  6
Continuous
100
AcDbLine
 10
139.727257
 20
299.529419
 30
0.0
 11
143.727259
 21
301.3211059999998
 31
0.0
  0
LINE
  5
BDE
330
AAB
100
AcDbEntity
  8
1
  6
Continuous
100
AcDbLine
 10
148.027262
 20
17.425766
 30
0.0
 11
145.117579
 21
17.425766
 31
0.0
  0
LINE
  5
BDF
330
AAB
100
AcDbEntity
  8
1
  6
Continuous
100
AcDbLine
 10
148.027262
 20
17.425766
 30
0.0
 11
148.027262
 21
17.20577099999999
 31
0.0
  0
LINE
  5
BE0
330
AAB
100
AcDbEntity
  8
1
  6
Continuous
100
AcDbLine
 10
148.027262
 20
328.103647
 30
0.0
 11
145.117579
 21
328.103647
 31
0.0
  0
LINE
  5
BE1
330
AAB
100
AcDbEntity
  8
1
  6
Continuous
100
AcDbLine
 10
148.027262
 20
328.103647
 30
0.0
 11
148.027262
 21
328.3236479999998
 31
0.0
  0
LINE
  5
BE2
330
AAB
100
AcDbEntity
  8
1
  6
Continuous
100
AcDbLine
 10
37.794229
 20
106.264709
 30
0.0
 11
46.794229
 21
106.264709
 31
0.0
  0
LINE
  5
BE3
330
AAB
100
AcDbEntity
  8
1
  6
Continuous
100
AcDbLine
 10
148.027262
 20
19.00113
 30
0.0
 11
145.9272629999999
 21
19.00113
 31
0.0
  0
CIRCLE
  5
BE4
330
AAB
100
AcDbEntity
  8
1
  6
Continuous
100
AcDbCircle
 10
143.52726
 20
31.0
 30
0.0
 40
1.649999999999999
  0
CIRCLE
  5
BE5
330
AAB
100
AcDbEntity
  8
1
  6
Continuous
100
AcDbCircle
 10
143.52726
 20
51.0
 30
0.0
 40
1.649999999999999
  0
ARC
  5
BE6
330
AAB
100
AcDbEntity
  8
1
  6
Continuous
100
AcDbCircle
 10
266.8549959999999
 20
172.764709
 30
0.0
 40
16.0
100
AcDbArc
 50
342.083121
 51
350.6791600000001
  0
ARC
  5
BE7
330
AAB
100
AcDbEntity
  8
1
  6
Continuous
100
AcDbCircle
 10
259.060767
 20
112.264709
 30
0.0
 40
5.0
100
AcDbArc
 50
173.1847099999999
 51
342.270149
  0
ARC
  5
BE8
330
AAB
100
AcDbEntity
  8
1
  6
Continuous
100
AcDbCircle
 10
266.8549959999999
 20
172.764709
 30
0.0
 40
14.0
100
AcDbArc
 50
131.278795
 51
359.999995
  0
CIRCLE
  5
BE9
330
AAB
100
AcDbEntity
  8
1
  6
Continuous
100
AcDbCircle
 10
266.8549959999999
 20
172.764709
 30
0.0
 40
12.0
  0
CIRCLE
  5
BEA
330
AAB
100
AcDbEntity
  8
1
  6
Continuous
100
AcDbCircle
 10
266.8549959999999
 20
172.764709
 30
0.0
 40
2.0
  0
CIRCLE
  5
BEB
330
AAB
100
AcDbEntity
  8
1
  6
Continuous
100
AcDbCircle
 10
266.8549959999999
 20
172.764709
 30
0.0
 40
2.5
  0
CIRCLE
  5
BEC
330
AAB
100
AcDbEntity
  8
1
  6
Continuous
100
AcDbCircle
 10
276.3549959999999
 20
172.764709
 30
0.0
 40
1.0
  0
CIRCLE
  5
BED
330
AAB
100
AcDbEntity
  8
1
  6
Continuous
100
AcDbCircle
 10
257.3549959999999
 20
172.764709
 30
0.0
 40
1.0
  0
CIRCLE
  5
BEE
330
AAB
100
AcDbEntity
  8
1
  6
Continuous
100
AcDbCircle
 10
259.060767
 20
112.264709
 30
0.0
 40
1.5
  0
CIRCLE
  5
BEF
330
AAB
100
AcDbEntity
  8
1
  6
Continuous
100
AcDbCircle
 10
259.060767
 20
112.264709
 30
0.0
 40
2.0
  0
ARC
  5
BF0
330
AAB
100
AcDbEntity
  8
1
  6
Continuous
100
AcDbCircle
 10
143.52726
 20
314.529419
 30
0.0
 40
1.649999999999999
100
AcDbArc
 50
141.9878079999998
 51
210.8890539999999
  0
CIRCLE
  5
BF1
330
AAB
100
AcDbEntity
  8
1
  6
Continuous
100
AcDbCircle
 10
143.52726
 20
294.529419
 30
0.0
 40
1.649999999999999
  0
ARC
  5
BF2
330
AAB
100
AcDbEntity
  8
1
  6
Continuous
100
AcDbCircle
 10
25.0
 20
172.764709
 30
0.0
 40
16.0
100
AcDbArc
 50
189.3208389999999
 51
197.729851
  0
ARC
  5
BF3
330
AAB
100
AcDbEntity
  8
1
  6
Continuous
100
AcDbCircle
 10
32.794229
 20
112.264709
 30
0.0
 40
5.0
100
AcDbArc
 50
359.999995
 51
180.0
  0
ARC
  5
BF4
330
AAB
100
AcDbEntity
  8
1
  6
Continuous
100
AcDbCircle
 10
25.0
 20
172.764709
 30
0.0
 40
16.0
100
AcDbArc
 50
307.6068869999998
 51
180.0
  0
CIRCLE
  5
BF5
330
AAB
100
AcDbEntity
  8
1
  6
Continuous
100
AcDbCircle
 10
32.794229
 20
112.264709
 30
0.0
 40
3.0
  0
ARC
  5
BF6
330
AAB
100
AcDbEntity
  8
1
  6
Continuous
100
AcDbCircle
 10
25.0
 20
172.764709
 30
0.0
 40
13.0
100
AcDbArc
 50
112.6198629999999
 51
247.3801369999999
  0
CIRCLE
  5
BF7
330
AAB
100
AcDbEntity
  8
1
  6
Continuous
100
AcDbCircle
 10
25.0
 20
172.764709
 30
0.0
 40
3.75
  0
ARC
  5
BF8
330
AAB
100
AcDbEntity
  8
1
  6
Continuous
100
AcDbCircle
 10
25.0
 20
172.764709
 30
0.0
 40
13.0
100
AcDbArc
 50
292.6198649999999
 51
67.38013199999999
  0
ARC
  5
BF9
330
AAB
100
AcDbEntity
  8
1
  6
Continuous
100
AcDbCircle
 10
143.52726
 20
294.529419
 30
0.0
 40
3.0
100
AcDbArc
 50
74.53405100000002
 51
36.869802
  0
ARC
  5
BFA
330
AAB
100
AcDbEntity
  8
1
  6
Continuous
100
AcDbCircle
 10
143.52726
 20
314.529419
 30
0.0
 40
3.0
100
AcDbArc
 50
86.177475
 51
209.259859
  0
ARC
  5
BFB
330
AAB
100
AcDbEntity
  8
1
  6
Continuous
100
AcDbCircle
 10
266.8549959999999
 20
172.764709
 30
0.0
 40
16.0
100
AcDbArc
 50
359.999995
 51
34.46417299999998
  0
ARC
  5
BFC
330
AAB
100
AcDbEntity
  8
1
  6
Continuous
100
AcDbCircle
 10
145.9272629999999
 20
18.805771
 30
0.0
 40
1.6
100
AcDbArc
 50
180.0
 51
270.0000029999998
  0
ARC
  5
BFD
330
AAB
100
AcDbEntity
  8
1
  6
Continuous
100
AcDbCircle
 10
145.9272629999999
 20
326.7236419999999
 30
0.0
 40
1.6
100
AcDbArc
 50
89.99999700000001
 51
180.0
  0
ARC
  5
BFE
330
AAB
100
AcDbEntity
  8
1
  6
Continuous
100
AcDbCircle
 10
152.527262
 20
307.463978
 30
0.0
 40
1.0
100
AcDbArc
 50
143.410503
 51
180.0
  0
ARC
  5
BFF
330
AAB
100
AcDbEntity
  8
1
  6
Continuous
100
AcDbCircle
 10
152.527262
 20
301.5948599999999
 30
0.0
 40
1.0
100
AcDbArc
 50
180.0
 51
216.589497
  0
ARC
  5
C00
330
AAB
100
AcDbEntity
  8
1
  6
Continuous
100
AcDbCircle
 10
156.9433589999999
 20
304.873288
 30
0.0
 40
6.5
100
AcDbArc
 50
216.589497
 51
257.4165639999999
  0
ARC
  5
C01
330
AAB
100
AcDbEntity
  8
1
  6
Continuous
100
AcDbCircle
 10
156.9433589999999
 20
304.18555
 30
0.0
 40
6.5
100
AcDbArc
 50
102.5834359999999
 51
143.410503
  0
LINE
  5
C02
330
AAB
100
AcDbEntity
  8
1
  6
Continuous
100
AcDbLine
 10
156.52726
 20
27.0
 30
0.0
 11
156.52726
 21
55.0
 31
0.0
  0
LINE
  5
C03
330
AAB
100
AcDbEntity
  8
1
  6
Continuous
100
AcDbLine
 10
155.52726
 20
27.0
 30
0.0
 11
155.52726
 21
55.0
 31
0.0
  0
ARC
  5
C04
330
AAB
100
AcDbEntity
  8
1
  6
Continuous
100
AcDbCircle
 10
152.527262
 20
43.934559
 30
0.0
 40
1.0
100
AcDbArc
 50
143.410503
 51
180.0
  0
LINE
  5
C05
330
AAB
100
AcDbEntity
  8
1
  6
Continuous
100
AcDbLine
 10
156.52726
 20
27.0
 30
0.0
 11
155.52726
 21
27.0
 31
0.0
  0
LINE
  5
C06
330
AAB
100
AcDbEntity
  8
4
  6
CENTER
100
AcDbLine
 10
159.52726
 20
31.0
 30
0.0
 11
152.52726
 21
31.0
 31
0.0
  0
ARC
  5
C07
330
AAB
100
AcDbEntity
  8
1
  6
Continuous
100
AcDbCircle
 10
156.9433589999999
 20
41.34386899999999
 30
0.0
 40
6.5
100
AcDbArc
 50
216.589497
 51
257.4165639999999
  0
ARC
  5
C08
330
AAB
100
AcDbEntity
  8
1
  6
Continuous
100
AcDbCircle
 10
152.527262
 20
38.06544099999999
 30
0.0
 40
1.0
100
AcDbArc
 50
180.0
 51
216.589497
  0
LINE
  5
C09
330
AAB
100
AcDbEntity
  8
1
  6
Continuous
100
AcDbLine
 10
156.52726
 20
55.0
 30
0.0
 11
155.52726
 21
55.0
 31
0.0
  0
LINE
  5
C0A
330
AAB
100
AcDbEntity
  8
4
  6
CENTER
100
AcDbLine
 10
159.52726
 20
51.0
 30
0.0
 11
152.52726
 21
51.0
 31
0.0
  0
ARC
  5
C0B
330
AAB
100
AcDbEntity
  8
1
  6
Continuous
100
AcDbCircle
 10
156.9433589999999
 20
40.656131
 30
0.0
 40
6.5
100
AcDbArc
 50
102.5834359999999
 51
143.410503
  0
ARC
  5
C0C
330
AAB
100
AcDbEntity
  8
1
  6
Continuous
100
AcDbCircle
 10
143.52726
 20
295.5294079999998
 30
0.0
 40
5.0
100
AcDbArc
 50
210.683349
 51
329.316309
  0
ARC
  5
C0D
330
AAB
100
AcDbEntity
  8
1
  6
Continuous
100
AcDbCircle
 10
143.52726
 20
313.5294299999998
 30
0.0
 40
5.0
100
AcDbArc
 50
87.707575
 51
149.316651
  0
ARC
  5
C0E
330
AAB
100
AcDbEntity
  8
1
  6
Continuous
100
AcDbCircle
 10
143.52726
 20
50.000004
 30
0.0
 40
5.0
100
AcDbArc
 50
30.68369099999999
 51
149.316651
  0
ARC
  5
C0F
330
AAB
100
AcDbEntity
  8
1
  6
Continuous
100
AcDbCircle
 10
143.52726
 20
31.99999599999999
 30
0.0
 40
5.0
100
AcDbArc
 50
210.683349
 51
329.316309
  0
LINE
  5
C10
330
AAB
100
AcDbEntity
  8
5
  6
PHANTOM
100
AcDbLine
 10
61.146451
 20
145.108685
 30
0.0
 11
51.12588099999999
 21
136.7004279999999
 31
0.0
  0
LINE
  5
C11
330
AAB
100
AcDbEntity
  8
4
  6
CENTER
100
AcDbLine
 10
66.335655
 20
143.905333
 30
0.0
 11
66.335655
 21
111.905333
 31
0.0
  0
LINE
  5
C12
330
AAB
100
AcDbEntity
  8
4
  6
CENTER
100
AcDbLine
 10
77.335655
 20
127.905333
 30
0.0
 11
55.335655
 21
127.905333
 31
0.0
  0
CIRCLE
  5
C13
330
AAB
100
AcDbEntity
  8
5
  6
PHANTOM
100
AcDbCircle
 10
66.335655
 20
127.905333
 30
0.0
 40
3.0
  0
ARC
  5
C14
330
AAB
100
AcDbEntity
  8
5
  6
PHANTOM
100
AcDbCircle
 10
55.835655
 20
127.905333
 30
0.0
 40
18.5
100
AcDbArc
 50
316.3972099999999
 51
43.602802
  0
ARC
  5
C15
330
AAB
100
AcDbEntity
  8
5
  6
PHANTOM
100
AcDbCircle
 10
66.335655
 20
127.905333
 30
0.0
 40
5.0
100
AcDbArc
 50
223.427342
 51
32.941617
  0
ARC
  5
C16
330
AAB
100
AcDbEntity
  8
5
  6
PHANTOM
100
AcDbCircle
 10
66.335655
 20
127.905333
 30
0.0
 40
6.0
100
AcDbArc
 50
189.870032
 51
66.49892699999999
  0
LINE
  5
C17
330
AAB
100
AcDbEntity
  8
5
  6
PHANTOM
100
AcDbLine
 10
56.02091
 20
131.5290249999998
 30
0.0
 11
65.04117599999999
 21
139.097934
 31
0.0
  0
LINE
  5
C18
330
AAB
100
AcDbEntity
  8
4
  6
CENTER
100
AcDbLine
 10
72.335655
 20
117.905333
 30
0.0
 11
60.335655
 21
117.905333
 31
0.0
  0
ARC
  5
C19
330
AAB
100
AcDbEntity
  8
5
  6
PHANTOM
100
AcDbCircle
 10
66.335655
 20
117.905333
 30
0.0
 40
4.0
100
AcDbArc
 50
223.6028069999999
 51
316.3972099999999
  0
CIRCLE
  5
C1A
330
AAB
100
AcDbEntity
  8
5
  6
PHANTOM
100
AcDbCircle
 10
66.335655
 20
117.905333
 30
0.0
 40
2.799999999999998
  0
ARC
  5
C1B
330
AAB
100
AcDbEntity
  8
5
  6
PHANTOM
100
AcDbCircle
 10
76.835655
 20
127.905333
 30
0.0
 40
18.5
100
AcDbArc
 50
176.463859
 51
223.602817
  0
CIRCLE
  5
C1C
330
AAB
100
AcDbEntity
  8
5
  6
PHANTOM
100
AcDbCircle
 10
66.335655
 20
117.905333
 30
0.0
 40
1.8
  0
ARC
  5
C1D
330
AAB
100
AcDbEntity
  8
5
  6
PHANTOM
100
AcDbCircle
 10
66.335655
 20
137.905333
 30
0.0
 40
1.8
100
AcDbArc
 50
288.863453
 51
137.019781
  0
ARC
  5
C1E
330
AAB
100
AcDbEntity
  8
5
  6
PHANTOM
100
AcDbCircle
 10
66.335655
 20
137.905333
 30
0.0
 40
2.799999999999998
100
AcDbArc
 50
293.9452389999999
 51
131.937994
  0
ARC
  5
C1F
330
AAB
100
AcDbEntity
  8
5
  6
PHANTOM
100
AcDbCircle
 10
66.33565799999999
 20
137.9053309999999
 30
0.0
 40
4.0
100
AcDbArc
 50
43.60278799999998
 51
129.225837
  0
LINE
  5
C20
330
AAB
100
AcDbEntity
  8
4
  6
CENTER
100
AcDbLine
 10
72.335655
 20
137.905333
 30
0.0
 11
60.335655
 21
137.905333
 31
0.0
  0
LINE
  5
C21
330
AAB
100
AcDbEntity
  8
5
  6
PHANTOM
100
AcDbLine
 10
230.7085449999999
 20
145.108686
 30
0.0
 11
240.729116
 21
136.7004279999999
 31
0.0
  0
CIRCLE
  5
C22
330
AAB
100
AcDbEntity
  8
5
  6
PHANTOM
100
AcDbCircle
 10
225.519341
 20
127.905333
 30
0.0
 40
3.0
  0
CIRCLE
  5
C23
330
AAB
100
AcDbEntity
  8
5
  6
PHANTOM
100
AcDbCircle
 10
225.519341
 20
127.905333
 30
0.0
 40
2.0
  0
CIRCLE
  5
C24
330
AAB
100
AcDbEntity
  8
5
  6
PHANTOM
100
AcDbCircle
 10
225.519341
 20
127.905333
 30
0.0
 40
1.5
  0
ARC
  5
C25
330
AAB
100
AcDbEntity
  8
5
  6
PHANTOM
100
AcDbCircle
 10
225.519341
 20
127.905333
 30
0.0
 40
6.0
100
AcDbArc
 50
312.073983
 51
310.372562
  0
LINE
  5
C26
330
AAB
100
AcDbEntity
  8
5
  6
PHANTOM
100
AcDbLine
 10
235.834087
 20
131.5290259999999
 30
0.0
 11
232.309013
 21
134.486917
 31
0.0
  0
LINE
  5
C27
330
AAB
100
AcDbEntity
  8
1
  6
Continuous
100
AcDbLine
 10
21.242753
 20
104.6647109999999
 30
0.0
 11
21.242753
 21
106.264709
 31
0.0
  0
LINE
  5
C28
330
AAB
100
AcDbEntity
  8
1
  6
Continuous
100
AcDbLine
 10
44.34570599999999
 20
104.6647109999999
 30
0.0
 11
44.34570599999999
 21
106.264709
 31
0.0
  0
LINE
  5
C29
330
AAB
100
AcDbEntity
  8
1
  6
Continuous
100
AcDbLine
 10
9.759952999999999
 20
167.8922389999998
 30
0.0
 11
27.794229
 21
111.4848649999998
 31
0.0
  0
LINE
  5
C2A
330
AAB
100
AcDbEntity
  8
1
  6
Continuous
100
AcDbLine
 10
32.847797
 20
155.556841
 30
0.0
 11
37.76148
 21
112.836035
 31
0.0
  0
ARC
  5
C2B
330
AAB
100
AcDbEntity
  8
1
  6
Continuous
100
AcDbCircle
 10
37.81504799999999
 20
156.1281669999999
 30
0.0
 40
5.0
100
AcDbArc
 50
127.606887
 51
186.561243
  0
LINE
  5
C2C
330
AAB
100
AcDbEntity
  8
5
  6
PHANTOM
100
AcDbLine
 10
31.51213999999999
 20
157.4215609999999
 30
0.0
 11
62.70442199999999
 21
124.468162
 31
0.0
  0
LINE
  5
C2D
330
AAB
100
AcDbEntity
  8
5
  6
PHANTOM
100
AcDbLine
 10
40.389143
 20
177.1435529999999
 30
0.0
 11
70.53178100000002
 21
130.624254
 31
0.0
  0
ARC
  5
C2E
330
AAB
100
AcDbEntity
  8
1
  6
Continuous
100
AcDbCircle
 10
266.8549959999999
 20
172.764709
 30
0.0
 40
16.0
100
AcDbArc
 50
118.1052439999999
 51
232.393113
  0
LINE
  5
C2F
330
AAB
100
AcDbEntity
  8
1
  6
Continuous
100
AcDbLine
 10
282.0950429999999
 20
167.8922389999998
 30
0.0
 11
263.823282
 21
110.742062
 31
0.0
  0
LINE
  5
C30
330
AAB
100
AcDbEntity
  8
1
  6
Continuous
100
AcDbLine
 10
259.007199
 20
155.556841
 30
0.0
 11
254.093516
 21
112.836035
 31
0.0
  0
LINE
  5
C31
330
AAB
100
AcDbEntity
  8
4
  6
CENTER
100
AcDbLine
 10
259.060767
 20
120.264709
 30
0.0
 11
259.060767
 21
101.664711
 31
0.0
  0
LINE
  5
C32
330
AAB
100
AcDbEntity
  8
1
  6
Continuous
100
AcDbLine
 10
273.0607669999999
 20
106.264709
 30
0.0
 11
264.060767
 21
106.264709
 31
0.0
  0
LINE
  5
C33
330
AAB
100
AcDbEntity
  8
1
  6
Continuous
100
AcDbLine
 10
273.0607669999999
 20
104.6647109999999
 30
0.0
 11
245.060767
 21
104.6647109999999
 31
0.0
  0
LINE
  5
C34
330
AAB
100
AcDbEntity
  8
4
  6
CENTER
100
AcDbLine
 10
267.0607669999998
 20
112.264709
 30
0.0
 11
251.060767
 21
112.264709
 31
0.0
  0
LINE
  5
C35
330
AAB
100
AcDbEntity
  8
1
  6
Continuous
100
AcDbLine
 10
254.0607669999999
 20
106.264709
 30
0.0
 11
245.060767
 21
106.264709
 31
0.0
  0
LINE
  5
C36
330
AAB
100
AcDbEntity
  8
1
  6
Continuous
100
AcDbLine
 10
245.060767
 20
106.264709
 30
0.0
 11
245.060767
 21
104.6647109999999
 31
0.0
  0
LINE
  5
C37
330
AAB
100
AcDbEntity
  8
4
  6
CENTER
100
AcDbLine
 10
249.060767
 20
109.264709
 30
0.0
 11
249.060767
 21
101.664711
 31
0.0
  0
LINE
  5
C38
330
AAB
100
AcDbEntity
  8
1
  6
Continuous
100
AcDbLine
 10
254.0607669999999
 20
112.264709
 30
0.0
 11
254.0607669999999
 21
104.6647109999999
 31
0.0
  0
LINE
  5
C39
330
AAB
100
AcDbEntity
  8
1
  6
Continuous
100
AcDbLine
 10
247.5092899999999
 20
104.6647109999999
 30
0.0
 11
247.5092899999999
 21
106.264709
 31
0.0
  0
LINE
  5
C3A
330
AAB
100
AcDbEntity
  8
1
  6
Continuous
100
AcDbLine
 10
264.060767
 20
111.4848649999998
 30
0.0
 11
264.060767
 21
104.6647109999999
 31
0.0
  0
LINE
  5
C3B
330
AAB
100
AcDbEntity
  8
4
  6
CENTER
100
AcDbLine
 10
269.0607669999999
 20
109.264709
 30
0.0
 11
269.0607669999999
 21
101.664711
 31
0.0
  0
LINE
  5
C3C
330
AAB
100
AcDbEntity
  8
1
  6
Continuous
100
AcDbLine
 10
270.6122429999999
 20
104.6647109999999
 30
0.0
 11
270.6122429999999
 21
106.264709
 31
0.0
  0
LINE
  5
C3D
330
AAB
100
AcDbEntity
  8
1
  6
Continuous
100
AcDbLine
 10
273.0607669999999
 20
106.264709
 30
0.0
 11
273.0607669999999
 21
104.6647109999999
 31
0.0
  0
ARC
  5
C3E
330
AAB
100
AcDbEntity
  8
1
  6
Continuous
100
AcDbCircle
 10
254.039948
 20
156.1281669999999
 30
0.0
 40
5.0
100
AcDbArc
 50
353.438757
 51
52.393113
  0
LINE
  5
C3F
330
AAB
100
AcDbEntity
  8
5
  6
PHANTOM
100
AcDbLine
 10
260.3428559999999
 20
157.4215609999999
 30
0.0
 11
233.484118
 21
129.046378
 31
0.0
  0
LINE
  5
C40
330
AAB
100
AcDbEntity
  8
5
  6
PHANTOM
100
AcDbLine
 10
256.570394
 20
185.02142
 30
0.0
 11
228.0488529999999
 21
141.0039679999998
 31
0.0
  0
LINE
  5
C41
330
AAB
100
AcDbEntity
  8
4
  6
CENTER
100
AcDbLine
 10
214.519341
 20
127.905333
 30
0.0
 11
236.519341
 21
127.905333
 31
0.0
  0
LINE
  5
C42
330
AAB
100
AcDbEntity
  8
4
  6
CENTER
100
AcDbLine
 10
225.519341
 20
143.905333
 30
0.0
 11
225.519341
 21
111.905333
 31
0.0
  0
ARC
  5
C43
330
AAB
100
AcDbEntity
  8
5
  6
PHANTOM
100
AcDbCircle
 10
236.019341
 20
127.905333
 30
0.0
 40
18.5
100
AcDbArc
 50
136.397198
 51
223.6027899999999
  0
ARC
  5
C44
330
AAB
100
AcDbEntity
  8
5
  6
PHANTOM
100
AcDbCircle
 10
225.519341
 20
117.905333
 30
0.0
 40
4.0
100
AcDbArc
 50
223.6027899999999
 51
316.397193
  0
LINE
  5
C45
330
AAB
100
AcDbEntity
  8
4
  6
CENTER
100
AcDbLine
 10
219.519341
 20
117.905333
 30
0.0
 11
231.519341
 21
117.905333
 31
0.0
  0
CIRCLE
  5
C46
330
AAB
100
AcDbEntity
  8
5
  6
PHANTOM
100
AcDbCircle
 10
225.519341
 20
117.905333
 30
0.0
 40
1.8
  0
LINE
  5
C47
330
AAB
100
AcDbEntity
  8
4
  6
CENTER
100
AcDbLine
 10
219.519341
 20
137.905333
 30
0.0
 11
231.519341
 21
137.905333
 31
0.0
  0
ARC
  5
C48
330
AAB
100
AcDbEntity
  8
5
  6
PHANTOM
100
AcDbCircle
 10
225.5193379999998
 20
137.9053309999999
 30
0.0
 40
4.0
100
AcDbArc
 50
43.602812
 51
136.397212
  0
ARC
  5
C49
330
AAB
100
AcDbEntity
  8
5
  6
PHANTOM
100
AcDbCircle
 10
215.019341
 20
127.905333
 30
0.0
 40
18.5
100
AcDbArc
 50
316.397181
 51
43.747188
  0
CIRCLE
  5
C4A
330
AAB
100
AcDbEntity
  8
5
  6
PHANTOM
100
AcDbCircle
 10
225.519341
 20
137.905333
 30
0.0
 40
1.8
  0
ARC
  5
C4B
330
AAB
100
AcDbEntity
  8
1
  6
Continuous
100
AcDbCircle
 10
254.320248
 20
187.0433679999999
 30
0.0
 40
5.0
100
AcDbArc
 50
311.2787949999999
 51
6.572657999999998
  0
LINE
  5
C4C
330
AAB
100
AcDbEntity
  8
4
  6
CENTER
100
AcDbLine
 10
32.794229
 20
244.2647089999999
 30
0.0
 11
32.794229
 21
222.2647089999999
 31
0.0
  0
LINE
  5
C4D
330
AAB
100
AcDbEntity
  8
1
  6
Continuous
100
AcDbLine
 10
11.75366
 20
181.73881
 30
0.0
 11
28.01419699999998
 21
234.731439
 31
0.0
  0
LINE
  5
C4E
330
AAB
100
AcDbEntity
  8
1
  6
Continuous
100
AcDbLine
 10
32.56760999999999
 20
187.615683
 30
0.0
 11
37.76136599999999
 21
232.6923939999999
 31
0.0
  0
LINE
  5
C4F
330
AAB
100
AcDbEntity
  8
1
  6
Continuous
100
AcDbLine
 10
36.64850999999997
 20
223.0338909999999
 30
0.0
 11
25.052274
 21
225.0786149999999
 31
0.0
  0
LINE
  5
C50
330
AAB
100
AcDbEntity
  8
1
  6
Continuous
100
AcDbLine
 10
22.951252
 20
218.231446
 30
0.0
 11
35.83345
 21
215.9599679999999
 31
0.0
  0
LINE
  5
C51
330
AAB
100
AcDbEntity
  8
4
  6
CENTER
100
AcDbLine
 10
16.794229
 20
233.264709
 30
0.0
 11
48.794229
 21
233.264709
 31
0.0
  0
ARC
  5
C52
330
AAB
100
AcDbEntity
  8
1
  6
Continuous
100
AcDbCircle
 10
32.794229
 20
222.764709
 30
0.0
 40
18.5
100
AcDbArc
 50
46.39721
 51
133.602802
  0
ARC
  5
C53
330
AAB
100
AcDbEntity
  8
1
  6
Continuous
100
AcDbCircle
 10
32.794229
 20
243.764709
 30
0.0
 40
18.5
100
AcDbArc
 50
283.01422
 51
313.602817
  0
CIRCLE
  5
C54
330
AAB
100
AcDbEntity
  8
1
  6
Continuous
100
AcDbCircle
 10
42.794229
 20
233.264709
 30
0.0
 40
2.799999999999998
  0
ARC
  5
C55
330
AAB
100
AcDbEntity
  8
1
  6
Continuous
100
AcDbCircle
 10
42.794229
 20
233.264709
 30
0.0
 40
4.0
100
AcDbArc
 50
313.602807
 51
46.39721
  0
LINE
  5
C56
330
AAB
100
AcDbEntity
  8
4
  6
CENTER
100
AcDbLine
 10
42.794229
 20
239.264709
 30
0.0
 11
42.794229
 21
227.2647089999999
 31
0.0
  0
ARC
  5
C57
330
AAB
100
AcDbEntity
  8
1
  6
Continuous
100
AcDbCircle
 10
32.794229
 20
233.264709
 30
0.0
 40
5.0
100
AcDbArc
 50
353.427342
 51
162.9416169999998
  0
ARC
  5
C58
330
AAB
100
AcDbEntity
  8
1
  6
Continuous
100
AcDbCircle
 10
32.794229
 20
233.264709
 30
0.0
 40
6.0
100
AcDbArc
 50
319.627443
 51
196.32519
  0
CIRCLE
  5
C59
330
AAB
100
AcDbEntity
  8
1
  6
Continuous
100
AcDbCircle
 10
32.794229
 20
233.264709
 30
0.0
 40
3.0
  0
CIRCLE
  5
C5A
330
AAB
100
AcDbEntity
  8
1
  6
Continuous
100
AcDbCircle
 10
42.794229
 20
233.264709
 30
0.0
 40
1.8
  0
LINE
  5
C5B
330
AAB
100
AcDbEntity
  8
4
  6
CENTER
100
AcDbLine
 10
22.794229
 20
239.264709
 30
0.0
 11
22.794229
 21
227.2647089999999
 31
0.0
  0
ARC
  5
C5C
330
AAB
100
AcDbEntity
  8
1
  6
Continuous
100
AcDbCircle
 10
22.794231
 20
233.2647109999999
 30
0.0
 40
4.0
100
AcDbArc
 50
133.6027879999998
 51
226.397188
  0
CIRCLE
  5
C5D
330
AAB
100
AcDbEntity
  8
1
  6
Continuous
100
AcDbCircle
 10
22.794229
 20
233.264709
 30
0.0
 40
2.799999999999998
  0
ARC
  5
C5E
330
AAB
100
AcDbEntity
  8
1
  6
Continuous
100
AcDbCircle
 10
32.794229
 20
243.764709
 30
0.0
 40
18.5
100
AcDbArc
 50
226.252812
 51
246.9849319999998
  0
CIRCLE
  5
C5F
330
AAB
100
AcDbEntity
  8
1
  6
Continuous
100
AcDbCircle
 10
22.794229
 20
233.264709
 30
0.0
 40
1.8
  0
ARC
  5
C60
330
AAB
100
AcDbEntity
  8
1
  6
Continuous
100
AcDbCircle
 10
37.534748
 20
187.0433679999999
 30
0.0
 40
5.0
100
AcDbArc
 50
173.4273419999999
 51
181.8947559999999
  0
LINE
  5
C61
330
AAB
100
AcDbEntity
  8
1
  6
Continuous
100
AcDbLine
 10
282.8549959999999
 20
172.764709
 30
0.0
 11
266.2937719999999
 21
226.737271
 31
0.0
  0
LINE
  5
C62
330
AAB
100
AcDbEntity
  8
4
  6
CENTER
100
AcDbLine
 10
259.060767
 20
244.2647089999999
 30
0.0
 11
259.060767
 21
222.2647089999999
 31
0.0
  0
LINE
  5
C63
330
AAB
100
AcDbEntity
  8
1
  6
Continuous
100
AcDbLine
 10
259.2873859999999
 20
187.615683
 30
0.0
 11
254.8946990000001
 21
225.7398959999999
 31
0.0
  0
LINE
  5
C64
330
AAB
100
AcDbEntity
  8
1
  6
Continuous
100
AcDbLine
 10
255.2064859999999
 20
223.03389
 30
0.0
 11
266.802722
 21
225.0786149999999
 31
0.0
  0
LINE
  5
C65
330
AAB
100
AcDbEntity
  8
1
  6
Continuous
100
AcDbLine
 10
268.903744
 20
218.231446
 30
0.0
 11
256.021546
 21
215.9599669999999
 31
0.0
  0
LINE
  5
C66
330
AAB
100
AcDbEntity
  8
4
  6
CENTER
100
AcDbLine
 10
275.0607669999999
 20
233.264709
 30
0.0
 11
243.060767
 21
233.264709
 31
0.0
  0
CIRCLE
  5
C67
330
AAB
100
AcDbEntity
  8
1
  6
Continuous
100
AcDbCircle
 10
259.060767
 20
233.264709
 30
0.0
 40
3.0
  0
ARC
  5
C68
330
AAB
100
AcDbEntity
  8
1
  6
Continuous
100
AcDbCircle
 10
259.060767
 20
233.264709
 30
0.0
 40
6.0
100
AcDbArc
 50
222.0739829999998
 51
220.3725619999999
  0
ARC
  5
C69
330
AAB
100
AcDbEntity
  8
1
  6
Continuous
100
AcDbCircle
 10
259.060767
 20
243.764709
 30
0.0
 40
18.5
100
AcDbArc
 50
226.397181
 51
313.747188
  0
ARC
  5
C6A
330
AAB
100
AcDbEntity
  8
1
  6
Continuous
100
AcDbCircle
 10
259.060767
 20
222.764709
 30
0.0
 40
18.5
100
AcDbArc
 50
46.39719799999999
 51
133.6027899999999
  0
LINE
  5
C6B
330
AAB
100
AcDbEntity
  8
4
  6
CENTER
100
AcDbLine
 10
269.0607669999999
 20
239.264709
 30
0.0
 11
269.0607669999999
 21
227.2647089999999
 31
0.0
  0
ARC
  5
C6C
330
AAB
100
AcDbEntity
  8
1
  6
Continuous
100
AcDbCircle
 10
269.060765
 20
233.2647109999999
 30
0.0
 40
4.0
100
AcDbArc
 50
313.6028119999999
 51
46.39721199999998
  0
CIRCLE
  5
C6D
330
AAB
100
AcDbEntity
  8
1
  6
Continuous
100
AcDbCircle
 10
269.0607669999999
 20
233.264709
 30
0.0
 40
1.8
  0
CIRCLE
  5
C6E
330
AAB
100
AcDbEntity
  8
1
  6
Continuous
100
AcDbCircle
 10
259.060767
 20
233.264709
 30
0.0
 40
2.0
  0
CIRCLE
  5
C6F
330
AAB
100
AcDbEntity
  8
1
  6
Continuous
100
AcDbCircle
 10
259.060767
 20
233.264709
 30
0.0
 40
1.5
  0
LINE
  5
C70
330
AAB
100
AcDbEntity
  8
4
  6
CENTER
100
AcDbLine
 10
249.060767
 20
239.264709
 30
0.0
 11
249.060767
 21
227.2647089999999
 31
0.0
  0
CIRCLE
  5
C71
330
AAB
100
AcDbEntity
  8
1
  6
Continuous
100
AcDbCircle
 10
249.060767
 20
233.264709
 30
0.0
 40
1.8
  0
ARC
  5
C72
330
AAB
100
AcDbEntity
  8
1
  6
Continuous
100
AcDbCircle
 10
249.060767
 20
233.264709
 30
0.0
 40
4.0
100
AcDbArc
 50
133.6027899999999
 51
226.3971929999999
  0
ENDSEC
  0
SECTION
  2
OBJECTS
  0
DICTIONARY
  5
A99
330
0
100
AcDbDictionary
281
     1
  3
ACAD_CIP_PREVIOUS_PRODUCT_INFO
350
CD8
  3
ACAD_COLOR
350
CBA
  3
ACAD_DETAILVIEWSTYLE
350
CD3
  3
ACAD_GROUP
350
A9A
  3
ACAD_LAYOUT
350
AA6
  3
ACAD_MATERIAL
350
C88
  3
ACAD_MLEADERSTYLE
350
CCF
  3
ACAD_MLINESTYLE
350
AA3
  3
ACAD_PLOTSETTINGS
350
AA5
  3
ACAD_PLOTSTYLENAME
350
C86
  3
ACAD_SCALELIST
350
CBD
  3
ACAD_SECTIONVIEWSTYLE
350
CD1
  3
ACAD_TABLESTYLE
350
CBB
  3
ACAD_VISUALSTYLE
350
CA1
  3
ACDB_RECOMPOSE_DATA
350
CF6
  3
AcDbVariableDictionary
350
CE9
  3
DWGPROPS
350
CF7
  0
DICTIONARY
  5
CD9
330
A9D
100
AcDbDictionary
280
     1
281
     1
  3
ADSK_XREC_LAYER_RECONCILED
360
CDA
  0
DICTIONARY
  5
CDB
330
AB3
100
AcDbDictionary
280
     1
281
     1
  3
ADSK_XREC_LAYER_RECONCILED
360
CDC
  0
DICTIONARY
  5
CDD
330
AB4
100
AcDbDictionary
280
     1
281
     1
  3
ADSK_XREC_LAYER_RECONCILED
360
CDE
  0
DICTIONARY
  5
CDF
330
AB5
100
AcDbDictionary
280
     1
281
     1
  3
ADSK_XREC_LAYER_RECONCILED
360
CE0
  0
DICTIONARY
  5
CE1
330
AB6
100
AcDbDictionary
280
     1
281
     1
  3
ADSK_XREC_LAYER_RECONCILED
360
CE2
  0
DICTIONARY
  5
CE3
330
AB7
100
AcDbDictionary
280
     1
281
     1
  3
ADSK_XREC_LAYER_RECONCILED
360
CE4
  0
DICTIONARY
  5
CE5
330
AB8
100
AcDbDictionary
280
     1
281
     1
  3
ADSK_XREC_LAYER_RECONCILED
360
CE6
  0
DICTIONARY
  5
CE7
330
AB9
100
AcDbDictionary
280
     1
281
     1
  3
ADSK_XREC_LAYER_RECONCILED
360
CE8
  0
DICTIONARY
  5
C81
330
AAB
100
AcDbDictionary
281
     1
  3
ACAD_LAYOUTSELFREF
350
C82
  0
DICTIONARY
  5
C7F
330
AA7
100
AcDbDictionary
281
     1
  3
ACAD_LAYOUTSELFREF
350
C80
  0
XRECORD
  5
CD8
102
{ACAD_REACTORS
330
A99
102
}
330
A99
100
AcDbXrecord
280
     1
300
ACDLT
300
2014
300
ACDLT_F_S
  0
DICTIONARY
  5
CBA
102
{ACAD_REACTORS
330
A99
102
}
330
A99
100
AcDbDictionary
281
     1
  0
DICTIONARY
  5
CD3
102
{ACAD_REACTORS
330
A99
102
}
330
A99
100
AcDbDictionary
281
     1
  3
Imperial24
350
CD4
  0
DICTIONARY
  5
A9A
102
{ACAD_REACTORS
330
A99
102
}
330
A99
100
AcDbDictionary
281
     1
  0
DICTIONARY
  5
AA6
102
{ACAD_REACTORS
330
A99
102
}
330
A99
100
AcDbDictionary
281
     1
  3
Model
350
CD5
  3
レイアウト1
350
CD6
  0
DICTIONARY
  5
C88
102
{ACAD_REACTORS
330
A99
102
}
330
A99
100
AcDbDictionary
281
     1
  3
ByBlock
350
C91
  3
ByLayer
350
C89
  3
Global
350
C99
  0
DICTIONARY
  5
CCF
102
{ACAD_REACTORS
330
A99
102
}
330
A99
100
AcDbDictionary
281
     1
  3
Standard
350
CD0
  0
DICTIONARY
  5
AA3
102
{ACAD_REACTORS
330
A99
102
}
330
A99
100
AcDbDictionary
281
     1
  3
STANDARD
350
AA4
  0
DICTIONARY
  5
AA5
102
{ACAD_REACTORS
330
A99
102
}
330
A99
100
AcDbDictionary
281
     1
  0
ACDBDICTIONARYWDFLT
  5
C86
102
{ACAD_REACTORS
330
A99
102
}
330
A99
100
AcDbDictionary
281
     1
  3
Normal
350
C87
100
AcDbDictionaryWithDefault
340
C87
  0
DICTIONARY
  5
CBD
102
{ACAD_REACTORS
330
A99
102
}
330
A99
100
AcDbDictionary
281
     1
  3
A0
350
CBE
  3
A1
350
CBF
  3
A2
350
CC0
  3
A3
350
CC1
  3
A4
350
CC2
  3
A5
350
CC3
  3
A6
350
CC4
  3
A7
350
CC5
  3
A8
350
CC6
  3
A9
350
CC7
  3
B0
350
CC8
  3
B1
350
CC9
  3
B2
350
CCA
  3
B3
350
CCB
  3
B4
350
CCC
  3
B5
350
CCD
  3
B6
350
CCE
  0
DICTIONARY
  5
CD1
102
{ACAD_REACTORS
330
A99
102
}
330
A99
100
AcDbDictionary
281
     1
  3
Imperial24
350
CD2
  0
DICTIONARY
  5
CBB
102
{ACAD_REACTORS
330
A99
102
}
330
A99
100
AcDbDictionary
281
     1
  3
Standard
350
CBC
  0
DICTIONARY
  5
CA1
102
{ACAD_REACTORS
330
A99
102
}
330
A99
100
AcDbDictionary
281
     1
  3
2dWireframe
350
CA7
  3
Basic
350
CA6
  3
Brighten
350
CAD
  3
ColorChange
350
CB1
  3
Conceptual
350
CAA
  3
Dim
350
CAC
  3
EdgeColorOff
350
CB9
  3
Facepattern
350
CB0
  3
Flat
350
CA2
  3
FlatWithEdges
350
CA3
  3
Gouraud
350
CA4
  3
GouraudWithEdges
350
CA5
  3
Hidden
350
CA9
  3
JitterOff
350
CB7
  3
Linepattern
350
CAF
  3
OverhangOff
350
CB8
  3
Realistic
350
CAB
  3
Shaded
350
CB6
  3
Shaded with edges
350
CB5
  3
Shades of Gray
350
CB2
  3
Sketchy
350
CB3
  3
Thicken
350
CAE
  3
Wireframe
350
CA8
  3
X-Ray
350
CB4
  0
XRECORD
  5
CF6
102
{ACAD_REACTORS
330
A99
102
}
330
A99
100
AcDbXrecord
280
     1
 90
        1
330
CBC
  0
DICTIONARY
  5
CE9
102
{ACAD_REACTORS
330
A99
102
}
330
A99
100
AcDbDictionary
281
     1
  3
CANNOSCALE
350
CEE
  3
CMLEADERSTYLE
350
CEB
  3
CTABLESTYLE
350
CEA
  3
CVIEWDETAILSTYLE
350
CEC
  3
CVIEWSECTIONSTYLE
350
CED
  3
DIMASSOC
350
CF1
  3
INDEXCTL
350
CF0
  3
SORTENTS
350
CEF
  3
XCLIPFRAME
350
CF2
  0
XRECORD
  5
CF7
102
{ACAD_REACTORS
330
A99
102
}
330
A99
100
AcDbXrecord
280
     1
  1
DWGPROPS COOKIE
  2

  3

  4

  6

  7

  8
Yoshitsune
  9

300
=
301
=
302
=
303
=
304
=
305
=
306
=
307
=
308
=
309
=
 40
0.0092645717592593
 41
2451640.666022002
 42
2457192.622127743
  1

 90
        0
  0
XRECORD
  5
CDA
102
{ACAD_REACTORS
330
CD9
102
}
330
CD9
100
AcDbXrecord
280
     1
290
     1
  0
XRECORD
  5
CDC
102
{ACAD_REACTORS
330
CDB
102
}
330
CDB
100
AcDbXrecord
280
     1
290
     1
  0
XRECORD
  5
CDE
102
{ACAD_REACTORS
330
CDD
102
}
330
CDD
100
AcDbXrecord
280
     1
290
     1
  0
XRECORD
  5
CE0
102
{ACAD_REACTORS
330
CDF
102
}
330
CDF
100
AcDbXrecord
280
     1
290
     1
  0
XRECORD
  5
CE2
102
{ACAD_REACTORS
330
CE1
102
}
330
CE1
100
AcDbXrecord
280
     1
290
     1
  0
XRECORD
  5
CE4
102
{ACAD_REACTORS
330
CE3
102
}
330
CE3
100
AcDbXrecord
280
     1
290
     1
  0
XRECORD
  5
CE6
102
{ACAD_REACTORS
330
CE5
102
}
330
CE5
100
AcDbXrecord
280
     1
290
     1
  0
XRECORD
  5
CE8
102
{ACAD_REACTORS
330
CE7
102
}
330
CE7
100
AcDbXrecord
280
     1
290
     1
  0
XRECORD
  5
C82
102
{ACAD_REACTORS
330
C81
102
}
330
C81
100
AcDbXrecord
280
     1
340
AAB
  0
XRECORD
  5
C80
102
{ACAD_REACTORS
330
C7F
102
}
330
C7F
100
AcDbXrecord
280
     1
340
AA7
  0
ACDBDETAILVIEWSTYLE
  5
CD4
102
{ACAD_XDICTIONARY
360
D2F
102
}
102
{ACAD_REACTORS
330
CD3
102
}
330
CD3
100
AcDbModelDocViewStyle
 70
     0
  3
Imperial24
290
     0
100
AcDbDetailViewStyle
 70
     0
 71
     0
 90
        3
 71
     1
340
A9E
 40
0.24
340
0
 40
0.24
300

 40
0.36
280
     3
 71
     2
340
AA2
 90
       25
 71
     3
340
A9E
 40
0.24
 90
        1
 40
0.75
 90
        1
300
%<\AcVar ViewType \f "%tc1">% %<\AcVar ViewDetailId>%\PSCALE %<\AcVar ViewScale \f "%sn">%
 71
     4
340
AA2
 90
       25
340
AA2
 90
       25
280
     0
  0
LAYOUT
  5
CD5
102
{ACAD_XDICTIONARY
360
D31
102
}
102
{ACAD_REACTORS
330
AA6
102
}
330
AA6
100
AcDbPlotSettings
  1

  2
Canon LBP9100C
  4

  6

 40
0.0
 41
0.0
 42
0.0
 43
0.0
 44
0.0
 45
0.0
 46
0.0
 47
0.0
 48
0.0
 49
0.0
140
0.0
141
0.0
142
1.0
143
1.0
 70
  1712
 72
     0
 73
     0
 74
     0
  7

 75
     0
147
1.0
148
0.0
149
0.0
100
AcDbLayout
  1
Model
 70
     1
 71
     0
 10
0.0
 20
0.0
 11
12.0
 21
9.0
 12
0.0
 22
0.0
 32
0.0
 14
0.0
 24
0.0
 34
0.0
 15
0.0
 25
0.0
 35
0.0
146
0.0
 13
0.0
 23
0.0
 33
0.0
 16
1.0
 26
0.0
 36
0.0
 17
0.0
 27
1.0
 37
0.0
 76
     0
330
AAB
331
C7E
  0
LAYOUT
  5
CD6
102
{ACAD_XDICTIONARY
360
D33
102
}
102
{ACAD_REACTORS
330
AA6
102
}
330
AA6
100
AcDbPlotSettings
  1

  2
Canon LBP9100C
  4

  6

 40
0.0
 41
0.0
 42
0.0
 43
0.0
 44
0.0
 45
0.0
 46
0.0
 47
0.0
 48
0.0
 49
0.0
140
0.0
141
0.0
142
1.0
143
1.0
 70
   688
 72
     0
 73
     0
 74
     5
  7

 75
    16
147
1.0
148
0.0
149
0.0
100
AcDbLayout
  1
レイアウト1
 70
     1
 71
     1
 10
0.0
 20
0.0
 11
420.0
 21
297.0
 12
0.0
 22
0.0
 32
0.0
 14
1.000000000000000E+20
 24
1.000000000000000E+20
 34
1.000000000000000E+20
 15
-1.000000000000000E+20
 25
-1.000000000000000E+20
 35
-1.000000000000000E+20
146
0.0
 13
0.0
 23
0.0
 33
0.0
 16
1.0
 26
0.0
 36
0.0
 17
0.0
 27
1.0
 37
0.0
 76
     0
330
AA7
  0
MATERIAL
  5
C91
102
{ACAD_XDICTIONARY
360
C92
102
}
102
{ACAD_REACTORS
330
C88
102
}
330
C88
100
AcDbMaterial
  1
ByBlock
 72
     0
 43
0.0208333333333333
 43
0.0
 43
0.0
 43
0.0
 43
0.0
 43
0.0208333333333333
 43
0.0
 43
0.0
 43
0.0
 43
0.0
 43
1.0
 43
0.0
 43
0.0
 43
0.0
 43
0.0
 43
1.0
 77
     0
 47
0.0208333333333333
 47
0.0
 47
0.0
 47
0.0
 47
0.0
 47
0.0208333333333333
 47
0.0
 47
0.0
 47
0.0
 47
0.0
 47
1.0
 47
0.0
 47
0.0
 47
0.0
 47
0.0
 47
1.0
171
     0
 49
0.0208333333333333
 49
0.0
 49
0.0
 49
0.0
 49
0.0
 49
0.0208333333333333
 49
0.0
 49
0.0
 49
0.0
 49
0.0
 49
1.0
 49
0.0
 49
0.0
 49
0.0
 49
0.0
 49
1.0
175
     0
142
0.0208333333333333
142
0.0
142
0.0
142
0.0
142
0.0
142
0.0208333333333333
142
0.0
142
0.0
142
0.0
142
0.0
142
1.0
142
0.0
142
0.0
142
0.0
142
0.0
142
1.0
179
     0
144
0.0208333333333333
144
0.0
144
0.0
144
0.0
144
0.0
144
0.0208333333333333
144
0.0
144
0.0
144
0.0
144
0.0
144
1.0
144
0.0
144
0.0
144
0.0
144
0.0
144
1.0
147
0.0208333333333333
147
0.0
147
0.0
147
0.0
147
0.0
147
0.0208333333333333
147
0.0
147
0.0
147
0.0
147
0.0
147
1.0
147
0.0
147
0.0
147
0.0
147
0.0
147
1.0
  0
MATERIAL
  5
C89
102
{ACAD_XDICTIONARY
360
C8A
102
}
102
{ACAD_REACTORS
330
C88
102
}
330
C88
100
AcDbMaterial
  1
ByLayer
 72
     0
 43
0.0208333333333333
 43
0.0
 43
0.0
 43
0.0
 43
0.0
 43
0.0208333333333333
 43
0.0
 43
0.0
 43
0.0
 43
0.0
 43
1.0
 43
0.0
 43
0.0
 43
0.0
 43
0.0
 43
1.0
 77
     0
 47
0.0208333333333333
 47
0.0
 47
0.0
 47
0.0
 47
0.0
 47
0.0208333333333333
 47
0.0
 47
0.0
 47
0.0
 47
0.0
 47
1.0
 47
0.0
 47
0.0
 47
0.0
 47
0.0
 47
1.0
171
     0
 49
0.0208333333333333
 49
0.0
 49
0.0
 49
0.0
 49
0.0
 49
0.0208333333333333
 49
0.0
 49
0.0
 49
0.0
 49
0.0
 49
1.0
 49
0.0
 49
0.0
 49
0.0
 49
0.0
 49
1.0
175
     0
142
0.0208333333333333
142
0.0
142
0.0
142
0.0
142
0.0
142
0.0208333333333333
142
0.0
142
0.0
142
0.0
142
0.0
142
1.0
142
0.0
142
0.0
142
0.0
142
0.0
142
1.0
179
     0
144
0.0208333333333333
144
0.0
144
0.0
144
0.0
144
0.0
144
0.0208333333333333
144
0.0
144
0.0
144
0.0
144
0.0
144
1.0
144
0.0
144
0.0
144
0.0
144
0.0
144
1.0
147
0.0208333333333333
147
0.0
147
0.0
147
0.0
147
0.0
147
0.0208333333333333
147
0.0
147
0.0
147
0.0
147
0.0
147
1.0
147
0.0
147
0.0
147
0.0
147
0.0
147
1.0
  0
MATERIAL
  5
C99
102
{ACAD_XDICTIONARY
360
C9A
102
}
102
{ACAD_REACTORS
330
C88
102
}
330
C88
100
AcDbMaterial
  1
Global
 72
     0
 43
0.0208333333333333
 43
0.0
 43
0.0
 43
0.0
 43
0.0
 43
0.0208333333333333
 43
0.0
 43
0.0
 43
0.0
 43
0.0
 43
1.0
 43
0.0
 43
0.0
 43
0.0
 43
0.0
 43
1.0
 77
     0
 47
0.0208333333333333
 47
0.0
 47
0.0
 47
0.0
 47
0.0
 47
0.0208333333333333
 47
0.0
 47
0.0
 47
0.0
 47
0.0
 47
1.0
 47
0.0
 47
0.0
 47
0.0
 47
0.0
 47
1.0
171
     0
 49
0.0208333333333333
 49
0.0
 49
0.0
 49
0.0
 49
0.0
 49
0.0208333333333333
 49
0.0
 49
0.0
 49
0.0
 49
0.0
 49
1.0
 49
0.0
 49
0.0
 49
0.0
 49
0.0
 49
1.0
175
     0
142
0.0208333333333333
142
0.0
142
0.0
142
0.0
142
0.0
142
0.0208333333333333
142
0.0
142
0.0
142
0.0
142
0.0
142
1.0
142
0.0
142
0.0
142
0.0
142
0.0
142
1.0
179
     0
144
0.0208333333333333
144
0.0
144
0.0
144
0.0
144
0.0
144
0.0208333333333333
144
0.0
144
0.0
144
0.0
144
0.0
144
1.0
144
0.0
144
0.0
144
0.0
144
0.0
144
1.0
147
0.0208333333333333
147
0.0
147
0.0
147
0.0
147
0.0
147
0.0208333333333333
147
0.0
147
0.0
147
0.0
147
0.0
147
1.0
147
0.0
147
0.0
147
0.0
147
0.0
147
1.0
  0
MLEADERSTYLE
  5
CD0
102
{ACAD_REACTORS
330
CCF
102
}
330
CCF
100
AcDbMLeaderStyle
170
     2
171
     1
172
     0
 90
        2
 40
0.0
 41
0.0
173
     1
 91
-1056964608
340
AA0
 92
       -2
290
     1
 42
0.09
291
     1
 43
0.36
  3
Standard
 44
0.18
300

342
A9E
174
     1
178
     6
175
     1
176
     0
 93
-1056964608
 45
0.18
292
     0
297
     0
 46
0.18
 94
-1056964608
 47
1.0
 49
1.0
140
1.0
293
     1
141
0.0
294
     1
177
     0
142
1.0
295
     0
296
     0
143
0.125
1001
ACAD_MLEADERVER
1070
     2
  0
MLINESTYLE
  5
AA4
102
{ACAD_REACTORS
330
AA3
102
}
330
AA3
100
AcDbMlineStyle
  2
STANDARD
 70
     0
  3

 62
   256
 51
90.0
 52
90.0
 71
     2
 49
0.5
 62
   256
  6
BYLAYER
 49
-0.5
 62
   256
  6
BYLAYER
  0
ACDBPLACEHOLDER
  5
C87
102
{ACAD_REACTORS
330
C86
102
}
330
C86
  0
SCALE
  5
CBE
102
{ACAD_REACTORS
330
CBD
102
}
330
CBD
100
AcDbScale
 70
     0
300
1:1
140
1.0
141
1.0
290
     1
  0
SCALE
  5
CBF
102
{ACAD_REACTORS
330
CBD
102
}
330
CBD
100
AcDbScale
 70
     0
300
1/128" = 1'-0"
140
0.0078125
141
12.0
290
     0
  0
SCALE
  5
CC0
102
{ACAD_REACTORS
330
CBD
102
}
330
CBD
100
AcDbScale
 70
     0
300
1/64" = 1'-0"
140
0.015625
141
12.0
290
     0
  0
SCALE
  5
CC1
102
{ACAD_REACTORS
330
CBD
102
}
330
CBD
100
AcDbScale
 70
     0
300
1/32" = 1'-0"
140
0.03125
141
12.0
290
     0
  0
SCALE
  5
CC2
102
{ACAD_REACTORS
330
CBD
102
}
330
CBD
100
AcDbScale
 70
     0
300
1/16" = 1'-0"
140
0.0625
141
12.0
290
     0
  0
SCALE
  5
CC3
102
{ACAD_REACTORS
330
CBD
102
}
330
CBD
100
AcDbScale
 70
     0
300
3/32" = 1'-0"
140
0.09375
141
12.0
290
     0
  0
SCALE
  5
CC4
102
{ACAD_REACTORS
330
CBD
102
}
330
CBD
100
AcDbScale
 70
     0
300
1/8" = 1'-0"
140
0.125
141
12.0
290
     0
  0
SCALE
  5
CC5
102
{ACAD_REACTORS
330
CBD
102
}
330
CBD
100
AcDbScale
 70
     0
300
3/16" = 1'-0"
140
0.1875
141
12.0
290
     0
  0
SCALE
  5
CC6
102
{ACAD_REACTORS
330
CBD
102
}
330
CBD
100
AcDbScale
 70
     0
300
1/4" = 1'-0"
140
0.25
141
12.0
290
     0
  0
SCALE
  5
CC7
102
{ACAD_REACTORS
330
CBD
102
}
330
CBD
100
AcDbScale
 70
     0
300
3/8" = 1'-0"
140
0.375
141
12.0
290
     0
  0
SCALE
  5
CC8
102
{ACAD_REACTORS
330
CBD
102
}
330
CBD
100
AcDbScale
 70
     0
300
1/2" = 1'-0"
140
0.5
141
12.0
290
     0
  0
SCALE
  5
CC9
102
{ACAD_REACTORS
330
CBD
102
}
330
CBD
100
AcDbScale
 70
     0
300
3/4" = 1'-0"
140
0.75
141
12.0
290
     0
  0
SCALE
  5
CCA
102
{ACAD_REACTORS
330
CBD
102
}
330
CBD
100
AcDbScale
 70
     0
300
1" = 1'-0"
140
1.0
141
12.0
290
     0
  0
SCALE
  5
CCB
102
{ACAD_REACTORS
330
CBD
102
}
330
CBD
100
AcDbScale
 70
     0
300
1-1/2" = 1'-0"
140
1.5
141
12.0
290
     0
  0
SCALE
  5
CCC
102
{ACAD_REACTORS
330
CBD
102
}
330
CBD
100
AcDbScale
 70
     0
300
3" = 1'-0"
140
3.0
141
12.0
290
     0
  0
SCALE
  5
CCD
102
{ACAD_REACTORS
330
CBD
102
}
330
CBD
100
AcDbScale
 70
     0
300
6" = 1'-0"
140
6.0
141
12.0
290
     0
  0
SCALE
  5
CCE
102
{ACAD_REACTORS
330
CBD
102
}
330
CBD
100
AcDbScale
 70
     0
300
1'-0" = 1'-0"
140
12.0
141
12.0
290
     0
  0
ACDBSECTIONVIEWSTYLE
  5
CD2
102
{ACAD_XDICTIONARY
360
D2D
102
}
102
{ACAD_REACTORS
330
CD1
102
}
330
CD1
100
AcDbModelDocViewStyle
 70
     0
  3
Imperial24
290
     0
100
AcDbSectionViewStyle
 70
     0
 71
     0
 90
       78
 71
     1
340
A9E
 40
0.24
340
0
340
0
 40
0.24
300
I, O, Q, S, X, Z
 40
0.48
 90
        3
 40
0.18
 90
        1
 71
     2
340
AA2
 90
       25
340
AA2
 90
       50
 40
0.24
 40
0.0
 40
0.24
 71
     3
340
A9E
 40
0.24
 90
        1
 40
0.75
 90
        1
300
%<\AcVar ViewType \f "%tc1">% %<\AcVar ViewSectionStartId>%-%<\AcVar ViewSectionEndId>%\PSCALE %<\AcVar ViewScale \f "%sn">%
 71
     4
300
ANSI31
 40
1.0
 90
        0
290
     0
290
     0
 90
        6
 40
0.0
 40
1.570796326794896
 40
0.2617993877991494
 40
1.308996938995747
 40
-0.2617993877991494
 40
1.832595714594046
  0
TABLESTYLE
  5
CBC
102
{ACAD_XDICTIONARY
360
CF4
102
}
102
{ACAD_REACTORS
330
CBB
102
}
330
CBB
100
AcDbTableStyle
  3
Standard
 70
     0
 71
     0
 40
0.06
 41
0.06
280
     0
281
     0
  7
STANDARD
140
0.18
170
     2
 62
     0
 63
     7
283
     0
274
    -2
284
     1
 64
     0
275
    -2
285
     1
 65
     0
276
    -2
286
     1
 66
     0
277
    -2
287
     1
 67
     0
278
    -2
288
     1
 68
     0
279
    -2
289
     1
 69
     0
  7
STANDARD
140
0.25
170
     5
 62
     0
 63
     7
283
     0
274
    -2
284
     1
 64
     0
275
    -2
285
     1
 65
     0
276
    -2
286
     1
 66
     0
277
    -2
287
     1
 67
     0
278
    -2
288
     1
 68
     0
279
    -2
289
     1
 69
     0
  7
STANDARD
140
0.18
170
     5
 62
     0
 63
     7
283
     0
274
    -2
284
     1
 64
     0
275
    -2
285
     1
 65
     0
276
    -2
286
     1
 66
     0
277
    -2
287
     1
 67
     0
278
    -2
288
     1
 68
     0
279
    -2
289
     1
 69
     0
  0
VISUALSTYLE
  5
CA7
102
{ACAD_XDICTIONARY
360
D05
102
}
102
{ACAD_REACTORS
330
CA1
102
}
330
CA1
100
AcDbVisualStyle
  2
2dWireframe
 70
     4
 71
     0
 72
     2
 73
     0
 90
        0
 40
-0.6
 41
-30.0
 62
     5
 63
     7
 74
     1
 91
        4
 64
     7
 65
   257
 75
     1
175
     1
 42
1.0
 92
        0
 66
   257
 43
1.0
 76
     1
 77
     6
 78
     2
 67
     7
 79
     5
170
     0
171
     0
290
     0
174
     0
 93
        1
 44
0.0
173
     0
291
     0
 45
0.0
1001
ACAD
1000
AcDbSavedByObjectVersion
1070
     0
  0
VISUALSTYLE
  5
CA6
102
{ACAD_XDICTIONARY
360
D03
102
}
102
{ACAD_REACTORS
330
CA1
102
}
330
CA1
100
AcDbVisualStyle
  2
Basic
 70
     7
 71
     1
 72
     0
 73
     1
 90
        0
 40
-0.6
 41
-30.0
 62
     5
 63
     7
 74
     0
 91
        4
 64
     7
 65
   257
 75
     1
175
     1
 42
1.0
 92
        8
 66
     7
 43
1.0
 76
     1
 77
     6
 78
     2
 67
     7
 79
     5
170
     0
171
     0
290
     0
174
     0
 93
        1
 44
0.0
173
     0
291
     1
 45
0.0
1001
ACAD
1000
AcDbSavedByObjectVersion
1070
     0
  0
VISUALSTYLE
  5
CAD
102
{ACAD_XDICTIONARY
360
D11
102
}
102
{ACAD_REACTORS
330
CA1
102
}
330
CA1
100
AcDbVisualStyle
  2
Brighten
 70
    12
 71
     2
 72
     2
 73
     0
 90
        0
 40
-0.6
 41
-30.0
 62
     5
 63
     7
 74
     1
 91
        4
 64
     7
 65
   257
 75
     1
175
     1
 42
1.0
 92
        8
 66
     7
 43
1.0
 76
     1
 77
     6
 78
     2
 67
     7
 79
     5
170
     0
171
     0
290
     0
174
     0
 93
        1
 44
50.0
173
     0
291
     1
 45
0.0
1001
ACAD
1000
AcDbSavedByObjectVersion
1070
     0
  0
VISUALSTYLE
  5
CB1
102
{ACAD_XDICTIONARY
360
D19
102
}
102
{ACAD_REACTORS
330
CA1
102
}
330
CA1
100
AcDbVisualStyle
  2
ColorChange
 70
    16
 71
     2
 72
     2
 73
     3
 90
        0
 40
-0.6
 41
-30.0
 62
     5
 63
     8
 74
     1
 91
        4
 64
     7
 65
   257
 75
     1
175
     1
 42
1.0
 92
        8
 66
     8
 43
1.0
 76
     1
 77
     6
 78
     2
 67
     7
 79
     5
170
     0
171
     0
290
     0
174
     0
 93
        1
 44
0.0
173
     0
291
     1
 45
0.0
1001
ACAD
1000
AcDbSavedByObjectVersion
1070
     0
  0
VISUALSTYLE
  5
CAA
102
{ACAD_XDICTIONARY
360
D0B
102
}
102
{ACAD_REACTORS
330
CA1
102
}
330
CA1
100
AcDbVisualStyle
  2
Conceptual
 70
     9
 71
     3
 72
     2
 73
     0
 90
        0
 40
-0.6
 41
-30.0
 62
     5
 63
     7
 74
     2
 91
        2
 64
     7
 65
   257
 75
     1
175
     1
 42
179.0
 92
        8
 66
     7
 43
1.0
 76
     1
 77
     6
 78
     2
 67
     7
 79
     3
170
     0
171
     0
290
     0
174
     0
 93
        1
 44
0.0
173
     0
291
     0
 45
0.0
1001
ACAD
1000
AcDbSavedByObjectVersion
1070
     0
  0
VISUALSTYLE
  5
CAC
102
{ACAD_XDICTIONARY
360
D0F
102
}
102
{ACAD_REACTORS
330
CA1
102
}
330
CA1
100
AcDbVisualStyle
  2
Dim
 70
    11
 71
     2
 72
     2
 73
     0
 90
        0
 40
-0.6
 41
-30.0
 62
     5
 63
     7
 74
     1
 91
        4
 64
     7
 65
   257
 75
     1
175
     1
 42
1.0
 92
        8
 66
     7
 43
1.0
 76
     1
 77
     6
 78
     2
 67
     7
 79
     5
170
     0
171
     0
290
     0
174
     0
 93
        1
 44
-50.0
173
     0
291
     1
 45
0.0
1001
ACAD
1000
AcDbSavedByObjectVersion
1070
     0
  0
VISUALSTYLE
  5
CB9
102
{ACAD_XDICTIONARY
360
D29
102
}
102
{ACAD_REACTORS
330
CA1
102
}
330
CA1
100
AcDbVisualStyle
  2
EdgeColorOff
 70
    22
 71
     2
 72
     2
 73
     0
 90
        0
 40
-0.6
 41
-30.0
 62
     5
 63
     7
 74
     1
 91
        4
 64
     7
 65
   257
 75
     1
175
     1
 42
1.0
 92
        8
 66
     7
 43
1.0
 76
     1
 77
     6
 78
     2
 67
     7
 79
     5
170
     0
171
     0
290
     0
174
     0
 93
        1
 44
0.0
173
     0
291
     1
 45
0.0
1001
ACAD
1000
AcDbSavedByObjectVersion
1070
     0
  0
VISUALSTYLE
  5
CB0
102
{ACAD_XDICTIONARY
360
D17
102
}
102
{ACAD_REACTORS
330
CA1
102
}
330
CA1
100
AcDbVisualStyle
  2
Facepattern
 70
    15
 71
     2
 72
     2
 73
     0
 90
        0
 40
-0.6
 41
-30.0
 62
     5
 63
     7
 74
     1
 91
        4
 64
     7
 65
   257
 75
     1
175
     1
 42
1.0
 92
        8
 66
     7
 43
1.0
 76
     1
 77
     6
 78
     2
 67
     7
 79
     5
170
     0
171
     0
290
     0
174
     0
 93
        1
 44
0.0
173
     0
291
     1
 45
0.0
1001
ACAD
1000
AcDbSavedByObjectVersion
1070
     0
  0
VISUALSTYLE
  5
CA2
102
{ACAD_XDICTIONARY
360
CFB
102
}
102
{ACAD_REACTORS
330
CA1
102
}
330
CA1
100
AcDbVisualStyle
  2
Flat
 70
     0
 71
     2
 72
     1
 73
     1
 90
        2
 40
-0.6
 41
30.0
 62
     5
 63
     7
 74
     0
 91
        0
 64
     7
 65
   257
 75
     1
175
     1
 42
1.0
 92
        8
 66
     7
 43
1.0
 76
     1
 77
     6
 78
     2
 67
     7
 79
     5
170
     0
171
     0
290
     0
174
     0
 93
       13
 44
0.0
173
     0
291
     1
 45
0.0
1001
ACAD
1000
AcDbSavedByObjectVersion
1070
     0
  0
VISUALSTYLE
  5
CA3
102
{ACAD_XDICTIONARY
360
CFD
102
}
102
{ACAD_REACTORS
330
CA1
102
}
330
CA1
100
AcDbVisualStyle
  2
FlatWithEdges
 70
     1
 71
     2
 72
     1
 73
     1
 90
        2
 40
-0.6
 41
30.0
 62
     5
 63
     7
 74
     1
 91
        0
 64
     7
 65
   257
 75
     1
175
     1
 42
1.0
 92
        0
 66
   257
 43
1.0
 76
     1
 77
     6
 78
     2
 67
     7
 79
     5
170
     0
171
     0
290
     0
174
     0
 93
       13
 44
0.0
173
     0
291
     1
 45
0.0
1001
ACAD
1000
AcDbSavedByObjectVersion
1070
     0
  0
VISUALSTYLE
  5
CA4
102
{ACAD_XDICTIONARY
360
CFF
102
}
102
{ACAD_REACTORS
330
CA1
102
}
330
CA1
100
AcDbVisualStyle
  2
Gouraud
 70
     2
 71
     2
 72
     2
 73
     1
 90
        2
 40
-0.6
 41
30.0
 62
     5
 63
     7
 74
     0
 91
        0
 64
     7
 65
   257
 75
     1
175
     1
 42
1.0
 92
        0
 66
     7
 43
1.0
 76
     1
 77
     6
 78
     2
 67
     7
 79
     5
170
     0
171
     0
290
     0
174
     0
 93
       13
 44
0.0
173
     0
291
     1
 45
0.0
1001
ACAD
1000
AcDbSavedByObjectVersion
1070
     0
  0
VISUALSTYLE
  5
CA5
102
{ACAD_XDICTIONARY
360
D01
102
}
102
{ACAD_REACTORS
330
CA1
102
}
330
CA1
100
AcDbVisualStyle
  2
GouraudWithEdges
 70
     3
 71
     2
 72
     2
 73
     1
 90
        2
 40
-0.6
 41
30.0
 62
     5
 63
     7
 74
     1
 91
        0
 64
     7
 65
   257
 75
     1
175
     1
 42
1.0
 92
        0
 66
   257
 43
1.0
 76
     1
 77
     6
 78
     2
 67
     7
 79
     5
170
     0
171
     0
290
     0
174
     0
 93
       13
 44
0.0
173
     0
291
     1
 45
0.0
1001
ACAD
1000
AcDbSavedByObjectVersion
1070
     0
  0
VISUALSTYLE
  5
CA9
102
{ACAD_XDICTIONARY
360
D09
102
}
102
{ACAD_REACTORS
330
CA1
102
}
330
CA1
100
AcDbVisualStyle
  2
Hidden
 70
     6
 71
     1
 72
     2
 73
     2
 90
        0
 40
-0.6
 41
-30.0
 62
     5
 63
     7
 74
     2
 91
        2
 64
     7
 65
   257
 75
     2
175
     1
 42
40.0
 92
        0
 66
   257
 43
1.0
 76
     1
 77
     6
 78
     2
 67
     7
 79
     3
170
     0
171
     0
290
     0
174
     0
 93
        1
 44
0.0
173
     0
291
     0
 45
0.0
1001
ACAD
1000
AcDbSavedByObjectVersion
1070
     0
  0
VISUALSTYLE
  5
CB7
102
{ACAD_XDICTIONARY
360
D25
102
}
102
{ACAD_REACTORS
330
CA1
102
}
330
CA1
100
AcDbVisualStyle
  2
JitterOff
 70
    20
 71
     2
 72
     2
 73
     0
 90
        0
 40
-0.6
 41
-30.0
 62
     5
 63
     7
 74
     1
 91
        4
 64
     7
 65
   257
 75
     1
175
     1
 42
1.0
 92
       10
 66
     7
 43
1.0
 76
     1
 77
     6
 78
     2
 67
     7
 79
     5
170
     0
171
     0
290
     0
174
     0
 93
        1
 44
0.0
173
     0
291
     1
 45
0.0
1001
ACAD
1000
AcDbSavedByObjectVersion
1070
     0
  0
VISUALSTYLE
  5
CAF
102
{ACAD_XDICTIONARY
360
D15
102
}
102
{ACAD_REACTORS
330
CA1
102
}
330
CA1
100
AcDbVisualStyle
  2
Linepattern
 70
    14
 71
     2
 72
     2
 73
     0
 90
        0
 40
-0.6
 41
-30.0
 62
     5
 63
     7
 74
     1
 91
        4
 64
     7
 65
   257
 75
     7
175
     7
 42
1.0
 92
        8
 66
     7
 43
1.0
 76
     1
 77
     6
 78
     2
 67
     7
 79
     5
170
     0
171
     0
290
     0
174
     0
 93
        1
 44
0.0
173
     0
291
     1
 45
0.0
1001
ACAD
1000
AcDbSavedByObjectVersion
1070
     0
  0
VISUALSTYLE
  5
CB8
102
{ACAD_XDICTIONARY
360
D27
102
}
102
{ACAD_REACTORS
330
CA1
102
}
330
CA1
100
AcDbVisualStyle
  2
OverhangOff
 70
    21
 71
     2
 72
     2
 73
     0
 90
        0
 40
-0.6
 41
-30.0
 62
     5
 63
     7
 74
     1
 91
        4
 64
     7
 65
   257
 75
     1
175
     1
 42
1.0
 92
        9
 66
     7
 43
1.0
 76
     1
 77
     6
 78
     2
 67
     7
 79
     5
170
     0
171
     0
290
     0
174
     0
 93
        1
 44
0.0
173
     0
291
     1
 45
0.0
1001
ACAD
1000
AcDbSavedByObjectVersion
1070
     0
  0
VISUALSTYLE
  5
CAB
102
{ACAD_XDICTIONARY
360
D0D
102
}
102
{ACAD_REACTORS
330
CA1
102
}
330
CA1
100
AcDbVisualStyle
  2
Realistic
 70
     8
 71
     2
 72
     3
 73
     0
 90
        2
 40
-0.6
 41
30.0
 62
     5
 63
     7
 74
     0
 91
        0
 64
     7
 65
   257
 75
     1
175
     1
 42
1.0
 92
        8
 66
   257
 43
1.0
 76
     1
 77
     6
 78
     2
 67
     7
 79
     3
170
     0
171
     0
290
     0
174
     0
 93
       13
 44
0.0
173
     0
291
     0
 45
0.0
1001
ACAD
1000
AcDbSavedByObjectVersion
1070
     0
  0
VISUALSTYLE
  5
CB6
102
{ACAD_XDICTIONARY
360
D23
102
}
102
{ACAD_REACTORS
330
CA1
102
}
330
CA1
100
AcDbVisualStyle
  2
Shaded
 70
    27
 71
     2
 72
     2
 73
     1
 90
        2
 40
-0.6
 41
30.0
 62
     5
 63
     7
 74
     0
 91
        4
 64
     7
 65
   257
 75
     1
175
     1
 42
1.0
 92
        8
 66
   257
 43
1.0
 76
     1
 77
     6
 78
     2
 67
     8
 79
     3
170
     0
171
     0
290
     0
174
     0
 93
        5
 44
0.0
173
     0
291
     0
 45
0.0
1001
ACAD
1000
AcDbSavedByObjectVersion
1070
     0
  0
VISUALSTYLE
  5
CB5
102
{ACAD_XDICTIONARY
360
D21
102
}
102
{ACAD_REACTORS
330
CA1
102
}
330
CA1
100
AcDbVisualStyle
  2
Shaded with edges
 70
    26
 71
     2
 72
     2
 73
     1
 90
        2
 40
-0.6
 41
30.0
 62
     5
 63
     7
 74
     1
 91
       10
 64
     7
 65
   257
 75
     2
175
     1
 42
1.0
 92
        8
 66
   257
 43
1.0
 76
     1
 77
     6
 78
     2
 67
     7
 79
     3
170
     0
171
     0
290
     0
174
     0
 93
        5
 44
0.0
173
     0
291
     0
 45
0.0
1001
ACAD
1000
AcDbSavedByObjectVersion
1070
     0
  0
VISUALSTYLE
  5
CB2
102
{ACAD_XDICTIONARY
360
D1B
102
}
102
{ACAD_REACTORS
330
CA1
102
}
330
CA1
100
AcDbVisualStyle
  2
Shades of Gray
 70
    23
 71
     2
 72
     2
 73
     3
 90
        0
 40
-0.6
 41
-30.0
 62
     5
 63
     7
 74
     2
 91
        2
 64
     7
 65
     7
 75
     1
175
     1
 42
40.0
 92
        8
 66
     7
 43
1.0
 76
     1
 77
     6
 78
     2
 67
     7
 79
     3
170
     0
171
     0
290
     0
174
     0
 93
        1
 44
0.0
173
     0
291
     0
 45
0.0
1001
ACAD
1000
AcDbSavedByObjectVersion
1070
     0
  0
VISUALSTYLE
  5
CB3
102
{ACAD_XDICTIONARY
360
D1D
102
}
102
{ACAD_REACTORS
330
CA1
102
}
330
CA1
100
AcDbVisualStyle
  2
Sketchy
 70
    24
 71
     1
 72
     2
 73
     2
 90
        0
 40
-0.6
 41
-30.0
 62
     5
 63
     7
 74
     2
 91
        2
 64
     7
 65
     7
 75
     1
175
     1
 42
40.0
 92
       11
 66
     7
 43
1.0
 76
     1
 77
     6
 78
     2
 67
     7
 79
     6
170
     0
171
     0
290
     0
174
     0
 93
        1
 44
0.0
173
     0
291
     0
 45
0.0
1001
ACAD
1000
AcDbSavedByObjectVersion
1070
     0
  0
VISUALSTYLE
  5
CAE
102
{ACAD_XDICTIONARY
360
D13
102
}
102
{ACAD_REACTORS
330
CA1
102
}
330
CA1
100
AcDbVisualStyle
  2
Thicken
 70
    13
 71
     2
 72
     2
 73
     0
 90
        0
 40
-0.6
 41
-30.0
 62
     5
 63
     7
 74
     1
 91
        4
 64
     7
 65
   257
 75
     1
175
     1
 42
1.0
 92
       12
 66
     7
 43
1.0
 76
     1
 77
     6
 78
     2
 67
     7
 79
     5
170
     0
171
     0
290
     0
174
     0
 93
        1
 44
0.0
173
     0
291
     1
 45
0.0
1001
ACAD
1000
AcDbSavedByObjectVersion
1070
     0
  0
VISUALSTYLE
  5
CA8
102
{ACAD_XDICTIONARY
360
D07
102
}
102
{ACAD_REACTORS
330
CA1
102
}
330
CA1
100
AcDbVisualStyle
  2
Wireframe
 70
     5
 71
     0
 72
     2
 73
     0
 90
        0
 40
-0.6
 41
-30.0
 62
     5
 63
     7
 74
     1
 91
        4
 64
     7
 65
   257
 75
     1
175
     1
 42
1.0
 92
        0
 66
   257
 43
1.0
 76
     1
 77
     6
 78
     2
 67
     7
 79
     3
170
     0
171
     0
290
     0
174
     0
 93
        1
 44
0.0
173
     0
291
     0
 45
0.0
1001
ACAD
1000
AcDbSavedByObjectVersion
1070
     0
  0
VISUALSTYLE
  5
CB4
102
{ACAD_XDICTIONARY
360
D1F
102
}
102
{ACAD_REACTORS
330
CA1
102
}
330
CA1
100
AcDbVisualStyle
  2
X-Ray
 70
    25
 71
     2
 72
     2
 73
     1
 90
        1
 40
0.5
 41
-30.0
 62
     5
 63
     7
 74
     1
 91
        0
 64
     7
 65
   257
 75
     1
175
     1
 42
1.0
 92
        8
 66
     7
 43
1.0
 76
     1
 77
     6
 78
     2
 67
     7
 79
     3
170
     0
171
     0
290
     0
174
     0
 93
       13
 44
0.0
173
     0
291
     0
 45
0.0
1001
ACAD
1000
AcDbSavedByObjectVersion
1070
     0
  0
DICTIONARYVAR
  5
CEE
102
{ACAD_REACTORS
330
CE9
102
}
330
CE9
100
DictionaryVariables
280
     0
  1
1:1
  0
DICTIONARYVAR
  5
CEB
102
{ACAD_REACTORS
330
CE9
102
}
330
CE9
100
DictionaryVariables
280
     0
  1
STANDARD
  0
DICTIONARYVAR
  5
CEA
102
{ACAD_REACTORS
330
CE9
102
}
330
CE9
100
DictionaryVariables
280
     0
  1
STANDARD
  0
DICTIONARYVAR
  5
CEC
102
{ACAD_REACTORS
330
CE9
102
}
330
CE9
100
DictionaryVariables
280
     0
  1
Imperial24
  0
DICTIONARYVAR
  5
CED
102
{ACAD_REACTORS
330
CE9
102
}
330
CE9
100
DictionaryVariables
280
     0
  1
Imperial24
  0
DICTIONARYVAR
  5
CF1
102
{ACAD_REACTORS
330
CE9
102
}
330
CE9
100
DictionaryVariables
280
     0
  1
1
  0
DICTIONARYVAR
  5
CF0
102
{ACAD_REACTORS
330
CE9
102
}
330
CE9
100
DictionaryVariables
280
     0
  1
0
  0
DICTIONARYVAR
  5
CEF
102
{ACAD_REACTORS
330
CE9
102
}
330
CE9
100
DictionaryVariables
280
     0
  1
127
  0
DICTIONARYVAR
  5
CF2
102
{ACAD_REACTORS
330
CE9
102
}
330
CE9
100
DictionaryVariables
280
     0
  1
2
  0
DICTIONARY
  5
D2F
330
CD4
100
AcDbDictionary
280
     1
281
     1
  3
ACAD_XREC_ROUNDTRIP
360
D30
  0
DICTIONARY
  5
D31
330
CD5
100
AcDbDictionary
280
     1
281
     1
  3
ACAD_XREC_ROUNDTRIP
360
D32
  0
DICTIONARY
  5
D33
330
CD6
100
AcDbDictionary
280
     1
281
     1
  3
ACAD_XREC_ROUNDTRIP
360
D34
  0
DICTIONARY
  5
C92
330
C91
100
AcDbDictionary
280
     1
281
     1
  3
ACAD_XREC_ROUNDTRIP
360
CF9
  3
BUMPTILE
360
C94
  3
DIFFUSETILE
360
C93
  3
OPACITYTILE
360
C97
  3
REFLECTIONTILE
360
C96
  3
REFRACTIONTILE
360
C98
  3
SPECULARTILE
360
C95
  0
DICTIONARY
  5
C8A
330
C89
100
AcDbDictionary
280
     1
281
     1
  3
ACAD_XREC_ROUNDTRIP
360
CF8
  3
BUMPTILE
360
C8C
  3
DIFFUSETILE
360
C8B
  3
OPACITYTILE
360
C8F
  3
REFLECTIONTILE
360
C8E
  3
REFRACTIONTILE
360
C90
  3
SPECULARTILE
360
C8D
  0
DICTIONARY
  5
C9A
330
C99
100
AcDbDictionary
280
     1
281
     1
  3
ACAD_XREC_ROUNDTRIP
360
CFA
  3
BUMPTILE
360
C9C
  3
DIFFUSETILE
360
C9B
  3
OPACITYTILE
360
C9F
  3
REFLECTIONTILE
360
C9E
  3
REFRACTIONTILE
360
CA0
  3
SPECULARTILE
360
C9D
  0
DICTIONARY
  5
D2D
330
CD2
100
AcDbDictionary
280
     1
281
     1
  3
ACAD_XREC_ROUNDTRIP
360
D2E
  0
DICTIONARY
  5
CF4
330
CBC
100
AcDbDictionary
280
     1
281
     1
  3
ACAD_ROUNDTRIP_2008_TABLESTYLE_CELLSTYLEMAP
360
CF5
  3
ACAD_XREC_ROUNDTRIP
360
D2B
  0
DICTIONARY
  5
D05
330
CA7
100
AcDbDictionary
280
     1
281
     1
  3
ACAD_XREC_ROUNDTRIP
360
D06
  0
DICTIONARY
  5
D03
330
CA6
100
AcDbDictionary
280
     1
281
     1
  3
ACAD_XREC_ROUNDTRIP
360
D04
  0
DICTIONARY
  5
D11
330
CAD
100
AcDbDictionary
280
     1
281
     1
  3
ACAD_XREC_ROUNDTRIP
360
D12
  0
DICTIONARY
  5
D19
330
CB1
100
AcDbDictionary
280
     1
281
     1
  3
ACAD_XREC_ROUNDTRIP
360
D1A
  0
DICTIONARY
  5
D0B
330
CAA
100
AcDbDictionary
280
     1
281
     1
  3
ACAD_XREC_ROUNDTRIP
360
D0C
  0
DICTIONARY
  5
D0F
330
CAC
100
AcDbDictionary
280
     1
281
     1
  3
ACAD_XREC_ROUNDTRIP
360
D10
  0
DICTIONARY
  5
D29
330
CB9
100
AcDbDictionary
280
     1
281
     1
  3
ACAD_XREC_ROUNDTRIP
360
D2A
  0
DICTIONARY
  5
D17
330
CB0
100
AcDbDictionary
280
     1
281
     1
  3
ACAD_XREC_ROUNDTRIP
360
D18
  0
DICTIONARY
  5
CFB
330
CA2
100
AcDbDictionary
280
     1
281
     1
  3
ACAD_XREC_ROUNDTRIP
360
CFC
  0
DICTIONARY
  5
CFD
330
CA3
100
AcDbDictionary
280
     1
281
     1
  3
ACAD_XREC_ROUNDTRIP
360
CFE
  0
DICTIONARY
  5
CFF
330
CA4
100
AcDbDictionary
280
     1
281
     1
  3
ACAD_XREC_ROUNDTRIP
360
D00
  0
DICTIONARY
  5
D01
330
CA5
100
AcDbDictionary
280
     1
281
     1
  3
ACAD_XREC_ROUNDTRIP
360
D02
  0
DICTIONARY
  5
D09
330
CA9
100
AcDbDictionary
280
     1
281
     1
  3
ACAD_XREC_ROUNDTRIP
360
D0A
  0
DICTIONARY
  5
D25
330
CB7
100
AcDbDictionary
280
     1
281
     1
  3
ACAD_XREC_ROUNDTRIP
360
D26
  0
DICTIONARY
  5
D15
330
CAF
100
AcDbDictionary
280
     1
281
     1
  3
ACAD_XREC_ROUNDTRIP
360
D16
  0
DICTIONARY
  5
D27
330
CB8
100
AcDbDictionary
280
     1
281
     1
  3
ACAD_XREC_ROUNDTRIP
360
D28
  0
DICTIONARY
  5
D0D
330
CAB
100
AcDbDictionary
280
     1
281
     1
  3
ACAD_XREC_ROUNDTRIP
360
D0E
  0
DICTIONARY
  5
D23
330
CB6
100
AcDbDictionary
280
     1
281
     1
  3
ACAD_XREC_ROUNDTRIP
360
D24
  0
DICTIONARY
  5
D21
330
CB5
100
AcDbDictionary
280
     1
281
     1
  3
ACAD_XREC_ROUNDTRIP
360
D22
  0
DICTIONARY
  5
D1B
330
CB2
100
AcDbDictionary
280
     1
281
     1
  3
ACAD_XREC_ROUNDTRIP
360
D1C
  0
DICTIONARY
  5
D1D
330
CB3
100
AcDbDictionary
280
     1
281
     1
  3
ACAD_XREC_ROUNDTRIP
360
D1E
  0
DICTIONARY
  5
D13
330
CAE
100
AcDbDictionary
280
     1
281
     1
  3
ACAD_XREC_ROUNDTRIP
360
D14
  0
DICTIONARY
  5
D07
330
CA8
100
AcDbDictionary
280
     1
281
     1
  3
ACAD_XREC_ROUNDTRIP
360
D08
  0
DICTIONARY
  5
D1F
330
CB4
100
AcDbDictionary
280
     1
281
     1
  3
ACAD_XREC_ROUNDTRIP
360
D20
  0
XRECORD
  5
D30
102
{ACAD_REACTORS
330
D2F
102
}
330
D2F
100
AcDbXrecord
280
     1
102
DISPLAYNAME
  1
Imperial24
102
FLAGS
 90
        0
  0
XRECORD
  5
D32
102
{ACAD_REACTORS
330
D31
102
}
330
D31
100
AcDbXrecord
280
     1
102
SHADEPLOT
 70
     0
102
SHADEPLOTRESLEVEL
 70
     2
102
SHADEPLOTCUSTOMDPI
 70
   300
  0
XRECORD
  5
D34
102
{ACAD_REACTORS
330
D33
102
}
330
D33
100
AcDbXrecord
280
     1
102
SHADEPLOT
 70
     0
102
SHADEPLOTRESLEVEL
 70
     2
102
SHADEPLOTCUSTOMDPI
 70
   300
  0
XRECORD
  5
CF9
102
{ACAD_REACTORS
330
C92
102
}
330
C92
100
AcDbXrecord
280
     1
102
MATERIAL
148
0.0
149
0.0
149
0.0
 93
        0
 94
      127
282
     0
 72
     0
 77
     0
171
     0
175
     0
179
     0
273
     0
  0
XRECORD
  5
C94
102
{ACAD_REACTORS
330
C92
102
}
330
C92
100
AcDbXrecord
280
     1
270
     1
271
     1
  0
XRECORD
  5
C93
102
{ACAD_REACTORS
330
C92
102
}
330
C92
100
AcDbXrecord
280
     1
270
     1
271
     1
  0
XRECORD
  5
C97
102
{ACAD_REACTORS
330
C92
102
}
330
C92
100
AcDbXrecord
280
     1
270
     1
271
     1
  0
XRECORD
  5
C96
102
{ACAD_REACTORS
330
C92
102
}
330
C92
100
AcDbXrecord
280
     1
270
     1
271
     1
  0
XRECORD
  5
C98
102
{ACAD_REACTORS
330
C92
102
}
330
C92
100
AcDbXrecord
280
     1
270
     1
271
     1
  0
XRECORD
  5
C95
102
{ACAD_REACTORS
330
C92
102
}
330
C92
100
AcDbXrecord
280
     1
270
     1
271
     1
  0
XRECORD
  5
CF8
102
{ACAD_REACTORS
330
C8A
102
}
330
C8A
100
AcDbXrecord
280
     1
102
MATERIAL
148
0.0
149
0.0
149
0.0
 93
        0
 94
      127
282
     0
 72
     0
 77
     0
171
     0
175
     0
179
     0
273
     0
  0
XRECORD
  5
C8C
102
{ACAD_REACTORS
330
C8A
102
}
330
C8A
100
AcDbXrecord
280
     1
270
     1
271
     1
  0
XRECORD
  5
C8B
102
{ACAD_REACTORS
330
C8A
102
}
330
C8A
100
AcDbXrecord
280
     1
270
     1
271
     1
  0
XRECORD
  5
C8F
102
{ACAD_REACTORS
330
C8A
102
}
330
C8A
100
AcDbXrecord
280
     1
270
     1
271
     1
  0
XRECORD
  5
C8E
102
{ACAD_REACTORS
330
C8A
102
}
330
C8A
100
AcDbXrecord
280
     1
270
     1
271
     1
  0
XRECORD
  5
C90
102
{ACAD_REACTORS
330
C8A
102
}
330
C8A
100
AcDbXrecord
280
     1
270
     1
271
     1
  0
XRECORD
  5
C8D
102
{ACAD_REACTORS
330
C8A
102
}
330
C8A
100
AcDbXrecord
280
     1
270
     1
271
     1
  0
XRECORD
  5
CFA
102
{ACAD_REACTORS
330
C9A
102
}
330
C9A
100
AcDbXrecord
280
     1
102
MATERIAL
148
0.0
149
0.0
149
0.0
 93
        0
 94
      127
282
     0
 72
     0
 77
     0
171
     0
175
     0
179
     0
273
     0
  0
XRECORD
  5
C9C
102
{ACAD_REACTORS
330
C9A
102
}
330
C9A
100
AcDbXrecord
280
     1
270
     1
271
     1
  0
XRECORD
  5
C9B
102
{ACAD_REACTORS
330
C9A
102
}
330
C9A
100
AcDbXrecord
280
     1
270
     1
271
     1
  0
XRECORD
  5
C9F
102
{ACAD_REACTORS
330
C9A
102
}
330
C9A
100
AcDbXrecord
280
     1
270
     1
271
     1
  0
XRECORD
  5
C9E
102
{ACAD_REACTORS
330
C9A
102
}
330
C9A
100
AcDbXrecord
280
     1
270
     1
271
     1
  0
XRECORD
  5
CA0
102
{ACAD_REACTORS
330
C9A
102
}
330
C9A
100
AcDbXrecord
280
     1
270
     1
271
     1
  0
XRECORD
  5
C9D
102
{ACAD_REACTORS
330
C9A
102
}
330
C9A
100
AcDbXrecord
280
     1
270
     1
271
     1
  0
XRECORD
  5
D2E
102
{ACAD_REACTORS
330
D2D
102
}
330
D2D
100
AcDbXrecord
280
     1
102
DISPLAYNAME
  1
Imperial24
102
FLAGS
 90
        0
  0
CELLSTYLEMAP
  5
CF5
102
{ACAD_REACTORS
330
CF4
102
}
330
CF4
100
AcDbCellStyleMap
 90
        3
300
CELLSTYLE
  1
TABLEFORMAT_BEGIN
 90
        5
170
     1
 91
        0
 92
    32768
 62
   257
 93
        1
300
CONTENTFORMAT
  1
CONTENTFORMAT_BEGIN
 90
        0
 91
        0
 92
      512
 93
        0
300

 40
0.0
140
1.0
 94
        5
 62
     0
340
A9E
144
0.25
309
CONTENTFORMAT_END
171
     0
 94
        0
309
TABLEFORMAT_END
  1
CELLSTYLE_BEGIN
 90
        1
 91
        1
300
_TITLE
309
CELLSTYLE_END
300
CELLSTYLE
  1
TABLEFORMAT_BEGIN
 90
        5
170
     1
 91
        0
 92
        0
 62
   257
 93
        1
300
CONTENTFORMAT
  1
CONTENTFORMAT_BEGIN
 90
        0
 91
        0
 92
      512
 93
        0
300

 40
0.0
140
1.0
 94
        5
 62
     0
340
A9E
144
0.18
309
CONTENTFORMAT_END
171
     0
 94
        0
309
TABLEFORMAT_END
  1
CELLSTYLE_BEGIN
 90
        2
 91
        1
300
_HEADER
309
CELLSTYLE_END
300
CELLSTYLE
  1
TABLEFORMAT_BEGIN
 90
        5
170
     1
 91
        0
 92
        0
 62
   257
 93
        1
300
CONTENTFORMAT
  1
CONTENTFORMAT_BEGIN
 90
        0
 91
        0
 92
      512
 93
        0
300

 40
0.0
140
1.0
 94
        2
 62
     0
340
A9E
144
0.18
309
CONTENTFORMAT_END
171
     0
 94
        0
309
TABLEFORMAT_END
  1
CELLSTYLE_BEGIN
 90
        3
 91
        2
300
_DATA
309
CELLSTYLE_END
  0
XRECORD
  5
D2B
102
{ACAD_REACTORS
330
CF4
102
}
330
CF4
100
AcDbXrecord
280
     1
102
ACAD_ROUNDTRIP_PRE2007_TABLESTYLE
 90
      512
 91
        0
  1

 92
      512
 93
        0
  2

 94
      512
 95
        0
  3

  0
XRECORD
  5
D06
102
{ACAD_REACTORS
330
D05
102
}
330
D05
100
AcDbXrecord
280
     1
102
RTVSPost2010Prop28
280
     1
102
RTVSPost2010PropOp28
 70
     1
102
RTVSPost2010Prop29
280
     1
102
RTVSPost2010PropOp29
 70
     1
102
RTVSPost2010Prop30
280
     0
102
RTVSPost2010PropOp30
 70
     1
102
RTVSPost2010Prop31
280
     0
102
RTVSPost2010PropOp31
 70
     1
102
RTVSPost2010Prop32
280
     0
102
RTVSPost2010PropOp32
 70
     1
102
RTVSPost2010Prop33
280
     0
102
RTVSPost2010PropOp33
 70
     1
102
RTVSPost2010Prop34
280
     0
102
RTVSPost2010PropOp34
 70
     1
102
RTVSPost2010Prop35
280
     0
102
RTVSPost2010PropOp35
 70
     1
102
RTVSPost2010Prop36
280
     0
102
RTVSPost2010PropOp36
 70
     1
102
RTVSPost2010Prop37
 90
       50
102
RTVSPost2010PropOp37
 70
     1
102
RTVSPost2010Prop38
140
0.0
102
RTVSPost2010PropOp38
 70
     1
102
RTVSPost2010Prop39
140
1.0
102
RTVSPost2010PropOp39
 70
     1
102
RTVSPost2010Prop40
 90
        0
102
RTVSPost2010PropOp40
 70
     1
102
RTVSPost2010Prop41ColorIndex
 90
       18
102
RTVSPost2010Prop41ColorRGB
 90
        0
102
RTVSPost2010PropOp41
 70
     1
102
RTVSPost2010Prop42
 90
       50
102
RTVSPost2010PropOp42
 70
     1
102
RTVSPost2010Prop43
 90
        3
102
RTVSPost2010PropOp43
 70
     1
102
RTVSPost2010Prop44ColorIndex
 90
        5
102
RTVSPost2010Prop44ColorRGB
 90
      255
102
RTVSPost2010PropOp44
 70
     1
102
RTVSPost2010Prop45
280
     0
102
RTVSPost2010PropOp45
 70
     1
102
RTVSPost2010Prop46
 90
       50
102
RTVSPost2010PropOp46
 70
     1
102
RTVSPost2010Prop47
 90
       50
102
RTVSPost2010PropOp47
 70
     1
102
RTVSPost2010Prop48
 90
       50
102
RTVSPost2010PropOp48
 70
     1
102
RTVSPost2010Prop49
280
     0
102
RTVSPost2010PropOp49
 70
     1
102
RTVSPost2010Prop50
 90
       50
102
RTVSPost2010PropOp50
 70
     1
102
RTVSPost2010Prop51ColorIndex
 90
      256
102
RTVSPost2010Prop51ColorRGB
 90
-16777216
102
RTVSPost2010PropOp51
 70
     0
102
RTVSPost2010Prop52
140
1.0
102
RTVSPost2010PropOp52
 70
     0
102
RTVSPost2010Prop53
 90
        2
102
RTVSPost2010PropOp53
 70
     1
102
RTVSPost2010Prop54
  1
strokes_ogs.tif
102
RTVSPost2010PropOp54
 70
     1
102
RTVSPost2010Prop55
280
     0
102
RTVSPost2010PropOp55
 70
     1
102
RTVSPost2010Prop56
140
1.0
102
RTVSPost2010PropOp56
 70
     1
102
RTVSPost2010Prop57
140
1.0
102
RTVSPost2010PropOp57
 70
     1
102
RTVSPropertyOp0
 70
     1
102
RTVSPropertyOp1
 70
     1
102
RTVSPropertyOp2
 70
     1
102
RTVSPropertyOp3
 70
     1
102
RTVSPropertyOp4
 70
     1
102
RTVSPropertyOp5
 70
     1
102
RTVSPropertyOp6
 70
     1
102
RTVSPropertyOp7
 70
     1
102
RTVSPropertyOp8
 70
     1
102
RTVSPropertyOp9
 70
     1
102
RTVSPropertyOp10
 70
     1
102
RTVSPropertyOp11
 70
     1
102
RTVSPropertyOp12
 70
     1
102
RTVSPropertyOp13
 70
     1
102
RTVSPropertyOp14
 70
     1
102
RTVSPropertyOp15
 70
     1
102
RTVSPropertyOp16
 70
     1
102
RTVSPropertyOp17
 70
     1
102
RTVSPropertyOp18
 70
     1
102
RTVSPropertyOp19
 70
     1
102
RTVSPropertyOp20
 70
     1
102
RTVSPropertyOp21
 70
     1
102
RTVSPropertyOp22
 70
     1
102
RTVSPropertyOp23
 70
     1
102
RTVSPropertyOp24
 70
     1
102
RTVSPropertyOp25
 70
     1
102
RTVSPropertyOp26
 70
     1
102
RTVSPropertyOp27
 70
     1
102
RTVSPropertyOp28
 70
     1
102
RTVSPropertyOp29
 70
     1
102
RTVSPropertyOp30
 70
     1
102
RTVSPropertyOp31
 70
     1
102
RTVSPropertyOp32
 70
     1
102
RTVSPropertyOp33
 70
     1
102
RTVSPropertyOp34
 70
     1
102
RTVSPropertyOp35
 70
     1
102
RTVSPropertyOp36
 70
     1
102
RTVSPropertyOp37
 70
     1
102
RTVSPropertyOp38
 70
     1
102
RTVSPropertyOp39
 70
     1
102
RTVSPropertyOp40
 70
     1
102
RTVSPropertyOp41
 70
     1
102
RTVSPropertyOp42
 70
     1
102
RTVSPropertyOp43
 70
     1
102
RTVSPropertyOp44
 70
     1
102
RTVSPropertyOp45
 70
     1
102
RTVSPropertyOp46
 70
     1
102
RTVSPropertyOp47
 70
     1
102
RTVSPropertyOp48
 70
     1
102
RTVSPropertyOp49
 70
     1
102
RTVSPropertyOp50
 70
     1
102
RTVSPropertyOp51
 70
     0
102
RTVSPropertyOp52
 70
     0
102
RTVSPropertyOp53
 70
     1
102
RTVSPropertyOp54
 70
     1
102
RTVSPropertyOp55
 70
     1
102
RTVSPropertyOp56
 70
     1
102
RTVSPropertyOp57
 70
     1
102
RTVSPropertyOp58
 70
     1
102
RTVSPropertyOp59
 70
     1
102
RTVSPropertyOp60
 70
     1
102
RTVSPropertyOp61
 70
     1
102
RTVSPropertyOp62
 70
     1
  0
XRECORD
  5
D04
102
{ACAD_REACTORS
330
D03
102
}
330
D03
100
AcDbXrecord
280
     1
102
RTVSPost2010Prop28
280
     0
102
RTVSPost2010PropOp28
 70
     1
102
RTVSPost2010Prop29
280
     1
102
RTVSPost2010PropOp29
 70
     1
102
RTVSPost2010Prop30
280
     1
102
RTVSPost2010PropOp30
 70
     1
102
RTVSPost2010Prop31
280
     0
102
RTVSPost2010PropOp31
 70
     1
102
RTVSPost2010Prop32
280
     0
102
RTVSPost2010PropOp32
 70
     1
102
RTVSPost2010Prop33
280
     0
102
RTVSPost2010PropOp33
 70
     1
102
RTVSPost2010Prop34
280
     0
102
RTVSPost2010PropOp34
 70
     1
102
RTVSPost2010Prop35
280
     0
102
RTVSPost2010PropOp35
 70
     1
102
RTVSPost2010Prop36
280
     0
102
RTVSPost2010PropOp36
 70
     1
102
RTVSPost2010Prop37
 90
       50
102
RTVSPost2010PropOp37
 70
     1
102
RTVSPost2010Prop38
140
0.0
102
RTVSPost2010PropOp38
 70
     1
102
RTVSPost2010Prop39
140
1.0
102
RTVSPost2010PropOp39
 70
     1
102
RTVSPost2010Prop40
 90
        0
102
RTVSPost2010PropOp40
 70
     1
102
RTVSPost2010Prop41ColorIndex
 90
       18
102
RTVSPost2010Prop41ColorRGB
 90
        0
102
RTVSPost2010PropOp41
 70
     1
102
RTVSPost2010Prop42
 90
       50
102
RTVSPost2010PropOp42
 70
     1
102
RTVSPost2010Prop43
 90
        3
102
RTVSPost2010PropOp43
 70
     1
102
RTVSPost2010Prop44ColorIndex
 90
        5
102
RTVSPost2010Prop44ColorRGB
 90
      255
102
RTVSPost2010PropOp44
 70
     1
102
RTVSPost2010Prop45
280
     0
102
RTVSPost2010PropOp45
 70
     1
102
RTVSPost2010Prop46
 90
       50
102
RTVSPost2010PropOp46
 70
     1
102
RTVSPost2010Prop47
 90
       50
102
RTVSPost2010PropOp47
 70
     1
102
RTVSPost2010Prop48
 90
       50
102
RTVSPost2010PropOp48
 70
     1
102
RTVSPost2010Prop49
280
     0
102
RTVSPost2010PropOp49
 70
     1
102
RTVSPost2010Prop50
 90
       50
102
RTVSPost2010PropOp50
 70
     1
102
RTVSPost2010Prop51ColorIndex
 90
      256
102
RTVSPost2010Prop51ColorRGB
 90
-16777216
102
RTVSPost2010PropOp51
 70
     0
102
RTVSPost2010Prop52
140
1.0
102
RTVSPost2010PropOp52
 70
     0
102
RTVSPost2010Prop53
 90
        2
102
RTVSPost2010PropOp53
 70
     1
102
RTVSPost2010Prop54
  1
strokes_ogs.tif
102
RTVSPost2010PropOp54
 70
     1
102
RTVSPost2010Prop55
280
     0
102
RTVSPost2010PropOp55
 70
     1
102
RTVSPost2010Prop56
140
1.0
102
RTVSPost2010PropOp56
 70
     1
102
RTVSPost2010Prop57
140
1.0
102
RTVSPost2010PropOp57
 70
     1
102
RTVSPropertyOp0
 70
     1
102
RTVSPropertyOp1
 70
     1
102
RTVSPropertyOp2
 70
     1
102
RTVSPropertyOp3
 70
     1
102
RTVSPropertyOp4
 70
     1
102
RTVSPropertyOp5
 70
     1
102
RTVSPropertyOp6
 70
     1
102
RTVSPropertyOp7
 70
     1
102
RTVSPropertyOp8
 70
     1
102
RTVSPropertyOp9
 70
     1
102
RTVSPropertyOp10
 70
     1
102
RTVSPropertyOp11
 70
     1
102
RTVSPropertyOp12
 70
     1
102
RTVSPropertyOp13
 70
     1
102
RTVSPropertyOp14
 70
     1
102
RTVSPropertyOp15
 70
     1
102
RTVSPropertyOp16
 70
     1
102
RTVSPropertyOp17
 70
     1
102
RTVSPropertyOp18
 70
     1
102
RTVSPropertyOp19
 70
     1
102
RTVSPropertyOp20
 70
     1
102
RTVSPropertyOp21
 70
     1
102
RTVSPropertyOp22
 70
     1
102
RTVSPropertyOp23
 70
     1
102
RTVSPropertyOp24
 70
     1
102
RTVSPropertyOp25
 70
     1
102
RTVSPropertyOp26
 70
     1
102
RTVSPropertyOp27
 70
     1
102
RTVSPropertyOp28
 70
     1
102
RTVSPropertyOp29
 70
     1
102
RTVSPropertyOp30
 70
     1
102
RTVSPropertyOp31
 70
     1
102
RTVSPropertyOp32
 70
     1
102
RTVSPropertyOp33
 70
     1
102
RTVSPropertyOp34
 70
     1
102
RTVSPropertyOp35
 70
     1
102
RTVSPropertyOp36
 70
     1
102
RTVSPropertyOp37
 70
     1
102
RTVSPropertyOp38
 70
     1
102
RTVSPropertyOp39
 70
     1
102
RTVSPropertyOp40
 70
     1
102
RTVSPropertyOp41
 70
     1
102
RTVSPropertyOp42
 70
     1
102
RTVSPropertyOp43
 70
     1
102
RTVSPropertyOp44
 70
     1
102
RTVSPropertyOp45
 70
     1
102
RTVSPropertyOp46
 70
     1
102
RTVSPropertyOp47
 70
     1
102
RTVSPropertyOp48
 70
     1
102
RTVSPropertyOp49
 70
     1
102
RTVSPropertyOp50
 70
     1
102
RTVSPropertyOp51
 70
     0
102
RTVSPropertyOp52
 70
     0
102
RTVSPropertyOp53
 70
     1
102
RTVSPropertyOp54
 70
     1
102
RTVSPropertyOp55
 70
     1
102
RTVSPropertyOp56
 70
     1
102
RTVSPropertyOp57
 70
     1
102
RTVSPropertyOp58
 70
     1
102
RTVSPropertyOp59
 70
     1
102
RTVSPropertyOp60
 70
     1
102
RTVSPropertyOp61
 70
     1
102
RTVSPropertyOp62
 70
     1
  0
XRECORD
  5
D12
102
{ACAD_REACTORS
330
D11
102
}
330
D11
100
AcDbXrecord
280
     1
102
RTVSPost2010Prop28
280
     0
102
RTVSPost2010PropOp28
 70
     1
102
RTVSPost2010Prop29
280
     1
102
RTVSPost2010PropOp29
 70
     1
102
RTVSPost2010Prop30
280
     1
102
RTVSPost2010PropOp30
 70
     1
102
RTVSPost2010Prop31
280
     0
102
RTVSPost2010PropOp31
 70
     1
102
RTVSPost2010Prop32
280
     0
102
RTVSPost2010PropOp32
 70
     1
102
RTVSPost2010Prop33
280
     0
102
RTVSPost2010PropOp33
 70
     1
102
RTVSPost2010Prop34
280
     0
102
RTVSPost2010PropOp34
 70
     1
102
RTVSPost2010Prop35
280
     0
102
RTVSPost2010PropOp35
 70
     1
102
RTVSPost2010Prop36
280
     0
102
RTVSPost2010PropOp36
 70
     1
102
RTVSPost2010Prop37
 90
       50
102
RTVSPost2010PropOp37
 70
     1
102
RTVSPost2010Prop38
140
0.0
102
RTVSPost2010PropOp38
 70
     1
102
RTVSPost2010Prop39
140
1.0
102
RTVSPost2010PropOp39
 70
     1
102
RTVSPost2010Prop40
 90
        0
102
RTVSPost2010PropOp40
 70
     1
102
RTVSPost2010Prop41ColorIndex
 90
       18
102
RTVSPost2010Prop41ColorRGB
 90
        0
102
RTVSPost2010PropOp41
 70
     1
102
RTVSPost2010Prop42
 90
       50
102
RTVSPost2010PropOp42
 70
     1
102
RTVSPost2010Prop43
 90
        3
102
RTVSPost2010PropOp43
 70
     1
102
RTVSPost2010Prop44ColorIndex
 90
        5
102
RTVSPost2010Prop44ColorRGB
 90
      255
102
RTVSPost2010PropOp44
 70
     1
102
RTVSPost2010Prop45
280
     0
102
RTVSPost2010PropOp45
 70
     1
102
RTVSPost2010Prop46
 90
       50
102
RTVSPost2010PropOp46
 70
     1
102
RTVSPost2010Prop47
 90
       50
102
RTVSPost2010PropOp47
 70
     1
102
RTVSPost2010Prop48
 90
       50
102
RTVSPost2010PropOp48
 70
     1
102
RTVSPost2010Prop49
280
     0
102
RTVSPost2010PropOp49
 70
     1
102
RTVSPost2010Prop50
 90
       50
102
RTVSPost2010PropOp50
 70
     1
102
RTVSPost2010Prop51ColorIndex
 90
      256
102
RTVSPost2010Prop51ColorRGB
 90
-16777216
102
RTVSPost2010PropOp51
 70
     0
102
RTVSPost2010Prop52
140
1.0
102
RTVSPost2010PropOp52
 70
     0
102
RTVSPost2010Prop53
 90
        2
102
RTVSPost2010PropOp53
 70
     1
102
RTVSPost2010Prop54
  1
strokes_ogs.tif
102
RTVSPost2010PropOp54
 70
     1
102
RTVSPost2010Prop55
280
     0
102
RTVSPost2010PropOp55
 70
     1
102
RTVSPost2010Prop56
140
1.0
102
RTVSPost2010PropOp56
 70
     1
102
RTVSPost2010Prop57
140
1.0
102
RTVSPost2010PropOp57
 70
     1
102
RTVSPropertyOp0
 70
     1
102
RTVSPropertyOp1
 70
     1
102
RTVSPropertyOp2
 70
     1
102
RTVSPropertyOp3
 70
     1
102
RTVSPropertyOp4
 70
     1
102
RTVSPropertyOp5
 70
     1
102
RTVSPropertyOp6
 70
     1
102
RTVSPropertyOp7
 70
     1
102
RTVSPropertyOp8
 70
     1
102
RTVSPropertyOp9
 70
     1
102
RTVSPropertyOp10
 70
     1
102
RTVSPropertyOp11
 70
     1
102
RTVSPropertyOp12
 70
     1
102
RTVSPropertyOp13
 70
     1
102
RTVSPropertyOp14
 70
     1
102
RTVSPropertyOp15
 70
     1
102
RTVSPropertyOp16
 70
     1
102
RTVSPropertyOp17
 70
     1
102
RTVSPropertyOp18
 70
     1
102
RTVSPropertyOp19
 70
     1
102
RTVSPropertyOp20
 70
     1
102
RTVSPropertyOp21
 70
     1
102
RTVSPropertyOp22
 70
     1
102
RTVSPropertyOp23
 70
     1
102
RTVSPropertyOp24
 70
     1
102
RTVSPropertyOp25
 70
     1
102
RTVSPropertyOp26
 70
     1
102
RTVSPropertyOp27
 70
     1
102
RTVSPropertyOp28
 70
     1
102
RTVSPropertyOp29
 70
     1
102
RTVSPropertyOp30
 70
     1
102
RTVSPropertyOp31
 70
     1
102
RTVSPropertyOp32
 70
     1
102
RTVSPropertyOp33
 70
     1
102
RTVSPropertyOp34
 70
     1
102
RTVSPropertyOp35
 70
     1
102
RTVSPropertyOp36
 70
     1
102
RTVSPropertyOp37
 70
     1
102
RTVSPropertyOp38
 70
     1
102
RTVSPropertyOp39
 70
     1
102
RTVSPropertyOp40
 70
     1
102
RTVSPropertyOp41
 70
     1
102
RTVSPropertyOp42
 70
     1
102
RTVSPropertyOp43
 70
     1
102
RTVSPropertyOp44
 70
     1
102
RTVSPropertyOp45
 70
     1
102
RTVSPropertyOp46
 70
     1
102
RTVSPropertyOp47
 70
     1
102
RTVSPropertyOp48
 70
     1
102
RTVSPropertyOp49
 70
     1
102
RTVSPropertyOp50
 70
     1
102
RTVSPropertyOp51
 70
     0
102
RTVSPropertyOp52
 70
     0
102
RTVSPropertyOp53
 70
     1
102
RTVSPropertyOp54
 70
     1
102
RTVSPropertyOp55
 70
     1
102
RTVSPropertyOp56
 70
     1
102
RTVSPropertyOp57
 70
     1
102
RTVSPropertyOp58
 70
     1
102
RTVSPropertyOp59
 70
     1
102
RTVSPropertyOp60
 70
     1
102
RTVSPropertyOp61
 70
     1
102
RTVSPropertyOp62
 70
     1
  0
XRECORD
  5
D1A
102
{ACAD_REACTORS
330
D19
102
}
330
D19
100
AcDbXrecord
280
     1
102
RTVSPost2010Prop28
280
     0
102
RTVSPost2010PropOp28
 70
     1
102
RTVSPost2010Prop29
280
     1
102
RTVSPost2010PropOp29
 70
     1
102
RTVSPost2010Prop30
280
     1
102
RTVSPost2010PropOp30
 70
     1
102
RTVSPost2010Prop31
280
     0
102
RTVSPost2010PropOp31
 70
     1
102
RTVSPost2010Prop32
280
     0
102
RTVSPost2010PropOp32
 70
     1
102
RTVSPost2010Prop33
280
     0
102
RTVSPost2010PropOp33
 70
     1
102
RTVSPost2010Prop34
280
     0
102
RTVSPost2010PropOp34
 70
     1
102
RTVSPost2010Prop35
280
     0
102
RTVSPost2010PropOp35
 70
     1
102
RTVSPost2010Prop36
280
     0
102
RTVSPost2010PropOp36
 70
     1
102
RTVSPost2010Prop37
 90
       50
102
RTVSPost2010PropOp37
 70
     1
102
RTVSPost2010Prop38
140
0.0
102
RTVSPost2010PropOp38
 70
     1
102
RTVSPost2010Prop39
140
1.0
102
RTVSPost2010PropOp39
 70
     1
102
RTVSPost2010Prop40
 90
        0
102
RTVSPost2010PropOp40
 70
     1
102
RTVSPost2010Prop41ColorIndex
 90
       18
102
RTVSPost2010Prop41ColorRGB
 90
        0
102
RTVSPost2010PropOp41
 70
     1
102
RTVSPost2010Prop42
 90
       50
102
RTVSPost2010PropOp42
 70
     1
102
RTVSPost2010Prop43
 90
        3
102
RTVSPost2010PropOp43
 70
     1
102
RTVSPost2010Prop44ColorIndex
 90
        5
102
RTVSPost2010Prop44ColorRGB
 90
      255
102
RTVSPost2010PropOp44
 70
     1
102
RTVSPost2010Prop45
280
     0
102
RTVSPost2010PropOp45
 70
     1
102
RTVSPost2010Prop46
 90
       50
102
RTVSPost2010PropOp46
 70
     1
102
RTVSPost2010Prop47
 90
       50
102
RTVSPost2010PropOp47
 70
     1
102
RTVSPost2010Prop48
 90
       50
102
RTVSPost2010PropOp48
 70
     1
102
RTVSPost2010Prop49
280
     0
102
RTVSPost2010PropOp49
 70
     1
102
RTVSPost2010Prop50
 90
       50
102
RTVSPost2010PropOp50
 70
     1
102
RTVSPost2010Prop51ColorIndex
 90
      256
102
RTVSPost2010Prop51ColorRGB
 90
-16777216
102
RTVSPost2010PropOp51
 70
     0
102
RTVSPost2010Prop52
140
1.0
102
RTVSPost2010PropOp52
 70
     0
102
RTVSPost2010Prop53
 90
        2
102
RTVSPost2010PropOp53
 70
     1
102
RTVSPost2010Prop54
  1
strokes_ogs.tif
102
RTVSPost2010PropOp54
 70
     1
102
RTVSPost2010Prop55
280
     0
102
RTVSPost2010PropOp55
 70
     1
102
RTVSPost2010Prop56
140
1.0
102
RTVSPost2010PropOp56
 70
     1
102
RTVSPost2010Prop57
140
1.0
102
RTVSPost2010PropOp57
 70
     1
102
RTVSPropertyOp0
 70
     1
102
RTVSPropertyOp1
 70
     1
102
RTVSPropertyOp2
 70
     1
102
RTVSPropertyOp3
 70
     1
102
RTVSPropertyOp4
 70
     1
102
RTVSPropertyOp5
 70
     1
102
RTVSPropertyOp6
 70
     1
102
RTVSPropertyOp7
 70
     1
102
RTVSPropertyOp8
 70
     1
102
RTVSPropertyOp9
 70
     1
102
RTVSPropertyOp10
 70
     1
102
RTVSPropertyOp11
 70
     1
102
RTVSPropertyOp12
 70
     1
102
RTVSPropertyOp13
 70
     1
102
RTVSPropertyOp14
 70
     1
102
RTVSPropertyOp15
 70
     1
102
RTVSPropertyOp16
 70
     1
102
RTVSPropertyOp17
 70
     1
102
RTVSPropertyOp18
 70
     1
102
RTVSPropertyOp19
 70
     1
102
RTVSPropertyOp20
 70
     1
102
RTVSPropertyOp21
 70
     1
102
RTVSPropertyOp22
 70
     1
102
RTVSPropertyOp23
 70
     1
102
RTVSPropertyOp24
 70
     1
102
RTVSPropertyOp25
 70
     1
102
RTVSPropertyOp26
 70
     1
102
RTVSPropertyOp27
 70
     1
102
RTVSPropertyOp28
 70
     1
102
RTVSPropertyOp29
 70
     1
102
RTVSPropertyOp30
 70
     1
102
RTVSPropertyOp31
 70
     1
102
RTVSPropertyOp32
 70
     1
102
RTVSPropertyOp33
 70
     1
102
RTVSPropertyOp34
 70
     1
102
RTVSPropertyOp35
 70
     1
102
RTVSPropertyOp36
 70
     1
102
RTVSPropertyOp37
 70
     1
102
RTVSPropertyOp38
 70
     1
102
RTVSPropertyOp39
 70
     1
102
RTVSPropertyOp40
 70
     1
102
RTVSPropertyOp41
 70
     1
102
RTVSPropertyOp42
 70
     1
102
RTVSPropertyOp43
 70
     1
102
RTVSPropertyOp44
 70
     1
102
RTVSPropertyOp45
 70
     1
102
RTVSPropertyOp46
 70
     1
102
RTVSPropertyOp47
 70
     1
102
RTVSPropertyOp48
 70
     1
102
RTVSPropertyOp49
 70
     1
102
RTVSPropertyOp50
 70
     1
102
RTVSPropertyOp51
 70
     0
102
RTVSPropertyOp52
 70
     0
102
RTVSPropertyOp53
 70
     1
102
RTVSPropertyOp54
 70
     1
102
RTVSPropertyOp55
 70
     1
102
RTVSPropertyOp56
 70
     1
102
RTVSPropertyOp57
 70
     1
102
RTVSPropertyOp58
 70
     1
102
RTVSPropertyOp59
 70
     1
102
RTVSPropertyOp60
 70
     1
102
RTVSPropertyOp61
 70
     1
102
RTVSPropertyOp62
 70
     1
  0
XRECORD
  5
D0C
102
{ACAD_REACTORS
330
D0B
102
}
330
D0B
100
AcDbXrecord
280
     1
102
RTVSPost2010Prop28
280
     0
102
RTVSPost2010PropOp28
 70
     1
102
RTVSPost2010Prop29
280
     1
102
RTVSPost2010PropOp29
 70
     1
102
RTVSPost2010Prop30
280
     1
102
RTVSPost2010PropOp30
 70
     1
102
RTVSPost2010Prop31
280
     0
102
RTVSPost2010PropOp31
 70
     1
102
RTVSPost2010Prop32
280
     0
102
RTVSPost2010PropOp32
 70
     1
102
RTVSPost2010Prop33
280
     0
102
RTVSPost2010PropOp33
 70
     1
102
RTVSPost2010Prop34
280
     0
102
RTVSPost2010PropOp34
 70
     1
102
RTVSPost2010Prop35
280
     0
102
RTVSPost2010PropOp35
 70
     1
102
RTVSPost2010Prop36
280
     0
102
RTVSPost2010PropOp36
 70
     1
102
RTVSPost2010Prop37
 90
       50
102
RTVSPost2010PropOp37
 70
     1
102
RTVSPost2010Prop38
140
0.0
102
RTVSPost2010PropOp38
 70
     1
102
RTVSPost2010Prop39
140
1.0
102
RTVSPost2010PropOp39
 70
     1
102
RTVSPost2010Prop40
 90
        0
102
RTVSPost2010PropOp40
 70
     1
102
RTVSPost2010Prop41ColorIndex
 90
       18
102
RTVSPost2010Prop41ColorRGB
 90
        0
102
RTVSPost2010PropOp41
 70
     1
102
RTVSPost2010Prop42
 90
       50
102
RTVSPost2010PropOp42
 70
     1
102
RTVSPost2010Prop43
 90
        3
102
RTVSPost2010PropOp43
 70
     1
102
RTVSPost2010Prop44ColorIndex
 90
        5
102
RTVSPost2010Prop44ColorRGB
 90
      255
102
RTVSPost2010PropOp44
 70
     1
102
RTVSPost2010Prop45
280
     0
102
RTVSPost2010PropOp45
 70
     1
102
RTVSPost2010Prop46
 90
       50
102
RTVSPost2010PropOp46
 70
     1
102
RTVSPost2010Prop47
 90
       50
102
RTVSPost2010PropOp47
 70
     1
102
RTVSPost2010Prop48
 90
       50
102
RTVSPost2010PropOp48
 70
     1
102
RTVSPost2010Prop49
280
     0
102
RTVSPost2010PropOp49
 70
     1
102
RTVSPost2010Prop50
 90
       50
102
RTVSPost2010PropOp50
 70
     1
102
RTVSPost2010Prop51ColorIndex
 90
      256
102
RTVSPost2010Prop51ColorRGB
 90
-16777216
102
RTVSPost2010PropOp51
 70
     0
102
RTVSPost2010Prop52
140
1.0
102
RTVSPost2010PropOp52
 70
     0
102
RTVSPost2010Prop53
 90
        2
102
RTVSPost2010PropOp53
 70
     1
102
RTVSPost2010Prop54
  1
strokes_ogs.tif
102
RTVSPost2010PropOp54
 70
     1
102
RTVSPost2010Prop55
280
     0
102
RTVSPost2010PropOp55
 70
     1
102
RTVSPost2010Prop56
140
1.0
102
RTVSPost2010PropOp56
 70
     1
102
RTVSPost2010Prop57
140
1.0
102
RTVSPost2010PropOp57
 70
     1
102
RTVSPropertyOp0
 70
     1
102
RTVSPropertyOp1
 70
     1
102
RTVSPropertyOp2
 70
     1
102
RTVSPropertyOp3
 70
     1
102
RTVSPropertyOp4
 70
     1
102
RTVSPropertyOp5
 70
     1
102
RTVSPropertyOp6
 70
     1
102
RTVSPropertyOp7
 70
     1
102
RTVSPropertyOp8
 70
     1
102
RTVSPropertyOp9
 70
     1
102
RTVSPropertyOp10
 70
     1
102
RTVSPropertyOp11
 70
     1
102
RTVSPropertyOp12
 70
     1
102
RTVSPropertyOp13
 70
     1
102
RTVSPropertyOp14
 70
     1
102
RTVSPropertyOp15
 70
     1
102
RTVSPropertyOp16
 70
     1
102
RTVSPropertyOp17
 70
     1
102
RTVSPropertyOp18
 70
     1
102
RTVSPropertyOp19
 70
     1
102
RTVSPropertyOp20
 70
     1
102
RTVSPropertyOp21
 70
     1
102
RTVSPropertyOp22
 70
     1
102
RTVSPropertyOp23
 70
     1
102
RTVSPropertyOp24
 70
     1
102
RTVSPropertyOp25
 70
     1
102
RTVSPropertyOp26
 70
     1
102
RTVSPropertyOp27
 70
     1
102
RTVSPropertyOp28
 70
     1
102
RTVSPropertyOp29
 70
     1
102
RTVSPropertyOp30
 70
     1
102
RTVSPropertyOp31
 70
     1
102
RTVSPropertyOp32
 70
     1
102
RTVSPropertyOp33
 70
     1
102
RTVSPropertyOp34
 70
     1
102
RTVSPropertyOp35
 70
     1
102
RTVSPropertyOp36
 70
     1
102
RTVSPropertyOp37
 70
     1
102
RTVSPropertyOp38
 70
     1
102
RTVSPropertyOp39
 70
     1
102
RTVSPropertyOp40
 70
     1
102
RTVSPropertyOp41
 70
     1
102
RTVSPropertyOp42
 70
     1
102
RTVSPropertyOp43
 70
     1
102
RTVSPropertyOp44
 70
     1
102
RTVSPropertyOp45
 70
     1
102
RTVSPropertyOp46
 70
     1
102
RTVSPropertyOp47
 70
     1
102
RTVSPropertyOp48
 70
     1
102
RTVSPropertyOp49
 70
     1
102
RTVSPropertyOp50
 70
     1
102
RTVSPropertyOp51
 70
     0
102
RTVSPropertyOp52
 70
     0
102
RTVSPropertyOp53
 70
     1
102
RTVSPropertyOp54
 70
     1
102
RTVSPropertyOp55
 70
     1
102
RTVSPropertyOp56
 70
     1
102
RTVSPropertyOp57
 70
     1
102
RTVSPropertyOp58
 70
     1
102
RTVSPropertyOp59
 70
     1
102
RTVSPropertyOp60
 70
     1
102
RTVSPropertyOp61
 70
     1
102
RTVSPropertyOp62
 70
     1
  0
XRECORD
  5
D10
102
{ACAD_REACTORS
330
D0F
102
}
330
D0F
100
AcDbXrecord
280
     1
102
RTVSPost2010Prop28
280
     0
102
RTVSPost2010PropOp28
 70
     1
102
RTVSPost2010Prop29
280
     1
102
RTVSPost2010PropOp29
 70
     1
102
RTVSPost2010Prop30
280
     1
102
RTVSPost2010PropOp30
 70
     1
102
RTVSPost2010Prop31
280
     0
102
RTVSPost2010PropOp31
 70
     1
102
RTVSPost2010Prop32
280
     0
102
RTVSPost2010PropOp32
 70
     1
102
RTVSPost2010Prop33
280
     0
102
RTVSPost2010PropOp33
 70
     1
102
RTVSPost2010Prop34
280
     0
102
RTVSPost2010PropOp34
 70
     1
102
RTVSPost2010Prop35
280
     0
102
RTVSPost2010PropOp35
 70
     1
102
RTVSPost2010Prop36
280
     0
102
RTVSPost2010PropOp36
 70
     1
102
RTVSPost2010Prop37
 90
       50
102
RTVSPost2010PropOp37
 70
     1
102
RTVSPost2010Prop38
140
0.0
102
RTVSPost2010PropOp38
 70
     1
102
RTVSPost2010Prop39
140
1.0
102
RTVSPost2010PropOp39
 70
     1
102
RTVSPost2010Prop40
 90
        0
102
RTVSPost2010PropOp40
 70
     1
102
RTVSPost2010Prop41ColorIndex
 90
       18
102
RTVSPost2010Prop41ColorRGB
 90
        0
102
RTVSPost2010PropOp41
 70
     1
102
RTVSPost2010Prop42
 90
       50
102
RTVSPost2010PropOp42
 70
     1
102
RTVSPost2010Prop43
 90
        3
102
RTVSPost2010PropOp43
 70
     1
102
RTVSPost2010Prop44ColorIndex
 90
        5
102
RTVSPost2010Prop44ColorRGB
 90
      255
102
RTVSPost2010PropOp44
 70
     1
102
RTVSPost2010Prop45
280
     0
102
RTVSPost2010PropOp45
 70
     1
102
RTVSPost2010Prop46
 90
       50
102
RTVSPost2010PropOp46
 70
     1
102
RTVSPost2010Prop47
 90
       50
102
RTVSPost2010PropOp47
 70
     1
102
RTVSPost2010Prop48
 90
       50
102
RTVSPost2010PropOp48
 70
     1
102
RTVSPost2010Prop49
280
     0
102
RTVSPost2010PropOp49
 70
     1
102
RTVSPost2010Prop50
 90
       50
102
RTVSPost2010PropOp50
 70
     1
102
RTVSPost2010Prop51ColorIndex
 90
      256
102
RTVSPost2010Prop51ColorRGB
 90
-16777216
102
RTVSPost2010PropOp51
 70
     0
102
RTVSPost2010Prop52
140
1.0
102
RTVSPost2010PropOp52
 70
     0
102
RTVSPost2010Prop53
 90
        2
102
RTVSPost2010PropOp53
 70
     1
102
RTVSPost2010Prop54
  1
strokes_ogs.tif
102
RTVSPost2010PropOp54
 70
     1
102
RTVSPost2010Prop55
280
     0
102
RTVSPost2010PropOp55
 70
     1
102
RTVSPost2010Prop56
140
1.0
102
RTVSPost2010PropOp56
 70
     1
102
RTVSPost2010Prop57
140
1.0
102
RTVSPost2010PropOp57
 70
     1
102
RTVSPropertyOp0
 70
     1
102
RTVSPropertyOp1
 70
     1
102
RTVSPropertyOp2
 70
     1
102
RTVSPropertyOp3
 70
     1
102
RTVSPropertyOp4
 70
     1
102
RTVSPropertyOp5
 70
     1
102
RTVSPropertyOp6
 70
     1
102
RTVSPropertyOp7
 70
     1
102
RTVSPropertyOp8
 70
     1
102
RTVSPropertyOp9
 70
     1
102
RTVSPropertyOp10
 70
     1
102
RTVSPropertyOp11
 70
     1
102
RTVSPropertyOp12
 70
     1
102
RTVSPropertyOp13
 70
     1
102
RTVSPropertyOp14
 70
     1
102
RTVSPropertyOp15
 70
     1
102
RTVSPropertyOp16
 70
     1
102
RTVSPropertyOp17
 70
     1
102
RTVSPropertyOp18
 70
     1
102
RTVSPropertyOp19
 70
     1
102
RTVSPropertyOp20
 70
     1
102
RTVSPropertyOp21
 70
     1
102
RTVSPropertyOp22
 70
     1
102
RTVSPropertyOp23
 70
     1
102
RTVSPropertyOp24
 70
     1
102
RTVSPropertyOp25
 70
     1
102
RTVSPropertyOp26
 70
     1
102
RTVSPropertyOp27
 70
     1
102
RTVSPropertyOp28
 70
     1
102
RTVSPropertyOp29
 70
     1
102
RTVSPropertyOp30
 70
     1
102
RTVSPropertyOp31
 70
     1
102
RTVSPropertyOp32
 70
     1
102
RTVSPropertyOp33
 70
     1
102
RTVSPropertyOp34
 70
     1
102
RTVSPropertyOp35
 70
     1
102
RTVSPropertyOp36
 70
     1
102
RTVSPropertyOp37
 70
     1
102
RTVSPropertyOp38
 70
     1
102
RTVSPropertyOp39
 70
     1
102
RTVSPropertyOp40
 70
     1
102
RTVSPropertyOp41
 70
     1
102
RTVSPropertyOp42
 70
     1
102
RTVSPropertyOp43
 70
     1
102
RTVSPropertyOp44
 70
     1
102
RTVSPropertyOp45
 70
     1
102
RTVSPropertyOp46
 70
     1
102
RTVSPropertyOp47
 70
     1
102
RTVSPropertyOp48
 70
     1
102
RTVSPropertyOp49
 70
     1
102
RTVSPropertyOp50
 70
     1
102
RTVSPropertyOp51
 70
     0
102
RTVSPropertyOp52
 70
     0
102
RTVSPropertyOp53
 70
     1
102
RTVSPropertyOp54
 70
     1
102
RTVSPropertyOp55
 70
     1
102
RTVSPropertyOp56
 70
     1
102
RTVSPropertyOp57
 70
     1
102
RTVSPropertyOp58
 70
     1
102
RTVSPropertyOp59
 70
     1
102
RTVSPropertyOp60
 70
     1
102
RTVSPropertyOp61
 70
     1
102
RTVSPropertyOp62
 70
     1
  0
XRECORD
  5
D2A
102
{ACAD_REACTORS
330
D29
102
}
330
D29
100
AcDbXrecord
280
     1
102
RTVSPost2010Prop28
280
     0
102
RTVSPost2010PropOp28
 70
     1
102
RTVSPost2010Prop29
280
     1
102
RTVSPost2010PropOp29
 70
     1
102
RTVSPost2010Prop30
280
     1
102
RTVSPost2010PropOp30
 70
     1
102
RTVSPost2010Prop31
280
     0
102
RTVSPost2010PropOp31
 70
     1
102
RTVSPost2010Prop32
280
     0
102
RTVSPost2010PropOp32
 70
     1
102
RTVSPost2010Prop33
280
     0
102
RTVSPost2010PropOp33
 70
     1
102
RTVSPost2010Prop34
280
     0
102
RTVSPost2010PropOp34
 70
     1
102
RTVSPost2010Prop35
280
     0
102
RTVSPost2010PropOp35
 70
     1
102
RTVSPost2010Prop36
280
     0
102
RTVSPost2010PropOp36
 70
     1
102
RTVSPost2010Prop37
 90
       50
102
RTVSPost2010PropOp37
 70
     0
102
RTVSPost2010Prop38
140
0.0
102
RTVSPost2010PropOp38
 70
     0
102
RTVSPost2010Prop39
140
1.0
102
RTVSPost2010PropOp39
 70
     0
102
RTVSPost2010Prop40
 90
        0
102
RTVSPost2010PropOp40
 70
     0
102
RTVSPost2010Prop41ColorIndex
 90
       18
102
RTVSPost2010Prop41ColorRGB
 90
        0
102
RTVSPost2010PropOp41
 70
     0
102
RTVSPost2010Prop42
 90
       50
102
RTVSPost2010PropOp42
 70
     0
102
RTVSPost2010Prop43
 90
        3
102
RTVSPost2010PropOp43
 70
     0
102
RTVSPost2010Prop44ColorIndex
 90
        5
102
RTVSPost2010Prop44ColorRGB
 90
      255
102
RTVSPost2010PropOp44
 70
     0
102
RTVSPost2010Prop45
280
     0
102
RTVSPost2010PropOp45
 70
     1
102
RTVSPost2010Prop46
 90
       50
102
RTVSPost2010PropOp46
 70
     0
102
RTVSPost2010Prop47
 90
       50
102
RTVSPost2010PropOp47
 70
     0
102
RTVSPost2010Prop48
 90
       50
102
RTVSPost2010PropOp48
 70
     0
102
RTVSPost2010Prop49
280
     0
102
RTVSPost2010PropOp49
 70
     1
102
RTVSPost2010Prop50
 90
       50
102
RTVSPost2010PropOp50
 70
     0
102
RTVSPost2010Prop51ColorIndex
 90
      256
102
RTVSPost2010Prop51ColorRGB
 90
-16777216
102
RTVSPost2010PropOp51
 70
     0
102
RTVSPost2010Prop52
140
1.0
102
RTVSPost2010PropOp52
 70
     0
102
RTVSPost2010Prop53
 90
        2
102
RTVSPost2010PropOp53
 70
     0
102
RTVSPost2010Prop54
  1
strokes_ogs.tif
102
RTVSPost2010PropOp54
 70
     0
102
RTVSPost2010Prop55
280
     0
102
RTVSPost2010PropOp55
 70
     1
102
RTVSPost2010Prop56
140
1.0
102
RTVSPost2010PropOp56
 70
     0
102
RTVSPost2010Prop57
140
1.0
102
RTVSPost2010PropOp57
 70
     0
102
RTVSPropertyOp0
 70
     0
102
RTVSPropertyOp1
 70
     0
102
RTVSPropertyOp2
 70
     0
102
RTVSPropertyOp3
 70
     0
102
RTVSPropertyOp4
 70
     0
102
RTVSPropertyOp5
 70
     0
102
RTVSPropertyOp6
 70
     0
102
RTVSPropertyOp7
 70
     0
102
RTVSPropertyOp8
 70
     0
102
RTVSPropertyOp9
 70
     0
102
RTVSPropertyOp10
 70
     0
102
RTVSPropertyOp11
 70
     0
102
RTVSPropertyOp12
 70
     0
102
RTVSPropertyOp13
 70
     0
102
RTVSPropertyOp14
 70
     2
102
RTVSPropertyOp15
 70
     0
102
RTVSPropertyOp16
 70
     0
102
RTVSPropertyOp17
 70
     0
102
RTVSPropertyOp18
 70
     0
102
RTVSPropertyOp19
 70
     0
102
RTVSPropertyOp20
 70
     0
102
RTVSPropertyOp21
 70
     0
102
RTVSPropertyOp22
 70
     0
102
RTVSPropertyOp23
 70
     0
102
RTVSPropertyOp24
 70
     0
102
RTVSPropertyOp25
 70
     0
102
RTVSPropertyOp26
 70
     0
102
RTVSPropertyOp27
 70
     0
102
RTVSPropertyOp28
 70
     1
102
RTVSPropertyOp29
 70
     1
102
RTVSPropertyOp30
 70
     1
102
RTVSPropertyOp31
 70
     1
102
RTVSPropertyOp32
 70
     1
102
RTVSPropertyOp33
 70
     1
102
RTVSPropertyOp34
 70
     1
102
RTVSPropertyOp35
 70
     1
102
RTVSPropertyOp36
 70
     1
102
RTVSPropertyOp37
 70
     0
102
RTVSPropertyOp38
 70
     0
102
RTVSPropertyOp39
 70
     0
102
RTVSPropertyOp40
 70
     0
102
RTVSPropertyOp41
 70
     0
102
RTVSPropertyOp42
 70
     0
102
RTVSPropertyOp43
 70
     0
102
RTVSPropertyOp44
 70
     0
102
RTVSPropertyOp45
 70
     1
102
RTVSPropertyOp46
 70
     0
102
RTVSPropertyOp47
 70
     0
102
RTVSPropertyOp48
 70
     0
102
RTVSPropertyOp49
 70
     1
102
RTVSPropertyOp50
 70
     0
102
RTVSPropertyOp51
 70
     0
102
RTVSPropertyOp52
 70
     0
102
RTVSPropertyOp53
 70
     0
102
RTVSPropertyOp54
 70
     0
102
RTVSPropertyOp55
 70
     1
102
RTVSPropertyOp56
 70
     0
102
RTVSPropertyOp57
 70
     0
102
RTVSPropertyOp58
 70
     0
102
RTVSPropertyOp59
 70
     0
102
RTVSPropertyOp60
 70
     0
102
RTVSPropertyOp61
 70
     0
102
RTVSPropertyOp62
 70
     0
  0
XRECORD
  5
D18
102
{ACAD_REACTORS
330
D17
102
}
330
D17
100
AcDbXrecord
280
     1
102
RTVSPost2010Prop28
280
     0
102
RTVSPost2010PropOp28
 70
     1
102
RTVSPost2010Prop29
280
     1
102
RTVSPost2010PropOp29
 70
     1
102
RTVSPost2010Prop30
280
     1
102
RTVSPost2010PropOp30
 70
     1
102
RTVSPost2010Prop31
280
     0
102
RTVSPost2010PropOp31
 70
     1
102
RTVSPost2010Prop32
280
     0
102
RTVSPost2010PropOp32
 70
     1
102
RTVSPost2010Prop33
280
     0
102
RTVSPost2010PropOp33
 70
     1
102
RTVSPost2010Prop34
280
     0
102
RTVSPost2010PropOp34
 70
     1
102
RTVSPost2010Prop35
280
     0
102
RTVSPost2010PropOp35
 70
     1
102
RTVSPost2010Prop36
280
     0
102
RTVSPost2010PropOp36
 70
     1
102
RTVSPost2010Prop37
 90
       50
102
RTVSPost2010PropOp37
 70
     1
102
RTVSPost2010Prop38
140
0.0
102
RTVSPost2010PropOp38
 70
     1
102
RTVSPost2010Prop39
140
1.0
102
RTVSPost2010PropOp39
 70
     1
102
RTVSPost2010Prop40
 90
        0
102
RTVSPost2010PropOp40
 70
     1
102
RTVSPost2010Prop41ColorIndex
 90
       18
102
RTVSPost2010Prop41ColorRGB
 90
        0
102
RTVSPost2010PropOp41
 70
     1
102
RTVSPost2010Prop42
 90
       50
102
RTVSPost2010PropOp42
 70
     1
102
RTVSPost2010Prop43
 90
        3
102
RTVSPost2010PropOp43
 70
     1
102
RTVSPost2010Prop44ColorIndex
 90
        5
102
RTVSPost2010Prop44ColorRGB
 90
      255
102
RTVSPost2010PropOp44
 70
     1
102
RTVSPost2010Prop45
280
     0
102
RTVSPost2010PropOp45
 70
     1
102
RTVSPost2010Prop46
 90
       50
102
RTVSPost2010PropOp46
 70
     1
102
RTVSPost2010Prop47
 90
       50
102
RTVSPost2010PropOp47
 70
     1
102
RTVSPost2010Prop48
 90
       50
102
RTVSPost2010PropOp48
 70
     1
102
RTVSPost2010Prop49
280
     0
102
RTVSPost2010PropOp49
 70
     1
102
RTVSPost2010Prop50
 90
       50
102
RTVSPost2010PropOp50
 70
     1
102
RTVSPost2010Prop51ColorIndex
 90
      256
102
RTVSPost2010Prop51ColorRGB
 90
-16777216
102
RTVSPost2010PropOp51
 70
     0
102
RTVSPost2010Prop52
140
1.0
102
RTVSPost2010PropOp52
 70
     0
102
RTVSPost2010Prop53
 90
        2
102
RTVSPost2010PropOp53
 70
     1
102
RTVSPost2010Prop54
  1
strokes_ogs.tif
102
RTVSPost2010PropOp54
 70
     1
102
RTVSPost2010Prop55
280
     0
102
RTVSPost2010PropOp55
 70
     1
102
RTVSPost2010Prop56
140
1.0
102
RTVSPost2010PropOp56
 70
     1
102
RTVSPost2010Prop57
140
1.0
102
RTVSPost2010PropOp57
 70
     1
102
RTVSPropertyOp0
 70
     1
102
RTVSPropertyOp1
 70
     1
102
RTVSPropertyOp2
 70
     1
102
RTVSPropertyOp3
 70
     1
102
RTVSPropertyOp4
 70
     1
102
RTVSPropertyOp5
 70
     1
102
RTVSPropertyOp6
 70
     1
102
RTVSPropertyOp7
 70
     1
102
RTVSPropertyOp8
 70
     1
102
RTVSPropertyOp9
 70
     1
102
RTVSPropertyOp10
 70
     1
102
RTVSPropertyOp11
 70
     1
102
RTVSPropertyOp12
 70
     1
102
RTVSPropertyOp13
 70
     1
102
RTVSPropertyOp14
 70
     1
102
RTVSPropertyOp15
 70
     1
102
RTVSPropertyOp16
 70
     1
102
RTVSPropertyOp17
 70
     1
102
RTVSPropertyOp18
 70
     1
102
RTVSPropertyOp19
 70
     1
102
RTVSPropertyOp20
 70
     1
102
RTVSPropertyOp21
 70
     1
102
RTVSPropertyOp22
 70
     1
102
RTVSPropertyOp23
 70
     1
102
RTVSPropertyOp24
 70
     1
102
RTVSPropertyOp25
 70
     1
102
RTVSPropertyOp26
 70
     1
102
RTVSPropertyOp27
 70
     1
102
RTVSPropertyOp28
 70
     1
102
RTVSPropertyOp29
 70
     1
102
RTVSPropertyOp30
 70
     1
102
RTVSPropertyOp31
 70
     1
102
RTVSPropertyOp32
 70
     1
102
RTVSPropertyOp33
 70
     1
102
RTVSPropertyOp34
 70
     1
102
RTVSPropertyOp35
 70
     1
102
RTVSPropertyOp36
 70
     1
102
RTVSPropertyOp37
 70
     1
102
RTVSPropertyOp38
 70
     1
102
RTVSPropertyOp39
 70
     1
102
RTVSPropertyOp40
 70
     1
102
RTVSPropertyOp41
 70
     1
102
RTVSPropertyOp42
 70
     1
102
RTVSPropertyOp43
 70
     1
102
RTVSPropertyOp44
 70
     1
102
RTVSPropertyOp45
 70
     1
102
RTVSPropertyOp46
 70
     1
102
RTVSPropertyOp47
 70
     1
102
RTVSPropertyOp48
 70
     1
102
RTVSPropertyOp49
 70
     1
102
RTVSPropertyOp50
 70
     1
102
RTVSPropertyOp51
 70
     0
102
RTVSPropertyOp52
 70
     0
102
RTVSPropertyOp53
 70
     1
102
RTVSPropertyOp54
 70
     1
102
RTVSPropertyOp55
 70
     1
102
RTVSPropertyOp56
 70
     1
102
RTVSPropertyOp57
 70
     1
102
RTVSPropertyOp58
 70
     1
102
RTVSPropertyOp59
 70
     1
102
RTVSPropertyOp60
 70
     1
102
RTVSPropertyOp61
 70
     1
102
RTVSPropertyOp62
 70
     1
  0
XRECORD
  5
CFC
102
{ACAD_REACTORS
330
CFB
102
}
330
CFB
100
AcDbXrecord
280
     1
102
RTVSPost2010Prop28
280
     0
102
RTVSPost2010PropOp28
 70
     1
102
RTVSPost2010Prop29
280
     1
102
RTVSPost2010PropOp29
 70
     1
102
RTVSPost2010Prop30
280
     1
102
RTVSPost2010PropOp30
 70
     1
102
RTVSPost2010Prop31
280
     0
102
RTVSPost2010PropOp31
 70
     1
102
RTVSPost2010Prop32
280
     0
102
RTVSPost2010PropOp32
 70
     1
102
RTVSPost2010Prop33
280
     0
102
RTVSPost2010PropOp33
 70
     1
102
RTVSPost2010Prop34
280
     0
102
RTVSPost2010PropOp34
 70
     1
102
RTVSPost2010Prop35
280
     0
102
RTVSPost2010PropOp35
 70
     1
102
RTVSPost2010Prop36
280
     0
102
RTVSPost2010PropOp36
 70
     1
102
RTVSPost2010Prop37
 90
       50
102
RTVSPost2010PropOp37
 70
     1
102
RTVSPost2010Prop38
140
0.0
102
RTVSPost2010PropOp38
 70
     1
102
RTVSPost2010Prop39
140
1.0
102
RTVSPost2010PropOp39
 70
     1
102
RTVSPost2010Prop40
 90
        0
102
RTVSPost2010PropOp40
 70
     1
102
RTVSPost2010Prop41ColorIndex
 90
       18
102
RTVSPost2010Prop41ColorRGB
 90
        0
102
RTVSPost2010PropOp41
 70
     1
102
RTVSPost2010Prop42
 90
       50
102
RTVSPost2010PropOp42
 70
     1
102
RTVSPost2010Prop43
 90
        3
102
RTVSPost2010PropOp43
 70
     1
102
RTVSPost2010Prop44ColorIndex
 90
        5
102
RTVSPost2010Prop44ColorRGB
 90
      255
102
RTVSPost2010PropOp44
 70
     1
102
RTVSPost2010Prop45
280
     0
102
RTVSPost2010PropOp45
 70
     1
102
RTVSPost2010Prop46
 90
       50
102
RTVSPost2010PropOp46
 70
     1
102
RTVSPost2010Prop47
 90
       50
102
RTVSPost2010PropOp47
 70
     1
102
RTVSPost2010Prop48
 90
       50
102
RTVSPost2010PropOp48
 70
     1
102
RTVSPost2010Prop49
280
     0
102
RTVSPost2010PropOp49
 70
     1
102
RTVSPost2010Prop50
 90
       50
102
RTVSPost2010PropOp50
 70
     1
102
RTVSPost2010Prop51ColorIndex
 90
      256
102
RTVSPost2010Prop51ColorRGB
 90
-16777216
102
RTVSPost2010PropOp51
 70
     0
102
RTVSPost2010Prop52
140
1.0
102
RTVSPost2010PropOp52
 70
     0
102
RTVSPost2010Prop53
 90
        2
102
RTVSPost2010PropOp53
 70
     1
102
RTVSPost2010Prop54
  1
strokes_ogs.tif
102
RTVSPost2010PropOp54
 70
     1
102
RTVSPost2010Prop55
280
     0
102
RTVSPost2010PropOp55
 70
     1
102
RTVSPost2010Prop56
140
1.0
102
RTVSPost2010PropOp56
 70
     1
102
RTVSPost2010Prop57
140
1.0
102
RTVSPost2010PropOp57
 70
     1
102
RTVSPropertyOp0
 70
     1
102
RTVSPropertyOp1
 70
     1
102
RTVSPropertyOp2
 70
     1
102
RTVSPropertyOp3
 70
     1
102
RTVSPropertyOp4
 70
     1
102
RTVSPropertyOp5
 70
     1
102
RTVSPropertyOp6
 70
     1
102
RTVSPropertyOp7
 70
     1
102
RTVSPropertyOp8
 70
     1
102
RTVSPropertyOp9
 70
     1
102
RTVSPropertyOp10
 70
     1
102
RTVSPropertyOp11
 70
     1
102
RTVSPropertyOp12
 70
     1
102
RTVSPropertyOp13
 70
     1
102
RTVSPropertyOp14
 70
     1
102
RTVSPropertyOp15
 70
     1
102
RTVSPropertyOp16
 70
     1
102
RTVSPropertyOp17
 70
     1
102
RTVSPropertyOp18
 70
     1
102
RTVSPropertyOp19
 70
     1
102
RTVSPropertyOp20
 70
     1
102
RTVSPropertyOp21
 70
     1
102
RTVSPropertyOp22
 70
     1
102
RTVSPropertyOp23
 70
     1
102
RTVSPropertyOp24
 70
     1
102
RTVSPropertyOp25
 70
     1
102
RTVSPropertyOp26
 70
     1
102
RTVSPropertyOp27
 70
     1
102
RTVSPropertyOp28
 70
     1
102
RTVSPropertyOp29
 70
     1
102
RTVSPropertyOp30
 70
     1
102
RTVSPropertyOp31
 70
     1
102
RTVSPropertyOp32
 70
     1
102
RTVSPropertyOp33
 70
     1
102
RTVSPropertyOp34
 70
     1
102
RTVSPropertyOp35
 70
     1
102
RTVSPropertyOp36
 70
     1
102
RTVSPropertyOp37
 70
     1
102
RTVSPropertyOp38
 70
     1
102
RTVSPropertyOp39
 70
     1
102
RTVSPropertyOp40
 70
     1
102
RTVSPropertyOp41
 70
     1
102
RTVSPropertyOp42
 70
     1
102
RTVSPropertyOp43
 70
     1
102
RTVSPropertyOp44
 70
     1
102
RTVSPropertyOp45
 70
     1
102
RTVSPropertyOp46
 70
     1
102
RTVSPropertyOp47
 70
     1
102
RTVSPropertyOp48
 70
     1
102
RTVSPropertyOp49
 70
     1
102
RTVSPropertyOp50
 70
     1
102
RTVSPropertyOp51
 70
     0
102
RTVSPropertyOp52
 70
     0
102
RTVSPropertyOp53
 70
     1
102
RTVSPropertyOp54
 70
     1
102
RTVSPropertyOp55
 70
     1
102
RTVSPropertyOp56
 70
     1
102
RTVSPropertyOp57
 70
     1
102
RTVSPropertyOp58
 70
     1
102
RTVSPropertyOp59
 70
     1
102
RTVSPropertyOp60
 70
     1
102
RTVSPropertyOp61
 70
     1
102
RTVSPropertyOp62
 70
     1
  0
XRECORD
  5
CFE
102
{ACAD_REACTORS
330
CFD
102
}
330
CFD
100
AcDbXrecord
280
     1
102
RTVSPost2010Prop28
280
     0
102
RTVSPost2010PropOp28
 70
     1
102
RTVSPost2010Prop29
280
     1
102
RTVSPost2010PropOp29
 70
     1
102
RTVSPost2010Prop30
280
     1
102
RTVSPost2010PropOp30
 70
     1
102
RTVSPost2010Prop31
280
     0
102
RTVSPost2010PropOp31
 70
     1
102
RTVSPost2010Prop32
280
     0
102
RTVSPost2010PropOp32
 70
     1
102
RTVSPost2010Prop33
280
     0
102
RTVSPost2010PropOp33
 70
     1
102
RTVSPost2010Prop34
280
     0
102
RTVSPost2010PropOp34
 70
     1
102
RTVSPost2010Prop35
280
     0
102
RTVSPost2010PropOp35
 70
     1
102
RTVSPost2010Prop36
280
     0
102
RTVSPost2010PropOp36
 70
     1
102
RTVSPost2010Prop37
 90
       50
102
RTVSPost2010PropOp37
 70
     1
102
RTVSPost2010Prop38
140
0.0
102
RTVSPost2010PropOp38
 70
     1
102
RTVSPost2010Prop39
140
1.0
102
RTVSPost2010PropOp39
 70
     1
102
RTVSPost2010Prop40
 90
        0
102
RTVSPost2010PropOp40
 70
     1
102
RTVSPost2010Prop41ColorIndex
 90
       18
102
RTVSPost2010Prop41ColorRGB
 90
        0
102
RTVSPost2010PropOp41
 70
     1
102
RTVSPost2010Prop42
 90
       50
102
RTVSPost2010PropOp42
 70
     1
102
RTVSPost2010Prop43
 90
        3
102
RTVSPost2010PropOp43
 70
     1
102
RTVSPost2010Prop44ColorIndex
 90
        5
102
RTVSPost2010Prop44ColorRGB
 90
      255
102
RTVSPost2010PropOp44
 70
     1
102
RTVSPost2010Prop45
280
     0
102
RTVSPost2010PropOp45
 70
     1
102
RTVSPost2010Prop46
 90
       50
102
RTVSPost2010PropOp46
 70
     1
102
RTVSPost2010Prop47
 90
       50
102
RTVSPost2010PropOp47
 70
     1
102
RTVSPost2010Prop48
 90
       50
102
RTVSPost2010PropOp48
 70
     1
102
RTVSPost2010Prop49
280
     0
102
RTVSPost2010PropOp49
 70
     1
102
RTVSPost2010Prop50
 90
       50
102
RTVSPost2010PropOp50
 70
     1
102
RTVSPost2010Prop51ColorIndex
 90
      256
102
RTVSPost2010Prop51ColorRGB
 90
-16777216
102
RTVSPost2010PropOp51
 70
     0
102
RTVSPost2010Prop52
140
1.0
102
RTVSPost2010PropOp52
 70
     0
102
RTVSPost2010Prop53
 90
        2
102
RTVSPost2010PropOp53
 70
     1
102
RTVSPost2010Prop54
  1
strokes_ogs.tif
102
RTVSPost2010PropOp54
 70
     1
102
RTVSPost2010Prop55
280
     0
102
RTVSPost2010PropOp55
 70
     1
102
RTVSPost2010Prop56
140
1.0
102
RTVSPost2010PropOp56
 70
     1
102
RTVSPost2010Prop57
140
1.0
102
RTVSPost2010PropOp57
 70
     1
102
RTVSPropertyOp0
 70
     1
102
RTVSPropertyOp1
 70
     1
102
RTVSPropertyOp2
 70
     1
102
RTVSPropertyOp3
 70
     1
102
RTVSPropertyOp4
 70
     1
102
RTVSPropertyOp5
 70
     1
102
RTVSPropertyOp6
 70
     1
102
RTVSPropertyOp7
 70
     1
102
RTVSPropertyOp8
 70
     1
102
RTVSPropertyOp9
 70
     1
102
RTVSPropertyOp10
 70
     1
102
RTVSPropertyOp11
 70
     1
102
RTVSPropertyOp12
 70
     1
102
RTVSPropertyOp13
 70
     1
102
RTVSPropertyOp14
 70
     1
102
RTVSPropertyOp15
 70
     1
102
RTVSPropertyOp16
 70
     1
102
RTVSPropertyOp17
 70
     1
102
RTVSPropertyOp18
 70
     1
102
RTVSPropertyOp19
 70
     1
102
RTVSPropertyOp20
 70
     1
102
RTVSPropertyOp21
 70
     1
102
RTVSPropertyOp22
 70
     1
102
RTVSPropertyOp23
 70
     1
102
RTVSPropertyOp24
 70
     1
102
RTVSPropertyOp25
 70
     1
102
RTVSPropertyOp26
 70
     1
102
RTVSPropertyOp27
 70
     1
102
RTVSPropertyOp28
 70
     1
102
RTVSPropertyOp29
 70
     1
102
RTVSPropertyOp30
 70
     1
102
RTVSPropertyOp31
 70
     1
102
RTVSPropertyOp32
 70
     1
102
RTVSPropertyOp33
 70
     1
102
RTVSPropertyOp34
 70
     1
102
RTVSPropertyOp35
 70
     1
102
RTVSPropertyOp36
 70
     1
102
RTVSPropertyOp37
 70
     1
102
RTVSPropertyOp38
 70
     1
102
RTVSPropertyOp39
 70
     1
102
RTVSPropertyOp40
 70
     1
102
RTVSPropertyOp41
 70
     1
102
RTVSPropertyOp42
 70
     1
102
RTVSPropertyOp43
 70
     1
102
RTVSPropertyOp44
 70
     1
102
RTVSPropertyOp45
 70
     1
102
RTVSPropertyOp46
 70
     1
102
RTVSPropertyOp47
 70
     1
102
RTVSPropertyOp48
 70
     1
102
RTVSPropertyOp49
 70
     1
102
RTVSPropertyOp50
 70
     1
102
RTVSPropertyOp51
 70
     0
102
RTVSPropertyOp52
 70
     0
102
RTVSPropertyOp53
 70
     1
102
RTVSPropertyOp54
 70
     1
102
RTVSPropertyOp55
 70
     1
102
RTVSPropertyOp56
 70
     1
102
RTVSPropertyOp57
 70
     1
102
RTVSPropertyOp58
 70
     1
102
RTVSPropertyOp59
 70
     1
102
RTVSPropertyOp60
 70
     1
102
RTVSPropertyOp61
 70
     1
102
RTVSPropertyOp62
 70
     1
  0
XRECORD
  5
D00
102
{ACAD_REACTORS
330
CFF
102
}
330
CFF
100
AcDbXrecord
280
     1
102
RTVSPost2010Prop28
280
     0
102
RTVSPost2010PropOp28
 70
     1
102
RTVSPost2010Prop29
280
     1
102
RTVSPost2010PropOp29
 70
     1
102
RTVSPost2010Prop30
280
     1
102
RTVSPost2010PropOp30
 70
     1
102
RTVSPost2010Prop31
280
     0
102
RTVSPost2010PropOp31
 70
     1
102
RTVSPost2010Prop32
280
     0
102
RTVSPost2010PropOp32
 70
     1
102
RTVSPost2010Prop33
280
     0
102
RTVSPost2010PropOp33
 70
     1
102
RTVSPost2010Prop34
280
     0
102
RTVSPost2010PropOp34
 70
     1
102
RTVSPost2010Prop35
280
     0
102
RTVSPost2010PropOp35
 70
     1
102
RTVSPost2010Prop36
280
     0
102
RTVSPost2010PropOp36
 70
     1
102
RTVSPost2010Prop37
 90
       50
102
RTVSPost2010PropOp37
 70
     1
102
RTVSPost2010Prop38
140
0.0
102
RTVSPost2010PropOp38
 70
     1
102
RTVSPost2010Prop39
140
1.0
102
RTVSPost2010PropOp39
 70
     1
102
RTVSPost2010Prop40
 90
        0
102
RTVSPost2010PropOp40
 70
     1
102
RTVSPost2010Prop41ColorIndex
 90
       18
102
RTVSPost2010Prop41ColorRGB
 90
        0
102
RTVSPost2010PropOp41
 70
     1
102
RTVSPost2010Prop42
 90
       50
102
RTVSPost2010PropOp42
 70
     1
102
RTVSPost2010Prop43
 90
        3
102
RTVSPost2010PropOp43
 70
     1
102
RTVSPost2010Prop44ColorIndex
 90
        5
102
RTVSPost2010Prop44ColorRGB
 90
      255
102
RTVSPost2010PropOp44
 70
     1
102
RTVSPost2010Prop45
280
     0
102
RTVSPost2010PropOp45
 70
     1
102
RTVSPost2010Prop46
 90
       50
102
RTVSPost2010PropOp46
 70
     1
102
RTVSPost2010Prop47
 90
       50
102
RTVSPost2010PropOp47
 70
     1
102
RTVSPost2010Prop48
 90
       50
102
RTVSPost2010PropOp48
 70
     1
102
RTVSPost2010Prop49
280
     0
102
RTVSPost2010PropOp49
 70
     1
102
RTVSPost2010Prop50
 90
       50
102
RTVSPost2010PropOp50
 70
     1
102
RTVSPost2010Prop51ColorIndex
 90
      256
102
RTVSPost2010Prop51ColorRGB
 90
-16777216
102
RTVSPost2010PropOp51
 70
     0
102
RTVSPost2010Prop52
140
1.0
102
RTVSPost2010PropOp52
 70
     0
102
RTVSPost2010Prop53
 90
        2
102
RTVSPost2010PropOp53
 70
     1
102
RTVSPost2010Prop54
  1
strokes_ogs.tif
102
RTVSPost2010PropOp54
 70
     1
102
RTVSPost2010Prop55
280
     0
102
RTVSPost2010PropOp55
 70
     1
102
RTVSPost2010Prop56
140
1.0
102
RTVSPost2010PropOp56
 70
     1
102
RTVSPost2010Prop57
140
1.0
102
RTVSPost2010PropOp57
 70
     1
102
RTVSPropertyOp0
 70
     1
102
RTVSPropertyOp1
 70
     1
102
RTVSPropertyOp2
 70
     1
102
RTVSPropertyOp3
 70
     1
102
RTVSPropertyOp4
 70
     1
102
RTVSPropertyOp5
 70
     1
102
RTVSPropertyOp6
 70
     1
102
RTVSPropertyOp7
 70
     1
102
RTVSPropertyOp8
 70
     1
102
RTVSPropertyOp9
 70
     1
102
RTVSPropertyOp10
 70
     1
102
RTVSPropertyOp11
 70
     1
102
RTVSPropertyOp12
 70
     1
102
RTVSPropertyOp13
 70
     1
102
RTVSPropertyOp14
 70
     1
102
RTVSPropertyOp15
 70
     1
102
RTVSPropertyOp16
 70
     1
102
RTVSPropertyOp17
 70
     1
102
RTVSPropertyOp18
 70
     1
102
RTVSPropertyOp19
 70
     1
102
RTVSPropertyOp20
 70
     1
102
RTVSPropertyOp21
 70
     1
102
RTVSPropertyOp22
 70
     1
102
RTVSPropertyOp23
 70
     1
102
RTVSPropertyOp24
 70
     1
102
RTVSPropertyOp25
 70
     1
102
RTVSPropertyOp26
 70
     1
102
RTVSPropertyOp27
 70
     1
102
RTVSPropertyOp28
 70
     1
102
RTVSPropertyOp29
 70
     1
102
RTVSPropertyOp30
 70
     1
102
RTVSPropertyOp31
 70
     1
102
RTVSPropertyOp32
 70
     1
102
RTVSPropertyOp33
 70
     1
102
RTVSPropertyOp34
 70
     1
102
RTVSPropertyOp35
 70
     1
102
RTVSPropertyOp36
 70
     1
102
RTVSPropertyOp37
 70
     1
102
RTVSPropertyOp38
 70
     1
102
RTVSPropertyOp39
 70
     1
102
RTVSPropertyOp40
 70
     1
102
RTVSPropertyOp41
 70
     1
102
RTVSPropertyOp42
 70
     1
102
RTVSPropertyOp43
 70
     1
102
RTVSPropertyOp44
 70
     1
102
RTVSPropertyOp45
 70
     1
102
RTVSPropertyOp46
 70
     1
102
RTVSPropertyOp47
 70
     1
102
RTVSPropertyOp48
 70
     1
102
RTVSPropertyOp49
 70
     1
102
RTVSPropertyOp50
 70
     1
102
RTVSPropertyOp51
 70
     0
102
RTVSPropertyOp52
 70
     0
102
RTVSPropertyOp53
 70
     1
102
RTVSPropertyOp54
 70
     1
102
RTVSPropertyOp55
 70
     1
102
RTVSPropertyOp56
 70
     1
102
RTVSPropertyOp57
 70
     1
102
RTVSPropertyOp58
 70
     1
102
RTVSPropertyOp59
 70
     1
102
RTVSPropertyOp60
 70
     1
102
RTVSPropertyOp61
 70
     1
102
RTVSPropertyOp62
 70
     1
  0
XRECORD
  5
D02
102
{ACAD_REACTORS
330
D01
102
}
330
D01
100
AcDbXrecord
280
     1
102
RTVSPost2010Prop28
280
     0
102
RTVSPost2010PropOp28
 70
     1
102
RTVSPost2010Prop29
280
     1
102
RTVSPost2010PropOp29
 70
     1
102
RTVSPost2010Prop30
280
     1
102
RTVSPost2010PropOp30
 70
     1
102
RTVSPost2010Prop31
280
     0
102
RTVSPost2010PropOp31
 70
     1
102
RTVSPost2010Prop32
280
     0
102
RTVSPost2010PropOp32
 70
     1
102
RTVSPost2010Prop33
280
     0
102
RTVSPost2010PropOp33
 70
     1
102
RTVSPost2010Prop34
280
     0
102
RTVSPost2010PropOp34
 70
     1
102
RTVSPost2010Prop35
280
     0
102
RTVSPost2010PropOp35
 70
     1
102
RTVSPost2010Prop36
280
     0
102
RTVSPost2010PropOp36
 70
     1
102
RTVSPost2010Prop37
 90
       50
102
RTVSPost2010PropOp37
 70
     1
102
RTVSPost2010Prop38
140
0.0
102
RTVSPost2010PropOp38
 70
     1
102
RTVSPost2010Prop39
140
1.0
102
RTVSPost2010PropOp39
 70
     1
102
RTVSPost2010Prop40
 90
        0
102
RTVSPost2010PropOp40
 70
     1
102
RTVSPost2010Prop41ColorIndex
 90
       18
102
RTVSPost2010Prop41ColorRGB
 90
        0
102
RTVSPost2010PropOp41
 70
     1
102
RTVSPost2010Prop42
 90
       50
102
RTVSPost2010PropOp42
 70
     1
102
RTVSPost2010Prop43
 90
        3
102
RTVSPost2010PropOp43
 70
     1
102
RTVSPost2010Prop44ColorIndex
 90
        5
102
RTVSPost2010Prop44ColorRGB
 90
      255
102
RTVSPost2010PropOp44
 70
     1
102
RTVSPost2010Prop45
280
     0
102
RTVSPost2010PropOp45
 70
     1
102
RTVSPost2010Prop46
 90
       50
102
RTVSPost2010PropOp46
 70
     1
102
RTVSPost2010Prop47
 90
       50
102
RTVSPost2010PropOp47
 70
     1
102
RTVSPost2010Prop48
 90
       50
102
RTVSPost2010PropOp48
 70
     1
102
RTVSPost2010Prop49
280
     0
102
RTVSPost2010PropOp49
 70
     1
102
RTVSPost2010Prop50
 90
       50
102
RTVSPost2010PropOp50
 70
     1
102
RTVSPost2010Prop51ColorIndex
 90
      256
102
RTVSPost2010Prop51ColorRGB
 90
-16777216
102
RTVSPost2010PropOp51
 70
     0
102
RTVSPost2010Prop52
140
1.0
102
RTVSPost2010PropOp52
 70
     0
102
RTVSPost2010Prop53
 90
        2
102
RTVSPost2010PropOp53
 70
     1
102
RTVSPost2010Prop54
  1
strokes_ogs.tif
102
RTVSPost2010PropOp54
 70
     1
102
RTVSPost2010Prop55
280
     0
102
RTVSPost2010PropOp55
 70
     1
102
RTVSPost2010Prop56
140
1.0
102
RTVSPost2010PropOp56
 70
     1
102
RTVSPost2010Prop57
140
1.0
102
RTVSPost2010PropOp57
 70
     1
102
RTVSPropertyOp0
 70
     1
102
RTVSPropertyOp1
 70
     1
102
RTVSPropertyOp2
 70
     1
102
RTVSPropertyOp3
 70
     1
102
RTVSPropertyOp4
 70
     1
102
RTVSPropertyOp5
 70
     1
102
RTVSPropertyOp6
 70
     1
102
RTVSPropertyOp7
 70
     1
102
RTVSPropertyOp8
 70
     1
102
RTVSPropertyOp9
 70
     1
102
RTVSPropertyOp10
 70
     1
102
RTVSPropertyOp11
 70
     1
102
RTVSPropertyOp12
 70
     1
102
RTVSPropertyOp13
 70
     1
102
RTVSPropertyOp14
 70
     1
102
RTVSPropertyOp15
 70
     1
102
RTVSPropertyOp16
 70
     1
102
RTVSPropertyOp17
 70
     1
102
RTVSPropertyOp18
 70
     1
102
RTVSPropertyOp19
 70
     1
102
RTVSPropertyOp20
 70
     1
102
RTVSPropertyOp21
 70
     1
102
RTVSPropertyOp22
 70
     1
102
RTVSPropertyOp23
 70
     1
102
RTVSPropertyOp24
 70
     1
102
RTVSPropertyOp25
 70
     1
102
RTVSPropertyOp26
 70
     1
102
RTVSPropertyOp27
 70
     1
102
RTVSPropertyOp28
 70
     1
102
RTVSPropertyOp29
 70
     1
102
RTVSPropertyOp30
 70
     1
102
RTVSPropertyOp31
 70
     1
102
RTVSPropertyOp32
 70
     1
102
RTVSPropertyOp33
 70
     1
102
RTVSPropertyOp34
 70
     1
102
RTVSPropertyOp35
 70
     1
102
RTVSPropertyOp36
 70
     1
102
RTVSPropertyOp37
 70
     1
102
RTVSPropertyOp38
 70
     1
102
RTVSPropertyOp39
 70
     1
102
RTVSPropertyOp40
 70
     1
102
RTVSPropertyOp41
 70
     1
102
RTVSPropertyOp42
 70
     1
102
RTVSPropertyOp43
 70
     1
102
RTVSPropertyOp44
 70
     1
102
RTVSPropertyOp45
 70
     1
102
RTVSPropertyOp46
 70
     1
102
RTVSPropertyOp47
 70
     1
102
RTVSPropertyOp48
 70
     1
102
RTVSPropertyOp49
 70
     1
102
RTVSPropertyOp50
 70
     1
102
RTVSPropertyOp51
 70
     0
102
RTVSPropertyOp52
 70
     0
102
RTVSPropertyOp53
 70
     1
102
RTVSPropertyOp54
 70
     1
102
RTVSPropertyOp55
 70
     1
102
RTVSPropertyOp56
 70
     1
102
RTVSPropertyOp57
 70
     1
102
RTVSPropertyOp58
 70
     1
102
RTVSPropertyOp59
 70
     1
102
RTVSPropertyOp60
 70
     1
102
RTVSPropertyOp61
 70
     1
102
RTVSPropertyOp62
 70
     1
  0
XRECORD
  5
D0A
102
{ACAD_REACTORS
330
D09
102
}
330
D09
100
AcDbXrecord
280
     1
102
RTVSPost2010Prop28
280
     0
102
RTVSPost2010PropOp28
 70
     1
102
RTVSPost2010Prop29
280
     1
102
RTVSPost2010PropOp29
 70
     1
102
RTVSPost2010Prop30
280
     1
102
RTVSPost2010PropOp30
 70
     1
102
RTVSPost2010Prop31
280
     0
102
RTVSPost2010PropOp31
 70
     1
102
RTVSPost2010Prop32
280
     0
102
RTVSPost2010PropOp32
 70
     1
102
RTVSPost2010Prop33
280
     0
102
RTVSPost2010PropOp33
 70
     1
102
RTVSPost2010Prop34
280
     0
102
RTVSPost2010PropOp34
 70
     1
102
RTVSPost2010Prop35
280
     0
102
RTVSPost2010PropOp35
 70
     1
102
RTVSPost2010Prop36
280
     0
102
RTVSPost2010PropOp36
 70
     1
102
RTVSPost2010Prop37
 90
       50
102
RTVSPost2010PropOp37
 70
     1
102
RTVSPost2010Prop38
140
0.0
102
RTVSPost2010PropOp38
 70
     1
102
RTVSPost2010Prop39
140
1.0
102
RTVSPost2010PropOp39
 70
     1
102
RTVSPost2010Prop40
 90
        0
102
RTVSPost2010PropOp40
 70
     1
102
RTVSPost2010Prop41ColorIndex
 90
       18
102
RTVSPost2010Prop41ColorRGB
 90
        0
102
RTVSPost2010PropOp41
 70
     1
102
RTVSPost2010Prop42
 90
       50
102
RTVSPost2010PropOp42
 70
     1
102
RTVSPost2010Prop43
 90
        3
102
RTVSPost2010PropOp43
 70
     1
102
RTVSPost2010Prop44ColorIndex
 90
        5
102
RTVSPost2010Prop44ColorRGB
 90
      255
102
RTVSPost2010PropOp44
 70
     1
102
RTVSPost2010Prop45
280
     0
102
RTVSPost2010PropOp45
 70
     1
102
RTVSPost2010Prop46
 90
       50
102
RTVSPost2010PropOp46
 70
     1
102
RTVSPost2010Prop47
 90
       50
102
RTVSPost2010PropOp47
 70
     1
102
RTVSPost2010Prop48
 90
       50
102
RTVSPost2010PropOp48
 70
     1
102
RTVSPost2010Prop49
280
     0
102
RTVSPost2010PropOp49
 70
     1
102
RTVSPost2010Prop50
 90
       50
102
RTVSPost2010PropOp50
 70
     1
102
RTVSPost2010Prop51ColorIndex
 90
      256
102
RTVSPost2010Prop51ColorRGB
 90
-16777216
102
RTVSPost2010PropOp51
 70
     0
102
RTVSPost2010Prop52
140
1.0
102
RTVSPost2010PropOp52
 70
     0
102
RTVSPost2010Prop53
 90
        2
102
RTVSPost2010PropOp53
 70
     1
102
RTVSPost2010Prop54
  1
strokes_ogs.tif
102
RTVSPost2010PropOp54
 70
     1
102
RTVSPost2010Prop55
280
     0
102
RTVSPost2010PropOp55
 70
     1
102
RTVSPost2010Prop56
140
1.0
102
RTVSPost2010PropOp56
 70
     1
102
RTVSPost2010Prop57
140
1.0
102
RTVSPost2010PropOp57
 70
     1
102
RTVSPropertyOp0
 70
     1
102
RTVSPropertyOp1
 70
     1
102
RTVSPropertyOp2
 70
     1
102
RTVSPropertyOp3
 70
     1
102
RTVSPropertyOp4
 70
     1
102
RTVSPropertyOp5
 70
     1
102
RTVSPropertyOp6
 70
     1
102
RTVSPropertyOp7
 70
     1
102
RTVSPropertyOp8
 70
     1
102
RTVSPropertyOp9
 70
     1
102
RTVSPropertyOp10
 70
     1
102
RTVSPropertyOp11
 70
     1
102
RTVSPropertyOp12
 70
     1
102
RTVSPropertyOp13
 70
     1
102
RTVSPropertyOp14
 70
     1
102
RTVSPropertyOp15
 70
     1
102
RTVSPropertyOp16
 70
     1
102
RTVSPropertyOp17
 70
     1
102
RTVSPropertyOp18
 70
     1
102
RTVSPropertyOp19
 70
     1
102
RTVSPropertyOp20
 70
     1
102
RTVSPropertyOp21
 70
     1
102
RTVSPropertyOp22
 70
     1
102
RTVSPropertyOp23
 70
     1
102
RTVSPropertyOp24
 70
     1
102
RTVSPropertyOp25
 70
     1
102
RTVSPropertyOp26
 70
     1
102
RTVSPropertyOp27
 70
     1
102
RTVSPropertyOp28
 70
     1
102
RTVSPropertyOp29
 70
     1
102
RTVSPropertyOp30
 70
     1
102
RTVSPropertyOp31
 70
     1
102
RTVSPropertyOp32
 70
     1
102
RTVSPropertyOp33
 70
     1
102
RTVSPropertyOp34
 70
     1
102
RTVSPropertyOp35
 70
     1
102
RTVSPropertyOp36
 70
     1
102
RTVSPropertyOp37
 70
     1
102
RTVSPropertyOp38
 70
     1
102
RTVSPropertyOp39
 70
     1
102
RTVSPropertyOp40
 70
     1
102
RTVSPropertyOp41
 70
     1
102
RTVSPropertyOp42
 70
     1
102
RTVSPropertyOp43
 70
     1
102
RTVSPropertyOp44
 70
     1
102
RTVSPropertyOp45
 70
     1
102
RTVSPropertyOp46
 70
     1
102
RTVSPropertyOp47
 70
     1
102
RTVSPropertyOp48
 70
     1
102
RTVSPropertyOp49
 70
     1
102
RTVSPropertyOp50
 70
     1
102
RTVSPropertyOp51
 70
     0
102
RTVSPropertyOp52
 70
     0
102
RTVSPropertyOp53
 70
     1
102
RTVSPropertyOp54
 70
     1
102
RTVSPropertyOp55
 70
     1
102
RTVSPropertyOp56
 70
     1
102
RTVSPropertyOp57
 70
     1
102
RTVSPropertyOp58
 70
     1
102
RTVSPropertyOp59
 70
     1
102
RTVSPropertyOp60
 70
     1
102
RTVSPropertyOp61
 70
     1
102
RTVSPropertyOp62
 70
     1
  0
XRECORD
  5
D26
102
{ACAD_REACTORS
330
D25
102
}
330
D25
100
AcDbXrecord
280
     1
102
RTVSPost2010Prop28
280
     0
102
RTVSPost2010PropOp28
 70
     1
102
RTVSPost2010Prop29
280
     1
102
RTVSPost2010PropOp29
 70
     1
102
RTVSPost2010Prop30
280
     1
102
RTVSPost2010PropOp30
 70
     1
102
RTVSPost2010Prop31
280
     0
102
RTVSPost2010PropOp31
 70
     1
102
RTVSPost2010Prop32
280
     0
102
RTVSPost2010PropOp32
 70
     1
102
RTVSPost2010Prop33
280
     0
102
RTVSPost2010PropOp33
 70
     1
102
RTVSPost2010Prop34
280
     0
102
RTVSPost2010PropOp34
 70
     1
102
RTVSPost2010Prop35
280
     0
102
RTVSPost2010PropOp35
 70
     1
102
RTVSPost2010Prop36
280
     0
102
RTVSPost2010PropOp36
 70
     1
102
RTVSPost2010Prop37
 90
       50
102
RTVSPost2010PropOp37
 70
     0
102
RTVSPost2010Prop38
140
0.0
102
RTVSPost2010PropOp38
 70
     0
102
RTVSPost2010Prop39
140
1.0
102
RTVSPost2010PropOp39
 70
     0
102
RTVSPost2010Prop40
 90
        0
102
RTVSPost2010PropOp40
 70
     0
102
RTVSPost2010Prop41ColorIndex
 90
       18
102
RTVSPost2010Prop41ColorRGB
 90
        0
102
RTVSPost2010PropOp41
 70
     0
102
RTVSPost2010Prop42
 90
       50
102
RTVSPost2010PropOp42
 70
     0
102
RTVSPost2010Prop43
 90
        3
102
RTVSPost2010PropOp43
 70
     0
102
RTVSPost2010Prop44ColorIndex
 90
        5
102
RTVSPost2010Prop44ColorRGB
 90
      255
102
RTVSPost2010PropOp44
 70
     0
102
RTVSPost2010Prop45
280
     0
102
RTVSPost2010PropOp45
 70
     1
102
RTVSPost2010Prop46
 90
       50
102
RTVSPost2010PropOp46
 70
     0
102
RTVSPost2010Prop47
 90
       50
102
RTVSPost2010PropOp47
 70
     0
102
RTVSPost2010Prop48
 90
       50
102
RTVSPost2010PropOp48
 70
     0
102
RTVSPost2010Prop49
280
     0
102
RTVSPost2010PropOp49
 70
     1
102
RTVSPost2010Prop50
 90
       50
102
RTVSPost2010PropOp50
 70
     0
102
RTVSPost2010Prop51ColorIndex
 90
      256
102
RTVSPost2010Prop51ColorRGB
 90
-16777216
102
RTVSPost2010PropOp51
 70
     0
102
RTVSPost2010Prop52
140
1.0
102
RTVSPost2010PropOp52
 70
     0
102
RTVSPost2010Prop53
 90
        2
102
RTVSPost2010PropOp53
 70
     0
102
RTVSPost2010Prop54
  1
strokes_ogs.tif
102
RTVSPost2010PropOp54
 70
     0
102
RTVSPost2010Prop55
280
     0
102
RTVSPost2010PropOp55
 70
     1
102
RTVSPost2010Prop56
140
1.0
102
RTVSPost2010PropOp56
 70
     0
102
RTVSPost2010Prop57
140
1.0
102
RTVSPost2010PropOp57
 70
     0
102
RTVSPropertyOp0
 70
     0
102
RTVSPropertyOp1
 70
     0
102
RTVSPropertyOp2
 70
     0
102
RTVSPropertyOp3
 70
     0
102
RTVSPropertyOp4
 70
     0
102
RTVSPropertyOp5
 70
     0
102
RTVSPropertyOp6
 70
     0
102
RTVSPropertyOp7
 70
     0
102
RTVSPropertyOp8
 70
     0
102
RTVSPropertyOp9
 70
     0
102
RTVSPropertyOp10
 70
     0
102
RTVSPropertyOp11
 70
     0
102
RTVSPropertyOp12
 70
     0
102
RTVSPropertyOp13
 70
     0
102
RTVSPropertyOp14
 70
     2
102
RTVSPropertyOp15
 70
     0
102
RTVSPropertyOp16
 70
     0
102
RTVSPropertyOp17
 70
     0
102
RTVSPropertyOp18
 70
     0
102
RTVSPropertyOp19
 70
     0
102
RTVSPropertyOp20
 70
     0
102
RTVSPropertyOp21
 70
     0
102
RTVSPropertyOp22
 70
     0
102
RTVSPropertyOp23
 70
     0
102
RTVSPropertyOp24
 70
     0
102
RTVSPropertyOp25
 70
     0
102
RTVSPropertyOp26
 70
     0
102
RTVSPropertyOp27
 70
     0
102
RTVSPropertyOp28
 70
     1
102
RTVSPropertyOp29
 70
     1
102
RTVSPropertyOp30
 70
     1
102
RTVSPropertyOp31
 70
     1
102
RTVSPropertyOp32
 70
     1
102
RTVSPropertyOp33
 70
     1
102
RTVSPropertyOp34
 70
     1
102
RTVSPropertyOp35
 70
     1
102
RTVSPropertyOp36
 70
     1
102
RTVSPropertyOp37
 70
     0
102
RTVSPropertyOp38
 70
     0
102
RTVSPropertyOp39
 70
     0
102
RTVSPropertyOp40
 70
     0
102
RTVSPropertyOp41
 70
     0
102
RTVSPropertyOp42
 70
     0
102
RTVSPropertyOp43
 70
     0
102
RTVSPropertyOp44
 70
     0
102
RTVSPropertyOp45
 70
     1
102
RTVSPropertyOp46
 70
     0
102
RTVSPropertyOp47
 70
     0
102
RTVSPropertyOp48
 70
     0
102
RTVSPropertyOp49
 70
     1
102
RTVSPropertyOp50
 70
     0
102
RTVSPropertyOp51
 70
     0
102
RTVSPropertyOp52
 70
     0
102
RTVSPropertyOp53
 70
     0
102
RTVSPropertyOp54
 70
     0
102
RTVSPropertyOp55
 70
     1
102
RTVSPropertyOp56
 70
     0
102
RTVSPropertyOp57
 70
     0
102
RTVSPropertyOp58
 70
     0
102
RTVSPropertyOp59
 70
     0
102
RTVSPropertyOp60
 70
     0
102
RTVSPropertyOp61
 70
     0
102
RTVSPropertyOp62
 70
     0
  0
XRECORD
  5
D16
102
{ACAD_REACTORS
330
D15
102
}
330
D15
100
AcDbXrecord
280
     1
102
RTVSPost2010Prop28
280
     0
102
RTVSPost2010PropOp28
 70
     1
102
RTVSPost2010Prop29
280
     1
102
RTVSPost2010PropOp29
 70
     1
102
RTVSPost2010Prop30
280
     1
102
RTVSPost2010PropOp30
 70
     1
102
RTVSPost2010Prop31
280
     0
102
RTVSPost2010PropOp31
 70
     1
102
RTVSPost2010Prop32
280
     0
102
RTVSPost2010PropOp32
 70
     1
102
RTVSPost2010Prop33
280
     0
102
RTVSPost2010PropOp33
 70
     1
102
RTVSPost2010Prop34
280
     0
102
RTVSPost2010PropOp34
 70
     1
102
RTVSPost2010Prop35
280
     0
102
RTVSPost2010PropOp35
 70
     1
102
RTVSPost2010Prop36
280
     0
102
RTVSPost2010PropOp36
 70
     1
102
RTVSPost2010Prop37
 90
       50
102
RTVSPost2010PropOp37
 70
     1
102
RTVSPost2010Prop38
140
0.0
102
RTVSPost2010PropOp38
 70
     1
102
RTVSPost2010Prop39
140
1.0
102
RTVSPost2010PropOp39
 70
     1
102
RTVSPost2010Prop40
 90
        0
102
RTVSPost2010PropOp40
 70
     1
102
RTVSPost2010Prop41ColorIndex
 90
       18
102
RTVSPost2010Prop41ColorRGB
 90
        0
102
RTVSPost2010PropOp41
 70
     1
102
RTVSPost2010Prop42
 90
       50
102
RTVSPost2010PropOp42
 70
     1
102
RTVSPost2010Prop43
 90
        3
102
RTVSPost2010PropOp43
 70
     1
102
RTVSPost2010Prop44ColorIndex
 90
        5
102
RTVSPost2010Prop44ColorRGB
 90
      255
102
RTVSPost2010PropOp44
 70
     1
102
RTVSPost2010Prop45
280
     0
102
RTVSPost2010PropOp45
 70
     1
102
RTVSPost2010Prop46
 90
       50
102
RTVSPost2010PropOp46
 70
     1
102
RTVSPost2010Prop47
 90
       50
102
RTVSPost2010PropOp47
 70
     1
102
RTVSPost2010Prop48
 90
       50
102
RTVSPost2010PropOp48
 70
     1
102
RTVSPost2010Prop49
280
     0
102
RTVSPost2010PropOp49
 70
     1
102
RTVSPost2010Prop50
 90
       50
102
RTVSPost2010PropOp50
 70
     1
102
RTVSPost2010Prop51ColorIndex
 90
      256
102
RTVSPost2010Prop51ColorRGB
 90
-16777216
102
RTVSPost2010PropOp51
 70
     0
102
RTVSPost2010Prop52
140
1.0
102
RTVSPost2010PropOp52
 70
     0
102
RTVSPost2010Prop53
 90
        2
102
RTVSPost2010PropOp53
 70
     1
102
RTVSPost2010Prop54
  1
strokes_ogs.tif
102
RTVSPost2010PropOp54
 70
     1
102
RTVSPost2010Prop55
280
     0
102
RTVSPost2010PropOp55
 70
     1
102
RTVSPost2010Prop56
140
1.0
102
RTVSPost2010PropOp56
 70
     1
102
RTVSPost2010Prop57
140
1.0
102
RTVSPost2010PropOp57
 70
     1
102
RTVSPropertyOp0
 70
     1
102
RTVSPropertyOp1
 70
     1
102
RTVSPropertyOp2
 70
     1
102
RTVSPropertyOp3
 70
     1
102
RTVSPropertyOp4
 70
     1
102
RTVSPropertyOp5
 70
     1
102
RTVSPropertyOp6
 70
     1
102
RTVSPropertyOp7
 70
     1
102
RTVSPropertyOp8
 70
     1
102
RTVSPropertyOp9
 70
     1
102
RTVSPropertyOp10
 70
     1
102
RTVSPropertyOp11
 70
     1
102
RTVSPropertyOp12
 70
     1
102
RTVSPropertyOp13
 70
     1
102
RTVSPropertyOp14
 70
     1
102
RTVSPropertyOp15
 70
     1
102
RTVSPropertyOp16
 70
     1
102
RTVSPropertyOp17
 70
     1
102
RTVSPropertyOp18
 70
     1
102
RTVSPropertyOp19
 70
     1
102
RTVSPropertyOp20
 70
     1
102
RTVSPropertyOp21
 70
     1
102
RTVSPropertyOp22
 70
     1
102
RTVSPropertyOp23
 70
     1
102
RTVSPropertyOp24
 70
     1
102
RTVSPropertyOp25
 70
     1
102
RTVSPropertyOp26
 70
     1
102
RTVSPropertyOp27
 70
     1
102
RTVSPropertyOp28
 70
     1
102
RTVSPropertyOp29
 70
     1
102
RTVSPropertyOp30
 70
     1
102
RTVSPropertyOp31
 70
     1
102
RTVSPropertyOp32
 70
     1
102
RTVSPropertyOp33
 70
     1
102
RTVSPropertyOp34
 70
     1
102
RTVSPropertyOp35
 70
     1
102
RTVSPropertyOp36
 70
     1
102
RTVSPropertyOp37
 70
     1
102
RTVSPropertyOp38
 70
     1
102
RTVSPropertyOp39
 70
     1
102
RTVSPropertyOp40
 70
     1
102
RTVSPropertyOp41
 70
     1
102
RTVSPropertyOp42
 70
     1
102
RTVSPropertyOp43
 70
     1
102
RTVSPropertyOp44
 70
     1
102
RTVSPropertyOp45
 70
     1
102
RTVSPropertyOp46
 70
     1
102
RTVSPropertyOp47
 70
     1
102
RTVSPropertyOp48
 70
     1
102
RTVSPropertyOp49
 70
     1
102
RTVSPropertyOp50
 70
     1
102
RTVSPropertyOp51
 70
     0
102
RTVSPropertyOp52
 70
     0
102
RTVSPropertyOp53
 70
     1
102
RTVSPropertyOp54
 70
     1
102
RTVSPropertyOp55
 70
     1
102
RTVSPropertyOp56
 70
     1
102
RTVSPropertyOp57
 70
     1
102
RTVSPropertyOp58
 70
     1
102
RTVSPropertyOp59
 70
     1
102
RTVSPropertyOp60
 70
     1
102
RTVSPropertyOp61
 70
     1
102
RTVSPropertyOp62
 70
     1
  0
XRECORD
  5
D28
102
{ACAD_REACTORS
330
D27
102
}
330
D27
100
AcDbXrecord
280
     1
102
RTVSPost2010Prop28
280
     0
102
RTVSPost2010PropOp28
 70
     1
102
RTVSPost2010Prop29
280
     1
102
RTVSPost2010PropOp29
 70
     1
102
RTVSPost2010Prop30
280
     1
102
RTVSPost2010PropOp30
 70
     1
102
RTVSPost2010Prop31
280
     0
102
RTVSPost2010PropOp31
 70
     1
102
RTVSPost2010Prop32
280
     0
102
RTVSPost2010PropOp32
 70
     1
102
RTVSPost2010Prop33
280
     0
102
RTVSPost2010PropOp33
 70
     1
102
RTVSPost2010Prop34
280
     0
102
RTVSPost2010PropOp34
 70
     1
102
RTVSPost2010Prop35
280
     0
102
RTVSPost2010PropOp35
 70
     1
102
RTVSPost2010Prop36
280
     0
102
RTVSPost2010PropOp36
 70
     1
102
RTVSPost2010Prop37
 90
       50
102
RTVSPost2010PropOp37
 70
     0
102
RTVSPost2010Prop38
140
0.0
102
RTVSPost2010PropOp38
 70
     0
102
RTVSPost2010Prop39
140
1.0
102
RTVSPost2010PropOp39
 70
     0
102
RTVSPost2010Prop40
 90
        0
102
RTVSPost2010PropOp40
 70
     0
102
RTVSPost2010Prop41ColorIndex
 90
       18
102
RTVSPost2010Prop41ColorRGB
 90
        0
102
RTVSPost2010PropOp41
 70
     0
102
RTVSPost2010Prop42
 90
       50
102
RTVSPost2010PropOp42
 70
     0
102
RTVSPost2010Prop43
 90
        3
102
RTVSPost2010PropOp43
 70
     0
102
RTVSPost2010Prop44ColorIndex
 90
        5
102
RTVSPost2010Prop44ColorRGB
 90
      255
102
RTVSPost2010PropOp44
 70
     0
102
RTVSPost2010Prop45
280
     0
102
RTVSPost2010PropOp45
 70
     1
102
RTVSPost2010Prop46
 90
       50
102
RTVSPost2010PropOp46
 70
     0
102
RTVSPost2010Prop47
 90
       50
102
RTVSPost2010PropOp47
 70
     0
102
RTVSPost2010Prop48
 90
       50
102
RTVSPost2010PropOp48
 70
     0
102
RTVSPost2010Prop49
280
     0
102
RTVSPost2010PropOp49
 70
     1
102
RTVSPost2010Prop50
 90
       50
102
RTVSPost2010PropOp50
 70
     0
102
RTVSPost2010Prop51ColorIndex
 90
      256
102
RTVSPost2010Prop51ColorRGB
 90
-16777216
102
RTVSPost2010PropOp51
 70
     0
102
RTVSPost2010Prop52
140
1.0
102
RTVSPost2010PropOp52
 70
     0
102
RTVSPost2010Prop53
 90
        2
102
RTVSPost2010PropOp53
 70
     0
102
RTVSPost2010Prop54
  1
strokes_ogs.tif
102
RTVSPost2010PropOp54
 70
     0
102
RTVSPost2010Prop55
280
     0
102
RTVSPost2010PropOp55
 70
     1
102
RTVSPost2010Prop56
140
1.0
102
RTVSPost2010PropOp56
 70
     0
102
RTVSPost2010Prop57
140
1.0
102
RTVSPost2010PropOp57
 70
     0
102
RTVSPropertyOp0
 70
     0
102
RTVSPropertyOp1
 70
     0
102
RTVSPropertyOp2
 70
     0
102
RTVSPropertyOp3
 70
     0
102
RTVSPropertyOp4
 70
     0
102
RTVSPropertyOp5
 70
     0
102
RTVSPropertyOp6
 70
     0
102
RTVSPropertyOp7
 70
     0
102
RTVSPropertyOp8
 70
     0
102
RTVSPropertyOp9
 70
     0
102
RTVSPropertyOp10
 70
     0
102
RTVSPropertyOp11
 70
     0
102
RTVSPropertyOp12
 70
     0
102
RTVSPropertyOp13
 70
     0
102
RTVSPropertyOp14
 70
     2
102
RTVSPropertyOp15
 70
     0
102
RTVSPropertyOp16
 70
     0
102
RTVSPropertyOp17
 70
     0
102
RTVSPropertyOp18
 70
     0
102
RTVSPropertyOp19
 70
     0
102
RTVSPropertyOp20
 70
     0
102
RTVSPropertyOp21
 70
     0
102
RTVSPropertyOp22
 70
     0
102
RTVSPropertyOp23
 70
     0
102
RTVSPropertyOp24
 70
     0
102
RTVSPropertyOp25
 70
     0
102
RTVSPropertyOp26
 70
     0
102
RTVSPropertyOp27
 70
     0
102
RTVSPropertyOp28
 70
     1
102
RTVSPropertyOp29
 70
     1
102
RTVSPropertyOp30
 70
     1
102
RTVSPropertyOp31
 70
     1
102
RTVSPropertyOp32
 70
     1
102
RTVSPropertyOp33
 70
     1
102
RTVSPropertyOp34
 70
     1
102
RTVSPropertyOp35
 70
     1
102
RTVSPropertyOp36
 70
     1
102
RTVSPropertyOp37
 70
     0
102
RTVSPropertyOp38
 70
     0
102
RTVSPropertyOp39
 70
     0
102
RTVSPropertyOp40
 70
     0
102
RTVSPropertyOp41
 70
     0
102
RTVSPropertyOp42
 70
     0
102
RTVSPropertyOp43
 70
     0
102
RTVSPropertyOp44
 70
     0
102
RTVSPropertyOp45
 70
     1
102
RTVSPropertyOp46
 70
     0
102
RTVSPropertyOp47
 70
     0
102
RTVSPropertyOp48
 70
     0
102
RTVSPropertyOp49
 70
     1
102
RTVSPropertyOp50
 70
     0
102
RTVSPropertyOp51
 70
     0
102
RTVSPropertyOp52
 70
     0
102
RTVSPropertyOp53
 70
     0
102
RTVSPropertyOp54
 70
     0
102
RTVSPropertyOp55
 70
     1
102
RTVSPropertyOp56
 70
     0
102
RTVSPropertyOp57
 70
     0
102
RTVSPropertyOp58
 70
     0
102
RTVSPropertyOp59
 70
     0
102
RTVSPropertyOp60
 70
     0
102
RTVSPropertyOp61
 70
     0
102
RTVSPropertyOp62
 70
     0
  0
XRECORD
  5
D0E
102
{ACAD_REACTORS
330
D0D
102
}
330
D0D
100
AcDbXrecord
280
     1
102
RTVSPost2010Prop28
280
     0
102
RTVSPost2010PropOp28
 70
     1
102
RTVSPost2010Prop29
280
     1
102
RTVSPost2010PropOp29
 70
     1
102
RTVSPost2010Prop30
280
     1
102
RTVSPost2010PropOp30
 70
     1
102
RTVSPost2010Prop31
280
     0
102
RTVSPost2010PropOp31
 70
     1
102
RTVSPost2010Prop32
280
     0
102
RTVSPost2010PropOp32
 70
     1
102
RTVSPost2010Prop33
280
     0
102
RTVSPost2010PropOp33
 70
     1
102
RTVSPost2010Prop34
280
     0
102
RTVSPost2010PropOp34
 70
     1
102
RTVSPost2010Prop35
280
     0
102
RTVSPost2010PropOp35
 70
     1
102
RTVSPost2010Prop36
280
     0
102
RTVSPost2010PropOp36
 70
     1
102
RTVSPost2010Prop37
 90
       50
102
RTVSPost2010PropOp37
 70
     1
102
RTVSPost2010Prop38
140
0.0
102
RTVSPost2010PropOp38
 70
     1
102
RTVSPost2010Prop39
140
1.0
102
RTVSPost2010PropOp39
 70
     1
102
RTVSPost2010Prop40
 90
        0
102
RTVSPost2010PropOp40
 70
     1
102
RTVSPost2010Prop41ColorIndex
 90
       18
102
RTVSPost2010Prop41ColorRGB
 90
        0
102
RTVSPost2010PropOp41
 70
     1
102
RTVSPost2010Prop42
 90
       50
102
RTVSPost2010PropOp42
 70
     1
102
RTVSPost2010Prop43
 90
        3
102
RTVSPost2010PropOp43
 70
     1
102
RTVSPost2010Prop44ColorIndex
 90
        5
102
RTVSPost2010Prop44ColorRGB
 90
      255
102
RTVSPost2010PropOp44
 70
     1
102
RTVSPost2010Prop45
280
     0
102
RTVSPost2010PropOp45
 70
     1
102
RTVSPost2010Prop46
 90
       50
102
RTVSPost2010PropOp46
 70
     1
102
RTVSPost2010Prop47
 90
       50
102
RTVSPost2010PropOp47
 70
     1
102
RTVSPost2010Prop48
 90
       50
102
RTVSPost2010PropOp48
 70
     1
102
RTVSPost2010Prop49
280
     0
102
RTVSPost2010PropOp49
 70
     1
102
RTVSPost2010Prop50
 90
       50
102
RTVSPost2010PropOp50
 70
     1
102
RTVSPost2010Prop51ColorIndex
 90
      256
102
RTVSPost2010Prop51ColorRGB
 90
-16777216
102
RTVSPost2010PropOp51
 70
     0
102
RTVSPost2010Prop52
140
1.0
102
RTVSPost2010PropOp52
 70
     0
102
RTVSPost2010Prop53
 90
        2
102
RTVSPost2010PropOp53
 70
     1
102
RTVSPost2010Prop54
  1
strokes_ogs.tif
102
RTVSPost2010PropOp54
 70
     1
102
RTVSPost2010Prop55
280
     0
102
RTVSPost2010PropOp55
 70
     1
102
RTVSPost2010Prop56
140
1.0
102
RTVSPost2010PropOp56
 70
     1
102
RTVSPost2010Prop57
140
1.0
102
RTVSPost2010PropOp57
 70
     1
102
RTVSPropertyOp0
 70
     1
102
RTVSPropertyOp1
 70
     1
102
RTVSPropertyOp2
 70
     1
102
RTVSPropertyOp3
 70
     1
102
RTVSPropertyOp4
 70
     1
102
RTVSPropertyOp5
 70
     1
102
RTVSPropertyOp6
 70
     1
102
RTVSPropertyOp7
 70
     1
102
RTVSPropertyOp8
 70
     1
102
RTVSPropertyOp9
 70
     1
102
RTVSPropertyOp10
 70
     1
102
RTVSPropertyOp11
 70
     1
102
RTVSPropertyOp12
 70
     1
102
RTVSPropertyOp13
 70
     1
102
RTVSPropertyOp14
 70
     1
102
RTVSPropertyOp15
 70
     1
102
RTVSPropertyOp16
 70
     1
102
RTVSPropertyOp17
 70
     1
102
RTVSPropertyOp18
 70
     1
102
RTVSPropertyOp19
 70
     1
102
RTVSPropertyOp20
 70
     1
102
RTVSPropertyOp21
 70
     1
102
RTVSPropertyOp22
 70
     1
102
RTVSPropertyOp23
 70
     1
102
RTVSPropertyOp24
 70
     1
102
RTVSPropertyOp25
 70
     1
102
RTVSPropertyOp26
 70
     1
102
RTVSPropertyOp27
 70
     1
102
RTVSPropertyOp28
 70
     1
102
RTVSPropertyOp29
 70
     1
102
RTVSPropertyOp30
 70
     1
102
RTVSPropertyOp31
 70
     1
102
RTVSPropertyOp32
 70
     1
102
RTVSPropertyOp33
 70
     1
102
RTVSPropertyOp34
 70
     1
102
RTVSPropertyOp35
 70
     1
102
RTVSPropertyOp36
 70
     1
102
RTVSPropertyOp37
 70
     1
102
RTVSPropertyOp38
 70
     1
102
RTVSPropertyOp39
 70
     1
102
RTVSPropertyOp40
 70
     1
102
RTVSPropertyOp41
 70
     1
102
RTVSPropertyOp42
 70
     1
102
RTVSPropertyOp43
 70
     1
102
RTVSPropertyOp44
 70
     1
102
RTVSPropertyOp45
 70
     1
102
RTVSPropertyOp46
 70
     1
102
RTVSPropertyOp47
 70
     1
102
RTVSPropertyOp48
 70
     1
102
RTVSPropertyOp49
 70
     1
102
RTVSPropertyOp50
 70
     1
102
RTVSPropertyOp51
 70
     0
102
RTVSPropertyOp52
 70
     0
102
RTVSPropertyOp53
 70
     1
102
RTVSPropertyOp54
 70
     1
102
RTVSPropertyOp55
 70
     1
102
RTVSPropertyOp56
 70
     1
102
RTVSPropertyOp57
 70
     1
102
RTVSPropertyOp58
 70
     1
102
RTVSPropertyOp59
 70
     1
102
RTVSPropertyOp60
 70
     1
102
RTVSPropertyOp61
 70
     1
102
RTVSPropertyOp62
 70
     1
  0
XRECORD
  5
D24
102
{ACAD_REACTORS
330
D23
102
}
330
D23
100
AcDbXrecord
280
     1
102
RTVSPost2010Prop28
280
     0
102
RTVSPost2010PropOp28
 70
     1
102
RTVSPost2010Prop29
280
     1
102
RTVSPost2010PropOp29
 70
     1
102
RTVSPost2010Prop30
280
     1
102
RTVSPost2010PropOp30
 70
     1
102
RTVSPost2010Prop31
280
     0
102
RTVSPost2010PropOp31
 70
     1
102
RTVSPost2010Prop32
280
     0
102
RTVSPost2010PropOp32
 70
     1
102
RTVSPost2010Prop33
280
     0
102
RTVSPost2010PropOp33
 70
     1
102
RTVSPost2010Prop34
280
     0
102
RTVSPost2010PropOp34
 70
     1
102
RTVSPost2010Prop35
280
     0
102
RTVSPost2010PropOp35
 70
     1
102
RTVSPost2010Prop36
280
     0
102
RTVSPost2010PropOp36
 70
     1
102
RTVSPost2010Prop37
 90
       50
102
RTVSPost2010PropOp37
 70
     1
102
RTVSPost2010Prop38
140
0.0
102
RTVSPost2010PropOp38
 70
     1
102
RTVSPost2010Prop39
140
1.0
102
RTVSPost2010PropOp39
 70
     1
102
RTVSPost2010Prop40
 90
        0
102
RTVSPost2010PropOp40
 70
     1
102
RTVSPost2010Prop41ColorIndex
 90
       18
102
RTVSPost2010Prop41ColorRGB
 90
        0
102
RTVSPost2010PropOp41
 70
     1
102
RTVSPost2010Prop42
 90
       50
102
RTVSPost2010PropOp42
 70
     1
102
RTVSPost2010Prop43
 90
        3
102
RTVSPost2010PropOp43
 70
     1
102
RTVSPost2010Prop44ColorIndex
 90
        5
102
RTVSPost2010Prop44ColorRGB
 90
      255
102
RTVSPost2010PropOp44
 70
     1
102
RTVSPost2010Prop45
280
     0
102
RTVSPost2010PropOp45
 70
     1
102
RTVSPost2010Prop46
 90
       50
102
RTVSPost2010PropOp46
 70
     1
102
RTVSPost2010Prop47
 90
       50
102
RTVSPost2010PropOp47
 70
     1
102
RTVSPost2010Prop48
 90
       50
102
RTVSPost2010PropOp48
 70
     1
102
RTVSPost2010Prop49
280
     0
102
RTVSPost2010PropOp49
 70
     1
102
RTVSPost2010Prop50
 90
       50
102
RTVSPost2010PropOp50
 70
     1
102
RTVSPost2010Prop51ColorIndex
 90
      256
102
RTVSPost2010Prop51ColorRGB
 90
-16777216
102
RTVSPost2010PropOp51
 70
     0
102
RTVSPost2010Prop52
140
1.0
102
RTVSPost2010PropOp52
 70
     0
102
RTVSPost2010Prop53
 90
        2
102
RTVSPost2010PropOp53
 70
     1
102
RTVSPost2010Prop54
  1
strokes_ogs.tif
102
RTVSPost2010PropOp54
 70
     1
102
RTVSPost2010Prop55
280
     0
102
RTVSPost2010PropOp55
 70
     1
102
RTVSPost2010Prop56
140
1.0
102
RTVSPost2010PropOp56
 70
     1
102
RTVSPost2010Prop57
140
1.0
102
RTVSPost2010PropOp57
 70
     1
102
RTVSPropertyOp0
 70
     1
102
RTVSPropertyOp1
 70
     1
102
RTVSPropertyOp2
 70
     1
102
RTVSPropertyOp3
 70
     1
102
RTVSPropertyOp4
 70
     1
102
RTVSPropertyOp5
 70
     1
102
RTVSPropertyOp6
 70
     1
102
RTVSPropertyOp7
 70
     1
102
RTVSPropertyOp8
 70
     1
102
RTVSPropertyOp9
 70
     1
102
RTVSPropertyOp10
 70
     1
102
RTVSPropertyOp11
 70
     1
102
RTVSPropertyOp12
 70
     1
102
RTVSPropertyOp13
 70
     1
102
RTVSPropertyOp14
 70
     1
102
RTVSPropertyOp15
 70
     1
102
RTVSPropertyOp16
 70
     1
102
RTVSPropertyOp17
 70
     1
102
RTVSPropertyOp18
 70
     1
102
RTVSPropertyOp19
 70
     1
102
RTVSPropertyOp20
 70
     1
102
RTVSPropertyOp21
 70
     1
102
RTVSPropertyOp22
 70
     1
102
RTVSPropertyOp23
 70
     1
102
RTVSPropertyOp24
 70
     1
102
RTVSPropertyOp25
 70
     1
102
RTVSPropertyOp26
 70
     1
102
RTVSPropertyOp27
 70
     1
102
RTVSPropertyOp28
 70
     1
102
RTVSPropertyOp29
 70
     1
102
RTVSPropertyOp30
 70
     1
102
RTVSPropertyOp31
 70
     1
102
RTVSPropertyOp32
 70
     1
102
RTVSPropertyOp33
 70
     1
102
RTVSPropertyOp34
 70
     1
102
RTVSPropertyOp35
 70
     1
102
RTVSPropertyOp36
 70
     1
102
RTVSPropertyOp37
 70
     1
102
RTVSPropertyOp38
 70
     1
102
RTVSPropertyOp39
 70
     1
102
RTVSPropertyOp40
 70
     1
102
RTVSPropertyOp41
 70
     1
102
RTVSPropertyOp42
 70
     1
102
RTVSPropertyOp43
 70
     1
102
RTVSPropertyOp44
 70
     1
102
RTVSPropertyOp45
 70
     1
102
RTVSPropertyOp46
 70
     1
102
RTVSPropertyOp47
 70
     1
102
RTVSPropertyOp48
 70
     1
102
RTVSPropertyOp49
 70
     1
102
RTVSPropertyOp50
 70
     1
102
RTVSPropertyOp51
 70
     0
102
RTVSPropertyOp52
 70
     0
102
RTVSPropertyOp53
 70
     1
102
RTVSPropertyOp54
 70
     1
102
RTVSPropertyOp55
 70
     1
102
RTVSPropertyOp56
 70
     1
102
RTVSPropertyOp57
 70
     1
102
RTVSPropertyOp58
 70
     1
102
RTVSPropertyOp59
 70
     1
102
RTVSPropertyOp60
 70
     1
102
RTVSPropertyOp61
 70
     1
102
RTVSPropertyOp62
 70
     1
  0
XRECORD
  5
D22
102
{ACAD_REACTORS
330
D21
102
}
330
D21
100
AcDbXrecord
280
     1
102
RTVSPost2010Prop28
280
     0
102
RTVSPost2010PropOp28
 70
     1
102
RTVSPost2010Prop29
280
     1
102
RTVSPost2010PropOp29
 70
     1
102
RTVSPost2010Prop30
280
     1
102
RTVSPost2010PropOp30
 70
     1
102
RTVSPost2010Prop31
280
     0
102
RTVSPost2010PropOp31
 70
     1
102
RTVSPost2010Prop32
280
     0
102
RTVSPost2010PropOp32
 70
     1
102
RTVSPost2010Prop33
280
     0
102
RTVSPost2010PropOp33
 70
     1
102
RTVSPost2010Prop34
280
     0
102
RTVSPost2010PropOp34
 70
     1
102
RTVSPost2010Prop35
280
     0
102
RTVSPost2010PropOp35
 70
     1
102
RTVSPost2010Prop36
280
     0
102
RTVSPost2010PropOp36
 70
     1
102
RTVSPost2010Prop37
 90
       50
102
RTVSPost2010PropOp37
 70
     1
102
RTVSPost2010Prop38
140
0.0
102
RTVSPost2010PropOp38
 70
     1
102
RTVSPost2010Prop39
140
1.0
102
RTVSPost2010PropOp39
 70
     1
102
RTVSPost2010Prop40
 90
        0
102
RTVSPost2010PropOp40
 70
     1
102
RTVSPost2010Prop41ColorIndex
 90
       18
102
RTVSPost2010Prop41ColorRGB
 90
        0
102
RTVSPost2010PropOp41
 70
     1
102
RTVSPost2010Prop42
 90
       50
102
RTVSPost2010PropOp42
 70
     1
102
RTVSPost2010Prop43
 90
        3
102
RTVSPost2010PropOp43
 70
     1
102
RTVSPost2010Prop44ColorIndex
 90
        5
102
RTVSPost2010Prop44ColorRGB
 90
      255
102
RTVSPost2010PropOp44
 70
     1
102
RTVSPost2010Prop45
280
     0
102
RTVSPost2010PropOp45
 70
     1
102
RTVSPost2010Prop46
 90
       50
102
RTVSPost2010PropOp46
 70
     1
102
RTVSPost2010Prop47
 90
       50
102
RTVSPost2010PropOp47
 70
     1
102
RTVSPost2010Prop48
 90
       50
102
RTVSPost2010PropOp48
 70
     1
102
RTVSPost2010Prop49
280
     0
102
RTVSPost2010PropOp49
 70
     1
102
RTVSPost2010Prop50
 90
       50
102
RTVSPost2010PropOp50
 70
     1
102
RTVSPost2010Prop51ColorIndex
 90
      256
102
RTVSPost2010Prop51ColorRGB
 90
-16777216
102
RTVSPost2010PropOp51
 70
     0
102
RTVSPost2010Prop52
140
1.0
102
RTVSPost2010PropOp52
 70
     0
102
RTVSPost2010Prop53
 90
        2
102
RTVSPost2010PropOp53
 70
     1
102
RTVSPost2010Prop54
  1
strokes_ogs.tif
102
RTVSPost2010PropOp54
 70
     1
102
RTVSPost2010Prop55
280
     0
102
RTVSPost2010PropOp55
 70
     1
102
RTVSPost2010Prop56
140
1.0
102
RTVSPost2010PropOp56
 70
     1
102
RTVSPost2010Prop57
140
1.0
102
RTVSPost2010PropOp57
 70
     1
102
RTVSPropertyOp0
 70
     1
102
RTVSPropertyOp1
 70
     1
102
RTVSPropertyOp2
 70
     1
102
RTVSPropertyOp3
 70
     1
102
RTVSPropertyOp4
 70
     1
102
RTVSPropertyOp5
 70
     1
102
RTVSPropertyOp6
 70
     1
102
RTVSPropertyOp7
 70
     1
102
RTVSPropertyOp8
 70
     1
102
RTVSPropertyOp9
 70
     1
102
RTVSPropertyOp10
 70
     1
102
RTVSPropertyOp11
 70
     1
102
RTVSPropertyOp12
 70
     1
102
RTVSPropertyOp13
 70
     1
102
RTVSPropertyOp14
 70
     1
102
RTVSPropertyOp15
 70
     1
102
RTVSPropertyOp16
 70
     1
102
RTVSPropertyOp17
 70
     1
102
RTVSPropertyOp18
 70
     1
102
RTVSPropertyOp19
 70
     1
102
RTVSPropertyOp20
 70
     1
102
RTVSPropertyOp21
 70
     1
102
RTVSPropertyOp22
 70
     1
102
RTVSPropertyOp23
 70
     1
102
RTVSPropertyOp24
 70
     1
102
RTVSPropertyOp25
 70
     1
102
RTVSPropertyOp26
 70
     1
102
RTVSPropertyOp27
 70
     1
102
RTVSPropertyOp28
 70
     1
102
RTVSPropertyOp29
 70
     1
102
RTVSPropertyOp30
 70
     1
102
RTVSPropertyOp31
 70
     1
102
RTVSPropertyOp32
 70
     1
102
RTVSPropertyOp33
 70
     1
102
RTVSPropertyOp34
 70
     1
102
RTVSPropertyOp35
 70
     1
102
RTVSPropertyOp36
 70
     1
102
RTVSPropertyOp37
 70
     1
102
RTVSPropertyOp38
 70
     1
102
RTVSPropertyOp39
 70
     1
102
RTVSPropertyOp40
 70
     1
102
RTVSPropertyOp41
 70
     1
102
RTVSPropertyOp42
 70
     1
102
RTVSPropertyOp43
 70
     1
102
RTVSPropertyOp44
 70
     1
102
RTVSPropertyOp45
 70
     1
102
RTVSPropertyOp46
 70
     1
102
RTVSPropertyOp47
 70
     1
102
RTVSPropertyOp48
 70
     1
102
RTVSPropertyOp49
 70
     1
102
RTVSPropertyOp50
 70
     1
102
RTVSPropertyOp51
 70
     0
102
RTVSPropertyOp52
 70
     0
102
RTVSPropertyOp53
 70
     1
102
RTVSPropertyOp54
 70
     1
102
RTVSPropertyOp55
 70
     1
102
RTVSPropertyOp56
 70
     1
102
RTVSPropertyOp57
 70
     1
102
RTVSPropertyOp58
 70
     1
102
RTVSPropertyOp59
 70
     1
102
RTVSPropertyOp60
 70
     1
102
RTVSPropertyOp61
 70
     1
102
RTVSPropertyOp62
 70
     1
  0
XRECORD
  5
D1C
102
{ACAD_REACTORS
330
D1B
102
}
330
D1B
100
AcDbXrecord
280
     1
102
RTVSPost2010Prop28
280
     0
102
RTVSPost2010PropOp28
 70
     1
102
RTVSPost2010Prop29
280
     1
102
RTVSPost2010PropOp29
 70
     1
102
RTVSPost2010Prop30
280
     1
102
RTVSPost2010PropOp30
 70
     1
102
RTVSPost2010Prop31
280
     0
102
RTVSPost2010PropOp31
 70
     1
102
RTVSPost2010Prop32
280
     0
102
RTVSPost2010PropOp32
 70
     1
102
RTVSPost2010Prop33
280
     0
102
RTVSPost2010PropOp33
 70
     1
102
RTVSPost2010Prop34
280
     0
102
RTVSPost2010PropOp34
 70
     1
102
RTVSPost2010Prop35
280
     0
102
RTVSPost2010PropOp35
 70
     1
102
RTVSPost2010Prop36
280
     0
102
RTVSPost2010PropOp36
 70
     1
102
RTVSPost2010Prop37
 90
       50
102
RTVSPost2010PropOp37
 70
     1
102
RTVSPost2010Prop38
140
0.0
102
RTVSPost2010PropOp38
 70
     1
102
RTVSPost2010Prop39
140
1.0
102
RTVSPost2010PropOp39
 70
     1
102
RTVSPost2010Prop40
 90
        0
102
RTVSPost2010PropOp40
 70
     1
102
RTVSPost2010Prop41ColorIndex
 90
       18
102
RTVSPost2010Prop41ColorRGB
 90
        0
102
RTVSPost2010PropOp41
 70
     1
102
RTVSPost2010Prop42
 90
       50
102
RTVSPost2010PropOp42
 70
     1
102
RTVSPost2010Prop43
 90
        3
102
RTVSPost2010PropOp43
 70
     1
102
RTVSPost2010Prop44ColorIndex
 90
        5
102
RTVSPost2010Prop44ColorRGB
 90
      255
102
RTVSPost2010PropOp44
 70
     1
102
RTVSPost2010Prop45
280
     0
102
RTVSPost2010PropOp45
 70
     1
102
RTVSPost2010Prop46
 90
       50
102
RTVSPost2010PropOp46
 70
     1
102
RTVSPost2010Prop47
 90
       50
102
RTVSPost2010PropOp47
 70
     1
102
RTVSPost2010Prop48
 90
       50
102
RTVSPost2010PropOp48
 70
     1
102
RTVSPost2010Prop49
280
     0
102
RTVSPost2010PropOp49
 70
     1
102
RTVSPost2010Prop50
 90
       50
102
RTVSPost2010PropOp50
 70
     1
102
RTVSPost2010Prop51ColorIndex
 90
      256
102
RTVSPost2010Prop51ColorRGB
 90
-16777216
102
RTVSPost2010PropOp51
 70
     0
102
RTVSPost2010Prop52
140
1.0
102
RTVSPost2010PropOp52
 70
     0
102
RTVSPost2010Prop53
 90
        2
102
RTVSPost2010PropOp53
 70
     1
102
RTVSPost2010Prop54
  1
strokes_ogs.tif
102
RTVSPost2010PropOp54
 70
     1
102
RTVSPost2010Prop55
280
     0
102
RTVSPost2010PropOp55
 70
     1
102
RTVSPost2010Prop56
140
1.0
102
RTVSPost2010PropOp56
 70
     1
102
RTVSPost2010Prop57
140
1.0
102
RTVSPost2010PropOp57
 70
     1
102
RTVSPropertyOp0
 70
     1
102
RTVSPropertyOp1
 70
     1
102
RTVSPropertyOp2
 70
     1
102
RTVSPropertyOp3
 70
     1
102
RTVSPropertyOp4
 70
     1
102
RTVSPropertyOp5
 70
     1
102
RTVSPropertyOp6
 70
     1
102
RTVSPropertyOp7
 70
     1
102
RTVSPropertyOp8
 70
     1
102
RTVSPropertyOp9
 70
     1
102
RTVSPropertyOp10
 70
     1
102
RTVSPropertyOp11
 70
     1
102
RTVSPropertyOp12
 70
     1
102
RTVSPropertyOp13
 70
     1
102
RTVSPropertyOp14
 70
     1
102
RTVSPropertyOp15
 70
     1
102
RTVSPropertyOp16
 70
     1
102
RTVSPropertyOp17
 70
     1
102
RTVSPropertyOp18
 70
     1
102
RTVSPropertyOp19
 70
     1
102
RTVSPropertyOp20
 70
     1
102
RTVSPropertyOp21
 70
     1
102
RTVSPropertyOp22
 70
     1
102
RTVSPropertyOp23
 70
     1
102
RTVSPropertyOp24
 70
     1
102
RTVSPropertyOp25
 70
     1
102
RTVSPropertyOp26
 70
     1
102
RTVSPropertyOp27
 70
     1
102
RTVSPropertyOp28
 70
     1
102
RTVSPropertyOp29
 70
     1
102
RTVSPropertyOp30
 70
     1
102
RTVSPropertyOp31
 70
     1
102
RTVSPropertyOp32
 70
     1
102
RTVSPropertyOp33
 70
     1
102
RTVSPropertyOp34
 70
     1
102
RTVSPropertyOp35
 70
     1
102
RTVSPropertyOp36
 70
     1
102
RTVSPropertyOp37
 70
     1
102
RTVSPropertyOp38
 70
     1
102
RTVSPropertyOp39
 70
     1
102
RTVSPropertyOp40
 70
     1
102
RTVSPropertyOp41
 70
     1
102
RTVSPropertyOp42
 70
     1
102
RTVSPropertyOp43
 70
     1
102
RTVSPropertyOp44
 70
     1
102
RTVSPropertyOp45
 70
     1
102
RTVSPropertyOp46
 70
     1
102
RTVSPropertyOp47
 70
     1
102
RTVSPropertyOp48
 70
     1
102
RTVSPropertyOp49
 70
     1
102
RTVSPropertyOp50
 70
     1
102
RTVSPropertyOp51
 70
     0
102
RTVSPropertyOp52
 70
     0
102
RTVSPropertyOp53
 70
     1
102
RTVSPropertyOp54
 70
     1
102
RTVSPropertyOp55
 70
     1
102
RTVSPropertyOp56
 70
     1
102
RTVSPropertyOp57
 70
     1
102
RTVSPropertyOp58
 70
     1
102
RTVSPropertyOp59
 70
     1
102
RTVSPropertyOp60
 70
     1
102
RTVSPropertyOp61
 70
     1
102
RTVSPropertyOp62
 70
     1
  0
XRECORD
  5
D1E
102
{ACAD_REACTORS
330
D1D
102
}
330
D1D
100
AcDbXrecord
280
     1
102
RTVSPost2010Prop28
280
     0
102
RTVSPost2010PropOp28
 70
     1
102
RTVSPost2010Prop29
280
     1
102
RTVSPost2010PropOp29
 70
     1
102
RTVSPost2010Prop30
280
     1
102
RTVSPost2010PropOp30
 70
     1
102
RTVSPost2010Prop31
280
     0
102
RTVSPost2010PropOp31
 70
     1
102
RTVSPost2010Prop32
280
     0
102
RTVSPost2010PropOp32
 70
     1
102
RTVSPost2010Prop33
280
     0
102
RTVSPost2010PropOp33
 70
     1
102
RTVSPost2010Prop34
280
     0
102
RTVSPost2010PropOp34
 70
     1
102
RTVSPost2010Prop35
280
     0
102
RTVSPost2010PropOp35
 70
     1
102
RTVSPost2010Prop36
280
     0
102
RTVSPost2010PropOp36
 70
     1
102
RTVSPost2010Prop37
 90
       50
102
RTVSPost2010PropOp37
 70
     1
102
RTVSPost2010Prop38
140
0.0
102
RTVSPost2010PropOp38
 70
     1
102
RTVSPost2010Prop39
140
1.0
102
RTVSPost2010PropOp39
 70
     1
102
RTVSPost2010Prop40
 90
        0
102
RTVSPost2010PropOp40
 70
     1
102
RTVSPost2010Prop41ColorIndex
 90
       18
102
RTVSPost2010Prop41ColorRGB
 90
        0
102
RTVSPost2010PropOp41
 70
     1
102
RTVSPost2010Prop42
 90
       50
102
RTVSPost2010PropOp42
 70
     1
102
RTVSPost2010Prop43
 90
        3
102
RTVSPost2010PropOp43
 70
     1
102
RTVSPost2010Prop44ColorIndex
 90
        5
102
RTVSPost2010Prop44ColorRGB
 90
      255
102
RTVSPost2010PropOp44
 70
     1
102
RTVSPost2010Prop45
280
     0
102
RTVSPost2010PropOp45
 70
     1
102
RTVSPost2010Prop46
 90
       50
102
RTVSPost2010PropOp46
 70
     1
102
RTVSPost2010Prop47
 90
       50
102
RTVSPost2010PropOp47
 70
     1
102
RTVSPost2010Prop48
 90
       50
102
RTVSPost2010PropOp48
 70
     1
102
RTVSPost2010Prop49
280
     0
102
RTVSPost2010PropOp49
 70
     1
102
RTVSPost2010Prop50
 90
       50
102
RTVSPost2010PropOp50
 70
     1
102
RTVSPost2010Prop51ColorIndex
 90
      256
102
RTVSPost2010Prop51ColorRGB
 90
-16777216
102
RTVSPost2010PropOp51
 70
     0
102
RTVSPost2010Prop52
140
1.0
102
RTVSPost2010PropOp52
 70
     0
102
RTVSPost2010Prop53
 90
        2
102
RTVSPost2010PropOp53
 70
     1
102
RTVSPost2010Prop54
  1
strokes_ogs.tif
102
RTVSPost2010PropOp54
 70
     1
102
RTVSPost2010Prop55
280
     0
102
RTVSPost2010PropOp55
 70
     1
102
RTVSPost2010Prop56
140
1.0
102
RTVSPost2010PropOp56
 70
     1
102
RTVSPost2010Prop57
140
1.0
102
RTVSPost2010PropOp57
 70
     1
102
RTVSPropertyOp0
 70
     1
102
RTVSPropertyOp1
 70
     1
102
RTVSPropertyOp2
 70
     1
102
RTVSPropertyOp3
 70
     1
102
RTVSPropertyOp4
 70
     1
102
RTVSPropertyOp5
 70
     1
102
RTVSPropertyOp6
 70
     1
102
RTVSPropertyOp7
 70
     1
102
RTVSPropertyOp8
 70
     1
102
RTVSPropertyOp9
 70
     1
102
RTVSPropertyOp10
 70
     1
102
RTVSPropertyOp11
 70
     1
102
RTVSPropertyOp12
 70
     1
102
RTVSPropertyOp13
 70
     1
102
RTVSPropertyOp14
 70
     1
102
RTVSPropertyOp15
 70
     1
102
RTVSPropertyOp16
 70
     1
102
RTVSPropertyOp17
 70
     1
102
RTVSPropertyOp18
 70
     1
102
RTVSPropertyOp19
 70
     1
102
RTVSPropertyOp20
 70
     1
102
RTVSPropertyOp21
 70
     1
102
RTVSPropertyOp22
 70
     1
102
RTVSPropertyOp23
 70
     1
102
RTVSPropertyOp24
 70
     1
102
RTVSPropertyOp25
 70
     1
102
RTVSPropertyOp26
 70
     1
102
RTVSPropertyOp27
 70
     1
102
RTVSPropertyOp28
 70
     1
102
RTVSPropertyOp29
 70
     1
102
RTVSPropertyOp30
 70
     1
102
RTVSPropertyOp31
 70
     1
102
RTVSPropertyOp32
 70
     1
102
RTVSPropertyOp33
 70
     1
102
RTVSPropertyOp34
 70
     1
102
RTVSPropertyOp35
 70
     1
102
RTVSPropertyOp36
 70
     1
102
RTVSPropertyOp37
 70
     1
102
RTVSPropertyOp38
 70
     1
102
RTVSPropertyOp39
 70
     1
102
RTVSPropertyOp40
 70
     1
102
RTVSPropertyOp41
 70
     1
102
RTVSPropertyOp42
 70
     1
102
RTVSPropertyOp43
 70
     1
102
RTVSPropertyOp44
 70
     1
102
RTVSPropertyOp45
 70
     1
102
RTVSPropertyOp46
 70
     1
102
RTVSPropertyOp47
 70
     1
102
RTVSPropertyOp48
 70
     1
102
RTVSPropertyOp49
 70
     1
102
RTVSPropertyOp50
 70
     1
102
RTVSPropertyOp51
 70
     0
102
RTVSPropertyOp52
 70
     0
102
RTVSPropertyOp53
 70
     1
102
RTVSPropertyOp54
 70
     1
102
RTVSPropertyOp55
 70
     1
102
RTVSPropertyOp56
 70
     1
102
RTVSPropertyOp57
 70
     1
102
RTVSPropertyOp58
 70
     1
102
RTVSPropertyOp59
 70
     1
102
RTVSPropertyOp60
 70
     1
102
RTVSPropertyOp61
 70
     1
102
RTVSPropertyOp62
 70
     1
  0
XRECORD
  5
D14
102
{ACAD_REACTORS
330
D13
102
}
330
D13
100
AcDbXrecord
280
     1
102
RTVSPost2010Prop28
280
     0
102
RTVSPost2010PropOp28
 70
     1
102
RTVSPost2010Prop29
280
     1
102
RTVSPost2010PropOp29
 70
     1
102
RTVSPost2010Prop30
280
     1
102
RTVSPost2010PropOp30
 70
     1
102
RTVSPost2010Prop31
280
     0
102
RTVSPost2010PropOp31
 70
     1
102
RTVSPost2010Prop32
280
     0
102
RTVSPost2010PropOp32
 70
     1
102
RTVSPost2010Prop33
280
     0
102
RTVSPost2010PropOp33
 70
     1
102
RTVSPost2010Prop34
280
     0
102
RTVSPost2010PropOp34
 70
     1
102
RTVSPost2010Prop35
280
     0
102
RTVSPost2010PropOp35
 70
     1
102
RTVSPost2010Prop36
280
     0
102
RTVSPost2010PropOp36
 70
     1
102
RTVSPost2010Prop37
 90
       50
102
RTVSPost2010PropOp37
 70
     1
102
RTVSPost2010Prop38
140
0.0
102
RTVSPost2010PropOp38
 70
     1
102
RTVSPost2010Prop39
140
1.0
102
RTVSPost2010PropOp39
 70
     1
102
RTVSPost2010Prop40
 90
        0
102
RTVSPost2010PropOp40
 70
     1
102
RTVSPost2010Prop41ColorIndex
 90
       18
102
RTVSPost2010Prop41ColorRGB
 90
        0
102
RTVSPost2010PropOp41
 70
     1
102
RTVSPost2010Prop42
 90
       50
102
RTVSPost2010PropOp42
 70
     1
102
RTVSPost2010Prop43
 90
        3
102
RTVSPost2010PropOp43
 70
     1
102
RTVSPost2010Prop44ColorIndex
 90
        5
102
RTVSPost2010Prop44ColorRGB
 90
      255
102
RTVSPost2010PropOp44
 70
     1
102
RTVSPost2010Prop45
280
     0
102
RTVSPost2010PropOp45
 70
     1
102
RTVSPost2010Prop46
 90
       50
102
RTVSPost2010PropOp46
 70
     1
102
RTVSPost2010Prop47
 90
       50
102
RTVSPost2010PropOp47
 70
     1
102
RTVSPost2010Prop48
 90
       50
102
RTVSPost2010PropOp48
 70
     1
102
RTVSPost2010Prop49
280
     0
102
RTVSPost2010PropOp49
 70
     1
102
RTVSPost2010Prop50
 90
       50
102
RTVSPost2010PropOp50
 70
     1
102
RTVSPost2010Prop51ColorIndex
 90
      256
102
RTVSPost2010Prop51ColorRGB
 90
-16777216
102
RTVSPost2010PropOp51
 70
     0
102
RTVSPost2010Prop52
140
1.0
102
RTVSPost2010PropOp52
 70
     0
102
RTVSPost2010Prop53
 90
        2
102
RTVSPost2010PropOp53
 70
     1
102
RTVSPost2010Prop54
  1
strokes_ogs.tif
102
RTVSPost2010PropOp54
 70
     1
102
RTVSPost2010Prop55
280
     0
102
RTVSPost2010PropOp55
 70
     1
102
RTVSPost2010Prop56
140
1.0
102
RTVSPost2010PropOp56
 70
     1
102
RTVSPost2010Prop57
140
1.0
102
RTVSPost2010PropOp57
 70
     1
102
RTVSPropertyOp0
 70
     1
102
RTVSPropertyOp1
 70
     1
102
RTVSPropertyOp2
 70
     1
102
RTVSPropertyOp3
 70
     1
102
RTVSPropertyOp4
 70
     1
102
RTVSPropertyOp5
 70
     1
102
RTVSPropertyOp6
 70
     1
102
RTVSPropertyOp7
 70
     1
102
RTVSPropertyOp8
 70
     1
102
RTVSPropertyOp9
 70
     1
102
RTVSPropertyOp10
 70
     1
102
RTVSPropertyOp11
 70
     1
102
RTVSPropertyOp12
 70
     1
102
RTVSPropertyOp13
 70
     1
102
RTVSPropertyOp14
 70
     1
102
RTVSPropertyOp15
 70
     1
102
RTVSPropertyOp16
 70
     1
102
RTVSPropertyOp17
 70
     1
102
RTVSPropertyOp18
 70
     1
102
RTVSPropertyOp19
 70
     1
102
RTVSPropertyOp20
 70
     1
102
RTVSPropertyOp21
 70
     1
102
RTVSPropertyOp22
 70
     1
102
RTVSPropertyOp23
 70
     1
102
RTVSPropertyOp24
 70
     1
102
RTVSPropertyOp25
 70
     1
102
RTVSPropertyOp26
 70
     1
102
RTVSPropertyOp27
 70
     1
102
RTVSPropertyOp28
 70
     1
102
RTVSPropertyOp29
 70
     1
102
RTVSPropertyOp30
 70
     1
102
RTVSPropertyOp31
 70
     1
102
RTVSPropertyOp32
 70
     1
102
RTVSPropertyOp33
 70
     1
102
RTVSPropertyOp34
 70
     1
102
RTVSPropertyOp35
 70
     1
102
RTVSPropertyOp36
 70
     1
102
RTVSPropertyOp37
 70
     1
102
RTVSPropertyOp38
 70
     1
102
RTVSPropertyOp39
 70
     1
102
RTVSPropertyOp40
 70
     1
102
RTVSPropertyOp41
 70
     1
102
RTVSPropertyOp42
 70
     1
102
RTVSPropertyOp43
 70
     1
102
RTVSPropertyOp44
 70
     1
102
RTVSPropertyOp45
 70
     1
102
RTVSPropertyOp46
 70
     1
102
RTVSPropertyOp47
 70
     1
102
RTVSPropertyOp48
 70
     1
102
RTVSPropertyOp49
 70
     1
102
RTVSPropertyOp50
 70
     1
102
RTVSPropertyOp51
 70
     0
102
RTVSPropertyOp52
 70
     0
102
RTVSPropertyOp53
 70
     1
102
RTVSPropertyOp54
 70
     1
102
RTVSPropertyOp55
 70
     1
102
RTVSPropertyOp56
 70
     1
102
RTVSPropertyOp57
 70
     1
102
RTVSPropertyOp58
 70
     1
102
RTVSPropertyOp59
 70
     1
102
RTVSPropertyOp60
 70
     1
102
RTVSPropertyOp61
 70
     1
102
RTVSPropertyOp62
 70
     1
  0
XRECORD
  5
D08
102
{ACAD_REACTORS
330
D07
102
}
330
D07
100
AcDbXrecord
280
     1
102
RTVSPost2010Prop28
280
     0
102
RTVSPost2010PropOp28
 70
     1
102
RTVSPost2010Prop29
280
     1
102
RTVSPost2010PropOp29
 70
     1
102
RTVSPost2010Prop30
280
     1
102
RTVSPost2010PropOp30
 70
     1
102
RTVSPost2010Prop31
280
     0
102
RTVSPost2010PropOp31
 70
     1
102
RTVSPost2010Prop32
280
     0
102
RTVSPost2010PropOp32
 70
     1
102
RTVSPost2010Prop33
280
     0
102
RTVSPost2010PropOp33
 70
     1
102
RTVSPost2010Prop34
280
     0
102
RTVSPost2010PropOp34
 70
     1
102
RTVSPost2010Prop35
280
     0
102
RTVSPost2010PropOp35
 70
     1
102
RTVSPost2010Prop36
280
     0
102
RTVSPost2010PropOp36
 70
     1
102
RTVSPost2010Prop37
 90
       50
102
RTVSPost2010PropOp37
 70
     1
102
RTVSPost2010Prop38
140
0.0
102
RTVSPost2010PropOp38
 70
     1
102
RTVSPost2010Prop39
140
1.0
102
RTVSPost2010PropOp39
 70
     1
102
RTVSPost2010Prop40
 90
        0
102
RTVSPost2010PropOp40
 70
     1
102
RTVSPost2010Prop41ColorIndex
 90
       18
102
RTVSPost2010Prop41ColorRGB
 90
        0
102
RTVSPost2010PropOp41
 70
     1
102
RTVSPost2010Prop42
 90
       50
102
RTVSPost2010PropOp42
 70
     1
102
RTVSPost2010Prop43
 90
        3
102
RTVSPost2010PropOp43
 70
     1
102
RTVSPost2010Prop44ColorIndex
 90
        5
102
RTVSPost2010Prop44ColorRGB
 90
      255
102
RTVSPost2010PropOp44
 70
     1
102
RTVSPost2010Prop45
280
     0
102
RTVSPost2010PropOp45
 70
     1
102
RTVSPost2010Prop46
 90
       50
102
RTVSPost2010PropOp46
 70
     1
102
RTVSPost2010Prop47
 90
       50
102
RTVSPost2010PropOp47
 70
     1
102
RTVSPost2010Prop48
 90
       50
102
RTVSPost2010PropOp48
 70
     1
102
RTVSPost2010Prop49
280
     0
102
RTVSPost2010PropOp49
 70
     1
102
RTVSPost2010Prop50
 90
       50
102
RTVSPost2010PropOp50
 70
     1
102
RTVSPost2010Prop51ColorIndex
 90
      256
102
RTVSPost2010Prop51ColorRGB
 90
-16777216
102
RTVSPost2010PropOp51
 70
     0
102
RTVSPost2010Prop52
140
1.0
102
RTVSPost2010PropOp52
 70
     0
102
RTVSPost2010Prop53
 90
        2
102
RTVSPost2010PropOp53
 70
     1
102
RTVSPost2010Prop54
  1
strokes_ogs.tif
102
RTVSPost2010PropOp54
 70
     1
102
RTVSPost2010Prop55
280
     0
102
RTVSPost2010PropOp55
 70
     1
102
RTVSPost2010Prop56
140
1.0
102
RTVSPost2010PropOp56
 70
     1
102
RTVSPost2010Prop57
140
1.0
102
RTVSPost2010PropOp57
 70
     1
102
RTVSPropertyOp0
 70
     1
102
RTVSPropertyOp1
 70
     1
102
RTVSPropertyOp2
 70
     1
102
RTVSPropertyOp3
 70
     1
102
RTVSPropertyOp4
 70
     1
102
RTVSPropertyOp5
 70
     1
102
RTVSPropertyOp6
 70
     1
102
RTVSPropertyOp7
 70
     1
102
RTVSPropertyOp8
 70
     1
102
RTVSPropertyOp9
 70
     1
102
RTVSPropertyOp10
 70
     1
102
RTVSPropertyOp11
 70
     1
102
RTVSPropertyOp12
 70
     1
102
RTVSPropertyOp13
 70
     1
102
RTVSPropertyOp14
 70
     1
102
RTVSPropertyOp15
 70
     1
102
RTVSPropertyOp16
 70
     1
102
RTVSPropertyOp17
 70
     1
102
RTVSPropertyOp18
 70
     1
102
RTVSPropertyOp19
 70
     1
102
RTVSPropertyOp20
 70
     1
102
RTVSPropertyOp21
 70
     1
102
RTVSPropertyOp22
 70
     1
102
RTVSPropertyOp23
 70
     1
102
RTVSPropertyOp24
 70
     1
102
RTVSPropertyOp25
 70
     1
102
RTVSPropertyOp26
 70
     1
102
RTVSPropertyOp27
 70
     1
102
RTVSPropertyOp28
 70
     1
102
RTVSPropertyOp29
 70
     1
102
RTVSPropertyOp30
 70
     1
102
RTVSPropertyOp31
 70
     1
102
RTVSPropertyOp32
 70
     1
102
RTVSPropertyOp33
 70
     1
102
RTVSPropertyOp34
 70
     1
102
RTVSPropertyOp35
 70
     1
102
RTVSPropertyOp36
 70
     1
102
RTVSPropertyOp37
 70
     1
102
RTVSPropertyOp38
 70
     1
102
RTVSPropertyOp39
 70
     1
102
RTVSPropertyOp40
 70
     1
102
RTVSPropertyOp41
 70
     1
102
RTVSPropertyOp42
 70
     1
102
RTVSPropertyOp43
 70
     1
102
RTVSPropertyOp44
 70
     1
102
RTVSPropertyOp45
 70
     1
102
RTVSPropertyOp46
 70
     1
102
RTVSPropertyOp47
 70
     1
102
RTVSPropertyOp48
 70
     1
102
RTVSPropertyOp49
 70
     1
102
RTVSPropertyOp50
 70
     1
102
RTVSPropertyOp51
 70
     0
102
RTVSPropertyOp52
 70
     0
102
RTVSPropertyOp53
 70
     1
102
RTVSPropertyOp54
 70
     1
102
RTVSPropertyOp55
 70
     1
102
RTVSPropertyOp56
 70
     1
102
RTVSPropertyOp57
 70
     1
102
RTVSPropertyOp58
 70
     1
102
RTVSPropertyOp59
 70
     1
102
RTVSPropertyOp60
 70
     1
102
RTVSPropertyOp61
 70
     1
102
RTVSPropertyOp62
 70
     1
  0
XRECORD
  5
D20
102
{ACAD_REACTORS
330
D1F
102
}
330
D1F
100
AcDbXrecord
280
     1
102
RTVSPost2010Prop28
280
     0
102
RTVSPost2010PropOp28
 70
     1
102
RTVSPost2010Prop29
280
     1
102
RTVSPost2010PropOp29
 70
     1
102
RTVSPost2010Prop30
280
     1
102
RTVSPost2010PropOp30
 70
     1
102
RTVSPost2010Prop31
280
     0
102
RTVSPost2010PropOp31
 70
     1
102
RTVSPost2010Prop32
280
     0
102
RTVSPost2010PropOp32
 70
     1
102
RTVSPost2010Prop33
280
     0
102
RTVSPost2010PropOp33
 70
     1
102
RTVSPost2010Prop34
280
     0
102
RTVSPost2010PropOp34
 70
     1
102
RTVSPost2010Prop35
280
     0
102
RTVSPost2010PropOp35
 70
     1
102
RTVSPost2010Prop36
280
     0
102
RTVSPost2010PropOp36
 70
     1
102
RTVSPost2010Prop37
 90
       50
102
RTVSPost2010PropOp37
 70
     1
102
RTVSPost2010Prop38
140
0.0
102
RTVSPost2010PropOp38
 70
     1
102
RTVSPost2010Prop39
140
1.0
102
RTVSPost2010PropOp39
 70
     1
102
RTVSPost2010Prop40
 90
        0
102
RTVSPost2010PropOp40
 70
     1
102
RTVSPost2010Prop41ColorIndex
 90
       18
102
RTVSPost2010Prop41ColorRGB
 90
        0
102
RTVSPost2010PropOp41
 70
     1
102
RTVSPost2010Prop42
 90
       50
102
RTVSPost2010PropOp42
 70
     1
102
RTVSPost2010Prop43
 90
        3
102
RTVSPost2010PropOp43
 70
     1
102
RTVSPost2010Prop44ColorIndex
 90
        5
102
RTVSPost2010Prop44ColorRGB
 90
      255
102
RTVSPost2010PropOp44
 70
     1
102
RTVSPost2010Prop45
280
     0
102
RTVSPost2010PropOp45
 70
     1
102
RTVSPost2010Prop46
 90
       50
102
RTVSPost2010PropOp46
 70
     1
102
RTVSPost2010Prop47
 90
       50
102
RTVSPost2010PropOp47
 70
     1
102
RTVSPost2010Prop48
 90
       50
102
RTVSPost2010PropOp48
 70
     1
102
RTVSPost2010Prop49
280
     0
102
RTVSPost2010PropOp49
 70
     1
102
RTVSPost2010Prop50
 90
       50
102
RTVSPost2010PropOp50
 70
     1
102
RTVSPost2010Prop51ColorIndex
 90
      256
102
RTVSPost2010Prop51ColorRGB
 90
-16777216
102
RTVSPost2010PropOp51
 70
     0
102
RTVSPost2010Prop52
140
1.0
102
RTVSPost2010PropOp52
 70
     0
102
RTVSPost2010Prop53
 90
        2
102
RTVSPost2010PropOp53
 70
     1
102
RTVSPost2010Prop54
  1
strokes_ogs.tif
102
RTVSPost2010PropOp54
 70
     1
102
RTVSPost2010Prop55
280
     0
102
RTVSPost2010PropOp55
 70
     1
102
RTVSPost2010Prop56
140
1.0
102
RTVSPost2010PropOp56
 70
     1
102
RTVSPost2010Prop57
140
1.0
102
RTVSPost2010PropOp57
 70
     1
102
RTVSPropertyOp0
 70
     1
102
RTVSPropertyOp1
 70
     1
102
RTVSPropertyOp2
 70
     1
102
RTVSPropertyOp3
 70
     1
102
RTVSPropertyOp4
 70
     1
102
RTVSPropertyOp5
 70
     1
102
RTVSPropertyOp6
 70
     1
102
RTVSPropertyOp7
 70
     1
102
RTVSPropertyOp8
 70
     1
102
RTVSPropertyOp9
 70
     1
102
RTVSPropertyOp10
 70
     1
102
RTVSPropertyOp11
 70
     1
102
RTVSPropertyOp12
 70
     1
102
RTVSPropertyOp13
 70
     1
102
RTVSPropertyOp14
 70
     1
102
RTVSPropertyOp15
 70
     1
102
RTVSPropertyOp16
 70
     1
102
RTVSPropertyOp17
 70
     1
102
RTVSPropertyOp18
 70
     1
102
RTVSPropertyOp19
 70
     1
102
RTVSPropertyOp20
 70
     1
102
RTVSPropertyOp21
 70
     1
102
RTVSPropertyOp22
 70
     1
102
RTVSPropertyOp23
 70
     1
102
RTVSPropertyOp24
 70
     1
102
RTVSPropertyOp25
 70
     1
102
RTVSPropertyOp26
 70
     1
102
RTVSPropertyOp27
 70
     1
102
RTVSPropertyOp28
 70
     1
102
RTVSPropertyOp29
 70
     1
102
RTVSPropertyOp30
 70
     1
102
RTVSPropertyOp31
 70
     1
102
RTVSPropertyOp32
 70
     1
102
RTVSPropertyOp33
 70
     1
102
RTVSPropertyOp34
 70
     1
102
RTVSPropertyOp35
 70
     1
102
RTVSPropertyOp36
 70
     1
102
RTVSPropertyOp37
 70
     1
102
RTVSPropertyOp38
 70
     1
102
RTVSPropertyOp39
 70
     1
102
RTVSPropertyOp40
 70
     1
102
RTVSPropertyOp41
 70
     1
102
RTVSPropertyOp42
 70
     1
102
RTVSPropertyOp43
 70
     1
102
RTVSPropertyOp44
 70
     1
102
RTVSPropertyOp45
 70
     1
102
RTVSPropertyOp46
 70
     1
102
RTVSPropertyOp47
 70
     1
102
RTVSPropertyOp48
 70
     1
102
RTVSPropertyOp49
 70
     1
102
RTVSPropertyOp50
 70
     1
102
RTVSPropertyOp51
 70
     0
102
RTVSPropertyOp52
 70
     0
102
RTVSPropertyOp53
 70
     1
102
RTVSPropertyOp54
 70
     1
102
RTVSPropertyOp55
 70
     1
102
RTVSPropertyOp56
 70
     1
102
RTVSPropertyOp57
 70
     1
102
RTVSPropertyOp58
 70
     1
102
RTVSPropertyOp59
 70
     1
102
RTVSPropertyOp60
 70
     1
102
RTVSPropertyOp61
 70
     1
102
RTVSPropertyOp62
 70
     1
  0
ENDSEC
  0
EOF
