  0
SECTION
  2
HEADER
  9
$ACADVER
  1
AC1015
  9
$ACADMAINTVER
 70
    20
  9
$DWGCODEPAGE
  3
ANSI_932
  9
$INSBASE
 10
0.0
 20
0.0
 30
0.0
  9
$EXTMIN
 10
9.9999975266385
 20
10.0
 30
0.0
  9
$EXTMAX
 10
485.4148780859572
 20
640.667672448298
 30
0.0
  9
$LIMMIN
 10
0.0000015376081137
 20
-0.0000001931532552
  9
$LIMMAX
 10
1042.000001537608
 20
718.3484846553316
  9
$ORTHOMODE
 70
     1
  9
$REGENMODE
 70
     1
  9
$FILLMODE
 70
     1
  9
$QTEXTMODE
 70
     0
  9
$MIRRTEXT
 70
     1
  9
$LTSCALE
 40
1.0
  9
$ATTMODE
 70
     1
  9
$TEXTSIZE
 40
2.5
  9
$TRACEWID
 40
1.0
  9
$TEXTSTYLE
  7
STANDARD
  9
$CLAYER
  8
0
  9
$CELTYPE
  6
BYLAYER
  9
$CECOLOR
 62
   256
  9
$CELTSCALE
 40
1.0
  9
$DISPSILH
 70
     0
  9
$DIMSCALE
 40
1.0
  9
$DIMASZ
 40
3.0
  9
$DIMEXO
 40
1.0
  9
$DIMDLI
 40
10.0
  9
$DIMRND
 40
0.0
  9
$DIMDLE
 40
0.0
  9
$DIMEXE
 40
1.0
  9
$DIMTP
 40
0.0
  9
$DIMTM
 40
0.0
  9
$DIMTXT
 40
3.2
  9
$DIMCEN
 40
0.0
  9
$DIMTSZ
 40
0.0
  9
$DIMTOL
 70
     0
  9
$DIMLIM
 70
     0
  9
$DIMTIH
 70
     0
  9
$DIMTOH
 70
     0
  9
$DIMSE1
 70
     0
  9
$DIMSE2
 70
     0
  9
$DIMTAD
 70
     3
  9
$DIMZIN
 70
     8
  9
$DIMBLK
  1

  9
$DIMASO
 70
     1
  9
$DIMSHO
 70
     1
  9
$DIMPOST
  1

  9
$DIMAPOST
  1

  9
$DIMALT
 70
     0
  9
$DIMALTD
 70
     2
  9
$DIMALTF
 40
25.4
  9
$DIMLFAC
 40
1.0
  9
$DIMTOFL
 70
     1
  9
$DIMTVP
 40
0.0
  9
$DIMTIX
 70
     0
  9
$DIMSOXD
 70
     0
  9
$DIMSAH
 70
     1
  9
$DIMBLK1
  1
OPEN
  9
$DIMBLK2
  1
OPEN
  9
$DIMSTYLE
  2
STANDARD
  9
$DIMCLRD
 70
     0
  9
$DIMCLRE
 70
     0
  9
$DIMCLRT
 70
     0
  9
$DIMTFAC
 40
1.0
  9
$DIMGAP
 40
1.0
  9
$DIMJUST
 70
     0
  9
$DIMSD1
 70
     0
  9
$DIMSD2
 70
     0
  9
$DIMTOLJ
 70
     1
  9
$DIMTZIN
 70
     0
  9
$DIMALTZ
 70
     0
  9
$DIMALTTZ
 70
     0
  9
$DIMUPT
 70
     0
  9
$DIMDEC
 70
     4
  9
$DIMTDEC
 70
     4
  9
$DIMALTU
 70
     2
  9
$DIMALTTD
 70
     2
  9
$DIMTXSTY
  7
STANDARD
  9
$DIMAUNIT
 70
     0
  9
$DIMADEC
 70
     0
  9
$DIMALTRND
 40
0.0
  9
$DIMAZIN
 70
     0
  9
$DIMDSEP
 70
    46
  9
$DIMATFIT
 70
     3
  9
$DIMFRAC
 70
     0
  9
$DIMLDRBLK
  1
OPEN
  9
$DIMLUNIT
 70
     2
  9
$DIMLWD
 70
    -2
  9
$DIMLWE
 70
    -2
  9
$DIMTMOVE
 70
     0
  9
$LUNITS
 70
     2
  9
$LUPREC
 70
     4
  9
$SKETCHINC
 40
1.0
  9
$FILLETRAD
 40
10.0
  9
$AUNITS
 70
     0
  9
$AUPREC
 70
     0
  9
$MENU
  1
.
  9
$ELEVATION
 40
0.0
  9
$PELEVATION
 40
0.0
  9
$THICKNESS
 40
0.0
  9
$LIMCHECK
 70
     0
  9
$CHAMFERA
 40
10.0
  9
$CHAMFERB
 40
10.0
  9
$CHAMFERC
 40
20.0
  9
$CHAMFERD
 40
0.0
  9
$SKPOLY
 70
     0
  9
$TDCREATE
 40
2452051.395592083
  9
$TDUCREATE
 40
2452051.020592084
  9
$TDUPDATE
 40
2457192.622163079
  9
$TDUUPDATE
 40
2457192.247163079
  9
$TDINDWG
 40
0.4617667824
  9
$TDUSRTIMER
 40
0.4617667593
  9
$USRTIMER
 70
     1
  9
$ANGBASE
 50
0.0
  9
$ANGDIR
 70
     0
  9
$PDMODE
 70
     0
  9
$PDSIZE
 40
0.0
  9
$PLINEWID
 40
0.0
  9
$SPLFRAME
 70
     0
  9
$SPLINETYPE
 70
     6
  9
$SPLINESEGS
 70
     8
  9
$HANDSEED
  5
8539
  9
$SURFTAB1
 70
     6
  9
$SURFTAB2
 70
     6
  9
$SURFTYPE
 70
     6
  9
$SURFU
 70
     6
  9
$SURFV
 70
     6
  9
$UCSBASE
  2

  9
$UCSNAME
  2

  9
$UCSORG
 10
0.0
 20
0.0
 30
0.0
  9
$UCSXDIR
 10
1.0
 20
0.0
 30
0.0
  9
$UCSYDIR
 10
0.0
 20
1.0
 30
0.0
  9
$UCSORTHOREF
  2

  9
$UCSORTHOVIEW
 70
     0
  9
$UCSORGTOP
 10
0.0
 20
0.0
 30
0.0
  9
$UCSORGBOTTOM
 10
0.0
 20
0.0
 30
0.0
  9
$UCSORGLEFT
 10
0.0
 20
0.0
 30
0.0
  9
$UCSORGRIGHT
 10
0.0
 20
0.0
 30
0.0
  9
$UCSORGFRONT
 10
0.0
 20
0.0
 30
0.0
  9
$UCSORGBACK
 10
0.0
 20
0.0
 30
0.0
  9
$PUCSBASE
  2

  9
$PUCSNAME
  2

  9
$PUCSORG
 10
0.0
 20
0.0
 30
0.0
  9
$PUCSXDIR
 10
1.0
 20
0.0
 30
0.0
  9
$PUCSYDIR
 10
0.0
 20
1.0
 30
0.0
  9
$PUCSORTHOREF
  2

  9
$PUCSORTHOVIEW
 70
     0
  9
$PUCSORGTOP
 10
0.0
 20
0.0
 30
0.0
  9
$PUCSORGBOTTOM
 10
0.0
 20
0.0
 30
0.0
  9
$PUCSORGLEFT
 10
0.0
 20
0.0
 30
0.0
  9
$PUCSORGRIGHT
 10
0.0
 20
0.0
 30
0.0
  9
$PUCSORGFRONT
 10
0.0
 20
0.0
 30
0.0
  9
$PUCSORGBACK
 10
0.0
 20
0.0
 30
0.0
  9
$USERI1
 70
     0
  9
$USERI2
 70
     0
  9
$USERI3
 70
     0
  9
$USERI4
 70
     0
  9
$USERI5
 70
     0
  9
$USERR1
 40
0.0
  9
$USERR2
 40
0.0
  9
$USERR3
 40
0.0
  9
$USERR4
 40
0.0
  9
$USERR5
 40
0.0
  9
$WORLDVIEW
 70
     1
  9
$SHADEDGE
 70
     3
  9
$SHADEDIF
 70
    70
  9
$TILEMODE
 70
     1
  9
$MAXACTVP
 70
    48
  9
$PINSBASE
 10
0.0
 20
0.0
 30
0.0
  9
$PLIMCHECK
 70
     0
  9
$PEXTMIN
 10
1.000000000000000E+20
 20
1.000000000000000E+20
 30
1.000000000000000E+20
  9
$PEXTMAX
 10
-1.000000000000000E+20
 20
-1.000000000000000E+20
 30
-1.000000000000000E+20
  9
$PLIMMIN
 10
0.0
 20
0.0
  9
$PLIMMAX
 10
420.0
 20
297.0
  9
$UNITMODE
 70
     0
  9
$VISRETAIN
 70
     1
  9
$PLINEGEN
 70
     0
  9
$PSLTSCALE
 70
     1
  9
$TREEDEPTH
 70
  3020
  9
$CMLSTYLE
  2
STANDARD
  9
$CMLJUST
 70
     0
  9
$CMLSCALE
 40
20.0
  9
$PROXYGRAPHICS
 70
     1
  9
$MEASUREMENT
 70
     0
  9
$CELWEIGHT
370
    -1
  9
$ENDCAPS
280
     0
  9
$JOINSTYLE
280
     0
  9
$LWDISPLAY
290
     0
  9
$INSUNITS
 70
     0
  9
$HYPERLINKBASE
  1

  9
$STYLESHEET
  1

  9
$XEDIT
290
     1
  9
$CEPSNTYPE
380
     0
  9
$PSTYLEMODE
290
     1
  9
$FINGERPRINTGUID
  2
{F6332E3D-D440-47AB-8545-9578C07BF8F5}
  9
$VERSIONGUID
  2
{4AD36BCD-FBF8-4C3F-9403-640D1F0EF3F2}
  9
$EXTNAMES
290
     1
  9
$PSVPSCALE
 40
0.0
  9
$OLESTARTUP
290
     0
  0
ENDSEC
  0
SECTION
  2
CLASSES
  0
CLASS
  1
ACDBDICTIONARYWDFLT
  2
AcDbDictionaryWithDefault
  3
ObjectDBX Classes
 90
        0
280
     0
281
     0
  0
CLASS
  1
ACDBPLACEHOLDER
  2
AcDbPlaceHolder
  3
ObjectDBX Classes
 90
        0
280
     0
281
     0
  0
CLASS
  1
LAYOUT
  2
AcDbLayout
  3
ObjectDBX Classes
 90
        0
280
     0
281
     0
  0
CLASS
  1
DICTIONARYVAR
  2
AcDbDictionaryVar
  3
ObjectDBX Classes
 90
        0
280
     0
281
     0
  0
CLASS
  1
MATERIAL
  2
AcDbMaterial
  3
ObjectDBX Classes
 90
     1153
280
     0
281
     0
  0
CLASS
  1
VISUALSTYLE
  2
AcDbVisualStyle
  3
ObjectDBX Classes
 90
     4095
280
     0
281
     0
  0
CLASS
  1
TABLESTYLE
  2
AcDbTableStyle
  3
ObjectDBX Classes
 90
     4095
280
     0
281
     0
  0
CLASS
  1
SCALE
  2
AcDbScale
  3
ObjectDBX Classes
 90
     1153
280
     0
281
     0
  0
CLASS
  1
MLEADERSTYLE
  2
AcDbMLeaderStyle
  3
ACDB_MLEADERSTYLE_CLASS
 90
     4095
280
     0
281
     0
  0
CLASS
  1
ACDBSECTIONVIEWSTYLE
  2
AcDbSectionViewStyle
  3
ObjectDBX Classes
 90
     1025
280
     0
281
     0
  0
CLASS
  1
ACDBDETAILVIEWSTYLE
  2
AcDbDetailViewStyle
  3
ObjectDBX Classes
 90
     1025
280
     0
281
     0
  0
CLASS
  1
CELLSTYLEMAP
  2
AcDbCellStyleMap
  3
ObjectDBX Classes
 90
     1152
280
     0
281
     0
  0
ENDSEC
  0
SECTION
  2
TABLES
  0
TABLE
  2
VPORT
  5
8
330
0
100
AcDbSymbolTable
 70
     1
  0
VPORT
  5
8483
330
8
100
AcDbSymbolTableRecord
100
AcDbViewportTableRecord
  2
*ACTIVE
 70
     0
 10
0.0
 20
0.0
 11
1.0
 21
1.0
 12
507.3278342497802
 22
325.3317611528973
 13
0.0
 23
0.0
 14
10.0
 24
10.0
 15
10.0
 25
10.0
 16
0.0
 26
0.0
 36
1.0
 17
0.0
 27
0.0
 37
0.0
 40
635.6638650130803
 41
1.899603698811096
 42
50.0
 43
0.0
 44
0.0
 50
0.0
 51
0.0
 71
     0
 72
   100
 73
     1
 74
     0
 75
     0
 76
     0
 77
     0
 78
     0
281
     0
 65
     1
110
0.0
120
0.0
130
0.0
111
1.0
121
0.0
131
0.0
112
0.0
122
1.0
132
0.0
 79
     0
146
0.0
1001
ACAD_NAV_VCDISPLAY
1070
     3
  0
ENDTAB
  0
TABLE
  2
LTYPE
  5
5
330
0
100
AcDbSymbolTable
 70
     4
  0
LTYPE
  5
12
330
5
100
AcDbSymbolTableRecord
100
AcDbLinetypeTableRecord
  2
BYBLOCK
 70
     0
  3

 72
    65
 73
     0
 40
0.0
  0
LTYPE
  5
13
330
5
100
AcDbSymbolTableRecord
100
AcDbLinetypeTableRecord
  2
BYLAYER
 70
     0
  3

 72
    65
 73
     0
 40
0.0
  0
LTYPE
  5
14
330
5
100
AcDbSymbolTableRecord
100
AcDbLinetypeTableRecord
  2
CONTINUOUS
 70
     0
  3
Solid line
 72
    65
 73
     0
 40
0.0
  0
LTYPE
  5
4B
330
5
100
AcDbSymbolTableRecord
100
AcDbLinetypeTableRecord
  2
DASHED
 70
     0
  3
Dashed __ __ __ __ __ __ __ __ __ __ __ __ __ _
 72
    65
 73
     2
 40
19.04999999999999
 49
12.7
 74
     0
 49
-6.349999999999998
 74
     0
  0
LTYPE
  5
4C
330
5
100
AcDbSymbolTableRecord
100
AcDbLinetypeTableRecord
  2
CENTER
 70
     0
  3
Center ____ _ ____ _ ____ _ ____ _ ____ _ ____
 72
    65
 73
     4
 40
50.8
 49
31.75
 74
     0
 49
-6.349999999999998
 74
     0
 49
6.349999999999998
 74
     0
 49
-6.349999999999998
 74
     0
  0
LTYPE
  5
4D
330
5
100
AcDbSymbolTableRecord
100
AcDbLinetypeTableRecord
  2
PHANTOM
 70
     0
  3
Phantom ______  __  __  ______  __  __  ______
 72
    65
 73
     6
 40
63.5
 49
31.75
 74
     0
 49
-6.349999999999998
 74
     0
 49
6.349999999999998
 74
     0
 49
-6.349999999999998
 74
     0
 49
6.349999999999998
 74
     0
 49
-6.349999999999998
 74
     0
  0
ENDTAB
  0
TABLE
  2
LAYER
  5
2
330
0
100
AcDbSymbolTable
 70
     8
  0
LAYER
  5
E
102
{ACAD_XDICTIONARY
360
84DD
102
}
330
2
100
AcDbSymbolTableRecord
100
AcDbLayerTableRecord
  2
0
 70
     0
 62
     7
  6
CONTINUOUS
370
    -3
390
848C
  0
LAYER
  5
4E
102
{ACAD_XDICTIONARY
360
84DF
102
}
330
2
100
AcDbSymbolTableRecord
100
AcDbLayerTableRecord
  2
4
 70
     0
 62
     1
  6
CENTER
370
    -3
390
848C
  0
LAYER
  5
4F
102
{ACAD_XDICTIONARY
360
84E1
102
}
330
2
100
AcDbSymbolTableRecord
100
AcDbLayerTableRecord
  2
5
 70
     0
 62
     6
  6
PHANTOM
370
    -3
390
848C
  0
LAYER
  5
50
102
{ACAD_XDICTIONARY
360
84E3
102
}
330
2
100
AcDbSymbolTableRecord
100
AcDbLayerTableRecord
  2
1
 70
     0
 62
     7
  6
CONTINUOUS
370
    -3
390
848C
  0
LAYER
  5
51
102
{ACAD_XDICTIONARY
360
84E5
102
}
330
2
100
AcDbSymbolTableRecord
100
AcDbLayerTableRecord
  2
2
 70
     0
 62
     4
  6
CONTINUOUS
370
    -3
390
848C
  0
LAYER
  5
52
102
{ACAD_XDICTIONARY
360
84E7
102
}
330
2
100
AcDbSymbolTableRecord
100
AcDbLayerTableRecord
  2
3
 70
     0
 62
     2
  6
DASHED
370
    -3
390
848C
  0
LAYER
  5
53
102
{ACAD_XDICTIONARY
360
84E9
102
}
330
2
100
AcDbSymbolTableRecord
100
AcDbLayerTableRecord
  2
6
 70
     0
 62
     5
  6
CONTINUOUS
370
    -3
390
848C
  0
LAYER
  5
54
102
{ACAD_XDICTIONARY
360
84EB
102
}
330
2
100
AcDbSymbolTableRecord
100
AcDbLayerTableRecord
  2
7
 70
     0
 62
     3
  6
CONTINUOUS
370
    -3
390
848C
  0
ENDTAB
  0
TABLE
  2
STYLE
  5
3
330
0
100
AcDbSymbolTable
 70
     1
  0
STYLE
  5
F
330
3
100
AcDbSymbolTableRecord
100
AcDbTextStyleTableRecord
  2
STANDARD
 70
     0
 40
0.0
 41
1.0
 50
0.0
 71
     0
 42
2.5
  3
simplex.shx
  4

  0
ENDTAB
  0
TABLE
  2
VIEW
  5
6
330
0
100
AcDbSymbolTable
 70
     0
  0
ENDTAB
  0
TABLE
  2
UCS
  5
7
330
0
100
AcDbSymbolTable
 70
     0
  0
ENDTAB
  0
TABLE
  2
APPID
  5
9
330
0
100
AcDbSymbolTable
 70
     5
  0
APPID
  5
10
330
9
100
AcDbSymbolTableRecord
100
AcDbRegAppTableRecord
  2
ACAD
 70
     0
  0
APPID
  5
3E
330
9
100
AcDbSymbolTableRecord
100
AcDbRegAppTableRecord
  2
CONTENTTABDATA
 70
     0
  0
APPID
  5
3F
330
9
100
AcDbSymbolTableRecord
100
AcDbRegAppTableRecord
  2
CONTENTCURRENTTAB
 70
     0
  0
APPID
  5
84F7
330
9
100
AcDbSymbolTableRecord
100
AcDbRegAppTableRecord
  2
ACAD_NAV_VCDISPLAY
 70
     0
  0
APPID
  5
8530
330
9
100
AcDbSymbolTableRecord
100
AcDbRegAppTableRecord
  2
ACAD_MLEADERVER
 70
     0
  0
ENDTAB
  0
TABLE
  2
DIMSTYLE
  5
A
330
0
100
AcDbSymbolTable
 70
     1
100
AcDbDimStyleTable
 71
     0
  0
DIMSTYLE
105
1D
330
A
100
AcDbSymbolTableRecord
100
AcDbDimStyleTableRecord
  2
STANDARD
 70
     0
 41
3.0
 42
1.0
 43
10.0
 44
1.0
 73
     0
 74
     0
 77
     3
 78
     8
140
3.2
141
0.0
147
1.0
172
     1
173
     1
340
F
341
2E
343
2E
344
2E
  0
ENDTAB
  0
TABLE
  2
BLOCK_RECORD
  5
1
330
0
100
AcDbSymbolTable
 70
     1
  0
BLOCK_RECORD
  5
18
102
{ACAD_XDICTIONARY
360
8486
102
}
330
1
100
AcDbSymbolTableRecord
100
AcDbBlockTableRecord
  2
*MODEL_SPACE
340
84DA
  0
BLOCK_RECORD
  5
15
102
{ACAD_XDICTIONARY
360
8484
102
}
330
1
100
AcDbSymbolTableRecord
100
AcDbBlockTableRecord
  2
*PAPER_SPACE
340
84DB
  0
BLOCK_RECORD
  5
2E
330
1
100
AcDbSymbolTableRecord
100
AcDbBlockTableRecord
  2
_OPEN
340
0
  0
ENDTAB
  0
ENDSEC
  0
SECTION
  2
BLOCKS
  0
BLOCK
  5
19
330
18
100
AcDbEntity
  8
0
100
AcDbBlockBegin
  2
*MODEL_SPACE
 70
     0
 10
0.0
 20
0.0
 30
0.0
  3
*MODEL_SPACE
  1

  0
ENDBLK
  5
1A
330
18
100
AcDbEntity
  8
0
100
AcDbBlockEnd
  0
BLOCK
  5
16
330
15
100
AcDbEntity
 67
     1
  8
0
100
AcDbBlockBegin
  2
*PAPER_SPACE
 70
     0
 10
0.0
 20
0.0
 30
0.0
  3
*PAPER_SPACE
  1

  0
ENDBLK
  5
17
330
15
100
AcDbEntity
 67
     1
  8
0
100
AcDbBlockEnd
  0
BLOCK
  5
2F
330
2E
100
AcDbEntity
  8
0
100
AcDbBlockBegin
  2
_OPEN
 70
     0
 10
0.0
 20
0.0
 30
0.0
  3
_OPEN
  1

  0
LINE
  5
30
330
2E
100
AcDbEntity
  8
0
  6
ByBlock
 62
     0
100
AcDbLine
 10
-1.0
 20
0.1666666666666666
 30
0.0
 11
0.0
 21
0.0
 31
0.0
  0
LINE
  5
31
330
2E
100
AcDbEntity
  8
0
  6
ByBlock
 62
     0
100
AcDbLine
 10
0.0
 20
0.0
 30
0.0
 11
-1.0
 21
-0.1666666666666666
 31
0.0
  0
LINE
  5
32
330
2E
100
AcDbEntity
  8
0
  6
ByBlock
 62
     0
100
AcDbLine
 10
0.0
 20
0.0
 30
0.0
 11
-1.0
 21
0.0
 31
0.0
  0
ENDBLK
  5
33
330
2E
100
AcDbEntity
  8
0
100
AcDbBlockEnd
  0
ENDSEC
  0
SECTION
  2
ENTITIES
  0
TEXT
  5
63
330
18
100
AcDbEntity
  8
4
  6
CENTER
 48
0.25
100
AcDbText
 10
23.97950852663849
 20
10.0
 30
0.0
 40
1.399999999999999
  1
4
100
AcDbText
  0
TEXT
  5
64
330
18
100
AcDbEntity
  8
7
  6
Continuous
 48
0.25
100
AcDbText
 10
9.999997526638502
 20
26.0000007607689
 30
0.0
 40
3.0
  1
CODE No.7513
100
AcDbText
  0
TEXT
  5
65
330
18
100
AcDbEntity
  8
7
  6
Continuous
 48
0.25
100
AcDbText
 10
9.999997526638502
 20
18.00000076076889
 30
0.0
 40
3.0
  1
TYPE No.TM-281-L
100
AcDbText
  0
TEXT
  5
66
330
18
100
AcDbEntity
  8
1
  6
Continuous
 48
0.25
100
AcDbText
 10
9.999997526638502
 20
10.00000076076889
 30
0.0
 40
1.399999999999999
  1
LAYER
100
AcDbText
  0
TEXT
  5
67
330
18
100
AcDbEntity
  8
2
  6
Continuous
 48
0.25
100
AcDbText
 10
19.9795085266385
 20
10.0
 30
0.0
 40
1.399999999999999
  1
2
100
AcDbText
  0
TEXT
  5
68
330
18
100
AcDbEntity
  8
3
  6
DASHED
 48
0.25
100
AcDbText
 10
21.9795085266385
 20
10.0
 30
0.0
 40
1.399999999999999
  1
3
100
AcDbText
  0
TEXT
  5
69
330
18
100
AcDbEntity
  8
1
  6
Continuous
 48
0.25
100
AcDbText
 10
17.9795085266385
 20
10.0
 30
0.0
 40
1.399999999999999
  1
1
100
AcDbText
  0
TEXT
  5
6A
330
18
100
AcDbEntity
  8
5
  6
PHANTOM
 48
0.25
100
AcDbText
 10
25.9795085266385
 20
10.0
 30
0.0
 40
1.399999999999999
  1
5
100
AcDbText
  0
TEXT
  5
6B
330
18
100
AcDbEntity
  8
6
  6
Continuous
 48
0.25
100
AcDbText
 10
27.9795085266385
 20
10.0
 30
0.0
 40
1.399999999999999
  1
6
100
AcDbText
  0
TEXT
  5
6C
330
18
100
AcDbEntity
  8
7
  6
Continuous
 48
0.25
100
AcDbText
 10
29.9795085266385
 20
10.0
 30
0.0
 40
1.399999999999999
  1
7
100
AcDbText
  0
LINE
  5
228
330
18
100
AcDbEntity
  8
4
  6
CENTER
 48
0.2
100
AcDbLine
 10
373.0648780859564
 20
463.3422959925716
 30
0.0
 11
373.0648780859562
 21
261.9912699167374
 31
0.0
  0
LINE
  5
22A
330
18
100
AcDbEntity
  8
1
  6
Continuous
100
AcDbLine
 10
234.9148780859564
 20
447.0198670578593
 30
0.0
 11
234.9148780859565
 21
342.6676724482963
 31
0.0
  0
LINE
  5
22B
330
18
100
AcDbEntity
  8
1
  6
Continuous
100
AcDbLine
 10
236.9148780859564
 20
439.4275913528843
 30
0.0
 11
236.9148780859565
 21
342.6676724482963
 31
0.0
  0
LINE
  5
22C
330
18
100
AcDbEntity
  8
1
  6
Continuous
100
AcDbLine
 10
361.0648780859567
 20
446.3876344482962
 30
0.0
 11
361.0648780859563
 21
278.9477104482962
 31
0.0
  0
LINE
  5
22D
330
18
100
AcDbEntity
  8
1
  6
Continuous
100
AcDbLine
 10
385.0648780859566
 20
378.6676724482963
 30
0.0
 11
385.0648780859566
 21
449.8670874482961
 31
0.0
  0
LINE
  5
22F
330
18
100
AcDbEntity
  8
1
  6
Continuous
100
AcDbLine
 10
229.9148780859565
 20
504.1676724482963
 30
0.0
 11
229.9148780859565
 21
492.4676044482962
 31
0.0
  0
LINE
  5
230
330
18
100
AcDbEntity
  8
1
  6
Continuous
100
AcDbLine
 10
238.1148780859565
 20
491.0865334482963
 30
0.0
 11
238.1148780859565
 21
450.2488114482964
 31
0.0
  0
LINE
  5
231
330
18
100
AcDbEntity
  8
1
  6
Continuous
100
AcDbLine
 10
226.3148780859564
 20
505.1676724482963
 30
0.0
 11
226.3148780859564
 21
436.1676724482962
 31
0.0
  0
LINE
  5
232
330
18
100
AcDbEntity
  8
1
  6
Continuous
100
AcDbLine
 10
238.9148780859566
 20
478.6676724482961
 30
0.0
 11
238.9148780859565
 21
447.7459847728509
 31
0.0
  0
LINE
  5
233
330
18
100
AcDbEntity
  8
1
  6
Continuous
100
AcDbLine
 10
240.9148780859566
 20
478.6676724482961
 30
0.0
 11
240.9148780859565
 21
447.7459847728508
 31
0.0
  0
LINE
  5
234
330
18
100
AcDbEntity
  8
1
  6
Continuous
100
AcDbLine
 10
229.9148780859565
 20
495.9821447539606
 30
0.0
 11
236.0635610859564
 21
493.9325834482962
 31
0.0
  0
LINE
  5
235
330
18
100
AcDbEntity
  8
1
  6
Continuous
100
AcDbLine
 10
226.3148780859564
 20
505.1676724482963
 30
0.0
 11
228.9148780859564
 21
505.1676724482963
 31
0.0
  0
ARC
  5
236
330
18
100
AcDbEntity
  8
1
  6
Continuous
100
AcDbCircle
 10
228.9148780859566
 20
504.1676724482963
 30
0.0
 40
1.0
100
AcDbArc
 50
0.0
 51
89.99999999999998
  0
LINE
  5
237
330
18
100
AcDbEntity
  8
4
  6
CENTER
 48
0.1
100
AcDbLine
 10
231.9148780859565
 20
498.6676724482962
 30
0.0
 11
224.3148780859564
 21
498.6676724482962
 31
0.0
  0
LINE
  5
238
330
18
100
AcDbEntity
  8
1
  6
Continuous
100
AcDbLine
 10
229.9148780859565
 20
492.4676044482962
 30
0.0
 11
226.3148780859564
 21
492.4676044482962
 31
0.0
  0
ARC
  5
239
330
18
100
AcDbEntity
  8
1
  6
Continuous
100
AcDbCircle
 10
235.1148780859565
 20
491.0865334482963
 30
0.0
 40
3.0
100
AcDbArc
 50
0.0
 51
71.5650510000005
  0
LINE
  5
23A
330
18
100
AcDbEntity
  8
4
  6
CENTER
 48
0.2
100
AcDbLine
 10
220.7148780859564
 20
470.6676724482961
 30
0.0
 11
245.4148780859565
 21
470.6676724482962
 31
0.0
  0
LINE
  5
23D
330
18
100
AcDbEntity
  8
1
  6
Continuous
100
AcDbLine
 10
224.0148780859564
 20
476.1676724482961
 30
0.0
 11
224.0148780859564
 21
466.8929244482608
 31
0.0
  0
LINE
  5
23E
330
18
100
AcDbEntity
  8
1
  6
Continuous
100
AcDbLine
 10
223.2148780859564
 20
473.6676724482959
 30
0.0
 11
223.2148780859564
 21
467.6676724482962
 31
0.0
  0
LINE
  5
23F
330
18
100
AcDbEntity
  8
1
  6
Continuous
100
AcDbLine
 10
224.7148780859564
 20
476.9176724482961
 30
0.0
 11
224.7148780859564
 21
464.4176724482961
 31
0.0
  0
LINE
  5
240
330
18
100
AcDbEntity
  8
1
  6
Continuous
100
AcDbLine
 10
222.7148780859564
 20
473.167672448296
 30
0.0
 11
222.7148780859564
 21
468.1676724482962
 31
0.0
  0
LINE
  5
243
330
18
100
AcDbEntity
  8
1
  6
Continuous
100
AcDbLine
 10
224.0148780859564
 20
476.1676724482961
 30
0.0
 11
224.7148780859564
 21
476.1676724482961
 31
0.0
  0
LINE
  5
244
330
18
100
AcDbEntity
  8
1
  6
Continuous
100
AcDbLine
 10
224.7148780859564
 20
476.9176724482961
 30
0.0
 11
226.3148780859564
 21
476.9176724482961
 31
0.0
  0
LINE
  5
245
330
18
100
AcDbEntity
  8
1
  6
Continuous
100
AcDbLine
 10
223.2148780859564
 20
473.6676724482959
 30
0.0
 11
222.7148780859564
 21
473.167672448296
 31
0.0
  0
LINE
  5
246
330
18
100
AcDbEntity
  8
1
  6
Continuous
100
AcDbLine
 10
223.2148780859564
 20
473.6676724482959
 30
0.0
 11
224.0148780859564
 21
473.6676724482959
 31
0.0
  0
LINE
  5
249
330
18
100
AcDbEntity
  8
1
  6
Continuous
100
AcDbLine
 10
222.7148780859564
 20
468.1676724482962
 30
0.0
 11
223.2148780859564
 21
467.6676724482962
 31
0.0
  0
LINE
  5
24A
330
18
100
AcDbEntity
  8
1
  6
Continuous
100
AcDbLine
 10
223.2148780859564
 20
467.6676724482962
 30
0.0
 11
224.0148780859564
 21
467.6676724482962
 31
0.0
  0
LINE
  5
24B
330
18
100
AcDbEntity
  8
1
  6
Continuous
100
AcDbLine
 10
224.0148780859564
 20
466.8929244482608
 30
0.0
 11
224.7148780859564
 21
466.8929244482608
 31
0.0
  0
LINE
  5
24C
330
18
100
AcDbEntity
  8
1
  6
Continuous
100
AcDbLine
 10
224.7148780859564
 20
464.4176724482961
 30
0.0
 11
226.3148780859564
 21
464.4176724482961
 31
0.0
  0
ARC
  5
24D
330
18
100
AcDbEntity
  8
1
  6
Continuous
100
AcDbCircle
 10
237.7468780859337
 20
470.6676724482962
 30
0.0
 40
5.668000000022742
100
AcDbArc
 50
303.981646584094
 51
56.0183534159059
  0
LINE
  5
24E
330
18
100
AcDbEntity
  8
1
  6
Continuous
100
AcDbLine
 10
238.6148780859565
 20
477.6676724482959
 30
0.0
 11
238.6148780859565
 21
463.6676724482962
 31
0.0
  0
LINE
  5
24F
330
18
100
AcDbEntity
  8
1
  6
Continuous
100
AcDbLine
 10
238.9148780859565
 20
478.6676724482961
 30
0.0
 11
240.9148780859566
 21
478.6676724482961
 31
0.0
  0
LINE
  5
250
330
18
100
AcDbEntity
  8
1
  6
Continuous
100
AcDbLine
 10
238.1148780859565
 20
477.6676724482959
 30
0.0
 11
238.6148780859565
 21
477.6676724482959
 31
0.0
  0
LINE
  5
251
330
18
100
AcDbEntity
  8
1
  6
Continuous
100
AcDbLine
 10
238.9148780859566
 20
475.6676724482961
 30
0.0
 11
238.6148780859565
 21
475.6676724482961
 31
0.0
  0
LINE
  5
252
330
18
100
AcDbEntity
  8
1
  6
Continuous
100
AcDbLine
 10
238.1148780859565
 20
463.6676724482962
 30
0.0
 11
238.6148780859565
 21
463.6676724482962
 31
0.0
  0
LINE
  5
253
330
18
100
AcDbEntity
  8
1
  6
Continuous
100
AcDbLine
 10
238.6148780859565
 20
465.6676724482961
 30
0.0
 11
238.9148780859566
 21
465.6676724482961
 31
0.0
  0
ARC
  5
254
330
18
100
AcDbEntity
  8
1
  6
Continuous
100
AcDbCircle
 10
236.0127542652026
 20
420.22427433509
 30
0.0
 40
1.702123820754384
100
AcDbArc
 50
0.0
 51
57.99461679191579
  0
LINE
  5
255
330
18
100
AcDbEntity
  8
1
  6
Continuous
100
AcDbLine
 10
229.9148780859565
 20
445.3532001426319
 30
0.0
 11
236.0635610859564
 21
447.4027614482961
 31
0.0
  0
LINE
  5
256
330
18
100
AcDbEntity
  8
4
  6
CENTER
 48
0.1
100
AcDbLine
 10
232.9148780859565
 20
430.6676724482962
 30
0.0
 11
239.7148780859564
 21
430.6676724482962
 31
0.0
  0
ARC
  5
257
330
18
100
AcDbEntity
  8
1
  6
Continuous
100
AcDbCircle
 10
228.9148780859566
 20
437.1676724482963
 30
0.0
 40
1.0
100
AcDbArc
 50
270.0
 51
0.0
  0
LINE
  5
258
330
18
100
AcDbEntity
  8
1
  6
Continuous
100
AcDbLine
 10
229.9148780859565
 20
448.8677404482962
 30
0.0
 11
226.3148780859564
 21
448.8677404482962
 31
0.0
  0
LINE
  5
259
330
18
100
AcDbEntity
  8
4
  6
CENTER
 48
0.1
100
AcDbLine
 10
231.9148780859565
 20
442.6676724482963
 30
0.0
 11
224.3148780859564
 21
442.6676724482963
 31
0.0
  0
LINE
  5
25C
330
18
100
AcDbEntity
  8
1
  6
Continuous
100
AcDbLine
 10
226.3148780859564
 20
436.1676724482962
 30
0.0
 11
228.9148780859564
 21
436.1676724482962
 31
0.0
  0
LINE
  5
260
330
18
100
AcDbEntity
  8
1
  6
Continuous
100
AcDbLine
 10
240.5452668216405
 20
446.3033985192123
 30
0.0
 11
237.0380818407285
 21
439.9084534374303
 31
0.0
  0
ARC
  5
261
330
18
100
AcDbEntity
  8
1
  6
Continuous
100
AcDbCircle
 10
235.1148780859565
 20
450.2488114482964
 30
0.0
 40
3.0
100
AcDbArc
 50
288.4349489999994
 51
0.0
  0
ARC
  5
263
330
18
100
AcDbEntity
  8
1
  6
Continuous
100
AcDbCircle
 10
237.9148780859566
 20
447.7459847728509
 30
0.0
 40
3.0
100
AcDbArc
 50
331.2582787393141
 51
0.0
  0
ARC
  5
265
330
18
100
AcDbEntity
  8
1
  6
Continuous
100
AcDbCircle
 10
237.9148780859566
 20
439.4275913528843
 30
0.0
 40
1.0
100
AcDbArc
 50
151.2582787393141
 51
180.0
  0
ARC
  5
266
330
18
100
AcDbEntity
  8
1
  6
Continuous
100
AcDbCircle
 10
236.0127542652032
 20
429.1110705615039
 30
0.0
 40
1.702123820753186
100
AcDbArc
 50
302.0053832080841
 51
0.0
  0
ARC
  5
267
330
18
100
AcDbEntity
  8
1
  6
Continuous
100
AcDbCircle
 10
236.0127542652032
 20
432.2242743350908
 30
0.0
 40
1.702123820753186
100
AcDbArc
 50
0.0
 51
57.99461679191579
  0
LINE
  5
268
330
18
100
AcDbEntity
  8
1
  6
Continuous
100
AcDbLine
 10
237.7148780859564
 20
429.1110705615038
 30
0.0
 11
237.7148780859564
 21
432.2242743350908
 31
0.0
  0
LINE
  5
26B
330
18
100
AcDbEntity
  8
4
  6
CENTER
 48
0.1
100
AcDbLine
 10
232.9148780859565
 20
402.667672448296
 30
0.0
 11
239.7148780859564
 21
402.667672448296
 31
0.0
  0
LINE
  5
26C
330
18
100
AcDbEntity
  8
4
  6
CENTER
 48
0.1
100
AcDbLine
 10
232.9148780859565
 20
417.6676724482962
 30
0.0
 11
239.7148780859564
 21
417.6676724482962
 31
0.0
  0
LINE
  5
26D
330
18
100
AcDbEntity
  8
1
  6
Continuous
100
AcDbLine
 10
237.7148780859564
 20
399.1110705615017
 30
0.0
 11
237.7148780859564
 21
406.2242743350903
 31
0.0
  0
LINE
  5
26E
330
18
100
AcDbEntity
  8
1
  6
Continuous
100
AcDbLine
 10
237.7148780859564
 20
415.1110705615046
 30
0.0
 11
237.7148780859564
 21
420.2242743350899
 31
0.0
  0
ARC
  5
26F
330
18
100
AcDbEntity
  8
1
  6
Continuous
100
AcDbCircle
 10
236.0127542652026
 20
415.1110705615048
 30
0.0
 40
1.702123820754384
100
AcDbArc
 50
302.0053832080841
 51
0.0
  0
ARC
  5
270
330
18
100
AcDbEntity
  8
1
  6
Continuous
100
AcDbCircle
 10
236.0127542652027
 20
406.2242743350903
 30
0.0
 40
1.702123820753956
100
AcDbArc
 50
0.0
 51
57.99461679191164
  0
ARC
  5
271
330
18
100
AcDbEntity
  8
1
  6
Continuous
100
AcDbCircle
 10
236.0127542652027
 20
399.1110705615018
 30
0.0
 40
1.702123820753956
100
AcDbArc
 50
302.0053832080883
 51
0.0
  0
ARC
  5
272
330
18
100
AcDbEntity
  8
1
  6
Continuous
100
AcDbCircle
 10
353.0648780859564
 20
470.6676724482961
 30
0.0
 40
18.0
100
AcDbArc
 50
356.3386497667829
 51
288.1799156194986
  0
ARC
  5
273
330
18
100
AcDbEntity
  8
1
  6
Continuous
100
AcDbCircle
 10
353.0648780859564
 20
470.6676724482961
 30
0.0
 40
20.41886100000001
100
AcDbArc
 50
191.4208562912648
 51
280.8701901877414
  0
ARC
  5
276
330
18
100
AcDbEntity
  8
1
  6
Continuous
100
AcDbCircle
 10
353.0648780859564
 20
470.6676724482961
 30
0.0
 40
25.5
100
AcDbArc
 50
95.5565469999987
 51
264.4434529999996
  0
ARC
  5
278
330
18
100
AcDbEntity
  8
1
  6
Continuous
100
AcDbCircle
 10
353.0648780859564
 20
470.6676724482961
 30
0.0
 40
32.0
100
AcDbArc
 50
284.4775121859294
 51
338.6074159846011
  0
ARC
  5
279
330
18
100
AcDbEntity
  8
1
  6
Continuous
100
AcDbCircle
 10
365.0648780859564
 20
449.8670874482962
 30
0.0
 40
20.0
100
AcDbArc
 50
0.0
 51
59.99999999999944
  0
ARC
  5
27A
330
18
100
AcDbEntity
  8
1
  6
Continuous
100
AcDbCircle
 10
349.0648780859564
 20
446.3876344482962
 30
0.0
 40
12.0
100
AcDbArc
 50
0.0
 51
44.99999999999999
  0
ARC
  5
27C
330
18
100
AcDbEntity
  8
1
  6
Continuous
100
AcDbCircle
 10
353.0648780859564
 20
470.6676724482961
 30
0.0
 40
12.0
100
AcDbArc
 50
11.72175056647524
 51
273.2088612141994
  0
LINE
  5
280
330
18
100
AcDbEntity
  8
4
  6
CENTER
 48
0.2
100
AcDbLine
 10
347.9648780859565
 20
498.6676724482962
 30
0.0
 11
358.1648780859567
 21
498.6676724482962
 31
0.0
  0
CIRCLE
  5
281
330
18
100
AcDbEntity
  8
1
  6
Continuous
100
AcDbCircle
 10
353.0648780859564
 20
498.6676724482962
 30
0.0
 40
3.6
  0
ARC
  5
282
330
18
100
AcDbEntity
  8
1
  6
Continuous
100
AcDbCircle
 10
353.0648780859564
 20
498.6676724482962
 30
0.0
 40
6.5
100
AcDbArc
 50
29.7247239999977
 51
150.1905760000021
  0
CIRCLE
  5
283
330
18
100
AcDbEntity
  8
1
  6
Continuous
100
AcDbCircle
 10
353.0648780859564
 20
498.6676724482962
 30
0.0
 40
2.25
  0
ARC
  5
284
330
18
100
AcDbEntity
  8
1
  6
Continuous
100
AcDbCircle
 10
353.0648780859564
 20
470.6676724482961
 30
0.0
 40
8.0
100
AcDbArc
 50
56.62979400000013
 51
226.5674370000006
  0
LINE
  5
285
330
18
100
AcDbEntity
  8
1
  6
Continuous
100
AcDbLine
 10
347.5648750859567
 20
464.8582004482962
 30
0.0
 11
357.5501600859565
 21
454.8729164482962
 31
0.0
  0
ARC
  5
286
330
18
100
AcDbEntity
  8
1
  6
Continuous
100
AcDbCircle
 10
353.0648780859564
 20
470.6676724482961
 30
0.0
 40
20.41886100000001
100
AcDbArc
 50
101.4605269767077
 51
168.6210356571653
  0
LINE
  5
28A
330
18
100
AcDbEntity
  8
1
  6
Continuous
100
AcDbLine
 10
342.8943130859565
 20
494.0516324482962
 30
0.0
 11
347.4249480859567
 21
501.8989234482963
 31
0.0
  0
ARC
  5
28F
330
18
100
AcDbEntity
  8
1
  6
Continuous
100
AcDbCircle
 10
364.3315897160427
 20
470.6676724482965
 30
0.0
 40
5.288825190707117
100
AcDbArc
 50
7.792924335425926
 51
10.10418271612847
  0
ARC
  5
290
330
18
100
AcDbEntity
  8
1
  6
Continuous
100
AcDbCircle
 10
371.7981664558644
 20
470.6676724482965
 30
0.0
 40
5.288825190707117
100
AcDbArc
 50
169.8958172838714
 51
172.2070756645739
  0
ARC
  5
291
330
18
100
AcDbEntity
  8
1
  6
Continuous
100
AcDbCircle
 10
364.3315897160427
 20
470.6676724482965
 30
0.0
 40
5.733264282363177
100
AcDbArc
 50
324.4623222080521
 51
35.53767779194789
  0
ARC
  5
292
330
18
100
AcDbEntity
  8
1
  6
Continuous
100
AcDbCircle
 10
371.7981664558644
 20
470.6676724482965
 30
0.0
 40
5.733264282363177
100
AcDbArc
 50
144.462322207997
 51
215.5376777920029
  0
ARC
  5
293
330
18
100
AcDbEntity
  8
1
  6
Continuous
100
AcDbCircle
 10
368.0648780859574
 20
468.00103789836
 30
0.0
 40
1.145412728988863
100
AcDbArc
 50
270.0
 51
324.4623222080521
  0
ARC
  5
294
330
18
100
AcDbEntity
  8
1
  6
Continuous
100
AcDbCircle
 10
368.0648780859574
 20
468.00103789836
 30
0.0
 40
1.145412728988863
100
AcDbArc
 50
215.5376777920029
 51
256.5374393917326
  0
ARC
  5
295
330
18
100
AcDbEntity
  8
1
  6
Continuous
100
AcDbCircle
 10
369.527537001604
 20
471.3787749949461
 30
0.0
 40
0.044443909165606
100
AcDbArc
 50
270.0
 51
7.792924335425926
  0
LINE
  5
296
330
18
100
AcDbEntity
  8
1
  6
Continuous
100
AcDbLine
 10
366.6022191703031
 20
471.3343310857807
 30
0.0
 11
369.5275370016037
 21
471.3343310857807
 31
0.0
  0
ARC
  5
297
330
18
100
AcDbEntity
  8
1
  6
Continuous
100
AcDbCircle
 10
366.6022191703031
 20
471.3787749949461
 30
0.0
 40
0.044443909165606
100
AcDbArc
 50
172.2070756645739
 51
270.0
  0
LINE
  5
298
330
18
100
AcDbEntity
  8
1
  6
Continuous
100
AcDbLine
 10
366.5140118052783
 20
470.8898919941245
 30
0.0
 11
369.6157443666285
 21
470.8898919941245
 31
0.0
  0
LINE
  5
299
330
18
100
AcDbEntity
  8
1
  6
Continuous
100
AcDbLine
 10
368.064878085957
 20
470.4454529024686
 30
0.0
 11
368.064878085957
 21
470.0010138108123
 31
0.0
  0
LINE
  5
29A
330
18
100
AcDbEntity
  8
1
  6
Continuous
100
AcDbLine
 10
366.5140118052783
 20
470.4454529024686
 30
0.0
 11
369.6157443666285
 21
470.4454529024686
 31
0.0
  0
LINE
  5
29B
330
18
100
AcDbEntity
  8
1
  6
Continuous
100
AcDbLine
 10
366.5515258012239
 20
470.0010138108123
 30
0.0
 11
369.578230370683
 21
470.0010138108123
 31
0.0
  0
LINE
  5
29C
330
18
100
AcDbEntity
  8
1
  6
Continuous
100
AcDbLine
 10
369.4470817303385
 20
469.5565747191563
 30
0.0
 11
368.5982049959445
 21
469.5565747191563
 31
0.0
  0
ARC
  5
29D
330
18
100
AcDbEntity
  8
1
  6
Continuous
100
AcDbCircle
 10
369.4470817303385
 20
469.5121308099905
 30
0.0
 40
0.044443909165606
100
AcDbArc
 50
347.2710561268771
 51
90.0
  0
ARC
  5
29E
330
18
100
AcDbEntity
  8
1
  6
Continuous
100
AcDbCircle
 10
364.3315897160427
 20
470.6676724482965
 30
0.0
 40
5.288825190707117
100
AcDbArc
 50
344.7937121239437
 51
347.2710561268771
  0
ARC
  5
29F
330
18
100
AcDbEntity
  8
1
  6
Continuous
100
AcDbCircle
 10
364.3315897160427
 20
470.6676724482965
 30
0.0
 40
5.288825190707117
100
AcDbArc
 50
344.7424767095418
 51
344.7937121239437
  0
ARC
  5
2A0
330
18
100
AcDbEntity
  8
1
  6
Continuous
100
AcDbCircle
 10
369.2196115863899
 20
469.3343551733283
 30
0.0
 40
0.2222195458280301
100
AcDbArc
 50
270.0
 51
344.7424767095418
  0
LINE
  5
2A1
330
18
100
AcDbEntity
  8
1
  6
Continuous
100
AcDbLine
 10
366.9101445855171
 20
469.1121356275003
 30
0.0
 11
369.2196115863899
 21
469.1121356275003
 31
0.0
  0
ARC
  5
2A2
330
18
100
AcDbEntity
  8
1
  6
Continuous
100
AcDbCircle
 10
366.9101445855174
 20
469.3343551733283
 30
0.0
 40
0.2222195458280301
100
AcDbArc
 50
195.2575232904581
 51
270.0
  0
ARC
  5
2A3
330
18
100
AcDbEntity
  8
1
  6
Continuous
100
AcDbCircle
 10
371.7981664558644
 20
470.6676724482965
 30
0.0
 40
5.288825190707117
100
AcDbArc
 50
193.2681189705571
 51
195.2575232904581
  0
ARC
  5
2A4
330
18
100
AcDbEntity
  8
1
  6
Continuous
100
AcDbCircle
 10
371.7981664558644
 20
470.6676724482965
 30
0.0
 40
5.288825190707117
100
AcDbArc
 50
192.7289438731228
 51
193.2681189705571
  0
ARC
  5
2A5
330
18
100
AcDbEntity
  8
1
  6
Continuous
100
AcDbCircle
 10
366.6826744415686
 20
469.5121308099905
 30
0.0
 40
0.044443909165606
100
AcDbArc
 50
90.0
 51
192.7289438731228
  0
LINE
  5
2A6
330
18
100
AcDbEntity
  8
1
  6
Continuous
100
AcDbLine
 10
367.5315511759699
 20
469.5565747191563
 30
0.0
 11
366.6826744415686
 21
469.5565747191563
 31
0.0
  0
ARC
  5
2A7
330
18
100
AcDbEntity
  8
1
  6
Continuous
100
AcDbCircle
 10
368.8848676677955
 20
468.4454769900161
 30
0.0
 40
0.2222195458280301
100
AcDbArc
 50
270.0
 51
333.9856340003639
  0
ARC
  5
2A8
330
18
100
AcDbEntity
  8
1
  6
Continuous
100
AcDbCircle
 10
364.3315897160427
 20
470.6676724482965
 30
0.0
 40
5.288825190707117
100
AcDbArc
 50
333.9856340003639
 51
337.0560464434622
  0
ARC
  5
2A9
330
18
100
AcDbEntity
  8
1
  6
Continuous
100
AcDbCircle
 10
369.1610702905101
 20
468.6232526266786
 30
0.0
 40
0.044443909165606
100
AcDbArc
 50
337.0560464434622
 51
90.0
  0
LINE
  5
2AA
330
18
100
AcDbEntity
  8
1
  6
Continuous
100
AcDbLine
 10
366.9686858813967
 20
468.6676965358443
 30
0.0
 11
369.1610702905101
 21
468.6676965358443
 31
0.0
  0
ARC
  5
2AB
330
18
100
AcDbEntity
  8
1
  6
Continuous
100
AcDbCircle
 10
366.968685881397
 20
468.6232526266786
 30
0.0
 40
0.044443909165606
100
AcDbArc
 50
90.0
 51
202.9439535565377
  0
ARC
  5
2AC
330
18
100
AcDbEntity
  8
1
  6
Continuous
100
AcDbCircle
 10
371.7981664558644
 20
470.6676724482965
 30
0.0
 40
5.288825190707117
100
AcDbArc
 50
202.9439535565377
 51
206.014365999636
  0
ARC
  5
2AD
330
18
100
AcDbEntity
  8
1
  6
Continuous
100
AcDbCircle
 10
367.2448885041116
 20
468.4454769900161
 30
0.0
 40
0.2222195458280301
100
AcDbArc
 50
206.014365999636
 51
270.0
  0
LINE
  5
2AE
330
18
100
AcDbEntity
  8
1
  6
Continuous
100
AcDbLine
 10
368.8848676677955
 20
468.2232574441881
 30
0.0
 11
367.2448885041116
 21
468.2232574441881
 31
0.0
  0
LINE
  5
2AF
330
18
100
AcDbEntity
  8
1
  6
Continuous
100
AcDbLine
 10
366.8459102685487
 20
467.7788183525321
 30
0.0
 11
368.7617357532792
 21
467.7788183525321
 31
0.0
  0
LINE
  5
2B3
330
18
100
AcDbEntity
  8
1
  6
Continuous
100
AcDbLine
 10
368.064878085957
 20
474.4797197272216
 30
0.0
 11
368.064878085957
 21
473.5612299781321
 31
0.0
  0
LINE
  5
2B4
330
18
100
AcDbEntity
  8
1
  6
Continuous
100
AcDbLine
 10
368.8965640873818
 20
473.3383803856932
 30
0.0
 11
367.0228309284452
 21
473.8404456724634
 31
0.0
  0
LINE
  5
2B5
330
18
100
AcDbEntity
  8
1
  6
Continuous
100
AcDbLine
 10
368.064878085957
 20
472.8898679065768
 30
0.0
 11
369.1309145897156
 21
472.8898679065768
 31
0.0
  0
LINE
  5
2B6
330
18
100
AcDbEntity
  8
1
  6
Continuous
100
AcDbLine
 10
367.842658540129
 20
473.1120874524048
 30
0.0
 11
366.8932016512819
 21
473.1120874524048
 31
0.0
  0
ARC
  5
2B7
330
18
100
AcDbEntity
  8
1
  6
Continuous
100
AcDbCircle
 10
367.842658540129
 20
472.8898679065768
 30
0.0
 40
0.2222195458280311
100
AcDbArc
 50
270.0
 51
90.0
  0
LINE
  5
2B8
330
18
100
AcDbEntity
  8
1
  6
Continuous
100
AcDbLine
 10
366.813310975616
 20
472.6676483607488
 30
0.0
 11
367.842658540129
 21
472.6676483607488
 31
0.0
  0
LINE
  5
2B9
330
18
100
AcDbEntity
  8
1
  6
Continuous
100
AcDbLine
 10
366.6039301458017
 20
472.2232092690926
 30
0.0
 11
369.3864860648321
 21
472.2232092690926
 31
0.0
  0
LINE
  5
2BA
330
18
100
AcDbEntity
  8
1
  6
Continuous
100
AcDbLine
 10
368.064878085957
 20
471.7787701774367
 30
0.0
 11
368.064878085957
 21
471.5565506316086
 31
0.0
  0
LINE
  5
2BB
330
18
100
AcDbEntity
  8
1
  6
Continuous
100
AcDbLine
 10
369.3196142083592
 20
471.7787701774367
 30
0.0
 11
368.064878085957
 21
471.7787701774367
 31
0.0
  0
ARC
  5
2BC
330
18
100
AcDbEntity
  8
1
  6
Continuous
100
AcDbCircle
 10
369.3196142083595
 20
471.5565506316086
 30
0.0
 40
0.2222195458280301
100
AcDbArc
 50
10.10418271612847
 51
90.0
  0
ARC
  5
2BD
330
18
100
AcDbEntity
  8
1
  6
Continuous
100
AcDbCircle
 10
366.8101419635476
 20
471.5565506316086
 30
0.0
 40
0.2222195458280301
100
AcDbArc
 50
90.0
 51
169.8958172838714
  0
LINE
  5
2BE
330
18
100
AcDbEntity
  8
1
  6
Continuous
100
AcDbLine
 10
367.5315511759699
 20
471.7787701774367
 30
0.0
 11
366.8101419635476
 21
471.7787701774367
 31
0.0
  0
ARC
  5
2BF
330
18
100
AcDbEntity
  8
1
  6
Continuous
100
AcDbCircle
 10
368.0648780859574
 20
473.3343069982328
 30
0.0
 40
1.145412728988864
100
AcDbArc
 50
35.53767779194789
 51
45.69883927961821
  0
ARC
  5
2C0
330
18
100
AcDbEntity
  8
1
  6
Continuous
100
AcDbCircle
 10
368.0648780859574
 20
473.3343069982328
 30
0.0
 40
1.145412728988864
100
AcDbArc
 50
62.24965455462839
 51
144.462322207997
  0
ARC
  5
2C6
330
18
100
AcDbEntity
  8
1
  6
Continuous
100
AcDbCircle
 10
353.0648780859564
 20
470.6676724482961
 30
0.0
 40
20.41886100000001
100
AcDbArc
 50
0.0
 51
80.11294385489433
  0
ARC
  5
2C8
330
18
100
AcDbEntity
  8
1
  6
Continuous
100
AcDbCircle
 10
353.0648780859564
 20
470.6676724482961
 30
0.0
 40
25.5
100
AcDbArc
 50
347.5116975530066
 51
84.44345300000128
  0
LINE
  5
2C9
330
18
100
AcDbEntity
  8
1
  6
Continuous
100
AcDbLine
 10
358.7096130859565
 20
501.8906014482961
 30
0.0
 11
363.2354440859565
 21
494.0516324482961
 31
0.0
  0
LINE
  5
2CE
330
18
100
AcDbEntity
  8
1
  6
Continuous
100
AcDbLine
 10
370.1106575760966
 20
470.0479160078939
 30
0.0
 11
375.0648780859567
 21
467.1875954482962
 31
0.0
  0
LINE
  5
2CF
330
18
100
AcDbEntity
  8
1
  6
Continuous
100
AcDbLine
 10
356.6506700859565
 20
477.8190434482961
 30
0.0
 11
365.9321960315785
 21
472.4603519177383
 31
0.0
  0
LINE
  5
2D6
330
18
100
AcDbEntity
  8
4
  6
CENTER
 48
0.2
100
AcDbLine
 10
358.1648780859567
 20
442.6676724482962
 30
0.0
 11
347.9648780859565
 21
442.6676724482962
 31
0.0
  0
CIRCLE
  5
2D7
330
18
100
AcDbEntity
  8
1
  6
Continuous
100
AcDbCircle
 10
353.0648780859564
 20
442.6676724482963
 30
0.0
 40
3.6
  0
ARC
  5
2D8
330
18
100
AcDbEntity
  8
1
  6
Continuous
100
AcDbCircle
 10
353.0648780859564
 20
442.6676724482963
 30
0.0
 40
6.5
100
AcDbArc
 50
209.8094239999978
 51
330.2752760000022
  0
CIRCLE
  5
2D9
330
18
100
AcDbEntity
  8
1
  6
Continuous
100
AcDbCircle
 10
353.0648780859564
 20
442.6676724482963
 30
0.0
 40
2.25
  0
LINE
  5
2E3
330
18
100
AcDbEntity
  8
1
  6
Continuous
100
AcDbLine
 10
342.8943130859565
 20
447.2837124482962
 30
0.0
 11
347.4249480859567
 21
439.4364224482963
 31
0.0
  0
CIRCLE
  5
2E6
330
18
100
AcDbEntity
  8
1
  6
Continuous
100
AcDbCircle
 10
373.0648780859564
 20
417.6676724482963
 30
0.0
 40
3.999999999997838
  0
CIRCLE
  5
2E7
330
18
100
AcDbEntity
  8
1
  6
Continuous
100
AcDbCircle
 10
373.0648780859564
 20
430.6676724482962
 30
0.0
 40
2.999999999997953
  0
ARC
  5
2E9
330
18
100
AcDbEntity
  8
1
  6
Continuous
100
AcDbCircle
 10
353.0648780859564
 20
470.6676724482961
 30
0.0
 40
25.5
100
AcDbArc
 50
275.5565470000003
 51
288.283889940407
  0
LINE
  5
2EA
330
18
100
AcDbEntity
  8
1
  6
Continuous
100
AcDbLine
 10
358.7096130859567
 20
439.4447434482962
 30
0.0
 11
361.0648780859567
 21
443.5241819694835
 31
0.0
  0
CIRCLE
  5
2EB
330
18
100
AcDbEntity
  8
1
  6
Continuous
100
AcDbCircle
 10
373.0648780859564
 20
402.6676724482963
 30
0.0
 40
5.000000000000341
  0
LINE
  5
2ED
330
18
100
AcDbEntity
  8
4
  6
CENTER
 48
0.2
100
AcDbLine
 10
380.0648780859569
 20
402.6676724482963
 30
0.0
 11
366.064878085956
 21
402.6676724482963
 31
0.0
  0
LINE
  5
2EF
330
18
100
AcDbEntity
  8
1
  6
Continuous
100
AcDbLine
 10
235.4148780857175
 20
258.6676724482965
 30
0.0
 11
235.4148780857175
 21
250.6676724482965
 31
0.0
  0
LINE
  5
2F0
330
18
100
AcDbEntity
  8
1
  6
Continuous
100
AcDbLine
 10
231.9148780859565
 20
259.6676724482984
 30
0.0
 11
231.9148780859565
 21
249.6676724482984
 31
0.0
  0
LINE
  5
2F1
330
18
100
AcDbEntity
  8
1
  6
Continuous
100
AcDbLine
 10
231.9148780859565
 20
259.9324814482984
 30
0.0
 11
231.9148780859565
 21
249.4028634482984
 31
0.0
  0
LINE
  5
2F2
330
18
100
AcDbEntity
  8
1
  6
Continuous
100
AcDbLine
 10
226.3148780859566
 20
272.1677104483001
 30
0.0
 11
226.3148780859566
 21
237.1676744483
 31
0.0
  0
LINE
  5
2F3
330
18
100
AcDbEntity
  8
1
  6
Continuous
100
AcDbLine
 10
228.1148780859564
 20
237.1677074483
 30
0.0
 11
228.1148780859564
 21
272.1677074483
 31
0.0
  0
LINE
  5
2F4
330
18
100
AcDbEntity
  8
1
  6
Continuous
100
AcDbLine
 10
232.4148780859565
 20
380.1676724482961
 30
0.0
 11
232.4148780859565
 21
246.6676724483814
 31
0.0
  0
LINE
  5
2F5
330
18
100
AcDbEntity
  8
1
  6
Continuous
100
AcDbLine
 10
234.4148780859565
 20
380.1676724482961
 30
0.0
 11
234.4148780859565
 21
246.6676724483761
 31
0.0
  0
LINE
  5
2F6
330
18
100
AcDbEntity
  8
1
  6
Continuous
100
AcDbLine
 10
231.6148780859565
 20
326.2242743350905
 30
0.0
 11
231.6148780859565
 21
319.1110705615024
 31
0.0
  0
LINE
  5
2F9
330
18
100
AcDbEntity
  8
1
  6
Continuous
100
AcDbLine
 10
237.9148780859565
 20
370.8392453235499
 30
0.0
 11
237.9148780859565
 21
354.4960995730426
 31
0.0
  0
LINE
  5
2FA
330
18
100
AcDbEntity
  8
4
  6
CENTER
 48
0.2
100
AcDbLine
 10
229.7148780859565
 20
362.6676724482961
 30
0.0
 11
240.9148780859565
 21
362.6676724482961
 31
0.0
  0
LINE
  5
2FB
330
18
100
AcDbEntity
  8
1
  6
Continuous
100
AcDbLine
 10
234.4148780859565
 20
380.1676724482961
 30
0.0
 11
232.4148780859565
 21
380.1676724482961
 31
0.0
  0
LINE
  5
2FC
330
18
100
AcDbEntity
  8
1
  6
Continuous
100
AcDbLine
 10
231.7148780859565
 20
364.6676724482961
 30
0.0
 11
231.7148780859565
 21
360.6676724482964
 31
0.0
  0
LINE
  5
2FD
330
18
100
AcDbEntity
  8
1
  6
Continuous
100
AcDbLine
 10
231.7148780859565
 20
364.6676724482961
 30
0.0
 11
232.4148780859565
 21
365.6676724482961
 31
0.0
  0
LINE
  5
2FE
330
18
100
AcDbEntity
  8
1
  6
Continuous
100
AcDbLine
 10
231.7148780859565
 20
360.6676724482961
 30
0.0
 11
232.4148780859565
 21
359.6676724482963
 31
0.0
  0
ARC
  5
2FF
330
18
100
AcDbEntity
  8
1
  6
Continuous
100
AcDbCircle
 10
235.9148780859566
 20
370.83924532355
 30
0.0
 40
2.0
100
AcDbArc
 50
0.0
 51
44.99999999999999
  0
LINE
  5
300
330
18
100
AcDbEntity
  8
1
  6
Continuous
100
AcDbLine
 10
234.4148780859565
 20
373.1676724482961
 30
0.0
 11
234.9148780859565
 21
373.1676724482961
 31
0.0
  0
LINE
  5
301
330
18
100
AcDbEntity
  8
1
  6
Continuous
100
AcDbLine
 10
237.3290916483296
 20
372.2534588859232
 30
0.0
 11
236.9148780859565
 21
372.6676724482964
 31
0.0
  0
LINE
  5
302
330
18
100
AcDbEntity
  8
1
  6
Continuous
100
AcDbLine
 10
238.9148780859565
 20
366.6676724482961
 30
0.0
 11
238.9148780859565
 21
358.6676724482961
 31
0.0
  0
ARC
  5
303
330
18
100
AcDbEntity
  8
1
  6
Continuous
100
AcDbCircle
 10
238.4148780860761
 20
362.6990454816842
 30
0.0
 40
4.0
100
AcDbArc
 50
82.81924422026959
 51
97.18075577973042
  0
ARC
  5
304
330
18
100
AcDbEntity
  8
1
  6
Continuous
100
AcDbCircle
 10
238.4148780860761
 20
362.6362994149082
 30
0.0
 40
4.0
100
AcDbArc
 50
262.8192442202704
 51
277.1807557797295
  0
LINE
  5
306
330
18
100
AcDbEntity
  8
4
  6
CENTER
 48
0.1
100
AcDbLine
 10
236.4148780859565
 20
322.6676724482961
 30
0.0
 11
229.6148780859565
 21
322.6676724482961
 31
0.0
  0
ARC
  5
309
330
18
100
AcDbEntity
  8
1
  6
Continuous
100
AcDbCircle
 10
233.3170019067105
 20
326.2242743350906
 30
0.0
 40
1.702123820753956
100
AcDbArc
 50
122.0053832080883
 51
180.0
  0
LINE
  5
30A
330
18
100
AcDbEntity
  8
1
  6
Continuous
100
AcDbLine
 10
234.4148780859565
 20
352.1676724482961
 30
0.0
 11
234.9148780859565
 21
352.1676724482961
 31
0.0
  0
LINE
  5
30B
330
18
100
AcDbEntity
  8
1
  6
Continuous
100
AcDbLine
 10
237.3290916483296
 20
353.0818860106695
 30
0.0
 11
236.9148780859565
 21
352.6676724482963
 31
0.0
  0
ARC
  5
30C
330
18
100
AcDbEntity
  8
1
  6
Continuous
100
AcDbCircle
 10
235.9148780859566
 20
354.4960995730426
 30
0.0
 40
2.0
100
AcDbArc
 50
315.0
 51
0.0
  0
LINE
  5
30D
330
18
100
AcDbEntity
  8
1
  6
Continuous
100
AcDbLine
 10
234.9148780859565
 20
342.6676724482963
 30
0.0
 11
236.9148780859565
 21
342.6676724482963
 31
0.0
  0
LINE
  5
311
330
18
100
AcDbEntity
  8
4
  6
CENTER
 48
0.1
100
AcDbLine
 10
236.4148780859565
 20
307.6676724482961
 30
0.0
 11
229.6148780859565
 21
307.6676724482961
 31
0.0
  0
LINE
  5
312
330
18
100
AcDbEntity
  8
4
  6
CENTER
 48
0.1
100
AcDbLine
 10
236.4148780859565
 20
294.6676724482961
 30
0.0
 11
229.6148780859565
 21
294.6676724482961
 31
0.0
  0
LINE
  5
313
330
18
100
AcDbEntity
  8
1
  6
Continuous
100
AcDbLine
 10
231.6148780859565
 20
310.2242743350879
 30
0.0
 11
231.6148780859565
 21
305.1110705615024
 31
0.0
  0
ARC
  5
314
330
18
100
AcDbEntity
  8
1
  6
Continuous
100
AcDbCircle
 10
233.3170019067103
 20
319.1110705615025
 30
0.0
 40
1.702123820753956
100
AcDbArc
 50
180.0
 51
237.9946167919116
  0
ARC
  5
315
330
18
100
AcDbEntity
  8
1
  6
Continuous
100
AcDbCircle
 10
233.3170019067105
 20
310.2242743350879
 30
0.0
 40
1.702123820754384
100
AcDbArc
 50
122.0053832080841
 51
180.0
  0
ARC
  5
316
330
18
100
AcDbEntity
  8
1
  6
Continuous
100
AcDbCircle
 10
233.3170019067098
 20
296.2242743350888
 30
0.0
 40
1.702123820753186
100
AcDbArc
 50
122.0053832080841
 51
180.0
  0
ARC
  5
317
330
18
100
AcDbEntity
  8
1
  6
Continuous
100
AcDbCircle
 10
233.3170019067105
 20
305.1110705615025
 30
0.0
 40
1.702123820754384
100
AcDbArc
 50
180.0
 51
237.9946167919158
  0
LINE
  5
318
330
18
100
AcDbEntity
  8
1
  6
Continuous
100
AcDbLine
 10
231.6148780859565
 20
296.2242743350887
 30
0.0
 11
231.6148780859565
 21
293.1110705615015
 31
0.0
  0
ARC
  5
319
330
18
100
AcDbEntity
  8
1
  6
Continuous
100
AcDbCircle
 10
233.3170019067098
 20
293.1110705615015
 30
0.0
 40
1.702123820753186
100
AcDbArc
 50
180.0
 51
237.9946167919158
  0
LINE
  5
31E
330
18
100
AcDbEntity
  8
4
  6
CENTER
 48
0.1
100
AcDbLine
 10
230.1148780859564
 20
267.1676724482979
 30
0.0
 11
224.3148780859566
 21
267.1676724482979
 31
0.0
  0
LINE
  5
31F
330
18
100
AcDbEntity
  8
1
  6
Continuous
100
AcDbLine
 10
228.1148780859564
 20
272.1677074483003
 30
0.0
 11
226.3148780859563
 21
272.1677104483001
 31
0.0
  0
ARC
  5
320
330
18
100
AcDbEntity
  8
1
  6
Continuous
100
AcDbCircle
 10
230.9148780859564
 20
259.9324814482985
 30
0.0
 40
1.0
100
AcDbArc
 50
0.0
 51
72.64597500000009
  0
LINE
  5
321
330
18
100
AcDbEntity
  8
1
  6
Continuous
100
AcDbLine
 10
231.2131530859565
 20
260.8869614482983
 30
0.0
 11
228.1148780859564
 21
261.8551726013695
 31
0.0
  0
LINE
  5
322
330
18
100
AcDbEntity
  8
1
  6
Continuous
100
AcDbLine
 10
231.9148780859565
 20
259.6676724482968
 30
0.0
 11
232.4148780859565
 21
259.6676724482968
 31
0.0
  0
ARC
  5
325
330
18
100
AcDbEntity
  8
1
  6
Continuous
100
AcDbCircle
 10
234.9148780858372
 20
254.6990454816846
 30
0.0
 40
4.0
100
AcDbArc
 50
82.81924422026959
 51
97.18075577973042
  0
LINE
  5
327
330
18
100
AcDbEntity
  8
4
  6
CENTER
 48
0.2
100
AcDbLine
 10
224.3148780859566
 20
254.6676724482974
 30
0.0
 11
237.4148780857175
 21
254.6676724482964
 31
0.0
  0
LINE
  5
328
330
18
100
AcDbEntity
  8
1
  6
Continuous
100
AcDbLine
 10
234.4148780859565
 20
246.6676724483759
 30
0.0
 11
232.4148780859496
 21
246.6676724483814
 31
0.0
  0
ARC
  5
329
330
18
100
AcDbEntity
  8
1
  6
Continuous
100
AcDbCircle
 10
230.9148780859564
 20
249.4028634482984
 30
0.0
 40
1.0
100
AcDbArc
 50
287.3540249999999
 51
0.0
  0
LINE
  5
32A
330
18
100
AcDbEntity
  8
1
  6
Continuous
100
AcDbLine
 10
231.2131530859565
 20
248.4483834482983
 30
0.0
 11
228.1148780859564
 21
247.4801722952272
 31
0.0
  0
LINE
  5
32B
330
18
100
AcDbEntity
  8
1
  6
Continuous
100
AcDbLine
 10
231.9148780859565
 20
249.6676724482968
 30
0.0
 11
232.4148780859565
 21
249.6676724482968
 31
0.0
  0
LINE
  5
32C
330
18
100
AcDbEntity
  8
4
  6
CENTER
 48
0.1
100
AcDbLine
 10
230.1148780859564
 20
242.1676724482979
 30
0.0
 11
224.3148780859566
 21
242.1676724482979
 31
0.0
  0
LINE
  5
32D
330
18
100
AcDbEntity
  8
1
  6
Continuous
100
AcDbLine
 10
226.3148780859563
 20
237.1676744483002
 30
0.0
 11
228.1148780859564
 21
237.1677074483005
 31
0.0
  0
ARC
  5
32E
330
18
100
AcDbEntity
  8
1
  6
Continuous
100
AcDbCircle
 10
234.9148780858372
 20
254.6362994149083
 30
0.0
 40
4.0
100
AcDbArc
 50
262.8192442202704
 51
277.1807557797295
  0
CIRCLE
  5
331
330
18
100
AcDbEntity
  8
1
  6
Continuous
100
AcDbCircle
 10
353.0648773758498
 20
254.6676724482963
 30
0.0
 40
4.0
  0
LINE
  5
334
330
18
100
AcDbEntity
  8
4
  6
CENTER
 48
0.2
100
AcDbLine
 10
353.06487737585
 20
274.1676704482961
 30
0.0
 11
353.06487737585
 21
235.1676744482963
 31
0.0
  0
LINE
  5
335
330
18
100
AcDbEntity
  8
1
  6
Continuous
100
AcDbLine
 10
345.06487737585
 20
266.4842954482965
 30
0.0
 11
345.06487737585
 21
254.6676724482963
 31
0.0
  0
LINE
  5
336
330
18
100
AcDbEntity
  8
1
  6
Continuous
100
AcDbLine
 10
357.0694865061661
 20
247.7421319350378
 30
0.0
 11
375.076399136481
 21
258.1544071651499
 31
0.0
  0
ARC
  5
337
330
18
100
AcDbEntity
  8
1
  6
Continuous
100
AcDbCircle
 10
353.0648780859564
 20
254.6676724482963
 30
0.0
 40
8.0
100
AcDbArc
 50
133.4325629999992
 51
300.0381186520264
  0
CIRCLE
  5
339
330
18
100
AcDbEntity
  8
1
  6
Continuous
100
AcDbCircle
 10
373.0648780859564
 20
322.6676724482964
 30
0.0
 40
3.500000000000113
  0
LINE
  5
33A
330
18
100
AcDbEntity
  8
1
  6
Continuous
100
AcDbLine
 10
385.0648780859566
 20
275.468258448296
 30
0.0
 11
385.0648780859566
 21
346.6676724482963
 31
0.0
  0
CIRCLE
  5
33C
330
18
100
AcDbEntity
  8
1
  6
Continuous
100
AcDbCircle
 10
373.0648780859564
 20
362.6676724482964
 30
0.0
 40
9.999999999999772
  0
ARC
  5
33D
330
18
100
AcDbEntity
  8
1
  6
Continuous
100
AcDbCircle
 10
373.0648780859564
 20
362.6676724482964
 30
0.0
 40
20.0
100
AcDbArc
 50
233.1301019999993
 51
353.6846845114209
  0
CIRCLE
  5
33E
330
18
100
AcDbEntity
  8
1
  6
Continuous
100
AcDbCircle
 10
373.0648780859564
 20
362.6676724482964
 30
0.0
 40
4.0
  0
ARC
  5
33F
330
18
100
AcDbEntity
  8
1
  6
Continuous
100
AcDbCircle
 10
373.0648780859564
 20
362.6676724482964
 30
0.0
 40
20.0
100
AcDbArc
 50
15.79305485333456
 51
53.13010199999935
  0
LINE
  5
341
330
18
100
AcDbEntity
  8
1
  6
Continuous
100
AcDbLine
 10
393.0648780859564
 20
365.4176724482963
 30
0.0
 11
393.0648780859564
 21
360.9176724482961
 31
0.0
  0
LINE
  5
342
330
18
100
AcDbEntity
  8
1
  6
Continuous
100
AcDbLine
 10
391.0648780859564
 20
365.4176724482961
 30
0.0
 11
393.0648780859564
 21
365.4176724482961
 31
0.0
  0
ARC
  5
343
330
18
100
AcDbEntity
  8
1
  6
Continuous
100
AcDbCircle
 10
390.3853959256571
 20
367.5666174127369
 30
0.0
 40
2.0
100
AcDbArc
 50
314.9999999997696
 51
15.79305485333456
  0
LINE
  5
344
330
18
100
AcDbEntity
  8
1
  6
Continuous
100
AcDbLine
 10
391.0648780859566
 20
365.4176724482963
 30
0.0
 11
391.7996094880246
 21
366.1524038503582
 31
0.0
  0
LINE
  5
345
330
18
100
AcDbEntity
  8
1
  6
Continuous
100
AcDbLine
 10
391.0648780859564
 20
360.9176724482961
 30
0.0
 11
393.0648780859564
 21
360.9176724482961
 31
0.0
  0
ARC
  5
346
330
18
100
AcDbEntity
  8
1
  6
Continuous
100
AcDbCircle
 10
390.5907163213587
 20
358.5634070881478
 30
0.0
 40
2.0
100
AcDbArc
 50
346.8197805535208
 51
45.00000000000111
  0
LINE
  5
347
330
18
100
AcDbEntity
  8
1
  6
Continuous
100
AcDbLine
 10
391.0648780859569
 20
360.9176724482959
 30
0.0
 11
392.0049298837319
 21
359.9776206505209
 31
0.0
  0
LINE
  5
348
330
18
100
AcDbEntity
  8
1
  6
Continuous
100
AcDbLine
 10
392.9435100859566
 20
360.467672448296
 30
0.0
 11
391.3370933795381
 21
360.6454571547147
 31
0.0
  0
ARC
  5
351
330
18
100
AcDbEntity
  8
1
  6
Continuous
100
AcDbCircle
 10
353.06487737585
 20
267.1676724482964
 30
0.0
 40
1.649999999999999
100
AcDbArc
 50
14.32290403107839
 51
255.6770902308988
  0
ARC
  5
352
330
18
100
AcDbEntity
  8
1
  6
Continuous
100
AcDbCircle
 10
353.06487737585
 20
267.1676724482964
 30
0.0
 40
3.0
100
AcDbArc
 50
28.70341165617706
 51
241.2965826057993
  0
ARC
  5
353
330
18
100
AcDbEntity
  8
1
  6
Continuous
100
AcDbCircle
 10
353.06487737585
 20
263.167670448296
 30
0.0
 40
9.0
100
AcDbArc
 50
57.80632292954106
 51
146.4426899999977
  0
LINE
  5
354
330
18
100
AcDbEntity
  8
1
  6
Continuous
100
AcDbLine
 10
347.5648750859567
 20
260.4771454482963
 30
0.0
 11
357.5501600859565
 21
270.4624294482962
 31
0.0
  0
ARC
  5
358
330
18
100
AcDbEntity
  8
1
  6
Continuous
100
AcDbCircle
 10
348.06487737585
 20
266.4842954482965
 30
0.0
 40
3.0
100
AcDbArc
 50
146.4426899999977
 51
180.0
  0
CIRCLE
  5
35B
330
18
100
AcDbEntity
  8
1
  6
Continuous
100
AcDbCircle
 10
373.0648780859564
 20
307.6676724482963
 30
0.0
 40
2.5
  0
CIRCLE
  5
35C
330
18
100
AcDbEntity
  8
1
  6
Continuous
100
AcDbCircle
 10
373.0648780859564
 20
294.6676724482964
 30
0.0
 40
1.500000000000114
  0
ARC
  5
35D
330
18
100
AcDbEntity
  8
1
  6
Continuous
100
AcDbCircle
 10
365.0648780859564
 20
275.4682584482962
 30
0.0
 40
20.0
100
AcDbArc
 50
300.0000000000005
 51
0.0
  0
ARC
  5
35F
330
18
100
AcDbEntity
  8
1
  6
Continuous
100
AcDbCircle
 10
349.0648780859564
 20
278.9477104482962
 30
0.0
 40
12.0
100
AcDbArc
 50
315.0
 51
0.0
  0
LINE
  5
360
330
18
100
AcDbEntity
  8
4
  6
CENTER
 48
0.2
100
AcDbLine
 10
347.0648773758498
 20
254.6676724482963
 30
0.0
 11
359.0648773758498
 21
254.6676724482963
 31
0.0
  0
LINE
  5
361
330
18
100
AcDbEntity
  8
4
  6
CENTER
 48
0.1
100
AcDbLine
 10
358.06487737585
 20
242.1676724482963
 30
0.0
 11
348.06487737585
 21
242.1676724482963
 31
0.0
  0
CIRCLE
  5
362
330
18
100
AcDbEntity
  8
1
  6
Continuous
100
AcDbCircle
 10
353.06487737585
 20
242.1676724482963
 30
0.0
 40
1.649999999999999
  0
CIRCLE
  5
363
330
18
100
AcDbEntity
  8
1
  6
Continuous
100
AcDbCircle
 10
353.06487737585
 20
242.1676724482963
 30
0.0
 40
3.0
  0
ARC
  5
364
330
18
100
AcDbEntity
  8
1
  6
Continuous
100
AcDbCircle
 10
353.06487737585
 20
246.1676744482963
 30
0.0
 40
9.0
100
AcDbArc
 50
213.5573100000021
 51
326.4426899999977
  0
LINE
  5
369
330
18
100
AcDbEntity
  8
1
  6
Continuous
100
AcDbLine
 10
345.06487737585
 20
242.8510504482963
 30
0.0
 11
345.06487737585
 21
254.6676724482963
 31
0.0
  0
ARC
  5
36A
330
18
100
AcDbEntity
  8
1
  6
Continuous
100
AcDbCircle
 10
348.06487737585
 20
242.8510504482963
 30
0.0
 40
3.0
100
AcDbArc
 50
180.0
 51
213.5573100000021
  0
LINE
  5
36B
330
18
100
AcDbEntity
  8
1
  6
Continuous
100
AcDbLine
 10
361.06487737585
 20
250.0524174482238
 30
0.0
 11
361.06487737585
 21
242.8510504482963
 31
0.0
  0
ARC
  5
36C
330
18
100
AcDbEntity
  8
1
  6
Continuous
100
AcDbCircle
 10
358.06487737585
 20
242.8510504482963
 30
0.0
 40
3.0
100
AcDbArc
 50
326.4426899999977
 51
0.0
  0
CIRCLE
  5
36D
330
18
100
AcDbEntity
  8
1
  6
Continuous
100
AcDbCircle
 10
353.0648780859567
 20
470.6676724482962
 30
0.0
 40
4.7
  0
LINE
  5
36E
330
18
100
AcDbEntity
  8
1
  6
Continuous
100
AcDbLine
 10
353.0648780859567
 20
471.8365347859071
 30
0.0
 11
353.5144235405017
 21
472.0090991180207
 31
0.0
  0
LINE
  5
36F
330
18
100
AcDbEntity
  8
1
  6
Continuous
100
AcDbLine
 10
353.0648780859567
 20
471.8365347859071
 30
0.0
 11
352.6153326314106
 21
472.0090991180208
 31
0.0
  0
LINE
  5
370
330
18
100
AcDbEntity
  8
1
  6
Continuous
100
AcDbLine
 10
353.5144235405017
 20
472.0090991180207
 30
0.0
 11
354.0851010103752
 21
472.5601959447129
 31
0.0
  0
LINE
  5
371
330
18
100
AcDbEntity
  8
1
  6
Continuous
100
AcDbLine
 10
352.6153326314106
 20
472.0090991180208
 30
0.0
 11
352.0446551615375
 21
472.5601959447129
 31
0.0
  0
LINE
  5
372
330
18
100
AcDbEntity
  8
1
  6
Continuous
100
AcDbLine
 10
354.4063047556812
 20
471.1172179028412
 30
0.0
 11
354.9574015823733
 21
471.6878953727148
 31
0.0
  0
LINE
  5
373
330
18
100
AcDbEntity
  8
1
  6
Continuous
100
AcDbLine
 10
354.2337404235677
 20
470.6676724482961
 30
0.0
 11
354.4063047556812
 21
471.1172179028412
 31
0.0
  0
LINE
  5
374
330
18
100
AcDbEntity
  8
1
  6
Continuous
100
AcDbLine
 10
354.2337404235677
 20
470.6676724482961
 30
0.0
 11
354.4063047556814
 21
470.2181269937502
 31
0.0
  0
LINE
  5
375
330
18
100
AcDbEntity
  8
1
  6
Continuous
100
AcDbLine
 10
354.4063047556814
 20
470.2181269937502
 30
0.0
 11
354.9574015823733
 21
469.6474495238772
 31
0.0
  0
LINE
  5
376
330
18
100
AcDbEntity
  8
1
  6
Continuous
100
AcDbLine
 10
353.5144235405017
 20
469.3262457785711
 30
0.0
 11
354.0851010103752
 21
468.7751489518786
 31
0.0
  0
LINE
  5
377
330
18
100
AcDbEntity
  8
1
  6
Continuous
100
AcDbLine
 10
353.0648780859564
 20
469.4988101106846
 30
0.0
 11
353.5144235405017
 21
469.3262457785711
 31
0.0
  0
LINE
  5
378
330
18
100
AcDbEntity
  8
1
  6
Continuous
100
AcDbLine
 10
353.0648780859564
 20
469.4988101106846
 30
0.0
 11
352.6153326314106
 21
469.3262457785707
 31
0.0
  0
LINE
  5
379
330
18
100
AcDbEntity
  8
1
  6
Continuous
100
AcDbLine
 10
352.6153326314106
 20
469.3262457785707
 30
0.0
 11
352.0446551615374
 21
468.7751489518789
 31
0.0
  0
LINE
  5
37A
330
18
100
AcDbEntity
  8
1
  6
Continuous
100
AcDbLine
 10
351.7234514162316
 20
470.2181269937506
 30
0.0
 11
351.1723545895395
 21
469.6474495238772
 31
0.0
  0
LINE
  5
37B
330
18
100
AcDbEntity
  8
1
  6
Continuous
100
AcDbLine
 10
351.8960157483452
 20
470.6676724482961
 30
0.0
 11
351.7234514162316
 21
470.2181269937506
 31
0.0
  0
LINE
  5
37C
330
18
100
AcDbEntity
  8
1
  6
Continuous
100
AcDbLine
 10
351.8960157483452
 20
470.6676724482961
 30
0.0
 11
351.7234514162314
 21
471.1172179028417
 31
0.0
  0
LINE
  5
37D
330
18
100
AcDbEntity
  8
1
  6
Continuous
100
AcDbLine
 10
351.7234514162316
 20
471.117217902842
 30
0.0
 11
351.1723545895396
 21
471.687895372715
 31
0.0
  0
ARC
  5
37E
330
18
100
AcDbEntity
  8
1
  6
Continuous
100
AcDbCircle
 10
353.0648780859564
 20
470.6676724482958
 30
0.0
 40
2.149999999999999
100
AcDbArc
 50
298.3282509640028
 51
331.6717490359764
  0
ARC
  5
37F
330
18
100
AcDbEntity
  8
1
  6
Continuous
100
AcDbCircle
 10
353.0648780859564
 20
470.6676724482958
 30
0.0
 40
2.149999999999999
100
AcDbArc
 50
208.3282509640091
 51
241.6717490359702
  0
ARC
  5
380
330
18
100
AcDbEntity
  8
1
  6
Continuous
100
AcDbCircle
 10
353.0648780859564
 20
470.6676724482958
 30
0.0
 40
2.149999999999999
100
AcDbArc
 50
28.32825096401538
 51
61.67174903598461
  0
ARC
  5
381
330
18
100
AcDbEntity
  8
1
  6
Continuous
100
AcDbCircle
 10
353.0648780859564
 20
470.6676724482958
 30
0.0
 40
2.149999999999999
100
AcDbArc
 50
118.3282509640172
 51
151.6717490359764
  0
LINE
  5
383
330
18
100
AcDbEntity
  8
4
  6
CENTER
 48
0.2
100
AcDbLine
 10
353.0648780859569
 20
434.1676724482963
 30
0.0
 11
353.0648780859569
 21
507.1676724482962
 31
0.0
  0
LINE
  5
384
330
18
100
AcDbEntity
  8
4
  6
CENTER
 48
0.2
100
AcDbLine
 10
380.5648780859564
 20
470.6676724482966
 30
0.0
 11
325.5648780859563
 21
470.6676724482966
 31
0.0
  0
LINE
  5
388
330
18
100
AcDbEntity
  8
4
  6
CENTER
 48
0.2
100
AcDbLine
 10
380.0648780859569
 20
417.6676724482963
 30
0.0
 11
366.064878085956
 21
417.6676724482963
 31
0.0
  0
LINE
  5
389
330
18
100
AcDbEntity
  8
4
  6
CENTER
 48
0.2
100
AcDbLine
 10
380.0648780859569
 20
430.6676724482962
 30
0.0
 11
366.064878085956
 21
430.6676724482962
 31
0.0
  0
LINE
  5
38B
330
18
100
AcDbEntity
  8
4
  6
CENTER
 48
0.2
100
AcDbLine
 10
398.0648780859564
 20
362.6676724482964
 30
0.0
 11
348.0648780859564
 21
362.6676724482964
 31
0.0
  0
LINE
  5
38C
330
18
100
AcDbEntity
  8
4
  6
CENTER
 48
0.2
100
AcDbLine
 10
380.0648780859569
 20
322.6676724482964
 30
0.0
 11
366.064878085956
 21
322.6676724482964
 31
0.0
  0
LINE
  5
38D
330
18
100
AcDbEntity
  8
4
  6
CENTER
 48
0.2
100
AcDbLine
 10
380.0648780859569
 20
307.6676724482963
 30
0.0
 11
366.064878085956
 21
307.6676724482963
 31
0.0
  0
LINE
  5
38E
330
18
100
AcDbEntity
  8
4
  6
CENTER
 48
0.2
100
AcDbLine
 10
380.0648780859569
 20
294.6676724482964
 30
0.0
 11
366.064878085956
 21
294.6676724482964
 31
0.0
  0
LINE
  5
38F
330
18
100
AcDbEntity
  8
4
  6
CENTER
 48
0.1
100
AcDbLine
 10
358.06487737585
 20
267.1676724482964
 30
0.0
 11
348.06487737585
 21
267.1676724482964
 31
0.0
  0
LINE
  5
120A
330
18
100
AcDbEntity
  8
1
  6
Continuous
100
AcDbLine
 10
473.7148780859574
 20
380.1676724482961
 30
0.0
 11
473.7148780859574
 21
246.6676724483814
 31
0.0
  0
LINE
  5
120B
330
18
100
AcDbEntity
  8
1
  6
Continuous
100
AcDbLine
 10
471.7148780859575
 20
380.1676724482961
 30
0.0
 11
471.7148780859574
 21
365.417672448296
 31
0.0
  0
LINE
  5
1211
330
18
100
AcDbEntity
  8
1
  6
Continuous
100
AcDbLine
 10
479.8148780859573
 20
272.1677104483001
 30
0.0
 11
479.8148780859573
 21
237.1676744483
 31
0.0
  0
LINE
  5
1212
330
18
100
AcDbEntity
  8
1
  6
Continuous
100
AcDbLine
 10
478.0148780859574
 20
237.1677074483
 30
0.0
 11
478.0148780859574
 21
272.1677074483
 31
0.0
  0
LINE
  5
1214
330
18
100
AcDbEntity
  8
1
  6
Continuous
100
AcDbLine
 10
479.8148780859573
 20
237.1676744483002
 30
0.0
 11
478.0148780859574
 21
237.1677074483005
 31
0.0
  0
LINE
  5
1217
330
18
100
AcDbEntity
  8
1
  6
Continuous
100
AcDbLine
 10
474.9166030859574
 20
260.8869614482983
 30
0.0
 11
478.0148780859574
 21
261.8551726013695
 31
0.0
  0
LINE
  5
1218
330
18
100
AcDbEntity
  8
1
  6
Continuous
100
AcDbLine
 10
471.7148780859575
 20
246.6676724483759
 30
0.0
 11
473.7148780859643
 21
246.6676724483814
 31
0.0
  0
LINE
  5
1219
330
18
100
AcDbEntity
  8
4
  6
CENTER
 48
0.2
100
AcDbLine
 10
481.8148780859574
 20
254.6676724482974
 30
0.0
 11
468.7148780861962
 21
254.6676724482964
 31
0.0
  0
LINE
  5
121B
330
18
100
AcDbEntity
  8
1
  6
Continuous
100
AcDbLine
 10
474.2148780859574
 20
259.6676724482984
 30
0.0
 11
474.2148780859574
 21
249.6676724482984
 31
0.0
  0
LINE
  5
121C
330
18
100
AcDbEntity
  8
1
  6
Continuous
100
AcDbLine
 10
474.2148780859574
 20
259.9324814482984
 30
0.0
 11
474.2148780859574
 21
249.4028634482984
 31
0.0
  0
LINE
  5
121D
330
18
100
AcDbEntity
  8
1
  6
Continuous
100
AcDbLine
 10
474.9166030859574
 20
248.4483834482983
 30
0.0
 11
478.0148780859574
 21
247.4801722952272
 31
0.0
  0
ARC
  5
121E
330
18
100
AcDbEntity
  8
1
  6
Continuous
100
AcDbCircle
 10
475.2148780859575
 20
249.4028634482984
 30
0.0
 40
1.0
100
AcDbArc
 50
180.0
 51
252.6459750000001
  0
LINE
  5
121F
330
18
100
AcDbEntity
  8
1
  6
Continuous
100
AcDbLine
 10
474.2148780859574
 20
249.6676724482968
 30
0.0
 11
473.7148780859574
 21
249.6676724482968
 31
0.0
  0
LINE
  5
1220
330
18
100
AcDbEntity
  8
4
  6
CENTER
 48
0.1
100
AcDbLine
 10
476.0148780859574
 20
242.1676724482979
 30
0.0
 11
481.8148780859574
 21
242.1676724482979
 31
0.0
  0
ARC
  5
1221
330
18
100
AcDbEntity
  8
1
  6
Continuous
100
AcDbCircle
 10
475.2148780859575
 20
259.9324814482985
 30
0.0
 40
1.0
100
AcDbArc
 50
107.3540249999999
 51
180.0
  0
LINE
  5
1222
330
18
100
AcDbEntity
  8
1
  6
Continuous
100
AcDbLine
 10
474.2148780859574
 20
259.6676724482968
 30
0.0
 11
473.7148780859574
 21
259.6676724482968
 31
0.0
  0
LINE
  5
1223
330
18
100
AcDbEntity
  8
1
  6
Continuous
100
AcDbLine
 10
470.7148780861962
 20
258.6676724482965
 30
0.0
 11
470.7148780861962
 21
250.6676724482965
 31
0.0
  0
ARC
  5
1224
330
18
100
AcDbEntity
  8
1
  6
Continuous
100
AcDbCircle
 10
471.2148780860767
 20
254.6362994149083
 30
0.0
 40
4.0
100
AcDbArc
 50
262.8192442202704
 51
277.1807557797295
  0
ARC
  5
1225
330
18
100
AcDbEntity
  8
1
  6
Continuous
100
AcDbCircle
 10
471.2148780860767
 20
254.6990454816846
 30
0.0
 40
4.0
100
AcDbArc
 50
82.81924422026964
 51
97.18075577973042
  0
LINE
  5
1226
330
18
100
AcDbEntity
  8
1
  6
Continuous
100
AcDbLine
 10
478.0148780859574
 20
272.1677074483003
 30
0.0
 11
479.8148780859573
 21
272.1677104483001
 31
0.0
  0
LINE
  5
1227
330
18
100
AcDbEntity
  8
4
  6
CENTER
 48
0.1
100
AcDbLine
 10
476.0148780859574
 20
267.1676724482979
 30
0.0
 11
481.8148780859574
 21
267.1676724482979
 31
0.0
  0
LINE
  5
122B
330
18
100
AcDbEntity
  8
1
  6
Continuous
100
AcDbLine
 10
476.2148780859575
 20
504.1676724482963
 30
0.0
 11
476.2148780859575
 21
492.4676044482962
 31
0.0
  0
LINE
  5
122C
330
18
100
AcDbEntity
  8
1
  6
Continuous
100
AcDbLine
 10
468.0148780859572
 20
491.0865334482963
 30
0.0
 11
468.0148780859572
 21
464.5635373248738
 31
0.0
  0
LINE
  5
122D
330
18
100
AcDbEntity
  8
1
  6
Continuous
100
AcDbLine
 10
479.8148780859573
 20
505.1676724482963
 30
0.0
 11
479.8148780859573
 21
436.1676724482962
 31
0.0
  0
LINE
  5
122E
330
18
100
AcDbEntity
  8
1
  6
Continuous
100
AcDbLine
 10
467.2148780859571
 20
478.6676724482961
 30
0.0
 11
467.2148780859574
 21
466.2784588740178
 31
0.0
  0
LINE
  5
122F
330
18
100
AcDbEntity
  8
1
  6
Continuous
100
AcDbLine
 10
465.2148780859572
 20
478.6676724482961
 30
0.0
 11
465.2148780859574
 21
447.7459847728509
 31
0.0
  0
LINE
  5
1233
330
18
100
AcDbEntity
  8
1
  6
Continuous
100
AcDbLine
 10
468.2148780859574
 20
370.8392453235499
 30
0.0
 11
468.2148780859574
 21
354.4960995730426
 31
0.0
  0
LINE
  5
1234
330
18
100
AcDbEntity
  8
1
  6
Continuous
100
AcDbLine
 10
471.2148780859574
 20
457.9600654540512
 30
0.0
 11
471.2148780859575
 21
365.4176724482961
 31
0.0
  0
LINE
  5
1235
330
18
100
AcDbEntity
  8
1
  6
Continuous
100
AcDbLine
 10
469.2148780859574
 20
457.9600654540513
 30
0.0
 11
469.2148780859574
 21
342.6676724482963
 31
0.0
  0
LINE
  5
1237
330
18
100
AcDbEntity
  8
1
  6
Continuous
100
AcDbLine
 10
474.5148780859572
 20
326.2242743350905
 30
0.0
 11
474.5148780859572
 21
319.1110705615024
 31
0.0
  0
ARC
  5
123A
330
18
100
AcDbEntity
  8
1
  6
Continuous
100
AcDbCircle
 10
472.8127542652031
 20
305.1110705615025
 30
0.0
 40
1.702123820754384
100
AcDbArc
 50
302.0053832080841
 51
0.000000000000007
  0
LINE
  5
123C
330
18
100
AcDbEntity
  8
4
  6
CENTER
 48
0.1
100
AcDbLine
 10
469.7148780859574
 20
294.6676724482961
 30
0.0
 11
476.5148780859572
 21
294.6676724482961
 31
0.0
  0
LINE
  5
123D
330
18
100
AcDbEntity
  8
1
  6
Continuous
100
AcDbLine
 10
474.5148780859572
 20
296.2242743350887
 30
0.0
 11
474.5148780859572
 21
293.1110705615015
 31
0.0
  0
ARC
  5
123E
330
18
100
AcDbEntity
  8
1
  6
Continuous
100
AcDbCircle
 10
472.8127542652041
 20
293.1110705615015
 30
0.0
 40
1.702123820753186
100
AcDbArc
 50
302.0053832080841
 51
0.000000000000007
  0
ARC
  5
123F
330
18
100
AcDbEntity
  8
1
  6
Continuous
100
AcDbCircle
 10
472.8127542652041
 20
296.2242743350888
 30
0.0
 40
1.702123820753186
100
AcDbArc
 50
0.000000000000007
 51
57.99461679191582
  0
LINE
  5
1240
330
18
100
AcDbEntity
  8
4
  6
CENTER
 48
0.1
100
AcDbLine
 10
469.7148780859574
 20
322.6676724482961
 30
0.0
 11
476.5148780859572
 21
322.6676724482961
 31
0.0
  0
LINE
  5
1241
330
18
100
AcDbEntity
  8
4
  6
CENTER
 48
0.1
100
AcDbLine
 10
469.7148780859574
 20
307.6676724482961
 30
0.0
 11
476.5148780859572
 21
307.6676724482961
 31
0.0
  0
LINE
  5
1242
330
18
100
AcDbEntity
  8
1
  6
Continuous
100
AcDbLine
 10
474.5148780859572
 20
310.2242743350879
 30
0.0
 11
474.5148780859572
 21
305.1110705615024
 31
0.0
  0
ARC
  5
1243
330
18
100
AcDbEntity
  8
1
  6
Continuous
100
AcDbCircle
 10
472.8127542652031
 20
310.2242743350879
 30
0.0
 40
1.702123820754384
100
AcDbArc
 50
0.000000000000007
 51
57.99461679191582
  0
ARC
  5
1244
330
18
100
AcDbEntity
  8
1
  6
Continuous
100
AcDbCircle
 10
472.8127542652035
 20
319.1110705615025
 30
0.0
 40
1.702123820753956
100
AcDbArc
 50
302.0053832080883
 51
0.000000000000007
  0
ARC
  5
1246
330
18
100
AcDbEntity
  8
1
  6
Continuous
100
AcDbCircle
 10
472.8127542652031
 20
326.2242743350906
 30
0.0
 40
1.702123820753956
100
AcDbArc
 50
0.000000000000007
 51
57.9946167919117
  0
LINE
  5
1247
330
18
100
AcDbEntity
  8
1
  6
Continuous
100
AcDbLine
 10
471.2148780859575
 20
342.6676724482963
 30
0.0
 11
469.2148780859574
 21
342.6676724482963
 31
0.0
  0
LINE
  5
1248
330
18
100
AcDbEntity
  8
4
  6
CENTER
 48
0.2
100
AcDbLine
 10
476.4148780859573
 20
362.6676724482961
 30
0.0
 11
465.2148780859574
 21
362.6676724482961
 31
0.0
  0
LINE
  5
1249
330
18
100
AcDbEntity
  8
1
  6
Continuous
100
AcDbLine
 10
474.4148780859573
 20
364.6676724482961
 30
0.0
 11
474.4148780859573
 21
360.6676724482964
 31
0.0
  0
LINE
  5
124A
330
18
100
AcDbEntity
  8
1
  6
Continuous
100
AcDbLine
 10
474.4148780859573
 20
364.6676724482961
 30
0.0
 11
473.7148780859574
 21
365.6676724482961
 31
0.0
  0
LINE
  5
124B
330
18
100
AcDbEntity
  8
1
  6
Continuous
100
AcDbLine
 10
474.4148780859573
 20
360.6676724482961
 30
0.0
 11
473.7148780859574
 21
359.6676724482963
 31
0.0
  0
LINE
  5
124C
330
18
100
AcDbEntity
  8
1
  6
Continuous
100
AcDbLine
 10
468.8006645235841
 20
353.0818860106695
 30
0.0
 11
469.2148780859574
 21
352.6676724482963
 31
0.0
  0
ARC
  5
124D
330
18
100
AcDbEntity
  8
1
  6
Continuous
100
AcDbCircle
 10
470.2148780859571
 20
354.4960995730426
 30
0.0
 40
2.0
100
AcDbArc
 50
180.0
 51
225.0
  0
LINE
  5
124E
330
18
100
AcDbEntity
  8
1
  6
Continuous
100
AcDbLine
 10
471.7148780859575
 20
352.1676724482961
 30
0.0
 11
471.2148780859575
 21
352.1676724482961
 31
0.0
  0
ARC
  5
124F
330
18
100
AcDbEntity
  8
1
  6
Continuous
100
AcDbCircle
 10
467.7148780858376
 20
362.6362994149082
 30
0.0
 40
4.0
100
AcDbArc
 50
262.8192442202704
 51
277.1807557797295
  0
LINE
  5
1250
330
18
100
AcDbEntity
  8
1
  6
Continuous
100
AcDbLine
 10
467.2148780859575
 20
366.6676724482961
 30
0.0
 11
467.2148780859575
 21
358.6676724482961
 31
0.0
  0
ARC
  5
1251
330
18
100
AcDbEntity
  8
1
  6
Continuous
100
AcDbCircle
 10
467.7148780858376
 20
362.6990454816842
 30
0.0
 40
4.0
100
AcDbArc
 50
82.81924422026964
 51
97.18075577973042
  0
LINE
  5
1255
330
18
100
AcDbEntity
  8
1
  6
Continuous
100
AcDbLine
 10
471.7148780859575
 20
380.1676724482961
 30
0.0
 11
473.7148780859574
 21
380.1676724482961
 31
0.0
  0
ARC
  5
1256
330
18
100
AcDbEntity
  8
1
  6
Continuous
100
AcDbCircle
 10
470.2148780859571
 20
370.83924532355
 30
0.0
 40
2.0
100
AcDbArc
 50
135.0
 51
180.0
  0
LINE
  5
1257
330
18
100
AcDbEntity
  8
1
  6
Continuous
100
AcDbLine
 10
468.8006645235841
 20
372.2534588859232
 30
0.0
 11
469.2148780859574
 21
372.6676724482964
 31
0.0
  0
LINE
  5
1258
330
18
100
AcDbEntity
  8
1
  6
Continuous
100
AcDbLine
 10
471.7148780859575
 20
373.1676724482961
 30
0.0
 11
471.2148780859575
 21
373.1676724482961
 31
0.0
  0
LINE
  5
125B
330
18
100
AcDbEntity
  8
1
  6
Continuous
100
AcDbLine
 10
468.4148780859572
 20
399.1110705615017
 30
0.0
 11
468.4148780859572
 21
406.2242743350903
 31
0.0
  0
ARC
  5
125C
330
18
100
AcDbEntity
  8
1
  6
Continuous
100
AcDbCircle
 10
470.1170019067112
 20
399.1110705615018
 30
0.0
 40
1.702123820753956
100
AcDbArc
 50
180.0
 51
237.9946167919117
  0
ARC
  5
125D
330
18
100
AcDbEntity
  8
1
  6
Continuous
100
AcDbCircle
 10
470.1170019067112
 20
406.2242743350903
 30
0.0
 40
1.702123820753956
100
AcDbArc
 50
122.0053832080883
 51
180.0
  0
LINE
  5
125E
330
18
100
AcDbEntity
  8
4
  6
CENTER
 48
0.1
100
AcDbLine
 10
473.2148780859573
 20
402.667672448296
 30
0.0
 11
466.4148780859573
 21
402.667672448296
 31
0.0
  0
ARC
  5
1262
330
18
100
AcDbEntity
  8
1
  6
Continuous
100
AcDbCircle
 10
470.1170019067105
 20
432.2242743350908
 30
0.0
 40
1.702123820753186
100
AcDbArc
 50
122.0053832080841
 51
180.0
  0
ARC
  5
1263
330
18
100
AcDbEntity
  8
1
  6
Continuous
100
AcDbCircle
 10
470.1170019067112
 20
420.22427433509
 30
0.0
 40
1.702123820754384
100
AcDbArc
 50
122.0053832080841
 51
180.0
  0
LINE
  5
1264
330
18
100
AcDbEntity
  8
1
  6
Continuous
100
AcDbLine
 10
468.4148780859572
 20
415.1110705615046
 30
0.0
 11
468.4148780859572
 21
420.2242743350899
 31
0.0
  0
ARC
  5
1265
330
18
100
AcDbEntity
  8
1
  6
Continuous
100
AcDbCircle
 10
470.1170019067112
 20
415.1110705615048
 30
0.0
 40
1.702123820754384
100
AcDbArc
 50
180.0
 51
237.9946167919158
  0
LINE
  5
1266
330
18
100
AcDbEntity
  8
4
  6
CENTER
 48
0.1
100
AcDbLine
 10
473.2148780859573
 20
417.6676724482962
 30
0.0
 11
466.4148780859573
 21
417.6676724482962
 31
0.0
  0
ARC
  5
1267
330
18
100
AcDbEntity
  8
1
  6
Continuous
100
AcDbCircle
 10
470.1170019067105
 20
429.1110705615039
 30
0.0
 40
1.702123820753186
100
AcDbArc
 50
180.0
 51
237.9946167919158
  0
LINE
  5
1268
330
18
100
AcDbEntity
  8
1
  6
Continuous
100
AcDbLine
 10
468.4148780859572
 20
429.1110705615038
 30
0.0
 11
468.4148780859572
 21
432.2242743350908
 31
0.0
  0
LINE
  5
1269
330
18
100
AcDbEntity
  8
4
  6
CENTER
 48
0.1
100
AcDbLine
 10
473.2148780859573
 20
430.6676724482962
 30
0.0
 11
466.4148780859573
 21
430.6676724482962
 31
0.0
  0
LINE
  5
126A
330
18
100
AcDbEntity
  8
1
  6
Continuous
100
AcDbLine
 10
476.2148780859575
 20
445.3532001426319
 30
0.0
 11
471.2148780859575
 21
447.0198670578593
 31
0.0
  0
LINE
  5
126B
330
18
100
AcDbEntity
  8
1
  6
Continuous
100
AcDbLine
 10
479.8148780859573
 20
436.1676724482962
 30
0.0
 11
477.2148780859573
 21
436.1676724482962
 31
0.0
  0
ARC
  5
126C
330
18
100
AcDbEntity
  8
1
  6
Continuous
100
AcDbCircle
 10
477.2148780859573
 20
437.1676724482963
 30
0.0
 40
1.0
100
AcDbArc
 50
180.0
 51
270.0
  0
LINE
  5
126D
330
18
100
AcDbEntity
  8
4
  6
CENTER
 48
0.1
100
AcDbLine
 10
474.2148780859574
 20
442.6676724482963
 30
0.0
 11
481.8148780859574
 21
442.6676724482963
 31
0.0
  0
LINE
  5
126E
330
18
100
AcDbEntity
  8
1
  6
Continuous
100
AcDbLine
 10
476.2148780859575
 20
448.8677404482962
 30
0.0
 11
479.8148780859573
 21
448.8677404482962
 31
0.0
  0
LINE
  5
1270
330
18
100
AcDbEntity
  8
1
  6
Continuous
100
AcDbLine
 10
465.5844893502732
 20
446.3033985192123
 30
0.0
 11
469.0916743311854
 21
439.9084534374303
 31
0.0
  0
ARC
  5
1271
330
18
100
AcDbEntity
  8
1
  6
Continuous
100
AcDbCircle
 10
468.2148780859572
 20
439.4275913528843
 30
0.0
 40
1.0
100
AcDbArc
 50
0.000000000000007
 51
28.7417212606858
  0
ARC
  5
1275
330
18
100
AcDbEntity
  8
1
  6
Continuous
100
AcDbCircle
 10
468.2148780859572
 20
447.7459847728509
 30
0.0
 40
3.0
100
AcDbArc
 50
180.0
 51
208.7417212606858
  0
ARC
  5
127D
330
18
100
AcDbEntity
  8
1
  6
Continuous
100
AcDbCircle
 10
468.38287808598
 20
470.6676724482962
 30
0.0
 40
5.668000000022742
100
AcDbArc
 50
123.981646584094
 51
236.0183534159059
  0
LINE
  5
127E
330
18
100
AcDbEntity
  8
1
  6
Continuous
100
AcDbLine
 10
467.514878085957
 20
477.6676724482959
 30
0.0
 11
467.514878085957
 21
465.4752293394934
 31
0.0
  0
LINE
  5
127F
330
18
100
AcDbEntity
  8
1
  6
Continuous
100
AcDbLine
 10
482.1148780859576
 20
476.1676724482961
 30
0.0
 11
482.1148780859576
 21
466.8929244482608
 31
0.0
  0
LINE
  5
1280
330
18
100
AcDbEntity
  8
1
  6
Continuous
100
AcDbLine
 10
481.4148780859571
 20
476.9176724482961
 30
0.0
 11
481.4148780859571
 21
464.4176724482961
 31
0.0
  0
LINE
  5
1281
330
18
100
AcDbEntity
  8
4
  6
CENTER
 48
0.2
100
AcDbLine
 10
485.4148780859572
 20
470.6676724482961
 30
0.0
 11
460.7148780859573
 21
470.6676724482962
 31
0.0
  0
LINE
  5
1282
330
18
100
AcDbEntity
  8
1
  6
Continuous
100
AcDbLine
 10
482.9148780859573
 20
473.6676724482959
 30
0.0
 11
482.9148780859573
 21
467.6676724482962
 31
0.0
  0
LINE
  5
1283
330
18
100
AcDbEntity
  8
1
  6
Continuous
100
AcDbLine
 10
483.4148780859573
 20
473.167672448296
 30
0.0
 11
483.4148780859573
 21
468.1676724482962
 31
0.0
  0
LINE
  5
1284
330
18
100
AcDbEntity
  8
1
  6
Continuous
100
AcDbLine
 10
482.9148780859573
 20
473.6676724482959
 30
0.0
 11
483.4148780859573
 21
473.167672448296
 31
0.0
  0
LINE
  5
1285
330
18
100
AcDbEntity
  8
1
  6
Continuous
100
AcDbLine
 10
482.9148780859573
 20
473.6676724482959
 30
0.0
 11
482.1148780859576
 21
473.6676724482959
 31
0.0
  0
LINE
  5
1286
330
18
100
AcDbEntity
  8
1
  6
Continuous
100
AcDbLine
 10
483.4148780859573
 20
468.1676724482962
 30
0.0
 11
482.9148780859573
 21
467.6676724482962
 31
0.0
  0
LINE
  5
1287
330
18
100
AcDbEntity
  8
1
  6
Continuous
100
AcDbLine
 10
482.9148780859573
 20
467.6676724482962
 30
0.0
 11
482.1148780859576
 21
467.6676724482962
 31
0.0
  0
LINE
  5
1288
330
18
100
AcDbEntity
  8
1
  6
Continuous
100
AcDbLine
 10
482.1148780859576
 20
466.8929244482608
 30
0.0
 11
481.4148780859571
 21
466.8929244482608
 31
0.0
  0
LINE
  5
1289
330
18
100
AcDbEntity
  8
1
  6
Continuous
100
AcDbLine
 10
481.4148780859571
 20
464.4176724482961
 30
0.0
 11
479.8148780859573
 21
464.4176724482961
 31
0.0
  0
LINE
  5
128B
330
18
100
AcDbEntity
  8
1
  6
Continuous
100
AcDbLine
 10
467.514878085957
 20
465.6676724482961
 30
0.0
 11
467.4093363538169
 21
465.6676724482961
 31
0.0
  0
LINE
  5
128C
330
18
100
AcDbEntity
  8
1
  6
Continuous
100
AcDbLine
 10
476.2148780859575
 20
495.9821447539606
 30
0.0
 11
470.0661950859576
 21
493.9325834482962
 31
0.0
  0
LINE
  5
128D
330
18
100
AcDbEntity
  8
1
  6
Continuous
100
AcDbLine
 10
482.1148780859576
 20
476.1676724482961
 30
0.0
 11
481.4148780859571
 21
476.1676724482961
 31
0.0
  0
LINE
  5
128E
330
18
100
AcDbEntity
  8
1
  6
Continuous
100
AcDbLine
 10
481.4148780859571
 20
476.9176724482961
 30
0.0
 11
479.8148780859573
 21
476.9176724482961
 31
0.0
  0
LINE
  5
128F
330
18
100
AcDbEntity
  8
1
  6
Continuous
100
AcDbLine
 10
476.2148780859575
 20
492.4676044482962
 30
0.0
 11
479.8148780859573
 21
492.4676044482962
 31
0.0
  0
LINE
  5
1290
330
18
100
AcDbEntity
  8
1
  6
Continuous
100
AcDbLine
 10
467.2148780859571
 20
478.6676724482961
 30
0.0
 11
465.2148780859572
 21
478.6676724482961
 31
0.0
  0
LINE
  5
1291
330
18
100
AcDbEntity
  8
1
  6
Continuous
100
AcDbLine
 10
468.0148780859572
 20
477.6676724482959
 30
0.0
 11
467.514878085957
 21
477.6676724482959
 31
0.0
  0
LINE
  5
1292
330
18
100
AcDbEntity
  8
1
  6
Continuous
100
AcDbLine
 10
467.2148780859571
 20
475.6676724482961
 30
0.0
 11
467.514878085957
 21
475.6676724482961
 31
0.0
  0
ARC
  5
1293
330
18
100
AcDbEntity
  8
1
  6
Continuous
100
AcDbCircle
 10
471.0148780859571
 20
491.0865334482963
 30
0.0
 40
3.0
100
AcDbArc
 50
108.4349489999995
 51
180.0
  0
LINE
  5
1295
330
18
100
AcDbEntity
  8
1
  6
Continuous
100
AcDbLine
 10
479.8148780859573
 20
505.1676724482963
 30
0.0
 11
477.2148780859573
 21
505.1676724482963
 31
0.0
  0
ARC
  5
1296
330
18
100
AcDbEntity
  8
1
  6
Continuous
100
AcDbCircle
 10
477.2148780859573
 20
504.1676724482963
 30
0.0
 40
1.0
100
AcDbArc
 50
90.00000000000005
 51
180.0
  0
LINE
  5
1297
330
18
100
AcDbEntity
  8
4
  6
CENTER
 48
0.1
100
AcDbLine
 10
474.2148780859574
 20
498.6676724482962
 30
0.0
 11
481.8148780859574
 21
498.6676724482962
 31
0.0
  0
LINE
  5
15F4
330
18
100
AcDbEntity
  8
1
  6
Continuous
100
AcDbLine
 10
81.06487808595806
 20
275.468258448296
 30
0.0
 11
81.06487808595806
 21
346.6676724482963
 31
0.0
  0
LINE
  5
15F5
330
18
100
AcDbEntity
  8
1
  6
Continuous
100
AcDbLine
 10
105.064878085958
 20
443.5241819694836
 30
0.0
 11
105.0648780859583
 21
278.9477104482962
 31
0.0
  0
LINE
  5
15F6
330
18
100
AcDbEntity
  8
4
  6
CENTER
 48
0.2
100
AcDbLine
 10
93.06487808595829
 20
449.8483804287438
 30
0.0
 11
93.06487808595852
 21
261.9912699167374
 31
0.0
  0
LINE
  5
1603
330
18
100
AcDbEntity
  8
4
  6
CENTER
 48
0.2
100
AcDbLine
 10
113.0648787960647
 20
274.1676704482961
 30
0.0
 11
113.0648787960647
 21
235.1676744482963
 31
0.0
  0
ARC
  5
1604
330
18
100
AcDbEntity
  8
1
  6
Continuous
100
AcDbCircle
 10
113.0648787960647
 20
246.1676744482963
 30
0.0
 40
9.0
100
AcDbArc
 50
213.5573100000021
 51
326.4426899999977
  0
ARC
  5
160B
330
18
100
AcDbEntity
  8
1
  6
Continuous
100
AcDbCircle
 10
101.0648780859582
 20
275.4682584482962
 30
0.0
 40
20.0
100
AcDbArc
 50
180.0
 51
239.9999999999995
  0
LINE
  5
160D
330
18
100
AcDbEntity
  8
1
  6
Continuous
100
AcDbLine
 10
121.0648787960647
 20
266.4842954482965
 30
0.0
 11
121.0648787960647
 21
254.6676724482963
 31
0.0
  0
LINE
  5
1610
330
18
100
AcDbEntity
  8
1
  6
Continuous
100
AcDbLine
 10
105.0648787960646
 20
250.052417448224
 30
0.0
 11
91.05335703543369
 21
258.1544071651499
 31
0.0
  0
LINE
  5
1613
330
18
100
AcDbEntity
  8
1
  6
Continuous
100
AcDbLine
 10
121.0648787960647
 20
242.8510504482963
 30
0.0
 11
121.0648787960647
 21
254.6676724482963
 31
0.0
  0
LINE
  5
1614
330
18
100
AcDbEntity
  8
4
  6
CENTER
 48
0.1
100
AcDbLine
 10
108.0648787960647
 20
242.1676724482963
 30
0.0
 11
118.0648787960647
 21
242.1676724482963
 31
0.0
  0
ARC
  5
1615
330
18
100
AcDbEntity
  8
1
  6
Continuous
100
AcDbCircle
 10
118.0648787960647
 20
242.8510504482963
 30
0.0
 40
3.0
100
AcDbArc
 50
326.4426899999977
 51
0.000000000000007
  0
CIRCLE
  5
1616
330
18
100
AcDbEntity
  8
1
  6
Continuous
100
AcDbCircle
 10
113.0648787960647
 20
242.1676724482963
 30
0.0
 40
1.649999999999999
  0
LINE
  5
1617
330
18
100
AcDbEntity
  8
4
  6
CENTER
 48
0.2
100
AcDbLine
 10
119.0648787960649
 20
254.6676724482963
 30
0.0
 11
107.0648787960649
 21
254.6676724482963
 31
0.0
  0
LINE
  5
1618
330
18
100
AcDbEntity
  8
1
  6
Continuous
100
AcDbLine
 10
105.0648787960646
 20
266.4842944482963
 30
0.0
 11
105.0648787960646
 21
242.8510504482963
 31
0.0
  0
ARC
  5
1619
330
18
100
AcDbEntity
  8
1
  6
Continuous
100
AcDbCircle
 10
108.0648787960647
 20
242.8510504482963
 30
0.0
 40
3.0
100
AcDbArc
 50
180.0
 51
213.5573100000021
  0
ARC
  5
161A
330
18
100
AcDbEntity
  8
1
  6
Continuous
100
AcDbCircle
 10
117.0648780859582
 20
278.9477104482962
 30
0.0
 40
12.0
100
AcDbArc
 50
180.0
 51
222.8682129769854
  0
ARC
  5
1625
330
18
100
AcDbEntity
  8
1
  6
Continuous
100
AcDbCircle
 10
101.0648780859582
 20
449.8670874482962
 30
0.0
 40
20.0
100
AcDbArc
 50
130.1532097707871
 51
180.0
  0
LINE
  5
1627
330
18
100
AcDbEntity
  8
4
  6
CENTER
 48
0.2
100
AcDbLine
 10
113.0648780859578
 20
434.1676724482963
 30
0.0
 11
113.0648780859578
 21
507.1676724482962
 31
0.0
  0
LINE
  5
163E
330
18
100
AcDbEntity
  8
4
  6
CENTER
 48
0.2
100
AcDbLine
 10
86.06487808595785
 20
294.6676724482964
 30
0.0
 11
100.0648780859587
 21
294.6676724482964
 31
0.0
  0
LINE
  5
1641
330
18
100
AcDbEntity
  8
4
  6
CENTER
 48
0.2
100
AcDbLine
 10
86.06487808595785
 20
307.6676724482963
 30
0.0
 11
100.0648780859587
 21
307.6676724482963
 31
0.0
  0
LINE
  5
1642
330
18
100
AcDbEntity
  8
4
  6
CENTER
 48
0.2
100
AcDbLine
 10
86.06487808595785
 20
322.6676724482964
 30
0.0
 11
100.0648780859587
 21
322.6676724482964
 31
0.0
  0
LINE
  5
1645
330
18
100
AcDbEntity
  8
4
  6
CENTER
 48
0.2
100
AcDbLine
 10
68.0648780859583
 20
362.6676724482964
 30
0.0
 11
118.0648780859582
 21
362.6676724482964
 31
0.0
  0
LINE
  5
164F
330
18
100
AcDbEntity
  8
1
  6
Continuous
100
AcDbLine
 10
81.06487808595806
 20
378.6676724482963
 30
0.0
 11
81.06487808595806
 21
449.8670874482961
 31
0.0
  0
LINE
  5
1653
330
18
100
AcDbEntity
  8
4
  6
CENTER
 48
0.2
100
AcDbLine
 10
86.06487808595785
 20
402.6676724482963
 30
0.0
 11
100.0648780859587
 21
402.6676724482963
 31
0.0
  0
LINE
  5
1659
330
18
100
AcDbEntity
  8
4
  6
CENTER
 48
0.2
100
AcDbLine
 10
86.06487808595785
 20
417.6676724482963
 30
0.0
 11
100.0648780859587
 21
417.6676724482963
 31
0.0
  0
LINE
  5
165A
330
18
100
AcDbEntity
  8
4
  6
CENTER
 48
0.2
100
AcDbLine
 10
86.06487808595785
 20
430.6676724482962
 30
0.0
 11
100.0648780859587
 21
430.6676724482962
 31
0.0
  0
LINE
  5
165B
330
18
100
AcDbEntity
  8
1
  6
Continuous
100
AcDbLine
 10
107.4201430859579
 20
439.4447434482962
 30
0.0
 11
102.8943121182337
 21
447.2837123923929
 31
0.0
  0
CIRCLE
  5
165E
330
18
100
AcDbEntity
  8
1
  6
Continuous
100
AcDbCircle
 10
113.0648780859583
 20
442.6676724482963
 30
0.0
 40
2.25
  0
LINE
  5
165F
330
18
100
AcDbEntity
  8
1
  6
Continuous
100
AcDbLine
 10
123.2354430859581
 20
447.2837124482962
 30
0.0
 11
118.7048080859581
 21
439.4364224482963
 31
0.0
  0
ARC
  5
1660
330
18
100
AcDbEntity
  8
1
  6
Continuous
100
AcDbCircle
 10
113.0648780859583
 20
442.6676724482963
 30
0.0
 40
6.5
100
AcDbArc
 50
209.7247239999977
 51
330.1905760000021
  0
LINE
  5
1661
330
18
100
AcDbEntity
  8
4
  6
CENTER
 48
0.2
100
AcDbLine
 10
107.9648780859581
 20
442.6676724482962
 30
0.0
 11
118.1648780859582
 21
442.6676724482962
 31
0.0
  0
LINE
  5
1676
330
18
100
AcDbEntity
  8
4
  6
CENTER
 48
0.2
100
AcDbLine
 10
85.5648780859583
 20
470.6676724482966
 30
0.0
 11
140.5648780859583
 21
470.6676724482966
 31
0.0
  0
LINE
  5
168F
330
18
100
AcDbEntity
  8
1
  6
Continuous
100
AcDbLine
 10
123.2354430859581
 20
494.0516324482962
 30
0.0
 11
118.7048080859581
 21
501.8989234482963
 31
0.0
  0
LINE
  5
1691
330
18
100
AcDbEntity
  8
1
  6
Continuous
100
AcDbLine
 10
107.4201430859582
 20
501.8906014482961
 30
0.0
 11
102.8943120859582
 21
494.0516324482961
 31
0.0
  0
ARC
  5
16C9
330
18
100
AcDbEntity
  8
1
  6
Continuous
100
AcDbCircle
 10
113.0648780859583
 20
498.6676724482962
 30
0.0
 40
6.5
100
AcDbArc
 50
29.80942399999785
 51
150.2752760000023
  0
LINE
  5
16CA
330
18
100
AcDbEntity
  8
4
  6
CENTER
 48
0.2
100
AcDbLine
 10
118.1648780859582
 20
498.6676724482962
 30
0.0
 11
107.9648780859581
 21
498.6676724482962
 31
0.0
  0
CIRCLE
  5
16CB
330
18
100
AcDbEntity
  8
1
  6
Continuous
100
AcDbCircle
 10
113.0648780859583
 20
498.6676724482962
 30
0.0
 40
2.25
  0
ARC
  5
1AA0
330
18
100
AcDbEntity
  8
1
  6
Continuous
100
AcDbCircle
 10
113.0648780859612
 20
470.6676724482966
 30
0.0
 40
25.5
100
AcDbArc
 50
113.5060389365814
 51
246.4939610634147
  0
ARC
  5
1AA9
330
18
100
AcDbEntity
  8
1
  6
Continuous
100
AcDbCircle
 10
113.0648780859612
 20
470.6676724482966
 30
0.0
 40
25.5
100
AcDbArc
 50
293.5060356647594
 51
66.49396433524278
  0
CIRCLE
  5
1B10
330
18
100
AcDbEntity
  8
1
  6
Continuous
100
AcDbCircle
 10
93.06487808595829
 20
430.6676724482962
 30
0.0
 40
1.5
  0
CIRCLE
  5
1B11
330
18
100
AcDbEntity
  8
1
  6
Continuous
100
AcDbCircle
 10
93.06487808595829
 20
402.6676724482963
 30
0.0
 40
3.5
  0
CIRCLE
  5
1B12
330
18
100
AcDbEntity
  8
1
  6
Continuous
100
AcDbCircle
 10
93.06487808595829
 20
417.6676724482963
 30
0.0
 40
2.5
  0
CIRCLE
  5
1C0E
330
18
100
AcDbEntity
  8
1
  6
Continuous
100
AcDbCircle
 10
93.06487808595852
 20
322.6676724482964
 30
0.0
 40
5.0
  0
CIRCLE
  5
1C0F
330
18
100
AcDbEntity
  8
1
  6
Continuous
100
AcDbCircle
 10
93.06487808595852
 20
307.6676724482963
 30
0.0
 40
4.0
  0
CIRCLE
  5
1C10
330
18
100
AcDbEntity
  8
1
  6
Continuous
100
AcDbCircle
 10
93.06487808595852
 20
294.6676724482964
 30
0.0
 40
3.0
  0
ARC
  5
1CC7
330
18
100
AcDbEntity
  8
1
  6
Continuous
100
AcDbCircle
 10
93.06622371191634
 20
362.6669392015251
 30
0.0
 40
17.5012568249568
100
AcDbArc
 50
46.71812023563004
 51
186.5595391928099
  0
ARC
  5
1CD1
330
18
100
AcDbEntity
  8
1
  6
Continuous
100
AcDbCircle
 10
93.06487808595877
 20
362.6676724482963
 30
0.0
 40
20.0
100
AcDbArc
 50
186.3153154885773
 51
233.1301023541533
  0
ARC
  5
1CDB
330
18
100
AcDbEntity
  8
1
  6
Continuous
100
AcDbCircle
 10
93.06487808595898
 20
362.6676724482964
 30
0.0
 40
20.0
100
AcDbArc
 50
126.8698980000006
 51
164.2069451466654
  0
ARC
  5
1CDC
330
18
100
AcDbEntity
  8
1
  6
Continuous
100
AcDbCircle
 10
75.74436024625834
 20
367.5666174127369
 30
0.0
 40
2.0
100
AcDbArc
 50
164.2069451466654
 51
225.0000000002303
  0
LINE
  5
1CDD
330
18
100
AcDbEntity
  8
1
  6
Continuous
100
AcDbLine
 10
75.06487808595875
 20
365.4176724482963
 30
0.0
 11
74.3301466838909
 21
366.1524038503582
 31
0.0
  0
LINE
  5
1CDE
330
18
100
AcDbEntity
  8
1
  6
Continuous
100
AcDbLine
 10
75.06487808595898
 20
365.4176724482961
 30
0.0
 11
73.06487808595898
 21
365.4176724482961
 31
0.0
  0
LINE
  5
1CDF
330
18
100
AcDbEntity
  8
1
  6
Continuous
100
AcDbLine
 10
73.06487808595898
 20
365.4176724482963
 30
0.0
 11
73.06487808595898
 21
360.9176724482961
 31
0.0
  0
LINE
  5
1CE0
330
18
100
AcDbEntity
  8
1
  6
Continuous
100
AcDbLine
 10
75.06487808595898
 20
360.9176724482961
 30
0.0
 11
73.06487808595898
 21
360.9176724482961
 31
0.0
  0
LINE
  5
1CE2
330
18
100
AcDbEntity
  8
1
  6
Continuous
100
AcDbLine
 10
75.06487808595853
 20
360.9176724482959
 30
0.0
 11
74.73947026137341
 21
360.5922646237107
 31
0.0
  0
LINE
  5
1CE4
330
18
100
AcDbEntity
  8
1
  6
Continuous
100
AcDbLine
 10
75.06487808595898
 20
365.4176724482961
 30
0.0
 11
75.06487808595875
 21
360.9176724482961
 31
0.0
  0
ARC
  5
1D0F
330
18
100
AcDbEntity
  8
1
  6
Continuous
100
AcDbCircle
 10
125.3542349394697
 20
496.3819040745137
 30
0.0
 40
5.0
100
AcDbArc
 50
209.9999773806787
 51
244.455911216729
  0
ARC
  5
1D10
330
18
100
AcDbEntity
  8
1
  6
Continuous
100
AcDbCircle
 10
100.7755350431764
 20
496.381910674951
 30
0.0
 40
5.0
100
AcDbArc
 50
295.5440580105123
 51
329.9999391875346
  0
ARC
  5
1D12
330
18
100
AcDbEntity
  8
1
  6
Continuous
100
AcDbCircle
 10
113.0648780859455
 20
470.6676724482966
 30
0.0
 40
23.5
100
AcDbArc
 50
295.5440337408515
 51
64.45591121672379
  0
ARC
  5
1D15
330
18
100
AcDbEntity
  8
1
  6
Continuous
100
AcDbCircle
 10
113.0648780859455
 20
470.6676724482966
 30
0.0
 40
23.5
100
AcDbArc
 50
115.5440580105165
 51
244.4559970318784
  0
LINE
  5
1D16
330
18
100
AcDbEntity
  8
1
  6
Continuous
100
AcDbLine
 10
105.1056896476311
 20
447.4534174228171
 30
0.0
 11
109.1677680859459
 21
440.4176724482966
 31
0.0
  0
ARC
  5
1D17
330
18
100
AcDbEntity
  8
1
  6
Continuous
100
AcDbCircle
 10
100.7755597461061
 20
444.9534224156379
 30
0.0
 40
5.0
100
AcDbArc
 50
29.99993393554231
 51
64.4559970318784
  0
ARC
  5
1D18
330
18
100
AcDbEntity
  8
1
  6
Continuous
100
AcDbCircle
 10
125.3542102365322
 20
444.9534290160555
 30
0.0
 40
5.0
100
AcDbArc
 50
115.5440337408515
 51
150.0000789714607
  0
LINE
  5
1D19
330
18
100
AcDbEntity
  8
1
  6
Continuous
100
AcDbLine
 10
121.024079771834
 20
447.4534230477868
 30
0.0
 11
116.9620030859459
 21
440.4176774482967
 31
0.0
  0
ARC
  5
1D1B
330
18
100
AcDbEntity
  8
1
  6
Continuous
100
AcDbCircle
 10
113.0648780859455
 20
442.6676724482966
 30
0.0
 40
4.5
100
AcDbArc
 50
210.000029999999
 51
329.999970000001
  0
CIRCLE
  5
1D1D
330
18
100
AcDbEntity
  8
1
  6
Continuous
100
AcDbCircle
 10
113.0648780859455
 20
470.6676724482966
 30
0.0
 40
7.5
  0
LINE
  5
1D1F
330
18
100
AcDbEntity
  8
1
  6
Continuous
100
AcDbLine
 10
90.07792308594593
 20
472.0772174482966
 30
0.0
 11
89.61785308594583
 21
472.2446624482966
 31
0.0
  0
LINE
  5
1D20
330
18
100
AcDbEntity
  8
1
  6
Continuous
100
AcDbLine
 10
90.07789308594579
 20
469.2581374482966
 30
0.0
 11
89.61783808594601
 21
469.0906874482966
 31
0.0
  0
ARC
  5
1D21
330
18
100
AcDbEntity
  8
1
  6
Continuous
100
AcDbCircle
 10
89.56487808594557
 20
470.6676724482966
 30
0.0
 40
1.5
100
AcDbArc
 50
290.0000399999962
 51
69.99996000000374
  0
LINE
  5
1D24
330
18
100
AcDbEntity
  8
1
  6
Continuous
100
AcDbLine
 10
136.0518430859458
 20
472.0772124482967
 30
0.0
 11
136.5118980859458
 21
472.2446524482966
 31
0.0
  0
LINE
  5
1D25
330
18
100
AcDbEntity
  8
1
  6
Continuous
100
AcDbLine
 10
136.0518430859458
 20
469.2581374482966
 30
0.0
 11
136.5118980859458
 21
469.0906924482965
 31
0.0
  0
ARC
  5
1D26
330
18
100
AcDbEntity
  8
1
  6
Continuous
100
AcDbCircle
 10
136.5648780859455
 20
470.6676724482966
 30
0.0
 40
1.5
100
AcDbArc
 50
110.0000370000017
 51
249.9999600000037
  0
LINE
  5
1D27
330
18
100
AcDbEntity
  8
1
  6
Continuous
100
AcDbLine
 10
105.1056594086517
 20
493.8819060790522
 30
0.0
 11
109.1677680859459
 21
500.9176674482966
 31
0.0
  0
ARC
  5
1D2A
330
18
100
AcDbEntity
  8
1
  6
Continuous
100
AcDbCircle
 10
113.0648780859455
 20
498.6676724482967
 30
0.0
 40
4.5
100
AcDbArc
 50
30.00002999999901
 51
149.9999720000004
  0
LINE
  5
1D2B
330
18
100
AcDbEntity
  8
1
  6
Continuous
100
AcDbLine
 10
121.0241069335938
 20
493.8819057839686
 30
0.0
 11
116.9620030859459
 21
500.9176824482964
 31
0.0
  0
ARC
  5
1D2C
330
18
100
AcDbEntity
  8
1
  6
Continuous
100
AcDbCircle
 10
113.0648787960647
 20
263.1676704482963
 30
0.0
 40
9.0
100
AcDbArc
 50
33.5573100000023
 51
146.4426899999977
  0
ARC
  5
1D2D
330
18
100
AcDbEntity
  8
1
  6
Continuous
100
AcDbCircle
 10
108.0648787960647
 20
266.4842944482963
 30
0.0
 40
3.0
100
AcDbArc
 50
146.4426899999977
 51
180.0
  0
CIRCLE
  5
1D2E
330
18
100
AcDbEntity
  8
1
  6
Continuous
100
AcDbCircle
 10
113.0648787960647
 20
267.1676724482964
 30
0.0
 40
1.649999999999999
  0
LINE
  5
1D2F
330
18
100
AcDbEntity
  8
4
  6
CENTER
 48
0.1
100
AcDbLine
 10
108.0648787960647
 20
267.1676724482964
 30
0.0
 11
118.0648787960647
 21
267.1676724482964
 31
0.0
  0
ARC
  5
1D30
330
18
100
AcDbEntity
  8
1
  6
Continuous
100
AcDbCircle
 10
118.0648787960647
 20
266.4842944482963
 30
0.0
 40
3.0
100
AcDbArc
 50
0.0
 51
33.5573100000023
  0
CIRCLE
  5
1D57
330
18
100
AcDbEntity
  8
1
  6
Continuous
100
AcDbCircle
 10
113.0648780859489
 20
470.6676724482949
 30
0.0
 40
6.25
  0
CIRCLE
  5
1D58
330
18
100
AcDbEntity
  8
1
  6
Continuous
100
AcDbCircle
 10
113.0648780859489
 20
470.6676724482949
 30
0.0
 40
5.499999999999544
  0
CIRCLE
  5
1D59
330
18
100
AcDbEntity
  8
1
  6
Continuous
100
AcDbCircle
 10
113.0648780859455
 20
470.6676724482949
 30
0.0
 40
2.499999999999488
  0
CIRCLE
  5
20D0
330
18
100
AcDbEntity
  8
1
  6
Continuous
100
AcDbCircle
 10
93.06487808595907
 20
362.6676724482964
 30
0.0
 40
3.0
  0
LINE
  5
21E5
330
18
100
AcDbEntity
  8
1
  6
Continuous
100
AcDbLine
 10
75.67953943524537
 20
360.6676724482965
 30
0.0
 11
73.18624633919853
 21
360.4676724763228
 31
0.0
  0
ARC
  5
2FA6
330
18
100
AcDbEntity
  8
1
  6
Continuous
100
AcDbCircle
 10
237.7468780859337
 20
600.6676724482961
 30
0.0
 40
5.668000000022742
100
AcDbArc
 50
303.981646584094
 51
56.0183534159059
  0
LINE
  5
2FA7
330
18
100
AcDbEntity
  8
4
  6
CENTER
 48
0.2
100
AcDbLine
 10
220.7148780859564
 20
600.6676724482961
 30
0.0
 11
245.4148780859565
 21
600.6676724482961
 31
0.0
  0
LINE
  5
2FB9
330
18
100
AcDbEntity
  8
1
  6
Continuous
100
AcDbLine
 10
224.0148780859564
 20
606.1676724482961
 30
0.0
 11
224.7148780859564
 21
606.1676724482961
 31
0.0
  0
LINE
  5
2FBA
330
18
100
AcDbEntity
  8
1
  6
Continuous
100
AcDbLine
 10
224.7148780859564
 20
606.9176724482961
 30
0.0
 11
226.3148780859564
 21
606.9176724482961
 31
0.0
  0
LINE
  5
2FBB
330
18
100
AcDbEntity
  8
1
  6
Continuous
100
AcDbLine
 10
224.0148780859564
 20
595.1676724482961
 30
0.0
 11
224.7148780859564
 21
595.1676724482961
 31
0.0
  0
LINE
  5
2FBC
330
18
100
AcDbEntity
  8
1
  6
Continuous
100
AcDbLine
 10
223.2148780859564
 20
597.6676724482961
 30
0.0
 11
224.0148780859564
 21
597.6676724482961
 31
0.0
  0
LINE
  5
2FBD
330
18
100
AcDbEntity
  8
1
  6
Continuous
100
AcDbLine
 10
222.7148780859564
 20
598.167672448296
 30
0.0
 11
223.2148780859564
 21
597.6676724482961
 31
0.0
  0
LINE
  5
2FBE
330
18
100
AcDbEntity
  8
1
  6
Continuous
100
AcDbLine
 10
223.2148780859564
 20
603.6676724482961
 30
0.0
 11
224.0148780859564
 21
603.6676724482961
 31
0.0
  0
LINE
  5
2FBF
330
18
100
AcDbEntity
  8
1
  6
Continuous
100
AcDbLine
 10
223.2148780859564
 20
603.6676724482961
 30
0.0
 11
222.7148780859564
 21
603.1676724482961
 31
0.0
  0
LINE
  5
2FC0
330
18
100
AcDbEntity
  8
1
  6
Continuous
100
AcDbLine
 10
222.7148780859564
 20
603.1676724482961
 30
0.0
 11
222.7148780859564
 21
598.167672448296
 31
0.0
  0
LINE
  5
2FC1
330
18
100
AcDbEntity
  8
1
  6
Continuous
100
AcDbLine
 10
223.2148780859564
 20
603.6676724482961
 30
0.0
 11
223.2148780859564
 21
597.6676724482961
 31
0.0
  0
LINE
  5
2FC2
330
18
100
AcDbEntity
  8
1
  6
Continuous
100
AcDbLine
 10
224.7148780859564
 20
594.4176724482961
 30
0.0
 11
226.3148780859564
 21
594.4176724482961
 31
0.0
  0
LINE
  5
2FC3
330
18
100
AcDbEntity
  8
1
  6
Continuous
100
AcDbLine
 10
224.0148780859564
 20
606.1676724482961
 30
0.0
 11
224.0148780859564
 21
595.1676724482961
 31
0.0
  0
LINE
  5
2FC4
330
18
100
AcDbEntity
  8
1
  6
Continuous
100
AcDbLine
 10
224.7148780859564
 20
606.9176724482961
 30
0.0
 11
224.7148780859564
 21
594.4176724482961
 31
0.0
  0
LINE
  5
300A
330
18
100
AcDbEntity
  8
1
  6
Continuous
100
AcDbLine
 10
229.3582950859564
 20
575.1676724482962
 30
0.0
 11
226.3148780859566
 21
575.1676724482962
 31
0.0
  0
LINE
  5
300B
330
18
100
AcDbEntity
  8
1
  6
Continuous
100
AcDbLine
 10
229.3582950859564
 20
626.1676724482962
 30
0.0
 11
226.3148780859563
 21
626.1676724482962
 31
0.0
  0
LINE
  5
300C
330
18
100
AcDbEntity
  8
1
  6
Continuous
100
AcDbLine
 10
228.9148780859575
 20
590.4971074482424
 30
0.0
 11
226.3148780859911
 21
590.4971074482403
 31
0.0
  0
LINE
  5
300D
330
18
100
AcDbEntity
  8
1
  6
Continuous
100
AcDbLine
 10
228.9148780859569
 20
610.8382384483205
 30
0.0
 11
226.3148780859911
 21
610.8382384483213
 31
0.0
  0
LINE
  5
300F
330
18
100
AcDbEntity
  8
1
  6
Continuous
100
AcDbLine
 10
238.1148780859565
 20
580.2488104482962
 30
0.0
 11
238.1148780859565
 21
621.0865334482963
 31
0.0
  0
LINE
  5
3010
330
18
100
AcDbEntity
  8
1
  6
Continuous
100
AcDbLine
 10
238.6148780859565
 20
593.6676724482962
 30
0.0
 11
238.6148780859564
 21
607.6676724482962
 31
0.0
  0
LINE
  5
3011
330
18
100
AcDbEntity
  8
1
  6
Continuous
100
AcDbLine
 10
229.9148780859563
 20
591.4971074482424
 30
0.0
 11
229.9148780859563
 21
609.8382384483203
 31
0.0
  0
LINE
  5
3012
330
18
100
AcDbEntity
  8
1
  6
Continuous
100
AcDbLine
 10
236.0635610859564
 20
577.4027614482961
 30
0.0
 11
229.3582950859564
 21
575.1676724482962
 31
0.0
  0
ARC
  5
3013
330
18
100
AcDbEntity
  8
1
  6
Continuous
100
AcDbCircle
 10
235.1148780859565
 20
580.2488104482962
 30
0.0
 40
3.0
100
AcDbArc
 50
288.4349489999978
 51
0.000000000000007
  0
LINE
  5
3014
330
18
100
AcDbEntity
  8
1
  6
Continuous
100
AcDbLine
 10
238.1148780859565
 20
593.6676724482962
 30
0.0
 11
238.6148780859565
 21
593.6676724482962
 31
0.0
  0
ARC
  5
3015
330
18
100
AcDbEntity
  8
1
  6
Continuous
100
AcDbCircle
 10
228.9148780859564
 20
591.4971074482424
 30
0.0
 40
1.0
100
AcDbArc
 50
270.0
 51
0.000000000000007
  0
LINE
  5
3016
330
18
100
AcDbEntity
  8
1
  6
Continuous
100
AcDbLine
 10
238.1148780859565
 20
607.6676724482962
 30
0.0
 11
238.6148780859564
 21
607.6676724482962
 31
0.0
  0
ARC
  5
3018
330
18
100
AcDbEntity
  8
1
  6
Continuous
100
AcDbCircle
 10
228.9148780859564
 20
609.8382384483203
 30
0.0
 40
1.0
100
AcDbArc
 50
0.000000000000007
 51
90.0
  0
LINE
  5
3019
330
18
100
AcDbEntity
  8
1
  6
Continuous
100
AcDbLine
 10
236.0635610859564
 20
623.932583448296
 30
0.0
 11
229.3582950859564
 21
626.1676724482961
 31
0.0
  0
ARC
  5
301A
330
18
100
AcDbEntity
  8
1
  6
Continuous
100
AcDbCircle
 10
235.1148793256317
 20
621.086534348302
 30
0.0
 40
2.999998760324798
100
AcDbArc
 50
359.9999828111482
 51
71.56507424208029
  0
LINE
  5
301B
330
18
100
AcDbEntity
  8
1
  6
Continuous
100
AcDbLine
 10
226.3148780859566
 20
575.1676724482962
 30
0.0
 11
226.3148780859562
 21
626.1676724482962
 31
0.0
  0
LINE
  5
3040
330
18
100
AcDbEntity
  8
4
  6
CENTER
 48
0.2
100
AcDbLine
 10
229.9148780859563
 20
620.6676724482981
 30
0.0
 11
244.9148780859567
 21
620.6676724482981
 31
0.0
  0
ARC
  5
31B1
330
18
100
AcDbEntity
  8
1
  6
Continuous
100
AcDbCircle
 10
234.4148780859303
 20
638.167672448298
 30
0.0
 40
2.5
100
AcDbArc
 50
0.000000000000007
 51
90.0
  0
LINE
  5
31B2
330
18
100
AcDbEntity
  8
1
  6
Continuous
100
AcDbLine
 10
234.9148780859296
 20
638.667672448298
 30
0.0
 11
232.9148780859296
 21
638.667672448298
 31
0.0
  0
LINE
  5
31B3
330
18
100
AcDbEntity
  8
1
  6
Continuous
100
AcDbLine
 10
232.9148780859267
 20
640.667672448295
 30
0.0
 11
232.9148780859296
 21
638.667672448298
 31
0.0
  0
LINE
  5
31B4
330
18
100
AcDbEntity
  8
1
  6
Continuous
100
AcDbLine
 10
234.4148780859303
 20
640.667672448298
 30
0.0
 11
232.9148780859267
 21
640.667672448298
 31
0.0
  0
LINE
  5
37AB
330
18
100
AcDbEntity
  8
1
  6
Continuous
100
AcDbLine
 10
234.9148780859564
 20
624.382144515342
 30
0.0
 11
234.9148780859565
 21
640.6171621910758
 31
0.0
  0
LINE
  5
37AC
330
18
100
AcDbEntity
  8
1
  6
Continuous
100
AcDbLine
 10
236.9148780859565
 20
632.112157805156
 30
0.0
 11
236.9148780859565
 21
638.167672448298
 31
0.0
  0
LINE
  5
3D82
330
18
100
AcDbEntity
  8
1
  6
Continuous
100
AcDbLine
 10
238.9148780859565
 20
592.6676724482961
 30
0.0
 11
238.9148780859565
 21
624.1594406350088
 31
0.0
  0
LINE
  5
3D83
330
18
100
AcDbEntity
  8
1
  6
Continuous
100
AcDbLine
 10
240.9148780859565
 20
592.6676724482961
 30
0.0
 11
240.9148780859565
 21
624.0336974482961
 31
0.0
  0
LINE
  5
3D85
330
18
100
AcDbEntity
  8
1
  6
Continuous
100
AcDbLine
 10
238.9148780859565
 20
592.6676724482961
 30
0.0
 11
240.9148780859565
 21
592.6676724482961
 31
0.0
  0
LINE
  5
3D86
330
18
100
AcDbEntity
  8
1
  6
Continuous
100
AcDbLine
 10
238.9148780859565
 20
624.1594406350088
 30
0.0
 11
235.212294826511
 21
631.0552653822192
 31
0.0
  0
ARC
  5
3D87
330
18
100
AcDbEntity
  8
1
  6
Continuous
100
AcDbCircle
 10
238.4148780859563
 20
624.0336974482961
 30
0.0
 40
2.5
100
AcDbArc
 50
0.0
 51
30.00000000000059
  0
LINE
  5
3D89
330
18
100
AcDbEntity
  8
1
  6
Continuous
100
AcDbLine
 10
240.6174613454016
 20
625.216333057946
 30
0.0
 11
236.9148780859564
 21
632.1121578051562
 31
0.0
  0
ARC
  5
3D8A
330
18
100
AcDbEntity
  8
1
  6
Continuous
100
AcDbCircle
 10
237.4148780859564
 20
632.2379009918688
 30
0.0
 40
2.5
100
AcDbArc
 50
180.0
 51
208.2327374667408
  0
LINE
  5
3D94
330
18
100
AcDbEntity
  8
1
  6
Continuous
100
AcDbLine
 10
234.4148780859565
 20
631.167672448298
 30
0.0
 11
234.9148780859565
 21
631.167672448298
 31
0.0
  0
LINE
  5
3D9D
330
18
100
AcDbEntity
  8
1
  6
Continuous
100
AcDbLine
 10
234.4148780859565
 20
638.167672448298
 30
0.0
 11
232.4148780859565
 21
638.167672448298
 31
0.0
  0
LINE
  5
3DA0
330
18
100
AcDbEntity
  8
1
  6
Continuous
100
AcDbLine
 10
234.4148780859565
 20
638.167672448298
 30
0.0
 11
234.4148780859566
 21
624.4821445302557
 31
0.0
  0
LINE
  5
3DA1
330
18
100
AcDbEntity
  8
1
  6
Continuous
100
AcDbLine
 10
232.4148780859565
 20
638.167672448298
 30
0.0
 11
232.4148780859565
 21
625.1488112963463
 31
0.0
  0
LINE
  5
3FC8
330
18
100
AcDbEntity
  8
1
  6
Continuous
100
AcDbLine
 10
229.9148780859563
 20
133.8382374483497
 30
0.0
 11
229.9148780859563
 21
131.2926324761222
 31
0.0
  0
LINE
  5
3FC9
330
18
100
AcDbEntity
  8
1
  6
Continuous
100
AcDbLine
 10
226.3148780859566
 20
150.1676724482961
 30
0.0
 11
226.3148780859563
 21
99.16767244829614
 31
0.0
  0
LINE
  5
3FCA
330
18
100
AcDbEntity
  8
1
  6
Continuous
100
AcDbLine
 10
240.9148780859565
 20
132.6676724482962
 30
0.0
 11
240.9148780859565
 21
101.3016474482961
 31
0.0
  0
LINE
  5
3FCB
330
18
100
AcDbEntity
  8
1
  6
Continuous
100
AcDbLine
 10
238.9148780859565
 20
132.6676724482962
 30
0.0
 11
238.9148780859565
 21
116.667671837089
 31
0.0
  0
LINE
  5
3FCD
330
18
100
AcDbEntity
  8
1
  6
Continuous
100
AcDbLine
 10
238.1148780859565
 20
145.0865344482961
 30
0.0
 11
238.1148780859565
 21
116.667671837089
 31
0.0
  0
LINE
  5
3FCF
330
18
100
AcDbEntity
  8
1
  6
Continuous
100
AcDbLine
 10
236.0635610859564
 20
147.9325834482962
 30
0.0
 11
229.3582950859564
 21
150.1676724482961
 31
0.0
  0
LINE
  5
3FD0
330
18
100
AcDbEntity
  8
1
  6
Continuous
100
AcDbLine
 10
229.3582950859564
 20
150.1676724482961
 30
0.0
 11
226.3148780859566
 21
150.1676724482961
 31
0.0
  0
LINE
  5
3FD1
330
18
100
AcDbEntity
  8
1
  6
Continuous
100
AcDbLine
 10
228.9148780859575
 20
134.8382374483497
 30
0.0
 11
226.3148780859911
 21
134.838237448352
 31
0.0
  0
LINE
  5
3FD2
330
18
100
AcDbEntity
  8
4
  6
CENTER
 48
0.2
100
AcDbLine
 10
220.7148780859564
 20
124.6676724482962
 30
0.0
 11
245.4148780859565
 21
124.6676724482962
 31
0.0
  0
LINE
  5
3FD3
330
18
100
AcDbEntity
  8
1
  6
Continuous
100
AcDbLine
 10
224.7148780859564
 20
118.4176724482962
 30
0.0
 11
224.7148780859564
 21
130.9176724482962
 31
0.0
  0
LINE
  5
3FD4
330
18
100
AcDbEntity
  8
1
  6
Continuous
100
AcDbLine
 10
224.0148780859564
 20
119.1676724482962
 30
0.0
 11
224.0148780859564
 21
130.1676724482962
 31
0.0
  0
LINE
  5
3FD5
330
18
100
AcDbEntity
  8
1
  6
Continuous
100
AcDbLine
 10
224.7148780859564
 20
130.9176724482962
 30
0.0
 11
226.3148780859564
 21
130.9176724482962
 31
0.0
  0
LINE
  5
3FD6
330
18
100
AcDbEntity
  8
1
  6
Continuous
100
AcDbLine
 10
223.2148780859564
 20
121.6676724482962
 30
0.0
 11
223.2148780859564
 21
127.6676724482962
 31
0.0
  0
LINE
  5
3FD7
330
18
100
AcDbEntity
  8
1
  6
Continuous
100
AcDbLine
 10
222.7148780859564
 20
122.1676724482962
 30
0.0
 11
222.7148780859564
 21
127.1676724482962
 31
0.0
  0
LINE
  5
3FD8
330
18
100
AcDbEntity
  8
1
  6
Continuous
100
AcDbLine
 10
223.2148780859564
 20
121.6676724482962
 30
0.0
 11
222.7148780859564
 21
122.1676724482962
 31
0.0
  0
LINE
  5
3FD9
330
18
100
AcDbEntity
  8
1
  6
Continuous
100
AcDbLine
 10
223.2148780859564
 20
121.6676724482962
 30
0.0
 11
224.0148780859564
 21
121.6676724482962
 31
0.0
  0
LINE
  5
3FDA
330
18
100
AcDbEntity
  8
1
  6
Continuous
100
AcDbLine
 10
222.7148780859564
 20
127.1676724482962
 30
0.0
 11
223.2148780859564
 21
127.6676724482962
 31
0.0
  0
LINE
  5
3FDB
330
18
100
AcDbEntity
  8
1
  6
Continuous
100
AcDbLine
 10
223.2148780859564
 20
127.6676724482962
 30
0.0
 11
224.0148780859564
 21
127.6676724482962
 31
0.0
  0
LINE
  5
3FDC
330
18
100
AcDbEntity
  8
1
  6
Continuous
100
AcDbLine
 10
224.0148780859564
 20
130.1676724482962
 30
0.0
 11
224.7148780859564
 21
130.1676724482962
 31
0.0
  0
LINE
  5
3FDD
330
18
100
AcDbEntity
  8
1
  6
Continuous
100
AcDbLine
 10
224.7148780859564
 20
118.4176724482962
 30
0.0
 11
226.3148780859564
 21
118.4176724482962
 31
0.0
  0
LINE
  5
3FDE
330
18
100
AcDbEntity
  8
1
  6
Continuous
100
AcDbLine
 10
224.0148780859564
 20
119.1676724482962
 30
0.0
 11
224.7148780859564
 21
119.1676724482962
 31
0.0
  0
ARC
  5
3FDF
330
18
100
AcDbEntity
  8
1
  6
Continuous
100
AcDbCircle
 10
228.9148780859564
 20
133.8382374483497
 30
0.0
 40
1.0
100
AcDbArc
 50
0.0
 51
90.00000000000005
  0
LINE
  5
3FE0
330
18
100
AcDbEntity
  8
1
  6
Continuous
100
AcDbLine
 10
238.9148780859565
 20
132.6676724482962
 30
0.0
 11
240.9148780859565
 21
132.6676724482962
 31
0.0
  0
ARC
  5
3FE1
330
18
100
AcDbEntity
  8
1
  6
Continuous
100
AcDbCircle
 10
235.1148780859565
 20
145.0865344482961
 30
0.0
 40
3.0
100
AcDbArc
 50
0.0
 51
71.56505100000206
  0
ARC
  5
3FE2
330
18
100
AcDbEntity
  8
1
  6
Continuous
100
AcDbCircle
 10
237.7468780859337
 20
124.6676724482962
 30
0.0
 40
5.668000000022742
100
AcDbArc
 50
303.981646584094
 51
56.01835341590593
  0
LINE
  5
3FE5
330
18
100
AcDbEntity
  8
1
  6
Continuous
100
AcDbLine
 10
238.1148780859565
 20
131.6676724482961
 30
0.0
 11
238.6148780859565
 21
131.6676724482961
 31
0.0
  0
LINE
  5
3FE6
330
18
100
AcDbEntity
  8
1
  6
Continuous
100
AcDbLine
 10
238.6148780859565
 20
131.6676724482961
 30
0.0
 11
238.6148780859564
 21
117.6676724482963
 31
0.0
  0
LINE
  5
3FEF
330
18
100
AcDbEntity
  8
4
  6
CENTER
 48
0.2
100
AcDbLine
 10
228.7148780859565
 20
104.667672448294
 30
0.0
 11
240.9148780859565
 21
104.667672448295
 31
0.0
  0
LINE
  5
3FF1
330
18
100
AcDbEntity
  8
1
  6
Continuous
100
AcDbLine
 10
229.3582950859564
 20
99.16767244829614
 30
0.0
 11
226.3148780859563
 21
99.16767244829614
 31
0.0
  0
LINE
  5
3FF5
330
18
100
AcDbEntity
  8
1
  6
Continuous
100
AcDbLine
 10
232.4148780859565
 20
84.78904070153602
 30
0.0
 11
232.4148780859565
 21
100.1865336002458
 31
0.0
  0
LINE
  5
3FF6
330
18
100
AcDbEntity
  8
1
  6
Continuous
100
AcDbLine
 10
234.4148780859565
 20
84.78904070153602
 30
0.0
 11
234.4148780859566
 21
100.8532003663366
 31
0.0
  0
LINE
  5
3FF7
330
18
100
AcDbEntity
  8
1
  6
Continuous
100
AcDbLine
 10
240.6174613454016
 20
100.1190118386463
 30
0.0
 11
236.9148780859564
 21
93.2231870914361
 31
0.0
  0
ARC
  5
3FF8
330
18
100
AcDbEntity
  8
1
  6
Continuous
100
AcDbCircle
 10
238.4148780859563
 20
101.3016474482961
 30
0.0
 40
2.5
100
AcDbArc
 50
329.9999999999994
 51
0.0
  0
LINE
  5
4003
330
18
100
AcDbEntity
  8
1
  6
Continuous
100
AcDbLine
 10
234.4148780859565
 20
84.78904070153602
 30
0.0
 11
232.4148780859565
 21
84.78904070153602
 31
0.0
  0
LINE
  5
4004
330
18
100
AcDbEntity
  8
1
  6
Continuous
100
AcDbLine
 10
234.4148780859565
 20
94.16767244829427
 30
0.0
 11
234.9148780859565
 21
94.16767244829427
 31
0.0
  0
LINE
  5
4006
330
18
100
AcDbEntity
  8
1
  6
Continuous
100
AcDbLine
 10
236.9148780859565
 20
116.667671837089
 30
0.0
 11
236.9148780859565
 21
87.1676724482943
 31
0.0
  0
LINE
  5
4007
330
18
100
AcDbEntity
  8
1
  6
Continuous
100
AcDbLine
 10
234.9148780859296
 20
86.66767244829429
 30
0.0
 11
234.4148780859565
 21
86.66767244829429
 31
0.0
  0
LINE
  5
4008
330
18
100
AcDbEntity
  8
1
  6
Continuous
100
AcDbLine
 10
232.9148780859267
 20
84.66767244829737
 30
0.0
 11
232.9148780859268
 21
84.78904070153602
 31
0.0
  0
LINE
  5
4009
330
18
100
AcDbEntity
  8
1
  6
Continuous
100
AcDbLine
 10
234.4148780859303
 20
84.6676724482943
 30
0.0
 11
232.9148780859267
 21
84.6676724482943
 31
0.0
  0
ARC
  5
400A
330
18
100
AcDbEntity
  8
1
  6
Continuous
100
AcDbCircle
 10
234.4148780859303
 20
87.1676724482943
 30
0.0
 40
2.5
100
AcDbArc
 50
270.0
 51
0.0
  0
LINE
  5
43C7
330
18
100
AcDbEntity
  8
1
  6
Continuous
100
AcDbLine
 10
232.414878085956
 20
132.6676724482964
 30
0.0
 11
232.414878085956
 21
96.66763244837229
 31
0.0
  0
LINE
  5
43C8
330
18
100
AcDbEntity
  8
1
  6
Continuous
100
AcDbLine
 10
234.4148780859559
 20
132.6676724482964
 30
0.0
 11
234.414878085956
 21
96.66763244836705
 31
0.0
  0
LINE
  5
43C9
330
18
100
AcDbEntity
  8
1
  6
Continuous
100
AcDbLine
 10
228.1148780859563
 20
132.6676694482963
 30
0.0
 11
226.3148780859563
 21
132.6676724482962
 31
0.0
  0
LINE
  5
43CA
330
18
100
AcDbEntity
  8
1
  6
Continuous
100
AcDbLine
 10
231.2131530859561
 20
118.448343448291
 30
0.0
 11
228.114878085956
 21
117.48013229522
 31
0.0
  0
LINE
  5
43CB
330
18
100
AcDbEntity
  8
1
  6
Continuous
100
AcDbLine
 10
231.2131530859561
 20
130.8869214482911
 30
0.0
 11
228.114878085956
 21
131.8551326013623
 31
0.0
  0
LINE
  5
43CC
330
18
100
AcDbEntity
  8
1
  6
Continuous
100
AcDbLine
 10
228.1148780859562
 20
116.667705448296
 30
0.0
 11
228.1148780859563
 21
132.6676694482961
 31
0.0
  0
LINE
  5
43CD
330
18
100
AcDbEntity
  8
1
  6
Continuous
100
AcDbLine
 10
235.4148780857173
 20
128.6676324482894
 30
0.0
 11
235.4148780857173
 21
120.6676324482893
 31
0.0
  0
LINE
  5
43CE
330
18
100
AcDbEntity
  8
1
  6
Continuous
100
AcDbLine
 10
231.914878085956
 20
129.6676324482912
 30
0.0
 11
231.914878085956
 21
119.6676324482912
 31
0.0
  0
LINE
  5
43CF
330
18
100
AcDbEntity
  8
1
  6
Continuous
100
AcDbLine
 10
231.914878085956
 20
129.9324414482912
 30
0.0
 11
231.914878085956
 21
119.4028234482912
 31
0.0
  0
LINE
  5
43D0
330
18
100
AcDbEntity
  8
1
  6
Continuous
100
AcDbLine
 10
234.414878085956
 20
92.667672448291
 30
0.0
 11
232.4148780859492
 21
92.66767244829646
 31
0.0
  0
ARC
  5
43D1
330
18
100
AcDbEntity
  8
1
  6
Continuous
100
AcDbCircle
 10
230.914878085956
 20
119.4028234482912
 30
0.0
 40
1.0
100
AcDbArc
 50
287.3540249999999
 51
0.0
  0
LINE
  5
43D2
330
18
100
AcDbEntity
  8
1
  6
Continuous
100
AcDbLine
 10
231.914878085956
 20
119.6676324482895
 30
0.0
 11
232.414878085956
 21
119.6676324482895
 31
0.0
  0
ARC
  5
43D3
330
18
100
AcDbEntity
  8
1
  6
Continuous
100
AcDbCircle
 10
234.9148780858369
 20
124.6362594149011
 30
0.0
 40
4.0
100
AcDbArc
 50
262.8192442202704
 51
277.1807557797295
  0
LINE
  5
43D4
330
18
100
AcDbEntity
  8
1
  6
Continuous
100
AcDbLine
 10
231.914878085956
 20
129.6676324482896
 30
0.0
 11
232.414878085956
 21
129.6676324482896
 31
0.0
  0
ARC
  5
43D5
330
18
100
AcDbEntity
  8
1
  6
Continuous
100
AcDbCircle
 10
234.9148780858369
 20
124.6990054816774
 30
0.0
 40
4.0
100
AcDbArc
 50
82.81924422026959
 51
97.18075577973042
  0
ARC
  5
43D6
330
18
100
AcDbEntity
  8
1
  6
Continuous
100
AcDbCircle
 10
230.914878085956
 20
129.9324414482912
 30
0.0
 40
1.0
100
AcDbArc
 50
0.0
 51
72.64597500000009
  0
LINE
  5
4AC5
330
18
100
AcDbEntity
  8
1
  6
Continuous
100
AcDbLine
 10
228.1148780859563
 20
116.6676754482961
 30
0.0
 11
226.3148780859563
 21
116.6676724482962
 31
0.0
  0
LINE
  5
4AC6
330
18
100
AcDbEntity
  8
1
  6
Continuous
100
AcDbLine
 10
228.9148780859575
 20
114.4971074482426
 30
0.0
 11
226.3148780859911
 21
114.4971074482403
 31
0.0
  0
ARC
  5
4AC7
330
18
100
AcDbEntity
  8
1
  6
Continuous
100
AcDbCircle
 10
228.9148780859564
 20
115.4971074482426
 30
0.0
 40
1.0
100
AcDbArc
 50
270.0
 51
0.0
  0
LINE
  5
4AC8
330
18
100
AcDbEntity
  8
1
  6
Continuous
100
AcDbLine
 10
229.9148780859562
 20
118.0426324204601
 30
0.0
 11
229.9148780859563
 21
115.4971064482718
 31
0.0
  0
LINE
  5
4AC9
330
18
100
AcDbEntity
  8
1
  6
Continuous
100
AcDbLine
 10
232.4148780859561
 20
132.6676724482964
 30
0.0
 11
234.414878085956
 21
132.6676724482964
 31
0.0
  0
LINE
  5
4AF1
330
18
100
AcDbEntity
  8
1
  6
Continuous
100
AcDbLine
 10
232.414878085956
 20
100.1865336002455
 30
0.0
 11
229.3582950859564
 21
99.16767244829625
 31
0.0
  0
LINE
  5
7820
330
18
100
AcDbEntity
  8
1
  6
Continuous
100
AcDbLine
 10
236.9148780859565
 20
632.6676724482961
 30
0.0
 11
234.9148780859564
 21
632.6676724482961
 31
0.0
  0
ARC
  5
78B1
330
18
100
AcDbEntity
  8
1
  6
Continuous
 48
0.25
100
AcDbCircle
 10
113.0648780859578
 20
470.6676724482606
 30
0.0
 40
4.299999999999998
100
AcDbArc
 50
115.8868630000004
 51
174.1131879999998
  0
ARC
  5
78B2
330
18
100
AcDbEntity
  8
1
  6
Continuous
 48
0.25
100
AcDbCircle
 10
109.1854450859577
 20
471.0676744482608
 30
0.0
 40
0.4
100
AcDbArc
 50
174.1132429999991
 51
270.0000009999997
  0
ARC
  5
78B3
330
18
100
AcDbEntity
  8
1
  6
Continuous
 48
0.25
100
AcDbCircle
 10
113.0648780859578
 20
470.6676724482606
 30
0.0
 40
4.299999999999998
100
AcDbArc
 50
5.886828999999456
 51
64.11316199999996
  0
ARC
  5
78B4
330
18
100
AcDbEntity
  8
1
  6
Continuous
 48
0.25
100
AcDbCircle
 10
116.9443110859579
 20
471.0676744482608
 30
0.0
 40
0.4
100
AcDbArc
 50
270.0000179999999
 51
5.88675299999951
  0
ARC
  5
78B5
330
18
100
AcDbEntity
  8
1
  6
Continuous
 48
0.25
100
AcDbCircle
 10
116.8886280859578
 20
467.2929244482608
 30
0.0
 40
0.4
100
AcDbArc
 50
209.9999339999987
 51
318.5689329999992
  0
ARC
  5
78B7
330
18
100
AcDbEntity
  8
1
  6
Continuous
 48
0.25
100
AcDbCircle
 10
109.2411280859578
 20
467.2929244482608
 30
0.0
 40
0.4
100
AcDbArc
 50
221.4308710000005
 51
329.9999479999997
  0
LINE
  5
78B8
330
18
100
AcDbEntity
  8
1
  6
Continuous
 48
0.25
100
AcDbLine
 10
109.5875390859578
 20
467.0929274482608
 30
0.0
 11
110.6353332861096
 21
468.9077542497675
 31
0.0
  0
LINE
  5
78BA
330
18
100
AcDbEntity
  8
1
  6
Continuous
 48
0.25
100
AcDbLine
 10
109.1854450859577
 20
470.6676724482606
 30
0.0
 11
110.0648780859578
 21
470.6676724482606
 31
0.0
  0
LINE
  5
78BB
330
18
100
AcDbEntity
  8
1
  6
Continuous
 48
0.25
100
AcDbLine
 10
115.4944260276951
 20
468.9077585871139
 30
0.0
 11
116.5422190859578
 21
467.0929274482608
 31
0.0
  0
LINE
  5
78BC
330
18
100
AcDbEntity
  8
1
  6
Continuous
 48
0.25
100
AcDbLine
 10
116.0648780859578
 20
470.6676724482606
 30
0.0
 11
116.9443110859579
 21
470.6676724482606
 31
0.0
  0
LINE
  5
78BF
330
18
100
AcDbEntity
  8
1
  6
Continuous
 48
0.25
100
AcDbLine
 10
111.7380330859577
 20
474.3131494482606
 30
0.0
 11
112.038819369714
 21
473.4867509344065
 31
0.0
  0
ARC
  5
78C0
330
18
100
AcDbEntity
  8
1
  6
Continuous
 48
0.25
100
AcDbCircle
 10
111.3621570859578
 20
474.1763394482608
 30
0.0
 40
0.4
100
AcDbArc
 50
20.00012199999896
 51
115.8869450000001
  0
LINE
  5
78C1
330
18
100
AcDbEntity
  8
1
  6
Continuous
 48
0.25
100
AcDbLine
 10
114.0909361620716
 20
473.4867511673941
 30
0.0
 11
114.3917210859578
 21
474.3131494482606
 31
0.0
  0
ARC
  5
78C2
330
18
100
AcDbEntity
  8
1
  6
Continuous
 48
0.25
100
AcDbCircle
 10
114.7675990859578
 20
474.1763394482608
 30
0.0
 40
0.4
100
AcDbArc
 50
64.11307300000001
 51
159.9999950000014
  0
CIRCLE
  5
78F4
330
18
100
AcDbEntity
  8
1
  6
Continuous
100
AcDbCircle
 10
113.0648787960647
 20
254.6676724482961
 30
0.0
 40
4.5
  0
CIRCLE
  5
78F5
330
18
100
AcDbEntity
  8
1
  6
Continuous
100
AcDbCircle
 10
113.0648787960644
 20
254.6676724482963
 30
0.0
 40
5.455
  0
CIRCLE
  5
791C
330
18
100
AcDbEntity
  8
1
  6
Continuous
100
AcDbCircle
 10
113.0648787960647
 20
254.6676724482964
 30
0.0
 40
2.5
  0
LINE
  5
7FD5
330
18
100
AcDbEntity
  8
1
  6
Continuous
100
AcDbLine
 10
234.9148780859563
 20
116.6676718370889
 30
0.0
 11
240.9148780859564
 21
116.667671837089
 31
0.0
  0
LINE
  5
7FEB
330
18
100
AcDbEntity
  8
1
  6
Continuous
100
AcDbLine
 10
234.9148780859563
 20
116.667671837089
 30
0.0
 11
234.9148780859565
 21
84.71818270551649
 31
0.0
  0
LINE
  5
8078
330
18
100
AcDbEntity
  8
1
  6
Continuous
100
AcDbLine
 10
238.1148780859565
 20
117.6676724482963
 30
0.0
 11
238.6148780859565
 21
117.6676724482963
 31
0.0
  0
LINE
  5
8091
330
18
100
AcDbEntity
  8
1
  6
Continuous
100
AcDbLine
 10
234.9148780859565
 20
346.6676724482963
 30
0.0
 11
236.9148780859565
 21
346.6676724482963
 31
0.0
  0
LINE
  5
812B
330
18
100
AcDbEntity
  8
1
  6
Continuous
100
AcDbLine
 10
469.2148780859574
 20
378.6676723741219
 30
0.0
 11
471.2148780859575
 21
378.6676723741219
 31
0.0
  0
LINE
  5
812C
330
18
100
AcDbEntity
  8
1
  6
Continuous
100
AcDbLine
 10
473.7148780859574
 20
346.6676724482963
 30
0.0
 11
471.7148780859575
 21
346.6676724482963
 31
0.0
  0
LINE
  5
8189
330
18
100
AcDbEntity
  8
1
  6
Continuous
100
AcDbLine
 10
232.4148780859565
 20
375.4076724482964
 30
0.0
 11
234.4148780859565
 21
375.4076724482964
 31
0.0
  0
LINE
  5
818A
330
18
100
AcDbEntity
  8
1
  6
Continuous
100
AcDbLine
 10
471.2148780859575
 20
365.4176724482961
 30
0.0
 11
473.2148780859573
 21
365.417672448296
 31
0.0
  0
LINE
  5
818B
330
18
100
AcDbEntity
  8
1
  6
Continuous
100
AcDbLine
 10
471.2148780859575
 20
360.9176724482961
 30
0.0
 11
473.2148780859573
 21
360.9176724482961
 31
0.0
  0
LINE
  5
818C
330
18
100
AcDbEntity
  8
1
  6
Continuous
100
AcDbLine
 10
473.2148780859573
 20
365.4176724482961
 30
0.0
 11
473.2148780859573
 21
360.9176724482961
 31
0.0
  0
LINE
  5
818D
330
18
100
AcDbEntity
  8
1
  6
Continuous
100
AcDbLine
 10
471.7148780859575
 20
360.9176724482961
 30
0.0
 11
471.7148780859575
 21
246.6676724483761
 31
0.0
  0
LINE
  5
818E
330
18
100
AcDbEntity
  8
1
  6
Continuous
100
AcDbLine
 10
471.2148780859575
 20
360.9176724482961
 30
0.0
 11
471.2148780859575
 21
342.6676724482963
 31
0.0
  0
LINE
  5
818F
330
18
100
AcDbEntity
  8
1
  6
Continuous
100
AcDbLine
 10
473.7148780859574
 20
360.4676724482962
 30
0.0
 11
471.7148780859575
 21
360.4676724482962
 31
0.0
  0
ARC
  5
81DB
330
18
100
AcDbEntity
  8
1
  6
Continuous
100
AcDbCircle
 10
231.6556384969209
 20
600.6676724482961
 30
0.0
 40
1.939239589035365
100
AcDbArc
 50
303.8598546471214
 51
56.14014535287859
  0
ARC
  5
81DC
330
18
100
AcDbEntity
  8
1
  6
Continuous
100
AcDbCircle
 10
229.9148780859563
 20
598.0732227247987
 30
0.0
 40
5.063566104644336
100
AcDbArc
 50
56.14014535287736
 51
90.0
  0
ARC
  5
81DF
330
18
100
AcDbEntity
  8
1
  6
Continuous
100
AcDbCircle
 10
229.9148780859563
 20
603.2621221717935
 30
0.0
 40
5.063566104644336
100
AcDbArc
 50
270.0
 51
303.8598546471226
  0
CIRCLE
  5
81EA
330
18
100
AcDbEntity
  8
1
  6
Continuous
100
AcDbCircle
 10
113.0648780859578
 20
470.6676724483013
 30
0.0
 40
3.0
  0
LINE
  5
81ED
330
18
100
AcDbEntity
  8
1
  6
Continuous
100
AcDbLine
 10
229.9148780859565
 20
448.8677404482962
 30
0.0
 11
229.9148780859565
 21
437.1676724482963
 31
0.0
  0
LINE
  5
81EE
330
18
100
AcDbEntity
  8
1
  6
Continuous
100
AcDbLine
 10
476.2148780859575
 20
448.8677404482962
 30
0.0
 11
476.2148780859575
 21
437.1676724482963
 31
0.0
  0
LINE
  5
81F6
330
18
100
AcDbEntity
  8
1
  6
Continuous
100
AcDbLine
 10
238.9148780859565
 20
463.3383678501028
 30
0.0
 11
238.1148780859565
 21
462.4697886314403
 31
0.0
  0
LINE
  5
81FB
330
18
100
AcDbEntity
  8
1
  6
Continuous
100
AcDbLine
 10
238.7916743311846
 20
447.2651226883047
 30
0.0
 11
235.2844893502724
 21
440.8701776065226
 31
0.0
  0
ARC
  5
81FD
330
18
100
AcDbEntity
  8
1
  6
Continuous
100
AcDbCircle
 10
237.9148780859566
 20
439.4275913528843
 30
0.0
 40
3.0
100
AcDbArc
 50
151.2582787393141
 51
180.0
  0
ARC
  5
81FF
330
18
100
AcDbEntity
  8
1
  6
Continuous
100
AcDbCircle
 10
237.9148780859566
 20
447.7459847728509
 30
0.0
 40
1.0
100
AcDbArc
 50
331.2582787393141
 51
0.000000000000007
  0
ARC
  5
8205
330
18
100
AcDbEntity
  8
1
  6
Continuous
100
AcDbCircle
 10
468.214878085957
 20
466.2784588740178
 30
0.0
 40
3.0
100
AcDbArc
 50
180.0
 51
208.7417212606858
  0
ARC
  5
8206
330
18
100
AcDbEntity
  8
1
  6
Continuous
100
AcDbCircle
 10
468.214878085957
 20
466.2784588740178
 30
0.0
 40
1.0
100
AcDbArc
 50
180.0
 51
208.7417212606858
  0
LINE
  5
8207
330
18
100
AcDbEntity
  8
1
  6
Continuous
100
AcDbLine
 10
467.3380818407292
 20
465.7975967894716
 30
0.0
 11
470.8452668216413
 21
459.4026517076896
 31
0.0
  0
LINE
  5
8208
330
18
100
AcDbEntity
  8
1
  6
Continuous
100
AcDbLine
 10
465.5844893502731
 20
464.8358726203793
 30
0.0
 11
469.0916743311852
 21
458.4409275385974
 31
0.0
  0
ARC
  5
8209
330
18
100
AcDbEntity
  8
1
  6
Continuous
100
AcDbCircle
 10
468.214878085957
 20
457.9600654540513
 30
0.0
 40
1.0
100
AcDbArc
 50
0.000000000000007
 51
28.7417212606858
  0
ARC
  5
820A
330
18
100
AcDbEntity
  8
1
  6
Continuous
100
AcDbCircle
 10
468.214878085957
 20
457.9600654540512
 30
0.0
 40
3.0
100
AcDbArc
 50
0.000000000000007
 51
28.7417212606858
  0
LINE
  5
8415
330
18
100
AcDbEntity
  8
1
  6
Continuous
100
AcDbLine
 10
356.0696481212672
 20
485.3636364192255
 30
0.0
 11
356.277559812085
 21
486.3417840199595
 31
0.0
  0
LINE
  5
8416
330
18
100
AcDbEntity
  8
1
  6
Continuous
100
AcDbLine
 10
357.6888092109023
 20
483.8821074234127
 30
0.0
 11
358.3728494975538
 21
485.7614926649845
 31
0.0
  0
LINE
  5
8417
330
18
100
AcDbEntity
  8
1
  6
Continuous
100
AcDbLine
 10
354.7046952207893
 20
486.6023068738669
 30
0.0
 11
354.0008455874507
 21
484.6364493781035
 31
0.0
  0
LINE
  5
8418
330
18
100
AcDbEntity
  8
1
  6
Continuous
100
AcDbLine
 10
354.0008455874507
 20
484.6364493781035
 30
0.0
 11
353.5063397790837
 21
486.6651100213583
 31
0.0
  0
ARC
  5
8419
330
18
100
AcDbEntity
  8
1
  6
Continuous
100
AcDbCircle
 10
366.2622338901554
 20
478.8456939698873
 30
0.0
 40
0.4742035672174262
100
AcDbArc
 50
334.0053832080851
 51
89.99461679191488
  0
ARC
  5
841A
330
18
100
AcDbEntity
  8
1
  6
Continuous
100
AcDbCircle
 10
365.032773450082
 20
480.5580395223576
 30
0.0
 40
0.4742035672174262
100
AcDbArc
 50
342.0053832080852
 51
97.9946167919148
  0
LINE
  5
841B
330
18
100
AcDbEntity
  8
1
  6
Continuous
100
AcDbLine
 10
365.878074345098
 20
476.3087917757778
 30
0.0
 11
367.7051652603832
 21
477.1222650619296
 31
0.0
  0
LINE
  5
841C
330
18
100
AcDbEntity
  8
1
  6
Continuous
100
AcDbLine
 10
361.0711038648249
 20
482.152462615658
 30
0.0
 11
362.2182567375272
 21
483.7907667042361
 31
0.0
  0
LINE
  5
841D
330
18
100
AcDbEntity
  8
1
  6
Continuous
100
AcDbLine
 10
362.1283313346463
 20
481.358102924609
 30
0.0
 11
363.4923280547714
 21
482.8208103278472
 31
0.0
  0
LINE
  5
841E
330
18
100
AcDbEntity
  8
1
  6
Continuous
100
AcDbLine
 10
362.9693880915084
 20
480.5738048105371
 30
0.0
 11
364.3333848116334
 21
482.0365122137753
 31
0.0
  0
ARC
  5
841F
330
18
100
AcDbEntity
  8
1
  6
Continuous
100
AcDbCircle
 10
360.1190152235366
 20
484.447889249051
 30
0.0
 40
0.5207118820758546
100
AcDbArc
 50
7.888268099409429
 51
118.1117319005906
  0
LINE
  5
8420
330
18
100
AcDbEntity
  8
1
  6
Continuous
100
AcDbLine
 10
365.6340323592524
 20
476.8569190503634
 30
0.0
 11
366.1221163309435
 21
475.7606645011922
 31
0.0
  0
ARC
  5
8421
330
18
100
AcDbEntity
  8
1
  6
Continuous
100
AcDbCircle
 10
364.2272065789924
 20
479.8820886579377
 30
0.0
 40
0.4742035672174262
100
AcDbArc
 50
162.0053832080852
 51
277.9946167919147
  0
ARC
  5
8422
330
18
100
AcDbEntity
  8
1
  6
Continuous
100
AcDbCircle
 10
365.3705257722936
 20
479.2805053731501
 30
0.0
 40
1.466274292452125
100
AcDbArc
 50
269.9946167919147
 51
334.0053832080851
  0
ARC
  5
8423
330
18
100
AcDbEntity
  8
1
  6
Continuous
100
AcDbCircle
 10
366.2621406804427
 20
477.8536232490314
 30
0.0
 40
1.466274292452125
100
AcDbArc
 50
89.99461679191488
 51
154.0053832080852
  0
ARC
  5
8424
330
18
100
AcDbEntity
  8
1
  6
Continuous
100
AcDbCircle
 10
364.089229323001
 20
480.8645175870195
 30
0.0
 40
1.466274292452125
100
AcDbArc
 50
277.9946167919147
 51
342.0053832080852
  0
ARC
  5
8425
330
18
100
AcDbEntity
  8
1
  6
Continuous
100
AcDbCircle
 10
365.3704325625811
 20
478.2884346522941
 30
0.0
 40
0.4742035672174262
100
AcDbArc
 50
154.0053832080852
 51
269.9946167919147
  0
LINE
  5
8426
330
18
100
AcDbEntity
  8
1
  6
Continuous
100
AcDbLine
 10
363.6513864515708
 20
481.3051585121563
 30
0.0
 11
362.8103296947088
 21
482.0894566262281
 31
0.0
  0
LINE
  5
8427
330
18
100
AcDbEntity
  8
1
  6
Continuous
100
AcDbLine
 10
356.0696481212672
 20
485.3636364192255
 30
0.0
 11
355.2748478700092
 21
484.5102358329826
 31
0.0
  0
ARC
  5
8428
330
18
100
AcDbEntity
  8
1
  6
Continuous
100
AcDbCircle
 10
360.5862435118614
 20
483.5636428426584
 30
0.0
 40
1.520805338277071
100
AcDbArc
 50
117.940661856351
 51
149.3633132383562
  0
LINE
  5
8429
330
18
100
AcDbEntity
  8
1
  6
Continuous
100
AcDbLine
 10
359.2777184044292
 20
484.338633758832
 30
0.0
 11
359.687713523468
 21
485.1432944866632
 31
0.0
  0
LINE
  5
842A
330
18
100
AcDbEntity
  8
1
  6
Continuous
100
AcDbLine
 10
359.2777184044292
 20
484.338633758832
 30
0.0
 11
359.8917275234871
 21
484.0257804864503
 31
0.0
  0
ARC
  5
842B
330
18
100
AcDbEntity
  8
1
  6
Continuous
100
AcDbCircle
 10
360.673830986503
 20
483.735542940541
 30
0.0
 40
1.520805338277071
100
AcDbArc
 50
178.7201063039169
 51
188.0593381436489
  0
LINE
  5
842C
330
18
100
AcDbEntity
  8
1
  6
Continuous
100
AcDbLine
 10
356.4486249908899
 20
484.2607418040011
 30
0.0
 11
356.0696481212672
 21
485.3636364192255
 31
0.0
  0
ARC
  5
842D
330
18
100
AcDbEntity
  8
1
  6
Continuous
100
AcDbCircle
 10
359.174117251259
 20
484.3914211829693
 30
0.0
 40
1.466274292452125
100
AcDbArc
 50
300.9946167919147
 51
5.005383208085198
  0
ARC
  5
842E
330
18
100
AcDbEntity
  8
1
  6
Continuous
100
AcDbCircle
 10
359.6838307191855
 20
483.5937915689783
 30
0.0
 40
0.5207118820758546
100
AcDbArc
 50
187.8882680994094
 51
298.1117319005905
  0
LINE
  5
842F
330
18
100
AcDbEntity
  8
1
  6
Continuous
100
AcDbLine
 10
354.4407516082872
 20
485.8651103129554
 30
0.0
 11
353.6917794572214
 21
485.9043622801378
 31
0.0
  0
ENDSEC
  0
SECTION
  2
OBJECTS
  0
DICTIONARY
  5
C
330
0
100
AcDbDictionary
281
     1
  3
ACAD_CIP_PREVIOUS_PRODUCT_INFO
350
84DC
  3
ACAD_COLOR
350
84BF
  3
ACAD_DETAILVIEWSTYLE
350
84D8
  3
ACAD_GROUP
350
D
  3
ACAD_LAYOUT
350
94
  3
ACAD_MATERIAL
350
848D
  3
ACAD_MLEADERSTYLE
350
84D4
  3
ACAD_MLINESTYLE
350
1B
  3
ACAD_PLOTSETTINGS
350
95
  3
ACAD_PLOTSTYLENAME
350
848B
  3
ACAD_SCALELIST
350
84C2
  3
ACAD_SECTIONVIEWSTYLE
350
84D6
  3
ACAD_TABLESTYLE
350
84C0
  3
ACAD_VISUALSTYLE
350
84A6
  3
ACDB_RECOMPOSE_DATA
350
84FA
  3
AcDbVariableDictionary
350
84ED
  3
CONTENTDICTIONARY
350
3D
  3
DWGPROPS
350
84FB
  0
DICTIONARY
  5
84DD
330
E
100
AcDbDictionary
280
     1
281
     1
  3
ADSK_XREC_LAYER_RECONCILED
360
84DE
  0
DICTIONARY
  5
84DF
330
4E
100
AcDbDictionary
280
     1
281
     1
  3
ADSK_XREC_LAYER_RECONCILED
360
84E0
  0
DICTIONARY
  5
84E1
330
4F
100
AcDbDictionary
280
     1
281
     1
  3
ADSK_XREC_LAYER_RECONCILED
360
84E2
  0
DICTIONARY
  5
84E3
330
50
100
AcDbDictionary
280
     1
281
     1
  3
ADSK_XREC_LAYER_RECONCILED
360
84E4
  0
DICTIONARY
  5
84E5
330
51
100
AcDbDictionary
280
     1
281
     1
  3
ADSK_XREC_LAYER_RECONCILED
360
84E6
  0
DICTIONARY
  5
84E7
330
52
100
AcDbDictionary
280
     1
281
     1
  3
ADSK_XREC_LAYER_RECONCILED
360
84E8
  0
DICTIONARY
  5
84E9
330
53
100
AcDbDictionary
280
     1
281
     1
  3
ADSK_XREC_LAYER_RECONCILED
360
84EA
  0
DICTIONARY
  5
84EB
330
54
100
AcDbDictionary
280
     1
281
     1
  3
ADSK_XREC_LAYER_RECONCILED
360
84EC
  0
DICTIONARY
  5
8486
330
18
100
AcDbDictionary
281
     1
  3
ACAD_LAYOUTSELFREF
350
8487
  0
DICTIONARY
  5
8484
330
15
100
AcDbDictionary
281
     1
  3
ACAD_LAYOUTSELFREF
350
8485
  0
XRECORD
  5
84DC
102
{ACAD_REACTORS
330
C
102
}
330
C
100
AcDbXrecord
280
     1
300
ACDLT
300
2014
300
ACDLT_F_S
  0
DICTIONARY
  5
84BF
102
{ACAD_REACTORS
330
C
102
}
330
C
100
AcDbDictionary
281
     1
  0
DICTIONARY
  5
84D8
102
{ACAD_REACTORS
330
C
102
}
330
C
100
AcDbDictionary
281
     1
  3
Imperial24
350
84D9
  0
DICTIONARY
  5
D
102
{ACAD_REACTORS
330
C
102
}
330
C
100
AcDbDictionary
281
     1
  0
DICTIONARY
  5
94
102
{ACAD_REACTORS
330
C
102
}
330
C
100
AcDbDictionary
281
     1
  3
Model
350
84DA
  3
レイアウト1
350
84DB
  0
DICTIONARY
  5
848D
102
{ACAD_REACTORS
330
C
102
}
330
C
100
AcDbDictionary
281
     1
  3
ByBlock
350
8496
  3
ByLayer
350
848E
  3
Global
350
849E
  0
DICTIONARY
  5
84D4
102
{ACAD_REACTORS
330
C
102
}
330
C
100
AcDbDictionary
281
     1
  3
Standard
350
84D5
  0
DICTIONARY
  5
1B
102
{ACAD_REACTORS
330
C
102
}
330
C
100
AcDbDictionary
281
     1
  3
STANDARD
350
1C
  0
DICTIONARY
  5
95
102
{ACAD_REACTORS
330
C
102
}
330
C
100
AcDbDictionary
281
     1
  0
ACDBDICTIONARYWDFLT
  5
848B
102
{ACAD_REACTORS
330
C
102
}
330
C
100
AcDbDictionary
281
     1
  3
Normal
350
848C
100
AcDbDictionaryWithDefault
340
848C
  0
DICTIONARY
  5
84C2
102
{ACAD_REACTORS
330
C
102
}
330
C
100
AcDbDictionary
281
     1
  3
A0
350
84C3
  3
A1
350
84C4
  3
A2
350
84C5
  3
A3
350
84C6
  3
A4
350
84C7
  3
A5
350
84C8
  3
A6
350
84C9
  3
A7
350
84CA
  3
A8
350
84CB
  3
A9
350
84CC
  3
B0
350
84CD
  3
B1
350
84CE
  3
B2
350
84CF
  3
B3
350
84D0
  3
B4
350
84D1
  3
B5
350
84D2
  3
B6
350
84D3
  0
DICTIONARY
  5
84D6
102
{ACAD_REACTORS
330
C
102
}
330
C
100
AcDbDictionary
281
     1
  3
Imperial24
350
84D7
  0
DICTIONARY
  5
84C0
102
{ACAD_REACTORS
330
C
102
}
330
C
100
AcDbDictionary
281
     1
  3
Standard
350
84C1
  0
DICTIONARY
  5
84A6
102
{ACAD_REACTORS
330
C
102
}
330
C
100
AcDbDictionary
281
     1
  3
2dWireframe
350
84AC
  3
Basic
350
84AB
  3
Brighten
350
84B2
  3
ColorChange
350
84B6
  3
Conceptual
350
84AF
  3
Dim
350
84B1
  3
EdgeColorOff
350
84BE
  3
Facepattern
350
84B5
  3
Flat
350
84A7
  3
FlatWithEdges
350
84A8
  3
Gouraud
350
84A9
  3
GouraudWithEdges
350
84AA
  3
Hidden
350
84AE
  3
JitterOff
350
84BC
  3
Linepattern
350
84B4
  3
OverhangOff
350
84BD
  3
Realistic
350
84B0
  3
Shaded
350
84BB
  3
Shaded with edges
350
84BA
  3
Shades of Gray
350
84B7
  3
Sketchy
350
84B8
  3
Thicken
350
84B3
  3
Wireframe
350
84AD
  3
X-Ray
350
84B9
  0
XRECORD
  5
84FA
102
{ACAD_REACTORS
330
C
102
}
330
C
100
AcDbXrecord
280
     1
 90
        1
330
84C1
  0
DICTIONARY
  5
84ED
102
{ACAD_REACTORS
330
C
102
}
330
C
100
AcDbDictionary
281
     1
  3
CANNOSCALE
350
84F2
  3
CMLEADERSTYLE
350
84EF
  3
CTABLESTYLE
350
84EE
  3
CVIEWDETAILSTYLE
350
84F0
  3
CVIEWSECTIONSTYLE
350
84F1
  3
DIMASSOC
350
84F5
  3
INDEXCTL
350
84F4
  3
SORTENTS
350
84F3
  3
XCLIPFRAME
350
84F6
  0
DICTIONARY
  5
3D
102
{ACAD_REACTORS
330
C
102
}
330
C
100
AcDbDictionary
281
     1
  0
XRECORD
  5
84FB
102
{ACAD_REACTORS
330
C
102
}
330
C
100
AcDbXrecord
280
     1
  1
DWGPROPS COOKIE
  2

  3

  4

  6

  7

  8
Yoshitsune
  9

300
=
301
=
302
=
303
=
304
=
305
=
306
=
307
=
308
=
309
=
 40
0.461766099537037
 41
2452051.395592083
 42
2457192.622163079
  1

 90
        0
  0
XRECORD
  5
84DE
102
{ACAD_REACTORS
330
84DD
102
}
330
84DD
100
AcDbXrecord
280
     1
290
     1
  0
XRECORD
  5
84E0
102
{ACAD_REACTORS
330
84DF
102
}
330
84DF
100
AcDbXrecord
280
     1
290
     1
  0
XRECORD
  5
84E2
102
{ACAD_REACTORS
330
84E1
102
}
330
84E1
100
AcDbXrecord
280
     1
290
     1
  0
XRECORD
  5
84E4
102
{ACAD_REACTORS
330
84E3
102
}
330
84E3
100
AcDbXrecord
280
     1
290
     1
  0
XRECORD
  5
84E6
102
{ACAD_REACTORS
330
84E5
102
}
330
84E5
100
AcDbXrecord
280
     1
290
     1
  0
XRECORD
  5
84E8
102
{ACAD_REACTORS
330
84E7
102
}
330
84E7
100
AcDbXrecord
280
     1
290
     1
  0
XRECORD
  5
84EA
102
{ACAD_REACTORS
330
84E9
102
}
330
84E9
100
AcDbXrecord
280
     1
290
     1
  0
XRECORD
  5
84EC
102
{ACAD_REACTORS
330
84EB
102
}
330
84EB
100
AcDbXrecord
280
     1
290
     1
  0
XRECORD
  5
8487
102
{ACAD_REACTORS
330
8486
102
}
330
8486
100
AcDbXrecord
280
     1
340
18
  0
XRECORD
  5
8485
102
{ACAD_REACTORS
330
8484
102
}
330
8484
100
AcDbXrecord
280
     1
340
15
  0
ACDBDETAILVIEWSTYLE
  5
84D9
102
{ACAD_XDICTIONARY
360
8533
102
}
102
{ACAD_REACTORS
330
84D8
102
}
330
84D8
100
AcDbModelDocViewStyle
 70
     0
  3
Imperial24
290
     0
100
AcDbDetailViewStyle
 70
     0
 71
     0
 90
        3
 71
     1
340
F
 40
0.24
340
0
 40
0.24
300

 40
0.36
280
     3
 71
     2
340
14
 90
       25
 71
     3
340
F
 40
0.24
 90
        1
 40
0.75
 90
        1
300
%<\AcVar ViewType \f "%tc1">% %<\AcVar ViewDetailId>%\PSCALE %<\AcVar ViewScale \f "%sn">%
 71
     4
340
14
 90
       25
340
14
 90
       25
280
     0
  0
LAYOUT
  5
84DA
102
{ACAD_XDICTIONARY
360
8535
102
}
102
{ACAD_REACTORS
330
94
102
}
330
94
100
AcDbPlotSettings
  1

  2
Canon LBP9100C
  4

  6

 40
0.0
 41
0.0
 42
0.0
 43
0.0
 44
0.0
 45
0.0
 46
0.0
 47
0.0
 48
0.0
 49
0.0
140
0.0
141
0.0
142
1.0
143
1.0
 70
  1712
 72
     0
 73
     0
 74
     0
  7

 75
     0
147
1.0
148
0.0
149
0.0
100
AcDbLayout
  1
Model
 70
     1
 71
     0
 10
0.0
 20
0.0
 11
12.0
 21
9.0
 12
0.0
 22
0.0
 32
0.0
 14
0.0
 24
0.0
 34
0.0
 15
0.0
 25
0.0
 35
0.0
146
0.0
 13
0.0
 23
0.0
 33
0.0
 16
1.0
 26
0.0
 36
0.0
 17
0.0
 27
1.0
 37
0.0
 76
     0
330
18
331
8483
  0
LAYOUT
  5
84DB
102
{ACAD_XDICTIONARY
360
8537
102
}
102
{ACAD_REACTORS
330
94
102
}
330
94
100
AcDbPlotSettings
  1

  2
Canon LBP9100C
  4

  6

 40
0.0
 41
0.0
 42
0.0
 43
0.0
 44
0.0
 45
0.0
 46
0.0
 47
0.0
 48
0.0
 49
0.0
140
0.0
141
0.0
142
1.0
143
1.0
 70
   688
 72
     0
 73
     0
 74
     5
  7

 75
    16
147
1.0
148
0.0
149
0.0
100
AcDbLayout
  1
レイアウト1
 70
     1
 71
     1
 10
0.0
 20
0.0
 11
420.0
 21
297.0
 12
0.0
 22
0.0
 32
0.0
 14
1.000000000000000E+20
 24
1.000000000000000E+20
 34
1.000000000000000E+20
 15
-1.000000000000000E+20
 25
-1.000000000000000E+20
 35
-1.000000000000000E+20
146
0.0
 13
0.0
 23
0.0
 33
0.0
 16
1.0
 26
0.0
 36
0.0
 17
0.0
 27
1.0
 37
0.0
 76
     0
330
15
  0
MATERIAL
  5
8496
102
{ACAD_XDICTIONARY
360
8497
102
}
102
{ACAD_REACTORS
330
848D
102
}
330
848D
100
AcDbMaterial
  1
ByBlock
 72
     0
 43
0.0208333333333333
 43
0.0
 43
0.0
 43
0.0
 43
0.0
 43
0.0208333333333333
 43
0.0
 43
0.0
 43
0.0
 43
0.0
 43
1.0
 43
0.0
 43
0.0
 43
0.0
 43
0.0
 43
1.0
 77
     0
 47
0.0208333333333333
 47
0.0
 47
0.0
 47
0.0
 47
0.0
 47
0.0208333333333333
 47
0.0
 47
0.0
 47
0.0
 47
0.0
 47
1.0
 47
0.0
 47
0.0
 47
0.0
 47
0.0
 47
1.0
171
     0
 49
0.0208333333333333
 49
0.0
 49
0.0
 49
0.0
 49
0.0
 49
0.0208333333333333
 49
0.0
 49
0.0
 49
0.0
 49
0.0
 49
1.0
 49
0.0
 49
0.0
 49
0.0
 49
0.0
 49
1.0
175
     0
142
0.0208333333333333
142
0.0
142
0.0
142
0.0
142
0.0
142
0.0208333333333333
142
0.0
142
0.0
142
0.0
142
0.0
142
1.0
142
0.0
142
0.0
142
0.0
142
0.0
142
1.0
179
     0
144
0.0208333333333333
144
0.0
144
0.0
144
0.0
144
0.0
144
0.0208333333333333
144
0.0
144
0.0
144
0.0
144
0.0
144
1.0
144
0.0
144
0.0
144
0.0
144
0.0
144
1.0
147
0.0208333333333333
147
0.0
147
0.0
147
0.0
147
0.0
147
0.0208333333333333
147
0.0
147
0.0
147
0.0
147
0.0
147
1.0
147
0.0
147
0.0
147
0.0
147
0.0
147
1.0
  0
MATERIAL
  5
848E
102
{ACAD_XDICTIONARY
360
848F
102
}
102
{ACAD_REACTORS
330
848D
102
}
330
848D
100
AcDbMaterial
  1
ByLayer
 72
     0
 43
0.0208333333333333
 43
0.0
 43
0.0
 43
0.0
 43
0.0
 43
0.0208333333333333
 43
0.0
 43
0.0
 43
0.0
 43
0.0
 43
1.0
 43
0.0
 43
0.0
 43
0.0
 43
0.0
 43
1.0
 77
     0
 47
0.0208333333333333
 47
0.0
 47
0.0
 47
0.0
 47
0.0
 47
0.0208333333333333
 47
0.0
 47
0.0
 47
0.0
 47
0.0
 47
1.0
 47
0.0
 47
0.0
 47
0.0
 47
0.0
 47
1.0
171
     0
 49
0.0208333333333333
 49
0.0
 49
0.0
 49
0.0
 49
0.0
 49
0.0208333333333333
 49
0.0
 49
0.0
 49
0.0
 49
0.0
 49
1.0
 49
0.0
 49
0.0
 49
0.0
 49
0.0
 49
1.0
175
     0
142
0.0208333333333333
142
0.0
142
0.0
142
0.0
142
0.0
142
0.0208333333333333
142
0.0
142
0.0
142
0.0
142
0.0
142
1.0
142
0.0
142
0.0
142
0.0
142
0.0
142
1.0
179
     0
144
0.0208333333333333
144
0.0
144
0.0
144
0.0
144
0.0
144
0.0208333333333333
144
0.0
144
0.0
144
0.0
144
0.0
144
1.0
144
0.0
144
0.0
144
0.0
144
0.0
144
1.0
147
0.0208333333333333
147
0.0
147
0.0
147
0.0
147
0.0
147
0.0208333333333333
147
0.0
147
0.0
147
0.0
147
0.0
147
1.0
147
0.0
147
0.0
147
0.0
147
0.0
147
1.0
  0
MATERIAL
  5
849E
102
{ACAD_XDICTIONARY
360
849F
102
}
102
{ACAD_REACTORS
330
848D
102
}
330
848D
100
AcDbMaterial
  1
Global
 72
     0
 43
0.0208333333333333
 43
0.0
 43
0.0
 43
0.0
 43
0.0
 43
0.0208333333333333
 43
0.0
 43
0.0
 43
0.0
 43
0.0
 43
1.0
 43
0.0
 43
0.0
 43
0.0
 43
0.0
 43
1.0
 77
     0
 47
0.0208333333333333
 47
0.0
 47
0.0
 47
0.0
 47
0.0
 47
0.0208333333333333
 47
0.0
 47
0.0
 47
0.0
 47
0.0
 47
1.0
 47
0.0
 47
0.0
 47
0.0
 47
0.0
 47
1.0
171
     0
 49
0.0208333333333333
 49
0.0
 49
0.0
 49
0.0
 49
0.0
 49
0.0208333333333333
 49
0.0
 49
0.0
 49
0.0
 49
0.0
 49
1.0
 49
0.0
 49
0.0
 49
0.0
 49
0.0
 49
1.0
175
     0
142
0.0208333333333333
142
0.0
142
0.0
142
0.0
142
0.0
142
0.0208333333333333
142
0.0
142
0.0
142
0.0
142
0.0
142
1.0
142
0.0
142
0.0
142
0.0
142
0.0
142
1.0
179
     0
144
0.0208333333333333
144
0.0
144
0.0
144
0.0
144
0.0
144
0.0208333333333333
144
0.0
144
0.0
144
0.0
144
0.0
144
1.0
144
0.0
144
0.0
144
0.0
144
0.0
144
1.0
147
0.0208333333333333
147
0.0
147
0.0
147
0.0
147
0.0
147
0.0208333333333333
147
0.0
147
0.0
147
0.0
147
0.0
147
1.0
147
0.0
147
0.0
147
0.0
147
0.0
147
1.0
  0
MLEADERSTYLE
  5
84D5
102
{ACAD_REACTORS
330
84D4
102
}
330
84D4
100
AcDbMLeaderStyle
170
     2
171
     1
172
     0
 90
        2
 40
0.0
 41
0.0
173
     1
 91
-1056964608
340
12
 92
       -2
290
     1
 42
0.09
291
     1
 43
0.36
  3
Standard
 44
0.18
300

342
F
174
     1
178
     6
175
     1
176
     0
 93
-1056964608
 45
0.18
292
     0
297
     0
 46
0.18
 94
-1056964608
 47
1.0
 49
1.0
140
1.0
293
     1
141
0.0
294
     1
177
     0
142
1.0
295
     0
296
     0
143
0.125
1001
ACAD_MLEADERVER
1070
     2
  0
MLINESTYLE
  5
1C
102
{ACAD_REACTORS
330
1B
102
}
330
1B
100
AcDbMlineStyle
  2
STANDARD
 70
     0
  3

 62
   256
 51
90.0
 52
90.0
 71
     2
 49
0.5
 62
   256
  6
BYLAYER
 49
-0.5
 62
   256
  6
BYLAYER
  0
ACDBPLACEHOLDER
  5
848C
102
{ACAD_REACTORS
330
848B
102
}
330
848B
  0
SCALE
  5
84C3
102
{ACAD_REACTORS
330
84C2
102
}
330
84C2
100
AcDbScale
 70
     0
300
1:1
140
1.0
141
1.0
290
     1
  0
SCALE
  5
84C4
102
{ACAD_REACTORS
330
84C2
102
}
330
84C2
100
AcDbScale
 70
     0
300
1/128" = 1'-0"
140
0.0078125
141
12.0
290
     0
  0
SCALE
  5
84C5
102
{ACAD_REACTORS
330
84C2
102
}
330
84C2
100
AcDbScale
 70
     0
300
1/64" = 1'-0"
140
0.015625
141
12.0
290
     0
  0
SCALE
  5
84C6
102
{ACAD_REACTORS
330
84C2
102
}
330
84C2
100
AcDbScale
 70
     0
300
1/32" = 1'-0"
140
0.03125
141
12.0
290
     0
  0
SCALE
  5
84C7
102
{ACAD_REACTORS
330
84C2
102
}
330
84C2
100
AcDbScale
 70
     0
300
1/16" = 1'-0"
140
0.0625
141
12.0
290
     0
  0
SCALE
  5
84C8
102
{ACAD_REACTORS
330
84C2
102
}
330
84C2
100
AcDbScale
 70
     0
300
3/32" = 1'-0"
140
0.09375
141
12.0
290
     0
  0
SCALE
  5
84C9
102
{ACAD_REACTORS
330
84C2
102
}
330
84C2
100
AcDbScale
 70
     0
300
1/8" = 1'-0"
140
0.125
141
12.0
290
     0
  0
SCALE
  5
84CA
102
{ACAD_REACTORS
330
84C2
102
}
330
84C2
100
AcDbScale
 70
     0
300
3/16" = 1'-0"
140
0.1875
141
12.0
290
     0
  0
SCALE
  5
84CB
102
{ACAD_REACTORS
330
84C2
102
}
330
84C2
100
AcDbScale
 70
     0
300
1/4" = 1'-0"
140
0.25
141
12.0
290
     0
  0
SCALE
  5
84CC
102
{ACAD_REACTORS
330
84C2
102
}
330
84C2
100
AcDbScale
 70
     0
300
3/8" = 1'-0"
140
0.375
141
12.0
290
     0
  0
SCALE
  5
84CD
102
{ACAD_REACTORS
330
84C2
102
}
330
84C2
100
AcDbScale
 70
     0
300
1/2" = 1'-0"
140
0.5
141
12.0
290
     0
  0
SCALE
  5
84CE
102
{ACAD_REACTORS
330
84C2
102
}
330
84C2
100
AcDbScale
 70
     0
300
3/4" = 1'-0"
140
0.75
141
12.0
290
     0
  0
SCALE
  5
84CF
102
{ACAD_REACTORS
330
84C2
102
}
330
84C2
100
AcDbScale
 70
     0
300
1" = 1'-0"
140
1.0
141
12.0
290
     0
  0
SCALE
  5
84D0
102
{ACAD_REACTORS
330
84C2
102
}
330
84C2
100
AcDbScale
 70
     0
300
1-1/2" = 1'-0"
140
1.5
141
12.0
290
     0
  0
SCALE
  5
84D1
102
{ACAD_REACTORS
330
84C2
102
}
330
84C2
100
AcDbScale
 70
     0
300
3" = 1'-0"
140
3.0
141
12.0
290
     0
  0
SCALE
  5
84D2
102
{ACAD_REACTORS
330
84C2
102
}
330
84C2
100
AcDbScale
 70
     0
300
6" = 1'-0"
140
6.0
141
12.0
290
     0
  0
SCALE
  5
84D3
102
{ACAD_REACTORS
330
84C2
102
}
330
84C2
100
AcDbScale
 70
     0
300
1'-0" = 1'-0"
140
12.0
141
12.0
290
     0
  0
ACDBSECTIONVIEWSTYLE
  5
84D7
102
{ACAD_XDICTIONARY
360
8531
102
}
102
{ACAD_REACTORS
330
84D6
102
}
330
84D6
100
AcDbModelDocViewStyle
 70
     0
  3
Imperial24
290
     0
100
AcDbSectionViewStyle
 70
     0
 71
     0
 90
       78
 71
     1
340
F
 40
0.24
340
0
340
0
 40
0.24
300
I, O, Q, S, X, Z
 40
0.48
 90
        3
 40
0.18
 90
        1
 71
     2
340
14
 90
       25
340
14
 90
       50
 40
0.24
 40
0.0
 40
0.24
 71
     3
340
F
 40
0.24
 90
        1
 40
0.75
 90
        1
300
%<\AcVar ViewType \f "%tc1">% %<\AcVar ViewSectionStartId>%-%<\AcVar ViewSectionEndId>%\PSCALE %<\AcVar ViewScale \f "%sn">%
 71
     4
300
ANSI31
 40
1.0
 90
        0
290
     0
290
     0
 90
        6
 40
0.0
 40
1.570796326794896
 40
0.2617993877991494
 40
1.308996938995747
 40
-0.2617993877991494
 40
1.832595714594046
  0
TABLESTYLE
  5
84C1
102
{ACAD_XDICTIONARY
360
84F8
102
}
102
{ACAD_REACTORS
330
84C0
102
}
330
84C0
100
AcDbTableStyle
  3
Standard
 70
     0
 71
     0
 40
0.06
 41
0.06
280
     0
281
     0
  7
STANDARD
140
0.18
170
     2
 62
     0
 63
     7
283
     0
274
    -2
284
     1
 64
     0
275
    -2
285
     1
 65
     0
276
    -2
286
     1
 66
     0
277
    -2
287
     1
 67
     0
278
    -2
288
     1
 68
     0
279
    -2
289
     1
 69
     0
  7
STANDARD
140
0.25
170
     5
 62
     0
 63
     7
283
     0
274
    -2
284
     1
 64
     0
275
    -2
285
     1
 65
     0
276
    -2
286
     1
 66
     0
277
    -2
287
     1
 67
     0
278
    -2
288
     1
 68
     0
279
    -2
289
     1
 69
     0
  7
STANDARD
140
0.18
170
     5
 62
     0
 63
     7
283
     0
274
    -2
284
     1
 64
     0
275
    -2
285
     1
 65
     0
276
    -2
286
     1
 66
     0
277
    -2
287
     1
 67
     0
278
    -2
288
     1
 68
     0
279
    -2
289
     1
 69
     0
  0
VISUALSTYLE
  5
84AC
102
{ACAD_XDICTIONARY
360
8509
102
}
102
{ACAD_REACTORS
330
84A6
102
}
330
84A6
100
AcDbVisualStyle
  2
2dWireframe
 70
     4
 71
     0
 72
     2
 73
     0
 90
        0
 40
-0.6
 41
-30.0
 62
     5
 63
     7
 74
     1
 91
        4
 64
     7
 65
   257
 75
     1
175
     1
 42
1.0
 92
        0
 66
   257
 43
1.0
 76
     1
 77
     6
 78
     2
 67
     7
 79
     5
170
     0
171
     0
290
     0
174
     0
 93
        1
 44
0.0
173
     0
291
     0
 45
0.0
1001
ACAD
1000
AcDbSavedByObjectVersion
1070
     0
  0
VISUALSTYLE
  5
84AB
102
{ACAD_XDICTIONARY
360
8507
102
}
102
{ACAD_REACTORS
330
84A6
102
}
330
84A6
100
AcDbVisualStyle
  2
Basic
 70
     7
 71
     1
 72
     0
 73
     1
 90
        0
 40
-0.6
 41
-30.0
 62
     5
 63
     7
 74
     0
 91
        4
 64
     7
 65
   257
 75
     1
175
     1
 42
1.0
 92
        8
 66
     7
 43
1.0
 76
     1
 77
     6
 78
     2
 67
     7
 79
     5
170
     0
171
     0
290
     0
174
     0
 93
        1
 44
0.0
173
     0
291
     1
 45
0.0
1001
ACAD
1000
AcDbSavedByObjectVersion
1070
     0
  0
VISUALSTYLE
  5
84B2
102
{ACAD_XDICTIONARY
360
8515
102
}
102
{ACAD_REACTORS
330
84A6
102
}
330
84A6
100
AcDbVisualStyle
  2
Brighten
 70
    12
 71
     2
 72
     2
 73
     0
 90
        0
 40
-0.6
 41
-30.0
 62
     5
 63
     7
 74
     1
 91
        4
 64
     7
 65
   257
 75
     1
175
     1
 42
1.0
 92
        8
 66
     7
 43
1.0
 76
     1
 77
     6
 78
     2
 67
     7
 79
     5
170
     0
171
     0
290
     0
174
     0
 93
        1
 44
50.0
173
     0
291
     1
 45
0.0
1001
ACAD
1000
AcDbSavedByObjectVersion
1070
     0
  0
VISUALSTYLE
  5
84B6
102
{ACAD_XDICTIONARY
360
851D
102
}
102
{ACAD_REACTORS
330
84A6
102
}
330
84A6
100
AcDbVisualStyle
  2
ColorChange
 70
    16
 71
     2
 72
     2
 73
     3
 90
        0
 40
-0.6
 41
-30.0
 62
     5
 63
     8
 74
     1
 91
        4
 64
     7
 65
   257
 75
     1
175
     1
 42
1.0
 92
        8
 66
     8
 43
1.0
 76
     1
 77
     6
 78
     2
 67
     7
 79
     5
170
     0
171
     0
290
     0
174
     0
 93
        1
 44
0.0
173
     0
291
     1
 45
0.0
1001
ACAD
1000
AcDbSavedByObjectVersion
1070
     0
  0
VISUALSTYLE
  5
84AF
102
{ACAD_XDICTIONARY
360
850F
102
}
102
{ACAD_REACTORS
330
84A6
102
}
330
84A6
100
AcDbVisualStyle
  2
Conceptual
 70
     9
 71
     3
 72
     2
 73
     0
 90
        0
 40
-0.6
 41
-30.0
 62
     5
 63
     7
 74
     2
 91
        2
 64
     7
 65
   257
 75
     1
175
     1
 42
179.0
 92
        8
 66
     7
 43
1.0
 76
     1
 77
     6
 78
     2
 67
     7
 79
     3
170
     0
171
     0
290
     0
174
     0
 93
        1
 44
0.0
173
     0
291
     0
 45
0.0
1001
ACAD
1000
AcDbSavedByObjectVersion
1070
     0
  0
VISUALSTYLE
  5
84B1
102
{ACAD_XDICTIONARY
360
8513
102
}
102
{ACAD_REACTORS
330
84A6
102
}
330
84A6
100
AcDbVisualStyle
  2
Dim
 70
    11
 71
     2
 72
     2
 73
     0
 90
        0
 40
-0.6
 41
-30.0
 62
     5
 63
     7
 74
     1
 91
        4
 64
     7
 65
   257
 75
     1
175
     1
 42
1.0
 92
        8
 66
     7
 43
1.0
 76
     1
 77
     6
 78
     2
 67
     7
 79
     5
170
     0
171
     0
290
     0
174
     0
 93
        1
 44
-50.0
173
     0
291
     1
 45
0.0
1001
ACAD
1000
AcDbSavedByObjectVersion
1070
     0
  0
VISUALSTYLE
  5
84BE
102
{ACAD_XDICTIONARY
360
852D
102
}
102
{ACAD_REACTORS
330
84A6
102
}
330
84A6
100
AcDbVisualStyle
  2
EdgeColorOff
 70
    22
 71
     2
 72
     2
 73
     0
 90
        0
 40
-0.6
 41
-30.0
 62
     5
 63
     7
 74
     1
 91
        4
 64
     7
 65
   257
 75
     1
175
     1
 42
1.0
 92
        8
 66
     7
 43
1.0
 76
     1
 77
     6
 78
     2
 67
     7
 79
     5
170
     0
171
     0
290
     0
174
     0
 93
        1
 44
0.0
173
     0
291
     1
 45
0.0
1001
ACAD
1000
AcDbSavedByObjectVersion
1070
     0
  0
VISUALSTYLE
  5
84B5
102
{ACAD_XDICTIONARY
360
851B
102
}
102
{ACAD_REACTORS
330
84A6
102
}
330
84A6
100
AcDbVisualStyle
  2
Facepattern
 70
    15
 71
     2
 72
     2
 73
     0
 90
        0
 40
-0.6
 41
-30.0
 62
     5
 63
     7
 74
     1
 91
        4
 64
     7
 65
   257
 75
     1
175
     1
 42
1.0
 92
        8
 66
     7
 43
1.0
 76
     1
 77
     6
 78
     2
 67
     7
 79
     5
170
     0
171
     0
290
     0
174
     0
 93
        1
 44
0.0
173
     0
291
     1
 45
0.0
1001
ACAD
1000
AcDbSavedByObjectVersion
1070
     0
  0
VISUALSTYLE
  5
84A7
102
{ACAD_XDICTIONARY
360
84FF
102
}
102
{ACAD_REACTORS
330
84A6
102
}
330
84A6
100
AcDbVisualStyle
  2
Flat
 70
     0
 71
     2
 72
     1
 73
     1
 90
        2
 40
-0.6
 41
30.0
 62
     5
 63
     7
 74
     0
 91
        0
 64
     7
 65
   257
 75
     1
175
     1
 42
1.0
 92
        8
 66
     7
 43
1.0
 76
     1
 77
     6
 78
     2
 67
     7
 79
     5
170
     0
171
     0
290
     0
174
     0
 93
       13
 44
0.0
173
     0
291
     1
 45
0.0
1001
ACAD
1000
AcDbSavedByObjectVersion
1070
     0
  0
VISUALSTYLE
  5
84A8
102
{ACAD_XDICTIONARY
360
8501
102
}
102
{ACAD_REACTORS
330
84A6
102
}
330
84A6
100
AcDbVisualStyle
  2
FlatWithEdges
 70
     1
 71
     2
 72
     1
 73
     1
 90
        2
 40
-0.6
 41
30.0
 62
     5
 63
     7
 74
     1
 91
        0
 64
     7
 65
   257
 75
     1
175
     1
 42
1.0
 92
        0
 66
   257
 43
1.0
 76
     1
 77
     6
 78
     2
 67
     7
 79
     5
170
     0
171
     0
290
     0
174
     0
 93
       13
 44
0.0
173
     0
291
     1
 45
0.0
1001
ACAD
1000
AcDbSavedByObjectVersion
1070
     0
  0
VISUALSTYLE
  5
84A9
102
{ACAD_XDICTIONARY
360
8503
102
}
102
{ACAD_REACTORS
330
84A6
102
}
330
84A6
100
AcDbVisualStyle
  2
Gouraud
 70
     2
 71
     2
 72
     2
 73
     1
 90
        2
 40
-0.6
 41
30.0
 62
     5
 63
     7
 74
     0
 91
        0
 64
     7
 65
   257
 75
     1
175
     1
 42
1.0
 92
        0
 66
     7
 43
1.0
 76
     1
 77
     6
 78
     2
 67
     7
 79
     5
170
     0
171
     0
290
     0
174
     0
 93
       13
 44
0.0
173
     0
291
     1
 45
0.0
1001
ACAD
1000
AcDbSavedByObjectVersion
1070
     0
  0
VISUALSTYLE
  5
84AA
102
{ACAD_XDICTIONARY
360
8505
102
}
102
{ACAD_REACTORS
330
84A6
102
}
330
84A6
100
AcDbVisualStyle
  2
GouraudWithEdges
 70
     3
 71
     2
 72
     2
 73
     1
 90
        2
 40
-0.6
 41
30.0
 62
     5
 63
     7
 74
     1
 91
        0
 64
     7
 65
   257
 75
     1
175
     1
 42
1.0
 92
        0
 66
   257
 43
1.0
 76
     1
 77
     6
 78
     2
 67
     7
 79
     5
170
     0
171
     0
290
     0
174
     0
 93
       13
 44
0.0
173
     0
291
     1
 45
0.0
1001
ACAD
1000
AcDbSavedByObjectVersion
1070
     0
  0
VISUALSTYLE
  5
84AE
102
{ACAD_XDICTIONARY
360
850D
102
}
102
{ACAD_REACTORS
330
84A6
102
}
330
84A6
100
AcDbVisualStyle
  2
Hidden
 70
     6
 71
     1
 72
     2
 73
     2
 90
        0
 40
-0.6
 41
-30.0
 62
     5
 63
     7
 74
     2
 91
        2
 64
     7
 65
   257
 75
     2
175
     1
 42
40.0
 92
        0
 66
   257
 43
1.0
 76
     1
 77
     6
 78
     2
 67
     7
 79
     3
170
     0
171
     0
290
     0
174
     0
 93
        1
 44
0.0
173
     0
291
     0
 45
0.0
1001
ACAD
1000
AcDbSavedByObjectVersion
1070
     0
  0
VISUALSTYLE
  5
84BC
102
{ACAD_XDICTIONARY
360
8529
102
}
102
{ACAD_REACTORS
330
84A6
102
}
330
84A6
100
AcDbVisualStyle
  2
JitterOff
 70
    20
 71
     2
 72
     2
 73
     0
 90
        0
 40
-0.6
 41
-30.0
 62
     5
 63
     7
 74
     1
 91
        4
 64
     7
 65
   257
 75
     1
175
     1
 42
1.0
 92
       10
 66
     7
 43
1.0
 76
     1
 77
     6
 78
     2
 67
     7
 79
     5
170
     0
171
     0
290
     0
174
     0
 93
        1
 44
0.0
173
     0
291
     1
 45
0.0
1001
ACAD
1000
AcDbSavedByObjectVersion
1070
     0
  0
VISUALSTYLE
  5
84B4
102
{ACAD_XDICTIONARY
360
8519
102
}
102
{ACAD_REACTORS
330
84A6
102
}
330
84A6
100
AcDbVisualStyle
  2
Linepattern
 70
    14
 71
     2
 72
     2
 73
     0
 90
        0
 40
-0.6
 41
-30.0
 62
     5
 63
     7
 74
     1
 91
        4
 64
     7
 65
   257
 75
     7
175
     7
 42
1.0
 92
        8
 66
     7
 43
1.0
 76
     1
 77
     6
 78
     2
 67
     7
 79
     5
170
     0
171
     0
290
     0
174
     0
 93
        1
 44
0.0
173
     0
291
     1
 45
0.0
1001
ACAD
1000
AcDbSavedByObjectVersion
1070
     0
  0
VISUALSTYLE
  5
84BD
102
{ACAD_XDICTIONARY
360
852B
102
}
102
{ACAD_REACTORS
330
84A6
102
}
330
84A6
100
AcDbVisualStyle
  2
OverhangOff
 70
    21
 71
     2
 72
     2
 73
     0
 90
        0
 40
-0.6
 41
-30.0
 62
     5
 63
     7
 74
     1
 91
        4
 64
     7
 65
   257
 75
     1
175
     1
 42
1.0
 92
        9
 66
     7
 43
1.0
 76
     1
 77
     6
 78
     2
 67
     7
 79
     5
170
     0
171
     0
290
     0
174
     0
 93
        1
 44
0.0
173
     0
291
     1
 45
0.0
1001
ACAD
1000
AcDbSavedByObjectVersion
1070
     0
  0
VISUALSTYLE
  5
84B0
102
{ACAD_XDICTIONARY
360
8511
102
}
102
{ACAD_REACTORS
330
84A6
102
}
330
84A6
100
AcDbVisualStyle
  2
Realistic
 70
     8
 71
     2
 72
     3
 73
     0
 90
        2
 40
-0.6
 41
30.0
 62
     5
 63
     7
 74
     0
 91
        0
 64
     7
 65
   257
 75
     1
175
     1
 42
1.0
 92
        8
 66
   257
 43
1.0
 76
     1
 77
     6
 78
     2
 67
     7
 79
     3
170
     0
171
     0
290
     0
174
     0
 93
       13
 44
0.0
173
     0
291
     0
 45
0.0
1001
ACAD
1000
AcDbSavedByObjectVersion
1070
     0
  0
VISUALSTYLE
  5
84BB
102
{ACAD_XDICTIONARY
360
8527
102
}
102
{ACAD_REACTORS
330
84A6
102
}
330
84A6
100
AcDbVisualStyle
  2
Shaded
 70
    27
 71
     2
 72
     2
 73
     1
 90
        2
 40
-0.6
 41
30.0
 62
     5
 63
     7
 74
     0
 91
        4
 64
     7
 65
   257
 75
     1
175
     1
 42
1.0
 92
        8
 66
   257
 43
1.0
 76
     1
 77
     6
 78
     2
 67
     8
 79
     3
170
     0
171
     0
290
     0
174
     0
 93
        5
 44
0.0
173
     0
291
     0
 45
0.0
1001
ACAD
1000
AcDbSavedByObjectVersion
1070
     0
  0
VISUALSTYLE
  5
84BA
102
{ACAD_XDICTIONARY
360
8525
102
}
102
{ACAD_REACTORS
330
84A6
102
}
330
84A6
100
AcDbVisualStyle
  2
Shaded with edges
 70
    26
 71
     2
 72
     2
 73
     1
 90
        2
 40
-0.6
 41
30.0
 62
     5
 63
     7
 74
     1
 91
       10
 64
     7
 65
   257
 75
     2
175
     1
 42
1.0
 92
        8
 66
   257
 43
1.0
 76
     1
 77
     6
 78
     2
 67
     7
 79
     3
170
     0
171
     0
290
     0
174
     0
 93
        5
 44
0.0
173
     0
291
     0
 45
0.0
1001
ACAD
1000
AcDbSavedByObjectVersion
1070
     0
  0
VISUALSTYLE
  5
84B7
102
{ACAD_XDICTIONARY
360
851F
102
}
102
{ACAD_REACTORS
330
84A6
102
}
330
84A6
100
AcDbVisualStyle
  2
Shades of Gray
 70
    23
 71
     2
 72
     2
 73
     3
 90
        0
 40
-0.6
 41
-30.0
 62
     5
 63
     7
 74
     2
 91
        2
 64
     7
 65
     7
 75
     1
175
     1
 42
40.0
 92
        8
 66
     7
 43
1.0
 76
     1
 77
     6
 78
     2
 67
     7
 79
     3
170
     0
171
     0
290
     0
174
     0
 93
        1
 44
0.0
173
     0
291
     0
 45
0.0
1001
ACAD
1000
AcDbSavedByObjectVersion
1070
     0
  0
VISUALSTYLE
  5
84B8
102
{ACAD_XDICTIONARY
360
8521
102
}
102
{ACAD_REACTORS
330
84A6
102
}
330
84A6
100
AcDbVisualStyle
  2
Sketchy
 70
    24
 71
     1
 72
     2
 73
     2
 90
        0
 40
-0.6
 41
-30.0
 62
     5
 63
     7
 74
     2
 91
        2
 64
     7
 65
     7
 75
     1
175
     1
 42
40.0
 92
       11
 66
     7
 43
1.0
 76
     1
 77
     6
 78
     2
 67
     7
 79
     6
170
     0
171
     0
290
     0
174
     0
 93
        1
 44
0.0
173
     0
291
     0
 45
0.0
1001
ACAD
1000
AcDbSavedByObjectVersion
1070
     0
  0
VISUALSTYLE
  5
84B3
102
{ACAD_XDICTIONARY
360
8517
102
}
102
{ACAD_REACTORS
330
84A6
102
}
330
84A6
100
AcDbVisualStyle
  2
Thicken
 70
    13
 71
     2
 72
     2
 73
     0
 90
        0
 40
-0.6
 41
-30.0
 62
     5
 63
     7
 74
     1
 91
        4
 64
     7
 65
   257
 75
     1
175
     1
 42
1.0
 92
       12
 66
     7
 43
1.0
 76
     1
 77
     6
 78
     2
 67
     7
 79
     5
170
     0
171
     0
290
     0
174
     0
 93
        1
 44
0.0
173
     0
291
     1
 45
0.0
1001
ACAD
1000
AcDbSavedByObjectVersion
1070
     0
  0
VISUALSTYLE
  5
84AD
102
{ACAD_XDICTIONARY
360
850B
102
}
102
{ACAD_REACTORS
330
84A6
102
}
330
84A6
100
AcDbVisualStyle
  2
Wireframe
 70
     5
 71
     0
 72
     2
 73
     0
 90
        0
 40
-0.6
 41
-30.0
 62
     5
 63
     7
 74
     1
 91
        4
 64
     7
 65
   257
 75
     1
175
     1
 42
1.0
 92
        0
 66
   257
 43
1.0
 76
     1
 77
     6
 78
     2
 67
     7
 79
     3
170
     0
171
     0
290
     0
174
     0
 93
        1
 44
0.0
173
     0
291
     0
 45
0.0
1001
ACAD
1000
AcDbSavedByObjectVersion
1070
     0
  0
VISUALSTYLE
  5
84B9
102
{ACAD_XDICTIONARY
360
8523
102
}
102
{ACAD_REACTORS
330
84A6
102
}
330
84A6
100
AcDbVisualStyle
  2
X-Ray
 70
    25
 71
     2
 72
     2
 73
     1
 90
        1
 40
0.5
 41
-30.0
 62
     5
 63
     7
 74
     1
 91
        0
 64
     7
 65
   257
 75
     1
175
     1
 42
1.0
 92
        8
 66
     7
 43
1.0
 76
     1
 77
     6
 78
     2
 67
     7
 79
     3
170
     0
171
     0
290
     0
174
     0
 93
       13
 44
0.0
173
     0
291
     0
 45
0.0
1001
ACAD
1000
AcDbSavedByObjectVersion
1070
     0
  0
DICTIONARYVAR
  5
84F2
102
{ACAD_REACTORS
330
84ED
102
}
330
84ED
100
DictionaryVariables
280
     0
  1
1:1
  0
DICTIONARYVAR
  5
84EF
102
{ACAD_REACTORS
330
84ED
102
}
330
84ED
100
DictionaryVariables
280
     0
  1
STANDARD
  0
DICTIONARYVAR
  5
84EE
102
{ACAD_REACTORS
330
84ED
102
}
330
84ED
100
DictionaryVariables
280
     0
  1
STANDARD
  0
DICTIONARYVAR
  5
84F0
102
{ACAD_REACTORS
330
84ED
102
}
330
84ED
100
DictionaryVariables
280
     0
  1
Imperial24
  0
DICTIONARYVAR
  5
84F1
102
{ACAD_REACTORS
330
84ED
102
}
330
84ED
100
DictionaryVariables
280
     0
  1
Imperial24
  0
DICTIONARYVAR
  5
84F5
102
{ACAD_REACTORS
330
84ED
102
}
330
84ED
100
DictionaryVariables
280
     0
  1
1
  0
DICTIONARYVAR
  5
84F4
102
{ACAD_REACTORS
330
84ED
102
}
330
84ED
100
DictionaryVariables
280
     0
  1
0
  0
DICTIONARYVAR
  5
84F3
102
{ACAD_REACTORS
330
84ED
102
}
330
84ED
100
DictionaryVariables
280
     0
  1
127
  0
DICTIONARYVAR
  5
84F6
102
{ACAD_REACTORS
330
84ED
102
}
330
84ED
100
DictionaryVariables
280
     0
  1
2
  0
DICTIONARY
  5
8533
330
84D9
100
AcDbDictionary
280
     1
281
     1
  3
ACAD_XREC_ROUNDTRIP
360
8534
  0
DICTIONARY
  5
8535
330
84DA
100
AcDbDictionary
280
     1
281
     1
  3
ACAD_XREC_ROUNDTRIP
360
8536
  0
DICTIONARY
  5
8537
330
84DB
100
AcDbDictionary
280
     1
281
     1
  3
ACAD_XREC_ROUNDTRIP
360
8538
  0
DICTIONARY
  5
8497
330
8496
100
AcDbDictionary
280
     1
281
     1
  3
ACAD_XREC_ROUNDTRIP
360
84FD
  3
BUMPTILE
360
8499
  3
DIFFUSETILE
360
8498
  3
OPACITYTILE
360
849C
  3
REFLECTIONTILE
360
849B
  3
REFRACTIONTILE
360
849D
  3
SPECULARTILE
360
849A
  0
DICTIONARY
  5
848F
330
848E
100
AcDbDictionary
280
     1
281
     1
  3
ACAD_XREC_ROUNDTRIP
360
84FC
  3
BUMPTILE
360
8491
  3
DIFFUSETILE
360
8490
  3
OPACITYTILE
360
8494
  3
REFLECTIONTILE
360
8493
  3
REFRACTIONTILE
360
8495
  3
SPECULARTILE
360
8492
  0
DICTIONARY
  5
849F
330
849E
100
AcDbDictionary
280
     1
281
     1
  3
ACAD_XREC_ROUNDTRIP
360
84FE
  3
BUMPTILE
360
84A1
  3
DIFFUSETILE
360
84A0
  3
OPACITYTILE
360
84A4
  3
REFLECTIONTILE
360
84A3
  3
REFRACTIONTILE
360
84A5
  3
SPECULARTILE
360
84A2
  0
DICTIONARY
  5
8531
330
84D7
100
AcDbDictionary
280
     1
281
     1
  3
ACAD_XREC_ROUNDTRIP
360
8532
  0
DICTIONARY
  5
84F8
330
84C1
100
AcDbDictionary
280
     1
281
     1
  3
ACAD_ROUNDTRIP_2008_TABLESTYLE_CELLSTYLEMAP
360
84F9
  3
ACAD_XREC_ROUNDTRIP
360
852F
  0
DICTIONARY
  5
8509
330
84AC
100
AcDbDictionary
280
     1
281
     1
  3
ACAD_XREC_ROUNDTRIP
360
850A
  0
DICTIONARY
  5
8507
330
84AB
100
AcDbDictionary
280
     1
281
     1
  3
ACAD_XREC_ROUNDTRIP
360
8508
  0
DICTIONARY
  5
8515
330
84B2
100
AcDbDictionary
280
     1
281
     1
  3
ACAD_XREC_ROUNDTRIP
360
8516
  0
DICTIONARY
  5
851D
330
84B6
100
AcDbDictionary
280
     1
281
     1
  3
ACAD_XREC_ROUNDTRIP
360
851E
  0
DICTIONARY
  5
850F
330
84AF
100
AcDbDictionary
280
     1
281
     1
  3
ACAD_XREC_ROUNDTRIP
360
8510
  0
DICTIONARY
  5
8513
330
84B1
100
AcDbDictionary
280
     1
281
     1
  3
ACAD_XREC_ROUNDTRIP
360
8514
  0
DICTIONARY
  5
852D
330
84BE
100
AcDbDictionary
280
     1
281
     1
  3
ACAD_XREC_ROUNDTRIP
360
852E
  0
DICTIONARY
  5
851B
330
84B5
100
AcDbDictionary
280
     1
281
     1
  3
ACAD_XREC_ROUNDTRIP
360
851C
  0
DICTIONARY
  5
84FF
330
84A7
100
AcDbDictionary
280
     1
281
     1
  3
ACAD_XREC_ROUNDTRIP
360
8500
  0
DICTIONARY
  5
8501
330
84A8
100
AcDbDictionary
280
     1
281
     1
  3
ACAD_XREC_ROUNDTRIP
360
8502
  0
DICTIONARY
  5
8503
330
84A9
100
AcDbDictionary
280
     1
281
     1
  3
ACAD_XREC_ROUNDTRIP
360
8504
  0
DICTIONARY
  5
8505
330
84AA
100
AcDbDictionary
280
     1
281
     1
  3
ACAD_XREC_ROUNDTRIP
360
8506
  0
DICTIONARY
  5
850D
330
84AE
100
AcDbDictionary
280
     1
281
     1
  3
ACAD_XREC_ROUNDTRIP
360
850E
  0
DICTIONARY
  5
8529
330
84BC
100
AcDbDictionary
280
     1
281
     1
  3
ACAD_XREC_ROUNDTRIP
360
852A
  0
DICTIONARY
  5
8519
330
84B4
100
AcDbDictionary
280
     1
281
     1
  3
ACAD_XREC_ROUNDTRIP
360
851A
  0
DICTIONARY
  5
852B
330
84BD
100
AcDbDictionary
280
     1
281
     1
  3
ACAD_XREC_ROUNDTRIP
360
852C
  0
DICTIONARY
  5
8511
330
84B0
100
AcDbDictionary
280
     1
281
     1
  3
ACAD_XREC_ROUNDTRIP
360
8512
  0
DICTIONARY
  5
8527
330
84BB
100
AcDbDictionary
280
     1
281
     1
  3
ACAD_XREC_ROUNDTRIP
360
8528
  0
DICTIONARY
  5
8525
330
84BA
100
AcDbDictionary
280
     1
281
     1
  3
ACAD_XREC_ROUNDTRIP
360
8526
  0
DICTIONARY
  5
851F
330
84B7
100
AcDbDictionary
280
     1
281
     1
  3
ACAD_XREC_ROUNDTRIP
360
8520
  0
DICTIONARY
  5
8521
330
84B8
100
AcDbDictionary
280
     1
281
     1
  3
ACAD_XREC_ROUNDTRIP
360
8522
  0
DICTIONARY
  5
8517
330
84B3
100
AcDbDictionary
280
     1
281
     1
  3
ACAD_XREC_ROUNDTRIP
360
8518
  0
DICTIONARY
  5
850B
330
84AD
100
AcDbDictionary
280
     1
281
     1
  3
ACAD_XREC_ROUNDTRIP
360
850C
  0
DICTIONARY
  5
8523
330
84B9
100
AcDbDictionary
280
     1
281
     1
  3
ACAD_XREC_ROUNDTRIP
360
8524
  0
XRECORD
  5
8534
102
{ACAD_REACTORS
330
8533
102
}
330
8533
100
AcDbXrecord
280
     1
102
DISPLAYNAME
  1
Imperial24
102
FLAGS
 90
        0
  0
XRECORD
  5
8536
102
{ACAD_REACTORS
330
8535
102
}
330
8535
100
AcDbXrecord
280
     1
102
SHADEPLOT
 70
     0
102
SHADEPLOTRESLEVEL
 70
     2
102
SHADEPLOTCUSTOMDPI
 70
   300
  0
XRECORD
  5
8538
102
{ACAD_REACTORS
330
8537
102
}
330
8537
100
AcDbXrecord
280
     1
102
SHADEPLOT
 70
     0
102
SHADEPLOTRESLEVEL
 70
     2
102
SHADEPLOTCUSTOMDPI
 70
   300
  0
XRECORD
  5
84FD
102
{ACAD_REACTORS
330
8497
102
}
330
8497
100
AcDbXrecord
280
     1
102
MATERIAL
148
0.0
149
0.0
149
0.0
 93
        0
 94
      127
282
     0
 72
     0
 77
     0
171
     0
175
     0
179
     0
273
     0
  0
XRECORD
  5
8499
102
{ACAD_REACTORS
330
8497
102
}
330
8497
100
AcDbXrecord
280
     1
270
     1
271
     1
  0
XRECORD
  5
8498
102
{ACAD_REACTORS
330
8497
102
}
330
8497
100
AcDbXrecord
280
     1
270
     1
271
     1
  0
XRECORD
  5
849C
102
{ACAD_REACTORS
330
8497
102
}
330
8497
100
AcDbXrecord
280
     1
270
     1
271
     1
  0
XRECORD
  5
849B
102
{ACAD_REACTORS
330
8497
102
}
330
8497
100
AcDbXrecord
280
     1
270
     1
271
     1
  0
XRECORD
  5
849D
102
{ACAD_REACTORS
330
8497
102
}
330
8497
100
AcDbXrecord
280
     1
270
     1
271
     1
  0
XRECORD
  5
849A
102
{ACAD_REACTORS
330
8497
102
}
330
8497
100
AcDbXrecord
280
     1
270
     1
271
     1
  0
XRECORD
  5
84FC
102
{ACAD_REACTORS
330
848F
102
}
330
848F
100
AcDbXrecord
280
     1
102
MATERIAL
148
0.0
149
0.0
149
0.0
 93
        0
 94
      127
282
     0
 72
     0
 77
     0
171
     0
175
     0
179
     0
273
     0
  0
XRECORD
  5
8491
102
{ACAD_REACTORS
330
848F
102
}
330
848F
100
AcDbXrecord
280
     1
270
     1
271
     1
  0
XRECORD
  5
8490
102
{ACAD_REACTORS
330
848F
102
}
330
848F
100
AcDbXrecord
280
     1
270
     1
271
     1
  0
XRECORD
  5
8494
102
{ACAD_REACTORS
330
848F
102
}
330
848F
100
AcDbXrecord
280
     1
270
     1
271
     1
  0
XRECORD
  5
8493
102
{ACAD_REACTORS
330
848F
102
}
330
848F
100
AcDbXrecord
280
     1
270
     1
271
     1
  0
XRECORD
  5
8495
102
{ACAD_REACTORS
330
848F
102
}
330
848F
100
AcDbXrecord
280
     1
270
     1
271
     1
  0
XRECORD
  5
8492
102
{ACAD_REACTORS
330
848F
102
}
330
848F
100
AcDbXrecord
280
     1
270
     1
271
     1
  0
XRECORD
  5
84FE
102
{ACAD_REACTORS
330
849F
102
}
330
849F
100
AcDbXrecord
280
     1
102
MATERIAL
148
0.0
149
0.0
149
0.0
 93
        0
 94
      127
282
     0
 72
     0
 77
     0
171
     0
175
     0
179
     0
273
     0
  0
XRECORD
  5
84A1
102
{ACAD_REACTORS
330
849F
102
}
330
849F
100
AcDbXrecord
280
     1
270
     1
271
     1
  0
XRECORD
  5
84A0
102
{ACAD_REACTORS
330
849F
102
}
330
849F
100
AcDbXrecord
280
     1
270
     1
271
     1
  0
XRECORD
  5
84A4
102
{ACAD_REACTORS
330
849F
102
}
330
849F
100
AcDbXrecord
280
     1
270
     1
271
     1
  0
XRECORD
  5
84A3
102
{ACAD_REACTORS
330
849F
102
}
330
849F
100
AcDbXrecord
280
     1
270
     1
271
     1
  0
XRECORD
  5
84A5
102
{ACAD_REACTORS
330
849F
102
}
330
849F
100
AcDbXrecord
280
     1
270
     1
271
     1
  0
XRECORD
  5
84A2
102
{ACAD_REACTORS
330
849F
102
}
330
849F
100
AcDbXrecord
280
     1
270
     1
271
     1
  0
XRECORD
  5
8532
102
{ACAD_REACTORS
330
8531
102
}
330
8531
100
AcDbXrecord
280
     1
102
DISPLAYNAME
  1
Imperial24
102
FLAGS
 90
        0
  0
CELLSTYLEMAP
  5
84F9
102
{ACAD_REACTORS
330
84F8
102
}
330
84F8
100
AcDbCellStyleMap
 90
        3
300
CELLSTYLE
  1
TABLEFORMAT_BEGIN
 90
        5
170
     1
 91
        0
 92
    32768
 62
   257
 93
        1
300
CONTENTFORMAT
  1
CONTENTFORMAT_BEGIN
 90
        0
 91
        0
 92
      512
 93
        0
300

 40
0.0
140
1.0
 94
        5
 62
     0
340
F
144
0.25
309
CONTENTFORMAT_END
171
     0
 94
        0
309
TABLEFORMAT_END
  1
CELLSTYLE_BEGIN
 90
        1
 91
        1
300
_TITLE
309
CELLSTYLE_END
300
CELLSTYLE
  1
TABLEFORMAT_BEGIN
 90
        5
170
     1
 91
        0
 92
        0
 62
   257
 93
        1
300
CONTENTFORMAT
  1
CONTENTFORMAT_BEGIN
 90
        0
 91
        0
 92
      512
 93
        0
300

 40
0.0
140
1.0
 94
        5
 62
     0
340
F
144
0.18
309
CONTENTFORMAT_END
171
     0
 94
        0
309
TABLEFORMAT_END
  1
CELLSTYLE_BEGIN
 90
        2
 91
        1
300
_HEADER
309
CELLSTYLE_END
300
CELLSTYLE
  1
TABLEFORMAT_BEGIN
 90
        5
170
     1
 91
        0
 92
        0
 62
   257
 93
        1
300
CONTENTFORMAT
  1
CONTENTFORMAT_BEGIN
 90
        0
 91
        0
 92
      512
 93
        0
300

 40
0.0
140
1.0
 94
        2
 62
     0
340
F
144
0.18
309
CONTENTFORMAT_END
171
     0
 94
        0
309
TABLEFORMAT_END
  1
CELLSTYLE_BEGIN
 90
        3
 91
        2
300
_DATA
309
CELLSTYLE_END
  0
XRECORD
  5
852F
102
{ACAD_REACTORS
330
84F8
102
}
330
84F8
100
AcDbXrecord
280
     1
102
ACAD_ROUNDTRIP_PRE2007_TABLESTYLE
 90
      512
 91
        0
  1

 92
      512
 93
        0
  2

 94
      512
 95
        0
  3

  0
XRECORD
  5
850A
102
{ACAD_REACTORS
330
8509
102
}
330
8509
100
AcDbXrecord
280
     1
102
RTVSPost2010Prop28
280
     1
102
RTVSPost2010PropOp28
 70
     1
102
RTVSPost2010Prop29
280
     1
102
RTVSPost2010PropOp29
 70
     1
102
RTVSPost2010Prop30
280
     0
102
RTVSPost2010PropOp30
 70
     1
102
RTVSPost2010Prop31
280
     0
102
RTVSPost2010PropOp31
 70
     1
102
RTVSPost2010Prop32
280
     0
102
RTVSPost2010PropOp32
 70
     1
102
RTVSPost2010Prop33
280
     0
102
RTVSPost2010PropOp33
 70
     1
102
RTVSPost2010Prop34
280
     0
102
RTVSPost2010PropOp34
 70
     1
102
RTVSPost2010Prop35
280
     0
102
RTVSPost2010PropOp35
 70
     1
102
RTVSPost2010Prop36
280
     0
102
RTVSPost2010PropOp36
 70
     1
102
RTVSPost2010Prop37
 90
       50
102
RTVSPost2010PropOp37
 70
     1
102
RTVSPost2010Prop38
140
0.0
102
RTVSPost2010PropOp38
 70
     1
102
RTVSPost2010Prop39
140
1.0
102
RTVSPost2010PropOp39
 70
     1
102
RTVSPost2010Prop40
 90
        0
102
RTVSPost2010PropOp40
 70
     1
102
RTVSPost2010Prop41ColorIndex
 90
       18
102
RTVSPost2010Prop41ColorRGB
 90
        0
102
RTVSPost2010PropOp41
 70
     1
102
RTVSPost2010Prop42
 90
       50
102
RTVSPost2010PropOp42
 70
     1
102
RTVSPost2010Prop43
 90
        3
102
RTVSPost2010PropOp43
 70
     1
102
RTVSPost2010Prop44ColorIndex
 90
        5
102
RTVSPost2010Prop44ColorRGB
 90
      255
102
RTVSPost2010PropOp44
 70
     1
102
RTVSPost2010Prop45
280
     0
102
RTVSPost2010PropOp45
 70
     1
102
RTVSPost2010Prop46
 90
       50
102
RTVSPost2010PropOp46
 70
     1
102
RTVSPost2010Prop47
 90
       50
102
RTVSPost2010PropOp47
 70
     1
102
RTVSPost2010Prop48
 90
       50
102
RTVSPost2010PropOp48
 70
     1
102
RTVSPost2010Prop49
280
     0
102
RTVSPost2010PropOp49
 70
     1
102
RTVSPost2010Prop50
 90
       50
102
RTVSPost2010PropOp50
 70
     1
102
RTVSPost2010Prop51ColorIndex
 90
      256
102
RTVSPost2010Prop51ColorRGB
 90
-16777216
102
RTVSPost2010PropOp51
 70
     0
102
RTVSPost2010Prop52
140
1.0
102
RTVSPost2010PropOp52
 70
     0
102
RTVSPost2010Prop53
 90
        2
102
RTVSPost2010PropOp53
 70
     1
102
RTVSPost2010Prop54
  1
strokes_ogs.tif
102
RTVSPost2010PropOp54
 70
     1
102
RTVSPost2010Prop55
280
     0
102
RTVSPost2010PropOp55
 70
     1
102
RTVSPost2010Prop56
140
1.0
102
RTVSPost2010PropOp56
 70
     1
102
RTVSPost2010Prop57
140
1.0
102
RTVSPost2010PropOp57
 70
     1
102
RTVSPropertyOp0
 70
     1
102
RTVSPropertyOp1
 70
     1
102
RTVSPropertyOp2
 70
     1
102
RTVSPropertyOp3
 70
     1
102
RTVSPropertyOp4
 70
     1
102
RTVSPropertyOp5
 70
     1
102
RTVSPropertyOp6
 70
     1
102
RTVSPropertyOp7
 70
     1
102
RTVSPropertyOp8
 70
     1
102
RTVSPropertyOp9
 70
     1
102
RTVSPropertyOp10
 70
     1
102
RTVSPropertyOp11
 70
     1
102
RTVSPropertyOp12
 70
     1
102
RTVSPropertyOp13
 70
     1
102
RTVSPropertyOp14
 70
     1
102
RTVSPropertyOp15
 70
     1
102
RTVSPropertyOp16
 70
     1
102
RTVSPropertyOp17
 70
     1
102
RTVSPropertyOp18
 70
     1
102
RTVSPropertyOp19
 70
     1
102
RTVSPropertyOp20
 70
     1
102
RTVSPropertyOp21
 70
     1
102
RTVSPropertyOp22
 70
     1
102
RTVSPropertyOp23
 70
     1
102
RTVSPropertyOp24
 70
     1
102
RTVSPropertyOp25
 70
     1
102
RTVSPropertyOp26
 70
     1
102
RTVSPropertyOp27
 70
     1
102
RTVSPropertyOp28
 70
     1
102
RTVSPropertyOp29
 70
     1
102
RTVSPropertyOp30
 70
     1
102
RTVSPropertyOp31
 70
     1
102
RTVSPropertyOp32
 70
     1
102
RTVSPropertyOp33
 70
     1
102
RTVSPropertyOp34
 70
     1
102
RTVSPropertyOp35
 70
     1
102
RTVSPropertyOp36
 70
     1
102
RTVSPropertyOp37
 70
     1
102
RTVSPropertyOp38
 70
     1
102
RTVSPropertyOp39
 70
     1
102
RTVSPropertyOp40
 70
     1
102
RTVSPropertyOp41
 70
     1
102
RTVSPropertyOp42
 70
     1
102
RTVSPropertyOp43
 70
     1
102
RTVSPropertyOp44
 70
     1
102
RTVSPropertyOp45
 70
     1
102
RTVSPropertyOp46
 70
     1
102
RTVSPropertyOp47
 70
     1
102
RTVSPropertyOp48
 70
     1
102
RTVSPropertyOp49
 70
     1
102
RTVSPropertyOp50
 70
     1
102
RTVSPropertyOp51
 70
     0
102
RTVSPropertyOp52
 70
     0
102
RTVSPropertyOp53
 70
     1
102
RTVSPropertyOp54
 70
     1
102
RTVSPropertyOp55
 70
     1
102
RTVSPropertyOp56
 70
     1
102
RTVSPropertyOp57
 70
     1
102
RTVSPropertyOp58
 70
     1
102
RTVSPropertyOp59
 70
     1
102
RTVSPropertyOp60
 70
     1
102
RTVSPropertyOp61
 70
     1
102
RTVSPropertyOp62
 70
     1
  0
XRECORD
  5
8508
102
{ACAD_REACTORS
330
8507
102
}
330
8507
100
AcDbXrecord
280
     1
102
RTVSPost2010Prop28
280
     0
102
RTVSPost2010PropOp28
 70
     1
102
RTVSPost2010Prop29
280
     1
102
RTVSPost2010PropOp29
 70
     1
102
RTVSPost2010Prop30
280
     1
102
RTVSPost2010PropOp30
 70
     1
102
RTVSPost2010Prop31
280
     0
102
RTVSPost2010PropOp31
 70
     1
102
RTVSPost2010Prop32
280
     0
102
RTVSPost2010PropOp32
 70
     1
102
RTVSPost2010Prop33
280
     0
102
RTVSPost2010PropOp33
 70
     1
102
RTVSPost2010Prop34
280
     0
102
RTVSPost2010PropOp34
 70
     1
102
RTVSPost2010Prop35
280
     0
102
RTVSPost2010PropOp35
 70
     1
102
RTVSPost2010Prop36
280
     0
102
RTVSPost2010PropOp36
 70
     1
102
RTVSPost2010Prop37
 90
       50
102
RTVSPost2010PropOp37
 70
     1
102
RTVSPost2010Prop38
140
0.0
102
RTVSPost2010PropOp38
 70
     1
102
RTVSPost2010Prop39
140
1.0
102
RTVSPost2010PropOp39
 70
     1
102
RTVSPost2010Prop40
 90
        0
102
RTVSPost2010PropOp40
 70
     1
102
RTVSPost2010Prop41ColorIndex
 90
       18
102
RTVSPost2010Prop41ColorRGB
 90
        0
102
RTVSPost2010PropOp41
 70
     1
102
RTVSPost2010Prop42
 90
       50
102
RTVSPost2010PropOp42
 70
     1
102
RTVSPost2010Prop43
 90
        3
102
RTVSPost2010PropOp43
 70
     1
102
RTVSPost2010Prop44ColorIndex
 90
        5
102
RTVSPost2010Prop44ColorRGB
 90
      255
102
RTVSPost2010PropOp44
 70
     1
102
RTVSPost2010Prop45
280
     0
102
RTVSPost2010PropOp45
 70
     1
102
RTVSPost2010Prop46
 90
       50
102
RTVSPost2010PropOp46
 70
     1
102
RTVSPost2010Prop47
 90
       50
102
RTVSPost2010PropOp47
 70
     1
102
RTVSPost2010Prop48
 90
       50
102
RTVSPost2010PropOp48
 70
     1
102
RTVSPost2010Prop49
280
     0
102
RTVSPost2010PropOp49
 70
     1
102
RTVSPost2010Prop50
 90
       50
102
RTVSPost2010PropOp50
 70
     1
102
RTVSPost2010Prop51ColorIndex
 90
      256
102
RTVSPost2010Prop51ColorRGB
 90
-16777216
102
RTVSPost2010PropOp51
 70
     0
102
RTVSPost2010Prop52
140
1.0
102
RTVSPost2010PropOp52
 70
     0
102
RTVSPost2010Prop53
 90
        2
102
RTVSPost2010PropOp53
 70
     1
102
RTVSPost2010Prop54
  1
strokes_ogs.tif
102
RTVSPost2010PropOp54
 70
     1
102
RTVSPost2010Prop55
280
     0
102
RTVSPost2010PropOp55
 70
     1
102
RTVSPost2010Prop56
140
1.0
102
RTVSPost2010PropOp56
 70
     1
102
RTVSPost2010Prop57
140
1.0
102
RTVSPost2010PropOp57
 70
     1
102
RTVSPropertyOp0
 70
     1
102
RTVSPropertyOp1
 70
     1
102
RTVSPropertyOp2
 70
     1
102
RTVSPropertyOp3
 70
     1
102
RTVSPropertyOp4
 70
     1
102
RTVSPropertyOp5
 70
     1
102
RTVSPropertyOp6
 70
     1
102
RTVSPropertyOp7
 70
     1
102
RTVSPropertyOp8
 70
     1
102
RTVSPropertyOp9
 70
     1
102
RTVSPropertyOp10
 70
     1
102
RTVSPropertyOp11
 70
     1
102
RTVSPropertyOp12
 70
     1
102
RTVSPropertyOp13
 70
     1
102
RTVSPropertyOp14
 70
     1
102
RTVSPropertyOp15
 70
     1
102
RTVSPropertyOp16
 70
     1
102
RTVSPropertyOp17
 70
     1
102
RTVSPropertyOp18
 70
     1
102
RTVSPropertyOp19
 70
     1
102
RTVSPropertyOp20
 70
     1
102
RTVSPropertyOp21
 70
     1
102
RTVSPropertyOp22
 70
     1
102
RTVSPropertyOp23
 70
     1
102
RTVSPropertyOp24
 70
     1
102
RTVSPropertyOp25
 70
     1
102
RTVSPropertyOp26
 70
     1
102
RTVSPropertyOp27
 70
     1
102
RTVSPropertyOp28
 70
     1
102
RTVSPropertyOp29
 70
     1
102
RTVSPropertyOp30
 70
     1
102
RTVSPropertyOp31
 70
     1
102
RTVSPropertyOp32
 70
     1
102
RTVSPropertyOp33
 70
     1
102
RTVSPropertyOp34
 70
     1
102
RTVSPropertyOp35
 70
     1
102
RTVSPropertyOp36
 70
     1
102
RTVSPropertyOp37
 70
     1
102
RTVSPropertyOp38
 70
     1
102
RTVSPropertyOp39
 70
     1
102
RTVSPropertyOp40
 70
     1
102
RTVSPropertyOp41
 70
     1
102
RTVSPropertyOp42
 70
     1
102
RTVSPropertyOp43
 70
     1
102
RTVSPropertyOp44
 70
     1
102
RTVSPropertyOp45
 70
     1
102
RTVSPropertyOp46
 70
     1
102
RTVSPropertyOp47
 70
     1
102
RTVSPropertyOp48
 70
     1
102
RTVSPropertyOp49
 70
     1
102
RTVSPropertyOp50
 70
     1
102
RTVSPropertyOp51
 70
     0
102
RTVSPropertyOp52
 70
     0
102
RTVSPropertyOp53
 70
     1
102
RTVSPropertyOp54
 70
     1
102
RTVSPropertyOp55
 70
     1
102
RTVSPropertyOp56
 70
     1
102
RTVSPropertyOp57
 70
     1
102
RTVSPropertyOp58
 70
     1
102
RTVSPropertyOp59
 70
     1
102
RTVSPropertyOp60
 70
     1
102
RTVSPropertyOp61
 70
     1
102
RTVSPropertyOp62
 70
     1
  0
XRECORD
  5
8516
102
{ACAD_REACTORS
330
8515
102
}
330
8515
100
AcDbXrecord
280
     1
102
RTVSPost2010Prop28
280
     0
102
RTVSPost2010PropOp28
 70
     1
102
RTVSPost2010Prop29
280
     1
102
RTVSPost2010PropOp29
 70
     1
102
RTVSPost2010Prop30
280
     1
102
RTVSPost2010PropOp30
 70
     1
102
RTVSPost2010Prop31
280
     0
102
RTVSPost2010PropOp31
 70
     1
102
RTVSPost2010Prop32
280
     0
102
RTVSPost2010PropOp32
 70
     1
102
RTVSPost2010Prop33
280
     0
102
RTVSPost2010PropOp33
 70
     1
102
RTVSPost2010Prop34
280
     0
102
RTVSPost2010PropOp34
 70
     1
102
RTVSPost2010Prop35
280
     0
102
RTVSPost2010PropOp35
 70
     1
102
RTVSPost2010Prop36
280
     0
102
RTVSPost2010PropOp36
 70
     1
102
RTVSPost2010Prop37
 90
       50
102
RTVSPost2010PropOp37
 70
     1
102
RTVSPost2010Prop38
140
0.0
102
RTVSPost2010PropOp38
 70
     1
102
RTVSPost2010Prop39
140
1.0
102
RTVSPost2010PropOp39
 70
     1
102
RTVSPost2010Prop40
 90
        0
102
RTVSPost2010PropOp40
 70
     1
102
RTVSPost2010Prop41ColorIndex
 90
       18
102
RTVSPost2010Prop41ColorRGB
 90
        0
102
RTVSPost2010PropOp41
 70
     1
102
RTVSPost2010Prop42
 90
       50
102
RTVSPost2010PropOp42
 70
     1
102
RTVSPost2010Prop43
 90
        3
102
RTVSPost2010PropOp43
 70
     1
102
RTVSPost2010Prop44ColorIndex
 90
        5
102
RTVSPost2010Prop44ColorRGB
 90
      255
102
RTVSPost2010PropOp44
 70
     1
102
RTVSPost2010Prop45
280
     0
102
RTVSPost2010PropOp45
 70
     1
102
RTVSPost2010Prop46
 90
       50
102
RTVSPost2010PropOp46
 70
     1
102
RTVSPost2010Prop47
 90
       50
102
RTVSPost2010PropOp47
 70
     1
102
RTVSPost2010Prop48
 90
       50
102
RTVSPost2010PropOp48
 70
     1
102
RTVSPost2010Prop49
280
     0
102
RTVSPost2010PropOp49
 70
     1
102
RTVSPost2010Prop50
 90
       50
102
RTVSPost2010PropOp50
 70
     1
102
RTVSPost2010Prop51ColorIndex
 90
      256
102
RTVSPost2010Prop51ColorRGB
 90
-16777216
102
RTVSPost2010PropOp51
 70
     0
102
RTVSPost2010Prop52
140
1.0
102
RTVSPost2010PropOp52
 70
     0
102
RTVSPost2010Prop53
 90
        2
102
RTVSPost2010PropOp53
 70
     1
102
RTVSPost2010Prop54
  1
strokes_ogs.tif
102
RTVSPost2010PropOp54
 70
     1
102
RTVSPost2010Prop55
280
     0
102
RTVSPost2010PropOp55
 70
     1
102
RTVSPost2010Prop56
140
1.0
102
RTVSPost2010PropOp56
 70
     1
102
RTVSPost2010Prop57
140
1.0
102
RTVSPost2010PropOp57
 70
     1
102
RTVSPropertyOp0
 70
     1
102
RTVSPropertyOp1
 70
     1
102
RTVSPropertyOp2
 70
     1
102
RTVSPropertyOp3
 70
     1
102
RTVSPropertyOp4
 70
     1
102
RTVSPropertyOp5
 70
     1
102
RTVSPropertyOp6
 70
     1
102
RTVSPropertyOp7
 70
     1
102
RTVSPropertyOp8
 70
     1
102
RTVSPropertyOp9
 70
     1
102
RTVSPropertyOp10
 70
     1
102
RTVSPropertyOp11
 70
     1
102
RTVSPropertyOp12
 70
     1
102
RTVSPropertyOp13
 70
     1
102
RTVSPropertyOp14
 70
     1
102
RTVSPropertyOp15
 70
     1
102
RTVSPropertyOp16
 70
     1
102
RTVSPropertyOp17
 70
     1
102
RTVSPropertyOp18
 70
     1
102
RTVSPropertyOp19
 70
     1
102
RTVSPropertyOp20
 70
     1
102
RTVSPropertyOp21
 70
     1
102
RTVSPropertyOp22
 70
     1
102
RTVSPropertyOp23
 70
     1
102
RTVSPropertyOp24
 70
     1
102
RTVSPropertyOp25
 70
     1
102
RTVSPropertyOp26
 70
     1
102
RTVSPropertyOp27
 70
     1
102
RTVSPropertyOp28
 70
     1
102
RTVSPropertyOp29
 70
     1
102
RTVSPropertyOp30
 70
     1
102
RTVSPropertyOp31
 70
     1
102
RTVSPropertyOp32
 70
     1
102
RTVSPropertyOp33
 70
     1
102
RTVSPropertyOp34
 70
     1
102
RTVSPropertyOp35
 70
     1
102
RTVSPropertyOp36
 70
     1
102
RTVSPropertyOp37
 70
     1
102
RTVSPropertyOp38
 70
     1
102
RTVSPropertyOp39
 70
     1
102
RTVSPropertyOp40
 70
     1
102
RTVSPropertyOp41
 70
     1
102
RTVSPropertyOp42
 70
     1
102
RTVSPropertyOp43
 70
     1
102
RTVSPropertyOp44
 70
     1
102
RTVSPropertyOp45
 70
     1
102
RTVSPropertyOp46
 70
     1
102
RTVSPropertyOp47
 70
     1
102
RTVSPropertyOp48
 70
     1
102
RTVSPropertyOp49
 70
     1
102
RTVSPropertyOp50
 70
     1
102
RTVSPropertyOp51
 70
     0
102
RTVSPropertyOp52
 70
     0
102
RTVSPropertyOp53
 70
     1
102
RTVSPropertyOp54
 70
     1
102
RTVSPropertyOp55
 70
     1
102
RTVSPropertyOp56
 70
     1
102
RTVSPropertyOp57
 70
     1
102
RTVSPropertyOp58
 70
     1
102
RTVSPropertyOp59
 70
     1
102
RTVSPropertyOp60
 70
     1
102
RTVSPropertyOp61
 70
     1
102
RTVSPropertyOp62
 70
     1
  0
XRECORD
  5
851E
102
{ACAD_REACTORS
330
851D
102
}
330
851D
100
AcDbXrecord
280
     1
102
RTVSPost2010Prop28
280
     0
102
RTVSPost2010PropOp28
 70
     1
102
RTVSPost2010Prop29
280
     1
102
RTVSPost2010PropOp29
 70
     1
102
RTVSPost2010Prop30
280
     1
102
RTVSPost2010PropOp30
 70
     1
102
RTVSPost2010Prop31
280
     0
102
RTVSPost2010PropOp31
 70
     1
102
RTVSPost2010Prop32
280
     0
102
RTVSPost2010PropOp32
 70
     1
102
RTVSPost2010Prop33
280
     0
102
RTVSPost2010PropOp33
 70
     1
102
RTVSPost2010Prop34
280
     0
102
RTVSPost2010PropOp34
 70
     1
102
RTVSPost2010Prop35
280
     0
102
RTVSPost2010PropOp35
 70
     1
102
RTVSPost2010Prop36
280
     0
102
RTVSPost2010PropOp36
 70
     1
102
RTVSPost2010Prop37
 90
       50
102
RTVSPost2010PropOp37
 70
     1
102
RTVSPost2010Prop38
140
0.0
102
RTVSPost2010PropOp38
 70
     1
102
RTVSPost2010Prop39
140
1.0
102
RTVSPost2010PropOp39
 70
     1
102
RTVSPost2010Prop40
 90
        0
102
RTVSPost2010PropOp40
 70
     1
102
RTVSPost2010Prop41ColorIndex
 90
       18
102
RTVSPost2010Prop41ColorRGB
 90
        0
102
RTVSPost2010PropOp41
 70
     1
102
RTVSPost2010Prop42
 90
       50
102
RTVSPost2010PropOp42
 70
     1
102
RTVSPost2010Prop43
 90
        3
102
RTVSPost2010PropOp43
 70
     1
102
RTVSPost2010Prop44ColorIndex
 90
        5
102
RTVSPost2010Prop44ColorRGB
 90
      255
102
RTVSPost2010PropOp44
 70
     1
102
RTVSPost2010Prop45
280
     0
102
RTVSPost2010PropOp45
 70
     1
102
RTVSPost2010Prop46
 90
       50
102
RTVSPost2010PropOp46
 70
     1
102
RTVSPost2010Prop47
 90
       50
102
RTVSPost2010PropOp47
 70
     1
102
RTVSPost2010Prop48
 90
       50
102
RTVSPost2010PropOp48
 70
     1
102
RTVSPost2010Prop49
280
     0
102
RTVSPost2010PropOp49
 70
     1
102
RTVSPost2010Prop50
 90
       50
102
RTVSPost2010PropOp50
 70
     1
102
RTVSPost2010Prop51ColorIndex
 90
      256
102
RTVSPost2010Prop51ColorRGB
 90
-16777216
102
RTVSPost2010PropOp51
 70
     0
102
RTVSPost2010Prop52
140
1.0
102
RTVSPost2010PropOp52
 70
     0
102
RTVSPost2010Prop53
 90
        2
102
RTVSPost2010PropOp53
 70
     1
102
RTVSPost2010Prop54
  1
strokes_ogs.tif
102
RTVSPost2010PropOp54
 70
     1
102
RTVSPost2010Prop55
280
     0
102
RTVSPost2010PropOp55
 70
     1
102
RTVSPost2010Prop56
140
1.0
102
RTVSPost2010PropOp56
 70
     1
102
RTVSPost2010Prop57
140
1.0
102
RTVSPost2010PropOp57
 70
     1
102
RTVSPropertyOp0
 70
     1
102
RTVSPropertyOp1
 70
     1
102
RTVSPropertyOp2
 70
     1
102
RTVSPropertyOp3
 70
     1
102
RTVSPropertyOp4
 70
     1
102
RTVSPropertyOp5
 70
     1
102
RTVSPropertyOp6
 70
     1
102
RTVSPropertyOp7
 70
     1
102
RTVSPropertyOp8
 70
     1
102
RTVSPropertyOp9
 70
     1
102
RTVSPropertyOp10
 70
     1
102
RTVSPropertyOp11
 70
     1
102
RTVSPropertyOp12
 70
     1
102
RTVSPropertyOp13
 70
     1
102
RTVSPropertyOp14
 70
     1
102
RTVSPropertyOp15
 70
     1
102
RTVSPropertyOp16
 70
     1
102
RTVSPropertyOp17
 70
     1
102
RTVSPropertyOp18
 70
     1
102
RTVSPropertyOp19
 70
     1
102
RTVSPropertyOp20
 70
     1
102
RTVSPropertyOp21
 70
     1
102
RTVSPropertyOp22
 70
     1
102
RTVSPropertyOp23
 70
     1
102
RTVSPropertyOp24
 70
     1
102
RTVSPropertyOp25
 70
     1
102
RTVSPropertyOp26
 70
     1
102
RTVSPropertyOp27
 70
     1
102
RTVSPropertyOp28
 70
     1
102
RTVSPropertyOp29
 70
     1
102
RTVSPropertyOp30
 70
     1
102
RTVSPropertyOp31
 70
     1
102
RTVSPropertyOp32
 70
     1
102
RTVSPropertyOp33
 70
     1
102
RTVSPropertyOp34
 70
     1
102
RTVSPropertyOp35
 70
     1
102
RTVSPropertyOp36
 70
     1
102
RTVSPropertyOp37
 70
     1
102
RTVSPropertyOp38
 70
     1
102
RTVSPropertyOp39
 70
     1
102
RTVSPropertyOp40
 70
     1
102
RTVSPropertyOp41
 70
     1
102
RTVSPropertyOp42
 70
     1
102
RTVSPropertyOp43
 70
     1
102
RTVSPropertyOp44
 70
     1
102
RTVSPropertyOp45
 70
     1
102
RTVSPropertyOp46
 70
     1
102
RTVSPropertyOp47
 70
     1
102
RTVSPropertyOp48
 70
     1
102
RTVSPropertyOp49
 70
     1
102
RTVSPropertyOp50
 70
     1
102
RTVSPropertyOp51
 70
     0
102
RTVSPropertyOp52
 70
     0
102
RTVSPropertyOp53
 70
     1
102
RTVSPropertyOp54
 70
     1
102
RTVSPropertyOp55
 70
     1
102
RTVSPropertyOp56
 70
     1
102
RTVSPropertyOp57
 70
     1
102
RTVSPropertyOp58
 70
     1
102
RTVSPropertyOp59
 70
     1
102
RTVSPropertyOp60
 70
     1
102
RTVSPropertyOp61
 70
     1
102
RTVSPropertyOp62
 70
     1
  0
XRECORD
  5
8510
102
{ACAD_REACTORS
330
850F
102
}
330
850F
100
AcDbXrecord
280
     1
102
RTVSPost2010Prop28
280
     0
102
RTVSPost2010PropOp28
 70
     1
102
RTVSPost2010Prop29
280
     1
102
RTVSPost2010PropOp29
 70
     1
102
RTVSPost2010Prop30
280
     1
102
RTVSPost2010PropOp30
 70
     1
102
RTVSPost2010Prop31
280
     0
102
RTVSPost2010PropOp31
 70
     1
102
RTVSPost2010Prop32
280
     0
102
RTVSPost2010PropOp32
 70
     1
102
RTVSPost2010Prop33
280
     0
102
RTVSPost2010PropOp33
 70
     1
102
RTVSPost2010Prop34
280
     0
102
RTVSPost2010PropOp34
 70
     1
102
RTVSPost2010Prop35
280
     0
102
RTVSPost2010PropOp35
 70
     1
102
RTVSPost2010Prop36
280
     0
102
RTVSPost2010PropOp36
 70
     1
102
RTVSPost2010Prop37
 90
       50
102
RTVSPost2010PropOp37
 70
     1
102
RTVSPost2010Prop38
140
0.0
102
RTVSPost2010PropOp38
 70
     1
102
RTVSPost2010Prop39
140
1.0
102
RTVSPost2010PropOp39
 70
     1
102
RTVSPost2010Prop40
 90
        0
102
RTVSPost2010PropOp40
 70
     1
102
RTVSPost2010Prop41ColorIndex
 90
       18
102
RTVSPost2010Prop41ColorRGB
 90
        0
102
RTVSPost2010PropOp41
 70
     1
102
RTVSPost2010Prop42
 90
       50
102
RTVSPost2010PropOp42
 70
     1
102
RTVSPost2010Prop43
 90
        3
102
RTVSPost2010PropOp43
 70
     1
102
RTVSPost2010Prop44ColorIndex
 90
        5
102
RTVSPost2010Prop44ColorRGB
 90
      255
102
RTVSPost2010PropOp44
 70
     1
102
RTVSPost2010Prop45
280
     0
102
RTVSPost2010PropOp45
 70
     1
102
RTVSPost2010Prop46
 90
       50
102
RTVSPost2010PropOp46
 70
     1
102
RTVSPost2010Prop47
 90
       50
102
RTVSPost2010PropOp47
 70
     1
102
RTVSPost2010Prop48
 90
       50
102
RTVSPost2010PropOp48
 70
     1
102
RTVSPost2010Prop49
280
     0
102
RTVSPost2010PropOp49
 70
     1
102
RTVSPost2010Prop50
 90
       50
102
RTVSPost2010PropOp50
 70
     1
102
RTVSPost2010Prop51ColorIndex
 90
      256
102
RTVSPost2010Prop51ColorRGB
 90
-16777216
102
RTVSPost2010PropOp51
 70
     0
102
RTVSPost2010Prop52
140
1.0
102
RTVSPost2010PropOp52
 70
     0
102
RTVSPost2010Prop53
 90
        2
102
RTVSPost2010PropOp53
 70
     1
102
RTVSPost2010Prop54
  1
strokes_ogs.tif
102
RTVSPost2010PropOp54
 70
     1
102
RTVSPost2010Prop55
280
     0
102
RTVSPost2010PropOp55
 70
     1
102
RTVSPost2010Prop56
140
1.0
102
RTVSPost2010PropOp56
 70
     1
102
RTVSPost2010Prop57
140
1.0
102
RTVSPost2010PropOp57
 70
     1
102
RTVSPropertyOp0
 70
     1
102
RTVSPropertyOp1
 70
     1
102
RTVSPropertyOp2
 70
     1
102
RTVSPropertyOp3
 70
     1
102
RTVSPropertyOp4
 70
     1
102
RTVSPropertyOp5
 70
     1
102
RTVSPropertyOp6
 70
     1
102
RTVSPropertyOp7
 70
     1
102
RTVSPropertyOp8
 70
     1
102
RTVSPropertyOp9
 70
     1
102
RTVSPropertyOp10
 70
     1
102
RTVSPropertyOp11
 70
     1
102
RTVSPropertyOp12
 70
     1
102
RTVSPropertyOp13
 70
     1
102
RTVSPropertyOp14
 70
     1
102
RTVSPropertyOp15
 70
     1
102
RTVSPropertyOp16
 70
     1
102
RTVSPropertyOp17
 70
     1
102
RTVSPropertyOp18
 70
     1
102
RTVSPropertyOp19
 70
     1
102
RTVSPropertyOp20
 70
     1
102
RTVSPropertyOp21
 70
     1
102
RTVSPropertyOp22
 70
     1
102
RTVSPropertyOp23
 70
     1
102
RTVSPropertyOp24
 70
     1
102
RTVSPropertyOp25
 70
     1
102
RTVSPropertyOp26
 70
     1
102
RTVSPropertyOp27
 70
     1
102
RTVSPropertyOp28
 70
     1
102
RTVSPropertyOp29
 70
     1
102
RTVSPropertyOp30
 70
     1
102
RTVSPropertyOp31
 70
     1
102
RTVSPropertyOp32
 70
     1
102
RTVSPropertyOp33
 70
     1
102
RTVSPropertyOp34
 70
     1
102
RTVSPropertyOp35
 70
     1
102
RTVSPropertyOp36
 70
     1
102
RTVSPropertyOp37
 70
     1
102
RTVSPropertyOp38
 70
     1
102
RTVSPropertyOp39
 70
     1
102
RTVSPropertyOp40
 70
     1
102
RTVSPropertyOp41
 70
     1
102
RTVSPropertyOp42
 70
     1
102
RTVSPropertyOp43
 70
     1
102
RTVSPropertyOp44
 70
     1
102
RTVSPropertyOp45
 70
     1
102
RTVSPropertyOp46
 70
     1
102
RTVSPropertyOp47
 70
     1
102
RTVSPropertyOp48
 70
     1
102
RTVSPropertyOp49
 70
     1
102
RTVSPropertyOp50
 70
     1
102
RTVSPropertyOp51
 70
     0
102
RTVSPropertyOp52
 70
     0
102
RTVSPropertyOp53
 70
     1
102
RTVSPropertyOp54
 70
     1
102
RTVSPropertyOp55
 70
     1
102
RTVSPropertyOp56
 70
     1
102
RTVSPropertyOp57
 70
     1
102
RTVSPropertyOp58
 70
     1
102
RTVSPropertyOp59
 70
     1
102
RTVSPropertyOp60
 70
     1
102
RTVSPropertyOp61
 70
     1
102
RTVSPropertyOp62
 70
     1
  0
XRECORD
  5
8514
102
{ACAD_REACTORS
330
8513
102
}
330
8513
100
AcDbXrecord
280
     1
102
RTVSPost2010Prop28
280
     0
102
RTVSPost2010PropOp28
 70
     1
102
RTVSPost2010Prop29
280
     1
102
RTVSPost2010PropOp29
 70
     1
102
RTVSPost2010Prop30
280
     1
102
RTVSPost2010PropOp30
 70
     1
102
RTVSPost2010Prop31
280
     0
102
RTVSPost2010PropOp31
 70
     1
102
RTVSPost2010Prop32
280
     0
102
RTVSPost2010PropOp32
 70
     1
102
RTVSPost2010Prop33
280
     0
102
RTVSPost2010PropOp33
 70
     1
102
RTVSPost2010Prop34
280
     0
102
RTVSPost2010PropOp34
 70
     1
102
RTVSPost2010Prop35
280
     0
102
RTVSPost2010PropOp35
 70
     1
102
RTVSPost2010Prop36
280
     0
102
RTVSPost2010PropOp36
 70
     1
102
RTVSPost2010Prop37
 90
       50
102
RTVSPost2010PropOp37
 70
     1
102
RTVSPost2010Prop38
140
0.0
102
RTVSPost2010PropOp38
 70
     1
102
RTVSPost2010Prop39
140
1.0
102
RTVSPost2010PropOp39
 70
     1
102
RTVSPost2010Prop40
 90
        0
102
RTVSPost2010PropOp40
 70
     1
102
RTVSPost2010Prop41ColorIndex
 90
       18
102
RTVSPost2010Prop41ColorRGB
 90
        0
102
RTVSPost2010PropOp41
 70
     1
102
RTVSPost2010Prop42
 90
       50
102
RTVSPost2010PropOp42
 70
     1
102
RTVSPost2010Prop43
 90
        3
102
RTVSPost2010PropOp43
 70
     1
102
RTVSPost2010Prop44ColorIndex
 90
        5
102
RTVSPost2010Prop44ColorRGB
 90
      255
102
RTVSPost2010PropOp44
 70
     1
102
RTVSPost2010Prop45
280
     0
102
RTVSPost2010PropOp45
 70
     1
102
RTVSPost2010Prop46
 90
       50
102
RTVSPost2010PropOp46
 70
     1
102
RTVSPost2010Prop47
 90
       50
102
RTVSPost2010PropOp47
 70
     1
102
RTVSPost2010Prop48
 90
       50
102
RTVSPost2010PropOp48
 70
     1
102
RTVSPost2010Prop49
280
     0
102
RTVSPost2010PropOp49
 70
     1
102
RTVSPost2010Prop50
 90
       50
102
RTVSPost2010PropOp50
 70
     1
102
RTVSPost2010Prop51ColorIndex
 90
      256
102
RTVSPost2010Prop51ColorRGB
 90
-16777216
102
RTVSPost2010PropOp51
 70
     0
102
RTVSPost2010Prop52
140
1.0
102
RTVSPost2010PropOp52
 70
     0
102
RTVSPost2010Prop53
 90
        2
102
RTVSPost2010PropOp53
 70
     1
102
RTVSPost2010Prop54
  1
strokes_ogs.tif
102
RTVSPost2010PropOp54
 70
     1
102
RTVSPost2010Prop55
280
     0
102
RTVSPost2010PropOp55
 70
     1
102
RTVSPost2010Prop56
140
1.0
102
RTVSPost2010PropOp56
 70
     1
102
RTVSPost2010Prop57
140
1.0
102
RTVSPost2010PropOp57
 70
     1
102
RTVSPropertyOp0
 70
     1
102
RTVSPropertyOp1
 70
     1
102
RTVSPropertyOp2
 70
     1
102
RTVSPropertyOp3
 70
     1
102
RTVSPropertyOp4
 70
     1
102
RTVSPropertyOp5
 70
     1
102
RTVSPropertyOp6
 70
     1
102
RTVSPropertyOp7
 70
     1
102
RTVSPropertyOp8
 70
     1
102
RTVSPropertyOp9
 70
     1
102
RTVSPropertyOp10
 70
     1
102
RTVSPropertyOp11
 70
     1
102
RTVSPropertyOp12
 70
     1
102
RTVSPropertyOp13
 70
     1
102
RTVSPropertyOp14
 70
     1
102
RTVSPropertyOp15
 70
     1
102
RTVSPropertyOp16
 70
     1
102
RTVSPropertyOp17
 70
     1
102
RTVSPropertyOp18
 70
     1
102
RTVSPropertyOp19
 70
     1
102
RTVSPropertyOp20
 70
     1
102
RTVSPropertyOp21
 70
     1
102
RTVSPropertyOp22
 70
     1
102
RTVSPropertyOp23
 70
     1
102
RTVSPropertyOp24
 70
     1
102
RTVSPropertyOp25
 70
     1
102
RTVSPropertyOp26
 70
     1
102
RTVSPropertyOp27
 70
     1
102
RTVSPropertyOp28
 70
     1
102
RTVSPropertyOp29
 70
     1
102
RTVSPropertyOp30
 70
     1
102
RTVSPropertyOp31
 70
     1
102
RTVSPropertyOp32
 70
     1
102
RTVSPropertyOp33
 70
     1
102
RTVSPropertyOp34
 70
     1
102
RTVSPropertyOp35
 70
     1
102
RTVSPropertyOp36
 70
     1
102
RTVSPropertyOp37
 70
     1
102
RTVSPropertyOp38
 70
     1
102
RTVSPropertyOp39
 70
     1
102
RTVSPropertyOp40
 70
     1
102
RTVSPropertyOp41
 70
     1
102
RTVSPropertyOp42
 70
     1
102
RTVSPropertyOp43
 70
     1
102
RTVSPropertyOp44
 70
     1
102
RTVSPropertyOp45
 70
     1
102
RTVSPropertyOp46
 70
     1
102
RTVSPropertyOp47
 70
     1
102
RTVSPropertyOp48
 70
     1
102
RTVSPropertyOp49
 70
     1
102
RTVSPropertyOp50
 70
     1
102
RTVSPropertyOp51
 70
     0
102
RTVSPropertyOp52
 70
     0
102
RTVSPropertyOp53
 70
     1
102
RTVSPropertyOp54
 70
     1
102
RTVSPropertyOp55
 70
     1
102
RTVSPropertyOp56
 70
     1
102
RTVSPropertyOp57
 70
     1
102
RTVSPropertyOp58
 70
     1
102
RTVSPropertyOp59
 70
     1
102
RTVSPropertyOp60
 70
     1
102
RTVSPropertyOp61
 70
     1
102
RTVSPropertyOp62
 70
     1
  0
XRECORD
  5
852E
102
{ACAD_REACTORS
330
852D
102
}
330
852D
100
AcDbXrecord
280
     1
102
RTVSPost2010Prop28
280
     0
102
RTVSPost2010PropOp28
 70
     1
102
RTVSPost2010Prop29
280
     1
102
RTVSPost2010PropOp29
 70
     1
102
RTVSPost2010Prop30
280
     1
102
RTVSPost2010PropOp30
 70
     1
102
RTVSPost2010Prop31
280
     0
102
RTVSPost2010PropOp31
 70
     1
102
RTVSPost2010Prop32
280
     0
102
RTVSPost2010PropOp32
 70
     1
102
RTVSPost2010Prop33
280
     0
102
RTVSPost2010PropOp33
 70
     1
102
RTVSPost2010Prop34
280
     0
102
RTVSPost2010PropOp34
 70
     1
102
RTVSPost2010Prop35
280
     0
102
RTVSPost2010PropOp35
 70
     1
102
RTVSPost2010Prop36
280
     0
102
RTVSPost2010PropOp36
 70
     1
102
RTVSPost2010Prop37
 90
       50
102
RTVSPost2010PropOp37
 70
     0
102
RTVSPost2010Prop38
140
0.0
102
RTVSPost2010PropOp38
 70
     0
102
RTVSPost2010Prop39
140
1.0
102
RTVSPost2010PropOp39
 70
     0
102
RTVSPost2010Prop40
 90
        0
102
RTVSPost2010PropOp40
 70
     0
102
RTVSPost2010Prop41ColorIndex
 90
       18
102
RTVSPost2010Prop41ColorRGB
 90
        0
102
RTVSPost2010PropOp41
 70
     0
102
RTVSPost2010Prop42
 90
       50
102
RTVSPost2010PropOp42
 70
     0
102
RTVSPost2010Prop43
 90
        3
102
RTVSPost2010PropOp43
 70
     0
102
RTVSPost2010Prop44ColorIndex
 90
        5
102
RTVSPost2010Prop44ColorRGB
 90
      255
102
RTVSPost2010PropOp44
 70
     0
102
RTVSPost2010Prop45
280
     0
102
RTVSPost2010PropOp45
 70
     1
102
RTVSPost2010Prop46
 90
       50
102
RTVSPost2010PropOp46
 70
     0
102
RTVSPost2010Prop47
 90
       50
102
RTVSPost2010PropOp47
 70
     0
102
RTVSPost2010Prop48
 90
       50
102
RTVSPost2010PropOp48
 70
     0
102
RTVSPost2010Prop49
280
     0
102
RTVSPost2010PropOp49
 70
     1
102
RTVSPost2010Prop50
 90
       50
102
RTVSPost2010PropOp50
 70
     0
102
RTVSPost2010Prop51ColorIndex
 90
      256
102
RTVSPost2010Prop51ColorRGB
 90
-16777216
102
RTVSPost2010PropOp51
 70
     0
102
RTVSPost2010Prop52
140
1.0
102
RTVSPost2010PropOp52
 70
     0
102
RTVSPost2010Prop53
 90
        2
102
RTVSPost2010PropOp53
 70
     0
102
RTVSPost2010Prop54
  1
strokes_ogs.tif
102
RTVSPost2010PropOp54
 70
     0
102
RTVSPost2010Prop55
280
     0
102
RTVSPost2010PropOp55
 70
     1
102
RTVSPost2010Prop56
140
1.0
102
RTVSPost2010PropOp56
 70
     0
102
RTVSPost2010Prop57
140
1.0
102
RTVSPost2010PropOp57
 70
     0
102
RTVSPropertyOp0
 70
     0
102
RTVSPropertyOp1
 70
     0
102
RTVSPropertyOp2
 70
     0
102
RTVSPropertyOp3
 70
     0
102
RTVSPropertyOp4
 70
     0
102
RTVSPropertyOp5
 70
     0
102
RTVSPropertyOp6
 70
     0
102
RTVSPropertyOp7
 70
     0
102
RTVSPropertyOp8
 70
     0
102
RTVSPropertyOp9
 70
     0
102
RTVSPropertyOp10
 70
     0
102
RTVSPropertyOp11
 70
     0
102
RTVSPropertyOp12
 70
     0
102
RTVSPropertyOp13
 70
     0
102
RTVSPropertyOp14
 70
     2
102
RTVSPropertyOp15
 70
     0
102
RTVSPropertyOp16
 70
     0
102
RTVSPropertyOp17
 70
     0
102
RTVSPropertyOp18
 70
     0
102
RTVSPropertyOp19
 70
     0
102
RTVSPropertyOp20
 70
     0
102
RTVSPropertyOp21
 70
     0
102
RTVSPropertyOp22
 70
     0
102
RTVSPropertyOp23
 70
     0
102
RTVSPropertyOp24
 70
     0
102
RTVSPropertyOp25
 70
     0
102
RTVSPropertyOp26
 70
     0
102
RTVSPropertyOp27
 70
     0
102
RTVSPropertyOp28
 70
     1
102
RTVSPropertyOp29
 70
     1
102
RTVSPropertyOp30
 70
     1
102
RTVSPropertyOp31
 70
     1
102
RTVSPropertyOp32
 70
     1
102
RTVSPropertyOp33
 70
     1
102
RTVSPropertyOp34
 70
     1
102
RTVSPropertyOp35
 70
     1
102
RTVSPropertyOp36
 70
     1
102
RTVSPropertyOp37
 70
     0
102
RTVSPropertyOp38
 70
     0
102
RTVSPropertyOp39
 70
     0
102
RTVSPropertyOp40
 70
     0
102
RTVSPropertyOp41
 70
     0
102
RTVSPropertyOp42
 70
     0
102
RTVSPropertyOp43
 70
     0
102
RTVSPropertyOp44
 70
     0
102
RTVSPropertyOp45
 70
     1
102
RTVSPropertyOp46
 70
     0
102
RTVSPropertyOp47
 70
     0
102
RTVSPropertyOp48
 70
     0
102
RTVSPropertyOp49
 70
     1
102
RTVSPropertyOp50
 70
     0
102
RTVSPropertyOp51
 70
     0
102
RTVSPropertyOp52
 70
     0
102
RTVSPropertyOp53
 70
     0
102
RTVSPropertyOp54
 70
     0
102
RTVSPropertyOp55
 70
     1
102
RTVSPropertyOp56
 70
     0
102
RTVSPropertyOp57
 70
     0
102
RTVSPropertyOp58
 70
     0
102
RTVSPropertyOp59
 70
     0
102
RTVSPropertyOp60
 70
     0
102
RTVSPropertyOp61
 70
     0
102
RTVSPropertyOp62
 70
     0
  0
XRECORD
  5
851C
102
{ACAD_REACTORS
330
851B
102
}
330
851B
100
AcDbXrecord
280
     1
102
RTVSPost2010Prop28
280
     0
102
RTVSPost2010PropOp28
 70
     1
102
RTVSPost2010Prop29
280
     1
102
RTVSPost2010PropOp29
 70
     1
102
RTVSPost2010Prop30
280
     1
102
RTVSPost2010PropOp30
 70
     1
102
RTVSPost2010Prop31
280
     0
102
RTVSPost2010PropOp31
 70
     1
102
RTVSPost2010Prop32
280
     0
102
RTVSPost2010PropOp32
 70
     1
102
RTVSPost2010Prop33
280
     0
102
RTVSPost2010PropOp33
 70
     1
102
RTVSPost2010Prop34
280
     0
102
RTVSPost2010PropOp34
 70
     1
102
RTVSPost2010Prop35
280
     0
102
RTVSPost2010PropOp35
 70
     1
102
RTVSPost2010Prop36
280
     0
102
RTVSPost2010PropOp36
 70
     1
102
RTVSPost2010Prop37
 90
       50
102
RTVSPost2010PropOp37
 70
     1
102
RTVSPost2010Prop38
140
0.0
102
RTVSPost2010PropOp38
 70
     1
102
RTVSPost2010Prop39
140
1.0
102
RTVSPost2010PropOp39
 70
     1
102
RTVSPost2010Prop40
 90
        0
102
RTVSPost2010PropOp40
 70
     1
102
RTVSPost2010Prop41ColorIndex
 90
       18
102
RTVSPost2010Prop41ColorRGB
 90
        0
102
RTVSPost2010PropOp41
 70
     1
102
RTVSPost2010Prop42
 90
       50
102
RTVSPost2010PropOp42
 70
     1
102
RTVSPost2010Prop43
 90
        3
102
RTVSPost2010PropOp43
 70
     1
102
RTVSPost2010Prop44ColorIndex
 90
        5
102
RTVSPost2010Prop44ColorRGB
 90
      255
102
RTVSPost2010PropOp44
 70
     1
102
RTVSPost2010Prop45
280
     0
102
RTVSPost2010PropOp45
 70
     1
102
RTVSPost2010Prop46
 90
       50
102
RTVSPost2010PropOp46
 70
     1
102
RTVSPost2010Prop47
 90
       50
102
RTVSPost2010PropOp47
 70
     1
102
RTVSPost2010Prop48
 90
       50
102
RTVSPost2010PropOp48
 70
     1
102
RTVSPost2010Prop49
280
     0
102
RTVSPost2010PropOp49
 70
     1
102
RTVSPost2010Prop50
 90
       50
102
RTVSPost2010PropOp50
 70
     1
102
RTVSPost2010Prop51ColorIndex
 90
      256
102
RTVSPost2010Prop51ColorRGB
 90
-16777216
102
RTVSPost2010PropOp51
 70
     0
102
RTVSPost2010Prop52
140
1.0
102
RTVSPost2010PropOp52
 70
     0
102
RTVSPost2010Prop53
 90
        2
102
RTVSPost2010PropOp53
 70
     1
102
RTVSPost2010Prop54
  1
strokes_ogs.tif
102
RTVSPost2010PropOp54
 70
     1
102
RTVSPost2010Prop55
280
     0
102
RTVSPost2010PropOp55
 70
     1
102
RTVSPost2010Prop56
140
1.0
102
RTVSPost2010PropOp56
 70
     1
102
RTVSPost2010Prop57
140
1.0
102
RTVSPost2010PropOp57
 70
     1
102
RTVSPropertyOp0
 70
     1
102
RTVSPropertyOp1
 70
     1
102
RTVSPropertyOp2
 70
     1
102
RTVSPropertyOp3
 70
     1
102
RTVSPropertyOp4
 70
     1
102
RTVSPropertyOp5
 70
     1
102
RTVSPropertyOp6
 70
     1
102
RTVSPropertyOp7
 70
     1
102
RTVSPropertyOp8
 70
     1
102
RTVSPropertyOp9
 70
     1
102
RTVSPropertyOp10
 70
     1
102
RTVSPropertyOp11
 70
     1
102
RTVSPropertyOp12
 70
     1
102
RTVSPropertyOp13
 70
     1
102
RTVSPropertyOp14
 70
     1
102
RTVSPropertyOp15
 70
     1
102
RTVSPropertyOp16
 70
     1
102
RTVSPropertyOp17
 70
     1
102
RTVSPropertyOp18
 70
     1
102
RTVSPropertyOp19
 70
     1
102
RTVSPropertyOp20
 70
     1
102
RTVSPropertyOp21
 70
     1
102
RTVSPropertyOp22
 70
     1
102
RTVSPropertyOp23
 70
     1
102
RTVSPropertyOp24
 70
     1
102
RTVSPropertyOp25
 70
     1
102
RTVSPropertyOp26
 70
     1
102
RTVSPropertyOp27
 70
     1
102
RTVSPropertyOp28
 70
     1
102
RTVSPropertyOp29
 70
     1
102
RTVSPropertyOp30
 70
     1
102
RTVSPropertyOp31
 70
     1
102
RTVSPropertyOp32
 70
     1
102
RTVSPropertyOp33
 70
     1
102
RTVSPropertyOp34
 70
     1
102
RTVSPropertyOp35
 70
     1
102
RTVSPropertyOp36
 70
     1
102
RTVSPropertyOp37
 70
     1
102
RTVSPropertyOp38
 70
     1
102
RTVSPropertyOp39
 70
     1
102
RTVSPropertyOp40
 70
     1
102
RTVSPropertyOp41
 70
     1
102
RTVSPropertyOp42
 70
     1
102
RTVSPropertyOp43
 70
     1
102
RTVSPropertyOp44
 70
     1
102
RTVSPropertyOp45
 70
     1
102
RTVSPropertyOp46
 70
     1
102
RTVSPropertyOp47
 70
     1
102
RTVSPropertyOp48
 70
     1
102
RTVSPropertyOp49
 70
     1
102
RTVSPropertyOp50
 70
     1
102
RTVSPropertyOp51
 70
     0
102
RTVSPropertyOp52
 70
     0
102
RTVSPropertyOp53
 70
     1
102
RTVSPropertyOp54
 70
     1
102
RTVSPropertyOp55
 70
     1
102
RTVSPropertyOp56
 70
     1
102
RTVSPropertyOp57
 70
     1
102
RTVSPropertyOp58
 70
     1
102
RTVSPropertyOp59
 70
     1
102
RTVSPropertyOp60
 70
     1
102
RTVSPropertyOp61
 70
     1
102
RTVSPropertyOp62
 70
     1
  0
XRECORD
  5
8500
102
{ACAD_REACTORS
330
84FF
102
}
330
84FF
100
AcDbXrecord
280
     1
102
RTVSPost2010Prop28
280
     0
102
RTVSPost2010PropOp28
 70
     1
102
RTVSPost2010Prop29
280
     1
102
RTVSPost2010PropOp29
 70
     1
102
RTVSPost2010Prop30
280
     1
102
RTVSPost2010PropOp30
 70
     1
102
RTVSPost2010Prop31
280
     0
102
RTVSPost2010PropOp31
 70
     1
102
RTVSPost2010Prop32
280
     0
102
RTVSPost2010PropOp32
 70
     1
102
RTVSPost2010Prop33
280
     0
102
RTVSPost2010PropOp33
 70
     1
102
RTVSPost2010Prop34
280
     0
102
RTVSPost2010PropOp34
 70
     1
102
RTVSPost2010Prop35
280
     0
102
RTVSPost2010PropOp35
 70
     1
102
RTVSPost2010Prop36
280
     0
102
RTVSPost2010PropOp36
 70
     1
102
RTVSPost2010Prop37
 90
       50
102
RTVSPost2010PropOp37
 70
     1
102
RTVSPost2010Prop38
140
0.0
102
RTVSPost2010PropOp38
 70
     1
102
RTVSPost2010Prop39
140
1.0
102
RTVSPost2010PropOp39
 70
     1
102
RTVSPost2010Prop40
 90
        0
102
RTVSPost2010PropOp40
 70
     1
102
RTVSPost2010Prop41ColorIndex
 90
       18
102
RTVSPost2010Prop41ColorRGB
 90
        0
102
RTVSPost2010PropOp41
 70
     1
102
RTVSPost2010Prop42
 90
       50
102
RTVSPost2010PropOp42
 70
     1
102
RTVSPost2010Prop43
 90
        3
102
RTVSPost2010PropOp43
 70
     1
102
RTVSPost2010Prop44ColorIndex
 90
        5
102
RTVSPost2010Prop44ColorRGB
 90
      255
102
RTVSPost2010PropOp44
 70
     1
102
RTVSPost2010Prop45
280
     0
102
RTVSPost2010PropOp45
 70
     1
102
RTVSPost2010Prop46
 90
       50
102
RTVSPost2010PropOp46
 70
     1
102
RTVSPost2010Prop47
 90
       50
102
RTVSPost2010PropOp47
 70
     1
102
RTVSPost2010Prop48
 90
       50
102
RTVSPost2010PropOp48
 70
     1
102
RTVSPost2010Prop49
280
     0
102
RTVSPost2010PropOp49
 70
     1
102
RTVSPost2010Prop50
 90
       50
102
RTVSPost2010PropOp50
 70
     1
102
RTVSPost2010Prop51ColorIndex
 90
      256
102
RTVSPost2010Prop51ColorRGB
 90
-16777216
102
RTVSPost2010PropOp51
 70
     0
102
RTVSPost2010Prop52
140
1.0
102
RTVSPost2010PropOp52
 70
     0
102
RTVSPost2010Prop53
 90
        2
102
RTVSPost2010PropOp53
 70
     1
102
RTVSPost2010Prop54
  1
strokes_ogs.tif
102
RTVSPost2010PropOp54
 70
     1
102
RTVSPost2010Prop55
280
     0
102
RTVSPost2010PropOp55
 70
     1
102
RTVSPost2010Prop56
140
1.0
102
RTVSPost2010PropOp56
 70
     1
102
RTVSPost2010Prop57
140
1.0
102
RTVSPost2010PropOp57
 70
     1
102
RTVSPropertyOp0
 70
     1
102
RTVSPropertyOp1
 70
     1
102
RTVSPropertyOp2
 70
     1
102
RTVSPropertyOp3
 70
     1
102
RTVSPropertyOp4
 70
     1
102
RTVSPropertyOp5
 70
     1
102
RTVSPropertyOp6
 70
     1
102
RTVSPropertyOp7
 70
     1
102
RTVSPropertyOp8
 70
     1
102
RTVSPropertyOp9
 70
     1
102
RTVSPropertyOp10
 70
     1
102
RTVSPropertyOp11
 70
     1
102
RTVSPropertyOp12
 70
     1
102
RTVSPropertyOp13
 70
     1
102
RTVSPropertyOp14
 70
     1
102
RTVSPropertyOp15
 70
     1
102
RTVSPropertyOp16
 70
     1
102
RTVSPropertyOp17
 70
     1
102
RTVSPropertyOp18
 70
     1
102
RTVSPropertyOp19
 70
     1
102
RTVSPropertyOp20
 70
     1
102
RTVSPropertyOp21
 70
     1
102
RTVSPropertyOp22
 70
     1
102
RTVSPropertyOp23
 70
     1
102
RTVSPropertyOp24
 70
     1
102
RTVSPropertyOp25
 70
     1
102
RTVSPropertyOp26
 70
     1
102
RTVSPropertyOp27
 70
     1
102
RTVSPropertyOp28
 70
     1
102
RTVSPropertyOp29
 70
     1
102
RTVSPropertyOp30
 70
     1
102
RTVSPropertyOp31
 70
     1
102
RTVSPropertyOp32
 70
     1
102
RTVSPropertyOp33
 70
     1
102
RTVSPropertyOp34
 70
     1
102
RTVSPropertyOp35
 70
     1
102
RTVSPropertyOp36
 70
     1
102
RTVSPropertyOp37
 70
     1
102
RTVSPropertyOp38
 70
     1
102
RTVSPropertyOp39
 70
     1
102
RTVSPropertyOp40
 70
     1
102
RTVSPropertyOp41
 70
     1
102
RTVSPropertyOp42
 70
     1
102
RTVSPropertyOp43
 70
     1
102
RTVSPropertyOp44
 70
     1
102
RTVSPropertyOp45
 70
     1
102
RTVSPropertyOp46
 70
     1
102
RTVSPropertyOp47
 70
     1
102
RTVSPropertyOp48
 70
     1
102
RTVSPropertyOp49
 70
     1
102
RTVSPropertyOp50
 70
     1
102
RTVSPropertyOp51
 70
     0
102
RTVSPropertyOp52
 70
     0
102
RTVSPropertyOp53
 70
     1
102
RTVSPropertyOp54
 70
     1
102
RTVSPropertyOp55
 70
     1
102
RTVSPropertyOp56
 70
     1
102
RTVSPropertyOp57
 70
     1
102
RTVSPropertyOp58
 70
     1
102
RTVSPropertyOp59
 70
     1
102
RTVSPropertyOp60
 70
     1
102
RTVSPropertyOp61
 70
     1
102
RTVSPropertyOp62
 70
     1
  0
XRECORD
  5
8502
102
{ACAD_REACTORS
330
8501
102
}
330
8501
100
AcDbXrecord
280
     1
102
RTVSPost2010Prop28
280
     0
102
RTVSPost2010PropOp28
 70
     1
102
RTVSPost2010Prop29
280
     1
102
RTVSPost2010PropOp29
 70
     1
102
RTVSPost2010Prop30
280
     1
102
RTVSPost2010PropOp30
 70
     1
102
RTVSPost2010Prop31
280
     0
102
RTVSPost2010PropOp31
 70
     1
102
RTVSPost2010Prop32
280
     0
102
RTVSPost2010PropOp32
 70
     1
102
RTVSPost2010Prop33
280
     0
102
RTVSPost2010PropOp33
 70
     1
102
RTVSPost2010Prop34
280
     0
102
RTVSPost2010PropOp34
 70
     1
102
RTVSPost2010Prop35
280
     0
102
RTVSPost2010PropOp35
 70
     1
102
RTVSPost2010Prop36
280
     0
102
RTVSPost2010PropOp36
 70
     1
102
RTVSPost2010Prop37
 90
       50
102
RTVSPost2010PropOp37
 70
     1
102
RTVSPost2010Prop38
140
0.0
102
RTVSPost2010PropOp38
 70
     1
102
RTVSPost2010Prop39
140
1.0
102
RTVSPost2010PropOp39
 70
     1
102
RTVSPost2010Prop40
 90
        0
102
RTVSPost2010PropOp40
 70
     1
102
RTVSPost2010Prop41ColorIndex
 90
       18
102
RTVSPost2010Prop41ColorRGB
 90
        0
102
RTVSPost2010PropOp41
 70
     1
102
RTVSPost2010Prop42
 90
       50
102
RTVSPost2010PropOp42
 70
     1
102
RTVSPost2010Prop43
 90
        3
102
RTVSPost2010PropOp43
 70
     1
102
RTVSPost2010Prop44ColorIndex
 90
        5
102
RTVSPost2010Prop44ColorRGB
 90
      255
102
RTVSPost2010PropOp44
 70
     1
102
RTVSPost2010Prop45
280
     0
102
RTVSPost2010PropOp45
 70
     1
102
RTVSPost2010Prop46
 90
       50
102
RTVSPost2010PropOp46
 70
     1
102
RTVSPost2010Prop47
 90
       50
102
RTVSPost2010PropOp47
 70
     1
102
RTVSPost2010Prop48
 90
       50
102
RTVSPost2010PropOp48
 70
     1
102
RTVSPost2010Prop49
280
     0
102
RTVSPost2010PropOp49
 70
     1
102
RTVSPost2010Prop50
 90
       50
102
RTVSPost2010PropOp50
 70
     1
102
RTVSPost2010Prop51ColorIndex
 90
      256
102
RTVSPost2010Prop51ColorRGB
 90
-16777216
102
RTVSPost2010PropOp51
 70
     0
102
RTVSPost2010Prop52
140
1.0
102
RTVSPost2010PropOp52
 70
     0
102
RTVSPost2010Prop53
 90
        2
102
RTVSPost2010PropOp53
 70
     1
102
RTVSPost2010Prop54
  1
strokes_ogs.tif
102
RTVSPost2010PropOp54
 70
     1
102
RTVSPost2010Prop55
280
     0
102
RTVSPost2010PropOp55
 70
     1
102
RTVSPost2010Prop56
140
1.0
102
RTVSPost2010PropOp56
 70
     1
102
RTVSPost2010Prop57
140
1.0
102
RTVSPost2010PropOp57
 70
     1
102
RTVSPropertyOp0
 70
     1
102
RTVSPropertyOp1
 70
     1
102
RTVSPropertyOp2
 70
     1
102
RTVSPropertyOp3
 70
     1
102
RTVSPropertyOp4
 70
     1
102
RTVSPropertyOp5
 70
     1
102
RTVSPropertyOp6
 70
     1
102
RTVSPropertyOp7
 70
     1
102
RTVSPropertyOp8
 70
     1
102
RTVSPropertyOp9
 70
     1
102
RTVSPropertyOp10
 70
     1
102
RTVSPropertyOp11
 70
     1
102
RTVSPropertyOp12
 70
     1
102
RTVSPropertyOp13
 70
     1
102
RTVSPropertyOp14
 70
     1
102
RTVSPropertyOp15
 70
     1
102
RTVSPropertyOp16
 70
     1
102
RTVSPropertyOp17
 70
     1
102
RTVSPropertyOp18
 70
     1
102
RTVSPropertyOp19
 70
     1
102
RTVSPropertyOp20
 70
     1
102
RTVSPropertyOp21
 70
     1
102
RTVSPropertyOp22
 70
     1
102
RTVSPropertyOp23
 70
     1
102
RTVSPropertyOp24
 70
     1
102
RTVSPropertyOp25
 70
     1
102
RTVSPropertyOp26
 70
     1
102
RTVSPropertyOp27
 70
     1
102
RTVSPropertyOp28
 70
     1
102
RTVSPropertyOp29
 70
     1
102
RTVSPropertyOp30
 70
     1
102
RTVSPropertyOp31
 70
     1
102
RTVSPropertyOp32
 70
     1
102
RTVSPropertyOp33
 70
     1
102
RTVSPropertyOp34
 70
     1
102
RTVSPropertyOp35
 70
     1
102
RTVSPropertyOp36
 70
     1
102
RTVSPropertyOp37
 70
     1
102
RTVSPropertyOp38
 70
     1
102
RTVSPropertyOp39
 70
     1
102
RTVSPropertyOp40
 70
     1
102
RTVSPropertyOp41
 70
     1
102
RTVSPropertyOp42
 70
     1
102
RTVSPropertyOp43
 70
     1
102
RTVSPropertyOp44
 70
     1
102
RTVSPropertyOp45
 70
     1
102
RTVSPropertyOp46
 70
     1
102
RTVSPropertyOp47
 70
     1
102
RTVSPropertyOp48
 70
     1
102
RTVSPropertyOp49
 70
     1
102
RTVSPropertyOp50
 70
     1
102
RTVSPropertyOp51
 70
     0
102
RTVSPropertyOp52
 70
     0
102
RTVSPropertyOp53
 70
     1
102
RTVSPropertyOp54
 70
     1
102
RTVSPropertyOp55
 70
     1
102
RTVSPropertyOp56
 70
     1
102
RTVSPropertyOp57
 70
     1
102
RTVSPropertyOp58
 70
     1
102
RTVSPropertyOp59
 70
     1
102
RTVSPropertyOp60
 70
     1
102
RTVSPropertyOp61
 70
     1
102
RTVSPropertyOp62
 70
     1
  0
XRECORD
  5
8504
102
{ACAD_REACTORS
330
8503
102
}
330
8503
100
AcDbXrecord
280
     1
102
RTVSPost2010Prop28
280
     0
102
RTVSPost2010PropOp28
 70
     1
102
RTVSPost2010Prop29
280
     1
102
RTVSPost2010PropOp29
 70
     1
102
RTVSPost2010Prop30
280
     1
102
RTVSPost2010PropOp30
 70
     1
102
RTVSPost2010Prop31
280
     0
102
RTVSPost2010PropOp31
 70
     1
102
RTVSPost2010Prop32
280
     0
102
RTVSPost2010PropOp32
 70
     1
102
RTVSPost2010Prop33
280
     0
102
RTVSPost2010PropOp33
 70
     1
102
RTVSPost2010Prop34
280
     0
102
RTVSPost2010PropOp34
 70
     1
102
RTVSPost2010Prop35
280
     0
102
RTVSPost2010PropOp35
 70
     1
102
RTVSPost2010Prop36
280
     0
102
RTVSPost2010PropOp36
 70
     1
102
RTVSPost2010Prop37
 90
       50
102
RTVSPost2010PropOp37
 70
     1
102
RTVSPost2010Prop38
140
0.0
102
RTVSPost2010PropOp38
 70
     1
102
RTVSPost2010Prop39
140
1.0
102
RTVSPost2010PropOp39
 70
     1
102
RTVSPost2010Prop40
 90
        0
102
RTVSPost2010PropOp40
 70
     1
102
RTVSPost2010Prop41ColorIndex
 90
       18
102
RTVSPost2010Prop41ColorRGB
 90
        0
102
RTVSPost2010PropOp41
 70
     1
102
RTVSPost2010Prop42
 90
       50
102
RTVSPost2010PropOp42
 70
     1
102
RTVSPost2010Prop43
 90
        3
102
RTVSPost2010PropOp43
 70
     1
102
RTVSPost2010Prop44ColorIndex
 90
        5
102
RTVSPost2010Prop44ColorRGB
 90
      255
102
RTVSPost2010PropOp44
 70
     1
102
RTVSPost2010Prop45
280
     0
102
RTVSPost2010PropOp45
 70
     1
102
RTVSPost2010Prop46
 90
       50
102
RTVSPost2010PropOp46
 70
     1
102
RTVSPost2010Prop47
 90
       50
102
RTVSPost2010PropOp47
 70
     1
102
RTVSPost2010Prop48
 90
       50
102
RTVSPost2010PropOp48
 70
     1
102
RTVSPost2010Prop49
280
     0
102
RTVSPost2010PropOp49
 70
     1
102
RTVSPost2010Prop50
 90
       50
102
RTVSPost2010PropOp50
 70
     1
102
RTVSPost2010Prop51ColorIndex
 90
      256
102
RTVSPost2010Prop51ColorRGB
 90
-16777216
102
RTVSPost2010PropOp51
 70
     0
102
RTVSPost2010Prop52
140
1.0
102
RTVSPost2010PropOp52
 70
     0
102
RTVSPost2010Prop53
 90
        2
102
RTVSPost2010PropOp53
 70
     1
102
RTVSPost2010Prop54
  1
strokes_ogs.tif
102
RTVSPost2010PropOp54
 70
     1
102
RTVSPost2010Prop55
280
     0
102
RTVSPost2010PropOp55
 70
     1
102
RTVSPost2010Prop56
140
1.0
102
RTVSPost2010PropOp56
 70
     1
102
RTVSPost2010Prop57
140
1.0
102
RTVSPost2010PropOp57
 70
     1
102
RTVSPropertyOp0
 70
     1
102
RTVSPropertyOp1
 70
     1
102
RTVSPropertyOp2
 70
     1
102
RTVSPropertyOp3
 70
     1
102
RTVSPropertyOp4
 70
     1
102
RTVSPropertyOp5
 70
     1
102
RTVSPropertyOp6
 70
     1
102
RTVSPropertyOp7
 70
     1
102
RTVSPropertyOp8
 70
     1
102
RTVSPropertyOp9
 70
     1
102
RTVSPropertyOp10
 70
     1
102
RTVSPropertyOp11
 70
     1
102
RTVSPropertyOp12
 70
     1
102
RTVSPropertyOp13
 70
     1
102
RTVSPropertyOp14
 70
     1
102
RTVSPropertyOp15
 70
     1
102
RTVSPropertyOp16
 70
     1
102
RTVSPropertyOp17
 70
     1
102
RTVSPropertyOp18
 70
     1
102
RTVSPropertyOp19
 70
     1
102
RTVSPropertyOp20
 70
     1
102
RTVSPropertyOp21
 70
     1
102
RTVSPropertyOp22
 70
     1
102
RTVSPropertyOp23
 70
     1
102
RTVSPropertyOp24
 70
     1
102
RTVSPropertyOp25
 70
     1
102
RTVSPropertyOp26
 70
     1
102
RTVSPropertyOp27
 70
     1
102
RTVSPropertyOp28
 70
     1
102
RTVSPropertyOp29
 70
     1
102
RTVSPropertyOp30
 70
     1
102
RTVSPropertyOp31
 70
     1
102
RTVSPropertyOp32
 70
     1
102
RTVSPropertyOp33
 70
     1
102
RTVSPropertyOp34
 70
     1
102
RTVSPropertyOp35
 70
     1
102
RTVSPropertyOp36
 70
     1
102
RTVSPropertyOp37
 70
     1
102
RTVSPropertyOp38
 70
     1
102
RTVSPropertyOp39
 70
     1
102
RTVSPropertyOp40
 70
     1
102
RTVSPropertyOp41
 70
     1
102
RTVSPropertyOp42
 70
     1
102
RTVSPropertyOp43
 70
     1
102
RTVSPropertyOp44
 70
     1
102
RTVSPropertyOp45
 70
     1
102
RTVSPropertyOp46
 70
     1
102
RTVSPropertyOp47
 70
     1
102
RTVSPropertyOp48
 70
     1
102
RTVSPropertyOp49
 70
     1
102
RTVSPropertyOp50
 70
     1
102
RTVSPropertyOp51
 70
     0
102
RTVSPropertyOp52
 70
     0
102
RTVSPropertyOp53
 70
     1
102
RTVSPropertyOp54
 70
     1
102
RTVSPropertyOp55
 70
     1
102
RTVSPropertyOp56
 70
     1
102
RTVSPropertyOp57
 70
     1
102
RTVSPropertyOp58
 70
     1
102
RTVSPropertyOp59
 70
     1
102
RTVSPropertyOp60
 70
     1
102
RTVSPropertyOp61
 70
     1
102
RTVSPropertyOp62
 70
     1
  0
XRECORD
  5
8506
102
{ACAD_REACTORS
330
8505
102
}
330
8505
100
AcDbXrecord
280
     1
102
RTVSPost2010Prop28
280
     0
102
RTVSPost2010PropOp28
 70
     1
102
RTVSPost2010Prop29
280
     1
102
RTVSPost2010PropOp29
 70
     1
102
RTVSPost2010Prop30
280
     1
102
RTVSPost2010PropOp30
 70
     1
102
RTVSPost2010Prop31
280
     0
102
RTVSPost2010PropOp31
 70
     1
102
RTVSPost2010Prop32
280
     0
102
RTVSPost2010PropOp32
 70
     1
102
RTVSPost2010Prop33
280
     0
102
RTVSPost2010PropOp33
 70
     1
102
RTVSPost2010Prop34
280
     0
102
RTVSPost2010PropOp34
 70
     1
102
RTVSPost2010Prop35
280
     0
102
RTVSPost2010PropOp35
 70
     1
102
RTVSPost2010Prop36
280
     0
102
RTVSPost2010PropOp36
 70
     1
102
RTVSPost2010Prop37
 90
       50
102
RTVSPost2010PropOp37
 70
     1
102
RTVSPost2010Prop38
140
0.0
102
RTVSPost2010PropOp38
 70
     1
102
RTVSPost2010Prop39
140
1.0
102
RTVSPost2010PropOp39
 70
     1
102
RTVSPost2010Prop40
 90
        0
102
RTVSPost2010PropOp40
 70
     1
102
RTVSPost2010Prop41ColorIndex
 90
       18
102
RTVSPost2010Prop41ColorRGB
 90
        0
102
RTVSPost2010PropOp41
 70
     1
102
RTVSPost2010Prop42
 90
       50
102
RTVSPost2010PropOp42
 70
     1
102
RTVSPost2010Prop43
 90
        3
102
RTVSPost2010PropOp43
 70
     1
102
RTVSPost2010Prop44ColorIndex
 90
        5
102
RTVSPost2010Prop44ColorRGB
 90
      255
102
RTVSPost2010PropOp44
 70
     1
102
RTVSPost2010Prop45
280
     0
102
RTVSPost2010PropOp45
 70
     1
102
RTVSPost2010Prop46
 90
       50
102
RTVSPost2010PropOp46
 70
     1
102
RTVSPost2010Prop47
 90
       50
102
RTVSPost2010PropOp47
 70
     1
102
RTVSPost2010Prop48
 90
       50
102
RTVSPost2010PropOp48
 70
     1
102
RTVSPost2010Prop49
280
     0
102
RTVSPost2010PropOp49
 70
     1
102
RTVSPost2010Prop50
 90
       50
102
RTVSPost2010PropOp50
 70
     1
102
RTVSPost2010Prop51ColorIndex
 90
      256
102
RTVSPost2010Prop51ColorRGB
 90
-16777216
102
RTVSPost2010PropOp51
 70
     0
102
RTVSPost2010Prop52
140
1.0
102
RTVSPost2010PropOp52
 70
     0
102
RTVSPost2010Prop53
 90
        2
102
RTVSPost2010PropOp53
 70
     1
102
RTVSPost2010Prop54
  1
strokes_ogs.tif
102
RTVSPost2010PropOp54
 70
     1
102
RTVSPost2010Prop55
280
     0
102
RTVSPost2010PropOp55
 70
     1
102
RTVSPost2010Prop56
140
1.0
102
RTVSPost2010PropOp56
 70
     1
102
RTVSPost2010Prop57
140
1.0
102
RTVSPost2010PropOp57
 70
     1
102
RTVSPropertyOp0
 70
     1
102
RTVSPropertyOp1
 70
     1
102
RTVSPropertyOp2
 70
     1
102
RTVSPropertyOp3
 70
     1
102
RTVSPropertyOp4
 70
     1
102
RTVSPropertyOp5
 70
     1
102
RTVSPropertyOp6
 70
     1
102
RTVSPropertyOp7
 70
     1
102
RTVSPropertyOp8
 70
     1
102
RTVSPropertyOp9
 70
     1
102
RTVSPropertyOp10
 70
     1
102
RTVSPropertyOp11
 70
     1
102
RTVSPropertyOp12
 70
     1
102
RTVSPropertyOp13
 70
     1
102
RTVSPropertyOp14
 70
     1
102
RTVSPropertyOp15
 70
     1
102
RTVSPropertyOp16
 70
     1
102
RTVSPropertyOp17
 70
     1
102
RTVSPropertyOp18
 70
     1
102
RTVSPropertyOp19
 70
     1
102
RTVSPropertyOp20
 70
     1
102
RTVSPropertyOp21
 70
     1
102
RTVSPropertyOp22
 70
     1
102
RTVSPropertyOp23
 70
     1
102
RTVSPropertyOp24
 70
     1
102
RTVSPropertyOp25
 70
     1
102
RTVSPropertyOp26
 70
     1
102
RTVSPropertyOp27
 70
     1
102
RTVSPropertyOp28
 70
     1
102
RTVSPropertyOp29
 70
     1
102
RTVSPropertyOp30
 70
     1
102
RTVSPropertyOp31
 70
     1
102
RTVSPropertyOp32
 70
     1
102
RTVSPropertyOp33
 70
     1
102
RTVSPropertyOp34
 70
     1
102
RTVSPropertyOp35
 70
     1
102
RTVSPropertyOp36
 70
     1
102
RTVSPropertyOp37
 70
     1
102
RTVSPropertyOp38
 70
     1
102
RTVSPropertyOp39
 70
     1
102
RTVSPropertyOp40
 70
     1
102
RTVSPropertyOp41
 70
     1
102
RTVSPropertyOp42
 70
     1
102
RTVSPropertyOp43
 70
     1
102
RTVSPropertyOp44
 70
     1
102
RTVSPropertyOp45
 70
     1
102
RTVSPropertyOp46
 70
     1
102
RTVSPropertyOp47
 70
     1
102
RTVSPropertyOp48
 70
     1
102
RTVSPropertyOp49
 70
     1
102
RTVSPropertyOp50
 70
     1
102
RTVSPropertyOp51
 70
     0
102
RTVSPropertyOp52
 70
     0
102
RTVSPropertyOp53
 70
     1
102
RTVSPropertyOp54
 70
     1
102
RTVSPropertyOp55
 70
     1
102
RTVSPropertyOp56
 70
     1
102
RTVSPropertyOp57
 70
     1
102
RTVSPropertyOp58
 70
     1
102
RTVSPropertyOp59
 70
     1
102
RTVSPropertyOp60
 70
     1
102
RTVSPropertyOp61
 70
     1
102
RTVSPropertyOp62
 70
     1
  0
XRECORD
  5
850E
102
{ACAD_REACTORS
330
850D
102
}
330
850D
100
AcDbXrecord
280
     1
102
RTVSPost2010Prop28
280
     0
102
RTVSPost2010PropOp28
 70
     1
102
RTVSPost2010Prop29
280
     1
102
RTVSPost2010PropOp29
 70
     1
102
RTVSPost2010Prop30
280
     1
102
RTVSPost2010PropOp30
 70
     1
102
RTVSPost2010Prop31
280
     0
102
RTVSPost2010PropOp31
 70
     1
102
RTVSPost2010Prop32
280
     0
102
RTVSPost2010PropOp32
 70
     1
102
RTVSPost2010Prop33
280
     0
102
RTVSPost2010PropOp33
 70
     1
102
RTVSPost2010Prop34
280
     0
102
RTVSPost2010PropOp34
 70
     1
102
RTVSPost2010Prop35
280
     0
102
RTVSPost2010PropOp35
 70
     1
102
RTVSPost2010Prop36
280
     0
102
RTVSPost2010PropOp36
 70
     1
102
RTVSPost2010Prop37
 90
       50
102
RTVSPost2010PropOp37
 70
     1
102
RTVSPost2010Prop38
140
0.0
102
RTVSPost2010PropOp38
 70
     1
102
RTVSPost2010Prop39
140
1.0
102
RTVSPost2010PropOp39
 70
     1
102
RTVSPost2010Prop40
 90
        0
102
RTVSPost2010PropOp40
 70
     1
102
RTVSPost2010Prop41ColorIndex
 90
       18
102
RTVSPost2010Prop41ColorRGB
 90
        0
102
RTVSPost2010PropOp41
 70
     1
102
RTVSPost2010Prop42
 90
       50
102
RTVSPost2010PropOp42
 70
     1
102
RTVSPost2010Prop43
 90
        3
102
RTVSPost2010PropOp43
 70
     1
102
RTVSPost2010Prop44ColorIndex
 90
        5
102
RTVSPost2010Prop44ColorRGB
 90
      255
102
RTVSPost2010PropOp44
 70
     1
102
RTVSPost2010Prop45
280
     0
102
RTVSPost2010PropOp45
 70
     1
102
RTVSPost2010Prop46
 90
       50
102
RTVSPost2010PropOp46
 70
     1
102
RTVSPost2010Prop47
 90
       50
102
RTVSPost2010PropOp47
 70
     1
102
RTVSPost2010Prop48
 90
       50
102
RTVSPost2010PropOp48
 70
     1
102
RTVSPost2010Prop49
280
     0
102
RTVSPost2010PropOp49
 70
     1
102
RTVSPost2010Prop50
 90
       50
102
RTVSPost2010PropOp50
 70
     1
102
RTVSPost2010Prop51ColorIndex
 90
      256
102
RTVSPost2010Prop51ColorRGB
 90
-16777216
102
RTVSPost2010PropOp51
 70
     0
102
RTVSPost2010Prop52
140
1.0
102
RTVSPost2010PropOp52
 70
     0
102
RTVSPost2010Prop53
 90
        2
102
RTVSPost2010PropOp53
 70
     1
102
RTVSPost2010Prop54
  1
strokes_ogs.tif
102
RTVSPost2010PropOp54
 70
     1
102
RTVSPost2010Prop55
280
     0
102
RTVSPost2010PropOp55
 70
     1
102
RTVSPost2010Prop56
140
1.0
102
RTVSPost2010PropOp56
 70
     1
102
RTVSPost2010Prop57
140
1.0
102
RTVSPost2010PropOp57
 70
     1
102
RTVSPropertyOp0
 70
     1
102
RTVSPropertyOp1
 70
     1
102
RTVSPropertyOp2
 70
     1
102
RTVSPropertyOp3
 70
     1
102
RTVSPropertyOp4
 70
     1
102
RTVSPropertyOp5
 70
     1
102
RTVSPropertyOp6
 70
     1
102
RTVSPropertyOp7
 70
     1
102
RTVSPropertyOp8
 70
     1
102
RTVSPropertyOp9
 70
     1
102
RTVSPropertyOp10
 70
     1
102
RTVSPropertyOp11
 70
     1
102
RTVSPropertyOp12
 70
     1
102
RTVSPropertyOp13
 70
     1
102
RTVSPropertyOp14
 70
     1
102
RTVSPropertyOp15
 70
     1
102
RTVSPropertyOp16
 70
     1
102
RTVSPropertyOp17
 70
     1
102
RTVSPropertyOp18
 70
     1
102
RTVSPropertyOp19
 70
     1
102
RTVSPropertyOp20
 70
     1
102
RTVSPropertyOp21
 70
     1
102
RTVSPropertyOp22
 70
     1
102
RTVSPropertyOp23
 70
     1
102
RTVSPropertyOp24
 70
     1
102
RTVSPropertyOp25
 70
     1
102
RTVSPropertyOp26
 70
     1
102
RTVSPropertyOp27
 70
     1
102
RTVSPropertyOp28
 70
     1
102
RTVSPropertyOp29
 70
     1
102
RTVSPropertyOp30
 70
     1
102
RTVSPropertyOp31
 70
     1
102
RTVSPropertyOp32
 70
     1
102
RTVSPropertyOp33
 70
     1
102
RTVSPropertyOp34
 70
     1
102
RTVSPropertyOp35
 70
     1
102
RTVSPropertyOp36
 70
     1
102
RTVSPropertyOp37
 70
     1
102
RTVSPropertyOp38
 70
     1
102
RTVSPropertyOp39
 70
     1
102
RTVSPropertyOp40
 70
     1
102
RTVSPropertyOp41
 70
     1
102
RTVSPropertyOp42
 70
     1
102
RTVSPropertyOp43
 70
     1
102
RTVSPropertyOp44
 70
     1
102
RTVSPropertyOp45
 70
     1
102
RTVSPropertyOp46
 70
     1
102
RTVSPropertyOp47
 70
     1
102
RTVSPropertyOp48
 70
     1
102
RTVSPropertyOp49
 70
     1
102
RTVSPropertyOp50
 70
     1
102
RTVSPropertyOp51
 70
     0
102
RTVSPropertyOp52
 70
     0
102
RTVSPropertyOp53
 70
     1
102
RTVSPropertyOp54
 70
     1
102
RTVSPropertyOp55
 70
     1
102
RTVSPropertyOp56
 70
     1
102
RTVSPropertyOp57
 70
     1
102
RTVSPropertyOp58
 70
     1
102
RTVSPropertyOp59
 70
     1
102
RTVSPropertyOp60
 70
     1
102
RTVSPropertyOp61
 70
     1
102
RTVSPropertyOp62
 70
     1
  0
XRECORD
  5
852A
102
{ACAD_REACTORS
330
8529
102
}
330
8529
100
AcDbXrecord
280
     1
102
RTVSPost2010Prop28
280
     0
102
RTVSPost2010PropOp28
 70
     1
102
RTVSPost2010Prop29
280
     1
102
RTVSPost2010PropOp29
 70
     1
102
RTVSPost2010Prop30
280
     1
102
RTVSPost2010PropOp30
 70
     1
102
RTVSPost2010Prop31
280
     0
102
RTVSPost2010PropOp31
 70
     1
102
RTVSPost2010Prop32
280
     0
102
RTVSPost2010PropOp32
 70
     1
102
RTVSPost2010Prop33
280
     0
102
RTVSPost2010PropOp33
 70
     1
102
RTVSPost2010Prop34
280
     0
102
RTVSPost2010PropOp34
 70
     1
102
RTVSPost2010Prop35
280
     0
102
RTVSPost2010PropOp35
 70
     1
102
RTVSPost2010Prop36
280
     0
102
RTVSPost2010PropOp36
 70
     1
102
RTVSPost2010Prop37
 90
       50
102
RTVSPost2010PropOp37
 70
     0
102
RTVSPost2010Prop38
140
0.0
102
RTVSPost2010PropOp38
 70
     0
102
RTVSPost2010Prop39
140
1.0
102
RTVSPost2010PropOp39
 70
     0
102
RTVSPost2010Prop40
 90
        0
102
RTVSPost2010PropOp40
 70
     0
102
RTVSPost2010Prop41ColorIndex
 90
       18
102
RTVSPost2010Prop41ColorRGB
 90
        0
102
RTVSPost2010PropOp41
 70
     0
102
RTVSPost2010Prop42
 90
       50
102
RTVSPost2010PropOp42
 70
     0
102
RTVSPost2010Prop43
 90
        3
102
RTVSPost2010PropOp43
 70
     0
102
RTVSPost2010Prop44ColorIndex
 90
        5
102
RTVSPost2010Prop44ColorRGB
 90
      255
102
RTVSPost2010PropOp44
 70
     0
102
RTVSPost2010Prop45
280
     0
102
RTVSPost2010PropOp45
 70
     1
102
RTVSPost2010Prop46
 90
       50
102
RTVSPost2010PropOp46
 70
     0
102
RTVSPost2010Prop47
 90
       50
102
RTVSPost2010PropOp47
 70
     0
102
RTVSPost2010Prop48
 90
       50
102
RTVSPost2010PropOp48
 70
     0
102
RTVSPost2010Prop49
280
     0
102
RTVSPost2010PropOp49
 70
     1
102
RTVSPost2010Prop50
 90
       50
102
RTVSPost2010PropOp50
 70
     0
102
RTVSPost2010Prop51ColorIndex
 90
      256
102
RTVSPost2010Prop51ColorRGB
 90
-16777216
102
RTVSPost2010PropOp51
 70
     0
102
RTVSPost2010Prop52
140
1.0
102
RTVSPost2010PropOp52
 70
     0
102
RTVSPost2010Prop53
 90
        2
102
RTVSPost2010PropOp53
 70
     0
102
RTVSPost2010Prop54
  1
strokes_ogs.tif
102
RTVSPost2010PropOp54
 70
     0
102
RTVSPost2010Prop55
280
     0
102
RTVSPost2010PropOp55
 70
     1
102
RTVSPost2010Prop56
140
1.0
102
RTVSPost2010PropOp56
 70
     0
102
RTVSPost2010Prop57
140
1.0
102
RTVSPost2010PropOp57
 70
     0
102
RTVSPropertyOp0
 70
     0
102
RTVSPropertyOp1
 70
     0
102
RTVSPropertyOp2
 70
     0
102
RTVSPropertyOp3
 70
     0
102
RTVSPropertyOp4
 70
     0
102
RTVSPropertyOp5
 70
     0
102
RTVSPropertyOp6
 70
     0
102
RTVSPropertyOp7
 70
     0
102
RTVSPropertyOp8
 70
     0
102
RTVSPropertyOp9
 70
     0
102
RTVSPropertyOp10
 70
     0
102
RTVSPropertyOp11
 70
     0
102
RTVSPropertyOp12
 70
     0
102
RTVSPropertyOp13
 70
     0
102
RTVSPropertyOp14
 70
     2
102
RTVSPropertyOp15
 70
     0
102
RTVSPropertyOp16
 70
     0
102
RTVSPropertyOp17
 70
     0
102
RTVSPropertyOp18
 70
     0
102
RTVSPropertyOp19
 70
     0
102
RTVSPropertyOp20
 70
     0
102
RTVSPropertyOp21
 70
     0
102
RTVSPropertyOp22
 70
     0
102
RTVSPropertyOp23
 70
     0
102
RTVSPropertyOp24
 70
     0
102
RTVSPropertyOp25
 70
     0
102
RTVSPropertyOp26
 70
     0
102
RTVSPropertyOp27
 70
     0
102
RTVSPropertyOp28
 70
     1
102
RTVSPropertyOp29
 70
     1
102
RTVSPropertyOp30
 70
     1
102
RTVSPropertyOp31
 70
     1
102
RTVSPropertyOp32
 70
     1
102
RTVSPropertyOp33
 70
     1
102
RTVSPropertyOp34
 70
     1
102
RTVSPropertyOp35
 70
     1
102
RTVSPropertyOp36
 70
     1
102
RTVSPropertyOp37
 70
     0
102
RTVSPropertyOp38
 70
     0
102
RTVSPropertyOp39
 70
     0
102
RTVSPropertyOp40
 70
     0
102
RTVSPropertyOp41
 70
     0
102
RTVSPropertyOp42
 70
     0
102
RTVSPropertyOp43
 70
     0
102
RTVSPropertyOp44
 70
     0
102
RTVSPropertyOp45
 70
     1
102
RTVSPropertyOp46
 70
     0
102
RTVSPropertyOp47
 70
     0
102
RTVSPropertyOp48
 70
     0
102
RTVSPropertyOp49
 70
     1
102
RTVSPropertyOp50
 70
     0
102
RTVSPropertyOp51
 70
     0
102
RTVSPropertyOp52
 70
     0
102
RTVSPropertyOp53
 70
     0
102
RTVSPropertyOp54
 70
     0
102
RTVSPropertyOp55
 70
     1
102
RTVSPropertyOp56
 70
     0
102
RTVSPropertyOp57
 70
     0
102
RTVSPropertyOp58
 70
     0
102
RTVSPropertyOp59
 70
     0
102
RTVSPropertyOp60
 70
     0
102
RTVSPropertyOp61
 70
     0
102
RTVSPropertyOp62
 70
     0
  0
XRECORD
  5
851A
102
{ACAD_REACTORS
330
8519
102
}
330
8519
100
AcDbXrecord
280
     1
102
RTVSPost2010Prop28
280
     0
102
RTVSPost2010PropOp28
 70
     1
102
RTVSPost2010Prop29
280
     1
102
RTVSPost2010PropOp29
 70
     1
102
RTVSPost2010Prop30
280
     1
102
RTVSPost2010PropOp30
 70
     1
102
RTVSPost2010Prop31
280
     0
102
RTVSPost2010PropOp31
 70
     1
102
RTVSPost2010Prop32
280
     0
102
RTVSPost2010PropOp32
 70
     1
102
RTVSPost2010Prop33
280
     0
102
RTVSPost2010PropOp33
 70
     1
102
RTVSPost2010Prop34
280
     0
102
RTVSPost2010PropOp34
 70
     1
102
RTVSPost2010Prop35
280
     0
102
RTVSPost2010PropOp35
 70
     1
102
RTVSPost2010Prop36
280
     0
102
RTVSPost2010PropOp36
 70
     1
102
RTVSPost2010Prop37
 90
       50
102
RTVSPost2010PropOp37
 70
     1
102
RTVSPost2010Prop38
140
0.0
102
RTVSPost2010PropOp38
 70
     1
102
RTVSPost2010Prop39
140
1.0
102
RTVSPost2010PropOp39
 70
     1
102
RTVSPost2010Prop40
 90
        0
102
RTVSPost2010PropOp40
 70
     1
102
RTVSPost2010Prop41ColorIndex
 90
       18
102
RTVSPost2010Prop41ColorRGB
 90
        0
102
RTVSPost2010PropOp41
 70
     1
102
RTVSPost2010Prop42
 90
       50
102
RTVSPost2010PropOp42
 70
     1
102
RTVSPost2010Prop43
 90
        3
102
RTVSPost2010PropOp43
 70
     1
102
RTVSPost2010Prop44ColorIndex
 90
        5
102
RTVSPost2010Prop44ColorRGB
 90
      255
102
RTVSPost2010PropOp44
 70
     1
102
RTVSPost2010Prop45
280
     0
102
RTVSPost2010PropOp45
 70
     1
102
RTVSPost2010Prop46
 90
       50
102
RTVSPost2010PropOp46
 70
     1
102
RTVSPost2010Prop47
 90
       50
102
RTVSPost2010PropOp47
 70
     1
102
RTVSPost2010Prop48
 90
       50
102
RTVSPost2010PropOp48
 70
     1
102
RTVSPost2010Prop49
280
     0
102
RTVSPost2010PropOp49
 70
     1
102
RTVSPost2010Prop50
 90
       50
102
RTVSPost2010PropOp50
 70
     1
102
RTVSPost2010Prop51ColorIndex
 90
      256
102
RTVSPost2010Prop51ColorRGB
 90
-16777216
102
RTVSPost2010PropOp51
 70
     0
102
RTVSPost2010Prop52
140
1.0
102
RTVSPost2010PropOp52
 70
     0
102
RTVSPost2010Prop53
 90
        2
102
RTVSPost2010PropOp53
 70
     1
102
RTVSPost2010Prop54
  1
strokes_ogs.tif
102
RTVSPost2010PropOp54
 70
     1
102
RTVSPost2010Prop55
280
     0
102
RTVSPost2010PropOp55
 70
     1
102
RTVSPost2010Prop56
140
1.0
102
RTVSPost2010PropOp56
 70
     1
102
RTVSPost2010Prop57
140
1.0
102
RTVSPost2010PropOp57
 70
     1
102
RTVSPropertyOp0
 70
     1
102
RTVSPropertyOp1
 70
     1
102
RTVSPropertyOp2
 70
     1
102
RTVSPropertyOp3
 70
     1
102
RTVSPropertyOp4
 70
     1
102
RTVSPropertyOp5
 70
     1
102
RTVSPropertyOp6
 70
     1
102
RTVSPropertyOp7
 70
     1
102
RTVSPropertyOp8
 70
     1
102
RTVSPropertyOp9
 70
     1
102
RTVSPropertyOp10
 70
     1
102
RTVSPropertyOp11
 70
     1
102
RTVSPropertyOp12
 70
     1
102
RTVSPropertyOp13
 70
     1
102
RTVSPropertyOp14
 70
     1
102
RTVSPropertyOp15
 70
     1
102
RTVSPropertyOp16
 70
     1
102
RTVSPropertyOp17
 70
     1
102
RTVSPropertyOp18
 70
     1
102
RTVSPropertyOp19
 70
     1
102
RTVSPropertyOp20
 70
     1
102
RTVSPropertyOp21
 70
     1
102
RTVSPropertyOp22
 70
     1
102
RTVSPropertyOp23
 70
     1
102
RTVSPropertyOp24
 70
     1
102
RTVSPropertyOp25
 70
     1
102
RTVSPropertyOp26
 70
     1
102
RTVSPropertyOp27
 70
     1
102
RTVSPropertyOp28
 70
     1
102
RTVSPropertyOp29
 70
     1
102
RTVSPropertyOp30
 70
     1
102
RTVSPropertyOp31
 70
     1
102
RTVSPropertyOp32
 70
     1
102
RTVSPropertyOp33
 70
     1
102
RTVSPropertyOp34
 70
     1
102
RTVSPropertyOp35
 70
     1
102
RTVSPropertyOp36
 70
     1
102
RTVSPropertyOp37
 70
     1
102
RTVSPropertyOp38
 70
     1
102
RTVSPropertyOp39
 70
     1
102
RTVSPropertyOp40
 70
     1
102
RTVSPropertyOp41
 70
     1
102
RTVSPropertyOp42
 70
     1
102
RTVSPropertyOp43
 70
     1
102
RTVSPropertyOp44
 70
     1
102
RTVSPropertyOp45
 70
     1
102
RTVSPropertyOp46
 70
     1
102
RTVSPropertyOp47
 70
     1
102
RTVSPropertyOp48
 70
     1
102
RTVSPropertyOp49
 70
     1
102
RTVSPropertyOp50
 70
     1
102
RTVSPropertyOp51
 70
     0
102
RTVSPropertyOp52
 70
     0
102
RTVSPropertyOp53
 70
     1
102
RTVSPropertyOp54
 70
     1
102
RTVSPropertyOp55
 70
     1
102
RTVSPropertyOp56
 70
     1
102
RTVSPropertyOp57
 70
     1
102
RTVSPropertyOp58
 70
     1
102
RTVSPropertyOp59
 70
     1
102
RTVSPropertyOp60
 70
     1
102
RTVSPropertyOp61
 70
     1
102
RTVSPropertyOp62
 70
     1
  0
XRECORD
  5
852C
102
{ACAD_REACTORS
330
852B
102
}
330
852B
100
AcDbXrecord
280
     1
102
RTVSPost2010Prop28
280
     0
102
RTVSPost2010PropOp28
 70
     1
102
RTVSPost2010Prop29
280
     1
102
RTVSPost2010PropOp29
 70
     1
102
RTVSPost2010Prop30
280
     1
102
RTVSPost2010PropOp30
 70
     1
102
RTVSPost2010Prop31
280
     0
102
RTVSPost2010PropOp31
 70
     1
102
RTVSPost2010Prop32
280
     0
102
RTVSPost2010PropOp32
 70
     1
102
RTVSPost2010Prop33
280
     0
102
RTVSPost2010PropOp33
 70
     1
102
RTVSPost2010Prop34
280
     0
102
RTVSPost2010PropOp34
 70
     1
102
RTVSPost2010Prop35
280
     0
102
RTVSPost2010PropOp35
 70
     1
102
RTVSPost2010Prop36
280
     0
102
RTVSPost2010PropOp36
 70
     1
102
RTVSPost2010Prop37
 90
       50
102
RTVSPost2010PropOp37
 70
     0
102
RTVSPost2010Prop38
140
0.0
102
RTVSPost2010PropOp38
 70
     0
102
RTVSPost2010Prop39
140
1.0
102
RTVSPost2010PropOp39
 70
     0
102
RTVSPost2010Prop40
 90
        0
102
RTVSPost2010PropOp40
 70
     0
102
RTVSPost2010Prop41ColorIndex
 90
       18
102
RTVSPost2010Prop41ColorRGB
 90
        0
102
RTVSPost2010PropOp41
 70
     0
102
RTVSPost2010Prop42
 90
       50
102
RTVSPost2010PropOp42
 70
     0
102
RTVSPost2010Prop43
 90
        3
102
RTVSPost2010PropOp43
 70
     0
102
RTVSPost2010Prop44ColorIndex
 90
        5
102
RTVSPost2010Prop44ColorRGB
 90
      255
102
RTVSPost2010PropOp44
 70
     0
102
RTVSPost2010Prop45
280
     0
102
RTVSPost2010PropOp45
 70
     1
102
RTVSPost2010Prop46
 90
       50
102
RTVSPost2010PropOp46
 70
     0
102
RTVSPost2010Prop47
 90
       50
102
RTVSPost2010PropOp47
 70
     0
102
RTVSPost2010Prop48
 90
       50
102
RTVSPost2010PropOp48
 70
     0
102
RTVSPost2010Prop49
280
     0
102
RTVSPost2010PropOp49
 70
     1
102
RTVSPost2010Prop50
 90
       50
102
RTVSPost2010PropOp50
 70
     0
102
RTVSPost2010Prop51ColorIndex
 90
      256
102
RTVSPost2010Prop51ColorRGB
 90
-16777216
102
RTVSPost2010PropOp51
 70
     0
102
RTVSPost2010Prop52
140
1.0
102
RTVSPost2010PropOp52
 70
     0
102
RTVSPost2010Prop53
 90
        2
102
RTVSPost2010PropOp53
 70
     0
102
RTVSPost2010Prop54
  1
strokes_ogs.tif
102
RTVSPost2010PropOp54
 70
     0
102
RTVSPost2010Prop55
280
     0
102
RTVSPost2010PropOp55
 70
     1
102
RTVSPost2010Prop56
140
1.0
102
RTVSPost2010PropOp56
 70
     0
102
RTVSPost2010Prop57
140
1.0
102
RTVSPost2010PropOp57
 70
     0
102
RTVSPropertyOp0
 70
     0
102
RTVSPropertyOp1
 70
     0
102
RTVSPropertyOp2
 70
     0
102
RTVSPropertyOp3
 70
     0
102
RTVSPropertyOp4
 70
     0
102
RTVSPropertyOp5
 70
     0
102
RTVSPropertyOp6
 70
     0
102
RTVSPropertyOp7
 70
     0
102
RTVSPropertyOp8
 70
     0
102
RTVSPropertyOp9
 70
     0
102
RTVSPropertyOp10
 70
     0
102
RTVSPropertyOp11
 70
     0
102
RTVSPropertyOp12
 70
     0
102
RTVSPropertyOp13
 70
     0
102
RTVSPropertyOp14
 70
     2
102
RTVSPropertyOp15
 70
     0
102
RTVSPropertyOp16
 70
     0
102
RTVSPropertyOp17
 70
     0
102
RTVSPropertyOp18
 70
     0
102
RTVSPropertyOp19
 70
     0
102
RTVSPropertyOp20
 70
     0
102
RTVSPropertyOp21
 70
     0
102
RTVSPropertyOp22
 70
     0
102
RTVSPropertyOp23
 70
     0
102
RTVSPropertyOp24
 70
     0
102
RTVSPropertyOp25
 70
     0
102
RTVSPropertyOp26
 70
     0
102
RTVSPropertyOp27
 70
     0
102
RTVSPropertyOp28
 70
     1
102
RTVSPropertyOp29
 70
     1
102
RTVSPropertyOp30
 70
     1
102
RTVSPropertyOp31
 70
     1
102
RTVSPropertyOp32
 70
     1
102
RTVSPropertyOp33
 70
     1
102
RTVSPropertyOp34
 70
     1
102
RTVSPropertyOp35
 70
     1
102
RTVSPropertyOp36
 70
     1
102
RTVSPropertyOp37
 70
     0
102
RTVSPropertyOp38
 70
     0
102
RTVSPropertyOp39
 70
     0
102
RTVSPropertyOp40
 70
     0
102
RTVSPropertyOp41
 70
     0
102
RTVSPropertyOp42
 70
     0
102
RTVSPropertyOp43
 70
     0
102
RTVSPropertyOp44
 70
     0
102
RTVSPropertyOp45
 70
     1
102
RTVSPropertyOp46
 70
     0
102
RTVSPropertyOp47
 70
     0
102
RTVSPropertyOp48
 70
     0
102
RTVSPropertyOp49
 70
     1
102
RTVSPropertyOp50
 70
     0
102
RTVSPropertyOp51
 70
     0
102
RTVSPropertyOp52
 70
     0
102
RTVSPropertyOp53
 70
     0
102
RTVSPropertyOp54
 70
     0
102
RTVSPropertyOp55
 70
     1
102
RTVSPropertyOp56
 70
     0
102
RTVSPropertyOp57
 70
     0
102
RTVSPropertyOp58
 70
     0
102
RTVSPropertyOp59
 70
     0
102
RTVSPropertyOp60
 70
     0
102
RTVSPropertyOp61
 70
     0
102
RTVSPropertyOp62
 70
     0
  0
XRECORD
  5
8512
102
{ACAD_REACTORS
330
8511
102
}
330
8511
100
AcDbXrecord
280
     1
102
RTVSPost2010Prop28
280
     0
102
RTVSPost2010PropOp28
 70
     1
102
RTVSPost2010Prop29
280
     1
102
RTVSPost2010PropOp29
 70
     1
102
RTVSPost2010Prop30
280
     1
102
RTVSPost2010PropOp30
 70
     1
102
RTVSPost2010Prop31
280
     0
102
RTVSPost2010PropOp31
 70
     1
102
RTVSPost2010Prop32
280
     0
102
RTVSPost2010PropOp32
 70
     1
102
RTVSPost2010Prop33
280
     0
102
RTVSPost2010PropOp33
 70
     1
102
RTVSPost2010Prop34
280
     0
102
RTVSPost2010PropOp34
 70
     1
102
RTVSPost2010Prop35
280
     0
102
RTVSPost2010PropOp35
 70
     1
102
RTVSPost2010Prop36
280
     0
102
RTVSPost2010PropOp36
 70
     1
102
RTVSPost2010Prop37
 90
       50
102
RTVSPost2010PropOp37
 70
     1
102
RTVSPost2010Prop38
140
0.0
102
RTVSPost2010PropOp38
 70
     1
102
RTVSPost2010Prop39
140
1.0
102
RTVSPost2010PropOp39
 70
     1
102
RTVSPost2010Prop40
 90
        0
102
RTVSPost2010PropOp40
 70
     1
102
RTVSPost2010Prop41ColorIndex
 90
       18
102
RTVSPost2010Prop41ColorRGB
 90
        0
102
RTVSPost2010PropOp41
 70
     1
102
RTVSPost2010Prop42
 90
       50
102
RTVSPost2010PropOp42
 70
     1
102
RTVSPost2010Prop43
 90
        3
102
RTVSPost2010PropOp43
 70
     1
102
RTVSPost2010Prop44ColorIndex
 90
        5
102
RTVSPost2010Prop44ColorRGB
 90
      255
102
RTVSPost2010PropOp44
 70
     1
102
RTVSPost2010Prop45
280
     0
102
RTVSPost2010PropOp45
 70
     1
102
RTVSPost2010Prop46
 90
       50
102
RTVSPost2010PropOp46
 70
     1
102
RTVSPost2010Prop47
 90
       50
102
RTVSPost2010PropOp47
 70
     1
102
RTVSPost2010Prop48
 90
       50
102
RTVSPost2010PropOp48
 70
     1
102
RTVSPost2010Prop49
280
     0
102
RTVSPost2010PropOp49
 70
     1
102
RTVSPost2010Prop50
 90
       50
102
RTVSPost2010PropOp50
 70
     1
102
RTVSPost2010Prop51ColorIndex
 90
      256
102
RTVSPost2010Prop51ColorRGB
 90
-16777216
102
RTVSPost2010PropOp51
 70
     0
102
RTVSPost2010Prop52
140
1.0
102
RTVSPost2010PropOp52
 70
     0
102
RTVSPost2010Prop53
 90
        2
102
RTVSPost2010PropOp53
 70
     1
102
RTVSPost2010Prop54
  1
strokes_ogs.tif
102
RTVSPost2010PropOp54
 70
     1
102
RTVSPost2010Prop55
280
     0
102
RTVSPost2010PropOp55
 70
     1
102
RTVSPost2010Prop56
140
1.0
102
RTVSPost2010PropOp56
 70
     1
102
RTVSPost2010Prop57
140
1.0
102
RTVSPost2010PropOp57
 70
     1
102
RTVSPropertyOp0
 70
     1
102
RTVSPropertyOp1
 70
     1
102
RTVSPropertyOp2
 70
     1
102
RTVSPropertyOp3
 70
     1
102
RTVSPropertyOp4
 70
     1
102
RTVSPropertyOp5
 70
     1
102
RTVSPropertyOp6
 70
     1
102
RTVSPropertyOp7
 70
     1
102
RTVSPropertyOp8
 70
     1
102
RTVSPropertyOp9
 70
     1
102
RTVSPropertyOp10
 70
     1
102
RTVSPropertyOp11
 70
     1
102
RTVSPropertyOp12
 70
     1
102
RTVSPropertyOp13
 70
     1
102
RTVSPropertyOp14
 70
     1
102
RTVSPropertyOp15
 70
     1
102
RTVSPropertyOp16
 70
     1
102
RTVSPropertyOp17
 70
     1
102
RTVSPropertyOp18
 70
     1
102
RTVSPropertyOp19
 70
     1
102
RTVSPropertyOp20
 70
     1
102
RTVSPropertyOp21
 70
     1
102
RTVSPropertyOp22
 70
     1
102
RTVSPropertyOp23
 70
     1
102
RTVSPropertyOp24
 70
     1
102
RTVSPropertyOp25
 70
     1
102
RTVSPropertyOp26
 70
     1
102
RTVSPropertyOp27
 70
     1
102
RTVSPropertyOp28
 70
     1
102
RTVSPropertyOp29
 70
     1
102
RTVSPropertyOp30
 70
     1
102
RTVSPropertyOp31
 70
     1
102
RTVSPropertyOp32
 70
     1
102
RTVSPropertyOp33
 70
     1
102
RTVSPropertyOp34
 70
     1
102
RTVSPropertyOp35
 70
     1
102
RTVSPropertyOp36
 70
     1
102
RTVSPropertyOp37
 70
     1
102
RTVSPropertyOp38
 70
     1
102
RTVSPropertyOp39
 70
     1
102
RTVSPropertyOp40
 70
     1
102
RTVSPropertyOp41
 70
     1
102
RTVSPropertyOp42
 70
     1
102
RTVSPropertyOp43
 70
     1
102
RTVSPropertyOp44
 70
     1
102
RTVSPropertyOp45
 70
     1
102
RTVSPropertyOp46
 70
     1
102
RTVSPropertyOp47
 70
     1
102
RTVSPropertyOp48
 70
     1
102
RTVSPropertyOp49
 70
     1
102
RTVSPropertyOp50
 70
     1
102
RTVSPropertyOp51
 70
     0
102
RTVSPropertyOp52
 70
     0
102
RTVSPropertyOp53
 70
     1
102
RTVSPropertyOp54
 70
     1
102
RTVSPropertyOp55
 70
     1
102
RTVSPropertyOp56
 70
     1
102
RTVSPropertyOp57
 70
     1
102
RTVSPropertyOp58
 70
     1
102
RTVSPropertyOp59
 70
     1
102
RTVSPropertyOp60
 70
     1
102
RTVSPropertyOp61
 70
     1
102
RTVSPropertyOp62
 70
     1
  0
XRECORD
  5
8528
102
{ACAD_REACTORS
330
8527
102
}
330
8527
100
AcDbXrecord
280
     1
102
RTVSPost2010Prop28
280
     0
102
RTVSPost2010PropOp28
 70
     1
102
RTVSPost2010Prop29
280
     1
102
RTVSPost2010PropOp29
 70
     1
102
RTVSPost2010Prop30
280
     1
102
RTVSPost2010PropOp30
 70
     1
102
RTVSPost2010Prop31
280
     0
102
RTVSPost2010PropOp31
 70
     1
102
RTVSPost2010Prop32
280
     0
102
RTVSPost2010PropOp32
 70
     1
102
RTVSPost2010Prop33
280
     0
102
RTVSPost2010PropOp33
 70
     1
102
RTVSPost2010Prop34
280
     0
102
RTVSPost2010PropOp34
 70
     1
102
RTVSPost2010Prop35
280
     0
102
RTVSPost2010PropOp35
 70
     1
102
RTVSPost2010Prop36
280
     0
102
RTVSPost2010PropOp36
 70
     1
102
RTVSPost2010Prop37
 90
       50
102
RTVSPost2010PropOp37
 70
     1
102
RTVSPost2010Prop38
140
0.0
102
RTVSPost2010PropOp38
 70
     1
102
RTVSPost2010Prop39
140
1.0
102
RTVSPost2010PropOp39
 70
     1
102
RTVSPost2010Prop40
 90
        0
102
RTVSPost2010PropOp40
 70
     1
102
RTVSPost2010Prop41ColorIndex
 90
       18
102
RTVSPost2010Prop41ColorRGB
 90
        0
102
RTVSPost2010PropOp41
 70
     1
102
RTVSPost2010Prop42
 90
       50
102
RTVSPost2010PropOp42
 70
     1
102
RTVSPost2010Prop43
 90
        3
102
RTVSPost2010PropOp43
 70
     1
102
RTVSPost2010Prop44ColorIndex
 90
        5
102
RTVSPost2010Prop44ColorRGB
 90
      255
102
RTVSPost2010PropOp44
 70
     1
102
RTVSPost2010Prop45
280
     0
102
RTVSPost2010PropOp45
 70
     1
102
RTVSPost2010Prop46
 90
       50
102
RTVSPost2010PropOp46
 70
     1
102
RTVSPost2010Prop47
 90
       50
102
RTVSPost2010PropOp47
 70
     1
102
RTVSPost2010Prop48
 90
       50
102
RTVSPost2010PropOp48
 70
     1
102
RTVSPost2010Prop49
280
     0
102
RTVSPost2010PropOp49
 70
     1
102
RTVSPost2010Prop50
 90
       50
102
RTVSPost2010PropOp50
 70
     1
102
RTVSPost2010Prop51ColorIndex
 90
      256
102
RTVSPost2010Prop51ColorRGB
 90
-16777216
102
RTVSPost2010PropOp51
 70
     0
102
RTVSPost2010Prop52
140
1.0
102
RTVSPost2010PropOp52
 70
     0
102
RTVSPost2010Prop53
 90
        2
102
RTVSPost2010PropOp53
 70
     1
102
RTVSPost2010Prop54
  1
strokes_ogs.tif
102
RTVSPost2010PropOp54
 70
     1
102
RTVSPost2010Prop55
280
     0
102
RTVSPost2010PropOp55
 70
     1
102
RTVSPost2010Prop56
140
1.0
102
RTVSPost2010PropOp56
 70
     1
102
RTVSPost2010Prop57
140
1.0
102
RTVSPost2010PropOp57
 70
     1
102
RTVSPropertyOp0
 70
     1
102
RTVSPropertyOp1
 70
     1
102
RTVSPropertyOp2
 70
     1
102
RTVSPropertyOp3
 70
     1
102
RTVSPropertyOp4
 70
     1
102
RTVSPropertyOp5
 70
     1
102
RTVSPropertyOp6
 70
     1
102
RTVSPropertyOp7
 70
     1
102
RTVSPropertyOp8
 70
     1
102
RTVSPropertyOp9
 70
     1
102
RTVSPropertyOp10
 70
     1
102
RTVSPropertyOp11
 70
     1
102
RTVSPropertyOp12
 70
     1
102
RTVSPropertyOp13
 70
     1
102
RTVSPropertyOp14
 70
     1
102
RTVSPropertyOp15
 70
     1
102
RTVSPropertyOp16
 70
     1
102
RTVSPropertyOp17
 70
     1
102
RTVSPropertyOp18
 70
     1
102
RTVSPropertyOp19
 70
     1
102
RTVSPropertyOp20
 70
     1
102
RTVSPropertyOp21
 70
     1
102
RTVSPropertyOp22
 70
     1
102
RTVSPropertyOp23
 70
     1
102
RTVSPropertyOp24
 70
     1
102
RTVSPropertyOp25
 70
     1
102
RTVSPropertyOp26
 70
     1
102
RTVSPropertyOp27
 70
     1
102
RTVSPropertyOp28
 70
     1
102
RTVSPropertyOp29
 70
     1
102
RTVSPropertyOp30
 70
     1
102
RTVSPropertyOp31
 70
     1
102
RTVSPropertyOp32
 70
     1
102
RTVSPropertyOp33
 70
     1
102
RTVSPropertyOp34
 70
     1
102
RTVSPropertyOp35
 70
     1
102
RTVSPropertyOp36
 70
     1
102
RTVSPropertyOp37
 70
     1
102
RTVSPropertyOp38
 70
     1
102
RTVSPropertyOp39
 70
     1
102
RTVSPropertyOp40
 70
     1
102
RTVSPropertyOp41
 70
     1
102
RTVSPropertyOp42
 70
     1
102
RTVSPropertyOp43
 70
     1
102
RTVSPropertyOp44
 70
     1
102
RTVSPropertyOp45
 70
     1
102
RTVSPropertyOp46
 70
     1
102
RTVSPropertyOp47
 70
     1
102
RTVSPropertyOp48
 70
     1
102
RTVSPropertyOp49
 70
     1
102
RTVSPropertyOp50
 70
     1
102
RTVSPropertyOp51
 70
     0
102
RTVSPropertyOp52
 70
     0
102
RTVSPropertyOp53
 70
     1
102
RTVSPropertyOp54
 70
     1
102
RTVSPropertyOp55
 70
     1
102
RTVSPropertyOp56
 70
     1
102
RTVSPropertyOp57
 70
     1
102
RTVSPropertyOp58
 70
     1
102
RTVSPropertyOp59
 70
     1
102
RTVSPropertyOp60
 70
     1
102
RTVSPropertyOp61
 70
     1
102
RTVSPropertyOp62
 70
     1
  0
XRECORD
  5
8526
102
{ACAD_REACTORS
330
8525
102
}
330
8525
100
AcDbXrecord
280
     1
102
RTVSPost2010Prop28
280
     0
102
RTVSPost2010PropOp28
 70
     1
102
RTVSPost2010Prop29
280
     1
102
RTVSPost2010PropOp29
 70
     1
102
RTVSPost2010Prop30
280
     1
102
RTVSPost2010PropOp30
 70
     1
102
RTVSPost2010Prop31
280
     0
102
RTVSPost2010PropOp31
 70
     1
102
RTVSPost2010Prop32
280
     0
102
RTVSPost2010PropOp32
 70
     1
102
RTVSPost2010Prop33
280
     0
102
RTVSPost2010PropOp33
 70
     1
102
RTVSPost2010Prop34
280
     0
102
RTVSPost2010PropOp34
 70
     1
102
RTVSPost2010Prop35
280
     0
102
RTVSPost2010PropOp35
 70
     1
102
RTVSPost2010Prop36
280
     0
102
RTVSPost2010PropOp36
 70
     1
102
RTVSPost2010Prop37
 90
       50
102
RTVSPost2010PropOp37
 70
     1
102
RTVSPost2010Prop38
140
0.0
102
RTVSPost2010PropOp38
 70
     1
102
RTVSPost2010Prop39
140
1.0
102
RTVSPost2010PropOp39
 70
     1
102
RTVSPost2010Prop40
 90
        0
102
RTVSPost2010PropOp40
 70
     1
102
RTVSPost2010Prop41ColorIndex
 90
       18
102
RTVSPost2010Prop41ColorRGB
 90
        0
102
RTVSPost2010PropOp41
 70
     1
102
RTVSPost2010Prop42
 90
       50
102
RTVSPost2010PropOp42
 70
     1
102
RTVSPost2010Prop43
 90
        3
102
RTVSPost2010PropOp43
 70
     1
102
RTVSPost2010Prop44ColorIndex
 90
        5
102
RTVSPost2010Prop44ColorRGB
 90
      255
102
RTVSPost2010PropOp44
 70
     1
102
RTVSPost2010Prop45
280
     0
102
RTVSPost2010PropOp45
 70
     1
102
RTVSPost2010Prop46
 90
       50
102
RTVSPost2010PropOp46
 70
     1
102
RTVSPost2010Prop47
 90
       50
102
RTVSPost2010PropOp47
 70
     1
102
RTVSPost2010Prop48
 90
       50
102
RTVSPost2010PropOp48
 70
     1
102
RTVSPost2010Prop49
280
     0
102
RTVSPost2010PropOp49
 70
     1
102
RTVSPost2010Prop50
 90
       50
102
RTVSPost2010PropOp50
 70
     1
102
RTVSPost2010Prop51ColorIndex
 90
      256
102
RTVSPost2010Prop51ColorRGB
 90
-16777216
102
RTVSPost2010PropOp51
 70
     0
102
RTVSPost2010Prop52
140
1.0
102
RTVSPost2010PropOp52
 70
     0
102
RTVSPost2010Prop53
 90
        2
102
RTVSPost2010PropOp53
 70
     1
102
RTVSPost2010Prop54
  1
strokes_ogs.tif
102
RTVSPost2010PropOp54
 70
     1
102
RTVSPost2010Prop55
280
     0
102
RTVSPost2010PropOp55
 70
     1
102
RTVSPost2010Prop56
140
1.0
102
RTVSPost2010PropOp56
 70
     1
102
RTVSPost2010Prop57
140
1.0
102
RTVSPost2010PropOp57
 70
     1
102
RTVSPropertyOp0
 70
     1
102
RTVSPropertyOp1
 70
     1
102
RTVSPropertyOp2
 70
     1
102
RTVSPropertyOp3
 70
     1
102
RTVSPropertyOp4
 70
     1
102
RTVSPropertyOp5
 70
     1
102
RTVSPropertyOp6
 70
     1
102
RTVSPropertyOp7
 70
     1
102
RTVSPropertyOp8
 70
     1
102
RTVSPropertyOp9
 70
     1
102
RTVSPropertyOp10
 70
     1
102
RTVSPropertyOp11
 70
     1
102
RTVSPropertyOp12
 70
     1
102
RTVSPropertyOp13
 70
     1
102
RTVSPropertyOp14
 70
     1
102
RTVSPropertyOp15
 70
     1
102
RTVSPropertyOp16
 70
     1
102
RTVSPropertyOp17
 70
     1
102
RTVSPropertyOp18
 70
     1
102
RTVSPropertyOp19
 70
     1
102
RTVSPropertyOp20
 70
     1
102
RTVSPropertyOp21
 70
     1
102
RTVSPropertyOp22
 70
     1
102
RTVSPropertyOp23
 70
     1
102
RTVSPropertyOp24
 70
     1
102
RTVSPropertyOp25
 70
     1
102
RTVSPropertyOp26
 70
     1
102
RTVSPropertyOp27
 70
     1
102
RTVSPropertyOp28
 70
     1
102
RTVSPropertyOp29
 70
     1
102
RTVSPropertyOp30
 70
     1
102
RTVSPropertyOp31
 70
     1
102
RTVSPropertyOp32
 70
     1
102
RTVSPropertyOp33
 70
     1
102
RTVSPropertyOp34
 70
     1
102
RTVSPropertyOp35
 70
     1
102
RTVSPropertyOp36
 70
     1
102
RTVSPropertyOp37
 70
     1
102
RTVSPropertyOp38
 70
     1
102
RTVSPropertyOp39
 70
     1
102
RTVSPropertyOp40
 70
     1
102
RTVSPropertyOp41
 70
     1
102
RTVSPropertyOp42
 70
     1
102
RTVSPropertyOp43
 70
     1
102
RTVSPropertyOp44
 70
     1
102
RTVSPropertyOp45
 70
     1
102
RTVSPropertyOp46
 70
     1
102
RTVSPropertyOp47
 70
     1
102
RTVSPropertyOp48
 70
     1
102
RTVSPropertyOp49
 70
     1
102
RTVSPropertyOp50
 70
     1
102
RTVSPropertyOp51
 70
     0
102
RTVSPropertyOp52
 70
     0
102
RTVSPropertyOp53
 70
     1
102
RTVSPropertyOp54
 70
     1
102
RTVSPropertyOp55
 70
     1
102
RTVSPropertyOp56
 70
     1
102
RTVSPropertyOp57
 70
     1
102
RTVSPropertyOp58
 70
     1
102
RTVSPropertyOp59
 70
     1
102
RTVSPropertyOp60
 70
     1
102
RTVSPropertyOp61
 70
     1
102
RTVSPropertyOp62
 70
     1
  0
XRECORD
  5
8520
102
{ACAD_REACTORS
330
851F
102
}
330
851F
100
AcDbXrecord
280
     1
102
RTVSPost2010Prop28
280
     0
102
RTVSPost2010PropOp28
 70
     1
102
RTVSPost2010Prop29
280
     1
102
RTVSPost2010PropOp29
 70
     1
102
RTVSPost2010Prop30
280
     1
102
RTVSPost2010PropOp30
 70
     1
102
RTVSPost2010Prop31
280
     0
102
RTVSPost2010PropOp31
 70
     1
102
RTVSPost2010Prop32
280
     0
102
RTVSPost2010PropOp32
 70
     1
102
RTVSPost2010Prop33
280
     0
102
RTVSPost2010PropOp33
 70
     1
102
RTVSPost2010Prop34
280
     0
102
RTVSPost2010PropOp34
 70
     1
102
RTVSPost2010Prop35
280
     0
102
RTVSPost2010PropOp35
 70
     1
102
RTVSPost2010Prop36
280
     0
102
RTVSPost2010PropOp36
 70
     1
102
RTVSPost2010Prop37
 90
       50
102
RTVSPost2010PropOp37
 70
     1
102
RTVSPost2010Prop38
140
0.0
102
RTVSPost2010PropOp38
 70
     1
102
RTVSPost2010Prop39
140
1.0
102
RTVSPost2010PropOp39
 70
     1
102
RTVSPost2010Prop40
 90
        0
102
RTVSPost2010PropOp40
 70
     1
102
RTVSPost2010Prop41ColorIndex
 90
       18
102
RTVSPost2010Prop41ColorRGB
 90
        0
102
RTVSPost2010PropOp41
 70
     1
102
RTVSPost2010Prop42
 90
       50
102
RTVSPost2010PropOp42
 70
     1
102
RTVSPost2010Prop43
 90
        3
102
RTVSPost2010PropOp43
 70
     1
102
RTVSPost2010Prop44ColorIndex
 90
        5
102
RTVSPost2010Prop44ColorRGB
 90
      255
102
RTVSPost2010PropOp44
 70
     1
102
RTVSPost2010Prop45
280
     0
102
RTVSPost2010PropOp45
 70
     1
102
RTVSPost2010Prop46
 90
       50
102
RTVSPost2010PropOp46
 70
     1
102
RTVSPost2010Prop47
 90
       50
102
RTVSPost2010PropOp47
 70
     1
102
RTVSPost2010Prop48
 90
       50
102
RTVSPost2010PropOp48
 70
     1
102
RTVSPost2010Prop49
280
     0
102
RTVSPost2010PropOp49
 70
     1
102
RTVSPost2010Prop50
 90
       50
102
RTVSPost2010PropOp50
 70
     1
102
RTVSPost2010Prop51ColorIndex
 90
      256
102
RTVSPost2010Prop51ColorRGB
 90
-16777216
102
RTVSPost2010PropOp51
 70
     0
102
RTVSPost2010Prop52
140
1.0
102
RTVSPost2010PropOp52
 70
     0
102
RTVSPost2010Prop53
 90
        2
102
RTVSPost2010PropOp53
 70
     1
102
RTVSPost2010Prop54
  1
strokes_ogs.tif
102
RTVSPost2010PropOp54
 70
     1
102
RTVSPost2010Prop55
280
     0
102
RTVSPost2010PropOp55
 70
     1
102
RTVSPost2010Prop56
140
1.0
102
RTVSPost2010PropOp56
 70
     1
102
RTVSPost2010Prop57
140
1.0
102
RTVSPost2010PropOp57
 70
     1
102
RTVSPropertyOp0
 70
     1
102
RTVSPropertyOp1
 70
     1
102
RTVSPropertyOp2
 70
     1
102
RTVSPropertyOp3
 70
     1
102
RTVSPropertyOp4
 70
     1
102
RTVSPropertyOp5
 70
     1
102
RTVSPropertyOp6
 70
     1
102
RTVSPropertyOp7
 70
     1
102
RTVSPropertyOp8
 70
     1
102
RTVSPropertyOp9
 70
     1
102
RTVSPropertyOp10
 70
     1
102
RTVSPropertyOp11
 70
     1
102
RTVSPropertyOp12
 70
     1
102
RTVSPropertyOp13
 70
     1
102
RTVSPropertyOp14
 70
     1
102
RTVSPropertyOp15
 70
     1
102
RTVSPropertyOp16
 70
     1
102
RTVSPropertyOp17
 70
     1
102
RTVSPropertyOp18
 70
     1
102
RTVSPropertyOp19
 70
     1
102
RTVSPropertyOp20
 70
     1
102
RTVSPropertyOp21
 70
     1
102
RTVSPropertyOp22
 70
     1
102
RTVSPropertyOp23
 70
     1
102
RTVSPropertyOp24
 70
     1
102
RTVSPropertyOp25
 70
     1
102
RTVSPropertyOp26
 70
     1
102
RTVSPropertyOp27
 70
     1
102
RTVSPropertyOp28
 70
     1
102
RTVSPropertyOp29
 70
     1
102
RTVSPropertyOp30
 70
     1
102
RTVSPropertyOp31
 70
     1
102
RTVSPropertyOp32
 70
     1
102
RTVSPropertyOp33
 70
     1
102
RTVSPropertyOp34
 70
     1
102
RTVSPropertyOp35
 70
     1
102
RTVSPropertyOp36
 70
     1
102
RTVSPropertyOp37
 70
     1
102
RTVSPropertyOp38
 70
     1
102
RTVSPropertyOp39
 70
     1
102
RTVSPropertyOp40
 70
     1
102
RTVSPropertyOp41
 70
     1
102
RTVSPropertyOp42
 70
     1
102
RTVSPropertyOp43
 70
     1
102
RTVSPropertyOp44
 70
     1
102
RTVSPropertyOp45
 70
     1
102
RTVSPropertyOp46
 70
     1
102
RTVSPropertyOp47
 70
     1
102
RTVSPropertyOp48
 70
     1
102
RTVSPropertyOp49
 70
     1
102
RTVSPropertyOp50
 70
     1
102
RTVSPropertyOp51
 70
     0
102
RTVSPropertyOp52
 70
     0
102
RTVSPropertyOp53
 70
     1
102
RTVSPropertyOp54
 70
     1
102
RTVSPropertyOp55
 70
     1
102
RTVSPropertyOp56
 70
     1
102
RTVSPropertyOp57
 70
     1
102
RTVSPropertyOp58
 70
     1
102
RTVSPropertyOp59
 70
     1
102
RTVSPropertyOp60
 70
     1
102
RTVSPropertyOp61
 70
     1
102
RTVSPropertyOp62
 70
     1
  0
XRECORD
  5
8522
102
{ACAD_REACTORS
330
8521
102
}
330
8521
100
AcDbXrecord
280
     1
102
RTVSPost2010Prop28
280
     0
102
RTVSPost2010PropOp28
 70
     1
102
RTVSPost2010Prop29
280
     1
102
RTVSPost2010PropOp29
 70
     1
102
RTVSPost2010Prop30
280
     1
102
RTVSPost2010PropOp30
 70
     1
102
RTVSPost2010Prop31
280
     0
102
RTVSPost2010PropOp31
 70
     1
102
RTVSPost2010Prop32
280
     0
102
RTVSPost2010PropOp32
 70
     1
102
RTVSPost2010Prop33
280
     0
102
RTVSPost2010PropOp33
 70
     1
102
RTVSPost2010Prop34
280
     0
102
RTVSPost2010PropOp34
 70
     1
102
RTVSPost2010Prop35
280
     0
102
RTVSPost2010PropOp35
 70
     1
102
RTVSPost2010Prop36
280
     0
102
RTVSPost2010PropOp36
 70
     1
102
RTVSPost2010Prop37
 90
       50
102
RTVSPost2010PropOp37
 70
     1
102
RTVSPost2010Prop38
140
0.0
102
RTVSPost2010PropOp38
 70
     1
102
RTVSPost2010Prop39
140
1.0
102
RTVSPost2010PropOp39
 70
     1
102
RTVSPost2010Prop40
 90
        0
102
RTVSPost2010PropOp40
 70
     1
102
RTVSPost2010Prop41ColorIndex
 90
       18
102
RTVSPost2010Prop41ColorRGB
 90
        0
102
RTVSPost2010PropOp41
 70
     1
102
RTVSPost2010Prop42
 90
       50
102
RTVSPost2010PropOp42
 70
     1
102
RTVSPost2010Prop43
 90
        3
102
RTVSPost2010PropOp43
 70
     1
102
RTVSPost2010Prop44ColorIndex
 90
        5
102
RTVSPost2010Prop44ColorRGB
 90
      255
102
RTVSPost2010PropOp44
 70
     1
102
RTVSPost2010Prop45
280
     0
102
RTVSPost2010PropOp45
 70
     1
102
RTVSPost2010Prop46
 90
       50
102
RTVSPost2010PropOp46
 70
     1
102
RTVSPost2010Prop47
 90
       50
102
RTVSPost2010PropOp47
 70
     1
102
RTVSPost2010Prop48
 90
       50
102
RTVSPost2010PropOp48
 70
     1
102
RTVSPost2010Prop49
280
     0
102
RTVSPost2010PropOp49
 70
     1
102
RTVSPost2010Prop50
 90
       50
102
RTVSPost2010PropOp50
 70
     1
102
RTVSPost2010Prop51ColorIndex
 90
      256
102
RTVSPost2010Prop51ColorRGB
 90
-16777216
102
RTVSPost2010PropOp51
 70
     0
102
RTVSPost2010Prop52
140
1.0
102
RTVSPost2010PropOp52
 70
     0
102
RTVSPost2010Prop53
 90
        2
102
RTVSPost2010PropOp53
 70
     1
102
RTVSPost2010Prop54
  1
strokes_ogs.tif
102
RTVSPost2010PropOp54
 70
     1
102
RTVSPost2010Prop55
280
     0
102
RTVSPost2010PropOp55
 70
     1
102
RTVSPost2010Prop56
140
1.0
102
RTVSPost2010PropOp56
 70
     1
102
RTVSPost2010Prop57
140
1.0
102
RTVSPost2010PropOp57
 70
     1
102
RTVSPropertyOp0
 70
     1
102
RTVSPropertyOp1
 70
     1
102
RTVSPropertyOp2
 70
     1
102
RTVSPropertyOp3
 70
     1
102
RTVSPropertyOp4
 70
     1
102
RTVSPropertyOp5
 70
     1
102
RTVSPropertyOp6
 70
     1
102
RTVSPropertyOp7
 70
     1
102
RTVSPropertyOp8
 70
     1
102
RTVSPropertyOp9
 70
     1
102
RTVSPropertyOp10
 70
     1
102
RTVSPropertyOp11
 70
     1
102
RTVSPropertyOp12
 70
     1
102
RTVSPropertyOp13
 70
     1
102
RTVSPropertyOp14
 70
     1
102
RTVSPropertyOp15
 70
     1
102
RTVSPropertyOp16
 70
     1
102
RTVSPropertyOp17
 70
     1
102
RTVSPropertyOp18
 70
     1
102
RTVSPropertyOp19
 70
     1
102
RTVSPropertyOp20
 70
     1
102
RTVSPropertyOp21
 70
     1
102
RTVSPropertyOp22
 70
     1
102
RTVSPropertyOp23
 70
     1
102
RTVSPropertyOp24
 70
     1
102
RTVSPropertyOp25
 70
     1
102
RTVSPropertyOp26
 70
     1
102
RTVSPropertyOp27
 70
     1
102
RTVSPropertyOp28
 70
     1
102
RTVSPropertyOp29
 70
     1
102
RTVSPropertyOp30
 70
     1
102
RTVSPropertyOp31
 70
     1
102
RTVSPropertyOp32
 70
     1
102
RTVSPropertyOp33
 70
     1
102
RTVSPropertyOp34
 70
     1
102
RTVSPropertyOp35
 70
     1
102
RTVSPropertyOp36
 70
     1
102
RTVSPropertyOp37
 70
     1
102
RTVSPropertyOp38
 70
     1
102
RTVSPropertyOp39
 70
     1
102
RTVSPropertyOp40
 70
     1
102
RTVSPropertyOp41
 70
     1
102
RTVSPropertyOp42
 70
     1
102
RTVSPropertyOp43
 70
     1
102
RTVSPropertyOp44
 70
     1
102
RTVSPropertyOp45
 70
     1
102
RTVSPropertyOp46
 70
     1
102
RTVSPropertyOp47
 70
     1
102
RTVSPropertyOp48
 70
     1
102
RTVSPropertyOp49
 70
     1
102
RTVSPropertyOp50
 70
     1
102
RTVSPropertyOp51
 70
     0
102
RTVSPropertyOp52
 70
     0
102
RTVSPropertyOp53
 70
     1
102
RTVSPropertyOp54
 70
     1
102
RTVSPropertyOp55
 70
     1
102
RTVSPropertyOp56
 70
     1
102
RTVSPropertyOp57
 70
     1
102
RTVSPropertyOp58
 70
     1
102
RTVSPropertyOp59
 70
     1
102
RTVSPropertyOp60
 70
     1
102
RTVSPropertyOp61
 70
     1
102
RTVSPropertyOp62
 70
     1
  0
XRECORD
  5
8518
102
{ACAD_REACTORS
330
8517
102
}
330
8517
100
AcDbXrecord
280
     1
102
RTVSPost2010Prop28
280
     0
102
RTVSPost2010PropOp28
 70
     1
102
RTVSPost2010Prop29
280
     1
102
RTVSPost2010PropOp29
 70
     1
102
RTVSPost2010Prop30
280
     1
102
RTVSPost2010PropOp30
 70
     1
102
RTVSPost2010Prop31
280
     0
102
RTVSPost2010PropOp31
 70
     1
102
RTVSPost2010Prop32
280
     0
102
RTVSPost2010PropOp32
 70
     1
102
RTVSPost2010Prop33
280
     0
102
RTVSPost2010PropOp33
 70
     1
102
RTVSPost2010Prop34
280
     0
102
RTVSPost2010PropOp34
 70
     1
102
RTVSPost2010Prop35
280
     0
102
RTVSPost2010PropOp35
 70
     1
102
RTVSPost2010Prop36
280
     0
102
RTVSPost2010PropOp36
 70
     1
102
RTVSPost2010Prop37
 90
       50
102
RTVSPost2010PropOp37
 70
     1
102
RTVSPost2010Prop38
140
0.0
102
RTVSPost2010PropOp38
 70
     1
102
RTVSPost2010Prop39
140
1.0
102
RTVSPost2010PropOp39
 70
     1
102
RTVSPost2010Prop40
 90
        0
102
RTVSPost2010PropOp40
 70
     1
102
RTVSPost2010Prop41ColorIndex
 90
       18
102
RTVSPost2010Prop41ColorRGB
 90
        0
102
RTVSPost2010PropOp41
 70
     1
102
RTVSPost2010Prop42
 90
       50
102
RTVSPost2010PropOp42
 70
     1
102
RTVSPost2010Prop43
 90
        3
102
RTVSPost2010PropOp43
 70
     1
102
RTVSPost2010Prop44ColorIndex
 90
        5
102
RTVSPost2010Prop44ColorRGB
 90
      255
102
RTVSPost2010PropOp44
 70
     1
102
RTVSPost2010Prop45
280
     0
102
RTVSPost2010PropOp45
 70
     1
102
RTVSPost2010Prop46
 90
       50
102
RTVSPost2010PropOp46
 70
     1
102
RTVSPost2010Prop47
 90
       50
102
RTVSPost2010PropOp47
 70
     1
102
RTVSPost2010Prop48
 90
       50
102
RTVSPost2010PropOp48
 70
     1
102
RTVSPost2010Prop49
280
     0
102
RTVSPost2010PropOp49
 70
     1
102
RTVSPost2010Prop50
 90
       50
102
RTVSPost2010PropOp50
 70
     1
102
RTVSPost2010Prop51ColorIndex
 90
      256
102
RTVSPost2010Prop51ColorRGB
 90
-16777216
102
RTVSPost2010PropOp51
 70
     0
102
RTVSPost2010Prop52
140
1.0
102
RTVSPost2010PropOp52
 70
     0
102
RTVSPost2010Prop53
 90
        2
102
RTVSPost2010PropOp53
 70
     1
102
RTVSPost2010Prop54
  1
strokes_ogs.tif
102
RTVSPost2010PropOp54
 70
     1
102
RTVSPost2010Prop55
280
     0
102
RTVSPost2010PropOp55
 70
     1
102
RTVSPost2010Prop56
140
1.0
102
RTVSPost2010PropOp56
 70
     1
102
RTVSPost2010Prop57
140
1.0
102
RTVSPost2010PropOp57
 70
     1
102
RTVSPropertyOp0
 70
     1
102
RTVSPropertyOp1
 70
     1
102
RTVSPropertyOp2
 70
     1
102
RTVSPropertyOp3
 70
     1
102
RTVSPropertyOp4
 70
     1
102
RTVSPropertyOp5
 70
     1
102
RTVSPropertyOp6
 70
     1
102
RTVSPropertyOp7
 70
     1
102
RTVSPropertyOp8
 70
     1
102
RTVSPropertyOp9
 70
     1
102
RTVSPropertyOp10
 70
     1
102
RTVSPropertyOp11
 70
     1
102
RTVSPropertyOp12
 70
     1
102
RTVSPropertyOp13
 70
     1
102
RTVSPropertyOp14
 70
     1
102
RTVSPropertyOp15
 70
     1
102
RTVSPropertyOp16
 70
     1
102
RTVSPropertyOp17
 70
     1
102
RTVSPropertyOp18
 70
     1
102
RTVSPropertyOp19
 70
     1
102
RTVSPropertyOp20
 70
     1
102
RTVSPropertyOp21
 70
     1
102
RTVSPropertyOp22
 70
     1
102
RTVSPropertyOp23
 70
     1
102
RTVSPropertyOp24
 70
     1
102
RTVSPropertyOp25
 70
     1
102
RTVSPropertyOp26
 70
     1
102
RTVSPropertyOp27
 70
     1
102
RTVSPropertyOp28
 70
     1
102
RTVSPropertyOp29
 70
     1
102
RTVSPropertyOp30
 70
     1
102
RTVSPropertyOp31
 70
     1
102
RTVSPropertyOp32
 70
     1
102
RTVSPropertyOp33
 70
     1
102
RTVSPropertyOp34
 70
     1
102
RTVSPropertyOp35
 70
     1
102
RTVSPropertyOp36
 70
     1
102
RTVSPropertyOp37
 70
     1
102
RTVSPropertyOp38
 70
     1
102
RTVSPropertyOp39
 70
     1
102
RTVSPropertyOp40
 70
     1
102
RTVSPropertyOp41
 70
     1
102
RTVSPropertyOp42
 70
     1
102
RTVSPropertyOp43
 70
     1
102
RTVSPropertyOp44
 70
     1
102
RTVSPropertyOp45
 70
     1
102
RTVSPropertyOp46
 70
     1
102
RTVSPropertyOp47
 70
     1
102
RTVSPropertyOp48
 70
     1
102
RTVSPropertyOp49
 70
     1
102
RTVSPropertyOp50
 70
     1
102
RTVSPropertyOp51
 70
     0
102
RTVSPropertyOp52
 70
     0
102
RTVSPropertyOp53
 70
     1
102
RTVSPropertyOp54
 70
     1
102
RTVSPropertyOp55
 70
     1
102
RTVSPropertyOp56
 70
     1
102
RTVSPropertyOp57
 70
     1
102
RTVSPropertyOp58
 70
     1
102
RTVSPropertyOp59
 70
     1
102
RTVSPropertyOp60
 70
     1
102
RTVSPropertyOp61
 70
     1
102
RTVSPropertyOp62
 70
     1
  0
XRECORD
  5
850C
102
{ACAD_REACTORS
330
850B
102
}
330
850B
100
AcDbXrecord
280
     1
102
RTVSPost2010Prop28
280
     0
102
RTVSPost2010PropOp28
 70
     1
102
RTVSPost2010Prop29
280
     1
102
RTVSPost2010PropOp29
 70
     1
102
RTVSPost2010Prop30
280
     1
102
RTVSPost2010PropOp30
 70
     1
102
RTVSPost2010Prop31
280
     0
102
RTVSPost2010PropOp31
 70
     1
102
RTVSPost2010Prop32
280
     0
102
RTVSPost2010PropOp32
 70
     1
102
RTVSPost2010Prop33
280
     0
102
RTVSPost2010PropOp33
 70
     1
102
RTVSPost2010Prop34
280
     0
102
RTVSPost2010PropOp34
 70
     1
102
RTVSPost2010Prop35
280
     0
102
RTVSPost2010PropOp35
 70
     1
102
RTVSPost2010Prop36
280
     0
102
RTVSPost2010PropOp36
 70
     1
102
RTVSPost2010Prop37
 90
       50
102
RTVSPost2010PropOp37
 70
     1
102
RTVSPost2010Prop38
140
0.0
102
RTVSPost2010PropOp38
 70
     1
102
RTVSPost2010Prop39
140
1.0
102
RTVSPost2010PropOp39
 70
     1
102
RTVSPost2010Prop40
 90
        0
102
RTVSPost2010PropOp40
 70
     1
102
RTVSPost2010Prop41ColorIndex
 90
       18
102
RTVSPost2010Prop41ColorRGB
 90
        0
102
RTVSPost2010PropOp41
 70
     1
102
RTVSPost2010Prop42
 90
       50
102
RTVSPost2010PropOp42
 70
     1
102
RTVSPost2010Prop43
 90
        3
102
RTVSPost2010PropOp43
 70
     1
102
RTVSPost2010Prop44ColorIndex
 90
        5
102
RTVSPost2010Prop44ColorRGB
 90
      255
102
RTVSPost2010PropOp44
 70
     1
102
RTVSPost2010Prop45
280
     0
102
RTVSPost2010PropOp45
 70
     1
102
RTVSPost2010Prop46
 90
       50
102
RTVSPost2010PropOp46
 70
     1
102
RTVSPost2010Prop47
 90
       50
102
RTVSPost2010PropOp47
 70
     1
102
RTVSPost2010Prop48
 90
       50
102
RTVSPost2010PropOp48
 70
     1
102
RTVSPost2010Prop49
280
     0
102
RTVSPost2010PropOp49
 70
     1
102
RTVSPost2010Prop50
 90
       50
102
RTVSPost2010PropOp50
 70
     1
102
RTVSPost2010Prop51ColorIndex
 90
      256
102
RTVSPost2010Prop51ColorRGB
 90
-16777216
102
RTVSPost2010PropOp51
 70
     0
102
RTVSPost2010Prop52
140
1.0
102
RTVSPost2010PropOp52
 70
     0
102
RTVSPost2010Prop53
 90
        2
102
RTVSPost2010PropOp53
 70
     1
102
RTVSPost2010Prop54
  1
strokes_ogs.tif
102
RTVSPost2010PropOp54
 70
     1
102
RTVSPost2010Prop55
280
     0
102
RTVSPost2010PropOp55
 70
     1
102
RTVSPost2010Prop56
140
1.0
102
RTVSPost2010PropOp56
 70
     1
102
RTVSPost2010Prop57
140
1.0
102
RTVSPost2010PropOp57
 70
     1
102
RTVSPropertyOp0
 70
     1
102
RTVSPropertyOp1
 70
     1
102
RTVSPropertyOp2
 70
     1
102
RTVSPropertyOp3
 70
     1
102
RTVSPropertyOp4
 70
     1
102
RTVSPropertyOp5
 70
     1
102
RTVSPropertyOp6
 70
     1
102
RTVSPropertyOp7
 70
     1
102
RTVSPropertyOp8
 70
     1
102
RTVSPropertyOp9
 70
     1
102
RTVSPropertyOp10
 70
     1
102
RTVSPropertyOp11
 70
     1
102
RTVSPropertyOp12
 70
     1
102
RTVSPropertyOp13
 70
     1
102
RTVSPropertyOp14
 70
     1
102
RTVSPropertyOp15
 70
     1
102
RTVSPropertyOp16
 70
     1
102
RTVSPropertyOp17
 70
     1
102
RTVSPropertyOp18
 70
     1
102
RTVSPropertyOp19
 70
     1
102
RTVSPropertyOp20
 70
     1
102
RTVSPropertyOp21
 70
     1
102
RTVSPropertyOp22
 70
     1
102
RTVSPropertyOp23
 70
     1
102
RTVSPropertyOp24
 70
     1
102
RTVSPropertyOp25
 70
     1
102
RTVSPropertyOp26
 70
     1
102
RTVSPropertyOp27
 70
     1
102
RTVSPropertyOp28
 70
     1
102
RTVSPropertyOp29
 70
     1
102
RTVSPropertyOp30
 70
     1
102
RTVSPropertyOp31
 70
     1
102
RTVSPropertyOp32
 70
     1
102
RTVSPropertyOp33
 70
     1
102
RTVSPropertyOp34
 70
     1
102
RTVSPropertyOp35
 70
     1
102
RTVSPropertyOp36
 70
     1
102
RTVSPropertyOp37
 70
     1
102
RTVSPropertyOp38
 70
     1
102
RTVSPropertyOp39
 70
     1
102
RTVSPropertyOp40
 70
     1
102
RTVSPropertyOp41
 70
     1
102
RTVSPropertyOp42
 70
     1
102
RTVSPropertyOp43
 70
     1
102
RTVSPropertyOp44
 70
     1
102
RTVSPropertyOp45
 70
     1
102
RTVSPropertyOp46
 70
     1
102
RTVSPropertyOp47
 70
     1
102
RTVSPropertyOp48
 70
     1
102
RTVSPropertyOp49
 70
     1
102
RTVSPropertyOp50
 70
     1
102
RTVSPropertyOp51
 70
     0
102
RTVSPropertyOp52
 70
     0
102
RTVSPropertyOp53
 70
     1
102
RTVSPropertyOp54
 70
     1
102
RTVSPropertyOp55
 70
     1
102
RTVSPropertyOp56
 70
     1
102
RTVSPropertyOp57
 70
     1
102
RTVSPropertyOp58
 70
     1
102
RTVSPropertyOp59
 70
     1
102
RTVSPropertyOp60
 70
     1
102
RTVSPropertyOp61
 70
     1
102
RTVSPropertyOp62
 70
     1
  0
XRECORD
  5
8524
102
{ACAD_REACTORS
330
8523
102
}
330
8523
100
AcDbXrecord
280
     1
102
RTVSPost2010Prop28
280
     0
102
RTVSPost2010PropOp28
 70
     1
102
RTVSPost2010Prop29
280
     1
102
RTVSPost2010PropOp29
 70
     1
102
RTVSPost2010Prop30
280
     1
102
RTVSPost2010PropOp30
 70
     1
102
RTVSPost2010Prop31
280
     0
102
RTVSPost2010PropOp31
 70
     1
102
RTVSPost2010Prop32
280
     0
102
RTVSPost2010PropOp32
 70
     1
102
RTVSPost2010Prop33
280
     0
102
RTVSPost2010PropOp33
 70
     1
102
RTVSPost2010Prop34
280
     0
102
RTVSPost2010PropOp34
 70
     1
102
RTVSPost2010Prop35
280
     0
102
RTVSPost2010PropOp35
 70
     1
102
RTVSPost2010Prop36
280
     0
102
RTVSPost2010PropOp36
 70
     1
102
RTVSPost2010Prop37
 90
       50
102
RTVSPost2010PropOp37
 70
     1
102
RTVSPost2010Prop38
140
0.0
102
RTVSPost2010PropOp38
 70
     1
102
RTVSPost2010Prop39
140
1.0
102
RTVSPost2010PropOp39
 70
     1
102
RTVSPost2010Prop40
 90
        0
102
RTVSPost2010PropOp40
 70
     1
102
RTVSPost2010Prop41ColorIndex
 90
       18
102
RTVSPost2010Prop41ColorRGB
 90
        0
102
RTVSPost2010PropOp41
 70
     1
102
RTVSPost2010Prop42
 90
       50
102
RTVSPost2010PropOp42
 70
     1
102
RTVSPost2010Prop43
 90
        3
102
RTVSPost2010PropOp43
 70
     1
102
RTVSPost2010Prop44ColorIndex
 90
        5
102
RTVSPost2010Prop44ColorRGB
 90
      255
102
RTVSPost2010PropOp44
 70
     1
102
RTVSPost2010Prop45
280
     0
102
RTVSPost2010PropOp45
 70
     1
102
RTVSPost2010Prop46
 90
       50
102
RTVSPost2010PropOp46
 70
     1
102
RTVSPost2010Prop47
 90
       50
102
RTVSPost2010PropOp47
 70
     1
102
RTVSPost2010Prop48
 90
       50
102
RTVSPost2010PropOp48
 70
     1
102
RTVSPost2010Prop49
280
     0
102
RTVSPost2010PropOp49
 70
     1
102
RTVSPost2010Prop50
 90
       50
102
RTVSPost2010PropOp50
 70
     1
102
RTVSPost2010Prop51ColorIndex
 90
      256
102
RTVSPost2010Prop51ColorRGB
 90
-16777216
102
RTVSPost2010PropOp51
 70
     0
102
RTVSPost2010Prop52
140
1.0
102
RTVSPost2010PropOp52
 70
     0
102
RTVSPost2010Prop53
 90
        2
102
RTVSPost2010PropOp53
 70
     1
102
RTVSPost2010Prop54
  1
strokes_ogs.tif
102
RTVSPost2010PropOp54
 70
     1
102
RTVSPost2010Prop55
280
     0
102
RTVSPost2010PropOp55
 70
     1
102
RTVSPost2010Prop56
140
1.0
102
RTVSPost2010PropOp56
 70
     1
102
RTVSPost2010Prop57
140
1.0
102
RTVSPost2010PropOp57
 70
     1
102
RTVSPropertyOp0
 70
     1
102
RTVSPropertyOp1
 70
     1
102
RTVSPropertyOp2
 70
     1
102
RTVSPropertyOp3
 70
     1
102
RTVSPropertyOp4
 70
     1
102
RTVSPropertyOp5
 70
     1
102
RTVSPropertyOp6
 70
     1
102
RTVSPropertyOp7
 70
     1
102
RTVSPropertyOp8
 70
     1
102
RTVSPropertyOp9
 70
     1
102
RTVSPropertyOp10
 70
     1
102
RTVSPropertyOp11
 70
     1
102
RTVSPropertyOp12
 70
     1
102
RTVSPropertyOp13
 70
     1
102
RTVSPropertyOp14
 70
     1
102
RTVSPropertyOp15
 70
     1
102
RTVSPropertyOp16
 70
     1
102
RTVSPropertyOp17
 70
     1
102
RTVSPropertyOp18
 70
     1
102
RTVSPropertyOp19
 70
     1
102
RTVSPropertyOp20
 70
     1
102
RTVSPropertyOp21
 70
     1
102
RTVSPropertyOp22
 70
     1
102
RTVSPropertyOp23
 70
     1
102
RTVSPropertyOp24
 70
     1
102
RTVSPropertyOp25
 70
     1
102
RTVSPropertyOp26
 70
     1
102
RTVSPropertyOp27
 70
     1
102
RTVSPropertyOp28
 70
     1
102
RTVSPropertyOp29
 70
     1
102
RTVSPropertyOp30
 70
     1
102
RTVSPropertyOp31
 70
     1
102
RTVSPropertyOp32
 70
     1
102
RTVSPropertyOp33
 70
     1
102
RTVSPropertyOp34
 70
     1
102
RTVSPropertyOp35
 70
     1
102
RTVSPropertyOp36
 70
     1
102
RTVSPropertyOp37
 70
     1
102
RTVSPropertyOp38
 70
     1
102
RTVSPropertyOp39
 70
     1
102
RTVSPropertyOp40
 70
     1
102
RTVSPropertyOp41
 70
     1
102
RTVSPropertyOp42
 70
     1
102
RTVSPropertyOp43
 70
     1
102
RTVSPropertyOp44
 70
     1
102
RTVSPropertyOp45
 70
     1
102
RTVSPropertyOp46
 70
     1
102
RTVSPropertyOp47
 70
     1
102
RTVSPropertyOp48
 70
     1
102
RTVSPropertyOp49
 70
     1
102
RTVSPropertyOp50
 70
     1
102
RTVSPropertyOp51
 70
     0
102
RTVSPropertyOp52
 70
     0
102
RTVSPropertyOp53
 70
     1
102
RTVSPropertyOp54
 70
     1
102
RTVSPropertyOp55
 70
     1
102
RTVSPropertyOp56
 70
     1
102
RTVSPropertyOp57
 70
     1
102
RTVSPropertyOp58
 70
     1
102
RTVSPropertyOp59
 70
     1
102
RTVSPropertyOp60
 70
     1
102
RTVSPropertyOp61
 70
     1
102
RTVSPropertyOp62
 70
     1
  0
ENDSEC
  0
EOF
