  0
SECTION
  2
HEADER
  9
$ACADVER
  1
AC1015
  9
$ACADMAINTVER
 70
    20
  9
$DWGCODEPAGE
  3
ANSI_932
  9
$INSBASE
 10
0.0
 20
0.0
 30
0.0
  9
$EXTMIN
 10
9.9999975266385
 20
10.0
 30
0.0
  9
$EXTMAX
 10
485.4148780859545
 20
640.6676724482982
 30
0.0
  9
$LIMMIN
 10
0.0000015376081137
 20
-0.0000001931532552
  9
$LIMMAX
 10
1042.000001537608
 20
718.3484846553316
  9
$ORTHOMODE
 70
     1
  9
$REGENMODE
 70
     1
  9
$FILLMODE
 70
     1
  9
$QTEXTMODE
 70
     0
  9
$MIRRTEXT
 70
     1
  9
$LTSCALE
 40
1.0
  9
$ATTMODE
 70
     1
  9
$TEXTSIZE
 40
2.5
  9
$TRACEWID
 40
1.0
  9
$TEXTSTYLE
  7
STANDARD
  9
$CLAYER
  8
0
  9
$CELTYPE
  6
BYLAYER
  9
$CECOLOR
 62
   256
  9
$CELTSCALE
 40
1.0
  9
$DISPSILH
 70
     0
  9
$DIMSCALE
 40
1.0
  9
$DIMASZ
 40
3.0
  9
$DIMEXO
 40
1.0
  9
$DIMDLI
 40
10.0
  9
$DIMRND
 40
0.0
  9
$DIMDLE
 40
0.0
  9
$DIMEXE
 40
1.0
  9
$DIMTP
 40
0.0
  9
$DIMTM
 40
0.0
  9
$DIMTXT
 40
3.2
  9
$DIMCEN
 40
0.0
  9
$DIMTSZ
 40
0.0
  9
$DIMTOL
 70
     0
  9
$DIMLIM
 70
     0
  9
$DIMTIH
 70
     0
  9
$DIMTOH
 70
     0
  9
$DIMSE1
 70
     0
  9
$DIMSE2
 70
     0
  9
$DIMTAD
 70
     3
  9
$DIMZIN
 70
     8
  9
$DIMBLK
  1

  9
$DIMASO
 70
     1
  9
$DIMSHO
 70
     1
  9
$DIMPOST
  1

  9
$DIMAPOST
  1

  9
$DIMALT
 70
     0
  9
$DIMALTD
 70
     2
  9
$DIMALTF
 40
25.4
  9
$DIMLFAC
 40
1.0
  9
$DIMTOFL
 70
     1
  9
$DIMTVP
 40
0.0
  9
$DIMTIX
 70
     0
  9
$DIMSOXD
 70
     0
  9
$DIMSAH
 70
     1
  9
$DIMBLK1
  1
OPEN
  9
$DIMBLK2
  1
OPEN
  9
$DIMSTYLE
  2
STANDARD
  9
$DIMCLRD
 70
     0
  9
$DIMCLRE
 70
     0
  9
$DIMCLRT
 70
     0
  9
$DIMTFAC
 40
1.0
  9
$DIMGAP
 40
1.0
  9
$DIMJUST
 70
     0
  9
$DIMSD1
 70
     0
  9
$DIMSD2
 70
     0
  9
$DIMTOLJ
 70
     1
  9
$DIMTZIN
 70
     0
  9
$DIMALTZ
 70
     0
  9
$DIMALTTZ
 70
     0
  9
$DIMUPT
 70
     0
  9
$DIMDEC
 70
     4
  9
$DIMTDEC
 70
     4
  9
$DIMALTU
 70
     2
  9
$DIMALTTD
 70
     2
  9
$DIMTXSTY
  7
STANDARD
  9
$DIMAUNIT
 70
     0
  9
$DIMADEC
 70
     0
  9
$DIMALTRND
 40
0.0
  9
$DIMAZIN
 70
     0
  9
$DIMDSEP
 70
    46
  9
$DIMATFIT
 70
     3
  9
$DIMFRAC
 70
     0
  9
$DIMLDRBLK
  1
OPEN
  9
$DIMLUNIT
 70
     2
  9
$DIMLWD
 70
    -2
  9
$DIMLWE
 70
    -2
  9
$DIMTMOVE
 70
     0
  9
$LUNITS
 70
     2
  9
$LUPREC
 70
     4
  9
$SKETCHINC
 40
1.0
  9
$FILLETRAD
 40
10.0
  9
$AUNITS
 70
     0
  9
$AUPREC
 70
     0
  9
$MENU
  1
.
  9
$ELEVATION
 40
0.0
  9
$PELEVATION
 40
0.0
  9
$THICKNESS
 40
0.0
  9
$LIMCHECK
 70
     0
  9
$CHAMFERA
 40
10.0
  9
$CHAMFERB
 40
10.0
  9
$CHAMFERC
 40
20.0
  9
$CHAMFERD
 40
0.0
  9
$SKPOLY
 70
     0
  9
$TDCREATE
 40
2452051.395592083
  9
$TDUCREATE
 40
2452051.020592084
  9
$TDUPDATE
 40
2457192.622173692
  9
$TDUUPDATE
 40
2457192.247173692
  9
$TDINDWG
 40
0.4166514931
  9
$TDUSRTIMER
 40
0.4166514815
  9
$USRTIMER
 70
     1
  9
$ANGBASE
 50
0.0
  9
$ANGDIR
 70
     0
  9
$PDMODE
 70
     0
  9
$PDSIZE
 40
0.0
  9
$PLINEWID
 40
0.0
  9
$SPLFRAME
 70
     0
  9
$SPLINETYPE
 70
     6
  9
$SPLINESEGS
 70
     8
  9
$HANDSEED
  5
D058
  9
$SURFTAB1
 70
     6
  9
$SURFTAB2
 70
     6
  9
$SURFTYPE
 70
     6
  9
$SURFU
 70
     6
  9
$SURFV
 70
     6
  9
$UCSBASE
  2

  9
$UCSNAME
  2

  9
$UCSORG
 10
0.0
 20
0.0
 30
0.0
  9
$UCSXDIR
 10
1.0
 20
0.0
 30
0.0
  9
$UCSYDIR
 10
0.0
 20
1.0
 30
0.0
  9
$UCSORTHOREF
  2

  9
$UCSORTHOVIEW
 70
     0
  9
$UCSORGTOP
 10
0.0
 20
0.0
 30
0.0
  9
$UCSORGBOTTOM
 10
0.0
 20
0.0
 30
0.0
  9
$UCSORGLEFT
 10
0.0
 20
0.0
 30
0.0
  9
$UCSORGRIGHT
 10
0.0
 20
0.0
 30
0.0
  9
$UCSORGFRONT
 10
0.0
 20
0.0
 30
0.0
  9
$UCSORGBACK
 10
0.0
 20
0.0
 30
0.0
  9
$PUCSBASE
  2

  9
$PUCSNAME
  2

  9
$PUCSORG
 10
0.0
 20
0.0
 30
0.0
  9
$PUCSXDIR
 10
1.0
 20
0.0
 30
0.0
  9
$PUCSYDIR
 10
0.0
 20
1.0
 30
0.0
  9
$PUCSORTHOREF
  2

  9
$PUCSORTHOVIEW
 70
     0
  9
$PUCSORGTOP
 10
0.0
 20
0.0
 30
0.0
  9
$PUCSORGBOTTOM
 10
0.0
 20
0.0
 30
0.0
  9
$PUCSORGLEFT
 10
0.0
 20
0.0
 30
0.0
  9
$PUCSORGRIGHT
 10
0.0
 20
0.0
 30
0.0
  9
$PUCSORGFRONT
 10
0.0
 20
0.0
 30
0.0
  9
$PUCSORGBACK
 10
0.0
 20
0.0
 30
0.0
  9
$USERI1
 70
     0
  9
$USERI2
 70
     0
  9
$USERI3
 70
     0
  9
$USERI4
 70
     0
  9
$USERI5
 70
     0
  9
$USERR1
 40
0.0
  9
$USERR2
 40
0.0
  9
$USERR3
 40
0.0
  9
$USERR4
 40
0.0
  9
$USERR5
 40
0.0
  9
$WORLDVIEW
 70
     1
  9
$SHADEDGE
 70
     3
  9
$SHADEDIF
 70
    70
  9
$TILEMODE
 70
     1
  9
$MAXACTVP
 70
    48
  9
$PINSBASE
 10
0.0
 20
0.0
 30
0.0
  9
$PLIMCHECK
 70
     0
  9
$PEXTMIN
 10
1.000000000000000E+20
 20
1.000000000000000E+20
 30
1.000000000000000E+20
  9
$PEXTMAX
 10
-1.000000000000000E+20
 20
-1.000000000000000E+20
 30
-1.000000000000000E+20
  9
$PLIMMIN
 10
0.0
 20
0.0
  9
$PLIMMAX
 10
420.0
 20
297.0
  9
$UNITMODE
 70
     0
  9
$VISRETAIN
 70
     1
  9
$PLINEGEN
 70
     0
  9
$PSLTSCALE
 70
     1
  9
$TREEDEPTH
 70
  3020
  9
$CMLSTYLE
  2
STANDARD
  9
$CMLJUST
 70
     0
  9
$CMLSCALE
 40
20.0
  9
$PROXYGRAPHICS
 70
     1
  9
$MEASUREMENT
 70
     0
  9
$CELWEIGHT
370
    -1
  9
$ENDCAPS
280
     0
  9
$JOINSTYLE
280
     0
  9
$LWDISPLAY
290
     0
  9
$INSUNITS
 70
     0
  9
$HYPERLINKBASE
  1

  9
$STYLESHEET
  1

  9
$XEDIT
290
     1
  9
$CEPSNTYPE
380
     0
  9
$PSTYLEMODE
290
     1
  9
$FINGERPRINTGUID
  2
{409BC41E-6144-4763-8998-68D0CAC49135}
  9
$VERSIONGUID
  2
{030EC64D-02DA-46FA-AA02-676BC4060D6A}
  9
$EXTNAMES
290
     1
  9
$PSVPSCALE
 40
0.0
  9
$OLESTARTUP
290
     0
  0
ENDSEC
  0
SECTION
  2
CLASSES
  0
CLASS
  1
ACDBDICTIONARYWDFLT
  2
AcDbDictionaryWithDefault
  3
ObjectDBX Classes
 90
        0
280
     0
281
     0
  0
CLASS
  1
ACDBPLACEHOLDER
  2
AcDbPlaceHolder
  3
ObjectDBX Classes
 90
        0
280
     0
281
     0
  0
CLASS
  1
LAYOUT
  2
AcDbLayout
  3
ObjectDBX Classes
 90
        0
280
     0
281
     0
  0
CLASS
  1
DICTIONARYVAR
  2
AcDbDictionaryVar
  3
ObjectDBX Classes
 90
        0
280
     0
281
     0
  0
CLASS
  1
MATERIAL
  2
AcDbMaterial
  3
ObjectDBX Classes
 90
     1153
280
     0
281
     0
  0
CLASS
  1
VISUALSTYLE
  2
AcDbVisualStyle
  3
ObjectDBX Classes
 90
     4095
280
     0
281
     0
  0
CLASS
  1
TABLESTYLE
  2
AcDbTableStyle
  3
ObjectDBX Classes
 90
     4095
280
     0
281
     0
  0
CLASS
  1
SCALE
  2
AcDbScale
  3
ObjectDBX Classes
 90
     1153
280
     0
281
     0
  0
CLASS
  1
MLEADERSTYLE
  2
AcDbMLeaderStyle
  3
ACDB_MLEADERSTYLE_CLASS
 90
     4095
280
     0
281
     0
  0
CLASS
  1
ACDBSECTIONVIEWSTYLE
  2
AcDbSectionViewStyle
  3
ObjectDBX Classes
 90
     1025
280
     0
281
     0
  0
CLASS
  1
ACDBDETAILVIEWSTYLE
  2
AcDbDetailViewStyle
  3
ObjectDBX Classes
 90
     1025
280
     0
281
     0
  0
CLASS
  1
CELLSTYLEMAP
  2
AcDbCellStyleMap
  3
ObjectDBX Classes
 90
     1152
280
     0
281
     0
  0
ENDSEC
  0
SECTION
  2
TABLES
  0
TABLE
  2
VPORT
  5
8
330
0
100
AcDbSymbolTable
 70
     1
  0
VPORT
  5
CFA2
330
8
100
AcDbSymbolTableRecord
100
AcDbViewportTableRecord
  2
*ACTIVE
 70
     0
 10
0.0
 20
0.0
 11
1.0
 21
1.0
 12
507.3278342497802
 22
325.3317611528973
 13
0.0
 23
0.0
 14
10.0
 24
10.0
 15
10.0
 25
10.0
 16
0.0
 26
0.0
 36
1.0
 17
0.0
 27
0.0
 37
0.0
 40
635.6638650130803
 41
1.899603698811096
 42
50.0
 43
0.0
 44
0.0
 50
0.0
 51
0.0
 71
     0
 72
   100
 73
     1
 74
     0
 75
     0
 76
     0
 77
     0
 78
     0
281
     0
 65
     1
110
0.0
120
0.0
130
0.0
111
1.0
121
0.0
131
0.0
112
0.0
122
1.0
132
0.0
 79
     0
146
0.0
1001
ACAD_NAV_VCDISPLAY
1070
     3
  0
ENDTAB
  0
TABLE
  2
LTYPE
  5
5
330
0
100
AcDbSymbolTable
 70
     4
  0
LTYPE
  5
12
330
5
100
AcDbSymbolTableRecord
100
AcDbLinetypeTableRecord
  2
BYBLOCK
 70
     0
  3

 72
    65
 73
     0
 40
0.0
  0
LTYPE
  5
13
330
5
100
AcDbSymbolTableRecord
100
AcDbLinetypeTableRecord
  2
BYLAYER
 70
     0
  3

 72
    65
 73
     0
 40
0.0
  0
LTYPE
  5
14
330
5
100
AcDbSymbolTableRecord
100
AcDbLinetypeTableRecord
  2
CONTINUOUS
 70
     0
  3
Solid line
 72
    65
 73
     0
 40
0.0
  0
LTYPE
  5
4B
330
5
100
AcDbSymbolTableRecord
100
AcDbLinetypeTableRecord
  2
DASHED
 70
     0
  3
Dashed __ __ __ __ __ __ __ __ __ __ __ __ __ _
 72
    65
 73
     2
 40
19.04999999999999
 49
12.7
 74
     0
 49
-6.349999999999998
 74
     0
  0
LTYPE
  5
4C
330
5
100
AcDbSymbolTableRecord
100
AcDbLinetypeTableRecord
  2
CENTER
 70
     0
  3
Center ____ _ ____ _ ____ _ ____ _ ____ _ ____
 72
    65
 73
     4
 40
50.8
 49
31.75
 74
     0
 49
-6.349999999999998
 74
     0
 49
6.349999999999998
 74
     0
 49
-6.349999999999998
 74
     0
  0
LTYPE
  5
4D
330
5
100
AcDbSymbolTableRecord
100
AcDbLinetypeTableRecord
  2
PHANTOM
 70
     0
  3
Phantom ______  __  __  ______  __  __  ______
 72
    65
 73
     6
 40
63.5
 49
31.75
 74
     0
 49
-6.349999999999998
 74
     0
 49
6.349999999999998
 74
     0
 49
-6.349999999999998
 74
     0
 49
6.349999999999998
 74
     0
 49
-6.349999999999998
 74
     0
  0
ENDTAB
  0
TABLE
  2
LAYER
  5
2
330
0
100
AcDbSymbolTable
 70
     8
  0
LAYER
  5
E
102
{ACAD_XDICTIONARY
360
CFFC
102
}
330
2
100
AcDbSymbolTableRecord
100
AcDbLayerTableRecord
  2
0
 70
     0
 62
     7
  6
CONTINUOUS
370
    -3
390
CFAB
  0
LAYER
  5
4E
102
{ACAD_XDICTIONARY
360
CFFE
102
}
330
2
100
AcDbSymbolTableRecord
100
AcDbLayerTableRecord
  2
4
 70
     0
 62
     1
  6
CENTER
370
    -3
390
CFAB
  0
LAYER
  5
4F
102
{ACAD_XDICTIONARY
360
D000
102
}
330
2
100
AcDbSymbolTableRecord
100
AcDbLayerTableRecord
  2
5
 70
     0
 62
     6
  6
PHANTOM
370
    -3
390
CFAB
  0
LAYER
  5
50
102
{ACAD_XDICTIONARY
360
D002
102
}
330
2
100
AcDbSymbolTableRecord
100
AcDbLayerTableRecord
  2
1
 70
     0
 62
     7
  6
CONTINUOUS
370
    -3
390
CFAB
  0
LAYER
  5
51
102
{ACAD_XDICTIONARY
360
D004
102
}
330
2
100
AcDbSymbolTableRecord
100
AcDbLayerTableRecord
  2
2
 70
     0
 62
     4
  6
CONTINUOUS
370
    -3
390
CFAB
  0
LAYER
  5
52
102
{ACAD_XDICTIONARY
360
D006
102
}
330
2
100
AcDbSymbolTableRecord
100
AcDbLayerTableRecord
  2
3
 70
     0
 62
     2
  6
DASHED
370
    -3
390
CFAB
  0
LAYER
  5
53
102
{ACAD_XDICTIONARY
360
D008
102
}
330
2
100
AcDbSymbolTableRecord
100
AcDbLayerTableRecord
  2
6
 70
     0
 62
     5
  6
CONTINUOUS
370
    -3
390
CFAB
  0
LAYER
  5
54
102
{ACAD_XDICTIONARY
360
D00A
102
}
330
2
100
AcDbSymbolTableRecord
100
AcDbLayerTableRecord
  2
7
 70
     0
 62
     3
  6
CONTINUOUS
370
    -3
390
CFAB
  0
ENDTAB
  0
TABLE
  2
STYLE
  5
3
330
0
100
AcDbSymbolTable
 70
     1
  0
STYLE
  5
F
330
3
100
AcDbSymbolTableRecord
100
AcDbTextStyleTableRecord
  2
STANDARD
 70
     0
 40
0.0
 41
1.0
 50
0.0
 71
     0
 42
2.5
  3
simplex.shx
  4

  0
ENDTAB
  0
TABLE
  2
VIEW
  5
6
330
0
100
AcDbSymbolTable
 70
     0
  0
ENDTAB
  0
TABLE
  2
UCS
  5
7
330
0
100
AcDbSymbolTable
 70
     0
  0
ENDTAB
  0
TABLE
  2
APPID
  5
9
330
0
100
AcDbSymbolTable
 70
     5
  0
APPID
  5
10
330
9
100
AcDbSymbolTableRecord
100
AcDbRegAppTableRecord
  2
ACAD
 70
     0
  0
APPID
  5
3E
330
9
100
AcDbSymbolTableRecord
100
AcDbRegAppTableRecord
  2
CONTENTTABDATA
 70
     0
  0
APPID
  5
3F
330
9
100
AcDbSymbolTableRecord
100
AcDbRegAppTableRecord
  2
CONTENTCURRENTTAB
 70
     0
  0
APPID
  5
D016
330
9
100
AcDbSymbolTableRecord
100
AcDbRegAppTableRecord
  2
ACAD_NAV_VCDISPLAY
 70
     0
  0
APPID
  5
D04F
330
9
100
AcDbSymbolTableRecord
100
AcDbRegAppTableRecord
  2
ACAD_MLEADERVER
 70
     0
  0
ENDTAB
  0
TABLE
  2
DIMSTYLE
  5
A
330
0
100
AcDbSymbolTable
 70
     1
100
AcDbDimStyleTable
 71
     0
  0
DIMSTYLE
105
1D
330
A
100
AcDbSymbolTableRecord
100
AcDbDimStyleTableRecord
  2
STANDARD
 70
     0
 41
3.0
 42
1.0
 43
10.0
 44
1.0
 73
     0
 74
     0
 77
     3
 78
     8
140
3.2
141
0.0
147
1.0
172
     1
173
     1
340
F
341
2E
343
2E
344
2E
  0
ENDTAB
  0
TABLE
  2
BLOCK_RECORD
  5
1
330
0
100
AcDbSymbolTable
 70
     1
  0
BLOCK_RECORD
  5
18
102
{ACAD_XDICTIONARY
360
CFA5
102
}
330
1
100
AcDbSymbolTableRecord
100
AcDbBlockTableRecord
  2
*MODEL_SPACE
340
CFF9
  0
BLOCK_RECORD
  5
15
102
{ACAD_XDICTIONARY
360
CFA3
102
}
330
1
100
AcDbSymbolTableRecord
100
AcDbBlockTableRecord
  2
*PAPER_SPACE
340
CFFA
  0
BLOCK_RECORD
  5
2E
330
1
100
AcDbSymbolTableRecord
100
AcDbBlockTableRecord
  2
_OPEN
340
0
  0
ENDTAB
  0
ENDSEC
  0
SECTION
  2
BLOCKS
  0
BLOCK
  5
19
330
18
100
AcDbEntity
  8
0
100
AcDbBlockBegin
  2
*MODEL_SPACE
 70
     0
 10
0.0
 20
0.0
 30
0.0
  3
*MODEL_SPACE
  1

  0
ENDBLK
  5
1A
330
18
100
AcDbEntity
  8
0
100
AcDbBlockEnd
  0
BLOCK
  5
16
330
15
100
AcDbEntity
 67
     1
  8
0
100
AcDbBlockBegin
  2
*PAPER_SPACE
 70
     0
 10
0.0
 20
0.0
 30
0.0
  3
*PAPER_SPACE
  1

  0
ENDBLK
  5
17
330
15
100
AcDbEntity
 67
     1
  8
0
100
AcDbBlockEnd
  0
BLOCK
  5
2F
330
2E
100
AcDbEntity
  8
0
100
AcDbBlockBegin
  2
_OPEN
 70
     0
 10
0.0
 20
0.0
 30
0.0
  3
_OPEN
  1

  0
LINE
  5
30
330
2E
100
AcDbEntity
  8
0
  6
ByBlock
 62
     0
100
AcDbLine
 10
-1.0
 20
0.1666666666666666
 30
0.0
 11
0.0
 21
0.0
 31
0.0
  0
LINE
  5
31
330
2E
100
AcDbEntity
  8
0
  6
ByBlock
 62
     0
100
AcDbLine
 10
0.0
 20
0.0
 30
0.0
 11
-1.0
 21
-0.1666666666666666
 31
0.0
  0
LINE
  5
32
330
2E
100
AcDbEntity
  8
0
  6
ByBlock
 62
     0
100
AcDbLine
 10
0.0
 20
0.0
 30
0.0
 11
-1.0
 21
0.0
 31
0.0
  0
ENDBLK
  5
33
330
2E
100
AcDbEntity
  8
0
100
AcDbBlockEnd
  0
ENDSEC
  0
SECTION
  2
ENTITIES
  0
TEXT
  5
63
330
18
100
AcDbEntity
  8
4
  6
CENTER
 48
0.25
100
AcDbText
 10
23.97950852663849
 20
10.0
 30
0.0
 40
1.399999999999999
  1
4
100
AcDbText
  0
TEXT
  5
64
330
18
100
AcDbEntity
  8
7
  6
Continuous
 48
0.25
100
AcDbText
 10
9.999997526638502
 20
26.0000007607689
 30
0.0
 40
3.0
  1
CODE No.7514
100
AcDbText
  0
TEXT
  5
65
330
18
100
AcDbEntity
  8
7
  6
Continuous
 48
0.25
100
AcDbText
 10
9.999997526638502
 20
18.00000076076889
 30
0.0
 40
3.0
  1
TYPE No.TM-281-R
100
AcDbText
  0
TEXT
  5
66
330
18
100
AcDbEntity
  8
1
  6
Continuous
 48
0.25
100
AcDbText
 10
9.999997526638502
 20
10.00000076076889
 30
0.0
 40
1.399999999999999
  1
LAYER
100
AcDbText
  0
TEXT
  5
67
330
18
100
AcDbEntity
  8
2
  6
Continuous
 48
0.25
100
AcDbText
 10
19.9795085266385
 20
10.0
 30
0.0
 40
1.399999999999999
  1
2
100
AcDbText
  0
TEXT
  5
68
330
18
100
AcDbEntity
  8
3
  6
DASHED
 48
0.25
100
AcDbText
 10
21.9795085266385
 20
10.0
 30
0.0
 40
1.399999999999999
  1
3
100
AcDbText
  0
TEXT
  5
69
330
18
100
AcDbEntity
  8
1
  6
Continuous
 48
0.25
100
AcDbText
 10
17.9795085266385
 20
10.0
 30
0.0
 40
1.399999999999999
  1
1
100
AcDbText
  0
TEXT
  5
6A
330
18
100
AcDbEntity
  8
5
  6
PHANTOM
 48
0.25
100
AcDbText
 10
25.9795085266385
 20
10.0
 30
0.0
 40
1.399999999999999
  1
5
100
AcDbText
  0
TEXT
  5
6B
330
18
100
AcDbEntity
  8
6
  6
Continuous
 48
0.25
100
AcDbText
 10
27.9795085266385
 20
10.0
 30
0.0
 40
1.399999999999999
  1
6
100
AcDbText
  0
TEXT
  5
6C
330
18
100
AcDbEntity
  8
7
  6
Continuous
 48
0.25
100
AcDbText
 10
29.9795085266385
 20
10.0
 30
0.0
 40
1.399999999999999
  1
7
100
AcDbText
  0
ARC
  5
83F6
330
18
100
AcDbEntity
  8
1
  6
Continuous
100
AcDbCircle
 10
128.0648780859564
 20
473.3343069982324
 30
0.0
 40
1.145412728988864
100
AcDbArc
 50
62.24965455462839
 51
144.462322207997
  0
LINE
  5
83F7
330
18
100
AcDbEntity
  8
1
  6
Continuous
100
AcDbLine
 10
129.3196142083584
 20
471.7787701774363
 30
0.0
 11
128.0648780859562
 21
471.7787701774363
 31
0.0
  0
LINE
  5
83F8
330
18
100
AcDbEntity
  8
1
  6
Continuous
100
AcDbLine
 10
126.6039301458008
 20
472.2232092690924
 30
0.0
 11
129.3864860648313
 21
472.2232092690924
 31
0.0
  0
LINE
  5
83F9
330
18
100
AcDbEntity
  8
1
  6
Continuous
100
AcDbLine
 10
128.0648780859562
 20
472.8898679065765
 30
0.0
 11
129.1309145897148
 21
472.8898679065765
 31
0.0
  0
LINE
  5
83FA
330
18
100
AcDbEntity
  8
1
  6
Continuous
100
AcDbLine
 10
128.8965640873809
 20
473.3383803856931
 30
0.0
 11
127.0228309284443
 21
473.8404456724631
 31
0.0
  0
LINE
  5
83FB
330
18
100
AcDbEntity
  8
1
  6
Continuous
100
AcDbLine
 10
126.8459102685478
 20
467.7788183525318
 30
0.0
 11
128.7617357532783
 21
467.7788183525318
 31
0.0
  0
LINE
  5
83FC
330
18
100
AcDbEntity
  8
1
  6
Continuous
100
AcDbLine
 10
128.8848676677946
 20
468.2232574441878
 30
0.0
 11
127.2448885041107
 21
468.2232574441878
 31
0.0
  0
LINE
  5
83FD
330
18
100
AcDbEntity
  8
1
  6
Continuous
100
AcDbLine
 10
126.9686858813959
 20
468.6676965358439
 30
0.0
 11
129.1610702905093
 21
468.6676965358439
 31
0.0
  0
LINE
  5
83FE
330
18
100
AcDbEntity
  8
1
  6
Continuous
100
AcDbLine
 10
126.9101445855162
 20
469.1121356274999
 30
0.0
 11
129.2196115863889
 21
469.1121356274999
 31
0.0
  0
LINE
  5
83FF
330
18
100
AcDbEntity
  8
1
  6
Continuous
100
AcDbLine
 10
126.551525801223
 20
470.0010138108122
 30
0.0
 11
129.5782303706821
 21
470.0010138108122
 31
0.0
  0
LINE
  5
8400
330
18
100
AcDbEntity
  8
1
  6
Continuous
100
AcDbLine
 10
126.5140118052775
 20
470.4454529024683
 30
0.0
 11
129.6157443666277
 21
470.4454529024683
 31
0.0
  0
LINE
  5
8401
330
18
100
AcDbEntity
  8
1
  6
Continuous
100
AcDbLine
 10
126.5140118052775
 20
470.8898919941242
 30
0.0
 11
129.6157443666277
 21
470.8898919941242
 31
0.0
  0
LINE
  5
8402
330
18
100
AcDbEntity
  8
1
  6
Continuous
100
AcDbLine
 10
126.6022191703022
 20
471.3343310857803
 30
0.0
 11
129.5275370016029
 21
471.3343310857803
 31
0.0
  0
ARC
  5
8403
330
18
100
AcDbEntity
  8
1
  6
Continuous
100
AcDbCircle
 10
128.0648780859564
 20
468.0010378983596
 30
0.0
 40
1.145412728988863
100
AcDbArc
 50
270.0
 51
324.4623222080521
  0
ARC
  5
8404
330
18
100
AcDbEntity
  8
1
  6
Continuous
100
AcDbCircle
 10
124.3315897160419
 20
470.6676724482963
 30
0.0
 40
5.733264282363177
100
AcDbArc
 50
324.4623222080521
 51
35.53767779194789
  0
ARC
  5
8405
330
18
100
AcDbEntity
  8
1
  6
Continuous
100
AcDbCircle
 10
128.0648780859564
 20
473.3343069982324
 30
0.0
 40
1.145412728988864
100
AcDbArc
 50
35.53767779194789
 51
45.69883927961821
  0
ARC
  5
8406
330
18
100
AcDbEntity
  8
1
  6
Continuous
100
AcDbCircle
 10
129.3196142083586
 20
471.5565506316083
 30
0.0
 40
0.2222195458280301
100
AcDbArc
 50
10.10418271612847
 51
90.0
  0
ARC
  5
8407
330
18
100
AcDbEntity
  8
1
  6
Continuous
100
AcDbCircle
 10
129.1610702905093
 20
468.6232526266783
 30
0.0
 40
0.044443909165606
100
AcDbArc
 50
337.0560464434622
 51
90.0
  0
ARC
  5
8408
330
18
100
AcDbEntity
  8
1
  6
Continuous
100
AcDbCircle
 10
124.3315897160419
 20
470.6676724482963
 30
0.0
 40
5.288825190707117
100
AcDbArc
 50
333.9856340003639
 51
337.0560464434622
  0
ARC
  5
8409
330
18
100
AcDbEntity
  8
1
  6
Continuous
100
AcDbCircle
 10
128.8848676677946
 20
468.445476990016
 30
0.0
 40
0.2222195458280301
100
AcDbArc
 50
270.0
 51
333.9856340003639
  0
ARC
  5
840A
330
18
100
AcDbEntity
  8
1
  6
Continuous
100
AcDbCircle
 10
129.2196115863889
 20
469.3343551733279
 30
0.0
 40
0.2222195458280301
100
AcDbArc
 50
270.0
 51
344.7424767095418
  0
ARC
  5
840B
330
18
100
AcDbEntity
  8
1
  6
Continuous
100
AcDbCircle
 10
124.3315897160419
 20
470.6676724482963
 30
0.0
 40
5.288825190707117
100
AcDbArc
 50
344.7424767095418
 51
344.7937121239437
  0
ARC
  5
840C
330
18
100
AcDbEntity
  8
1
  6
Continuous
100
AcDbCircle
 10
124.3315897160419
 20
470.6676724482963
 30
0.0
 40
5.288825190707117
100
AcDbArc
 50
344.7937121239437
 51
347.2710561268771
  0
ARC
  5
840D
330
18
100
AcDbEntity
  8
1
  6
Continuous
100
AcDbCircle
 10
129.4470817303376
 20
469.5121308099904
 30
0.0
 40
0.044443909165606
100
AcDbArc
 50
347.2710561268771
 51
90.0
  0
LINE
  5
840E
330
18
100
AcDbEntity
  8
1
  6
Continuous
100
AcDbLine
 10
129.4470817303376
 20
469.556574719156
 30
0.0
 11
128.5982049959436
 21
469.556574719156
 31
0.0
  0
ARC
  5
840F
330
18
100
AcDbEntity
  8
1
  6
Continuous
100
AcDbCircle
 10
129.5275370016031
 20
471.3787749949458
 30
0.0
 40
0.044443909165606
100
AcDbArc
 50
270.0
 51
7.792924335425926
  0
ARC
  5
8410
330
18
100
AcDbEntity
  8
1
  6
Continuous
100
AcDbCircle
 10
124.3315897160419
 20
470.6676724482963
 30
0.0
 40
5.288825190707117
100
AcDbArc
 50
7.792924335425926
 51
10.10418271612847
  0
ARC
  5
8411
330
18
100
AcDbEntity
  8
1
  6
Continuous
100
AcDbCircle
 10
127.8426585401282
 20
472.8898679065765
 30
0.0
 40
0.2222195458280311
100
AcDbArc
 50
270.0
 51
90.0
  0
ARC
  5
8412
330
18
100
AcDbEntity
  8
1
  6
Continuous
100
AcDbCircle
 10
131.7981664558635
 20
470.6676724482963
 30
0.0
 40
5.733264282363177
100
AcDbArc
 50
144.462322207997
 51
215.5376777920029
  0
LINE
  5
8416
330
18
100
AcDbEntity
  8
1
  6
Continuous
100
AcDbLine
 10
127.8426585401282
 20
473.1120874524044
 30
0.0
 11
126.893201651281
 21
473.1120874524044
 31
0.0
  0
LINE
  5
8417
330
18
100
AcDbEntity
  8
1
  6
Continuous
100
AcDbLine
 10
128.0648780859562
 20
474.4797197272213
 30
0.0
 11
128.0648780859562
 21
473.5612299781317
 31
0.0
  0
LINE
  5
8421
330
18
100
AcDbEntity
  8
1
  6
Continuous
100
AcDbLine
 10
127.531551175969
 20
471.7787701774363
 30
0.0
 11
126.8101419635468
 21
471.7787701774363
 31
0.0
  0
ARC
  5
8422
330
18
100
AcDbEntity
  8
1
  6
Continuous
100
AcDbCircle
 10
126.8101419635468
 20
471.5565506316083
 30
0.0
 40
0.2222195458280301
100
AcDbArc
 50
90.0
 51
169.8958172838714
  0
LINE
  5
8423
330
18
100
AcDbEntity
  8
1
  6
Continuous
100
AcDbLine
 10
128.0648780859562
 20
471.7787701774363
 30
0.0
 11
128.0648780859562
 21
471.5565506316083
 31
0.0
  0
LINE
  5
8424
330
18
100
AcDbEntity
  8
1
  6
Continuous
100
AcDbLine
 10
126.8133109756151
 20
472.6676483607485
 30
0.0
 11
127.8426585401282
 21
472.6676483607485
 31
0.0
  0
ARC
  5
8425
330
18
100
AcDbEntity
  8
1
  6
Continuous
100
AcDbCircle
 10
127.2448885041107
 20
468.445476990016
 30
0.0
 40
0.2222195458280301
100
AcDbArc
 50
206.014365999636
 51
270.0
  0
ARC
  5
8426
330
18
100
AcDbEntity
  8
1
  6
Continuous
100
AcDbCircle
 10
131.7981664558635
 20
470.6676724482963
 30
0.0
 40
5.288825190707117
100
AcDbArc
 50
202.9439535565377
 51
206.014365999636
  0
ARC
  5
8427
330
18
100
AcDbEntity
  8
1
  6
Continuous
100
AcDbCircle
 10
126.9686858813961
 20
468.6232526266783
 30
0.0
 40
0.044443909165606
100
AcDbArc
 50
90.0
 51
202.9439535565377
  0
LINE
  5
8428
330
18
100
AcDbEntity
  8
1
  6
Continuous
100
AcDbLine
 10
127.531551175969
 20
469.556574719156
 30
0.0
 11
126.6826744415677
 21
469.556574719156
 31
0.0
  0
ARC
  5
8429
330
18
100
AcDbEntity
  8
1
  6
Continuous
100
AcDbCircle
 10
126.6826744415677
 20
469.5121308099904
 30
0.0
 40
0.044443909165606
100
AcDbArc
 50
90.0
 51
192.7289438731228
  0
ARC
  5
842A
330
18
100
AcDbEntity
  8
1
  6
Continuous
100
AcDbCircle
 10
131.7981664558635
 20
470.6676724482963
 30
0.0
 40
5.288825190707117
100
AcDbArc
 50
192.7289438731228
 51
193.2681189705571
  0
ARC
  5
842B
330
18
100
AcDbEntity
  8
1
  6
Continuous
100
AcDbCircle
 10
131.7981664558635
 20
470.6676724482963
 30
0.0
 40
5.288825190707117
100
AcDbArc
 50
193.2681189705571
 51
195.2575232904581
  0
ARC
  5
842C
330
18
100
AcDbEntity
  8
1
  6
Continuous
100
AcDbCircle
 10
126.9101445855165
 20
469.3343551733279
 30
0.0
 40
0.2222195458280301
100
AcDbArc
 50
195.2575232904581
 51
270.0
  0
LINE
  5
842D
330
18
100
AcDbEntity
  8
1
  6
Continuous
100
AcDbLine
 10
128.0648780859562
 20
470.4454529024683
 30
0.0
 11
128.0648780859562
 21
470.0010138108122
 31
0.0
  0
ARC
  5
842E
330
18
100
AcDbEntity
  8
1
  6
Continuous
100
AcDbCircle
 10
126.6022191703022
 20
471.3787749949458
 30
0.0
 40
0.044443909165606
100
AcDbArc
 50
172.2070756645739
 51
270.0
  0
ARC
  5
842F
330
18
100
AcDbEntity
  8
1
  6
Continuous
100
AcDbCircle
 10
128.0648780859564
 20
468.0010378983596
 30
0.0
 40
1.145412728988863
100
AcDbArc
 50
215.5376777920029
 51
256.5374393917326
  0
ARC
  5
8430
330
18
100
AcDbEntity
  8
1
  6
Continuous
100
AcDbCircle
 10
131.7981664558635
 20
470.6676724482963
 30
0.0
 40
5.288825190707117
100
AcDbArc
 50
169.8958172838714
 51
172.2070756645739
  0
LINE
  5
AAF6
330
18
100
AcDbEntity
  8
4
  6
CENTER
 48
0.2
100
AcDbLine
 10
93.06487808595555
 20
463.3422959925717
 30
0.0
 11
93.06487808595582
 21
261.9912699167374
 31
0.0
  0
LINE
  5
AAF7
330
18
100
AcDbEntity
  8
1
  6
Continuous
100
AcDbLine
 10
105.0648780859553
 20
446.3876344482962
 30
0.0
 11
105.0648780859555
 21
278.9477104482962
 31
0.0
  0
LINE
  5
AAF8
330
18
100
AcDbEntity
  8
1
  6
Continuous
100
AcDbLine
 10
233.7148780859556
 20
380.1676724482963
 30
0.0
 11
233.7148780859556
 21
246.6676724483814
 31
0.0
  0
LINE
  5
AAF9
330
18
100
AcDbEntity
  8
1
  6
Continuous
100
AcDbLine
 10
231.7148780859556
 20
380.1676724482963
 30
0.0
 11
231.7148780859556
 21
246.6676724483762
 31
0.0
  0
LINE
  5
AAFA
330
18
100
AcDbEntity
  8
1
  6
Continuous
100
AcDbLine
 10
81.06487808595534
 20
275.4682584482962
 30
0.0
 11
81.06487808595534
 21
346.6676724482963
 31
0.0
  0
LINE
  5
AB05
330
18
100
AcDbEntity
  8
1
  6
Continuous
100
AcDbLine
 10
385.0648780859537
 20
275.4682584482962
 30
0.0
 11
385.0648780859537
 21
346.6676724482963
 31
0.0
  0
LINE
  5
AB06
330
18
100
AcDbEntity
  8
1
  6
Continuous
100
AcDbLine
 10
361.0648780859537
 20
443.5241819694836
 30
0.0
 11
361.0648780859537
 21
278.9477104482962
 31
0.0
  0
LINE
  5
AB07
330
18
100
AcDbEntity
  8
4
  6
CENTER
 48
0.2
100
AcDbLine
 10
373.0648780859537
 20
449.8483804287436
 30
0.0
 11
373.0648780859537
 21
261.9912699167375
 31
0.0
  0
LINE
  5
AB11
330
18
100
AcDbEntity
  8
4
  6
CENTER
 48
0.2
100
AcDbLine
 10
380.0648780859542
 20
307.6676724482963
 30
0.0
 11
366.0648780859533
 21
307.6676724482963
 31
0.0
  0
LINE
  5
AB12
330
18
100
AcDbEntity
  8
4
  6
CENTER
 48
0.2
100
AcDbLine
 10
380.0648780859542
 20
322.6676724482964
 30
0.0
 11
366.0648780859533
 21
322.6676724482964
 31
0.0
  0
CIRCLE
  5
AB13
330
18
100
AcDbEntity
  8
1
  6
Continuous
100
AcDbCircle
 10
373.0648780859537
 20
322.6676724482964
 30
0.0
 40
5.0
  0
LINE
  5
AB14
330
18
100
AcDbEntity
  8
4
  6
CENTER
 48
0.2
100
AcDbLine
 10
380.0648780859542
 20
294.6676724482964
 30
0.0
 11
366.0648780859533
 21
294.6676724482964
 31
0.0
  0
LINE
  5
AB19
330
18
100
AcDbEntity
  8
1
  6
Continuous
100
AcDbLine
 10
361.0648773758474
 20
250.052417448224
 30
0.0
 11
375.0763991364784
 21
258.1544071651499
 31
0.0
  0
ARC
  5
AB1E
330
18
100
AcDbEntity
  8
1
  6
Continuous
100
AcDbCircle
 10
365.0648780859537
 20
275.4682584482963
 30
0.0
 40
20.0
100
AcDbArc
 50
300.0000000000004
 51
0.000000000000007
  0
CIRCLE
  5
AB1F
330
18
100
AcDbEntity
  8
1
  6
Continuous
100
AcDbCircle
 10
373.0648780859537
 20
294.6676724482964
 30
0.0
 40
3.0
  0
CIRCLE
  5
AB20
330
18
100
AcDbEntity
  8
1
  6
Continuous
100
AcDbCircle
 10
373.0648780859537
 20
307.6676724482963
 30
0.0
 40
4.0
  0
LINE
  5
AB21
330
18
100
AcDbEntity
  8
4
  6
CENTER
 48
0.2
100
AcDbLine
 10
353.0648773758475
 20
274.1676704482961
 30
0.0
 11
353.0648773758475
 21
235.1676744482964
 31
0.0
  0
ARC
  5
AB22
330
18
100
AcDbEntity
  8
1
  6
Continuous
100
AcDbCircle
 10
349.0648780859537
 20
278.9477104482963
 30
0.0
 40
12.0
100
AcDbArc
 50
317.1317870230146
 51
0.000000000000007
  0
ARC
  5
AB26
330
18
100
AcDbEntity
  8
1
  6
Continuous
100
AcDbCircle
 10
348.0648773758475
 20
242.8510504482963
 30
0.0
 40
3.0
100
AcDbArc
 50
180.0
 51
213.5573100000021
  0
ARC
  5
AB27
330
18
100
AcDbEntity
  8
1
  6
Continuous
100
AcDbCircle
 10
358.0648773758476
 20
242.8510504482963
 30
0.0
 40
3.0
100
AcDbArc
 50
326.4426899999977
 51
0.000000000000007
  0
CIRCLE
  5
AB2A
330
18
100
AcDbEntity
  8
1
  6
Continuous
100
AcDbCircle
 10
353.0648773758475
 20
242.1676724482964
 30
0.0
 40
1.649999999999999
  0
ARC
  5
AB2B
330
18
100
AcDbEntity
  8
1
  6
Continuous
100
AcDbCircle
 10
353.0648773758475
 20
246.1676744482963
 30
0.0
 40
9.0
100
AcDbArc
 50
213.5573100000021
 51
326.4426899999977
  0
LINE
  5
AB2C
330
18
100
AcDbEntity
  8
4
  6
CENTER
 48
0.1
100
AcDbLine
 10
358.0648773758476
 20
242.1676724482964
 30
0.0
 11
348.0648773758475
 21
242.1676724482964
 31
0.0
  0
LINE
  5
AB2D
330
18
100
AcDbEntity
  8
4
  6
CENTER
 48
0.2
100
AcDbLine
 10
347.0648773758471
 20
254.6676724482964
 30
0.0
 11
359.0648773758471
 21
254.6676724482964
 31
0.0
  0
ARC
  5
AB2E
330
18
100
AcDbEntity
  8
1
  6
Continuous
100
AcDbCircle
 10
353.0648773758475
 20
263.1676704482964
 30
0.0
 40
9.0
100
AcDbArc
 50
33.55731000000231
 51
146.4426899999977
  0
LINE
  5
AB2F
330
18
100
AcDbEntity
  8
4
  6
CENTER
 48
0.1
100
AcDbLine
 10
358.0648773758476
 20
267.1676724482965
 30
0.0
 11
348.0648773758475
 21
267.1676724482964
 31
0.0
  0
CIRCLE
  5
AB30
330
18
100
AcDbEntity
  8
1
  6
Continuous
100
AcDbCircle
 10
353.0648773758475
 20
254.6676724482964
 30
0.0
 40
5.455
  0
LINE
  5
AB33
330
18
100
AcDbEntity
  8
1
  6
Continuous
100
AcDbLine
 10
361.0648773758474
 20
266.4842944482964
 30
0.0
 11
361.0648773758474
 21
242.8510504482963
 31
0.0
  0
CIRCLE
  5
AB34
330
18
100
AcDbEntity
  8
1
  6
Continuous
100
AcDbCircle
 10
353.0648773758475
 20
254.6676724482961
 30
0.0
 40
4.5
  0
CIRCLE
  5
AB35
330
18
100
AcDbEntity
  8
1
  6
Continuous
100
AcDbCircle
 10
353.0648773758475
 20
254.6676724482965
 30
0.0
 40
2.5
  0
ARC
  5
AB36
330
18
100
AcDbEntity
  8
1
  6
Continuous
100
AcDbCircle
 10
358.0648773758476
 20
266.4842944482964
 30
0.0
 40
3.0
100
AcDbArc
 50
0.000000000000007
 51
33.55731000000231
  0
CIRCLE
  5
AB37
330
18
100
AcDbEntity
  8
1
  6
Continuous
100
AcDbCircle
 10
353.0648773758475
 20
267.1676724482964
 30
0.0
 40
1.649999999999999
  0
LINE
  5
AB38
330
18
100
AcDbEntity
  8
1
  6
Continuous
100
AcDbLine
 10
345.0648773758475
 20
266.4842954482965
 30
0.0
 11
345.0648773758475
 21
254.6676724482964
 31
0.0
  0
LINE
  5
AB39
330
18
100
AcDbEntity
  8
1
  6
Continuous
100
AcDbLine
 10
345.0648773758475
 20
242.8510504482963
 30
0.0
 11
345.0648773758475
 21
254.6676724482964
 31
0.0
  0
ARC
  5
AB3A
330
18
100
AcDbEntity
  8
1
  6
Continuous
100
AcDbCircle
 10
348.0648773758475
 20
266.4842944482964
 30
0.0
 40
3.0
100
AcDbArc
 50
146.4426899999977
 51
180.0
  0
LINE
  5
AB42
330
18
100
AcDbEntity
  8
1
  6
Continuous
100
AcDbLine
 10
233.7148780859556
 20
84.78904070153607
 30
0.0
 11
233.7148780859556
 21
100.1865336002459
 31
0.0
  0
LINE
  5
AB43
330
18
100
AcDbEntity
  8
1
  6
Continuous
100
AcDbLine
 10
231.7148780859556
 20
84.78904070153607
 30
0.0
 11
231.7148780859554
 21
100.8532003663366
 31
0.0
  0
LINE
  5
AB44
330
18
100
AcDbEntity
  8
1
  6
Continuous
100
AcDbLine
 10
229.2148780859554
 20
116.667671837089
 30
0.0
 11
229.2148780859556
 21
87.16767244829433
 31
0.0
  0
LINE
  5
AB45
330
18
100
AcDbEntity
  8
1
  6
Continuous
100
AcDbLine
 10
231.2148780859556
 20
116.667671837089
 30
0.0
 11
231.2148780859556
 21
84.71818270551656
 31
0.0
  0
LINE
  5
AB47
330
18
100
AcDbEntity
  8
1
  6
Continuous
100
AcDbLine
 10
231.7148780859556
 20
84.78904070153607
 30
0.0
 11
233.7148780859556
 21
84.78904070153607
 31
0.0
  0
LINE
  5
AB48
330
18
100
AcDbEntity
  8
1
  6
Continuous
100
AcDbLine
 10
231.2148780859824
 20
86.66767244829435
 30
0.0
 11
231.7148780859556
 21
86.66767244829435
 31
0.0
  0
LINE
  5
AB49
330
18
100
AcDbEntity
  8
1
  6
Continuous
100
AcDbLine
 10
233.2148780859852
 20
84.66767244829744
 30
0.0
 11
233.2148780859852
 21
84.78904070153607
 31
0.0
  0
LINE
  5
AB4A
330
18
100
AcDbEntity
  8
1
  6
Continuous
100
AcDbLine
 10
231.7148780859815
 20
84.66767244829433
 30
0.0
 11
233.2148780859852
 21
84.66767244829433
 31
0.0
  0
ARC
  5
AB4B
330
18
100
AcDbEntity
  8
1
  6
Continuous
100
AcDbCircle
 10
231.7148780859815
 20
87.16767244829433
 30
0.0
 40
2.5
100
AcDbArc
 50
180.0
 51
270.0
  0
LINE
  5
AB5D
330
18
100
AcDbEntity
  8
1
  6
Continuous
100
AcDbLine
 10
225.2148780859556
 20
132.6676724482962
 30
0.0
 11
225.2148780859556
 21
101.3016474482962
 31
0.0
  0
LINE
  5
AB5E
330
18
100
AcDbEntity
  8
1
  6
Continuous
100
AcDbLine
 10
227.2148780859556
 20
132.6676724482962
 30
0.0
 11
227.2148780859554
 21
116.6676718370891
 31
0.0
  0
ARC
  5
AB5F
330
18
100
AcDbEntity
  8
1
  6
Continuous
100
AcDbCircle
 10
228.3828780859782
 20
124.6676724482962
 30
0.0
 40
5.668000000022742
100
AcDbArc
 50
123.981646584094
 51
236.0183534159059
  0
LINE
  5
AB60
330
18
100
AcDbEntity
  8
1
  6
Continuous
100
AcDbLine
 10
228.0148780859553
 20
145.0865344482961
 30
0.0
 11
228.0148780859556
 21
116.667671837089
 31
0.0
  0
LINE
  5
AB61
330
18
100
AcDbEntity
  8
1
  6
Continuous
100
AcDbLine
 10
227.5148780859554
 20
131.6676724482961
 30
0.0
 11
227.5148780859556
 21
117.6676724482964
 31
0.0
  0
LINE
  5
AB62
330
18
100
AcDbEntity
  8
1
  6
Continuous
100
AcDbLine
 10
239.8148780859555
 20
150.1676724482961
 30
0.0
 11
239.8148780859555
 21
99.16767244829619
 31
0.0
  0
LINE
  5
AB63
330
18
100
AcDbEntity
  8
1
  6
Continuous
100
AcDbLine
 10
241.4148780859554
 20
118.4176724482962
 30
0.0
 11
241.4148780859554
 21
130.9176724482962
 31
0.0
  0
LINE
  5
AB64
330
18
100
AcDbEntity
  8
1
  6
Continuous
100
AcDbLine
 10
242.1148780859557
 20
119.1676724482962
 30
0.0
 11
242.1148780859557
 21
130.1676724482962
 31
0.0
  0
LINE
  5
AB65
330
18
100
AcDbEntity
  8
1
  6
Continuous
100
AcDbLine
 10
242.9148780859554
 20
121.6676724482962
 30
0.0
 11
242.9148780859554
 21
127.6676724482962
 31
0.0
  0
LINE
  5
AB66
330
18
100
AcDbEntity
  8
1
  6
Continuous
100
AcDbLine
 10
243.4148780859554
 20
122.1676724482962
 30
0.0
 11
243.4148780859554
 21
127.1676724482962
 31
0.0
  0
LINE
  5
AB67
330
18
100
AcDbEntity
  8
1
  6
Continuous
100
AcDbLine
 10
233.7148780859561
 20
132.6676724482965
 30
0.0
 11
233.7148780859561
 21
96.66763244837234
 31
0.0
  0
LINE
  5
AB68
330
18
100
AcDbEntity
  8
1
  6
Continuous
100
AcDbLine
 10
231.714878085956
 20
132.6676724482965
 30
0.0
 11
231.714878085956
 21
96.6676324483671
 31
0.0
  0
LINE
  5
AB69
330
18
100
AcDbEntity
  8
1
  6
Continuous
100
AcDbLine
 10
238.0148780859558
 20
116.667705448296
 30
0.0
 11
238.0148780859558
 21
132.6676694482961
 31
0.0
  0
LINE
  5
AB6A
330
18
100
AcDbEntity
  8
1
  6
Continuous
100
AcDbLine
 10
230.7148780861948
 20
128.6676324482894
 30
0.0
 11
230.7148780861948
 21
120.6676324482894
 31
0.0
  0
LINE
  5
AB6B
330
18
100
AcDbEntity
  8
1
  6
Continuous
100
AcDbLine
 10
234.2148780859561
 20
129.6676324482912
 30
0.0
 11
234.2148780859561
 21
119.6676324482912
 31
0.0
  0
LINE
  5
AB6C
330
18
100
AcDbEntity
  8
1
  6
Continuous
100
AcDbLine
 10
234.2148780859561
 20
129.9324414482912
 30
0.0
 11
234.2148780859561
 21
119.4028234482912
 31
0.0
  0
LINE
  5
AB6E
330
18
100
AcDbEntity
  8
1
  6
Continuous
100
AcDbLine
 10
225.5122948265104
 20
100.1190118386463
 30
0.0
 11
229.2148780859556
 21
93.22318709143615
 31
0.0
  0
LINE
  5
AB6F
330
18
100
AcDbEntity
  8
4
  6
CENTER
 48
0.2
100
AcDbLine
 10
237.4148780859554
 20
104.667672448294
 30
0.0
 11
225.2148780859554
 21
104.6676724482951
 31
0.0
  0
LINE
  5
AB70
330
18
100
AcDbEntity
  8
1
  6
Continuous
100
AcDbLine
 10
231.2148780859556
 20
116.667671837089
 30
0.0
 11
225.2148780859556
 21
116.6676718370891
 31
0.0
  0
LINE
  5
AB71
330
18
100
AcDbEntity
  8
1
  6
Continuous
100
AcDbLine
 10
233.7148780859561
 20
100.1865336002455
 30
0.0
 11
236.7714610859557
 21
99.16767244829628
 31
0.0
  0
LINE
  5
AB72
330
18
100
AcDbEntity
  8
1
  6
Continuous
100
AcDbLine
 10
236.7714610859557
 20
99.16767244829619
 30
0.0
 11
239.8148780859555
 21
99.16767244829619
 31
0.0
  0
LINE
  5
AB73
330
18
100
AcDbEntity
  8
1
  6
Continuous
100
AcDbLine
 10
231.7148780859556
 20
94.16767244829435
 30
0.0
 11
231.2148780859556
 21
94.16767244829435
 31
0.0
  0
LINE
  5
AB74
330
18
100
AcDbEntity
  8
1
  6
Continuous
100
AcDbLine
 10
231.714878085956
 20
92.66767244829106
 30
0.0
 11
233.7148780859629
 21
92.66767244829651
 31
0.0
  0
LINE
  5
AB75
330
18
100
AcDbEntity
  8
1
  6
Continuous
100
AcDbLine
 10
234.916603085956
 20
118.4483434482911
 30
0.0
 11
238.0148780859558
 21
117.4801322952201
 31
0.0
  0
ARC
  5
AB76
330
18
100
AcDbEntity
  8
1
  6
Continuous
100
AcDbCircle
 10
237.2148780859556
 20
115.4971074482427
 30
0.0
 40
1.0
100
AcDbArc
 50
180.0
 51
270.0
  0
LINE
  5
AB77
330
18
100
AcDbEntity
  8
1
  6
Continuous
100
AcDbLine
 10
238.0148780859558
 20
116.6676754482961
 30
0.0
 11
239.8148780859555
 21
116.6676724482963
 31
0.0
  0
LINE
  5
AB78
330
18
100
AcDbEntity
  8
1
  6
Continuous
100
AcDbLine
 10
237.2148780859545
 20
114.4971074482427
 30
0.0
 11
239.814878085921
 21
114.4971074482404
 31
0.0
  0
LINE
  5
AB79
330
18
100
AcDbEntity
  8
1
  6
Continuous
100
AcDbLine
 10
242.9148780859554
 20
121.6676724482962
 30
0.0
 11
243.4148780859554
 21
122.1676724482962
 31
0.0
  0
LINE
  5
AB7A
330
18
100
AcDbEntity
  8
1
  6
Continuous
100
AcDbLine
 10
242.9148780859554
 20
121.6676724482962
 30
0.0
 11
242.1148780859557
 21
121.6676724482962
 31
0.0
  0
LINE
  5
AB7B
330
18
100
AcDbEntity
  8
1
  6
Continuous
100
AcDbLine
 10
242.1148780859557
 20
119.1676724482962
 30
0.0
 11
241.4148780859554
 21
119.1676724482962
 31
0.0
  0
LINE
  5
AB7C
330
18
100
AcDbEntity
  8
1
  6
Continuous
100
AcDbLine
 10
241.4148780859554
 20
118.4176724482962
 30
0.0
 11
239.8148780859555
 21
118.4176724482962
 31
0.0
  0
LINE
  5
AB7D
330
18
100
AcDbEntity
  8
1
  6
Continuous
100
AcDbLine
 10
228.0148780859556
 20
117.6676724482964
 30
0.0
 11
227.5148780859554
 21
117.6676724482964
 31
0.0
  0
ARC
  5
AB7E
330
18
100
AcDbEntity
  8
1
  6
Continuous
100
AcDbCircle
 10
235.2148780859561
 20
119.4028234482912
 30
0.0
 40
1.0
100
AcDbArc
 50
180.0
 51
252.6459750000001
  0
LINE
  5
AB7F
330
18
100
AcDbEntity
  8
1
  6
Continuous
100
AcDbLine
 10
234.2148780859561
 20
119.6676324482895
 30
0.0
 11
233.7148780859561
 21
119.6676324482895
 31
0.0
  0
ARC
  5
AB80
330
18
100
AcDbEntity
  8
1
  6
Continuous
100
AcDbCircle
 10
231.2148780860752
 20
124.6362594149011
 30
0.0
 40
4.0
100
AcDbArc
 50
262.8192442202704
 51
277.1807557797295
  0
LINE
  5
AB81
330
18
100
AcDbEntity
  8
1
  6
Continuous
100
AcDbLine
 10
236.2148780859556
 20
118.0426324204601
 30
0.0
 11
236.2148780859556
 21
115.4971064482719
 31
0.0
  0
ARC
  5
AB82
330
18
100
AcDbEntity
  8
1
  6
Continuous
100
AcDbCircle
 10
227.7148780859556
 20
101.3016474482962
 30
0.0
 40
2.5
100
AcDbArc
 50
180.0
 51
210.0000000000005
  0
LINE
  5
AB83
330
18
100
AcDbEntity
  8
1
  6
Continuous
100
AcDbLine
 10
227.2148780859556
 20
132.6676724482962
 30
0.0
 11
225.2148780859556
 21
132.6676724482962
 31
0.0
  0
LINE
  5
AB84
330
18
100
AcDbEntity
  8
4
  6
CENTER
 48
0.2
100
AcDbLine
 10
245.4148780859554
 20
124.6676724482962
 30
0.0
 11
220.7148780859556
 21
124.6676724482962
 31
0.0
  0
ARC
  5
AB85
330
18
100
AcDbEntity
  8
1
  6
Continuous
100
AcDbCircle
 10
237.2148780859556
 20
133.8382374483498
 30
0.0
 40
1.0
100
AcDbArc
 50
89.99999999999998
 51
180.0
  0
LINE
  5
AB86
330
18
100
AcDbEntity
  8
1
  6
Continuous
100
AcDbLine
 10
234.916603085956
 20
130.8869214482911
 30
0.0
 11
238.0148780859558
 21
131.8551326013624
 31
0.0
  0
LINE
  5
AB87
330
18
100
AcDbEntity
  8
1
  6
Continuous
100
AcDbLine
 10
237.2148780859545
 20
134.8382374483498
 30
0.0
 11
239.814878085921
 21
134.8382374483521
 31
0.0
  0
LINE
  5
AB88
330
18
100
AcDbEntity
  8
1
  6
Continuous
100
AcDbLine
 10
238.0148780859558
 20
132.6676694482964
 30
0.0
 11
239.8148780859555
 21
132.6676724482962
 31
0.0
  0
LINE
  5
AB89
330
18
100
AcDbEntity
  8
1
  6
Continuous
100
AcDbLine
 10
243.4148780859554
 20
127.1676724482962
 30
0.0
 11
242.9148780859554
 21
127.6676724482962
 31
0.0
  0
LINE
  5
AB8A
330
18
100
AcDbEntity
  8
1
  6
Continuous
100
AcDbLine
 10
242.9148780859554
 20
127.6676724482962
 30
0.0
 11
242.1148780859557
 21
127.6676724482962
 31
0.0
  0
LINE
  5
AB8B
330
18
100
AcDbEntity
  8
1
  6
Continuous
100
AcDbLine
 10
242.1148780859557
 20
130.1676724482962
 30
0.0
 11
241.4148780859554
 21
130.1676724482962
 31
0.0
  0
LINE
  5
AB8C
330
18
100
AcDbEntity
  8
1
  6
Continuous
100
AcDbLine
 10
241.4148780859554
 20
130.9176724482962
 30
0.0
 11
239.8148780859555
 21
130.9176724482962
 31
0.0
  0
LINE
  5
AB8D
330
18
100
AcDbEntity
  8
1
  6
Continuous
100
AcDbLine
 10
228.0148780859556
 20
131.6676724482961
 30
0.0
 11
227.5148780859554
 21
131.6676724482961
 31
0.0
  0
LINE
  5
AB8E
330
18
100
AcDbEntity
  8
1
  6
Continuous
100
AcDbLine
 10
236.2148780859556
 20
133.8382374483498
 30
0.0
 11
236.2148780859556
 21
131.2926324761222
 31
0.0
  0
LINE
  5
AB8F
330
18
100
AcDbEntity
  8
1
  6
Continuous
100
AcDbLine
 10
234.2148780859561
 20
129.6676324482896
 30
0.0
 11
233.7148780859561
 21
129.6676324482896
 31
0.0
  0
ARC
  5
AB90
330
18
100
AcDbEntity
  8
1
  6
Continuous
100
AcDbCircle
 10
231.2148780860752
 20
124.6990054816774
 30
0.0
 40
4.0
100
AcDbArc
 50
82.81924422026964
 51
97.18075577973042
  0
ARC
  5
AB91
330
18
100
AcDbEntity
  8
1
  6
Continuous
100
AcDbCircle
 10
235.2148780859561
 20
129.9324414482912
 30
0.0
 40
1.0
100
AcDbArc
 50
107.3540249999999
 51
180.0
  0
LINE
  5
AB92
330
18
100
AcDbEntity
  8
1
  6
Continuous
100
AcDbLine
 10
233.7148780859558
 20
132.6676724482965
 30
0.0
 11
231.714878085956
 21
132.6676724482965
 31
0.0
  0
LINE
  5
AB93
330
18
100
AcDbEntity
  8
1
  6
Continuous
100
AcDbLine
 10
230.0661950859557
 20
147.9325834482962
 30
0.0
 11
236.7714610859557
 21
150.1676724482961
 31
0.0
  0
LINE
  5
AB94
330
18
100
AcDbEntity
  8
1
  6
Continuous
100
AcDbLine
 10
236.7714610859557
 20
150.1676724482961
 30
0.0
 11
239.8148780859555
 21
150.1676724482961
 31
0.0
  0
ARC
  5
AB95
330
18
100
AcDbEntity
  8
1
  6
Continuous
100
AcDbCircle
 10
231.0148780859553
 20
145.0865344482961
 30
0.0
 40
3.0
100
AcDbArc
 50
108.4349489999979
 51
180.0
  0
LINE
  5
AB9E
330
18
100
AcDbEntity
  8
1
  6
Continuous
100
AcDbLine
 10
239.8148780859555
 20
272.1677104483002
 30
0.0
 11
239.8148780859555
 21
237.1676744483
 31
0.0
  0
LINE
  5
AB9F
330
18
100
AcDbEntity
  8
1
  6
Continuous
100
AcDbLine
 10
238.0148780859556
 20
237.1677074483001
 30
0.0
 11
238.0148780859556
 21
272.1677074483001
 31
0.0
  0
LINE
  5
ABA0
330
18
100
AcDbEntity
  8
4
  6
CENTER
 48
0.1
100
AcDbLine
 10
236.0148780859556
 20
242.167672448298
 30
0.0
 11
241.8148780859555
 21
242.167672448298
 31
0.0
  0
LINE
  5
ABA1
330
18
100
AcDbEntity
  8
1
  6
Continuous
100
AcDbLine
 10
239.8148780859555
 20
237.1676744483003
 30
0.0
 11
238.0148780859556
 21
237.1677074483006
 31
0.0
  0
LINE
  5
ABA2
330
18
100
AcDbEntity
  8
1
  6
Continuous
100
AcDbLine
 10
230.7148780861944
 20
258.6676724482966
 30
0.0
 11
230.7148780861944
 21
250.6676724482966
 31
0.0
  0
LINE
  5
ABA3
330
18
100
AcDbEntity
  8
1
  6
Continuous
100
AcDbLine
 10
234.2148780859556
 20
259.6676724482985
 30
0.0
 11
234.2148780859556
 21
249.6676724482985
 31
0.0
  0
LINE
  5
ABA4
330
18
100
AcDbEntity
  8
1
  6
Continuous
100
AcDbLine
 10
234.2148780859556
 20
259.9324814482985
 30
0.0
 11
234.2148780859556
 21
249.4028634482984
 31
0.0
  0
LINE
  5
ABA5
330
18
100
AcDbEntity
  8
1
  6
Continuous
100
AcDbLine
 10
234.9166030859555
 20
248.4483834482984
 30
0.0
 11
238.0148780859556
 21
247.4801722952273
 31
0.0
  0
LINE
  5
ABA6
330
18
100
AcDbEntity
  8
4
  6
CENTER
 48
0.2
100
AcDbLine
 10
241.8148780859555
 20
254.6676724482975
 30
0.0
 11
228.7148780861944
 21
254.6676724482964
 31
0.0
  0
LINE
  5
ABA7
330
18
100
AcDbEntity
  8
1
  6
Continuous
100
AcDbLine
 10
231.7148780859556
 20
246.667672448376
 30
0.0
 11
233.7148780859624
 21
246.6676724483814
 31
0.0
  0
ARC
  5
ABA8
330
18
100
AcDbEntity
  8
1
  6
Continuous
100
AcDbCircle
 10
235.2148780859556
 20
249.4028634482985
 30
0.0
 40
1.0
100
AcDbArc
 50
180.0
 51
252.6459750000001
  0
LINE
  5
ABA9
330
18
100
AcDbEntity
  8
1
  6
Continuous
100
AcDbLine
 10
234.2148780859556
 20
249.6676724482969
 30
0.0
 11
233.7148780859556
 21
249.6676724482969
 31
0.0
  0
ARC
  5
ABAA
330
18
100
AcDbEntity
  8
1
  6
Continuous
100
AcDbCircle
 10
231.2148780860749
 20
254.6362994149084
 30
0.0
 40
4.0
100
AcDbArc
 50
262.8192442202704
 51
277.1807557797295
  0
LINE
  5
ABAB
330
18
100
AcDbEntity
  8
1
  6
Continuous
100
AcDbLine
 10
234.9166030859555
 20
260.8869614482983
 30
0.0
 11
238.0148780859556
 21
261.8551726013696
 31
0.0
  0
LINE
  5
ABAC
330
18
100
AcDbEntity
  8
4
  6
CENTER
 48
0.1
100
AcDbLine
 10
236.0148780859556
 20
267.167672448298
 30
0.0
 11
241.8148780859555
 21
267.167672448298
 31
0.0
  0
LINE
  5
ABAD
330
18
100
AcDbEntity
  8
1
  6
Continuous
100
AcDbLine
 10
238.0148780859556
 20
272.1677074483003
 30
0.0
 11
239.8148780859555
 21
272.1677104483002
 31
0.0
  0
ARC
  5
ABAE
330
18
100
AcDbEntity
  8
1
  6
Continuous
100
AcDbCircle
 10
235.2148780859556
 20
259.9324814482985
 30
0.0
 40
1.0
100
AcDbArc
 50
107.3540249999999
 51
180.0
  0
LINE
  5
ABAF
330
18
100
AcDbEntity
  8
1
  6
Continuous
100
AcDbLine
 10
234.2148780859556
 20
259.6676724482969
 30
0.0
 11
233.7148780859556
 21
259.6676724482969
 31
0.0
  0
ARC
  5
ABB0
330
18
100
AcDbEntity
  8
1
  6
Continuous
100
AcDbCircle
 10
231.2148780860749
 20
254.6990454816847
 30
0.0
 40
4.0
100
AcDbArc
 50
82.81924422026964
 51
97.18075577973042
  0
LINE
  5
ABB4
330
18
100
AcDbEntity
  8
4
  6
CENTER
 48
0.1
100
AcDbLine
 10
229.7148780859556
 20
294.6676724482962
 30
0.0
 11
236.5148780859553
 21
294.6676724482962
 31
0.0
  0
ARC
  5
ABB5
330
18
100
AcDbEntity
  8
1
  6
Continuous
100
AcDbCircle
 10
232.8127542652023
 20
296.2242743350888
 30
0.0
 40
1.702123820753186
100
AcDbArc
 50
0.000000000000007
 51
57.99461679191582
  0
LINE
  5
ABB6
330
18
100
AcDbEntity
  8
1
  6
Continuous
100
AcDbLine
 10
234.5148780859553
 20
296.2242743350888
 30
0.0
 11
234.5148780859553
 21
293.1110705615015
 31
0.0
  0
ARC
  5
ABB7
330
18
100
AcDbEntity
  8
1
  6
Continuous
100
AcDbCircle
 10
232.8127542652023
 20
293.1110705615016
 30
0.0
 40
1.702123820753186
100
AcDbArc
 50
302.0053832080841
 51
0.000000000000007
  0
ARC
  5
ABB8
330
18
100
AcDbEntity
  8
1
  6
Continuous
100
AcDbCircle
 10
232.8127542652016
 20
319.1110705615025
 30
0.0
 40
1.702123820753956
100
AcDbArc
 50
302.0053832080883
 51
0.000000000000007
  0
LINE
  5
ABB9
330
18
100
AcDbEntity
  8
4
  6
CENTER
 48
0.1
100
AcDbLine
 10
229.7148780859556
 20
307.6676724482962
 30
0.0
 11
236.5148780859553
 21
307.6676724482962
 31
0.0
  0
LINE
  5
ABBA
330
18
100
AcDbEntity
  8
1
  6
Continuous
100
AcDbLine
 10
234.5148780859553
 20
310.2242743350879
 30
0.0
 11
234.5148780859553
 21
305.1110705615025
 31
0.0
  0
ARC
  5
ABBB
330
18
100
AcDbEntity
  8
1
  6
Continuous
100
AcDbCircle
 10
232.8127542652014
 20
310.2242743350879
 30
0.0
 40
1.702123820754384
100
AcDbArc
 50
0.000000000000007
 51
57.99461679191582
  0
ARC
  5
ABBC
330
18
100
AcDbEntity
  8
1
  6
Continuous
100
AcDbCircle
 10
232.8127542652014
 20
305.1110705615025
 30
0.0
 40
1.702123820754384
100
AcDbArc
 50
302.0053832080841
 51
0.000000000000007
  0
LINE
  5
ABBD
330
18
100
AcDbEntity
  8
4
  6
CENTER
 48
0.1
100
AcDbLine
 10
229.7148780859556
 20
322.6676724482962
 30
0.0
 11
236.5148780859553
 21
322.6676724482962
 31
0.0
  0
LINE
  5
ABBE
330
18
100
AcDbEntity
  8
1
  6
Continuous
100
AcDbLine
 10
234.5148780859553
 20
326.2242743350906
 30
0.0
 11
234.5148780859553
 21
319.1110705615025
 31
0.0
  0
ARC
  5
ABBF
330
18
100
AcDbEntity
  8
1
  6
Continuous
100
AcDbCircle
 10
232.8127542652014
 20
326.2242743350906
 30
0.0
 40
1.702123820753956
100
AcDbArc
 50
0.000000000000007
 51
57.9946167919117
  0
ARC
  5
ABC3
330
18
100
AcDbEntity
  8
1
  6
Continuous
100
AcDbCircle
 10
101.0648780859555
 20
275.4682584482963
 30
0.0
 40
20.0
100
AcDbArc
 50
180.0
 51
239.9999999999995
  0
LINE
  5
ABC5
330
18
100
AcDbEntity
  8
4
  6
CENTER
 48
0.2
100
AcDbLine
 10
113.0648787960619
 20
274.1676704482961
 30
0.0
 11
113.0648787960619
 21
235.1676744482964
 31
0.0
  0
ARC
  5
ABC6
330
18
100
AcDbEntity
  8
1
  6
Continuous
100
AcDbCircle
 10
113.0648787960619
 20
263.167670448296
 30
0.0
 40
9.0
100
AcDbArc
 50
33.55731000000229
 51
122.1936770704589
  0
ARC
  5
ABC7
330
18
100
AcDbEntity
  8
1
  6
Continuous
100
AcDbCircle
 10
117.0648780859555
 20
278.9477104482963
 30
0.0
 40
12.0
100
AcDbArc
 50
180.0
 51
225.0
  0
ARC
  5
ABC9
330
18
100
AcDbEntity
  8
1
  6
Continuous
100
AcDbCircle
 10
108.0648787960619
 20
242.8510504482963
 30
0.0
 40
3.0
100
AcDbArc
 50
180.0
 51
213.5573100000021
  0
CIRCLE
  5
ABCA
330
18
100
AcDbEntity
  8
1
  6
Continuous
100
AcDbCircle
 10
113.0648787960619
 20
242.1676724482964
 30
0.0
 40
1.649999999999999
  0
CIRCLE
  5
ABCB
330
18
100
AcDbEntity
  8
1
  6
Continuous
100
AcDbCircle
 10
113.0648787960619
 20
242.1676724482964
 30
0.0
 40
3.0
  0
ARC
  5
ABCC
330
18
100
AcDbEntity
  8
1
  6
Continuous
100
AcDbCircle
 10
118.0648787960619
 20
242.8510504482963
 30
0.0
 40
3.0
100
AcDbArc
 50
326.4426899999977
 51
0.000000000000007
  0
LINE
  5
ABD0
330
18
100
AcDbEntity
  8
4
  6
CENTER
 48
0.1
100
AcDbLine
 10
108.0648787960619
 20
242.1676724482964
 30
0.0
 11
118.0648787960619
 21
242.1676724482964
 31
0.0
  0
ARC
  5
ABD1
330
18
100
AcDbEntity
  8
1
  6
Continuous
100
AcDbCircle
 10
113.0648787960619
 20
246.1676744482963
 30
0.0
 40
9.0
100
AcDbArc
 50
213.5573100000021
 51
326.4426899999977
  0
LINE
  5
ABD2
330
18
100
AcDbEntity
  8
1
  6
Continuous
100
AcDbLine
 10
109.0602696657458
 20
247.7421319350379
 30
0.0
 11
91.05335703543095
 21
258.1544071651499
 31
0.0
  0
CIRCLE
  5
ABD4
330
18
100
AcDbEntity
  8
1
  6
Continuous
100
AcDbCircle
 10
113.0648787960621
 20
254.6676724482964
 30
0.0
 40
4.0
  0
LINE
  5
ABD5
330
18
100
AcDbEntity
  8
1
  6
Continuous
100
AcDbLine
 10
121.0648787960619
 20
266.4842954482965
 30
0.0
 11
121.0648787960619
 21
254.6676724482964
 31
0.0
  0
ARC
  5
ABD6
330
18
100
AcDbEntity
  8
1
  6
Continuous
100
AcDbCircle
 10
113.0648780859555
 20
254.6676724482964
 30
0.0
 40
8.0
100
AcDbArc
 50
239.9618813479734
 51
46.56743700000074
  0
LINE
  5
ABD7
330
18
100
AcDbEntity
  8
4
  6
CENTER
 48
0.2
100
AcDbLine
 10
119.0648787960622
 20
254.6676724482964
 30
0.0
 11
107.0648787960622
 21
254.6676724482964
 31
0.0
  0
LINE
  5
ABD8
330
18
100
AcDbEntity
  8
1
  6
Continuous
100
AcDbLine
 10
121.0648787960619
 20
242.8510504482963
 30
0.0
 11
121.0648787960619
 21
254.6676724482964
 31
0.0
  0
LINE
  5
ABD9
330
18
100
AcDbEntity
  8
1
  6
Continuous
100
AcDbLine
 10
105.0648787960619
 20
250.0524174482239
 30
0.0
 11
105.0648787960619
 21
242.8510504482963
 31
0.0
  0
ARC
  5
ABDA
330
18
100
AcDbEntity
  8
1
  6
Continuous
100
AcDbCircle
 10
113.0648787960619
 20
267.1676724482964
 30
0.0
 40
1.649999999999999
100
AcDbArc
 50
284.3229097691012
 51
165.6770959689215
  0
ARC
  5
ABDB
330
18
100
AcDbEntity
  8
1
  6
Continuous
100
AcDbCircle
 10
113.0648787960619
 20
267.1676724482964
 30
0.0
 40
3.0
100
AcDbArc
 50
298.7034173942006
 51
151.2965883438229
  0
LINE
  5
ABDC
330
18
100
AcDbEntity
  8
4
  6
CENTER
 48
0.1
100
AcDbLine
 10
108.0648787960619
 20
267.1676724482964
 30
0.0
 11
118.0648787960619
 21
267.1676724482964
 31
0.0
  0
LINE
  5
ABDD
330
18
100
AcDbEntity
  8
1
  6
Continuous
100
AcDbLine
 10
118.5648810859554
 20
260.4771454482964
 30
0.0
 11
108.5795960859554
 21
270.4624294482962
 31
0.0
  0
ARC
  5
ABDE
330
18
100
AcDbEntity
  8
1
  6
Continuous
100
AcDbCircle
 10
118.0648787960619
 20
266.4842954482966
 30
0.0
 40
3.0
100
AcDbArc
 50
0.000000000000007
 51
33.55731000000229
  0
CIRCLE
  5
ABE5
330
18
100
AcDbEntity
  8
1
  6
Continuous
100
AcDbCircle
 10
93.06487808595555
 20
294.6676724482964
 30
0.0
 40
1.500000000000114
  0
LINE
  5
ABE6
330
18
100
AcDbEntity
  8
4
  6
CENTER
 48
0.2
100
AcDbLine
 10
86.0648780859551
 20
294.6676724482964
 30
0.0
 11
100.064878085956
 21
294.6676724482964
 31
0.0
  0
CIRCLE
  5
ABE8
330
18
100
AcDbEntity
  8
1
  6
Continuous
100
AcDbCircle
 10
93.06487808595555
 20
307.6676724482963
 30
0.0
 40
2.5
  0
LINE
  5
ABE9
330
18
100
AcDbEntity
  8
4
  6
CENTER
 48
0.2
100
AcDbLine
 10
86.0648780859551
 20
307.6676724482963
 30
0.0
 11
100.064878085956
 21
307.6676724482963
 31
0.0
  0
CIRCLE
  5
ABEA
330
18
100
AcDbEntity
  8
1
  6
Continuous
100
AcDbCircle
 10
93.06487808595555
 20
322.6676724482964
 30
0.0
 40
3.500000000000113
  0
LINE
  5
ABEB
330
18
100
AcDbEntity
  8
4
  6
CENTER
 48
0.2
100
AcDbLine
 10
86.0648780859551
 20
322.6676724482964
 30
0.0
 11
100.064878085956
 21
322.6676724482964
 31
0.0
  0
ARC
  5
AC15
330
18
100
AcDbEntity
  8
1
  6
Continuous
100
AcDbCircle
 10
365.0648780859537
 20
449.8670874482963
 30
0.0
 40
20.0
100
AcDbArc
 50
0.000000000000007
 51
49.84679022921289
  0
LINE
  5
AC16
330
18
100
AcDbEntity
  8
4
  6
CENTER
 48
0.2
100
AcDbLine
 10
353.0648780859542
 20
434.1676724482963
 30
0.0
 11
353.0648780859542
 21
507.1676724482963
 31
0.0
  0
ARC
  5
AC1A
330
18
100
AcDbEntity
  8
1
  6
Continuous
100
AcDbCircle
 10
353.064878085951
 20
470.6676724482966
 30
0.0
 40
25.5
100
AcDbArc
 50
293.5060389365852
 51
66.49396106341858
  0
ARC
  5
AC1B
330
18
100
AcDbEntity
  8
1
  6
Continuous
100
AcDbCircle
 10
353.064878085951
 20
470.6676724482966
 30
0.0
 40
25.5
100
AcDbArc
 50
113.5060356647572
 51
246.4939643352406
  0
ARC
  5
AC1D
330
18
100
AcDbEntity
  8
1
  6
Continuous
100
AcDbCircle
 10
353.0648780859663
 20
470.6676724482966
 30
0.0
 40
23.5
100
AcDbArc
 50
115.5440887832761
 51
244.4559662591484
  0
ARC
  5
AC1E
330
18
100
AcDbEntity
  8
1
  6
Continuous
100
AcDbCircle
 10
353.0648780859663
 20
470.6676724482966
 30
0.0
 40
23.5
100
AcDbArc
 50
295.5440029681216
 51
64.45594198948346
  0
LINE
  5
AC20
330
18
100
AcDbEntity
  8
4
  6
CENTER
 48
0.2
100
AcDbLine
 10
380.0648780859542
 20
430.6676724482963
 30
0.0
 11
366.0648780859533
 21
430.6676724482963
 31
0.0
  0
LINE
  5
AC21
330
18
100
AcDbEntity
  8
4
  6
CENTER
 48
0.2
100
AcDbLine
 10
380.0648780859542
 20
402.6676724482963
 30
0.0
 11
366.0648780859533
 21
402.6676724482963
 31
0.0
  0
LINE
  5
AC22
330
18
100
AcDbEntity
  8
4
  6
CENTER
 48
0.2
100
AcDbLine
 10
380.0648780859542
 20
417.6676724482963
 30
0.0
 11
366.0648780859533
 21
417.6676724482963
 31
0.0
  0
ARC
  5
AC27
330
18
100
AcDbEntity
  8
1
  6
Continuous
100
AcDbCircle
 10
373.0635324599957
 20
362.6669392015251
 30
0.0
 40
17.5012568249568
100
AcDbArc
 50
353.4404608071899
 51
133.2818797643699
  0
LINE
  5
AC28
330
18
100
AcDbEntity
  8
4
  6
CENTER
 48
0.2
100
AcDbLine
 10
398.0648780859537
 20
362.6676724482964
 30
0.0
 11
348.0648780859537
 21
362.6676724482964
 31
0.0
  0
LINE
  5
AC29
330
18
100
AcDbEntity
  8
1
  6
Continuous
100
AcDbLine
 10
385.0648780859537
 20
378.6676724482963
 30
0.0
 11
385.0648780859537
 21
449.8670874482962
 31
0.0
  0
LINE
  5
AC2E
330
18
100
AcDbEntity
  8
1
  6
Continuous
100
AcDbLine
 10
391.0648780859529
 20
365.4176724482961
 30
0.0
 11
391.0648780859533
 21
360.9176724482961
 31
0.0
  0
CIRCLE
  5
AC2F
330
18
100
AcDbEntity
  8
1
  6
Continuous
100
AcDbCircle
 10
373.0648780859529
 20
362.6676724482964
 30
0.0
 40
3.0
  0
LINE
  5
AC30
330
18
100
AcDbEntity
  8
1
  6
Continuous
100
AcDbLine
 10
393.0648780859528
 20
365.4176724482963
 30
0.0
 11
393.0648780859528
 21
360.9176724482961
 31
0.0
  0
ARC
  5
AC33
330
18
100
AcDbEntity
  8
1
  6
Continuous
100
AcDbCircle
 10
373.0648780859532
 20
362.6676724482964
 30
0.0
 40
20.0
100
AcDbArc
 50
306.8698976458466
 51
353.6846845114226
  0
LINE
  5
AC34
330
18
100
AcDbEntity
  8
1
  6
Continuous
100
AcDbLine
 10
391.0648780859537
 20
360.9176724482959
 30
0.0
 11
391.3902859105387
 21
360.5922646237107
 31
0.0
  0
LINE
  5
AC35
330
18
100
AcDbEntity
  8
1
  6
Continuous
100
AcDbLine
 10
391.0648780859529
 20
360.9176724482961
 30
0.0
 11
393.0648780859528
 21
360.9176724482961
 31
0.0
  0
LINE
  5
AC36
330
18
100
AcDbEntity
  8
1
  6
Continuous
100
AcDbLine
 10
390.4502167366667
 20
360.6676724482965
 30
0.0
 11
392.9435098327135
 21
360.4676724763229
 31
0.0
  0
ARC
  5
AC37
330
18
100
AcDbEntity
  8
1
  6
Continuous
100
AcDbCircle
 10
373.0648780859529
 20
362.6676724482964
 30
0.0
 40
20.0
100
AcDbArc
 50
15.79305485333455
 51
53.13010199999934
  0
ARC
  5
AC38
330
18
100
AcDbEntity
  8
1
  6
Continuous
100
AcDbCircle
 10
390.3853959256538
 20
367.5666174127371
 30
0.0
 40
2.0
100
AcDbArc
 50
314.9999999997696
 51
15.79305485333455
  0
LINE
  5
AC39
330
18
100
AcDbEntity
  8
1
  6
Continuous
100
AcDbLine
 10
391.0648780859533
 20
365.4176724482963
 30
0.0
 11
391.7996094880209
 21
366.1524038503582
 31
0.0
  0
LINE
  5
AC3A
330
18
100
AcDbEntity
  8
1
  6
Continuous
100
AcDbLine
 10
391.0648780859529
 20
365.4176724482961
 30
0.0
 11
393.0648780859528
 21
365.4176724482961
 31
0.0
  0
CIRCLE
  5
AC3B
330
18
100
AcDbEntity
  8
1
  6
Continuous
100
AcDbCircle
 10
373.0648780859537
 20
402.6676724482963
 30
0.0
 40
3.5
  0
CIRCLE
  5
AC3C
330
18
100
AcDbEntity
  8
1
  6
Continuous
100
AcDbCircle
 10
373.0648780859537
 20
417.6676724482963
 30
0.0
 40
2.5
  0
CIRCLE
  5
AC3D
330
18
100
AcDbEntity
  8
1
  6
Continuous
100
AcDbCircle
 10
373.0648780859537
 20
430.6676724482963
 30
0.0
 40
1.5
  0
LINE
  5
AC42
330
18
100
AcDbEntity
  8
1
  6
Continuous
100
AcDbLine
 10
345.1056764000776
 20
447.4534230477868
 30
0.0
 11
349.167753085966
 21
440.4176774482968
 31
0.0
  0
ARC
  5
AC43
330
18
100
AcDbEntity
  8
1
  6
Continuous
100
AcDbCircle
 10
353.0648780859537
 20
442.6676724482963
 30
0.0
 40
6.5
100
AcDbArc
 50
209.8094239999978
 51
330.2752760000022
  0
LINE
  5
AC44
330
18
100
AcDbEntity
  8
4
  6
CENTER
 48
0.2
100
AcDbLine
 10
358.1648780859541
 20
442.6676724482963
 30
0.0
 11
347.9648780859538
 21
442.6676724482963
 31
0.0
  0
ARC
  5
AC45
330
18
100
AcDbEntity
  8
1
  6
Continuous
100
AcDbCircle
 10
353.0648780859663
 20
442.6676724482968
 30
0.0
 40
4.5
100
AcDbArc
 50
210.000029999999
 51
329.999970000001
  0
LINE
  5
AC46
330
18
100
AcDbEntity
  8
1
  6
Continuous
100
AcDbLine
 10
361.0240665242808
 20
447.4534174228171
 30
0.0
 11
356.9619880859663
 21
440.4176724482968
 31
0.0
  0
LINE
  5
AC47
330
18
100
AcDbEntity
  8
1
  6
Continuous
100
AcDbLine
 10
358.709613085954
 20
439.4447434482962
 30
0.0
 11
363.2354440536782
 21
447.2837123923929
 31
0.0
  0
ARC
  5
AC48
330
18
100
AcDbEntity
  8
1
  6
Continuous
100
AcDbCircle
 10
365.3541964258056
 20
444.9534224156381
 30
0.0
 40
5.0
100
AcDbArc
 50
115.5440029681216
 51
150.0000660644576
  0
CIRCLE
  5
AC49
330
18
100
AcDbEntity
  8
1
  6
Continuous
100
AcDbCircle
 10
353.0648780859537
 20
442.6676724482963
 30
0.0
 40
2.25
  0
LINE
  5
AC4A
330
18
100
AcDbEntity
  8
1
  6
Continuous
100
AcDbLine
 10
342.8943130859539
 20
447.2837124482962
 30
0.0
 11
347.4249480859539
 21
439.4364224482963
 31
0.0
  0
ARC
  5
AC4B
330
18
100
AcDbEntity
  8
1
  6
Continuous
100
AcDbCircle
 10
340.7755459353797
 20
444.9534290160555
 30
0.0
 40
5.0
100
AcDbArc
 50
29.99992102853921
 51
64.45596625914844
  0
LINE
  5
AC4D
330
18
100
AcDbEntity
  8
4
  6
CENTER
 48
0.2
100
AcDbLine
 10
380.5648780859537
 20
470.6676724482966
 30
0.0
 11
325.5648780859537
 21
470.6676724482966
 31
0.0
  0
LINE
  5
AC50
330
18
100
AcDbEntity
  8
1
  6
Continuous
100
AcDbLine
 10
376.0518330859659
 20
472.0772174482966
 30
0.0
 11
376.5119030859659
 21
472.2446624482966
 31
0.0
  0
LINE
  5
AC51
330
18
100
AcDbEntity
  8
1
  6
Continuous
100
AcDbLine
 10
376.051863085966
 20
469.2581374482966
 30
0.0
 11
376.511918085966
 21
469.0906874482966
 31
0.0
  0
ARC
  5
AC52
330
18
100
AcDbEntity
  8
1
  6
Continuous
100
AcDbCircle
 10
376.5648780859665
 20
470.6676724482966
 30
0.0
 40
1.5
100
AcDbArc
 50
110.0000399999962
 51
249.9999600000037
  0
CIRCLE
  5
AC57
330
18
100
AcDbEntity
  8
1
  6
Continuous
100
AcDbCircle
 10
353.0648780859663
 20
470.6676724482966
 30
0.0
 40
7.5
  0
CIRCLE
  5
AC58
330
18
100
AcDbEntity
  8
1
  6
Continuous
100
AcDbCircle
 10
353.0648780859629
 20
470.6676724482949
 30
0.0
 40
6.25
  0
CIRCLE
  5
AC59
330
18
100
AcDbEntity
  8
1
  6
Continuous
100
AcDbCircle
 10
353.0648780859629
 20
470.6676724482949
 30
0.0
 40
5.499999999999544
  0
LINE
  5
AC5B
330
18
100
AcDbEntity
  8
1
  6
Continuous
 48
0.25
100
AcDbLine
 10
350.6353301442154
 20
468.9077585871112
 30
0.0
 11
349.5875370859539
 21
467.0929274482609
 31
0.0
  0
LINE
  5
AC5C
330
18
100
AcDbEntity
  8
1
  6
Continuous
 48
0.25
100
AcDbLine
 10
356.5422170859542
 20
467.0929274482609
 30
0.0
 11
355.4944228858039
 21
468.9077542497648
 31
0.0
  0
CIRCLE
  5
AC5D
330
18
100
AcDbEntity
  8
1
  6
Continuous
100
AcDbCircle
 10
353.0648780859663
 20
470.6676724482949
 30
0.0
 40
2.499999999999488
  0
ARC
  5
AC5F
330
18
100
AcDbEntity
  8
1
  6
Continuous
 48
0.25
100
AcDbCircle
 10
349.2411280859541
 20
467.2929244482609
 30
0.0
 40
0.4
100
AcDbArc
 50
221.4310670000007
 51
330.0000660000012
  0
ARC
  5
AC60
330
18
100
AcDbEntity
  8
1
  6
Continuous
 48
0.25
100
AcDbCircle
 10
356.8886280859542
 20
467.2929244482609
 30
0.0
 40
0.4
100
AcDbArc
 50
210.0000520000002
 51
318.5691289999994
  0
ARC
  5
AC61
330
18
100
AcDbEntity
  8
1
  6
Continuous
 48
0.25
100
AcDbCircle
 10
353.0648780859542
 20
470.6676724482606
 30
0.0
 40
4.299999999999998
100
AcDbArc
 50
115.886838
 51
174.1131710000005
  0
ARC
  5
AC62
330
18
100
AcDbEntity
  8
1
  6
Continuous
 48
0.25
100
AcDbCircle
 10
349.1854450859542
 20
471.0676744482608
 30
0.0
 40
0.4
100
AcDbArc
 50
174.1132470000004
 51
269.9999819999999
  0
LINE
  5
AC63
330
18
100
AcDbEntity
  8
1
  6
Continuous
 48
0.25
100
AcDbLine
 10
350.0648780859542
 20
470.6676724482606
 30
0.0
 11
349.1854450859542
 21
470.6676724482606
 31
0.0
  0
LINE
  5
AC64
330
18
100
AcDbEntity
  8
1
  6
Continuous
 48
0.25
100
AcDbLine
 10
352.0388200098417
 20
473.4867511673899
 30
0.0
 11
351.7380350859539
 21
474.3131494482607
 31
0.0
  0
ARC
  5
AC65
330
18
100
AcDbEntity
  8
1
  6
Continuous
 48
0.25
100
AcDbCircle
 10
351.3621570859541
 20
474.1763394482608
 30
0.0
 40
0.4
100
AcDbArc
 50
20.0000049999986
 51
115.8869269999999
  0
ARC
  5
AC68
330
18
100
AcDbEntity
  8
1
  6
Continuous
 48
0.25
100
AcDbCircle
 10
353.0648780859542
 20
470.6676724482606
 30
0.0
 40
4.299999999999998
100
AcDbArc
 50
5.886812000000164
 51
64.11313699999954
  0
ARC
  5
AC69
330
18
100
AcDbEntity
  8
1
  6
Continuous
 48
0.25
100
AcDbCircle
 10
356.9443110859542
 20
471.0676744482608
 30
0.0
 40
0.4
100
AcDbArc
 50
269.9999990000002
 51
5.886757000000812
  0
LINE
  5
AC6A
330
18
100
AcDbEntity
  8
1
  6
Continuous
 48
0.25
100
AcDbLine
 10
356.9443110859542
 20
470.6676724482606
 30
0.0
 11
356.0648780859541
 21
470.6676724482606
 31
0.0
  0
LINE
  5
AC6B
330
18
100
AcDbEntity
  8
1
  6
Continuous
 48
0.25
100
AcDbLine
 10
354.3917230859542
 20
474.3131494482607
 30
0.0
 11
354.0909368021967
 21
473.4867509344021
 31
0.0
  0
ARC
  5
AC6C
330
18
100
AcDbEntity
  8
1
  6
Continuous
 48
0.25
100
AcDbCircle
 10
354.7675990859543
 20
474.1763394482608
 30
0.0
 40
0.4
100
AcDbArc
 50
64.11305499999982
 51
159.999878000001
  0
LINE
  5
AC6D
330
18
100
AcDbEntity
  8
1
  6
Continuous
100
AcDbLine
 10
330.0779130859664
 20
472.0772124482967
 30
0.0
 11
329.6178580859659
 21
472.2446524482966
 31
0.0
  0
LINE
  5
AC6E
330
18
100
AcDbEntity
  8
1
  6
Continuous
100
AcDbLine
 10
330.0779130859664
 20
469.2581374482966
 30
0.0
 11
329.6178580859659
 21
469.0906924482966
 31
0.0
  0
ARC
  5
AC6F
330
18
100
AcDbEntity
  8
1
  6
Continuous
100
AcDbCircle
 10
329.5648780859664
 20
470.6676724482966
 30
0.0
 40
1.5
100
AcDbArc
 50
290.0000399999962
 51
69.99996299999823
  0
LINE
  5
AC70
330
18
100
AcDbEntity
  8
1
  6
Continuous
100
AcDbLine
 10
345.1056492383181
 20
493.8819057839686
 30
0.0
 11
349.167753085966
 21
500.9176824482966
 31
0.0
  0
ARC
  5
AC71
330
18
100
AcDbEntity
  8
1
  6
Continuous
100
AcDbCircle
 10
353.0648780859537
 20
498.6676724482963
 30
0.0
 40
6.5
100
AcDbArc
 50
29.7247239999977
 51
150.1905760000021
  0
LINE
  5
AC72
330
18
100
AcDbEntity
  8
4
  6
CENTER
 48
0.2
100
AcDbLine
 10
347.9648780859538
 20
498.6676724482962
 30
0.0
 11
358.1648780859541
 21
498.6676724482962
 31
0.0
  0
LINE
  5
AC73
330
18
100
AcDbEntity
  8
1
  6
Continuous
100
AcDbLine
 10
358.7096130859535
 20
501.8906014482961
 30
0.0
 11
363.2354440859535
 21
494.0516324482961
 31
0.0
  0
LINE
  5
AC74
330
18
100
AcDbEntity
  8
1
  6
Continuous
100
AcDbLine
 10
361.0240967632603
 20
493.8819060790522
 30
0.0
 11
356.9619880859663
 21
500.9176674482966
 31
0.0
  0
CIRCLE
  5
AC75
330
18
100
AcDbEntity
  8
1
  6
Continuous
100
AcDbCircle
 10
353.0648780859537
 20
498.6676724482963
 30
0.0
 40
2.25
  0
ARC
  5
AC76
330
18
100
AcDbEntity
  8
1
  6
Continuous
100
AcDbCircle
 10
365.3542211287358
 20
496.381910674951
 30
0.0
 40
5.0
100
AcDbArc
 50
210.0000608124653
 51
244.4559419894877
  0
ARC
  5
AC77
330
18
100
AcDbEntity
  8
1
  6
Continuous
100
AcDbCircle
 10
353.0648780859663
 20
498.6676724482967
 30
0.0
 40
4.5
100
AcDbArc
 50
30.00002799999958
 51
149.9999700000009
  0
LINE
  5
AC78
330
18
100
AcDbEntity
  8
1
  6
Continuous
100
AcDbLine
 10
342.8943130859539
 20
494.0516324482962
 30
0.0
 11
347.4249480859539
 21
501.8989234482963
 31
0.0
  0
ARC
  5
AC79
330
18
100
AcDbEntity
  8
1
  6
Continuous
100
AcDbCircle
 10
340.7755212324423
 20
496.3819040745137
 30
0.0
 40
5.0
100
AcDbArc
 50
295.5440887832708
 51
330.0000226193211
  0
ARC
  5
AC80
330
18
100
AcDbEntity
  8
1
  6
Continuous
100
AcDbCircle
 10
113.0648780859555
 20
470.6676724482962
 30
0.0
 40
20.41886100000001
100
AcDbArc
 50
11.37896434283467
 51
78.53947302329223
  0
ARC
  5
AC83
330
18
100
AcDbEntity
  8
1
  6
Continuous
100
AcDbCircle
 10
113.0648780859555
 20
470.6676724482962
 30
0.0
 40
20.41886100000001
100
AcDbArc
 50
259.1298098122586
 51
348.5791437087351
  0
ARC
  5
AC84
330
18
100
AcDbEntity
  8
1
  6
Continuous
100
AcDbCircle
 10
113.0648780859555
 20
470.6676724482962
 30
0.0
 40
25.5
100
AcDbArc
 50
275.5565470000003
 51
84.44345300000131
  0
ARC
  5
AC88
330
18
100
AcDbEntity
  8
1
  6
Continuous
100
AcDbCircle
 10
113.0648780859555
 20
470.6676724482962
 30
0.0
 40
18.0
100
AcDbArc
 50
251.8200843805014
 51
183.6613502332172
  0
ARC
  5
AC89
330
18
100
AcDbEntity
  8
1
  6
Continuous
100
AcDbCircle
 10
113.0648780859555
 20
470.6676724482962
 30
0.0
 40
12.0
100
AcDbArc
 50
266.7911387858004
 51
168.2782494335246
  0
LINE
  5
AC8A
330
18
100
AcDbEntity
  8
4
  6
CENTER
 48
0.2
100
AcDbLine
 10
85.56487808595555
 20
470.6676724482966
 30
0.0
 11
140.5648780859555
 21
470.6676724482966
 31
0.0
  0
LINE
  5
AC8F
330
18
100
AcDbEntity
  8
1
  6
Continuous
100
AcDbLine
 10
236.2148780859556
 20
504.1676724482963
 30
0.0
 11
236.2148780859556
 21
492.4676044482962
 31
0.0
  0
LINE
  5
AC90
330
18
100
AcDbEntity
  8
1
  6
Continuous
100
AcDbLine
 10
228.0148780859553
 20
491.0865334482965
 30
0.0
 11
228.0148780859553
 21
450.2488114482964
 31
0.0
  0
LINE
  5
AC91
330
18
100
AcDbEntity
  8
1
  6
Continuous
100
AcDbLine
 10
239.8148780859555
 20
505.1676724482963
 30
0.0
 11
239.8148780859555
 21
436.1676724482962
 31
0.0
  0
LINE
  5
AC92
330
18
100
AcDbEntity
  8
1
  6
Continuous
100
AcDbLine
 10
227.2148780859554
 20
478.6676724482961
 30
0.0
 11
227.2148780859556
 21
447.7459847728509
 31
0.0
  0
LINE
  5
AC93
330
18
100
AcDbEntity
  8
1
  6
Continuous
100
AcDbLine
 10
225.2148780859554
 20
478.6676724482961
 30
0.0
 11
225.2148780859556
 21
447.7459847728509
 31
0.0
  0
LINE
  5
AC9A
330
18
100
AcDbEntity
  8
1
  6
Continuous
100
AcDbLine
 10
229.2148780859556
 20
439.4275913528843
 30
0.0
 11
229.2148780859556
 21
342.6676724482963
 31
0.0
  0
LINE
  5
AC9B
330
18
100
AcDbEntity
  8
1
  6
Continuous
100
AcDbLine
 10
231.2148780859556
 20
446.9532003812504
 30
0.0
 11
231.2148780859556
 21
342.6676724482963
 31
0.0
  0
LINE
  5
AC9F
330
18
100
AcDbEntity
  8
1
  6
Continuous
100
AcDbLine
 10
228.2148780859556
 20
370.83924532355
 30
0.0
 11
228.2148780859556
 21
354.4960995730426
 31
0.0
  0
LINE
  5
ACA0
330
18
100
AcDbEntity
  8
1
  6
Continuous
100
AcDbLine
 10
227.2148780859556
 20
366.6676724482962
 30
0.0
 11
227.2148780859556
 21
358.6676724482962
 31
0.0
  0
LINE
  5
ACA1
330
18
100
AcDbEntity
  8
1
  6
Continuous
100
AcDbLine
 10
234.4148780859554
 20
364.6676724482962
 30
0.0
 11
234.4148780859554
 21
360.6676724482964
 31
0.0
  0
LINE
  5
ACA3
330
18
100
AcDbEntity
  8
4
  6
CENTER
 48
0.2
100
AcDbLine
 10
236.4148780859554
 20
362.6676724482962
 30
0.0
 11
225.2148780859556
 21
362.6676724482962
 31
0.0
  0
LINE
  5
ACA4
330
18
100
AcDbEntity
  8
1
  6
Continuous
100
AcDbLine
 10
231.2148780859556
 20
342.6676724482963
 30
0.0
 11
229.2148780859556
 21
342.6676724482963
 31
0.0
  0
LINE
  5
ACA5
330
18
100
AcDbEntity
  8
1
  6
Continuous
100
AcDbLine
 10
231.2148780859556
 20
346.6676724482963
 30
0.0
 11
229.2148780859556
 21
346.6676724482963
 31
0.0
  0
ARC
  5
ACA6
330
18
100
AcDbEntity
  8
1
  6
Continuous
100
AcDbCircle
 10
227.7148780858358
 20
362.6362994149082
 30
0.0
 40
4.0
100
AcDbArc
 50
262.8192442202704
 51
277.1807557797295
  0
LINE
  5
ACA7
330
18
100
AcDbEntity
  8
1
  6
Continuous
100
AcDbLine
 10
228.8006645235823
 20
353.0818860106695
 30
0.0
 11
229.2148780859556
 21
352.6676724482963
 31
0.0
  0
ARC
  5
ACA8
330
18
100
AcDbEntity
  8
1
  6
Continuous
100
AcDbCircle
 10
230.2148780859554
 20
354.4960995730427
 30
0.0
 40
2.0
100
AcDbArc
 50
180.0
 51
225.0
  0
LINE
  5
ACA9
330
18
100
AcDbEntity
  8
1
  6
Continuous
100
AcDbLine
 10
234.4148780859554
 20
360.6676724482962
 30
0.0
 11
233.7148780859556
 21
359.6676724482963
 31
0.0
  0
LINE
  5
ACAA
330
18
100
AcDbEntity
  8
1
  6
Continuous
100
AcDbLine
 10
231.7148780859556
 20
352.1676724482962
 30
0.0
 11
231.2148780859556
 21
352.1676724482962
 31
0.0
  0
ARC
  5
ACAC
330
18
100
AcDbEntity
  8
1
  6
Continuous
100
AcDbCircle
 10
230.2148780859554
 20
370.83924532355
 30
0.0
 40
2.0
100
AcDbArc
 50
135.0
 51
180.0
  0
LINE
  5
ACAD
330
18
100
AcDbEntity
  8
1
  6
Continuous
100
AcDbLine
 10
228.8006645235823
 20
372.2534588859233
 30
0.0
 11
229.2148780859556
 21
372.6676724482964
 31
0.0
  0
ARC
  5
ACAE
330
18
100
AcDbEntity
  8
1
  6
Continuous
100
AcDbCircle
 10
227.7148780858358
 20
362.6990454816843
 30
0.0
 40
4.0
100
AcDbArc
 50
82.81924422026964
 51
97.18075577973042
  0
LINE
  5
ACAF
330
18
100
AcDbEntity
  8
1
  6
Continuous
100
AcDbLine
 10
234.4148780859554
 20
364.6676724482962
 30
0.0
 11
233.7148780859556
 21
365.6676724482962
 31
0.0
  0
LINE
  5
ACB0
330
18
100
AcDbEntity
  8
1
  6
Continuous
100
AcDbLine
 10
231.7148780859556
 20
373.1676724482962
 30
0.0
 11
231.2148780859556
 21
373.1676724482962
 31
0.0
  0
LINE
  5
ACB1
330
18
100
AcDbEntity
  8
1
  6
Continuous
100
AcDbLine
 10
233.7148780859556
 20
375.4076724482964
 30
0.0
 11
231.7148780859556
 21
375.4076724482964
 31
0.0
  0
LINE
  5
ACB2
330
18
100
AcDbEntity
  8
1
  6
Continuous
100
AcDbLine
 10
231.7148780859556
 20
380.1676724482963
 30
0.0
 11
233.7148780859556
 21
380.1676724482963
 31
0.0
  0
LINE
  5
ACB9
330
18
100
AcDbEntity
  8
1
  6
Continuous
100
AcDbLine
 10
228.4148780859554
 20
399.1110705615018
 30
0.0
 11
228.4148780859554
 21
406.2242743350903
 31
0.0
  0
ARC
  5
ACBA
330
18
100
AcDbEntity
  8
1
  6
Continuous
100
AcDbCircle
 10
230.1170019067094
 20
406.2242743350903
 30
0.0
 40
1.702123820753956
100
AcDbArc
 50
122.0053832080883
 51
180.0
  0
ARC
  5
ACBB
330
18
100
AcDbEntity
  8
1
  6
Continuous
100
AcDbCircle
 10
230.1170019067094
 20
399.1110705615018
 30
0.0
 40
1.702123820753956
100
AcDbArc
 50
180.0
 51
237.9946167919117
  0
LINE
  5
ACBC
330
18
100
AcDbEntity
  8
4
  6
CENTER
 48
0.1
100
AcDbLine
 10
233.2148780859556
 20
402.6676724482962
 30
0.0
 11
226.4148780859554
 21
402.6676724482962
 31
0.0
  0
ARC
  5
ACBD
330
18
100
AcDbEntity
  8
1
  6
Continuous
100
AcDbCircle
 10
230.1170019067094
 20
420.2242743350901
 30
0.0
 40
1.702123820754384
100
AcDbArc
 50
122.0053832080841
 51
180.0
  0
LINE
  5
ACBE
330
18
100
AcDbEntity
  8
1
  6
Continuous
100
AcDbLine
 10
228.4148780859554
 20
415.1110705615048
 30
0.0
 11
228.4148780859554
 21
420.22427433509
 31
0.0
  0
ARC
  5
ACBF
330
18
100
AcDbEntity
  8
1
  6
Continuous
100
AcDbCircle
 10
230.1170019067094
 20
415.1110705615048
 30
0.0
 40
1.702123820754384
100
AcDbArc
 50
180.0
 51
237.9946167919158
  0
LINE
  5
ACC0
330
18
100
AcDbEntity
  8
4
  6
CENTER
 48
0.1
100
AcDbLine
 10
233.2148780859556
 20
417.6676724482962
 30
0.0
 11
226.4148780859554
 21
417.6676724482962
 31
0.0
  0
LINE
  5
ACC1
330
18
100
AcDbEntity
  8
1
  6
Continuous
100
AcDbLine
 10
225.5844893502715
 20
446.3033985192123
 30
0.0
 11
229.0916743311836
 21
439.9084534374305
 31
0.0
  0
ARC
  5
ACC2
330
18
100
AcDbEntity
  8
1
  6
Continuous
100
AcDbCircle
 10
237.2148780859554
 20
437.1676724482963
 30
0.0
 40
1.0
100
AcDbArc
 50
180.0
 51
270.0
  0
LINE
  5
ACC3
330
18
100
AcDbEntity
  8
1
  6
Continuous
100
AcDbLine
 10
239.8148780859555
 20
436.1676724482962
 30
0.0
 11
237.2148780859556
 21
436.1676724482962
 31
0.0
  0
ARC
  5
ACC4
330
18
100
AcDbEntity
  8
1
  6
Continuous
100
AcDbCircle
 10
230.1170019067087
 20
429.1110705615039
 30
0.0
 40
1.702123820753186
100
AcDbArc
 50
180.0
 51
237.9946167919158
  0
ARC
  5
ACC5
330
18
100
AcDbEntity
  8
1
  6
Continuous
100
AcDbCircle
 10
230.1170019067087
 20
432.224274335091
 30
0.0
 40
1.702123820753186
100
AcDbArc
 50
122.0053832080841
 51
180.0
  0
LINE
  5
ACC6
330
18
100
AcDbEntity
  8
1
  6
Continuous
100
AcDbLine
 10
228.4148780859554
 20
429.1110705615039
 30
0.0
 11
228.4148780859554
 21
432.2242743350908
 31
0.0
  0
LINE
  5
ACC7
330
18
100
AcDbEntity
  8
4
  6
CENTER
 48
0.1
100
AcDbLine
 10
233.2148780859556
 20
430.6676724482962
 30
0.0
 11
226.4148780859554
 21
430.6676724482962
 31
0.0
  0
LINE
  5
ACC8
330
18
100
AcDbEntity
  8
1
  6
Continuous
100
AcDbLine
 10
236.2148780859556
 20
448.8677404482962
 30
0.0
 11
239.8148780859555
 21
448.8677404482962
 31
0.0
  0
LINE
  5
ACC9
330
18
100
AcDbEntity
  8
4
  6
CENTER
 48
0.1
100
AcDbLine
 10
234.2148780859556
 20
442.6676724482963
 30
0.0
 11
241.8148780859555
 21
442.6676724482963
 31
0.0
  0
ARC
  5
ACCA
330
18
100
AcDbEntity
  8
1
  6
Continuous
100
AcDbCircle
 10
231.0148780859553
 20
450.2488114482964
 30
0.0
 40
3.0
100
AcDbArc
 50
180.0
 51
251.5650510000005
  0
ARC
  5
ACCB
330
18
100
AcDbEntity
  8
1
  6
Continuous
100
AcDbCircle
 10
228.2148780859554
 20
447.7459847728509
 30
0.0
 40
1.0
100
AcDbArc
 50
180.0
 51
208.7417212606858
  0
ARC
  5
ACCC
330
18
100
AcDbEntity
  8
1
  6
Continuous
100
AcDbCircle
 10
228.2148780859554
 20
439.4275913528843
 30
0.0
 40
1.0
100
AcDbArc
 50
0.000000000000007
 51
28.7417212606858
  0
ARC
  5
ACCD
330
18
100
AcDbEntity
  8
1
  6
Continuous
100
AcDbCircle
 10
228.2148780859554
 20
439.4275913528843
 30
0.0
 40
3.0
100
AcDbArc
 50
0.000000000000007
 51
28.7417212606858
  0
LINE
  5
ACCE
330
18
100
AcDbEntity
  8
1
  6
Continuous
100
AcDbLine
 10
236.2148780859556
 20
445.3532001426319
 30
0.0
 11
230.0661950859557
 21
447.4027614482961
 31
0.0
  0
LINE
  5
ACCF
330
18
100
AcDbEntity
  8
1
  6
Continuous
100
AcDbLine
 10
227.3380818407274
 20
447.2651226883048
 30
0.0
 11
230.8452668216395
 21
440.8701776065226
 31
0.0
  0
ARC
  5
ACD0
330
18
100
AcDbEntity
  8
1
  6
Continuous
100
AcDbCircle
 10
228.2148780859554
 20
447.7459847728509
 30
0.0
 40
3.0
100
AcDbArc
 50
180.0
 51
208.7417212606858
  0
LINE
  5
ACD9
330
18
100
AcDbEntity
  8
1
  6
Continuous
100
AcDbLine
 10
227.2148780859554
 20
478.6676724482961
 30
0.0
 11
225.2148780859554
 21
478.6676724482961
 31
0.0
  0
LINE
  5
ACDA
330
18
100
AcDbEntity
  8
4
  6
CENTER
 48
0.2
100
AcDbLine
 10
245.4148780859554
 20
470.6676724482962
 30
0.0
 11
220.7148780859556
 21
470.6676724482963
 31
0.0
  0
LINE
  5
ACDB
330
18
100
AcDbEntity
  8
1
  6
Continuous
100
AcDbLine
 10
227.5148780859554
 20
477.667672448296
 30
0.0
 11
227.5148780859554
 21
463.6676724482962
 31
0.0
  0
LINE
  5
ACDC
330
18
100
AcDbEntity
  8
1
  6
Continuous
100
AcDbLine
 10
242.1148780859557
 20
476.1676724482962
 30
0.0
 11
242.1148780859557
 21
466.8929244482608
 31
0.0
  0
LINE
  5
ACDD
330
18
100
AcDbEntity
  8
1
  6
Continuous
100
AcDbLine
 10
242.9148780859554
 20
473.667672448296
 30
0.0
 11
242.9148780859554
 21
467.6676724482962
 31
0.0
  0
LINE
  5
ACDE
330
18
100
AcDbEntity
  8
1
  6
Continuous
100
AcDbLine
 10
241.4148780859554
 20
476.9176724482961
 30
0.0
 11
241.4148780859554
 21
464.4176724482962
 31
0.0
  0
LINE
  5
ACDF
330
18
100
AcDbEntity
  8
1
  6
Continuous
100
AcDbLine
 10
243.4148780859554
 20
473.167672448296
 30
0.0
 11
243.4148780859554
 21
468.1676724482962
 31
0.0
  0
LINE
  5
ACE0
330
18
100
AcDbEntity
  8
1
  6
Continuous
100
AcDbLine
 10
243.4148780859554
 20
468.1676724482962
 30
0.0
 11
242.9148780859554
 21
467.6676724482962
 31
0.0
  0
LINE
  5
ACE1
330
18
100
AcDbEntity
  8
1
  6
Continuous
100
AcDbLine
 10
242.9148780859554
 20
467.6676724482962
 30
0.0
 11
242.1148780859557
 21
467.6676724482962
 31
0.0
  0
LINE
  5
ACE2
330
18
100
AcDbEntity
  8
1
  6
Continuous
100
AcDbLine
 10
242.1148780859557
 20
466.8929244482608
 30
0.0
 11
241.4148780859554
 21
466.8929244482608
 31
0.0
  0
LINE
  5
ACE3
330
18
100
AcDbEntity
  8
1
  6
Continuous
100
AcDbLine
 10
241.4148780859554
 20
464.4176724482962
 30
0.0
 11
239.8148780859555
 21
464.4176724482962
 31
0.0
  0
LINE
  5
ACE4
330
18
100
AcDbEntity
  8
1
  6
Continuous
100
AcDbLine
 10
228.0148780859553
 20
463.6676724482962
 30
0.0
 11
227.5148780859554
 21
463.6676724482962
 31
0.0
  0
LINE
  5
ACE5
330
18
100
AcDbEntity
  8
1
  6
Continuous
100
AcDbLine
 10
227.5148780859554
 20
465.6676724482962
 30
0.0
 11
227.2148780859554
 21
465.6676724482962
 31
0.0
  0
LINE
  5
ACE6
330
18
100
AcDbEntity
  8
1
  6
Continuous
100
AcDbLine
 10
242.1148780859557
 20
476.1676724482962
 30
0.0
 11
241.4148780859554
 21
476.1676724482962
 31
0.0
  0
LINE
  5
ACE7
330
18
100
AcDbEntity
  8
1
  6
Continuous
100
AcDbLine
 10
242.9148780859554
 20
473.667672448296
 30
0.0
 11
243.4148780859554
 21
473.167672448296
 31
0.0
  0
LINE
  5
ACE8
330
18
100
AcDbEntity
  8
1
  6
Continuous
100
AcDbLine
 10
242.9148780859554
 20
473.667672448296
 30
0.0
 11
242.1148780859557
 21
473.667672448296
 31
0.0
  0
LINE
  5
ACE9
330
18
100
AcDbEntity
  8
1
  6
Continuous
100
AcDbLine
 10
241.4148780859554
 20
476.9176724482961
 30
0.0
 11
239.8148780859555
 21
476.9176724482961
 31
0.0
  0
LINE
  5
ACEA
330
18
100
AcDbEntity
  8
1
  6
Continuous
100
AcDbLine
 10
228.0148780859553
 20
477.667672448296
 30
0.0
 11
227.5148780859554
 21
477.667672448296
 31
0.0
  0
LINE
  5
ACEB
330
18
100
AcDbEntity
  8
1
  6
Continuous
100
AcDbLine
 10
227.2148780859554
 20
475.6676724482962
 30
0.0
 11
227.5148780859554
 21
475.6676724482962
 31
0.0
  0
ARC
  5
ACEC
330
18
100
AcDbEntity
  8
1
  6
Continuous
100
AcDbCircle
 10
228.3828780859782
 20
470.6676724482963
 30
0.0
 40
5.668000000022742
100
AcDbArc
 50
123.981646584094
 51
236.0183534159059
  0
LINE
  5
ACED
330
18
100
AcDbEntity
  8
1
  6
Continuous
100
AcDbLine
 10
236.2148780859556
 20
492.4676044482962
 30
0.0
 11
239.8148780859555
 21
492.4676044482962
 31
0.0
  0
LINE
  5
ACEE
330
18
100
AcDbEntity
  8
4
  6
CENTER
 48
0.1
100
AcDbLine
 10
234.2148780859556
 20
498.6676724482963
 30
0.0
 11
241.8148780859555
 21
498.6676724482963
 31
0.0
  0
ARC
  5
ACEF
330
18
100
AcDbEntity
  8
1
  6
Continuous
100
AcDbCircle
 10
231.0148780859553
 20
491.0865334482965
 30
0.0
 40
3.0
100
AcDbArc
 50
108.4349489999995
 51
180.0
  0
LINE
  5
ACF0
330
18
100
AcDbEntity
  8
1
  6
Continuous
100
AcDbLine
 10
236.2148780859556
 20
495.9821447539606
 30
0.0
 11
230.0661950859557
 21
493.9325834482962
 31
0.0
  0
ARC
  5
ACF1
330
18
100
AcDbEntity
  8
1
  6
Continuous
100
AcDbCircle
 10
237.2148780859554
 20
504.1676724482963
 30
0.0
 40
1.0
100
AcDbArc
 50
90.00000000000005
 51
180.0
  0
LINE
  5
ACF2
330
18
100
AcDbEntity
  8
1
  6
Continuous
100
AcDbLine
 10
239.8148780859555
 20
505.1676724482963
 30
0.0
 11
237.2148780859556
 21
505.1676724482963
 31
0.0
  0
ARC
  5
AD24
330
18
100
AcDbEntity
  8
1
  6
Continuous
100
AcDbCircle
 10
113.0648780859555
 20
470.6676724482962
 30
0.0
 40
32.0
100
AcDbArc
 50
201.3925840153989
 51
255.5224878140705
  0
ARC
  5
AD25
330
18
100
AcDbEntity
  8
1
  6
Continuous
100
AcDbCircle
 10
101.0648780859555
 20
449.8670874482963
 30
0.0
 40
20.0
100
AcDbArc
 50
120.0000000000005
 51
180.0
  0
LINE
  5
AD2D
330
18
100
AcDbEntity
  8
4
  6
CENTER
 48
0.2
100
AcDbLine
 10
113.0648780859551
 20
434.1676724482963
 30
0.0
 11
113.0648780859551
 21
507.1676724482963
 31
0.0
  0
ARC
  5
AD2E
330
18
100
AcDbEntity
  8
1
  6
Continuous
100
AcDbCircle
 10
117.0648780859555
 20
446.3876344482962
 30
0.0
 40
12.0
100
AcDbArc
 50
135.0
 51
180.0
  0
LINE
  5
AD31
330
18
100
AcDbEntity
  8
1
  6
Continuous
100
AcDbLine
 10
81.06487808595534
 20
378.6676724482963
 30
0.0
 11
81.06487808595534
 21
449.8670874482962
 31
0.0
  0
ARC
  5
AD33
330
18
100
AcDbEntity
  8
1
  6
Continuous
100
AcDbCircle
 10
93.06487808595555
 20
362.6676724482964
 30
0.0
 40
20.0
100
AcDbArc
 50
186.3153154885791
 51
306.8698980000005
  0
CIRCLE
  5
AD34
330
18
100
AcDbEntity
  8
1
  6
Continuous
100
AcDbCircle
 10
93.06487808595555
 20
362.6676724482964
 30
0.0
 40
9.999999999999772
  0
LINE
  5
AD36
330
18
100
AcDbEntity
  8
4
  6
CENTER
 48
0.2
100
AcDbLine
 10
68.06487808595557
 20
362.6676724482964
 30
0.0
 11
118.0648780859555
 21
362.6676724482964
 31
0.0
  0
CIRCLE
  5
AD37
330
18
100
AcDbEntity
  8
1
  6
Continuous
100
AcDbCircle
 10
93.06487808595555
 20
362.6676724482964
 30
0.0
 40
4.0
  0
LINE
  5
AD39
330
18
100
AcDbEntity
  8
1
  6
Continuous
100
AcDbLine
 10
73.06487808595555
 20
365.4176724482963
 30
0.0
 11
73.06487808595555
 21
360.9176724482961
 31
0.0
  0
LINE
  5
AD3D
330
18
100
AcDbEntity
  8
1
  6
Continuous
100
AcDbLine
 10
75.06487808595555
 20
360.9176724482961
 30
0.0
 11
73.06487808595555
 21
360.9176724482961
 31
0.0
  0
ARC
  5
AD3E
330
18
100
AcDbEntity
  8
1
  6
Continuous
100
AcDbCircle
 10
75.53903985055331
 20
358.5634070881479
 30
0.0
 40
2.0
100
AcDbArc
 50
134.9999999999988
 51
193.1802194464792
  0
LINE
  5
AD3F
330
18
100
AcDbEntity
  8
1
  6
Continuous
100
AcDbLine
 10
73.1862460859554
 20
360.4676724482961
 30
0.0
 11
74.7926627923739
 21
360.6454571547147
 31
0.0
  0
LINE
  5
AD40
330
18
100
AcDbEntity
  8
1
  6
Continuous
100
AcDbLine
 10
75.06487808595513
 20
360.9176724482959
 30
0.0
 11
74.1248262881802
 21
359.9776206505211
 31
0.0
  0
ARC
  5
AD42
330
18
100
AcDbEntity
  8
1
  6
Continuous
100
AcDbCircle
 10
93.06487808595555
 20
362.6676724482964
 30
0.0
 40
20.0
100
AcDbArc
 50
126.8698980000006
 51
164.2069451466654
  0
LINE
  5
AD43
330
18
100
AcDbEntity
  8
1
  6
Continuous
100
AcDbLine
 10
75.06487808595555
 20
365.4176724482961
 30
0.0
 11
73.06487808595555
 21
365.4176724482961
 31
0.0
  0
ARC
  5
AD44
330
18
100
AcDbEntity
  8
1
  6
Continuous
100
AcDbCircle
 10
75.74436024625494
 20
367.5666174127371
 30
0.0
 40
2.0
100
AcDbArc
 50
164.2069451466654
 51
225.0000000002303
  0
LINE
  5
AD45
330
18
100
AcDbEntity
  8
1
  6
Continuous
100
AcDbLine
 10
75.06487808595534
 20
365.4176724482963
 30
0.0
 11
74.3301466838875
 21
366.1524038503582
 31
0.0
  0
CIRCLE
  5
AD4B
330
18
100
AcDbEntity
  8
1
  6
Continuous
100
AcDbCircle
 10
93.06487808595555
 20
402.6676724482963
 30
0.0
 40
5.000000000000341
  0
LINE
  5
AD4C
330
18
100
AcDbEntity
  8
4
  6
CENTER
 48
0.2
100
AcDbLine
 10
86.0648780859551
 20
402.6676724482963
 30
0.0
 11
100.064878085956
 21
402.6676724482963
 31
0.0
  0
CIRCLE
  5
AD4D
330
18
100
AcDbEntity
  8
1
  6
Continuous
100
AcDbCircle
 10
93.06487808595555
 20
417.6676724482963
 30
0.0
 40
3.999999999997838
  0
LINE
  5
AD4E
330
18
100
AcDbEntity
  8
4
  6
CENTER
 48
0.2
100
AcDbLine
 10
86.0648780859551
 20
417.6676724482963
 30
0.0
 11
100.064878085956
 21
417.6676724482963
 31
0.0
  0
ARC
  5
AD4F
330
18
100
AcDbEntity
  8
1
  6
Continuous
100
AcDbCircle
 10
113.0648780859555
 20
442.6676724482963
 30
0.0
 40
6.5
100
AcDbArc
 50
209.7247239999977
 51
330.1905760000021
  0
CIRCLE
  5
AD50
330
18
100
AcDbEntity
  8
1
  6
Continuous
100
AcDbCircle
 10
113.0648780859555
 20
442.6676724482963
 30
0.0
 40
3.6
  0
CIRCLE
  5
AD51
330
18
100
AcDbEntity
  8
1
  6
Continuous
100
AcDbCircle
 10
113.0648780859555
 20
442.6676724482963
 30
0.0
 40
2.25
  0
LINE
  5
AD52
330
18
100
AcDbEntity
  8
4
  6
CENTER
 48
0.2
100
AcDbLine
 10
107.9648780859554
 20
442.6676724482963
 30
0.0
 11
118.1648780859554
 21
442.6676724482963
 31
0.0
  0
LINE
  5
AD53
330
18
100
AcDbEntity
  8
1
  6
Continuous
100
AcDbLine
 10
123.2354430859554
 20
447.2837124482962
 30
0.0
 11
118.7048080859554
 21
439.4364224482963
 31
0.0
  0
LINE
  5
AD54
330
18
100
AcDbEntity
  8
1
  6
Continuous
100
AcDbLine
 10
107.4201430859552
 20
439.4447434482962
 30
0.0
 11
105.0648780859553
 21
443.5241819694835
 31
0.0
  0
ARC
  5
AD55
330
18
100
AcDbEntity
  8
1
  6
Continuous
100
AcDbCircle
 10
113.0648780859555
 20
470.6676724482962
 30
0.0
 40
25.5
100
AcDbArc
 50
251.7161100595929
 51
264.4434529999997
  0
CIRCLE
  5
AD56
330
18
100
AcDbEntity
  8
1
  6
Continuous
100
AcDbCircle
 10
93.06487808595555
 20
430.6676724482963
 30
0.0
 40
2.999999999997953
  0
LINE
  5
AD57
330
18
100
AcDbEntity
  8
4
  6
CENTER
 48
0.2
100
AcDbLine
 10
86.0648780859551
 20
430.6676724482963
 30
0.0
 11
100.064878085956
 21
430.6676724482963
 31
0.0
  0
ARC
  5
AD99
330
18
100
AcDbEntity
  8
1
  6
Continuous
100
AcDbCircle
 10
113.0648780859555
 20
470.6676724482962
 30
0.0
 40
25.5
100
AcDbArc
 50
95.55654699999875
 51
192.4883024469933
  0
ARC
  5
AD9A
330
18
100
AcDbEntity
  8
1
  6
Continuous
100
AcDbCircle
 10
113.0648780859555
 20
470.6676724482962
 30
0.0
 40
20.41886100000001
100
AcDbArc
 50
99.88705614510569
 51
180.0
  0
ARC
  5
AD9C
330
18
100
AcDbEntity
  8
1
  6
Continuous
100
AcDbCircle
 10
113.0648780859555
 20
470.6676724482962
 30
0.0
 40
8.0
100
AcDbArc
 50
313.4325629999993
 51
123.3702059999998
  0
CIRCLE
  5
AD9D
330
18
100
AcDbEntity
  8
1
  6
Continuous
100
AcDbCircle
 10
113.0648780859553
 20
470.6676724482963
 30
0.0
 40
4.7
  0
LINE
  5
AD9F
330
18
100
AcDbEntity
  8
1
  6
Continuous
100
AcDbLine
 10
118.5648810859554
 20
464.8582004482962
 30
0.0
 11
108.5795960859554
 21
454.8729164482963
 31
0.0
  0
ARC
  5
ADA4
330
18
100
AcDbEntity
  8
1
  6
Continuous
100
AcDbCircle
 10
113.0648780859555
 20
470.6676724482958
 30
0.0
 40
2.149999999999999
100
AcDbArc
 50
28.3282509640235
 51
61.67174903598275
  0
ARC
  5
ADA5
330
18
100
AcDbEntity
  8
1
  6
Continuous
100
AcDbCircle
 10
113.0648780859555
 20
470.6676724482958
 30
0.0
 40
2.149999999999999
100
AcDbArc
 50
298.3282509640297
 51
331.6717490359908
  0
LINE
  5
ADA6
330
18
100
AcDbEntity
  8
1
  6
Continuous
100
AcDbLine
 10
114.4063047556803
 20
471.117217902842
 30
0.0
 11
114.9574015823723
 21
471.687895372715
 31
0.0
  0
LINE
  5
ADA7
330
18
100
AcDbEntity
  8
1
  6
Continuous
100
AcDbLine
 10
114.2337404235668
 20
470.6676724482961
 30
0.0
 11
114.4063047556805
 21
471.1172179028418
 31
0.0
  0
LINE
  5
ADA8
330
18
100
AcDbEntity
  8
1
  6
Continuous
100
AcDbLine
 10
114.2337404235668
 20
470.6676724482961
 30
0.0
 11
114.4063047556803
 21
470.2181269937508
 31
0.0
  0
LINE
  5
ADA9
330
18
100
AcDbEntity
  8
1
  6
Continuous
100
AcDbLine
 10
114.4063047556803
 20
470.2181269937508
 30
0.0
 11
114.9574015823725
 21
469.6474495238773
 31
0.0
  0
ARC
  5
ADAA
330
18
100
AcDbEntity
  8
1
  6
Continuous
100
AcDbCircle
 10
113.0648780859555
 20
470.6676724482958
 30
0.0
 40
2.149999999999999
100
AcDbArc
 50
208.3282509640234
 51
241.6717490359971
  0
ARC
  5
ADAB
330
18
100
AcDbEntity
  8
1
  6
Continuous
100
AcDbCircle
 10
113.0648780859555
 20
470.6676724482958
 30
0.0
 40
2.149999999999999
100
AcDbArc
 50
118.3282509640154
 51
151.6717490359846
  0
LINE
  5
ADAC
330
18
100
AcDbEntity
  8
1
  6
Continuous
100
AcDbLine
 10
113.5144235405014
 20
469.3262457785708
 30
0.0
 11
114.0851010103747
 21
468.7751489518791
 31
0.0
  0
LINE
  5
ADAD
330
18
100
AcDbEntity
  8
1
  6
Continuous
100
AcDbLine
 10
113.0648780859555
 20
469.4988101106846
 30
0.0
 11
113.5144235405014
 21
469.3262457785708
 31
0.0
  0
LINE
  5
ADAE
330
18
100
AcDbEntity
  8
1
  6
Continuous
100
AcDbLine
 10
113.0648780859555
 20
469.4988101106846
 30
0.0
 11
112.6153326314101
 21
469.3262457785713
 31
0.0
  0
LINE
  5
ADAF
330
18
100
AcDbEntity
  8
1
  6
Continuous
100
AcDbLine
 10
112.6153326314101
 20
469.3262457785713
 30
0.0
 11
112.0446551615368
 21
468.7751489518787
 31
0.0
  0
LINE
  5
ADB0
330
18
100
AcDbEntity
  8
1
  6
Continuous
100
AcDbLine
 10
111.7234514162305
 20
470.2181269937502
 30
0.0
 11
111.1723545895386
 21
469.6474495238772
 31
0.0
  0
LINE
  5
ADB1
330
18
100
AcDbEntity
  8
1
  6
Continuous
100
AcDbLine
 10
111.8960157483443
 20
470.6676724482961
 30
0.0
 11
111.7234514162305
 21
470.2181269937502
 31
0.0
  0
LINE
  5
ADB2
330
18
100
AcDbEntity
  8
1
  6
Continuous
100
AcDbLine
 10
111.8960157483443
 20
470.6676724482961
 30
0.0
 11
111.7234514162307
 21
471.1172179028412
 31
0.0
  0
LINE
  5
ADB3
330
18
100
AcDbEntity
  8
1
  6
Continuous
100
AcDbLine
 10
111.7234514162307
 20
471.1172179028412
 30
0.0
 11
111.1723545895386
 21
471.687895372715
 31
0.0
  0
LINE
  5
ADB4
330
18
100
AcDbEntity
  8
1
  6
Continuous
100
AcDbLine
 10
113.5144235405014
 20
472.0090991180208
 30
0.0
 11
114.0851010103745
 21
472.5601959447129
 31
0.0
  0
LINE
  5
ADB5
330
18
100
AcDbEntity
  8
1
  6
Continuous
100
AcDbLine
 10
112.6153326314104
 20
472.0090991180207
 30
0.0
 11
112.0446551615368
 21
472.5601959447131
 31
0.0
  0
LINE
  5
ADB6
330
18
100
AcDbEntity
  8
1
  6
Continuous
100
AcDbLine
 10
113.0648780859555
 20
471.8365347859071
 30
0.0
 11
113.5144235405014
 21
472.0090991180208
 31
0.0
  0
LINE
  5
ADB7
330
18
100
AcDbEntity
  8
1
  6
Continuous
100
AcDbLine
 10
113.0648780859555
 20
471.8365347859071
 30
0.0
 11
112.6153326314104
 21
472.0090991180207
 31
0.0
  0
LINE
  5
ADB8
330
18
100
AcDbEntity
  8
1
  6
Continuous
100
AcDbLine
 10
108.6645156380414
 20
477.3487509785176
 30
0.0
 11
91.06487808595536
 21
467.1875954482962
 31
0.0
  0
LINE
  5
ADBF
330
18
100
AcDbEntity
  8
1
  6
Continuous
100
AcDbLine
 10
107.4201430859554
 20
501.8906014482961
 30
0.0
 11
102.8943120859555
 21
494.0516324482961
 31
0.0
  0
CIRCLE
  5
ADC1
330
18
100
AcDbEntity
  8
1
  6
Continuous
100
AcDbCircle
 10
113.0648780859555
 20
498.6676724482963
 30
0.0
 40
3.6
  0
CIRCLE
  5
ADC2
330
18
100
AcDbEntity
  8
1
  6
Continuous
100
AcDbCircle
 10
113.0648780859555
 20
498.6676724482963
 30
0.0
 40
2.25
  0
LINE
  5
ADC3
330
18
100
AcDbEntity
  8
1
  6
Continuous
100
AcDbLine
 10
123.2354430859554
 20
494.0516324482962
 30
0.0
 11
118.7048080859554
 21
501.8989234482963
 31
0.0
  0
LINE
  5
ADC4
330
18
100
AcDbEntity
  8
4
  6
CENTER
 48
0.2
100
AcDbLine
 10
118.1648780859554
 20
498.6676724482962
 30
0.0
 11
107.9648780859554
 21
498.6676724482962
 31
0.0
  0
ARC
  5
ADC5
330
18
100
AcDbEntity
  8
1
  6
Continuous
100
AcDbCircle
 10
113.0648780859555
 20
498.6676724482963
 30
0.0
 40
6.5
100
AcDbArc
 50
29.80942399999785
 51
150.2752760000023
  0
LINE
  5
ADE8
330
18
100
AcDbEntity
  8
1
  6
Continuous
100
AcDbLine
 10
231.2148780859556
 20
624.3821445153421
 30
0.0
 11
231.2148780859556
 21
640.6171621910758
 31
0.0
  0
LINE
  5
ADE9
330
18
100
AcDbEntity
  8
1
  6
Continuous
100
AcDbLine
 10
229.2148780859556
 20
632.1121578051561
 30
0.0
 11
229.2148780859556
 21
638.1676724482981
 31
0.0
  0
LINE
  5
ADEA
330
18
100
AcDbEntity
  8
1
  6
Continuous
100
AcDbLine
 10
231.7148780859556
 20
638.1676724482981
 30
0.0
 11
231.7148780859554
 21
624.4821445302557
 31
0.0
  0
LINE
  5
ADEB
330
18
100
AcDbEntity
  8
1
  6
Continuous
100
AcDbLine
 10
233.7148780859556
 20
638.1676724482981
 30
0.0
 11
233.7148780859556
 21
625.1488112963466
 31
0.0
  0
ARC
  5
ADF4
330
18
100
AcDbEntity
  8
1
  6
Continuous
100
AcDbCircle
 10
228.3828780859782
 20
600.6676724482961
 30
0.0
 40
5.668000000022742
100
AcDbArc
 50
123.981646584094
 51
236.0183534159059
  0
LINE
  5
ADF5
330
18
100
AcDbEntity
  8
1
  6
Continuous
100
AcDbLine
 10
228.0148780859553
 20
580.2488104482962
 30
0.0
 11
228.0148780859556
 21
621.0865334482963
 31
0.0
  0
LINE
  5
ADF6
330
18
100
AcDbEntity
  8
1
  6
Continuous
100
AcDbLine
 10
227.5148780859554
 20
593.6676724482962
 30
0.0
 11
227.5148780859556
 21
607.6676724482962
 31
0.0
  0
LINE
  5
ADF8
330
18
100
AcDbEntity
  8
1
  6
Continuous
100
AcDbLine
 10
227.2148780859556
 20
592.6676724482961
 30
0.0
 11
227.2148780859556
 21
624.1594406350091
 31
0.0
  0
LINE
  5
ADF9
330
18
100
AcDbEntity
  8
1
  6
Continuous
100
AcDbLine
 10
225.2148780859556
 20
592.6676724482961
 30
0.0
 11
225.2148780859556
 21
624.0336974482961
 31
0.0
  0
LINE
  5
ADFA
330
18
100
AcDbEntity
  8
1
  6
Continuous
100
AcDbLine
 10
242.1148780859557
 20
606.1676724482961
 30
0.0
 11
242.1148780859557
 21
595.1676724482961
 31
0.0
  0
LINE
  5
ADFB
330
18
100
AcDbEntity
  8
1
  6
Continuous
100
AcDbLine
 10
241.4148780859554
 20
606.9176724482961
 30
0.0
 11
241.4148780859554
 21
594.4176724482961
 31
0.0
  0
LINE
  5
ADFC
330
18
100
AcDbEntity
  8
1
  6
Continuous
100
AcDbLine
 10
236.2148780859556
 20
591.4971074482424
 30
0.0
 11
236.2148780859556
 21
609.8382384483203
 31
0.0
  0
LINE
  5
ADFD
330
18
100
AcDbEntity
  8
1
  6
Continuous
100
AcDbLine
 10
239.8148780859555
 20
575.1676724482962
 30
0.0
 11
239.8148780859557
 21
626.1676724482962
 31
0.0
  0
LINE
  5
ADFE
330
18
100
AcDbEntity
  8
1
  6
Continuous
100
AcDbLine
 10
227.2148780859556
 20
592.6676724482961
 30
0.0
 11
225.2148780859556
 21
592.6676724482961
 31
0.0
  0
LINE
  5
ADFF
330
18
100
AcDbEntity
  8
4
  6
CENTER
 48
0.2
100
AcDbLine
 10
245.4148780859554
 20
600.6676724482961
 30
0.0
 11
220.7148780859556
 21
600.6676724482961
 31
0.0
  0
LINE
  5
AE00
330
18
100
AcDbEntity
  8
1
  6
Continuous
100
AcDbLine
 10
230.0661950859557
 20
577.4027614482961
 30
0.0
 11
236.7714610859557
 21
575.1676724482962
 31
0.0
  0
LINE
  5
AE01
330
18
100
AcDbEntity
  8
1
  6
Continuous
100
AcDbLine
 10
236.7714610859557
 20
575.1676724482962
 30
0.0
 11
239.8148780859555
 21
575.1676724482962
 31
0.0
  0
ARC
  5
AE02
330
18
100
AcDbEntity
  8
1
  6
Continuous
100
AcDbCircle
 10
231.0148780859553
 20
580.2488104482962
 30
0.0
 40
3.0
100
AcDbArc
 50
180.0
 51
251.5650510000019
  0
ARC
  5
AE03
330
18
100
AcDbEntity
  8
1
  6
Continuous
100
AcDbCircle
 10
237.2148780859556
 20
591.4971074482424
 30
0.0
 40
1.0
100
AcDbArc
 50
180.0
 51
270.0
  0
LINE
  5
AE04
330
18
100
AcDbEntity
  8
1
  6
Continuous
100
AcDbLine
 10
237.2148780859545
 20
590.4971074482424
 30
0.0
 11
239.814878085921
 21
590.4971074482403
 31
0.0
  0
LINE
  5
AE05
330
18
100
AcDbEntity
  8
1
  6
Continuous
100
AcDbLine
 10
242.1148780859557
 20
595.1676724482961
 30
0.0
 11
241.4148780859554
 21
595.1676724482961
 31
0.0
  0
LINE
  5
AE06
330
18
100
AcDbEntity
  8
1
  6
Continuous
100
AcDbLine
 10
242.9148780859554
 20
597.6676724482961
 30
0.0
 11
242.1148780859557
 21
597.6676724482961
 31
0.0
  0
LINE
  5
AE07
330
18
100
AcDbEntity
  8
1
  6
Continuous
100
AcDbLine
 10
243.4148780859554
 20
598.167672448296
 30
0.0
 11
242.9148780859554
 21
597.6676724482961
 31
0.0
  0
LINE
  5
AE08
330
18
100
AcDbEntity
  8
1
  6
Continuous
100
AcDbLine
 10
242.9148780859554
 20
603.6676724482961
 30
0.0
 11
242.1148780859557
 21
603.6676724482961
 31
0.0
  0
LINE
  5
AE09
330
18
100
AcDbEntity
  8
1
  6
Continuous
100
AcDbLine
 10
242.9148780859554
 20
603.6676724482961
 30
0.0
 11
243.4148780859554
 21
603.1676724482961
 31
0.0
  0
LINE
  5
AE0A
330
18
100
AcDbEntity
  8
1
  6
Continuous
100
AcDbLine
 10
243.4148780859554
 20
603.1676724482961
 30
0.0
 11
243.4148780859554
 21
598.167672448296
 31
0.0
  0
LINE
  5
AE0B
330
18
100
AcDbEntity
  8
1
  6
Continuous
100
AcDbLine
 10
242.9148780859554
 20
603.6676724482961
 30
0.0
 11
242.9148780859554
 21
597.6676724482961
 31
0.0
  0
LINE
  5
AE0C
330
18
100
AcDbEntity
  8
1
  6
Continuous
100
AcDbLine
 10
241.4148780859554
 20
594.4176724482961
 30
0.0
 11
239.8148780859555
 21
594.4176724482961
 31
0.0
  0
LINE
  5
AE0D
330
18
100
AcDbEntity
  8
1
  6
Continuous
100
AcDbLine
 10
228.0148780859556
 20
593.6676724482962
 30
0.0
 11
227.5148780859554
 21
593.6676724482962
 31
0.0
  0
ARC
  5
AE0E
330
18
100
AcDbEntity
  8
1
  6
Continuous
100
AcDbCircle
 10
234.474117674991
 20
600.6676724482961
 30
0.0
 40
1.939239589035365
100
AcDbArc
 50
123.8598546471214
 51
236.1401453528786
  0
ARC
  5
AE0F
330
18
100
AcDbEntity
  8
1
  6
Continuous
100
AcDbCircle
 10
236.2148780859556
 20
603.2621221717936
 30
0.0
 40
5.063566104644336
100
AcDbArc
 50
236.1401453528773
 51
270.0
  0
ARC
  5
AE10
330
18
100
AcDbEntity
  8
1
  6
Continuous
100
AcDbCircle
 10
236.2148780859556
 20
598.0732227247987
 30
0.0
 40
5.063566104644336
100
AcDbArc
 50
90.0
 51
123.8598546471226
  0
LINE
  5
AE11
330
18
100
AcDbEntity
  8
1
  6
Continuous
100
AcDbLine
 10
225.5122948265104
 20
625.216333057946
 30
0.0
 11
229.2148780859556
 21
632.1121578051562
 31
0.0
  0
LINE
  5
AE12
330
18
100
AcDbEntity
  8
4
  6
CENTER
 48
0.2
100
AcDbLine
 10
236.2148780859556
 20
620.6676724482981
 30
0.0
 11
221.2148780859552
 21
620.6676724482981
 31
0.0
  0
ARC
  5
AE13
330
18
100
AcDbEntity
  8
1
  6
Continuous
100
AcDbCircle
 10
237.2148780859556
 20
609.8382384483203
 30
0.0
 40
1.0
100
AcDbArc
 50
90.0
 51
180.0
  0
LINE
  5
AE14
330
18
100
AcDbEntity
  8
1
  6
Continuous
100
AcDbLine
 10
237.2148780859552
 20
610.8382384483205
 30
0.0
 11
239.814878085921
 21
610.8382384483213
 31
0.0
  0
LINE
  5
AE15
330
18
100
AcDbEntity
  8
1
  6
Continuous
100
AcDbLine
 10
242.1148780859557
 20
606.1676724482961
 30
0.0
 11
241.4148780859554
 21
606.1676724482961
 31
0.0
  0
LINE
  5
AE16
330
18
100
AcDbEntity
  8
1
  6
Continuous
100
AcDbLine
 10
241.4148780859554
 20
606.9176724482961
 30
0.0
 11
239.8148780859555
 21
606.9176724482961
 31
0.0
  0
LINE
  5
AE17
330
18
100
AcDbEntity
  8
1
  6
Continuous
100
AcDbLine
 10
228.0148780859556
 20
607.6676724482962
 30
0.0
 11
227.5148780859556
 21
607.6676724482962
 31
0.0
  0
LINE
  5
AE18
330
18
100
AcDbEntity
  8
1
  6
Continuous
100
AcDbLine
 10
230.0661950859557
 20
623.932583448296
 30
0.0
 11
236.7714610859557
 21
626.1676724482961
 31
0.0
  0
LINE
  5
AE19
330
18
100
AcDbEntity
  8
1
  6
Continuous
100
AcDbLine
 10
236.7714610859557
 20
626.1676724482962
 30
0.0
 11
239.8148780859555
 21
626.1676724482962
 31
0.0
  0
ARC
  5
AE1A
330
18
100
AcDbEntity
  8
1
  6
Continuous
100
AcDbCircle
 10
231.0148768462804
 20
621.0865343483021
 30
0.0
 40
2.999998760324798
100
AcDbArc
 50
108.4349257579197
 51
180.0000171888517
  0
ARC
  5
AE1B
330
18
100
AcDbEntity
  8
1
  6
Continuous
100
AcDbCircle
 10
228.7148780859556
 20
632.2379009918691
 30
0.0
 40
2.5
100
AcDbArc
 50
331.767262533259
 51
0.000000000000007
  0
LINE
  5
AE1C
330
18
100
AcDbEntity
  8
1
  6
Continuous
100
AcDbLine
 10
231.7148780859556
 20
631.1676724482981
 30
0.0
 11
231.2148780859556
 21
631.1676724482981
 31
0.0
  0
LINE
  5
AE1D
330
18
100
AcDbEntity
  8
1
  6
Continuous
100
AcDbLine
 10
227.2148780859556
 20
624.1594406350091
 30
0.0
 11
230.917461345401
 21
631.0552653822192
 31
0.0
  0
LINE
  5
AE1E
330
18
100
AcDbEntity
  8
1
  6
Continuous
100
AcDbLine
 10
229.2148780859556
 20
632.6676724482961
 30
0.0
 11
231.2148780859556
 21
632.6676724482961
 31
0.0
  0
ARC
  5
AE1F
330
18
100
AcDbEntity
  8
1
  6
Continuous
100
AcDbCircle
 10
227.7148780859556
 20
624.0336974482961
 30
0.0
 40
2.5
100
AcDbArc
 50
149.9999999999993
 51
180.0
  0
LINE
  5
AE22
330
18
100
AcDbEntity
  8
1
  6
Continuous
100
AcDbLine
 10
231.2148780859824
 20
638.6676724482981
 30
0.0
 11
233.2148780859824
 21
638.6676724482981
 31
0.0
  0
LINE
  5
AE23
330
18
100
AcDbEntity
  8
1
  6
Continuous
100
AcDbLine
 10
233.2148780859852
 20
640.667672448295
 30
0.0
 11
233.2148780859824
 21
638.6676724482981
 31
0.0
  0
LINE
  5
AE24
330
18
100
AcDbEntity
  8
1
  6
Continuous
100
AcDbLine
 10
231.7148780859815
 20
640.6676724482982
 30
0.0
 11
233.2148780859852
 21
640.6676724482982
 31
0.0
  0
LINE
  5
AE25
330
18
100
AcDbEntity
  8
1
  6
Continuous
100
AcDbLine
 10
231.7148780859556
 20
638.1676724482981
 30
0.0
 11
233.7148780859556
 21
638.1676724482981
 31
0.0
  0
ARC
  5
AE26
330
18
100
AcDbEntity
  8
1
  6
Continuous
100
AcDbCircle
 10
231.7148780859815
 20
638.1676724482981
 30
0.0
 40
2.5
100
AcDbArc
 50
90.0
 51
180.0
  0
LINE
  5
BF7B
330
18
100
AcDbEntity
  8
1
  6
Continuous
100
AcDbLine
 10
474.4148780859545
 20
360.9176724482961
 30
0.0
 11
474.4148780859545
 21
246.6676724483762
 31
0.0
  0
LINE
  5
BF7E
330
18
100
AcDbEntity
  8
1
  6
Continuous
100
AcDbLine
 10
472.4148780859545
 20
380.1676724482963
 30
0.0
 11
472.4148780859545
 21
246.6676724483814
 31
0.0
  0
LINE
  5
BF82
330
18
100
AcDbEntity
  8
4
  6
CENTER
 48
0.1
100
AcDbLine
 10
476.4148780859545
 20
322.6676724482962
 30
0.0
 11
469.6148780859548
 21
322.6676724482962
 31
0.0
  0
LINE
  5
BF83
330
18
100
AcDbEntity
  8
4
  6
CENTER
 48
0.1
100
AcDbLine
 10
476.4148780859545
 20
307.6676724482962
 30
0.0
 11
469.6148780859548
 21
307.6676724482962
 31
0.0
  0
LINE
  5
BF84
330
18
100
AcDbEntity
  8
4
  6
CENTER
 48
0.1
100
AcDbLine
 10
476.4148780859545
 20
294.6676724482962
 30
0.0
 11
469.6148780859548
 21
294.6676724482962
 31
0.0
  0
LINE
  5
BF86
330
18
100
AcDbEntity
  8
4
  6
CENTER
 48
0.2
100
AcDbLine
 10
464.3148780859545
 20
254.6676724482975
 30
0.0
 11
477.4148780857157
 21
254.6676724482964
 31
0.0
  0
LINE
  5
BF8B
330
18
100
AcDbEntity
  8
1
  6
Continuous
100
AcDbLine
 10
468.1148780859548
 20
237.1677074483001
 30
0.0
 11
468.1148780859548
 21
272.1677074483001
 31
0.0
  0
LINE
  5
BF8C
330
18
100
AcDbEntity
  8
1
  6
Continuous
100
AcDbLine
 10
466.3148780859546
 20
272.1677104483002
 30
0.0
 11
466.3148780859546
 21
237.1676744483
 31
0.0
  0
LINE
  5
BF90
330
18
100
AcDbEntity
  8
4
  6
CENTER
 48
0.1
100
AcDbLine
 10
470.1148780859548
 20
242.167672448298
 30
0.0
 11
464.3148780859545
 21
242.167672448298
 31
0.0
  0
LINE
  5
BF91
330
18
100
AcDbEntity
  8
1
  6
Continuous
100
AcDbLine
 10
466.3148780859546
 20
237.1676744483003
 30
0.0
 11
468.1148780859548
 21
237.1677074483006
 31
0.0
  0
LINE
  5
BF93
330
18
100
AcDbEntity
  8
1
  6
Continuous
100
AcDbLine
 10
475.4148780857157
 20
258.6676724482966
 30
0.0
 11
475.4148780857157
 21
250.6676724482966
 31
0.0
  0
LINE
  5
BF94
330
18
100
AcDbEntity
  8
1
  6
Continuous
100
AcDbLine
 10
471.9148780859545
 20
259.9324814482985
 30
0.0
 11
471.9148780859545
 21
249.4028634482984
 31
0.0
  0
LINE
  5
BF95
330
18
100
AcDbEntity
  8
1
  6
Continuous
100
AcDbLine
 10
471.9148780859545
 20
259.6676724482985
 30
0.0
 11
471.9148780859545
 21
249.6676724482985
 31
0.0
  0
LINE
  5
BF96
330
18
100
AcDbEntity
  8
1
  6
Continuous
100
AcDbLine
 10
471.2131530859545
 20
248.4483834482984
 30
0.0
 11
468.1148780859548
 21
247.4801722952273
 31
0.0
  0
ARC
  5
BF97
330
18
100
AcDbEntity
  8
1
  6
Continuous
100
AcDbCircle
 10
474.9148780858353
 20
254.6362994149084
 30
0.0
 40
4.0
100
AcDbArc
 50
262.8192442202704
 51
277.1807557797295
  0
LINE
  5
BF98
330
18
100
AcDbEntity
  8
1
  6
Continuous
100
AcDbLine
 10
474.4148780859545
 20
246.667672448376
 30
0.0
 11
472.4148780859477
 21
246.6676724483814
 31
0.0
  0
LINE
  5
BF99
330
18
100
AcDbEntity
  8
1
  6
Continuous
100
AcDbLine
 10
471.9148780859545
 20
249.6676724482969
 30
0.0
 11
472.4148780859545
 21
249.6676724482969
 31
0.0
  0
ARC
  5
BF9A
330
18
100
AcDbEntity
  8
1
  6
Continuous
100
AcDbCircle
 10
470.9148780859544
 20
249.4028634482985
 30
0.0
 40
1.0
100
AcDbArc
 50
287.3540249999999
 51
0.000000000000007
  0
LINE
  5
BF9B
330
18
100
AcDbEntity
  8
4
  6
CENTER
 48
0.1
100
AcDbLine
 10
470.1148780859548
 20
267.167672448298
 30
0.0
 11
464.3148780859545
 21
267.167672448298
 31
0.0
  0
LINE
  5
BF9C
330
18
100
AcDbEntity
  8
1
  6
Continuous
100
AcDbLine
 10
468.1148780859548
 20
272.1677074483003
 30
0.0
 11
466.3148780859546
 21
272.1677104483002
 31
0.0
  0
LINE
  5
BF9D
330
18
100
AcDbEntity
  8
1
  6
Continuous
100
AcDbLine
 10
471.2131530859545
 20
260.8869614482983
 30
0.0
 11
468.1148780859548
 21
261.8551726013696
 31
0.0
  0
ARC
  5
BF9E
330
18
100
AcDbEntity
  8
1
  6
Continuous
100
AcDbCircle
 10
474.9148780858353
 20
254.6990454816847
 30
0.0
 40
4.0
100
AcDbArc
 50
82.81924422026962
 51
97.18075577973042
  0
LINE
  5
BF9F
330
18
100
AcDbEntity
  8
1
  6
Continuous
100
AcDbLine
 10
471.9148780859545
 20
259.6676724482969
 30
0.0
 11
472.4148780859545
 21
259.6676724482969
 31
0.0
  0
ARC
  5
BFA0
330
18
100
AcDbEntity
  8
1
  6
Continuous
100
AcDbCircle
 10
470.9148780859544
 20
259.9324814482985
 30
0.0
 40
1.0
100
AcDbArc
 50
0.000000000000007
 51
72.64597500000011
  0
LINE
  5
BFA2
330
18
100
AcDbEntity
  8
1
  6
Continuous
100
AcDbLine
 10
471.6148780859548
 20
296.2242743350888
 30
0.0
 11
471.6148780859548
 21
293.1110705615015
 31
0.0
  0
ARC
  5
BFA3
330
18
100
AcDbEntity
  8
1
  6
Continuous
100
AcDbCircle
 10
473.3170019067078
 20
296.2242743350888
 30
0.0
 40
1.702123820753186
100
AcDbArc
 50
122.0053832080841
 51
180.0
  0
ARC
  5
BFA4
330
18
100
AcDbEntity
  8
1
  6
Continuous
100
AcDbCircle
 10
473.3170019067078
 20
293.1110705615016
 30
0.0
 40
1.702123820753186
100
AcDbArc
 50
180.0
 51
237.9946167919158
  0
ARC
  5
BFA6
330
18
100
AcDbEntity
  8
1
  6
Continuous
100
AcDbCircle
 10
473.3170019067083
 20
319.1110705615025
 30
0.0
 40
1.702123820753956
100
AcDbArc
 50
180.0
 51
237.9946167919116
  0
LINE
  5
BFA7
330
18
100
AcDbEntity
  8
1
  6
Continuous
100
AcDbLine
 10
471.6148780859548
 20
310.2242743350879
 30
0.0
 11
471.6148780859548
 21
305.1110705615025
 31
0.0
  0
ARC
  5
BFA8
330
18
100
AcDbEntity
  8
1
  6
Continuous
100
AcDbCircle
 10
473.3170019067086
 20
310.2242743350879
 30
0.0
 40
1.702123820754384
100
AcDbArc
 50
122.0053832080841
 51
180.0
  0
ARC
  5
BFA9
330
18
100
AcDbEntity
  8
1
  6
Continuous
100
AcDbCircle
 10
473.3170019067086
 20
305.1110705615025
 30
0.0
 40
1.702123820754384
100
AcDbArc
 50
180.0
 51
237.9946167919158
  0
LINE
  5
BFAA
330
18
100
AcDbEntity
  8
1
  6
Continuous
100
AcDbLine
 10
471.6148780859548
 20
326.2242743350906
 30
0.0
 11
471.6148780859548
 21
319.1110705615025
 31
0.0
  0
ARC
  5
BFAB
330
18
100
AcDbEntity
  8
1
  6
Continuous
100
AcDbCircle
 10
473.3170019067086
 20
326.2242743350906
 30
0.0
 40
1.702123820753956
100
AcDbArc
 50
122.0053832080882
 51
180.0
  0
LINE
  5
BFAC
330
18
100
AcDbEntity
  8
1
  6
Continuous
100
AcDbLine
 10
480.9148780859549
 20
478.6676724482961
 30
0.0
 11
480.9148780859548
 21
447.7459847728509
 31
0.0
  0
LINE
  5
BFAD
330
18
100
AcDbEntity
  8
1
  6
Continuous
100
AcDbLine
 10
478.9148780859549
 20
478.6676724482961
 30
0.0
 11
478.9148780859546
 21
465.922188080513
 31
0.0
  0
LINE
  5
BFAE
330
18
100
AcDbEntity
  8
1
  6
Continuous
100
AcDbLine
 10
466.3148780859546
 20
505.1676724482963
 30
0.0
 11
466.3148780859546
 21
436.1676724482962
 31
0.0
  0
LINE
  5
BFAF
330
18
100
AcDbEntity
  8
1
  6
Continuous
100
AcDbLine
 10
478.1148780859548
 20
491.0865334482965
 30
0.0
 11
478.1148780859548
 21
464.2072665313691
 31
0.0
  0
LINE
  5
BFB0
330
18
100
AcDbEntity
  8
1
  6
Continuous
100
AcDbLine
 10
469.9148780859546
 20
504.1676724482963
 30
0.0
 11
469.9148780859546
 21
492.4676044482962
 31
0.0
  0
LINE
  5
BFB5
330
18
100
AcDbEntity
  8
1
  6
Continuous
100
AcDbLine
 10
469.9148780859546
 20
445.3532001426319
 30
0.0
 11
474.9148780859543
 21
447.0198670578593
 31
0.0
  0
LINE
  5
BFB6
330
18
100
AcDbEntity
  8
4
  6
CENTER
 48
0.1
100
AcDbLine
 10
472.9148780859545
 20
430.6676724482962
 30
0.0
 11
479.7148780859546
 21
430.6676724482962
 31
0.0
  0
LINE
  5
BFB8
330
18
100
AcDbEntity
  8
4
  6
CENTER
 48
0.1
100
AcDbLine
 10
472.9148780859545
 20
417.6676724482962
 30
0.0
 11
479.7148780859546
 21
417.6676724482962
 31
0.0
  0
LINE
  5
BFB9
330
18
100
AcDbEntity
  8
4
  6
CENTER
 48
0.1
100
AcDbLine
 10
472.9148780859545
 20
402.6676724482962
 30
0.0
 11
479.7148780859546
 21
402.6676724482962
 31
0.0
  0
LINE
  5
BFBA
330
18
100
AcDbEntity
  8
1
  6
Continuous
100
AcDbLine
 10
476.9148780859545
 20
378.667672374122
 30
0.0
 11
474.9148780859544
 21
378.667672374122
 31
0.0
  0
LINE
  5
BFBB
330
18
100
AcDbEntity
  8
4
  6
CENTER
 48
0.2
100
AcDbLine
 10
469.7148780859548
 20
362.6676724482962
 30
0.0
 11
480.9148780859545
 21
362.6676724482962
 31
0.0
  0
LINE
  5
BFBC
330
18
100
AcDbEntity
  8
1
  6
Continuous
100
AcDbLine
 10
474.9148780859544
 20
342.6676724482963
 30
0.0
 11
476.9148780859545
 21
342.6676724482963
 31
0.0
  0
LINE
  5
BFBF
330
18
100
AcDbEntity
  8
1
  6
Continuous
100
AcDbLine
 10
474.9148780859543
 20
457.6037946605465
 30
0.0
 11
474.9148780859544
 21
365.4176724482961
 31
0.0
  0
LINE
  5
BFC3
330
18
100
AcDbEntity
  8
1
  6
Continuous
100
AcDbLine
 10
472.9148780859545
 20
365.4176724482961
 30
0.0
 11
472.9148780859545
 21
360.9176724482961
 31
0.0
  0
LINE
  5
BFC4
330
18
100
AcDbEntity
  8
1
  6
Continuous
100
AcDbLine
 10
471.7148780859546
 20
364.6676724482962
 30
0.0
 11
471.7148780859546
 21
360.6676724482964
 31
0.0
  0
LINE
  5
BFC6
330
18
100
AcDbEntity
  8
1
  6
Continuous
100
AcDbLine
 10
474.9148780859544
 20
360.9176724482961
 30
0.0
 11
474.9148780859544
 21
342.6676724482963
 31
0.0
  0
LINE
  5
BFC7
330
18
100
AcDbEntity
  8
1
  6
Continuous
100
AcDbLine
 10
472.4148780859545
 20
346.6676724482963
 30
0.0
 11
474.4148780859545
 21
346.6676724482963
 31
0.0
  0
LINE
  5
BFC8
330
18
100
AcDbEntity
  8
1
  6
Continuous
100
AcDbLine
 10
472.4148780859545
 20
360.4676724482962
 30
0.0
 11
474.4148780859545
 21
360.4676724482962
 31
0.0
  0
LINE
  5
BFC9
330
18
100
AcDbEntity
  8
1
  6
Continuous
100
AcDbLine
 10
474.9148780859544
 20
360.9176724482961
 30
0.0
 11
472.9148780859545
 21
360.9176724482961
 31
0.0
  0
LINE
  5
BFCA
330
18
100
AcDbEntity
  8
1
  6
Continuous
100
AcDbLine
 10
474.4148780859545
 20
352.1676724482962
 30
0.0
 11
474.9148780859544
 21
352.1676724482962
 31
0.0
  0
LINE
  5
BFCB
330
18
100
AcDbEntity
  8
1
  6
Continuous
100
AcDbLine
 10
471.7148780859546
 20
360.6676724482962
 30
0.0
 11
472.4148780859545
 21
359.6676724482963
 31
0.0
  0
LINE
  5
BFCC
330
18
100
AcDbEntity
  8
1
  6
Continuous
100
AcDbLine
 10
474.4148780859545
 20
380.1676724482963
 30
0.0
 11
474.4148780859545
 21
365.4176724482961
 31
0.0
  0
LINE
  5
BFCD
330
18
100
AcDbEntity
  8
1
  6
Continuous
100
AcDbLine
 10
474.9148780859544
 20
365.4176724482961
 30
0.0
 11
472.9148780859545
 21
365.4176724482961
 31
0.0
  0
LINE
  5
BFCE
330
18
100
AcDbEntity
  8
1
  6
Continuous
100
AcDbLine
 10
474.4148780859545
 20
373.1676724482962
 30
0.0
 11
474.9148780859544
 21
373.1676724482962
 31
0.0
  0
LINE
  5
BFCF
330
18
100
AcDbEntity
  8
1
  6
Continuous
100
AcDbLine
 10
471.7148780859546
 20
364.6676724482962
 30
0.0
 11
472.4148780859545
 21
365.6676724482962
 31
0.0
  0
LINE
  5
BFD0
330
18
100
AcDbEntity
  8
1
  6
Continuous
100
AcDbLine
 10
474.4148780859545
 20
380.1676724482963
 30
0.0
 11
472.4148780859545
 21
380.1676724482963
 31
0.0
  0
ARC
  5
BFD3
330
18
100
AcDbEntity
  8
1
  6
Continuous
100
AcDbCircle
 10
468.9148780859549
 20
437.1676724482963
 30
0.0
 40
1.0
100
AcDbArc
 50
270.0
 51
0.000000000000007
  0
LINE
  5
BFD4
330
18
100
AcDbEntity
  8
1
  6
Continuous
100
AcDbLine
 10
466.3148780859546
 20
436.1676724482962
 30
0.0
 11
468.9148780859546
 21
436.1676724482962
 31
0.0
  0
LINE
  5
BFD5
330
18
100
AcDbEntity
  8
4
  6
CENTER
 48
0.1
100
AcDbLine
 10
471.9148780859545
 20
442.6676724482963
 30
0.0
 11
464.3148780859545
 21
442.6676724482963
 31
0.0
  0
LINE
  5
BFD6
330
18
100
AcDbEntity
  8
1
  6
Continuous
100
AcDbLine
 10
469.9148780859546
 20
448.8677404482962
 30
0.0
 11
466.3148780859546
 21
448.8677404482962
 31
0.0
  0
LINE
  5
BFD8
330
18
100
AcDbEntity
  8
1
  6
Continuous
100
AcDbLine
 10
476.9148780859547
 20
457.6037946605466
 30
0.0
 11
476.9148780859545
 21
342.6676724482963
 31
0.0
  0
LINE
  5
BFD9
330
18
100
AcDbEntity
  8
1
  6
Continuous
100
AcDbLine
 10
478.9148780859544
 20
366.6676724482962
 30
0.0
 11
478.9148780859544
 21
358.6676724482962
 31
0.0
  0
LINE
  5
BFDA
330
18
100
AcDbEntity
  8
1
  6
Continuous
100
AcDbLine
 10
477.9148780859546
 20
370.83924532355
 30
0.0
 11
477.9148780859546
 21
354.4960995730426
 31
0.0
  0
ARC
  5
BFDD
330
18
100
AcDbEntity
  8
1
  6
Continuous
100
AcDbCircle
 10
478.4148780860741
 20
362.6362994149082
 30
0.0
 40
4.0
100
AcDbArc
 50
262.8192442202704
 51
277.1807557797295
  0
ARC
  5
BFDE
330
18
100
AcDbEntity
  8
1
  6
Continuous
100
AcDbCircle
 10
475.914878085955
 20
354.4960995730427
 30
0.0
 40
2.0
100
AcDbArc
 50
314.9999999999999
 51
0.000000000000007
  0
LINE
  5
BFDF
330
18
100
AcDbEntity
  8
1
  6
Continuous
100
AcDbLine
 10
477.3290916483277
 20
353.0818860106695
 30
0.0
 11
476.9148780859545
 21
352.6676724482963
 31
0.0
  0
LINE
  5
BFE0
330
18
100
AcDbEntity
  8
1
  6
Continuous
100
AcDbLine
 10
477.3290916483277
 20
372.2534588859233
 30
0.0
 11
476.9148780859545
 21
372.6676724482964
 31
0.0
  0
ARC
  5
BFE1
330
18
100
AcDbEntity
  8
1
  6
Continuous
100
AcDbCircle
 10
475.914878085955
 20
370.83924532355
 30
0.0
 40
2.0
100
AcDbArc
 50
0.000000000000007
 51
45.0
  0
ARC
  5
BFE2
330
18
100
AcDbEntity
  8
1
  6
Continuous
100
AcDbCircle
 10
478.4148780860741
 20
362.6990454816843
 30
0.0
 40
4.0
100
AcDbArc
 50
82.81924422026962
 51
97.18075577973042
  0
ARC
  5
BFE6
330
18
100
AcDbEntity
  8
1
  6
Continuous
100
AcDbCircle
 10
476.0127542652006
 20
406.2242743350903
 30
0.0
 40
1.702123820753956
100
AcDbArc
 50
0.000000000000007
 51
57.99461679191164
  0
ARC
  5
BFE7
330
18
100
AcDbEntity
  8
1
  6
Continuous
100
AcDbCircle
 10
476.0127542652006
 20
399.1110705615018
 30
0.0
 40
1.702123820753956
100
AcDbArc
 50
302.0053832080882
 51
0.000000000000007
  0
LINE
  5
BFE8
330
18
100
AcDbEntity
  8
1
  6
Continuous
100
AcDbLine
 10
477.7148780859546
 20
399.1110705615018
 30
0.0
 11
477.7148780859546
 21
406.2242743350903
 31
0.0
  0
ARC
  5
BFE9
330
18
100
AcDbEntity
  8
1
  6
Continuous
100
AcDbCircle
 10
476.0127542652006
 20
415.1110705615048
 30
0.0
 40
1.702123820754384
100
AcDbArc
 50
302.0053832080841
 51
0.000000000000007
  0
LINE
  5
BFEA
330
18
100
AcDbEntity
  8
1
  6
Continuous
100
AcDbLine
 10
477.7148780859546
 20
415.1110705615048
 30
0.0
 11
477.7148780859546
 21
420.22427433509
 31
0.0
  0
ARC
  5
BFEB
330
18
100
AcDbEntity
  8
1
  6
Continuous
100
AcDbCircle
 10
476.0127542652006
 20
420.2242743350901
 30
0.0
 40
1.702123820754384
100
AcDbArc
 50
0.000000000000007
 51
57.99461679191582
  0
LINE
  5
BFEC
330
18
100
AcDbEntity
  8
1
  6
Continuous
100
AcDbLine
 10
477.7148780859546
 20
429.1110705615039
 30
0.0
 11
477.7148780859546
 21
432.2242743350908
 31
0.0
  0
ARC
  5
BFED
330
18
100
AcDbEntity
  8
1
  6
Continuous
100
AcDbCircle
 10
476.0127542652017
 20
429.1110705615039
 30
0.0
 40
1.702123820753186
100
AcDbArc
 50
302.0053832080841
 51
0.000000000000007
  0
ARC
  5
BFEE
330
18
100
AcDbEntity
  8
1
  6
Continuous
100
AcDbCircle
 10
476.0127542652017
 20
432.224274335091
 30
0.0
 40
1.702123820753186
100
AcDbArc
 50
0.000000000000007
 51
57.99461679191582
  0
ARC
  5
BFEF
330
18
100
AcDbEntity
  8
1
  6
Continuous
100
AcDbCircle
 10
477.9148780859549
 20
447.7459847728509
 30
0.0
 40
3.0
100
AcDbArc
 50
331.2582787393141
 51
0.000000000000007
  0
ARC
  5
BFF2
330
18
100
AcDbEntity
  8
1
  6
Continuous
100
AcDbCircle
 10
477.9148780859549
 20
439.4275913528843
 30
0.0
 40
1.0
100
AcDbArc
 50
151.2582787393141
 51
180.0
  0
LINE
  5
BFF3
330
18
100
AcDbEntity
  8
1
  6
Continuous
100
AcDbLine
 10
480.5452668216386
 20
446.3033985192127
 30
0.0
 11
476.9148780859545
 21
439.6838056786367
 31
0.0
  0
LINE
  5
BFF4
330
18
100
AcDbEntity
  8
1
  6
Continuous
100
AcDbLine
 10
469.9148780859546
 20
495.9821447539606
 30
0.0
 11
476.0635610859544
 21
493.9325834482962
 31
0.0
  0
LINE
  5
BFF5
330
18
100
AcDbEntity
  8
4
  6
CENTER
 48
0.2
100
AcDbLine
 10
460.7148780859546
 20
470.6676724482962
 30
0.0
 11
485.4148780859545
 21
470.6676724482963
 31
0.0
  0
LINE
  5
BFFE
330
18
100
AcDbEntity
  8
1
  6
Continuous
100
AcDbLine
 10
464.0148780859544
 20
476.1676724482962
 30
0.0
 11
464.0148780859544
 21
466.8929244482608
 31
0.0
  0
LINE
  5
BFFF
330
18
100
AcDbEntity
  8
1
  6
Continuous
100
AcDbLine
 10
462.7148780859546
 20
473.167672448296
 30
0.0
 11
462.7148780859546
 21
468.1676724482962
 31
0.0
  0
LINE
  5
C000
330
18
100
AcDbEntity
  8
1
  6
Continuous
100
AcDbLine
 10
463.2148780859546
 20
473.667672448296
 30
0.0
 11
463.2148780859546
 21
467.6676724482962
 31
0.0
  0
LINE
  5
C001
330
18
100
AcDbEntity
  8
1
  6
Continuous
100
AcDbLine
 10
464.7148780859546
 20
476.9176724482961
 30
0.0
 11
464.7148780859546
 21
464.4176724482962
 31
0.0
  0
LINE
  5
C002
330
18
100
AcDbEntity
  8
1
  6
Continuous
100
AcDbLine
 10
464.7148780859546
 20
464.4176724482962
 30
0.0
 11
466.3148780859546
 21
464.4176724482962
 31
0.0
  0
LINE
  5
C003
330
18
100
AcDbEntity
  8
1
  6
Continuous
100
AcDbLine
 10
464.0148780859544
 20
466.8929244482608
 30
0.0
 11
464.7148780859546
 21
466.8929244482608
 31
0.0
  0
LINE
  5
C004
330
18
100
AcDbEntity
  8
1
  6
Continuous
100
AcDbLine
 10
463.2148780859546
 20
467.6676724482962
 30
0.0
 11
464.0148780859544
 21
467.6676724482962
 31
0.0
  0
LINE
  5
C005
330
18
100
AcDbEntity
  8
1
  6
Continuous
100
AcDbLine
 10
462.7148780859546
 20
468.1676724482962
 30
0.0
 11
463.2148780859546
 21
467.6676724482962
 31
0.0
  0
LINE
  5
C006
330
18
100
AcDbEntity
  8
1
  6
Continuous
100
AcDbLine
 10
464.7148780859546
 20
476.9176724482961
 30
0.0
 11
466.3148780859546
 21
476.9176724482961
 31
0.0
  0
LINE
  5
C007
330
18
100
AcDbEntity
  8
1
  6
Continuous
100
AcDbLine
 10
464.0148780859544
 20
476.1676724482962
 30
0.0
 11
464.7148780859546
 21
476.1676724482962
 31
0.0
  0
LINE
  5
C008
330
18
100
AcDbEntity
  8
1
  6
Continuous
100
AcDbLine
 10
463.2148780859546
 20
473.667672448296
 30
0.0
 11
464.0148780859544
 21
473.667672448296
 31
0.0
  0
LINE
  5
C009
330
18
100
AcDbEntity
  8
1
  6
Continuous
100
AcDbLine
 10
463.2148780859546
 20
473.667672448296
 30
0.0
 11
462.7148780859546
 21
473.167672448296
 31
0.0
  0
LINE
  5
C00A
330
18
100
AcDbEntity
  8
4
  6
CENTER
 48
0.1
100
AcDbLine
 10
471.9148780859545
 20
498.6676724482963
 30
0.0
 11
464.3148780859545
 21
498.6676724482963
 31
0.0
  0
LINE
  5
C00B
330
18
100
AcDbEntity
  8
1
  6
Continuous
100
AcDbLine
 10
469.9148780859546
 20
492.4676044482962
 30
0.0
 11
466.3148780859546
 21
492.4676044482962
 31
0.0
  0
ARC
  5
C00C
330
18
100
AcDbEntity
  8
1
  6
Continuous
100
AcDbCircle
 10
468.9148780859549
 20
504.1676724482963
 30
0.0
 40
1.0
100
AcDbArc
 50
0.000000000000007
 51
89.99999999999998
  0
LINE
  5
C00D
330
18
100
AcDbEntity
  8
1
  6
Continuous
100
AcDbLine
 10
466.3148780859546
 20
505.1676724482963
 30
0.0
 11
468.9148780859546
 21
505.1676724482963
 31
0.0
  0
LINE
  5
C00E
330
18
100
AcDbEntity
  8
1
  6
Continuous
100
AcDbLine
 10
478.6148780859548
 20
477.667672448296
 30
0.0
 11
478.6148780859546
 21
465.1189585459888
 31
0.0
  0
ARC
  5
C00F
330
18
100
AcDbEntity
  8
1
  6
Continuous
100
AcDbCircle
 10
477.7468780859317
 20
470.6676724482963
 30
0.0
 40
5.668000000022742
100
AcDbArc
 50
303.981646584094
 51
56.01835341590593
  0
LINE
  5
C010
330
18
100
AcDbEntity
  8
1
  6
Continuous
100
AcDbLine
 10
478.6148780859548
 20
465.6676724482962
 30
0.0
 11
478.9148780859549
 21
465.6676724482962
 31
0.0
  0
LINE
  5
C012
330
18
100
AcDbEntity
  8
1
  6
Continuous
100
AcDbLine
 10
478.9148780859549
 20
475.6676724482962
 30
0.0
 11
478.6148780859548
 21
475.6676724482962
 31
0.0
  0
LINE
  5
C013
330
18
100
AcDbEntity
  8
1
  6
Continuous
100
AcDbLine
 10
478.1148780859548
 20
477.667672448296
 30
0.0
 11
478.6148780859548
 21
477.667672448296
 31
0.0
  0
LINE
  5
C014
330
18
100
AcDbEntity
  8
1
  6
Continuous
100
AcDbLine
 10
478.9148780859549
 20
478.6676724482961
 30
0.0
 11
480.9148780859549
 21
478.6676724482961
 31
0.0
  0
ARC
  5
C015
330
18
100
AcDbEntity
  8
1
  6
Continuous
100
AcDbCircle
 10
475.1148780859548
 20
491.0865334482965
 30
0.0
 40
3.0
100
AcDbArc
 50
0.000000000000007
 51
71.56505100000051
  0
CIRCLE
  5
CC43
330
18
100
AcDbEntity
  8
1
  6
Continuous
100
AcDbCircle
 10
353.0648780859542
 20
470.6676724482966
 30
0.0
 40
3.0
  0
LINE
  5
CC44
330
18
100
AcDbEntity
  8
1
  6
Continuous
100
AcDbLine
 10
469.9148780859546
 20
448.8677404482962
 30
0.0
 11
469.9148780859546
 21
437.1676724482963
 31
0.0
  0
LINE
  5
CC45
330
18
100
AcDbEntity
  8
1
  6
Continuous
100
AcDbLine
 10
236.2148780859556
 20
448.8677404482962
 30
0.0
 11
236.2148780859556
 21
437.1676724482963
 31
0.0
  0
ARC
  5
CCE8
330
18
100
AcDbEntity
  8
1
  6
Continuous
100
AcDbCircle
 10
477.9148780859552
 20
465.922188080513
 30
0.0
 40
1.0
100
AcDbArc
 50
331.2582787393141
 51
0.000000000000007
  0
ARC
  5
CCE9
330
18
100
AcDbEntity
  8
1
  6
Continuous
100
AcDbCircle
 10
477.9148780859552
 20
465.922188080513
 30
0.0
 40
3.0
100
AcDbArc
 50
331.2582787393141
 51
0.000000000000007
  0
ARC
  5
CCEA
330
18
100
AcDbEntity
  8
1
  6
Continuous
100
AcDbCircle
 10
477.9148780859552
 20
457.6037946605466
 30
0.0
 40
1.0
100
AcDbArc
 50
151.2582787393141
 51
180.0
  0
ARC
  5
CCEB
330
18
100
AcDbEntity
  8
1
  6
Continuous
100
AcDbCircle
 10
477.9148780859552
 20
457.6037946605465
 30
0.0
 40
3.0
100
AcDbArc
 50
151.2582787393141
 51
180.0
  0
LINE
  5
CCEC
330
18
100
AcDbEntity
  8
1
  6
Continuous
100
AcDbLine
 10
480.5452668216387
 20
464.4796018268748
 30
0.0
 11
477.038081840727
 21
458.0846567450928
 31
0.0
  0
LINE
  5
CCED
330
18
100
AcDbEntity
  8
1
  6
Continuous
100
AcDbLine
 10
478.7916743311828
 20
465.4413259959668
 30
0.0
 11
475.2844893502708
 21
459.046380914185
 31
0.0
  0
LINE
  5
CE35
330
18
100
AcDbEntity
  8
1
  6
Continuous
100
AcDbLine
 10
117.688809210901
 20
483.8821074234128
 30
0.0
 11
118.3728494975524
 21
485.7614926649845
 31
0.0
  0
LINE
  5
CE66
330
18
100
AcDbEntity
  8
1
  6
Continuous
100
AcDbLine
 10
114.0008455874493
 20
484.6364493781036
 30
0.0
 11
113.5063397790823
 21
486.6651100213585
 31
0.0
  0
LINE
  5
CE67
330
18
100
AcDbEntity
  8
1
  6
Continuous
100
AcDbLine
 10
114.704695220788
 20
486.6023068738669
 30
0.0
 11
114.0008455874493
 21
484.6364493781036
 31
0.0
  0
LINE
  5
CE68
330
18
100
AcDbEntity
  8
1
  6
Continuous
100
AcDbLine
 10
116.0696481212659
 20
485.3636364192257
 30
0.0
 11
116.2775598120837
 21
486.3417840199596
 31
0.0
  0
LINE
  5
CE69
330
18
100
AcDbEntity
  8
1
  6
Continuous
100
AcDbLine
 10
116.4486249908885
 20
484.2607418040013
 30
0.0
 11
116.0696481212659
 21
485.3636364192257
 31
0.0
  0
LINE
  5
CE6A
330
18
100
AcDbEntity
  8
1
  6
Continuous
100
AcDbLine
 10
116.0696481212659
 20
485.3636364192257
 30
0.0
 11
115.2748478700078
 21
484.5102358329826
 31
0.0
  0
LINE
  5
CE72
330
18
100
AcDbEntity
  8
1
  6
Continuous
100
AcDbLine
 10
114.4407516082859
 20
485.8651103129556
 30
0.0
 11
113.69177945722
 21
485.9043622801379
 31
0.0
  0
LINE
  5
CEA2
330
18
100
AcDbEntity
  8
1
  6
Continuous
100
AcDbLine
 10
125.6340323592511
 20
476.8569190503634
 30
0.0
 11
126.1221163309421
 21
475.7606645011924
 31
0.0
  0
LINE
  5
CEA3
330
18
100
AcDbEntity
  8
1
  6
Continuous
100
AcDbLine
 10
123.6513864515694
 20
481.3051585121563
 30
0.0
 11
122.8103296947075
 21
482.0894566262281
 31
0.0
  0
LINE
  5
CEA4
330
18
100
AcDbEntity
  8
1
  6
Continuous
100
AcDbLine
 10
122.969388091507
 20
480.5738048105371
 30
0.0
 11
124.333384811632
 21
482.0365122137753
 31
0.0
  0
ARC
  5
CEA5
330
18
100
AcDbEntity
  8
1
  6
Continuous
100
AcDbCircle
 10
124.0892293229997
 20
480.8645175870196
 30
0.0
 40
1.466274292452125
100
AcDbArc
 50
277.9946167919158
 51
342.005383208086
  0
ARC
  5
CEA6
330
18
100
AcDbEntity
  8
1
  6
Continuous
100
AcDbCircle
 10
124.227206578991
 20
479.8820886579377
 30
0.0
 40
0.4742035672174262
100
AcDbArc
 50
162.0053832080861
 51
277.9946167919158
  0
ARC
  5
CEA7
330
18
100
AcDbEntity
  8
1
  6
Continuous
100
AcDbCircle
 10
125.0327734500806
 20
480.5580395223577
 30
0.0
 40
0.4742035672174262
100
AcDbArc
 50
342.005383208086
 51
97.99461679191587
  0
ARC
  5
CEA8
330
18
100
AcDbEntity
  8
1
  6
Continuous
100
AcDbCircle
 10
126.2621406804413
 20
477.8536232490314
 30
0.0
 40
1.466274292452125
100
AcDbArc
 50
89.99461679191425
 51
154.0053832080844
  0
ARC
  5
CEA9
330
18
100
AcDbEntity
  8
1
  6
Continuous
100
AcDbCircle
 10
125.3704325625798
 20
478.2884346522941
 30
0.0
 40
0.4742035672174262
100
AcDbArc
 50
154.0053832080844
 51
269.9946167919141
  0
ARC
  5
CEAA
330
18
100
AcDbEntity
  8
1
  6
Continuous
100
AcDbCircle
 10
125.3705257722922
 20
479.2805053731501
 30
0.0
 40
1.466274292452125
100
AcDbArc
 50
269.9946167919141
 51
334.0053832080844
  0
ARC
  5
CEAB
330
18
100
AcDbEntity
  8
1
  6
Continuous
100
AcDbCircle
 10
126.2622338901539
 20
478.8456939698874
 30
0.0
 40
0.4742035672174262
100
AcDbArc
 50
334.0053832080844
 51
89.99461679191425
  0
LINE
  5
CEAC
330
18
100
AcDbEntity
  8
1
  6
Continuous
100
AcDbLine
 10
125.8780743450967
 20
476.3087917757778
 30
0.0
 11
127.7051652603819
 21
477.1222650619296
 31
0.0
  0
ARC
  5
CEAD
330
18
100
AcDbEntity
  8
1
  6
Continuous
100
AcDbCircle
 10
120.58624351186
 20
483.5636428426586
 30
0.0
 40
1.520805338277071
100
AcDbArc
 50
117.9406618563517
 51
149.3633132383543
  0
ARC
  5
CEAE
330
18
100
AcDbEntity
  8
1
  6
Continuous
100
AcDbCircle
 10
119.6838307191841
 20
483.5937915689783
 30
0.0
 40
0.5207118820758546
100
AcDbArc
 50
187.8882680994085
 51
298.1117319005891
  0
ARC
  5
CEAF
330
18
100
AcDbEntity
  8
1
  6
Continuous
100
AcDbCircle
 10
119.1741172512577
 20
484.3914211829694
 30
0.0
 40
1.466274292452125
100
AcDbArc
 50
300.9946167919145
 51
5.00538320808448
  0
ARC
  5
CEB0
330
18
100
AcDbEntity
  8
1
  6
Continuous
100
AcDbCircle
 10
120.6738309865016
 20
483.7355429405412
 30
0.0
 40
1.520805338277071
100
AcDbArc
 50
178.7201063039179
 51
188.0593381436485
  0
LINE
  5
CEB1
330
18
100
AcDbEntity
  8
1
  6
Continuous
100
AcDbLine
 10
119.2777184044279
 20
484.3386337588321
 30
0.0
 11
119.8917275234857
 21
484.0257804864505
 31
0.0
  0
LINE
  5
CEB2
330
18
100
AcDbEntity
  8
1
  6
Continuous
100
AcDbLine
 10
119.2777184044279
 20
484.3386337588321
 30
0.0
 11
119.6877135234666
 21
485.1432944866632
 31
0.0
  0
ARC
  5
CEB3
330
18
100
AcDbEntity
  8
1
  6
Continuous
100
AcDbCircle
 10
120.1190152235352
 20
484.447889249051
 30
0.0
 40
0.5207118820758546
100
AcDbArc
 50
7.888268099408586
 51
118.1117319005891
  0
LINE
  5
CEB4
330
18
100
AcDbEntity
  8
1
  6
Continuous
100
AcDbLine
 10
121.0711038648236
 20
482.1524626156581
 30
0.0
 11
122.2182567375258
 21
483.7907667042361
 31
0.0
  0
LINE
  5
CEB5
330
18
100
AcDbEntity
  8
1
  6
Continuous
100
AcDbLine
 10
122.1283313346449
 20
481.358102924609
 30
0.0
 11
123.49232805477
 21
482.8208103278473
 31
0.0
  0
ENDSEC
  0
SECTION
  2
OBJECTS
  0
DICTIONARY
  5
C
330
0
100
AcDbDictionary
281
     1
  3
ACAD_CIP_PREVIOUS_PRODUCT_INFO
350
CFFB
  3
ACAD_COLOR
350
CFDE
  3
ACAD_DETAILVIEWSTYLE
350
CFF7
  3
ACAD_GROUP
350
D
  3
ACAD_LAYOUT
350
94
  3
ACAD_MATERIAL
350
CFAC
  3
ACAD_MLEADERSTYLE
350
CFF3
  3
ACAD_MLINESTYLE
350
1B
  3
ACAD_PLOTSETTINGS
350
95
  3
ACAD_PLOTSTYLENAME
350
CFAA
  3
ACAD_SCALELIST
350
CFE1
  3
ACAD_SECTIONVIEWSTYLE
350
CFF5
  3
ACAD_TABLESTYLE
350
CFDF
  3
ACAD_VISUALSTYLE
350
CFC5
  3
ACDB_RECOMPOSE_DATA
350
D019
  3
AcDbVariableDictionary
350
D00C
  3
CONTENTDICTIONARY
350
3D
  3
DWGPROPS
350
D01A
  0
DICTIONARY
  5
CFFC
330
E
100
AcDbDictionary
280
     1
281
     1
  3
ADSK_XREC_LAYER_RECONCILED
360
CFFD
  0
DICTIONARY
  5
CFFE
330
4E
100
AcDbDictionary
280
     1
281
     1
  3
ADSK_XREC_LAYER_RECONCILED
360
CFFF
  0
DICTIONARY
  5
D000
330
4F
100
AcDbDictionary
280
     1
281
     1
  3
ADSK_XREC_LAYER_RECONCILED
360
D001
  0
DICTIONARY
  5
D002
330
50
100
AcDbDictionary
280
     1
281
     1
  3
ADSK_XREC_LAYER_RECONCILED
360
D003
  0
DICTIONARY
  5
D004
330
51
100
AcDbDictionary
280
     1
281
     1
  3
ADSK_XREC_LAYER_RECONCILED
360
D005
  0
DICTIONARY
  5
D006
330
52
100
AcDbDictionary
280
     1
281
     1
  3
ADSK_XREC_LAYER_RECONCILED
360
D007
  0
DICTIONARY
  5
D008
330
53
100
AcDbDictionary
280
     1
281
     1
  3
ADSK_XREC_LAYER_RECONCILED
360
D009
  0
DICTIONARY
  5
D00A
330
54
100
AcDbDictionary
280
     1
281
     1
  3
ADSK_XREC_LAYER_RECONCILED
360
D00B
  0
DICTIONARY
  5
CFA5
330
18
100
AcDbDictionary
281
     1
  3
ACAD_LAYOUTSELFREF
350
CFA6
  0
DICTIONARY
  5
CFA3
330
15
100
AcDbDictionary
281
     1
  3
ACAD_LAYOUTSELFREF
350
CFA4
  0
XRECORD
  5
CFFB
102
{ACAD_REACTORS
330
C
102
}
330
C
100
AcDbXrecord
280
     1
300
ACDLT
300
2014
300
ACDLT_F_S
  0
DICTIONARY
  5
CFDE
102
{ACAD_REACTORS
330
C
102
}
330
C
100
AcDbDictionary
281
     1
  0
DICTIONARY
  5
CFF7
102
{ACAD_REACTORS
330
C
102
}
330
C
100
AcDbDictionary
281
     1
  3
Imperial24
350
CFF8
  0
DICTIONARY
  5
D
102
{ACAD_REACTORS
330
C
102
}
330
C
100
AcDbDictionary
281
     1
  0
DICTIONARY
  5
94
102
{ACAD_REACTORS
330
C
102
}
330
C
100
AcDbDictionary
281
     1
  3
Model
350
CFF9
  3
レイアウト1
350
CFFA
  0
DICTIONARY
  5
CFAC
102
{ACAD_REACTORS
330
C
102
}
330
C
100
AcDbDictionary
281
     1
  3
ByBlock
350
CFB5
  3
ByLayer
350
CFAD
  3
Global
350
CFBD
  0
DICTIONARY
  5
CFF3
102
{ACAD_REACTORS
330
C
102
}
330
C
100
AcDbDictionary
281
     1
  3
Standard
350
CFF4
  0
DICTIONARY
  5
1B
102
{ACAD_REACTORS
330
C
102
}
330
C
100
AcDbDictionary
281
     1
  3
STANDARD
350
1C
  0
DICTIONARY
  5
95
102
{ACAD_REACTORS
330
C
102
}
330
C
100
AcDbDictionary
281
     1
  0
ACDBDICTIONARYWDFLT
  5
CFAA
102
{ACAD_REACTORS
330
C
102
}
330
C
100
AcDbDictionary
281
     1
  3
Normal
350
CFAB
100
AcDbDictionaryWithDefault
340
CFAB
  0
DICTIONARY
  5
CFE1
102
{ACAD_REACTORS
330
C
102
}
330
C
100
AcDbDictionary
281
     1
  3
A0
350
CFE2
  3
A1
350
CFE3
  3
A2
350
CFE4
  3
A3
350
CFE5
  3
A4
350
CFE6
  3
A5
350
CFE7
  3
A6
350
CFE8
  3
A7
350
CFE9
  3
A8
350
CFEA
  3
A9
350
CFEB
  3
B0
350
CFEC
  3
B1
350
CFED
  3
B2
350
CFEE
  3
B3
350
CFEF
  3
B4
350
CFF0
  3
B5
350
CFF1
  3
B6
350
CFF2
  0
DICTIONARY
  5
CFF5
102
{ACAD_REACTORS
330
C
102
}
330
C
100
AcDbDictionary
281
     1
  3
Imperial24
350
CFF6
  0
DICTIONARY
  5
CFDF
102
{ACAD_REACTORS
330
C
102
}
330
C
100
AcDbDictionary
281
     1
  3
Standard
350
CFE0
  0
DICTIONARY
  5
CFC5
102
{ACAD_REACTORS
330
C
102
}
330
C
100
AcDbDictionary
281
     1
  3
2dWireframe
350
CFCB
  3
Basic
350
CFCA
  3
Brighten
350
CFD1
  3
ColorChange
350
CFD5
  3
Conceptual
350
CFCE
  3
Dim
350
CFD0
  3
EdgeColorOff
350
CFDD
  3
Facepattern
350
CFD4
  3
Flat
350
CFC6
  3
FlatWithEdges
350
CFC7
  3
Gouraud
350
CFC8
  3
GouraudWithEdges
350
CFC9
  3
Hidden
350
CFCD
  3
JitterOff
350
CFDB
  3
Linepattern
350
CFD3
  3
OverhangOff
350
CFDC
  3
Realistic
350
CFCF
  3
Shaded
350
CFDA
  3
Shaded with edges
350
CFD9
  3
Shades of Gray
350
CFD6
  3
Sketchy
350
CFD7
  3
Thicken
350
CFD2
  3
Wireframe
350
CFCC
  3
X-Ray
350
CFD8
  0
XRECORD
  5
D019
102
{ACAD_REACTORS
330
C
102
}
330
C
100
AcDbXrecord
280
     1
 90
        1
330
CFE0
  0
DICTIONARY
  5
D00C
102
{ACAD_REACTORS
330
C
102
}
330
C
100
AcDbDictionary
281
     1
  3
CANNOSCALE
350
D011
  3
CMLEADERSTYLE
350
D00E
  3
CTABLESTYLE
350
D00D
  3
CVIEWDETAILSTYLE
350
D00F
  3
CVIEWSECTIONSTYLE
350
D010
  3
DIMASSOC
350
D014
  3
INDEXCTL
350
D013
  3
SORTENTS
350
D012
  3
XCLIPFRAME
350
D015
  0
DICTIONARY
  5
3D
102
{ACAD_REACTORS
330
C
102
}
330
C
100
AcDbDictionary
281
     1
  0
XRECORD
  5
D01A
102
{ACAD_REACTORS
330
C
102
}
330
C
100
AcDbXrecord
280
     1
  1
DWGPROPS COOKIE
  2

  3

  4

  6

  7

  8
Yoshitsune
  9

300
=
301
=
302
=
303
=
304
=
305
=
306
=
307
=
308
=
309
=
 40
0.4166507986111112
 41
2452051.395592083
 42
2457192.622173692
  1

 90
        0
  0
XRECORD
  5
CFFD
102
{ACAD_REACTORS
330
CFFC
102
}
330
CFFC
100
AcDbXrecord
280
     1
290
     1
  0
XRECORD
  5
CFFF
102
{ACAD_REACTORS
330
CFFE
102
}
330
CFFE
100
AcDbXrecord
280
     1
290
     1
  0
XRECORD
  5
D001
102
{ACAD_REACTORS
330
D000
102
}
330
D000
100
AcDbXrecord
280
     1
290
     1
  0
XRECORD
  5
D003
102
{ACAD_REACTORS
330
D002
102
}
330
D002
100
AcDbXrecord
280
     1
290
     1
  0
XRECORD
  5
D005
102
{ACAD_REACTORS
330
D004
102
}
330
D004
100
AcDbXrecord
280
     1
290
     1
  0
XRECORD
  5
D007
102
{ACAD_REACTORS
330
D006
102
}
330
D006
100
AcDbXrecord
280
     1
290
     1
  0
XRECORD
  5
D009
102
{ACAD_REACTORS
330
D008
102
}
330
D008
100
AcDbXrecord
280
     1
290
     1
  0
XRECORD
  5
D00B
102
{ACAD_REACTORS
330
D00A
102
}
330
D00A
100
AcDbXrecord
280
     1
290
     1
  0
XRECORD
  5
CFA6
102
{ACAD_REACTORS
330
CFA5
102
}
330
CFA5
100
AcDbXrecord
280
     1
340
18
  0
XRECORD
  5
CFA4
102
{ACAD_REACTORS
330
CFA3
102
}
330
CFA3
100
AcDbXrecord
280
     1
340
15
  0
ACDBDETAILVIEWSTYLE
  5
CFF8
102
{ACAD_XDICTIONARY
360
D052
102
}
102
{ACAD_REACTORS
330
CFF7
102
}
330
CFF7
100
AcDbModelDocViewStyle
 70
     0
  3
Imperial24
290
     0
100
AcDbDetailViewStyle
 70
     0
 71
     0
 90
        3
 71
     1
340
F
 40
0.24
340
0
 40
0.24
300

 40
0.36
280
     3
 71
     2
340
14
 90
       25
 71
     3
340
F
 40
0.24
 90
        1
 40
0.75
 90
        1
300
%<\AcVar ViewType \f "%tc1">% %<\AcVar ViewDetailId>%\PSCALE %<\AcVar ViewScale \f "%sn">%
 71
     4
340
14
 90
       25
340
14
 90
       25
280
     0
  0
LAYOUT
  5
CFF9
102
{ACAD_XDICTIONARY
360
D054
102
}
102
{ACAD_REACTORS
330
94
102
}
330
94
100
AcDbPlotSettings
  1

  2
Canon LBP9100C
  4

  6

 40
0.0
 41
0.0
 42
0.0
 43
0.0
 44
0.0
 45
0.0
 46
0.0
 47
0.0
 48
0.0
 49
0.0
140
0.0
141
0.0
142
1.0
143
1.0
 70
  1712
 72
     0
 73
     0
 74
     0
  7

 75
     0
147
1.0
148
0.0
149
0.0
100
AcDbLayout
  1
Model
 70
     1
 71
     0
 10
0.0
 20
0.0
 11
12.0
 21
9.0
 12
0.0
 22
0.0
 32
0.0
 14
0.0
 24
0.0
 34
0.0
 15
0.0
 25
0.0
 35
0.0
146
0.0
 13
0.0
 23
0.0
 33
0.0
 16
1.0
 26
0.0
 36
0.0
 17
0.0
 27
1.0
 37
0.0
 76
     0
330
18
331
CFA2
  0
LAYOUT
  5
CFFA
102
{ACAD_XDICTIONARY
360
D056
102
}
102
{ACAD_REACTORS
330
94
102
}
330
94
100
AcDbPlotSettings
  1

  2
Canon LBP9100C
  4

  6

 40
0.0
 41
0.0
 42
0.0
 43
0.0
 44
0.0
 45
0.0
 46
0.0
 47
0.0
 48
0.0
 49
0.0
140
0.0
141
0.0
142
1.0
143
1.0
 70
   688
 72
     0
 73
     0
 74
     5
  7

 75
    16
147
1.0
148
0.0
149
0.0
100
AcDbLayout
  1
レイアウト1
 70
     1
 71
     1
 10
0.0
 20
0.0
 11
420.0
 21
297.0
 12
0.0
 22
0.0
 32
0.0
 14
1.000000000000000E+20
 24
1.000000000000000E+20
 34
1.000000000000000E+20
 15
-1.000000000000000E+20
 25
-1.000000000000000E+20
 35
-1.000000000000000E+20
146
0.0
 13
0.0
 23
0.0
 33
0.0
 16
1.0
 26
0.0
 36
0.0
 17
0.0
 27
1.0
 37
0.0
 76
     0
330
15
  0
MATERIAL
  5
CFB5
102
{ACAD_XDICTIONARY
360
CFB6
102
}
102
{ACAD_REACTORS
330
CFAC
102
}
330
CFAC
100
AcDbMaterial
  1
ByBlock
 72
     0
 43
0.0208333333333333
 43
0.0
 43
0.0
 43
0.0
 43
0.0
 43
0.0208333333333333
 43
0.0
 43
0.0
 43
0.0
 43
0.0
 43
1.0
 43
0.0
 43
0.0
 43
0.0
 43
0.0
 43
1.0
 77
     0
 47
0.0208333333333333
 47
0.0
 47
0.0
 47
0.0
 47
0.0
 47
0.0208333333333333
 47
0.0
 47
0.0
 47
0.0
 47
0.0
 47
1.0
 47
0.0
 47
0.0
 47
0.0
 47
0.0
 47
1.0
171
     0
 49
0.0208333333333333
 49
0.0
 49
0.0
 49
0.0
 49
0.0
 49
0.0208333333333333
 49
0.0
 49
0.0
 49
0.0
 49
0.0
 49
1.0
 49
0.0
 49
0.0
 49
0.0
 49
0.0
 49
1.0
175
     0
142
0.0208333333333333
142
0.0
142
0.0
142
0.0
142
0.0
142
0.0208333333333333
142
0.0
142
0.0
142
0.0
142
0.0
142
1.0
142
0.0
142
0.0
142
0.0
142
0.0
142
1.0
179
     0
144
0.0208333333333333
144
0.0
144
0.0
144
0.0
144
0.0
144
0.0208333333333333
144
0.0
144
0.0
144
0.0
144
0.0
144
1.0
144
0.0
144
0.0
144
0.0
144
0.0
144
1.0
147
0.0208333333333333
147
0.0
147
0.0
147
0.0
147
0.0
147
0.0208333333333333
147
0.0
147
0.0
147
0.0
147
0.0
147
1.0
147
0.0
147
0.0
147
0.0
147
0.0
147
1.0
  0
MATERIAL
  5
CFAD
102
{ACAD_XDICTIONARY
360
CFAE
102
}
102
{ACAD_REACTORS
330
CFAC
102
}
330
CFAC
100
AcDbMaterial
  1
ByLayer
 72
     0
 43
0.0208333333333333
 43
0.0
 43
0.0
 43
0.0
 43
0.0
 43
0.0208333333333333
 43
0.0
 43
0.0
 43
0.0
 43
0.0
 43
1.0
 43
0.0
 43
0.0
 43
0.0
 43
0.0
 43
1.0
 77
     0
 47
0.0208333333333333
 47
0.0
 47
0.0
 47
0.0
 47
0.0
 47
0.0208333333333333
 47
0.0
 47
0.0
 47
0.0
 47
0.0
 47
1.0
 47
0.0
 47
0.0
 47
0.0
 47
0.0
 47
1.0
171
     0
 49
0.0208333333333333
 49
0.0
 49
0.0
 49
0.0
 49
0.0
 49
0.0208333333333333
 49
0.0
 49
0.0
 49
0.0
 49
0.0
 49
1.0
 49
0.0
 49
0.0
 49
0.0
 49
0.0
 49
1.0
175
     0
142
0.0208333333333333
142
0.0
142
0.0
142
0.0
142
0.0
142
0.0208333333333333
142
0.0
142
0.0
142
0.0
142
0.0
142
1.0
142
0.0
142
0.0
142
0.0
142
0.0
142
1.0
179
     0
144
0.0208333333333333
144
0.0
144
0.0
144
0.0
144
0.0
144
0.0208333333333333
144
0.0
144
0.0
144
0.0
144
0.0
144
1.0
144
0.0
144
0.0
144
0.0
144
0.0
144
1.0
147
0.0208333333333333
147
0.0
147
0.0
147
0.0
147
0.0
147
0.0208333333333333
147
0.0
147
0.0
147
0.0
147
0.0
147
1.0
147
0.0
147
0.0
147
0.0
147
0.0
147
1.0
  0
MATERIAL
  5
CFBD
102
{ACAD_XDICTIONARY
360
CFBE
102
}
102
{ACAD_REACTORS
330
CFAC
102
}
330
CFAC
100
AcDbMaterial
  1
Global
 72
     0
 43
0.0208333333333333
 43
0.0
 43
0.0
 43
0.0
 43
0.0
 43
0.0208333333333333
 43
0.0
 43
0.0
 43
0.0
 43
0.0
 43
1.0
 43
0.0
 43
0.0
 43
0.0
 43
0.0
 43
1.0
 77
     0
 47
0.0208333333333333
 47
0.0
 47
0.0
 47
0.0
 47
0.0
 47
0.0208333333333333
 47
0.0
 47
0.0
 47
0.0
 47
0.0
 47
1.0
 47
0.0
 47
0.0
 47
0.0
 47
0.0
 47
1.0
171
     0
 49
0.0208333333333333
 49
0.0
 49
0.0
 49
0.0
 49
0.0
 49
0.0208333333333333
 49
0.0
 49
0.0
 49
0.0
 49
0.0
 49
1.0
 49
0.0
 49
0.0
 49
0.0
 49
0.0
 49
1.0
175
     0
142
0.0208333333333333
142
0.0
142
0.0
142
0.0
142
0.0
142
0.0208333333333333
142
0.0
142
0.0
142
0.0
142
0.0
142
1.0
142
0.0
142
0.0
142
0.0
142
0.0
142
1.0
179
     0
144
0.0208333333333333
144
0.0
144
0.0
144
0.0
144
0.0
144
0.0208333333333333
144
0.0
144
0.0
144
0.0
144
0.0
144
1.0
144
0.0
144
0.0
144
0.0
144
0.0
144
1.0
147
0.0208333333333333
147
0.0
147
0.0
147
0.0
147
0.0
147
0.0208333333333333
147
0.0
147
0.0
147
0.0
147
0.0
147
1.0
147
0.0
147
0.0
147
0.0
147
0.0
147
1.0
  0
MLEADERSTYLE
  5
CFF4
102
{ACAD_REACTORS
330
CFF3
102
}
330
CFF3
100
AcDbMLeaderStyle
170
     2
171
     1
172
     0
 90
        2
 40
0.0
 41
0.0
173
     1
 91
-1056964608
340
12
 92
       -2
290
     1
 42
0.09
291
     1
 43
0.36
  3
Standard
 44
0.18
300

342
F
174
     1
178
     6
175
     1
176
     0
 93
-1056964608
 45
0.18
292
     0
297
     0
 46
0.18
 94
-1056964608
 47
1.0
 49
1.0
140
1.0
293
     1
141
0.0
294
     1
177
     0
142
1.0
295
     0
296
     0
143
0.125
1001
ACAD_MLEADERVER
1070
     2
  0
MLINESTYLE
  5
1C
102
{ACAD_REACTORS
330
1B
102
}
330
1B
100
AcDbMlineStyle
  2
STANDARD
 70
     0
  3

 62
   256
 51
90.0
 52
90.0
 71
     2
 49
0.5
 62
   256
  6
BYLAYER
 49
-0.5
 62
   256
  6
BYLAYER
  0
ACDBPLACEHOLDER
  5
CFAB
102
{ACAD_REACTORS
330
CFAA
102
}
330
CFAA
  0
SCALE
  5
CFE2
102
{ACAD_REACTORS
330
CFE1
102
}
330
CFE1
100
AcDbScale
 70
     0
300
1:1
140
1.0
141
1.0
290
     1
  0
SCALE
  5
CFE3
102
{ACAD_REACTORS
330
CFE1
102
}
330
CFE1
100
AcDbScale
 70
     0
300
1/128" = 1'-0"
140
0.0078125
141
12.0
290
     0
  0
SCALE
  5
CFE4
102
{ACAD_REACTORS
330
CFE1
102
}
330
CFE1
100
AcDbScale
 70
     0
300
1/64" = 1'-0"
140
0.015625
141
12.0
290
     0
  0
SCALE
  5
CFE5
102
{ACAD_REACTORS
330
CFE1
102
}
330
CFE1
100
AcDbScale
 70
     0
300
1/32" = 1'-0"
140
0.03125
141
12.0
290
     0
  0
SCALE
  5
CFE6
102
{ACAD_REACTORS
330
CFE1
102
}
330
CFE1
100
AcDbScale
 70
     0
300
1/16" = 1'-0"
140
0.0625
141
12.0
290
     0
  0
SCALE
  5
CFE7
102
{ACAD_REACTORS
330
CFE1
102
}
330
CFE1
100
AcDbScale
 70
     0
300
3/32" = 1'-0"
140
0.09375
141
12.0
290
     0
  0
SCALE
  5
CFE8
102
{ACAD_REACTORS
330
CFE1
102
}
330
CFE1
100
AcDbScale
 70
     0
300
1/8" = 1'-0"
140
0.125
141
12.0
290
     0
  0
SCALE
  5
CFE9
102
{ACAD_REACTORS
330
CFE1
102
}
330
CFE1
100
AcDbScale
 70
     0
300
3/16" = 1'-0"
140
0.1875
141
12.0
290
     0
  0
SCALE
  5
CFEA
102
{ACAD_REACTORS
330
CFE1
102
}
330
CFE1
100
AcDbScale
 70
     0
300
1/4" = 1'-0"
140
0.25
141
12.0
290
     0
  0
SCALE
  5
CFEB
102
{ACAD_REACTORS
330
CFE1
102
}
330
CFE1
100
AcDbScale
 70
     0
300
3/8" = 1'-0"
140
0.375
141
12.0
290
     0
  0
SCALE
  5
CFEC
102
{ACAD_REACTORS
330
CFE1
102
}
330
CFE1
100
AcDbScale
 70
     0
300
1/2" = 1'-0"
140
0.5
141
12.0
290
     0
  0
SCALE
  5
CFED
102
{ACAD_REACTORS
330
CFE1
102
}
330
CFE1
100
AcDbScale
 70
     0
300
3/4" = 1'-0"
140
0.75
141
12.0
290
     0
  0
SCALE
  5
CFEE
102
{ACAD_REACTORS
330
CFE1
102
}
330
CFE1
100
AcDbScale
 70
     0
300
1" = 1'-0"
140
1.0
141
12.0
290
     0
  0
SCALE
  5
CFEF
102
{ACAD_REACTORS
330
CFE1
102
}
330
CFE1
100
AcDbScale
 70
     0
300
1-1/2" = 1'-0"
140
1.5
141
12.0
290
     0
  0
SCALE
  5
CFF0
102
{ACAD_REACTORS
330
CFE1
102
}
330
CFE1
100
AcDbScale
 70
     0
300
3" = 1'-0"
140
3.0
141
12.0
290
     0
  0
SCALE
  5
CFF1
102
{ACAD_REACTORS
330
CFE1
102
}
330
CFE1
100
AcDbScale
 70
     0
300
6" = 1'-0"
140
6.0
141
12.0
290
     0
  0
SCALE
  5
CFF2
102
{ACAD_REACTORS
330
CFE1
102
}
330
CFE1
100
AcDbScale
 70
     0
300
1'-0" = 1'-0"
140
12.0
141
12.0
290
     0
  0
ACDBSECTIONVIEWSTYLE
  5
CFF6
102
{ACAD_XDICTIONARY
360
D050
102
}
102
{ACAD_REACTORS
330
CFF5
102
}
330
CFF5
100
AcDbModelDocViewStyle
 70
     0
  3
Imperial24
290
     0
100
AcDbSectionViewStyle
 70
     0
 71
     0
 90
       78
 71
     1
340
F
 40
0.24
340
0
340
0
 40
0.24
300
I, O, Q, S, X, Z
 40
0.48
 90
        3
 40
0.18
 90
        1
 71
     2
340
14
 90
       25
340
14
 90
       50
 40
0.24
 40
0.0
 40
0.24
 71
     3
340
F
 40
0.24
 90
        1
 40
0.75
 90
        1
300
%<\AcVar ViewType \f "%tc1">% %<\AcVar ViewSectionStartId>%-%<\AcVar ViewSectionEndId>%\PSCALE %<\AcVar ViewScale \f "%sn">%
 71
     4
300
ANSI31
 40
1.0
 90
        0
290
     0
290
     0
 90
        6
 40
0.0
 40
1.570796326794896
 40
0.2617993877991494
 40
1.308996938995747
 40
-0.2617993877991494
 40
1.832595714594046
  0
TABLESTYLE
  5
CFE0
102
{ACAD_XDICTIONARY
360
D017
102
}
102
{ACAD_REACTORS
330
CFDF
102
}
330
CFDF
100
AcDbTableStyle
  3
Standard
 70
     0
 71
     0
 40
0.06
 41
0.06
280
     0
281
     0
  7
STANDARD
140
0.18
170
     2
 62
     0
 63
     7
283
     0
274
    -2
284
     1
 64
     0
275
    -2
285
     1
 65
     0
276
    -2
286
     1
 66
     0
277
    -2
287
     1
 67
     0
278
    -2
288
     1
 68
     0
279
    -2
289
     1
 69
     0
  7
STANDARD
140
0.25
170
     5
 62
     0
 63
     7
283
     0
274
    -2
284
     1
 64
     0
275
    -2
285
     1
 65
     0
276
    -2
286
     1
 66
     0
277
    -2
287
     1
 67
     0
278
    -2
288
     1
 68
     0
279
    -2
289
     1
 69
     0
  7
STANDARD
140
0.18
170
     5
 62
     0
 63
     7
283
     0
274
    -2
284
     1
 64
     0
275
    -2
285
     1
 65
     0
276
    -2
286
     1
 66
     0
277
    -2
287
     1
 67
     0
278
    -2
288
     1
 68
     0
279
    -2
289
     1
 69
     0
  0
VISUALSTYLE
  5
CFCB
102
{ACAD_XDICTIONARY
360
D028
102
}
102
{ACAD_REACTORS
330
CFC5
102
}
330
CFC5
100
AcDbVisualStyle
  2
2dWireframe
 70
     4
 71
     0
 72
     2
 73
     0
 90
        0
 40
-0.6
 41
-30.0
 62
     5
 63
     7
 74
     1
 91
        4
 64
     7
 65
   257
 75
     1
175
     1
 42
1.0
 92
        0
 66
   257
 43
1.0
 76
     1
 77
     6
 78
     2
 67
     7
 79
     5
170
     0
171
     0
290
     0
174
     0
 93
        1
 44
0.0
173
     0
291
     0
 45
0.0
1001
ACAD
1000
AcDbSavedByObjectVersion
1070
     0
  0
VISUALSTYLE
  5
CFCA
102
{ACAD_XDICTIONARY
360
D026
102
}
102
{ACAD_REACTORS
330
CFC5
102
}
330
CFC5
100
AcDbVisualStyle
  2
Basic
 70
     7
 71
     1
 72
     0
 73
     1
 90
        0
 40
-0.6
 41
-30.0
 62
     5
 63
     7
 74
     0
 91
        4
 64
     7
 65
   257
 75
     1
175
     1
 42
1.0
 92
        8
 66
     7
 43
1.0
 76
     1
 77
     6
 78
     2
 67
     7
 79
     5
170
     0
171
     0
290
     0
174
     0
 93
        1
 44
0.0
173
     0
291
     1
 45
0.0
1001
ACAD
1000
AcDbSavedByObjectVersion
1070
     0
  0
VISUALSTYLE
  5
CFD1
102
{ACAD_XDICTIONARY
360
D034
102
}
102
{ACAD_REACTORS
330
CFC5
102
}
330
CFC5
100
AcDbVisualStyle
  2
Brighten
 70
    12
 71
     2
 72
     2
 73
     0
 90
        0
 40
-0.6
 41
-30.0
 62
     5
 63
     7
 74
     1
 91
        4
 64
     7
 65
   257
 75
     1
175
     1
 42
1.0
 92
        8
 66
     7
 43
1.0
 76
     1
 77
     6
 78
     2
 67
     7
 79
     5
170
     0
171
     0
290
     0
174
     0
 93
        1
 44
50.0
173
     0
291
     1
 45
0.0
1001
ACAD
1000
AcDbSavedByObjectVersion
1070
     0
  0
VISUALSTYLE
  5
CFD5
102
{ACAD_XDICTIONARY
360
D03C
102
}
102
{ACAD_REACTORS
330
CFC5
102
}
330
CFC5
100
AcDbVisualStyle
  2
ColorChange
 70
    16
 71
     2
 72
     2
 73
     3
 90
        0
 40
-0.6
 41
-30.0
 62
     5
 63
     8
 74
     1
 91
        4
 64
     7
 65
   257
 75
     1
175
     1
 42
1.0
 92
        8
 66
     8
 43
1.0
 76
     1
 77
     6
 78
     2
 67
     7
 79
     5
170
     0
171
     0
290
     0
174
     0
 93
        1
 44
0.0
173
     0
291
     1
 45
0.0
1001
ACAD
1000
AcDbSavedByObjectVersion
1070
     0
  0
VISUALSTYLE
  5
CFCE
102
{ACAD_XDICTIONARY
360
D02E
102
}
102
{ACAD_REACTORS
330
CFC5
102
}
330
CFC5
100
AcDbVisualStyle
  2
Conceptual
 70
     9
 71
     3
 72
     2
 73
     0
 90
        0
 40
-0.6
 41
-30.0
 62
     5
 63
     7
 74
     2
 91
        2
 64
     7
 65
   257
 75
     1
175
     1
 42
179.0
 92
        8
 66
     7
 43
1.0
 76
     1
 77
     6
 78
     2
 67
     7
 79
     3
170
     0
171
     0
290
     0
174
     0
 93
        1
 44
0.0
173
     0
291
     0
 45
0.0
1001
ACAD
1000
AcDbSavedByObjectVersion
1070
     0
  0
VISUALSTYLE
  5
CFD0
102
{ACAD_XDICTIONARY
360
D032
102
}
102
{ACAD_REACTORS
330
CFC5
102
}
330
CFC5
100
AcDbVisualStyle
  2
Dim
 70
    11
 71
     2
 72
     2
 73
     0
 90
        0
 40
-0.6
 41
-30.0
 62
     5
 63
     7
 74
     1
 91
        4
 64
     7
 65
   257
 75
     1
175
     1
 42
1.0
 92
        8
 66
     7
 43
1.0
 76
     1
 77
     6
 78
     2
 67
     7
 79
     5
170
     0
171
     0
290
     0
174
     0
 93
        1
 44
-50.0
173
     0
291
     1
 45
0.0
1001
ACAD
1000
AcDbSavedByObjectVersion
1070
     0
  0
VISUALSTYLE
  5
CFDD
102
{ACAD_XDICTIONARY
360
D04C
102
}
102
{ACAD_REACTORS
330
CFC5
102
}
330
CFC5
100
AcDbVisualStyle
  2
EdgeColorOff
 70
    22
 71
     2
 72
     2
 73
     0
 90
        0
 40
-0.6
 41
-30.0
 62
     5
 63
     7
 74
     1
 91
        4
 64
     7
 65
   257
 75
     1
175
     1
 42
1.0
 92
        8
 66
     7
 43
1.0
 76
     1
 77
     6
 78
     2
 67
     7
 79
     5
170
     0
171
     0
290
     0
174
     0
 93
        1
 44
0.0
173
     0
291
     1
 45
0.0
1001
ACAD
1000
AcDbSavedByObjectVersion
1070
     0
  0
VISUALSTYLE
  5
CFD4
102
{ACAD_XDICTIONARY
360
D03A
102
}
102
{ACAD_REACTORS
330
CFC5
102
}
330
CFC5
100
AcDbVisualStyle
  2
Facepattern
 70
    15
 71
     2
 72
     2
 73
     0
 90
        0
 40
-0.6
 41
-30.0
 62
     5
 63
     7
 74
     1
 91
        4
 64
     7
 65
   257
 75
     1
175
     1
 42
1.0
 92
        8
 66
     7
 43
1.0
 76
     1
 77
     6
 78
     2
 67
     7
 79
     5
170
     0
171
     0
290
     0
174
     0
 93
        1
 44
0.0
173
     0
291
     1
 45
0.0
1001
ACAD
1000
AcDbSavedByObjectVersion
1070
     0
  0
VISUALSTYLE
  5
CFC6
102
{ACAD_XDICTIONARY
360
D01E
102
}
102
{ACAD_REACTORS
330
CFC5
102
}
330
CFC5
100
AcDbVisualStyle
  2
Flat
 70
     0
 71
     2
 72
     1
 73
     1
 90
        2
 40
-0.6
 41
30.0
 62
     5
 63
     7
 74
     0
 91
        0
 64
     7
 65
   257
 75
     1
175
     1
 42
1.0
 92
        8
 66
     7
 43
1.0
 76
     1
 77
     6
 78
     2
 67
     7
 79
     5
170
     0
171
     0
290
     0
174
     0
 93
       13
 44
0.0
173
     0
291
     1
 45
0.0
1001
ACAD
1000
AcDbSavedByObjectVersion
1070
     0
  0
VISUALSTYLE
  5
CFC7
102
{ACAD_XDICTIONARY
360
D020
102
}
102
{ACAD_REACTORS
330
CFC5
102
}
330
CFC5
100
AcDbVisualStyle
  2
FlatWithEdges
 70
     1
 71
     2
 72
     1
 73
     1
 90
        2
 40
-0.6
 41
30.0
 62
     5
 63
     7
 74
     1
 91
        0
 64
     7
 65
   257
 75
     1
175
     1
 42
1.0
 92
        0
 66
   257
 43
1.0
 76
     1
 77
     6
 78
     2
 67
     7
 79
     5
170
     0
171
     0
290
     0
174
     0
 93
       13
 44
0.0
173
     0
291
     1
 45
0.0
1001
ACAD
1000
AcDbSavedByObjectVersion
1070
     0
  0
VISUALSTYLE
  5
CFC8
102
{ACAD_XDICTIONARY
360
D022
102
}
102
{ACAD_REACTORS
330
CFC5
102
}
330
CFC5
100
AcDbVisualStyle
  2
Gouraud
 70
     2
 71
     2
 72
     2
 73
     1
 90
        2
 40
-0.6
 41
30.0
 62
     5
 63
     7
 74
     0
 91
        0
 64
     7
 65
   257
 75
     1
175
     1
 42
1.0
 92
        0
 66
     7
 43
1.0
 76
     1
 77
     6
 78
     2
 67
     7
 79
     5
170
     0
171
     0
290
     0
174
     0
 93
       13
 44
0.0
173
     0
291
     1
 45
0.0
1001
ACAD
1000
AcDbSavedByObjectVersion
1070
     0
  0
VISUALSTYLE
  5
CFC9
102
{ACAD_XDICTIONARY
360
D024
102
}
102
{ACAD_REACTORS
330
CFC5
102
}
330
CFC5
100
AcDbVisualStyle
  2
GouraudWithEdges
 70
     3
 71
     2
 72
     2
 73
     1
 90
        2
 40
-0.6
 41
30.0
 62
     5
 63
     7
 74
     1
 91
        0
 64
     7
 65
   257
 75
     1
175
     1
 42
1.0
 92
        0
 66
   257
 43
1.0
 76
     1
 77
     6
 78
     2
 67
     7
 79
     5
170
     0
171
     0
290
     0
174
     0
 93
       13
 44
0.0
173
     0
291
     1
 45
0.0
1001
ACAD
1000
AcDbSavedByObjectVersion
1070
     0
  0
VISUALSTYLE
  5
CFCD
102
{ACAD_XDICTIONARY
360
D02C
102
}
102
{ACAD_REACTORS
330
CFC5
102
}
330
CFC5
100
AcDbVisualStyle
  2
Hidden
 70
     6
 71
     1
 72
     2
 73
     2
 90
        0
 40
-0.6
 41
-30.0
 62
     5
 63
     7
 74
     2
 91
        2
 64
     7
 65
   257
 75
     2
175
     1
 42
40.0
 92
        0
 66
   257
 43
1.0
 76
     1
 77
     6
 78
     2
 67
     7
 79
     3
170
     0
171
     0
290
     0
174
     0
 93
        1
 44
0.0
173
     0
291
     0
 45
0.0
1001
ACAD
1000
AcDbSavedByObjectVersion
1070
     0
  0
VISUALSTYLE
  5
CFDB
102
{ACAD_XDICTIONARY
360
D048
102
}
102
{ACAD_REACTORS
330
CFC5
102
}
330
CFC5
100
AcDbVisualStyle
  2
JitterOff
 70
    20
 71
     2
 72
     2
 73
     0
 90
        0
 40
-0.6
 41
-30.0
 62
     5
 63
     7
 74
     1
 91
        4
 64
     7
 65
   257
 75
     1
175
     1
 42
1.0
 92
       10
 66
     7
 43
1.0
 76
     1
 77
     6
 78
     2
 67
     7
 79
     5
170
     0
171
     0
290
     0
174
     0
 93
        1
 44
0.0
173
     0
291
     1
 45
0.0
1001
ACAD
1000
AcDbSavedByObjectVersion
1070
     0
  0
VISUALSTYLE
  5
CFD3
102
{ACAD_XDICTIONARY
360
D038
102
}
102
{ACAD_REACTORS
330
CFC5
102
}
330
CFC5
100
AcDbVisualStyle
  2
Linepattern
 70
    14
 71
     2
 72
     2
 73
     0
 90
        0
 40
-0.6
 41
-30.0
 62
     5
 63
     7
 74
     1
 91
        4
 64
     7
 65
   257
 75
     7
175
     7
 42
1.0
 92
        8
 66
     7
 43
1.0
 76
     1
 77
     6
 78
     2
 67
     7
 79
     5
170
     0
171
     0
290
     0
174
     0
 93
        1
 44
0.0
173
     0
291
     1
 45
0.0
1001
ACAD
1000
AcDbSavedByObjectVersion
1070
     0
  0
VISUALSTYLE
  5
CFDC
102
{ACAD_XDICTIONARY
360
D04A
102
}
102
{ACAD_REACTORS
330
CFC5
102
}
330
CFC5
100
AcDbVisualStyle
  2
OverhangOff
 70
    21
 71
     2
 72
     2
 73
     0
 90
        0
 40
-0.6
 41
-30.0
 62
     5
 63
     7
 74
     1
 91
        4
 64
     7
 65
   257
 75
     1
175
     1
 42
1.0
 92
        9
 66
     7
 43
1.0
 76
     1
 77
     6
 78
     2
 67
     7
 79
     5
170
     0
171
     0
290
     0
174
     0
 93
        1
 44
0.0
173
     0
291
     1
 45
0.0
1001
ACAD
1000
AcDbSavedByObjectVersion
1070
     0
  0
VISUALSTYLE
  5
CFCF
102
{ACAD_XDICTIONARY
360
D030
102
}
102
{ACAD_REACTORS
330
CFC5
102
}
330
CFC5
100
AcDbVisualStyle
  2
Realistic
 70
     8
 71
     2
 72
     3
 73
     0
 90
        2
 40
-0.6
 41
30.0
 62
     5
 63
     7
 74
     0
 91
        0
 64
     7
 65
   257
 75
     1
175
     1
 42
1.0
 92
        8
 66
   257
 43
1.0
 76
     1
 77
     6
 78
     2
 67
     7
 79
     3
170
     0
171
     0
290
     0
174
     0
 93
       13
 44
0.0
173
     0
291
     0
 45
0.0
1001
ACAD
1000
AcDbSavedByObjectVersion
1070
     0
  0
VISUALSTYLE
  5
CFDA
102
{ACAD_XDICTIONARY
360
D046
102
}
102
{ACAD_REACTORS
330
CFC5
102
}
330
CFC5
100
AcDbVisualStyle
  2
Shaded
 70
    27
 71
     2
 72
     2
 73
     1
 90
        2
 40
-0.6
 41
30.0
 62
     5
 63
     7
 74
     0
 91
        4
 64
     7
 65
   257
 75
     1
175
     1
 42
1.0
 92
        8
 66
   257
 43
1.0
 76
     1
 77
     6
 78
     2
 67
     8
 79
     3
170
     0
171
     0
290
     0
174
     0
 93
        5
 44
0.0
173
     0
291
     0
 45
0.0
1001
ACAD
1000
AcDbSavedByObjectVersion
1070
     0
  0
VISUALSTYLE
  5
CFD9
102
{ACAD_XDICTIONARY
360
D044
102
}
102
{ACAD_REACTORS
330
CFC5
102
}
330
CFC5
100
AcDbVisualStyle
  2
Shaded with edges
 70
    26
 71
     2
 72
     2
 73
     1
 90
        2
 40
-0.6
 41
30.0
 62
     5
 63
     7
 74
     1
 91
       10
 64
     7
 65
   257
 75
     2
175
     1
 42
1.0
 92
        8
 66
   257
 43
1.0
 76
     1
 77
     6
 78
     2
 67
     7
 79
     3
170
     0
171
     0
290
     0
174
     0
 93
        5
 44
0.0
173
     0
291
     0
 45
0.0
1001
ACAD
1000
AcDbSavedByObjectVersion
1070
     0
  0
VISUALSTYLE
  5
CFD6
102
{ACAD_XDICTIONARY
360
D03E
102
}
102
{ACAD_REACTORS
330
CFC5
102
}
330
CFC5
100
AcDbVisualStyle
  2
Shades of Gray
 70
    23
 71
     2
 72
     2
 73
     3
 90
        0
 40
-0.6
 41
-30.0
 62
     5
 63
     7
 74
     2
 91
        2
 64
     7
 65
     7
 75
     1
175
     1
 42
40.0
 92
        8
 66
     7
 43
1.0
 76
     1
 77
     6
 78
     2
 67
     7
 79
     3
170
     0
171
     0
290
     0
174
     0
 93
        1
 44
0.0
173
     0
291
     0
 45
0.0
1001
ACAD
1000
AcDbSavedByObjectVersion
1070
     0
  0
VISUALSTYLE
  5
CFD7
102
{ACAD_XDICTIONARY
360
D040
102
}
102
{ACAD_REACTORS
330
CFC5
102
}
330
CFC5
100
AcDbVisualStyle
  2
Sketchy
 70
    24
 71
     1
 72
     2
 73
     2
 90
        0
 40
-0.6
 41
-30.0
 62
     5
 63
     7
 74
     2
 91
        2
 64
     7
 65
     7
 75
     1
175
     1
 42
40.0
 92
       11
 66
     7
 43
1.0
 76
     1
 77
     6
 78
     2
 67
     7
 79
     6
170
     0
171
     0
290
     0
174
     0
 93
        1
 44
0.0
173
     0
291
     0
 45
0.0
1001
ACAD
1000
AcDbSavedByObjectVersion
1070
     0
  0
VISUALSTYLE
  5
CFD2
102
{ACAD_XDICTIONARY
360
D036
102
}
102
{ACAD_REACTORS
330
CFC5
102
}
330
CFC5
100
AcDbVisualStyle
  2
Thicken
 70
    13
 71
     2
 72
     2
 73
     0
 90
        0
 40
-0.6
 41
-30.0
 62
     5
 63
     7
 74
     1
 91
        4
 64
     7
 65
   257
 75
     1
175
     1
 42
1.0
 92
       12
 66
     7
 43
1.0
 76
     1
 77
     6
 78
     2
 67
     7
 79
     5
170
     0
171
     0
290
     0
174
     0
 93
        1
 44
0.0
173
     0
291
     1
 45
0.0
1001
ACAD
1000
AcDbSavedByObjectVersion
1070
     0
  0
VISUALSTYLE
  5
CFCC
102
{ACAD_XDICTIONARY
360
D02A
102
}
102
{ACAD_REACTORS
330
CFC5
102
}
330
CFC5
100
AcDbVisualStyle
  2
Wireframe
 70
     5
 71
     0
 72
     2
 73
     0
 90
        0
 40
-0.6
 41
-30.0
 62
     5
 63
     7
 74
     1
 91
        4
 64
     7
 65
   257
 75
     1
175
     1
 42
1.0
 92
        0
 66
   257
 43
1.0
 76
     1
 77
     6
 78
     2
 67
     7
 79
     3
170
     0
171
     0
290
     0
174
     0
 93
        1
 44
0.0
173
     0
291
     0
 45
0.0
1001
ACAD
1000
AcDbSavedByObjectVersion
1070
     0
  0
VISUALSTYLE
  5
CFD8
102
{ACAD_XDICTIONARY
360
D042
102
}
102
{ACAD_REACTORS
330
CFC5
102
}
330
CFC5
100
AcDbVisualStyle
  2
X-Ray
 70
    25
 71
     2
 72
     2
 73
     1
 90
        1
 40
0.5
 41
-30.0
 62
     5
 63
     7
 74
     1
 91
        0
 64
     7
 65
   257
 75
     1
175
     1
 42
1.0
 92
        8
 66
     7
 43
1.0
 76
     1
 77
     6
 78
     2
 67
     7
 79
     3
170
     0
171
     0
290
     0
174
     0
 93
       13
 44
0.0
173
     0
291
     0
 45
0.0
1001
ACAD
1000
AcDbSavedByObjectVersion
1070
     0
  0
DICTIONARYVAR
  5
D011
102
{ACAD_REACTORS
330
D00C
102
}
330
D00C
100
DictionaryVariables
280
     0
  1
1:1
  0
DICTIONARYVAR
  5
D00E
102
{ACAD_REACTORS
330
D00C
102
}
330
D00C
100
DictionaryVariables
280
     0
  1
STANDARD
  0
DICTIONARYVAR
  5
D00D
102
{ACAD_REACTORS
330
D00C
102
}
330
D00C
100
DictionaryVariables
280
     0
  1
STANDARD
  0
DICTIONARYVAR
  5
D00F
102
{ACAD_REACTORS
330
D00C
102
}
330
D00C
100
DictionaryVariables
280
     0
  1
Imperial24
  0
DICTIONARYVAR
  5
D010
102
{ACAD_REACTORS
330
D00C
102
}
330
D00C
100
DictionaryVariables
280
     0
  1
Imperial24
  0
DICTIONARYVAR
  5
D014
102
{ACAD_REACTORS
330
D00C
102
}
330
D00C
100
DictionaryVariables
280
     0
  1
1
  0
DICTIONARYVAR
  5
D013
102
{ACAD_REACTORS
330
D00C
102
}
330
D00C
100
DictionaryVariables
280
     0
  1
0
  0
DICTIONARYVAR
  5
D012
102
{ACAD_REACTORS
330
D00C
102
}
330
D00C
100
DictionaryVariables
280
     0
  1
127
  0
DICTIONARYVAR
  5
D015
102
{ACAD_REACTORS
330
D00C
102
}
330
D00C
100
DictionaryVariables
280
     0
  1
2
  0
DICTIONARY
  5
D052
330
CFF8
100
AcDbDictionary
280
     1
281
     1
  3
ACAD_XREC_ROUNDTRIP
360
D053
  0
DICTIONARY
  5
D054
330
CFF9
100
AcDbDictionary
280
     1
281
     1
  3
ACAD_XREC_ROUNDTRIP
360
D055
  0
DICTIONARY
  5
D056
330
CFFA
100
AcDbDictionary
280
     1
281
     1
  3
ACAD_XREC_ROUNDTRIP
360
D057
  0
DICTIONARY
  5
CFB6
330
CFB5
100
AcDbDictionary
280
     1
281
     1
  3
ACAD_XREC_ROUNDTRIP
360
D01C
  3
BUMPTILE
360
CFB8
  3
DIFFUSETILE
360
CFB7
  3
OPACITYTILE
360
CFBB
  3
REFLECTIONTILE
360
CFBA
  3
REFRACTIONTILE
360
CFBC
  3
SPECULARTILE
360
CFB9
  0
DICTIONARY
  5
CFAE
330
CFAD
100
AcDbDictionary
280
     1
281
     1
  3
ACAD_XREC_ROUNDTRIP
360
D01B
  3
BUMPTILE
360
CFB0
  3
DIFFUSETILE
360
CFAF
  3
OPACITYTILE
360
CFB3
  3
REFLECTIONTILE
360
CFB2
  3
REFRACTIONTILE
360
CFB4
  3
SPECULARTILE
360
CFB1
  0
DICTIONARY
  5
CFBE
330
CFBD
100
AcDbDictionary
280
     1
281
     1
  3
ACAD_XREC_ROUNDTRIP
360
D01D
  3
BUMPTILE
360
CFC0
  3
DIFFUSETILE
360
CFBF
  3
OPACITYTILE
360
CFC3
  3
REFLECTIONTILE
360
CFC2
  3
REFRACTIONTILE
360
CFC4
  3
SPECULARTILE
360
CFC1
  0
DICTIONARY
  5
D050
330
CFF6
100
AcDbDictionary
280
     1
281
     1
  3
ACAD_XREC_ROUNDTRIP
360
D051
  0
DICTIONARY
  5
D017
330
CFE0
100
AcDbDictionary
280
     1
281
     1
  3
ACAD_ROUNDTRIP_2008_TABLESTYLE_CELLSTYLEMAP
360
D018
  3
ACAD_XREC_ROUNDTRIP
360
D04E
  0
DICTIONARY
  5
D028
330
CFCB
100
AcDbDictionary
280
     1
281
     1
  3
ACAD_XREC_ROUNDTRIP
360
D029
  0
DICTIONARY
  5
D026
330
CFCA
100
AcDbDictionary
280
     1
281
     1
  3
ACAD_XREC_ROUNDTRIP
360
D027
  0
DICTIONARY
  5
D034
330
CFD1
100
AcDbDictionary
280
     1
281
     1
  3
ACAD_XREC_ROUNDTRIP
360
D035
  0
DICTIONARY
  5
D03C
330
CFD5
100
AcDbDictionary
280
     1
281
     1
  3
ACAD_XREC_ROUNDTRIP
360
D03D
  0
DICTIONARY
  5
D02E
330
CFCE
100
AcDbDictionary
280
     1
281
     1
  3
ACAD_XREC_ROUNDTRIP
360
D02F
  0
DICTIONARY
  5
D032
330
CFD0
100
AcDbDictionary
280
     1
281
     1
  3
ACAD_XREC_ROUNDTRIP
360
D033
  0
DICTIONARY
  5
D04C
330
CFDD
100
AcDbDictionary
280
     1
281
     1
  3
ACAD_XREC_ROUNDTRIP
360
D04D
  0
DICTIONARY
  5
D03A
330
CFD4
100
AcDbDictionary
280
     1
281
     1
  3
ACAD_XREC_ROUNDTRIP
360
D03B
  0
DICTIONARY
  5
D01E
330
CFC6
100
AcDbDictionary
280
     1
281
     1
  3
ACAD_XREC_ROUNDTRIP
360
D01F
  0
DICTIONARY
  5
D020
330
CFC7
100
AcDbDictionary
280
     1
281
     1
  3
ACAD_XREC_ROUNDTRIP
360
D021
  0
DICTIONARY
  5
D022
330
CFC8
100
AcDbDictionary
280
     1
281
     1
  3
ACAD_XREC_ROUNDTRIP
360
D023
  0
DICTIONARY
  5
D024
330
CFC9
100
AcDbDictionary
280
     1
281
     1
  3
ACAD_XREC_ROUNDTRIP
360
D025
  0
DICTIONARY
  5
D02C
330
CFCD
100
AcDbDictionary
280
     1
281
     1
  3
ACAD_XREC_ROUNDTRIP
360
D02D
  0
DICTIONARY
  5
D048
330
CFDB
100
AcDbDictionary
280
     1
281
     1
  3
ACAD_XREC_ROUNDTRIP
360
D049
  0
DICTIONARY
  5
D038
330
CFD3
100
AcDbDictionary
280
     1
281
     1
  3
ACAD_XREC_ROUNDTRIP
360
D039
  0
DICTIONARY
  5
D04A
330
CFDC
100
AcDbDictionary
280
     1
281
     1
  3
ACAD_XREC_ROUNDTRIP
360
D04B
  0
DICTIONARY
  5
D030
330
CFCF
100
AcDbDictionary
280
     1
281
     1
  3
ACAD_XREC_ROUNDTRIP
360
D031
  0
DICTIONARY
  5
D046
330
CFDA
100
AcDbDictionary
280
     1
281
     1
  3
ACAD_XREC_ROUNDTRIP
360
D047
  0
DICTIONARY
  5
D044
330
CFD9
100
AcDbDictionary
280
     1
281
     1
  3
ACAD_XREC_ROUNDTRIP
360
D045
  0
DICTIONARY
  5
D03E
330
CFD6
100
AcDbDictionary
280
     1
281
     1
  3
ACAD_XREC_ROUNDTRIP
360
D03F
  0
DICTIONARY
  5
D040
330
CFD7
100
AcDbDictionary
280
     1
281
     1
  3
ACAD_XREC_ROUNDTRIP
360
D041
  0
DICTIONARY
  5
D036
330
CFD2
100
AcDbDictionary
280
     1
281
     1
  3
ACAD_XREC_ROUNDTRIP
360
D037
  0
DICTIONARY
  5
D02A
330
CFCC
100
AcDbDictionary
280
     1
281
     1
  3
ACAD_XREC_ROUNDTRIP
360
D02B
  0
DICTIONARY
  5
D042
330
CFD8
100
AcDbDictionary
280
     1
281
     1
  3
ACAD_XREC_ROUNDTRIP
360
D043
  0
XRECORD
  5
D053
102
{ACAD_REACTORS
330
D052
102
}
330
D052
100
AcDbXrecord
280
     1
102
DISPLAYNAME
  1
Imperial24
102
FLAGS
 90
        0
  0
XRECORD
  5
D055
102
{ACAD_REACTORS
330
D054
102
}
330
D054
100
AcDbXrecord
280
     1
102
SHADEPLOT
 70
     0
102
SHADEPLOTRESLEVEL
 70
     2
102
SHADEPLOTCUSTOMDPI
 70
   300
  0
XRECORD
  5
D057
102
{ACAD_REACTORS
330
D056
102
}
330
D056
100
AcDbXrecord
280
     1
102
SHADEPLOT
 70
     0
102
SHADEPLOTRESLEVEL
 70
     2
102
SHADEPLOTCUSTOMDPI
 70
   300
  0
XRECORD
  5
D01C
102
{ACAD_REACTORS
330
CFB6
102
}
330
CFB6
100
AcDbXrecord
280
     1
102
MATERIAL
148
0.0
149
0.0
149
0.0
 93
        0
 94
      127
282
     0
 72
     0
 77
     0
171
     0
175
     0
179
     0
273
     0
  0
XRECORD
  5
CFB8
102
{ACAD_REACTORS
330
CFB6
102
}
330
CFB6
100
AcDbXrecord
280
     1
270
     1
271
     1
  0
XRECORD
  5
CFB7
102
{ACAD_REACTORS
330
CFB6
102
}
330
CFB6
100
AcDbXrecord
280
     1
270
     1
271
     1
  0
XRECORD
  5
CFBB
102
{ACAD_REACTORS
330
CFB6
102
}
330
CFB6
100
AcDbXrecord
280
     1
270
     1
271
     1
  0
XRECORD
  5
CFBA
102
{ACAD_REACTORS
330
CFB6
102
}
330
CFB6
100
AcDbXrecord
280
     1
270
     1
271
     1
  0
XRECORD
  5
CFBC
102
{ACAD_REACTORS
330
CFB6
102
}
330
CFB6
100
AcDbXrecord
280
     1
270
     1
271
     1
  0
XRECORD
  5
CFB9
102
{ACAD_REACTORS
330
CFB6
102
}
330
CFB6
100
AcDbXrecord
280
     1
270
     1
271
     1
  0
XRECORD
  5
D01B
102
{ACAD_REACTORS
330
CFAE
102
}
330
CFAE
100
AcDbXrecord
280
     1
102
MATERIAL
148
0.0
149
0.0
149
0.0
 93
        0
 94
      127
282
     0
 72
     0
 77
     0
171
     0
175
     0
179
     0
273
     0
  0
XRECORD
  5
CFB0
102
{ACAD_REACTORS
330
CFAE
102
}
330
CFAE
100
AcDbXrecord
280
     1
270
     1
271
     1
  0
XRECORD
  5
CFAF
102
{ACAD_REACTORS
330
CFAE
102
}
330
CFAE
100
AcDbXrecord
280
     1
270
     1
271
     1
  0
XRECORD
  5
CFB3
102
{ACAD_REACTORS
330
CFAE
102
}
330
CFAE
100
AcDbXrecord
280
     1
270
     1
271
     1
  0
XRECORD
  5
CFB2
102
{ACAD_REACTORS
330
CFAE
102
}
330
CFAE
100
AcDbXrecord
280
     1
270
     1
271
     1
  0
XRECORD
  5
CFB4
102
{ACAD_REACTORS
330
CFAE
102
}
330
CFAE
100
AcDbXrecord
280
     1
270
     1
271
     1
  0
XRECORD
  5
CFB1
102
{ACAD_REACTORS
330
CFAE
102
}
330
CFAE
100
AcDbXrecord
280
     1
270
     1
271
     1
  0
XRECORD
  5
D01D
102
{ACAD_REACTORS
330
CFBE
102
}
330
CFBE
100
AcDbXrecord
280
     1
102
MATERIAL
148
0.0
149
0.0
149
0.0
 93
        0
 94
      127
282
     0
 72
     0
 77
     0
171
     0
175
     0
179
     0
273
     0
  0
XRECORD
  5
CFC0
102
{ACAD_REACTORS
330
CFBE
102
}
330
CFBE
100
AcDbXrecord
280
     1
270
     1
271
     1
  0
XRECORD
  5
CFBF
102
{ACAD_REACTORS
330
CFBE
102
}
330
CFBE
100
AcDbXrecord
280
     1
270
     1
271
     1
  0
XRECORD
  5
CFC3
102
{ACAD_REACTORS
330
CFBE
102
}
330
CFBE
100
AcDbXrecord
280
     1
270
     1
271
     1
  0
XRECORD
  5
CFC2
102
{ACAD_REACTORS
330
CFBE
102
}
330
CFBE
100
AcDbXrecord
280
     1
270
     1
271
     1
  0
XRECORD
  5
CFC4
102
{ACAD_REACTORS
330
CFBE
102
}
330
CFBE
100
AcDbXrecord
280
     1
270
     1
271
     1
  0
XRECORD
  5
CFC1
102
{ACAD_REACTORS
330
CFBE
102
}
330
CFBE
100
AcDbXrecord
280
     1
270
     1
271
     1
  0
XRECORD
  5
D051
102
{ACAD_REACTORS
330
D050
102
}
330
D050
100
AcDbXrecord
280
     1
102
DISPLAYNAME
  1
Imperial24
102
FLAGS
 90
        0
  0
CELLSTYLEMAP
  5
D018
102
{ACAD_REACTORS
330
D017
102
}
330
D017
100
AcDbCellStyleMap
 90
        3
300
CELLSTYLE
  1
TABLEFORMAT_BEGIN
 90
        5
170
     1
 91
        0
 92
    32768
 62
   257
 93
        1
300
CONTENTFORMAT
  1
CONTENTFORMAT_BEGIN
 90
        0
 91
        0
 92
      512
 93
        0
300

 40
0.0
140
1.0
 94
        5
 62
     0
340
F
144
0.25
309
CONTENTFORMAT_END
171
     0
 94
        0
309
TABLEFORMAT_END
  1
CELLSTYLE_BEGIN
 90
        1
 91
        1
300
_TITLE
309
CELLSTYLE_END
300
CELLSTYLE
  1
TABLEFORMAT_BEGIN
 90
        5
170
     1
 91
        0
 92
        0
 62
   257
 93
        1
300
CONTENTFORMAT
  1
CONTENTFORMAT_BEGIN
 90
        0
 91
        0
 92
      512
 93
        0
300

 40
0.0
140
1.0
 94
        5
 62
     0
340
F
144
0.18
309
CONTENTFORMAT_END
171
     0
 94
        0
309
TABLEFORMAT_END
  1
CELLSTYLE_BEGIN
 90
        2
 91
        1
300
_HEADER
309
CELLSTYLE_END
300
CELLSTYLE
  1
TABLEFORMAT_BEGIN
 90
        5
170
     1
 91
        0
 92
        0
 62
   257
 93
        1
300
CONTENTFORMAT
  1
CONTENTFORMAT_BEGIN
 90
        0
 91
        0
 92
      512
 93
        0
300

 40
0.0
140
1.0
 94
        2
 62
     0
340
F
144
0.18
309
CONTENTFORMAT_END
171
     0
 94
        0
309
TABLEFORMAT_END
  1
CELLSTYLE_BEGIN
 90
        3
 91
        2
300
_DATA
309
CELLSTYLE_END
  0
XRECORD
  5
D04E
102
{ACAD_REACTORS
330
D017
102
}
330
D017
100
AcDbXrecord
280
     1
102
ACAD_ROUNDTRIP_PRE2007_TABLESTYLE
 90
      512
 91
        0
  1

 92
      512
 93
        0
  2

 94
      512
 95
        0
  3

  0
XRECORD
  5
D029
102
{ACAD_REACTORS
330
D028
102
}
330
D028
100
AcDbXrecord
280
     1
102
RTVSPost2010Prop28
280
     1
102
RTVSPost2010PropOp28
 70
     1
102
RTVSPost2010Prop29
280
     1
102
RTVSPost2010PropOp29
 70
     1
102
RTVSPost2010Prop30
280
     0
102
RTVSPost2010PropOp30
 70
     1
102
RTVSPost2010Prop31
280
     0
102
RTVSPost2010PropOp31
 70
     1
102
RTVSPost2010Prop32
280
     0
102
RTVSPost2010PropOp32
 70
     1
102
RTVSPost2010Prop33
280
     0
102
RTVSPost2010PropOp33
 70
     1
102
RTVSPost2010Prop34
280
     0
102
RTVSPost2010PropOp34
 70
     1
102
RTVSPost2010Prop35
280
     0
102
RTVSPost2010PropOp35
 70
     1
102
RTVSPost2010Prop36
280
     0
102
RTVSPost2010PropOp36
 70
     1
102
RTVSPost2010Prop37
 90
       50
102
RTVSPost2010PropOp37
 70
     1
102
RTVSPost2010Prop38
140
0.0
102
RTVSPost2010PropOp38
 70
     1
102
RTVSPost2010Prop39
140
1.0
102
RTVSPost2010PropOp39
 70
     1
102
RTVSPost2010Prop40
 90
        0
102
RTVSPost2010PropOp40
 70
     1
102
RTVSPost2010Prop41ColorIndex
 90
       18
102
RTVSPost2010Prop41ColorRGB
 90
        0
102
RTVSPost2010PropOp41
 70
     1
102
RTVSPost2010Prop42
 90
       50
102
RTVSPost2010PropOp42
 70
     1
102
RTVSPost2010Prop43
 90
        3
102
RTVSPost2010PropOp43
 70
     1
102
RTVSPost2010Prop44ColorIndex
 90
        5
102
RTVSPost2010Prop44ColorRGB
 90
      255
102
RTVSPost2010PropOp44
 70
     1
102
RTVSPost2010Prop45
280
     0
102
RTVSPost2010PropOp45
 70
     1
102
RTVSPost2010Prop46
 90
       50
102
RTVSPost2010PropOp46
 70
     1
102
RTVSPost2010Prop47
 90
       50
102
RTVSPost2010PropOp47
 70
     1
102
RTVSPost2010Prop48
 90
       50
102
RTVSPost2010PropOp48
 70
     1
102
RTVSPost2010Prop49
280
     0
102
RTVSPost2010PropOp49
 70
     1
102
RTVSPost2010Prop50
 90
       50
102
RTVSPost2010PropOp50
 70
     1
102
RTVSPost2010Prop51ColorIndex
 90
      256
102
RTVSPost2010Prop51ColorRGB
 90
-16777216
102
RTVSPost2010PropOp51
 70
     0
102
RTVSPost2010Prop52
140
1.0
102
RTVSPost2010PropOp52
 70
     0
102
RTVSPost2010Prop53
 90
        2
102
RTVSPost2010PropOp53
 70
     1
102
RTVSPost2010Prop54
  1
strokes_ogs.tif
102
RTVSPost2010PropOp54
 70
     1
102
RTVSPost2010Prop55
280
     0
102
RTVSPost2010PropOp55
 70
     1
102
RTVSPost2010Prop56
140
1.0
102
RTVSPost2010PropOp56
 70
     1
102
RTVSPost2010Prop57
140
1.0
102
RTVSPost2010PropOp57
 70
     1
102
RTVSPropertyOp0
 70
     1
102
RTVSPropertyOp1
 70
     1
102
RTVSPropertyOp2
 70
     1
102
RTVSPropertyOp3
 70
     1
102
RTVSPropertyOp4
 70
     1
102
RTVSPropertyOp5
 70
     1
102
RTVSPropertyOp6
 70
     1
102
RTVSPropertyOp7
 70
     1
102
RTVSPropertyOp8
 70
     1
102
RTVSPropertyOp9
 70
     1
102
RTVSPropertyOp10
 70
     1
102
RTVSPropertyOp11
 70
     1
102
RTVSPropertyOp12
 70
     1
102
RTVSPropertyOp13
 70
     1
102
RTVSPropertyOp14
 70
     1
102
RTVSPropertyOp15
 70
     1
102
RTVSPropertyOp16
 70
     1
102
RTVSPropertyOp17
 70
     1
102
RTVSPropertyOp18
 70
     1
102
RTVSPropertyOp19
 70
     1
102
RTVSPropertyOp20
 70
     1
102
RTVSPropertyOp21
 70
     1
102
RTVSPropertyOp22
 70
     1
102
RTVSPropertyOp23
 70
     1
102
RTVSPropertyOp24
 70
     1
102
RTVSPropertyOp25
 70
     1
102
RTVSPropertyOp26
 70
     1
102
RTVSPropertyOp27
 70
     1
102
RTVSPropertyOp28
 70
     1
102
RTVSPropertyOp29
 70
     1
102
RTVSPropertyOp30
 70
     1
102
RTVSPropertyOp31
 70
     1
102
RTVSPropertyOp32
 70
     1
102
RTVSPropertyOp33
 70
     1
102
RTVSPropertyOp34
 70
     1
102
RTVSPropertyOp35
 70
     1
102
RTVSPropertyOp36
 70
     1
102
RTVSPropertyOp37
 70
     1
102
RTVSPropertyOp38
 70
     1
102
RTVSPropertyOp39
 70
     1
102
RTVSPropertyOp40
 70
     1
102
RTVSPropertyOp41
 70
     1
102
RTVSPropertyOp42
 70
     1
102
RTVSPropertyOp43
 70
     1
102
RTVSPropertyOp44
 70
     1
102
RTVSPropertyOp45
 70
     1
102
RTVSPropertyOp46
 70
     1
102
RTVSPropertyOp47
 70
     1
102
RTVSPropertyOp48
 70
     1
102
RTVSPropertyOp49
 70
     1
102
RTVSPropertyOp50
 70
     1
102
RTVSPropertyOp51
 70
     0
102
RTVSPropertyOp52
 70
     0
102
RTVSPropertyOp53
 70
     1
102
RTVSPropertyOp54
 70
     1
102
RTVSPropertyOp55
 70
     1
102
RTVSPropertyOp56
 70
     1
102
RTVSPropertyOp57
 70
     1
102
RTVSPropertyOp58
 70
     1
102
RTVSPropertyOp59
 70
     1
102
RTVSPropertyOp60
 70
     1
102
RTVSPropertyOp61
 70
     1
102
RTVSPropertyOp62
 70
     1
  0
XRECORD
  5
D027
102
{ACAD_REACTORS
330
D026
102
}
330
D026
100
AcDbXrecord
280
     1
102
RTVSPost2010Prop28
280
     0
102
RTVSPost2010PropOp28
 70
     1
102
RTVSPost2010Prop29
280
     1
102
RTVSPost2010PropOp29
 70
     1
102
RTVSPost2010Prop30
280
     1
102
RTVSPost2010PropOp30
 70
     1
102
RTVSPost2010Prop31
280
     0
102
RTVSPost2010PropOp31
 70
     1
102
RTVSPost2010Prop32
280
     0
102
RTVSPost2010PropOp32
 70
     1
102
RTVSPost2010Prop33
280
     0
102
RTVSPost2010PropOp33
 70
     1
102
RTVSPost2010Prop34
280
     0
102
RTVSPost2010PropOp34
 70
     1
102
RTVSPost2010Prop35
280
     0
102
RTVSPost2010PropOp35
 70
     1
102
RTVSPost2010Prop36
280
     0
102
RTVSPost2010PropOp36
 70
     1
102
RTVSPost2010Prop37
 90
       50
102
RTVSPost2010PropOp37
 70
     1
102
RTVSPost2010Prop38
140
0.0
102
RTVSPost2010PropOp38
 70
     1
102
RTVSPost2010Prop39
140
1.0
102
RTVSPost2010PropOp39
 70
     1
102
RTVSPost2010Prop40
 90
        0
102
RTVSPost2010PropOp40
 70
     1
102
RTVSPost2010Prop41ColorIndex
 90
       18
102
RTVSPost2010Prop41ColorRGB
 90
        0
102
RTVSPost2010PropOp41
 70
     1
102
RTVSPost2010Prop42
 90
       50
102
RTVSPost2010PropOp42
 70
     1
102
RTVSPost2010Prop43
 90
        3
102
RTVSPost2010PropOp43
 70
     1
102
RTVSPost2010Prop44ColorIndex
 90
        5
102
RTVSPost2010Prop44ColorRGB
 90
      255
102
RTVSPost2010PropOp44
 70
     1
102
RTVSPost2010Prop45
280
     0
102
RTVSPost2010PropOp45
 70
     1
102
RTVSPost2010Prop46
 90
       50
102
RTVSPost2010PropOp46
 70
     1
102
RTVSPost2010Prop47
 90
       50
102
RTVSPost2010PropOp47
 70
     1
102
RTVSPost2010Prop48
 90
       50
102
RTVSPost2010PropOp48
 70
     1
102
RTVSPost2010Prop49
280
     0
102
RTVSPost2010PropOp49
 70
     1
102
RTVSPost2010Prop50
 90
       50
102
RTVSPost2010PropOp50
 70
     1
102
RTVSPost2010Prop51ColorIndex
 90
      256
102
RTVSPost2010Prop51ColorRGB
 90
-16777216
102
RTVSPost2010PropOp51
 70
     0
102
RTVSPost2010Prop52
140
1.0
102
RTVSPost2010PropOp52
 70
     0
102
RTVSPost2010Prop53
 90
        2
102
RTVSPost2010PropOp53
 70
     1
102
RTVSPost2010Prop54
  1
strokes_ogs.tif
102
RTVSPost2010PropOp54
 70
     1
102
RTVSPost2010Prop55
280
     0
102
RTVSPost2010PropOp55
 70
     1
102
RTVSPost2010Prop56
140
1.0
102
RTVSPost2010PropOp56
 70
     1
102
RTVSPost2010Prop57
140
1.0
102
RTVSPost2010PropOp57
 70
     1
102
RTVSPropertyOp0
 70
     1
102
RTVSPropertyOp1
 70
     1
102
RTVSPropertyOp2
 70
     1
102
RTVSPropertyOp3
 70
     1
102
RTVSPropertyOp4
 70
     1
102
RTVSPropertyOp5
 70
     1
102
RTVSPropertyOp6
 70
     1
102
RTVSPropertyOp7
 70
     1
102
RTVSPropertyOp8
 70
     1
102
RTVSPropertyOp9
 70
     1
102
RTVSPropertyOp10
 70
     1
102
RTVSPropertyOp11
 70
     1
102
RTVSPropertyOp12
 70
     1
102
RTVSPropertyOp13
 70
     1
102
RTVSPropertyOp14
 70
     1
102
RTVSPropertyOp15
 70
     1
102
RTVSPropertyOp16
 70
     1
102
RTVSPropertyOp17
 70
     1
102
RTVSPropertyOp18
 70
     1
102
RTVSPropertyOp19
 70
     1
102
RTVSPropertyOp20
 70
     1
102
RTVSPropertyOp21
 70
     1
102
RTVSPropertyOp22
 70
     1
102
RTVSPropertyOp23
 70
     1
102
RTVSPropertyOp24
 70
     1
102
RTVSPropertyOp25
 70
     1
102
RTVSPropertyOp26
 70
     1
102
RTVSPropertyOp27
 70
     1
102
RTVSPropertyOp28
 70
     1
102
RTVSPropertyOp29
 70
     1
102
RTVSPropertyOp30
 70
     1
102
RTVSPropertyOp31
 70
     1
102
RTVSPropertyOp32
 70
     1
102
RTVSPropertyOp33
 70
     1
102
RTVSPropertyOp34
 70
     1
102
RTVSPropertyOp35
 70
     1
102
RTVSPropertyOp36
 70
     1
102
RTVSPropertyOp37
 70
     1
102
RTVSPropertyOp38
 70
     1
102
RTVSPropertyOp39
 70
     1
102
RTVSPropertyOp40
 70
     1
102
RTVSPropertyOp41
 70
     1
102
RTVSPropertyOp42
 70
     1
102
RTVSPropertyOp43
 70
     1
102
RTVSPropertyOp44
 70
     1
102
RTVSPropertyOp45
 70
     1
102
RTVSPropertyOp46
 70
     1
102
RTVSPropertyOp47
 70
     1
102
RTVSPropertyOp48
 70
     1
102
RTVSPropertyOp49
 70
     1
102
RTVSPropertyOp50
 70
     1
102
RTVSPropertyOp51
 70
     0
102
RTVSPropertyOp52
 70
     0
102
RTVSPropertyOp53
 70
     1
102
RTVSPropertyOp54
 70
     1
102
RTVSPropertyOp55
 70
     1
102
RTVSPropertyOp56
 70
     1
102
RTVSPropertyOp57
 70
     1
102
RTVSPropertyOp58
 70
     1
102
RTVSPropertyOp59
 70
     1
102
RTVSPropertyOp60
 70
     1
102
RTVSPropertyOp61
 70
     1
102
RTVSPropertyOp62
 70
     1
  0
XRECORD
  5
D035
102
{ACAD_REACTORS
330
D034
102
}
330
D034
100
AcDbXrecord
280
     1
102
RTVSPost2010Prop28
280
     0
102
RTVSPost2010PropOp28
 70
     1
102
RTVSPost2010Prop29
280
     1
102
RTVSPost2010PropOp29
 70
     1
102
RTVSPost2010Prop30
280
     1
102
RTVSPost2010PropOp30
 70
     1
102
RTVSPost2010Prop31
280
     0
102
RTVSPost2010PropOp31
 70
     1
102
RTVSPost2010Prop32
280
     0
102
RTVSPost2010PropOp32
 70
     1
102
RTVSPost2010Prop33
280
     0
102
RTVSPost2010PropOp33
 70
     1
102
RTVSPost2010Prop34
280
     0
102
RTVSPost2010PropOp34
 70
     1
102
RTVSPost2010Prop35
280
     0
102
RTVSPost2010PropOp35
 70
     1
102
RTVSPost2010Prop36
280
     0
102
RTVSPost2010PropOp36
 70
     1
102
RTVSPost2010Prop37
 90
       50
102
RTVSPost2010PropOp37
 70
     1
102
RTVSPost2010Prop38
140
0.0
102
RTVSPost2010PropOp38
 70
     1
102
RTVSPost2010Prop39
140
1.0
102
RTVSPost2010PropOp39
 70
     1
102
RTVSPost2010Prop40
 90
        0
102
RTVSPost2010PropOp40
 70
     1
102
RTVSPost2010Prop41ColorIndex
 90
       18
102
RTVSPost2010Prop41ColorRGB
 90
        0
102
RTVSPost2010PropOp41
 70
     1
102
RTVSPost2010Prop42
 90
       50
102
RTVSPost2010PropOp42
 70
     1
102
RTVSPost2010Prop43
 90
        3
102
RTVSPost2010PropOp43
 70
     1
102
RTVSPost2010Prop44ColorIndex
 90
        5
102
RTVSPost2010Prop44ColorRGB
 90
      255
102
RTVSPost2010PropOp44
 70
     1
102
RTVSPost2010Prop45
280
     0
102
RTVSPost2010PropOp45
 70
     1
102
RTVSPost2010Prop46
 90
       50
102
RTVSPost2010PropOp46
 70
     1
102
RTVSPost2010Prop47
 90
       50
102
RTVSPost2010PropOp47
 70
     1
102
RTVSPost2010Prop48
 90
       50
102
RTVSPost2010PropOp48
 70
     1
102
RTVSPost2010Prop49
280
     0
102
RTVSPost2010PropOp49
 70
     1
102
RTVSPost2010Prop50
 90
       50
102
RTVSPost2010PropOp50
 70
     1
102
RTVSPost2010Prop51ColorIndex
 90
      256
102
RTVSPost2010Prop51ColorRGB
 90
-16777216
102
RTVSPost2010PropOp51
 70
     0
102
RTVSPost2010Prop52
140
1.0
102
RTVSPost2010PropOp52
 70
     0
102
RTVSPost2010Prop53
 90
        2
102
RTVSPost2010PropOp53
 70
     1
102
RTVSPost2010Prop54
  1
strokes_ogs.tif
102
RTVSPost2010PropOp54
 70
     1
102
RTVSPost2010Prop55
280
     0
102
RTVSPost2010PropOp55
 70
     1
102
RTVSPost2010Prop56
140
1.0
102
RTVSPost2010PropOp56
 70
     1
102
RTVSPost2010Prop57
140
1.0
102
RTVSPost2010PropOp57
 70
     1
102
RTVSPropertyOp0
 70
     1
102
RTVSPropertyOp1
 70
     1
102
RTVSPropertyOp2
 70
     1
102
RTVSPropertyOp3
 70
     1
102
RTVSPropertyOp4
 70
     1
102
RTVSPropertyOp5
 70
     1
102
RTVSPropertyOp6
 70
     1
102
RTVSPropertyOp7
 70
     1
102
RTVSPropertyOp8
 70
     1
102
RTVSPropertyOp9
 70
     1
102
RTVSPropertyOp10
 70
     1
102
RTVSPropertyOp11
 70
     1
102
RTVSPropertyOp12
 70
     1
102
RTVSPropertyOp13
 70
     1
102
RTVSPropertyOp14
 70
     1
102
RTVSPropertyOp15
 70
     1
102
RTVSPropertyOp16
 70
     1
102
RTVSPropertyOp17
 70
     1
102
RTVSPropertyOp18
 70
     1
102
RTVSPropertyOp19
 70
     1
102
RTVSPropertyOp20
 70
     1
102
RTVSPropertyOp21
 70
     1
102
RTVSPropertyOp22
 70
     1
102
RTVSPropertyOp23
 70
     1
102
RTVSPropertyOp24
 70
     1
102
RTVSPropertyOp25
 70
     1
102
RTVSPropertyOp26
 70
     1
102
RTVSPropertyOp27
 70
     1
102
RTVSPropertyOp28
 70
     1
102
RTVSPropertyOp29
 70
     1
102
RTVSPropertyOp30
 70
     1
102
RTVSPropertyOp31
 70
     1
102
RTVSPropertyOp32
 70
     1
102
RTVSPropertyOp33
 70
     1
102
RTVSPropertyOp34
 70
     1
102
RTVSPropertyOp35
 70
     1
102
RTVSPropertyOp36
 70
     1
102
RTVSPropertyOp37
 70
     1
102
RTVSPropertyOp38
 70
     1
102
RTVSPropertyOp39
 70
     1
102
RTVSPropertyOp40
 70
     1
102
RTVSPropertyOp41
 70
     1
102
RTVSPropertyOp42
 70
     1
102
RTVSPropertyOp43
 70
     1
102
RTVSPropertyOp44
 70
     1
102
RTVSPropertyOp45
 70
     1
102
RTVSPropertyOp46
 70
     1
102
RTVSPropertyOp47
 70
     1
102
RTVSPropertyOp48
 70
     1
102
RTVSPropertyOp49
 70
     1
102
RTVSPropertyOp50
 70
     1
102
RTVSPropertyOp51
 70
     0
102
RTVSPropertyOp52
 70
     0
102
RTVSPropertyOp53
 70
     1
102
RTVSPropertyOp54
 70
     1
102
RTVSPropertyOp55
 70
     1
102
RTVSPropertyOp56
 70
     1
102
RTVSPropertyOp57
 70
     1
102
RTVSPropertyOp58
 70
     1
102
RTVSPropertyOp59
 70
     1
102
RTVSPropertyOp60
 70
     1
102
RTVSPropertyOp61
 70
     1
102
RTVSPropertyOp62
 70
     1
  0
XRECORD
  5
D03D
102
{ACAD_REACTORS
330
D03C
102
}
330
D03C
100
AcDbXrecord
280
     1
102
RTVSPost2010Prop28
280
     0
102
RTVSPost2010PropOp28
 70
     1
102
RTVSPost2010Prop29
280
     1
102
RTVSPost2010PropOp29
 70
     1
102
RTVSPost2010Prop30
280
     1
102
RTVSPost2010PropOp30
 70
     1
102
RTVSPost2010Prop31
280
     0
102
RTVSPost2010PropOp31
 70
     1
102
RTVSPost2010Prop32
280
     0
102
RTVSPost2010PropOp32
 70
     1
102
RTVSPost2010Prop33
280
     0
102
RTVSPost2010PropOp33
 70
     1
102
RTVSPost2010Prop34
280
     0
102
RTVSPost2010PropOp34
 70
     1
102
RTVSPost2010Prop35
280
     0
102
RTVSPost2010PropOp35
 70
     1
102
RTVSPost2010Prop36
280
     0
102
RTVSPost2010PropOp36
 70
     1
102
RTVSPost2010Prop37
 90
       50
102
RTVSPost2010PropOp37
 70
     1
102
RTVSPost2010Prop38
140
0.0
102
RTVSPost2010PropOp38
 70
     1
102
RTVSPost2010Prop39
140
1.0
102
RTVSPost2010PropOp39
 70
     1
102
RTVSPost2010Prop40
 90
        0
102
RTVSPost2010PropOp40
 70
     1
102
RTVSPost2010Prop41ColorIndex
 90
       18
102
RTVSPost2010Prop41ColorRGB
 90
        0
102
RTVSPost2010PropOp41
 70
     1
102
RTVSPost2010Prop42
 90
       50
102
RTVSPost2010PropOp42
 70
     1
102
RTVSPost2010Prop43
 90
        3
102
RTVSPost2010PropOp43
 70
     1
102
RTVSPost2010Prop44ColorIndex
 90
        5
102
RTVSPost2010Prop44ColorRGB
 90
      255
102
RTVSPost2010PropOp44
 70
     1
102
RTVSPost2010Prop45
280
     0
102
RTVSPost2010PropOp45
 70
     1
102
RTVSPost2010Prop46
 90
       50
102
RTVSPost2010PropOp46
 70
     1
102
RTVSPost2010Prop47
 90
       50
102
RTVSPost2010PropOp47
 70
     1
102
RTVSPost2010Prop48
 90
       50
102
RTVSPost2010PropOp48
 70
     1
102
RTVSPost2010Prop49
280
     0
102
RTVSPost2010PropOp49
 70
     1
102
RTVSPost2010Prop50
 90
       50
102
RTVSPost2010PropOp50
 70
     1
102
RTVSPost2010Prop51ColorIndex
 90
      256
102
RTVSPost2010Prop51ColorRGB
 90
-16777216
102
RTVSPost2010PropOp51
 70
     0
102
RTVSPost2010Prop52
140
1.0
102
RTVSPost2010PropOp52
 70
     0
102
RTVSPost2010Prop53
 90
        2
102
RTVSPost2010PropOp53
 70
     1
102
RTVSPost2010Prop54
  1
strokes_ogs.tif
102
RTVSPost2010PropOp54
 70
     1
102
RTVSPost2010Prop55
280
     0
102
RTVSPost2010PropOp55
 70
     1
102
RTVSPost2010Prop56
140
1.0
102
RTVSPost2010PropOp56
 70
     1
102
RTVSPost2010Prop57
140
1.0
102
RTVSPost2010PropOp57
 70
     1
102
RTVSPropertyOp0
 70
     1
102
RTVSPropertyOp1
 70
     1
102
RTVSPropertyOp2
 70
     1
102
RTVSPropertyOp3
 70
     1
102
RTVSPropertyOp4
 70
     1
102
RTVSPropertyOp5
 70
     1
102
RTVSPropertyOp6
 70
     1
102
RTVSPropertyOp7
 70
     1
102
RTVSPropertyOp8
 70
     1
102
RTVSPropertyOp9
 70
     1
102
RTVSPropertyOp10
 70
     1
102
RTVSPropertyOp11
 70
     1
102
RTVSPropertyOp12
 70
     1
102
RTVSPropertyOp13
 70
     1
102
RTVSPropertyOp14
 70
     1
102
RTVSPropertyOp15
 70
     1
102
RTVSPropertyOp16
 70
     1
102
RTVSPropertyOp17
 70
     1
102
RTVSPropertyOp18
 70
     1
102
RTVSPropertyOp19
 70
     1
102
RTVSPropertyOp20
 70
     1
102
RTVSPropertyOp21
 70
     1
102
RTVSPropertyOp22
 70
     1
102
RTVSPropertyOp23
 70
     1
102
RTVSPropertyOp24
 70
     1
102
RTVSPropertyOp25
 70
     1
102
RTVSPropertyOp26
 70
     1
102
RTVSPropertyOp27
 70
     1
102
RTVSPropertyOp28
 70
     1
102
RTVSPropertyOp29
 70
     1
102
RTVSPropertyOp30
 70
     1
102
RTVSPropertyOp31
 70
     1
102
RTVSPropertyOp32
 70
     1
102
RTVSPropertyOp33
 70
     1
102
RTVSPropertyOp34
 70
     1
102
RTVSPropertyOp35
 70
     1
102
RTVSPropertyOp36
 70
     1
102
RTVSPropertyOp37
 70
     1
102
RTVSPropertyOp38
 70
     1
102
RTVSPropertyOp39
 70
     1
102
RTVSPropertyOp40
 70
     1
102
RTVSPropertyOp41
 70
     1
102
RTVSPropertyOp42
 70
     1
102
RTVSPropertyOp43
 70
     1
102
RTVSPropertyOp44
 70
     1
102
RTVSPropertyOp45
 70
     1
102
RTVSPropertyOp46
 70
     1
102
RTVSPropertyOp47
 70
     1
102
RTVSPropertyOp48
 70
     1
102
RTVSPropertyOp49
 70
     1
102
RTVSPropertyOp50
 70
     1
102
RTVSPropertyOp51
 70
     0
102
RTVSPropertyOp52
 70
     0
102
RTVSPropertyOp53
 70
     1
102
RTVSPropertyOp54
 70
     1
102
RTVSPropertyOp55
 70
     1
102
RTVSPropertyOp56
 70
     1
102
RTVSPropertyOp57
 70
     1
102
RTVSPropertyOp58
 70
     1
102
RTVSPropertyOp59
 70
     1
102
RTVSPropertyOp60
 70
     1
102
RTVSPropertyOp61
 70
     1
102
RTVSPropertyOp62
 70
     1
  0
XRECORD
  5
D02F
102
{ACAD_REACTORS
330
D02E
102
}
330
D02E
100
AcDbXrecord
280
     1
102
RTVSPost2010Prop28
280
     0
102
RTVSPost2010PropOp28
 70
     1
102
RTVSPost2010Prop29
280
     1
102
RTVSPost2010PropOp29
 70
     1
102
RTVSPost2010Prop30
280
     1
102
RTVSPost2010PropOp30
 70
     1
102
RTVSPost2010Prop31
280
     0
102
RTVSPost2010PropOp31
 70
     1
102
RTVSPost2010Prop32
280
     0
102
RTVSPost2010PropOp32
 70
     1
102
RTVSPost2010Prop33
280
     0
102
RTVSPost2010PropOp33
 70
     1
102
RTVSPost2010Prop34
280
     0
102
RTVSPost2010PropOp34
 70
     1
102
RTVSPost2010Prop35
280
     0
102
RTVSPost2010PropOp35
 70
     1
102
RTVSPost2010Prop36
280
     0
102
RTVSPost2010PropOp36
 70
     1
102
RTVSPost2010Prop37
 90
       50
102
RTVSPost2010PropOp37
 70
     1
102
RTVSPost2010Prop38
140
0.0
102
RTVSPost2010PropOp38
 70
     1
102
RTVSPost2010Prop39
140
1.0
102
RTVSPost2010PropOp39
 70
     1
102
RTVSPost2010Prop40
 90
        0
102
RTVSPost2010PropOp40
 70
     1
102
RTVSPost2010Prop41ColorIndex
 90
       18
102
RTVSPost2010Prop41ColorRGB
 90
        0
102
RTVSPost2010PropOp41
 70
     1
102
RTVSPost2010Prop42
 90
       50
102
RTVSPost2010PropOp42
 70
     1
102
RTVSPost2010Prop43
 90
        3
102
RTVSPost2010PropOp43
 70
     1
102
RTVSPost2010Prop44ColorIndex
 90
        5
102
RTVSPost2010Prop44ColorRGB
 90
      255
102
RTVSPost2010PropOp44
 70
     1
102
RTVSPost2010Prop45
280
     0
102
RTVSPost2010PropOp45
 70
     1
102
RTVSPost2010Prop46
 90
       50
102
RTVSPost2010PropOp46
 70
     1
102
RTVSPost2010Prop47
 90
       50
102
RTVSPost2010PropOp47
 70
     1
102
RTVSPost2010Prop48
 90
       50
102
RTVSPost2010PropOp48
 70
     1
102
RTVSPost2010Prop49
280
     0
102
RTVSPost2010PropOp49
 70
     1
102
RTVSPost2010Prop50
 90
       50
102
RTVSPost2010PropOp50
 70
     1
102
RTVSPost2010Prop51ColorIndex
 90
      256
102
RTVSPost2010Prop51ColorRGB
 90
-16777216
102
RTVSPost2010PropOp51
 70
     0
102
RTVSPost2010Prop52
140
1.0
102
RTVSPost2010PropOp52
 70
     0
102
RTVSPost2010Prop53
 90
        2
102
RTVSPost2010PropOp53
 70
     1
102
RTVSPost2010Prop54
  1
strokes_ogs.tif
102
RTVSPost2010PropOp54
 70
     1
102
RTVSPost2010Prop55
280
     0
102
RTVSPost2010PropOp55
 70
     1
102
RTVSPost2010Prop56
140
1.0
102
RTVSPost2010PropOp56
 70
     1
102
RTVSPost2010Prop57
140
1.0
102
RTVSPost2010PropOp57
 70
     1
102
RTVSPropertyOp0
 70
     1
102
RTVSPropertyOp1
 70
     1
102
RTVSPropertyOp2
 70
     1
102
RTVSPropertyOp3
 70
     1
102
RTVSPropertyOp4
 70
     1
102
RTVSPropertyOp5
 70
     1
102
RTVSPropertyOp6
 70
     1
102
RTVSPropertyOp7
 70
     1
102
RTVSPropertyOp8
 70
     1
102
RTVSPropertyOp9
 70
     1
102
RTVSPropertyOp10
 70
     1
102
RTVSPropertyOp11
 70
     1
102
RTVSPropertyOp12
 70
     1
102
RTVSPropertyOp13
 70
     1
102
RTVSPropertyOp14
 70
     1
102
RTVSPropertyOp15
 70
     1
102
RTVSPropertyOp16
 70
     1
102
RTVSPropertyOp17
 70
     1
102
RTVSPropertyOp18
 70
     1
102
RTVSPropertyOp19
 70
     1
102
RTVSPropertyOp20
 70
     1
102
RTVSPropertyOp21
 70
     1
102
RTVSPropertyOp22
 70
     1
102
RTVSPropertyOp23
 70
     1
102
RTVSPropertyOp24
 70
     1
102
RTVSPropertyOp25
 70
     1
102
RTVSPropertyOp26
 70
     1
102
RTVSPropertyOp27
 70
     1
102
RTVSPropertyOp28
 70
     1
102
RTVSPropertyOp29
 70
     1
102
RTVSPropertyOp30
 70
     1
102
RTVSPropertyOp31
 70
     1
102
RTVSPropertyOp32
 70
     1
102
RTVSPropertyOp33
 70
     1
102
RTVSPropertyOp34
 70
     1
102
RTVSPropertyOp35
 70
     1
102
RTVSPropertyOp36
 70
     1
102
RTVSPropertyOp37
 70
     1
102
RTVSPropertyOp38
 70
     1
102
RTVSPropertyOp39
 70
     1
102
RTVSPropertyOp40
 70
     1
102
RTVSPropertyOp41
 70
     1
102
RTVSPropertyOp42
 70
     1
102
RTVSPropertyOp43
 70
     1
102
RTVSPropertyOp44
 70
     1
102
RTVSPropertyOp45
 70
     1
102
RTVSPropertyOp46
 70
     1
102
RTVSPropertyOp47
 70
     1
102
RTVSPropertyOp48
 70
     1
102
RTVSPropertyOp49
 70
     1
102
RTVSPropertyOp50
 70
     1
102
RTVSPropertyOp51
 70
     0
102
RTVSPropertyOp52
 70
     0
102
RTVSPropertyOp53
 70
     1
102
RTVSPropertyOp54
 70
     1
102
RTVSPropertyOp55
 70
     1
102
RTVSPropertyOp56
 70
     1
102
RTVSPropertyOp57
 70
     1
102
RTVSPropertyOp58
 70
     1
102
RTVSPropertyOp59
 70
     1
102
RTVSPropertyOp60
 70
     1
102
RTVSPropertyOp61
 70
     1
102
RTVSPropertyOp62
 70
     1
  0
XRECORD
  5
D033
102
{ACAD_REACTORS
330
D032
102
}
330
D032
100
AcDbXrecord
280
     1
102
RTVSPost2010Prop28
280
     0
102
RTVSPost2010PropOp28
 70
     1
102
RTVSPost2010Prop29
280
     1
102
RTVSPost2010PropOp29
 70
     1
102
RTVSPost2010Prop30
280
     1
102
RTVSPost2010PropOp30
 70
     1
102
RTVSPost2010Prop31
280
     0
102
RTVSPost2010PropOp31
 70
     1
102
RTVSPost2010Prop32
280
     0
102
RTVSPost2010PropOp32
 70
     1
102
RTVSPost2010Prop33
280
     0
102
RTVSPost2010PropOp33
 70
     1
102
RTVSPost2010Prop34
280
     0
102
RTVSPost2010PropOp34
 70
     1
102
RTVSPost2010Prop35
280
     0
102
RTVSPost2010PropOp35
 70
     1
102
RTVSPost2010Prop36
280
     0
102
RTVSPost2010PropOp36
 70
     1
102
RTVSPost2010Prop37
 90
       50
102
RTVSPost2010PropOp37
 70
     1
102
RTVSPost2010Prop38
140
0.0
102
RTVSPost2010PropOp38
 70
     1
102
RTVSPost2010Prop39
140
1.0
102
RTVSPost2010PropOp39
 70
     1
102
RTVSPost2010Prop40
 90
        0
102
RTVSPost2010PropOp40
 70
     1
102
RTVSPost2010Prop41ColorIndex
 90
       18
102
RTVSPost2010Prop41ColorRGB
 90
        0
102
RTVSPost2010PropOp41
 70
     1
102
RTVSPost2010Prop42
 90
       50
102
RTVSPost2010PropOp42
 70
     1
102
RTVSPost2010Prop43
 90
        3
102
RTVSPost2010PropOp43
 70
     1
102
RTVSPost2010Prop44ColorIndex
 90
        5
102
RTVSPost2010Prop44ColorRGB
 90
      255
102
RTVSPost2010PropOp44
 70
     1
102
RTVSPost2010Prop45
280
     0
102
RTVSPost2010PropOp45
 70
     1
102
RTVSPost2010Prop46
 90
       50
102
RTVSPost2010PropOp46
 70
     1
102
RTVSPost2010Prop47
 90
       50
102
RTVSPost2010PropOp47
 70
     1
102
RTVSPost2010Prop48
 90
       50
102
RTVSPost2010PropOp48
 70
     1
102
RTVSPost2010Prop49
280
     0
102
RTVSPost2010PropOp49
 70
     1
102
RTVSPost2010Prop50
 90
       50
102
RTVSPost2010PropOp50
 70
     1
102
RTVSPost2010Prop51ColorIndex
 90
      256
102
RTVSPost2010Prop51ColorRGB
 90
-16777216
102
RTVSPost2010PropOp51
 70
     0
102
RTVSPost2010Prop52
140
1.0
102
RTVSPost2010PropOp52
 70
     0
102
RTVSPost2010Prop53
 90
        2
102
RTVSPost2010PropOp53
 70
     1
102
RTVSPost2010Prop54
  1
strokes_ogs.tif
102
RTVSPost2010PropOp54
 70
     1
102
RTVSPost2010Prop55
280
     0
102
RTVSPost2010PropOp55
 70
     1
102
RTVSPost2010Prop56
140
1.0
102
RTVSPost2010PropOp56
 70
     1
102
RTVSPost2010Prop57
140
1.0
102
RTVSPost2010PropOp57
 70
     1
102
RTVSPropertyOp0
 70
     1
102
RTVSPropertyOp1
 70
     1
102
RTVSPropertyOp2
 70
     1
102
RTVSPropertyOp3
 70
     1
102
RTVSPropertyOp4
 70
     1
102
RTVSPropertyOp5
 70
     1
102
RTVSPropertyOp6
 70
     1
102
RTVSPropertyOp7
 70
     1
102
RTVSPropertyOp8
 70
     1
102
RTVSPropertyOp9
 70
     1
102
RTVSPropertyOp10
 70
     1
102
RTVSPropertyOp11
 70
     1
102
RTVSPropertyOp12
 70
     1
102
RTVSPropertyOp13
 70
     1
102
RTVSPropertyOp14
 70
     1
102
RTVSPropertyOp15
 70
     1
102
RTVSPropertyOp16
 70
     1
102
RTVSPropertyOp17
 70
     1
102
RTVSPropertyOp18
 70
     1
102
RTVSPropertyOp19
 70
     1
102
RTVSPropertyOp20
 70
     1
102
RTVSPropertyOp21
 70
     1
102
RTVSPropertyOp22
 70
     1
102
RTVSPropertyOp23
 70
     1
102
RTVSPropertyOp24
 70
     1
102
RTVSPropertyOp25
 70
     1
102
RTVSPropertyOp26
 70
     1
102
RTVSPropertyOp27
 70
     1
102
RTVSPropertyOp28
 70
     1
102
RTVSPropertyOp29
 70
     1
102
RTVSPropertyOp30
 70
     1
102
RTVSPropertyOp31
 70
     1
102
RTVSPropertyOp32
 70
     1
102
RTVSPropertyOp33
 70
     1
102
RTVSPropertyOp34
 70
     1
102
RTVSPropertyOp35
 70
     1
102
RTVSPropertyOp36
 70
     1
102
RTVSPropertyOp37
 70
     1
102
RTVSPropertyOp38
 70
     1
102
RTVSPropertyOp39
 70
     1
102
RTVSPropertyOp40
 70
     1
102
RTVSPropertyOp41
 70
     1
102
RTVSPropertyOp42
 70
     1
102
RTVSPropertyOp43
 70
     1
102
RTVSPropertyOp44
 70
     1
102
RTVSPropertyOp45
 70
     1
102
RTVSPropertyOp46
 70
     1
102
RTVSPropertyOp47
 70
     1
102
RTVSPropertyOp48
 70
     1
102
RTVSPropertyOp49
 70
     1
102
RTVSPropertyOp50
 70
     1
102
RTVSPropertyOp51
 70
     0
102
RTVSPropertyOp52
 70
     0
102
RTVSPropertyOp53
 70
     1
102
RTVSPropertyOp54
 70
     1
102
RTVSPropertyOp55
 70
     1
102
RTVSPropertyOp56
 70
     1
102
RTVSPropertyOp57
 70
     1
102
RTVSPropertyOp58
 70
     1
102
RTVSPropertyOp59
 70
     1
102
RTVSPropertyOp60
 70
     1
102
RTVSPropertyOp61
 70
     1
102
RTVSPropertyOp62
 70
     1
  0
XRECORD
  5
D04D
102
{ACAD_REACTORS
330
D04C
102
}
330
D04C
100
AcDbXrecord
280
     1
102
RTVSPost2010Prop28
280
     0
102
RTVSPost2010PropOp28
 70
     1
102
RTVSPost2010Prop29
280
     1
102
RTVSPost2010PropOp29
 70
     1
102
RTVSPost2010Prop30
280
     1
102
RTVSPost2010PropOp30
 70
     1
102
RTVSPost2010Prop31
280
     0
102
RTVSPost2010PropOp31
 70
     1
102
RTVSPost2010Prop32
280
     0
102
RTVSPost2010PropOp32
 70
     1
102
RTVSPost2010Prop33
280
     0
102
RTVSPost2010PropOp33
 70
     1
102
RTVSPost2010Prop34
280
     0
102
RTVSPost2010PropOp34
 70
     1
102
RTVSPost2010Prop35
280
     0
102
RTVSPost2010PropOp35
 70
     1
102
RTVSPost2010Prop36
280
     0
102
RTVSPost2010PropOp36
 70
     1
102
RTVSPost2010Prop37
 90
       50
102
RTVSPost2010PropOp37
 70
     0
102
RTVSPost2010Prop38
140
0.0
102
RTVSPost2010PropOp38
 70
     0
102
RTVSPost2010Prop39
140
1.0
102
RTVSPost2010PropOp39
 70
     0
102
RTVSPost2010Prop40
 90
        0
102
RTVSPost2010PropOp40
 70
     0
102
RTVSPost2010Prop41ColorIndex
 90
       18
102
RTVSPost2010Prop41ColorRGB
 90
        0
102
RTVSPost2010PropOp41
 70
     0
102
RTVSPost2010Prop42
 90
       50
102
RTVSPost2010PropOp42
 70
     0
102
RTVSPost2010Prop43
 90
        3
102
RTVSPost2010PropOp43
 70
     0
102
RTVSPost2010Prop44ColorIndex
 90
        5
102
RTVSPost2010Prop44ColorRGB
 90
      255
102
RTVSPost2010PropOp44
 70
     0
102
RTVSPost2010Prop45
280
     0
102
RTVSPost2010PropOp45
 70
     1
102
RTVSPost2010Prop46
 90
       50
102
RTVSPost2010PropOp46
 70
     0
102
RTVSPost2010Prop47
 90
       50
102
RTVSPost2010PropOp47
 70
     0
102
RTVSPost2010Prop48
 90
       50
102
RTVSPost2010PropOp48
 70
     0
102
RTVSPost2010Prop49
280
     0
102
RTVSPost2010PropOp49
 70
     1
102
RTVSPost2010Prop50
 90
       50
102
RTVSPost2010PropOp50
 70
     0
102
RTVSPost2010Prop51ColorIndex
 90
      256
102
RTVSPost2010Prop51ColorRGB
 90
-16777216
102
RTVSPost2010PropOp51
 70
     0
102
RTVSPost2010Prop52
140
1.0
102
RTVSPost2010PropOp52
 70
     0
102
RTVSPost2010Prop53
 90
        2
102
RTVSPost2010PropOp53
 70
     0
102
RTVSPost2010Prop54
  1
strokes_ogs.tif
102
RTVSPost2010PropOp54
 70
     0
102
RTVSPost2010Prop55
280
     0
102
RTVSPost2010PropOp55
 70
     1
102
RTVSPost2010Prop56
140
1.0
102
RTVSPost2010PropOp56
 70
     0
102
RTVSPost2010Prop57
140
1.0
102
RTVSPost2010PropOp57
 70
     0
102
RTVSPropertyOp0
 70
     0
102
RTVSPropertyOp1
 70
     0
102
RTVSPropertyOp2
 70
     0
102
RTVSPropertyOp3
 70
     0
102
RTVSPropertyOp4
 70
     0
102
RTVSPropertyOp5
 70
     0
102
RTVSPropertyOp6
 70
     0
102
RTVSPropertyOp7
 70
     0
102
RTVSPropertyOp8
 70
     0
102
RTVSPropertyOp9
 70
     0
102
RTVSPropertyOp10
 70
     0
102
RTVSPropertyOp11
 70
     0
102
RTVSPropertyOp12
 70
     0
102
RTVSPropertyOp13
 70
     0
102
RTVSPropertyOp14
 70
     2
102
RTVSPropertyOp15
 70
     0
102
RTVSPropertyOp16
 70
     0
102
RTVSPropertyOp17
 70
     0
102
RTVSPropertyOp18
 70
     0
102
RTVSPropertyOp19
 70
     0
102
RTVSPropertyOp20
 70
     0
102
RTVSPropertyOp21
 70
     0
102
RTVSPropertyOp22
 70
     0
102
RTVSPropertyOp23
 70
     0
102
RTVSPropertyOp24
 70
     0
102
RTVSPropertyOp25
 70
     0
102
RTVSPropertyOp26
 70
     0
102
RTVSPropertyOp27
 70
     0
102
RTVSPropertyOp28
 70
     1
102
RTVSPropertyOp29
 70
     1
102
RTVSPropertyOp30
 70
     1
102
RTVSPropertyOp31
 70
     1
102
RTVSPropertyOp32
 70
     1
102
RTVSPropertyOp33
 70
     1
102
RTVSPropertyOp34
 70
     1
102
RTVSPropertyOp35
 70
     1
102
RTVSPropertyOp36
 70
     1
102
RTVSPropertyOp37
 70
     0
102
RTVSPropertyOp38
 70
     0
102
RTVSPropertyOp39
 70
     0
102
RTVSPropertyOp40
 70
     0
102
RTVSPropertyOp41
 70
     0
102
RTVSPropertyOp42
 70
     0
102
RTVSPropertyOp43
 70
     0
102
RTVSPropertyOp44
 70
     0
102
RTVSPropertyOp45
 70
     1
102
RTVSPropertyOp46
 70
     0
102
RTVSPropertyOp47
 70
     0
102
RTVSPropertyOp48
 70
     0
102
RTVSPropertyOp49
 70
     1
102
RTVSPropertyOp50
 70
     0
102
RTVSPropertyOp51
 70
     0
102
RTVSPropertyOp52
 70
     0
102
RTVSPropertyOp53
 70
     0
102
RTVSPropertyOp54
 70
     0
102
RTVSPropertyOp55
 70
     1
102
RTVSPropertyOp56
 70
     0
102
RTVSPropertyOp57
 70
     0
102
RTVSPropertyOp58
 70
     0
102
RTVSPropertyOp59
 70
     0
102
RTVSPropertyOp60
 70
     0
102
RTVSPropertyOp61
 70
     0
102
RTVSPropertyOp62
 70
     0
  0
XRECORD
  5
D03B
102
{ACAD_REACTORS
330
D03A
102
}
330
D03A
100
AcDbXrecord
280
     1
102
RTVSPost2010Prop28
280
     0
102
RTVSPost2010PropOp28
 70
     1
102
RTVSPost2010Prop29
280
     1
102
RTVSPost2010PropOp29
 70
     1
102
RTVSPost2010Prop30
280
     1
102
RTVSPost2010PropOp30
 70
     1
102
RTVSPost2010Prop31
280
     0
102
RTVSPost2010PropOp31
 70
     1
102
RTVSPost2010Prop32
280
     0
102
RTVSPost2010PropOp32
 70
     1
102
RTVSPost2010Prop33
280
     0
102
RTVSPost2010PropOp33
 70
     1
102
RTVSPost2010Prop34
280
     0
102
RTVSPost2010PropOp34
 70
     1
102
RTVSPost2010Prop35
280
     0
102
RTVSPost2010PropOp35
 70
     1
102
RTVSPost2010Prop36
280
     0
102
RTVSPost2010PropOp36
 70
     1
102
RTVSPost2010Prop37
 90
       50
102
RTVSPost2010PropOp37
 70
     1
102
RTVSPost2010Prop38
140
0.0
102
RTVSPost2010PropOp38
 70
     1
102
RTVSPost2010Prop39
140
1.0
102
RTVSPost2010PropOp39
 70
     1
102
RTVSPost2010Prop40
 90
        0
102
RTVSPost2010PropOp40
 70
     1
102
RTVSPost2010Prop41ColorIndex
 90
       18
102
RTVSPost2010Prop41ColorRGB
 90
        0
102
RTVSPost2010PropOp41
 70
     1
102
RTVSPost2010Prop42
 90
       50
102
RTVSPost2010PropOp42
 70
     1
102
RTVSPost2010Prop43
 90
        3
102
RTVSPost2010PropOp43
 70
     1
102
RTVSPost2010Prop44ColorIndex
 90
        5
102
RTVSPost2010Prop44ColorRGB
 90
      255
102
RTVSPost2010PropOp44
 70
     1
102
RTVSPost2010Prop45
280
     0
102
RTVSPost2010PropOp45
 70
     1
102
RTVSPost2010Prop46
 90
       50
102
RTVSPost2010PropOp46
 70
     1
102
RTVSPost2010Prop47
 90
       50
102
RTVSPost2010PropOp47
 70
     1
102
RTVSPost2010Prop48
 90
       50
102
RTVSPost2010PropOp48
 70
     1
102
RTVSPost2010Prop49
280
     0
102
RTVSPost2010PropOp49
 70
     1
102
RTVSPost2010Prop50
 90
       50
102
RTVSPost2010PropOp50
 70
     1
102
RTVSPost2010Prop51ColorIndex
 90
      256
102
RTVSPost2010Prop51ColorRGB
 90
-16777216
102
RTVSPost2010PropOp51
 70
     0
102
RTVSPost2010Prop52
140
1.0
102
RTVSPost2010PropOp52
 70
     0
102
RTVSPost2010Prop53
 90
        2
102
RTVSPost2010PropOp53
 70
     1
102
RTVSPost2010Prop54
  1
strokes_ogs.tif
102
RTVSPost2010PropOp54
 70
     1
102
RTVSPost2010Prop55
280
     0
102
RTVSPost2010PropOp55
 70
     1
102
RTVSPost2010Prop56
140
1.0
102
RTVSPost2010PropOp56
 70
     1
102
RTVSPost2010Prop57
140
1.0
102
RTVSPost2010PropOp57
 70
     1
102
RTVSPropertyOp0
 70
     1
102
RTVSPropertyOp1
 70
     1
102
RTVSPropertyOp2
 70
     1
102
RTVSPropertyOp3
 70
     1
102
RTVSPropertyOp4
 70
     1
102
RTVSPropertyOp5
 70
     1
102
RTVSPropertyOp6
 70
     1
102
RTVSPropertyOp7
 70
     1
102
RTVSPropertyOp8
 70
     1
102
RTVSPropertyOp9
 70
     1
102
RTVSPropertyOp10
 70
     1
102
RTVSPropertyOp11
 70
     1
102
RTVSPropertyOp12
 70
     1
102
RTVSPropertyOp13
 70
     1
102
RTVSPropertyOp14
 70
     1
102
RTVSPropertyOp15
 70
     1
102
RTVSPropertyOp16
 70
     1
102
RTVSPropertyOp17
 70
     1
102
RTVSPropertyOp18
 70
     1
102
RTVSPropertyOp19
 70
     1
102
RTVSPropertyOp20
 70
     1
102
RTVSPropertyOp21
 70
     1
102
RTVSPropertyOp22
 70
     1
102
RTVSPropertyOp23
 70
     1
102
RTVSPropertyOp24
 70
     1
102
RTVSPropertyOp25
 70
     1
102
RTVSPropertyOp26
 70
     1
102
RTVSPropertyOp27
 70
     1
102
RTVSPropertyOp28
 70
     1
102
RTVSPropertyOp29
 70
     1
102
RTVSPropertyOp30
 70
     1
102
RTVSPropertyOp31
 70
     1
102
RTVSPropertyOp32
 70
     1
102
RTVSPropertyOp33
 70
     1
102
RTVSPropertyOp34
 70
     1
102
RTVSPropertyOp35
 70
     1
102
RTVSPropertyOp36
 70
     1
102
RTVSPropertyOp37
 70
     1
102
RTVSPropertyOp38
 70
     1
102
RTVSPropertyOp39
 70
     1
102
RTVSPropertyOp40
 70
     1
102
RTVSPropertyOp41
 70
     1
102
RTVSPropertyOp42
 70
     1
102
RTVSPropertyOp43
 70
     1
102
RTVSPropertyOp44
 70
     1
102
RTVSPropertyOp45
 70
     1
102
RTVSPropertyOp46
 70
     1
102
RTVSPropertyOp47
 70
     1
102
RTVSPropertyOp48
 70
     1
102
RTVSPropertyOp49
 70
     1
102
RTVSPropertyOp50
 70
     1
102
RTVSPropertyOp51
 70
     0
102
RTVSPropertyOp52
 70
     0
102
RTVSPropertyOp53
 70
     1
102
RTVSPropertyOp54
 70
     1
102
RTVSPropertyOp55
 70
     1
102
RTVSPropertyOp56
 70
     1
102
RTVSPropertyOp57
 70
     1
102
RTVSPropertyOp58
 70
     1
102
RTVSPropertyOp59
 70
     1
102
RTVSPropertyOp60
 70
     1
102
RTVSPropertyOp61
 70
     1
102
RTVSPropertyOp62
 70
     1
  0
XRECORD
  5
D01F
102
{ACAD_REACTORS
330
D01E
102
}
330
D01E
100
AcDbXrecord
280
     1
102
RTVSPost2010Prop28
280
     0
102
RTVSPost2010PropOp28
 70
     1
102
RTVSPost2010Prop29
280
     1
102
RTVSPost2010PropOp29
 70
     1
102
RTVSPost2010Prop30
280
     1
102
RTVSPost2010PropOp30
 70
     1
102
RTVSPost2010Prop31
280
     0
102
RTVSPost2010PropOp31
 70
     1
102
RTVSPost2010Prop32
280
     0
102
RTVSPost2010PropOp32
 70
     1
102
RTVSPost2010Prop33
280
     0
102
RTVSPost2010PropOp33
 70
     1
102
RTVSPost2010Prop34
280
     0
102
RTVSPost2010PropOp34
 70
     1
102
RTVSPost2010Prop35
280
     0
102
RTVSPost2010PropOp35
 70
     1
102
RTVSPost2010Prop36
280
     0
102
RTVSPost2010PropOp36
 70
     1
102
RTVSPost2010Prop37
 90
       50
102
RTVSPost2010PropOp37
 70
     1
102
RTVSPost2010Prop38
140
0.0
102
RTVSPost2010PropOp38
 70
     1
102
RTVSPost2010Prop39
140
1.0
102
RTVSPost2010PropOp39
 70
     1
102
RTVSPost2010Prop40
 90
        0
102
RTVSPost2010PropOp40
 70
     1
102
RTVSPost2010Prop41ColorIndex
 90
       18
102
RTVSPost2010Prop41ColorRGB
 90
        0
102
RTVSPost2010PropOp41
 70
     1
102
RTVSPost2010Prop42
 90
       50
102
RTVSPost2010PropOp42
 70
     1
102
RTVSPost2010Prop43
 90
        3
102
RTVSPost2010PropOp43
 70
     1
102
RTVSPost2010Prop44ColorIndex
 90
        5
102
RTVSPost2010Prop44ColorRGB
 90
      255
102
RTVSPost2010PropOp44
 70
     1
102
RTVSPost2010Prop45
280
     0
102
RTVSPost2010PropOp45
 70
     1
102
RTVSPost2010Prop46
 90
       50
102
RTVSPost2010PropOp46
 70
     1
102
RTVSPost2010Prop47
 90
       50
102
RTVSPost2010PropOp47
 70
     1
102
RTVSPost2010Prop48
 90
       50
102
RTVSPost2010PropOp48
 70
     1
102
RTVSPost2010Prop49
280
     0
102
RTVSPost2010PropOp49
 70
     1
102
RTVSPost2010Prop50
 90
       50
102
RTVSPost2010PropOp50
 70
     1
102
RTVSPost2010Prop51ColorIndex
 90
      256
102
RTVSPost2010Prop51ColorRGB
 90
-16777216
102
RTVSPost2010PropOp51
 70
     0
102
RTVSPost2010Prop52
140
1.0
102
RTVSPost2010PropOp52
 70
     0
102
RTVSPost2010Prop53
 90
        2
102
RTVSPost2010PropOp53
 70
     1
102
RTVSPost2010Prop54
  1
strokes_ogs.tif
102
RTVSPost2010PropOp54
 70
     1
102
RTVSPost2010Prop55
280
     0
102
RTVSPost2010PropOp55
 70
     1
102
RTVSPost2010Prop56
140
1.0
102
RTVSPost2010PropOp56
 70
     1
102
RTVSPost2010Prop57
140
1.0
102
RTVSPost2010PropOp57
 70
     1
102
RTVSPropertyOp0
 70
     1
102
RTVSPropertyOp1
 70
     1
102
RTVSPropertyOp2
 70
     1
102
RTVSPropertyOp3
 70
     1
102
RTVSPropertyOp4
 70
     1
102
RTVSPropertyOp5
 70
     1
102
RTVSPropertyOp6
 70
     1
102
RTVSPropertyOp7
 70
     1
102
RTVSPropertyOp8
 70
     1
102
RTVSPropertyOp9
 70
     1
102
RTVSPropertyOp10
 70
     1
102
RTVSPropertyOp11
 70
     1
102
RTVSPropertyOp12
 70
     1
102
RTVSPropertyOp13
 70
     1
102
RTVSPropertyOp14
 70
     1
102
RTVSPropertyOp15
 70
     1
102
RTVSPropertyOp16
 70
     1
102
RTVSPropertyOp17
 70
     1
102
RTVSPropertyOp18
 70
     1
102
RTVSPropertyOp19
 70
     1
102
RTVSPropertyOp20
 70
     1
102
RTVSPropertyOp21
 70
     1
102
RTVSPropertyOp22
 70
     1
102
RTVSPropertyOp23
 70
     1
102
RTVSPropertyOp24
 70
     1
102
RTVSPropertyOp25
 70
     1
102
RTVSPropertyOp26
 70
     1
102
RTVSPropertyOp27
 70
     1
102
RTVSPropertyOp28
 70
     1
102
RTVSPropertyOp29
 70
     1
102
RTVSPropertyOp30
 70
     1
102
RTVSPropertyOp31
 70
     1
102
RTVSPropertyOp32
 70
     1
102
RTVSPropertyOp33
 70
     1
102
RTVSPropertyOp34
 70
     1
102
RTVSPropertyOp35
 70
     1
102
RTVSPropertyOp36
 70
     1
102
RTVSPropertyOp37
 70
     1
102
RTVSPropertyOp38
 70
     1
102
RTVSPropertyOp39
 70
     1
102
RTVSPropertyOp40
 70
     1
102
RTVSPropertyOp41
 70
     1
102
RTVSPropertyOp42
 70
     1
102
RTVSPropertyOp43
 70
     1
102
RTVSPropertyOp44
 70
     1
102
RTVSPropertyOp45
 70
     1
102
RTVSPropertyOp46
 70
     1
102
RTVSPropertyOp47
 70
     1
102
RTVSPropertyOp48
 70
     1
102
RTVSPropertyOp49
 70
     1
102
RTVSPropertyOp50
 70
     1
102
RTVSPropertyOp51
 70
     0
102
RTVSPropertyOp52
 70
     0
102
RTVSPropertyOp53
 70
     1
102
RTVSPropertyOp54
 70
     1
102
RTVSPropertyOp55
 70
     1
102
RTVSPropertyOp56
 70
     1
102
RTVSPropertyOp57
 70
     1
102
RTVSPropertyOp58
 70
     1
102
RTVSPropertyOp59
 70
     1
102
RTVSPropertyOp60
 70
     1
102
RTVSPropertyOp61
 70
     1
102
RTVSPropertyOp62
 70
     1
  0
XRECORD
  5
D021
102
{ACAD_REACTORS
330
D020
102
}
330
D020
100
AcDbXrecord
280
     1
102
RTVSPost2010Prop28
280
     0
102
RTVSPost2010PropOp28
 70
     1
102
RTVSPost2010Prop29
280
     1
102
RTVSPost2010PropOp29
 70
     1
102
RTVSPost2010Prop30
280
     1
102
RTVSPost2010PropOp30
 70
     1
102
RTVSPost2010Prop31
280
     0
102
RTVSPost2010PropOp31
 70
     1
102
RTVSPost2010Prop32
280
     0
102
RTVSPost2010PropOp32
 70
     1
102
RTVSPost2010Prop33
280
     0
102
RTVSPost2010PropOp33
 70
     1
102
RTVSPost2010Prop34
280
     0
102
RTVSPost2010PropOp34
 70
     1
102
RTVSPost2010Prop35
280
     0
102
RTVSPost2010PropOp35
 70
     1
102
RTVSPost2010Prop36
280
     0
102
RTVSPost2010PropOp36
 70
     1
102
RTVSPost2010Prop37
 90
       50
102
RTVSPost2010PropOp37
 70
     1
102
RTVSPost2010Prop38
140
0.0
102
RTVSPost2010PropOp38
 70
     1
102
RTVSPost2010Prop39
140
1.0
102
RTVSPost2010PropOp39
 70
     1
102
RTVSPost2010Prop40
 90
        0
102
RTVSPost2010PropOp40
 70
     1
102
RTVSPost2010Prop41ColorIndex
 90
       18
102
RTVSPost2010Prop41ColorRGB
 90
        0
102
RTVSPost2010PropOp41
 70
     1
102
RTVSPost2010Prop42
 90
       50
102
RTVSPost2010PropOp42
 70
     1
102
RTVSPost2010Prop43
 90
        3
102
RTVSPost2010PropOp43
 70
     1
102
RTVSPost2010Prop44ColorIndex
 90
        5
102
RTVSPost2010Prop44ColorRGB
 90
      255
102
RTVSPost2010PropOp44
 70
     1
102
RTVSPost2010Prop45
280
     0
102
RTVSPost2010PropOp45
 70
     1
102
RTVSPost2010Prop46
 90
       50
102
RTVSPost2010PropOp46
 70
     1
102
RTVSPost2010Prop47
 90
       50
102
RTVSPost2010PropOp47
 70
     1
102
RTVSPost2010Prop48
 90
       50
102
RTVSPost2010PropOp48
 70
     1
102
RTVSPost2010Prop49
280
     0
102
RTVSPost2010PropOp49
 70
     1
102
RTVSPost2010Prop50
 90
       50
102
RTVSPost2010PropOp50
 70
     1
102
RTVSPost2010Prop51ColorIndex
 90
      256
102
RTVSPost2010Prop51ColorRGB
 90
-16777216
102
RTVSPost2010PropOp51
 70
     0
102
RTVSPost2010Prop52
140
1.0
102
RTVSPost2010PropOp52
 70
     0
102
RTVSPost2010Prop53
 90
        2
102
RTVSPost2010PropOp53
 70
     1
102
RTVSPost2010Prop54
  1
strokes_ogs.tif
102
RTVSPost2010PropOp54
 70
     1
102
RTVSPost2010Prop55
280
     0
102
RTVSPost2010PropOp55
 70
     1
102
RTVSPost2010Prop56
140
1.0
102
RTVSPost2010PropOp56
 70
     1
102
RTVSPost2010Prop57
140
1.0
102
RTVSPost2010PropOp57
 70
     1
102
RTVSPropertyOp0
 70
     1
102
RTVSPropertyOp1
 70
     1
102
RTVSPropertyOp2
 70
     1
102
RTVSPropertyOp3
 70
     1
102
RTVSPropertyOp4
 70
     1
102
RTVSPropertyOp5
 70
     1
102
RTVSPropertyOp6
 70
     1
102
RTVSPropertyOp7
 70
     1
102
RTVSPropertyOp8
 70
     1
102
RTVSPropertyOp9
 70
     1
102
RTVSPropertyOp10
 70
     1
102
RTVSPropertyOp11
 70
     1
102
RTVSPropertyOp12
 70
     1
102
RTVSPropertyOp13
 70
     1
102
RTVSPropertyOp14
 70
     1
102
RTVSPropertyOp15
 70
     1
102
RTVSPropertyOp16
 70
     1
102
RTVSPropertyOp17
 70
     1
102
RTVSPropertyOp18
 70
     1
102
RTVSPropertyOp19
 70
     1
102
RTVSPropertyOp20
 70
     1
102
RTVSPropertyOp21
 70
     1
102
RTVSPropertyOp22
 70
     1
102
RTVSPropertyOp23
 70
     1
102
RTVSPropertyOp24
 70
     1
102
RTVSPropertyOp25
 70
     1
102
RTVSPropertyOp26
 70
     1
102
RTVSPropertyOp27
 70
     1
102
RTVSPropertyOp28
 70
     1
102
RTVSPropertyOp29
 70
     1
102
RTVSPropertyOp30
 70
     1
102
RTVSPropertyOp31
 70
     1
102
RTVSPropertyOp32
 70
     1
102
RTVSPropertyOp33
 70
     1
102
RTVSPropertyOp34
 70
     1
102
RTVSPropertyOp35
 70
     1
102
RTVSPropertyOp36
 70
     1
102
RTVSPropertyOp37
 70
     1
102
RTVSPropertyOp38
 70
     1
102
RTVSPropertyOp39
 70
     1
102
RTVSPropertyOp40
 70
     1
102
RTVSPropertyOp41
 70
     1
102
RTVSPropertyOp42
 70
     1
102
RTVSPropertyOp43
 70
     1
102
RTVSPropertyOp44
 70
     1
102
RTVSPropertyOp45
 70
     1
102
RTVSPropertyOp46
 70
     1
102
RTVSPropertyOp47
 70
     1
102
RTVSPropertyOp48
 70
     1
102
RTVSPropertyOp49
 70
     1
102
RTVSPropertyOp50
 70
     1
102
RTVSPropertyOp51
 70
     0
102
RTVSPropertyOp52
 70
     0
102
RTVSPropertyOp53
 70
     1
102
RTVSPropertyOp54
 70
     1
102
RTVSPropertyOp55
 70
     1
102
RTVSPropertyOp56
 70
     1
102
RTVSPropertyOp57
 70
     1
102
RTVSPropertyOp58
 70
     1
102
RTVSPropertyOp59
 70
     1
102
RTVSPropertyOp60
 70
     1
102
RTVSPropertyOp61
 70
     1
102
RTVSPropertyOp62
 70
     1
  0
XRECORD
  5
D023
102
{ACAD_REACTORS
330
D022
102
}
330
D022
100
AcDbXrecord
280
     1
102
RTVSPost2010Prop28
280
     0
102
RTVSPost2010PropOp28
 70
     1
102
RTVSPost2010Prop29
280
     1
102
RTVSPost2010PropOp29
 70
     1
102
RTVSPost2010Prop30
280
     1
102
RTVSPost2010PropOp30
 70
     1
102
RTVSPost2010Prop31
280
     0
102
RTVSPost2010PropOp31
 70
     1
102
RTVSPost2010Prop32
280
     0
102
RTVSPost2010PropOp32
 70
     1
102
RTVSPost2010Prop33
280
     0
102
RTVSPost2010PropOp33
 70
     1
102
RTVSPost2010Prop34
280
     0
102
RTVSPost2010PropOp34
 70
     1
102
RTVSPost2010Prop35
280
     0
102
RTVSPost2010PropOp35
 70
     1
102
RTVSPost2010Prop36
280
     0
102
RTVSPost2010PropOp36
 70
     1
102
RTVSPost2010Prop37
 90
       50
102
RTVSPost2010PropOp37
 70
     1
102
RTVSPost2010Prop38
140
0.0
102
RTVSPost2010PropOp38
 70
     1
102
RTVSPost2010Prop39
140
1.0
102
RTVSPost2010PropOp39
 70
     1
102
RTVSPost2010Prop40
 90
        0
102
RTVSPost2010PropOp40
 70
     1
102
RTVSPost2010Prop41ColorIndex
 90
       18
102
RTVSPost2010Prop41ColorRGB
 90
        0
102
RTVSPost2010PropOp41
 70
     1
102
RTVSPost2010Prop42
 90
       50
102
RTVSPost2010PropOp42
 70
     1
102
RTVSPost2010Prop43
 90
        3
102
RTVSPost2010PropOp43
 70
     1
102
RTVSPost2010Prop44ColorIndex
 90
        5
102
RTVSPost2010Prop44ColorRGB
 90
      255
102
RTVSPost2010PropOp44
 70
     1
102
RTVSPost2010Prop45
280
     0
102
RTVSPost2010PropOp45
 70
     1
102
RTVSPost2010Prop46
 90
       50
102
RTVSPost2010PropOp46
 70
     1
102
RTVSPost2010Prop47
 90
       50
102
RTVSPost2010PropOp47
 70
     1
102
RTVSPost2010Prop48
 90
       50
102
RTVSPost2010PropOp48
 70
     1
102
RTVSPost2010Prop49
280
     0
102
RTVSPost2010PropOp49
 70
     1
102
RTVSPost2010Prop50
 90
       50
102
RTVSPost2010PropOp50
 70
     1
102
RTVSPost2010Prop51ColorIndex
 90
      256
102
RTVSPost2010Prop51ColorRGB
 90
-16777216
102
RTVSPost2010PropOp51
 70
     0
102
RTVSPost2010Prop52
140
1.0
102
RTVSPost2010PropOp52
 70
     0
102
RTVSPost2010Prop53
 90
        2
102
RTVSPost2010PropOp53
 70
     1
102
RTVSPost2010Prop54
  1
strokes_ogs.tif
102
RTVSPost2010PropOp54
 70
     1
102
RTVSPost2010Prop55
280
     0
102
RTVSPost2010PropOp55
 70
     1
102
RTVSPost2010Prop56
140
1.0
102
RTVSPost2010PropOp56
 70
     1
102
RTVSPost2010Prop57
140
1.0
102
RTVSPost2010PropOp57
 70
     1
102
RTVSPropertyOp0
 70
     1
102
RTVSPropertyOp1
 70
     1
102
RTVSPropertyOp2
 70
     1
102
RTVSPropertyOp3
 70
     1
102
RTVSPropertyOp4
 70
     1
102
RTVSPropertyOp5
 70
     1
102
RTVSPropertyOp6
 70
     1
102
RTVSPropertyOp7
 70
     1
102
RTVSPropertyOp8
 70
     1
102
RTVSPropertyOp9
 70
     1
102
RTVSPropertyOp10
 70
     1
102
RTVSPropertyOp11
 70
     1
102
RTVSPropertyOp12
 70
     1
102
RTVSPropertyOp13
 70
     1
102
RTVSPropertyOp14
 70
     1
102
RTVSPropertyOp15
 70
     1
102
RTVSPropertyOp16
 70
     1
102
RTVSPropertyOp17
 70
     1
102
RTVSPropertyOp18
 70
     1
102
RTVSPropertyOp19
 70
     1
102
RTVSPropertyOp20
 70
     1
102
RTVSPropertyOp21
 70
     1
102
RTVSPropertyOp22
 70
     1
102
RTVSPropertyOp23
 70
     1
102
RTVSPropertyOp24
 70
     1
102
RTVSPropertyOp25
 70
     1
102
RTVSPropertyOp26
 70
     1
102
RTVSPropertyOp27
 70
     1
102
RTVSPropertyOp28
 70
     1
102
RTVSPropertyOp29
 70
     1
102
RTVSPropertyOp30
 70
     1
102
RTVSPropertyOp31
 70
     1
102
RTVSPropertyOp32
 70
     1
102
RTVSPropertyOp33
 70
     1
102
RTVSPropertyOp34
 70
     1
102
RTVSPropertyOp35
 70
     1
102
RTVSPropertyOp36
 70
     1
102
RTVSPropertyOp37
 70
     1
102
RTVSPropertyOp38
 70
     1
102
RTVSPropertyOp39
 70
     1
102
RTVSPropertyOp40
 70
     1
102
RTVSPropertyOp41
 70
     1
102
RTVSPropertyOp42
 70
     1
102
RTVSPropertyOp43
 70
     1
102
RTVSPropertyOp44
 70
     1
102
RTVSPropertyOp45
 70
     1
102
RTVSPropertyOp46
 70
     1
102
RTVSPropertyOp47
 70
     1
102
RTVSPropertyOp48
 70
     1
102
RTVSPropertyOp49
 70
     1
102
RTVSPropertyOp50
 70
     1
102
RTVSPropertyOp51
 70
     0
102
RTVSPropertyOp52
 70
     0
102
RTVSPropertyOp53
 70
     1
102
RTVSPropertyOp54
 70
     1
102
RTVSPropertyOp55
 70
     1
102
RTVSPropertyOp56
 70
     1
102
RTVSPropertyOp57
 70
     1
102
RTVSPropertyOp58
 70
     1
102
RTVSPropertyOp59
 70
     1
102
RTVSPropertyOp60
 70
     1
102
RTVSPropertyOp61
 70
     1
102
RTVSPropertyOp62
 70
     1
  0
XRECORD
  5
D025
102
{ACAD_REACTORS
330
D024
102
}
330
D024
100
AcDbXrecord
280
     1
102
RTVSPost2010Prop28
280
     0
102
RTVSPost2010PropOp28
 70
     1
102
RTVSPost2010Prop29
280
     1
102
RTVSPost2010PropOp29
 70
     1
102
RTVSPost2010Prop30
280
     1
102
RTVSPost2010PropOp30
 70
     1
102
RTVSPost2010Prop31
280
     0
102
RTVSPost2010PropOp31
 70
     1
102
RTVSPost2010Prop32
280
     0
102
RTVSPost2010PropOp32
 70
     1
102
RTVSPost2010Prop33
280
     0
102
RTVSPost2010PropOp33
 70
     1
102
RTVSPost2010Prop34
280
     0
102
RTVSPost2010PropOp34
 70
     1
102
RTVSPost2010Prop35
280
     0
102
RTVSPost2010PropOp35
 70
     1
102
RTVSPost2010Prop36
280
     0
102
RTVSPost2010PropOp36
 70
     1
102
RTVSPost2010Prop37
 90
       50
102
RTVSPost2010PropOp37
 70
     1
102
RTVSPost2010Prop38
140
0.0
102
RTVSPost2010PropOp38
 70
     1
102
RTVSPost2010Prop39
140
1.0
102
RTVSPost2010PropOp39
 70
     1
102
RTVSPost2010Prop40
 90
        0
102
RTVSPost2010PropOp40
 70
     1
102
RTVSPost2010Prop41ColorIndex
 90
       18
102
RTVSPost2010Prop41ColorRGB
 90
        0
102
RTVSPost2010PropOp41
 70
     1
102
RTVSPost2010Prop42
 90
       50
102
RTVSPost2010PropOp42
 70
     1
102
RTVSPost2010Prop43
 90
        3
102
RTVSPost2010PropOp43
 70
     1
102
RTVSPost2010Prop44ColorIndex
 90
        5
102
RTVSPost2010Prop44ColorRGB
 90
      255
102
RTVSPost2010PropOp44
 70
     1
102
RTVSPost2010Prop45
280
     0
102
RTVSPost2010PropOp45
 70
     1
102
RTVSPost2010Prop46
 90
       50
102
RTVSPost2010PropOp46
 70
     1
102
RTVSPost2010Prop47
 90
       50
102
RTVSPost2010PropOp47
 70
     1
102
RTVSPost2010Prop48
 90
       50
102
RTVSPost2010PropOp48
 70
     1
102
RTVSPost2010Prop49
280
     0
102
RTVSPost2010PropOp49
 70
     1
102
RTVSPost2010Prop50
 90
       50
102
RTVSPost2010PropOp50
 70
     1
102
RTVSPost2010Prop51ColorIndex
 90
      256
102
RTVSPost2010Prop51ColorRGB
 90
-16777216
102
RTVSPost2010PropOp51
 70
     0
102
RTVSPost2010Prop52
140
1.0
102
RTVSPost2010PropOp52
 70
     0
102
RTVSPost2010Prop53
 90
        2
102
RTVSPost2010PropOp53
 70
     1
102
RTVSPost2010Prop54
  1
strokes_ogs.tif
102
RTVSPost2010PropOp54
 70
     1
102
RTVSPost2010Prop55
280
     0
102
RTVSPost2010PropOp55
 70
     1
102
RTVSPost2010Prop56
140
1.0
102
RTVSPost2010PropOp56
 70
     1
102
RTVSPost2010Prop57
140
1.0
102
RTVSPost2010PropOp57
 70
     1
102
RTVSPropertyOp0
 70
     1
102
RTVSPropertyOp1
 70
     1
102
RTVSPropertyOp2
 70
     1
102
RTVSPropertyOp3
 70
     1
102
RTVSPropertyOp4
 70
     1
102
RTVSPropertyOp5
 70
     1
102
RTVSPropertyOp6
 70
     1
102
RTVSPropertyOp7
 70
     1
102
RTVSPropertyOp8
 70
     1
102
RTVSPropertyOp9
 70
     1
102
RTVSPropertyOp10
 70
     1
102
RTVSPropertyOp11
 70
     1
102
RTVSPropertyOp12
 70
     1
102
RTVSPropertyOp13
 70
     1
102
RTVSPropertyOp14
 70
     1
102
RTVSPropertyOp15
 70
     1
102
RTVSPropertyOp16
 70
     1
102
RTVSPropertyOp17
 70
     1
102
RTVSPropertyOp18
 70
     1
102
RTVSPropertyOp19
 70
     1
102
RTVSPropertyOp20
 70
     1
102
RTVSPropertyOp21
 70
     1
102
RTVSPropertyOp22
 70
     1
102
RTVSPropertyOp23
 70
     1
102
RTVSPropertyOp24
 70
     1
102
RTVSPropertyOp25
 70
     1
102
RTVSPropertyOp26
 70
     1
102
RTVSPropertyOp27
 70
     1
102
RTVSPropertyOp28
 70
     1
102
RTVSPropertyOp29
 70
     1
102
RTVSPropertyOp30
 70
     1
102
RTVSPropertyOp31
 70
     1
102
RTVSPropertyOp32
 70
     1
102
RTVSPropertyOp33
 70
     1
102
RTVSPropertyOp34
 70
     1
102
RTVSPropertyOp35
 70
     1
102
RTVSPropertyOp36
 70
     1
102
RTVSPropertyOp37
 70
     1
102
RTVSPropertyOp38
 70
     1
102
RTVSPropertyOp39
 70
     1
102
RTVSPropertyOp40
 70
     1
102
RTVSPropertyOp41
 70
     1
102
RTVSPropertyOp42
 70
     1
102
RTVSPropertyOp43
 70
     1
102
RTVSPropertyOp44
 70
     1
102
RTVSPropertyOp45
 70
     1
102
RTVSPropertyOp46
 70
     1
102
RTVSPropertyOp47
 70
     1
102
RTVSPropertyOp48
 70
     1
102
RTVSPropertyOp49
 70
     1
102
RTVSPropertyOp50
 70
     1
102
RTVSPropertyOp51
 70
     0
102
RTVSPropertyOp52
 70
     0
102
RTVSPropertyOp53
 70
     1
102
RTVSPropertyOp54
 70
     1
102
RTVSPropertyOp55
 70
     1
102
RTVSPropertyOp56
 70
     1
102
RTVSPropertyOp57
 70
     1
102
RTVSPropertyOp58
 70
     1
102
RTVSPropertyOp59
 70
     1
102
RTVSPropertyOp60
 70
     1
102
RTVSPropertyOp61
 70
     1
102
RTVSPropertyOp62
 70
     1
  0
XRECORD
  5
D02D
102
{ACAD_REACTORS
330
D02C
102
}
330
D02C
100
AcDbXrecord
280
     1
102
RTVSPost2010Prop28
280
     0
102
RTVSPost2010PropOp28
 70
     1
102
RTVSPost2010Prop29
280
     1
102
RTVSPost2010PropOp29
 70
     1
102
RTVSPost2010Prop30
280
     1
102
RTVSPost2010PropOp30
 70
     1
102
RTVSPost2010Prop31
280
     0
102
RTVSPost2010PropOp31
 70
     1
102
RTVSPost2010Prop32
280
     0
102
RTVSPost2010PropOp32
 70
     1
102
RTVSPost2010Prop33
280
     0
102
RTVSPost2010PropOp33
 70
     1
102
RTVSPost2010Prop34
280
     0
102
RTVSPost2010PropOp34
 70
     1
102
RTVSPost2010Prop35
280
     0
102
RTVSPost2010PropOp35
 70
     1
102
RTVSPost2010Prop36
280
     0
102
RTVSPost2010PropOp36
 70
     1
102
RTVSPost2010Prop37
 90
       50
102
RTVSPost2010PropOp37
 70
     1
102
RTVSPost2010Prop38
140
0.0
102
RTVSPost2010PropOp38
 70
     1
102
RTVSPost2010Prop39
140
1.0
102
RTVSPost2010PropOp39
 70
     1
102
RTVSPost2010Prop40
 90
        0
102
RTVSPost2010PropOp40
 70
     1
102
RTVSPost2010Prop41ColorIndex
 90
       18
102
RTVSPost2010Prop41ColorRGB
 90
        0
102
RTVSPost2010PropOp41
 70
     1
102
RTVSPost2010Prop42
 90
       50
102
RTVSPost2010PropOp42
 70
     1
102
RTVSPost2010Prop43
 90
        3
102
RTVSPost2010PropOp43
 70
     1
102
RTVSPost2010Prop44ColorIndex
 90
        5
102
RTVSPost2010Prop44ColorRGB
 90
      255
102
RTVSPost2010PropOp44
 70
     1
102
RTVSPost2010Prop45
280
     0
102
RTVSPost2010PropOp45
 70
     1
102
RTVSPost2010Prop46
 90
       50
102
RTVSPost2010PropOp46
 70
     1
102
RTVSPost2010Prop47
 90
       50
102
RTVSPost2010PropOp47
 70
     1
102
RTVSPost2010Prop48
 90
       50
102
RTVSPost2010PropOp48
 70
     1
102
RTVSPost2010Prop49
280
     0
102
RTVSPost2010PropOp49
 70
     1
102
RTVSPost2010Prop50
 90
       50
102
RTVSPost2010PropOp50
 70
     1
102
RTVSPost2010Prop51ColorIndex
 90
      256
102
RTVSPost2010Prop51ColorRGB
 90
-16777216
102
RTVSPost2010PropOp51
 70
     0
102
RTVSPost2010Prop52
140
1.0
102
RTVSPost2010PropOp52
 70
     0
102
RTVSPost2010Prop53
 90
        2
102
RTVSPost2010PropOp53
 70
     1
102
RTVSPost2010Prop54
  1
strokes_ogs.tif
102
RTVSPost2010PropOp54
 70
     1
102
RTVSPost2010Prop55
280
     0
102
RTVSPost2010PropOp55
 70
     1
102
RTVSPost2010Prop56
140
1.0
102
RTVSPost2010PropOp56
 70
     1
102
RTVSPost2010Prop57
140
1.0
102
RTVSPost2010PropOp57
 70
     1
102
RTVSPropertyOp0
 70
     1
102
RTVSPropertyOp1
 70
     1
102
RTVSPropertyOp2
 70
     1
102
RTVSPropertyOp3
 70
     1
102
RTVSPropertyOp4
 70
     1
102
RTVSPropertyOp5
 70
     1
102
RTVSPropertyOp6
 70
     1
102
RTVSPropertyOp7
 70
     1
102
RTVSPropertyOp8
 70
     1
102
RTVSPropertyOp9
 70
     1
102
RTVSPropertyOp10
 70
     1
102
RTVSPropertyOp11
 70
     1
102
RTVSPropertyOp12
 70
     1
102
RTVSPropertyOp13
 70
     1
102
RTVSPropertyOp14
 70
     1
102
RTVSPropertyOp15
 70
     1
102
RTVSPropertyOp16
 70
     1
102
RTVSPropertyOp17
 70
     1
102
RTVSPropertyOp18
 70
     1
102
RTVSPropertyOp19
 70
     1
102
RTVSPropertyOp20
 70
     1
102
RTVSPropertyOp21
 70
     1
102
RTVSPropertyOp22
 70
     1
102
RTVSPropertyOp23
 70
     1
102
RTVSPropertyOp24
 70
     1
102
RTVSPropertyOp25
 70
     1
102
RTVSPropertyOp26
 70
     1
102
RTVSPropertyOp27
 70
     1
102
RTVSPropertyOp28
 70
     1
102
RTVSPropertyOp29
 70
     1
102
RTVSPropertyOp30
 70
     1
102
RTVSPropertyOp31
 70
     1
102
RTVSPropertyOp32
 70
     1
102
RTVSPropertyOp33
 70
     1
102
RTVSPropertyOp34
 70
     1
102
RTVSPropertyOp35
 70
     1
102
RTVSPropertyOp36
 70
     1
102
RTVSPropertyOp37
 70
     1
102
RTVSPropertyOp38
 70
     1
102
RTVSPropertyOp39
 70
     1
102
RTVSPropertyOp40
 70
     1
102
RTVSPropertyOp41
 70
     1
102
RTVSPropertyOp42
 70
     1
102
RTVSPropertyOp43
 70
     1
102
RTVSPropertyOp44
 70
     1
102
RTVSPropertyOp45
 70
     1
102
RTVSPropertyOp46
 70
     1
102
RTVSPropertyOp47
 70
     1
102
RTVSPropertyOp48
 70
     1
102
RTVSPropertyOp49
 70
     1
102
RTVSPropertyOp50
 70
     1
102
RTVSPropertyOp51
 70
     0
102
RTVSPropertyOp52
 70
     0
102
RTVSPropertyOp53
 70
     1
102
RTVSPropertyOp54
 70
     1
102
RTVSPropertyOp55
 70
     1
102
RTVSPropertyOp56
 70
     1
102
RTVSPropertyOp57
 70
     1
102
RTVSPropertyOp58
 70
     1
102
RTVSPropertyOp59
 70
     1
102
RTVSPropertyOp60
 70
     1
102
RTVSPropertyOp61
 70
     1
102
RTVSPropertyOp62
 70
     1
  0
XRECORD
  5
D049
102
{ACAD_REACTORS
330
D048
102
}
330
D048
100
AcDbXrecord
280
     1
102
RTVSPost2010Prop28
280
     0
102
RTVSPost2010PropOp28
 70
     1
102
RTVSPost2010Prop29
280
     1
102
RTVSPost2010PropOp29
 70
     1
102
RTVSPost2010Prop30
280
     1
102
RTVSPost2010PropOp30
 70
     1
102
RTVSPost2010Prop31
280
     0
102
RTVSPost2010PropOp31
 70
     1
102
RTVSPost2010Prop32
280
     0
102
RTVSPost2010PropOp32
 70
     1
102
RTVSPost2010Prop33
280
     0
102
RTVSPost2010PropOp33
 70
     1
102
RTVSPost2010Prop34
280
     0
102
RTVSPost2010PropOp34
 70
     1
102
RTVSPost2010Prop35
280
     0
102
RTVSPost2010PropOp35
 70
     1
102
RTVSPost2010Prop36
280
     0
102
RTVSPost2010PropOp36
 70
     1
102
RTVSPost2010Prop37
 90
       50
102
RTVSPost2010PropOp37
 70
     0
102
RTVSPost2010Prop38
140
0.0
102
RTVSPost2010PropOp38
 70
     0
102
RTVSPost2010Prop39
140
1.0
102
RTVSPost2010PropOp39
 70
     0
102
RTVSPost2010Prop40
 90
        0
102
RTVSPost2010PropOp40
 70
     0
102
RTVSPost2010Prop41ColorIndex
 90
       18
102
RTVSPost2010Prop41ColorRGB
 90
        0
102
RTVSPost2010PropOp41
 70
     0
102
RTVSPost2010Prop42
 90
       50
102
RTVSPost2010PropOp42
 70
     0
102
RTVSPost2010Prop43
 90
        3
102
RTVSPost2010PropOp43
 70
     0
102
RTVSPost2010Prop44ColorIndex
 90
        5
102
RTVSPost2010Prop44ColorRGB
 90
      255
102
RTVSPost2010PropOp44
 70
     0
102
RTVSPost2010Prop45
280
     0
102
RTVSPost2010PropOp45
 70
     1
102
RTVSPost2010Prop46
 90
       50
102
RTVSPost2010PropOp46
 70
     0
102
RTVSPost2010Prop47
 90
       50
102
RTVSPost2010PropOp47
 70
     0
102
RTVSPost2010Prop48
 90
       50
102
RTVSPost2010PropOp48
 70
     0
102
RTVSPost2010Prop49
280
     0
102
RTVSPost2010PropOp49
 70
     1
102
RTVSPost2010Prop50
 90
       50
102
RTVSPost2010PropOp50
 70
     0
102
RTVSPost2010Prop51ColorIndex
 90
      256
102
RTVSPost2010Prop51ColorRGB
 90
-16777216
102
RTVSPost2010PropOp51
 70
     0
102
RTVSPost2010Prop52
140
1.0
102
RTVSPost2010PropOp52
 70
     0
102
RTVSPost2010Prop53
 90
        2
102
RTVSPost2010PropOp53
 70
     0
102
RTVSPost2010Prop54
  1
strokes_ogs.tif
102
RTVSPost2010PropOp54
 70
     0
102
RTVSPost2010Prop55
280
     0
102
RTVSPost2010PropOp55
 70
     1
102
RTVSPost2010Prop56
140
1.0
102
RTVSPost2010PropOp56
 70
     0
102
RTVSPost2010Prop57
140
1.0
102
RTVSPost2010PropOp57
 70
     0
102
RTVSPropertyOp0
 70
     0
102
RTVSPropertyOp1
 70
     0
102
RTVSPropertyOp2
 70
     0
102
RTVSPropertyOp3
 70
     0
102
RTVSPropertyOp4
 70
     0
102
RTVSPropertyOp5
 70
     0
102
RTVSPropertyOp6
 70
     0
102
RTVSPropertyOp7
 70
     0
102
RTVSPropertyOp8
 70
     0
102
RTVSPropertyOp9
 70
     0
102
RTVSPropertyOp10
 70
     0
102
RTVSPropertyOp11
 70
     0
102
RTVSPropertyOp12
 70
     0
102
RTVSPropertyOp13
 70
     0
102
RTVSPropertyOp14
 70
     2
102
RTVSPropertyOp15
 70
     0
102
RTVSPropertyOp16
 70
     0
102
RTVSPropertyOp17
 70
     0
102
RTVSPropertyOp18
 70
     0
102
RTVSPropertyOp19
 70
     0
102
RTVSPropertyOp20
 70
     0
102
RTVSPropertyOp21
 70
     0
102
RTVSPropertyOp22
 70
     0
102
RTVSPropertyOp23
 70
     0
102
RTVSPropertyOp24
 70
     0
102
RTVSPropertyOp25
 70
     0
102
RTVSPropertyOp26
 70
     0
102
RTVSPropertyOp27
 70
     0
102
RTVSPropertyOp28
 70
     1
102
RTVSPropertyOp29
 70
     1
102
RTVSPropertyOp30
 70
     1
102
RTVSPropertyOp31
 70
     1
102
RTVSPropertyOp32
 70
     1
102
RTVSPropertyOp33
 70
     1
102
RTVSPropertyOp34
 70
     1
102
RTVSPropertyOp35
 70
     1
102
RTVSPropertyOp36
 70
     1
102
RTVSPropertyOp37
 70
     0
102
RTVSPropertyOp38
 70
     0
102
RTVSPropertyOp39
 70
     0
102
RTVSPropertyOp40
 70
     0
102
RTVSPropertyOp41
 70
     0
102
RTVSPropertyOp42
 70
     0
102
RTVSPropertyOp43
 70
     0
102
RTVSPropertyOp44
 70
     0
102
RTVSPropertyOp45
 70
     1
102
RTVSPropertyOp46
 70
     0
102
RTVSPropertyOp47
 70
     0
102
RTVSPropertyOp48
 70
     0
102
RTVSPropertyOp49
 70
     1
102
RTVSPropertyOp50
 70
     0
102
RTVSPropertyOp51
 70
     0
102
RTVSPropertyOp52
 70
     0
102
RTVSPropertyOp53
 70
     0
102
RTVSPropertyOp54
 70
     0
102
RTVSPropertyOp55
 70
     1
102
RTVSPropertyOp56
 70
     0
102
RTVSPropertyOp57
 70
     0
102
RTVSPropertyOp58
 70
     0
102
RTVSPropertyOp59
 70
     0
102
RTVSPropertyOp60
 70
     0
102
RTVSPropertyOp61
 70
     0
102
RTVSPropertyOp62
 70
     0
  0
XRECORD
  5
D039
102
{ACAD_REACTORS
330
D038
102
}
330
D038
100
AcDbXrecord
280
     1
102
RTVSPost2010Prop28
280
     0
102
RTVSPost2010PropOp28
 70
     1
102
RTVSPost2010Prop29
280
     1
102
RTVSPost2010PropOp29
 70
     1
102
RTVSPost2010Prop30
280
     1
102
RTVSPost2010PropOp30
 70
     1
102
RTVSPost2010Prop31
280
     0
102
RTVSPost2010PropOp31
 70
     1
102
RTVSPost2010Prop32
280
     0
102
RTVSPost2010PropOp32
 70
     1
102
RTVSPost2010Prop33
280
     0
102
RTVSPost2010PropOp33
 70
     1
102
RTVSPost2010Prop34
280
     0
102
RTVSPost2010PropOp34
 70
     1
102
RTVSPost2010Prop35
280
     0
102
RTVSPost2010PropOp35
 70
     1
102
RTVSPost2010Prop36
280
     0
102
RTVSPost2010PropOp36
 70
     1
102
RTVSPost2010Prop37
 90
       50
102
RTVSPost2010PropOp37
 70
     1
102
RTVSPost2010Prop38
140
0.0
102
RTVSPost2010PropOp38
 70
     1
102
RTVSPost2010Prop39
140
1.0
102
RTVSPost2010PropOp39
 70
     1
102
RTVSPost2010Prop40
 90
        0
102
RTVSPost2010PropOp40
 70
     1
102
RTVSPost2010Prop41ColorIndex
 90
       18
102
RTVSPost2010Prop41ColorRGB
 90
        0
102
RTVSPost2010PropOp41
 70
     1
102
RTVSPost2010Prop42
 90
       50
102
RTVSPost2010PropOp42
 70
     1
102
RTVSPost2010Prop43
 90
        3
102
RTVSPost2010PropOp43
 70
     1
102
RTVSPost2010Prop44ColorIndex
 90
        5
102
RTVSPost2010Prop44ColorRGB
 90
      255
102
RTVSPost2010PropOp44
 70
     1
102
RTVSPost2010Prop45
280
     0
102
RTVSPost2010PropOp45
 70
     1
102
RTVSPost2010Prop46
 90
       50
102
RTVSPost2010PropOp46
 70
     1
102
RTVSPost2010Prop47
 90
       50
102
RTVSPost2010PropOp47
 70
     1
102
RTVSPost2010Prop48
 90
       50
102
RTVSPost2010PropOp48
 70
     1
102
RTVSPost2010Prop49
280
     0
102
RTVSPost2010PropOp49
 70
     1
102
RTVSPost2010Prop50
 90
       50
102
RTVSPost2010PropOp50
 70
     1
102
RTVSPost2010Prop51ColorIndex
 90
      256
102
RTVSPost2010Prop51ColorRGB
 90
-16777216
102
RTVSPost2010PropOp51
 70
     0
102
RTVSPost2010Prop52
140
1.0
102
RTVSPost2010PropOp52
 70
     0
102
RTVSPost2010Prop53
 90
        2
102
RTVSPost2010PropOp53
 70
     1
102
RTVSPost2010Prop54
  1
strokes_ogs.tif
102
RTVSPost2010PropOp54
 70
     1
102
RTVSPost2010Prop55
280
     0
102
RTVSPost2010PropOp55
 70
     1
102
RTVSPost2010Prop56
140
1.0
102
RTVSPost2010PropOp56
 70
     1
102
RTVSPost2010Prop57
140
1.0
102
RTVSPost2010PropOp57
 70
     1
102
RTVSPropertyOp0
 70
     1
102
RTVSPropertyOp1
 70
     1
102
RTVSPropertyOp2
 70
     1
102
RTVSPropertyOp3
 70
     1
102
RTVSPropertyOp4
 70
     1
102
RTVSPropertyOp5
 70
     1
102
RTVSPropertyOp6
 70
     1
102
RTVSPropertyOp7
 70
     1
102
RTVSPropertyOp8
 70
     1
102
RTVSPropertyOp9
 70
     1
102
RTVSPropertyOp10
 70
     1
102
RTVSPropertyOp11
 70
     1
102
RTVSPropertyOp12
 70
     1
102
RTVSPropertyOp13
 70
     1
102
RTVSPropertyOp14
 70
     1
102
RTVSPropertyOp15
 70
     1
102
RTVSPropertyOp16
 70
     1
102
RTVSPropertyOp17
 70
     1
102
RTVSPropertyOp18
 70
     1
102
RTVSPropertyOp19
 70
     1
102
RTVSPropertyOp20
 70
     1
102
RTVSPropertyOp21
 70
     1
102
RTVSPropertyOp22
 70
     1
102
RTVSPropertyOp23
 70
     1
102
RTVSPropertyOp24
 70
     1
102
RTVSPropertyOp25
 70
     1
102
RTVSPropertyOp26
 70
     1
102
RTVSPropertyOp27
 70
     1
102
RTVSPropertyOp28
 70
     1
102
RTVSPropertyOp29
 70
     1
102
RTVSPropertyOp30
 70
     1
102
RTVSPropertyOp31
 70
     1
102
RTVSPropertyOp32
 70
     1
102
RTVSPropertyOp33
 70
     1
102
RTVSPropertyOp34
 70
     1
102
RTVSPropertyOp35
 70
     1
102
RTVSPropertyOp36
 70
     1
102
RTVSPropertyOp37
 70
     1
102
RTVSPropertyOp38
 70
     1
102
RTVSPropertyOp39
 70
     1
102
RTVSPropertyOp40
 70
     1
102
RTVSPropertyOp41
 70
     1
102
RTVSPropertyOp42
 70
     1
102
RTVSPropertyOp43
 70
     1
102
RTVSPropertyOp44
 70
     1
102
RTVSPropertyOp45
 70
     1
102
RTVSPropertyOp46
 70
     1
102
RTVSPropertyOp47
 70
     1
102
RTVSPropertyOp48
 70
     1
102
RTVSPropertyOp49
 70
     1
102
RTVSPropertyOp50
 70
     1
102
RTVSPropertyOp51
 70
     0
102
RTVSPropertyOp52
 70
     0
102
RTVSPropertyOp53
 70
     1
102
RTVSPropertyOp54
 70
     1
102
RTVSPropertyOp55
 70
     1
102
RTVSPropertyOp56
 70
     1
102
RTVSPropertyOp57
 70
     1
102
RTVSPropertyOp58
 70
     1
102
RTVSPropertyOp59
 70
     1
102
RTVSPropertyOp60
 70
     1
102
RTVSPropertyOp61
 70
     1
102
RTVSPropertyOp62
 70
     1
  0
XRECORD
  5
D04B
102
{ACAD_REACTORS
330
D04A
102
}
330
D04A
100
AcDbXrecord
280
     1
102
RTVSPost2010Prop28
280
     0
102
RTVSPost2010PropOp28
 70
     1
102
RTVSPost2010Prop29
280
     1
102
RTVSPost2010PropOp29
 70
     1
102
RTVSPost2010Prop30
280
     1
102
RTVSPost2010PropOp30
 70
     1
102
RTVSPost2010Prop31
280
     0
102
RTVSPost2010PropOp31
 70
     1
102
RTVSPost2010Prop32
280
     0
102
RTVSPost2010PropOp32
 70
     1
102
RTVSPost2010Prop33
280
     0
102
RTVSPost2010PropOp33
 70
     1
102
RTVSPost2010Prop34
280
     0
102
RTVSPost2010PropOp34
 70
     1
102
RTVSPost2010Prop35
280
     0
102
RTVSPost2010PropOp35
 70
     1
102
RTVSPost2010Prop36
280
     0
102
RTVSPost2010PropOp36
 70
     1
102
RTVSPost2010Prop37
 90
       50
102
RTVSPost2010PropOp37
 70
     0
102
RTVSPost2010Prop38
140
0.0
102
RTVSPost2010PropOp38
 70
     0
102
RTVSPost2010Prop39
140
1.0
102
RTVSPost2010PropOp39
 70
     0
102
RTVSPost2010Prop40
 90
        0
102
RTVSPost2010PropOp40
 70
     0
102
RTVSPost2010Prop41ColorIndex
 90
       18
102
RTVSPost2010Prop41ColorRGB
 90
        0
102
RTVSPost2010PropOp41
 70
     0
102
RTVSPost2010Prop42
 90
       50
102
RTVSPost2010PropOp42
 70
     0
102
RTVSPost2010Prop43
 90
        3
102
RTVSPost2010PropOp43
 70
     0
102
RTVSPost2010Prop44ColorIndex
 90
        5
102
RTVSPost2010Prop44ColorRGB
 90
      255
102
RTVSPost2010PropOp44
 70
     0
102
RTVSPost2010Prop45
280
     0
102
RTVSPost2010PropOp45
 70
     1
102
RTVSPost2010Prop46
 90
       50
102
RTVSPost2010PropOp46
 70
     0
102
RTVSPost2010Prop47
 90
       50
102
RTVSPost2010PropOp47
 70
     0
102
RTVSPost2010Prop48
 90
       50
102
RTVSPost2010PropOp48
 70
     0
102
RTVSPost2010Prop49
280
     0
102
RTVSPost2010PropOp49
 70
     1
102
RTVSPost2010Prop50
 90
       50
102
RTVSPost2010PropOp50
 70
     0
102
RTVSPost2010Prop51ColorIndex
 90
      256
102
RTVSPost2010Prop51ColorRGB
 90
-16777216
102
RTVSPost2010PropOp51
 70
     0
102
RTVSPost2010Prop52
140
1.0
102
RTVSPost2010PropOp52
 70
     0
102
RTVSPost2010Prop53
 90
        2
102
RTVSPost2010PropOp53
 70
     0
102
RTVSPost2010Prop54
  1
strokes_ogs.tif
102
RTVSPost2010PropOp54
 70
     0
102
RTVSPost2010Prop55
280
     0
102
RTVSPost2010PropOp55
 70
     1
102
RTVSPost2010Prop56
140
1.0
102
RTVSPost2010PropOp56
 70
     0
102
RTVSPost2010Prop57
140
1.0
102
RTVSPost2010PropOp57
 70
     0
102
RTVSPropertyOp0
 70
     0
102
RTVSPropertyOp1
 70
     0
102
RTVSPropertyOp2
 70
     0
102
RTVSPropertyOp3
 70
     0
102
RTVSPropertyOp4
 70
     0
102
RTVSPropertyOp5
 70
     0
102
RTVSPropertyOp6
 70
     0
102
RTVSPropertyOp7
 70
     0
102
RTVSPropertyOp8
 70
     0
102
RTVSPropertyOp9
 70
     0
102
RTVSPropertyOp10
 70
     0
102
RTVSPropertyOp11
 70
     0
102
RTVSPropertyOp12
 70
     0
102
RTVSPropertyOp13
 70
     0
102
RTVSPropertyOp14
 70
     2
102
RTVSPropertyOp15
 70
     0
102
RTVSPropertyOp16
 70
     0
102
RTVSPropertyOp17
 70
     0
102
RTVSPropertyOp18
 70
     0
102
RTVSPropertyOp19
 70
     0
102
RTVSPropertyOp20
 70
     0
102
RTVSPropertyOp21
 70
     0
102
RTVSPropertyOp22
 70
     0
102
RTVSPropertyOp23
 70
     0
102
RTVSPropertyOp24
 70
     0
102
RTVSPropertyOp25
 70
     0
102
RTVSPropertyOp26
 70
     0
102
RTVSPropertyOp27
 70
     0
102
RTVSPropertyOp28
 70
     1
102
RTVSPropertyOp29
 70
     1
102
RTVSPropertyOp30
 70
     1
102
RTVSPropertyOp31
 70
     1
102
RTVSPropertyOp32
 70
     1
102
RTVSPropertyOp33
 70
     1
102
RTVSPropertyOp34
 70
     1
102
RTVSPropertyOp35
 70
     1
102
RTVSPropertyOp36
 70
     1
102
RTVSPropertyOp37
 70
     0
102
RTVSPropertyOp38
 70
     0
102
RTVSPropertyOp39
 70
     0
102
RTVSPropertyOp40
 70
     0
102
RTVSPropertyOp41
 70
     0
102
RTVSPropertyOp42
 70
     0
102
RTVSPropertyOp43
 70
     0
102
RTVSPropertyOp44
 70
     0
102
RTVSPropertyOp45
 70
     1
102
RTVSPropertyOp46
 70
     0
102
RTVSPropertyOp47
 70
     0
102
RTVSPropertyOp48
 70
     0
102
RTVSPropertyOp49
 70
     1
102
RTVSPropertyOp50
 70
     0
102
RTVSPropertyOp51
 70
     0
102
RTVSPropertyOp52
 70
     0
102
RTVSPropertyOp53
 70
     0
102
RTVSPropertyOp54
 70
     0
102
RTVSPropertyOp55
 70
     1
102
RTVSPropertyOp56
 70
     0
102
RTVSPropertyOp57
 70
     0
102
RTVSPropertyOp58
 70
     0
102
RTVSPropertyOp59
 70
     0
102
RTVSPropertyOp60
 70
     0
102
RTVSPropertyOp61
 70
     0
102
RTVSPropertyOp62
 70
     0
  0
XRECORD
  5
D031
102
{ACAD_REACTORS
330
D030
102
}
330
D030
100
AcDbXrecord
280
     1
102
RTVSPost2010Prop28
280
     0
102
RTVSPost2010PropOp28
 70
     1
102
RTVSPost2010Prop29
280
     1
102
RTVSPost2010PropOp29
 70
     1
102
RTVSPost2010Prop30
280
     1
102
RTVSPost2010PropOp30
 70
     1
102
RTVSPost2010Prop31
280
     0
102
RTVSPost2010PropOp31
 70
     1
102
RTVSPost2010Prop32
280
     0
102
RTVSPost2010PropOp32
 70
     1
102
RTVSPost2010Prop33
280
     0
102
RTVSPost2010PropOp33
 70
     1
102
RTVSPost2010Prop34
280
     0
102
RTVSPost2010PropOp34
 70
     1
102
RTVSPost2010Prop35
280
     0
102
RTVSPost2010PropOp35
 70
     1
102
RTVSPost2010Prop36
280
     0
102
RTVSPost2010PropOp36
 70
     1
102
RTVSPost2010Prop37
 90
       50
102
RTVSPost2010PropOp37
 70
     1
102
RTVSPost2010Prop38
140
0.0
102
RTVSPost2010PropOp38
 70
     1
102
RTVSPost2010Prop39
140
1.0
102
RTVSPost2010PropOp39
 70
     1
102
RTVSPost2010Prop40
 90
        0
102
RTVSPost2010PropOp40
 70
     1
102
RTVSPost2010Prop41ColorIndex
 90
       18
102
RTVSPost2010Prop41ColorRGB
 90
        0
102
RTVSPost2010PropOp41
 70
     1
102
RTVSPost2010Prop42
 90
       50
102
RTVSPost2010PropOp42
 70
     1
102
RTVSPost2010Prop43
 90
        3
102
RTVSPost2010PropOp43
 70
     1
102
RTVSPost2010Prop44ColorIndex
 90
        5
102
RTVSPost2010Prop44ColorRGB
 90
      255
102
RTVSPost2010PropOp44
 70
     1
102
RTVSPost2010Prop45
280
     0
102
RTVSPost2010PropOp45
 70
     1
102
RTVSPost2010Prop46
 90
       50
102
RTVSPost2010PropOp46
 70
     1
102
RTVSPost2010Prop47
 90
       50
102
RTVSPost2010PropOp47
 70
     1
102
RTVSPost2010Prop48
 90
       50
102
RTVSPost2010PropOp48
 70
     1
102
RTVSPost2010Prop49
280
     0
102
RTVSPost2010PropOp49
 70
     1
102
RTVSPost2010Prop50
 90
       50
102
RTVSPost2010PropOp50
 70
     1
102
RTVSPost2010Prop51ColorIndex
 90
      256
102
RTVSPost2010Prop51ColorRGB
 90
-16777216
102
RTVSPost2010PropOp51
 70
     0
102
RTVSPost2010Prop52
140
1.0
102
RTVSPost2010PropOp52
 70
     0
102
RTVSPost2010Prop53
 90
        2
102
RTVSPost2010PropOp53
 70
     1
102
RTVSPost2010Prop54
  1
strokes_ogs.tif
102
RTVSPost2010PropOp54
 70
     1
102
RTVSPost2010Prop55
280
     0
102
RTVSPost2010PropOp55
 70
     1
102
RTVSPost2010Prop56
140
1.0
102
RTVSPost2010PropOp56
 70
     1
102
RTVSPost2010Prop57
140
1.0
102
RTVSPost2010PropOp57
 70
     1
102
RTVSPropertyOp0
 70
     1
102
RTVSPropertyOp1
 70
     1
102
RTVSPropertyOp2
 70
     1
102
RTVSPropertyOp3
 70
     1
102
RTVSPropertyOp4
 70
     1
102
RTVSPropertyOp5
 70
     1
102
RTVSPropertyOp6
 70
     1
102
RTVSPropertyOp7
 70
     1
102
RTVSPropertyOp8
 70
     1
102
RTVSPropertyOp9
 70
     1
102
RTVSPropertyOp10
 70
     1
102
RTVSPropertyOp11
 70
     1
102
RTVSPropertyOp12
 70
     1
102
RTVSPropertyOp13
 70
     1
102
RTVSPropertyOp14
 70
     1
102
RTVSPropertyOp15
 70
     1
102
RTVSPropertyOp16
 70
     1
102
RTVSPropertyOp17
 70
     1
102
RTVSPropertyOp18
 70
     1
102
RTVSPropertyOp19
 70
     1
102
RTVSPropertyOp20
 70
     1
102
RTVSPropertyOp21
 70
     1
102
RTVSPropertyOp22
 70
     1
102
RTVSPropertyOp23
 70
     1
102
RTVSPropertyOp24
 70
     1
102
RTVSPropertyOp25
 70
     1
102
RTVSPropertyOp26
 70
     1
102
RTVSPropertyOp27
 70
     1
102
RTVSPropertyOp28
 70
     1
102
RTVSPropertyOp29
 70
     1
102
RTVSPropertyOp30
 70
     1
102
RTVSPropertyOp31
 70
     1
102
RTVSPropertyOp32
 70
     1
102
RTVSPropertyOp33
 70
     1
102
RTVSPropertyOp34
 70
     1
102
RTVSPropertyOp35
 70
     1
102
RTVSPropertyOp36
 70
     1
102
RTVSPropertyOp37
 70
     1
102
RTVSPropertyOp38
 70
     1
102
RTVSPropertyOp39
 70
     1
102
RTVSPropertyOp40
 70
     1
102
RTVSPropertyOp41
 70
     1
102
RTVSPropertyOp42
 70
     1
102
RTVSPropertyOp43
 70
     1
102
RTVSPropertyOp44
 70
     1
102
RTVSPropertyOp45
 70
     1
102
RTVSPropertyOp46
 70
     1
102
RTVSPropertyOp47
 70
     1
102
RTVSPropertyOp48
 70
     1
102
RTVSPropertyOp49
 70
     1
102
RTVSPropertyOp50
 70
     1
102
RTVSPropertyOp51
 70
     0
102
RTVSPropertyOp52
 70
     0
102
RTVSPropertyOp53
 70
     1
102
RTVSPropertyOp54
 70
     1
102
RTVSPropertyOp55
 70
     1
102
RTVSPropertyOp56
 70
     1
102
RTVSPropertyOp57
 70
     1
102
RTVSPropertyOp58
 70
     1
102
RTVSPropertyOp59
 70
     1
102
RTVSPropertyOp60
 70
     1
102
RTVSPropertyOp61
 70
     1
102
RTVSPropertyOp62
 70
     1
  0
XRECORD
  5
D047
102
{ACAD_REACTORS
330
D046
102
}
330
D046
100
AcDbXrecord
280
     1
102
RTVSPost2010Prop28
280
     0
102
RTVSPost2010PropOp28
 70
     1
102
RTVSPost2010Prop29
280
     1
102
RTVSPost2010PropOp29
 70
     1
102
RTVSPost2010Prop30
280
     1
102
RTVSPost2010PropOp30
 70
     1
102
RTVSPost2010Prop31
280
     0
102
RTVSPost2010PropOp31
 70
     1
102
RTVSPost2010Prop32
280
     0
102
RTVSPost2010PropOp32
 70
     1
102
RTVSPost2010Prop33
280
     0
102
RTVSPost2010PropOp33
 70
     1
102
RTVSPost2010Prop34
280
     0
102
RTVSPost2010PropOp34
 70
     1
102
RTVSPost2010Prop35
280
     0
102
RTVSPost2010PropOp35
 70
     1
102
RTVSPost2010Prop36
280
     0
102
RTVSPost2010PropOp36
 70
     1
102
RTVSPost2010Prop37
 90
       50
102
RTVSPost2010PropOp37
 70
     1
102
RTVSPost2010Prop38
140
0.0
102
RTVSPost2010PropOp38
 70
     1
102
RTVSPost2010Prop39
140
1.0
102
RTVSPost2010PropOp39
 70
     1
102
RTVSPost2010Prop40
 90
        0
102
RTVSPost2010PropOp40
 70
     1
102
RTVSPost2010Prop41ColorIndex
 90
       18
102
RTVSPost2010Prop41ColorRGB
 90
        0
102
RTVSPost2010PropOp41
 70
     1
102
RTVSPost2010Prop42
 90
       50
102
RTVSPost2010PropOp42
 70
     1
102
RTVSPost2010Prop43
 90
        3
102
RTVSPost2010PropOp43
 70
     1
102
RTVSPost2010Prop44ColorIndex
 90
        5
102
RTVSPost2010Prop44ColorRGB
 90
      255
102
RTVSPost2010PropOp44
 70
     1
102
RTVSPost2010Prop45
280
     0
102
RTVSPost2010PropOp45
 70
     1
102
RTVSPost2010Prop46
 90
       50
102
RTVSPost2010PropOp46
 70
     1
102
RTVSPost2010Prop47
 90
       50
102
RTVSPost2010PropOp47
 70
     1
102
RTVSPost2010Prop48
 90
       50
102
RTVSPost2010PropOp48
 70
     1
102
RTVSPost2010Prop49
280
     0
102
RTVSPost2010PropOp49
 70
     1
102
RTVSPost2010Prop50
 90
       50
102
RTVSPost2010PropOp50
 70
     1
102
RTVSPost2010Prop51ColorIndex
 90
      256
102
RTVSPost2010Prop51ColorRGB
 90
-16777216
102
RTVSPost2010PropOp51
 70
     0
102
RTVSPost2010Prop52
140
1.0
102
RTVSPost2010PropOp52
 70
     0
102
RTVSPost2010Prop53
 90
        2
102
RTVSPost2010PropOp53
 70
     1
102
RTVSPost2010Prop54
  1
strokes_ogs.tif
102
RTVSPost2010PropOp54
 70
     1
102
RTVSPost2010Prop55
280
     0
102
RTVSPost2010PropOp55
 70
     1
102
RTVSPost2010Prop56
140
1.0
102
RTVSPost2010PropOp56
 70
     1
102
RTVSPost2010Prop57
140
1.0
102
RTVSPost2010PropOp57
 70
     1
102
RTVSPropertyOp0
 70
     1
102
RTVSPropertyOp1
 70
     1
102
RTVSPropertyOp2
 70
     1
102
RTVSPropertyOp3
 70
     1
102
RTVSPropertyOp4
 70
     1
102
RTVSPropertyOp5
 70
     1
102
RTVSPropertyOp6
 70
     1
102
RTVSPropertyOp7
 70
     1
102
RTVSPropertyOp8
 70
     1
102
RTVSPropertyOp9
 70
     1
102
RTVSPropertyOp10
 70
     1
102
RTVSPropertyOp11
 70
     1
102
RTVSPropertyOp12
 70
     1
102
RTVSPropertyOp13
 70
     1
102
RTVSPropertyOp14
 70
     1
102
RTVSPropertyOp15
 70
     1
102
RTVSPropertyOp16
 70
     1
102
RTVSPropertyOp17
 70
     1
102
RTVSPropertyOp18
 70
     1
102
RTVSPropertyOp19
 70
     1
102
RTVSPropertyOp20
 70
     1
102
RTVSPropertyOp21
 70
     1
102
RTVSPropertyOp22
 70
     1
102
RTVSPropertyOp23
 70
     1
102
RTVSPropertyOp24
 70
     1
102
RTVSPropertyOp25
 70
     1
102
RTVSPropertyOp26
 70
     1
102
RTVSPropertyOp27
 70
     1
102
RTVSPropertyOp28
 70
     1
102
RTVSPropertyOp29
 70
     1
102
RTVSPropertyOp30
 70
     1
102
RTVSPropertyOp31
 70
     1
102
RTVSPropertyOp32
 70
     1
102
RTVSPropertyOp33
 70
     1
102
RTVSPropertyOp34
 70
     1
102
RTVSPropertyOp35
 70
     1
102
RTVSPropertyOp36
 70
     1
102
RTVSPropertyOp37
 70
     1
102
RTVSPropertyOp38
 70
     1
102
RTVSPropertyOp39
 70
     1
102
RTVSPropertyOp40
 70
     1
102
RTVSPropertyOp41
 70
     1
102
RTVSPropertyOp42
 70
     1
102
RTVSPropertyOp43
 70
     1
102
RTVSPropertyOp44
 70
     1
102
RTVSPropertyOp45
 70
     1
102
RTVSPropertyOp46
 70
     1
102
RTVSPropertyOp47
 70
     1
102
RTVSPropertyOp48
 70
     1
102
RTVSPropertyOp49
 70
     1
102
RTVSPropertyOp50
 70
     1
102
RTVSPropertyOp51
 70
     0
102
RTVSPropertyOp52
 70
     0
102
RTVSPropertyOp53
 70
     1
102
RTVSPropertyOp54
 70
     1
102
RTVSPropertyOp55
 70
     1
102
RTVSPropertyOp56
 70
     1
102
RTVSPropertyOp57
 70
     1
102
RTVSPropertyOp58
 70
     1
102
RTVSPropertyOp59
 70
     1
102
RTVSPropertyOp60
 70
     1
102
RTVSPropertyOp61
 70
     1
102
RTVSPropertyOp62
 70
     1
  0
XRECORD
  5
D045
102
{ACAD_REACTORS
330
D044
102
}
330
D044
100
AcDbXrecord
280
     1
102
RTVSPost2010Prop28
280
     0
102
RTVSPost2010PropOp28
 70
     1
102
RTVSPost2010Prop29
280
     1
102
RTVSPost2010PropOp29
 70
     1
102
RTVSPost2010Prop30
280
     1
102
RTVSPost2010PropOp30
 70
     1
102
RTVSPost2010Prop31
280
     0
102
RTVSPost2010PropOp31
 70
     1
102
RTVSPost2010Prop32
280
     0
102
RTVSPost2010PropOp32
 70
     1
102
RTVSPost2010Prop33
280
     0
102
RTVSPost2010PropOp33
 70
     1
102
RTVSPost2010Prop34
280
     0
102
RTVSPost2010PropOp34
 70
     1
102
RTVSPost2010Prop35
280
     0
102
RTVSPost2010PropOp35
 70
     1
102
RTVSPost2010Prop36
280
     0
102
RTVSPost2010PropOp36
 70
     1
102
RTVSPost2010Prop37
 90
       50
102
RTVSPost2010PropOp37
 70
     1
102
RTVSPost2010Prop38
140
0.0
102
RTVSPost2010PropOp38
 70
     1
102
RTVSPost2010Prop39
140
1.0
102
RTVSPost2010PropOp39
 70
     1
102
RTVSPost2010Prop40
 90
        0
102
RTVSPost2010PropOp40
 70
     1
102
RTVSPost2010Prop41ColorIndex
 90
       18
102
RTVSPost2010Prop41ColorRGB
 90
        0
102
RTVSPost2010PropOp41
 70
     1
102
RTVSPost2010Prop42
 90
       50
102
RTVSPost2010PropOp42
 70
     1
102
RTVSPost2010Prop43
 90
        3
102
RTVSPost2010PropOp43
 70
     1
102
RTVSPost2010Prop44ColorIndex
 90
        5
102
RTVSPost2010Prop44ColorRGB
 90
      255
102
RTVSPost2010PropOp44
 70
     1
102
RTVSPost2010Prop45
280
     0
102
RTVSPost2010PropOp45
 70
     1
102
RTVSPost2010Prop46
 90
       50
102
RTVSPost2010PropOp46
 70
     1
102
RTVSPost2010Prop47
 90
       50
102
RTVSPost2010PropOp47
 70
     1
102
RTVSPost2010Prop48
 90
       50
102
RTVSPost2010PropOp48
 70
     1
102
RTVSPost2010Prop49
280
     0
102
RTVSPost2010PropOp49
 70
     1
102
RTVSPost2010Prop50
 90
       50
102
RTVSPost2010PropOp50
 70
     1
102
RTVSPost2010Prop51ColorIndex
 90
      256
102
RTVSPost2010Prop51ColorRGB
 90
-16777216
102
RTVSPost2010PropOp51
 70
     0
102
RTVSPost2010Prop52
140
1.0
102
RTVSPost2010PropOp52
 70
     0
102
RTVSPost2010Prop53
 90
        2
102
RTVSPost2010PropOp53
 70
     1
102
RTVSPost2010Prop54
  1
strokes_ogs.tif
102
RTVSPost2010PropOp54
 70
     1
102
RTVSPost2010Prop55
280
     0
102
RTVSPost2010PropOp55
 70
     1
102
RTVSPost2010Prop56
140
1.0
102
RTVSPost2010PropOp56
 70
     1
102
RTVSPost2010Prop57
140
1.0
102
RTVSPost2010PropOp57
 70
     1
102
RTVSPropertyOp0
 70
     1
102
RTVSPropertyOp1
 70
     1
102
RTVSPropertyOp2
 70
     1
102
RTVSPropertyOp3
 70
     1
102
RTVSPropertyOp4
 70
     1
102
RTVSPropertyOp5
 70
     1
102
RTVSPropertyOp6
 70
     1
102
RTVSPropertyOp7
 70
     1
102
RTVSPropertyOp8
 70
     1
102
RTVSPropertyOp9
 70
     1
102
RTVSPropertyOp10
 70
     1
102
RTVSPropertyOp11
 70
     1
102
RTVSPropertyOp12
 70
     1
102
RTVSPropertyOp13
 70
     1
102
RTVSPropertyOp14
 70
     1
102
RTVSPropertyOp15
 70
     1
102
RTVSPropertyOp16
 70
     1
102
RTVSPropertyOp17
 70
     1
102
RTVSPropertyOp18
 70
     1
102
RTVSPropertyOp19
 70
     1
102
RTVSPropertyOp20
 70
     1
102
RTVSPropertyOp21
 70
     1
102
RTVSPropertyOp22
 70
     1
102
RTVSPropertyOp23
 70
     1
102
RTVSPropertyOp24
 70
     1
102
RTVSPropertyOp25
 70
     1
102
RTVSPropertyOp26
 70
     1
102
RTVSPropertyOp27
 70
     1
102
RTVSPropertyOp28
 70
     1
102
RTVSPropertyOp29
 70
     1
102
RTVSPropertyOp30
 70
     1
102
RTVSPropertyOp31
 70
     1
102
RTVSPropertyOp32
 70
     1
102
RTVSPropertyOp33
 70
     1
102
RTVSPropertyOp34
 70
     1
102
RTVSPropertyOp35
 70
     1
102
RTVSPropertyOp36
 70
     1
102
RTVSPropertyOp37
 70
     1
102
RTVSPropertyOp38
 70
     1
102
RTVSPropertyOp39
 70
     1
102
RTVSPropertyOp40
 70
     1
102
RTVSPropertyOp41
 70
     1
102
RTVSPropertyOp42
 70
     1
102
RTVSPropertyOp43
 70
     1
102
RTVSPropertyOp44
 70
     1
102
RTVSPropertyOp45
 70
     1
102
RTVSPropertyOp46
 70
     1
102
RTVSPropertyOp47
 70
     1
102
RTVSPropertyOp48
 70
     1
102
RTVSPropertyOp49
 70
     1
102
RTVSPropertyOp50
 70
     1
102
RTVSPropertyOp51
 70
     0
102
RTVSPropertyOp52
 70
     0
102
RTVSPropertyOp53
 70
     1
102
RTVSPropertyOp54
 70
     1
102
RTVSPropertyOp55
 70
     1
102
RTVSPropertyOp56
 70
     1
102
RTVSPropertyOp57
 70
     1
102
RTVSPropertyOp58
 70
     1
102
RTVSPropertyOp59
 70
     1
102
RTVSPropertyOp60
 70
     1
102
RTVSPropertyOp61
 70
     1
102
RTVSPropertyOp62
 70
     1
  0
XRECORD
  5
D03F
102
{ACAD_REACTORS
330
D03E
102
}
330
D03E
100
AcDbXrecord
280
     1
102
RTVSPost2010Prop28
280
     0
102
RTVSPost2010PropOp28
 70
     1
102
RTVSPost2010Prop29
280
     1
102
RTVSPost2010PropOp29
 70
     1
102
RTVSPost2010Prop30
280
     1
102
RTVSPost2010PropOp30
 70
     1
102
RTVSPost2010Prop31
280
     0
102
RTVSPost2010PropOp31
 70
     1
102
RTVSPost2010Prop32
280
     0
102
RTVSPost2010PropOp32
 70
     1
102
RTVSPost2010Prop33
280
     0
102
RTVSPost2010PropOp33
 70
     1
102
RTVSPost2010Prop34
280
     0
102
RTVSPost2010PropOp34
 70
     1
102
RTVSPost2010Prop35
280
     0
102
RTVSPost2010PropOp35
 70
     1
102
RTVSPost2010Prop36
280
     0
102
RTVSPost2010PropOp36
 70
     1
102
RTVSPost2010Prop37
 90
       50
102
RTVSPost2010PropOp37
 70
     1
102
RTVSPost2010Prop38
140
0.0
102
RTVSPost2010PropOp38
 70
     1
102
RTVSPost2010Prop39
140
1.0
102
RTVSPost2010PropOp39
 70
     1
102
RTVSPost2010Prop40
 90
        0
102
RTVSPost2010PropOp40
 70
     1
102
RTVSPost2010Prop41ColorIndex
 90
       18
102
RTVSPost2010Prop41ColorRGB
 90
        0
102
RTVSPost2010PropOp41
 70
     1
102
RTVSPost2010Prop42
 90
       50
102
RTVSPost2010PropOp42
 70
     1
102
RTVSPost2010Prop43
 90
        3
102
RTVSPost2010PropOp43
 70
     1
102
RTVSPost2010Prop44ColorIndex
 90
        5
102
RTVSPost2010Prop44ColorRGB
 90
      255
102
RTVSPost2010PropOp44
 70
     1
102
RTVSPost2010Prop45
280
     0
102
RTVSPost2010PropOp45
 70
     1
102
RTVSPost2010Prop46
 90
       50
102
RTVSPost2010PropOp46
 70
     1
102
RTVSPost2010Prop47
 90
       50
102
RTVSPost2010PropOp47
 70
     1
102
RTVSPost2010Prop48
 90
       50
102
RTVSPost2010PropOp48
 70
     1
102
RTVSPost2010Prop49
280
     0
102
RTVSPost2010PropOp49
 70
     1
102
RTVSPost2010Prop50
 90
       50
102
RTVSPost2010PropOp50
 70
     1
102
RTVSPost2010Prop51ColorIndex
 90
      256
102
RTVSPost2010Prop51ColorRGB
 90
-16777216
102
RTVSPost2010PropOp51
 70
     0
102
RTVSPost2010Prop52
140
1.0
102
RTVSPost2010PropOp52
 70
     0
102
RTVSPost2010Prop53
 90
        2
102
RTVSPost2010PropOp53
 70
     1
102
RTVSPost2010Prop54
  1
strokes_ogs.tif
102
RTVSPost2010PropOp54
 70
     1
102
RTVSPost2010Prop55
280
     0
102
RTVSPost2010PropOp55
 70
     1
102
RTVSPost2010Prop56
140
1.0
102
RTVSPost2010PropOp56
 70
     1
102
RTVSPost2010Prop57
140
1.0
102
RTVSPost2010PropOp57
 70
     1
102
RTVSPropertyOp0
 70
     1
102
RTVSPropertyOp1
 70
     1
102
RTVSPropertyOp2
 70
     1
102
RTVSPropertyOp3
 70
     1
102
RTVSPropertyOp4
 70
     1
102
RTVSPropertyOp5
 70
     1
102
RTVSPropertyOp6
 70
     1
102
RTVSPropertyOp7
 70
     1
102
RTVSPropertyOp8
 70
     1
102
RTVSPropertyOp9
 70
     1
102
RTVSPropertyOp10
 70
     1
102
RTVSPropertyOp11
 70
     1
102
RTVSPropertyOp12
 70
     1
102
RTVSPropertyOp13
 70
     1
102
RTVSPropertyOp14
 70
     1
102
RTVSPropertyOp15
 70
     1
102
RTVSPropertyOp16
 70
     1
102
RTVSPropertyOp17
 70
     1
102
RTVSPropertyOp18
 70
     1
102
RTVSPropertyOp19
 70
     1
102
RTVSPropertyOp20
 70
     1
102
RTVSPropertyOp21
 70
     1
102
RTVSPropertyOp22
 70
     1
102
RTVSPropertyOp23
 70
     1
102
RTVSPropertyOp24
 70
     1
102
RTVSPropertyOp25
 70
     1
102
RTVSPropertyOp26
 70
     1
102
RTVSPropertyOp27
 70
     1
102
RTVSPropertyOp28
 70
     1
102
RTVSPropertyOp29
 70
     1
102
RTVSPropertyOp30
 70
     1
102
RTVSPropertyOp31
 70
     1
102
RTVSPropertyOp32
 70
     1
102
RTVSPropertyOp33
 70
     1
102
RTVSPropertyOp34
 70
     1
102
RTVSPropertyOp35
 70
     1
102
RTVSPropertyOp36
 70
     1
102
RTVSPropertyOp37
 70
     1
102
RTVSPropertyOp38
 70
     1
102
RTVSPropertyOp39
 70
     1
102
RTVSPropertyOp40
 70
     1
102
RTVSPropertyOp41
 70
     1
102
RTVSPropertyOp42
 70
     1
102
RTVSPropertyOp43
 70
     1
102
RTVSPropertyOp44
 70
     1
102
RTVSPropertyOp45
 70
     1
102
RTVSPropertyOp46
 70
     1
102
RTVSPropertyOp47
 70
     1
102
RTVSPropertyOp48
 70
     1
102
RTVSPropertyOp49
 70
     1
102
RTVSPropertyOp50
 70
     1
102
RTVSPropertyOp51
 70
     0
102
RTVSPropertyOp52
 70
     0
102
RTVSPropertyOp53
 70
     1
102
RTVSPropertyOp54
 70
     1
102
RTVSPropertyOp55
 70
     1
102
RTVSPropertyOp56
 70
     1
102
RTVSPropertyOp57
 70
     1
102
RTVSPropertyOp58
 70
     1
102
RTVSPropertyOp59
 70
     1
102
RTVSPropertyOp60
 70
     1
102
RTVSPropertyOp61
 70
     1
102
RTVSPropertyOp62
 70
     1
  0
XRECORD
  5
D041
102
{ACAD_REACTORS
330
D040
102
}
330
D040
100
AcDbXrecord
280
     1
102
RTVSPost2010Prop28
280
     0
102
RTVSPost2010PropOp28
 70
     1
102
RTVSPost2010Prop29
280
     1
102
RTVSPost2010PropOp29
 70
     1
102
RTVSPost2010Prop30
280
     1
102
RTVSPost2010PropOp30
 70
     1
102
RTVSPost2010Prop31
280
     0
102
RTVSPost2010PropOp31
 70
     1
102
RTVSPost2010Prop32
280
     0
102
RTVSPost2010PropOp32
 70
     1
102
RTVSPost2010Prop33
280
     0
102
RTVSPost2010PropOp33
 70
     1
102
RTVSPost2010Prop34
280
     0
102
RTVSPost2010PropOp34
 70
     1
102
RTVSPost2010Prop35
280
     0
102
RTVSPost2010PropOp35
 70
     1
102
RTVSPost2010Prop36
280
     0
102
RTVSPost2010PropOp36
 70
     1
102
RTVSPost2010Prop37
 90
       50
102
RTVSPost2010PropOp37
 70
     1
102
RTVSPost2010Prop38
140
0.0
102
RTVSPost2010PropOp38
 70
     1
102
RTVSPost2010Prop39
140
1.0
102
RTVSPost2010PropOp39
 70
     1
102
RTVSPost2010Prop40
 90
        0
102
RTVSPost2010PropOp40
 70
     1
102
RTVSPost2010Prop41ColorIndex
 90
       18
102
RTVSPost2010Prop41ColorRGB
 90
        0
102
RTVSPost2010PropOp41
 70
     1
102
RTVSPost2010Prop42
 90
       50
102
RTVSPost2010PropOp42
 70
     1
102
RTVSPost2010Prop43
 90
        3
102
RTVSPost2010PropOp43
 70
     1
102
RTVSPost2010Prop44ColorIndex
 90
        5
102
RTVSPost2010Prop44ColorRGB
 90
      255
102
RTVSPost2010PropOp44
 70
     1
102
RTVSPost2010Prop45
280
     0
102
RTVSPost2010PropOp45
 70
     1
102
RTVSPost2010Prop46
 90
       50
102
RTVSPost2010PropOp46
 70
     1
102
RTVSPost2010Prop47
 90
       50
102
RTVSPost2010PropOp47
 70
     1
102
RTVSPost2010Prop48
 90
       50
102
RTVSPost2010PropOp48
 70
     1
102
RTVSPost2010Prop49
280
     0
102
RTVSPost2010PropOp49
 70
     1
102
RTVSPost2010Prop50
 90
       50
102
RTVSPost2010PropOp50
 70
     1
102
RTVSPost2010Prop51ColorIndex
 90
      256
102
RTVSPost2010Prop51ColorRGB
 90
-16777216
102
RTVSPost2010PropOp51
 70
     0
102
RTVSPost2010Prop52
140
1.0
102
RTVSPost2010PropOp52
 70
     0
102
RTVSPost2010Prop53
 90
        2
102
RTVSPost2010PropOp53
 70
     1
102
RTVSPost2010Prop54
  1
strokes_ogs.tif
102
RTVSPost2010PropOp54
 70
     1
102
RTVSPost2010Prop55
280
     0
102
RTVSPost2010PropOp55
 70
     1
102
RTVSPost2010Prop56
140
1.0
102
RTVSPost2010PropOp56
 70
     1
102
RTVSPost2010Prop57
140
1.0
102
RTVSPost2010PropOp57
 70
     1
102
RTVSPropertyOp0
 70
     1
102
RTVSPropertyOp1
 70
     1
102
RTVSPropertyOp2
 70
     1
102
RTVSPropertyOp3
 70
     1
102
RTVSPropertyOp4
 70
     1
102
RTVSPropertyOp5
 70
     1
102
RTVSPropertyOp6
 70
     1
102
RTVSPropertyOp7
 70
     1
102
RTVSPropertyOp8
 70
     1
102
RTVSPropertyOp9
 70
     1
102
RTVSPropertyOp10
 70
     1
102
RTVSPropertyOp11
 70
     1
102
RTVSPropertyOp12
 70
     1
102
RTVSPropertyOp13
 70
     1
102
RTVSPropertyOp14
 70
     1
102
RTVSPropertyOp15
 70
     1
102
RTVSPropertyOp16
 70
     1
102
RTVSPropertyOp17
 70
     1
102
RTVSPropertyOp18
 70
     1
102
RTVSPropertyOp19
 70
     1
102
RTVSPropertyOp20
 70
     1
102
RTVSPropertyOp21
 70
     1
102
RTVSPropertyOp22
 70
     1
102
RTVSPropertyOp23
 70
     1
102
RTVSPropertyOp24
 70
     1
102
RTVSPropertyOp25
 70
     1
102
RTVSPropertyOp26
 70
     1
102
RTVSPropertyOp27
 70
     1
102
RTVSPropertyOp28
 70
     1
102
RTVSPropertyOp29
 70
     1
102
RTVSPropertyOp30
 70
     1
102
RTVSPropertyOp31
 70
     1
102
RTVSPropertyOp32
 70
     1
102
RTVSPropertyOp33
 70
     1
102
RTVSPropertyOp34
 70
     1
102
RTVSPropertyOp35
 70
     1
102
RTVSPropertyOp36
 70
     1
102
RTVSPropertyOp37
 70
     1
102
RTVSPropertyOp38
 70
     1
102
RTVSPropertyOp39
 70
     1
102
RTVSPropertyOp40
 70
     1
102
RTVSPropertyOp41
 70
     1
102
RTVSPropertyOp42
 70
     1
102
RTVSPropertyOp43
 70
     1
102
RTVSPropertyOp44
 70
     1
102
RTVSPropertyOp45
 70
     1
102
RTVSPropertyOp46
 70
     1
102
RTVSPropertyOp47
 70
     1
102
RTVSPropertyOp48
 70
     1
102
RTVSPropertyOp49
 70
     1
102
RTVSPropertyOp50
 70
     1
102
RTVSPropertyOp51
 70
     0
102
RTVSPropertyOp52
 70
     0
102
RTVSPropertyOp53
 70
     1
102
RTVSPropertyOp54
 70
     1
102
RTVSPropertyOp55
 70
     1
102
RTVSPropertyOp56
 70
     1
102
RTVSPropertyOp57
 70
     1
102
RTVSPropertyOp58
 70
     1
102
RTVSPropertyOp59
 70
     1
102
RTVSPropertyOp60
 70
     1
102
RTVSPropertyOp61
 70
     1
102
RTVSPropertyOp62
 70
     1
  0
XRECORD
  5
D037
102
{ACAD_REACTORS
330
D036
102
}
330
D036
100
AcDbXrecord
280
     1
102
RTVSPost2010Prop28
280
     0
102
RTVSPost2010PropOp28
 70
     1
102
RTVSPost2010Prop29
280
     1
102
RTVSPost2010PropOp29
 70
     1
102
RTVSPost2010Prop30
280
     1
102
RTVSPost2010PropOp30
 70
     1
102
RTVSPost2010Prop31
280
     0
102
RTVSPost2010PropOp31
 70
     1
102
RTVSPost2010Prop32
280
     0
102
RTVSPost2010PropOp32
 70
     1
102
RTVSPost2010Prop33
280
     0
102
RTVSPost2010PropOp33
 70
     1
102
RTVSPost2010Prop34
280
     0
102
RTVSPost2010PropOp34
 70
     1
102
RTVSPost2010Prop35
280
     0
102
RTVSPost2010PropOp35
 70
     1
102
RTVSPost2010Prop36
280
     0
102
RTVSPost2010PropOp36
 70
     1
102
RTVSPost2010Prop37
 90
       50
102
RTVSPost2010PropOp37
 70
     1
102
RTVSPost2010Prop38
140
0.0
102
RTVSPost2010PropOp38
 70
     1
102
RTVSPost2010Prop39
140
1.0
102
RTVSPost2010PropOp39
 70
     1
102
RTVSPost2010Prop40
 90
        0
102
RTVSPost2010PropOp40
 70
     1
102
RTVSPost2010Prop41ColorIndex
 90
       18
102
RTVSPost2010Prop41ColorRGB
 90
        0
102
RTVSPost2010PropOp41
 70
     1
102
RTVSPost2010Prop42
 90
       50
102
RTVSPost2010PropOp42
 70
     1
102
RTVSPost2010Prop43
 90
        3
102
RTVSPost2010PropOp43
 70
     1
102
RTVSPost2010Prop44ColorIndex
 90
        5
102
RTVSPost2010Prop44ColorRGB
 90
      255
102
RTVSPost2010PropOp44
 70
     1
102
RTVSPost2010Prop45
280
     0
102
RTVSPost2010PropOp45
 70
     1
102
RTVSPost2010Prop46
 90
       50
102
RTVSPost2010PropOp46
 70
     1
102
RTVSPost2010Prop47
 90
       50
102
RTVSPost2010PropOp47
 70
     1
102
RTVSPost2010Prop48
 90
       50
102
RTVSPost2010PropOp48
 70
     1
102
RTVSPost2010Prop49
280
     0
102
RTVSPost2010PropOp49
 70
     1
102
RTVSPost2010Prop50
 90
       50
102
RTVSPost2010PropOp50
 70
     1
102
RTVSPost2010Prop51ColorIndex
 90
      256
102
RTVSPost2010Prop51ColorRGB
 90
-16777216
102
RTVSPost2010PropOp51
 70
     0
102
RTVSPost2010Prop52
140
1.0
102
RTVSPost2010PropOp52
 70
     0
102
RTVSPost2010Prop53
 90
        2
102
RTVSPost2010PropOp53
 70
     1
102
RTVSPost2010Prop54
  1
strokes_ogs.tif
102
RTVSPost2010PropOp54
 70
     1
102
RTVSPost2010Prop55
280
     0
102
RTVSPost2010PropOp55
 70
     1
102
RTVSPost2010Prop56
140
1.0
102
RTVSPost2010PropOp56
 70
     1
102
RTVSPost2010Prop57
140
1.0
102
RTVSPost2010PropOp57
 70
     1
102
RTVSPropertyOp0
 70
     1
102
RTVSPropertyOp1
 70
     1
102
RTVSPropertyOp2
 70
     1
102
RTVSPropertyOp3
 70
     1
102
RTVSPropertyOp4
 70
     1
102
RTVSPropertyOp5
 70
     1
102
RTVSPropertyOp6
 70
     1
102
RTVSPropertyOp7
 70
     1
102
RTVSPropertyOp8
 70
     1
102
RTVSPropertyOp9
 70
     1
102
RTVSPropertyOp10
 70
     1
102
RTVSPropertyOp11
 70
     1
102
RTVSPropertyOp12
 70
     1
102
RTVSPropertyOp13
 70
     1
102
RTVSPropertyOp14
 70
     1
102
RTVSPropertyOp15
 70
     1
102
RTVSPropertyOp16
 70
     1
102
RTVSPropertyOp17
 70
     1
102
RTVSPropertyOp18
 70
     1
102
RTVSPropertyOp19
 70
     1
102
RTVSPropertyOp20
 70
     1
102
RTVSPropertyOp21
 70
     1
102
RTVSPropertyOp22
 70
     1
102
RTVSPropertyOp23
 70
     1
102
RTVSPropertyOp24
 70
     1
102
RTVSPropertyOp25
 70
     1
102
RTVSPropertyOp26
 70
     1
102
RTVSPropertyOp27
 70
     1
102
RTVSPropertyOp28
 70
     1
102
RTVSPropertyOp29
 70
     1
102
RTVSPropertyOp30
 70
     1
102
RTVSPropertyOp31
 70
     1
102
RTVSPropertyOp32
 70
     1
102
RTVSPropertyOp33
 70
     1
102
RTVSPropertyOp34
 70
     1
102
RTVSPropertyOp35
 70
     1
102
RTVSPropertyOp36
 70
     1
102
RTVSPropertyOp37
 70
     1
102
RTVSPropertyOp38
 70
     1
102
RTVSPropertyOp39
 70
     1
102
RTVSPropertyOp40
 70
     1
102
RTVSPropertyOp41
 70
     1
102
RTVSPropertyOp42
 70
     1
102
RTVSPropertyOp43
 70
     1
102
RTVSPropertyOp44
 70
     1
102
RTVSPropertyOp45
 70
     1
102
RTVSPropertyOp46
 70
     1
102
RTVSPropertyOp47
 70
     1
102
RTVSPropertyOp48
 70
     1
102
RTVSPropertyOp49
 70
     1
102
RTVSPropertyOp50
 70
     1
102
RTVSPropertyOp51
 70
     0
102
RTVSPropertyOp52
 70
     0
102
RTVSPropertyOp53
 70
     1
102
RTVSPropertyOp54
 70
     1
102
RTVSPropertyOp55
 70
     1
102
RTVSPropertyOp56
 70
     1
102
RTVSPropertyOp57
 70
     1
102
RTVSPropertyOp58
 70
     1
102
RTVSPropertyOp59
 70
     1
102
RTVSPropertyOp60
 70
     1
102
RTVSPropertyOp61
 70
     1
102
RTVSPropertyOp62
 70
     1
  0
XRECORD
  5
D02B
102
{ACAD_REACTORS
330
D02A
102
}
330
D02A
100
AcDbXrecord
280
     1
102
RTVSPost2010Prop28
280
     0
102
RTVSPost2010PropOp28
 70
     1
102
RTVSPost2010Prop29
280
     1
102
RTVSPost2010PropOp29
 70
     1
102
RTVSPost2010Prop30
280
     1
102
RTVSPost2010PropOp30
 70
     1
102
RTVSPost2010Prop31
280
     0
102
RTVSPost2010PropOp31
 70
     1
102
RTVSPost2010Prop32
280
     0
102
RTVSPost2010PropOp32
 70
     1
102
RTVSPost2010Prop33
280
     0
102
RTVSPost2010PropOp33
 70
     1
102
RTVSPost2010Prop34
280
     0
102
RTVSPost2010PropOp34
 70
     1
102
RTVSPost2010Prop35
280
     0
102
RTVSPost2010PropOp35
 70
     1
102
RTVSPost2010Prop36
280
     0
102
RTVSPost2010PropOp36
 70
     1
102
RTVSPost2010Prop37
 90
       50
102
RTVSPost2010PropOp37
 70
     1
102
RTVSPost2010Prop38
140
0.0
102
RTVSPost2010PropOp38
 70
     1
102
RTVSPost2010Prop39
140
1.0
102
RTVSPost2010PropOp39
 70
     1
102
RTVSPost2010Prop40
 90
        0
102
RTVSPost2010PropOp40
 70
     1
102
RTVSPost2010Prop41ColorIndex
 90
       18
102
RTVSPost2010Prop41ColorRGB
 90
        0
102
RTVSPost2010PropOp41
 70
     1
102
RTVSPost2010Prop42
 90
       50
102
RTVSPost2010PropOp42
 70
     1
102
RTVSPost2010Prop43
 90
        3
102
RTVSPost2010PropOp43
 70
     1
102
RTVSPost2010Prop44ColorIndex
 90
        5
102
RTVSPost2010Prop44ColorRGB
 90
      255
102
RTVSPost2010PropOp44
 70
     1
102
RTVSPost2010Prop45
280
     0
102
RTVSPost2010PropOp45
 70
     1
102
RTVSPost2010Prop46
 90
       50
102
RTVSPost2010PropOp46
 70
     1
102
RTVSPost2010Prop47
 90
       50
102
RTVSPost2010PropOp47
 70
     1
102
RTVSPost2010Prop48
 90
       50
102
RTVSPost2010PropOp48
 70
     1
102
RTVSPost2010Prop49
280
     0
102
RTVSPost2010PropOp49
 70
     1
102
RTVSPost2010Prop50
 90
       50
102
RTVSPost2010PropOp50
 70
     1
102
RTVSPost2010Prop51ColorIndex
 90
      256
102
RTVSPost2010Prop51ColorRGB
 90
-16777216
102
RTVSPost2010PropOp51
 70
     0
102
RTVSPost2010Prop52
140
1.0
102
RTVSPost2010PropOp52
 70
     0
102
RTVSPost2010Prop53
 90
        2
102
RTVSPost2010PropOp53
 70
     1
102
RTVSPost2010Prop54
  1
strokes_ogs.tif
102
RTVSPost2010PropOp54
 70
     1
102
RTVSPost2010Prop55
280
     0
102
RTVSPost2010PropOp55
 70
     1
102
RTVSPost2010Prop56
140
1.0
102
RTVSPost2010PropOp56
 70
     1
102
RTVSPost2010Prop57
140
1.0
102
RTVSPost2010PropOp57
 70
     1
102
RTVSPropertyOp0
 70
     1
102
RTVSPropertyOp1
 70
     1
102
RTVSPropertyOp2
 70
     1
102
RTVSPropertyOp3
 70
     1
102
RTVSPropertyOp4
 70
     1
102
RTVSPropertyOp5
 70
     1
102
RTVSPropertyOp6
 70
     1
102
RTVSPropertyOp7
 70
     1
102
RTVSPropertyOp8
 70
     1
102
RTVSPropertyOp9
 70
     1
102
RTVSPropertyOp10
 70
     1
102
RTVSPropertyOp11
 70
     1
102
RTVSPropertyOp12
 70
     1
102
RTVSPropertyOp13
 70
     1
102
RTVSPropertyOp14
 70
     1
102
RTVSPropertyOp15
 70
     1
102
RTVSPropertyOp16
 70
     1
102
RTVSPropertyOp17
 70
     1
102
RTVSPropertyOp18
 70
     1
102
RTVSPropertyOp19
 70
     1
102
RTVSPropertyOp20
 70
     1
102
RTVSPropertyOp21
 70
     1
102
RTVSPropertyOp22
 70
     1
102
RTVSPropertyOp23
 70
     1
102
RTVSPropertyOp24
 70
     1
102
RTVSPropertyOp25
 70
     1
102
RTVSPropertyOp26
 70
     1
102
RTVSPropertyOp27
 70
     1
102
RTVSPropertyOp28
 70
     1
102
RTVSPropertyOp29
 70
     1
102
RTVSPropertyOp30
 70
     1
102
RTVSPropertyOp31
 70
     1
102
RTVSPropertyOp32
 70
     1
102
RTVSPropertyOp33
 70
     1
102
RTVSPropertyOp34
 70
     1
102
RTVSPropertyOp35
 70
     1
102
RTVSPropertyOp36
 70
     1
102
RTVSPropertyOp37
 70
     1
102
RTVSPropertyOp38
 70
     1
102
RTVSPropertyOp39
 70
     1
102
RTVSPropertyOp40
 70
     1
102
RTVSPropertyOp41
 70
     1
102
RTVSPropertyOp42
 70
     1
102
RTVSPropertyOp43
 70
     1
102
RTVSPropertyOp44
 70
     1
102
RTVSPropertyOp45
 70
     1
102
RTVSPropertyOp46
 70
     1
102
RTVSPropertyOp47
 70
     1
102
RTVSPropertyOp48
 70
     1
102
RTVSPropertyOp49
 70
     1
102
RTVSPropertyOp50
 70
     1
102
RTVSPropertyOp51
 70
     0
102
RTVSPropertyOp52
 70
     0
102
RTVSPropertyOp53
 70
     1
102
RTVSPropertyOp54
 70
     1
102
RTVSPropertyOp55
 70
     1
102
RTVSPropertyOp56
 70
     1
102
RTVSPropertyOp57
 70
     1
102
RTVSPropertyOp58
 70
     1
102
RTVSPropertyOp59
 70
     1
102
RTVSPropertyOp60
 70
     1
102
RTVSPropertyOp61
 70
     1
102
RTVSPropertyOp62
 70
     1
  0
XRECORD
  5
D043
102
{ACAD_REACTORS
330
D042
102
}
330
D042
100
AcDbXrecord
280
     1
102
RTVSPost2010Prop28
280
     0
102
RTVSPost2010PropOp28
 70
     1
102
RTVSPost2010Prop29
280
     1
102
RTVSPost2010PropOp29
 70
     1
102
RTVSPost2010Prop30
280
     1
102
RTVSPost2010PropOp30
 70
     1
102
RTVSPost2010Prop31
280
     0
102
RTVSPost2010PropOp31
 70
     1
102
RTVSPost2010Prop32
280
     0
102
RTVSPost2010PropOp32
 70
     1
102
RTVSPost2010Prop33
280
     0
102
RTVSPost2010PropOp33
 70
     1
102
RTVSPost2010Prop34
280
     0
102
RTVSPost2010PropOp34
 70
     1
102
RTVSPost2010Prop35
280
     0
102
RTVSPost2010PropOp35
 70
     1
102
RTVSPost2010Prop36
280
     0
102
RTVSPost2010PropOp36
 70
     1
102
RTVSPost2010Prop37
 90
       50
102
RTVSPost2010PropOp37
 70
     1
102
RTVSPost2010Prop38
140
0.0
102
RTVSPost2010PropOp38
 70
     1
102
RTVSPost2010Prop39
140
1.0
102
RTVSPost2010PropOp39
 70
     1
102
RTVSPost2010Prop40
 90
        0
102
RTVSPost2010PropOp40
 70
     1
102
RTVSPost2010Prop41ColorIndex
 90
       18
102
RTVSPost2010Prop41ColorRGB
 90
        0
102
RTVSPost2010PropOp41
 70
     1
102
RTVSPost2010Prop42
 90
       50
102
RTVSPost2010PropOp42
 70
     1
102
RTVSPost2010Prop43
 90
        3
102
RTVSPost2010PropOp43
 70
     1
102
RTVSPost2010Prop44ColorIndex
 90
        5
102
RTVSPost2010Prop44ColorRGB
 90
      255
102
RTVSPost2010PropOp44
 70
     1
102
RTVSPost2010Prop45
280
     0
102
RTVSPost2010PropOp45
 70
     1
102
RTVSPost2010Prop46
 90
       50
102
RTVSPost2010PropOp46
 70
     1
102
RTVSPost2010Prop47
 90
       50
102
RTVSPost2010PropOp47
 70
     1
102
RTVSPost2010Prop48
 90
       50
102
RTVSPost2010PropOp48
 70
     1
102
RTVSPost2010Prop49
280
     0
102
RTVSPost2010PropOp49
 70
     1
102
RTVSPost2010Prop50
 90
       50
102
RTVSPost2010PropOp50
 70
     1
102
RTVSPost2010Prop51ColorIndex
 90
      256
102
RTVSPost2010Prop51ColorRGB
 90
-16777216
102
RTVSPost2010PropOp51
 70
     0
102
RTVSPost2010Prop52
140
1.0
102
RTVSPost2010PropOp52
 70
     0
102
RTVSPost2010Prop53
 90
        2
102
RTVSPost2010PropOp53
 70
     1
102
RTVSPost2010Prop54
  1
strokes_ogs.tif
102
RTVSPost2010PropOp54
 70
     1
102
RTVSPost2010Prop55
280
     0
102
RTVSPost2010PropOp55
 70
     1
102
RTVSPost2010Prop56
140
1.0
102
RTVSPost2010PropOp56
 70
     1
102
RTVSPost2010Prop57
140
1.0
102
RTVSPost2010PropOp57
 70
     1
102
RTVSPropertyOp0
 70
     1
102
RTVSPropertyOp1
 70
     1
102
RTVSPropertyOp2
 70
     1
102
RTVSPropertyOp3
 70
     1
102
RTVSPropertyOp4
 70
     1
102
RTVSPropertyOp5
 70
     1
102
RTVSPropertyOp6
 70
     1
102
RTVSPropertyOp7
 70
     1
102
RTVSPropertyOp8
 70
     1
102
RTVSPropertyOp9
 70
     1
102
RTVSPropertyOp10
 70
     1
102
RTVSPropertyOp11
 70
     1
102
RTVSPropertyOp12
 70
     1
102
RTVSPropertyOp13
 70
     1
102
RTVSPropertyOp14
 70
     1
102
RTVSPropertyOp15
 70
     1
102
RTVSPropertyOp16
 70
     1
102
RTVSPropertyOp17
 70
     1
102
RTVSPropertyOp18
 70
     1
102
RTVSPropertyOp19
 70
     1
102
RTVSPropertyOp20
 70
     1
102
RTVSPropertyOp21
 70
     1
102
RTVSPropertyOp22
 70
     1
102
RTVSPropertyOp23
 70
     1
102
RTVSPropertyOp24
 70
     1
102
RTVSPropertyOp25
 70
     1
102
RTVSPropertyOp26
 70
     1
102
RTVSPropertyOp27
 70
     1
102
RTVSPropertyOp28
 70
     1
102
RTVSPropertyOp29
 70
     1
102
RTVSPropertyOp30
 70
     1
102
RTVSPropertyOp31
 70
     1
102
RTVSPropertyOp32
 70
     1
102
RTVSPropertyOp33
 70
     1
102
RTVSPropertyOp34
 70
     1
102
RTVSPropertyOp35
 70
     1
102
RTVSPropertyOp36
 70
     1
102
RTVSPropertyOp37
 70
     1
102
RTVSPropertyOp38
 70
     1
102
RTVSPropertyOp39
 70
     1
102
RTVSPropertyOp40
 70
     1
102
RTVSPropertyOp41
 70
     1
102
RTVSPropertyOp42
 70
     1
102
RTVSPropertyOp43
 70
     1
102
RTVSPropertyOp44
 70
     1
102
RTVSPropertyOp45
 70
     1
102
RTVSPropertyOp46
 70
     1
102
RTVSPropertyOp47
 70
     1
102
RTVSPropertyOp48
 70
     1
102
RTVSPropertyOp49
 70
     1
102
RTVSPropertyOp50
 70
     1
102
RTVSPropertyOp51
 70
     0
102
RTVSPropertyOp52
 70
     0
102
RTVSPropertyOp53
 70
     1
102
RTVSPropertyOp54
 70
     1
102
RTVSPropertyOp55
 70
     1
102
RTVSPropertyOp56
 70
     1
102
RTVSPropertyOp57
 70
     1
102
RTVSPropertyOp58
 70
     1
102
RTVSPropertyOp59
 70
     1
102
RTVSPropertyOp60
 70
     1
102
RTVSPropertyOp61
 70
     1
102
RTVSPropertyOp62
 70
     1
  0
ENDSEC
  0
EOF
