  0
SECTION
  2
HEADER
  9
$ACADVER
  1
AC1015
  9
$ACADMAINTVER
 70
    20
  9
$DWGCODEPAGE
  3
ANSI_932
  9
$INSBASE
 10
0.0
 20
0.0
 30
0.0
  9
$EXTMIN
 10
9.9999975266385
 20
10.0
 30
0.0
  9
$EXTMAX
 10
868.5487427926863
 20
369.8577327031332
 30
0.0
  9
$LIMMIN
 10
0.0000015376081137
 20
-0.0000001931532552
  9
$LIMMAX
 10
892.000001537608
 20
614.9393937462405
  9
$ORTHOMODE
 70
     1
  9
$REGENMODE
 70
     1
  9
$FILLMODE
 70
     1
  9
$QTEXTMODE
 70
     0
  9
$MIRRTEXT
 70
     1
  9
$LTSCALE
 40
1.0
  9
$ATTMODE
 70
     1
  9
$TEXTSIZE
 40
2.5
  9
$TRACEWID
 40
1.0
  9
$TEXTSTYLE
  7
STANDARD
  9
$CLAYER
  8
0
  9
$CELTYPE
  6
BYLAYER
  9
$CECOLOR
 62
   256
  9
$CELTSCALE
 40
1.0
  9
$DISPSILH
 70
     0
  9
$DIMSCALE
 40
1.0
  9
$DIMASZ
 40
3.0
  9
$DIMEXO
 40
1.0
  9
$DIMDLI
 40
10.0
  9
$DIMRND
 40
0.0
  9
$DIMDLE
 40
0.0
  9
$DIMEXE
 40
1.0
  9
$DIMTP
 40
0.0
  9
$DIMTM
 40
0.0
  9
$DIMTXT
 40
3.2
  9
$DIMCEN
 40
0.0
  9
$DIMTSZ
 40
0.0
  9
$DIMTOL
 70
     0
  9
$DIMLIM
 70
     0
  9
$DIMTIH
 70
     0
  9
$DIMTOH
 70
     0
  9
$DIMSE1
 70
     0
  9
$DIMSE2
 70
     0
  9
$DIMTAD
 70
     3
  9
$DIMZIN
 70
     8
  9
$DIMBLK
  1

  9
$DIMASO
 70
     1
  9
$DIMSHO
 70
     1
  9
$DIMPOST
  1

  9
$DIMAPOST
  1

  9
$DIMALT
 70
     0
  9
$DIMALTD
 70
     2
  9
$DIMALTF
 40
25.4
  9
$DIMLFAC
 40
1.0
  9
$DIMTOFL
 70
     1
  9
$DIMTVP
 40
0.0
  9
$DIMTIX
 70
     0
  9
$DIMSOXD
 70
     0
  9
$DIMSAH
 70
     1
  9
$DIMBLK1
  1
OPEN
  9
$DIMBLK2
  1
OPEN
  9
$DIMSTYLE
  2
STANDARD
  9
$DIMCLRD
 70
     0
  9
$DIMCLRE
 70
     0
  9
$DIMCLRT
 70
     0
  9
$DIMTFAC
 40
1.0
  9
$DIMGAP
 40
1.0
  9
$DIMJUST
 70
     0
  9
$DIMSD1
 70
     0
  9
$DIMSD2
 70
     0
  9
$DIMTOLJ
 70
     1
  9
$DIMTZIN
 70
     0
  9
$DIMALTZ
 70
     0
  9
$DIMALTTZ
 70
     0
  9
$DIMUPT
 70
     0
  9
$DIMDEC
 70
     4
  9
$DIMTDEC
 70
     4
  9
$DIMALTU
 70
     2
  9
$DIMALTTD
 70
     2
  9
$DIMTXSTY
  7
STANDARD
  9
$DIMAUNIT
 70
     0
  9
$DIMADEC
 70
     0
  9
$DIMALTRND
 40
0.0
  9
$DIMAZIN
 70
     0
  9
$DIMDSEP
 70
    46
  9
$DIMATFIT
 70
     3
  9
$DIMFRAC
 70
     0
  9
$DIMLDRBLK
  1
OPEN
  9
$DIMLUNIT
 70
     2
  9
$DIMLWD
 70
    -2
  9
$DIMLWE
 70
    -2
  9
$DIMTMOVE
 70
     0
  9
$LUNITS
 70
     2
  9
$LUPREC
 70
     4
  9
$SKETCHINC
 40
1.0
  9
$FILLETRAD
 40
0.0
  9
$AUNITS
 70
     0
  9
$AUPREC
 70
     0
  9
$MENU
  1
.
  9
$ELEVATION
 40
0.0
  9
$PELEVATION
 40
0.0
  9
$THICKNESS
 40
0.0
  9
$LIMCHECK
 70
     0
  9
$CHAMFERA
 40
10.0
  9
$CHAMFERB
 40
10.0
  9
$CHAMFERC
 40
20.0
  9
$CHAMFERD
 40
0.0
  9
$SKPOLY
 70
     0
  9
$TDCREATE
 40
2454551.683978218
  9
$TDUCREATE
 40
2454551.308978218
  9
$TDUPDATE
 40
2457192.664201123
  9
$TDUUPDATE
 40
2457192.289201123
  9
$TDINDWG
 40
0.0369231134
  9
$TDUSRTIMER
 40
0.0369230903
  9
$USRTIMER
 70
     1
  9
$ANGBASE
 50
0.0
  9
$ANGDIR
 70
     0
  9
$PDMODE
 70
     0
  9
$PDSIZE
 40
0.0
  9
$PLINEWID
 40
0.0
  9
$SPLFRAME
 70
     0
  9
$SPLINETYPE
 70
     6
  9
$SPLINESEGS
 70
     8
  9
$HANDSEED
  5
2874
  9
$SURFTAB1
 70
     6
  9
$SURFTAB2
 70
     6
  9
$SURFTYPE
 70
     6
  9
$SURFU
 70
     6
  9
$SURFV
 70
     6
  9
$UCSBASE
  2

  9
$UCSNAME
  2

  9
$UCSORG
 10
0.0
 20
0.0
 30
0.0
  9
$UCSXDIR
 10
1.0
 20
0.0
 30
0.0
  9
$UCSYDIR
 10
0.0
 20
1.0
 30
0.0
  9
$UCSORTHOREF
  2

  9
$UCSORTHOVIEW
 70
     0
  9
$UCSORGTOP
 10
0.0
 20
0.0
 30
0.0
  9
$UCSORGBOTTOM
 10
0.0
 20
0.0
 30
0.0
  9
$UCSORGLEFT
 10
0.0
 20
0.0
 30
0.0
  9
$UCSORGRIGHT
 10
0.0
 20
0.0
 30
0.0
  9
$UCSORGFRONT
 10
0.0
 20
0.0
 30
0.0
  9
$UCSORGBACK
 10
0.0
 20
0.0
 30
0.0
  9
$PUCSBASE
  2

  9
$PUCSNAME
  2

  9
$PUCSORG
 10
0.0
 20
0.0
 30
0.0
  9
$PUCSXDIR
 10
1.0
 20
0.0
 30
0.0
  9
$PUCSYDIR
 10
0.0
 20
1.0
 30
0.0
  9
$PUCSORTHOREF
  2

  9
$PUCSORTHOVIEW
 70
     0
  9
$PUCSORGTOP
 10
0.0
 20
0.0
 30
0.0
  9
$PUCSORGBOTTOM
 10
0.0
 20
0.0
 30
0.0
  9
$PUCSORGLEFT
 10
0.0
 20
0.0
 30
0.0
  9
$PUCSORGRIGHT
 10
0.0
 20
0.0
 30
0.0
  9
$PUCSORGFRONT
 10
0.0
 20
0.0
 30
0.0
  9
$PUCSORGBACK
 10
0.0
 20
0.0
 30
0.0
  9
$USERI1
 70
     0
  9
$USERI2
 70
     0
  9
$USERI3
 70
     0
  9
$USERI4
 70
     0
  9
$USERI5
 70
     0
  9
$USERR1
 40
0.0
  9
$USERR2
 40
0.0
  9
$USERR3
 40
0.0
  9
$USERR4
 40
0.0
  9
$USERR5
 40
0.0
  9
$WORLDVIEW
 70
     1
  9
$SHADEDGE
 70
     3
  9
$SHADEDIF
 70
    70
  9
$TILEMODE
 70
     1
  9
$MAXACTVP
 70
    48
  9
$PINSBASE
 10
0.0
 20
0.0
 30
0.0
  9
$PLIMCHECK
 70
     0
  9
$PEXTMIN
 10
1.000000000000000E+20
 20
1.000000000000000E+20
 30
1.000000000000000E+20
  9
$PEXTMAX
 10
-1.000000000000000E+20
 20
-1.000000000000000E+20
 30
-1.000000000000000E+20
  9
$PLIMMIN
 10
0.0
 20
0.0
  9
$PLIMMAX
 10
420.0
 20
297.0
  9
$UNITMODE
 70
     0
  9
$VISRETAIN
 70
     1
  9
$PLINEGEN
 70
     0
  9
$PSLTSCALE
 70
     1
  9
$TREEDEPTH
 70
  3020
  9
$CMLSTYLE
  2
STANDARD
  9
$CMLJUST
 70
     0
  9
$CMLSCALE
 40
20.0
  9
$PROXYGRAPHICS
 70
     1
  9
$MEASUREMENT
 70
     0
  9
$CELWEIGHT
370
    -1
  9
$ENDCAPS
280
     0
  9
$JOINSTYLE
280
     0
  9
$LWDISPLAY
290
     0
  9
$INSUNITS
 70
     0
  9
$HYPERLINKBASE
  1

  9
$STYLESHEET
  1

  9
$XEDIT
290
     1
  9
$CEPSNTYPE
380
     0
  9
$PSTYLEMODE
290
     1
  9
$FINGERPRINTGUID
  2
{51916879-AA0F-4D91-A2B0-03BD19617CBE}
  9
$VERSIONGUID
  2
{DE2C66F5-C2E0-4071-9373-A1C6C5DB6363}
  9
$EXTNAMES
290
     1
  9
$PSVPSCALE
 40
0.0
  9
$OLESTARTUP
290
     0
  0
ENDSEC
  0
SECTION
  2
CLASSES
  0
CLASS
  1
ACDBDICTIONARYWDFLT
  2
AcDbDictionaryWithDefault
  3
ObjectDBX Classes
 90
        0
280
     0
281
     0
  0
CLASS
  1
ACDBPLACEHOLDER
  2
AcDbPlaceHolder
  3
ObjectDBX Classes
 90
        0
280
     0
281
     0
  0
CLASS
  1
LAYOUT
  2
AcDbLayout
  3
ObjectDBX Classes
 90
        0
280
     0
281
     0
  0
CLASS
  1
DICTIONARYVAR
  2
AcDbDictionaryVar
  3
ObjectDBX Classes
 90
        0
280
     0
281
     0
  0
CLASS
  1
MATERIAL
  2
AcDbMaterial
  3
ObjectDBX Classes
 90
     1153
280
     0
281
     0
  0
CLASS
  1
VISUALSTYLE
  2
AcDbVisualStyle
  3
ObjectDBX Classes
 90
     4095
280
     0
281
     0
  0
CLASS
  1
TABLESTYLE
  2
AcDbTableStyle
  3
ObjectDBX Classes
 90
     4095
280
     0
281
     0
  0
CLASS
  1
SCALE
  2
AcDbScale
  3
ObjectDBX Classes
 90
     1153
280
     0
281
     0
  0
CLASS
  1
MLEADERSTYLE
  2
AcDbMLeaderStyle
  3
ACDB_MLEADERSTYLE_CLASS
 90
     4095
280
     0
281
     0
  0
CLASS
  1
ACDBSECTIONVIEWSTYLE
  2
AcDbSectionViewStyle
  3
ObjectDBX Classes
 90
     1025
280
     0
281
     0
  0
CLASS
  1
ACDBDETAILVIEWSTYLE
  2
AcDbDetailViewStyle
  3
ObjectDBX Classes
 90
     1025
280
     0
281
     0
  0
CLASS
  1
CELLSTYLEMAP
  2
AcDbCellStyleMap
  3
ObjectDBX Classes
 90
     1152
280
     0
281
     0
  0
ENDSEC
  0
SECTION
  2
TABLES
  0
TABLE
  2
VPORT
  5
8
330
0
100
AcDbSymbolTable
 70
     1
  0
VPORT
  5
27BE
330
8
100
AcDbSymbolTableRecord
100
AcDbViewportTableRecord
  2
*ACTIVE
 70
     0
 10
0.0
 20
0.0
 11
1.0
 21
1.0
 12
647.0337329737347
 22
189.9212780034772
 13
0.0
 23
0.0
 14
10.0
 24
10.0
 15
10.0
 25
10.0
 16
0.0
 26
0.0
 36
1.0
 17
0.0
 27
0.0
 37
0.0
 40
544.0517649980406
 41
1.899603698811096
 42
50.0
 43
0.0
 44
0.0
 50
0.0
 51
0.0
 71
     0
 72
   100
 73
     1
 74
     0
 75
     0
 76
     0
 77
     0
 78
     0
281
     0
 65
     1
110
0.0
120
0.0
130
0.0
111
1.0
121
0.0
131
0.0
112
0.0
122
1.0
132
0.0
 79
     0
146
0.0
1001
ACAD_NAV_VCDISPLAY
1070
     3
  0
ENDTAB
  0
TABLE
  2
LTYPE
  5
5
330
0
100
AcDbSymbolTable
 70
     4
  0
LTYPE
  5
12
330
5
100
AcDbSymbolTableRecord
100
AcDbLinetypeTableRecord
  2
BYBLOCK
 70
     0
  3

 72
    65
 73
     0
 40
0.0
  0
LTYPE
  5
13
330
5
100
AcDbSymbolTableRecord
100
AcDbLinetypeTableRecord
  2
BYLAYER
 70
     0
  3

 72
    65
 73
     0
 40
0.0
  0
LTYPE
  5
14
330
5
100
AcDbSymbolTableRecord
100
AcDbLinetypeTableRecord
  2
CONTINUOUS
 70
     0
  3
Solid line
 72
    65
 73
     0
 40
0.0
  0
LTYPE
  5
4B
330
5
100
AcDbSymbolTableRecord
100
AcDbLinetypeTableRecord
  2
DASHED
 70
     0
  3
Dashed __ __ __ __ __ __ __ __ __ __ __ __ __ _
 72
    65
 73
     2
 40
19.04999999999999
 49
12.7
 74
     0
 49
-6.349999999999998
 74
     0
  0
LTYPE
  5
4C
330
5
100
AcDbSymbolTableRecord
100
AcDbLinetypeTableRecord
  2
CENTER
 70
     0
  3
Center ____ _ ____ _ ____ _ ____ _ ____ _ ____
 72
    65
 73
     4
 40
50.8
 49
31.75
 74
     0
 49
-6.349999999999998
 74
     0
 49
6.349999999999998
 74
     0
 49
-6.349999999999998
 74
     0
  0
LTYPE
  5
4D
330
5
100
AcDbSymbolTableRecord
100
AcDbLinetypeTableRecord
  2
PHANTOM
 70
     0
  3
Phantom ______  __  __  ______  __  __  ______
 72
    65
 73
     6
 40
63.5
 49
31.75
 74
     0
 49
-6.349999999999998
 74
     0
 49
6.349999999999998
 74
     0
 49
-6.349999999999998
 74
     0
 49
6.349999999999998
 74
     0
 49
-6.349999999999998
 74
     0
  0
ENDTAB
  0
TABLE
  2
LAYER
  5
2
330
0
100
AcDbSymbolTable
 70
     8
  0
LAYER
  5
E
102
{ACAD_XDICTIONARY
360
2818
102
}
330
2
100
AcDbSymbolTableRecord
100
AcDbLayerTableRecord
  2
0
 70
     0
 62
     7
  6
CONTINUOUS
370
    -3
390
27C7
  0
LAYER
  5
4E
102
{ACAD_XDICTIONARY
360
281A
102
}
330
2
100
AcDbSymbolTableRecord
100
AcDbLayerTableRecord
  2
4
 70
     0
 62
     1
  6
CENTER
370
    -3
390
27C7
  0
LAYER
  5
4F
102
{ACAD_XDICTIONARY
360
281C
102
}
330
2
100
AcDbSymbolTableRecord
100
AcDbLayerTableRecord
  2
5
 70
     0
 62
     6
  6
PHANTOM
370
    -3
390
27C7
  0
LAYER
  5
50
102
{ACAD_XDICTIONARY
360
281E
102
}
330
2
100
AcDbSymbolTableRecord
100
AcDbLayerTableRecord
  2
1
 70
     0
 62
     7
  6
CONTINUOUS
370
    -3
390
27C7
  0
LAYER
  5
51
102
{ACAD_XDICTIONARY
360
2820
102
}
330
2
100
AcDbSymbolTableRecord
100
AcDbLayerTableRecord
  2
2
 70
     0
 62
     4
  6
CONTINUOUS
370
    -3
390
27C7
  0
LAYER
  5
52
102
{ACAD_XDICTIONARY
360
2822
102
}
330
2
100
AcDbSymbolTableRecord
100
AcDbLayerTableRecord
  2
3
 70
     0
 62
     2
  6
DASHED
370
    -3
390
27C7
  0
LAYER
  5
53
102
{ACAD_XDICTIONARY
360
2824
102
}
330
2
100
AcDbSymbolTableRecord
100
AcDbLayerTableRecord
  2
6
 70
     0
 62
     5
  6
CONTINUOUS
370
    -3
390
27C7
  0
LAYER
  5
54
102
{ACAD_XDICTIONARY
360
2826
102
}
330
2
100
AcDbSymbolTableRecord
100
AcDbLayerTableRecord
  2
7
 70
     0
 62
     3
  6
CONTINUOUS
370
    -3
390
27C7
  0
ENDTAB
  0
TABLE
  2
STYLE
  5
3
330
0
100
AcDbSymbolTable
 70
     1
  0
STYLE
  5
F
330
3
100
AcDbSymbolTableRecord
100
AcDbTextStyleTableRecord
  2
STANDARD
 70
     0
 40
0.0
 41
1.0
 50
0.0
 71
     0
 42
2.5
  3
simplex.shx
  4

  0
ENDTAB
  0
TABLE
  2
VIEW
  5
6
330
0
100
AcDbSymbolTable
 70
     0
  0
ENDTAB
  0
TABLE
  2
UCS
  5
7
330
0
100
AcDbSymbolTable
 70
     0
  0
ENDTAB
  0
TABLE
  2
APPID
  5
9
330
0
100
AcDbSymbolTable
 70
     5
  0
APPID
  5
10
330
9
100
AcDbSymbolTableRecord
100
AcDbRegAppTableRecord
  2
ACAD
 70
     0
  0
APPID
  5
3E
330
9
100
AcDbSymbolTableRecord
100
AcDbRegAppTableRecord
  2
CONTENTTABDATA
 70
     0
  0
APPID
  5
3F
330
9
100
AcDbSymbolTableRecord
100
AcDbRegAppTableRecord
  2
CONTENTCURRENTTAB
 70
     0
  0
APPID
  5
2832
330
9
100
AcDbSymbolTableRecord
100
AcDbRegAppTableRecord
  2
ACAD_NAV_VCDISPLAY
 70
     0
  0
APPID
  5
286B
330
9
100
AcDbSymbolTableRecord
100
AcDbRegAppTableRecord
  2
ACAD_MLEADERVER
 70
     0
  0
ENDTAB
  0
TABLE
  2
DIMSTYLE
  5
A
330
0
100
AcDbSymbolTable
 70
     1
100
AcDbDimStyleTable
 71
     0
  0
DIMSTYLE
105
1D
330
A
100
AcDbSymbolTableRecord
100
AcDbDimStyleTableRecord
  2
STANDARD
 70
     0
 41
3.0
 42
1.0
 43
10.0
 44
1.0
 73
     0
 74
     0
 77
     3
 78
     8
140
3.2
141
0.0
147
1.0
172
     1
173
     1
340
F
341
2E
343
2E
344
2E
  0
ENDTAB
  0
TABLE
  2
BLOCK_RECORD
  5
1
330
0
100
AcDbSymbolTable
 70
     1
  0
BLOCK_RECORD
  5
18
102
{ACAD_XDICTIONARY
360
27C1
102
}
330
1
100
AcDbSymbolTableRecord
100
AcDbBlockTableRecord
  2
*MODEL_SPACE
340
2815
  0
BLOCK_RECORD
  5
15
102
{ACAD_XDICTIONARY
360
27BF
102
}
330
1
100
AcDbSymbolTableRecord
100
AcDbBlockTableRecord
  2
*PAPER_SPACE
340
2816
  0
BLOCK_RECORD
  5
2E
330
1
100
AcDbSymbolTableRecord
100
AcDbBlockTableRecord
  2
_OPEN
340
0
  0
ENDTAB
  0
ENDSEC
  0
SECTION
  2
BLOCKS
  0
BLOCK
  5
19
330
18
100
AcDbEntity
  8
0
100
AcDbBlockBegin
  2
*MODEL_SPACE
 70
     0
 10
0.0
 20
0.0
 30
0.0
  3
*MODEL_SPACE
  1

  0
ENDBLK
  5
1A
330
18
100
AcDbEntity
  8
0
100
AcDbBlockEnd
  0
BLOCK
  5
16
330
15
100
AcDbEntity
 67
     1
  8
0
100
AcDbBlockBegin
  2
*PAPER_SPACE
 70
     0
 10
0.0
 20
0.0
 30
0.0
  3
*PAPER_SPACE
  1

  0
ENDBLK
  5
17
330
15
100
AcDbEntity
 67
     1
  8
0
100
AcDbBlockEnd
  0
BLOCK
  5
2F
330
2E
100
AcDbEntity
  8
0
100
AcDbBlockBegin
  2
_OPEN
 70
     0
 10
0.0
 20
0.0
 30
0.0
  3
_OPEN
  1

  0
LINE
  5
30
330
2E
100
AcDbEntity
  8
0
  6
ByBlock
 62
     0
100
AcDbLine
 10
-1.0
 20
0.1666666666666666
 30
0.0
 11
0.0
 21
0.0
 31
0.0
  0
LINE
  5
31
330
2E
100
AcDbEntity
  8
0
  6
ByBlock
 62
     0
100
AcDbLine
 10
0.0
 20
0.0
 30
0.0
 11
-1.0
 21
-0.1666666666666666
 31
0.0
  0
LINE
  5
32
330
2E
100
AcDbEntity
  8
0
  6
ByBlock
 62
     0
100
AcDbLine
 10
0.0
 20
0.0
 30
0.0
 11
-1.0
 21
0.0
 31
0.0
  0
ENDBLK
  5
33
330
2E
100
AcDbEntity
  8
0
100
AcDbBlockEnd
  0
ENDSEC
  0
SECTION
  2
ENTITIES
  0
TEXT
  5
63
330
18
100
AcDbEntity
  8
4
  6
CENTER
 48
0.25
100
AcDbText
 10
23.97950852663849
 20
10.0
 30
0.0
 40
1.399999999999999
  1
4
100
AcDbText
  0
TEXT
  5
64
330
18
100
AcDbEntity
  8
7
  6
Continuous
 48
0.25
100
AcDbText
 10
9.999997526638502
 20
26.0000007607689
 30
0.0
 40
3.0
  1
CODE No.6338
100
AcDbText
  0
TEXT
  5
65
330
18
100
AcDbEntity
  8
7
  6
Continuous
 48
0.25
100
AcDbText
 10
9.999997526638502
 20
18.00000076076889
 30
0.0
 40
3.0
  1
TYPE No.TM-295-72
100
AcDbText
  0
TEXT
  5
66
330
18
100
AcDbEntity
  8
1
  6
Continuous
 48
0.25
100
AcDbText
 10
9.999997526638502
 20
10.00000076076889
 30
0.0
 40
1.399999999999999
  1
LAYER
100
AcDbText
  0
TEXT
  5
67
330
18
100
AcDbEntity
  8
2
  6
Continuous
 48
0.25
100
AcDbText
 10
19.9795085266385
 20
10.0
 30
0.0
 40
1.399999999999999
  1
2
100
AcDbText
  0
TEXT
  5
68
330
18
100
AcDbEntity
  8
3
  6
DASHED
 48
0.25
100
AcDbText
 10
21.9795085266385
 20
10.0
 30
0.0
 40
1.399999999999999
  1
3
100
AcDbText
  0
TEXT
  5
69
330
18
100
AcDbEntity
  8
1
  6
Continuous
 48
0.25
100
AcDbText
 10
17.9795085266385
 20
10.0
 30
0.0
 40
1.399999999999999
  1
1
100
AcDbText
  0
TEXT
  5
6A
330
18
100
AcDbEntity
  8
5
  6
PHANTOM
 48
0.25
100
AcDbText
 10
25.9795085266385
 20
10.0
 30
0.0
 40
1.399999999999999
  1
5
100
AcDbText
  0
TEXT
  5
6B
330
18
100
AcDbEntity
  8
6
  6
Continuous
 48
0.25
100
AcDbText
 10
27.9795085266385
 20
10.0
 30
0.0
 40
1.399999999999999
  1
6
100
AcDbText
  0
TEXT
  5
6C
330
18
100
AcDbEntity
  8
7
  6
Continuous
 48
0.25
100
AcDbText
 10
29.9795085266385
 20
10.0
 30
0.0
 40
1.399999999999999
  1
7
100
AcDbText
  0
LINE
  5
255
330
18
100
AcDbEntity
  8
4
  6
CENTER
 48
0.5
100
AcDbLine
 10
75.08627932826567
 20
152.2335935016532
 30
0.0
 11
807.4019058090817
 21
152.2335935016532
 31
0.0
  0
LINE
  5
256
330
18
100
AcDbEntity
  8
4
  6
CENTER
 48
0.2
100
AcDbLine
 10
131.1291136012044
 20
153.5335935015341
 30
0.0
 11
110.3291136012044
 21
153.5335935015341
 31
0.0
  0
CIRCLE
  5
257
330
18
100
AcDbEntity
  8
3
  6
DASHED
 48
0.5
100
AcDbCircle
 10
120.7291136012043
 20
153.5335935015341
 30
0.0
 40
9.4
  0
LINE
  5
258
330
18
100
AcDbEntity
  8
1
  6
Continuous
100
AcDbLine
 10
90.7291136012045
 20
173.2335935016532
 30
0.0
 11
150.7291136012044
 21
173.2335935016532
 31
0.0
  0
LINE
  5
259
330
18
100
AcDbEntity
  8
1
  6
Continuous
100
AcDbLine
 10
90.72911360120441
 20
131.2335935016533
 30
0.0
 11
150.7291136012044
 21
131.2335935016533
 31
0.0
  0
LINE
  5
25D
330
18
100
AcDbEntity
  8
1
  6
Continuous
100
AcDbLine
 10
24.22144393351968
 20
157.2335935016532
 30
0.0
 11
24.22144393351965
 21
147.2335935016532
 31
0.0
  0
LINE
  5
25E
330
18
100
AcDbEntity
  8
1
  6
Continuous
100
AcDbLine
 10
20.22144393351968
 20
161.833593501534
 30
0.0
 11
20.22144393351965
 21
142.6335935015341
 31
0.0
  0
LINE
  5
25F
330
18
100
AcDbEntity
  8
1
  6
Continuous
100
AcDbLine
 10
18.32144393351967
 20
161.7335935015341
 30
0.0
 11
18.32144393351964
 21
142.7335935015341
 31
0.0
  0
LINE
  5
260
330
18
100
AcDbEntity
  8
1
  6
Continuous
100
AcDbLine
 10
30.32144393351968
 20
173.2335935016532
 30
0.0
 11
30.3214439335196
 21
131.2335935016533
 31
0.0
  0
ARC
  5
262
330
18
100
AcDbEntity
  8
1
  6
Continuous
100
AcDbCircle
 10
23.82144393351969
 20
144.4335935017724
 30
0.0
 40
2.9
100
AcDbArc
 50
180.0
 51
0.0
  0
ARC
  5
263
330
18
100
AcDbEntity
  8
1
  6
Continuous
100
AcDbCircle
 10
25.32144393351964
 20
148.2335935016532
 30
0.0
 40
2.0
100
AcDbArc
 50
212.4606362126492
 51
270.0
  0
LINE
  5
264
330
18
100
AcDbEntity
  8
1
  6
Continuous
100
AcDbLine
 10
21.32144393351963
 20
139.7335935015341
 30
0.0
 11
25.82144393351964
 21
139.7335935015341
 31
0.0
  0
LINE
  5
265
330
18
100
AcDbEntity
  8
4
  6
CENTER
 48
0.2
100
AcDbLine
 10
13.93944234466107
 20
152.2335935016532
 30
0.0
 11
34.4401604151098
 21
152.2335935016532
 31
0.0
  0
ARC
  5
266
330
18
100
AcDbEntity
  8
1
  6
Continuous
100
AcDbCircle
 10
21.32144393351963
 20
142.7335935015341
 30
0.0
 40
3.0
100
AcDbArc
 50
180.0
 51
270.0
  0
LINE
  5
267
330
18
100
AcDbEntity
  8
1
  6
Continuous
100
AcDbLine
 10
20.92144393351968
 20
144.4335935017724
 30
0.0
 11
20.92144393351964
 21
146.8210935016546
 31
0.0
  0
LINE
  5
268
330
18
100
AcDbEntity
  8
1
  6
Continuous
100
AcDbLine
 10
20.22144393351962
 20
142.6335935015341
 30
0.0
 11
21.54768053352789
 21
142.6335935015341
 31
0.0
  0
LINE
  5
269
330
18
100
AcDbEntity
  8
1
  6
Continuous
100
AcDbLine
 10
20.22144393351965
 20
146.7335935016532
 30
0.0
 11
24.22144393351965
 21
147.2335935016532
 31
0.0
  0
LINE
  5
26A
330
18
100
AcDbEntity
  8
1
  6
Continuous
100
AcDbLine
 10
28.82144393351963
 20
146.2335935016532
 30
0.0
 11
28.82144393351961
 21
131.2335935016533
 31
0.0
  0
LINE
  5
26B
330
18
100
AcDbEntity
  8
4
  6
CENTER
 48
0.1
100
AcDbLine
 10
25.58064422467693
 20
135.2335935016533
 30
0.0
 11
33.26681723625981
 21
135.2335935016533
 31
0.0
  0
LINE
  5
26C
330
18
100
AcDbEntity
  8
1
  6
Continuous
100
AcDbLine
 10
30.32144393351961
 20
131.2335935016533
 30
0.0
 11
28.82144393351969
 21
131.2335935016533
 31
0.0
  0
LINE
  5
26D
330
18
100
AcDbEntity
  8
1
  6
Continuous
100
AcDbLine
 10
30.32144393351963
 20
146.2335935016532
 30
0.0
 11
25.32144393351964
 21
146.2335935016532
 31
0.0
  0
LINE
  5
26E
330
18
100
AcDbEntity
  8
1
  6
Continuous
100
AcDbLine
 10
27.72144393351968
 20
144.4335935017718
 30
0.0
 11
26.72144393351982
 21
144.4335935017721
 31
0.0
  0
LINE
  5
26F
330
18
100
AcDbEntity
  8
1
  6
Continuous
100
AcDbLine
 10
26.72144393351968
 20
144.4335935017724
 30
0.0
 11
26.72144393352076
 21
146.2335935016531
 31
0.0
  0
LINE
  5
270
330
18
100
AcDbEntity
  8
1
  6
Continuous
100
AcDbLine
 10
26.09520733370014
 20
142.6335935015341
 30
0.0
 11
26.82144393351966
 21
142.6335935015341
 31
0.0
  0
ARC
  5
271
330
18
100
AcDbEntity
  8
1
  6
Continuous
100
AcDbCircle
 10
25.82144393351964
 20
140.7335935015341
 30
0.0
 40
1.0
100
AcDbArc
 50
270.0
 51
0.0
  0
LINE
  5
272
330
18
100
AcDbEntity
  8
1
  6
Continuous
100
AcDbLine
 10
26.82144393351961
 20
142.633593501534
 30
0.0
 11
26.82144393351961
 21
140.7335935015341
 31
0.0
  0
LINE
  5
273
330
18
100
AcDbEntity
  8
1
  6
Continuous
100
AcDbLine
 10
27.72144393351969
 20
144.4335935017718
 30
0.0
 11
27.72144393352073
 21
146.2335935016526
 31
0.0
  0
ARC
  5
275
330
18
100
AcDbEntity
  8
1
  6
Continuous
100
AcDbCircle
 10
23.82144393351969
 20
157.4335935017724
 30
0.0
 40
2.9
100
AcDbArc
 50
16.01339442149744
 51
175.816965972562
  0
ARC
  5
276
330
18
100
AcDbEntity
  8
1
  6
Continuous
100
AcDbCircle
 10
25.32144393351966
 20
156.2335935016532
 30
0.0
 40
2.0
100
AcDbArc
 50
90.0
 51
147.5393637873507
  0
ARC
  5
277
330
18
100
AcDbEntity
  8
1
  6
Continuous
100
AcDbCircle
 10
23.82144393351969
 20
160.0335935015341
 30
0.0
 40
2.9
100
AcDbArc
 50
0.0
 51
180.0
  0
LINE
  5
278
330
18
100
AcDbEntity
  8
1
  6
Continuous
100
AcDbLine
 10
21.32144393351967
 20
164.7335935015341
 30
0.0
 11
25.82144393351969
 21
164.7335935015341
 31
0.0
  0
ARC
  5
279
330
18
100
AcDbEntity
  8
1
  6
Continuous
100
AcDbCircle
 10
21.32144393351967
 20
161.7335935015341
 30
0.0
 40
3.0
100
AcDbArc
 50
90.0
 51
180.0
  0
LINE
  5
27A
330
18
100
AcDbEntity
  8
1
  6
Continuous
100
AcDbLine
 10
20.22144393351968
 20
157.7335935016532
 30
0.0
 11
24.22144393351965
 21
157.2335935016532
 31
0.0
  0
LINE
  5
27B
330
18
100
AcDbEntity
  8
1
  6
Continuous
100
AcDbLine
 10
20.22144393351968
 20
161.833593501534
 30
0.0
 11
21.54768053333923
 21
161.833593501534
 31
0.0
  0
LINE
  5
27C
330
18
100
AcDbEntity
  8
1
  6
Continuous
100
AcDbLine
 10
20.92144393351968
 20
160.0335935015341
 30
0.0
 11
20.92144393351964
 21
157.6460935016518
 31
0.0
  0
LINE
  5
27E
330
18
100
AcDbEntity
  8
1
  6
Continuous
100
AcDbLine
 10
28.82144393351969
 20
173.2335935016532
 30
0.0
 11
28.82144393351966
 21
158.2335935016532
 31
0.0
  0
LINE
  5
27F
330
18
100
AcDbEntity
  8
4
  6
CENTER
 48
0.1
100
AcDbLine
 10
25.58064422467693
 20
169.2335935016532
 30
0.0
 11
33.26681723625981
 21
169.2335935016532
 31
0.0
  0
LINE
  5
280
330
18
100
AcDbEntity
  8
1
  6
Continuous
100
AcDbLine
 10
30.32144393351966
 20
158.2335935016532
 30
0.0
 11
25.32144393351966
 21
158.2335935016532
 31
0.0
  0
LINE
  5
281
330
18
100
AcDbEntity
  8
1
  6
Continuous
100
AcDbLine
 10
26.82144393351968
 20
163.7335935015341
 30
0.0
 11
26.82144393351968
 21
161.833593501534
 31
0.0
  0
LINE
  5
282
330
18
100
AcDbEntity
  8
1
  6
Continuous
100
AcDbLine
 10
27.72144393351969
 20
160.0335935015347
 30
0.0
 11
26.72144393351983
 21
160.0335935015343
 31
0.0
  0
LINE
  5
283
330
18
100
AcDbEntity
  8
1
  6
Continuous
100
AcDbLine
 10
26.72144393351968
 20
160.0335935015341
 30
0.0
 11
26.72144393352076
 21
158.2335935016534
 31
0.0
  0
LINE
  5
284
330
18
100
AcDbEntity
  8
1
  6
Continuous
100
AcDbLine
 10
26.09520733370014
 20
161.833593501534
 30
0.0
 11
26.82144393351968
 21
161.833593501534
 31
0.0
  0
LINE
  5
285
330
18
100
AcDbEntity
  8
1
  6
Continuous
100
AcDbLine
 10
27.72144393351969
 20
160.0335935015347
 30
0.0
 11
27.72144393352073
 21
158.2335935016539
 31
0.0
  0
ARC
  5
286
330
18
100
AcDbEntity
  8
1
  6
Continuous
100
AcDbCircle
 10
25.82144393351969
 20
163.7335935015341
 30
0.0
 40
1.0
100
AcDbArc
 50
0.0
 51
90.0
  0
LINE
  5
287
330
18
100
AcDbEntity
  8
1
  6
Continuous
100
AcDbLine
 10
30.32144393351968
 20
173.2335935016532
 30
0.0
 11
28.82144393351969
 21
173.2335935016532
 31
0.0
  0
CIRCLE
  5
289
330
18
100
AcDbEntity
  8
1
  6
Continuous
100
AcDbCircle
 10
100.7291136012044
 20
150.9335935017723
 30
0.0
 40
5.0
  0
CIRCLE
  5
28A
330
18
100
AcDbEntity
  8
3
  6
DASHED
 48
0.5
100
AcDbCircle
 10
100.7291136012044
 20
150.9335935017724
 30
0.0
 40
9.4
  0
LINE
  5
28B
330
18
100
AcDbEntity
  8
4
  6
CENTER
 48
0.2
100
AcDbLine
 10
100.7291136012044
 20
140.5335935017722
 30
0.0
 11
100.7291136012044
 21
161.3335935017723
 31
0.0
  0
CIRCLE
  5
28C
330
18
100
AcDbEntity
  8
1
  6
Continuous
100
AcDbCircle
 10
83.72911360120452
 20
152.2335935016532
 30
0.0
 40
3.0
  0
CIRCLE
  5
28D
330
18
100
AcDbEntity
  8
1
  6
Continuous
100
AcDbCircle
 10
83.72911360120452
 20
152.2335935016532
 30
0.0
 40
4.999999999999986
  0
LINE
  5
28E
330
18
100
AcDbEntity
  8
1
  6
Continuous
100
AcDbLine
 10
88.72911360120442
 20
158.2335935016532
 30
0.0
 11
88.72911360120442
 21
146.2335935016532
 31
0.0
  0
LINE
  5
291
330
18
100
AcDbEntity
  8
1
  6
Continuous
100
AcDbLine
 10
90.72911360120441
 20
144.3675680978687
 30
0.0
 11
88.2291136012045
 21
142.9241924248948
 31
0.0
  0
ARC
  5
292
330
18
100
AcDbEntity
  8
1
  6
Continuous
100
AcDbCircle
 10
90.72911360120441
 20
134.2335935016533
 30
0.0
 40
3.0
100
AcDbArc
 50
180.0
 51
270.0
  0
LINE
  5
296
330
18
100
AcDbEntity
  8
1
  6
Continuous
100
AcDbLine
 10
87.72911360120442
 20
142.0581670211103
 30
0.0
 11
87.72911360120442
 21
134.2335935016533
 31
0.0
  0
LINE
  5
298
330
18
100
AcDbEntity
  8
1
  6
Continuous
100
AcDbLine
 10
80.72911360120452
 20
142.6335935015341
 30
0.0
 11
87.91126009009918
 21
142.6335935015341
 31
0.0
  0
LINE
  5
299
330
18
100
AcDbEntity
  8
1
  6
Continuous
100
AcDbLine
 10
80.72911360120452
 20
139.7335935015341
 30
0.0
 11
87.72911360120442
 21
139.7335935015341
 31
0.0
  0
LINE
  5
29A
330
18
100
AcDbEntity
  8
1
  6
Continuous
100
AcDbLine
 10
82.66886459600522
 20
151.705603055384
 30
0.0
 11
82.00477827893008
 21
151.7171947251663
 31
0.0
  0
LINE
  5
29B
330
18
100
AcDbEntity
  8
1
  6
Continuous
100
AcDbLine
 10
82.66886459600522
 20
152.7615839479226
 30
0.0
 11
82.00477827893019
 21
152.7499922781402
 31
0.0
  0
LINE
  5
29C
330
18
100
AcDbEntity
  8
1
  6
Continuous
100
AcDbLine
 10
80.72911360120452
 20
148.2335935016533
 30
0.0
 11
80.72911360120452
 21
139.7335935015341
 31
0.0
  0
ARC
  5
29D
330
18
100
AcDbEntity
  8
1
  6
Continuous
100
AcDbCircle
 10
83.72911360120452
 20
152.2335935016532
 30
0.0
 40
1.8
100
AcDbArc
 50
163.3282509640189
 51
196.6717490359761
  0
ARC
  5
29E
330
18
100
AcDbEntity
  8
1
  6
Continuous
100
AcDbCircle
 10
88.72911360120442
 20
142.0581670211103
 30
0.0
 40
1.0
100
AcDbArc
 50
119.9999999999983
 51
180.0
  0
LINE
  5
29F
330
18
100
AcDbEntity
  8
1
  6
Continuous
100
AcDbLine
 10
84.78936260640308
 20
151.7056030553836
 30
0.0
 11
85.45344892347879
 21
151.7171947251661
 31
0.0
  0
LINE
  5
2A0
330
18
100
AcDbEntity
  8
1
  6
Continuous
100
AcDbLine
 10
84.7893626064037
 20
152.7615839479226
 30
0.0
 11
85.45344892347879
 21
152.7499922781402
 31
0.0
  0
ARC
  5
2A2
330
18
100
AcDbEntity
  8
1
  6
Continuous
100
AcDbCircle
 10
83.72911360120452
 20
152.2335935016532
 30
0.0
 40
1.8
100
AcDbArc
 50
73.32825096401454
 51
106.6717490359854
  0
ARC
  5
2A3
330
18
100
AcDbEntity
  8
1
  6
Continuous
100
AcDbCircle
 10
83.72911360120452
 20
152.2335935016532
 30
0.0
 40
1.8
100
AcDbArc
 50
253.3282509640077
 51
286.6717490359736
  0
LINE
  5
2A4
330
18
100
AcDbEntity
  8
1
  6
Continuous
100
AcDbLine
 10
83.03715133452682
 20
151.5416312349755
 30
0.0
 11
82.66886459600522
 21
151.705603055384
 31
0.0
  0
LINE
  5
2A5
330
18
100
AcDbEntity
  8
1
  6
Continuous
100
AcDbLine
 10
83.03715133452682
 20
151.5416312349755
 30
0.0
 11
83.20112315493489
 21
151.1733444964546
 31
0.0
  0
LINE
  5
2A6
330
18
100
AcDbEntity
  8
1
  6
Continuous
100
AcDbLine
 10
83.20112315493489
 20
151.1733444964546
 30
0.0
 11
83.21271482471741
 21
150.509258179379
 31
0.0
  0
LINE
  5
2A7
330
18
100
AcDbEntity
  8
1
  6
Continuous
100
AcDbLine
 10
84.25710404747379
 20
151.1733444964538
 30
0.0
 11
84.24551237769128
 21
150.5092581793788
 31
0.0
  0
LINE
  5
2A8
330
18
100
AcDbEntity
  8
1
  6
Continuous
100
AcDbLine
 10
84.42107586788239
 20
151.5416312349755
 30
0.0
 11
84.25710404747379
 21
151.1733444964539
 31
0.0
  0
LINE
  5
2A9
330
18
100
AcDbEntity
  8
1
  6
Continuous
100
AcDbLine
 10
84.42107586788228
 20
151.5416312349754
 30
0.0
 11
84.78936260640308
 21
151.7056030553836
 31
0.0
  0
LINE
  5
2AA
330
18
100
AcDbEntity
  8
1
  6
Continuous
100
AcDbLine
 10
84.42107586788228
 20
152.9255557683311
 30
0.0
 11
84.78936260640381
 21
152.7615839479226
 31
0.0
  0
LINE
  5
2AB
330
18
100
AcDbEntity
  8
1
  6
Continuous
100
AcDbLine
 10
84.42107586788228
 20
152.925555768331
 30
0.0
 11
84.257104047474
 21
153.293842506852
 31
0.0
  0
LINE
  5
2AC
330
18
100
AcDbEntity
  8
1
  6
Continuous
100
AcDbLine
 10
84.257104047474
 20
153.293842506852
 30
0.0
 11
84.24551237769151
 21
153.9579288239276
 31
0.0
  0
LINE
  5
2AD
330
18
100
AcDbEntity
  8
1
  6
Continuous
100
AcDbLine
 10
83.20112315493501
 20
153.2938425068518
 30
0.0
 11
83.2127148247175
 21
153.9579288239276
 31
0.0
  0
LINE
  5
2AE
330
18
100
AcDbEntity
  8
1
  6
Continuous
100
AcDbLine
 10
83.03715133452669
 20
152.925555768331
 30
0.0
 11
82.66886459600522
 21
152.7615839479225
 31
0.0
  0
LINE
  5
2AF
330
18
100
AcDbEntity
  8
1
  6
Continuous
100
AcDbLine
 10
83.03715133452682
 20
152.925555768331
 30
0.0
 11
83.20112315493501
 21
153.2938425068518
 31
0.0
  0
ARC
  5
2B1
330
18
100
AcDbEntity
  8
1
  6
Continuous
100
AcDbCircle
 10
83.72911360120452
 20
152.2335935016532
 30
0.0
 40
1.8
100
AcDbArc
 50
343.3282509640041
 51
16.67174903597517
  0
CIRCLE
  5
2B3
330
18
100
AcDbEntity
  8
1
  6
Continuous
100
AcDbCircle
 10
100.7291136012044
 20
135.2335935016533
 30
0.0
 40
1.75
  0
LINE
  5
2B4
330
18
100
AcDbEntity
  8
4
  6
CENTER
 48
0.1
100
AcDbLine
 10
103.4791136012044
 20
135.2335935016533
 30
0.0
 11
97.97911360120442
 21
135.2335935016533
 31
0.0
  0
CIRCLE
  5
2B5
330
18
100
AcDbEntity
  8
1
  6
Continuous
100
AcDbCircle
 10
100.7291136012044
 20
135.2335935016533
 30
0.0
 40
1.75
  0
CIRCLE
  5
2B6
330
18
100
AcDbEntity
  8
1
  6
Continuous
100
AcDbCircle
 10
100.7291136012044
 20
150.9335935017723
 30
0.0
 40
2.75
  0
LINE
  5
2B7
330
18
100
AcDbEntity
  8
4
  6
CENTER
 48
0.2
100
AcDbLine
 10
111.1291136012044
 20
150.9335935017723
 30
0.0
 11
90.32911360120442
 21
150.9335935017723
 31
0.0
  0
ARC
  5
2B8
330
18
100
AcDbEntity
  8
1
  6
Continuous
100
AcDbCircle
 10
90.22911360120442
 20
145.2335935016533
 30
0.0
 40
1.000000000000057
100
AcDbArc
 50
299.9999999999983
 51
90.0
  0
LINE
  5
2B9
330
18
100
AcDbEntity
  8
1
  6
Continuous
100
AcDbLine
 10
88.72911360120442
 20
146.2335935016532
 30
0.0
 11
90.22911360120442
 21
146.2335935016532
 31
0.0
  0
LINE
  5
2BB
330
18
100
AcDbEntity
  8
4
  6
CENTER
 48
0.1
100
AcDbLine
 10
100.7291136012044
 20
137.9835935016533
 30
0.0
 11
100.7291136012044
 21
132.4835935016533
 31
0.0
  0
LINE
  5
2BF
330
18
100
AcDbEntity
  8
1
  6
Continuous
100
AcDbLine
 10
90.72911360120441
 20
160.0996189054376
 30
0.0
 11
88.2291136012045
 21
161.5429945784117
 31
0.0
  0
ARC
  5
2C0
330
18
100
AcDbEntity
  8
1
  6
Continuous
100
AcDbCircle
 10
90.7291136012045
 20
170.2335935016532
 30
0.0
 40
3.0
100
AcDbArc
 50
90.0
 51
180.0
  0
LINE
  5
2C1
330
18
100
AcDbEntity
  8
1
  6
Continuous
100
AcDbLine
 10
80.72911360120452
 20
161.833593501534
 30
0.0
 11
87.91126009026692
 21
161.833593501534
 31
0.0
  0
LINE
  5
2C2
330
18
100
AcDbEntity
  8
1
  6
Continuous
100
AcDbLine
 10
80.72911360120452
 20
164.7335935015341
 30
0.0
 11
87.72911360120451
 21
164.7335935015341
 31
0.0
  0
LINE
  5
2C3
330
18
100
AcDbEntity
  8
1
  6
Continuous
100
AcDbLine
 10
80.72911360120452
 20
164.7335935015341
 30
0.0
 11
80.72911360120452
 21
156.2335935016532
 31
0.0
  0
LINE
  5
2C4
330
18
100
AcDbEntity
  8
1
  6
Continuous
100
AcDbLine
 10
87.72911360120451
 20
170.2335935016532
 30
0.0
 11
87.72911360120451
 21
162.4090199821961
 31
0.0
  0
ARC
  5
2C5
330
18
100
AcDbEntity
  8
1
  6
Continuous
100
AcDbCircle
 10
88.72911360120451
 20
162.4090199821961
 30
0.0
 40
1.0
100
AcDbArc
 50
180.0
 51
240.0000000000016
  0
CIRCLE
  5
2C8
330
18
100
AcDbEntity
  8
1
  6
Continuous
100
AcDbCircle
 10
100.7291136012044
 20
169.2335935016532
 30
0.0
 40
1.75
  0
LINE
  5
2C9
330
18
100
AcDbEntity
  8
4
  6
CENTER
 48
0.1
100
AcDbLine
 10
103.4791136012044
 20
169.2335935016532
 30
0.0
 11
97.97911360120442
 21
169.2335935016532
 31
0.0
  0
CIRCLE
  5
2CA
330
18
100
AcDbEntity
  8
1
  6
Continuous
100
AcDbCircle
 10
100.7291136012044
 20
169.2335935016532
 30
0.0
 40
1.75
  0
ARC
  5
2CB
330
18
100
AcDbEntity
  8
1
  6
Continuous
100
AcDbCircle
 10
90.22911360120451
 20
159.2335935016532
 30
0.0
 40
1.000000000000057
100
AcDbArc
 50
270.0
 51
60.00000000000169
  0
LINE
  5
2CC
330
18
100
AcDbEntity
  8
1
  6
Continuous
100
AcDbLine
 10
88.72911360120442
 20
158.2335935016532
 30
0.0
 11
90.22911360120442
 21
158.2335935016532
 31
0.0
  0
LINE
  5
2CE
330
18
100
AcDbEntity
  8
4
  6
CENTER
 48
0.1
100
AcDbLine
 10
100.7291136012044
 20
171.9835935016532
 30
0.0
 11
100.7291136012044
 21
166.4835935016531
 31
0.0
  0
LINE
  5
2D2
330
18
100
AcDbEntity
  8
1
  6
Continuous
100
AcDbLine
 10
153.546967112255
 20
142.6335935015341
 30
0.0
 11
800.7291136012041
 21
142.6335935015341
 31
0.0
  0
LINE
  5
2D3
330
18
100
AcDbEntity
  8
1
  6
Continuous
100
AcDbLine
 10
153.5469671120885
 20
161.8335935015341
 30
0.0
 11
800.7291136012044
 21
161.8335935015341
 31
0.0
  0
LINE
  5
2D4
330
18
100
AcDbEntity
  8
1
  6
Continuous
100
AcDbLine
 10
153.7291136012042
 20
139.7335935015341
 30
0.0
 11
800.7291136012044
 21
139.7335935015341
 31
0.0
  0
LINE
  5
2D5
330
18
100
AcDbEntity
  8
1
  6
Continuous
100
AcDbLine
 10
153.7291136012044
 20
164.7335935015341
 30
0.0
 11
800.7291136012044
 21
164.7335935015341
 31
0.0
  0
CIRCLE
  5
2D9
330
18
100
AcDbEntity
  8
1
  6
Continuous
100
AcDbCircle
 10
200.7291136012045
 20
152.2335935016532
 30
0.0
 40
4.0
  0
CIRCLE
  5
2DA
330
18
100
AcDbEntity
  8
1
  6
Continuous
100
AcDbCircle
 10
140.7291136012044
 20
150.9335935017723
 30
0.0
 40
5.0
  0
CIRCLE
  5
2DB
330
18
100
AcDbEntity
  8
1
  6
Continuous
100
AcDbCircle
 10
120.7291136012043
 20
153.5335935015341
 30
0.0
 40
5.0
  0
CIRCLE
  5
2DC
330
18
100
AcDbEntity
  8
1
  6
Continuous
100
AcDbCircle
 10
120.7291136012043
 20
153.5335935015341
 30
0.0
 40
2.75
  0
CIRCLE
  5
2DD
330
18
100
AcDbEntity
  8
3
  6
DASHED
 48
0.5
100
AcDbCircle
 10
140.7291136012045
 20
150.9335935017724
 30
0.0
 40
9.4
  0
LINE
  5
2DE
330
18
100
AcDbEntity
  8
4
  6
CENTER
 48
0.2
100
AcDbLine
 10
140.7291136012044
 20
140.5335935017722
 30
0.0
 11
140.7291136012044
 21
161.3335935017723
 31
0.0
  0
LINE
  5
2DF
330
18
100
AcDbEntity
  8
4
  6
CENTER
 48
0.2
100
AcDbLine
 10
120.7291136012043
 20
163.9335935015341
 30
0.0
 11
120.7291136012043
 21
143.1335935015341
 31
0.0
  0
LINE
  5
2E0
330
18
100
AcDbEntity
  8
1
  6
Continuous
100
AcDbLine
 10
152.7291136012044
 20
158.2335935016532
 30
0.0
 11
152.7291136012044
 21
146.2335935016532
 31
0.0
  0
LINE
  5
2E1
330
18
100
AcDbEntity
  8
4
  6
CENTER
 48
0.2
100
AcDbLine
 10
130.3291136012045
 20
150.9335935017723
 30
0.0
 11
151.1291136012046
 21
150.9335935017723
 31
0.0
  0
LINE
  5
2E3
330
18
100
AcDbEntity
  8
4
  6
CENTER
 48
0.1
100
AcDbLine
 10
143.4791136012044
 20
135.2335935016533
 30
0.0
 11
137.9791136012044
 21
135.2335935016533
 31
0.0
  0
CIRCLE
  5
2E4
330
18
100
AcDbEntity
  8
1
  6
Continuous
100
AcDbCircle
 10
140.7291136012044
 20
135.2335935016533
 30
0.0
 40
1.75
  0
LINE
  5
2E5
330
18
100
AcDbEntity
  8
4
  6
CENTER
 48
0.1
100
AcDbLine
 10
140.7291136012044
 20
137.9835935016533
 30
0.0
 11
140.7291136012044
 21
132.4835935016533
 31
0.0
  0
CIRCLE
  5
2E7
330
18
100
AcDbEntity
  8
1
  6
Continuous
100
AcDbCircle
 10
140.7291136012044
 20
150.9335935017723
 30
0.0
 40
2.75
  0
LINE
  5
2E8
330
18
100
AcDbEntity
  8
1
  6
Continuous
100
AcDbLine
 10
153.7291136012044
 20
142.058167021033
 30
0.0
 11
153.7291136012042
 21
134.2335935016532
 31
0.0
  0
ARC
  5
2E9
330
18
100
AcDbEntity
  8
1
  6
Continuous
100
AcDbCircle
 10
150.7291136012044
 20
134.2335935016533
 30
0.0
 40
3.0
100
AcDbArc
 50
270.0
 51
0.0
  0
LINE
  5
2EA
330
18
100
AcDbEntity
  8
1
  6
Continuous
100
AcDbLine
 10
151.2291136010704
 20
146.2335935016532
 30
0.0
 11
152.7291136012042
 21
146.2335935016532
 31
0.0
  0
LINE
  5
2EB
330
18
100
AcDbEntity
  8
1
  6
Continuous
100
AcDbLine
 10
150.7291136010704
 20
144.3675680978688
 30
0.0
 11
153.2291136010704
 21
142.9241924248949
 31
0.0
  0
ARC
  5
2EC
330
18
100
AcDbEntity
  8
1
  6
Continuous
100
AcDbCircle
 10
151.2291136010704
 20
145.2335935016533
 30
0.0
 40
1.000000000000057
100
AcDbArc
 50
90.0
 51
240.0000000000016
  0
ARC
  5
2ED
330
18
100
AcDbEntity
  8
1
  6
Continuous
100
AcDbCircle
 10
152.7291136012044
 20
142.058167021033
 30
0.0
 40
1.0
100
AcDbArc
 50
0.0
 51
60.00000000000277
  0
LINE
  5
2EE
330
18
100
AcDbEntity
  8
4
  6
CENTER
 48
0.1
100
AcDbLine
 10
140.7291136012044
 20
171.9835935016532
 30
0.0
 11
140.7291136012044
 21
166.4835935016531
 31
0.0
  0
LINE
  5
2EF
330
18
100
AcDbEntity
  8
4
  6
CENTER
 48
0.1
100
AcDbLine
 10
143.4791136012044
 20
169.2335935016532
 30
0.0
 11
137.9791136012044
 21
169.2335935016532
 31
0.0
  0
CIRCLE
  5
2F0
330
18
100
AcDbEntity
  8
1
  6
Continuous
100
AcDbCircle
 10
140.7291136012044
 20
169.2335935016532
 30
0.0
 40
1.75
  0
ARC
  5
2F2
330
18
100
AcDbEntity
  8
1
  6
Continuous
100
AcDbCircle
 10
150.7291136012044
 20
170.2335935016532
 30
0.0
 40
3.0
100
AcDbArc
 50
0.0
 51
90.0
  0
LINE
  5
2F3
330
18
100
AcDbEntity
  8
1
  6
Continuous
100
AcDbLine
 10
151.2291136010704
 20
158.2335935016532
 30
0.0
 11
152.7291136012042
 21
158.2335935016532
 31
0.0
  0
LINE
  5
2F4
330
18
100
AcDbEntity
  8
1
  6
Continuous
100
AcDbLine
 10
150.7291136010704
 20
160.0996189054376
 30
0.0
 11
153.2291136010704
 21
161.5429945784117
 31
0.0
  0
ARC
  5
2F5
330
18
100
AcDbEntity
  8
1
  6
Continuous
100
AcDbCircle
 10
151.2291136010704
 20
159.2335935016532
 30
0.0
 40
1.000000000000057
100
AcDbArc
 50
119.9999999999983
 51
270.0
  0
LINE
  5
2F6
330
18
100
AcDbEntity
  8
1
  6
Continuous
100
AcDbLine
 10
153.7291136012044
 20
170.2335935016532
 30
0.0
 11
153.7291136012044
 21
162.4090199822735
 31
0.0
  0
ARC
  5
2F7
330
18
100
AcDbEntity
  8
1
  6
Continuous
100
AcDbCircle
 10
152.7291136012044
 20
162.4090199822735
 30
0.0
 40
1.0
100
AcDbArc
 50
299.9999999999983
 51
0.0
  0
LINE
  5
2F8
330
18
100
AcDbEntity
  8
4
  6
CENTER
 48
0.2
100
AcDbLine
 10
200.7291136012045
 20
158.2335935016532
 30
0.0
 11
200.7291136012045
 21
146.2335935016532
 31
0.0
  0
CIRCLE
  5
2F9
330
18
100
AcDbEntity
  8
1
  6
Continuous
100
AcDbCircle
 10
200.7291136012045
 20
152.2335935016532
 30
0.0
 40
2.25
  0
LINE
  5
2FC
330
18
100
AcDbEntity
  8
4
  6
CENTER
 48
0.2
100
AcDbLine
 10
760.7291136012044
 20
158.2335935016532
 30
0.0
 11
760.7291136012044
 21
146.2335935016532
 31
0.0
  0
CIRCLE
  5
2FD
330
18
100
AcDbEntity
  8
1
  6
Continuous
100
AcDbCircle
 10
760.7291136012044
 20
152.2335935016532
 30
0.0
 40
4.0
  0
CIRCLE
  5
2FE
330
18
100
AcDbEntity
  8
1
  6
Continuous
100
AcDbCircle
 10
760.7291136012044
 20
152.2335935016532
 30
0.0
 40
2.25
  0
CIRCLE
  5
301
330
18
100
AcDbEntity
  8
1
  6
Continuous
100
AcDbCircle
 10
797.7291136012044
 20
152.2335935016532
 30
0.0
 40
3.0
  0
CIRCLE
  5
302
330
18
100
AcDbEntity
  8
1
  6
Continuous
100
AcDbCircle
 10
797.7291136012044
 20
152.2335935016532
 30
0.0
 40
4.999999999999986
  0
ARC
  5
304
330
18
100
AcDbEntity
  8
1
  6
Continuous
100
AcDbCircle
 10
797.7291136012044
 20
152.2335935016532
 30
0.0
 40
1.8
100
AcDbArc
 50
73.32825096401454
 51
106.6717490359854
  0
ARC
  5
305
330
18
100
AcDbEntity
  8
1
  6
Continuous
100
AcDbCircle
 10
797.7291136012044
 20
152.2335935016532
 30
0.0
 40
1.8
100
AcDbArc
 50
253.3282509640077
 51
286.6717490359736
  0
ARC
  5
306
330
18
100
AcDbEntity
  8
1
  6
Continuous
100
AcDbCircle
 10
797.7291136012044
 20
152.2335935016532
 30
0.0
 40
1.8
100
AcDbArc
 50
163.3282509640189
 51
196.6717490359761
  0
LINE
  5
307
330
18
100
AcDbEntity
  8
1
  6
Continuous
100
AcDbLine
 10
796.6688645960049
 20
151.705603055384
 30
0.0
 11
796.0047782789298
 21
151.7171947251663
 31
0.0
  0
LINE
  5
308
330
18
100
AcDbEntity
  8
1
  6
Continuous
100
AcDbLine
 10
797.0371513345265
 20
151.5416312349755
 30
0.0
 11
796.6688645960049
 21
151.705603055384
 31
0.0
  0
LINE
  5
309
330
18
100
AcDbEntity
  8
1
  6
Continuous
100
AcDbLine
 10
797.0371513345268
 20
151.5416312349755
 30
0.0
 11
797.2011231549348
 21
151.1733444964546
 31
0.0
  0
LINE
  5
30A
330
18
100
AcDbEntity
  8
1
  6
Continuous
100
AcDbLine
 10
797.2011231549347
 20
151.1733444964546
 30
0.0
 11
797.2127148247173
 21
150.509258179379
 31
0.0
  0
LINE
  5
30B
330
18
100
AcDbEntity
  8
1
  6
Continuous
100
AcDbLine
 10
796.6688645960049
 20
152.7615839479225
 30
0.0
 11
796.0047782789298
 21
152.7499922781402
 31
0.0
  0
LINE
  5
30C
330
18
100
AcDbEntity
  8
1
  6
Continuous
100
AcDbLine
 10
797.2011231549348
 20
153.2938425068519
 30
0.0
 11
797.2127148247175
 21
153.9579288239276
 31
0.0
  0
LINE
  5
30D
330
18
100
AcDbEntity
  8
1
  6
Continuous
100
AcDbLine
 10
797.0371513345265
 20
152.925555768331
 30
0.0
 11
796.6688645960049
 21
152.7615839479225
 31
0.0
  0
LINE
  5
30E
330
18
100
AcDbEntity
  8
1
  6
Continuous
100
AcDbLine
 10
797.0371513345265
 20
152.925555768331
 30
0.0
 11
797.2011231549348
 21
153.2938425068518
 31
0.0
  0
ARC
  5
310
330
18
100
AcDbEntity
  8
1
  6
Continuous
100
AcDbCircle
 10
797.7291136012044
 20
152.2335935016532
 30
0.0
 40
1.8
100
AcDbArc
 50
343.3282509640041
 51
16.67174903597517
  0
LINE
  5
311
330
18
100
AcDbEntity
  8
1
  6
Continuous
100
AcDbLine
 10
798.2571040474737
 20
151.1733444964538
 30
0.0
 11
798.2455123776912
 21
150.5092581793788
 31
0.0
  0
LINE
  5
312
330
18
100
AcDbEntity
  8
1
  6
Continuous
100
AcDbLine
 10
798.4210758678822
 20
151.5416312349755
 30
0.0
 11
798.2571040474737
 21
151.1733444964539
 31
0.0
  0
LINE
  5
313
330
18
100
AcDbEntity
  8
1
  6
Continuous
100
AcDbLine
 10
798.4210758678822
 20
151.5416312349754
 30
0.0
 11
798.789362606403
 21
151.7056030553836
 31
0.0
  0
LINE
  5
314
330
18
100
AcDbEntity
  8
1
  6
Continuous
100
AcDbLine
 10
798.789362606403
 20
151.7056030553836
 30
0.0
 11
799.4534489234787
 21
151.7171947251661
 31
0.0
  0
LINE
  5
315
330
18
100
AcDbEntity
  8
1
  6
Continuous
100
AcDbLine
 10
798.7893626064035
 20
152.7615839479225
 30
0.0
 11
799.4534489234787
 21
152.7499922781402
 31
0.0
  0
LINE
  5
316
330
18
100
AcDbEntity
  8
1
  6
Continuous
100
AcDbLine
 10
798.4210758678822
 20
152.925555768331
 30
0.0
 11
798.7893626064037
 21
152.7615839479225
 31
0.0
  0
LINE
  5
317
330
18
100
AcDbEntity
  8
1
  6
Continuous
100
AcDbLine
 10
798.4210758678822
 20
152.9255557683311
 30
0.0
 11
798.257104047474
 21
153.2938425068521
 31
0.0
  0
LINE
  5
318
330
18
100
AcDbEntity
  8
1
  6
Continuous
100
AcDbLine
 10
798.257104047474
 20
153.293842506852
 30
0.0
 11
798.2455123776916
 21
153.9579288239276
 31
0.0
  0
LINE
  5
31B
330
18
100
AcDbEntity
  8
1
  6
Continuous
100
AcDbLine
 10
800.7291136012044
 20
148.2335935016533
 30
0.0
 11
800.7291136012044
 21
139.733593501534
 31
0.0
  0
LINE
  5
31C
330
18
100
AcDbEntity
  8
1
  6
Continuous
100
AcDbLine
 10
800.7291136012044
 20
164.733593501534
 30
0.0
 11
800.7291136012044
 21
156.2335935016532
 31
0.0
  0
LINE
  5
862
330
18
100
AcDbEntity
  8
1
  6
Continuous
100
AcDbLine
 10
852.1667412038276
 20
173.2335935016532
 30
0.0
 11
852.1667412038276
 21
131.2335935016533
 31
0.0
  0
ARC
  5
863
330
18
100
AcDbEntity
  8
1
  6
Continuous
100
AcDbCircle
 10
861.1667412038276
 20
161.7335935015341
 30
0.0
 40
3.0
100
AcDbArc
 50
0.000000000000007
 51
90.0
  0
LINE
  5
864
330
18
100
AcDbEntity
  8
1
  6
Continuous
100
AcDbLine
 10
853.6667412038275
 20
173.2335935016532
 30
0.0
 11
853.6667412038275
 21
158.2335935016532
 31
0.0
  0
LINE
  5
865
330
18
100
AcDbEntity
  8
1
  6
Continuous
100
AcDbLine
 10
852.1667412038276
 20
158.2335935016532
 30
0.0
 11
857.1667412038275
 21
158.2335935016532
 31
0.0
  0
LINE
  5
866
330
18
100
AcDbEntity
  8
1
  6
Continuous
100
AcDbLine
 10
852.1667412038276
 20
146.2335935016532
 30
0.0
 11
857.1667412038276
 21
146.2335935016532
 31
0.0
  0
LINE
  5
867
330
18
100
AcDbEntity
  8
4
  6
CENTER
 48
0.1
100
AcDbLine
 10
856.9075409126702
 20
135.2335935016533
 30
0.0
 11
849.2213679010871
 21
135.2335935016533
 31
0.0
  0
LINE
  5
868
330
18
100
AcDbEntity
  8
1
  6
Continuous
100
AcDbLine
 10
852.1667412038276
 20
131.2335935016533
 30
0.0
 11
853.6667412038275
 21
131.2335935016533
 31
0.0
  0
LINE
  5
869
330
18
100
AcDbEntity
  8
4
  6
CENTER
 48
0.2
100
AcDbLine
 10
868.5487427926863
 20
152.2335935016532
 30
0.0
 11
848.0480247222374
 21
152.2335935016532
 31
0.0
  0
LINE
  5
86B
330
18
100
AcDbEntity
  8
1
  6
Continuous
100
AcDbLine
 10
853.6667412038276
 20
146.2335935016532
 30
0.0
 11
853.6667412038276
 21
131.2335935016533
 31
0.0
  0
LINE
  5
86C
330
18
100
AcDbEntity
  8
1
  6
Continuous
100
AcDbLine
 10
862.2667412038275
 20
161.833593501534
 30
0.0
 11
862.2667412038278
 21
142.6335935015341
 31
0.0
  0
LINE
  5
86D
330
18
100
AcDbEntity
  8
1
  6
Continuous
100
AcDbLine
 10
864.1667412038275
 20
161.7335935015341
 30
0.0
 11
864.1667412038277
 21
142.7335935015341
 31
0.0
  0
ARC
  5
86F
330
18
100
AcDbEntity
  8
1
  6
Continuous
100
AcDbCircle
 10
858.6667412038275
 20
144.4335935017724
 30
0.0
 40
2.9
100
AcDbArc
 50
180.0
 51
0.000000000000007
  0
LINE
  5
870
330
18
100
AcDbEntity
  8
1
  6
Continuous
100
AcDbLine
 10
861.1667412038276
 20
139.7335935015341
 30
0.0
 11
856.6667412038276
 21
139.7335935015341
 31
0.0
  0
ARC
  5
871
330
18
100
AcDbEntity
  8
1
  6
Continuous
100
AcDbCircle
 10
861.1667412038276
 20
142.7335935015341
 30
0.0
 40
3.0
100
AcDbArc
 50
270.0
 51
0.000000000000007
  0
LINE
  5
872
330
18
100
AcDbEntity
  8
1
  6
Continuous
100
AcDbLine
 10
862.2667412038278
 20
142.6335935015341
 30
0.0
 11
860.9405046038194
 21
142.6335935015341
 31
0.0
  0
LINE
  5
873
330
18
100
AcDbEntity
  8
1
  6
Continuous
100
AcDbLine
 10
856.392977803647
 20
142.6335935015341
 30
0.0
 11
855.6667412038276
 21
142.6335935015341
 31
0.0
  0
ARC
  5
874
330
18
100
AcDbEntity
  8
1
  6
Continuous
100
AcDbCircle
 10
856.6667412038276
 20
140.7335935015341
 30
0.0
 40
1.0
100
AcDbArc
 50
180.0
 51
270.0
  0
LINE
  5
875
330
18
100
AcDbEntity
  8
1
  6
Continuous
100
AcDbLine
 10
855.6667412038276
 20
142.633593501534
 30
0.0
 11
855.6667412038276
 21
140.7335935015341
 31
0.0
  0
LINE
  5
876
330
18
100
AcDbEntity
  8
1
  6
Continuous
100
AcDbLine
 10
858.2667412038276
 20
157.2335935016532
 30
0.0
 11
858.2667412038276
 21
147.2335935016532
 31
0.0
  0
LINE
  5
877
330
18
100
AcDbEntity
  8
1
  6
Continuous
100
AcDbLine
 10
862.2667412038278
 20
146.7335935016532
 30
0.0
 11
858.2667412038276
 21
147.2335935016532
 31
0.0
  0
LINE
  5
878
330
18
100
AcDbEntity
  8
1
  6
Continuous
100
AcDbLine
 10
861.5667412038275
 20
144.4335935017724
 30
0.0
 11
861.5667412038275
 21
146.8210935016546
 31
0.0
  0
LINE
  5
879
330
18
100
AcDbEntity
  8
1
  6
Continuous
100
AcDbLine
 10
854.7667412038277
 20
144.4335935017718
 30
0.0
 11
855.7667412038274
 21
144.4335935017721
 31
0.0
  0
LINE
  5
87A
330
18
100
AcDbEntity
  8
1
  6
Continuous
100
AcDbLine
 10
855.7667412038275
 20
144.4335935017724
 30
0.0
 11
855.7667412038265
 21
146.2335935016531
 31
0.0
  0
LINE
  5
87B
330
18
100
AcDbEntity
  8
1
  6
Continuous
100
AcDbLine
 10
854.7667412038277
 20
144.4335935017718
 30
0.0
 11
854.7667412038263
 21
146.2335935016526
 31
0.0
  0
ARC
  5
87C
330
18
100
AcDbEntity
  8
1
  6
Continuous
100
AcDbCircle
 10
857.1667412038276
 20
148.2335935016532
 30
0.0
 40
2.0
100
AcDbArc
 50
270.0
 51
327.5393637873507
  0
ARC
  5
87D
330
18
100
AcDbEntity
  8
1
  6
Continuous
100
AcDbCircle
 10
858.6667412038275
 20
157.4335935017724
 30
0.0
 40
2.9
100
AcDbArc
 50
4.183034027437946
 51
163.9866055785025
  0
ARC
  5
87E
330
18
100
AcDbEntity
  8
1
  6
Continuous
100
AcDbCircle
 10
858.6667412038275
 20
160.0335935015341
 30
0.0
 40
2.9
100
AcDbArc
 50
0.000000000000007
 51
180.0
  0
LINE
  5
87F
330
18
100
AcDbEntity
  8
1
  6
Continuous
100
AcDbLine
 10
861.1667412038276
 20
164.7335935015341
 30
0.0
 11
856.6667412038276
 21
164.7335935015341
 31
0.0
  0
LINE
  5
880
330
18
100
AcDbEntity
  8
1
  6
Continuous
100
AcDbLine
 10
862.2667412038275
 20
157.7335935016532
 30
0.0
 11
858.2667412038276
 21
157.2335935016532
 31
0.0
  0
LINE
  5
881
330
18
100
AcDbEntity
  8
1
  6
Continuous
100
AcDbLine
 10
862.2667412038275
 20
161.833593501534
 30
0.0
 11
860.9405046040079
 21
161.833593501534
 31
0.0
  0
LINE
  5
882
330
18
100
AcDbEntity
  8
1
  6
Continuous
100
AcDbLine
 10
861.5667412038275
 20
160.0335935015341
 30
0.0
 11
861.5667412038275
 21
157.6460935016518
 31
0.0
  0
LINE
  5
883
330
18
100
AcDbEntity
  8
1
  6
Continuous
100
AcDbLine
 10
855.6667412038276
 20
163.7335935015341
 30
0.0
 11
855.6667412038276
 21
161.833593501534
 31
0.0
  0
LINE
  5
884
330
18
100
AcDbEntity
  8
1
  6
Continuous
100
AcDbLine
 10
854.7667412038277
 20
160.0335935015347
 30
0.0
 11
855.7667412038274
 21
160.0335935015343
 31
0.0
  0
LINE
  5
885
330
18
100
AcDbEntity
  8
1
  6
Continuous
100
AcDbLine
 10
855.7667412038275
 20
160.0335935015341
 30
0.0
 11
855.7667412038265
 21
158.2335935016534
 31
0.0
  0
LINE
  5
886
330
18
100
AcDbEntity
  8
1
  6
Continuous
100
AcDbLine
 10
856.392977803647
 20
161.833593501534
 30
0.0
 11
855.6667412038276
 21
161.833593501534
 31
0.0
  0
LINE
  5
887
330
18
100
AcDbEntity
  8
1
  6
Continuous
100
AcDbLine
 10
854.7667412038277
 20
160.0335935015347
 30
0.0
 11
854.7667412038263
 21
158.2335935016539
 31
0.0
  0
ARC
  5
888
330
18
100
AcDbEntity
  8
1
  6
Continuous
100
AcDbCircle
 10
856.6667412038276
 20
163.7335935015341
 30
0.0
 40
1.0
100
AcDbArc
 50
90.0
 51
180.0
  0
ARC
  5
889
330
18
100
AcDbEntity
  8
1
  6
Continuous
100
AcDbCircle
 10
857.1667412038275
 20
156.2335935016532
 30
0.0
 40
2.0
100
AcDbArc
 50
32.4606362126493
 51
90.0
  0
LINE
  5
88B
330
18
100
AcDbEntity
  8
1
  6
Continuous
100
AcDbLine
 10
852.1667412038276
 20
173.2335935016532
 30
0.0
 11
853.6667412038275
 21
173.2335935016532
 31
0.0
  0
LINE
  5
88C
330
18
100
AcDbEntity
  8
4
  6
CENTER
 48
0.1
100
AcDbLine
 10
856.9075409126702
 20
169.2335935016532
 30
0.0
 11
849.2213679010871
 21
169.2335935016532
 31
0.0
  0
LINE
  5
C4D
330
18
100
AcDbEntity
  8
1
  6
Continuous
100
AcDbLine
 10
80.72911360120448
 20
247.476853513823
 30
0.0
 11
800.7291136012044
 21
247.476853513823
 31
0.0
  0
LINE
  5
C4E
330
18
100
AcDbEntity
  8
1
  6
Continuous
100
AcDbLine
 10
87.72911360120454
 20
243.976853513823
 30
0.0
 11
153.7291136012044
 21
243.976853513823
 31
0.0
  0
LINE
  5
C4F
330
18
100
AcDbEntity
  8
1
  6
Continuous
100
AcDbLine
 10
80.72911360120452
 20
255.9768535138228
 30
0.0
 11
800.7291136012044
 21
255.9768535138229
 31
0.0
  0
LINE
  5
C50
330
18
100
AcDbEntity
  8
1
  6
Continuous
100
AcDbLine
 10
87.72911360120449
 20
245.4768535138229
 30
0.0
 11
153.7291136012044
 21
245.4768535138229
 31
0.0
  0
LINE
  5
C79
330
18
100
AcDbEntity
  8
4
  6
CENTER
 48
0.1
100
AcDbLine
 10
200.7291136012045
 20
260.476853513942
 30
0.0
 11
200.7291136012045
 21
251.476853513942
 31
0.0
  0
LINE
  5
C86
330
18
100
AcDbEntity
  8
4
  6
CENTER
 48
0.1
100
AcDbLine
 10
760.7291136012044
 20
260.476853513942
 30
0.0
 11
760.7291136012044
 21
251.476853513942
 31
0.0
  0
LINE
  5
C89
330
18
100
AcDbEntity
  8
1
  6
Continuous
100
AcDbLine
 10
800.7291136012044
 20
255.9768535138229
 30
0.0
 11
800.7291136012044
 21
247.476853513823
 31
0.0
  0
LINE
  5
CBB
330
18
100
AcDbEntity
  8
1
  6
Continuous
100
AcDbLine
 10
127.2291136010857
 20
246.5768535138229
 30
0.0
 11
114.2291136013229
 21
246.576853513814
 31
0.0
  0
LINE
  5
CBD
330
18
100
AcDbEntity
  8
1
  6
Continuous
100
AcDbLine
 10
127.2291136010857
 20
246.5768535138229
 30
0.0
 11
127.2291136010854
 21
247.476853513823
 31
0.0
  0
LINE
  5
CC9
330
18
100
AcDbEntity
  8
1
  6
Continuous
100
AcDbLine
 10
114.2291136013229
 20
246.5768535138229
 30
0.0
 11
114.2291136013232
 21
247.476853513823
 31
0.0
  0
LINE
  5
1074
330
18
100
AcDbEntity
  8
1
  6
Continuous
100
AcDbLine
 10
153.7291136012044
 20
245.4768535138229
 30
0.0
 11
153.7291136012044
 21
243.976853513823
 31
0.0
  0
LINE
  5
1075
330
18
100
AcDbEntity
  8
1
  6
Continuous
100
AcDbLine
 10
87.72911360120449
 20
245.4768535138229
 30
0.0
 11
87.72911360120451
 21
243.976853513823
 31
0.0
  0
LINE
  5
1088
330
18
100
AcDbEntity
  8
4
  6
CENTER
 48
0.1
100
AcDbLine
 10
100.7291136012043
 20
250.476853513823
 30
0.0
 11
100.7291136012044
 21
240.976853513823
 31
0.0
  0
LINE
  5
1089
330
18
100
AcDbEntity
  8
4
  6
CENTER
 48
0.1
100
AcDbLine
 10
140.7291136012045
 20
250.476853513823
 30
0.0
 11
140.7291136012044
 21
240.976853513823
 31
0.0
  0
LINE
  5
108B
330
18
100
AcDbEntity
  8
4
  6
CENTER
 48
0.1
100
AcDbLine
 10
120.7291136012043
 20
250.476853513823
 30
0.0
 11
120.7291136012043
 21
240.976853513823
 31
0.0
  0
LINE
  5
10B1
330
18
100
AcDbEntity
  8
1
  6
Continuous
100
AcDbLine
 10
802.7291136012044
 20
254.0768535138229
 30
0.0
 11
802.2291136012041
 21
250.076853513823
 31
0.0
  0
LINE
  5
10B2
330
18
100
AcDbEntity
  8
1
  6
Continuous
100
AcDbLine
 10
800.7291136012044
 20
250.076853513823
 30
0.0
 11
802.2291136012041
 21
250.076853513823
 31
0.0
  0
LINE
  5
10B3
330
18
100
AcDbEntity
  8
1
  6
Continuous
100
AcDbLine
 10
800.7291136012044
 20
254.076853513823
 30
0.0
 11
802.7291136012044
 21
254.0768535138229
 31
0.0
  0
LINE
  5
111C
330
18
100
AcDbEntity
  8
1
  6
Continuous
100
AcDbLine
 10
152.7291136012044
 20
247.476853513823
 30
0.0
 11
152.7291136012044
 21
245.4768535138229
 31
0.0
  0
LINE
  5
111D
330
18
100
AcDbEntity
  8
1
  6
Continuous
100
AcDbLine
 10
151.2291136012044
 20
247.476853513823
 30
0.0
 11
151.2291136012044
 21
245.4768535138229
 31
0.0
  0
LINE
  5
111E
330
18
100
AcDbEntity
  8
1
  6
Continuous
100
AcDbLine
 10
90.22911360120437
 20
247.476853513823
 30
0.0
 11
90.22911360120437
 21
245.4768535138229
 31
0.0
  0
LINE
  5
111F
330
18
100
AcDbEntity
  8
1
  6
Continuous
100
AcDbLine
 10
88.72911360120438
 20
247.476853513823
 30
0.0
 11
88.72911360120433
 21
245.4768535138229
 31
0.0
  0
LINE
  5
1120
330
18
100
AcDbEntity
  8
1
  6
Continuous
100
AcDbLine
 10
80.72911360120452
 20
255.9768535138228
 30
0.0
 11
80.72911360120448
 21
247.476853513823
 31
0.0
  0
LINE
  5
1181
330
18
100
AcDbEntity
  8
1
  6
Continuous
100
AcDbLine
 10
78.72911360120451
 20
254.0768535138229
 30
0.0
 11
79.22911360120451
 21
250.076853513823
 31
0.0
  0
LINE
  5
1182
330
18
100
AcDbEntity
  8
1
  6
Continuous
100
AcDbLine
 10
80.72911360120444
 20
250.076853513823
 30
0.0
 11
79.22911360120451
 21
250.076853513823
 31
0.0
  0
LINE
  5
1183
330
18
100
AcDbEntity
  8
1
  6
Continuous
100
AcDbLine
 10
80.72911360120444
 20
254.076853513823
 30
0.0
 11
78.72911360120451
 21
254.0768535138229
 31
0.0
  0
LINE
  5
11E6
330
18
100
AcDbEntity
  8
1
  6
Continuous
100
AcDbLine
 10
124.2291136012044
 20
246.0268535138229
 30
0.0
 11
124.2291136012044
 21
246.5768535138229
 31
0.0
  0
LINE
  5
11E8
330
18
100
AcDbEntity
  8
1
  6
Continuous
100
AcDbLine
 10
117.2291136012044
 20
246.026853513823
 30
0.0
 11
124.2291136012043
 21
246.0268535138229
 31
0.0
  0
LINE
  5
11E9
330
18
100
AcDbEntity
  8
1
  6
Continuous
100
AcDbLine
 10
117.2291136012044
 20
246.0268535138229
 30
0.0
 11
117.2291136012044
 21
246.5768535138229
 31
0.0
  0
ARC
  5
11EC
330
18
100
AcDbEntity
  8
1
  6
Continuous
100
AcDbCircle
 10
120.7291136012043
 20
229.388217150187
 30
0.0
 40
17.0027709518569
100
AcDbArc
 50
101.8791915095276
 51
108.8733109881252
  0
ARC
  5
11ED
330
18
100
AcDbEntity
  8
1
  6
Continuous
100
AcDbCircle
 10
120.7291136012043
 20
229.388217150187
 30
0.0
 40
17.0027709518569
100
AcDbArc
 50
71.12668901187475
 51
78.12080849047148
  0
LINE
  5
11EE
330
18
100
AcDbEntity
  8
1
  6
Continuous
100
AcDbLine
 10
137.2291136012045
 20
246.026853513823
 30
0.0
 11
144.2291136012044
 21
246.0268535138229
 31
0.0
  0
LINE
  5
11EF
330
18
100
AcDbEntity
  8
1
  6
Continuous
100
AcDbLine
 10
147.2291136010858
 20
246.5768535138229
 30
0.0
 11
134.229113601323
 21
246.576853513814
 31
0.0
  0
LINE
  5
11F0
330
18
100
AcDbEntity
  8
1
  6
Continuous
100
AcDbLine
 10
134.229113601323
 20
246.5768535138229
 30
0.0
 11
134.2291136013233
 21
247.476853513823
 31
0.0
  0
ARC
  5
11F1
330
18
100
AcDbEntity
  8
1
  6
Continuous
100
AcDbCircle
 10
140.7291136012044
 20
229.388217150187
 30
0.0
 40
17.0027709518569
100
AcDbArc
 50
101.8791915095276
 51
108.8733109881252
  0
LINE
  5
11F2
330
18
100
AcDbEntity
  8
1
  6
Continuous
100
AcDbLine
 10
137.2291136012044
 20
246.0268535138229
 30
0.0
 11
137.2291136012044
 21
246.5768535138229
 31
0.0
  0
ARC
  5
11F3
330
18
100
AcDbEntity
  8
1
  6
Continuous
100
AcDbCircle
 10
140.7291136012044
 20
229.388217150187
 30
0.0
 40
17.0027709518569
100
AcDbArc
 50
71.12668901187475
 51
78.12080849047148
  0
LINE
  5
11F4
330
18
100
AcDbEntity
  8
1
  6
Continuous
100
AcDbLine
 10
144.2291136012044
 20
246.0268535138229
 30
0.0
 11
144.2291136012044
 21
246.5768535138229
 31
0.0
  0
LINE
  5
11F5
330
18
100
AcDbEntity
  8
1
  6
Continuous
100
AcDbLine
 10
147.2291136010858
 20
246.5768535138229
 30
0.0
 11
147.2291136010855
 21
247.476853513823
 31
0.0
  0
LINE
  5
11F6
330
18
100
AcDbEntity
  8
1
  6
Continuous
100
AcDbLine
 10
107.2291136010857
 20
246.5768535138229
 30
0.0
 11
94.22911360132292
 21
246.576853513814
 31
0.0
  0
LINE
  5
11F7
330
18
100
AcDbEntity
  8
1
  6
Continuous
100
AcDbLine
 10
97.22911360120443
 20
246.026853513823
 30
0.0
 11
104.2291136012043
 21
246.0268535138229
 31
0.0
  0
LINE
  5
11F8
330
18
100
AcDbEntity
  8
1
  6
Continuous
100
AcDbLine
 10
97.22911360120441
 20
246.0268535138229
 30
0.0
 11
97.22911360120441
 21
246.5768535138229
 31
0.0
  0
ARC
  5
11F9
330
18
100
AcDbEntity
  8
1
  6
Continuous
100
AcDbCircle
 10
100.7291136012044
 20
229.388217150187
 30
0.0
 40
17.0027709518569
100
AcDbArc
 50
101.8791915095276
 51
108.8733109881252
  0
LINE
  5
11FA
330
18
100
AcDbEntity
  8
1
  6
Continuous
100
AcDbLine
 10
94.22911360132292
 20
246.5768535138229
 30
0.0
 11
94.22911360132324
 21
247.476853513823
 31
0.0
  0
ARC
  5
11FB
330
18
100
AcDbEntity
  8
1
  6
Continuous
100
AcDbCircle
 10
100.7291136012044
 20
229.388217150187
 30
0.0
 40
17.0027709518569
100
AcDbArc
 50
71.12668901187475
 51
78.12080849047148
  0
LINE
  5
11FC
330
18
100
AcDbEntity
  8
1
  6
Continuous
100
AcDbLine
 10
104.2291136012044
 20
246.0268535138229
 30
0.0
 11
104.2291136012044
 21
246.5768535138229
 31
0.0
  0
LINE
  5
11FD
330
18
100
AcDbEntity
  8
1
  6
Continuous
100
AcDbLine
 10
107.2291136010857
 20
246.5768535138229
 30
0.0
 11
107.2291136010854
 21
247.476853513823
 31
0.0
  0
LINE
  5
1244
330
18
100
AcDbEntity
  8
1
  6
Continuous
100
AcDbLine
 10
80.72911360120452
 20
56.99033348948347
 30
0.0
 11
800.7291136012044
 21
56.99033348948347
 31
0.0
  0
LINE
  5
1245
330
18
100
AcDbEntity
  8
1
  6
Continuous
100
AcDbLine
 10
80.72911360120452
 20
48.4903334894836
 30
0.0
 11
800.7291136012044
 21
48.49033348948353
 31
0.0
  0
LINE
  5
1246
330
18
100
AcDbEntity
  8
1
  6
Continuous
100
AcDbLine
 10
87.72911360120451
 20
60.49033348948348
 30
0.0
 11
153.7291136012044
 21
60.49033348948348
 31
0.0
  0
LINE
  5
1247
330
18
100
AcDbEntity
  8
1
  6
Continuous
100
AcDbLine
 10
87.72911360120451
 20
58.99033348948353
 30
0.0
 11
153.7291136012044
 21
58.99033348948353
 31
0.0
  0
LINE
  5
1249
330
18
100
AcDbEntity
  8
1
  6
Continuous
100
AcDbLine
 10
78.72911360120451
 20
50.39033348948357
 30
0.0
 11
79.22911360120451
 21
54.39033348948351
 31
0.0
  0
LINE
  5
124A
330
18
100
AcDbEntity
  8
1
  6
Continuous
100
AcDbLine
 10
80.72911360120452
 20
48.4903334894836
 30
0.0
 11
80.72911360120452
 21
56.99033348948347
 31
0.0
  0
LINE
  5
124B
330
18
100
AcDbEntity
  8
1
  6
Continuous
100
AcDbLine
 10
80.72911360120444
 20
54.39033348948351
 30
0.0
 11
79.22911360120451
 21
54.39033348948351
 31
0.0
  0
LINE
  5
124C
330
18
100
AcDbEntity
  8
1
  6
Continuous
100
AcDbLine
 10
88.72911360120442
 20
56.99033348948347
 30
0.0
 11
88.72911360120433
 21
58.99033348948353
 31
0.0
  0
LINE
  5
124D
330
18
100
AcDbEntity
  8
1
  6
Continuous
100
AcDbLine
 10
90.22911360120442
 20
56.99033348948347
 30
0.0
 11
90.22911360120437
 21
58.99033348948353
 31
0.0
  0
LINE
  5
124E
330
18
100
AcDbEntity
  8
1
  6
Continuous
100
AcDbLine
 10
87.72911360120451
 20
58.99033348948353
 30
0.0
 11
87.72911360120451
 21
60.49033348948348
 31
0.0
  0
LINE
  5
124F
330
18
100
AcDbEntity
  8
1
  6
Continuous
100
AcDbLine
 10
80.72911360120444
 20
50.3903334894835
 30
0.0
 11
78.72911360120451
 21
50.39033348948357
 31
0.0
  0
LINE
  5
1250
330
18
100
AcDbEntity
  8
1
  6
Continuous
100
AcDbLine
 10
117.2291136012044
 20
58.44033348948347
 30
0.0
 11
124.2291136012044
 21
58.44033348948353
 31
0.0
  0
LINE
  5
1251
330
18
100
AcDbEntity
  8
1
  6
Continuous
100
AcDbLine
 10
127.2291136010857
 20
57.89033348948357
 30
0.0
 11
114.2291136013229
 21
57.89033348949242
 31
0.0
  0
LINE
  5
1252
330
18
100
AcDbEntity
  8
1
  6
Continuous
100
AcDbLine
 10
107.2291136010857
 20
57.89033348948357
 30
0.0
 11
94.22911360132292
 21
57.89033348949242
 31
0.0
  0
LINE
  5
1253
330
18
100
AcDbEntity
  8
1
  6
Continuous
100
AcDbLine
 10
97.22911360120441
 20
58.44033348948347
 30
0.0
 11
104.2291136012044
 21
58.44033348948353
 31
0.0
  0
LINE
  5
1254
330
18
100
AcDbEntity
  8
1
  6
Continuous
100
AcDbLine
 10
94.22911360132292
 20
57.89033348948357
 30
0.0
 11
94.22911360132324
 21
56.99033348948347
 31
0.0
  0
ARC
  5
1255
330
18
100
AcDbEntity
  8
1
  6
Continuous
100
AcDbCircle
 10
100.7291136012044
 20
75.07896985311949
 30
0.0
 40
17.0027709518569
100
AcDbArc
 50
251.1266890118748
 51
258.1208084904723
  0
LINE
  5
1256
330
18
100
AcDbEntity
  8
1
  6
Continuous
100
AcDbLine
 10
97.22911360120441
 20
58.44033348948353
 30
0.0
 11
97.22911360120441
 21
57.8903334894835
 31
0.0
  0
LINE
  5
1257
330
18
100
AcDbEntity
  8
4
  6
CENTER
 48
0.1
100
AcDbLine
 10
100.7291136012044
 20
53.99033348948346
 30
0.0
 11
100.7291136012044
 21
63.49033348948347
 31
0.0
  0
LINE
  5
1258
330
18
100
AcDbEntity
  8
1
  6
Continuous
100
AcDbLine
 10
104.2291136012044
 20
58.44033348948353
 30
0.0
 11
104.2291136012044
 21
57.8903334894835
 31
0.0
  0
ARC
  5
1259
330
18
100
AcDbEntity
  8
1
  6
Continuous
100
AcDbCircle
 10
100.7291136012044
 20
75.07896985311949
 30
0.0
 40
17.0027709518569
100
AcDbArc
 50
281.8791915095284
 51
288.8733109881252
  0
LINE
  5
125A
330
18
100
AcDbEntity
  8
1
  6
Continuous
100
AcDbLine
 10
107.2291136010857
 20
57.89033348948357
 30
0.0
 11
107.2291136010854
 21
56.99033348948347
 31
0.0
  0
LINE
  5
125B
330
18
100
AcDbEntity
  8
1
  6
Continuous
100
AcDbLine
 10
114.2291136013229
 20
57.89033348948357
 30
0.0
 11
114.2291136013232
 21
56.99033348948347
 31
0.0
  0
LINE
  5
125C
330
18
100
AcDbEntity
  8
4
  6
CENTER
 48
0.1
100
AcDbLine
 10
120.7291136012043
 20
53.99033348948346
 30
0.0
 11
120.7291136012043
 21
63.49033348948347
 31
0.0
  0
ARC
  5
125D
330
18
100
AcDbEntity
  8
1
  6
Continuous
100
AcDbCircle
 10
120.7291136012043
 20
75.07896985311949
 30
0.0
 40
17.0027709518569
100
AcDbArc
 50
251.1266890118748
 51
258.1208084904723
  0
LINE
  5
125E
330
18
100
AcDbEntity
  8
1
  6
Continuous
100
AcDbLine
 10
117.2291136012044
 20
58.44033348948353
 30
0.0
 11
117.2291136012044
 21
57.8903334894835
 31
0.0
  0
LINE
  5
125F
330
18
100
AcDbEntity
  8
1
  6
Continuous
100
AcDbLine
 10
147.2291136010858
 20
57.89033348948357
 30
0.0
 11
134.229113601323
 21
57.89033348949242
 31
0.0
  0
LINE
  5
1260
330
18
100
AcDbEntity
  8
1
  6
Continuous
100
AcDbLine
 10
137.2291136012045
 20
58.44033348948347
 30
0.0
 11
144.2291136012044
 21
58.44033348948353
 31
0.0
  0
ARC
  5
1261
330
18
100
AcDbEntity
  8
1
  6
Continuous
100
AcDbCircle
 10
120.7291136012043
 20
75.07896985311949
 30
0.0
 40
17.0027709518569
100
AcDbArc
 50
281.8791915095284
 51
288.8733109881252
  0
LINE
  5
1262
330
18
100
AcDbEntity
  8
1
  6
Continuous
100
AcDbLine
 10
124.2291136012044
 20
58.44033348948353
 30
0.0
 11
124.2291136012044
 21
57.8903334894835
 31
0.0
  0
LINE
  5
1263
330
18
100
AcDbEntity
  8
1
  6
Continuous
100
AcDbLine
 10
127.2291136010857
 20
57.89033348948357
 30
0.0
 11
127.2291136010854
 21
56.99033348948347
 31
0.0
  0
LINE
  5
1264
330
18
100
AcDbEntity
  8
1
  6
Continuous
100
AcDbLine
 10
137.2291136012045
 20
58.44033348948353
 30
0.0
 11
137.2291136012045
 21
57.8903334894835
 31
0.0
  0
ARC
  5
1265
330
18
100
AcDbEntity
  8
1
  6
Continuous
100
AcDbCircle
 10
140.7291136012045
 20
75.07896985311949
 30
0.0
 40
17.0027709518569
100
AcDbArc
 50
251.1266890118748
 51
258.1208084904723
  0
LINE
  5
1266
330
18
100
AcDbEntity
  8
1
  6
Continuous
100
AcDbLine
 10
134.229113601323
 20
57.89033348948357
 30
0.0
 11
134.2291136013233
 21
56.99033348948347
 31
0.0
  0
ARC
  5
1267
330
18
100
AcDbEntity
  8
1
  6
Continuous
100
AcDbCircle
 10
140.7291136012045
 20
75.07896985311949
 30
0.0
 40
17.0027709518569
100
AcDbArc
 50
281.8791915095284
 51
288.8733109881252
  0
LINE
  5
1268
330
18
100
AcDbEntity
  8
4
  6
CENTER
 48
0.1
100
AcDbLine
 10
140.7291136012045
 20
53.99033348948346
 30
0.0
 11
140.7291136012044
 21
63.49033348948347
 31
0.0
  0
LINE
  5
1269
330
18
100
AcDbEntity
  8
1
  6
Continuous
100
AcDbLine
 10
144.2291136012045
 20
58.44033348948353
 30
0.0
 11
144.2291136012045
 21
57.8903334894835
 31
0.0
  0
LINE
  5
126A
330
18
100
AcDbEntity
  8
1
  6
Continuous
100
AcDbLine
 10
147.2291136010858
 20
57.89033348948357
 30
0.0
 11
147.2291136010855
 21
56.99033348948347
 31
0.0
  0
LINE
  5
126B
330
18
100
AcDbEntity
  8
1
  6
Continuous
100
AcDbLine
 10
151.2291136012044
 20
56.99033348948347
 30
0.0
 11
151.2291136012044
 21
58.99033348948353
 31
0.0
  0
LINE
  5
126C
330
18
100
AcDbEntity
  8
1
  6
Continuous
100
AcDbLine
 10
152.7291136012044
 20
56.99033348948347
 30
0.0
 11
152.7291136012044
 21
58.99033348948353
 31
0.0
  0
LINE
  5
126D
330
18
100
AcDbEntity
  8
1
  6
Continuous
100
AcDbLine
 10
153.7291136012044
 20
58.99033348948353
 30
0.0
 11
153.7291136012044
 21
60.49033348948348
 31
0.0
  0
LINE
  5
126E
330
18
100
AcDbEntity
  8
4
  6
CENTER
 48
0.1
100
AcDbLine
 10
200.7291136012045
 20
43.99033348936443
 30
0.0
 11
200.7291136012045
 21
52.99033348936443
 31
0.0
  0
LINE
  5
126F
330
18
100
AcDbEntity
  8
4
  6
CENTER
 48
0.1
100
AcDbLine
 10
760.7291136012044
 20
43.99033348936443
 30
0.0
 11
760.7291136012044
 21
52.99033348936443
 31
0.0
  0
LINE
  5
1270
330
18
100
AcDbEntity
  8
1
  6
Continuous
100
AcDbLine
 10
802.7291136012044
 20
50.39033348948357
 30
0.0
 11
802.2291136012041
 21
54.39033348948351
 31
0.0
  0
LINE
  5
1271
330
18
100
AcDbEntity
  8
1
  6
Continuous
100
AcDbLine
 10
800.7291136012044
 20
48.49033348948353
 30
0.0
 11
800.7291136012044
 21
56.99033348948347
 31
0.0
  0
LINE
  5
1272
330
18
100
AcDbEntity
  8
1
  6
Continuous
100
AcDbLine
 10
800.7291136012044
 20
54.39033348948351
 30
0.0
 11
802.2291136012041
 21
54.39033348948351
 31
0.0
  0
LINE
  5
1273
330
18
100
AcDbEntity
  8
1
  6
Continuous
100
AcDbLine
 10
800.7291136012044
 20
50.3903334894835
 30
0.0
 11
802.7291136012044
 21
50.39033348948357
 31
0.0
  0
LINE
  5
13F9
330
18
100
AcDbEntity
  8
4
  6
CENTER
 48
0.2
100
AcDbLine
 10
111.1291136012044
 20
350.1577327030142
 30
0.0
 11
90.32911360120442
 21
350.1577327030142
 31
0.0
  0
LINE
  5
13FB
330
18
100
AcDbEntity
  8
1
  6
Continuous
100
AcDbLine
 10
90.72911360120441
 20
369.8577327031332
 30
0.0
 11
150.7291136012044
 21
369.8577327031332
 31
0.0
  0
LINE
  5
13FC
330
18
100
AcDbEntity
  8
1
  6
Continuous
100
AcDbLine
 10
90.7291136012045
 20
327.8577327031333
 30
0.0
 11
150.7291136012044
 21
327.8577327031333
 31
0.0
  0
LINE
  5
13FD
330
18
100
AcDbEntity
  8
4
  6
CENTER
 48
0.5
100
AcDbLine
 10
75.08627932826567
 20
348.8577327031333
 30
0.0
 11
807.4019058090817
 21
348.8577327031333
 31
0.0
  0
LINE
  5
13FF
330
18
100
AcDbEntity
  8
1
  6
Continuous
100
AcDbLine
 10
87.72911360120451
 20
330.8577327031333
 30
0.0
 11
87.72911360120449
 21
336.3577327032523
 31
0.0
  0
ARC
  5
1403
330
18
100
AcDbEntity
  8
1
  6
Continuous
100
AcDbCircle
 10
90.72911360120441
 20
366.8577327031331
 30
0.0
 40
3.0
100
AcDbArc
 50
90.00000000000005
 51
180.0
  0
LINE
  5
1407
330
18
100
AcDbEntity
  8
1
  6
Continuous
100
AcDbLine
 10
87.72911360120437
 20
361.3577327032524
 30
0.0
 11
87.72911360120442
 21
366.8577327031331
 31
0.0
  0
ARC
  5
1409
330
18
100
AcDbEntity
  8
1
  6
Continuous
100
AcDbCircle
 10
83.72911360120452
 20
348.8577327031333
 30
0.0
 40
4.999999999999986
100
AcDbArc
 50
126.869897645844
 51
233.1301023541559
  0
LINE
  5
1423
330
18
100
AcDbEntity
  8
1
  6
Continuous
100
AcDbLine
 10
80.72911360120452
 20
336.3577327032523
 30
0.0
 11
80.72911360120452
 21
361.3577327032524
 31
0.0
  0
ARC
  5
1428
330
18
100
AcDbEntity
  8
1
  6
Continuous
100
AcDbCircle
 10
90.7291136012045
 20
330.8577327031333
 30
0.0
 40
3.0
100
AcDbArc
 50
180.0
 51
270.0
  0
LINE
  5
142D
330
18
100
AcDbEntity
  8
1
  6
Continuous
100
AcDbLine
 10
80.72911360120448
 20
336.3577327032523
 30
0.0
 11
800.7291136012044
 21
336.3577327032523
 31
0.0
  0
LINE
  5
142E
330
18
100
AcDbEntity
  8
1
  6
Continuous
100
AcDbLine
 10
80.72911360120452
 20
361.3577327032524
 30
0.0
 11
800.7291136012044
 21
361.3577327032523
 31
0.0
  0
LINE
  5
1433
330
18
100
AcDbEntity
  8
1
  6
Continuous
100
AcDbLine
 10
153.7291136012044
 20
330.8577327031333
 30
0.0
 11
153.7291136012044
 21
336.3577327032523
 31
0.0
  0
ARC
  5
1438
330
18
100
AcDbEntity
  8
1
  6
Continuous
100
AcDbCircle
 10
150.7291136012044
 20
366.8577327031331
 30
0.0
 40
3.0
100
AcDbArc
 50
0.0
 51
90.00000000000005
  0
LINE
  5
143A
330
18
100
AcDbEntity
  8
4
  6
CENTER
 48
0.2
100
AcDbLine
 10
131.1291136012044
 20
347.5577327032524
 30
0.0
 11
110.3291136012044
 21
347.5577327032524
 31
0.0
  0
LINE
  5
143F
330
18
100
AcDbEntity
  8
4
  6
CENTER
 48
0.2
100
AcDbLine
 10
100.7291136012044
 20
360.5577327030142
 30
0.0
 11
100.7291136012044
 21
339.7577327030142
 31
0.0
  0
LINE
  5
1440
330
18
100
AcDbEntity
  8
4
  6
CENTER
 48
0.2
100
AcDbLine
 10
120.7291136012043
 20
337.1577327032523
 30
0.0
 11
120.7291136012043
 21
357.9577327032524
 31
0.0
  0
LINE
  5
1441
330
18
100
AcDbEntity
  8
4
  6
CENTER
 48
0.1
100
AcDbLine
 10
100.7291136012044
 20
363.1077327031331
 30
0.0
 11
100.7291136012044
 21
368.6077327031331
 31
0.0
  0
LINE
  5
1442
330
18
100
AcDbEntity
  8
4
  6
CENTER
 48
0.1
100
AcDbLine
 10
103.4791136012044
 20
365.8577327031331
 30
0.0
 11
97.97911360120442
 21
365.8577327031331
 31
0.0
  0
CIRCLE
  5
1443
330
18
100
AcDbEntity
  8
1
  6
Continuous
100
AcDbCircle
 10
100.7291136012044
 20
365.8577327031331
 30
0.0
 40
1.75
  0
CIRCLE
  5
1444
330
18
100
AcDbEntity
  8
1
  6
Continuous
100
AcDbCircle
 10
100.7291136012044
 20
365.8577327031331
 30
0.0
 40
1.75
  0
LINE
  5
1447
330
18
100
AcDbEntity
  8
4
  6
CENTER
 48
0.2
100
AcDbLine
 10
140.7291136012044
 20
360.5577327030142
 30
0.0
 11
140.7291136012044
 21
339.7577327030142
 31
0.0
  0
LINE
  5
144A
330
18
100
AcDbEntity
  8
4
  6
CENTER
 48
0.1
100
AcDbLine
 10
143.4791136012044
 20
365.8577327031331
 30
0.0
 11
137.9791136012044
 21
365.8577327031331
 31
0.0
  0
LINE
  5
144B
330
18
100
AcDbEntity
  8
4
  6
CENTER
 48
0.1
100
AcDbLine
 10
140.7291136012044
 20
363.1077327031331
 30
0.0
 11
140.7291136012044
 21
368.6077327031331
 31
0.0
  0
CIRCLE
  5
144C
330
18
100
AcDbEntity
  8
1
  6
Continuous
100
AcDbCircle
 10
140.7291136012044
 20
365.8577327031331
 30
0.0
 40
1.75
  0
LINE
  5
144D
330
18
100
AcDbEntity
  8
4
  6
CENTER
 48
0.2
100
AcDbLine
 10
130.3291136012045
 20
350.1577327030142
 30
0.0
 11
151.1291136012046
 21
350.1577327030142
 31
0.0
  0
LINE
  5
1456
330
18
100
AcDbEntity
  8
1
  6
Continuous
100
AcDbLine
 10
153.7291136012043
 20
361.3577327032524
 30
0.0
 11
153.7291136012042
 21
366.8577327031333
 31
0.0
  0
CIRCLE
  5
1457
330
18
100
AcDbEntity
  8
1
  6
Continuous
100
AcDbCircle
 10
200.7291136012045
 20
348.8577327031333
 30
0.0
 40
2.25
  0
LINE
  5
1459
330
18
100
AcDbEntity
  8
4
  6
CENTER
 48
0.2
100
AcDbLine
 10
200.7291136012045
 20
342.8577327031333
 30
0.0
 11
200.7291136012045
 21
354.8577327031333
 31
0.0
  0
ARC
  5
145A
330
18
100
AcDbEntity
  8
1
  6
Continuous
100
AcDbCircle
 10
150.7291136012044
 20
330.8577327031333
 30
0.0
 40
3.0
100
AcDbArc
 50
270.0
 51
0.0
  0
LINE
  5
145B
330
18
100
AcDbEntity
  8
4
  6
CENTER
 48
0.1
100
AcDbLine
 10
103.4791136012044
 20
331.8577327031333
 30
0.0
 11
97.97911360120442
 21
331.8577327031333
 31
0.0
  0
CIRCLE
  5
145C
330
18
100
AcDbEntity
  8
1
  6
Continuous
100
AcDbCircle
 10
100.7291136012044
 20
331.8577327031333
 30
0.0
 40
1.75
  0
CIRCLE
  5
145D
330
18
100
AcDbEntity
  8
1
  6
Continuous
100
AcDbCircle
 10
100.7291136012044
 20
331.8577327031333
 30
0.0
 40
1.75
  0
LINE
  5
145E
330
18
100
AcDbEntity
  8
4
  6
CENTER
 48
0.1
100
AcDbLine
 10
100.7291136012044
 20
329.1077327031333
 30
0.0
 11
100.7291136012044
 21
334.6077327031333
 31
0.0
  0
LINE
  5
145F
330
18
100
AcDbEntity
  8
4
  6
CENTER
 48
0.1
100
AcDbLine
 10
143.4791136012044
 20
331.8577327031333
 30
0.0
 11
137.9791136012044
 21
331.8577327031333
 31
0.0
  0
LINE
  5
1460
330
18
100
AcDbEntity
  8
4
  6
CENTER
 48
0.1
100
AcDbLine
 10
140.7291136012044
 20
329.1077327031333
 30
0.0
 11
140.7291136012044
 21
334.6077327031333
 31
0.0
  0
CIRCLE
  5
1461
330
18
100
AcDbEntity
  8
1
  6
Continuous
100
AcDbCircle
 10
140.7291136012044
 20
331.8577327031333
 30
0.0
 40
1.75
  0
LINE
  5
1466
330
18
100
AcDbEntity
  8
4
  6
CENTER
 48
0.2
100
AcDbLine
 10
760.7291136012044
 20
342.8577327031333
 30
0.0
 11
760.7291136012044
 21
354.8577327031333
 31
0.0
  0
CIRCLE
  5
1467
330
18
100
AcDbEntity
  8
1
  6
Continuous
100
AcDbCircle
 10
760.7291136012044
 20
348.8577327031333
 30
0.0
 40
2.25
  0
ARC
  5
146A
330
18
100
AcDbEntity
  8
1
  6
Continuous
100
AcDbCircle
 10
797.7291136012044
 20
348.8577327031333
 30
0.0
 40
4.999999999999986
100
AcDbArc
 50
306.8698976458439
 51
53.1301023541556
  0
LINE
  5
1480
330
18
100
AcDbEntity
  8
1
  6
Continuous
100
AcDbLine
 10
800.7291136012044
 20
336.3577327032525
 30
0.0
 11
800.7291136012044
 21
361.3577327032523
 31
0.0
  0
LINE
  5
16BB
330
18
100
AcDbEntity
  8
4
  6
CENTER
 48
0.1
100
AcDbLine
 10
120.7291136012045
 20
260.476853513942
 30
0.0
 11
120.7291136012045
 21
251.476853513942
 31
0.0
  0
CIRCLE
  5
16BC
330
18
100
AcDbEntity
  8
1
  6
Continuous
100
AcDbCircle
 10
120.7291136012042
 20
348.8577327031333
 30
0.0
 40
2.25
  0
CIRCLE
  5
2166
330
18
100
AcDbEntity
  8
1
  6
Continuous
100
AcDbCircle
 10
83.72911360120452
 20
348.8577327031333
 30
0.0
 40
1.149999999999999
  0
CIRCLE
  5
2167
330
18
100
AcDbEntity
  8
1
  6
Continuous
100
AcDbCircle
 10
797.7291136012044
 20
348.8577327031333
 30
0.0
 40
1.149999999999999
  0
CIRCLE
  5
22B0
330
18
100
AcDbEntity
  8
1
  6
Continuous
100
AcDbCircle
 10
360.7291136012044
 20
348.8577327031333
 30
0.0
 40
2.25
  0
LINE
  5
22B1
330
18
100
AcDbEntity
  8
4
  6
CENTER
 48
0.2
100
AcDbLine
 10
360.7291136012044
 20
342.8577327031333
 30
0.0
 11
360.7291136012044
 21
354.8577327031333
 31
0.0
  0
LINE
  5
22B2
330
18
100
AcDbEntity
  8
4
  6
CENTER
 48
0.1
100
AcDbLine
 10
360.7291136012044
 20
260.476853513942
 30
0.0
 11
360.7291136012044
 21
251.476853513942
 31
0.0
  0
CIRCLE
  5
22B3
330
18
100
AcDbEntity
  8
1
  6
Continuous
100
AcDbCircle
 10
360.7291136012044
 20
152.2335935016532
 30
0.0
 40
2.25
  0
CIRCLE
  5
22B4
330
18
100
AcDbEntity
  8
1
  6
Continuous
100
AcDbCircle
 10
360.7291136012044
 20
152.2335935016532
 30
0.0
 40
4.0
  0
LINE
  5
22B5
330
18
100
AcDbEntity
  8
4
  6
CENTER
 48
0.2
100
AcDbLine
 10
360.7291136012044
 20
158.2335935016532
 30
0.0
 11
360.7291136012044
 21
146.2335935016532
 31
0.0
  0
LINE
  5
22B6
330
18
100
AcDbEntity
  8
4
  6
CENTER
 48
0.1
100
AcDbLine
 10
360.7291136012044
 20
43.99033348936443
 30
0.0
 11
360.7291136012044
 21
52.99033348936443
 31
0.0
  0
CIRCLE
  5
22B7
330
18
100
AcDbEntity
  8
1
  6
Continuous
100
AcDbCircle
 10
280.7291136012043
 20
348.8577327031333
 30
0.0
 40
2.25
  0
LINE
  5
22B8
330
18
100
AcDbEntity
  8
4
  6
CENTER
 48
0.2
100
AcDbLine
 10
280.7291136012043
 20
342.8577327031333
 30
0.0
 11
280.7291136012043
 21
354.8577327031333
 31
0.0
  0
LINE
  5
22B9
330
18
100
AcDbEntity
  8
4
  6
CENTER
 48
0.1
100
AcDbLine
 10
280.7291136012043
 20
260.476853513942
 30
0.0
 11
280.7291136012043
 21
251.476853513942
 31
0.0
  0
CIRCLE
  5
22BA
330
18
100
AcDbEntity
  8
1
  6
Continuous
100
AcDbCircle
 10
280.7291136012043
 20
152.2335935016532
 30
0.0
 40
2.25
  0
CIRCLE
  5
22BB
330
18
100
AcDbEntity
  8
1
  6
Continuous
100
AcDbCircle
 10
280.7291136012043
 20
152.2335935016532
 30
0.0
 40
4.0
  0
LINE
  5
22BC
330
18
100
AcDbEntity
  8
4
  6
CENTER
 48
0.2
100
AcDbLine
 10
280.7291136012043
 20
158.2335935016532
 30
0.0
 11
280.7291136012043
 21
146.2335935016532
 31
0.0
  0
LINE
  5
22BD
330
18
100
AcDbEntity
  8
4
  6
CENTER
 48
0.1
100
AcDbLine
 10
280.7291136012043
 20
43.99033348936443
 30
0.0
 11
280.7291136012043
 21
52.99033348936443
 31
0.0
  0
LINE
  5
2491
330
18
100
AcDbEntity
  8
4
  6
CENTER
 48
0.2
100
AcDbLine
 10
440.7291136012044
 20
342.8577327031333
 30
0.0
 11
440.7291136012044
 21
354.8577327031333
 31
0.0
  0
CIRCLE
  5
2492
330
18
100
AcDbEntity
  8
1
  6
Continuous
100
AcDbCircle
 10
440.7291136012044
 20
348.8577327031333
 30
0.0
 40
2.25
  0
LINE
  5
2493
330
18
100
AcDbEntity
  8
4
  6
CENTER
 48
0.2
100
AcDbLine
 10
520.7291136012043
 20
342.8577327031333
 30
0.0
 11
520.7291136012043
 21
354.8577327031333
 31
0.0
  0
CIRCLE
  5
2494
330
18
100
AcDbEntity
  8
1
  6
Continuous
100
AcDbCircle
 10
520.7291136012043
 20
348.8577327031333
 30
0.0
 40
2.25
  0
LINE
  5
2495
330
18
100
AcDbEntity
  8
4
  6
CENTER
 48
0.1
100
AcDbLine
 10
440.7291136012044
 20
260.476853513942
 30
0.0
 11
440.7291136012044
 21
251.476853513942
 31
0.0
  0
LINE
  5
2496
330
18
100
AcDbEntity
  8
4
  6
CENTER
 48
0.1
100
AcDbLine
 10
520.7291136012043
 20
260.476853513942
 30
0.0
 11
520.7291136012043
 21
251.476853513942
 31
0.0
  0
LINE
  5
2497
330
18
100
AcDbEntity
  8
4
  6
CENTER
 48
0.2
100
AcDbLine
 10
440.7291136012044
 20
158.2335935016532
 30
0.0
 11
440.7291136012044
 21
146.2335935016532
 31
0.0
  0
CIRCLE
  5
2498
330
18
100
AcDbEntity
  8
1
  6
Continuous
100
AcDbCircle
 10
440.7291136012044
 20
152.2335935016532
 30
0.0
 40
4.0
  0
CIRCLE
  5
2499
330
18
100
AcDbEntity
  8
1
  6
Continuous
100
AcDbCircle
 10
440.7291136012044
 20
152.2335935016532
 30
0.0
 40
2.25
  0
LINE
  5
249A
330
18
100
AcDbEntity
  8
4
  6
CENTER
 48
0.2
100
AcDbLine
 10
520.7291136012043
 20
158.2335935016532
 30
0.0
 11
520.7291136012043
 21
146.2335935016532
 31
0.0
  0
CIRCLE
  5
249B
330
18
100
AcDbEntity
  8
1
  6
Continuous
100
AcDbCircle
 10
520.7291136012043
 20
152.2335935016532
 30
0.0
 40
4.0
  0
CIRCLE
  5
249C
330
18
100
AcDbEntity
  8
1
  6
Continuous
100
AcDbCircle
 10
520.7291136012043
 20
152.2335935016532
 30
0.0
 40
2.25
  0
LINE
  5
249D
330
18
100
AcDbEntity
  8
4
  6
CENTER
 48
0.1
100
AcDbLine
 10
440.7291136012044
 20
43.99033348936443
 30
0.0
 11
440.7291136012044
 21
52.99033348936443
 31
0.0
  0
LINE
  5
249E
330
18
100
AcDbEntity
  8
4
  6
CENTER
 48
0.1
100
AcDbLine
 10
520.7291136012043
 20
43.99033348936443
 30
0.0
 11
520.7291136012043
 21
52.99033348936443
 31
0.0
  0
CIRCLE
  5
2675
330
18
100
AcDbEntity
  8
1
  6
Continuous
100
AcDbCircle
 10
680.7291136012044
 20
348.8577327031333
 30
0.0
 40
2.25
  0
CIRCLE
  5
2676
330
18
100
AcDbEntity
  8
1
  6
Continuous
100
AcDbCircle
 10
600.7291136012042
 20
348.8577327031333
 30
0.0
 40
2.25
  0
LINE
  5
2677
330
18
100
AcDbEntity
  8
4
  6
CENTER
 48
0.2
100
AcDbLine
 10
600.7291136012042
 20
342.8577327031333
 30
0.0
 11
600.7291136012042
 21
354.8577327031333
 31
0.0
  0
LINE
  5
2678
330
18
100
AcDbEntity
  8
4
  6
CENTER
 48
0.2
100
AcDbLine
 10
680.7291136012044
 20
342.8577327031333
 30
0.0
 11
680.7291136012044
 21
354.8577327031333
 31
0.0
  0
LINE
  5
267B
330
18
100
AcDbEntity
  8
4
  6
CENTER
 48
0.1
100
AcDbLine
 10
600.7291136012042
 20
260.476853513942
 30
0.0
 11
600.7291136012042
 21
251.476853513942
 31
0.0
  0
LINE
  5
267C
330
18
100
AcDbEntity
  8
4
  6
CENTER
 48
0.1
100
AcDbLine
 10
680.7291136012044
 20
260.476853513942
 30
0.0
 11
680.7291136012044
 21
251.476853513942
 31
0.0
  0
CIRCLE
  5
267F
330
18
100
AcDbEntity
  8
1
  6
Continuous
100
AcDbCircle
 10
680.7291136012044
 20
152.2335935016532
 30
0.0
 40
2.25
  0
CIRCLE
  5
2680
330
18
100
AcDbEntity
  8
1
  6
Continuous
100
AcDbCircle
 10
680.7291136012044
 20
152.2335935016532
 30
0.0
 40
4.0
  0
CIRCLE
  5
2681
330
18
100
AcDbEntity
  8
1
  6
Continuous
100
AcDbCircle
 10
600.7291136012042
 20
152.2335935016532
 30
0.0
 40
2.25
  0
CIRCLE
  5
2682
330
18
100
AcDbEntity
  8
1
  6
Continuous
100
AcDbCircle
 10
600.7291136012042
 20
152.2335935016532
 30
0.0
 40
4.0
  0
LINE
  5
2683
330
18
100
AcDbEntity
  8
4
  6
CENTER
 48
0.2
100
AcDbLine
 10
600.7291136012042
 20
158.2335935016532
 30
0.0
 11
600.7291136012042
 21
146.2335935016532
 31
0.0
  0
LINE
  5
2684
330
18
100
AcDbEntity
  8
4
  6
CENTER
 48
0.2
100
AcDbLine
 10
680.7291136012044
 20
158.2335935016532
 30
0.0
 11
680.7291136012044
 21
146.2335935016532
 31
0.0
  0
LINE
  5
2689
330
18
100
AcDbEntity
  8
4
  6
CENTER
 48
0.1
100
AcDbLine
 10
600.7291136012042
 20
43.99033348936443
 30
0.0
 11
600.7291136012042
 21
52.99033348936443
 31
0.0
  0
LINE
  5
268A
330
18
100
AcDbEntity
  8
4
  6
CENTER
 48
0.1
100
AcDbLine
 10
680.7291136012044
 20
43.99033348936443
 30
0.0
 11
680.7291136012044
 21
52.99033348936443
 31
0.0
  0
LINE
  5
27B4
330
18
100
AcDbEntity
  8
4
  6
CENTER
 48
0.1
100
AcDbLine
 10
120.7291136012045
 20
43.99033348936443
 30
0.0
 11
120.7291136012045
 21
52.99033348936443
 31
0.0
  0
ENDSEC
  0
SECTION
  2
OBJECTS
  0
DICTIONARY
  5
C
330
0
100
AcDbDictionary
281
     1
  3
ACAD_CIP_PREVIOUS_PRODUCT_INFO
350
2817
  3
ACAD_COLOR
350
27FA
  3
ACAD_DETAILVIEWSTYLE
350
2813
  3
ACAD_GROUP
350
D
  3
ACAD_LAYOUT
350
94
  3
ACAD_MATERIAL
350
27C8
  3
ACAD_MLEADERSTYLE
350
280F
  3
ACAD_MLINESTYLE
350
1B
  3
ACAD_PLOTSETTINGS
350
95
  3
ACAD_PLOTSTYLENAME
350
27C6
  3
ACAD_SCALELIST
350
27FD
  3
ACAD_SECTIONVIEWSTYLE
350
2811
  3
ACAD_TABLESTYLE
350
27FB
  3
ACAD_VISUALSTYLE
350
27E1
  3
ACDB_RECOMPOSE_DATA
350
2835
  3
AcDbVariableDictionary
350
2828
  3
CONTENTDICTIONARY
350
3D
  3
DWGPROPS
350
2836
  0
DICTIONARY
  5
2818
330
E
100
AcDbDictionary
280
     1
281
     1
  3
ADSK_XREC_LAYER_RECONCILED
360
2819
  0
DICTIONARY
  5
281A
330
4E
100
AcDbDictionary
280
     1
281
     1
  3
ADSK_XREC_LAYER_RECONCILED
360
281B
  0
DICTIONARY
  5
281C
330
4F
100
AcDbDictionary
280
     1
281
     1
  3
ADSK_XREC_LAYER_RECONCILED
360
281D
  0
DICTIONARY
  5
281E
330
50
100
AcDbDictionary
280
     1
281
     1
  3
ADSK_XREC_LAYER_RECONCILED
360
281F
  0
DICTIONARY
  5
2820
330
51
100
AcDbDictionary
280
     1
281
     1
  3
ADSK_XREC_LAYER_RECONCILED
360
2821
  0
DICTIONARY
  5
2822
330
52
100
AcDbDictionary
280
     1
281
     1
  3
ADSK_XREC_LAYER_RECONCILED
360
2823
  0
DICTIONARY
  5
2824
330
53
100
AcDbDictionary
280
     1
281
     1
  3
ADSK_XREC_LAYER_RECONCILED
360
2825
  0
DICTIONARY
  5
2826
330
54
100
AcDbDictionary
280
     1
281
     1
  3
ADSK_XREC_LAYER_RECONCILED
360
2827
  0
DICTIONARY
  5
27C1
330
18
100
AcDbDictionary
281
     1
  3
ACAD_LAYOUTSELFREF
350
27C2
  0
DICTIONARY
  5
27BF
330
15
100
AcDbDictionary
281
     1
  3
ACAD_LAYOUTSELFREF
350
27C0
  0
XRECORD
  5
2817
102
{ACAD_REACTORS
330
C
102
}
330
C
100
AcDbXrecord
280
     1
300
ACDLT
300
2014
300
ACDLT_F_S
  0
DICTIONARY
  5
27FA
102
{ACAD_REACTORS
330
C
102
}
330
C
100
AcDbDictionary
281
     1
  0
DICTIONARY
  5
2813
102
{ACAD_REACTORS
330
C
102
}
330
C
100
AcDbDictionary
281
     1
  3
Imperial24
350
2814
  0
DICTIONARY
  5
D
102
{ACAD_REACTORS
330
C
102
}
330
C
100
AcDbDictionary
281
     1
  0
DICTIONARY
  5
94
102
{ACAD_REACTORS
330
C
102
}
330
C
100
AcDbDictionary
281
     1
  3
Model
350
2815
  3
レイアウト1
350
2816
  0
DICTIONARY
  5
27C8
102
{ACAD_REACTORS
330
C
102
}
330
C
100
AcDbDictionary
281
     1
  3
ByBlock
350
27D1
  3
ByLayer
350
27C9
  3
Global
350
27D9
  0
DICTIONARY
  5
280F
102
{ACAD_REACTORS
330
C
102
}
330
C
100
AcDbDictionary
281
     1
  3
Standard
350
2810
  0
DICTIONARY
  5
1B
102
{ACAD_REACTORS
330
C
102
}
330
C
100
AcDbDictionary
281
     1
  3
STANDARD
350
1C
  0
DICTIONARY
  5
95
102
{ACAD_REACTORS
330
C
102
}
330
C
100
AcDbDictionary
281
     1
  0
ACDBDICTIONARYWDFLT
  5
27C6
102
{ACAD_REACTORS
330
C
102
}
330
C
100
AcDbDictionary
281
     1
  3
Normal
350
27C7
100
AcDbDictionaryWithDefault
340
27C7
  0
DICTIONARY
  5
27FD
102
{ACAD_REACTORS
330
C
102
}
330
C
100
AcDbDictionary
281
     1
  3
A0
350
27FE
  3
A1
350
27FF
  3
A2
350
2800
  3
A3
350
2801
  3
A4
350
2802
  3
A5
350
2803
  3
A6
350
2804
  3
A7
350
2805
  3
A8
350
2806
  3
A9
350
2807
  3
B0
350
2808
  3
B1
350
2809
  3
B2
350
280A
  3
B3
350
280B
  3
B4
350
280C
  3
B5
350
280D
  3
B6
350
280E
  0
DICTIONARY
  5
2811
102
{ACAD_REACTORS
330
C
102
}
330
C
100
AcDbDictionary
281
     1
  3
Imperial24
350
2812
  0
DICTIONARY
  5
27FB
102
{ACAD_REACTORS
330
C
102
}
330
C
100
AcDbDictionary
281
     1
  3
Standard
350
27FC
  0
DICTIONARY
  5
27E1
102
{ACAD_REACTORS
330
C
102
}
330
C
100
AcDbDictionary
281
     1
  3
2dWireframe
350
27E7
  3
Basic
350
27E6
  3
Brighten
350
27ED
  3
ColorChange
350
27F1
  3
Conceptual
350
27EA
  3
Dim
350
27EC
  3
EdgeColorOff
350
27F9
  3
Facepattern
350
27F0
  3
Flat
350
27E2
  3
FlatWithEdges
350
27E3
  3
Gouraud
350
27E4
  3
GouraudWithEdges
350
27E5
  3
Hidden
350
27E9
  3
JitterOff
350
27F7
  3
Linepattern
350
27EF
  3
OverhangOff
350
27F8
  3
Realistic
350
27EB
  3
Shaded
350
27F6
  3
Shaded with edges
350
27F5
  3
Shades of Gray
350
27F2
  3
Sketchy
350
27F3
  3
Thicken
350
27EE
  3
Wireframe
350
27E8
  3
X-Ray
350
27F4
  0
XRECORD
  5
2835
102
{ACAD_REACTORS
330
C
102
}
330
C
100
AcDbXrecord
280
     1
 90
        1
330
27FC
  0
DICTIONARY
  5
2828
102
{ACAD_REACTORS
330
C
102
}
330
C
100
AcDbDictionary
281
     1
  3
CANNOSCALE
350
282D
  3
CMLEADERSTYLE
350
282A
  3
CTABLESTYLE
350
2829
  3
CVIEWDETAILSTYLE
350
282B
  3
CVIEWSECTIONSTYLE
350
282C
  3
DIMASSOC
350
2830
  3
INDEXCTL
350
282F
  3
SORTENTS
350
282E
  3
XCLIPFRAME
350
2831
  0
DICTIONARY
  5
3D
102
{ACAD_REACTORS
330
C
102
}
330
C
100
AcDbDictionary
281
     1
  0
XRECORD
  5
2836
102
{ACAD_REACTORS
330
C
102
}
330
C
100
AcDbXrecord
280
     1
  1
DWGPROPS COOKIE
  2

  3

  4

  6

  7

  8
Yoshitsune
  9

300
=
301
=
302
=
303
=
304
=
305
=
306
=
307
=
308
=
309
=
 40
0.0369224421296296
 41
2454551.683978218
 42
2457192.664201123
  1

 90
        0
  0
XRECORD
  5
2819
102
{ACAD_REACTORS
330
2818
102
}
330
2818
100
AcDbXrecord
280
     1
290
     1
  0
XRECORD
  5
281B
102
{ACAD_REACTORS
330
281A
102
}
330
281A
100
AcDbXrecord
280
     1
290
     1
  0
XRECORD
  5
281D
102
{ACAD_REACTORS
330
281C
102
}
330
281C
100
AcDbXrecord
280
     1
290
     1
  0
XRECORD
  5
281F
102
{ACAD_REACTORS
330
281E
102
}
330
281E
100
AcDbXrecord
280
     1
290
     1
  0
XRECORD
  5
2821
102
{ACAD_REACTORS
330
2820
102
}
330
2820
100
AcDbXrecord
280
     1
290
     1
  0
XRECORD
  5
2823
102
{ACAD_REACTORS
330
2822
102
}
330
2822
100
AcDbXrecord
280
     1
290
     1
  0
XRECORD
  5
2825
102
{ACAD_REACTORS
330
2824
102
}
330
2824
100
AcDbXrecord
280
     1
290
     1
  0
XRECORD
  5
2827
102
{ACAD_REACTORS
330
2826
102
}
330
2826
100
AcDbXrecord
280
     1
290
     1
  0
XRECORD
  5
27C2
102
{ACAD_REACTORS
330
27C1
102
}
330
27C1
100
AcDbXrecord
280
     1
340
18
  0
XRECORD
  5
27C0
102
{ACAD_REACTORS
330
27BF
102
}
330
27BF
100
AcDbXrecord
280
     1
340
15
  0
ACDBDETAILVIEWSTYLE
  5
2814
102
{ACAD_XDICTIONARY
360
286E
102
}
102
{ACAD_REACTORS
330
2813
102
}
330
2813
100
AcDbModelDocViewStyle
 70
     0
  3
Imperial24
290
     0
100
AcDbDetailViewStyle
 70
     0
 71
     0
 90
        3
 71
     1
340
F
 40
0.24
340
0
 40
0.24
300

 40
0.36
280
     3
 71
     2
340
14
 90
       25
 71
     3
340
F
 40
0.24
 90
        1
 40
0.75
 90
        1
300
%<\AcVar ViewType \f "%tc1">% %<\AcVar ViewDetailId>%\PSCALE %<\AcVar ViewScale \f "%sn">%
 71
     4
340
14
 90
       25
340
14
 90
       25
280
     0
  0
LAYOUT
  5
2815
102
{ACAD_XDICTIONARY
360
2870
102
}
102
{ACAD_REACTORS
330
94
102
}
330
94
100
AcDbPlotSettings
  1

  2
Canon LBP9100C
  4

  6

 40
0.0
 41
0.0
 42
0.0
 43
0.0
 44
0.0
 45
0.0
 46
0.0
 47
0.0
 48
0.0
 49
0.0
140
0.0
141
0.0
142
1.0
143
1.0
 70
  1712
 72
     0
 73
     0
 74
     0
  7

 75
     0
147
1.0
148
0.0
149
0.0
100
AcDbLayout
  1
Model
 70
     1
 71
     0
 10
0.0
 20
0.0
 11
12.0
 21
9.0
 12
0.0
 22
0.0
 32
0.0
 14
0.0
 24
0.0
 34
0.0
 15
0.0
 25
0.0
 35
0.0
146
0.0
 13
0.0
 23
0.0
 33
0.0
 16
1.0
 26
0.0
 36
0.0
 17
0.0
 27
1.0
 37
0.0
 76
     0
330
18
331
27BE
  0
LAYOUT
  5
2816
102
{ACAD_XDICTIONARY
360
2872
102
}
102
{ACAD_REACTORS
330
94
102
}
330
94
100
AcDbPlotSettings
  1

  2
Canon LBP9100C
  4

  6

 40
0.0
 41
0.0
 42
0.0
 43
0.0
 44
0.0
 45
0.0
 46
0.0
 47
0.0
 48
0.0
 49
0.0
140
0.0
141
0.0
142
1.0
143
1.0
 70
   688
 72
     0
 73
     0
 74
     5
  7

 75
    16
147
1.0
148
0.0
149
0.0
100
AcDbLayout
  1
レイアウト1
 70
     1
 71
     1
 10
0.0
 20
0.0
 11
420.0
 21
297.0
 12
0.0
 22
0.0
 32
0.0
 14
1.000000000000000E+20
 24
1.000000000000000E+20
 34
1.000000000000000E+20
 15
-1.000000000000000E+20
 25
-1.000000000000000E+20
 35
-1.000000000000000E+20
146
0.0
 13
0.0
 23
0.0
 33
0.0
 16
1.0
 26
0.0
 36
0.0
 17
0.0
 27
1.0
 37
0.0
 76
     0
330
15
  0
MATERIAL
  5
27D1
102
{ACAD_XDICTIONARY
360
27D2
102
}
102
{ACAD_REACTORS
330
27C8
102
}
330
27C8
100
AcDbMaterial
  1
ByBlock
 72
     0
 43
0.0208333333333333
 43
0.0
 43
0.0
 43
0.0
 43
0.0
 43
0.0208333333333333
 43
0.0
 43
0.0
 43
0.0
 43
0.0
 43
1.0
 43
0.0
 43
0.0
 43
0.0
 43
0.0
 43
1.0
 77
     0
 47
0.0208333333333333
 47
0.0
 47
0.0
 47
0.0
 47
0.0
 47
0.0208333333333333
 47
0.0
 47
0.0
 47
0.0
 47
0.0
 47
1.0
 47
0.0
 47
0.0
 47
0.0
 47
0.0
 47
1.0
171
     0
 49
0.0208333333333333
 49
0.0
 49
0.0
 49
0.0
 49
0.0
 49
0.0208333333333333
 49
0.0
 49
0.0
 49
0.0
 49
0.0
 49
1.0
 49
0.0
 49
0.0
 49
0.0
 49
0.0
 49
1.0
175
     0
142
0.0208333333333333
142
0.0
142
0.0
142
0.0
142
0.0
142
0.0208333333333333
142
0.0
142
0.0
142
0.0
142
0.0
142
1.0
142
0.0
142
0.0
142
0.0
142
0.0
142
1.0
179
     0
144
0.0208333333333333
144
0.0
144
0.0
144
0.0
144
0.0
144
0.0208333333333333
144
0.0
144
0.0
144
0.0
144
0.0
144
1.0
144
0.0
144
0.0
144
0.0
144
0.0
144
1.0
147
0.0208333333333333
147
0.0
147
0.0
147
0.0
147
0.0
147
0.0208333333333333
147
0.0
147
0.0
147
0.0
147
0.0
147
1.0
147
0.0
147
0.0
147
0.0
147
0.0
147
1.0
  0
MATERIAL
  5
27C9
102
{ACAD_XDICTIONARY
360
27CA
102
}
102
{ACAD_REACTORS
330
27C8
102
}
330
27C8
100
AcDbMaterial
  1
ByLayer
 72
     0
 43
0.0208333333333333
 43
0.0
 43
0.0
 43
0.0
 43
0.0
 43
0.0208333333333333
 43
0.0
 43
0.0
 43
0.0
 43
0.0
 43
1.0
 43
0.0
 43
0.0
 43
0.0
 43
0.0
 43
1.0
 77
     0
 47
0.0208333333333333
 47
0.0
 47
0.0
 47
0.0
 47
0.0
 47
0.0208333333333333
 47
0.0
 47
0.0
 47
0.0
 47
0.0
 47
1.0
 47
0.0
 47
0.0
 47
0.0
 47
0.0
 47
1.0
171
     0
 49
0.0208333333333333
 49
0.0
 49
0.0
 49
0.0
 49
0.0
 49
0.0208333333333333
 49
0.0
 49
0.0
 49
0.0
 49
0.0
 49
1.0
 49
0.0
 49
0.0
 49
0.0
 49
0.0
 49
1.0
175
     0
142
0.0208333333333333
142
0.0
142
0.0
142
0.0
142
0.0
142
0.0208333333333333
142
0.0
142
0.0
142
0.0
142
0.0
142
1.0
142
0.0
142
0.0
142
0.0
142
0.0
142
1.0
179
     0
144
0.0208333333333333
144
0.0
144
0.0
144
0.0
144
0.0
144
0.0208333333333333
144
0.0
144
0.0
144
0.0
144
0.0
144
1.0
144
0.0
144
0.0
144
0.0
144
0.0
144
1.0
147
0.0208333333333333
147
0.0
147
0.0
147
0.0
147
0.0
147
0.0208333333333333
147
0.0
147
0.0
147
0.0
147
0.0
147
1.0
147
0.0
147
0.0
147
0.0
147
0.0
147
1.0
  0
MATERIAL
  5
27D9
102
{ACAD_XDICTIONARY
360
27DA
102
}
102
{ACAD_REACTORS
330
27C8
102
}
330
27C8
100
AcDbMaterial
  1
Global
 72
     0
 43
0.0208333333333333
 43
0.0
 43
0.0
 43
0.0
 43
0.0
 43
0.0208333333333333
 43
0.0
 43
0.0
 43
0.0
 43
0.0
 43
1.0
 43
0.0
 43
0.0
 43
0.0
 43
0.0
 43
1.0
 77
     0
 47
0.0208333333333333
 47
0.0
 47
0.0
 47
0.0
 47
0.0
 47
0.0208333333333333
 47
0.0
 47
0.0
 47
0.0
 47
0.0
 47
1.0
 47
0.0
 47
0.0
 47
0.0
 47
0.0
 47
1.0
171
     0
 49
0.0208333333333333
 49
0.0
 49
0.0
 49
0.0
 49
0.0
 49
0.0208333333333333
 49
0.0
 49
0.0
 49
0.0
 49
0.0
 49
1.0
 49
0.0
 49
0.0
 49
0.0
 49
0.0
 49
1.0
175
     0
142
0.0208333333333333
142
0.0
142
0.0
142
0.0
142
0.0
142
0.0208333333333333
142
0.0
142
0.0
142
0.0
142
0.0
142
1.0
142
0.0
142
0.0
142
0.0
142
0.0
142
1.0
179
     0
144
0.0208333333333333
144
0.0
144
0.0
144
0.0
144
0.0
144
0.0208333333333333
144
0.0
144
0.0
144
0.0
144
0.0
144
1.0
144
0.0
144
0.0
144
0.0
144
0.0
144
1.0
147
0.0208333333333333
147
0.0
147
0.0
147
0.0
147
0.0
147
0.0208333333333333
147
0.0
147
0.0
147
0.0
147
0.0
147
1.0
147
0.0
147
0.0
147
0.0
147
0.0
147
1.0
  0
MLEADERSTYLE
  5
2810
102
{ACAD_REACTORS
330
280F
102
}
330
280F
100
AcDbMLeaderStyle
170
     2
171
     1
172
     0
 90
        2
 40
0.0
 41
0.0
173
     1
 91
-1056964608
340
12
 92
       -2
290
     1
 42
0.09
291
     1
 43
0.36
  3
Standard
 44
0.18
300

342
F
174
     1
178
     6
175
     1
176
     0
 93
-1056964608
 45
0.18
292
     0
297
     0
 46
0.18
 94
-1056964608
 47
1.0
 49
1.0
140
1.0
293
     1
141
0.0
294
     1
177
     0
142
1.0
295
     0
296
     0
143
0.125
1001
ACAD_MLEADERVER
1070
     2
  0
MLINESTYLE
  5
1C
102
{ACAD_REACTORS
330
1B
102
}
330
1B
100
AcDbMlineStyle
  2
STANDARD
 70
     0
  3

 62
   256
 51
90.0
 52
90.0
 71
     2
 49
0.5
 62
   256
  6
BYLAYER
 49
-0.5
 62
   256
  6
BYLAYER
  0
ACDBPLACEHOLDER
  5
27C7
102
{ACAD_REACTORS
330
27C6
102
}
330
27C6
  0
SCALE
  5
27FE
102
{ACAD_REACTORS
330
27FD
102
}
330
27FD
100
AcDbScale
 70
     0
300
1:1
140
1.0
141
1.0
290
     1
  0
SCALE
  5
27FF
102
{ACAD_REACTORS
330
27FD
102
}
330
27FD
100
AcDbScale
 70
     0
300
1/128" = 1'-0"
140
0.0078125
141
12.0
290
     0
  0
SCALE
  5
2800
102
{ACAD_REACTORS
330
27FD
102
}
330
27FD
100
AcDbScale
 70
     0
300
1/64" = 1'-0"
140
0.015625
141
12.0
290
     0
  0
SCALE
  5
2801
102
{ACAD_REACTORS
330
27FD
102
}
330
27FD
100
AcDbScale
 70
     0
300
1/32" = 1'-0"
140
0.03125
141
12.0
290
     0
  0
SCALE
  5
2802
102
{ACAD_REACTORS
330
27FD
102
}
330
27FD
100
AcDbScale
 70
     0
300
1/16" = 1'-0"
140
0.0625
141
12.0
290
     0
  0
SCALE
  5
2803
102
{ACAD_REACTORS
330
27FD
102
}
330
27FD
100
AcDbScale
 70
     0
300
3/32" = 1'-0"
140
0.09375
141
12.0
290
     0
  0
SCALE
  5
2804
102
{ACAD_REACTORS
330
27FD
102
}
330
27FD
100
AcDbScale
 70
     0
300
1/8" = 1'-0"
140
0.125
141
12.0
290
     0
  0
SCALE
  5
2805
102
{ACAD_REACTORS
330
27FD
102
}
330
27FD
100
AcDbScale
 70
     0
300
3/16" = 1'-0"
140
0.1875
141
12.0
290
     0
  0
SCALE
  5
2806
102
{ACAD_REACTORS
330
27FD
102
}
330
27FD
100
AcDbScale
 70
     0
300
1/4" = 1'-0"
140
0.25
141
12.0
290
     0
  0
SCALE
  5
2807
102
{ACAD_REACTORS
330
27FD
102
}
330
27FD
100
AcDbScale
 70
     0
300
3/8" = 1'-0"
140
0.375
141
12.0
290
     0
  0
SCALE
  5
2808
102
{ACAD_REACTORS
330
27FD
102
}
330
27FD
100
AcDbScale
 70
     0
300
1/2" = 1'-0"
140
0.5
141
12.0
290
     0
  0
SCALE
  5
2809
102
{ACAD_REACTORS
330
27FD
102
}
330
27FD
100
AcDbScale
 70
     0
300
3/4" = 1'-0"
140
0.75
141
12.0
290
     0
  0
SCALE
  5
280A
102
{ACAD_REACTORS
330
27FD
102
}
330
27FD
100
AcDbScale
 70
     0
300
1" = 1'-0"
140
1.0
141
12.0
290
     0
  0
SCALE
  5
280B
102
{ACAD_REACTORS
330
27FD
102
}
330
27FD
100
AcDbScale
 70
     0
300
1-1/2" = 1'-0"
140
1.5
141
12.0
290
     0
  0
SCALE
  5
280C
102
{ACAD_REACTORS
330
27FD
102
}
330
27FD
100
AcDbScale
 70
     0
300
3" = 1'-0"
140
3.0
141
12.0
290
     0
  0
SCALE
  5
280D
102
{ACAD_REACTORS
330
27FD
102
}
330
27FD
100
AcDbScale
 70
     0
300
6" = 1'-0"
140
6.0
141
12.0
290
     0
  0
SCALE
  5
280E
102
{ACAD_REACTORS
330
27FD
102
}
330
27FD
100
AcDbScale
 70
     0
300
1'-0" = 1'-0"
140
12.0
141
12.0
290
     0
  0
ACDBSECTIONVIEWSTYLE
  5
2812
102
{ACAD_XDICTIONARY
360
286C
102
}
102
{ACAD_REACTORS
330
2811
102
}
330
2811
100
AcDbModelDocViewStyle
 70
     0
  3
Imperial24
290
     0
100
AcDbSectionViewStyle
 70
     0
 71
     0
 90
       78
 71
     1
340
F
 40
0.24
340
0
340
0
 40
0.24
300
I, O, Q, S, X, Z
 40
0.48
 90
        3
 40
0.18
 90
        1
 71
     2
340
14
 90
       25
340
14
 90
       50
 40
0.24
 40
0.0
 40
0.24
 71
     3
340
F
 40
0.24
 90
        1
 40
0.75
 90
        1
300
%<\AcVar ViewType \f "%tc1">% %<\AcVar ViewSectionStartId>%-%<\AcVar ViewSectionEndId>%\PSCALE %<\AcVar ViewScale \f "%sn">%
 71
     4
300
ANSI31
 40
1.0
 90
        0
290
     0
290
     0
 90
        6
 40
0.0
 40
1.570796326794896
 40
0.2617993877991494
 40
1.308996938995747
 40
-0.2617993877991494
 40
1.832595714594046
  0
TABLESTYLE
  5
27FC
102
{ACAD_XDICTIONARY
360
2833
102
}
102
{ACAD_REACTORS
330
27FB
102
}
330
27FB
100
AcDbTableStyle
  3
Standard
 70
     0
 71
     0
 40
0.06
 41
0.06
280
     0
281
     0
  7
STANDARD
140
0.18
170
     2
 62
     0
 63
     7
283
     0
274
    -2
284
     1
 64
     0
275
    -2
285
     1
 65
     0
276
    -2
286
     1
 66
     0
277
    -2
287
     1
 67
     0
278
    -2
288
     1
 68
     0
279
    -2
289
     1
 69
     0
  7
STANDARD
140
0.25
170
     5
 62
     0
 63
     7
283
     0
274
    -2
284
     1
 64
     0
275
    -2
285
     1
 65
     0
276
    -2
286
     1
 66
     0
277
    -2
287
     1
 67
     0
278
    -2
288
     1
 68
     0
279
    -2
289
     1
 69
     0
  7
STANDARD
140
0.18
170
     5
 62
     0
 63
     7
283
     0
274
    -2
284
     1
 64
     0
275
    -2
285
     1
 65
     0
276
    -2
286
     1
 66
     0
277
    -2
287
     1
 67
     0
278
    -2
288
     1
 68
     0
279
    -2
289
     1
 69
     0
  0
VISUALSTYLE
  5
27E7
102
{ACAD_XDICTIONARY
360
2844
102
}
102
{ACAD_REACTORS
330
27E1
102
}
330
27E1
100
AcDbVisualStyle
  2
2dWireframe
 70
     4
 71
     0
 72
     2
 73
     0
 90
        0
 40
-0.6
 41
-30.0
 62
     5
 63
     7
 74
     1
 91
        4
 64
     7
 65
   257
 75
     1
175
     1
 42
1.0
 92
        0
 66
   257
 43
1.0
 76
     1
 77
     6
 78
     2
 67
     7
 79
     5
170
     0
171
     0
290
     0
174
     0
 93
        1
 44
0.0
173
     0
291
     0
 45
0.0
1001
ACAD
1000
AcDbSavedByObjectVersion
1070
     0
  0
VISUALSTYLE
  5
27E6
102
{ACAD_XDICTIONARY
360
2842
102
}
102
{ACAD_REACTORS
330
27E1
102
}
330
27E1
100
AcDbVisualStyle
  2
Basic
 70
     7
 71
     1
 72
     0
 73
     1
 90
        0
 40
-0.6
 41
-30.0
 62
     5
 63
     7
 74
     0
 91
        4
 64
     7
 65
   257
 75
     1
175
     1
 42
1.0
 92
        8
 66
     7
 43
1.0
 76
     1
 77
     6
 78
     2
 67
     7
 79
     5
170
     0
171
     0
290
     0
174
     0
 93
        1
 44
0.0
173
     0
291
     1
 45
0.0
1001
ACAD
1000
AcDbSavedByObjectVersion
1070
     0
  0
VISUALSTYLE
  5
27ED
102
{ACAD_XDICTIONARY
360
2850
102
}
102
{ACAD_REACTORS
330
27E1
102
}
330
27E1
100
AcDbVisualStyle
  2
Brighten
 70
    12
 71
     2
 72
     2
 73
     0
 90
        0
 40
-0.6
 41
-30.0
 62
     5
 63
     7
 74
     1
 91
        4
 64
     7
 65
   257
 75
     1
175
     1
 42
1.0
 92
        8
 66
     7
 43
1.0
 76
     1
 77
     6
 78
     2
 67
     7
 79
     5
170
     0
171
     0
290
     0
174
     0
 93
        1
 44
50.0
173
     0
291
     1
 45
0.0
1001
ACAD
1000
AcDbSavedByObjectVersion
1070
     0
  0
VISUALSTYLE
  5
27F1
102
{ACAD_XDICTIONARY
360
2858
102
}
102
{ACAD_REACTORS
330
27E1
102
}
330
27E1
100
AcDbVisualStyle
  2
ColorChange
 70
    16
 71
     2
 72
     2
 73
     3
 90
        0
 40
-0.6
 41
-30.0
 62
     5
 63
     8
 74
     1
 91
        4
 64
     7
 65
   257
 75
     1
175
     1
 42
1.0
 92
        8
 66
     8
 43
1.0
 76
     1
 77
     6
 78
     2
 67
     7
 79
     5
170
     0
171
     0
290
     0
174
     0
 93
        1
 44
0.0
173
     0
291
     1
 45
0.0
1001
ACAD
1000
AcDbSavedByObjectVersion
1070
     0
  0
VISUALSTYLE
  5
27EA
102
{ACAD_XDICTIONARY
360
284A
102
}
102
{ACAD_REACTORS
330
27E1
102
}
330
27E1
100
AcDbVisualStyle
  2
Conceptual
 70
     9
 71
     3
 72
     2
 73
     0
 90
        0
 40
-0.6
 41
-30.0
 62
     5
 63
     7
 74
     2
 91
        2
 64
     7
 65
   257
 75
     1
175
     1
 42
179.0
 92
        8
 66
     7
 43
1.0
 76
     1
 77
     6
 78
     2
 67
     7
 79
     3
170
     0
171
     0
290
     0
174
     0
 93
        1
 44
0.0
173
     0
291
     0
 45
0.0
1001
ACAD
1000
AcDbSavedByObjectVersion
1070
     0
  0
VISUALSTYLE
  5
27EC
102
{ACAD_XDICTIONARY
360
284E
102
}
102
{ACAD_REACTORS
330
27E1
102
}
330
27E1
100
AcDbVisualStyle
  2
Dim
 70
    11
 71
     2
 72
     2
 73
     0
 90
        0
 40
-0.6
 41
-30.0
 62
     5
 63
     7
 74
     1
 91
        4
 64
     7
 65
   257
 75
     1
175
     1
 42
1.0
 92
        8
 66
     7
 43
1.0
 76
     1
 77
     6
 78
     2
 67
     7
 79
     5
170
     0
171
     0
290
     0
174
     0
 93
        1
 44
-50.0
173
     0
291
     1
 45
0.0
1001
ACAD
1000
AcDbSavedByObjectVersion
1070
     0
  0
VISUALSTYLE
  5
27F9
102
{ACAD_XDICTIONARY
360
2868
102
}
102
{ACAD_REACTORS
330
27E1
102
}
330
27E1
100
AcDbVisualStyle
  2
EdgeColorOff
 70
    22
 71
     2
 72
     2
 73
     0
 90
        0
 40
-0.6
 41
-30.0
 62
     5
 63
     7
 74
     1
 91
        4
 64
     7
 65
   257
 75
     1
175
     1
 42
1.0
 92
        8
 66
     7
 43
1.0
 76
     1
 77
     6
 78
     2
 67
     7
 79
     5
170
     0
171
     0
290
     0
174
     0
 93
        1
 44
0.0
173
     0
291
     1
 45
0.0
1001
ACAD
1000
AcDbSavedByObjectVersion
1070
     0
  0
VISUALSTYLE
  5
27F0
102
{ACAD_XDICTIONARY
360
2856
102
}
102
{ACAD_REACTORS
330
27E1
102
}
330
27E1
100
AcDbVisualStyle
  2
Facepattern
 70
    15
 71
     2
 72
     2
 73
     0
 90
        0
 40
-0.6
 41
-30.0
 62
     5
 63
     7
 74
     1
 91
        4
 64
     7
 65
   257
 75
     1
175
     1
 42
1.0
 92
        8
 66
     7
 43
1.0
 76
     1
 77
     6
 78
     2
 67
     7
 79
     5
170
     0
171
     0
290
     0
174
     0
 93
        1
 44
0.0
173
     0
291
     1
 45
0.0
1001
ACAD
1000
AcDbSavedByObjectVersion
1070
     0
  0
VISUALSTYLE
  5
27E2
102
{ACAD_XDICTIONARY
360
283A
102
}
102
{ACAD_REACTORS
330
27E1
102
}
330
27E1
100
AcDbVisualStyle
  2
Flat
 70
     0
 71
     2
 72
     1
 73
     1
 90
        2
 40
-0.6
 41
30.0
 62
     5
 63
     7
 74
     0
 91
        0
 64
     7
 65
   257
 75
     1
175
     1
 42
1.0
 92
        8
 66
     7
 43
1.0
 76
     1
 77
     6
 78
     2
 67
     7
 79
     5
170
     0
171
     0
290
     0
174
     0
 93
       13
 44
0.0
173
     0
291
     1
 45
0.0
1001
ACAD
1000
AcDbSavedByObjectVersion
1070
     0
  0
VISUALSTYLE
  5
27E3
102
{ACAD_XDICTIONARY
360
283C
102
}
102
{ACAD_REACTORS
330
27E1
102
}
330
27E1
100
AcDbVisualStyle
  2
FlatWithEdges
 70
     1
 71
     2
 72
     1
 73
     1
 90
        2
 40
-0.6
 41
30.0
 62
     5
 63
     7
 74
     1
 91
        0
 64
     7
 65
   257
 75
     1
175
     1
 42
1.0
 92
        0
 66
   257
 43
1.0
 76
     1
 77
     6
 78
     2
 67
     7
 79
     5
170
     0
171
     0
290
     0
174
     0
 93
       13
 44
0.0
173
     0
291
     1
 45
0.0
1001
ACAD
1000
AcDbSavedByObjectVersion
1070
     0
  0
VISUALSTYLE
  5
27E4
102
{ACAD_XDICTIONARY
360
283E
102
}
102
{ACAD_REACTORS
330
27E1
102
}
330
27E1
100
AcDbVisualStyle
  2
Gouraud
 70
     2
 71
     2
 72
     2
 73
     1
 90
        2
 40
-0.6
 41
30.0
 62
     5
 63
     7
 74
     0
 91
        0
 64
     7
 65
   257
 75
     1
175
     1
 42
1.0
 92
        0
 66
     7
 43
1.0
 76
     1
 77
     6
 78
     2
 67
     7
 79
     5
170
     0
171
     0
290
     0
174
     0
 93
       13
 44
0.0
173
     0
291
     1
 45
0.0
1001
ACAD
1000
AcDbSavedByObjectVersion
1070
     0
  0
VISUALSTYLE
  5
27E5
102
{ACAD_XDICTIONARY
360
2840
102
}
102
{ACAD_REACTORS
330
27E1
102
}
330
27E1
100
AcDbVisualStyle
  2
GouraudWithEdges
 70
     3
 71
     2
 72
     2
 73
     1
 90
        2
 40
-0.6
 41
30.0
 62
     5
 63
     7
 74
     1
 91
        0
 64
     7
 65
   257
 75
     1
175
     1
 42
1.0
 92
        0
 66
   257
 43
1.0
 76
     1
 77
     6
 78
     2
 67
     7
 79
     5
170
     0
171
     0
290
     0
174
     0
 93
       13
 44
0.0
173
     0
291
     1
 45
0.0
1001
ACAD
1000
AcDbSavedByObjectVersion
1070
     0
  0
VISUALSTYLE
  5
27E9
102
{ACAD_XDICTIONARY
360
2848
102
}
102
{ACAD_REACTORS
330
27E1
102
}
330
27E1
100
AcDbVisualStyle
  2
Hidden
 70
     6
 71
     1
 72
     2
 73
     2
 90
        0
 40
-0.6
 41
-30.0
 62
     5
 63
     7
 74
     2
 91
        2
 64
     7
 65
   257
 75
     2
175
     1
 42
40.0
 92
        0
 66
   257
 43
1.0
 76
     1
 77
     6
 78
     2
 67
     7
 79
     3
170
     0
171
     0
290
     0
174
     0
 93
        1
 44
0.0
173
     0
291
     0
 45
0.0
1001
ACAD
1000
AcDbSavedByObjectVersion
1070
     0
  0
VISUALSTYLE
  5
27F7
102
{ACAD_XDICTIONARY
360
2864
102
}
102
{ACAD_REACTORS
330
27E1
102
}
330
27E1
100
AcDbVisualStyle
  2
JitterOff
 70
    20
 71
     2
 72
     2
 73
     0
 90
        0
 40
-0.6
 41
-30.0
 62
     5
 63
     7
 74
     1
 91
        4
 64
     7
 65
   257
 75
     1
175
     1
 42
1.0
 92
       10
 66
     7
 43
1.0
 76
     1
 77
     6
 78
     2
 67
     7
 79
     5
170
     0
171
     0
290
     0
174
     0
 93
        1
 44
0.0
173
     0
291
     1
 45
0.0
1001
ACAD
1000
AcDbSavedByObjectVersion
1070
     0
  0
VISUALSTYLE
  5
27EF
102
{ACAD_XDICTIONARY
360
2854
102
}
102
{ACAD_REACTORS
330
27E1
102
}
330
27E1
100
AcDbVisualStyle
  2
Linepattern
 70
    14
 71
     2
 72
     2
 73
     0
 90
        0
 40
-0.6
 41
-30.0
 62
     5
 63
     7
 74
     1
 91
        4
 64
     7
 65
   257
 75
     7
175
     7
 42
1.0
 92
        8
 66
     7
 43
1.0
 76
     1
 77
     6
 78
     2
 67
     7
 79
     5
170
     0
171
     0
290
     0
174
     0
 93
        1
 44
0.0
173
     0
291
     1
 45
0.0
1001
ACAD
1000
AcDbSavedByObjectVersion
1070
     0
  0
VISUALSTYLE
  5
27F8
102
{ACAD_XDICTIONARY
360
2866
102
}
102
{ACAD_REACTORS
330
27E1
102
}
330
27E1
100
AcDbVisualStyle
  2
OverhangOff
 70
    21
 71
     2
 72
     2
 73
     0
 90
        0
 40
-0.6
 41
-30.0
 62
     5
 63
     7
 74
     1
 91
        4
 64
     7
 65
   257
 75
     1
175
     1
 42
1.0
 92
        9
 66
     7
 43
1.0
 76
     1
 77
     6
 78
     2
 67
     7
 79
     5
170
     0
171
     0
290
     0
174
     0
 93
        1
 44
0.0
173
     0
291
     1
 45
0.0
1001
ACAD
1000
AcDbSavedByObjectVersion
1070
     0
  0
VISUALSTYLE
  5
27EB
102
{ACAD_XDICTIONARY
360
284C
102
}
102
{ACAD_REACTORS
330
27E1
102
}
330
27E1
100
AcDbVisualStyle
  2
Realistic
 70
     8
 71
     2
 72
     3
 73
     0
 90
        2
 40
-0.6
 41
30.0
 62
     5
 63
     7
 74
     0
 91
        0
 64
     7
 65
   257
 75
     1
175
     1
 42
1.0
 92
        8
 66
   257
 43
1.0
 76
     1
 77
     6
 78
     2
 67
     7
 79
     3
170
     0
171
     0
290
     0
174
     0
 93
       13
 44
0.0
173
     0
291
     0
 45
0.0
1001
ACAD
1000
AcDbSavedByObjectVersion
1070
     0
  0
VISUALSTYLE
  5
27F6
102
{ACAD_XDICTIONARY
360
2862
102
}
102
{ACAD_REACTORS
330
27E1
102
}
330
27E1
100
AcDbVisualStyle
  2
Shaded
 70
    27
 71
     2
 72
     2
 73
     1
 90
        2
 40
-0.6
 41
30.0
 62
     5
 63
     7
 74
     0
 91
        4
 64
     7
 65
   257
 75
     1
175
     1
 42
1.0
 92
        8
 66
   257
 43
1.0
 76
     1
 77
     6
 78
     2
 67
     8
 79
     3
170
     0
171
     0
290
     0
174
     0
 93
        5
 44
0.0
173
     0
291
     0
 45
0.0
1001
ACAD
1000
AcDbSavedByObjectVersion
1070
     0
  0
VISUALSTYLE
  5
27F5
102
{ACAD_XDICTIONARY
360
2860
102
}
102
{ACAD_REACTORS
330
27E1
102
}
330
27E1
100
AcDbVisualStyle
  2
Shaded with edges
 70
    26
 71
     2
 72
     2
 73
     1
 90
        2
 40
-0.6
 41
30.0
 62
     5
 63
     7
 74
     1
 91
       10
 64
     7
 65
   257
 75
     2
175
     1
 42
1.0
 92
        8
 66
   257
 43
1.0
 76
     1
 77
     6
 78
     2
 67
     7
 79
     3
170
     0
171
     0
290
     0
174
     0
 93
        5
 44
0.0
173
     0
291
     0
 45
0.0
1001
ACAD
1000
AcDbSavedByObjectVersion
1070
     0
  0
VISUALSTYLE
  5
27F2
102
{ACAD_XDICTIONARY
360
285A
102
}
102
{ACAD_REACTORS
330
27E1
102
}
330
27E1
100
AcDbVisualStyle
  2
Shades of Gray
 70
    23
 71
     2
 72
     2
 73
     3
 90
        0
 40
-0.6
 41
-30.0
 62
     5
 63
     7
 74
     2
 91
        2
 64
     7
 65
     7
 75
     1
175
     1
 42
40.0
 92
        8
 66
     7
 43
1.0
 76
     1
 77
     6
 78
     2
 67
     7
 79
     3
170
     0
171
     0
290
     0
174
     0
 93
        1
 44
0.0
173
     0
291
     0
 45
0.0
1001
ACAD
1000
AcDbSavedByObjectVersion
1070
     0
  0
VISUALSTYLE
  5
27F3
102
{ACAD_XDICTIONARY
360
285C
102
}
102
{ACAD_REACTORS
330
27E1
102
}
330
27E1
100
AcDbVisualStyle
  2
Sketchy
 70
    24
 71
     1
 72
     2
 73
     2
 90
        0
 40
-0.6
 41
-30.0
 62
     5
 63
     7
 74
     2
 91
        2
 64
     7
 65
     7
 75
     1
175
     1
 42
40.0
 92
       11
 66
     7
 43
1.0
 76
     1
 77
     6
 78
     2
 67
     7
 79
     6
170
     0
171
     0
290
     0
174
     0
 93
        1
 44
0.0
173
     0
291
     0
 45
0.0
1001
ACAD
1000
AcDbSavedByObjectVersion
1070
     0
  0
VISUALSTYLE
  5
27EE
102
{ACAD_XDICTIONARY
360
2852
102
}
102
{ACAD_REACTORS
330
27E1
102
}
330
27E1
100
AcDbVisualStyle
  2
Thicken
 70
    13
 71
     2
 72
     2
 73
     0
 90
        0
 40
-0.6
 41
-30.0
 62
     5
 63
     7
 74
     1
 91
        4
 64
     7
 65
   257
 75
     1
175
     1
 42
1.0
 92
       12
 66
     7
 43
1.0
 76
     1
 77
     6
 78
     2
 67
     7
 79
     5
170
     0
171
     0
290
     0
174
     0
 93
        1
 44
0.0
173
     0
291
     1
 45
0.0
1001
ACAD
1000
AcDbSavedByObjectVersion
1070
     0
  0
VISUALSTYLE
  5
27E8
102
{ACAD_XDICTIONARY
360
2846
102
}
102
{ACAD_REACTORS
330
27E1
102
}
330
27E1
100
AcDbVisualStyle
  2
Wireframe
 70
     5
 71
     0
 72
     2
 73
     0
 90
        0
 40
-0.6
 41
-30.0
 62
     5
 63
     7
 74
     1
 91
        4
 64
     7
 65
   257
 75
     1
175
     1
 42
1.0
 92
        0
 66
   257
 43
1.0
 76
     1
 77
     6
 78
     2
 67
     7
 79
     3
170
     0
171
     0
290
     0
174
     0
 93
        1
 44
0.0
173
     0
291
     0
 45
0.0
1001
ACAD
1000
AcDbSavedByObjectVersion
1070
     0
  0
VISUALSTYLE
  5
27F4
102
{ACAD_XDICTIONARY
360
285E
102
}
102
{ACAD_REACTORS
330
27E1
102
}
330
27E1
100
AcDbVisualStyle
  2
X-Ray
 70
    25
 71
     2
 72
     2
 73
     1
 90
        1
 40
0.5
 41
-30.0
 62
     5
 63
     7
 74
     1
 91
        0
 64
     7
 65
   257
 75
     1
175
     1
 42
1.0
 92
        8
 66
     7
 43
1.0
 76
     1
 77
     6
 78
     2
 67
     7
 79
     3
170
     0
171
     0
290
     0
174
     0
 93
       13
 44
0.0
173
     0
291
     0
 45
0.0
1001
ACAD
1000
AcDbSavedByObjectVersion
1070
     0
  0
DICTIONARYVAR
  5
282D
102
{ACAD_REACTORS
330
2828
102
}
330
2828
100
DictionaryVariables
280
     0
  1
1:1
  0
DICTIONARYVAR
  5
282A
102
{ACAD_REACTORS
330
2828
102
}
330
2828
100
DictionaryVariables
280
     0
  1
STANDARD
  0
DICTIONARYVAR
  5
2829
102
{ACAD_REACTORS
330
2828
102
}
330
2828
100
DictionaryVariables
280
     0
  1
STANDARD
  0
DICTIONARYVAR
  5
282B
102
{ACAD_REACTORS
330
2828
102
}
330
2828
100
DictionaryVariables
280
     0
  1
Imperial24
  0
DICTIONARYVAR
  5
282C
102
{ACAD_REACTORS
330
2828
102
}
330
2828
100
DictionaryVariables
280
     0
  1
Imperial24
  0
DICTIONARYVAR
  5
2830
102
{ACAD_REACTORS
330
2828
102
}
330
2828
100
DictionaryVariables
280
     0
  1
1
  0
DICTIONARYVAR
  5
282F
102
{ACAD_REACTORS
330
2828
102
}
330
2828
100
DictionaryVariables
280
     0
  1
0
  0
DICTIONARYVAR
  5
282E
102
{ACAD_REACTORS
330
2828
102
}
330
2828
100
DictionaryVariables
280
     0
  1
127
  0
DICTIONARYVAR
  5
2831
102
{ACAD_REACTORS
330
2828
102
}
330
2828
100
DictionaryVariables
280
     0
  1
2
  0
DICTIONARY
  5
286E
330
2814
100
AcDbDictionary
280
     1
281
     1
  3
ACAD_XREC_ROUNDTRIP
360
286F
  0
DICTIONARY
  5
2870
330
2815
100
AcDbDictionary
280
     1
281
     1
  3
ACAD_XREC_ROUNDTRIP
360
2871
  0
DICTIONARY
  5
2872
330
2816
100
AcDbDictionary
280
     1
281
     1
  3
ACAD_XREC_ROUNDTRIP
360
2873
  0
DICTIONARY
  5
27D2
330
27D1
100
AcDbDictionary
280
     1
281
     1
  3
ACAD_XREC_ROUNDTRIP
360
2838
  3
BUMPTILE
360
27D4
  3
DIFFUSETILE
360
27D3
  3
OPACITYTILE
360
27D7
  3
REFLECTIONTILE
360
27D6
  3
REFRACTIONTILE
360
27D8
  3
SPECULARTILE
360
27D5
  0
DICTIONARY
  5
27CA
330
27C9
100
AcDbDictionary
280
     1
281
     1
  3
ACAD_XREC_ROUNDTRIP
360
2837
  3
BUMPTILE
360
27CC
  3
DIFFUSETILE
360
27CB
  3
OPACITYTILE
360
27CF
  3
REFLECTIONTILE
360
27CE
  3
REFRACTIONTILE
360
27D0
  3
SPECULARTILE
360
27CD
  0
DICTIONARY
  5
27DA
330
27D9
100
AcDbDictionary
280
     1
281
     1
  3
ACAD_XREC_ROUNDTRIP
360
2839
  3
BUMPTILE
360
27DC
  3
DIFFUSETILE
360
27DB
  3
OPACITYTILE
360
27DF
  3
REFLECTIONTILE
360
27DE
  3
REFRACTIONTILE
360
27E0
  3
SPECULARTILE
360
27DD
  0
DICTIONARY
  5
286C
330
2812
100
AcDbDictionary
280
     1
281
     1
  3
ACAD_XREC_ROUNDTRIP
360
286D
  0
DICTIONARY
  5
2833
330
27FC
100
AcDbDictionary
280
     1
281
     1
  3
ACAD_ROUNDTRIP_2008_TABLESTYLE_CELLSTYLEMAP
360
2834
  3
ACAD_XREC_ROUNDTRIP
360
286A
  0
DICTIONARY
  5
2844
330
27E7
100
AcDbDictionary
280
     1
281
     1
  3
ACAD_XREC_ROUNDTRIP
360
2845
  0
DICTIONARY
  5
2842
330
27E6
100
AcDbDictionary
280
     1
281
     1
  3
ACAD_XREC_ROUNDTRIP
360
2843
  0
DICTIONARY
  5
2850
330
27ED
100
AcDbDictionary
280
     1
281
     1
  3
ACAD_XREC_ROUNDTRIP
360
2851
  0
DICTIONARY
  5
2858
330
27F1
100
AcDbDictionary
280
     1
281
     1
  3
ACAD_XREC_ROUNDTRIP
360
2859
  0
DICTIONARY
  5
284A
330
27EA
100
AcDbDictionary
280
     1
281
     1
  3
ACAD_XREC_ROUNDTRIP
360
284B
  0
DICTIONARY
  5
284E
330
27EC
100
AcDbDictionary
280
     1
281
     1
  3
ACAD_XREC_ROUNDTRIP
360
284F
  0
DICTIONARY
  5
2868
330
27F9
100
AcDbDictionary
280
     1
281
     1
  3
ACAD_XREC_ROUNDTRIP
360
2869
  0
DICTIONARY
  5
2856
330
27F0
100
AcDbDictionary
280
     1
281
     1
  3
ACAD_XREC_ROUNDTRIP
360
2857
  0
DICTIONARY
  5
283A
330
27E2
100
AcDbDictionary
280
     1
281
     1
  3
ACAD_XREC_ROUNDTRIP
360
283B
  0
DICTIONARY
  5
283C
330
27E3
100
AcDbDictionary
280
     1
281
     1
  3
ACAD_XREC_ROUNDTRIP
360
283D
  0
DICTIONARY
  5
283E
330
27E4
100
AcDbDictionary
280
     1
281
     1
  3
ACAD_XREC_ROUNDTRIP
360
283F
  0
DICTIONARY
  5
2840
330
27E5
100
AcDbDictionary
280
     1
281
     1
  3
ACAD_XREC_ROUNDTRIP
360
2841
  0
DICTIONARY
  5
2848
330
27E9
100
AcDbDictionary
280
     1
281
     1
  3
ACAD_XREC_ROUNDTRIP
360
2849
  0
DICTIONARY
  5
2864
330
27F7
100
AcDbDictionary
280
     1
281
     1
  3
ACAD_XREC_ROUNDTRIP
360
2865
  0
DICTIONARY
  5
2854
330
27EF
100
AcDbDictionary
280
     1
281
     1
  3
ACAD_XREC_ROUNDTRIP
360
2855
  0
DICTIONARY
  5
2866
330
27F8
100
AcDbDictionary
280
     1
281
     1
  3
ACAD_XREC_ROUNDTRIP
360
2867
  0
DICTIONARY
  5
284C
330
27EB
100
AcDbDictionary
280
     1
281
     1
  3
ACAD_XREC_ROUNDTRIP
360
284D
  0
DICTIONARY
  5
2862
330
27F6
100
AcDbDictionary
280
     1
281
     1
  3
ACAD_XREC_ROUNDTRIP
360
2863
  0
DICTIONARY
  5
2860
330
27F5
100
AcDbDictionary
280
     1
281
     1
  3
ACAD_XREC_ROUNDTRIP
360
2861
  0
DICTIONARY
  5
285A
330
27F2
100
AcDbDictionary
280
     1
281
     1
  3
ACAD_XREC_ROUNDTRIP
360
285B
  0
DICTIONARY
  5
285C
330
27F3
100
AcDbDictionary
280
     1
281
     1
  3
ACAD_XREC_ROUNDTRIP
360
285D
  0
DICTIONARY
  5
2852
330
27EE
100
AcDbDictionary
280
     1
281
     1
  3
ACAD_XREC_ROUNDTRIP
360
2853
  0
DICTIONARY
  5
2846
330
27E8
100
AcDbDictionary
280
     1
281
     1
  3
ACAD_XREC_ROUNDTRIP
360
2847
  0
DICTIONARY
  5
285E
330
27F4
100
AcDbDictionary
280
     1
281
     1
  3
ACAD_XREC_ROUNDTRIP
360
285F
  0
XRECORD
  5
286F
102
{ACAD_REACTORS
330
286E
102
}
330
286E
100
AcDbXrecord
280
     1
102
DISPLAYNAME
  1
Imperial24
102
FLAGS
 90
        0
  0
XRECORD
  5
2871
102
{ACAD_REACTORS
330
2870
102
}
330
2870
100
AcDbXrecord
280
     1
102
SHADEPLOT
 70
     0
102
SHADEPLOTRESLEVEL
 70
     2
102
SHADEPLOTCUSTOMDPI
 70
   300
  0
XRECORD
  5
2873
102
{ACAD_REACTORS
330
2872
102
}
330
2872
100
AcDbXrecord
280
     1
102
SHADEPLOT
 70
     0
102
SHADEPLOTRESLEVEL
 70
     2
102
SHADEPLOTCUSTOMDPI
 70
   300
  0
XRECORD
  5
2838
102
{ACAD_REACTORS
330
27D2
102
}
330
27D2
100
AcDbXrecord
280
     1
102
MATERIAL
148
0.0
149
0.0
149
0.0
 93
        0
 94
      127
282
     0
 72
     0
 77
     0
171
     0
175
     0
179
     0
273
     0
  0
XRECORD
  5
27D4
102
{ACAD_REACTORS
330
27D2
102
}
330
27D2
100
AcDbXrecord
280
     1
270
     1
271
     1
  0
XRECORD
  5
27D3
102
{ACAD_REACTORS
330
27D2
102
}
330
27D2
100
AcDbXrecord
280
     1
270
     1
271
     1
  0
XRECORD
  5
27D7
102
{ACAD_REACTORS
330
27D2
102
}
330
27D2
100
AcDbXrecord
280
     1
270
     1
271
     1
  0
XRECORD
  5
27D6
102
{ACAD_REACTORS
330
27D2
102
}
330
27D2
100
AcDbXrecord
280
     1
270
     1
271
     1
  0
XRECORD
  5
27D8
102
{ACAD_REACTORS
330
27D2
102
}
330
27D2
100
AcDbXrecord
280
     1
270
     1
271
     1
  0
XRECORD
  5
27D5
102
{ACAD_REACTORS
330
27D2
102
}
330
27D2
100
AcDbXrecord
280
     1
270
     1
271
     1
  0
XRECORD
  5
2837
102
{ACAD_REACTORS
330
27CA
102
}
330
27CA
100
AcDbXrecord
280
     1
102
MATERIAL
148
0.0
149
0.0
149
0.0
 93
        0
 94
      127
282
     0
 72
     0
 77
     0
171
     0
175
     0
179
     0
273
     0
  0
XRECORD
  5
27CC
102
{ACAD_REACTORS
330
27CA
102
}
330
27CA
100
AcDbXrecord
280
     1
270
     1
271
     1
  0
XRECORD
  5
27CB
102
{ACAD_REACTORS
330
27CA
102
}
330
27CA
100
AcDbXrecord
280
     1
270
     1
271
     1
  0
XRECORD
  5
27CF
102
{ACAD_REACTORS
330
27CA
102
}
330
27CA
100
AcDbXrecord
280
     1
270
     1
271
     1
  0
XRECORD
  5
27CE
102
{ACAD_REACTORS
330
27CA
102
}
330
27CA
100
AcDbXrecord
280
     1
270
     1
271
     1
  0
XRECORD
  5
27D0
102
{ACAD_REACTORS
330
27CA
102
}
330
27CA
100
AcDbXrecord
280
     1
270
     1
271
     1
  0
XRECORD
  5
27CD
102
{ACAD_REACTORS
330
27CA
102
}
330
27CA
100
AcDbXrecord
280
     1
270
     1
271
     1
  0
XRECORD
  5
2839
102
{ACAD_REACTORS
330
27DA
102
}
330
27DA
100
AcDbXrecord
280
     1
102
MATERIAL
148
0.0
149
0.0
149
0.0
 93
        0
 94
      127
282
     0
 72
     0
 77
     0
171
     0
175
     0
179
     0
273
     0
  0
XRECORD
  5
27DC
102
{ACAD_REACTORS
330
27DA
102
}
330
27DA
100
AcDbXrecord
280
     1
270
     1
271
     1
  0
XRECORD
  5
27DB
102
{ACAD_REACTORS
330
27DA
102
}
330
27DA
100
AcDbXrecord
280
     1
270
     1
271
     1
  0
XRECORD
  5
27DF
102
{ACAD_REACTORS
330
27DA
102
}
330
27DA
100
AcDbXrecord
280
     1
270
     1
271
     1
  0
XRECORD
  5
27DE
102
{ACAD_REACTORS
330
27DA
102
}
330
27DA
100
AcDbXrecord
280
     1
270
     1
271
     1
  0
XRECORD
  5
27E0
102
{ACAD_REACTORS
330
27DA
102
}
330
27DA
100
AcDbXrecord
280
     1
270
     1
271
     1
  0
XRECORD
  5
27DD
102
{ACAD_REACTORS
330
27DA
102
}
330
27DA
100
AcDbXrecord
280
     1
270
     1
271
     1
  0
XRECORD
  5
286D
102
{ACAD_REACTORS
330
286C
102
}
330
286C
100
AcDbXrecord
280
     1
102
DISPLAYNAME
  1
Imperial24
102
FLAGS
 90
        0
  0
CELLSTYLEMAP
  5
2834
102
{ACAD_REACTORS
330
2833
102
}
330
2833
100
AcDbCellStyleMap
 90
        3
300
CELLSTYLE
  1
TABLEFORMAT_BEGIN
 90
        5
170
     1
 91
        0
 92
    32768
 62
   257
 93
        1
300
CONTENTFORMAT
  1
CONTENTFORMAT_BEGIN
 90
        0
 91
        0
 92
      512
 93
        0
300

 40
0.0
140
1.0
 94
        5
 62
     0
340
F
144
0.25
309
CONTENTFORMAT_END
171
     0
 94
        0
309
TABLEFORMAT_END
  1
CELLSTYLE_BEGIN
 90
        1
 91
        1
300
_TITLE
309
CELLSTYLE_END
300
CELLSTYLE
  1
TABLEFORMAT_BEGIN
 90
        5
170
     1
 91
        0
 92
        0
 62
   257
 93
        1
300
CONTENTFORMAT
  1
CONTENTFORMAT_BEGIN
 90
        0
 91
        0
 92
      512
 93
        0
300

 40
0.0
140
1.0
 94
        5
 62
     0
340
F
144
0.18
309
CONTENTFORMAT_END
171
     0
 94
        0
309
TABLEFORMAT_END
  1
CELLSTYLE_BEGIN
 90
        2
 91
        1
300
_HEADER
309
CELLSTYLE_END
300
CELLSTYLE
  1
TABLEFORMAT_BEGIN
 90
        5
170
     1
 91
        0
 92
        0
 62
   257
 93
        1
300
CONTENTFORMAT
  1
CONTENTFORMAT_BEGIN
 90
        0
 91
        0
 92
      512
 93
        0
300

 40
0.0
140
1.0
 94
        2
 62
     0
340
F
144
0.18
309
CONTENTFORMAT_END
171
     0
 94
        0
309
TABLEFORMAT_END
  1
CELLSTYLE_BEGIN
 90
        3
 91
        2
300
_DATA
309
CELLSTYLE_END
  0
XRECORD
  5
286A
102
{ACAD_REACTORS
330
2833
102
}
330
2833
100
AcDbXrecord
280
     1
102
ACAD_ROUNDTRIP_PRE2007_TABLESTYLE
 90
      512
 91
        0
  1

 92
      512
 93
        0
  2

 94
      512
 95
        0
  3

  0
XRECORD
  5
2845
102
{ACAD_REACTORS
330
2844
102
}
330
2844
100
AcDbXrecord
280
     1
102
RTVSPost2010Prop28
280
     1
102
RTVSPost2010PropOp28
 70
     1
102
RTVSPost2010Prop29
280
     1
102
RTVSPost2010PropOp29
 70
     1
102
RTVSPost2010Prop30
280
     0
102
RTVSPost2010PropOp30
 70
     1
102
RTVSPost2010Prop31
280
     0
102
RTVSPost2010PropOp31
 70
     1
102
RTVSPost2010Prop32
280
     0
102
RTVSPost2010PropOp32
 70
     1
102
RTVSPost2010Prop33
280
     0
102
RTVSPost2010PropOp33
 70
     1
102
RTVSPost2010Prop34
280
     0
102
RTVSPost2010PropOp34
 70
     1
102
RTVSPost2010Prop35
280
     0
102
RTVSPost2010PropOp35
 70
     1
102
RTVSPost2010Prop36
280
     0
102
RTVSPost2010PropOp36
 70
     1
102
RTVSPost2010Prop37
 90
       50
102
RTVSPost2010PropOp37
 70
     1
102
RTVSPost2010Prop38
140
0.0
102
RTVSPost2010PropOp38
 70
     1
102
RTVSPost2010Prop39
140
1.0
102
RTVSPost2010PropOp39
 70
     1
102
RTVSPost2010Prop40
 90
        0
102
RTVSPost2010PropOp40
 70
     1
102
RTVSPost2010Prop41ColorIndex
 90
       18
102
RTVSPost2010Prop41ColorRGB
 90
        0
102
RTVSPost2010PropOp41
 70
     1
102
RTVSPost2010Prop42
 90
       50
102
RTVSPost2010PropOp42
 70
     1
102
RTVSPost2010Prop43
 90
        3
102
RTVSPost2010PropOp43
 70
     1
102
RTVSPost2010Prop44ColorIndex
 90
        5
102
RTVSPost2010Prop44ColorRGB
 90
      255
102
RTVSPost2010PropOp44
 70
     1
102
RTVSPost2010Prop45
280
     0
102
RTVSPost2010PropOp45
 70
     1
102
RTVSPost2010Prop46
 90
       50
102
RTVSPost2010PropOp46
 70
     1
102
RTVSPost2010Prop47
 90
       50
102
RTVSPost2010PropOp47
 70
     1
102
RTVSPost2010Prop48
 90
       50
102
RTVSPost2010PropOp48
 70
     1
102
RTVSPost2010Prop49
280
     0
102
RTVSPost2010PropOp49
 70
     1
102
RTVSPost2010Prop50
 90
       50
102
RTVSPost2010PropOp50
 70
     1
102
RTVSPost2010Prop51ColorIndex
 90
      256
102
RTVSPost2010Prop51ColorRGB
 90
-16777216
102
RTVSPost2010PropOp51
 70
     0
102
RTVSPost2010Prop52
140
1.0
102
RTVSPost2010PropOp52
 70
     0
102
RTVSPost2010Prop53
 90
        2
102
RTVSPost2010PropOp53
 70
     1
102
RTVSPost2010Prop54
  1
strokes_ogs.tif
102
RTVSPost2010PropOp54
 70
     1
102
RTVSPost2010Prop55
280
     0
102
RTVSPost2010PropOp55
 70
     1
102
RTVSPost2010Prop56
140
1.0
102
RTVSPost2010PropOp56
 70
     1
102
RTVSPost2010Prop57
140
1.0
102
RTVSPost2010PropOp57
 70
     1
102
RTVSPropertyOp0
 70
     1
102
RTVSPropertyOp1
 70
     1
102
RTVSPropertyOp2
 70
     1
102
RTVSPropertyOp3
 70
     1
102
RTVSPropertyOp4
 70
     1
102
RTVSPropertyOp5
 70
     1
102
RTVSPropertyOp6
 70
     1
102
RTVSPropertyOp7
 70
     1
102
RTVSPropertyOp8
 70
     1
102
RTVSPropertyOp9
 70
     1
102
RTVSPropertyOp10
 70
     1
102
RTVSPropertyOp11
 70
     1
102
RTVSPropertyOp12
 70
     1
102
RTVSPropertyOp13
 70
     1
102
RTVSPropertyOp14
 70
     1
102
RTVSPropertyOp15
 70
     1
102
RTVSPropertyOp16
 70
     1
102
RTVSPropertyOp17
 70
     1
102
RTVSPropertyOp18
 70
     1
102
RTVSPropertyOp19
 70
     1
102
RTVSPropertyOp20
 70
     1
102
RTVSPropertyOp21
 70
     1
102
RTVSPropertyOp22
 70
     1
102
RTVSPropertyOp23
 70
     1
102
RTVSPropertyOp24
 70
     1
102
RTVSPropertyOp25
 70
     1
102
RTVSPropertyOp26
 70
     1
102
RTVSPropertyOp27
 70
     1
102
RTVSPropertyOp28
 70
     1
102
RTVSPropertyOp29
 70
     1
102
RTVSPropertyOp30
 70
     1
102
RTVSPropertyOp31
 70
     1
102
RTVSPropertyOp32
 70
     1
102
RTVSPropertyOp33
 70
     1
102
RTVSPropertyOp34
 70
     1
102
RTVSPropertyOp35
 70
     1
102
RTVSPropertyOp36
 70
     1
102
RTVSPropertyOp37
 70
     1
102
RTVSPropertyOp38
 70
     1
102
RTVSPropertyOp39
 70
     1
102
RTVSPropertyOp40
 70
     1
102
RTVSPropertyOp41
 70
     1
102
RTVSPropertyOp42
 70
     1
102
RTVSPropertyOp43
 70
     1
102
RTVSPropertyOp44
 70
     1
102
RTVSPropertyOp45
 70
     1
102
RTVSPropertyOp46
 70
     1
102
RTVSPropertyOp47
 70
     1
102
RTVSPropertyOp48
 70
     1
102
RTVSPropertyOp49
 70
     1
102
RTVSPropertyOp50
 70
     1
102
RTVSPropertyOp51
 70
     0
102
RTVSPropertyOp52
 70
     0
102
RTVSPropertyOp53
 70
     1
102
RTVSPropertyOp54
 70
     1
102
RTVSPropertyOp55
 70
     1
102
RTVSPropertyOp56
 70
     1
102
RTVSPropertyOp57
 70
     1
102
RTVSPropertyOp58
 70
     1
102
RTVSPropertyOp59
 70
     1
102
RTVSPropertyOp60
 70
     1
102
RTVSPropertyOp61
 70
     1
102
RTVSPropertyOp62
 70
     1
  0
XRECORD
  5
2843
102
{ACAD_REACTORS
330
2842
102
}
330
2842
100
AcDbXrecord
280
     1
102
RTVSPost2010Prop28
280
     0
102
RTVSPost2010PropOp28
 70
     1
102
RTVSPost2010Prop29
280
     1
102
RTVSPost2010PropOp29
 70
     1
102
RTVSPost2010Prop30
280
     1
102
RTVSPost2010PropOp30
 70
     1
102
RTVSPost2010Prop31
280
     0
102
RTVSPost2010PropOp31
 70
     1
102
RTVSPost2010Prop32
280
     0
102
RTVSPost2010PropOp32
 70
     1
102
RTVSPost2010Prop33
280
     0
102
RTVSPost2010PropOp33
 70
     1
102
RTVSPost2010Prop34
280
     0
102
RTVSPost2010PropOp34
 70
     1
102
RTVSPost2010Prop35
280
     0
102
RTVSPost2010PropOp35
 70
     1
102
RTVSPost2010Prop36
280
     0
102
RTVSPost2010PropOp36
 70
     1
102
RTVSPost2010Prop37
 90
       50
102
RTVSPost2010PropOp37
 70
     1
102
RTVSPost2010Prop38
140
0.0
102
RTVSPost2010PropOp38
 70
     1
102
RTVSPost2010Prop39
140
1.0
102
RTVSPost2010PropOp39
 70
     1
102
RTVSPost2010Prop40
 90
        0
102
RTVSPost2010PropOp40
 70
     1
102
RTVSPost2010Prop41ColorIndex
 90
       18
102
RTVSPost2010Prop41ColorRGB
 90
        0
102
RTVSPost2010PropOp41
 70
     1
102
RTVSPost2010Prop42
 90
       50
102
RTVSPost2010PropOp42
 70
     1
102
RTVSPost2010Prop43
 90
        3
102
RTVSPost2010PropOp43
 70
     1
102
RTVSPost2010Prop44ColorIndex
 90
        5
102
RTVSPost2010Prop44ColorRGB
 90
      255
102
RTVSPost2010PropOp44
 70
     1
102
RTVSPost2010Prop45
280
     0
102
RTVSPost2010PropOp45
 70
     1
102
RTVSPost2010Prop46
 90
       50
102
RTVSPost2010PropOp46
 70
     1
102
RTVSPost2010Prop47
 90
       50
102
RTVSPost2010PropOp47
 70
     1
102
RTVSPost2010Prop48
 90
       50
102
RTVSPost2010PropOp48
 70
     1
102
RTVSPost2010Prop49
280
     0
102
RTVSPost2010PropOp49
 70
     1
102
RTVSPost2010Prop50
 90
       50
102
RTVSPost2010PropOp50
 70
     1
102
RTVSPost2010Prop51ColorIndex
 90
      256
102
RTVSPost2010Prop51ColorRGB
 90
-16777216
102
RTVSPost2010PropOp51
 70
     0
102
RTVSPost2010Prop52
140
1.0
102
RTVSPost2010PropOp52
 70
     0
102
RTVSPost2010Prop53
 90
        2
102
RTVSPost2010PropOp53
 70
     1
102
RTVSPost2010Prop54
  1
strokes_ogs.tif
102
RTVSPost2010PropOp54
 70
     1
102
RTVSPost2010Prop55
280
     0
102
RTVSPost2010PropOp55
 70
     1
102
RTVSPost2010Prop56
140
1.0
102
RTVSPost2010PropOp56
 70
     1
102
RTVSPost2010Prop57
140
1.0
102
RTVSPost2010PropOp57
 70
     1
102
RTVSPropertyOp0
 70
     1
102
RTVSPropertyOp1
 70
     1
102
RTVSPropertyOp2
 70
     1
102
RTVSPropertyOp3
 70
     1
102
RTVSPropertyOp4
 70
     1
102
RTVSPropertyOp5
 70
     1
102
RTVSPropertyOp6
 70
     1
102
RTVSPropertyOp7
 70
     1
102
RTVSPropertyOp8
 70
     1
102
RTVSPropertyOp9
 70
     1
102
RTVSPropertyOp10
 70
     1
102
RTVSPropertyOp11
 70
     1
102
RTVSPropertyOp12
 70
     1
102
RTVSPropertyOp13
 70
     1
102
RTVSPropertyOp14
 70
     1
102
RTVSPropertyOp15
 70
     1
102
RTVSPropertyOp16
 70
     1
102
RTVSPropertyOp17
 70
     1
102
RTVSPropertyOp18
 70
     1
102
RTVSPropertyOp19
 70
     1
102
RTVSPropertyOp20
 70
     1
102
RTVSPropertyOp21
 70
     1
102
RTVSPropertyOp22
 70
     1
102
RTVSPropertyOp23
 70
     1
102
RTVSPropertyOp24
 70
     1
102
RTVSPropertyOp25
 70
     1
102
RTVSPropertyOp26
 70
     1
102
RTVSPropertyOp27
 70
     1
102
RTVSPropertyOp28
 70
     1
102
RTVSPropertyOp29
 70
     1
102
RTVSPropertyOp30
 70
     1
102
RTVSPropertyOp31
 70
     1
102
RTVSPropertyOp32
 70
     1
102
RTVSPropertyOp33
 70
     1
102
RTVSPropertyOp34
 70
     1
102
RTVSPropertyOp35
 70
     1
102
RTVSPropertyOp36
 70
     1
102
RTVSPropertyOp37
 70
     1
102
RTVSPropertyOp38
 70
     1
102
RTVSPropertyOp39
 70
     1
102
RTVSPropertyOp40
 70
     1
102
RTVSPropertyOp41
 70
     1
102
RTVSPropertyOp42
 70
     1
102
RTVSPropertyOp43
 70
     1
102
RTVSPropertyOp44
 70
     1
102
RTVSPropertyOp45
 70
     1
102
RTVSPropertyOp46
 70
     1
102
RTVSPropertyOp47
 70
     1
102
RTVSPropertyOp48
 70
     1
102
RTVSPropertyOp49
 70
     1
102
RTVSPropertyOp50
 70
     1
102
RTVSPropertyOp51
 70
     0
102
RTVSPropertyOp52
 70
     0
102
RTVSPropertyOp53
 70
     1
102
RTVSPropertyOp54
 70
     1
102
RTVSPropertyOp55
 70
     1
102
RTVSPropertyOp56
 70
     1
102
RTVSPropertyOp57
 70
     1
102
RTVSPropertyOp58
 70
     1
102
RTVSPropertyOp59
 70
     1
102
RTVSPropertyOp60
 70
     1
102
RTVSPropertyOp61
 70
     1
102
RTVSPropertyOp62
 70
     1
  0
XRECORD
  5
2851
102
{ACAD_REACTORS
330
2850
102
}
330
2850
100
AcDbXrecord
280
     1
102
RTVSPost2010Prop28
280
     0
102
RTVSPost2010PropOp28
 70
     1
102
RTVSPost2010Prop29
280
     1
102
RTVSPost2010PropOp29
 70
     1
102
RTVSPost2010Prop30
280
     1
102
RTVSPost2010PropOp30
 70
     1
102
RTVSPost2010Prop31
280
     0
102
RTVSPost2010PropOp31
 70
     1
102
RTVSPost2010Prop32
280
     0
102
RTVSPost2010PropOp32
 70
     1
102
RTVSPost2010Prop33
280
     0
102
RTVSPost2010PropOp33
 70
     1
102
RTVSPost2010Prop34
280
     0
102
RTVSPost2010PropOp34
 70
     1
102
RTVSPost2010Prop35
280
     0
102
RTVSPost2010PropOp35
 70
     1
102
RTVSPost2010Prop36
280
     0
102
RTVSPost2010PropOp36
 70
     1
102
RTVSPost2010Prop37
 90
       50
102
RTVSPost2010PropOp37
 70
     1
102
RTVSPost2010Prop38
140
0.0
102
RTVSPost2010PropOp38
 70
     1
102
RTVSPost2010Prop39
140
1.0
102
RTVSPost2010PropOp39
 70
     1
102
RTVSPost2010Prop40
 90
        0
102
RTVSPost2010PropOp40
 70
     1
102
RTVSPost2010Prop41ColorIndex
 90
       18
102
RTVSPost2010Prop41ColorRGB
 90
        0
102
RTVSPost2010PropOp41
 70
     1
102
RTVSPost2010Prop42
 90
       50
102
RTVSPost2010PropOp42
 70
     1
102
RTVSPost2010Prop43
 90
        3
102
RTVSPost2010PropOp43
 70
     1
102
RTVSPost2010Prop44ColorIndex
 90
        5
102
RTVSPost2010Prop44ColorRGB
 90
      255
102
RTVSPost2010PropOp44
 70
     1
102
RTVSPost2010Prop45
280
     0
102
RTVSPost2010PropOp45
 70
     1
102
RTVSPost2010Prop46
 90
       50
102
RTVSPost2010PropOp46
 70
     1
102
RTVSPost2010Prop47
 90
       50
102
RTVSPost2010PropOp47
 70
     1
102
RTVSPost2010Prop48
 90
       50
102
RTVSPost2010PropOp48
 70
     1
102
RTVSPost2010Prop49
280
     0
102
RTVSPost2010PropOp49
 70
     1
102
RTVSPost2010Prop50
 90
       50
102
RTVSPost2010PropOp50
 70
     1
102
RTVSPost2010Prop51ColorIndex
 90
      256
102
RTVSPost2010Prop51ColorRGB
 90
-16777216
102
RTVSPost2010PropOp51
 70
     0
102
RTVSPost2010Prop52
140
1.0
102
RTVSPost2010PropOp52
 70
     0
102
RTVSPost2010Prop53
 90
        2
102
RTVSPost2010PropOp53
 70
     1
102
RTVSPost2010Prop54
  1
strokes_ogs.tif
102
RTVSPost2010PropOp54
 70
     1
102
RTVSPost2010Prop55
280
     0
102
RTVSPost2010PropOp55
 70
     1
102
RTVSPost2010Prop56
140
1.0
102
RTVSPost2010PropOp56
 70
     1
102
RTVSPost2010Prop57
140
1.0
102
RTVSPost2010PropOp57
 70
     1
102
RTVSPropertyOp0
 70
     1
102
RTVSPropertyOp1
 70
     1
102
RTVSPropertyOp2
 70
     1
102
RTVSPropertyOp3
 70
     1
102
RTVSPropertyOp4
 70
     1
102
RTVSPropertyOp5
 70
     1
102
RTVSPropertyOp6
 70
     1
102
RTVSPropertyOp7
 70
     1
102
RTVSPropertyOp8
 70
     1
102
RTVSPropertyOp9
 70
     1
102
RTVSPropertyOp10
 70
     1
102
RTVSPropertyOp11
 70
     1
102
RTVSPropertyOp12
 70
     1
102
RTVSPropertyOp13
 70
     1
102
RTVSPropertyOp14
 70
     1
102
RTVSPropertyOp15
 70
     1
102
RTVSPropertyOp16
 70
     1
102
RTVSPropertyOp17
 70
     1
102
RTVSPropertyOp18
 70
     1
102
RTVSPropertyOp19
 70
     1
102
RTVSPropertyOp20
 70
     1
102
RTVSPropertyOp21
 70
     1
102
RTVSPropertyOp22
 70
     1
102
RTVSPropertyOp23
 70
     1
102
RTVSPropertyOp24
 70
     1
102
RTVSPropertyOp25
 70
     1
102
RTVSPropertyOp26
 70
     1
102
RTVSPropertyOp27
 70
     1
102
RTVSPropertyOp28
 70
     1
102
RTVSPropertyOp29
 70
     1
102
RTVSPropertyOp30
 70
     1
102
RTVSPropertyOp31
 70
     1
102
RTVSPropertyOp32
 70
     1
102
RTVSPropertyOp33
 70
     1
102
RTVSPropertyOp34
 70
     1
102
RTVSPropertyOp35
 70
     1
102
RTVSPropertyOp36
 70
     1
102
RTVSPropertyOp37
 70
     1
102
RTVSPropertyOp38
 70
     1
102
RTVSPropertyOp39
 70
     1
102
RTVSPropertyOp40
 70
     1
102
RTVSPropertyOp41
 70
     1
102
RTVSPropertyOp42
 70
     1
102
RTVSPropertyOp43
 70
     1
102
RTVSPropertyOp44
 70
     1
102
RTVSPropertyOp45
 70
     1
102
RTVSPropertyOp46
 70
     1
102
RTVSPropertyOp47
 70
     1
102
RTVSPropertyOp48
 70
     1
102
RTVSPropertyOp49
 70
     1
102
RTVSPropertyOp50
 70
     1
102
RTVSPropertyOp51
 70
     0
102
RTVSPropertyOp52
 70
     0
102
RTVSPropertyOp53
 70
     1
102
RTVSPropertyOp54
 70
     1
102
RTVSPropertyOp55
 70
     1
102
RTVSPropertyOp56
 70
     1
102
RTVSPropertyOp57
 70
     1
102
RTVSPropertyOp58
 70
     1
102
RTVSPropertyOp59
 70
     1
102
RTVSPropertyOp60
 70
     1
102
RTVSPropertyOp61
 70
     1
102
RTVSPropertyOp62
 70
     1
  0
XRECORD
  5
2859
102
{ACAD_REACTORS
330
2858
102
}
330
2858
100
AcDbXrecord
280
     1
102
RTVSPost2010Prop28
280
     0
102
RTVSPost2010PropOp28
 70
     1
102
RTVSPost2010Prop29
280
     1
102
RTVSPost2010PropOp29
 70
     1
102
RTVSPost2010Prop30
280
     1
102
RTVSPost2010PropOp30
 70
     1
102
RTVSPost2010Prop31
280
     0
102
RTVSPost2010PropOp31
 70
     1
102
RTVSPost2010Prop32
280
     0
102
RTVSPost2010PropOp32
 70
     1
102
RTVSPost2010Prop33
280
     0
102
RTVSPost2010PropOp33
 70
     1
102
RTVSPost2010Prop34
280
     0
102
RTVSPost2010PropOp34
 70
     1
102
RTVSPost2010Prop35
280
     0
102
RTVSPost2010PropOp35
 70
     1
102
RTVSPost2010Prop36
280
     0
102
RTVSPost2010PropOp36
 70
     1
102
RTVSPost2010Prop37
 90
       50
102
RTVSPost2010PropOp37
 70
     1
102
RTVSPost2010Prop38
140
0.0
102
RTVSPost2010PropOp38
 70
     1
102
RTVSPost2010Prop39
140
1.0
102
RTVSPost2010PropOp39
 70
     1
102
RTVSPost2010Prop40
 90
        0
102
RTVSPost2010PropOp40
 70
     1
102
RTVSPost2010Prop41ColorIndex
 90
       18
102
RTVSPost2010Prop41ColorRGB
 90
        0
102
RTVSPost2010PropOp41
 70
     1
102
RTVSPost2010Prop42
 90
       50
102
RTVSPost2010PropOp42
 70
     1
102
RTVSPost2010Prop43
 90
        3
102
RTVSPost2010PropOp43
 70
     1
102
RTVSPost2010Prop44ColorIndex
 90
        5
102
RTVSPost2010Prop44ColorRGB
 90
      255
102
RTVSPost2010PropOp44
 70
     1
102
RTVSPost2010Prop45
280
     0
102
RTVSPost2010PropOp45
 70
     1
102
RTVSPost2010Prop46
 90
       50
102
RTVSPost2010PropOp46
 70
     1
102
RTVSPost2010Prop47
 90
       50
102
RTVSPost2010PropOp47
 70
     1
102
RTVSPost2010Prop48
 90
       50
102
RTVSPost2010PropOp48
 70
     1
102
RTVSPost2010Prop49
280
     0
102
RTVSPost2010PropOp49
 70
     1
102
RTVSPost2010Prop50
 90
       50
102
RTVSPost2010PropOp50
 70
     1
102
RTVSPost2010Prop51ColorIndex
 90
      256
102
RTVSPost2010Prop51ColorRGB
 90
-16777216
102
RTVSPost2010PropOp51
 70
     0
102
RTVSPost2010Prop52
140
1.0
102
RTVSPost2010PropOp52
 70
     0
102
RTVSPost2010Prop53
 90
        2
102
RTVSPost2010PropOp53
 70
     1
102
RTVSPost2010Prop54
  1
strokes_ogs.tif
102
RTVSPost2010PropOp54
 70
     1
102
RTVSPost2010Prop55
280
     0
102
RTVSPost2010PropOp55
 70
     1
102
RTVSPost2010Prop56
140
1.0
102
RTVSPost2010PropOp56
 70
     1
102
RTVSPost2010Prop57
140
1.0
102
RTVSPost2010PropOp57
 70
     1
102
RTVSPropertyOp0
 70
     1
102
RTVSPropertyOp1
 70
     1
102
RTVSPropertyOp2
 70
     1
102
RTVSPropertyOp3
 70
     1
102
RTVSPropertyOp4
 70
     1
102
RTVSPropertyOp5
 70
     1
102
RTVSPropertyOp6
 70
     1
102
RTVSPropertyOp7
 70
     1
102
RTVSPropertyOp8
 70
     1
102
RTVSPropertyOp9
 70
     1
102
RTVSPropertyOp10
 70
     1
102
RTVSPropertyOp11
 70
     1
102
RTVSPropertyOp12
 70
     1
102
RTVSPropertyOp13
 70
     1
102
RTVSPropertyOp14
 70
     1
102
RTVSPropertyOp15
 70
     1
102
RTVSPropertyOp16
 70
     1
102
RTVSPropertyOp17
 70
     1
102
RTVSPropertyOp18
 70
     1
102
RTVSPropertyOp19
 70
     1
102
RTVSPropertyOp20
 70
     1
102
RTVSPropertyOp21
 70
     1
102
RTVSPropertyOp22
 70
     1
102
RTVSPropertyOp23
 70
     1
102
RTVSPropertyOp24
 70
     1
102
RTVSPropertyOp25
 70
     1
102
RTVSPropertyOp26
 70
     1
102
RTVSPropertyOp27
 70
     1
102
RTVSPropertyOp28
 70
     1
102
RTVSPropertyOp29
 70
     1
102
RTVSPropertyOp30
 70
     1
102
RTVSPropertyOp31
 70
     1
102
RTVSPropertyOp32
 70
     1
102
RTVSPropertyOp33
 70
     1
102
RTVSPropertyOp34
 70
     1
102
RTVSPropertyOp35
 70
     1
102
RTVSPropertyOp36
 70
     1
102
RTVSPropertyOp37
 70
     1
102
RTVSPropertyOp38
 70
     1
102
RTVSPropertyOp39
 70
     1
102
RTVSPropertyOp40
 70
     1
102
RTVSPropertyOp41
 70
     1
102
RTVSPropertyOp42
 70
     1
102
RTVSPropertyOp43
 70
     1
102
RTVSPropertyOp44
 70
     1
102
RTVSPropertyOp45
 70
     1
102
RTVSPropertyOp46
 70
     1
102
RTVSPropertyOp47
 70
     1
102
RTVSPropertyOp48
 70
     1
102
RTVSPropertyOp49
 70
     1
102
RTVSPropertyOp50
 70
     1
102
RTVSPropertyOp51
 70
     0
102
RTVSPropertyOp52
 70
     0
102
RTVSPropertyOp53
 70
     1
102
RTVSPropertyOp54
 70
     1
102
RTVSPropertyOp55
 70
     1
102
RTVSPropertyOp56
 70
     1
102
RTVSPropertyOp57
 70
     1
102
RTVSPropertyOp58
 70
     1
102
RTVSPropertyOp59
 70
     1
102
RTVSPropertyOp60
 70
     1
102
RTVSPropertyOp61
 70
     1
102
RTVSPropertyOp62
 70
     1
  0
XRECORD
  5
284B
102
{ACAD_REACTORS
330
284A
102
}
330
284A
100
AcDbXrecord
280
     1
102
RTVSPost2010Prop28
280
     0
102
RTVSPost2010PropOp28
 70
     1
102
RTVSPost2010Prop29
280
     1
102
RTVSPost2010PropOp29
 70
     1
102
RTVSPost2010Prop30
280
     1
102
RTVSPost2010PropOp30
 70
     1
102
RTVSPost2010Prop31
280
     0
102
RTVSPost2010PropOp31
 70
     1
102
RTVSPost2010Prop32
280
     0
102
RTVSPost2010PropOp32
 70
     1
102
RTVSPost2010Prop33
280
     0
102
RTVSPost2010PropOp33
 70
     1
102
RTVSPost2010Prop34
280
     0
102
RTVSPost2010PropOp34
 70
     1
102
RTVSPost2010Prop35
280
     0
102
RTVSPost2010PropOp35
 70
     1
102
RTVSPost2010Prop36
280
     0
102
RTVSPost2010PropOp36
 70
     1
102
RTVSPost2010Prop37
 90
       50
102
RTVSPost2010PropOp37
 70
     1
102
RTVSPost2010Prop38
140
0.0
102
RTVSPost2010PropOp38
 70
     1
102
RTVSPost2010Prop39
140
1.0
102
RTVSPost2010PropOp39
 70
     1
102
RTVSPost2010Prop40
 90
        0
102
RTVSPost2010PropOp40
 70
     1
102
RTVSPost2010Prop41ColorIndex
 90
       18
102
RTVSPost2010Prop41ColorRGB
 90
        0
102
RTVSPost2010PropOp41
 70
     1
102
RTVSPost2010Prop42
 90
       50
102
RTVSPost2010PropOp42
 70
     1
102
RTVSPost2010Prop43
 90
        3
102
RTVSPost2010PropOp43
 70
     1
102
RTVSPost2010Prop44ColorIndex
 90
        5
102
RTVSPost2010Prop44ColorRGB
 90
      255
102
RTVSPost2010PropOp44
 70
     1
102
RTVSPost2010Prop45
280
     0
102
RTVSPost2010PropOp45
 70
     1
102
RTVSPost2010Prop46
 90
       50
102
RTVSPost2010PropOp46
 70
     1
102
RTVSPost2010Prop47
 90
       50
102
RTVSPost2010PropOp47
 70
     1
102
RTVSPost2010Prop48
 90
       50
102
RTVSPost2010PropOp48
 70
     1
102
RTVSPost2010Prop49
280
     0
102
RTVSPost2010PropOp49
 70
     1
102
RTVSPost2010Prop50
 90
       50
102
RTVSPost2010PropOp50
 70
     1
102
RTVSPost2010Prop51ColorIndex
 90
      256
102
RTVSPost2010Prop51ColorRGB
 90
-16777216
102
RTVSPost2010PropOp51
 70
     0
102
RTVSPost2010Prop52
140
1.0
102
RTVSPost2010PropOp52
 70
     0
102
RTVSPost2010Prop53
 90
        2
102
RTVSPost2010PropOp53
 70
     1
102
RTVSPost2010Prop54
  1
strokes_ogs.tif
102
RTVSPost2010PropOp54
 70
     1
102
RTVSPost2010Prop55
280
     0
102
RTVSPost2010PropOp55
 70
     1
102
RTVSPost2010Prop56
140
1.0
102
RTVSPost2010PropOp56
 70
     1
102
RTVSPost2010Prop57
140
1.0
102
RTVSPost2010PropOp57
 70
     1
102
RTVSPropertyOp0
 70
     1
102
RTVSPropertyOp1
 70
     1
102
RTVSPropertyOp2
 70
     1
102
RTVSPropertyOp3
 70
     1
102
RTVSPropertyOp4
 70
     1
102
RTVSPropertyOp5
 70
     1
102
RTVSPropertyOp6
 70
     1
102
RTVSPropertyOp7
 70
     1
102
RTVSPropertyOp8
 70
     1
102
RTVSPropertyOp9
 70
     1
102
RTVSPropertyOp10
 70
     1
102
RTVSPropertyOp11
 70
     1
102
RTVSPropertyOp12
 70
     1
102
RTVSPropertyOp13
 70
     1
102
RTVSPropertyOp14
 70
     1
102
RTVSPropertyOp15
 70
     1
102
RTVSPropertyOp16
 70
     1
102
RTVSPropertyOp17
 70
     1
102
RTVSPropertyOp18
 70
     1
102
RTVSPropertyOp19
 70
     1
102
RTVSPropertyOp20
 70
     1
102
RTVSPropertyOp21
 70
     1
102
RTVSPropertyOp22
 70
     1
102
RTVSPropertyOp23
 70
     1
102
RTVSPropertyOp24
 70
     1
102
RTVSPropertyOp25
 70
     1
102
RTVSPropertyOp26
 70
     1
102
RTVSPropertyOp27
 70
     1
102
RTVSPropertyOp28
 70
     1
102
RTVSPropertyOp29
 70
     1
102
RTVSPropertyOp30
 70
     1
102
RTVSPropertyOp31
 70
     1
102
RTVSPropertyOp32
 70
     1
102
RTVSPropertyOp33
 70
     1
102
RTVSPropertyOp34
 70
     1
102
RTVSPropertyOp35
 70
     1
102
RTVSPropertyOp36
 70
     1
102
RTVSPropertyOp37
 70
     1
102
RTVSPropertyOp38
 70
     1
102
RTVSPropertyOp39
 70
     1
102
RTVSPropertyOp40
 70
     1
102
RTVSPropertyOp41
 70
     1
102
RTVSPropertyOp42
 70
     1
102
RTVSPropertyOp43
 70
     1
102
RTVSPropertyOp44
 70
     1
102
RTVSPropertyOp45
 70
     1
102
RTVSPropertyOp46
 70
     1
102
RTVSPropertyOp47
 70
     1
102
RTVSPropertyOp48
 70
     1
102
RTVSPropertyOp49
 70
     1
102
RTVSPropertyOp50
 70
     1
102
RTVSPropertyOp51
 70
     0
102
RTVSPropertyOp52
 70
     0
102
RTVSPropertyOp53
 70
     1
102
RTVSPropertyOp54
 70
     1
102
RTVSPropertyOp55
 70
     1
102
RTVSPropertyOp56
 70
     1
102
RTVSPropertyOp57
 70
     1
102
RTVSPropertyOp58
 70
     1
102
RTVSPropertyOp59
 70
     1
102
RTVSPropertyOp60
 70
     1
102
RTVSPropertyOp61
 70
     1
102
RTVSPropertyOp62
 70
     1
  0
XRECORD
  5
284F
102
{ACAD_REACTORS
330
284E
102
}
330
284E
100
AcDbXrecord
280
     1
102
RTVSPost2010Prop28
280
     0
102
RTVSPost2010PropOp28
 70
     1
102
RTVSPost2010Prop29
280
     1
102
RTVSPost2010PropOp29
 70
     1
102
RTVSPost2010Prop30
280
     1
102
RTVSPost2010PropOp30
 70
     1
102
RTVSPost2010Prop31
280
     0
102
RTVSPost2010PropOp31
 70
     1
102
RTVSPost2010Prop32
280
     0
102
RTVSPost2010PropOp32
 70
     1
102
RTVSPost2010Prop33
280
     0
102
RTVSPost2010PropOp33
 70
     1
102
RTVSPost2010Prop34
280
     0
102
RTVSPost2010PropOp34
 70
     1
102
RTVSPost2010Prop35
280
     0
102
RTVSPost2010PropOp35
 70
     1
102
RTVSPost2010Prop36
280
     0
102
RTVSPost2010PropOp36
 70
     1
102
RTVSPost2010Prop37
 90
       50
102
RTVSPost2010PropOp37
 70
     1
102
RTVSPost2010Prop38
140
0.0
102
RTVSPost2010PropOp38
 70
     1
102
RTVSPost2010Prop39
140
1.0
102
RTVSPost2010PropOp39
 70
     1
102
RTVSPost2010Prop40
 90
        0
102
RTVSPost2010PropOp40
 70
     1
102
RTVSPost2010Prop41ColorIndex
 90
       18
102
RTVSPost2010Prop41ColorRGB
 90
        0
102
RTVSPost2010PropOp41
 70
     1
102
RTVSPost2010Prop42
 90
       50
102
RTVSPost2010PropOp42
 70
     1
102
RTVSPost2010Prop43
 90
        3
102
RTVSPost2010PropOp43
 70
     1
102
RTVSPost2010Prop44ColorIndex
 90
        5
102
RTVSPost2010Prop44ColorRGB
 90
      255
102
RTVSPost2010PropOp44
 70
     1
102
RTVSPost2010Prop45
280
     0
102
RTVSPost2010PropOp45
 70
     1
102
RTVSPost2010Prop46
 90
       50
102
RTVSPost2010PropOp46
 70
     1
102
RTVSPost2010Prop47
 90
       50
102
RTVSPost2010PropOp47
 70
     1
102
RTVSPost2010Prop48
 90
       50
102
RTVSPost2010PropOp48
 70
     1
102
RTVSPost2010Prop49
280
     0
102
RTVSPost2010PropOp49
 70
     1
102
RTVSPost2010Prop50
 90
       50
102
RTVSPost2010PropOp50
 70
     1
102
RTVSPost2010Prop51ColorIndex
 90
      256
102
RTVSPost2010Prop51ColorRGB
 90
-16777216
102
RTVSPost2010PropOp51
 70
     0
102
RTVSPost2010Prop52
140
1.0
102
RTVSPost2010PropOp52
 70
     0
102
RTVSPost2010Prop53
 90
        2
102
RTVSPost2010PropOp53
 70
     1
102
RTVSPost2010Prop54
  1
strokes_ogs.tif
102
RTVSPost2010PropOp54
 70
     1
102
RTVSPost2010Prop55
280
     0
102
RTVSPost2010PropOp55
 70
     1
102
RTVSPost2010Prop56
140
1.0
102
RTVSPost2010PropOp56
 70
     1
102
RTVSPost2010Prop57
140
1.0
102
RTVSPost2010PropOp57
 70
     1
102
RTVSPropertyOp0
 70
     1
102
RTVSPropertyOp1
 70
     1
102
RTVSPropertyOp2
 70
     1
102
RTVSPropertyOp3
 70
     1
102
RTVSPropertyOp4
 70
     1
102
RTVSPropertyOp5
 70
     1
102
RTVSPropertyOp6
 70
     1
102
RTVSPropertyOp7
 70
     1
102
RTVSPropertyOp8
 70
     1
102
RTVSPropertyOp9
 70
     1
102
RTVSPropertyOp10
 70
     1
102
RTVSPropertyOp11
 70
     1
102
RTVSPropertyOp12
 70
     1
102
RTVSPropertyOp13
 70
     1
102
RTVSPropertyOp14
 70
     1
102
RTVSPropertyOp15
 70
     1
102
RTVSPropertyOp16
 70
     1
102
RTVSPropertyOp17
 70
     1
102
RTVSPropertyOp18
 70
     1
102
RTVSPropertyOp19
 70
     1
102
RTVSPropertyOp20
 70
     1
102
RTVSPropertyOp21
 70
     1
102
RTVSPropertyOp22
 70
     1
102
RTVSPropertyOp23
 70
     1
102
RTVSPropertyOp24
 70
     1
102
RTVSPropertyOp25
 70
     1
102
RTVSPropertyOp26
 70
     1
102
RTVSPropertyOp27
 70
     1
102
RTVSPropertyOp28
 70
     1
102
RTVSPropertyOp29
 70
     1
102
RTVSPropertyOp30
 70
     1
102
RTVSPropertyOp31
 70
     1
102
RTVSPropertyOp32
 70
     1
102
RTVSPropertyOp33
 70
     1
102
RTVSPropertyOp34
 70
     1
102
RTVSPropertyOp35
 70
     1
102
RTVSPropertyOp36
 70
     1
102
RTVSPropertyOp37
 70
     1
102
RTVSPropertyOp38
 70
     1
102
RTVSPropertyOp39
 70
     1
102
RTVSPropertyOp40
 70
     1
102
RTVSPropertyOp41
 70
     1
102
RTVSPropertyOp42
 70
     1
102
RTVSPropertyOp43
 70
     1
102
RTVSPropertyOp44
 70
     1
102
RTVSPropertyOp45
 70
     1
102
RTVSPropertyOp46
 70
     1
102
RTVSPropertyOp47
 70
     1
102
RTVSPropertyOp48
 70
     1
102
RTVSPropertyOp49
 70
     1
102
RTVSPropertyOp50
 70
     1
102
RTVSPropertyOp51
 70
     0
102
RTVSPropertyOp52
 70
     0
102
RTVSPropertyOp53
 70
     1
102
RTVSPropertyOp54
 70
     1
102
RTVSPropertyOp55
 70
     1
102
RTVSPropertyOp56
 70
     1
102
RTVSPropertyOp57
 70
     1
102
RTVSPropertyOp58
 70
     1
102
RTVSPropertyOp59
 70
     1
102
RTVSPropertyOp60
 70
     1
102
RTVSPropertyOp61
 70
     1
102
RTVSPropertyOp62
 70
     1
  0
XRECORD
  5
2869
102
{ACAD_REACTORS
330
2868
102
}
330
2868
100
AcDbXrecord
280
     1
102
RTVSPost2010Prop28
280
     0
102
RTVSPost2010PropOp28
 70
     1
102
RTVSPost2010Prop29
280
     1
102
RTVSPost2010PropOp29
 70
     1
102
RTVSPost2010Prop30
280
     1
102
RTVSPost2010PropOp30
 70
     1
102
RTVSPost2010Prop31
280
     0
102
RTVSPost2010PropOp31
 70
     1
102
RTVSPost2010Prop32
280
     0
102
RTVSPost2010PropOp32
 70
     1
102
RTVSPost2010Prop33
280
     0
102
RTVSPost2010PropOp33
 70
     1
102
RTVSPost2010Prop34
280
     0
102
RTVSPost2010PropOp34
 70
     1
102
RTVSPost2010Prop35
280
     0
102
RTVSPost2010PropOp35
 70
     1
102
RTVSPost2010Prop36
280
     0
102
RTVSPost2010PropOp36
 70
     1
102
RTVSPost2010Prop37
 90
       50
102
RTVSPost2010PropOp37
 70
     0
102
RTVSPost2010Prop38
140
0.0
102
RTVSPost2010PropOp38
 70
     0
102
RTVSPost2010Prop39
140
1.0
102
RTVSPost2010PropOp39
 70
     0
102
RTVSPost2010Prop40
 90
        0
102
RTVSPost2010PropOp40
 70
     0
102
RTVSPost2010Prop41ColorIndex
 90
       18
102
RTVSPost2010Prop41ColorRGB
 90
        0
102
RTVSPost2010PropOp41
 70
     0
102
RTVSPost2010Prop42
 90
       50
102
RTVSPost2010PropOp42
 70
     0
102
RTVSPost2010Prop43
 90
        3
102
RTVSPost2010PropOp43
 70
     0
102
RTVSPost2010Prop44ColorIndex
 90
        5
102
RTVSPost2010Prop44ColorRGB
 90
      255
102
RTVSPost2010PropOp44
 70
     0
102
RTVSPost2010Prop45
280
     0
102
RTVSPost2010PropOp45
 70
     1
102
RTVSPost2010Prop46
 90
       50
102
RTVSPost2010PropOp46
 70
     0
102
RTVSPost2010Prop47
 90
       50
102
RTVSPost2010PropOp47
 70
     0
102
RTVSPost2010Prop48
 90
       50
102
RTVSPost2010PropOp48
 70
     0
102
RTVSPost2010Prop49
280
     0
102
RTVSPost2010PropOp49
 70
     1
102
RTVSPost2010Prop50
 90
       50
102
RTVSPost2010PropOp50
 70
     0
102
RTVSPost2010Prop51ColorIndex
 90
      256
102
RTVSPost2010Prop51ColorRGB
 90
-16777216
102
RTVSPost2010PropOp51
 70
     0
102
RTVSPost2010Prop52
140
1.0
102
RTVSPost2010PropOp52
 70
     0
102
RTVSPost2010Prop53
 90
        2
102
RTVSPost2010PropOp53
 70
     0
102
RTVSPost2010Prop54
  1
strokes_ogs.tif
102
RTVSPost2010PropOp54
 70
     0
102
RTVSPost2010Prop55
280
     0
102
RTVSPost2010PropOp55
 70
     1
102
RTVSPost2010Prop56
140
1.0
102
RTVSPost2010PropOp56
 70
     0
102
RTVSPost2010Prop57
140
1.0
102
RTVSPost2010PropOp57
 70
     0
102
RTVSPropertyOp0
 70
     0
102
RTVSPropertyOp1
 70
     0
102
RTVSPropertyOp2
 70
     0
102
RTVSPropertyOp3
 70
     0
102
RTVSPropertyOp4
 70
     0
102
RTVSPropertyOp5
 70
     0
102
RTVSPropertyOp6
 70
     0
102
RTVSPropertyOp7
 70
     0
102
RTVSPropertyOp8
 70
     0
102
RTVSPropertyOp9
 70
     0
102
RTVSPropertyOp10
 70
     0
102
RTVSPropertyOp11
 70
     0
102
RTVSPropertyOp12
 70
     0
102
RTVSPropertyOp13
 70
     0
102
RTVSPropertyOp14
 70
     2
102
RTVSPropertyOp15
 70
     0
102
RTVSPropertyOp16
 70
     0
102
RTVSPropertyOp17
 70
     0
102
RTVSPropertyOp18
 70
     0
102
RTVSPropertyOp19
 70
     0
102
RTVSPropertyOp20
 70
     0
102
RTVSPropertyOp21
 70
     0
102
RTVSPropertyOp22
 70
     0
102
RTVSPropertyOp23
 70
     0
102
RTVSPropertyOp24
 70
     0
102
RTVSPropertyOp25
 70
     0
102
RTVSPropertyOp26
 70
     0
102
RTVSPropertyOp27
 70
     0
102
RTVSPropertyOp28
 70
     1
102
RTVSPropertyOp29
 70
     1
102
RTVSPropertyOp30
 70
     1
102
RTVSPropertyOp31
 70
     1
102
RTVSPropertyOp32
 70
     1
102
RTVSPropertyOp33
 70
     1
102
RTVSPropertyOp34
 70
     1
102
RTVSPropertyOp35
 70
     1
102
RTVSPropertyOp36
 70
     1
102
RTVSPropertyOp37
 70
     0
102
RTVSPropertyOp38
 70
     0
102
RTVSPropertyOp39
 70
     0
102
RTVSPropertyOp40
 70
     0
102
RTVSPropertyOp41
 70
     0
102
RTVSPropertyOp42
 70
     0
102
RTVSPropertyOp43
 70
     0
102
RTVSPropertyOp44
 70
     0
102
RTVSPropertyOp45
 70
     1
102
RTVSPropertyOp46
 70
     0
102
RTVSPropertyOp47
 70
     0
102
RTVSPropertyOp48
 70
     0
102
RTVSPropertyOp49
 70
     1
102
RTVSPropertyOp50
 70
     0
102
RTVSPropertyOp51
 70
     0
102
RTVSPropertyOp52
 70
     0
102
RTVSPropertyOp53
 70
     0
102
RTVSPropertyOp54
 70
     0
102
RTVSPropertyOp55
 70
     1
102
RTVSPropertyOp56
 70
     0
102
RTVSPropertyOp57
 70
     0
102
RTVSPropertyOp58
 70
     0
102
RTVSPropertyOp59
 70
     0
102
RTVSPropertyOp60
 70
     0
102
RTVSPropertyOp61
 70
     0
102
RTVSPropertyOp62
 70
     0
  0
XRECORD
  5
2857
102
{ACAD_REACTORS
330
2856
102
}
330
2856
100
AcDbXrecord
280
     1
102
RTVSPost2010Prop28
280
     0
102
RTVSPost2010PropOp28
 70
     1
102
RTVSPost2010Prop29
280
     1
102
RTVSPost2010PropOp29
 70
     1
102
RTVSPost2010Prop30
280
     1
102
RTVSPost2010PropOp30
 70
     1
102
RTVSPost2010Prop31
280
     0
102
RTVSPost2010PropOp31
 70
     1
102
RTVSPost2010Prop32
280
     0
102
RTVSPost2010PropOp32
 70
     1
102
RTVSPost2010Prop33
280
     0
102
RTVSPost2010PropOp33
 70
     1
102
RTVSPost2010Prop34
280
     0
102
RTVSPost2010PropOp34
 70
     1
102
RTVSPost2010Prop35
280
     0
102
RTVSPost2010PropOp35
 70
     1
102
RTVSPost2010Prop36
280
     0
102
RTVSPost2010PropOp36
 70
     1
102
RTVSPost2010Prop37
 90
       50
102
RTVSPost2010PropOp37
 70
     1
102
RTVSPost2010Prop38
140
0.0
102
RTVSPost2010PropOp38
 70
     1
102
RTVSPost2010Prop39
140
1.0
102
RTVSPost2010PropOp39
 70
     1
102
RTVSPost2010Prop40
 90
        0
102
RTVSPost2010PropOp40
 70
     1
102
RTVSPost2010Prop41ColorIndex
 90
       18
102
RTVSPost2010Prop41ColorRGB
 90
        0
102
RTVSPost2010PropOp41
 70
     1
102
RTVSPost2010Prop42
 90
       50
102
RTVSPost2010PropOp42
 70
     1
102
RTVSPost2010Prop43
 90
        3
102
RTVSPost2010PropOp43
 70
     1
102
RTVSPost2010Prop44ColorIndex
 90
        5
102
RTVSPost2010Prop44ColorRGB
 90
      255
102
RTVSPost2010PropOp44
 70
     1
102
RTVSPost2010Prop45
280
     0
102
RTVSPost2010PropOp45
 70
     1
102
RTVSPost2010Prop46
 90
       50
102
RTVSPost2010PropOp46
 70
     1
102
RTVSPost2010Prop47
 90
       50
102
RTVSPost2010PropOp47
 70
     1
102
RTVSPost2010Prop48
 90
       50
102
RTVSPost2010PropOp48
 70
     1
102
RTVSPost2010Prop49
280
     0
102
RTVSPost2010PropOp49
 70
     1
102
RTVSPost2010Prop50
 90
       50
102
RTVSPost2010PropOp50
 70
     1
102
RTVSPost2010Prop51ColorIndex
 90
      256
102
RTVSPost2010Prop51ColorRGB
 90
-16777216
102
RTVSPost2010PropOp51
 70
     0
102
RTVSPost2010Prop52
140
1.0
102
RTVSPost2010PropOp52
 70
     0
102
RTVSPost2010Prop53
 90
        2
102
RTVSPost2010PropOp53
 70
     1
102
RTVSPost2010Prop54
  1
strokes_ogs.tif
102
RTVSPost2010PropOp54
 70
     1
102
RTVSPost2010Prop55
280
     0
102
RTVSPost2010PropOp55
 70
     1
102
RTVSPost2010Prop56
140
1.0
102
RTVSPost2010PropOp56
 70
     1
102
RTVSPost2010Prop57
140
1.0
102
RTVSPost2010PropOp57
 70
     1
102
RTVSPropertyOp0
 70
     1
102
RTVSPropertyOp1
 70
     1
102
RTVSPropertyOp2
 70
     1
102
RTVSPropertyOp3
 70
     1
102
RTVSPropertyOp4
 70
     1
102
RTVSPropertyOp5
 70
     1
102
RTVSPropertyOp6
 70
     1
102
RTVSPropertyOp7
 70
     1
102
RTVSPropertyOp8
 70
     1
102
RTVSPropertyOp9
 70
     1
102
RTVSPropertyOp10
 70
     1
102
RTVSPropertyOp11
 70
     1
102
RTVSPropertyOp12
 70
     1
102
RTVSPropertyOp13
 70
     1
102
RTVSPropertyOp14
 70
     1
102
RTVSPropertyOp15
 70
     1
102
RTVSPropertyOp16
 70
     1
102
RTVSPropertyOp17
 70
     1
102
RTVSPropertyOp18
 70
     1
102
RTVSPropertyOp19
 70
     1
102
RTVSPropertyOp20
 70
     1
102
RTVSPropertyOp21
 70
     1
102
RTVSPropertyOp22
 70
     1
102
RTVSPropertyOp23
 70
     1
102
RTVSPropertyOp24
 70
     1
102
RTVSPropertyOp25
 70
     1
102
RTVSPropertyOp26
 70
     1
102
RTVSPropertyOp27
 70
     1
102
RTVSPropertyOp28
 70
     1
102
RTVSPropertyOp29
 70
     1
102
RTVSPropertyOp30
 70
     1
102
RTVSPropertyOp31
 70
     1
102
RTVSPropertyOp32
 70
     1
102
RTVSPropertyOp33
 70
     1
102
RTVSPropertyOp34
 70
     1
102
RTVSPropertyOp35
 70
     1
102
RTVSPropertyOp36
 70
     1
102
RTVSPropertyOp37
 70
     1
102
RTVSPropertyOp38
 70
     1
102
RTVSPropertyOp39
 70
     1
102
RTVSPropertyOp40
 70
     1
102
RTVSPropertyOp41
 70
     1
102
RTVSPropertyOp42
 70
     1
102
RTVSPropertyOp43
 70
     1
102
RTVSPropertyOp44
 70
     1
102
RTVSPropertyOp45
 70
     1
102
RTVSPropertyOp46
 70
     1
102
RTVSPropertyOp47
 70
     1
102
RTVSPropertyOp48
 70
     1
102
RTVSPropertyOp49
 70
     1
102
RTVSPropertyOp50
 70
     1
102
RTVSPropertyOp51
 70
     0
102
RTVSPropertyOp52
 70
     0
102
RTVSPropertyOp53
 70
     1
102
RTVSPropertyOp54
 70
     1
102
RTVSPropertyOp55
 70
     1
102
RTVSPropertyOp56
 70
     1
102
RTVSPropertyOp57
 70
     1
102
RTVSPropertyOp58
 70
     1
102
RTVSPropertyOp59
 70
     1
102
RTVSPropertyOp60
 70
     1
102
RTVSPropertyOp61
 70
     1
102
RTVSPropertyOp62
 70
     1
  0
XRECORD
  5
283B
102
{ACAD_REACTORS
330
283A
102
}
330
283A
100
AcDbXrecord
280
     1
102
RTVSPost2010Prop28
280
     0
102
RTVSPost2010PropOp28
 70
     1
102
RTVSPost2010Prop29
280
     1
102
RTVSPost2010PropOp29
 70
     1
102
RTVSPost2010Prop30
280
     1
102
RTVSPost2010PropOp30
 70
     1
102
RTVSPost2010Prop31
280
     0
102
RTVSPost2010PropOp31
 70
     1
102
RTVSPost2010Prop32
280
     0
102
RTVSPost2010PropOp32
 70
     1
102
RTVSPost2010Prop33
280
     0
102
RTVSPost2010PropOp33
 70
     1
102
RTVSPost2010Prop34
280
     0
102
RTVSPost2010PropOp34
 70
     1
102
RTVSPost2010Prop35
280
     0
102
RTVSPost2010PropOp35
 70
     1
102
RTVSPost2010Prop36
280
     0
102
RTVSPost2010PropOp36
 70
     1
102
RTVSPost2010Prop37
 90
       50
102
RTVSPost2010PropOp37
 70
     1
102
RTVSPost2010Prop38
140
0.0
102
RTVSPost2010PropOp38
 70
     1
102
RTVSPost2010Prop39
140
1.0
102
RTVSPost2010PropOp39
 70
     1
102
RTVSPost2010Prop40
 90
        0
102
RTVSPost2010PropOp40
 70
     1
102
RTVSPost2010Prop41ColorIndex
 90
       18
102
RTVSPost2010Prop41ColorRGB
 90
        0
102
RTVSPost2010PropOp41
 70
     1
102
RTVSPost2010Prop42
 90
       50
102
RTVSPost2010PropOp42
 70
     1
102
RTVSPost2010Prop43
 90
        3
102
RTVSPost2010PropOp43
 70
     1
102
RTVSPost2010Prop44ColorIndex
 90
        5
102
RTVSPost2010Prop44ColorRGB
 90
      255
102
RTVSPost2010PropOp44
 70
     1
102
RTVSPost2010Prop45
280
     0
102
RTVSPost2010PropOp45
 70
     1
102
RTVSPost2010Prop46
 90
       50
102
RTVSPost2010PropOp46
 70
     1
102
RTVSPost2010Prop47
 90
       50
102
RTVSPost2010PropOp47
 70
     1
102
RTVSPost2010Prop48
 90
       50
102
RTVSPost2010PropOp48
 70
     1
102
RTVSPost2010Prop49
280
     0
102
RTVSPost2010PropOp49
 70
     1
102
RTVSPost2010Prop50
 90
       50
102
RTVSPost2010PropOp50
 70
     1
102
RTVSPost2010Prop51ColorIndex
 90
      256
102
RTVSPost2010Prop51ColorRGB
 90
-16777216
102
RTVSPost2010PropOp51
 70
     0
102
RTVSPost2010Prop52
140
1.0
102
RTVSPost2010PropOp52
 70
     0
102
RTVSPost2010Prop53
 90
        2
102
RTVSPost2010PropOp53
 70
     1
102
RTVSPost2010Prop54
  1
strokes_ogs.tif
102
RTVSPost2010PropOp54
 70
     1
102
RTVSPost2010Prop55
280
     0
102
RTVSPost2010PropOp55
 70
     1
102
RTVSPost2010Prop56
140
1.0
102
RTVSPost2010PropOp56
 70
     1
102
RTVSPost2010Prop57
140
1.0
102
RTVSPost2010PropOp57
 70
     1
102
RTVSPropertyOp0
 70
     1
102
RTVSPropertyOp1
 70
     1
102
RTVSPropertyOp2
 70
     1
102
RTVSPropertyOp3
 70
     1
102
RTVSPropertyOp4
 70
     1
102
RTVSPropertyOp5
 70
     1
102
RTVSPropertyOp6
 70
     1
102
RTVSPropertyOp7
 70
     1
102
RTVSPropertyOp8
 70
     1
102
RTVSPropertyOp9
 70
     1
102
RTVSPropertyOp10
 70
     1
102
RTVSPropertyOp11
 70
     1
102
RTVSPropertyOp12
 70
     1
102
RTVSPropertyOp13
 70
     1
102
RTVSPropertyOp14
 70
     1
102
RTVSPropertyOp15
 70
     1
102
RTVSPropertyOp16
 70
     1
102
RTVSPropertyOp17
 70
     1
102
RTVSPropertyOp18
 70
     1
102
RTVSPropertyOp19
 70
     1
102
RTVSPropertyOp20
 70
     1
102
RTVSPropertyOp21
 70
     1
102
RTVSPropertyOp22
 70
     1
102
RTVSPropertyOp23
 70
     1
102
RTVSPropertyOp24
 70
     1
102
RTVSPropertyOp25
 70
     1
102
RTVSPropertyOp26
 70
     1
102
RTVSPropertyOp27
 70
     1
102
RTVSPropertyOp28
 70
     1
102
RTVSPropertyOp29
 70
     1
102
RTVSPropertyOp30
 70
     1
102
RTVSPropertyOp31
 70
     1
102
RTVSPropertyOp32
 70
     1
102
RTVSPropertyOp33
 70
     1
102
RTVSPropertyOp34
 70
     1
102
RTVSPropertyOp35
 70
     1
102
RTVSPropertyOp36
 70
     1
102
RTVSPropertyOp37
 70
     1
102
RTVSPropertyOp38
 70
     1
102
RTVSPropertyOp39
 70
     1
102
RTVSPropertyOp40
 70
     1
102
RTVSPropertyOp41
 70
     1
102
RTVSPropertyOp42
 70
     1
102
RTVSPropertyOp43
 70
     1
102
RTVSPropertyOp44
 70
     1
102
RTVSPropertyOp45
 70
     1
102
RTVSPropertyOp46
 70
     1
102
RTVSPropertyOp47
 70
     1
102
RTVSPropertyOp48
 70
     1
102
RTVSPropertyOp49
 70
     1
102
RTVSPropertyOp50
 70
     1
102
RTVSPropertyOp51
 70
     0
102
RTVSPropertyOp52
 70
     0
102
RTVSPropertyOp53
 70
     1
102
RTVSPropertyOp54
 70
     1
102
RTVSPropertyOp55
 70
     1
102
RTVSPropertyOp56
 70
     1
102
RTVSPropertyOp57
 70
     1
102
RTVSPropertyOp58
 70
     1
102
RTVSPropertyOp59
 70
     1
102
RTVSPropertyOp60
 70
     1
102
RTVSPropertyOp61
 70
     1
102
RTVSPropertyOp62
 70
     1
  0
XRECORD
  5
283D
102
{ACAD_REACTORS
330
283C
102
}
330
283C
100
AcDbXrecord
280
     1
102
RTVSPost2010Prop28
280
     0
102
RTVSPost2010PropOp28
 70
     1
102
RTVSPost2010Prop29
280
     1
102
RTVSPost2010PropOp29
 70
     1
102
RTVSPost2010Prop30
280
     1
102
RTVSPost2010PropOp30
 70
     1
102
RTVSPost2010Prop31
280
     0
102
RTVSPost2010PropOp31
 70
     1
102
RTVSPost2010Prop32
280
     0
102
RTVSPost2010PropOp32
 70
     1
102
RTVSPost2010Prop33
280
     0
102
RTVSPost2010PropOp33
 70
     1
102
RTVSPost2010Prop34
280
     0
102
RTVSPost2010PropOp34
 70
     1
102
RTVSPost2010Prop35
280
     0
102
RTVSPost2010PropOp35
 70
     1
102
RTVSPost2010Prop36
280
     0
102
RTVSPost2010PropOp36
 70
     1
102
RTVSPost2010Prop37
 90
       50
102
RTVSPost2010PropOp37
 70
     1
102
RTVSPost2010Prop38
140
0.0
102
RTVSPost2010PropOp38
 70
     1
102
RTVSPost2010Prop39
140
1.0
102
RTVSPost2010PropOp39
 70
     1
102
RTVSPost2010Prop40
 90
        0
102
RTVSPost2010PropOp40
 70
     1
102
RTVSPost2010Prop41ColorIndex
 90
       18
102
RTVSPost2010Prop41ColorRGB
 90
        0
102
RTVSPost2010PropOp41
 70
     1
102
RTVSPost2010Prop42
 90
       50
102
RTVSPost2010PropOp42
 70
     1
102
RTVSPost2010Prop43
 90
        3
102
RTVSPost2010PropOp43
 70
     1
102
RTVSPost2010Prop44ColorIndex
 90
        5
102
RTVSPost2010Prop44ColorRGB
 90
      255
102
RTVSPost2010PropOp44
 70
     1
102
RTVSPost2010Prop45
280
     0
102
RTVSPost2010PropOp45
 70
     1
102
RTVSPost2010Prop46
 90
       50
102
RTVSPost2010PropOp46
 70
     1
102
RTVSPost2010Prop47
 90
       50
102
RTVSPost2010PropOp47
 70
     1
102
RTVSPost2010Prop48
 90
       50
102
RTVSPost2010PropOp48
 70
     1
102
RTVSPost2010Prop49
280
     0
102
RTVSPost2010PropOp49
 70
     1
102
RTVSPost2010Prop50
 90
       50
102
RTVSPost2010PropOp50
 70
     1
102
RTVSPost2010Prop51ColorIndex
 90
      256
102
RTVSPost2010Prop51ColorRGB
 90
-16777216
102
RTVSPost2010PropOp51
 70
     0
102
RTVSPost2010Prop52
140
1.0
102
RTVSPost2010PropOp52
 70
     0
102
RTVSPost2010Prop53
 90
        2
102
RTVSPost2010PropOp53
 70
     1
102
RTVSPost2010Prop54
  1
strokes_ogs.tif
102
RTVSPost2010PropOp54
 70
     1
102
RTVSPost2010Prop55
280
     0
102
RTVSPost2010PropOp55
 70
     1
102
RTVSPost2010Prop56
140
1.0
102
RTVSPost2010PropOp56
 70
     1
102
RTVSPost2010Prop57
140
1.0
102
RTVSPost2010PropOp57
 70
     1
102
RTVSPropertyOp0
 70
     1
102
RTVSPropertyOp1
 70
     1
102
RTVSPropertyOp2
 70
     1
102
RTVSPropertyOp3
 70
     1
102
RTVSPropertyOp4
 70
     1
102
RTVSPropertyOp5
 70
     1
102
RTVSPropertyOp6
 70
     1
102
RTVSPropertyOp7
 70
     1
102
RTVSPropertyOp8
 70
     1
102
RTVSPropertyOp9
 70
     1
102
RTVSPropertyOp10
 70
     1
102
RTVSPropertyOp11
 70
     1
102
RTVSPropertyOp12
 70
     1
102
RTVSPropertyOp13
 70
     1
102
RTVSPropertyOp14
 70
     1
102
RTVSPropertyOp15
 70
     1
102
RTVSPropertyOp16
 70
     1
102
RTVSPropertyOp17
 70
     1
102
RTVSPropertyOp18
 70
     1
102
RTVSPropertyOp19
 70
     1
102
RTVSPropertyOp20
 70
     1
102
RTVSPropertyOp21
 70
     1
102
RTVSPropertyOp22
 70
     1
102
RTVSPropertyOp23
 70
     1
102
RTVSPropertyOp24
 70
     1
102
RTVSPropertyOp25
 70
     1
102
RTVSPropertyOp26
 70
     1
102
RTVSPropertyOp27
 70
     1
102
RTVSPropertyOp28
 70
     1
102
RTVSPropertyOp29
 70
     1
102
RTVSPropertyOp30
 70
     1
102
RTVSPropertyOp31
 70
     1
102
RTVSPropertyOp32
 70
     1
102
RTVSPropertyOp33
 70
     1
102
RTVSPropertyOp34
 70
     1
102
RTVSPropertyOp35
 70
     1
102
RTVSPropertyOp36
 70
     1
102
RTVSPropertyOp37
 70
     1
102
RTVSPropertyOp38
 70
     1
102
RTVSPropertyOp39
 70
     1
102
RTVSPropertyOp40
 70
     1
102
RTVSPropertyOp41
 70
     1
102
RTVSPropertyOp42
 70
     1
102
RTVSPropertyOp43
 70
     1
102
RTVSPropertyOp44
 70
     1
102
RTVSPropertyOp45
 70
     1
102
RTVSPropertyOp46
 70
     1
102
RTVSPropertyOp47
 70
     1
102
RTVSPropertyOp48
 70
     1
102
RTVSPropertyOp49
 70
     1
102
RTVSPropertyOp50
 70
     1
102
RTVSPropertyOp51
 70
     0
102
RTVSPropertyOp52
 70
     0
102
RTVSPropertyOp53
 70
     1
102
RTVSPropertyOp54
 70
     1
102
RTVSPropertyOp55
 70
     1
102
RTVSPropertyOp56
 70
     1
102
RTVSPropertyOp57
 70
     1
102
RTVSPropertyOp58
 70
     1
102
RTVSPropertyOp59
 70
     1
102
RTVSPropertyOp60
 70
     1
102
RTVSPropertyOp61
 70
     1
102
RTVSPropertyOp62
 70
     1
  0
XRECORD
  5
283F
102
{ACAD_REACTORS
330
283E
102
}
330
283E
100
AcDbXrecord
280
     1
102
RTVSPost2010Prop28
280
     0
102
RTVSPost2010PropOp28
 70
     1
102
RTVSPost2010Prop29
280
     1
102
RTVSPost2010PropOp29
 70
     1
102
RTVSPost2010Prop30
280
     1
102
RTVSPost2010PropOp30
 70
     1
102
RTVSPost2010Prop31
280
     0
102
RTVSPost2010PropOp31
 70
     1
102
RTVSPost2010Prop32
280
     0
102
RTVSPost2010PropOp32
 70
     1
102
RTVSPost2010Prop33
280
     0
102
RTVSPost2010PropOp33
 70
     1
102
RTVSPost2010Prop34
280
     0
102
RTVSPost2010PropOp34
 70
     1
102
RTVSPost2010Prop35
280
     0
102
RTVSPost2010PropOp35
 70
     1
102
RTVSPost2010Prop36
280
     0
102
RTVSPost2010PropOp36
 70
     1
102
RTVSPost2010Prop37
 90
       50
102
RTVSPost2010PropOp37
 70
     1
102
RTVSPost2010Prop38
140
0.0
102
RTVSPost2010PropOp38
 70
     1
102
RTVSPost2010Prop39
140
1.0
102
RTVSPost2010PropOp39
 70
     1
102
RTVSPost2010Prop40
 90
        0
102
RTVSPost2010PropOp40
 70
     1
102
RTVSPost2010Prop41ColorIndex
 90
       18
102
RTVSPost2010Prop41ColorRGB
 90
        0
102
RTVSPost2010PropOp41
 70
     1
102
RTVSPost2010Prop42
 90
       50
102
RTVSPost2010PropOp42
 70
     1
102
RTVSPost2010Prop43
 90
        3
102
RTVSPost2010PropOp43
 70
     1
102
RTVSPost2010Prop44ColorIndex
 90
        5
102
RTVSPost2010Prop44ColorRGB
 90
      255
102
RTVSPost2010PropOp44
 70
     1
102
RTVSPost2010Prop45
280
     0
102
RTVSPost2010PropOp45
 70
     1
102
RTVSPost2010Prop46
 90
       50
102
RTVSPost2010PropOp46
 70
     1
102
RTVSPost2010Prop47
 90
       50
102
RTVSPost2010PropOp47
 70
     1
102
RTVSPost2010Prop48
 90
       50
102
RTVSPost2010PropOp48
 70
     1
102
RTVSPost2010Prop49
280
     0
102
RTVSPost2010PropOp49
 70
     1
102
RTVSPost2010Prop50
 90
       50
102
RTVSPost2010PropOp50
 70
     1
102
RTVSPost2010Prop51ColorIndex
 90
      256
102
RTVSPost2010Prop51ColorRGB
 90
-16777216
102
RTVSPost2010PropOp51
 70
     0
102
RTVSPost2010Prop52
140
1.0
102
RTVSPost2010PropOp52
 70
     0
102
RTVSPost2010Prop53
 90
        2
102
RTVSPost2010PropOp53
 70
     1
102
RTVSPost2010Prop54
  1
strokes_ogs.tif
102
RTVSPost2010PropOp54
 70
     1
102
RTVSPost2010Prop55
280
     0
102
RTVSPost2010PropOp55
 70
     1
102
RTVSPost2010Prop56
140
1.0
102
RTVSPost2010PropOp56
 70
     1
102
RTVSPost2010Prop57
140
1.0
102
RTVSPost2010PropOp57
 70
     1
102
RTVSPropertyOp0
 70
     1
102
RTVSPropertyOp1
 70
     1
102
RTVSPropertyOp2
 70
     1
102
RTVSPropertyOp3
 70
     1
102
RTVSPropertyOp4
 70
     1
102
RTVSPropertyOp5
 70
     1
102
RTVSPropertyOp6
 70
     1
102
RTVSPropertyOp7
 70
     1
102
RTVSPropertyOp8
 70
     1
102
RTVSPropertyOp9
 70
     1
102
RTVSPropertyOp10
 70
     1
102
RTVSPropertyOp11
 70
     1
102
RTVSPropertyOp12
 70
     1
102
RTVSPropertyOp13
 70
     1
102
RTVSPropertyOp14
 70
     1
102
RTVSPropertyOp15
 70
     1
102
RTVSPropertyOp16
 70
     1
102
RTVSPropertyOp17
 70
     1
102
RTVSPropertyOp18
 70
     1
102
RTVSPropertyOp19
 70
     1
102
RTVSPropertyOp20
 70
     1
102
RTVSPropertyOp21
 70
     1
102
RTVSPropertyOp22
 70
     1
102
RTVSPropertyOp23
 70
     1
102
RTVSPropertyOp24
 70
     1
102
RTVSPropertyOp25
 70
     1
102
RTVSPropertyOp26
 70
     1
102
RTVSPropertyOp27
 70
     1
102
RTVSPropertyOp28
 70
     1
102
RTVSPropertyOp29
 70
     1
102
RTVSPropertyOp30
 70
     1
102
RTVSPropertyOp31
 70
     1
102
RTVSPropertyOp32
 70
     1
102
RTVSPropertyOp33
 70
     1
102
RTVSPropertyOp34
 70
     1
102
RTVSPropertyOp35
 70
     1
102
RTVSPropertyOp36
 70
     1
102
RTVSPropertyOp37
 70
     1
102
RTVSPropertyOp38
 70
     1
102
RTVSPropertyOp39
 70
     1
102
RTVSPropertyOp40
 70
     1
102
RTVSPropertyOp41
 70
     1
102
RTVSPropertyOp42
 70
     1
102
RTVSPropertyOp43
 70
     1
102
RTVSPropertyOp44
 70
     1
102
RTVSPropertyOp45
 70
     1
102
RTVSPropertyOp46
 70
     1
102
RTVSPropertyOp47
 70
     1
102
RTVSPropertyOp48
 70
     1
102
RTVSPropertyOp49
 70
     1
102
RTVSPropertyOp50
 70
     1
102
RTVSPropertyOp51
 70
     0
102
RTVSPropertyOp52
 70
     0
102
RTVSPropertyOp53
 70
     1
102
RTVSPropertyOp54
 70
     1
102
RTVSPropertyOp55
 70
     1
102
RTVSPropertyOp56
 70
     1
102
RTVSPropertyOp57
 70
     1
102
RTVSPropertyOp58
 70
     1
102
RTVSPropertyOp59
 70
     1
102
RTVSPropertyOp60
 70
     1
102
RTVSPropertyOp61
 70
     1
102
RTVSPropertyOp62
 70
     1
  0
XRECORD
  5
2841
102
{ACAD_REACTORS
330
2840
102
}
330
2840
100
AcDbXrecord
280
     1
102
RTVSPost2010Prop28
280
     0
102
RTVSPost2010PropOp28
 70
     1
102
RTVSPost2010Prop29
280
     1
102
RTVSPost2010PropOp29
 70
     1
102
RTVSPost2010Prop30
280
     1
102
RTVSPost2010PropOp30
 70
     1
102
RTVSPost2010Prop31
280
     0
102
RTVSPost2010PropOp31
 70
     1
102
RTVSPost2010Prop32
280
     0
102
RTVSPost2010PropOp32
 70
     1
102
RTVSPost2010Prop33
280
     0
102
RTVSPost2010PropOp33
 70
     1
102
RTVSPost2010Prop34
280
     0
102
RTVSPost2010PropOp34
 70
     1
102
RTVSPost2010Prop35
280
     0
102
RTVSPost2010PropOp35
 70
     1
102
RTVSPost2010Prop36
280
     0
102
RTVSPost2010PropOp36
 70
     1
102
RTVSPost2010Prop37
 90
       50
102
RTVSPost2010PropOp37
 70
     1
102
RTVSPost2010Prop38
140
0.0
102
RTVSPost2010PropOp38
 70
     1
102
RTVSPost2010Prop39
140
1.0
102
RTVSPost2010PropOp39
 70
     1
102
RTVSPost2010Prop40
 90
        0
102
RTVSPost2010PropOp40
 70
     1
102
RTVSPost2010Prop41ColorIndex
 90
       18
102
RTVSPost2010Prop41ColorRGB
 90
        0
102
RTVSPost2010PropOp41
 70
     1
102
RTVSPost2010Prop42
 90
       50
102
RTVSPost2010PropOp42
 70
     1
102
RTVSPost2010Prop43
 90
        3
102
RTVSPost2010PropOp43
 70
     1
102
RTVSPost2010Prop44ColorIndex
 90
        5
102
RTVSPost2010Prop44ColorRGB
 90
      255
102
RTVSPost2010PropOp44
 70
     1
102
RTVSPost2010Prop45
280
     0
102
RTVSPost2010PropOp45
 70
     1
102
RTVSPost2010Prop46
 90
       50
102
RTVSPost2010PropOp46
 70
     1
102
RTVSPost2010Prop47
 90
       50
102
RTVSPost2010PropOp47
 70
     1
102
RTVSPost2010Prop48
 90
       50
102
RTVSPost2010PropOp48
 70
     1
102
RTVSPost2010Prop49
280
     0
102
RTVSPost2010PropOp49
 70
     1
102
RTVSPost2010Prop50
 90
       50
102
RTVSPost2010PropOp50
 70
     1
102
RTVSPost2010Prop51ColorIndex
 90
      256
102
RTVSPost2010Prop51ColorRGB
 90
-16777216
102
RTVSPost2010PropOp51
 70
     0
102
RTVSPost2010Prop52
140
1.0
102
RTVSPost2010PropOp52
 70
     0
102
RTVSPost2010Prop53
 90
        2
102
RTVSPost2010PropOp53
 70
     1
102
RTVSPost2010Prop54
  1
strokes_ogs.tif
102
RTVSPost2010PropOp54
 70
     1
102
RTVSPost2010Prop55
280
     0
102
RTVSPost2010PropOp55
 70
     1
102
RTVSPost2010Prop56
140
1.0
102
RTVSPost2010PropOp56
 70
     1
102
RTVSPost2010Prop57
140
1.0
102
RTVSPost2010PropOp57
 70
     1
102
RTVSPropertyOp0
 70
     1
102
RTVSPropertyOp1
 70
     1
102
RTVSPropertyOp2
 70
     1
102
RTVSPropertyOp3
 70
     1
102
RTVSPropertyOp4
 70
     1
102
RTVSPropertyOp5
 70
     1
102
RTVSPropertyOp6
 70
     1
102
RTVSPropertyOp7
 70
     1
102
RTVSPropertyOp8
 70
     1
102
RTVSPropertyOp9
 70
     1
102
RTVSPropertyOp10
 70
     1
102
RTVSPropertyOp11
 70
     1
102
RTVSPropertyOp12
 70
     1
102
RTVSPropertyOp13
 70
     1
102
RTVSPropertyOp14
 70
     1
102
RTVSPropertyOp15
 70
     1
102
RTVSPropertyOp16
 70
     1
102
RTVSPropertyOp17
 70
     1
102
RTVSPropertyOp18
 70
     1
102
RTVSPropertyOp19
 70
     1
102
RTVSPropertyOp20
 70
     1
102
RTVSPropertyOp21
 70
     1
102
RTVSPropertyOp22
 70
     1
102
RTVSPropertyOp23
 70
     1
102
RTVSPropertyOp24
 70
     1
102
RTVSPropertyOp25
 70
     1
102
RTVSPropertyOp26
 70
     1
102
RTVSPropertyOp27
 70
     1
102
RTVSPropertyOp28
 70
     1
102
RTVSPropertyOp29
 70
     1
102
RTVSPropertyOp30
 70
     1
102
RTVSPropertyOp31
 70
     1
102
RTVSPropertyOp32
 70
     1
102
RTVSPropertyOp33
 70
     1
102
RTVSPropertyOp34
 70
     1
102
RTVSPropertyOp35
 70
     1
102
RTVSPropertyOp36
 70
     1
102
RTVSPropertyOp37
 70
     1
102
RTVSPropertyOp38
 70
     1
102
RTVSPropertyOp39
 70
     1
102
RTVSPropertyOp40
 70
     1
102
RTVSPropertyOp41
 70
     1
102
RTVSPropertyOp42
 70
     1
102
RTVSPropertyOp43
 70
     1
102
RTVSPropertyOp44
 70
     1
102
RTVSPropertyOp45
 70
     1
102
RTVSPropertyOp46
 70
     1
102
RTVSPropertyOp47
 70
     1
102
RTVSPropertyOp48
 70
     1
102
RTVSPropertyOp49
 70
     1
102
RTVSPropertyOp50
 70
     1
102
RTVSPropertyOp51
 70
     0
102
RTVSPropertyOp52
 70
     0
102
RTVSPropertyOp53
 70
     1
102
RTVSPropertyOp54
 70
     1
102
RTVSPropertyOp55
 70
     1
102
RTVSPropertyOp56
 70
     1
102
RTVSPropertyOp57
 70
     1
102
RTVSPropertyOp58
 70
     1
102
RTVSPropertyOp59
 70
     1
102
RTVSPropertyOp60
 70
     1
102
RTVSPropertyOp61
 70
     1
102
RTVSPropertyOp62
 70
     1
  0
XRECORD
  5
2849
102
{ACAD_REACTORS
330
2848
102
}
330
2848
100
AcDbXrecord
280
     1
102
RTVSPost2010Prop28
280
     0
102
RTVSPost2010PropOp28
 70
     1
102
RTVSPost2010Prop29
280
     1
102
RTVSPost2010PropOp29
 70
     1
102
RTVSPost2010Prop30
280
     1
102
RTVSPost2010PropOp30
 70
     1
102
RTVSPost2010Prop31
280
     0
102
RTVSPost2010PropOp31
 70
     1
102
RTVSPost2010Prop32
280
     0
102
RTVSPost2010PropOp32
 70
     1
102
RTVSPost2010Prop33
280
     0
102
RTVSPost2010PropOp33
 70
     1
102
RTVSPost2010Prop34
280
     0
102
RTVSPost2010PropOp34
 70
     1
102
RTVSPost2010Prop35
280
     0
102
RTVSPost2010PropOp35
 70
     1
102
RTVSPost2010Prop36
280
     0
102
RTVSPost2010PropOp36
 70
     1
102
RTVSPost2010Prop37
 90
       50
102
RTVSPost2010PropOp37
 70
     1
102
RTVSPost2010Prop38
140
0.0
102
RTVSPost2010PropOp38
 70
     1
102
RTVSPost2010Prop39
140
1.0
102
RTVSPost2010PropOp39
 70
     1
102
RTVSPost2010Prop40
 90
        0
102
RTVSPost2010PropOp40
 70
     1
102
RTVSPost2010Prop41ColorIndex
 90
       18
102
RTVSPost2010Prop41ColorRGB
 90
        0
102
RTVSPost2010PropOp41
 70
     1
102
RTVSPost2010Prop42
 90
       50
102
RTVSPost2010PropOp42
 70
     1
102
RTVSPost2010Prop43
 90
        3
102
RTVSPost2010PropOp43
 70
     1
102
RTVSPost2010Prop44ColorIndex
 90
        5
102
RTVSPost2010Prop44ColorRGB
 90
      255
102
RTVSPost2010PropOp44
 70
     1
102
RTVSPost2010Prop45
280
     0
102
RTVSPost2010PropOp45
 70
     1
102
RTVSPost2010Prop46
 90
       50
102
RTVSPost2010PropOp46
 70
     1
102
RTVSPost2010Prop47
 90
       50
102
RTVSPost2010PropOp47
 70
     1
102
RTVSPost2010Prop48
 90
       50
102
RTVSPost2010PropOp48
 70
     1
102
RTVSPost2010Prop49
280
     0
102
RTVSPost2010PropOp49
 70
     1
102
RTVSPost2010Prop50
 90
       50
102
RTVSPost2010PropOp50
 70
     1
102
RTVSPost2010Prop51ColorIndex
 90
      256
102
RTVSPost2010Prop51ColorRGB
 90
-16777216
102
RTVSPost2010PropOp51
 70
     0
102
RTVSPost2010Prop52
140
1.0
102
RTVSPost2010PropOp52
 70
     0
102
RTVSPost2010Prop53
 90
        2
102
RTVSPost2010PropOp53
 70
     1
102
RTVSPost2010Prop54
  1
strokes_ogs.tif
102
RTVSPost2010PropOp54
 70
     1
102
RTVSPost2010Prop55
280
     0
102
RTVSPost2010PropOp55
 70
     1
102
RTVSPost2010Prop56
140
1.0
102
RTVSPost2010PropOp56
 70
     1
102
RTVSPost2010Prop57
140
1.0
102
RTVSPost2010PropOp57
 70
     1
102
RTVSPropertyOp0
 70
     1
102
RTVSPropertyOp1
 70
     1
102
RTVSPropertyOp2
 70
     1
102
RTVSPropertyOp3
 70
     1
102
RTVSPropertyOp4
 70
     1
102
RTVSPropertyOp5
 70
     1
102
RTVSPropertyOp6
 70
     1
102
RTVSPropertyOp7
 70
     1
102
RTVSPropertyOp8
 70
     1
102
RTVSPropertyOp9
 70
     1
102
RTVSPropertyOp10
 70
     1
102
RTVSPropertyOp11
 70
     1
102
RTVSPropertyOp12
 70
     1
102
RTVSPropertyOp13
 70
     1
102
RTVSPropertyOp14
 70
     1
102
RTVSPropertyOp15
 70
     1
102
RTVSPropertyOp16
 70
     1
102
RTVSPropertyOp17
 70
     1
102
RTVSPropertyOp18
 70
     1
102
RTVSPropertyOp19
 70
     1
102
RTVSPropertyOp20
 70
     1
102
RTVSPropertyOp21
 70
     1
102
RTVSPropertyOp22
 70
     1
102
RTVSPropertyOp23
 70
     1
102
RTVSPropertyOp24
 70
     1
102
RTVSPropertyOp25
 70
     1
102
RTVSPropertyOp26
 70
     1
102
RTVSPropertyOp27
 70
     1
102
RTVSPropertyOp28
 70
     1
102
RTVSPropertyOp29
 70
     1
102
RTVSPropertyOp30
 70
     1
102
RTVSPropertyOp31
 70
     1
102
RTVSPropertyOp32
 70
     1
102
RTVSPropertyOp33
 70
     1
102
RTVSPropertyOp34
 70
     1
102
RTVSPropertyOp35
 70
     1
102
RTVSPropertyOp36
 70
     1
102
RTVSPropertyOp37
 70
     1
102
RTVSPropertyOp38
 70
     1
102
RTVSPropertyOp39
 70
     1
102
RTVSPropertyOp40
 70
     1
102
RTVSPropertyOp41
 70
     1
102
RTVSPropertyOp42
 70
     1
102
RTVSPropertyOp43
 70
     1
102
RTVSPropertyOp44
 70
     1
102
RTVSPropertyOp45
 70
     1
102
RTVSPropertyOp46
 70
     1
102
RTVSPropertyOp47
 70
     1
102
RTVSPropertyOp48
 70
     1
102
RTVSPropertyOp49
 70
     1
102
RTVSPropertyOp50
 70
     1
102
RTVSPropertyOp51
 70
     0
102
RTVSPropertyOp52
 70
     0
102
RTVSPropertyOp53
 70
     1
102
RTVSPropertyOp54
 70
     1
102
RTVSPropertyOp55
 70
     1
102
RTVSPropertyOp56
 70
     1
102
RTVSPropertyOp57
 70
     1
102
RTVSPropertyOp58
 70
     1
102
RTVSPropertyOp59
 70
     1
102
RTVSPropertyOp60
 70
     1
102
RTVSPropertyOp61
 70
     1
102
RTVSPropertyOp62
 70
     1
  0
XRECORD
  5
2865
102
{ACAD_REACTORS
330
2864
102
}
330
2864
100
AcDbXrecord
280
     1
102
RTVSPost2010Prop28
280
     0
102
RTVSPost2010PropOp28
 70
     1
102
RTVSPost2010Prop29
280
     1
102
RTVSPost2010PropOp29
 70
     1
102
RTVSPost2010Prop30
280
     1
102
RTVSPost2010PropOp30
 70
     1
102
RTVSPost2010Prop31
280
     0
102
RTVSPost2010PropOp31
 70
     1
102
RTVSPost2010Prop32
280
     0
102
RTVSPost2010PropOp32
 70
     1
102
RTVSPost2010Prop33
280
     0
102
RTVSPost2010PropOp33
 70
     1
102
RTVSPost2010Prop34
280
     0
102
RTVSPost2010PropOp34
 70
     1
102
RTVSPost2010Prop35
280
     0
102
RTVSPost2010PropOp35
 70
     1
102
RTVSPost2010Prop36
280
     0
102
RTVSPost2010PropOp36
 70
     1
102
RTVSPost2010Prop37
 90
       50
102
RTVSPost2010PropOp37
 70
     0
102
RTVSPost2010Prop38
140
0.0
102
RTVSPost2010PropOp38
 70
     0
102
RTVSPost2010Prop39
140
1.0
102
RTVSPost2010PropOp39
 70
     0
102
RTVSPost2010Prop40
 90
        0
102
RTVSPost2010PropOp40
 70
     0
102
RTVSPost2010Prop41ColorIndex
 90
       18
102
RTVSPost2010Prop41ColorRGB
 90
        0
102
RTVSPost2010PropOp41
 70
     0
102
RTVSPost2010Prop42
 90
       50
102
RTVSPost2010PropOp42
 70
     0
102
RTVSPost2010Prop43
 90
        3
102
RTVSPost2010PropOp43
 70
     0
102
RTVSPost2010Prop44ColorIndex
 90
        5
102
RTVSPost2010Prop44ColorRGB
 90
      255
102
RTVSPost2010PropOp44
 70
     0
102
RTVSPost2010Prop45
280
     0
102
RTVSPost2010PropOp45
 70
     1
102
RTVSPost2010Prop46
 90
       50
102
RTVSPost2010PropOp46
 70
     0
102
RTVSPost2010Prop47
 90
       50
102
RTVSPost2010PropOp47
 70
     0
102
RTVSPost2010Prop48
 90
       50
102
RTVSPost2010PropOp48
 70
     0
102
RTVSPost2010Prop49
280
     0
102
RTVSPost2010PropOp49
 70
     1
102
RTVSPost2010Prop50
 90
       50
102
RTVSPost2010PropOp50
 70
     0
102
RTVSPost2010Prop51ColorIndex
 90
      256
102
RTVSPost2010Prop51ColorRGB
 90
-16777216
102
RTVSPost2010PropOp51
 70
     0
102
RTVSPost2010Prop52
140
1.0
102
RTVSPost2010PropOp52
 70
     0
102
RTVSPost2010Prop53
 90
        2
102
RTVSPost2010PropOp53
 70
     0
102
RTVSPost2010Prop54
  1
strokes_ogs.tif
102
RTVSPost2010PropOp54
 70
     0
102
RTVSPost2010Prop55
280
     0
102
RTVSPost2010PropOp55
 70
     1
102
RTVSPost2010Prop56
140
1.0
102
RTVSPost2010PropOp56
 70
     0
102
RTVSPost2010Prop57
140
1.0
102
RTVSPost2010PropOp57
 70
     0
102
RTVSPropertyOp0
 70
     0
102
RTVSPropertyOp1
 70
     0
102
RTVSPropertyOp2
 70
     0
102
RTVSPropertyOp3
 70
     0
102
RTVSPropertyOp4
 70
     0
102
RTVSPropertyOp5
 70
     0
102
RTVSPropertyOp6
 70
     0
102
RTVSPropertyOp7
 70
     0
102
RTVSPropertyOp8
 70
     0
102
RTVSPropertyOp9
 70
     0
102
RTVSPropertyOp10
 70
     0
102
RTVSPropertyOp11
 70
     0
102
RTVSPropertyOp12
 70
     0
102
RTVSPropertyOp13
 70
     0
102
RTVSPropertyOp14
 70
     2
102
RTVSPropertyOp15
 70
     0
102
RTVSPropertyOp16
 70
     0
102
RTVSPropertyOp17
 70
     0
102
RTVSPropertyOp18
 70
     0
102
RTVSPropertyOp19
 70
     0
102
RTVSPropertyOp20
 70
     0
102
RTVSPropertyOp21
 70
     0
102
RTVSPropertyOp22
 70
     0
102
RTVSPropertyOp23
 70
     0
102
RTVSPropertyOp24
 70
     0
102
RTVSPropertyOp25
 70
     0
102
RTVSPropertyOp26
 70
     0
102
RTVSPropertyOp27
 70
     0
102
RTVSPropertyOp28
 70
     1
102
RTVSPropertyOp29
 70
     1
102
RTVSPropertyOp30
 70
     1
102
RTVSPropertyOp31
 70
     1
102
RTVSPropertyOp32
 70
     1
102
RTVSPropertyOp33
 70
     1
102
RTVSPropertyOp34
 70
     1
102
RTVSPropertyOp35
 70
     1
102
RTVSPropertyOp36
 70
     1
102
RTVSPropertyOp37
 70
     0
102
RTVSPropertyOp38
 70
     0
102
RTVSPropertyOp39
 70
     0
102
RTVSPropertyOp40
 70
     0
102
RTVSPropertyOp41
 70
     0
102
RTVSPropertyOp42
 70
     0
102
RTVSPropertyOp43
 70
     0
102
RTVSPropertyOp44
 70
     0
102
RTVSPropertyOp45
 70
     1
102
RTVSPropertyOp46
 70
     0
102
RTVSPropertyOp47
 70
     0
102
RTVSPropertyOp48
 70
     0
102
RTVSPropertyOp49
 70
     1
102
RTVSPropertyOp50
 70
     0
102
RTVSPropertyOp51
 70
     0
102
RTVSPropertyOp52
 70
     0
102
RTVSPropertyOp53
 70
     0
102
RTVSPropertyOp54
 70
     0
102
RTVSPropertyOp55
 70
     1
102
RTVSPropertyOp56
 70
     0
102
RTVSPropertyOp57
 70
     0
102
RTVSPropertyOp58
 70
     0
102
RTVSPropertyOp59
 70
     0
102
RTVSPropertyOp60
 70
     0
102
RTVSPropertyOp61
 70
     0
102
RTVSPropertyOp62
 70
     0
  0
XRECORD
  5
2855
102
{ACAD_REACTORS
330
2854
102
}
330
2854
100
AcDbXrecord
280
     1
102
RTVSPost2010Prop28
280
     0
102
RTVSPost2010PropOp28
 70
     1
102
RTVSPost2010Prop29
280
     1
102
RTVSPost2010PropOp29
 70
     1
102
RTVSPost2010Prop30
280
     1
102
RTVSPost2010PropOp30
 70
     1
102
RTVSPost2010Prop31
280
     0
102
RTVSPost2010PropOp31
 70
     1
102
RTVSPost2010Prop32
280
     0
102
RTVSPost2010PropOp32
 70
     1
102
RTVSPost2010Prop33
280
     0
102
RTVSPost2010PropOp33
 70
     1
102
RTVSPost2010Prop34
280
     0
102
RTVSPost2010PropOp34
 70
     1
102
RTVSPost2010Prop35
280
     0
102
RTVSPost2010PropOp35
 70
     1
102
RTVSPost2010Prop36
280
     0
102
RTVSPost2010PropOp36
 70
     1
102
RTVSPost2010Prop37
 90
       50
102
RTVSPost2010PropOp37
 70
     1
102
RTVSPost2010Prop38
140
0.0
102
RTVSPost2010PropOp38
 70
     1
102
RTVSPost2010Prop39
140
1.0
102
RTVSPost2010PropOp39
 70
     1
102
RTVSPost2010Prop40
 90
        0
102
RTVSPost2010PropOp40
 70
     1
102
RTVSPost2010Prop41ColorIndex
 90
       18
102
RTVSPost2010Prop41ColorRGB
 90
        0
102
RTVSPost2010PropOp41
 70
     1
102
RTVSPost2010Prop42
 90
       50
102
RTVSPost2010PropOp42
 70
     1
102
RTVSPost2010Prop43
 90
        3
102
RTVSPost2010PropOp43
 70
     1
102
RTVSPost2010Prop44ColorIndex
 90
        5
102
RTVSPost2010Prop44ColorRGB
 90
      255
102
RTVSPost2010PropOp44
 70
     1
102
RTVSPost2010Prop45
280
     0
102
RTVSPost2010PropOp45
 70
     1
102
RTVSPost2010Prop46
 90
       50
102
RTVSPost2010PropOp46
 70
     1
102
RTVSPost2010Prop47
 90
       50
102
RTVSPost2010PropOp47
 70
     1
102
RTVSPost2010Prop48
 90
       50
102
RTVSPost2010PropOp48
 70
     1
102
RTVSPost2010Prop49
280
     0
102
RTVSPost2010PropOp49
 70
     1
102
RTVSPost2010Prop50
 90
       50
102
RTVSPost2010PropOp50
 70
     1
102
RTVSPost2010Prop51ColorIndex
 90
      256
102
RTVSPost2010Prop51ColorRGB
 90
-16777216
102
RTVSPost2010PropOp51
 70
     0
102
RTVSPost2010Prop52
140
1.0
102
RTVSPost2010PropOp52
 70
     0
102
RTVSPost2010Prop53
 90
        2
102
RTVSPost2010PropOp53
 70
     1
102
RTVSPost2010Prop54
  1
strokes_ogs.tif
102
RTVSPost2010PropOp54
 70
     1
102
RTVSPost2010Prop55
280
     0
102
RTVSPost2010PropOp55
 70
     1
102
RTVSPost2010Prop56
140
1.0
102
RTVSPost2010PropOp56
 70
     1
102
RTVSPost2010Prop57
140
1.0
102
RTVSPost2010PropOp57
 70
     1
102
RTVSPropertyOp0
 70
     1
102
RTVSPropertyOp1
 70
     1
102
RTVSPropertyOp2
 70
     1
102
RTVSPropertyOp3
 70
     1
102
RTVSPropertyOp4
 70
     1
102
RTVSPropertyOp5
 70
     1
102
RTVSPropertyOp6
 70
     1
102
RTVSPropertyOp7
 70
     1
102
RTVSPropertyOp8
 70
     1
102
RTVSPropertyOp9
 70
     1
102
RTVSPropertyOp10
 70
     1
102
RTVSPropertyOp11
 70
     1
102
RTVSPropertyOp12
 70
     1
102
RTVSPropertyOp13
 70
     1
102
RTVSPropertyOp14
 70
     1
102
RTVSPropertyOp15
 70
     1
102
RTVSPropertyOp16
 70
     1
102
RTVSPropertyOp17
 70
     1
102
RTVSPropertyOp18
 70
     1
102
RTVSPropertyOp19
 70
     1
102
RTVSPropertyOp20
 70
     1
102
RTVSPropertyOp21
 70
     1
102
RTVSPropertyOp22
 70
     1
102
RTVSPropertyOp23
 70
     1
102
RTVSPropertyOp24
 70
     1
102
RTVSPropertyOp25
 70
     1
102
RTVSPropertyOp26
 70
     1
102
RTVSPropertyOp27
 70
     1
102
RTVSPropertyOp28
 70
     1
102
RTVSPropertyOp29
 70
     1
102
RTVSPropertyOp30
 70
     1
102
RTVSPropertyOp31
 70
     1
102
RTVSPropertyOp32
 70
     1
102
RTVSPropertyOp33
 70
     1
102
RTVSPropertyOp34
 70
     1
102
RTVSPropertyOp35
 70
     1
102
RTVSPropertyOp36
 70
     1
102
RTVSPropertyOp37
 70
     1
102
RTVSPropertyOp38
 70
     1
102
RTVSPropertyOp39
 70
     1
102
RTVSPropertyOp40
 70
     1
102
RTVSPropertyOp41
 70
     1
102
RTVSPropertyOp42
 70
     1
102
RTVSPropertyOp43
 70
     1
102
RTVSPropertyOp44
 70
     1
102
RTVSPropertyOp45
 70
     1
102
RTVSPropertyOp46
 70
     1
102
RTVSPropertyOp47
 70
     1
102
RTVSPropertyOp48
 70
     1
102
RTVSPropertyOp49
 70
     1
102
RTVSPropertyOp50
 70
     1
102
RTVSPropertyOp51
 70
     0
102
RTVSPropertyOp52
 70
     0
102
RTVSPropertyOp53
 70
     1
102
RTVSPropertyOp54
 70
     1
102
RTVSPropertyOp55
 70
     1
102
RTVSPropertyOp56
 70
     1
102
RTVSPropertyOp57
 70
     1
102
RTVSPropertyOp58
 70
     1
102
RTVSPropertyOp59
 70
     1
102
RTVSPropertyOp60
 70
     1
102
RTVSPropertyOp61
 70
     1
102
RTVSPropertyOp62
 70
     1
  0
XRECORD
  5
2867
102
{ACAD_REACTORS
330
2866
102
}
330
2866
100
AcDbXrecord
280
     1
102
RTVSPost2010Prop28
280
     0
102
RTVSPost2010PropOp28
 70
     1
102
RTVSPost2010Prop29
280
     1
102
RTVSPost2010PropOp29
 70
     1
102
RTVSPost2010Prop30
280
     1
102
RTVSPost2010PropOp30
 70
     1
102
RTVSPost2010Prop31
280
     0
102
RTVSPost2010PropOp31
 70
     1
102
RTVSPost2010Prop32
280
     0
102
RTVSPost2010PropOp32
 70
     1
102
RTVSPost2010Prop33
280
     0
102
RTVSPost2010PropOp33
 70
     1
102
RTVSPost2010Prop34
280
     0
102
RTVSPost2010PropOp34
 70
     1
102
RTVSPost2010Prop35
280
     0
102
RTVSPost2010PropOp35
 70
     1
102
RTVSPost2010Prop36
280
     0
102
RTVSPost2010PropOp36
 70
     1
102
RTVSPost2010Prop37
 90
       50
102
RTVSPost2010PropOp37
 70
     0
102
RTVSPost2010Prop38
140
0.0
102
RTVSPost2010PropOp38
 70
     0
102
RTVSPost2010Prop39
140
1.0
102
RTVSPost2010PropOp39
 70
     0
102
RTVSPost2010Prop40
 90
        0
102
RTVSPost2010PropOp40
 70
     0
102
RTVSPost2010Prop41ColorIndex
 90
       18
102
RTVSPost2010Prop41ColorRGB
 90
        0
102
RTVSPost2010PropOp41
 70
     0
102
RTVSPost2010Prop42
 90
       50
102
RTVSPost2010PropOp42
 70
     0
102
RTVSPost2010Prop43
 90
        3
102
RTVSPost2010PropOp43
 70
     0
102
RTVSPost2010Prop44ColorIndex
 90
        5
102
RTVSPost2010Prop44ColorRGB
 90
      255
102
RTVSPost2010PropOp44
 70
     0
102
RTVSPost2010Prop45
280
     0
102
RTVSPost2010PropOp45
 70
     1
102
RTVSPost2010Prop46
 90
       50
102
RTVSPost2010PropOp46
 70
     0
102
RTVSPost2010Prop47
 90
       50
102
RTVSPost2010PropOp47
 70
     0
102
RTVSPost2010Prop48
 90
       50
102
RTVSPost2010PropOp48
 70
     0
102
RTVSPost2010Prop49
280
     0
102
RTVSPost2010PropOp49
 70
     1
102
RTVSPost2010Prop50
 90
       50
102
RTVSPost2010PropOp50
 70
     0
102
RTVSPost2010Prop51ColorIndex
 90
      256
102
RTVSPost2010Prop51ColorRGB
 90
-16777216
102
RTVSPost2010PropOp51
 70
     0
102
RTVSPost2010Prop52
140
1.0
102
RTVSPost2010PropOp52
 70
     0
102
RTVSPost2010Prop53
 90
        2
102
RTVSPost2010PropOp53
 70
     0
102
RTVSPost2010Prop54
  1
strokes_ogs.tif
102
RTVSPost2010PropOp54
 70
     0
102
RTVSPost2010Prop55
280
     0
102
RTVSPost2010PropOp55
 70
     1
102
RTVSPost2010Prop56
140
1.0
102
RTVSPost2010PropOp56
 70
     0
102
RTVSPost2010Prop57
140
1.0
102
RTVSPost2010PropOp57
 70
     0
102
RTVSPropertyOp0
 70
     0
102
RTVSPropertyOp1
 70
     0
102
RTVSPropertyOp2
 70
     0
102
RTVSPropertyOp3
 70
     0
102
RTVSPropertyOp4
 70
     0
102
RTVSPropertyOp5
 70
     0
102
RTVSPropertyOp6
 70
     0
102
RTVSPropertyOp7
 70
     0
102
RTVSPropertyOp8
 70
     0
102
RTVSPropertyOp9
 70
     0
102
RTVSPropertyOp10
 70
     0
102
RTVSPropertyOp11
 70
     0
102
RTVSPropertyOp12
 70
     0
102
RTVSPropertyOp13
 70
     0
102
RTVSPropertyOp14
 70
     2
102
RTVSPropertyOp15
 70
     0
102
RTVSPropertyOp16
 70
     0
102
RTVSPropertyOp17
 70
     0
102
RTVSPropertyOp18
 70
     0
102
RTVSPropertyOp19
 70
     0
102
RTVSPropertyOp20
 70
     0
102
RTVSPropertyOp21
 70
     0
102
RTVSPropertyOp22
 70
     0
102
RTVSPropertyOp23
 70
     0
102
RTVSPropertyOp24
 70
     0
102
RTVSPropertyOp25
 70
     0
102
RTVSPropertyOp26
 70
     0
102
RTVSPropertyOp27
 70
     0
102
RTVSPropertyOp28
 70
     1
102
RTVSPropertyOp29
 70
     1
102
RTVSPropertyOp30
 70
     1
102
RTVSPropertyOp31
 70
     1
102
RTVSPropertyOp32
 70
     1
102
RTVSPropertyOp33
 70
     1
102
RTVSPropertyOp34
 70
     1
102
RTVSPropertyOp35
 70
     1
102
RTVSPropertyOp36
 70
     1
102
RTVSPropertyOp37
 70
     0
102
RTVSPropertyOp38
 70
     0
102
RTVSPropertyOp39
 70
     0
102
RTVSPropertyOp40
 70
     0
102
RTVSPropertyOp41
 70
     0
102
RTVSPropertyOp42
 70
     0
102
RTVSPropertyOp43
 70
     0
102
RTVSPropertyOp44
 70
     0
102
RTVSPropertyOp45
 70
     1
102
RTVSPropertyOp46
 70
     0
102
RTVSPropertyOp47
 70
     0
102
RTVSPropertyOp48
 70
     0
102
RTVSPropertyOp49
 70
     1
102
RTVSPropertyOp50
 70
     0
102
RTVSPropertyOp51
 70
     0
102
RTVSPropertyOp52
 70
     0
102
RTVSPropertyOp53
 70
     0
102
RTVSPropertyOp54
 70
     0
102
RTVSPropertyOp55
 70
     1
102
RTVSPropertyOp56
 70
     0
102
RTVSPropertyOp57
 70
     0
102
RTVSPropertyOp58
 70
     0
102
RTVSPropertyOp59
 70
     0
102
RTVSPropertyOp60
 70
     0
102
RTVSPropertyOp61
 70
     0
102
RTVSPropertyOp62
 70
     0
  0
XRECORD
  5
284D
102
{ACAD_REACTORS
330
284C
102
}
330
284C
100
AcDbXrecord
280
     1
102
RTVSPost2010Prop28
280
     0
102
RTVSPost2010PropOp28
 70
     1
102
RTVSPost2010Prop29
280
     1
102
RTVSPost2010PropOp29
 70
     1
102
RTVSPost2010Prop30
280
     1
102
RTVSPost2010PropOp30
 70
     1
102
RTVSPost2010Prop31
280
     0
102
RTVSPost2010PropOp31
 70
     1
102
RTVSPost2010Prop32
280
     0
102
RTVSPost2010PropOp32
 70
     1
102
RTVSPost2010Prop33
280
     0
102
RTVSPost2010PropOp33
 70
     1
102
RTVSPost2010Prop34
280
     0
102
RTVSPost2010PropOp34
 70
     1
102
RTVSPost2010Prop35
280
     0
102
RTVSPost2010PropOp35
 70
     1
102
RTVSPost2010Prop36
280
     0
102
RTVSPost2010PropOp36
 70
     1
102
RTVSPost2010Prop37
 90
       50
102
RTVSPost2010PropOp37
 70
     1
102
RTVSPost2010Prop38
140
0.0
102
RTVSPost2010PropOp38
 70
     1
102
RTVSPost2010Prop39
140
1.0
102
RTVSPost2010PropOp39
 70
     1
102
RTVSPost2010Prop40
 90
        0
102
RTVSPost2010PropOp40
 70
     1
102
RTVSPost2010Prop41ColorIndex
 90
       18
102
RTVSPost2010Prop41ColorRGB
 90
        0
102
RTVSPost2010PropOp41
 70
     1
102
RTVSPost2010Prop42
 90
       50
102
RTVSPost2010PropOp42
 70
     1
102
RTVSPost2010Prop43
 90
        3
102
RTVSPost2010PropOp43
 70
     1
102
RTVSPost2010Prop44ColorIndex
 90
        5
102
RTVSPost2010Prop44ColorRGB
 90
      255
102
RTVSPost2010PropOp44
 70
     1
102
RTVSPost2010Prop45
280
     0
102
RTVSPost2010PropOp45
 70
     1
102
RTVSPost2010Prop46
 90
       50
102
RTVSPost2010PropOp46
 70
     1
102
RTVSPost2010Prop47
 90
       50
102
RTVSPost2010PropOp47
 70
     1
102
RTVSPost2010Prop48
 90
       50
102
RTVSPost2010PropOp48
 70
     1
102
RTVSPost2010Prop49
280
     0
102
RTVSPost2010PropOp49
 70
     1
102
RTVSPost2010Prop50
 90
       50
102
RTVSPost2010PropOp50
 70
     1
102
RTVSPost2010Prop51ColorIndex
 90
      256
102
RTVSPost2010Prop51ColorRGB
 90
-16777216
102
RTVSPost2010PropOp51
 70
     0
102
RTVSPost2010Prop52
140
1.0
102
RTVSPost2010PropOp52
 70
     0
102
RTVSPost2010Prop53
 90
        2
102
RTVSPost2010PropOp53
 70
     1
102
RTVSPost2010Prop54
  1
strokes_ogs.tif
102
RTVSPost2010PropOp54
 70
     1
102
RTVSPost2010Prop55
280
     0
102
RTVSPost2010PropOp55
 70
     1
102
RTVSPost2010Prop56
140
1.0
102
RTVSPost2010PropOp56
 70
     1
102
RTVSPost2010Prop57
140
1.0
102
RTVSPost2010PropOp57
 70
     1
102
RTVSPropertyOp0
 70
     1
102
RTVSPropertyOp1
 70
     1
102
RTVSPropertyOp2
 70
     1
102
RTVSPropertyOp3
 70
     1
102
RTVSPropertyOp4
 70
     1
102
RTVSPropertyOp5
 70
     1
102
RTVSPropertyOp6
 70
     1
102
RTVSPropertyOp7
 70
     1
102
RTVSPropertyOp8
 70
     1
102
RTVSPropertyOp9
 70
     1
102
RTVSPropertyOp10
 70
     1
102
RTVSPropertyOp11
 70
     1
102
RTVSPropertyOp12
 70
     1
102
RTVSPropertyOp13
 70
     1
102
RTVSPropertyOp14
 70
     1
102
RTVSPropertyOp15
 70
     1
102
RTVSPropertyOp16
 70
     1
102
RTVSPropertyOp17
 70
     1
102
RTVSPropertyOp18
 70
     1
102
RTVSPropertyOp19
 70
     1
102
RTVSPropertyOp20
 70
     1
102
RTVSPropertyOp21
 70
     1
102
RTVSPropertyOp22
 70
     1
102
RTVSPropertyOp23
 70
     1
102
RTVSPropertyOp24
 70
     1
102
RTVSPropertyOp25
 70
     1
102
RTVSPropertyOp26
 70
     1
102
RTVSPropertyOp27
 70
     1
102
RTVSPropertyOp28
 70
     1
102
RTVSPropertyOp29
 70
     1
102
RTVSPropertyOp30
 70
     1
102
RTVSPropertyOp31
 70
     1
102
RTVSPropertyOp32
 70
     1
102
RTVSPropertyOp33
 70
     1
102
RTVSPropertyOp34
 70
     1
102
RTVSPropertyOp35
 70
     1
102
RTVSPropertyOp36
 70
     1
102
RTVSPropertyOp37
 70
     1
102
RTVSPropertyOp38
 70
     1
102
RTVSPropertyOp39
 70
     1
102
RTVSPropertyOp40
 70
     1
102
RTVSPropertyOp41
 70
     1
102
RTVSPropertyOp42
 70
     1
102
RTVSPropertyOp43
 70
     1
102
RTVSPropertyOp44
 70
     1
102
RTVSPropertyOp45
 70
     1
102
RTVSPropertyOp46
 70
     1
102
RTVSPropertyOp47
 70
     1
102
RTVSPropertyOp48
 70
     1
102
RTVSPropertyOp49
 70
     1
102
RTVSPropertyOp50
 70
     1
102
RTVSPropertyOp51
 70
     0
102
RTVSPropertyOp52
 70
     0
102
RTVSPropertyOp53
 70
     1
102
RTVSPropertyOp54
 70
     1
102
RTVSPropertyOp55
 70
     1
102
RTVSPropertyOp56
 70
     1
102
RTVSPropertyOp57
 70
     1
102
RTVSPropertyOp58
 70
     1
102
RTVSPropertyOp59
 70
     1
102
RTVSPropertyOp60
 70
     1
102
RTVSPropertyOp61
 70
     1
102
RTVSPropertyOp62
 70
     1
  0
XRECORD
  5
2863
102
{ACAD_REACTORS
330
2862
102
}
330
2862
100
AcDbXrecord
280
     1
102
RTVSPost2010Prop28
280
     0
102
RTVSPost2010PropOp28
 70
     1
102
RTVSPost2010Prop29
280
     1
102
RTVSPost2010PropOp29
 70
     1
102
RTVSPost2010Prop30
280
     1
102
RTVSPost2010PropOp30
 70
     1
102
RTVSPost2010Prop31
280
     0
102
RTVSPost2010PropOp31
 70
     1
102
RTVSPost2010Prop32
280
     0
102
RTVSPost2010PropOp32
 70
     1
102
RTVSPost2010Prop33
280
     0
102
RTVSPost2010PropOp33
 70
     1
102
RTVSPost2010Prop34
280
     0
102
RTVSPost2010PropOp34
 70
     1
102
RTVSPost2010Prop35
280
     0
102
RTVSPost2010PropOp35
 70
     1
102
RTVSPost2010Prop36
280
     0
102
RTVSPost2010PropOp36
 70
     1
102
RTVSPost2010Prop37
 90
       50
102
RTVSPost2010PropOp37
 70
     1
102
RTVSPost2010Prop38
140
0.0
102
RTVSPost2010PropOp38
 70
     1
102
RTVSPost2010Prop39
140
1.0
102
RTVSPost2010PropOp39
 70
     1
102
RTVSPost2010Prop40
 90
        0
102
RTVSPost2010PropOp40
 70
     1
102
RTVSPost2010Prop41ColorIndex
 90
       18
102
RTVSPost2010Prop41ColorRGB
 90
        0
102
RTVSPost2010PropOp41
 70
     1
102
RTVSPost2010Prop42
 90
       50
102
RTVSPost2010PropOp42
 70
     1
102
RTVSPost2010Prop43
 90
        3
102
RTVSPost2010PropOp43
 70
     1
102
RTVSPost2010Prop44ColorIndex
 90
        5
102
RTVSPost2010Prop44ColorRGB
 90
      255
102
RTVSPost2010PropOp44
 70
     1
102
RTVSPost2010Prop45
280
     0
102
RTVSPost2010PropOp45
 70
     1
102
RTVSPost2010Prop46
 90
       50
102
RTVSPost2010PropOp46
 70
     1
102
RTVSPost2010Prop47
 90
       50
102
RTVSPost2010PropOp47
 70
     1
102
RTVSPost2010Prop48
 90
       50
102
RTVSPost2010PropOp48
 70
     1
102
RTVSPost2010Prop49
280
     0
102
RTVSPost2010PropOp49
 70
     1
102
RTVSPost2010Prop50
 90
       50
102
RTVSPost2010PropOp50
 70
     1
102
RTVSPost2010Prop51ColorIndex
 90
      256
102
RTVSPost2010Prop51ColorRGB
 90
-16777216
102
RTVSPost2010PropOp51
 70
     0
102
RTVSPost2010Prop52
140
1.0
102
RTVSPost2010PropOp52
 70
     0
102
RTVSPost2010Prop53
 90
        2
102
RTVSPost2010PropOp53
 70
     1
102
RTVSPost2010Prop54
  1
strokes_ogs.tif
102
RTVSPost2010PropOp54
 70
     1
102
RTVSPost2010Prop55
280
     0
102
RTVSPost2010PropOp55
 70
     1
102
RTVSPost2010Prop56
140
1.0
102
RTVSPost2010PropOp56
 70
     1
102
RTVSPost2010Prop57
140
1.0
102
RTVSPost2010PropOp57
 70
     1
102
RTVSPropertyOp0
 70
     1
102
RTVSPropertyOp1
 70
     1
102
RTVSPropertyOp2
 70
     1
102
RTVSPropertyOp3
 70
     1
102
RTVSPropertyOp4
 70
     1
102
RTVSPropertyOp5
 70
     1
102
RTVSPropertyOp6
 70
     1
102
RTVSPropertyOp7
 70
     1
102
RTVSPropertyOp8
 70
     1
102
RTVSPropertyOp9
 70
     1
102
RTVSPropertyOp10
 70
     1
102
RTVSPropertyOp11
 70
     1
102
RTVSPropertyOp12
 70
     1
102
RTVSPropertyOp13
 70
     1
102
RTVSPropertyOp14
 70
     1
102
RTVSPropertyOp15
 70
     1
102
RTVSPropertyOp16
 70
     1
102
RTVSPropertyOp17
 70
     1
102
RTVSPropertyOp18
 70
     1
102
RTVSPropertyOp19
 70
     1
102
RTVSPropertyOp20
 70
     1
102
RTVSPropertyOp21
 70
     1
102
RTVSPropertyOp22
 70
     1
102
RTVSPropertyOp23
 70
     1
102
RTVSPropertyOp24
 70
     1
102
RTVSPropertyOp25
 70
     1
102
RTVSPropertyOp26
 70
     1
102
RTVSPropertyOp27
 70
     1
102
RTVSPropertyOp28
 70
     1
102
RTVSPropertyOp29
 70
     1
102
RTVSPropertyOp30
 70
     1
102
RTVSPropertyOp31
 70
     1
102
RTVSPropertyOp32
 70
     1
102
RTVSPropertyOp33
 70
     1
102
RTVSPropertyOp34
 70
     1
102
RTVSPropertyOp35
 70
     1
102
RTVSPropertyOp36
 70
     1
102
RTVSPropertyOp37
 70
     1
102
RTVSPropertyOp38
 70
     1
102
RTVSPropertyOp39
 70
     1
102
RTVSPropertyOp40
 70
     1
102
RTVSPropertyOp41
 70
     1
102
RTVSPropertyOp42
 70
     1
102
RTVSPropertyOp43
 70
     1
102
RTVSPropertyOp44
 70
     1
102
RTVSPropertyOp45
 70
     1
102
RTVSPropertyOp46
 70
     1
102
RTVSPropertyOp47
 70
     1
102
RTVSPropertyOp48
 70
     1
102
RTVSPropertyOp49
 70
     1
102
RTVSPropertyOp50
 70
     1
102
RTVSPropertyOp51
 70
     0
102
RTVSPropertyOp52
 70
     0
102
RTVSPropertyOp53
 70
     1
102
RTVSPropertyOp54
 70
     1
102
RTVSPropertyOp55
 70
     1
102
RTVSPropertyOp56
 70
     1
102
RTVSPropertyOp57
 70
     1
102
RTVSPropertyOp58
 70
     1
102
RTVSPropertyOp59
 70
     1
102
RTVSPropertyOp60
 70
     1
102
RTVSPropertyOp61
 70
     1
102
RTVSPropertyOp62
 70
     1
  0
XRECORD
  5
2861
102
{ACAD_REACTORS
330
2860
102
}
330
2860
100
AcDbXrecord
280
     1
102
RTVSPost2010Prop28
280
     0
102
RTVSPost2010PropOp28
 70
     1
102
RTVSPost2010Prop29
280
     1
102
RTVSPost2010PropOp29
 70
     1
102
RTVSPost2010Prop30
280
     1
102
RTVSPost2010PropOp30
 70
     1
102
RTVSPost2010Prop31
280
     0
102
RTVSPost2010PropOp31
 70
     1
102
RTVSPost2010Prop32
280
     0
102
RTVSPost2010PropOp32
 70
     1
102
RTVSPost2010Prop33
280
     0
102
RTVSPost2010PropOp33
 70
     1
102
RTVSPost2010Prop34
280
     0
102
RTVSPost2010PropOp34
 70
     1
102
RTVSPost2010Prop35
280
     0
102
RTVSPost2010PropOp35
 70
     1
102
RTVSPost2010Prop36
280
     0
102
RTVSPost2010PropOp36
 70
     1
102
RTVSPost2010Prop37
 90
       50
102
RTVSPost2010PropOp37
 70
     1
102
RTVSPost2010Prop38
140
0.0
102
RTVSPost2010PropOp38
 70
     1
102
RTVSPost2010Prop39
140
1.0
102
RTVSPost2010PropOp39
 70
     1
102
RTVSPost2010Prop40
 90
        0
102
RTVSPost2010PropOp40
 70
     1
102
RTVSPost2010Prop41ColorIndex
 90
       18
102
RTVSPost2010Prop41ColorRGB
 90
        0
102
RTVSPost2010PropOp41
 70
     1
102
RTVSPost2010Prop42
 90
       50
102
RTVSPost2010PropOp42
 70
     1
102
RTVSPost2010Prop43
 90
        3
102
RTVSPost2010PropOp43
 70
     1
102
RTVSPost2010Prop44ColorIndex
 90
        5
102
RTVSPost2010Prop44ColorRGB
 90
      255
102
RTVSPost2010PropOp44
 70
     1
102
RTVSPost2010Prop45
280
     0
102
RTVSPost2010PropOp45
 70
     1
102
RTVSPost2010Prop46
 90
       50
102
RTVSPost2010PropOp46
 70
     1
102
RTVSPost2010Prop47
 90
       50
102
RTVSPost2010PropOp47
 70
     1
102
RTVSPost2010Prop48
 90
       50
102
RTVSPost2010PropOp48
 70
     1
102
RTVSPost2010Prop49
280
     0
102
RTVSPost2010PropOp49
 70
     1
102
RTVSPost2010Prop50
 90
       50
102
RTVSPost2010PropOp50
 70
     1
102
RTVSPost2010Prop51ColorIndex
 90
      256
102
RTVSPost2010Prop51ColorRGB
 90
-16777216
102
RTVSPost2010PropOp51
 70
     0
102
RTVSPost2010Prop52
140
1.0
102
RTVSPost2010PropOp52
 70
     0
102
RTVSPost2010Prop53
 90
        2
102
RTVSPost2010PropOp53
 70
     1
102
RTVSPost2010Prop54
  1
strokes_ogs.tif
102
RTVSPost2010PropOp54
 70
     1
102
RTVSPost2010Prop55
280
     0
102
RTVSPost2010PropOp55
 70
     1
102
RTVSPost2010Prop56
140
1.0
102
RTVSPost2010PropOp56
 70
     1
102
RTVSPost2010Prop57
140
1.0
102
RTVSPost2010PropOp57
 70
     1
102
RTVSPropertyOp0
 70
     1
102
RTVSPropertyOp1
 70
     1
102
RTVSPropertyOp2
 70
     1
102
RTVSPropertyOp3
 70
     1
102
RTVSPropertyOp4
 70
     1
102
RTVSPropertyOp5
 70
     1
102
RTVSPropertyOp6
 70
     1
102
RTVSPropertyOp7
 70
     1
102
RTVSPropertyOp8
 70
     1
102
RTVSPropertyOp9
 70
     1
102
RTVSPropertyOp10
 70
     1
102
RTVSPropertyOp11
 70
     1
102
RTVSPropertyOp12
 70
     1
102
RTVSPropertyOp13
 70
     1
102
RTVSPropertyOp14
 70
     1
102
RTVSPropertyOp15
 70
     1
102
RTVSPropertyOp16
 70
     1
102
RTVSPropertyOp17
 70
     1
102
RTVSPropertyOp18
 70
     1
102
RTVSPropertyOp19
 70
     1
102
RTVSPropertyOp20
 70
     1
102
RTVSPropertyOp21
 70
     1
102
RTVSPropertyOp22
 70
     1
102
RTVSPropertyOp23
 70
     1
102
RTVSPropertyOp24
 70
     1
102
RTVSPropertyOp25
 70
     1
102
RTVSPropertyOp26
 70
     1
102
RTVSPropertyOp27
 70
     1
102
RTVSPropertyOp28
 70
     1
102
RTVSPropertyOp29
 70
     1
102
RTVSPropertyOp30
 70
     1
102
RTVSPropertyOp31
 70
     1
102
RTVSPropertyOp32
 70
     1
102
RTVSPropertyOp33
 70
     1
102
RTVSPropertyOp34
 70
     1
102
RTVSPropertyOp35
 70
     1
102
RTVSPropertyOp36
 70
     1
102
RTVSPropertyOp37
 70
     1
102
RTVSPropertyOp38
 70
     1
102
RTVSPropertyOp39
 70
     1
102
RTVSPropertyOp40
 70
     1
102
RTVSPropertyOp41
 70
     1
102
RTVSPropertyOp42
 70
     1
102
RTVSPropertyOp43
 70
     1
102
RTVSPropertyOp44
 70
     1
102
RTVSPropertyOp45
 70
     1
102
RTVSPropertyOp46
 70
     1
102
RTVSPropertyOp47
 70
     1
102
RTVSPropertyOp48
 70
     1
102
RTVSPropertyOp49
 70
     1
102
RTVSPropertyOp50
 70
     1
102
RTVSPropertyOp51
 70
     0
102
RTVSPropertyOp52
 70
     0
102
RTVSPropertyOp53
 70
     1
102
RTVSPropertyOp54
 70
     1
102
RTVSPropertyOp55
 70
     1
102
RTVSPropertyOp56
 70
     1
102
RTVSPropertyOp57
 70
     1
102
RTVSPropertyOp58
 70
     1
102
RTVSPropertyOp59
 70
     1
102
RTVSPropertyOp60
 70
     1
102
RTVSPropertyOp61
 70
     1
102
RTVSPropertyOp62
 70
     1
  0
XRECORD
  5
285B
102
{ACAD_REACTORS
330
285A
102
}
330
285A
100
AcDbXrecord
280
     1
102
RTVSPost2010Prop28
280
     0
102
RTVSPost2010PropOp28
 70
     1
102
RTVSPost2010Prop29
280
     1
102
RTVSPost2010PropOp29
 70
     1
102
RTVSPost2010Prop30
280
     1
102
RTVSPost2010PropOp30
 70
     1
102
RTVSPost2010Prop31
280
     0
102
RTVSPost2010PropOp31
 70
     1
102
RTVSPost2010Prop32
280
     0
102
RTVSPost2010PropOp32
 70
     1
102
RTVSPost2010Prop33
280
     0
102
RTVSPost2010PropOp33
 70
     1
102
RTVSPost2010Prop34
280
     0
102
RTVSPost2010PropOp34
 70
     1
102
RTVSPost2010Prop35
280
     0
102
RTVSPost2010PropOp35
 70
     1
102
RTVSPost2010Prop36
280
     0
102
RTVSPost2010PropOp36
 70
     1
102
RTVSPost2010Prop37
 90
       50
102
RTVSPost2010PropOp37
 70
     1
102
RTVSPost2010Prop38
140
0.0
102
RTVSPost2010PropOp38
 70
     1
102
RTVSPost2010Prop39
140
1.0
102
RTVSPost2010PropOp39
 70
     1
102
RTVSPost2010Prop40
 90
        0
102
RTVSPost2010PropOp40
 70
     1
102
RTVSPost2010Prop41ColorIndex
 90
       18
102
RTVSPost2010Prop41ColorRGB
 90
        0
102
RTVSPost2010PropOp41
 70
     1
102
RTVSPost2010Prop42
 90
       50
102
RTVSPost2010PropOp42
 70
     1
102
RTVSPost2010Prop43
 90
        3
102
RTVSPost2010PropOp43
 70
     1
102
RTVSPost2010Prop44ColorIndex
 90
        5
102
RTVSPost2010Prop44ColorRGB
 90
      255
102
RTVSPost2010PropOp44
 70
     1
102
RTVSPost2010Prop45
280
     0
102
RTVSPost2010PropOp45
 70
     1
102
RTVSPost2010Prop46
 90
       50
102
RTVSPost2010PropOp46
 70
     1
102
RTVSPost2010Prop47
 90
       50
102
RTVSPost2010PropOp47
 70
     1
102
RTVSPost2010Prop48
 90
       50
102
RTVSPost2010PropOp48
 70
     1
102
RTVSPost2010Prop49
280
     0
102
RTVSPost2010PropOp49
 70
     1
102
RTVSPost2010Prop50
 90
       50
102
RTVSPost2010PropOp50
 70
     1
102
RTVSPost2010Prop51ColorIndex
 90
      256
102
RTVSPost2010Prop51ColorRGB
 90
-16777216
102
RTVSPost2010PropOp51
 70
     0
102
RTVSPost2010Prop52
140
1.0
102
RTVSPost2010PropOp52
 70
     0
102
RTVSPost2010Prop53
 90
        2
102
RTVSPost2010PropOp53
 70
     1
102
RTVSPost2010Prop54
  1
strokes_ogs.tif
102
RTVSPost2010PropOp54
 70
     1
102
RTVSPost2010Prop55
280
     0
102
RTVSPost2010PropOp55
 70
     1
102
RTVSPost2010Prop56
140
1.0
102
RTVSPost2010PropOp56
 70
     1
102
RTVSPost2010Prop57
140
1.0
102
RTVSPost2010PropOp57
 70
     1
102
RTVSPropertyOp0
 70
     1
102
RTVSPropertyOp1
 70
     1
102
RTVSPropertyOp2
 70
     1
102
RTVSPropertyOp3
 70
     1
102
RTVSPropertyOp4
 70
     1
102
RTVSPropertyOp5
 70
     1
102
RTVSPropertyOp6
 70
     1
102
RTVSPropertyOp7
 70
     1
102
RTVSPropertyOp8
 70
     1
102
RTVSPropertyOp9
 70
     1
102
RTVSPropertyOp10
 70
     1
102
RTVSPropertyOp11
 70
     1
102
RTVSPropertyOp12
 70
     1
102
RTVSPropertyOp13
 70
     1
102
RTVSPropertyOp14
 70
     1
102
RTVSPropertyOp15
 70
     1
102
RTVSPropertyOp16
 70
     1
102
RTVSPropertyOp17
 70
     1
102
RTVSPropertyOp18
 70
     1
102
RTVSPropertyOp19
 70
     1
102
RTVSPropertyOp20
 70
     1
102
RTVSPropertyOp21
 70
     1
102
RTVSPropertyOp22
 70
     1
102
RTVSPropertyOp23
 70
     1
102
RTVSPropertyOp24
 70
     1
102
RTVSPropertyOp25
 70
     1
102
RTVSPropertyOp26
 70
     1
102
RTVSPropertyOp27
 70
     1
102
RTVSPropertyOp28
 70
     1
102
RTVSPropertyOp29
 70
     1
102
RTVSPropertyOp30
 70
     1
102
RTVSPropertyOp31
 70
     1
102
RTVSPropertyOp32
 70
     1
102
RTVSPropertyOp33
 70
     1
102
RTVSPropertyOp34
 70
     1
102
RTVSPropertyOp35
 70
     1
102
RTVSPropertyOp36
 70
     1
102
RTVSPropertyOp37
 70
     1
102
RTVSPropertyOp38
 70
     1
102
RTVSPropertyOp39
 70
     1
102
RTVSPropertyOp40
 70
     1
102
RTVSPropertyOp41
 70
     1
102
RTVSPropertyOp42
 70
     1
102
RTVSPropertyOp43
 70
     1
102
RTVSPropertyOp44
 70
     1
102
RTVSPropertyOp45
 70
     1
102
RTVSPropertyOp46
 70
     1
102
RTVSPropertyOp47
 70
     1
102
RTVSPropertyOp48
 70
     1
102
RTVSPropertyOp49
 70
     1
102
RTVSPropertyOp50
 70
     1
102
RTVSPropertyOp51
 70
     0
102
RTVSPropertyOp52
 70
     0
102
RTVSPropertyOp53
 70
     1
102
RTVSPropertyOp54
 70
     1
102
RTVSPropertyOp55
 70
     1
102
RTVSPropertyOp56
 70
     1
102
RTVSPropertyOp57
 70
     1
102
RTVSPropertyOp58
 70
     1
102
RTVSPropertyOp59
 70
     1
102
RTVSPropertyOp60
 70
     1
102
RTVSPropertyOp61
 70
     1
102
RTVSPropertyOp62
 70
     1
  0
XRECORD
  5
285D
102
{ACAD_REACTORS
330
285C
102
}
330
285C
100
AcDbXrecord
280
     1
102
RTVSPost2010Prop28
280
     0
102
RTVSPost2010PropOp28
 70
     1
102
RTVSPost2010Prop29
280
     1
102
RTVSPost2010PropOp29
 70
     1
102
RTVSPost2010Prop30
280
     1
102
RTVSPost2010PropOp30
 70
     1
102
RTVSPost2010Prop31
280
     0
102
RTVSPost2010PropOp31
 70
     1
102
RTVSPost2010Prop32
280
     0
102
RTVSPost2010PropOp32
 70
     1
102
RTVSPost2010Prop33
280
     0
102
RTVSPost2010PropOp33
 70
     1
102
RTVSPost2010Prop34
280
     0
102
RTVSPost2010PropOp34
 70
     1
102
RTVSPost2010Prop35
280
     0
102
RTVSPost2010PropOp35
 70
     1
102
RTVSPost2010Prop36
280
     0
102
RTVSPost2010PropOp36
 70
     1
102
RTVSPost2010Prop37
 90
       50
102
RTVSPost2010PropOp37
 70
     1
102
RTVSPost2010Prop38
140
0.0
102
RTVSPost2010PropOp38
 70
     1
102
RTVSPost2010Prop39
140
1.0
102
RTVSPost2010PropOp39
 70
     1
102
RTVSPost2010Prop40
 90
        0
102
RTVSPost2010PropOp40
 70
     1
102
RTVSPost2010Prop41ColorIndex
 90
       18
102
RTVSPost2010Prop41ColorRGB
 90
        0
102
RTVSPost2010PropOp41
 70
     1
102
RTVSPost2010Prop42
 90
       50
102
RTVSPost2010PropOp42
 70
     1
102
RTVSPost2010Prop43
 90
        3
102
RTVSPost2010PropOp43
 70
     1
102
RTVSPost2010Prop44ColorIndex
 90
        5
102
RTVSPost2010Prop44ColorRGB
 90
      255
102
RTVSPost2010PropOp44
 70
     1
102
RTVSPost2010Prop45
280
     0
102
RTVSPost2010PropOp45
 70
     1
102
RTVSPost2010Prop46
 90
       50
102
RTVSPost2010PropOp46
 70
     1
102
RTVSPost2010Prop47
 90
       50
102
RTVSPost2010PropOp47
 70
     1
102
RTVSPost2010Prop48
 90
       50
102
RTVSPost2010PropOp48
 70
     1
102
RTVSPost2010Prop49
280
     0
102
RTVSPost2010PropOp49
 70
     1
102
RTVSPost2010Prop50
 90
       50
102
RTVSPost2010PropOp50
 70
     1
102
RTVSPost2010Prop51ColorIndex
 90
      256
102
RTVSPost2010Prop51ColorRGB
 90
-16777216
102
RTVSPost2010PropOp51
 70
     0
102
RTVSPost2010Prop52
140
1.0
102
RTVSPost2010PropOp52
 70
     0
102
RTVSPost2010Prop53
 90
        2
102
RTVSPost2010PropOp53
 70
     1
102
RTVSPost2010Prop54
  1
strokes_ogs.tif
102
RTVSPost2010PropOp54
 70
     1
102
RTVSPost2010Prop55
280
     0
102
RTVSPost2010PropOp55
 70
     1
102
RTVSPost2010Prop56
140
1.0
102
RTVSPost2010PropOp56
 70
     1
102
RTVSPost2010Prop57
140
1.0
102
RTVSPost2010PropOp57
 70
     1
102
RTVSPropertyOp0
 70
     1
102
RTVSPropertyOp1
 70
     1
102
RTVSPropertyOp2
 70
     1
102
RTVSPropertyOp3
 70
     1
102
RTVSPropertyOp4
 70
     1
102
RTVSPropertyOp5
 70
     1
102
RTVSPropertyOp6
 70
     1
102
RTVSPropertyOp7
 70
     1
102
RTVSPropertyOp8
 70
     1
102
RTVSPropertyOp9
 70
     1
102
RTVSPropertyOp10
 70
     1
102
RTVSPropertyOp11
 70
     1
102
RTVSPropertyOp12
 70
     1
102
RTVSPropertyOp13
 70
     1
102
RTVSPropertyOp14
 70
     1
102
RTVSPropertyOp15
 70
     1
102
RTVSPropertyOp16
 70
     1
102
RTVSPropertyOp17
 70
     1
102
RTVSPropertyOp18
 70
     1
102
RTVSPropertyOp19
 70
     1
102
RTVSPropertyOp20
 70
     1
102
RTVSPropertyOp21
 70
     1
102
RTVSPropertyOp22
 70
     1
102
RTVSPropertyOp23
 70
     1
102
RTVSPropertyOp24
 70
     1
102
RTVSPropertyOp25
 70
     1
102
RTVSPropertyOp26
 70
     1
102
RTVSPropertyOp27
 70
     1
102
RTVSPropertyOp28
 70
     1
102
RTVSPropertyOp29
 70
     1
102
RTVSPropertyOp30
 70
     1
102
RTVSPropertyOp31
 70
     1
102
RTVSPropertyOp32
 70
     1
102
RTVSPropertyOp33
 70
     1
102
RTVSPropertyOp34
 70
     1
102
RTVSPropertyOp35
 70
     1
102
RTVSPropertyOp36
 70
     1
102
RTVSPropertyOp37
 70
     1
102
RTVSPropertyOp38
 70
     1
102
RTVSPropertyOp39
 70
     1
102
RTVSPropertyOp40
 70
     1
102
RTVSPropertyOp41
 70
     1
102
RTVSPropertyOp42
 70
     1
102
RTVSPropertyOp43
 70
     1
102
RTVSPropertyOp44
 70
     1
102
RTVSPropertyOp45
 70
     1
102
RTVSPropertyOp46
 70
     1
102
RTVSPropertyOp47
 70
     1
102
RTVSPropertyOp48
 70
     1
102
RTVSPropertyOp49
 70
     1
102
RTVSPropertyOp50
 70
     1
102
RTVSPropertyOp51
 70
     0
102
RTVSPropertyOp52
 70
     0
102
RTVSPropertyOp53
 70
     1
102
RTVSPropertyOp54
 70
     1
102
RTVSPropertyOp55
 70
     1
102
RTVSPropertyOp56
 70
     1
102
RTVSPropertyOp57
 70
     1
102
RTVSPropertyOp58
 70
     1
102
RTVSPropertyOp59
 70
     1
102
RTVSPropertyOp60
 70
     1
102
RTVSPropertyOp61
 70
     1
102
RTVSPropertyOp62
 70
     1
  0
XRECORD
  5
2853
102
{ACAD_REACTORS
330
2852
102
}
330
2852
100
AcDbXrecord
280
     1
102
RTVSPost2010Prop28
280
     0
102
RTVSPost2010PropOp28
 70
     1
102
RTVSPost2010Prop29
280
     1
102
RTVSPost2010PropOp29
 70
     1
102
RTVSPost2010Prop30
280
     1
102
RTVSPost2010PropOp30
 70
     1
102
RTVSPost2010Prop31
280
     0
102
RTVSPost2010PropOp31
 70
     1
102
RTVSPost2010Prop32
280
     0
102
RTVSPost2010PropOp32
 70
     1
102
RTVSPost2010Prop33
280
     0
102
RTVSPost2010PropOp33
 70
     1
102
RTVSPost2010Prop34
280
     0
102
RTVSPost2010PropOp34
 70
     1
102
RTVSPost2010Prop35
280
     0
102
RTVSPost2010PropOp35
 70
     1
102
RTVSPost2010Prop36
280
     0
102
RTVSPost2010PropOp36
 70
     1
102
RTVSPost2010Prop37
 90
       50
102
RTVSPost2010PropOp37
 70
     1
102
RTVSPost2010Prop38
140
0.0
102
RTVSPost2010PropOp38
 70
     1
102
RTVSPost2010Prop39
140
1.0
102
RTVSPost2010PropOp39
 70
     1
102
RTVSPost2010Prop40
 90
        0
102
RTVSPost2010PropOp40
 70
     1
102
RTVSPost2010Prop41ColorIndex
 90
       18
102
RTVSPost2010Prop41ColorRGB
 90
        0
102
RTVSPost2010PropOp41
 70
     1
102
RTVSPost2010Prop42
 90
       50
102
RTVSPost2010PropOp42
 70
     1
102
RTVSPost2010Prop43
 90
        3
102
RTVSPost2010PropOp43
 70
     1
102
RTVSPost2010Prop44ColorIndex
 90
        5
102
RTVSPost2010Prop44ColorRGB
 90
      255
102
RTVSPost2010PropOp44
 70
     1
102
RTVSPost2010Prop45
280
     0
102
RTVSPost2010PropOp45
 70
     1
102
RTVSPost2010Prop46
 90
       50
102
RTVSPost2010PropOp46
 70
     1
102
RTVSPost2010Prop47
 90
       50
102
RTVSPost2010PropOp47
 70
     1
102
RTVSPost2010Prop48
 90
       50
102
RTVSPost2010PropOp48
 70
     1
102
RTVSPost2010Prop49
280
     0
102
RTVSPost2010PropOp49
 70
     1
102
RTVSPost2010Prop50
 90
       50
102
RTVSPost2010PropOp50
 70
     1
102
RTVSPost2010Prop51ColorIndex
 90
      256
102
RTVSPost2010Prop51ColorRGB
 90
-16777216
102
RTVSPost2010PropOp51
 70
     0
102
RTVSPost2010Prop52
140
1.0
102
RTVSPost2010PropOp52
 70
     0
102
RTVSPost2010Prop53
 90
        2
102
RTVSPost2010PropOp53
 70
     1
102
RTVSPost2010Prop54
  1
strokes_ogs.tif
102
RTVSPost2010PropOp54
 70
     1
102
RTVSPost2010Prop55
280
     0
102
RTVSPost2010PropOp55
 70
     1
102
RTVSPost2010Prop56
140
1.0
102
RTVSPost2010PropOp56
 70
     1
102
RTVSPost2010Prop57
140
1.0
102
RTVSPost2010PropOp57
 70
     1
102
RTVSPropertyOp0
 70
     1
102
RTVSPropertyOp1
 70
     1
102
RTVSPropertyOp2
 70
     1
102
RTVSPropertyOp3
 70
     1
102
RTVSPropertyOp4
 70
     1
102
RTVSPropertyOp5
 70
     1
102
RTVSPropertyOp6
 70
     1
102
RTVSPropertyOp7
 70
     1
102
RTVSPropertyOp8
 70
     1
102
RTVSPropertyOp9
 70
     1
102
RTVSPropertyOp10
 70
     1
102
RTVSPropertyOp11
 70
     1
102
RTVSPropertyOp12
 70
     1
102
RTVSPropertyOp13
 70
     1
102
RTVSPropertyOp14
 70
     1
102
RTVSPropertyOp15
 70
     1
102
RTVSPropertyOp16
 70
     1
102
RTVSPropertyOp17
 70
     1
102
RTVSPropertyOp18
 70
     1
102
RTVSPropertyOp19
 70
     1
102
RTVSPropertyOp20
 70
     1
102
RTVSPropertyOp21
 70
     1
102
RTVSPropertyOp22
 70
     1
102
RTVSPropertyOp23
 70
     1
102
RTVSPropertyOp24
 70
     1
102
RTVSPropertyOp25
 70
     1
102
RTVSPropertyOp26
 70
     1
102
RTVSPropertyOp27
 70
     1
102
RTVSPropertyOp28
 70
     1
102
RTVSPropertyOp29
 70
     1
102
RTVSPropertyOp30
 70
     1
102
RTVSPropertyOp31
 70
     1
102
RTVSPropertyOp32
 70
     1
102
RTVSPropertyOp33
 70
     1
102
RTVSPropertyOp34
 70
     1
102
RTVSPropertyOp35
 70
     1
102
RTVSPropertyOp36
 70
     1
102
RTVSPropertyOp37
 70
     1
102
RTVSPropertyOp38
 70
     1
102
RTVSPropertyOp39
 70
     1
102
RTVSPropertyOp40
 70
     1
102
RTVSPropertyOp41
 70
     1
102
RTVSPropertyOp42
 70
     1
102
RTVSPropertyOp43
 70
     1
102
RTVSPropertyOp44
 70
     1
102
RTVSPropertyOp45
 70
     1
102
RTVSPropertyOp46
 70
     1
102
RTVSPropertyOp47
 70
     1
102
RTVSPropertyOp48
 70
     1
102
RTVSPropertyOp49
 70
     1
102
RTVSPropertyOp50
 70
     1
102
RTVSPropertyOp51
 70
     0
102
RTVSPropertyOp52
 70
     0
102
RTVSPropertyOp53
 70
     1
102
RTVSPropertyOp54
 70
     1
102
RTVSPropertyOp55
 70
     1
102
RTVSPropertyOp56
 70
     1
102
RTVSPropertyOp57
 70
     1
102
RTVSPropertyOp58
 70
     1
102
RTVSPropertyOp59
 70
     1
102
RTVSPropertyOp60
 70
     1
102
RTVSPropertyOp61
 70
     1
102
RTVSPropertyOp62
 70
     1
  0
XRECORD
  5
2847
102
{ACAD_REACTORS
330
2846
102
}
330
2846
100
AcDbXrecord
280
     1
102
RTVSPost2010Prop28
280
     0
102
RTVSPost2010PropOp28
 70
     1
102
RTVSPost2010Prop29
280
     1
102
RTVSPost2010PropOp29
 70
     1
102
RTVSPost2010Prop30
280
     1
102
RTVSPost2010PropOp30
 70
     1
102
RTVSPost2010Prop31
280
     0
102
RTVSPost2010PropOp31
 70
     1
102
RTVSPost2010Prop32
280
     0
102
RTVSPost2010PropOp32
 70
     1
102
RTVSPost2010Prop33
280
     0
102
RTVSPost2010PropOp33
 70
     1
102
RTVSPost2010Prop34
280
     0
102
RTVSPost2010PropOp34
 70
     1
102
RTVSPost2010Prop35
280
     0
102
RTVSPost2010PropOp35
 70
     1
102
RTVSPost2010Prop36
280
     0
102
RTVSPost2010PropOp36
 70
     1
102
RTVSPost2010Prop37
 90
       50
102
RTVSPost2010PropOp37
 70
     1
102
RTVSPost2010Prop38
140
0.0
102
RTVSPost2010PropOp38
 70
     1
102
RTVSPost2010Prop39
140
1.0
102
RTVSPost2010PropOp39
 70
     1
102
RTVSPost2010Prop40
 90
        0
102
RTVSPost2010PropOp40
 70
     1
102
RTVSPost2010Prop41ColorIndex
 90
       18
102
RTVSPost2010Prop41ColorRGB
 90
        0
102
RTVSPost2010PropOp41
 70
     1
102
RTVSPost2010Prop42
 90
       50
102
RTVSPost2010PropOp42
 70
     1
102
RTVSPost2010Prop43
 90
        3
102
RTVSPost2010PropOp43
 70
     1
102
RTVSPost2010Prop44ColorIndex
 90
        5
102
RTVSPost2010Prop44ColorRGB
 90
      255
102
RTVSPost2010PropOp44
 70
     1
102
RTVSPost2010Prop45
280
     0
102
RTVSPost2010PropOp45
 70
     1
102
RTVSPost2010Prop46
 90
       50
102
RTVSPost2010PropOp46
 70
     1
102
RTVSPost2010Prop47
 90
       50
102
RTVSPost2010PropOp47
 70
     1
102
RTVSPost2010Prop48
 90
       50
102
RTVSPost2010PropOp48
 70
     1
102
RTVSPost2010Prop49
280
     0
102
RTVSPost2010PropOp49
 70
     1
102
RTVSPost2010Prop50
 90
       50
102
RTVSPost2010PropOp50
 70
     1
102
RTVSPost2010Prop51ColorIndex
 90
      256
102
RTVSPost2010Prop51ColorRGB
 90
-16777216
102
RTVSPost2010PropOp51
 70
     0
102
RTVSPost2010Prop52
140
1.0
102
RTVSPost2010PropOp52
 70
     0
102
RTVSPost2010Prop53
 90
        2
102
RTVSPost2010PropOp53
 70
     1
102
RTVSPost2010Prop54
  1
strokes_ogs.tif
102
RTVSPost2010PropOp54
 70
     1
102
RTVSPost2010Prop55
280
     0
102
RTVSPost2010PropOp55
 70
     1
102
RTVSPost2010Prop56
140
1.0
102
RTVSPost2010PropOp56
 70
     1
102
RTVSPost2010Prop57
140
1.0
102
RTVSPost2010PropOp57
 70
     1
102
RTVSPropertyOp0
 70
     1
102
RTVSPropertyOp1
 70
     1
102
RTVSPropertyOp2
 70
     1
102
RTVSPropertyOp3
 70
     1
102
RTVSPropertyOp4
 70
     1
102
RTVSPropertyOp5
 70
     1
102
RTVSPropertyOp6
 70
     1
102
RTVSPropertyOp7
 70
     1
102
RTVSPropertyOp8
 70
     1
102
RTVSPropertyOp9
 70
     1
102
RTVSPropertyOp10
 70
     1
102
RTVSPropertyOp11
 70
     1
102
RTVSPropertyOp12
 70
     1
102
RTVSPropertyOp13
 70
     1
102
RTVSPropertyOp14
 70
     1
102
RTVSPropertyOp15
 70
     1
102
RTVSPropertyOp16
 70
     1
102
RTVSPropertyOp17
 70
     1
102
RTVSPropertyOp18
 70
     1
102
RTVSPropertyOp19
 70
     1
102
RTVSPropertyOp20
 70
     1
102
RTVSPropertyOp21
 70
     1
102
RTVSPropertyOp22
 70
     1
102
RTVSPropertyOp23
 70
     1
102
RTVSPropertyOp24
 70
     1
102
RTVSPropertyOp25
 70
     1
102
RTVSPropertyOp26
 70
     1
102
RTVSPropertyOp27
 70
     1
102
RTVSPropertyOp28
 70
     1
102
RTVSPropertyOp29
 70
     1
102
RTVSPropertyOp30
 70
     1
102
RTVSPropertyOp31
 70
     1
102
RTVSPropertyOp32
 70
     1
102
RTVSPropertyOp33
 70
     1
102
RTVSPropertyOp34
 70
     1
102
RTVSPropertyOp35
 70
     1
102
RTVSPropertyOp36
 70
     1
102
RTVSPropertyOp37
 70
     1
102
RTVSPropertyOp38
 70
     1
102
RTVSPropertyOp39
 70
     1
102
RTVSPropertyOp40
 70
     1
102
RTVSPropertyOp41
 70
     1
102
RTVSPropertyOp42
 70
     1
102
RTVSPropertyOp43
 70
     1
102
RTVSPropertyOp44
 70
     1
102
RTVSPropertyOp45
 70
     1
102
RTVSPropertyOp46
 70
     1
102
RTVSPropertyOp47
 70
     1
102
RTVSPropertyOp48
 70
     1
102
RTVSPropertyOp49
 70
     1
102
RTVSPropertyOp50
 70
     1
102
RTVSPropertyOp51
 70
     0
102
RTVSPropertyOp52
 70
     0
102
RTVSPropertyOp53
 70
     1
102
RTVSPropertyOp54
 70
     1
102
RTVSPropertyOp55
 70
     1
102
RTVSPropertyOp56
 70
     1
102
RTVSPropertyOp57
 70
     1
102
RTVSPropertyOp58
 70
     1
102
RTVSPropertyOp59
 70
     1
102
RTVSPropertyOp60
 70
     1
102
RTVSPropertyOp61
 70
     1
102
RTVSPropertyOp62
 70
     1
  0
XRECORD
  5
285F
102
{ACAD_REACTORS
330
285E
102
}
330
285E
100
AcDbXrecord
280
     1
102
RTVSPost2010Prop28
280
     0
102
RTVSPost2010PropOp28
 70
     1
102
RTVSPost2010Prop29
280
     1
102
RTVSPost2010PropOp29
 70
     1
102
RTVSPost2010Prop30
280
     1
102
RTVSPost2010PropOp30
 70
     1
102
RTVSPost2010Prop31
280
     0
102
RTVSPost2010PropOp31
 70
     1
102
RTVSPost2010Prop32
280
     0
102
RTVSPost2010PropOp32
 70
     1
102
RTVSPost2010Prop33
280
     0
102
RTVSPost2010PropOp33
 70
     1
102
RTVSPost2010Prop34
280
     0
102
RTVSPost2010PropOp34
 70
     1
102
RTVSPost2010Prop35
280
     0
102
RTVSPost2010PropOp35
 70
     1
102
RTVSPost2010Prop36
280
     0
102
RTVSPost2010PropOp36
 70
     1
102
RTVSPost2010Prop37
 90
       50
102
RTVSPost2010PropOp37
 70
     1
102
RTVSPost2010Prop38
140
0.0
102
RTVSPost2010PropOp38
 70
     1
102
RTVSPost2010Prop39
140
1.0
102
RTVSPost2010PropOp39
 70
     1
102
RTVSPost2010Prop40
 90
        0
102
RTVSPost2010PropOp40
 70
     1
102
RTVSPost2010Prop41ColorIndex
 90
       18
102
RTVSPost2010Prop41ColorRGB
 90
        0
102
RTVSPost2010PropOp41
 70
     1
102
RTVSPost2010Prop42
 90
       50
102
RTVSPost2010PropOp42
 70
     1
102
RTVSPost2010Prop43
 90
        3
102
RTVSPost2010PropOp43
 70
     1
102
RTVSPost2010Prop44ColorIndex
 90
        5
102
RTVSPost2010Prop44ColorRGB
 90
      255
102
RTVSPost2010PropOp44
 70
     1
102
RTVSPost2010Prop45
280
     0
102
RTVSPost2010PropOp45
 70
     1
102
RTVSPost2010Prop46
 90
       50
102
RTVSPost2010PropOp46
 70
     1
102
RTVSPost2010Prop47
 90
       50
102
RTVSPost2010PropOp47
 70
     1
102
RTVSPost2010Prop48
 90
       50
102
RTVSPost2010PropOp48
 70
     1
102
RTVSPost2010Prop49
280
     0
102
RTVSPost2010PropOp49
 70
     1
102
RTVSPost2010Prop50
 90
       50
102
RTVSPost2010PropOp50
 70
     1
102
RTVSPost2010Prop51ColorIndex
 90
      256
102
RTVSPost2010Prop51ColorRGB
 90
-16777216
102
RTVSPost2010PropOp51
 70
     0
102
RTVSPost2010Prop52
140
1.0
102
RTVSPost2010PropOp52
 70
     0
102
RTVSPost2010Prop53
 90
        2
102
RTVSPost2010PropOp53
 70
     1
102
RTVSPost2010Prop54
  1
strokes_ogs.tif
102
RTVSPost2010PropOp54
 70
     1
102
RTVSPost2010Prop55
280
     0
102
RTVSPost2010PropOp55
 70
     1
102
RTVSPost2010Prop56
140
1.0
102
RTVSPost2010PropOp56
 70
     1
102
RTVSPost2010Prop57
140
1.0
102
RTVSPost2010PropOp57
 70
     1
102
RTVSPropertyOp0
 70
     1
102
RTVSPropertyOp1
 70
     1
102
RTVSPropertyOp2
 70
     1
102
RTVSPropertyOp3
 70
     1
102
RTVSPropertyOp4
 70
     1
102
RTVSPropertyOp5
 70
     1
102
RTVSPropertyOp6
 70
     1
102
RTVSPropertyOp7
 70
     1
102
RTVSPropertyOp8
 70
     1
102
RTVSPropertyOp9
 70
     1
102
RTVSPropertyOp10
 70
     1
102
RTVSPropertyOp11
 70
     1
102
RTVSPropertyOp12
 70
     1
102
RTVSPropertyOp13
 70
     1
102
RTVSPropertyOp14
 70
     1
102
RTVSPropertyOp15
 70
     1
102
RTVSPropertyOp16
 70
     1
102
RTVSPropertyOp17
 70
     1
102
RTVSPropertyOp18
 70
     1
102
RTVSPropertyOp19
 70
     1
102
RTVSPropertyOp20
 70
     1
102
RTVSPropertyOp21
 70
     1
102
RTVSPropertyOp22
 70
     1
102
RTVSPropertyOp23
 70
     1
102
RTVSPropertyOp24
 70
     1
102
RTVSPropertyOp25
 70
     1
102
RTVSPropertyOp26
 70
     1
102
RTVSPropertyOp27
 70
     1
102
RTVSPropertyOp28
 70
     1
102
RTVSPropertyOp29
 70
     1
102
RTVSPropertyOp30
 70
     1
102
RTVSPropertyOp31
 70
     1
102
RTVSPropertyOp32
 70
     1
102
RTVSPropertyOp33
 70
     1
102
RTVSPropertyOp34
 70
     1
102
RTVSPropertyOp35
 70
     1
102
RTVSPropertyOp36
 70
     1
102
RTVSPropertyOp37
 70
     1
102
RTVSPropertyOp38
 70
     1
102
RTVSPropertyOp39
 70
     1
102
RTVSPropertyOp40
 70
     1
102
RTVSPropertyOp41
 70
     1
102
RTVSPropertyOp42
 70
     1
102
RTVSPropertyOp43
 70
     1
102
RTVSPropertyOp44
 70
     1
102
RTVSPropertyOp45
 70
     1
102
RTVSPropertyOp46
 70
     1
102
RTVSPropertyOp47
 70
     1
102
RTVSPropertyOp48
 70
     1
102
RTVSPropertyOp49
 70
     1
102
RTVSPropertyOp50
 70
     1
102
RTVSPropertyOp51
 70
     0
102
RTVSPropertyOp52
 70
     0
102
RTVSPropertyOp53
 70
     1
102
RTVSPropertyOp54
 70
     1
102
RTVSPropertyOp55
 70
     1
102
RTVSPropertyOp56
 70
     1
102
RTVSPropertyOp57
 70
     1
102
RTVSPropertyOp58
 70
     1
102
RTVSPropertyOp59
 70
     1
102
RTVSPropertyOp60
 70
     1
102
RTVSPropertyOp61
 70
     1
102
RTVSPropertyOp62
 70
     1
  0
ENDSEC
  0
EOF
