  0
SECTION
  2
HEADER
  9
$ACADVER
  1
AC1015
  9
$ACADMAINTVER
 70
    20
  9
$DWGCODEPAGE
  3
ANSI_932
  9
$INSBASE
 10
0.0
 20
0.0
 30
0.0
  9
$EXTMIN
 10
9.9999975266385
 20
10.0
 30
0.0
  9
$EXTMAX
 10
364.162531215268
 20
405.9974090795408
 30
0.0
  9
$LIMMIN
 10
0.0000015376081137
 20
-0.0000001931532552
  9
$LIMMAX
 10
645.0000015376082
 20
444.6590907159373
  9
$ORTHOMODE
 70
     1
  9
$REGENMODE
 70
     1
  9
$FILLMODE
 70
     1
  9
$QTEXTMODE
 70
     0
  9
$MIRRTEXT
 70
     1
  9
$LTSCALE
 40
1.0
  9
$ATTMODE
 70
     1
  9
$TEXTSIZE
 40
1.0
  9
$TRACEWID
 40
1.0
  9
$TEXTSTYLE
  7
STANDARD
  9
$CLAYER
  8
0
  9
$CELTYPE
  6
BYLAYER
  9
$CECOLOR
 62
   256
  9
$CELTSCALE
 40
1.0
  9
$DISPSILH
 70
     0
  9
$DIMSCALE
 40
1.0
  9
$DIMASZ
 40
3.0
  9
$DIMEXO
 40
1.0
  9
$DIMDLI
 40
10.0
  9
$DIMRND
 40
0.0
  9
$DIMDLE
 40
0.0
  9
$DIMEXE
 40
1.0
  9
$DIMTP
 40
0.0
  9
$DIMTM
 40
0.0
  9
$DIMTXT
 40
3.2
  9
$DIMCEN
 40
0.0
  9
$DIMTSZ
 40
0.0
  9
$DIMTOL
 70
     0
  9
$DIMLIM
 70
     0
  9
$DIMTIH
 70
     0
  9
$DIMTOH
 70
     0
  9
$DIMSE1
 70
     0
  9
$DIMSE2
 70
     0
  9
$DIMTAD
 70
     3
  9
$DIMZIN
 70
     8
  9
$DIMBLK
  1

  9
$DIMASO
 70
     1
  9
$DIMSHO
 70
     1
  9
$DIMPOST
  1

  9
$DIMAPOST
  1

  9
$DIMALT
 70
     0
  9
$DIMALTD
 70
     2
  9
$DIMALTF
 40
25.4
  9
$DIMLFAC
 40
1.0
  9
$DIMTOFL
 70
     1
  9
$DIMTVP
 40
0.0
  9
$DIMTIX
 70
     0
  9
$DIMSOXD
 70
     0
  9
$DIMSAH
 70
     1
  9
$DIMBLK1
  1
OPEN
  9
$DIMBLK2
  1
OPEN
  9
$DIMSTYLE
  2
STANDARD
  9
$DIMCLRD
 70
     0
  9
$DIMCLRE
 70
     0
  9
$DIMCLRT
 70
     0
  9
$DIMTFAC
 40
1.0
  9
$DIMGAP
 40
1.0
  9
$DIMJUST
 70
     0
  9
$DIMSD1
 70
     0
  9
$DIMSD2
 70
     0
  9
$DIMTOLJ
 70
     1
  9
$DIMTZIN
 70
     0
  9
$DIMALTZ
 70
     0
  9
$DIMALTTZ
 70
     0
  9
$DIMUPT
 70
     0
  9
$DIMDEC
 70
     4
  9
$DIMTDEC
 70
     4
  9
$DIMALTU
 70
     2
  9
$DIMALTTD
 70
     2
  9
$DIMTXSTY
  7
STANDARD
  9
$DIMAUNIT
 70
     0
  9
$DIMADEC
 70
     0
  9
$DIMALTRND
 40
0.0
  9
$DIMAZIN
 70
     0
  9
$DIMDSEP
 70
    46
  9
$DIMATFIT
 70
     3
  9
$DIMFRAC
 70
     0
  9
$DIMLDRBLK
  1
OPEN
  9
$DIMLUNIT
 70
     2
  9
$DIMLWD
 70
    -2
  9
$DIMLWE
 70
    -2
  9
$DIMTMOVE
 70
     0
  9
$LUNITS
 70
     2
  9
$LUPREC
 70
     4
  9
$SKETCHINC
 40
1.0
  9
$FILLETRAD
 40
0.0
  9
$AUNITS
 70
     0
  9
$AUPREC
 70
     0
  9
$MENU
  1
.
  9
$ELEVATION
 40
0.0
  9
$PELEVATION
 40
0.0
  9
$THICKNESS
 40
0.0
  9
$LIMCHECK
 70
     0
  9
$CHAMFERA
 40
10.0
  9
$CHAMFERB
 40
10.0
  9
$CHAMFERC
 40
20.0
  9
$CHAMFERD
 40
0.0
  9
$SKPOLY
 70
     0
  9
$TDCREATE
 40
2454865.650739062
  9
$TDUCREATE
 40
2454865.275739063
  9
$TDUPDATE
 40
2457192.622231783
  9
$TDUUPDATE
 40
2457192.247231783
  9
$TDINDWG
 40
0.7405149421
  9
$TDUSRTIMER
 40
0.7405149190
  9
$USRTIMER
 70
     1
  9
$ANGBASE
 50
0.0
  9
$ANGDIR
 70
     0
  9
$PDMODE
 70
     0
  9
$PDSIZE
 40
0.0
  9
$PLINEWID
 40
0.0
  9
$SPLFRAME
 70
     0
  9
$SPLINETYPE
 70
     6
  9
$SPLINESEGS
 70
     8
  9
$HANDSEED
  5
8299
  9
$SURFTAB1
 70
     6
  9
$SURFTAB2
 70
     6
  9
$SURFTYPE
 70
     6
  9
$SURFU
 70
     6
  9
$SURFV
 70
     6
  9
$UCSBASE
  2

  9
$UCSNAME
  2

  9
$UCSORG
 10
0.0
 20
0.0
 30
0.0
  9
$UCSXDIR
 10
1.0
 20
0.0
 30
0.0
  9
$UCSYDIR
 10
0.0
 20
1.0
 30
0.0
  9
$UCSORTHOREF
  2

  9
$UCSORTHOVIEW
 70
     0
  9
$UCSORGTOP
 10
0.0
 20
0.0
 30
0.0
  9
$UCSORGBOTTOM
 10
0.0
 20
0.0
 30
0.0
  9
$UCSORGLEFT
 10
0.0
 20
0.0
 30
0.0
  9
$UCSORGRIGHT
 10
0.0
 20
0.0
 30
0.0
  9
$UCSORGFRONT
 10
0.0
 20
0.0
 30
0.0
  9
$UCSORGBACK
 10
0.0
 20
0.0
 30
0.0
  9
$PUCSBASE
  2

  9
$PUCSNAME
  2

  9
$PUCSORG
 10
0.0
 20
0.0
 30
0.0
  9
$PUCSXDIR
 10
1.0
 20
0.0
 30
0.0
  9
$PUCSYDIR
 10
0.0
 20
1.0
 30
0.0
  9
$PUCSORTHOREF
  2

  9
$PUCSORTHOVIEW
 70
     0
  9
$PUCSORGTOP
 10
0.0
 20
0.0
 30
0.0
  9
$PUCSORGBOTTOM
 10
0.0
 20
0.0
 30
0.0
  9
$PUCSORGLEFT
 10
0.0
 20
0.0
 30
0.0
  9
$PUCSORGRIGHT
 10
0.0
 20
0.0
 30
0.0
  9
$PUCSORGFRONT
 10
0.0
 20
0.0
 30
0.0
  9
$PUCSORGBACK
 10
0.0
 20
0.0
 30
0.0
  9
$USERI1
 70
     0
  9
$USERI2
 70
     0
  9
$USERI3
 70
     0
  9
$USERI4
 70
     0
  9
$USERI5
 70
     0
  9
$USERR1
 40
0.0
  9
$USERR2
 40
0.0
  9
$USERR3
 40
0.0
  9
$USERR4
 40
0.0
  9
$USERR5
 40
0.0
  9
$WORLDVIEW
 70
     1
  9
$SHADEDGE
 70
     3
  9
$SHADEDIF
 70
    70
  9
$TILEMODE
 70
     1
  9
$MAXACTVP
 70
    48
  9
$PINSBASE
 10
0.0
 20
0.0
 30
0.0
  9
$PLIMCHECK
 70
     0
  9
$PEXTMIN
 10
1.000000000000000E+20
 20
1.000000000000000E+20
 30
1.000000000000000E+20
  9
$PEXTMAX
 10
-1.000000000000000E+20
 20
-1.000000000000000E+20
 30
-1.000000000000000E+20
  9
$PLIMMIN
 10
0.0
 20
0.0
  9
$PLIMMAX
 10
420.0
 20
297.0
  9
$UNITMODE
 70
     0
  9
$VISRETAIN
 70
     1
  9
$PLINEGEN
 70
     0
  9
$PSLTSCALE
 70
     1
  9
$TREEDEPTH
 70
  3020
  9
$CMLSTYLE
  2
STANDARD
  9
$CMLJUST
 70
     0
  9
$CMLSCALE
 40
20.0
  9
$PROXYGRAPHICS
 70
     1
  9
$MEASUREMENT
 70
     0
  9
$CELWEIGHT
370
    -1
  9
$ENDCAPS
280
     0
  9
$JOINSTYLE
280
     0
  9
$LWDISPLAY
290
     0
  9
$INSUNITS
 70
     0
  9
$HYPERLINKBASE
  1

  9
$STYLESHEET
  1

  9
$XEDIT
290
     1
  9
$CEPSNTYPE
380
     0
  9
$PSTYLEMODE
290
     1
  9
$FINGERPRINTGUID
  2
{41908BA5-1B5E-41E5-9418-DCE65A73D55D}
  9
$VERSIONGUID
  2
{9B9B4C9B-BB79-473F-A6DA-E16C461210F4}
  9
$EXTNAMES
290
     1
  9
$PSVPSCALE
 40
0.0
  9
$OLESTARTUP
290
     0
  0
ENDSEC
  0
SECTION
  2
CLASSES
  0
CLASS
  1
ACDBDICTIONARYWDFLT
  2
AcDbDictionaryWithDefault
  3
ObjectDBX Classes
 90
        0
280
     0
281
     0
  0
CLASS
  1
ACDBPLACEHOLDER
  2
AcDbPlaceHolder
  3
ObjectDBX Classes
 90
        0
280
     0
281
     0
  0
CLASS
  1
LAYOUT
  2
AcDbLayout
  3
ObjectDBX Classes
 90
        0
280
     0
281
     0
  0
CLASS
  1
DICTIONARYVAR
  2
AcDbDictionaryVar
  3
ObjectDBX Classes
 90
        0
280
     0
281
     0
  0
CLASS
  1
MATERIAL
  2
AcDbMaterial
  3
ObjectDBX Classes
 90
     1153
280
     0
281
     0
  0
CLASS
  1
VISUALSTYLE
  2
AcDbVisualStyle
  3
ObjectDBX Classes
 90
     4095
280
     0
281
     0
  0
CLASS
  1
TABLESTYLE
  2
AcDbTableStyle
  3
ObjectDBX Classes
 90
     4095
280
     0
281
     0
  0
CLASS
  1
SCALE
  2
AcDbScale
  3
ObjectDBX Classes
 90
     1153
280
     0
281
     0
  0
CLASS
  1
MLEADERSTYLE
  2
AcDbMLeaderStyle
  3
ACDB_MLEADERSTYLE_CLASS
 90
     4095
280
     0
281
     0
  0
CLASS
  1
ACDBSECTIONVIEWSTYLE
  2
AcDbSectionViewStyle
  3
ObjectDBX Classes
 90
     1025
280
     0
281
     0
  0
CLASS
  1
ACDBDETAILVIEWSTYLE
  2
AcDbDetailViewStyle
  3
ObjectDBX Classes
 90
     1025
280
     0
281
     0
  0
CLASS
  1
CELLSTYLEMAP
  2
AcDbCellStyleMap
  3
ObjectDBX Classes
 90
     1152
280
     0
281
     0
  0
ENDSEC
  0
SECTION
  2
TABLES
  0
TABLE
  2
VPORT
  5
8
330
0
100
AcDbSymbolTable
 70
     1
  0
VPORT
  5
81E3
330
8
100
AcDbSymbolTableRecord
100
AcDbViewportTableRecord
  2
*ACTIVE
 70
     0
 10
0.0
 20
0.0
 11
1.0
 21
1.0
 12
351.0999853687687
 22
207.9963198159973
 13
0.0
 23
0.0
 14
10.0
 24
10.0
 15
10.0
 25
10.0
 16
0.0
 26
0.0
 36
1.0
 17
0.0
 27
0.0
 37
0.0
 40
399.068743891875
 41
1.899603698811096
 42
50.0
 43
0.0
 44
0.0
 50
0.0
 51
0.0
 71
     0
 72
   100
 73
     1
 74
     0
 75
     0
 76
     0
 77
     0
 78
     0
281
     0
 65
     1
110
0.0
120
0.0
130
0.0
111
1.0
121
0.0
131
0.0
112
0.0
122
1.0
132
0.0
 79
     0
146
0.0
1001
ACAD_NAV_VCDISPLAY
1070
     3
  0
ENDTAB
  0
TABLE
  2
LTYPE
  5
5
330
0
100
AcDbSymbolTable
 70
     4
  0
LTYPE
  5
12
330
5
100
AcDbSymbolTableRecord
100
AcDbLinetypeTableRecord
  2
BYBLOCK
 70
     0
  3

 72
    65
 73
     0
 40
0.0
  0
LTYPE
  5
13
330
5
100
AcDbSymbolTableRecord
100
AcDbLinetypeTableRecord
  2
BYLAYER
 70
     0
  3

 72
    65
 73
     0
 40
0.0
  0
LTYPE
  5
14
330
5
100
AcDbSymbolTableRecord
100
AcDbLinetypeTableRecord
  2
CONTINUOUS
 70
     0
  3
Solid line
 72
    65
 73
     0
 40
0.0
  0
LTYPE
  5
4B
330
5
100
AcDbSymbolTableRecord
100
AcDbLinetypeTableRecord
  2
DASHED
 70
     0
  3
Dashed __ __ __ __ __ __ __ __ __ __ __ __ __ _
 72
    65
 73
     2
 40
19.04999999999999
 49
12.7
 74
     0
 49
-6.349999999999998
 74
     0
  0
LTYPE
  5
4C
330
5
100
AcDbSymbolTableRecord
100
AcDbLinetypeTableRecord
  2
CENTER
 70
     0
  3
Center ____ _ ____ _ ____ _ ____ _ ____ _ ____
 72
    65
 73
     4
 40
50.8
 49
31.75
 74
     0
 49
-6.349999999999998
 74
     0
 49
6.349999999999998
 74
     0
 49
-6.349999999999998
 74
     0
  0
LTYPE
  5
4D
330
5
100
AcDbSymbolTableRecord
100
AcDbLinetypeTableRecord
  2
PHANTOM
 70
     0
  3
Phantom ______  __  __  ______  __  __  ______
 72
    65
 73
     6
 40
63.5
 49
31.75
 74
     0
 49
-6.349999999999998
 74
     0
 49
6.349999999999998
 74
     0
 49
-6.349999999999998
 74
     0
 49
6.349999999999998
 74
     0
 49
-6.349999999999998
 74
     0
  0
ENDTAB
  0
TABLE
  2
LAYER
  5
2
330
0
100
AcDbSymbolTable
 70
     8
  0
LAYER
  5
E
102
{ACAD_XDICTIONARY
360
823D
102
}
330
2
100
AcDbSymbolTableRecord
100
AcDbLayerTableRecord
  2
0
 70
     0
 62
     7
  6
CONTINUOUS
370
    -3
390
81EC
  0
LAYER
  5
4E
102
{ACAD_XDICTIONARY
360
823F
102
}
330
2
100
AcDbSymbolTableRecord
100
AcDbLayerTableRecord
  2
4
 70
     0
 62
     1
  6
CENTER
370
    -3
390
81EC
  0
LAYER
  5
4F
102
{ACAD_XDICTIONARY
360
8241
102
}
330
2
100
AcDbSymbolTableRecord
100
AcDbLayerTableRecord
  2
5
 70
     0
 62
     6
  6
PHANTOM
370
    -3
390
81EC
  0
LAYER
  5
50
102
{ACAD_XDICTIONARY
360
8243
102
}
330
2
100
AcDbSymbolTableRecord
100
AcDbLayerTableRecord
  2
1
 70
     0
 62
     7
  6
CONTINUOUS
370
    -3
390
81EC
  0
LAYER
  5
51
102
{ACAD_XDICTIONARY
360
8245
102
}
330
2
100
AcDbSymbolTableRecord
100
AcDbLayerTableRecord
  2
2
 70
     0
 62
     4
  6
CONTINUOUS
370
    -3
390
81EC
  0
LAYER
  5
52
102
{ACAD_XDICTIONARY
360
8247
102
}
330
2
100
AcDbSymbolTableRecord
100
AcDbLayerTableRecord
  2
3
 70
     0
 62
     2
  6
DASHED
370
    -3
390
81EC
  0
LAYER
  5
53
102
{ACAD_XDICTIONARY
360
8249
102
}
330
2
100
AcDbSymbolTableRecord
100
AcDbLayerTableRecord
  2
6
 70
     0
 62
     5
  6
CONTINUOUS
370
    -3
390
81EC
  0
LAYER
  5
54
102
{ACAD_XDICTIONARY
360
824B
102
}
330
2
100
AcDbSymbolTableRecord
100
AcDbLayerTableRecord
  2
7
 70
     0
 62
     3
  6
CONTINUOUS
370
    -3
390
81EC
  0
ENDTAB
  0
TABLE
  2
STYLE
  5
3
330
0
100
AcDbSymbolTable
 70
     1
  0
STYLE
  5
F
330
3
100
AcDbSymbolTableRecord
100
AcDbTextStyleTableRecord
  2
STANDARD
 70
     0
 40
0.0
 41
1.0
 50
0.0
 71
     0
 42
1.0
  3
simplex.shx
  4

  0
ENDTAB
  0
TABLE
  2
VIEW
  5
6
330
0
100
AcDbSymbolTable
 70
     0
  0
ENDTAB
  0
TABLE
  2
UCS
  5
7
330
0
100
AcDbSymbolTable
 70
     0
  0
ENDTAB
  0
TABLE
  2
APPID
  5
9
330
0
100
AcDbSymbolTable
 70
     7
  0
APPID
  5
10
330
9
100
AcDbSymbolTableRecord
100
AcDbRegAppTableRecord
  2
ACAD
 70
     0
  0
APPID
  5
3E
330
9
100
AcDbSymbolTableRecord
100
AcDbRegAppTableRecord
  2
CONTENTTABDATA
 70
     0
  0
APPID
  5
3F
330
9
100
AcDbSymbolTableRecord
100
AcDbRegAppTableRecord
  2
CONTENTCURRENTTAB
 70
     0
  0
APPID
  5
F0A
330
9
100
AcDbSymbolTableRecord
100
AcDbRegAppTableRecord
  2
CONTENTBLOCKICON
 70
     0
  0
APPID
  5
F0B
330
9
100
AcDbSymbolTableRecord
100
AcDbRegAppTableRecord
  2
CONTENTBLOCKDESCRIPTION
 70
     0
  0
APPID
  5
8257
330
9
100
AcDbSymbolTableRecord
100
AcDbRegAppTableRecord
  2
ACAD_NAV_VCDISPLAY
 70
     0
  0
APPID
  5
8290
330
9
100
AcDbSymbolTableRecord
100
AcDbRegAppTableRecord
  2
ACAD_MLEADERVER
 70
     0
  0
ENDTAB
  0
TABLE
  2
DIMSTYLE
  5
A
330
0
100
AcDbSymbolTable
 70
     1
100
AcDbDimStyleTable
 71
     0
  0
DIMSTYLE
105
1D
330
A
100
AcDbSymbolTableRecord
100
AcDbDimStyleTableRecord
  2
STANDARD
 70
     0
 41
3.0
 42
1.0
 43
10.0
 44
1.0
 73
     0
 74
     0
 77
     3
 78
     8
140
3.2
141
0.0
147
1.0
172
     1
173
     1
340
F
341
2E
343
2E
344
2E
  0
ENDTAB
  0
TABLE
  2
BLOCK_RECORD
  5
1
330
0
100
AcDbSymbolTable
 70
     1
  0
BLOCK_RECORD
  5
18
102
{ACAD_XDICTIONARY
360
81E6
102
}
330
1
100
AcDbSymbolTableRecord
100
AcDbBlockTableRecord
  2
*MODEL_SPACE
340
823A
  0
BLOCK_RECORD
  5
15
102
{ACAD_XDICTIONARY
360
81E4
102
}
330
1
100
AcDbSymbolTableRecord
100
AcDbBlockTableRecord
  2
*PAPER_SPACE
340
823B
  0
BLOCK_RECORD
  5
2E
330
1
100
AcDbSymbolTableRecord
100
AcDbBlockTableRecord
  2
_OPEN
340
0
  0
ENDTAB
  0
ENDSEC
  0
SECTION
  2
BLOCKS
  0
BLOCK
  5
19
330
18
100
AcDbEntity
  8
0
100
AcDbBlockBegin
  2
*MODEL_SPACE
 70
     0
 10
0.0
 20
0.0
 30
0.0
  3
*MODEL_SPACE
  1

  0
ENDBLK
  5
1A
330
18
100
AcDbEntity
  8
0
100
AcDbBlockEnd
  0
BLOCK
  5
16
330
15
100
AcDbEntity
 67
     1
  8
0
100
AcDbBlockBegin
  2
*PAPER_SPACE
 70
     0
 10
0.0
 20
0.0
 30
0.0
  3
*PAPER_SPACE
  1

  0
ENDBLK
  5
17
330
15
100
AcDbEntity
 67
     1
  8
0
100
AcDbBlockEnd
  0
BLOCK
  5
2F
330
2E
100
AcDbEntity
  8
0
100
AcDbBlockBegin
  2
_OPEN
 70
     0
 10
0.0
 20
0.0
 30
0.0
  3
_OPEN
  1

  0
LINE
  5
30
330
2E
100
AcDbEntity
  8
0
  6
ByBlock
 62
     0
100
AcDbLine
 10
-1.0
 20
0.1666666666666666
 30
0.0
 11
0.0
 21
0.0
 31
0.0
  0
LINE
  5
31
330
2E
100
AcDbEntity
  8
0
  6
ByBlock
 62
     0
100
AcDbLine
 10
0.0
 20
0.0
 30
0.0
 11
-1.0
 21
-0.1666666666666666
 31
0.0
  0
LINE
  5
32
330
2E
100
AcDbEntity
  8
0
  6
ByBlock
 62
     0
100
AcDbLine
 10
0.0
 20
0.0
 30
0.0
 11
-1.0
 21
0.0
 31
0.0
  0
ENDBLK
  5
33
330
2E
100
AcDbEntity
  8
0
100
AcDbBlockEnd
  0
ENDSEC
  0
SECTION
  2
ENTITIES
  0
TEXT
  5
63
330
18
100
AcDbEntity
  8
4
  6
CENTER
 48
0.25
100
AcDbText
 10
23.97950852663849
 20
10.0
 30
0.0
 40
1.399999999999999
  1
4
100
AcDbText
  0
TEXT
  5
64
330
18
100
AcDbEntity
  8
7
  6
Continuous
 48
0.25
100
AcDbText
 10
9.999997526638502
 20
26.0000007607689
 30
0.0
 40
3.0
  1
CODE No.5503
100
AcDbText
  0
TEXT
  5
65
330
18
100
AcDbEntity
  8
7
  6
Continuous
 48
0.25
100
AcDbText
 10
9.999997526638502
 20
18.00000076076889
 30
0.0
 40
3.0
  1
TYPE No.TM-300-L
100
AcDbText
  0
TEXT
  5
66
330
18
100
AcDbEntity
  8
1
  6
Continuous
 48
0.25
100
AcDbText
 10
9.999997526638502
 20
10.00000076076889
 30
0.0
 40
1.399999999999999
  1
LAYER
100
AcDbText
  0
TEXT
  5
67
330
18
100
AcDbEntity
  8
2
  6
Continuous
 48
0.25
100
AcDbText
 10
19.9795085266385
 20
10.0
 30
0.0
 40
1.399999999999999
  1
2
100
AcDbText
  0
TEXT
  5
68
330
18
100
AcDbEntity
  8
3
  6
DASHED
 48
0.25
100
AcDbText
 10
21.9795085266385
 20
10.0
 30
0.0
 40
1.399999999999999
  1
3
100
AcDbText
  0
TEXT
  5
69
330
18
100
AcDbEntity
  8
1
  6
Continuous
 48
0.25
100
AcDbText
 10
17.9795085266385
 20
10.0
 30
0.0
 40
1.399999999999999
  1
1
100
AcDbText
  0
TEXT
  5
6A
330
18
100
AcDbEntity
  8
5
  6
PHANTOM
 48
0.25
100
AcDbText
 10
25.9795085266385
 20
10.0
 30
0.0
 40
1.399999999999999
  1
5
100
AcDbText
  0
TEXT
  5
6B
330
18
100
AcDbEntity
  8
6
  6
Continuous
 48
0.25
100
AcDbText
 10
27.9795085266385
 20
10.0
 30
0.0
 40
1.399999999999999
  1
6
100
AcDbText
  0
TEXT
  5
6C
330
18
100
AcDbEntity
  8
7
  6
Continuous
 48
0.25
100
AcDbText
 10
29.9795085266385
 20
10.0
 30
0.0
 40
1.399999999999999
  1
7
100
AcDbText
  0
LINE
  5
4B3
330
18
100
AcDbEntity
  8
1
  6
Continuous
 48
0.25
100
AcDbLine
 10
138.0625158420652
 20
296.1474477441484
 30
0.0
 11
138.0625158211156
 21
280.1474477420536
 31
0.0
  0
LINE
  5
4B4
330
18
100
AcDbEntity
  8
1
  6
Continuous
 48
0.25
100
AcDbLine
 10
139.6625158211156
 20
297.7474477420534
 30
0.0
 11
139.6625158211156
 21
280.1474477420534
 31
0.0
  0
LINE
  5
4B5
330
18
100
AcDbEntity
  8
1
  6
Continuous
 48
0.25
100
AcDbLine
 10
45.66251690152589
 20
285.1474477420536
 30
0.0
 11
45.66251690152593
 21
297.7474477420536
 31
0.0
  0
LINE
  5
4B6
330
18
100
AcDbEntity
  8
1
  6
Continuous
 48
0.25
100
AcDbLine
 10
35.66251690152614
 20
297.7474477420536
 30
0.0
 11
35.66251690152578
 21
285.1474477420536
 31
0.0
  0
ARC
  5
4B7
330
18
100
AcDbEntity
  8
1
  6
Continuous
 48
0.25
100
AcDbCircle
 10
36.66250080051771
 20
145.14738555965
 30
0.0
 40
1.0
100
AcDbArc
 50
0.0
 51
89.9999999999996
  0
LINE
  5
4B8
330
18
100
AcDbEntity
  8
1
  6
Continuous
 48
0.25
100
AcDbLine
 10
29.34587912788169
 20
156.14738555965
 30
0.0
 11
51.97912408810083
 21
156.1473855596499
 31
0.0
  0
LINE
  5
4B9
330
18
100
AcDbEntity
  8
4
  6
CENTER
 48
0.1
100
AcDbLine
 10
36.66251690152578
 20
285.1474477420536
 30
0.0
 11
44.66251690152577
 21
285.1474477420536
 31
0.0
  0
LINE
  5
4BA
330
18
100
AcDbEntity
  8
4
  6
CENTER
 48
0.1
100
AcDbLine
 10
36.66251690152591
 20
258.1474177420537
 30
0.0
 11
44.6625169015259
 21
258.1474177420537
 31
0.0
  0
LINE
  5
4BB
330
18
100
AcDbEntity
  8
4
  6
CENTER
 48
0.25
100
AcDbLine
 10
24.91251690152577
 20
218.1474177420537
 30
0.0
 11
38.41251690152578
 21
218.1474177420536
 31
0.0
  0
ARC
  5
4BD
330
18
100
AcDbEntity
  8
1
  6
Continuous
 48
0.25
100
AcDbCircle
 10
31.66251690152566
 20
218.1474176271905
 30
0.0
 40
5.5
100
AcDbArc
 50
269.9999868376189
 51
359.9999868376161
  0
ARC
  5
4BE
330
18
100
AcDbEntity
  8
1
  6
Continuous
 48
0.25
100
AcDbCircle
 10
31.66251690152577
 20
218.1474177419941
 30
0.0
 40
6.751801008010772
100
AcDbArc
 50
359.9999948848871
 51
90.0
  0
ARC
  5
4BF
330
18
100
AcDbEntity
  8
1
  6
Continuous
 48
0.25
100
AcDbCircle
 10
31.66251690152577
 20
218.1474177420537
 30
0.0
 40
5.25
100
AcDbArc
 50
90.0
 51
0.000006580537849
  0
ARC
  5
4C0
330
18
100
AcDbEntity
  8
1
  6
Continuous
 48
0.25
100
AcDbCircle
 10
40.66251690152578
 20
285.1474477420536
 30
0.0
 40
5.000000000000071
100
AcDbArc
 50
180.0
 51
0.0
  0
LINE
  5
4C1
330
18
100
AcDbEntity
  8
1
  6
Continuous
 48
0.25
100
AcDbLine
 10
35.66247963954221
 20
173.7382304569476
 30
0.0
 11
35.66247559845211
 21
156.1473855596499
 31
0.0
  0
CIRCLE
  5
4C2
330
18
100
AcDbEntity
  8
1
  6
Continuous
 48
0.25
100
AcDbCircle
 10
30.66250150981673
 20
151.1473855596499
 30
0.0
 40
1.85
  0
LINE
  5
4C3
330
18
100
AcDbEntity
  8
1
  6
Continuous
 48
0.25
100
AcDbLine
 10
29.34587912788135
 20
146.14738555965
 30
0.0
 11
36.66250080051771
 21
146.1473855596499
 31
0.0
  0
LINE
  5
4C4
330
18
100
AcDbEntity
  8
4
  6
CENTER
 48
0.1
100
AcDbLine
 10
27.31250150981674
 20
151.1473855596499
 30
0.0
 11
34.01250150981673
 21
151.1473855596499
 31
0.0
  0
ARC
  5
4C5
330
18
100
AcDbEntity
  8
1
  6
Continuous
 48
0.25
100
AcDbCircle
 10
32.662503918237
 20
151.1473855596499
 30
0.0
 40
6.0
100
AcDbArc
 50
123.5573097619196
 51
236.442690238077
  0
LINE
  5
4C6
330
18
100
AcDbEntity
  8
4
  6
CENTER
 48
0.1
100
AcDbLine
 10
30.66250150981676
 20
147.7973855596499
 30
0.0
 11
30.66250150981676
 21
154.4973855596499
 31
0.0
  0
LINE
  5
4C7
330
18
100
AcDbEntity
  8
1
  6
Continuous
 48
0.25
100
AcDbLine
 10
36.26250150981661
 20
146.14738555965
 30
0.0
 11
36.26250150981667
 21
156.14738555965
 31
0.0
  0
LINE
  5
4C8
330
18
100
AcDbEntity
  8
1
  6
Continuous
 48
0.25
100
AcDbLine
 10
31.66251690152586
 20
228.2383007196056
 30
0.0
 11
31.66251690152577
 21
223.3974177420536
 31
0.0
  0
ARC
  5
4C9
330
18
100
AcDbEntity
  8
1
  6
Continuous
 48
0.25
100
AcDbCircle
 10
-64.33752038131962
 20
173.6474177420539
 30
0.0
 40
100.0
100
AcDbArc
 50
0.0
 51
13.26141731543295
  0
LINE
  5
4CA
330
18
100
AcDbEntity
  8
1
  6
Continuous
 48
0.25
100
AcDbLine
 10
31.66251569545943
 20
212.8974176271906
 30
0.0
 11
31.66251458338925
 21
208.0565819396256
 31
0.0
  0
ARC
  5
4CB
330
18
100
AcDbEntity
  8
1
  6
Continuous
 48
0.25
100
AcDbCircle
 10
81.66251458338672
 20
208.0565704532806
 30
0.0
 40
50.0
100
AcDbArc
 50
179.9999999999991
 51
193.2614173154329
  0
CIRCLE
  5
4CC
330
18
100
AcDbEntity
  8
1
  6
Continuous
 48
0.25
100
AcDbCircle
 10
31.66251690152577
 20
218.1474177420537
 30
0.0
 40
0.8000000000000007
  0
CIRCLE
  5
4CD
330
18
100
AcDbEntity
  8
1
  6
Continuous
 48
0.25
100
AcDbCircle
 10
31.66251690152577
 20
218.1474177420537
 30
0.0
 40
2.0
  0
LINE
  5
4CE
330
18
100
AcDbEntity
  8
4
  6
CENTER
 48
0.25
100
AcDbLine
 10
31.66251690152577
 20
211.3974176271905
 30
0.0
 11
31.6625169015258
 21
224.8974177420536
 31
0.0
  0
LINE
  5
4CF
330
18
100
AcDbEntity
  8
1
  6
Continuous
 48
0.25
100
AcDbLine
 10
35.54993476784836
 20
257.9046561345967
 30
0.0
 11
34.18859671780552
 21
268.1474177421804
 31
0.0
  0
ARC
  5
4D0
330
18
100
AcDbEntity
  8
1
  6
Continuous
 48
0.25
100
AcDbCircle
 10
-64.33753461668999
 20
262.6473831932534
 30
0.0
 40
100.0
100
AcDbArc
 50
346.7386102483724
 51
0.0
  0
ARC
  5
4D1
330
18
100
AcDbEntity
  8
1
  6
Continuous
 48
0.25
100
AcDbCircle
 10
81.66251690152581
 20
228.238300719605
 30
0.0
 40
50.0
100
AcDbArc
 50
166.7386102483724
 51
179.9999999999991
  0
LINE
  5
4D2
330
18
100
AcDbEntity
  8
1
  6
Continuous
 48
0.25
100
AcDbLine
 10
32.16248984152696
 20
268.1474177421804
 30
0.0
 11
32.16248984152699
 21
276.1474177421803
 31
0.0
  0
LINE
  5
4D3
330
18
100
AcDbEntity
  8
1
  6
Continuous
 48
0.25
100
AcDbLine
 10
35.00360301456487
 20
268.0874399776514
 30
0.0
 11
35.662516901526
 21
263.1297456974858
 31
0.0
  0
LINE
  5
4D4
330
18
100
AcDbEntity
  8
1
  6
Continuous
 48
0.25
100
AcDbLine
 10
35.66248984152682
 20
267.1474177421803
 30
0.0
 11
35.66248984152682
 21
262.6473831932536
 31
0.0
  0
LINE
  5
4D5
330
18
100
AcDbEntity
  8
1
  6
Continuous
 48
0.25
100
AcDbLine
 10
34.66248984152696
 20
268.1474177421803
 30
0.0
 11
32.16248984152696
 21
268.1474177421803
 31
0.0
  0
ARC
  5
4D7
330
18
100
AcDbEntity
  8
1
  6
Continuous
 48
0.25
100
AcDbCircle
 10
34.66248984152684
 20
267.1474177421804
 30
0.0
 40
1.0
100
AcDbArc
 50
0.0
 51
90.0
  0
LINE
  5
4D8
330
18
100
AcDbEntity
  8
1
  6
Continuous
 48
0.25
100
AcDbLine
 10
34.75880441618315
 20
277.0401531635096
 30
0.0
 11
35.66251690152583
 21
285.4166231758874
 31
0.0
  0
LINE
  5
4D9
330
18
100
AcDbEntity
  8
1
  6
Continuous
 48
0.25
100
AcDbLine
 10
35.41769906306882
 20
283.1474177420893
 30
0.0
 11
33.66251690152597
 21
283.1474177420894
 31
0.0
  0
LINE
  5
4DA
330
18
100
AcDbEntity
  8
1
  6
Continuous
 48
0.25
100
AcDbLine
 10
34.87826390481763
 20
278.1474177420895
 30
0.0
 11
33.662516901526
 21
278.1474177420895
 31
0.0
  0
ARC
  5
4DB
330
18
100
AcDbEntity
  8
1
  6
Continuous
 48
0.25
100
AcDbCircle
 10
33.76457390460018
 20
277.1474177421806
 30
0.0
 40
1.0
100
AcDbArc
 50
270.0
 51
353.8423456178837
  0
LINE
  5
4DC
330
18
100
AcDbEntity
  8
1
  6
Continuous
 48
0.25
100
AcDbLine
 10
33.76457390460024
 20
276.1474177421805
 30
0.0
 11
32.16248984152699
 21
276.1474177421805
 31
0.0
  0
LINE
  5
4DD
330
18
100
AcDbEntity
  8
1
  6
Continuous
 48
0.25
100
AcDbLine
 10
33.66251690152604
 20
283.1474177420893
 30
0.0
 11
33.66251690152597
 21
278.1474177420895
 31
0.0
  0
LINE
  5
4DE
330
18
100
AcDbEntity
  8
1
  6
Continuous
 48
0.25
100
AcDbLine
 10
34.66251690152603
 20
283.1474177420893
 30
0.0
 11
34.66251690152597
 21
278.1474177420895
 31
0.0
  0
LINE
  5
4DF
330
18
100
AcDbEntity
  8
5
  6
PHANTOM
 48
0.15
100
AcDbLine
 10
143.899823915748
 20
212.7911144037661
 30
0.0
 11
140.1056580074586
 21
146.1490021752421
 31
0.0
  0
LINE
  5
4E0
330
18
100
AcDbEntity
  8
5
  6
PHANTOM
 48
0.15
100
AcDbLine
 10
145.4118725751069
 20
211.2007950988662
 30
0.0
 11
141.7030711728241
 21
146.0580561521478
 31
0.0
  0
LINE
  5
4E1
330
18
100
AcDbEntity
  8
1
  6
Continuous
 48
0.25
100
AcDbLine
 10
141.7625158211196
 20
260.1474177421806
 30
0.0
 11
141.7624992807771
 21
146.1473854033429
 31
0.0
  0
LINE
  5
4E2
330
18
100
AcDbEntity
  8
1
  6
Continuous
 48
0.25
100
AcDbLine
 10
140.1625158211197
 20
260.1474177421806
 30
0.0
 11
140.1624992807773
 21
146.1473854033429
 31
0.0
  0
ARC
  5
4E3
330
18
100
AcDbEntity
  8
1
  6
Continuous
 48
0.25
100
AcDbCircle
 10
-97.33749466675938
 20
167.7907467996645
 30
0.0
 40
144.0
100
AcDbArc
 50
355.3621908555824
 51
9.388988483834992
  0
LINE
  5
4E4
330
18
100
AcDbEntity
  8
1
  6
Continuous
 48
0.25
100
AcDbLine
 10
44.66250080051764
 20
146.1473855596499
 30
0.0
 11
51.97912408810077
 21
146.1473855596499
 31
0.0
  0
LINE
  5
4E5
330
18
100
AcDbEntity
  8
4
  6
CENTER
 48
0.1
100
AcDbLine
 10
47.31250150981674
 20
151.1473855596499
 30
0.0
 11
54.01250150981672
 21
151.1473855596498
 31
0.0
  0
LINE
  5
4E6
330
18
100
AcDbEntity
  8
1
  6
Continuous
 48
0.25
100
AcDbLine
 10
43.66250080051761
 20
141.5474016562996
 30
0.0
 11
43.66250080051761
 21
145.1473855596499
 31
0.0
  0
LINE
  5
4E7
330
18
100
AcDbEntity
  8
1
  6
Continuous
 48
0.25
100
AcDbLine
 10
37.66250080051768
 20
141.5474016562996
 30
0.0
 11
37.66250080051768
 21
145.14738555965
 31
0.0
  0
LINE
  5
4E8
330
18
100
AcDbEntity
  8
1
  6
Continuous
 48
0.25
100
AcDbLine
 10
37.66250080051768
 20
141.5474016562996
 30
0.0
 11
43.66250080051761
 21
141.5474016562996
 31
0.0
  0
CIRCLE
  5
4E9
330
18
100
AcDbEntity
  8
1
  6
Continuous
 48
0.25
100
AcDbCircle
 10
40.6625015098167
 20
151.14738555965
 30
0.0
 40
2.0
  0
LINE
  5
4EA
330
18
100
AcDbEntity
  8
4
  6
CENTER
 48
0.1
100
AcDbLine
 10
40.66250150981672
 20
147.64738555965
 30
0.0
 11
40.66250150981676
 21
154.64738555965
 31
0.0
  0
CIRCLE
  5
4EB
330
18
100
AcDbEntity
  8
1
  6
Continuous
 48
0.25
100
AcDbCircle
 10
40.6625015098167
 20
151.14738555965
 30
0.0
 40
0.8000000000000007
  0
LINE
  5
4EC
330
18
100
AcDbEntity
  8
1
  6
Continuous
 48
0.25
100
AcDbLine
 10
45.06250150981663
 20
146.1473855596499
 30
0.0
 11
45.06250150981667
 21
156.1473855596499
 31
0.0
  0
ARC
  5
4ED
330
18
100
AcDbEntity
  8
1
  6
Continuous
 48
0.25
100
AcDbCircle
 10
44.66250080051767
 20
145.14738555965
 30
0.0
 40
1.0
100
AcDbArc
 50
89.9999999999996
 51
179.9999999999991
  0
ARC
  5
4EE
330
18
100
AcDbEntity
  8
1
  6
Continuous
 48
0.25
100
AcDbCircle
 10
48.66249929774539
 20
151.1473855596499
 30
0.0
 40
6.0
100
AcDbArc
 50
303.5573097619212
 51
56.44269023807886
  0
CIRCLE
  5
4EF
330
18
100
AcDbEntity
  8
1
  6
Continuous
 48
0.25
100
AcDbCircle
 10
50.66250150981677
 20
151.1473855596499
 30
0.0
 40
1.85
  0
LINE
  5
4F0
330
18
100
AcDbEntity
  8
4
  6
CENTER
 48
0.1
100
AcDbLine
 10
50.6625015098167
 20
147.7973855596499
 30
0.0
 11
50.66250150981677
 21
154.4973855596499
 31
0.0
  0
ARC
  5
4F1
330
18
100
AcDbEntity
  8
1
  6
Continuous
 48
0.25
100
AcDbCircle
 10
139.6624992807773
 20
143.1473855596499
 30
0.0
 40
1.6
100
AcDbArc
 50
179.9999999999991
 51
269.9999999999996
  0
LINE
  5
4F2
330
18
100
AcDbEntity
  8
1
  6
Continuous
 48
0.25
100
AcDbLine
 10
134.662499280781
 20
156.1473855596499
 30
0.0
 11
139.6624992807774
 21
156.1473855596499
 31
0.0
  0
LINE
  5
4F3
330
18
100
AcDbEntity
  8
1
  6
Continuous
 48
0.25
100
AcDbLine
 10
134.662499280781
 20
146.1473855596499
 30
0.0
 11
139.6624992807774
 21
146.1473855596499
 31
0.0
  0
LINE
  5
4F4
330
18
100
AcDbEntity
  8
4
  6
CENTER
 48
0.2
100
AcDbLine
 10
133.1624992807809
 20
151.1473863353823
 30
0.0
 11
145.2625000062307
 21
151.1473863353822
 31
0.0
  0
LINE
  5
4F5
330
18
100
AcDbEntity
  8
1
  6
Continuous
 48
0.25
100
AcDbLine
 10
138.0624992807772
 20
143.1473855596499
 30
0.0
 11
138.0624992807772
 21
146.1473855596499
 31
0.0
  0
LINE
  5
4F6
330
18
100
AcDbEntity
  8
1
  6
Continuous
 48
0.25
100
AcDbLine
 10
134.662499280781
 20
156.1473855596499
 30
0.0
 11
134.662499280781
 21
146.14738555965
 31
0.0
  0
LINE
  5
4F7
330
18
100
AcDbEntity
  8
1
  6
Continuous
 48
0.25
100
AcDbLine
 10
136.2624992807809
 20
156.1473855596498
 30
0.0
 11
136.2624992807809
 21
146.1473855596499
 31
0.0
  0
LINE
  5
4F8
330
18
100
AcDbEntity
  8
1
  6
Continuous
 48
0.25
100
AcDbLine
 10
144.0624992807773
 20
143.1473855596499
 30
0.0
 11
144.0624992807773
 21
147.54738555965
 31
0.0
  0
LINE
  5
4F9
330
18
100
AcDbEntity
  8
1
  6
Continuous
 48
0.25
100
AcDbLine
 10
145.6624992807773
 20
143.1473855596499
 30
0.0
 11
145.6624992807773
 21
147.54738555965
 31
0.0
  0
LINE
  5
4FA
330
18
100
AcDbEntity
  8
1
  6
Continuous
 48
0.25
100
AcDbLine
 10
139.6624992807773
 20
143.1473855596499
 30
0.0
 11
139.6624992807773
 21
156.1473855596499
 31
0.0
  0
ARC
  5
4FB
330
18
100
AcDbEntity
  8
1
  6
Continuous
 48
0.25
100
AcDbCircle
 10
144.0624992807773
 20
143.1473855596499
 30
0.0
 40
1.6
100
AcDbArc
 50
270.0
 51
0.0
  0
LINE
  5
4FC
330
18
100
AcDbEntity
  8
1
  6
Continuous
 48
0.25
100
AcDbLine
 10
144.0624992807773
 20
141.54738555965
 30
0.0
 11
139.6624992807773
 21
141.54738555965
 31
0.0
  0
LINE
  5
4FD
330
18
100
AcDbEntity
  8
1
  6
Continuous
 48
0.25
100
AcDbLine
 10
144.0624992807773
 20
143.1473855596499
 30
0.0
 11
139.6624992807773
 21
143.1473855596499
 31
0.0
  0
LINE
  5
4FE
330
18
100
AcDbEntity
  8
1
  6
Continuous
 48
0.25
100
AcDbLine
 10
145.6624992807773
 20
147.5473855596499
 30
0.0
 11
144.0624992807773
 21
147.54738555965
 31
0.0
  0
LINE
  5
4FF
330
18
100
AcDbEntity
  8
1
  6
Continuous
 48
0.25
100
AcDbLine
 10
142.2625000062307
 20
154.5014351814237
 30
0.0
 11
142.2625000062307
 21
147.7933359378759
 31
0.0
  0
LINE
  5
500
330
18
100
AcDbEntity
  8
1
  6
Continuous
 48
0.25
100
AcDbLine
 10
143.7625000062307
 20
154.5014351814236
 30
0.0
 11
143.7625000062307
 21
147.7933359378759
 31
0.0
  0
LINE
  5
501
330
18
100
AcDbEntity
  8
5
  6
PHANTOM
 48
0.15
100
AcDbLine
 10
140.1056580074587
 20
146.1490021752422
 30
0.0
 11
141.7030711728242
 21
146.0580561521479
 31
0.0
  0
LINE
  5
502
330
18
100
AcDbEntity
  8
1
  6
Continuous
 48
0.25
100
AcDbLine
 10
140.1624992807775
 20
146.1473854033429
 30
0.0
 11
141.7624992807771
 21
146.1473854033429
 31
0.0
  0
LINE
  5
503
330
18
100
AcDbEntity
  8
1
  6
Continuous
 48
0.25
100
AcDbLine
 10
139.6624992807774
 20
147.1473855596498
 30
0.0
 11
140.1624992807774
 21
147.1473855596498
 31
0.0
  0
LINE
  5
504
330
18
100
AcDbEntity
  8
1
  6
Continuous
 48
0.25
100
AcDbLine
 10
141.7625002238667
 20
149.6473863353823
 30
0.0
 11
142.2625000062306
 21
149.6473863353823
 31
0.0
  0
ARC
  5
505
330
18
100
AcDbEntity
  8
1
  6
Continuous
 48
0.25
100
AcDbCircle
 10
143.0125000062307
 20
149.6473855596498
 30
0.0
 40
2.0
100
AcDbArc
 50
247.9756871629572
 51
292.024312837042
  0
LINE
  5
506
330
18
100
AcDbEntity
  8
1
  6
Continuous
 48
0.25
100
AcDbLine
 10
140.1624992807774
 20
155.1473855596498
 30
0.0
 11
139.6624992807774
 21
155.1473855596498
 31
0.0
  0
LINE
  5
507
330
18
100
AcDbEntity
  8
1
  6
Continuous
 48
0.25
100
AcDbLine
 10
141.7625002238667
 20
152.6473863353823
 30
0.0
 11
142.2625000062307
 21
152.6473863353823
 31
0.0
  0
ARC
  5
508
330
18
100
AcDbEntity
  8
1
  6
Continuous
 48
0.25
100
AcDbCircle
 10
143.0125000062307
 20
152.6473855596498
 30
0.0
 40
2.0
100
AcDbArc
 50
67.97568716295794
 51
112.024312837042
  0
ARC
  5
509
330
18
100
AcDbEntity
  8
1
  6
Continuous
 48
0.25
100
AcDbCircle
 10
93.66254396152323
 20
234.430179870132
 30
0.0
 40
50.0
100
AcDbArc
 50
170.6109983537834
 51
195.9422600538626
  0
LINE
  5
50A
330
18
100
AcDbEntity
  8
1
  6
Continuous
 48
0.25
100
AcDbLine
 10
44.73341402018815
 20
191.2823815845205
 30
0.0
 11
44.33236359352105
 21
193.7078236224079
 31
0.0
  0
ARC
  5
50B
330
18
100
AcDbEntity
  8
1
  6
Continuous
 48
0.25
100
AcDbCircle
 10
93.66254022093313
 20
201.8646412560388
 30
0.0
 40
50.0
100
AcDbArc
 50
164.0577267837552
 51
189.3889884838349
  0
LINE
  5
50C
330
18
100
AcDbEntity
  8
1
  6
Continuous
 48
0.25
100
AcDbLine
 10
43.662516629787
 20
218.1474177420495
 30
0.0
 11
36.91251690152543
 21
218.147418345027
 31
0.0
  0
ARC
  5
50D
330
18
100
AcDbEntity
  8
1
  6
Continuous
 48
0.25
100
AcDbCircle
 10
43.66251644182971
 20
216.1474148702301
 30
0.0
 40
2.000000000241862
100
AcDbArc
 50
344.0577267837554
 51
89.99999461543186
  0
ARC
  5
50E
330
18
100
AcDbEntity
  8
1
  6
Continuous
 48
0.25
100
AcDbCircle
 10
43.6625169012839
 20
220.1474177422913
 30
0.0
 40
2.000000000241862
100
AcDbArc
 50
269.9999922221866
 51
15.94226005386266
  0
LINE
  5
50F
330
18
100
AcDbEntity
  8
4
  6
CENTER
 48
0.1
100
AcDbLine
 10
40.66251690152596
 20
254.1474177420537
 30
0.0
 11
40.66251690152603
 21
262.1474177420537
 31
0.0
  0
ARC
  5
510
330
18
100
AcDbEntity
  8
1
  6
Continuous
 48
0.25
100
AcDbCircle
 10
-97.3374830984742
 20
268.5041182043501
 30
0.0
 40
144.0
100
AcDbArc
 50
350.6109983537833
 51
356.6731053697603
  0
CIRCLE
  5
511
330
18
100
AcDbEntity
  8
1
  6
Continuous
 48
0.25
100
AcDbCircle
 10
40.66251690152592
 20
258.1474177420537
 30
0.0
 40
2.5
  0
LINE
  5
512
330
18
100
AcDbEntity
  8
1
  6
Continuous
 48
0.25
100
AcDbLine
 10
44.73342019180893
 20
245.0124507819858
 30
0.0
 11
44.33236920795257
 21
242.5870088362307
 31
0.0
  0
LINE
  5
513
330
18
100
AcDbEntity
  8
1
  6
Continuous
 48
0.25
100
AcDbLine
 10
49.66251690152586
 20
260.1474177421806
 30
0.0
 11
45.54001790229006
 21
260.1474177421806
 31
0.0
  0
LINE
  5
514
330
18
100
AcDbEntity
  8
1
  6
Continuous
 48
0.25
100
AcDbLine
 10
49.66251690152586
 20
269.1474177420893
 30
0.0
 11
45.5400179022901
 21
269.1474177420894
 31
0.0
  0
ARC
  5
515
330
18
100
AcDbEntity
  8
1
  6
Continuous
 48
0.25
100
AcDbCircle
 10
43.66251690152593
 20
284.1474177420536
 30
0.0
 40
6.0
100
AcDbArc
 50
315.5846914028054
 51
70.52877936550962
  0
ARC
  5
516
330
18
100
AcDbEntity
  8
1
  6
Continuous
 48
0.25
100
AcDbCircle
 10
-97.3374830984742
 20
268.5041182043501
 30
0.0
 40
144.0
100
AcDbArc
 50
0.2559620154659385
 51
6.756286112387923
  0
ARC
  5
517
330
18
100
AcDbEntity
  8
1
  6
Continuous
 48
0.25
100
AcDbCircle
 10
48.66251690152575
 20
264.647417742135
 30
0.0
 40
5.999999999999999
100
AcDbArc
 50
141.3178125473481
 51
218.6821874526518
  0
ARC
  5
518
330
18
100
AcDbEntity
  8
1
  6
Continuous
 48
0.25
100
AcDbCircle
 10
45.54001790229003
 20
262.1474177421807
 30
0.0
 40
2.0
100
AcDbArc
 50
218.6821874526518
 51
270.0
  0
ARC
  5
519
330
18
100
AcDbEntity
  8
1
  6
Continuous
 48
0.25
100
AcDbCircle
 10
47.37152245279809
 20
259.1474177421806
 30
0.0
 40
1.0
100
AcDbArc
 50
90.0
 51
151.2400786913964
  0
LINE
  5
51A
330
18
100
AcDbEntity
  8
1
  6
Continuous
 48
0.25
100
AcDbLine
 10
46.36273288803095
 20
259.2171420855182
 30
0.0
 11
46.66153565683927
 21
260.1474177421806
 31
0.0
  0
ARC
  5
51B
330
18
100
AcDbEntity
  8
1
  6
Continuous
 48
0.25
100
AcDbCircle
 10
45.54001790229
 20
267.1474177420894
 30
0.0
 40
2.0
100
AcDbArc
 50
90.0
 51
141.3178125473481
  0
CIRCLE
  5
51C
330
18
100
AcDbEntity
  8
1
  6
Continuous
 48
0.25
100
AcDbCircle
 10
40.66251690152578
 20
285.1474477420536
 30
0.0
 40
2.5
  0
LINE
  5
51D
330
18
100
AcDbEntity
  8
4
  6
CENTER
 48
0.1
100
AcDbLine
 10
40.66251690152586
 20
281.1474477420536
 30
0.0
 11
40.66251690152586
 21
289.1474477420537
 31
0.0
  0
CIRCLE
  5
51E
330
18
100
AcDbEntity
  8
1
  6
Continuous
 48
0.25
100
AcDbCircle
 10
40.66251690152578
 20
285.1474477420536
 30
0.0
 40
1.0
  0
ARC
  5
51F
330
18
100
AcDbEntity
  8
1
  6
Continuous
 48
0.25
100
AcDbCircle
 10
53.66251690152569
 20
274.3494587709207
 30
0.0
 40
8.0
100
AcDbArc
 50
135.5846914028057
 51
155.6843332049352
  0
ARC
  5
520
330
18
100
AcDbEntity
  8
1
  6
Continuous
 48
0.25
100
AcDbCircle
 10
43.65110099577075
 20
284.8859505138163
 30
0.0
 40
2.749999999999998
100
AcDbArc
 50
324.8643408849779
 51
42.99409667293544
  0
LINE
  5
521
330
18
100
AcDbEntity
  8
1
  6
Continuous
 48
0.25
100
AcDbLine
 10
49.66251690152574
 20
269.1474177420893
 30
0.0
 11
49.66251690152572
 21
260.1474177421806
 31
0.0
  0
LINE
  5
522
330
18
100
AcDbEntity
  8
5
  6
PHANTOM
 48
0.15
100
AcDbLine
 10
146.3297942018661
 20
255.4719977477595
 30
0.0
 11
144.582023199059
 21
224.7735111411623
 31
0.0
  0
LINE
  5
523
330
18
100
AcDbEntity
  8
5
  6
PHANTOM
 48
0.15
100
AcDbLine
 10
147.8021562311245
 20
253.1846080139286
 30
0.0
 11
146.0940718721303
 21
223.1831920771132
 31
0.0
  0
LINE
  5
524
330
18
100
AcDbEntity
  8
4
  6
CENTER
 48
0.1
100
AcDbLine
 10
141.1531785777079
 20
218.2059922709658
 30
0.0
 11
149.8391125910504
 21
217.7114719823413
 31
0.0
  0
ARC
  5
526
330
18
100
AcDbEntity
  8
1
  6
Continuous
 48
0.25
100
AcDbCircle
 10
138.9125158211232
 20
216.4474177420535
 30
0.0
 40
0.3
100
AcDbArc
 50
179.9999999999991
 51
270.0
  0
ARC
  5
527
330
18
100
AcDbEntity
  8
1
  6
Continuous
 48
0.25
100
AcDbCircle
 10
138.9125158211232
 20
219.8474177420535
 30
0.0
 40
0.3
100
AcDbArc
 50
90.0
 51
179.9999999999991
  0
LINE
  5
528
330
18
100
AcDbEntity
  8
1
  6
Continuous
 48
0.25
100
AcDbLine
 10
138.6125158211233
 20
219.8474177420535
 30
0.0
 11
138.6125158211233
 21
216.4474177420535
 31
0.0
  0
ARC
  5
529
330
18
100
AcDbEntity
  8
5
  6
PHANTOM
 48
0.15
100
AcDbCircle
 10
145.0447440672673
 20
223.242959717272
 30
0.0
 40
1.598966118462465
100
AcDbArc
 50
106.8211012296024
 51
176.7424027733308
  0
LINE
  5
52A
330
18
100
AcDbEntity
  8
4
  6
CENTER
 48
0.1
100
AcDbLine
 10
137.6125158209155
 20
218.1474177419939
 30
0.0
 11
145.8125158211233
 21
218.1474177419939
 31
0.0
  0
LINE
  5
52B
330
18
100
AcDbEntity
  8
5
  6
PHANTOM
 48
0.15
100
AcDbLine
 10
142.7473835440707
 20
219.8179814110195
 30
0.0
 11
142.5541232449952
 21
216.4234784346176
 31
0.0
  0
LINE
  5
52C
330
18
100
AcDbEntity
  8
1
  6
Continuous
 48
0.25
100
AcDbLine
 10
142.8125146150543
 20
223.3974176271903
 30
0.0
 11
142.8125146150543
 21
212.8974176271902
 31
0.0
  0
LINE
  5
52D
330
18
100
AcDbEntity
  8
1
  6
Continuous
 48
0.25
100
AcDbLine
 10
139.1125158211194
 20
223.3974177420536
 30
0.0
 11
139.1125158211194
 21
212.8974177420535
 31
0.0
  0
LINE
  5
52E
330
18
100
AcDbEntity
  8
1
  6
Continuous
 48
0.25
100
AcDbLine
 10
144.3125158211233
 20
221.5014673638273
 30
0.0
 11
144.3125158211233
 21
214.7933681202795
 31
0.0
  0
LINE
  5
52F
330
18
100
AcDbEntity
  8
1
  6
Continuous
 48
0.25
100
AcDbLine
 10
139.1125158211232
 20
216.1474177420535
 30
0.0
 11
138.9125158211232
 21
216.1474177420535
 31
0.0
  0
LINE
  5
530
330
18
100
AcDbEntity
  8
1
  6
Continuous
 48
0.25
100
AcDbLine
 10
139.1125158211194
 20
212.8974177420535
 30
0.0
 11
140.1624992807775
 21
212.8974177420535
 31
0.0
  0
LINE
  5
531
330
18
100
AcDbEntity
  8
5
  6
PHANTOM
 48
0.15
100
AcDbLine
 10
142.8515283704275
 20
212.8507973417459
 30
0.0
 11
143.8998142465988
 21
212.7911149542642
 31
0.0
  0
LINE
  5
532
330
18
100
AcDbEntity
  8
5
  6
PHANTOM
 48
0.15
100
AcDbLine
 10
143.036262479838
 20
216.0955428338948
 30
0.0
 11
142.8515283704276
 21
212.8507973417461
 31
0.0
  0
LINE
  5
533
330
18
100
AcDbEntity
  8
5
  6
PHANTOM
 48
0.15
100
AcDbLine
 10
143.0362624798417
 20
216.0955428338945
 30
0.0
 11
142.836585834171
 21
216.1069110867813
 31
0.0
  0
ARC
  5
534
330
18
100
AcDbEntity
  8
5
  6
PHANTOM
 48
0.15
100
AcDbCircle
 10
142.8536382135012
 20
216.4064260552874
 30
0.0
 40
0.3
100
AcDbArc
 50
176.7414791616929
 51
266.7414791616933
  0
ARC
  5
535
330
18
100
AcDbEntity
  8
1
  6
Continuous
 48
0.25
100
AcDbCircle
 10
141.2135497031595
 20
212.8973916105412
 30
0.0
 40
1.598966118462438
100
AcDbArc
 50
290.0796220647269
 51
0.0009322557417978
  0
ARC
  5
536
330
18
100
AcDbEntity
  8
1
  6
Continuous
 48
0.25
100
AcDbCircle
 10
143.5625158211232
 20
216.6474177420535
 30
0.0
 40
2.0
100
AcDbArc
 50
247.9756871629579
 51
292.024312837042
  0
ARC
  5
538
330
18
100
AcDbEntity
  8
1
  6
Continuous
 48
0.25
100
AcDbCircle
 10
140.7114819393779
 20
223.3974435174898
 30
0.0
 40
1.598966118462465
100
AcDbArc
 50
110.0796220679086
 51
180.0009236116378
  0
LINE
  5
539
330
18
100
AcDbEntity
  8
1
  6
Continuous
 48
0.25
100
AcDbLine
 10
139.1125158211232
 20
220.1474177420535
 30
0.0
 11
138.9125158211233
 21
220.1474177420535
 31
0.0
  0
ARC
  5
53A
330
18
100
AcDbEntity
  8
5
  6
PHANTOM
 48
0.15
100
AcDbCircle
 10
143.0468985125768
 20
219.8009290316893
 30
0.0
 40
0.3
100
AcDbArc
 50
86.74147916169335
 51
176.7414791616929
  0
LINE
  5
53B
330
18
100
AcDbEntity
  8
5
  6
PHANTOM
 48
0.15
100
AcDbLine
 10
143.2636275375775
 20
220.0890757473085
 30
0.0
 11
143.0639508919069
 21
220.1004440001953
 31
0.0
  0
LINE
  5
53C
330
18
100
AcDbEntity
  8
5
  6
PHANTOM
 48
0.15
100
AcDbLine
 10
143.4483616469842
 20
223.3338212394578
 30
0.0
 11
143.2636275375738
 21
220.0890757473088
 31
0.0
  0
LINE
  5
53D
330
18
100
AcDbEntity
  8
1
  6
Continuous
 48
0.25
100
AcDbLine
 10
142.8125146150543
 20
223.3974176271903
 30
0.0
 11
141.7625158211195
 21
223.3974176271903
 31
0.0
  0
ARC
  5
53E
330
18
100
AcDbEntity
  8
1
  6
Continuous
 48
0.25
100
AcDbCircle
 10
143.5625158211233
 20
219.6474177420535
 30
0.0
 40
2.0
100
AcDbArc
 50
67.97568716295794
 51
112.024312837042
  0
LINE
  5
53F
330
18
100
AcDbEntity
  8
5
  6
PHANTOM
 48
0.15
100
AcDbLine
 10
148.5321862176238
 20
221.1453616049894
 30
0.0
 11
148.150889374672
 21
214.4481078261004
 31
0.0
  0
ARC
  5
540
330
18
100
AcDbEntity
  8
5
  6
PHANTOM
 48
0.15
100
AcDbCircle
 10
147.5074884782318
 20
216.3417908213403
 30
0.0
 40
2.0
100
AcDbArc
 50
244.7171663246513
 51
288.7657919987356
  0
LINE
  5
541
330
18
100
AcDbEntity
  8
5
  6
PHANTOM
 48
0.15
100
AcDbLine
 10
146.6533133280226
 20
214.5333697913061
 30
0.0
 11
146.5455451046914
 21
212.640484617217
 31
0.0
  0
ARC
  5
542
330
18
100
AcDbEntity
  8
5
  6
PHANTOM
 48
0.15
100
AcDbCircle
 10
144.9491638751106
 20
212.7313458300086
 30
0.0
 40
1.598966118462438
100
AcDbArc
 50
286.8211012264207
 51
356.7424114174345
  0
ARC
  5
543
330
18
100
AcDbEntity
  8
5
  6
PHANTOM
 48
0.15
100
AcDbCircle
 10
147.6780122715337
 20
219.3369405064007
 30
0.0
 40
2.0
100
AcDbArc
 50
64.71716632465138
 51
108.7657919987356
  0
LINE
  5
544
330
18
100
AcDbEntity
  8
5
  6
PHANTOM
 48
0.15
100
AcDbLine
 10
147.1423783812479
 20
223.1235085149287
 30
0.0
 11
146.094077195592
 21
223.1831917740302
 31
0.0
  0
LINE
  5
545
330
18
100
AcDbEntity
  8
5
  6
PHANTOM
 48
0.15
100
AcDbLine
 10
147.142378381248
 20
223.1235085149288
 30
0.0
 11
147.0346101709746
 21
221.230623570195
 31
0.0
  0
LINE
  5
546
330
18
100
AcDbEntity
  8
4
  6
CENTER
 48
0.1
100
AcDbLine
 10
146.5090389908899
 20
285.0095943326109
 30
0.0
 11
152.1499161640079
 21
284.6884396699861
 31
0.0
  0
LINE
  5
547
330
18
100
AcDbEntity
  8
5
  6
PHANTOM
 48
0.15
100
AcDbLine
 10
148.2908201518452
 20
289.9162485119519
 30
0.0
 11
150.9365459734035
 21
289.7655883715557
 31
0.0
  0
LINE
  5
548
330
18
100
AcDbEntity
  8
5
  6
PHANTOM
 48
0.15
100
AcDbLine
 10
150.9365459734035
 20
289.7655883715557
 30
0.0
 11
150.1407682713352
 21
275.7882231747334
 31
0.0
  0
LINE
  5
549
330
18
100
AcDbEntity
  8
5
  6
PHANTOM
 48
0.15
100
AcDbLine
 10
152.6866335230923
 20
275.6432786325189
 30
0.0
 11
150.1407682713353
 21
275.7882231747334
 31
0.0
  0
LINE
  5
54A
330
18
100
AcDbEntity
  8
5
  6
PHANTOM
 48
0.15
100
AcDbLine
 10
150.2380658315139
 20
253.7470571259362
 30
0.0
 11
150.1982769464101
 21
253.0481888660888
 31
0.0
  0
ARC
  5
54B
330
18
100
AcDbEntity
  8
5
  6
PHANTOM
 48
0.15
100
AcDbCircle
 10
149.0926539502637
 20
257.8187467779468
 30
0.0
 40
3.625000000000051
100
AcDbArc
 50
143.2561025362948
 51
220.3442981343959
  0
LINE
  5
54C
330
18
100
AcDbEntity
  8
1
  6
Continuous
 48
0.25
100
AcDbLine
 10
142.5625158211197
 20
260.1474177421806
 30
0.0
 11
142.5625158211196
 21
253.4474177420536
 31
0.0
  0
LINE
  5
54D
330
18
100
AcDbEntity
  8
1
  6
Continuous
 48
0.25
100
AcDbLine
 10
143.3625158211197
 20
260.1474177421805
 30
0.0
 11
143.3625158211197
 21
253.4474177420536
 31
0.0
  0
LINE
  5
54E
330
18
100
AcDbEntity
  8
1
  6
Continuous
 48
0.25
100
AcDbLine
 10
144.1625158211197
 20
260.1474177421806
 30
0.0
 11
144.1625158211197
 21
253.4474177420536
 31
0.0
  0
LINE
  5
54F
330
18
100
AcDbEntity
  8
1
  6
Continuous
 48
0.25
100
AcDbLine
 10
144.3625158211197
 20
260.1474177421805
 30
0.0
 11
144.3625158211197
 21
253.1474177420535
 31
0.0
  0
LINE
  5
550
330
18
100
AcDbEntity
  8
1
  6
Continuous
 48
0.25
100
AcDbLine
 10
145.3625158211197
 20
276.1474177421804
 30
0.0
 11
145.3625158211522
 21
253.1474177420535
 31
0.0
  0
LINE
  5
551
330
18
100
AcDbEntity
  8
1
  6
Continuous
 48
0.25
100
AcDbLine
 10
146.7625158211196
 20
260.6474177420535
 30
0.0
 11
146.7625158211196
 21
255.6474177420535
 31
0.0
  0
LINE
  5
552
330
18
100
AcDbEntity
  8
1
  6
Continuous
 48
0.25
100
AcDbLine
 10
146.2625158211196
 20
255.1474177420535
 30
0.0
 11
146.2625158211196
 21
261.1474177420535
 31
0.0
  0
ARC
  5
553
330
18
100
AcDbEntity
  8
1
  6
Continuous
 48
0.25
100
AcDbCircle
 10
142.7875158211197
 20
258.1474177420535
 30
0.0
 40
3.625000000000051
100
AcDbArc
 50
146.5146233746011
 51
223.6028189727015
  0
LINE
  5
554
330
18
100
AcDbEntity
  8
4
  6
CENTER
 48
0.2
100
AcDbLine
 10
137.6625158211197
 20
258.1474177420535
 30
0.0
 11
148.2625158211196
 21
258.1474177420535
 31
0.0
  0
LINE
  5
555
330
18
100
AcDbEntity
  8
1
  6
Continuous
 48
0.25
100
AcDbLine
 10
144.3625158211197
 20
253.1474177420535
 30
0.0
 11
145.3625158211524
 21
253.1474177420535
 31
0.0
  0
LINE
  5
556
330
18
100
AcDbEntity
  8
1
  6
Continuous
 48
0.25
100
AcDbLine
 10
144.1625158211197
 20
254.1474177420535
 30
0.0
 11
144.3625158211197
 21
254.1474177420535
 31
0.0
  0
ARC
  5
559
330
18
100
AcDbEntity
  8
1
  6
Continuous
 48
0.25
100
AcDbCircle
 10
143.7625158211196
 20
253.4474177420536
 30
0.0
 40
0.4
100
AcDbArc
 50
180.0
 51
0.0
  0
ARC
  5
55A
330
18
100
AcDbEntity
  8
1
  6
Continuous
 48
0.25
100
AcDbCircle
 10
142.9625158211196
 20
253.4474177420536
 30
0.0
 40
0.4
100
AcDbArc
 50
180.0
 51
0.0
  0
ARC
  5
55B
330
18
100
AcDbEntity
  8
1
  6
Continuous
 48
0.25
100
AcDbCircle
 10
142.1625158211196
 20
253.4474177420536
 30
0.0
 40
0.4
100
AcDbArc
 50
180.0
 51
0.0
  0
LINE
  5
55C
330
18
100
AcDbEntity
  8
1
  6
Continuous
 48
0.25
100
AcDbLine
 10
146.2625158211196
 20
255.1474177420535
 30
0.0
 11
146.7625158211196
 21
255.6474177420535
 31
0.0
  0
LINE
  5
55D
330
18
100
AcDbEntity
  8
1
  6
Continuous
 48
0.25
100
AcDbLine
 10
145.3625158211197
 20
255.1474177420535
 30
0.0
 11
146.2625158211196
 21
255.1474177420535
 31
0.0
  0
ARC
  5
55E
330
18
100
AcDbEntity
  8
5
  6
PHANTOM
 48
0.15
100
AcDbCircle
 10
149.7989236550686
 20
253.0709253718624
 30
0.0
 40
0.4
100
AcDbArc
 50
176.7414791616929
 51
356.7414791616929
  0
ARC
  5
55F
330
18
100
AcDbEntity
  8
5
  6
PHANTOM
 48
0.15
100
AcDbCircle
 10
149.0002170723858
 20
253.1163983834095
 30
0.0
 40
0.4
100
AcDbArc
 50
176.7414791616929
 51
356.7414791616929
  0
ARC
  5
560
330
18
100
AcDbEntity
  8
5
  6
PHANTOM
 48
0.15
100
AcDbCircle
 10
148.2015104897029
 20
253.1618713949567
 30
0.0
 40
0.4
100
AcDbArc
 50
176.7414791616929
 51
356.7414791616929
  0
LINE
  5
561
330
18
100
AcDbEntity
  8
4
  6
CENTER
 48
0.2
100
AcDbLine
 10
136.0625158211156
 20
285.1474477418036
 30
0.0
 11
148.4625158211157
 21
285.1474477418311
 31
0.0
  0
LINE
  5
562
330
18
100
AcDbEntity
  8
1
  6
Continuous
 48
0.25
100
AcDbLine
 10
139.6625158211156
 20
280.1474477420534
 30
0.0
 11
138.0625158211156
 21
280.1474477420534
 31
0.0
  0
LINE
  5
563
330
18
100
AcDbEntity
  8
1
  6
Continuous
 48
0.25
100
AcDbLine
 10
137.5625158211156
 20
287.1474477420536
 30
0.0
 11
137.5625158211156
 21
283.1474477420536
 31
0.0
  0
ARC
  5
564
330
18
100
AcDbEntity
  8
1
  6
Continuous
 48
0.25
100
AcDbCircle
 10
138.0625158211156
 20
283.1474477420536
 30
0.0
 40
0.5
100
AcDbArc
 50
180.0
 51
270.0
  0
ARC
  5
565
330
18
100
AcDbEntity
  8
1
  6
Continuous
 48
0.25
100
AcDbCircle
 10
138.0625158211156
 20
287.1474477420536
 30
0.0
 40
0.5
100
AcDbArc
 50
90.0
 51
179.9999999999991
  0
LINE
  5
566
330
18
100
AcDbEntity
  8
5
  6
PHANTOM
 48
0.15
100
AcDbLine
 10
148.2908201518452
 20
289.9162485119519
 30
0.0
 11
147.0971518846112
 21
268.95017060901
 31
0.0
  0
LINE
  5
567
330
18
100
AcDbEntity
  8
1
  6
Continuous
 48
0.25
100
AcDbLine
 10
140.1625158211197
 20
290.1474478983634
 30
0.0
 11
140.1625158211197
 21
269.1474177420892
 31
0.0
  0
LINE
  5
568
330
18
100
AcDbEntity
  8
1
  6
Continuous
 48
0.25
100
AcDbLine
 10
141.812527821064
 20
290.1474177420535
 30
0.0
 11
141.812527821064
 21
272.1474177420776
 31
0.0
  0
LINE
  5
569
330
18
100
AcDbEntity
  8
1
  6
Continuous
 48
0.25
100
AcDbLine
 10
141.7625158211196
 20
290.1474478983635
 30
0.0
 11
141.7625158211196
 21
269.1474177420892
 31
0.0
  0
LINE
  5
56A
330
18
100
AcDbEntity
  8
1
  6
Continuous
 48
0.25
100
AcDbLine
 10
142.8125278210652
 20
290.1474177420534
 30
0.0
 11
142.8125278210652
 21
272.1474177420775
 31
0.0
  0
LINE
  5
56B
330
18
100
AcDbEntity
  8
1
  6
Continuous
 48
0.25
100
AcDbLine
 10
146.9625158211198
 20
276.1474177421804
 30
0.0
 11
146.9625158211198
 21
268.1474177421801
 31
0.0
  0
LINE
  5
56C
330
18
100
AcDbEntity
  8
1
  6
Continuous
 48
0.25
100
AcDbLine
 10
145.3625158211524
 20
269.1474177420892
 30
0.0
 11
138.9625158211524
 21
269.1474177420892
 31
0.0
  0
LINE
  5
56D
330
18
100
AcDbEntity
  8
1
  6
Continuous
 48
0.25
100
AcDbLine
 10
145.3625158211524
 20
260.1474177421805
 30
0.0
 11
138.9625158211524
 21
260.1474177421805
 31
0.0
  0
ARC
  5
56E
330
18
100
AcDbEntity
  8
1
  6
Continuous
 48
0.25
100
AcDbCircle
 10
144.3625158211524
 20
271.1474177420775
 30
0.0
 40
1.0
100
AcDbArc
 50
0.0
 51
90.0
  0
LINE
  5
56F
330
18
100
AcDbEntity
  8
1
  6
Continuous
 48
0.25
100
AcDbLine
 10
138.9625158211524
 20
260.1474177421806
 30
0.0
 11
138.9625158211524
 21
269.1474177420893
 31
0.0
  0
LINE
  5
570
330
18
100
AcDbEntity
  8
1
  6
Continuous
 48
0.25
100
AcDbLine
 10
144.3625158211197
 20
271.1474177420775
 30
0.0
 11
144.3625158211197
 21
269.1474177420892
 31
0.0
  0
LINE
  5
571
330
18
100
AcDbEntity
  8
1
  6
Continuous
 48
0.25
100
AcDbLine
 10
144.3625158211524
 20
272.1474177420775
 30
0.0
 11
142.8125278210652
 21
272.1474177420775
 31
0.0
  0
LINE
  5
572
330
18
100
AcDbEntity
  8
1
  6
Continuous
 48
0.25
100
AcDbLine
 10
144.3625158211197
 20
271.1474177420775
 30
0.0
 11
142.812527821064
 21
271.1474177420775
 31
0.0
  0
ARC
  5
573
330
18
100
AcDbEntity
  8
1
  6
Continuous
 48
0.25
100
AcDbCircle
 10
142.812527821064
 20
272.1474177420775
 30
0.0
 40
1.0
100
AcDbArc
 50
180.0
 51
269.9999999999971
  0
LINE
  5
574
330
18
100
AcDbEntity
  8
1
  6
Continuous
 48
0.25
100
AcDbLine
 10
143.3625158211195
 20
269.1474177420892
 30
0.0
 11
143.3625158211195
 21
271.1477463849218
 31
0.0
  0
LINE
  5
577
330
18
100
AcDbEntity
  8
5
  6
PHANTOM
 48
0.15
100
AcDbLine
 10
145.3875206307193
 20
260.0329310712387
 30
0.0
 11
145.8990920106198
 21
269.0183801263291
 31
0.0
  0
LINE
  5
578
330
18
100
AcDbEntity
  8
5
  6
PHANTOM
 48
0.15
100
AcDbLine
 10
146.187877884761
 20
259.987364081503
 30
0.0
 11
145.3875206307192
 21
260.0329310712386
 31
0.0
  0
LINE
  5
579
330
18
100
AcDbEntity
  8
1
  6
Continuous
 48
0.25
100
AcDbLine
 10
146.7625158211196
 20
260.6474177420536
 30
0.0
 11
146.2625158211197
 21
261.1474177420536
 31
0.0
  0
LINE
  5
57A
330
18
100
AcDbEntity
  8
1
  6
Continuous
 48
0.25
100
AcDbLine
 10
146.2625158211196
 20
261.1474177420535
 30
0.0
 11
145.3625158211197
 21
261.1474177420535
 31
0.0
  0
LINE
  5
57B
330
18
100
AcDbEntity
  8
5
  6
PHANTOM
 48
0.15
100
AcDbLine
 10
147.0971518846113
 20
268.95017060901
 30
0.0
 11
145.8990920106197
 21
269.0183801263289
 31
0.0
  0
LINE
  5
57C
330
18
100
AcDbEntity
  8
1
  6
Continuous
 48
0.25
100
AcDbLine
 10
146.9625158211198
 20
268.1474177421801
 30
0.0
 11
145.3625158211198
 21
268.1474177421801
 31
0.0
  0
LINE
  5
57D
330
18
100
AcDbEntity
  8
1
  6
Continuous
 48
0.25
100
AcDbLine
 10
145.3625158211197
 20
276.1474177421803
 30
0.0
 11
142.8125278210653
 21
276.1474177421803
 31
0.0
  0
LINE
  5
57E
330
18
100
AcDbEntity
  8
1
  6
Continuous
 48
0.25
100
AcDbLine
 10
143.9625158211157
 20
282.6474477420537
 30
0.0
 11
146.9625158211156
 21
283.4474477420537
 31
0.0
  0
LINE
  5
57F
330
18
100
AcDbEntity
  8
1
  6
Continuous
 48
0.25
100
AcDbLine
 10
146.9625158211155
 20
286.8474477420536
 30
0.0
 11
143.9625158211155
 21
287.6474477420536
 31
0.0
  0
LINE
  5
580
330
18
100
AcDbEntity
  8
1
  6
Continuous
 48
0.25
100
AcDbLine
 10
143.9625158211157
 20
287.6474477420535
 30
0.0
 11
143.9625158211157
 21
282.6474477420537
 31
0.0
  0
LINE
  5
581
330
18
100
AcDbEntity
  8
1
  6
Continuous
 48
0.25
100
AcDbLine
 10
142.9625158211157
 20
287.6474477420535
 30
0.0
 11
142.9625158211157
 21
282.6474477420537
 31
0.0
  0
LINE
  5
582
330
18
100
AcDbEntity
  8
1
  6
Continuous
 48
0.25
100
AcDbLine
 10
139.6625158211157
 20
281.1474477420535
 30
0.0
 11
140.1625158211156
 21
281.1474477420535
 31
0.0
  0
LINE
  5
583
330
18
100
AcDbEntity
  8
1
  6
Continuous
 48
0.25
100
AcDbLine
 10
139.8125278210653
 20
279.1474177420893
 30
0.0
 11
139.8125278210653
 21
281.1474477420536
 31
0.0
  0
ARC
  5
584
330
18
100
AcDbEntity
  8
1
  6
Continuous
 48
0.25
100
AcDbCircle
 10
140.8125278210652
 20
279.1474177420892
 30
0.0
 40
1.0
100
AcDbArc
 50
180.0
 51
229.4574933759699
  0
LINE
  5
585
330
18
100
AcDbEntity
  8
1
  6
Continuous
 48
0.25
100
AcDbLine
 10
141.8125278210649
 20
283.1474177420892
 30
0.0
 11
141.7625158211158
 21
283.1474477420538
 31
0.0
  0
LINE
  5
586
330
18
100
AcDbEntity
  8
1
  6
Continuous
 48
0.25
100
AcDbLine
 10
141.8125278210641
 20
276.1474177421803
 30
0.0
 11
141.7625158211196
 21
276.1474177421803
 31
0.0
  0
LINE
  5
587
330
18
100
AcDbEntity
  8
1
  6
Continuous
 48
0.25
100
AcDbLine
 10
142.9625158211157
 20
282.6474477420537
 30
0.0
 11
143.9625158211157
 21
282.6474477420537
 31
0.0
  0
LINE
  5
588
330
18
100
AcDbEntity
  8
1
  6
Continuous
 48
0.25
100
AcDbLine
 10
142.8125278210652
 20
283.1474477420536
 30
0.0
 11
142.9625158211157
 21
283.1474477420536
 31
0.0
  0
LINE
  5
589
330
18
100
AcDbEntity
  8
1
  6
Continuous
 48
0.25
100
AcDbLine
 10
141.8125278210647
 20
278.1474177420893
 30
0.0
 11
141.7625158211196
 21
278.1474177420319
 31
0.0
  0
LINE
  5
58A
330
18
100
AcDbEntity
  8
1
  6
Continuous
 48
0.25
100
AcDbLine
 10
141.7625158211196
 20
290.1474478983635
 30
0.0
 11
140.1625158211198
 21
290.1474478983635
 31
0.0
  0
LINE
  5
58B
330
18
100
AcDbEntity
  8
1
  6
Continuous
 48
0.25
100
AcDbLine
 10
140.1625158211157
 20
289.1474477420537
 30
0.0
 11
139.6625158211157
 21
289.1474477420537
 31
0.0
  0
LINE
  5
58C
330
18
100
AcDbEntity
  8
1
  6
Continuous
 48
0.25
100
AcDbLine
 10
143.9625158211157
 20
287.6474477420535
 30
0.0
 11
142.9625158211157
 21
287.6474477420535
 31
0.0
  0
LINE
  5
58D
330
18
100
AcDbEntity
  8
1
  6
Continuous
 48
0.25
100
AcDbLine
 10
142.9625158211157
 20
287.1474477420536
 30
0.0
 11
142.8125278210652
 21
287.1474477420536
 31
0.0
  0
LINE
  5
58E
330
18
100
AcDbEntity
  8
1
  6
Continuous
 48
0.25
100
AcDbLine
 10
141.812527821064
 20
287.1474477420536
 30
0.0
 11
141.7625158211156
 21
287.1474477420536
 31
0.0
  0
LINE
  5
58F
330
18
100
AcDbEntity
  8
1
  6
Continuous
 48
0.25
100
AcDbLine
 10
142.8125278210653
 20
290.1474177420534
 30
0.0
 11
141.8125278210641
 21
290.1474177420535
 31
0.0
  0
LINE
  5
590
330
18
100
AcDbEntity
  8
1
  6
Continuous
 48
0.25
100
AcDbLine
 10
145.3625158211198
 20
276.1474177421803
 30
0.0
 11
146.9625158211198
 21
276.1474177421803
 31
0.0
  0
LINE
  5
591
330
18
100
AcDbEntity
  8
1
  6
Continuous
 48
0.25
100
AcDbLine
 10
146.9625158211156
 20
286.8474477420536
 30
0.0
 11
146.9625158211156
 21
283.4474477420535
 31
0.0
  0
LINE
  5
592
330
18
100
AcDbEntity
  8
5
  6
PHANTOM
 48
0.15
100
AcDbLine
 10
153.2033304440536
 20
260.0887608227056
 30
0.0
 11
152.9191241218838
 21
255.0968446809381
 31
0.0
  0
LINE
  5
593
330
18
100
AcDbEntity
  8
5
  6
PHANTOM
 48
0.15
100
AcDbLine
 10
152.3915118754899
 20
254.6260736989784
 30
0.0
 11
152.9191241218836
 21
255.0968446809381
 31
0.0
  0
LINE
  5
594
330
18
100
AcDbEntity
  8
5
  6
PHANTOM
 48
0.15
100
AcDbLine
 10
151.4929669699719
 20
254.677230836969
 30
0.0
 11
152.3915118754899
 21
254.6260736989783
 31
0.0
  0
LINE
  5
595
330
18
100
AcDbEntity
  8
5
  6
PHANTOM
 48
0.15
100
AcDbLine
 10
151.4929669700016
 20
254.6772308369672
 30
0.0
 11
151.3792844411366
 21
252.6804643802602
 31
0.0
  0
LINE
  5
596
330
18
100
AcDbEntity
  8
5
  6
PHANTOM
 48
0.15
100
AcDbLine
 10
150.3809012127504
 20
252.7373056446958
 30
0.0
 11
151.3792844411367
 21
252.6804643802601
 31
0.0
  0
LINE
  5
597
330
18
100
AcDbEntity
  8
5
  6
PHANTOM
 48
0.15
100
AcDbLine
 10
150.4377424771845
 20
253.7356888730494
 30
0.0
 11
150.3809012127506
 21
252.737305644696
 31
0.0
  0
LINE
  5
598
330
18
100
AcDbEntity
  8
5
  6
PHANTOM
 48
0.15
100
AcDbLine
 10
150.2380658315138
 20
253.7470571259361
 30
0.0
 11
150.4377424771845
 21
253.7356888730493
 31
0.0
  0
LINE
  5
599
330
18
100
AcDbEntity
  8
5
  6
PHANTOM
 48
0.15
100
AcDbLine
 10
154.284046688458
 20
275.5523326094246
 30
0.0
 11
153.8293165729863
 21
267.5652667825966
 31
0.0
  0
LINE
  5
59A
330
18
100
AcDbEntity
  8
5
  6
PHANTOM
 48
0.15
100
AcDbLine
 10
152.2319034076319
 20
267.6562128056902
 30
0.0
 11
151.834014556597
 21
260.6675302070887
 31
0.0
  0
LINE
  5
59B
330
18
100
AcDbEntity
  8
5
  6
PHANTOM
 48
0.15
100
AcDbLine
 10
153.2033304440536
 20
260.0887608227057
 30
0.0
 11
152.7325594620939
 21
260.6163730690994
 31
0.0
  0
LINE
  5
59C
330
18
100
AcDbEntity
  8
5
  6
PHANTOM
 48
0.15
100
AcDbLine
 10
152.7325594620938
 20
260.6163730690993
 30
0.0
 11
151.8340145565757
 21
260.6675302070898
 31
0.0
  0
LINE
  5
59D
330
18
100
AcDbEntity
  8
5
  6
PHANTOM
 48
0.15
100
AcDbLine
 10
153.8293165729863
 20
267.5652667825964
 30
0.0
 11
152.2319034076207
 21
267.6562128056908
 31
0.0
  0
LINE
  5
59E
330
18
100
AcDbEntity
  8
5
  6
PHANTOM
 48
0.15
100
AcDbLine
 10
152.6866335230924
 20
275.6432786325189
 30
0.0
 11
154.284046688458
 21
275.5523326094245
 31
0.0
  0
LINE
  5
59F
330
18
100
AcDbEntity
  8
1
  6
Continuous
 48
0.25
100
AcDbLine
 10
54.66251690152586
 20
297.7474477420536
 30
0.0
 11
26.66251690152586
 21
297.7474477420537
 31
0.0
  0
LINE
  5
5A0
330
18
100
AcDbEntity
  8
1
  6
Continuous
 48
0.25
100
AcDbLine
 10
35.6625169015261
 20
296.1474477420537
 30
0.0
 11
26.66251690152586
 21
296.1474477420537
 31
0.0
  0
LINE
  5
5A1
330
18
100
AcDbEntity
  8
4
  6
CENTER
 48
0.05
100
AcDbLine
 10
30.66251690152586
 20
294.6474477420537
 30
0.0
 11
30.66251690152592
 21
299.2474477420537
 31
0.0
  0
LINE
  5
5A2
330
18
100
AcDbEntity
  8
1
  6
Continuous
 48
0.25
100
AcDbLine
 10
26.66251690152591
 20
297.7474477420537
 30
0.0
 11
26.66251690152589
 21
296.1474477420537
 31
0.0
  0
LINE
  5
5A3
330
18
100
AcDbEntity
  8
1
  6
Continuous
 48
0.25
100
AcDbLine
 10
29.11104677666335
 20
296.1474477420537
 30
0.0
 11
29.11104677666335
 21
297.7474477420537
 31
0.0
  0
LINE
  5
5A4
330
18
100
AcDbEntity
  8
1
  6
Continuous
 48
0.25
100
AcDbLine
 10
54.66251690152586
 20
296.1474477420537
 30
0.0
 11
45.66251690152589
 21
296.1474477420537
 31
0.0
  0
LINE
  5
5A5
330
18
100
AcDbEntity
  8
4
  6
CENTER
 48
0.05
100
AcDbLine
 10
50.66251690152586
 20
294.6474477420537
 30
0.0
 11
50.66251690152593
 21
299.2474477420537
 31
0.0
  0
LINE
  5
5A6
330
18
100
AcDbEntity
  8
1
  6
Continuous
 48
0.25
100
AcDbLine
 10
52.213987081996
 20
296.1474477420537
 30
0.0
 11
52.213987081996
 21
297.7474477420536
 31
0.0
  0
LINE
  5
5A7
330
18
100
AcDbEntity
  8
1
  6
Continuous
 48
0.25
100
AcDbLine
 10
54.66251690152589
 20
296.1474477420537
 30
0.0
 11
54.66251690152589
 21
297.7474477420536
 31
0.0
  0
CIRCLE
  5
5A8
330
18
100
AcDbEntity
  8
1
  6
Continuous
 48
0.25
100
AcDbCircle
 10
143.9625188376061
 20
401.7474090795413
 30
0.0
 40
1.85
  0
LINE
  5
5A9
330
18
100
AcDbEntity
  8
4
  6
CENTER
 48
0.1
100
AcDbLine
 10
143.9625188376061
 20
405.0974090795413
 30
0.0
 11
143.9625188376061
 21
398.3974090795413
 31
0.0
  0
LINE
  5
5AB
330
18
100
AcDbEntity
  8
1
  6
Continuous
 48
0.25
100
AcDbLine
 10
139.1125158211125
 20
396.7474090795414
 30
0.0
 11
139.1125158211125
 21
405.9974090795408
 31
0.0
  0
LINE
  5
5AC
330
18
100
AcDbEntity
  8
1
  6
Continuous
 48
0.25
100
AcDbLine
 10
136.2625158211162
 20
397.7474090795345
 30
0.0
 11
136.2625158211163
 21
405.7474068674697
 31
0.0
  0
LINE
  5
5AD
330
18
100
AcDbEntity
  8
1
  6
Continuous
 48
0.25
100
AcDbLine
 10
134.6625158211163
 20
397.7474090795577
 30
0.0
 11
134.6625158211163
 21
405.7474068674697
 31
0.0
  0
LINE
  5
5AF
330
18
100
AcDbEntity
  8
1
  6
Continuous
 48
0.25
100
AcDbLine
 10
148.2625158376061
 20
403.2988792044037
 30
0.0
 11
148.2625158046106
 21
380.1959388990713
 31
0.0
  0
LINE
  5
5B0
330
18
100
AcDbEntity
  8
1
  6
Continuous
 48
0.25
100
AcDbLine
 10
139.6625158211083
 20
396.7474090795412
 30
0.0
 11
139.662515862788
 21
403.2988793259871
 31
0.0
  0
LINE
  5
5B2
330
18
100
AcDbEntity
  8
4
  6
CENTER
 48
0.25
100
AcDbLine
 10
153.2625158211083
 20
391.7474090797241
 30
0.0
 11
132.5625158211156
 21
391.7474090797698
 31
0.0
  0
ARC
  5
5B3
330
18
100
AcDbEntity
  8
1
  6
Continuous
 48
0.25
100
AcDbCircle
 10
139.6625158420652
 20
296.1474477420535
 30
0.0
 40
1.6
100
AcDbArc
 50
90.0
 51
180.0
  0
LINE
  5
5B4
330
18
100
AcDbEntity
  8
1
  6
Continuous
 48
0.25
100
AcDbLine
 10
148.2625158211155
 20
296.1474477420535
 30
0.0
 11
139.6625158211156
 21
296.1474477420535
 31
0.0
  0
LINE
  5
5B5
330
18
100
AcDbEntity
  8
1
  6
Continuous
 48
0.25
100
AcDbLine
 10
148.2625158211155
 20
297.7474477420534
 30
0.0
 11
139.6625158420652
 21
297.7474477420535
 31
0.0
  0
LINE
  5
5B6
330
18
100
AcDbEntity
  8
4
  6
CENTER
 48
0.05
100
AcDbLine
 10
143.962518837606
 20
294.6474477420535
 30
0.0
 11
143.962518837606
 21
299.2474477420535
 31
0.0
  0
LINE
  5
5B7
330
18
100
AcDbEntity
  8
1
  6
Continuous
 48
0.25
100
AcDbLine
 10
148.2625158211155
 20
297.7474477420534
 30
0.0
 11
148.2625158211155
 21
296.1474477420535
 31
0.0
  0
LINE
  5
5B8
330
18
100
AcDbEntity
  8
1
  6
Continuous
 48
0.25
100
AcDbLine
 10
139.6625158211083
 20
386.7474090795393
 30
0.0
 11
138.0625158211084
 21
386.7474090795393
 31
0.0
  0
LINE
  5
5B9
330
18
100
AcDbEntity
  8
1
  6
Continuous
 48
0.25
100
AcDbLine
 10
138.0625158211084
 20
396.7474090795414
 30
0.0
 11
139.6625158211083
 21
396.7474090795414
 31
0.0
  0
ARC
  5
5BA
330
18
100
AcDbEntity
  8
1
  6
Continuous
 48
0.25
100
AcDbCircle
 10
138.0625158211127
 20
396.1474090795349
 30
0.0
 40
1.6
100
AcDbArc
 50
48.98550033427635
 51
90.00000000000651
  0
ARC
  5
5BB
330
18
100
AcDbEntity
  8
1
  6
Continuous
 48
0.25
100
AcDbCircle
 10
138.0625158211127
 20
387.347409079535
 30
0.0
 40
1.6
100
AcDbArc
 50
270.0000000000065
 51
304.2288663292334
  0
ARC
  5
5BC
330
18
100
AcDbEntity
  8
1
  6
Continuous
 48
0.25
100
AcDbCircle
 10
138.9125158211164
 20
399.0474090795408
 30
0.0
 40
0.3
100
AcDbArc
 50
180.0
 51
270.0
  0
ARC
  5
5BD
330
18
100
AcDbEntity
  8
1
  6
Continuous
 48
0.25
100
AcDbCircle
 10
138.9125158211164
 20
402.4474090795409
 30
0.0
 40
0.3
100
AcDbArc
 50
90.0000000000004
 51
180.0
  0
ARC
  5
5BE
330
18
100
AcDbEntity
  8
1
  6
Continuous
 48
0.25
100
AcDbCircle
 10
136.2625158211163
 20
385.7474090795112
 30
0.0
 40
1.6
100
AcDbArc
 50
90.00000000003176
 51
180.0
  0
LINE
  5
5BF
330
18
100
AcDbEntity
  8
1
  6
Continuous
 48
0.25
100
AcDbLine
 10
136.2625158211163
 20
377.7474114879614
 30
0.0
 11
136.2625158211163
 21
385.7474090795347
 31
0.0
  0
LINE
  5
5C0
330
18
100
AcDbEntity
  8
1
  6
Continuous
 48
0.25
100
AcDbLine
 10
134.6625158211164
 20
377.7474114879614
 30
0.0
 11
134.6625158211164
 21
385.7474090795112
 31
0.0
  0
LINE
  5
5C1
330
18
100
AcDbEntity
  8
1
  6
Continuous
 48
0.25
100
AcDbLine
 10
134.6625158211164
 20
377.7474114879614
 30
0.0
 11
136.2625158211163
 21
377.7474114879614
 31
0.0
  0
LINE
  5
5C2
330
18
100
AcDbEntity
  8
1
  6
Continuous
 48
0.25
100
AcDbLine
 10
134.6625158211164
 20
380.430786697606
 30
0.0
 11
136.2625158211163
 21
380.430786697606
 31
0.0
  0
LINE
  5
5C3
330
18
100
AcDbEntity
  8
1
  6
Continuous
 48
0.25
100
AcDbLine
 10
138.0625158211129
 20
385.7474090795349
 30
0.0
 11
136.2625158211163
 21
385.7474090795347
 31
0.0
  0
LINE
  5
5C4
330
18
100
AcDbEntity
  8
1
  6
Continuous
 48
0.25
100
AcDbLine
 10
138.0625158211082
 20
386.7474090795413
 30
0.0
 11
138.0625158211082
 21
396.7474090795414
 31
0.0
  0
LINE
  5
5C5
330
18
100
AcDbEntity
  8
1
  6
Continuous
 48
0.25
100
AcDbLine
 10
137.5625158211156
 20
389.747409079541
 30
0.0
 11
137.5625158211156
 21
393.747409079541
 31
0.0
  0
LINE
  5
5C6
330
18
100
AcDbEntity
  8
1
  6
Continuous
 48
0.25
100
AcDbLine
 10
136.2625158211154
 20
387.347409079511
 30
0.0
 11
138.0625158211125
 21
387.3474090795121
 31
0.0
  0
ARC
  5
5C7
330
18
100
AcDbEntity
  8
1
  6
Continuous
 48
0.25
100
AcDbCircle
 10
138.0625158211124
 20
389.7474090795411
 30
0.0
 40
0.5
100
AcDbArc
 50
180.0
 51
270.0
  0
ARC
  5
5C8
330
18
100
AcDbEntity
  8
1
  6
Continuous
 48
0.25
100
AcDbCircle
 10
138.0625158211124
 20
393.7474090795411
 30
0.0
 40
0.5
100
AcDbArc
 50
90.0
 51
180.0
  0
ARC
  5
5C9
330
18
100
AcDbEntity
  8
1
  6
Continuous
 48
0.25
100
AcDbCircle
 10
136.2625158211163
 20
397.7474090795577
 30
0.0
 40
1.6
100
AcDbArc
 50
180.0
 51
269.9999999999813
  0
LINE
  5
5CA
330
18
100
AcDbEntity
  8
1
  6
Continuous
 48
0.25
100
AcDbLine
 10
138.0625158211126
 20
396.1474090795572
 30
0.0
 11
136.2625158211158
 21
396.1474090795578
 31
0.0
  0
LINE
  5
5CB
330
18
100
AcDbEntity
  8
1
  6
Continuous
 48
0.25
100
AcDbLine
 10
136.2625158211163
 20
397.7474090795347
 30
0.0
 11
138.0625158211125
 21
397.7474090795349
 31
0.0
  0
LINE
  5
5CC
330
18
100
AcDbEntity
  8
1
  6
Continuous
 48
0.25
100
AcDbLine
 10
138.6125158211164
 20
399.0474090795408
 30
0.0
 11
138.6125158211164
 21
402.4474090795409
 31
0.0
  0
LINE
  5
5CD
330
18
100
AcDbEntity
  8
1
  6
Continuous
 48
0.25
100
AcDbLine
 10
139.6625158046105
 20
380.1959389311424
 30
0.0
 11
139.6625158211084
 21
386.7474090795413
 31
0.0
  0
LINE
  5
5CE
330
18
100
AcDbEntity
  8
1
  6
Continuous
 48
0.25
100
AcDbLine
 10
138.9625158211454
 20
383.7474090795408
 30
0.0
 11
138.9625158211454
 21
386.7474090795412
 31
0.0
  0
CIRCLE
  5
5CF
330
18
100
AcDbEntity
  8
1
  6
Continuous
 48
0.25
100
AcDbCircle
 10
143.9625188376061
 20
381.7474090795414
 30
0.0
 40
1.85
  0
LINE
  5
5D0
330
18
100
AcDbEntity
  8
4
  6
CENTER
 48
0.1
100
AcDbLine
 10
147.3125188376061
 20
381.7474090795414
 30
0.0
 11
140.612518837606
 21
381.7474090795414
 31
0.0
  0
ARC
  5
5D2
330
18
100
AcDbEntity
  8
1
  6
Continuous
 48
0.25
100
AcDbCircle
 10
143.9625158141254
 20
382.7474090795414
 30
0.0
 40
5.0
100
AcDbArc
 50
210.6834168953095
 51
329.3165826773583
  0
LINE
  5
5D4
330
18
100
AcDbEntity
  8
4
  6
CENTER
 48
0.1
100
AcDbLine
 10
143.9625188376061
 20
385.0974090795414
 30
0.0
 11
143.9625188376061
 21
378.3974090795414
 31
0.0
  0
ARC
  5
5D5
330
18
100
AcDbEntity
  8
1
  6
Continuous
 48
0.25
100
AcDbCircle
 10
139.9625158211454
 20
383.7474090795408
 30
0.0
 40
1.0
100
AcDbArc
 50
180.0
 51
252.5423962760232
  0
LINE
  5
5D8
330
18
100
AcDbEntity
  8
4
  6
CENTER
 48
0.1
100
AcDbLine
 10
147.3125188376061
 20
401.7474090795413
 30
0.0
 11
140.612518837606
 21
401.7474090795413
 31
0.0
  0
LINE
  5
5DA
330
18
100
AcDbEntity
  8
1
  6
Continuous
 48
0.25
100
AcDbLine
 10
139.6625158563629
 20
400.747409079541
 30
0.0
 11
139.1125158209085
 21
400.747409079541
 31
0.0
  0
LINE
  5
5DB
330
18
100
AcDbEntity
  8
1
  6
Continuous
 48
0.25
100
AcDbLine
 10
139.1125158211164
 20
402.747409079541
 30
0.0
 11
138.9125158211164
 21
402.747409079541
 31
0.0
  0
LINE
  5
5DC
330
18
100
AcDbEntity
  8
1
  6
Continuous
 48
0.25
100
AcDbLine
 10
138.9125158211164
 20
398.747409079541
 30
0.0
 11
139.1125158211164
 21
398.747409079541
 31
0.0
  0
LINE
  5
5DD
330
18
100
AcDbEntity
  8
1
  6
Continuous
 48
0.25
100
AcDbLine
 10
134.6625158211163
 20
403.0640316578253
 30
0.0
 11
136.2625158211163
 21
403.0640316578253
 31
0.0
  0
LINE
  5
5DE
330
18
100
AcDbEntity
  8
1
  6
Continuous
 48
0.25
100
AcDbLine
 10
136.2625158211163
 20
405.7474068674697
 30
0.0
 11
134.6625158211163
 21
405.7474068674697
 31
0.0
  0
ARC
  5
5DF
330
18
100
AcDbEntity
  8
1
  6
Continuous
 48
0.25
100
AcDbCircle
 10
143.9625158141254
 20
400.7474090795414
 30
0.0
 40
5.0
100
AcDbArc
 50
30.68341658169398
 51
149.316581798258
  0
LINE
  5
5E0
330
18
100
AcDbEntity
  8
1
  6
Continuous
 48
0.25
100
AcDbLine
 10
142.8125158211127
 20
405.9974090795408
 30
0.0
 11
141.2125158211127
 21
405.9974090795408
 31
0.0
  0
LINE
  5
5E1
330
18
100
AcDbEntity
  8
1
  6
Continuous
 48
0.25
100
AcDbLine
 10
141.2125158211127
 20
404.9232323562653
 30
0.0
 11
141.2125158211127
 21
405.9974090795408
 31
0.0
  0
LINE
  5
5E2
330
18
100
AcDbEntity
  8
1
  6
Continuous
 48
0.25
100
AcDbLine
 10
140.7125158211127
 20
405.9974090795408
 30
0.0
 11
140.7125158211127
 21
404.5470801239106
 31
0.0
  0
LINE
  5
5E3
330
18
100
AcDbEntity
  8
1
  6
Continuous
 48
0.25
100
AcDbLine
 10
140.7125158211127
 20
405.9974090795408
 30
0.0
 11
139.1125158211125
 21
405.9974090795408
 31
0.0
  0
LINE
  5
5E4
330
18
100
AcDbEntity
  8
1
  6
Continuous
 48
0.25
100
AcDbLine
 10
140.9625158141248
 20
404.7474090795408
 30
0.0
 11
140.7125158211137
 21
404.7474090795408
 31
0.0
  0
LINE
  5
5E5
330
18
100
AcDbEntity
  8
1
  6
Continuous
 48
0.25
100
AcDbLine
 10
142.8125158211127
 20
405.6133622252334
 30
0.0
 11
142.8125158211127
 21
405.9974090795408
 31
0.0
  0
ARC
  5
5E7
330
18
100
AcDbEntity
  8
5
  6
PHANTOM
 48
0.1
100
AcDbCircle
 10
239.3695849190103
 20
284.3182830663475
 30
0.0
 40
6.0
100
AcDbArc
 50
84.05933986044969
 51
218.4746484576444
  0
LINE
  5
5E8
330
18
100
AcDbEntity
  8
1
  6
Continuous
 48
0.25
100
AcDbLine
 10
234.6625152480244
 20
296.1474477420535
 30
0.0
 11
234.6625152480244
 21
289.8042719915458
 31
0.0
  0
LINE
  5
5E9
330
18
100
AcDbEntity
  8
1
  6
Continuous
 48
0.25
100
AcDbLine
 10
244.6625152480244
 20
296.1474477420535
 30
0.0
 11
244.6625152480244
 21
285.416623175887
 31
0.0
  0
ARC
  5
5EA
330
18
100
AcDbEntity
  8
1
  6
Continuous
 48
0.25
100
AcDbCircle
 10
236.6625152480243
 20
284.1474177420533
 30
0.0
 40
6.0
100
AcDbArc
 50
89.9999999999996
 51
224.4153085971942
  0
LINE
  5
5FA
330
18
100
AcDbEntity
  8
1
  6
Continuous
 48
0.25
100
AcDbLine
 10
244.6625525308748
 20
173.6473947693653
 30
0.0
 11
244.662557699728
 21
151.1474012306265
 31
0.0
  0
ARC
  5
5FB
330
18
100
AcDbEntity
  8
1
  6
Continuous
 48
0.25
100
AcDbCircle
 10
377.6625268163089
 20
167.7907467996636
 30
0.0
 40
144.0
100
AcDbArc
 50
170.6110115161641
 51
186.8768855252493
  0
LINE
  5
5FF
330
18
100
AcDbEntity
  8
1
  6
Continuous
 48
0.25
100
AcDbLine
 10
228.3459082577976
 20
146.1473855596497
 30
0.0
 11
235.6625306397329
 21
146.1473855596497
 31
0.0
  0
LINE
  5
600
330
18
100
AcDbEntity
  8
1
  6
Continuous
 48
0.25
100
AcDbLine
 10
228.3459082577978
 20
156.1473855596497
 30
0.0
 11
234.1340204524701
 21
156.1473855596496
 31
0.0
  0
LINE
  5
601
330
18
100
AcDbEntity
  8
4
  6
CENTER
 48
0.1
100
AcDbLine
 10
224.9125306397329
 20
151.1473855596496
 30
0.0
 11
234.4125306397328
 21
151.1473855596496
 31
0.0
  0
CIRCLE
  5
602
330
18
100
AcDbEntity
  8
1
  6
Continuous
 48
0.25
100
AcDbCircle
 10
229.6625306397328
 20
151.1473855596496
 30
0.0
 40
1.85
  0
CIRCLE
  5
603
330
18
100
AcDbEntity
  8
1
  6
Continuous
 48
0.25
100
AcDbCircle
 10
229.6625306397328
 20
151.1473855596496
 30
0.0
 40
3.25
  0
ARC
  5
604
330
18
100
AcDbEntity
  8
1
  6
Continuous
 48
0.25
100
AcDbCircle
 10
231.6625330481532
 20
151.1473855596496
 30
0.0
 40
6.0
100
AcDbArc
 50
123.5573097619196
 51
236.442690238077
  0
LINE
  5
605
330
18
100
AcDbEntity
  8
1
  6
Continuous
 48
0.25
100
AcDbLine
 10
233.6625306397328
 20
146.1473855596497
 30
0.0
 11
233.6625306397329
 21
156.1473855596497
 31
0.0
  0
LINE
  5
606
330
18
100
AcDbEntity
  8
4
  6
CENTER
 48
0.1
100
AcDbLine
 10
229.6625306397328
 20
146.3973855596496
 30
0.0
 11
229.6625306397328
 21
155.8973855596496
 31
0.0
  0
LINE
  5
608
330
18
100
AcDbEntity
  8
1
  6
Continuous
 48
0.25
100
AcDbLine
 10
243.6625306397328
 20
146.1473855596496
 30
0.0
 11
250.9791532180169
 21
146.1473855596495
 31
0.0
  0
LINE
  5
609
330
18
100
AcDbEntity
  8
1
  6
Continuous
 48
0.25
100
AcDbLine
 10
244.6625565510972
 20
156.1473855596496
 30
0.0
 11
250.9791532180169
 21
156.1473855596495
 31
0.0
  0
LINE
  5
60B
330
18
100
AcDbEntity
  8
1
  6
Continuous
 48
0.25
100
AcDbLine
 10
242.6625306397327
 20
141.5473855596498
 30
0.0
 11
242.6625306397327
 21
145.5473855596497
 31
0.0
  0
LINE
  5
60C
330
18
100
AcDbEntity
  8
1
  6
Continuous
 48
0.25
100
AcDbLine
 10
236.6625306397328
 20
141.5473855596497
 30
0.0
 11
236.6625306397328
 21
145.5473855596497
 31
0.0
  0
LINE
  5
60D
330
18
100
AcDbEntity
  8
4
  6
CENTER
 48
0.1
100
AcDbLine
 10
239.6625306397329
 20
146.1473855596497
 30
0.0
 11
239.6625306397329
 21
156.1473855596497
 31
0.0
  0
LINE
  5
60E
330
18
100
AcDbEntity
  8
1
  6
Continuous
 48
0.25
100
AcDbLine
 10
236.6625306397328
 20
141.5473855596498
 30
0.0
 11
242.6625306397328
 21
141.5473855596498
 31
0.0
  0
LINE
  5
610
330
18
100
AcDbEntity
  8
1
  6
Continuous
 48
0.25
100
AcDbLine
 10
238.6625306397328
 20
147.5473855596496
 30
0.0
 11
240.6625306397328
 21
147.5473855596496
 31
0.0
  0
LINE
  5
611
330
18
100
AcDbEntity
  8
4
  6
CENTER
 48
0.1
100
AcDbLine
 10
234.6625306397328
 20
151.1473855596496
 30
0.0
 11
254.412530639733
 21
151.1473855596495
 31
0.0
  0
CIRCLE
  5
612
330
18
100
AcDbEntity
  8
1
  6
Continuous
 48
0.25
100
AcDbCircle
 10
239.6625306397329
 20
151.1473855596497
 30
0.0
 40
3.5
  0
ARC
  5
614
330
18
100
AcDbEntity
  8
1
  6
Continuous
 48
0.25
100
AcDbCircle
 10
238.6625306397328
 20
145.5473855596497
 30
0.0
 40
2.0
100
AcDbArc
 50
89.9999999999996
 51
179.9999999999991
  0
ARC
  5
615
330
18
100
AcDbEntity
  8
1
  6
Continuous
 48
0.25
100
AcDbCircle
 10
239.6625441697202
 20
151.1473989333513
 30
0.0
 40
5.000013530008358
100
AcDbArc
 50
186.8768855252485
 51
239.5967473083805
  0
ARC
  5
616
330
18
100
AcDbEntity
  8
1
  6
Continuous
 48
0.25
100
AcDbCircle
 10
235.6625306397328
 20
145.1473855596497
 30
0.0
 40
1.0
100
AcDbArc
 50
0.0
 51
89.9999999999996
  0
ARC
  5
617
330
18
100
AcDbEntity
  8
1
  6
Continuous
 48
0.25
100
AcDbCircle
 10
240.6625306397328
 20
145.5473855596497
 30
0.0
 40
2.0
100
AcDbArc
 50
0.0
 51
89.9999999999996
  0
ARC
  5
618
330
18
100
AcDbEntity
  8
1
  6
Continuous
 48
0.25
100
AcDbCircle
 10
239.6625441697202
 20
151.1473989333513
 30
0.0
 40
5.000013530008358
100
AcDbArc
 50
300.4030119927859
 51
0.0000263247628773
  0
ARC
  5
619
330
18
100
AcDbEntity
  8
1
  6
Continuous
 48
0.25
100
AcDbCircle
 10
243.6625306397328
 20
145.1473855596496
 30
0.0
 40
1.0
100
AcDbArc
 50
89.9999999999996
 51
179.9999999999991
  0
LINE
  5
61B
330
18
100
AcDbEntity
  8
4
  6
CENTER
 48
0.05
100
AcDbLine
 10
247.662515248024
 20
141.6473877420531
 30
0.0
 11
247.662515248024
 21
137.047387742053
 31
0.0
  0
CIRCLE
  5
61C
330
18
100
AcDbEntity
  8
1
  6
Continuous
 48
0.25
100
AcDbCircle
 10
249.662530639733
 20
151.1473855596495
 30
0.0
 40
1.85
  0
CIRCLE
  5
61D
330
18
100
AcDbEntity
  8
1
  6
Continuous
 48
0.25
100
AcDbCircle
 10
249.662530639733
 20
151.1473855596495
 30
0.0
 40
3.25
  0
ARC
  5
620
330
18
100
AcDbEntity
  8
1
  6
Continuous
 48
0.25
100
AcDbCircle
 10
247.6625284276616
 20
151.1473855596497
 30
0.0
 40
6.0
100
AcDbArc
 50
303.5573097619212
 51
56.44269023807886
  0
LINE
  5
621
330
18
100
AcDbEntity
  8
1
  6
Continuous
 48
0.25
100
AcDbLine
 10
245.6625306397328
 20
146.1473855596497
 30
0.0
 11
245.6625306397329
 21
156.1473855596496
 31
0.0
  0
LINE
  5
622
330
18
100
AcDbEntity
  8
4
  6
CENTER
 48
0.1
100
AcDbLine
 10
249.662530639733
 20
146.3973855596495
 30
0.0
 11
249.662530639733
 21
155.8973855596495
 31
0.0
  0
LINE
  5
628
330
18
100
AcDbEntity
  8
4
  6
CENTER
 48
0.05
100
AcDbLine
 10
267.662515248024
 20
141.6473877420531
 30
0.0
 11
267.662515248024
 21
137.047387742053
 31
0.0
  0
LINE
  5
62F
330
18
100
AcDbEntity
  8
1
  6
Continuous
 48
0.25
100
AcDbLine
 10
248.662515248024
 20
228.1474390907126
 30
0.0
 11
248.662515248024
 21
223.3974177420533
 31
0.0
  0
ARC
  5
630
330
18
100
AcDbEntity
  8
1
  6
Continuous
 48
0.25
100
AcDbCircle
 10
186.6624881880266
 20
234.430179870132
 30
0.0
 40
50.0
100
AcDbArc
 50
344.0577399461365
 51
9.389001646215779
  0
ARC
  5
632
330
18
100
AcDbEntity
  8
1
  6
Continuous
 48
0.25
100
AcDbCircle
 10
344.6625525308695
 20
173.647417742053
 30
0.0
 40
100.0
100
AcDbArc
 50
166.738582684567
 51
179.9999999999991
  0
LINE
  5
633
330
18
100
AcDbEntity
  8
1
  6
Continuous
 48
0.25
100
AcDbLine
 10
235.5916181293615
 20
191.2823815845202
 30
0.0
 11
235.9926685560286
 21
193.7078236224076
 31
0.0
  0
LINE
  5
66A
330
18
100
AcDbEntity
  8
4
  6
CENTER
 48
0.25
100
AcDbLine
 10
241.9125153337462
 20
218.1474177420533
 30
0.0
 11
255.4125151623021
 21
218.1474177420532
 31
0.0
  0
ARC
  5
66C
330
18
100
AcDbEntity
  8
1
  6
Continuous
 48
0.25
100
AcDbCircle
 10
248.6625152480241
 20
218.1474178684626
 30
0.0
 40
6.751801490405534
100
AcDbArc
 50
180.0000152098134
 51
270.0000131623806
  0
ARC
  5
66E
330
18
100
AcDbEntity
  8
1
  6
Continuous
 48
0.25
100
AcDbCircle
 10
248.6625152480241
 20
218.1474177420534
 30
0.0
 40
5.5
100
AcDbArc
 50
90.0
 51
180.0000077778133
  0
CIRCLE
  5
66F
330
18
100
AcDbEntity
  8
1
  6
Continuous
 48
0.25
100
AcDbCircle
 10
248.6625152480241
 20
218.1474177420534
 30
0.0
 40
3.5
  0
ARC
  5
671
330
18
100
AcDbEntity
  8
1
  6
Continuous
 48
0.25
100
AcDbCircle
 10
186.6624919286166
 20
201.8646412560388
 30
0.0
 40
50.0
100
AcDbArc
 50
350.6110115161642
 51
15.94227321624462
  0
LINE
  5
672
330
18
100
AcDbEntity
  8
1
  6
Continuous
 48
0.25
100
AcDbLine
 10
243.4125152480441
 20
218.1474166623999
 30
0.0
 11
236.6625155197628
 21
218.1474177420492
 31
0.0
  0
ARC
  5
673
330
18
100
AcDbEntity
  8
1
  6
Continuous
 48
0.25
100
AcDbCircle
 10
236.6625157077202
 20
216.1474148702298
 30
0.0
 40
2.000000000241862
100
AcDbArc
 50
90.00000538456811
 51
195.9422732162446
  0
ARC
  5
674
330
18
100
AcDbEntity
  8
1
  6
Continuous
 48
0.25
100
AcDbCircle
 10
236.662515248266
 20
220.147417742291
 30
0.0
 40
2.000000000241862
100
AcDbArc
 50
164.0577399461373
 51
270.0000077778128
  0
LINE
  5
675
330
18
100
AcDbEntity
  8
1
  6
Continuous
 48
0.25
100
AcDbLine
 10
248.6625152480241
 20
212.8974177420533
 30
0.0
 11
248.6625175661605
 21
208.0565819396239
 31
0.0
  0
ARC
  5
677
330
18
100
AcDbEntity
  8
1
  6
Continuous
 48
0.25
100
AcDbCircle
 10
198.6625175661631
 20
208.0565704532797
 30
0.0
 40
50.0
100
AcDbArc
 50
346.738582684567
 51
0.0
  0
LINE
  5
678
330
18
100
AcDbEntity
  8
4
  6
CENTER
 48
0.25
100
AcDbLine
 10
248.6625152480241
 20
211.3974178277755
 30
0.0
 11
248.6625152480243
 21
224.8974176563314
 31
0.0
  0
ARC
  5
679
330
18
100
AcDbEntity
  8
5
  6
PHANTOM
 48
0.1
100
AcDbCircle
 10
233.0930380137433
 20
259.8364187353984
 30
0.0
 40
1.0
100
AcDbArc
 50
22.81926116904773
 51
84.05933986045011
  0
LINE
  5
67A
330
18
100
AcDbEntity
  8
5
  6
PHANTOM
 48
0.1
100
AcDbLine
 10
234.833219985388
 20
269.7093339875147
 30
0.0
 11
231.8493311266198
 21
270.0198292024863
 31
0.0
  0
ARC
  5
67B
330
18
100
AcDbEntity
  8
1
  6
Continuous
 48
0.25
100
AcDbCircle
 10
377.6625152480244
 20
268.5041182043491
 30
0.0
 40
144.0
100
AcDbArc
 50
176.3610829201176
 51
179.7440383953115
  0
ARC
  5
67C
330
18
100
AcDbEntity
  8
1
  6
Continuous
 48
0.25
100
AcDbCircle
 10
377.6625152480244
 20
268.5041182043491
 30
0.0
 40
144.0
100
AcDbArc
 50
183.6977367695368
 51
189.3890016462165
  0
ARC
  5
67D
330
18
100
AcDbEntity
  8
1
  6
Continuous
 48
0.25
100
AcDbCircle
 10
232.953509696752
 20
259.1474177421804
 30
0.0
 40
1.0
100
AcDbArc
 50
19.32629508348878
 51
90.0
  0
ARC
  5
67E
330
18
100
AcDbEntity
  8
1
  6
Continuous
 48
0.25
100
AcDbCircle
 10
233.6625152480244
 20
270.1474177420891
 30
0.0
 40
1.0
100
AcDbArc
 50
270.0
 51
359.9999999999992
  0
ARC
  5
67F
330
18
100
AcDbEntity
  8
1
  6
Continuous
 48
0.25
100
AcDbCircle
 10
226.6625152480245
 20
274.3494587709204
 30
0.0
 40
8.0
100
AcDbArc
 50
359.9999999999992
 51
44.41530859719398
  0
LINE
  5
680
330
18
100
AcDbEntity
  8
1
  6
Continuous
 48
0.25
100
AcDbLine
 10
233.8301531515406
 20
259.6285583174558
 30
0.0
 11
234.806843659496
 21
256.5877852775413
 31
0.0
  0
LINE
  5
681
330
18
100
AcDbEntity
  8
5
  6
PHANTOM
 48
0.1
100
AcDbLine
 10
231.8493311266198
 20
270.0198292024863
 30
0.0
 11
230.9178454817145
 21
261.0681626262731
 31
0.0
  0
LINE
  5
682
330
18
100
AcDbEntity
  8
1
  6
Continuous
 48
0.25
100
AcDbLine
 10
230.6625152480243
 20
269.1474177420891
 30
0.0
 11
230.6625152480243
 21
260.1474177421804
 31
0.0
  0
LINE
  5
683
330
18
100
AcDbEntity
  8
5
  6
PHANTOM
 48
0.1
100
AcDbLine
 10
233.1965364187337
 20
260.8310483549877
 30
0.0
 11
230.9178454817145
 21
261.0681626262731
 31
0.0
  0
LINE
  5
684
330
18
100
AcDbEntity
  8
1
  6
Continuous
 48
0.25
100
AcDbLine
 10
232.953509696752
 20
260.1474177421804
 30
0.0
 11
230.6625152480244
 21
260.1474177421804
 31
0.0
  0
LINE
  5
685
330
18
100
AcDbEntity
  8
1
  6
Continuous
 48
0.25
100
AcDbLine
 10
233.6625152480244
 20
269.1474177420891
 30
0.0
 11
230.6625152480244
 21
269.1474177420891
 31
0.0
  0
LINE
  5
686
330
18
100
AcDbEntity
  8
1
  6
Continuous
 48
0.25
100
AcDbLine
 10
244.7180592429627
 20
257.4754989112103
 30
0.0
 11
246.1364354317448
 21
268.14741774218
 31
0.0
  0
LINE
  5
687
330
18
100
AcDbEntity
  8
5
  6
PHANTOM
 48
0.1
100
AcDbLine
 10
246.7056314457855
 20
277.5225181089228
 30
0.0
 11
244.6356633459708
 21
257.6299257171007
 31
0.0
  0
LINE
  5
688
330
18
100
AcDbEntity
  8
5
  6
PHANTOM
 48
0.1
100
AcDbLine
 10
234.0147708418123
 20
260.2242442034376
 30
0.0
 11
234.6715009906271
 21
257.0987153617471
 31
0.0
  0
LINE
  5
689
330
18
100
AcDbEntity
  8
1
  6
Continuous
 48
0.25
100
AcDbLine
 10
244.6625152480244
 20
268.14741774218
 30
0.0
 11
244.6625152480241
 21
258.1474177420534
 31
0.0
  0
LINE
  5
68A
330
18
100
AcDbEntity
  8
4
  6
CENTER
 48
0.1
100
AcDbLine
 10
239.6625152480241
 20
253.6474177420533
 30
0.0
 11
239.6625152480243
 21
262.6474177420533
 31
0.0
  0
LINE
  5
68B
330
18
100
AcDbEntity
  8
1
  6
Continuous
 48
0.25
100
AcDbLine
 10
234.9442694114543
 20
256.4926802324492
 30
0.0
 11
233.8971588640661
 21
259.4783652441011
 31
0.0
  0
CIRCLE
  5
68C
330
18
100
AcDbEntity
  8
1
  6
Continuous
 48
0.25
100
AcDbCircle
 10
239.6625152480241
 20
258.1474177420533
 30
0.0
 40
2.5
  0
CIRCLE
  5
68D
330
18
100
AcDbEntity
  8
1
  6
Continuous
 48
0.25
100
AcDbCircle
 10
239.6625152480241
 20
258.1474177420533
 30
0.0
 40
3.0
  0
ARC
  5
68E
330
18
100
AcDbEntity
  8
1
  6
Continuous
 48
0.25
100
AcDbCircle
 10
239.6625152480241
 20
258.1474177420533
 30
0.0
 40
5.099999999999998
100
AcDbArc
 50
267.2586999999998
 51
352.4293400761495
  0
ARC
  5
68F
330
18
100
AcDbEntity
  8
1
  6
Continuous
 48
0.25
100
AcDbCircle
 10
344.6625667662402
 20
262.6473831932525
 30
0.0
 40
100.0
100
AcDbArc
 50
182.7184021931921
 51
193.2613897516267
  0
LINE
  5
690
330
18
100
AcDbEntity
  8
4
  6
CENTER
 48
0.1
100
AcDbLine
 10
235.1625152480242
 20
258.1474177420534
 30
0.0
 11
244.1625152480241
 21
258.1474177420534
 31
0.0
  0
ARC
  5
691
330
18
100
AcDbEntity
  8
1
  6
Continuous
 48
0.25
100
AcDbCircle
 10
239.6625152480241
 20
258.1474177420533
 30
0.0
 40
5.0
100
AcDbArc
 50
199.3262950834896
 51
0.0
  0
LINE
  5
692
330
18
100
AcDbEntity
  8
1
  6
Continuous
 48
0.25
100
AcDbLine
 10
235.5916119577411
 20
245.0124507819856
 30
0.0
 11
235.9926629415974
 21
242.5870088362306
 31
0.0
  0
ARC
  5
693
330
18
100
AcDbEntity
  8
1
  6
Continuous
 48
0.25
100
AcDbCircle
 10
239.6625152480241
 20
258.1474177420533
 30
0.0
 40
5.099999999999998
100
AcDbArc
 50
197.8069193560727
 51
267.2586999999998
  0
ARC
  5
694
330
18
100
AcDbEntity
  8
1
  6
Continuous
 48
0.25
100
AcDbCircle
 10
198.6625152480241
 20
228.2383007196052
 30
0.0
 40
50.0
100
AcDbArc
 50
0.0
 51
13.26138975162686
  0
ARC
  5
695
330
18
100
AcDbEntity
  8
5
  6
PHANTOM
 48
0.1
100
AcDbCircle
 10
242.4569721827688
 20
285.0024174709652
 30
0.0
 40
5.0
100
AcDbArc
 50
0.2169942425651506
 51
84.05933986044848
  0
LINE
  5
696
330
18
100
AcDbEntity
  8
1
  6
Continuous
 48
0.25
100
AcDbLine
 10
248.1625423080232
 20
268.14741774218
 30
0.0
 11
239.2264743304473
 21
268.1474177421801
 31
0.0
  0
LINE
  5
697
330
18
100
AcDbEntity
  8
1
  6
Continuous
 48
0.25
100
AcDbLine
 10
246.6625152480244
 20
283.147417742089
 30
0.0
 11
244.6625152480245
 21
283.147417742089
 31
0.0
  0
LINE
  5
698
330
18
100
AcDbEntity
  8
1
  6
Continuous
 48
0.25
100
AcDbLine
 10
246.6625152480244
 20
278.1474177420891
 30
0.0
 11
244.6625152480244
 21
278.1474177420891
 31
0.0
  0
LINE
  5
699
330
18
100
AcDbEntity
  8
1
  6
Continuous
 48
0.25
100
AcDbLine
 10
248.1625423080232
 20
276.1474177421801
 30
0.0
 11
239.2264743305996
 21
276.1474177421804
 31
0.0
  0
LINE
  5
69A
330
18
100
AcDbEntity
  8
1
  6
Continuous
 48
0.25
100
AcDbLine
 10
245.566227733367
 20
277.0401531635094
 30
0.0
 11
245.4467682447326
 21
278.1474177420891
 31
0.0
  0
ARC
  5
69B
330
18
100
AcDbEntity
  8
1
  6
Continuous
 48
0.25
100
AcDbCircle
 10
246.56045824495
 20
277.1474177421802
 30
0.0
 40
1.0
100
AcDbArc
 50
186.1576543821155
 51
270.0
  0
ARC
  5
69C
330
18
100
AcDbEntity
  8
1
  6
Continuous
 48
0.25
100
AcDbCircle
 10
239.6625152480244
 20
285.1474177420533
 30
0.0
 40
5.0
100
AcDbArc
 50
359.9999999999992
 51
89.99999999999799
  0
ARC
  5
69D
330
18
100
AcDbEntity
  8
5
  6
PHANTOM
 48
0.1
100
AcDbCircle
 10
228.4092155974423
 20
275.607926912043
 30
0.0
 40
8.0
100
AcDbArc
 50
354.0593398604496
 51
38.47464845764416
  0
ARC
  5
69E
330
18
100
AcDbEntity
  8
1
  6
Continuous
 48
0.25
100
AcDbCircle
 10
241.4625423080233
 20
272.147417742095
 30
0.0
 40
5.0
100
AcDbArc
 50
138.1896851020383
 51
221.8103148936005
  0
ARC
  5
69F
330
18
100
AcDbEntity
  8
5
  6
PHANTOM
 48
0.1
100
AcDbCircle
 10
234.9367183903785
 20
270.703963607104
 30
0.0
 40
1.0
100
AcDbArc
 50
264.05933986045
 51
354.0593398604496
  0
LINE
  5
6A0
330
18
100
AcDbEntity
  8
5
  6
PHANTOM
 48
0.1
100
AcDbLine
 10
236.3662525541568
 20
274.7799396721187
 30
0.0
 11
235.9313480099678
 21
270.6004652021136
 31
0.0
  0
LINE
  5
6A1
330
18
100
AcDbEntity
  8
1
  6
Continuous
 48
0.25
100
AcDbLine
 10
236.4625423080233
 20
272.1474177420774
 30
0.0
 11
234.6625152480245
 21
272.1474177420774
 31
0.0
  0
LINE
  5
6A2
330
18
100
AcDbEntity
  8
1
  6
Continuous
 48
0.25
100
AcDbLine
 10
234.6625152480245
 20
274.3494587709203
 30
0.0
 11
234.6625152480244
 21
270.1474177420891
 31
0.0
  0
ARC
  5
6A3
330
18
100
AcDbEntity
  8
1
  6
Continuous
 48
0.25
100
AcDbCircle
 10
239.2264743304473
 20
270.14741774218
 30
0.0
 40
2.0
100
AcDbArc
 50
221.8103148935996
 51
270.0
  0
LINE
  5
6A4
330
18
100
AcDbEntity
  8
1
  6
Continuous
 48
0.25
100
AcDbLine
 10
245.3294006192528
 20
268.14741774218
 30
0.0
 11
244.6625152480244
 21
263.1297456974855
 31
0.0
  0
ARC
  5
6A5
330
18
100
AcDbEntity
  8
1
  6
Continuous
 48
0.25
100
AcDbCircle
 10
344.6625667662402
 20
262.6473831932525
 30
0.0
 40
100.0
100
AcDbArc
 50
179.9999816713041
 51
180.4473011554784
  0
ARC
  5
6A6
330
18
100
AcDbEntity
  8
1
  6
Continuous
 48
0.25
100
AcDbCircle
 10
344.6625423080232
 20
262.5566039933954
 30
0.0
 40
100.0
100
AcDbArc
 50
180.0
 51
180.39750239622
  0
ARC
  5
6A7
330
18
100
AcDbEntity
  8
1
  6
Continuous
 48
0.25
100
AcDbCircle
 10
245.6625423080232
 20
267.1474177421801
 30
0.0
 40
1.0
100
AcDbArc
 50
109.944709097306
 51
179.9999999999991
  0
LINE
  5
6A8
330
18
100
AcDbEntity
  8
4
  6
CENTER
 48
0.1
100
AcDbLine
 10
235.6125152480244
 20
285.1474477420534
 30
0.0
 11
243.6625152480245
 21
285.1474477420534
 31
0.0
  0
CIRCLE
  5
6A9
330
18
100
AcDbEntity
  8
1
  6
Continuous
 48
0.25
100
AcDbCircle
 10
239.6625152480245
 20
285.1474477420534
 30
0.0
 40
1.7
  0
CIRCLE
  5
6AA
330
18
100
AcDbEntity
  8
1
  6
Continuous
 48
0.25
100
AcDbCircle
 10
239.6625152480245
 20
285.1474477420534
 30
0.0
 40
2.499999999999999
  0
LINE
  5
6AB
330
18
100
AcDbEntity
  8
4
  6
CENTER
 48
0.1
100
AcDbLine
 10
239.6625152480245
 20
281.1474477420535
 30
0.0
 11
239.6625152480245
 21
289.1474477420534
 31
0.0
  0
ARC
  5
6AD
330
18
100
AcDbEntity
  8
1
  6
Continuous
 48
0.25
100
AcDbCircle
 10
236.6739311537795
 20
284.885950513816
 30
0.0
 40
2.749999999999998
100
AcDbArc
 50
81.5066011783063
 51
288.4933988216904
  0
ARC
  5
6AE
330
18
100
AcDbEntity
  8
1
  6
Continuous
 48
0.25
100
AcDbCircle
 10
239.2264743305996
 20
274.1474177421801
 30
0.0
 40
2.0
100
AcDbArc
 50
90.0
 51
138.1896851020383
  0
LINE
  5
6AF
330
18
100
AcDbEntity
  8
1
  6
Continuous
 48
0.25
100
AcDbLine
 10
238.9557965231713
 20
282.7494175829557
 30
0.0
 11
237.5462184921023
 21
282.277959946463
 31
0.0
  0
LINE
  5
6B0
330
18
100
AcDbEntity
  8
1
  6
Continuous
 48
0.25
100
AcDbLine
 10
239.6625152480246
 20
290.1474177420533
 30
0.0
 11
236.6625152480244
 21
290.1474177420533
 31
0.0
  0
ARC
  5
6B1
330
18
100
AcDbEntity
  8
1
  6
Continuous
 48
0.25
100
AcDbCircle
 10
377.6625152480244
 20
268.5041182043491
 30
0.0
 40
144.0
100
AcDbArc
 50
173.1231276371324
 51
174.1011829772276
  0
ARC
  5
6B2
330
18
100
AcDbEntity
  8
1
  6
Continuous
 48
0.25
100
AcDbCircle
 10
239.6625287780149
 20
285.147434368355
 30
0.0
 40
5.000013530008358
100
AcDbArc
 50
156.7939015332218
 51
173.1231276371324
  0
LINE
  5
6B3
330
18
100
AcDbEntity
  8
1
  6
Continuous
 48
0.25
100
AcDbLine
 10
234.6625152480244
 20
285.4451925504463
 30
0.0
 11
234.6625152480244
 21
286.7612387727447
 31
0.0
  0
LINE
  5
6B5
330
18
100
AcDbEntity
  8
1
  6
Continuous
 48
0.25
100
AcDbLine
 10
237.0800936780209
 20
287.6057909510295
 30
0.0
 11
238.5500286619144
 21
287.386280830009
 31
0.0
  0
LINE
  5
6B6
330
18
100
AcDbEntity
  8
1
  6
Continuous
 48
0.25
100
AcDbLine
 10
244.9073330864814
 20
283.147417742089
 30
0.0
 11
244.633694787877
 21
285.6837587129996
 31
0.0
  0
LINE
  5
6B8
330
18
100
AcDbEntity
  8
1
  6
Continuous
 48
0.25
100
AcDbLine
 10
244.6625152480244
 20
278.1474177420891
 30
0.0
 11
244.6625152480244
 21
276.1474177421801
 31
0.0
  0
LINE
  5
6B9
330
18
100
AcDbEntity
  8
5
  6
PHANTOM
 48
0.1
100
AcDbLine
 10
242.9744642077216
 20
289.9755655689118
 30
0.0
 11
239.9905753489534
 21
290.2860607838835
 31
0.0
  0
LINE
  5
6BA
330
18
100
AcDbEntity
  8
1
  6
Continuous
 48
0.25
100
AcDbLine
 10
248.1625423080232
 20
276.1474177421799
 30
0.0
 11
248.1625423080232
 21
268.14741774218
 31
0.0
  0
LINE
  5
6BB
330
18
100
AcDbEntity
  8
5
  6
PHANTOM
 48
0.1
100
AcDbLine
 10
247.4666265442713
 20
282.4703279510757
 30
0.0
 11
247.4569650324267
 21
285.0213689335712
 31
0.0
  0
LINE
  5
6BC
330
18
100
AcDbEntity
  8
5
  6
PHANTOM
 48
0.1
100
AcDbLine
 10
248.6948906849641
 20
277.3155212989418
 30
0.0
 11
246.7056314457856
 21
277.5225181089228
 31
0.0
  0
LINE
  5
6BD
330
18
100
AcDbEntity
  8
5
  6
PHANTOM
 48
0.1
100
AcDbLine
 10
249.2123827099167
 20
282.2886693968881
 30
0.0
 11
247.4666265442712
 21
282.4703279510757
 31
0.0
  0
LINE
  5
6BE
330
18
100
AcDbEntity
  8
1
  6
Continuous
 48
0.25
100
AcDbLine
 10
246.6625152480244
 20
283.147417742089
 30
0.0
 11
246.6625152480244
 21
278.1474177420891
 31
0.0
  0
LINE
  5
6BF
330
18
100
AcDbEntity
  8
5
  6
PHANTOM
 48
0.1
100
AcDbLine
 10
249.2123827099167
 20
282.2886693968884
 30
0.0
 11
248.6948906849639
 21
277.3155212989418
 31
0.0
  0
LINE
  5
8B8
330
18
100
AcDbEntity
  8
1
  6
Continuous
 48
0.25
100
AcDbLine
 10
225.6625152480245
 20
296.1474477420535
 30
0.0
 11
253.6625152480246
 21
296.1474477420535
 31
0.0
  0
LINE
  5
8B9
330
18
100
AcDbEntity
  8
1
  6
Continuous
 48
0.25
100
AcDbLine
 10
253.6625152480245
 20
297.7474477420534
 30
0.0
 11
225.6625152480245
 21
297.7474477420535
 31
0.0
  0
LINE
  5
8BA
330
18
100
AcDbEntity
  8
1
  6
Continuous
 48
0.25
100
AcDbLine
 10
225.6625152480245
 20
297.7474477420535
 30
0.0
 11
225.6625152480245
 21
296.1474477420535
 31
0.0
  0
LINE
  5
8BB
330
18
100
AcDbEntity
  8
4
  6
CENTER
 48
0.05
100
AcDbLine
 10
229.6625152480245
 20
294.6474477420537
 30
0.0
 11
229.6625152480245
 21
299.2474477420535
 31
0.0
  0
LINE
  5
8BC
330
18
100
AcDbEntity
  8
1
  6
Continuous
 48
0.25
100
AcDbLine
 10
228.1110450996253
 20
296.1474477420535
 30
0.0
 11
228.1110450996253
 21
297.7474477420535
 31
0.0
  0
LINE
  5
8BD
330
18
100
AcDbEntity
  8
4
  6
CENTER
 48
0.05
100
AcDbLine
 10
249.6625152480245
 20
294.6474477420535
 30
0.0
 11
249.6625152480246
 21
299.2474477420534
 31
0.0
  0
LINE
  5
8BE
330
18
100
AcDbEntity
  8
1
  6
Continuous
 48
0.25
100
AcDbLine
 10
251.2139854520312
 20
296.1474477420535
 30
0.0
 11
251.2139854520312
 21
297.7474477420534
 31
0.0
  0
LINE
  5
8BF
330
18
100
AcDbEntity
  8
1
  6
Continuous
 48
0.25
100
AcDbLine
 10
253.6625152480246
 20
296.1474477420535
 30
0.0
 11
253.6625152480246
 21
297.7474477420534
 31
0.0
  0
ARC
  5
8D3
330
18
100
AcDbEntity
  8
1
  6
Continuous
100
AcDbCircle
 10
248.6625152480241
 20
218.1474177420534
 30
0.0
 40
5.249999914277984
100
AcDbArc
 50
270.0000000000002
 51
180.0000000000006
  0
LINE
  5
8D9
330
18
100
AcDbEntity
  8
4
  6
CENTER
 48
0.1
100
AcDbLine
 10
37.16250150981671
 20
151.1473855596499
 30
0.0
 11
44.1625015098167
 21
151.1473855596499
 31
0.0
  0
LINE
  5
D0F
330
18
100
AcDbEntity
  8
1
  6
Continuous
100
AcDbLine
 10
142.8125146150543
 20
218.1474177419939
 30
0.0
 11
139.1125158209155
 21
218.1474177419939
 31
0.0
  0
LINE
  5
1A8A
330
18
100
AcDbEntity
  8
1
  6
Continuous
100
AcDbLine
 10
239.1625406314687
 20
170.115185690057
 30
0.0
 11
239.1625406314687
 21
170.3404306684415
 31
0.0
  0
ARC
  5
1A8B
330
18
100
AcDbEntity
  8
1
  6
Continuous
100
AcDbCircle
 10
238.4125406314688
 20
170.115185690057
 30
0.0
 40
0.7500000000000006
100
AcDbArc
 50
89.99999999999998
 51
0.0
  0
ARC
  5
1A8C
330
18
100
AcDbEntity
  8
1
  6
Continuous
100
AcDbCircle
 10
239.9125406314687
 20
170.115185690057
 30
0.0
 40
0.75
100
AcDbArc
 50
180.0
 51
89.99999999999998
  0
LINE
  5
1AC6
330
18
100
AcDbEntity
  8
0
  6
Continuous
100
AcDbLine
 10
237.6625406314687
 20
175.6593647771826
 30
0.0
 11
240.6625406314687
 21
174.6768647771826
 31
0.0
  0
LINE
  5
1AC7
330
18
100
AcDbEntity
  8
1
  6
Continuous
100
AcDbLine
 10
240.6625406314687
 20
177.5353382807244
 30
0.0
 11
240.6625406314687
 21
179.3353382807244
 31
0.0
  0
LINE
  5
1AC8
330
18
100
AcDbEntity
  8
1
  6
Continuous
100
AcDbLine
 10
240.6625406314687
 20
176.6418647771826
 30
0.0
 11
237.6625406314687
 21
176.6418647771826
 31
0.0
  0
LINE
  5
1AC9
330
18
100
AcDbEntity
  8
0
  6
Continuous
100
AcDbLine
 10
240.6625406314687
 20
176.6418647771826
 30
0.0
 11
237.6625406314687
 21
175.6593647771826
 31
0.0
  0
LINE
  5
1ACA
330
18
100
AcDbEntity
  8
1
  6
Continuous
100
AcDbLine
 10
240.6625406314687
 20
178.4353382807244
 30
0.0
 11
237.6625406314687
 21
178.4353382807244
 31
0.0
  0
LINE
  5
1ACB
330
18
100
AcDbEntity
  8
1
  6
Continuous
100
AcDbLine
 10
240.6625406314687
 20
174.6768647771826
 30
0.0
 11
237.6625406314687
 21
174.6768647771826
 31
0.0
  0
LINE
  5
1ACC
330
18
100
AcDbEntity
  8
1
  6
Continuous
100
AcDbLine
 10
239.1625406314687
 20
171.9418648870672
 30
0.0
 11
239.1625406314687
 21
173.3505427037654
 31
0.0
  0
LINE
  5
1ACD
330
18
100
AcDbEntity
  8
1
  6
Continuous
100
AcDbLine
 10
240.6653710335607
 20
160.6353581550472
 30
0.0
 11
237.6653710335607
 21
160.6353581550472
 31
0.0
  0
LINE
  5
1ACE
330
18
100
AcDbEntity
  8
1
  6
Continuous
100
AcDbLine
 10
237.6653710335607
 20
160.6353581550472
 30
0.0
 11
237.6653710335607
 21
158.8353581550473
 31
0.0
  0
ARC
  5
1B07
330
18
100
AcDbEntity
  8
1
  6
Continuous
 48
0.25
100
AcDbCircle
 10
243.3954851438743
 20
184.1474177420532
 30
0.0
 40
5.73293041659
100
AcDbArc
 50
144.4620000000008
 51
215.5379999999991
  0
ARC
  5
1B08
330
18
100
AcDbEntity
  8
1
  6
Continuous
 48
0.25
100
AcDbCircle
 10
235.9296394688742
 20
184.1474177420532
 30
0.0
 40
5.73293041659
100
AcDbArc
 50
324.4620000000008
 51
35.53769999999924
  0
ARC
  5
1B09
330
18
100
AcDbEntity
  8
1
  6
Continuous
 48
0.25
100
AcDbCircle
 10
239.8849587968742
 20
181.9252572710531
 30
0.0
 40
0.22226115795
100
AcDbArc
 50
89.99999999999998
 51
270.0
  0
LINE
  5
1B0A
330
18
100
AcDbEntity
  8
1
  6
Continuous
 48
0.25
100
AcDbLine
 10
240.8819085818743
 20
187.0354143590532
 30
0.0
 11
238.9655996738742
 21
187.0354143590532
 31
0.0
  0
LINE
  5
1B0B
330
18
100
AcDbEntity
  8
1
  6
Continuous
 48
0.25
100
AcDbLine
 10
238.8428981618742
 20
186.5915235950532
 30
0.0
 11
240.4822264508742
 21
186.5915235950532
 31
0.0
  0
LINE
  5
1B0C
330
18
100
AcDbEntity
  8
1
  6
Continuous
 48
0.25
100
AcDbLine
 10
240.7592070698742
 20
186.1467306140531
 30
0.0
 11
238.5668197598742
 21
186.1467306140531
 31
0.0
  0
ARC
  5
1B0D
330
18
100
AcDbEntity
  8
1
  6
Continuous
 48
0.25
100
AcDbCircle
 10
239.6630134148742
 20
186.8134689770531
 30
0.0
 40
1.14531937065
100
AcDbArc
 50
35.53769999999924
 51
76.53739999999936
  0
ARC
  5
1B0E
330
18
100
AcDbEntity
  8
1
  6
Continuous
 48
0.25
100
AcDbCircle
 10
239.6630134148742
 20
186.8134689770531
 30
0.0
 40
1.14531937065
100
AcDbArc
 50
89.99999999999998
 51
144.4620000000008
  0
ARC
  5
1B0F
330
18
100
AcDbEntity
  8
1
  6
Continuous
 48
0.25
100
AcDbCircle
 10
240.4822264508742
 20
186.3686759960532
 30
0.0
 40
0.22226115795
100
AcDbArc
 50
26.01439999999981
 51
89.99999999999998
  0
ARC
  5
1B10
330
18
100
AcDbEntity
  8
1
  6
Continuous
 48
0.25
100
AcDbCircle
 10
235.9296394688742
 20
184.1474177420532
 30
0.0
 40
5.2885253889
100
AcDbArc
 50
22.94400000000081
 51
26.01439999999981
  0
ARC
  5
1B11
330
18
100
AcDbEntity
  8
1
  6
Continuous
 48
0.25
100
AcDbCircle
 10
240.7592070698742
 20
186.1909392470531
 30
0.0
 40
0.04445223159
100
AcDbArc
 50
270.0
 51
22.94400000000081
  0
ARC
  5
1B12
330
18
100
AcDbEntity
  8
1
  6
Continuous
 48
0.25
100
AcDbCircle
 10
238.8428981618742
 20
186.3686759960532
 30
0.0
 40
0.22226115795
100
AcDbArc
 50
89.99999999999998
 51
153.986
  0
ARC
  5
1B13
330
18
100
AcDbEntity
  8
1
  6
Continuous
 48
0.25
100
AcDbCircle
 10
238.5668197598742
 20
186.1909392470531
 30
0.0
 40
0.04445223159
100
AcDbArc
 50
157.0559999999991
 51
270.0
  0
ARC
  5
1B14
330
18
100
AcDbEntity
  8
1
  6
Continuous
 48
0.25
100
AcDbCircle
 10
243.3954851438743
 20
184.1474177420532
 30
0.0
 40
5.2885253889
100
AcDbArc
 50
153.986
 51
157.0559999999991
  0
LINE
  5
1B15
330
18
100
AcDbEntity
  8
1
  6
Continuous
 48
0.25
100
AcDbLine
 10
240.1962236618742
 20
185.2580468690532
 30
0.0
 11
241.0443076418743
 21
185.2580468690532
 31
0.0
  0
LINE
  5
1B16
330
18
100
AcDbEntity
  8
1
  6
Continuous
 48
0.25
100
AcDbLine
 10
239.6630134148742
 20
184.369363124053
 30
0.0
 11
239.6630134148742
 21
184.8132538880531
 31
0.0
  0
ARC
  5
1B17
330
18
100
AcDbEntity
  8
1
  6
Continuous
 48
0.25
100
AcDbCircle
 10
241.0443076418743
 20
185.3022555020532
 30
0.0
 40
0.04445223159
100
AcDbArc
 50
270.0
 51
12.72889999999957
  0
ARC
  5
1B18
330
18
100
AcDbEntity
  8
1
  6
Continuous
 48
0.25
100
AcDbCircle
 10
235.9296394688742
 20
184.1474177420532
 30
0.0
 40
5.2885253889
100
AcDbArc
 50
12.72889999999957
 51
13.26809999999905
  0
ARC
  5
1B19
330
18
100
AcDbEntity
  8
1
  6
Continuous
 48
0.25
100
AcDbCircle
 10
235.9296394688742
 20
184.1474177420532
 30
0.0
 40
5.2885253889
100
AcDbArc
 50
13.26809999999905
 51
15.25749999999997
  0
ARC
  5
1B1A
330
18
100
AcDbEntity
  8
1
  6
Continuous
 48
0.25
100
AcDbCircle
 10
240.8169489578742
 20
185.4799922510532
 30
0.0
 40
0.22226115795
100
AcDbArc
 50
15.25749999999997
 51
89.99999999999998
  0
ARC
  5
1B1B
330
18
100
AcDbEntity
  8
1
  6
Continuous
 48
0.25
100
AcDbCircle
 10
238.5081756548742
 20
185.4799922510532
 30
0.0
 40
0.22226115795
100
AcDbArc
 50
89.99999999999998
 51
164.7419999999999
  0
ARC
  5
1B1C
330
18
100
AcDbEntity
  8
1
  6
Continuous
 48
0.25
100
AcDbCircle
 10
243.3954851438743
 20
184.1474177420532
 30
0.0
 40
5.2885253889
100
AcDbArc
 50
164.7419999999999
 51
164.7939999999989
  0
ARC
  5
1B1D
330
18
100
AcDbEntity
  8
1
  6
Continuous
 48
0.25
100
AcDbCircle
 10
243.3954851438743
 20
184.1474177420532
 30
0.0
 40
5.2885253889
100
AcDbArc
 50
164.7939999999989
 51
167.2710000000011
  0
ARC
  5
1B1E
330
18
100
AcDbEntity
  8
1
  6
Continuous
 48
0.25
100
AcDbCircle
 10
238.2808169708742
 20
185.3022555020532
 30
0.0
 40
0.04445223159
100
AcDbArc
 50
167.2710000000011
 51
270.0
  0
LINE
  5
1B1F
330
18
100
AcDbEntity
  8
1
  6
Continuous
 48
0.25
100
AcDbLine
 10
240.8169489578742
 20
185.7028398500531
 30
0.0
 11
238.5081756548742
 21
185.7028398500531
 31
0.0
  0
LINE
  5
1B20
330
18
100
AcDbEntity
  8
1
  6
Continuous
 48
0.25
100
AcDbLine
 10
238.2808169708742
 20
185.2580468690532
 30
0.0
 11
239.1298031678743
 21
185.2580468690532
 31
0.0
  0
LINE
  5
1B21
330
18
100
AcDbEntity
  8
1
  6
Continuous
 48
0.25
100
AcDbLine
 10
241.1760313238742
 20
184.8132538880531
 30
0.0
 11
238.1490932888742
 21
184.8132538880531
 31
0.0
  0
LINE
  5
1B22
330
18
100
AcDbEntity
  8
1
  6
Continuous
 48
0.25
100
AcDbLine
 10
241.2130222208741
 20
184.369363124053
 30
0.0
 11
238.1121023918742
 21
184.369363124053
 31
0.0
  0
LINE
  5
1B23
330
18
100
AcDbEntity
  8
1
  6
Continuous
 48
0.25
100
AcDbLine
 10
240.1962236618742
 20
183.0358863980532
 30
0.0
 11
240.9170950448742
 21
183.0358863980532
 31
0.0
  0
LINE
  5
1B24
330
18
100
AcDbEntity
  8
1
  6
Continuous
 48
0.25
100
AcDbLine
 10
239.6630134148742
 20
183.0358863980532
 30
0.0
 11
239.6630134148742
 21
183.2578317800533
 31
0.0
  0
LINE
  5
1B25
330
18
100
AcDbEntity
  8
1
  6
Continuous
 48
0.25
100
AcDbLine
 10
240.9143883938742
 20
182.1472026530532
 30
0.0
 11
239.8849587968742
 21
182.1472026530532
 31
0.0
  0
ARC
  5
1B26
330
18
100
AcDbEntity
  8
1
  6
Continuous
 48
0.25
100
AcDbCircle
 10
240.9170950448742
 20
183.2578317800533
 30
0.0
 40
0.22226115795
100
AcDbArc
 50
270.0
 51
349.8959999999996
  0
ARC
  5
1B27
330
18
100
AcDbEntity
  8
1
  6
Continuous
 48
0.25
100
AcDbCircle
 10
235.9296394688742
 20
184.1474177420532
 30
0.0
 40
5.2885253889
100
AcDbArc
 50
349.8959999999996
 51
352.2069999999996
  0
ARC
  5
1B28
330
18
100
AcDbEntity
  8
1
  6
Continuous
 48
0.25
100
AcDbCircle
 10
241.1255071718742
 20
183.4355685290532
 30
0.0
 40
0.04445223159
100
AcDbArc
 50
352.2069999999996
 51
89.99999999999998
  0
ARC
  5
1B29
330
18
100
AcDbEntity
  8
1
  6
Continuous
 48
0.25
100
AcDbCircle
 10
238.4080295678742
 20
183.2578317800533
 30
0.0
 40
0.22226115795
100
AcDbArc
 50
190.1040000000003
 51
270.0
  0
ARC
  5
1B2A
330
18
100
AcDbEntity
  8
1
  6
Continuous
 48
0.25
100
AcDbCircle
 10
238.1996174408742
 20
183.4355685290532
 30
0.0
 40
0.04445223159
100
AcDbArc
 50
89.99999999999998
 51
187.7930000000003
  0
ARC
  5
1B2B
330
18
100
AcDbEntity
  8
1
  6
Continuous
 48
0.25
100
AcDbCircle
 10
243.3954851438743
 20
184.1474177420532
 30
0.0
 40
5.2885253889
100
AcDbArc
 50
187.7930000000003
 51
190.1040000000003
  0
LINE
  5
1B2C
330
18
100
AcDbEntity
  8
1
  6
Continuous
 48
0.25
100
AcDbLine
 10
241.2130222208741
 20
183.9245701430531
 30
0.0
 11
238.1121023918742
 21
183.9245701430531
 31
0.0
  0
LINE
  5
1B2D
330
18
100
AcDbEntity
  8
1
  6
Continuous
 48
0.25
100
AcDbLine
 10
241.1255071718742
 20
183.4806793790532
 30
0.0
 11
238.1996174408742
 21
183.4806793790532
 31
0.0
  0
LINE
  5
1B2E
330
18
100
AcDbEntity
  8
1
  6
Continuous
 48
0.25
100
AcDbLine
 10
238.4080295678742
 20
183.0358863980532
 30
0.0
 11
239.6630134148742
 21
183.0358863980532
 31
0.0
  0
LINE
  5
1B2F
330
18
100
AcDbEntity
  8
1
  6
Continuous
 48
0.25
100
AcDbLine
 10
241.1237027378742
 20
182.5919956340532
 30
0.0
 11
238.3412655098742
 21
182.5919956340532
 31
0.0
  0
LINE
  5
1B30
330
18
100
AcDbEntity
  8
1
  6
Continuous
 48
0.25
100
AcDbLine
 10
239.8849587968742
 20
181.7024096720531
 30
0.0
 11
240.8340910808742
 21
181.7024096720531
 31
0.0
  0
LINE
  5
1B31
330
18
100
AcDbEntity
  8
1
  6
Continuous
 48
0.25
100
AcDbLine
 10
239.6630134148742
 20
181.9252572710531
 30
0.0
 11
238.5965929208742
 21
181.9252572710531
 31
0.0
  0
LINE
  5
1B32
330
18
100
AcDbEntity
  8
1
  6
Continuous
 48
0.25
100
AcDbLine
 10
238.8311693408742
 20
181.4768554220531
 30
0.0
 11
240.7041718328743
 21
180.9743205530531
 31
0.0
  0
LINE
  5
1B33
330
18
100
AcDbEntity
  8
1
  6
Continuous
 48
0.25
100
AcDbLine
 10
239.6630134148742
 20
180.3355509170532
 30
0.0
 11
239.6630134148742
 21
181.2540078230533
 31
0.0
  0
ARC
  5
1B34
330
18
100
AcDbEntity
  8
1
  6
Continuous
 48
0.25
100
AcDbCircle
 10
239.6630134148742
 20
181.4804642900531
 30
0.0
 40
1.14531937065
100
AcDbArc
 50
242.2499999999996
 51
324.4620000000008
  0
ARC
  5
1B35
330
18
100
AcDbEntity
  8
1
  6
Continuous
 48
0.25
100
AcDbCircle
 10
239.6630134148742
 20
181.4804642900531
 30
0.0
 40
1.14531937065
100
AcDbArc
 50
215.5379999999991
 51
225.6989999999998
  0
ARC
  5
2141
330
18
100
AcDbEntity
  8
1
  6
Continuous
100
AcDbCircle
 10
239.9125406314687
 20
167.6736980529606
 30
0.0
 40
0.7499999999999997
100
AcDbArc
 50
270.0
 51
89.99999999999998
  0
ARC
  5
2142
330
18
100
AcDbEntity
  8
1
  6
Continuous
100
AcDbCircle
 10
238.4125406314688
 20
167.6736980529606
 30
0.0
 40
0.7499999999999997
100
AcDbArc
 50
89.99999999999998
 51
270.0
  0
LINE
  5
2143
330
18
100
AcDbEntity
  8
1
  6
Continuous
100
AcDbLine
 10
239.9125406314687
 20
168.4236980529606
 30
0.0
 11
238.4125406314687
 21
168.4236980529606
 31
0.0
  0
LINE
  5
2144
330
18
100
AcDbEntity
  8
1
  6
Continuous
100
AcDbLine
 10
239.9125406314687
 20
166.9236980529606
 30
0.0
 11
238.4125406314687
 21
166.9236980529606
 31
0.0
  0
ARC
  5
2145
330
18
100
AcDbEntity
  8
1
  6
Continuous
100
AcDbCircle
 10
239.9125406314687
 20
164.9810534403832
 30
0.0
 40
0.7499999999999997
100
AcDbArc
 50
270.0
 51
89.99999999999998
  0
ARC
  5
2146
330
18
100
AcDbEntity
  8
1
  6
Continuous
100
AcDbCircle
 10
238.4125406314688
 20
164.9810534403832
 30
0.0
 40
0.7499999999999997
100
AcDbArc
 50
89.99999999999998
 51
270.0
  0
LINE
  5
2147
330
18
100
AcDbEntity
  8
1
  6
Continuous
100
AcDbLine
 10
239.9125406314687
 20
165.7310534403832
 30
0.0
 11
238.4125406314687
 21
165.7310534403832
 31
0.0
  0
LINE
  5
2148
330
18
100
AcDbEntity
  8
1
  6
Continuous
100
AcDbLine
 10
239.9125406314687
 20
164.2310534403832
 30
0.0
 11
238.4125406314687
 21
164.2310534403832
 31
0.0
  0
LINE
  5
2149
330
18
100
AcDbEntity
  8
1
  6
Continuous
100
AcDbLine
 10
239.1625406314687
 20
161.7613771559659
 30
0.0
 11
239.1625406314687
 21
163.170054972664
 31
0.0
  0
LINE
  5
3A50
330
18
100
AcDbEntity
  8
5
  6
PHANTOM
 48
0.15
100
AcDbLine
 10
344.6383969729565
 20
275.6432786325189
 30
0.0
 11
343.0409838075909
 21
275.5523326094245
 31
0.0
  0
LINE
  5
3A51
330
18
100
AcDbEntity
  8
5
  6
PHANTOM
 48
0.15
100
AcDbLine
 10
343.4957139230626
 20
267.5652667825964
 30
0.0
 11
345.0931270884283
 21
267.6562128056908
 31
0.0
  0
LINE
  5
3A53
330
18
100
AcDbEntity
  8
5
  6
PHANTOM
 48
0.15
100
AcDbLine
 10
344.1217000519953
 20
260.0887608227056
 30
0.0
 11
344.4059063741651
 21
255.0968446809381
 31
0.0
  0
LINE
  5
3A54
330
18
100
AcDbEntity
  8
1
  6
Continuous
 48
0.25
100
AcDbLine
 10
351.0625146749293
 20
255.1474177420535
 30
0.0
 11
351.0625146749293
 21
261.1474177420535
 31
0.0
  0
LINE
  5
3A55
330
18
100
AcDbEntity
  8
1
  6
Continuous
 48
0.25
100
AcDbLine
 10
350.5625146749293
 20
260.6474177420535
 30
0.0
 11
350.5625146749293
 21
255.6474177420535
 31
0.0
  0
ARC
  5
3A56
330
18
100
AcDbEntity
  8
1
  6
Continuous
 48
0.25
100
AcDbCircle
 10
354.5375146749291
 20
258.1474177420535
 30
0.0
 40
3.625000000000051
100
AcDbArc
 50
316.3971810272984
 51
43.60279566880119
  0
ARC
  5
3A57
330
18
100
AcDbEntity
  8
5
  6
PHANTOM
 48
0.15
100
AcDbCircle
 10
348.2323765457853
 20
257.8187467779468
 30
0.0
 40
3.625000000000051
100
AcDbArc
 50
319.655701865604
 51
36.74389746370517
  0
LINE
  5
3A5B
330
18
100
AcDbEntity
  8
1
  6
Continuous
 48
0.25
100
AcDbLine
 10
353.1625146749293
 20
268.1474177421801
 30
0.0
 11
353.1625146749293
 21
253.4474177420536
 31
0.0
  0
LINE
  5
3A5C
330
18
100
AcDbEntity
  8
1
  6
Continuous
 48
0.25
100
AcDbLine
 10
353.9625146749292
 20
268.1474177421801
 30
0.0
 11
353.9625146749292
 21
253.4474177420536
 31
0.0
  0
LINE
  5
3A5D
330
18
100
AcDbEntity
  8
1
  6
Continuous
 48
0.25
100
AcDbLine
 10
354.7625146749293
 20
262.8474177420534
 30
0.0
 11
354.7625146749293
 21
253.4474177420536
 31
0.0
  0
LINE
  5
3A5E
330
18
100
AcDbEntity
  8
1
  6
Continuous
 48
0.25
100
AcDbLine
 10
357.1625132866154
 20
278.3874926110623
 30
0.0
 11
357.1625205383708
 21
224.8992166066412
 31
0.0
  0
LINE
  5
3A5F
330
18
100
AcDbEntity
  8
1
  6
Continuous
 48
0.25
100
AcDbLine
 10
355.5625149337405
 20
268.1474177421801
 30
0.0
 11
355.5625209058579
 21
223.3974177419942
 31
0.0
  0
LINE
  5
3A60
330
18
100
AcDbEntity
  8
5
  6
PHANTOM
 48
0.15
100
AcDbLine
 10
351.9131579209421
 20
211.2007950988662
 30
0.0
 11
355.6219593232249
 21
146.0580561521478
 31
0.0
  0
LINE
  5
3A61
330
18
100
AcDbEntity
  8
5
  6
PHANTOM
 48
0.15
100
AcDbLine
 10
353.4252065803009
 20
212.7911144037661
 30
0.0
 11
357.2193724885903
 21
146.1490021752421
 31
0.0
  0
LINE
  5
3A62
330
18
100
AcDbEntity
  8
1
  6
Continuous
 48
0.25
100
AcDbLine
 10
357.6625312152716
 20
143.1473855596499
 30
0.0
 11
357.6625312152716
 21
156.1473855596499
 31
0.0
  0
LINE
  5
3A63
330
18
100
AcDbEntity
  8
1
  6
Continuous
 48
0.25
100
AcDbLine
 10
361.0625312152681
 20
156.1473855596498
 30
0.0
 11
361.0625312152681
 21
146.1473855596499
 31
0.0
  0
LINE
  5
3A64
330
18
100
AcDbEntity
  8
1
  6
Continuous
 48
0.25
100
AcDbLine
 10
362.662531215268
 20
156.1473855596499
 30
0.0
 11
362.662531215268
 21
146.14738555965
 31
0.0
  0
LINE
  5
3A66
330
18
100
AcDbEntity
  8
4
  6
CENTER
 48
0.2
100
AcDbLine
 10
364.162531215268
 20
151.1473863353823
 30
0.0
 11
352.0625304898183
 21
151.1473863353822
 31
0.0
  0
LINE
  5
3A67
330
18
100
AcDbEntity
  8
1
  6
Continuous
 48
0.25
100
AcDbLine
 10
362.662531215268
 20
146.1473855596499
 30
0.0
 11
357.6625312152716
 21
146.1473855596499
 31
0.0
  0
ARC
  5
3A68
330
18
100
AcDbEntity
  8
1
  6
Continuous
 48
0.25
100
AcDbCircle
 10
357.6625312152716
 20
143.1473855596499
 30
0.0
 40
1.6
100
AcDbArc
 50
270.0000000000004
 51
0.0000000000008212
  0
LINE
  5
3A69
330
18
100
AcDbEntity
  8
1
  6
Continuous
 48
0.25
100
AcDbLine
 10
359.2625312152716
 20
143.1473855596499
 30
0.0
 11
359.2625312152716
 21
146.1473855596499
 31
0.0
  0
ARC
  5
3A6A
330
18
100
AcDbEntity
  8
1
  6
Continuous
 48
0.25
100
AcDbCircle
 10
354.3125304898183
 20
152.6473855596498
 30
0.0
 40
2.0
100
AcDbArc
 50
67.97568716295794
 51
112.024312837042
  0
LINE
  5
3A6B
330
18
100
AcDbEntity
  8
1
  6
Continuous
 48
0.25
100
AcDbLine
 10
355.5625302721822
 20
152.6473863353823
 30
0.0
 11
355.0625304898184
 21
152.6473863353823
 31
0.0
  0
ARC
  5
3A6C
330
18
100
AcDbEntity
  8
1
  6
Continuous
 48
0.25
100
AcDbCircle
 10
354.3125304898183
 20
149.6473855596498
 30
0.0
 40
2.0
100
AcDbArc
 50
247.975687162958
 51
292.0243128370427
  0
LINE
  5
3A6D
330
18
100
AcDbEntity
  8
1
  6
Continuous
 48
0.25
100
AcDbLine
 10
355.5625302721822
 20
149.6473863353823
 30
0.0
 11
355.0625304898184
 21
149.6473863353823
 31
0.0
  0
LINE
  5
3A6E
330
18
100
AcDbEntity
  8
1
  6
Continuous
 48
0.25
100
AcDbLine
 10
357.6625312152716
 20
147.1473855596498
 30
0.0
 11
357.1625312152715
 21
147.1473855596498
 31
0.0
  0
LINE
  5
3A6F
330
18
100
AcDbEntity
  8
1
  6
Continuous
 48
0.25
100
AcDbLine
 10
357.1625312152714
 20
146.1473854033429
 30
0.0
 11
355.5625312152717
 21
146.1473854033429
 31
0.0
  0
LINE
  5
3A70
330
18
100
AcDbEntity
  8
5
  6
PHANTOM
 48
0.15
100
AcDbLine
 10
357.2193724885902
 20
146.1490021752422
 30
0.0
 11
355.6219593232248
 21
146.0580561521479
 31
0.0
  0
LINE
  5
3A71
330
18
100
AcDbEntity
  8
1
  6
Continuous
 48
0.25
100
AcDbLine
 10
353.5625304898184
 20
154.5014351814236
 30
0.0
 11
353.5625304898184
 21
147.7933359378759
 31
0.0
  0
LINE
  5
3A72
330
18
100
AcDbEntity
  8
1
  6
Continuous
 48
0.25
100
AcDbLine
 10
355.0625304898184
 20
154.5014351814237
 30
0.0
 11
355.0625304898184
 21
147.7933359378759
 31
0.0
  0
LINE
  5
3A73
330
18
100
AcDbEntity
  8
1
  6
Continuous
 48
0.25
100
AcDbLine
 10
351.6625312152716
 20
147.54738555965
 30
0.0
 11
353.2625312152716
 21
147.54738555965
 31
0.0
  0
LINE
  5
3A74
330
18
100
AcDbEntity
  8
1
  6
Continuous
 48
0.25
100
AcDbLine
 10
353.2625312152716
 20
143.1473855596499
 30
0.0
 11
357.6625312152716
 21
143.1473855596499
 31
0.0
  0
LINE
  5
3A75
330
18
100
AcDbEntity
  8
1
  6
Continuous
 48
0.25
100
AcDbLine
 10
353.2625312152716
 20
141.54738555965
 30
0.0
 11
357.6625312152716
 21
141.54738555965
 31
0.0
  0
ARC
  5
3A76
330
18
100
AcDbEntity
  8
1
  6
Continuous
 48
0.25
100
AcDbCircle
 10
353.2625312152716
 20
143.1473855596499
 30
0.0
 40
1.6
100
AcDbArc
 50
180.0
 51
270.0
  0
LINE
  5
3A77
330
18
100
AcDbEntity
  8
1
  6
Continuous
 48
0.25
100
AcDbLine
 10
351.6625312152716
 20
143.1473855596499
 30
0.0
 11
351.6625312152716
 21
147.54738555965
 31
0.0
  0
LINE
  5
3A78
330
18
100
AcDbEntity
  8
1
  6
Continuous
 48
0.25
100
AcDbLine
 10
353.2625312152716
 20
143.1473855596499
 30
0.0
 11
353.2625312152716
 21
147.54738555965
 31
0.0
  0
LINE
  5
3A79
330
18
100
AcDbEntity
  8
1
  6
Continuous
 48
0.25
100
AcDbLine
 10
362.662531215268
 20
156.1473855596499
 30
0.0
 11
357.6625312152716
 21
156.1473855596499
 31
0.0
  0
LINE
  5
3A7B
330
18
100
AcDbEntity
  8
1
  6
Continuous
 48
0.25
100
AcDbLine
 10
357.1625312152715
 20
155.1473855596498
 30
0.0
 11
357.6625312152716
 21
155.1473855596498
 31
0.0
  0
ARC
  5
3A7C
330
18
100
AcDbEntity
  8
1
  6
Continuous
 48
0.25
100
AcDbCircle
 10
356.613548556671
 20
223.3974435174898
 30
0.0
 40
1.598966118462465
100
AcDbArc
 50
359.9990763883622
 51
69.92037793209132
  0
ARC
  5
3A7D
330
18
100
AcDbEntity
  8
5
  6
PHANTOM
 48
0.15
100
AcDbCircle
 10
352.2802864287817
 20
223.242959717272
 30
0.0
 40
1.598966118462465
100
AcDbArc
 50
3.257597226669171
 51
73.1788987703976
  0
LINE
  5
3A7E
330
18
100
AcDbEntity
  8
5
  6
PHANTOM
 48
0.15
100
AcDbLine
 10
349.5228742649244
 20
253.1846080139286
 30
0.0
 11
351.2309586239187
 21
223.1831920771132
 31
0.0
  0
LINE
  5
3A7F
330
18
100
AcDbEntity
  8
4
  6
CENTER
 48
0.1
100
AcDbLine
 10
359.7125146751334
 20
218.1474177419939
 30
0.0
 11
351.5125146749257
 21
218.1474177419939
 31
0.0
  0
ARC
  5
3A80
330
18
100
AcDbEntity
  8
5
  6
PHANTOM
 48
0.15
100
AcDbCircle
 10
352.3758666209383
 20
212.7313458300086
 30
0.0
 40
1.598966118462438
100
AcDbArc
 50
183.2575885825655
 51
253.1788987735793
  0
LINE
  5
3A81
330
18
100
AcDbEntity
  8
4
  6
CENTER
 48
0.1
100
AcDbLine
 10
356.1718519183409
 20
218.2059922709658
 30
0.0
 11
347.4859179049985
 21
217.7114719823413
 31
0.0
  0
ARC
  5
3A83
330
18
100
AcDbEntity
  8
1
  6
Continuous
 48
0.25
100
AcDbCircle
 10
353.7625146749256
 20
219.6474177420535
 30
0.0
 40
2.0
100
AcDbArc
 50
67.97568716295794
 51
112.024312837042
  0
LINE
  5
3A84
330
18
100
AcDbEntity
  8
1
  6
Continuous
 48
0.25
100
AcDbLine
 10
354.5125158809947
 20
223.3974176271903
 30
0.0
 11
355.5625146749293
 21
223.3974176271903
 31
0.0
  0
LINE
  5
3A85
330
18
100
AcDbEntity
  8
5
  6
PHANTOM
 48
0.15
100
AcDbLine
 10
353.8766688490647
 20
223.3338212394578
 30
0.0
 11
354.0614029584751
 21
220.0890757473088
 31
0.0
  0
LINE
  5
3A86
330
18
100
AcDbEntity
  8
5
  6
PHANTOM
 48
0.15
100
AcDbLine
 10
354.0614029584713
 20
220.0890757473085
 30
0.0
 11
354.2610796041421
 21
220.1004440001953
 31
0.0
  0
ARC
  5
3A87
330
18
100
AcDbEntity
  8
5
  6
PHANTOM
 48
0.15
100
AcDbCircle
 10
354.2781319834722
 20
219.8009290316893
 30
0.0
 40
0.3
100
AcDbArc
 50
3.258520838307048
 51
93.25852083830666
  0
LINE
  5
3A88
330
18
100
AcDbEntity
  8
1
  6
Continuous
 48
0.25
100
AcDbLine
 10
358.2125146749257
 20
220.1474177420535
 30
0.0
 11
358.4125146749256
 21
220.1474177420535
 31
0.0
  0
ARC
  5
3A89
330
18
100
AcDbEntity
  8
1
  6
Continuous
 48
0.25
100
AcDbCircle
 10
358.4125146749257
 20
219.8474177420535
 30
0.0
 40
0.3
100
AcDbArc
 50
0.0000000000008212
 51
90.0
  0
ARC
  5
3A8A
330
18
100
AcDbEntity
  8
1
  6
Continuous
 48
0.25
100
AcDbCircle
 10
353.7625146749257
 20
216.6474177420535
 30
0.0
 40
2.0
100
AcDbArc
 50
247.975687162958
 51
292.024312837042
  0
ARC
  5
3A8B
330
18
100
AcDbEntity
  8
1
  6
Continuous
 48
0.25
100
AcDbCircle
 10
356.1114807928894
 20
212.8973916105412
 30
0.0
 40
1.598966118462438
100
AcDbArc
 50
179.999067744258
 51
249.9206767739507
  0
ARC
  5
3A8C
330
18
100
AcDbEntity
  8
5
  6
PHANTOM
 48
0.15
100
AcDbCircle
 10
354.4713922825477
 20
216.4064260552874
 30
0.0
 40
0.3
100
AcDbArc
 50
273.2585208383066
 51
3.258520838307048
  0
LINE
  5
3A8D
330
18
100
AcDbEntity
  8
5
  6
PHANTOM
 48
0.15
100
AcDbLine
 10
354.2887680162073
 20
216.0955428338945
 30
0.0
 11
354.4884446618778
 21
216.1069110867813
 31
0.0
  0
LINE
  5
3A8E
330
18
100
AcDbEntity
  8
5
  6
PHANTOM
 48
0.15
100
AcDbLine
 10
354.2887680162108
 20
216.0955428338948
 30
0.0
 11
354.4735021256213
 21
212.8507973417461
 31
0.0
  0
LINE
  5
3A8F
330
18
100
AcDbEntity
  8
5
  6
PHANTOM
 48
0.15
100
AcDbLine
 10
354.4735021256215
 20
212.8507973417459
 30
0.0
 11
353.4252162494502
 21
212.7911149542642
 31
0.0
  0
LINE
  5
3A90
330
18
100
AcDbEntity
  8
1
  6
Continuous
 48
0.25
100
AcDbLine
 10
358.2125146749295
 20
212.8974177420535
 30
0.0
 11
356.6125158809957
 21
212.8974177419937
 31
0.0
  0
LINE
  5
3A91
330
18
100
AcDbEntity
  8
1
  6
Continuous
 48
0.25
100
AcDbLine
 10
358.2125146749257
 20
216.1474177420535
 30
0.0
 11
358.4125146749257
 21
216.1474177420535
 31
0.0
  0
ARC
  5
3A92
330
18
100
AcDbEntity
  8
1
  6
Continuous
 48
0.25
100
AcDbCircle
 10
358.4125146749257
 20
216.4474177420535
 30
0.0
 40
0.3
100
AcDbArc
 50
270.0
 51
0.0000000000008212
  0
LINE
  5
3A93
330
18
100
AcDbEntity
  8
1
  6
Continuous
 48
0.25
100
AcDbLine
 10
353.0125146749256
 20
221.5014673638273
 30
0.0
 11
353.0125146749256
 21
214.7933681202795
 31
0.0
  0
LINE
  5
3A94
330
18
100
AcDbEntity
  8
1
  6
Continuous
 48
0.25
100
AcDbLine
 10
358.2125146749295
 20
223.3974177420536
 30
0.0
 11
358.2125146749295
 21
212.8974177420535
 31
0.0
  0
LINE
  5
3A95
330
18
100
AcDbEntity
  8
1
  6
Continuous
 48
0.25
100
AcDbLine
 10
354.5125158809947
 20
223.3974176271903
 30
0.0
 11
354.5125158809947
 21
212.8974176271902
 31
0.0
  0
LINE
  5
3A96
330
18
100
AcDbEntity
  8
5
  6
PHANTOM
 48
0.15
100
AcDbLine
 10
354.5776469519783
 20
219.8179814110195
 30
0.0
 11
354.7709072510539
 21
216.4234784346176
 31
0.0
  0
LINE
  5
3A97
330
18
100
AcDbEntity
  8
1
  6
Continuous
 48
0.25
100
AcDbLine
 10
358.7125146749257
 20
219.8474177420535
 30
0.0
 11
358.7125146749257
 21
216.4474177420535
 31
0.0
  0
LINE
  5
3A98
330
18
100
AcDbEntity
  8
5
  6
PHANTOM
 48
0.15
100
AcDbLine
 10
350.1826521148009
 20
223.1235085149288
 30
0.0
 11
350.2904203250743
 21
221.230623570195
 31
0.0
  0
LINE
  5
3A99
330
18
100
AcDbEntity
  8
5
  6
PHANTOM
 48
0.15
100
AcDbLine
 10
350.182652114801
 20
223.1235085149287
 30
0.0
 11
351.2309533004569
 21
223.1831917740302
 31
0.0
  0
ARC
  5
3A9A
330
18
100
AcDbEntity
  8
5
  6
PHANTOM
 48
0.15
100
AcDbCircle
 10
349.6470182245151
 20
219.3369405064007
 30
0.0
 40
2.0
100
AcDbArc
 50
71.23420800126436
 51
115.2828336753486
  0
LINE
  5
3A9B
330
18
100
AcDbEntity
  8
5
  6
PHANTOM
 48
0.15
100
AcDbLine
 10
350.6717171680262
 20
214.5333697913061
 30
0.0
 11
350.7794853913575
 21
212.640484617217
 31
0.0
  0
ARC
  5
3A9C
330
18
100
AcDbEntity
  8
5
  6
PHANTOM
 48
0.15
100
AcDbCircle
 10
349.8175420178172
 20
216.3417908213403
 30
0.0
 40
2.0
100
AcDbArc
 50
251.2342080012643
 51
295.2828336753486
  0
LINE
  5
3A9D
330
18
100
AcDbEntity
  8
5
  6
PHANTOM
 48
0.15
100
AcDbLine
 10
348.7928442784252
 20
221.1453616049894
 30
0.0
 11
349.174141121377
 21
214.4481078261004
 31
0.0
  0
LINE
  5
3A9E
330
18
100
AcDbEntity
  8
5
  6
PHANTOM
 48
0.15
100
AcDbLine
 10
350.9952362941828
 20
255.4719977477595
 30
0.0
 11
352.7430072969899
 21
224.7735111411623
 31
0.0
  0
LINE
  5
3A9F
330
18
100
AcDbEntity
  8
1
  6
Continuous
 48
0.25
100
AcDbLine
 10
351.9625146749292
 20
255.1474177420535
 30
0.0
 11
351.0625146749293
 21
255.1474177420535
 31
0.0
  0
ARC
  5
3AA0
330
18
100
AcDbEntity
  8
1
  6
Continuous
 48
0.25
100
AcDbCircle
 10
-24.22215249604391
 20
256.8127157599741
 30
0.0
 40
378.184673805808
100
AcDbArc
 50
359.9844549179837
 51
0.0466352472177787
  0
LINE
  5
3AA2
330
18
100
AcDbEntity
  8
1
  6
Continuous
 48
0.25
100
AcDbLine
 10
353.1625146749293
 20
254.1474177420535
 30
0.0
 11
352.9625146749292
 21
254.1474177420535
 31
0.0
  0
ARC
  5
3AA3
330
18
100
AcDbEntity
  8
1
  6
Continuous
 48
0.25
100
AcDbCircle
 10
355.1625146749294
 20
253.4474177420536
 30
0.0
 40
0.4
100
AcDbArc
 50
180.0
 51
0.000000000000007
  0
ARC
  5
3AA4
330
18
100
AcDbEntity
  8
1
  6
Continuous
 48
0.25
100
AcDbCircle
 10
354.3625146749293
 20
253.4474177420536
 30
0.0
 40
0.4
100
AcDbArc
 50
180.0
 51
0.000000000000007
  0
ARC
  5
3AA5
330
18
100
AcDbEntity
  8
1
  6
Continuous
 48
0.25
100
AcDbCircle
 10
353.5625146749293
 20
253.4474177420536
 30
0.0
 40
0.4
100
AcDbArc
 50
180.0
 51
0.000000000000007
  0
LINE
  5
3AA7
330
18
100
AcDbEntity
  8
5
  6
PHANTOM
 48
0.15
100
AcDbLine
 10
347.0869646645352
 20
253.7470571259361
 30
0.0
 11
346.8872880188645
 21
253.7356888730493
 31
0.0
  0
LINE
  5
3AA8
330
18
100
AcDbEntity
  8
5
  6
PHANTOM
 48
0.15
100
AcDbLine
 10
345.832063526077
 20
254.677230836969
 30
0.0
 11
344.9335186205589
 21
254.6260736989783
 31
0.0
  0
LINE
  5
3AA9
330
18
100
AcDbEntity
  8
5
  6
PHANTOM
 48
0.15
100
AcDbLine
 10
344.9335186205589
 20
254.6260736989784
 30
0.0
 11
344.4059063741653
 21
255.0968446809381
 31
0.0
  0
LINE
  5
3AAA
330
18
100
AcDbEntity
  8
1
  6
Continuous
 48
0.25
100
AcDbLine
 10
351.0625146749293
 20
255.1474177420535
 30
0.0
 11
350.5625146749293
 21
255.6474177420535
 31
0.0
  0
LINE
  5
3AAB
330
18
100
AcDbEntity
  8
5
  6
PHANTOM
 48
0.15
100
AcDbLine
 10
346.9441292832984
 20
252.7373056446958
 30
0.0
 11
345.9457460549123
 21
252.6804643802601
 31
0.0
  0
ARC
  5
3AAC
330
18
100
AcDbEntity
  8
5
  6
PHANTOM
 48
0.15
100
AcDbCircle
 10
349.123520006346
 20
253.1618713949567
 30
0.0
 40
0.4
100
AcDbArc
 50
183.258520838307
 51
3.258520838307048
  0
ARC
  5
3AAD
330
18
100
AcDbEntity
  8
5
  6
PHANTOM
 48
0.15
100
AcDbCircle
 10
348.3248134236631
 20
253.1163983834095
 30
0.0
 40
0.4
100
AcDbArc
 50
183.258520838307
 51
3.258520838307048
  0
ARC
  5
3AAE
330
18
100
AcDbEntity
  8
5
  6
PHANTOM
 48
0.15
100
AcDbCircle
 10
347.5261068409803
 20
253.0709253718624
 30
0.0
 40
0.4
100
AcDbArc
 50
183.258520838307
 51
3.258520838307048
  0
LINE
  5
3AAF
330
18
100
AcDbEntity
  8
5
  6
PHANTOM
 48
0.15
100
AcDbLine
 10
346.8872880188645
 20
253.7356888730494
 30
0.0
 11
346.9441292832984
 21
252.737305644696
 31
0.0
  0
LINE
  5
3AB0
330
18
100
AcDbEntity
  8
5
  6
PHANTOM
 48
0.15
100
AcDbLine
 10
345.8320635260472
 20
254.6772308369672
 30
0.0
 11
345.9457460549123
 21
252.6804643802602
 31
0.0
  0
LINE
  5
3AB1
330
18
100
AcDbEntity
  8
5
  6
PHANTOM
 48
0.15
100
AcDbLine
 10
347.0869646645351
 20
253.7470571259362
 30
0.0
 11
347.1267535496389
 21
253.0481888660888
 31
0.0
  0
LINE
  5
3AB4
330
18
100
AcDbEntity
  8
1
  6
Continuous
 48
0.25
100
AcDbLine
 10
357.6625146749333
 20
297.7474477420534
 30
0.0
 11
357.6625146749333
 21
280.1474477420534
 31
0.0
  0
LINE
  5
3AB5
330
18
100
AcDbEntity
  8
1
  6
Continuous
 48
0.25
100
AcDbLine
 10
359.2625146539837
 20
296.1474477441484
 30
0.0
 11
359.2625146749334
 21
280.1474477420536
 31
0.0
  0
LINE
  5
3AB6
330
18
100
AcDbEntity
  8
1
  6
Continuous
 48
0.25
100
AcDbLine
 10
357.6625146749333
 20
280.1474477420534
 30
0.0
 11
359.2625146749334
 21
280.1474477420534
 31
0.0
  0
LINE
  5
3AB7
330
18
100
AcDbEntity
  8
4
  6
CENTER
 48
0.2
100
AcDbLine
 10
361.2625146749333
 20
285.1474477418036
 30
0.0
 11
348.8625146749333
 21
285.1474477418311
 31
0.0
  0
LINE
  5
3AB8
330
18
100
AcDbEntity
  8
4
  6
CENTER
 48
0.2
100
AcDbLine
 10
359.6625146749293
 20
258.1474177420535
 30
0.0
 11
349.0625146749293
 21
258.1474177420535
 31
0.0
  0
ARC
  5
3AB9
330
18
100
AcDbEntity
  8
1
  6
Continuous
 48
0.25
100
AcDbCircle
 10
359.2625146749334
 20
287.1474477420536
 30
0.0
 40
0.5
100
AcDbArc
 50
0.0000000000008212
 51
90.0
  0
ARC
  5
3ABA
330
18
100
AcDbEntity
  8
1
  6
Continuous
 48
0.25
100
AcDbCircle
 10
359.2625146749334
 20
283.1474477420536
 30
0.0
 40
0.5
100
AcDbArc
 50
270.0
 51
0.000000000000007
  0
LINE
  5
3ABB
330
18
100
AcDbEntity
  8
1
  6
Continuous
 48
0.25
100
AcDbLine
 10
359.7625146749334
 20
287.1474477420536
 30
0.0
 11
359.7625146749334
 21
283.1474477420536
 31
0.0
  0
LINE
  5
3ABC
330
18
100
AcDbEntity
  8
1
  6
Continuous
 48
0.25
100
AcDbLine
 10
350.3625146749292
 20
276.1474177421804
 30
0.0
 11
350.3625146749292
 21
268.1474177421801
 31
0.0
  0
LINE
  5
3ABD
330
18
100
AcDbEntity
  8
1
  6
Continuous
 48
0.25
100
AcDbLine
 10
354.5125026749837
 20
290.1474177420534
 30
0.0
 11
354.5125026749837
 21
276.1474177421803
 31
0.0
  0
LINE
  5
3ABE
330
18
100
AcDbEntity
  8
1
  6
Continuous
 48
0.25
100
AcDbLine
 10
355.5625146749292
 20
290.1474478983635
 30
0.0
 11
355.5625146749292
 21
283.1474177420892
 31
0.0
  0
LINE
  5
3ABF
330
18
100
AcDbEntity
  8
1
  6
Continuous
 48
0.25
100
AcDbLine
 10
355.5125026749849
 20
290.1474177420535
 30
0.0
 11
355.5125026749849
 21
283.1474177420892
 31
0.0
  0
LINE
  5
3AC0
330
18
100
AcDbEntity
  8
1
  6
Continuous
 48
0.25
100
AcDbLine
 10
357.1625146749293
 20
290.1474478983634
 30
0.0
 11
357.1625146749293
 21
282.9073416856036
 31
0.0
  0
LINE
  5
3AC1
330
18
100
AcDbEntity
  8
5
  6
PHANTOM
 48
0.15
100
AcDbLine
 10
349.0342103442037
 20
289.9162485119519
 30
0.0
 11
350.2278786114377
 21
268.95017060901
 31
0.0
  0
LINE
  5
3AC2
330
18
100
AcDbEntity
  8
1
  6
Continuous
 48
0.25
100
AcDbLine
 10
350.3625146749292
 20
268.1474177421801
 30
0.0
 11
357.1625146749293
 21
268.1474177421801
 31
0.0
  0
LINE
  5
3AC3
330
18
100
AcDbEntity
  8
5
  6
PHANTOM
 48
0.15
100
AcDbLine
 10
350.2278786114377
 20
268.95017060901
 30
0.0
 11
351.4259384854292
 21
269.0183801263289
 31
0.0
  0
LINE
  5
3AC4
330
18
100
AcDbEntity
  8
1
  6
Continuous
 48
0.25
100
AcDbLine
 10
351.0625146749293
 20
261.1474177420535
 30
0.0
 11
351.9625146749292
 21
261.1474177420535
 31
0.0
  0
LINE
  5
3AC5
330
18
100
AcDbEntity
  8
5
  6
PHANTOM
 48
0.15
100
AcDbLine
 10
351.1371526112878
 20
259.987364081503
 30
0.0
 11
351.9375098653297
 21
260.0329310712386
 31
0.0
  0
LINE
  5
3AD0
330
18
100
AcDbEntity
  8
1
  6
Continuous
 48
0.25
100
AcDbLine
 10
357.1625146749293
 20
269.1474177420892
 30
0.0
 11
358.3625146748965
 21
269.1474177420892
 31
0.0
  0
LINE
  5
3AD2
330
18
100
AcDbEntity
  8
5
  6
PHANTOM
 48
0.15
100
AcDbLine
 10
351.9375098653297
 20
260.0329310712387
 30
0.0
 11
351.4259384854292
 21
269.0183801263291
 31
0.0
  0
LINE
  5
3AD3
330
18
100
AcDbEntity
  8
1
  6
Continuous
 48
0.25
100
AcDbLine
 10
358.3625146748965
 20
260.1474177421806
 30
0.0
 11
358.3625146748965
 21
269.1474177420893
 31
0.0
  0
LINE
  5
3AD4
330
18
100
AcDbEntity
  8
5
  6
PHANTOM
 48
0.15
100
AcDbLine
 10
344.5924710339552
 20
260.6163730690993
 30
0.0
 11
345.4910159394732
 21
260.6675302070898
 31
0.0
  0
LINE
  5
3AD5
330
18
100
AcDbEntity
  8
5
  6
PHANTOM
 48
0.15
100
AcDbLine
 10
344.1217000519952
 20
260.0887608227057
 30
0.0
 11
344.5924710339552
 21
260.6163730690994
 31
0.0
  0
LINE
  5
3AD6
330
18
100
AcDbEntity
  8
1
  6
Continuous
 48
0.25
100
AcDbLine
 10
350.5625146749292
 20
260.6474177420536
 30
0.0
 11
351.0625146749292
 21
261.1474177420536
 31
0.0
  0
LINE
  5
3AD7
330
18
100
AcDbEntity
  8
5
  6
PHANTOM
 48
0.15
100
AcDbLine
 10
345.0931270884169
 20
267.6562128056902
 30
0.0
 11
345.4910159394519
 21
260.6675302070887
 31
0.0
  0
LINE
  5
3AD8
330
18
100
AcDbEntity
  8
1
  6
Continuous
 48
0.25
100
AcDbLine
 10
350.3625146749334
 20
286.8474477420536
 30
0.0
 11
353.3625146749334
 21
287.6474477420536
 31
0.0
  0
LINE
  5
3AD9
330
18
100
AcDbEntity
  8
1
  6
Continuous
 48
0.25
100
AcDbLine
 10
353.3625146749333
 20
282.6474477420537
 30
0.0
 11
350.3625146749333
 21
283.4474477420537
 31
0.0
  0
LINE
  5
3ADB
330
18
100
AcDbEntity
  8
1
  6
Continuous
 48
0.25
100
AcDbLine
 10
354.5125026749837
 20
290.1474177420534
 30
0.0
 11
355.5125026749848
 21
290.1474177420535
 31
0.0
  0
LINE
  5
3ADC
330
18
100
AcDbEntity
  8
1
  6
Continuous
 48
0.25
100
AcDbLine
 10
355.5625146749292
 20
290.1474478983635
 30
0.0
 11
357.1625146749291
 21
290.1474478983635
 31
0.0
  0
LINE
  5
3ADD
330
18
100
AcDbEntity
  8
1
  6
Continuous
 48
0.25
100
AcDbLine
 10
355.5125026749849
 20
287.1474477420536
 30
0.0
 11
355.5625146749333
 21
287.1474477420536
 31
0.0
  0
LINE
  5
3ADE
330
18
100
AcDbEntity
  8
1
  6
Continuous
 48
0.25
100
AcDbLine
 10
354.3625146749333
 20
287.1474477420536
 30
0.0
 11
354.5125026749837
 21
287.1474477420536
 31
0.0
  0
LINE
  5
3ADF
330
18
100
AcDbEntity
  8
1
  6
Continuous
 48
0.25
100
AcDbLine
 10
353.3625146749333
 20
287.6474477420535
 30
0.0
 11
354.3625146749333
 21
287.6474477420535
 31
0.0
  0
LINE
  5
3AE0
330
18
100
AcDbEntity
  8
1
  6
Continuous
 48
0.25
100
AcDbLine
 10
357.1625146749332
 20
289.1474477420537
 30
0.0
 11
357.6625146749332
 21
289.1474477420537
 31
0.0
  0
LINE
  5
3AE1
330
18
100
AcDbEntity
  8
1
  6
Continuous
 48
0.25
100
AcDbLine
 10
355.5125026749842
 20
278.1474177420893
 30
0.0
 11
355.5625146749293
 21
278.1474177420319
 31
0.0
  0
LINE
  5
3AE3
330
18
100
AcDbEntity
  8
1
  6
Continuous
 48
0.25
100
AcDbLine
 10
354.3625146749333
 20
282.6474477420537
 30
0.0
 11
353.3625146749333
 21
282.6474477420537
 31
0.0
  0
LINE
  5
3AE6
330
18
100
AcDbEntity
  8
1
  6
Continuous
 48
0.25
100
AcDbLine
 10
357.5125026749836
 20
279.1474177420893
 30
0.0
 11
357.5125026749836
 21
281.1474477420536
 31
0.0
  0
LINE
  5
3AE7
330
18
100
AcDbEntity
  8
1
  6
Continuous
 48
0.25
100
AcDbLine
 10
357.6625146749332
 20
281.1474477420535
 30
0.0
 11
357.5125026749836
 21
281.1474477420535
 31
0.0
  0
LINE
  5
3AE8
330
18
100
AcDbEntity
  8
1
  6
Continuous
 48
0.25
100
AcDbLine
 10
354.3625146749333
 20
287.6474477420535
 30
0.0
 11
354.3625146749333
 21
282.6474477420537
 31
0.0
  0
LINE
  5
3AE9
330
18
100
AcDbEntity
  8
1
  6
Continuous
 48
0.25
100
AcDbLine
 10
353.3625146749333
 20
287.6474477420535
 30
0.0
 11
353.3625146749333
 21
282.6474477420537
 31
0.0
  0
LINE
  5
3AEB
330
18
100
AcDbEntity
  8
1
  6
Continuous
 48
0.25
100
AcDbLine
 10
350.3625146749292
 20
276.1474177421804
 30
0.0
 11
357.162513590317
 21
276.1474177421803
 31
0.0
  0
LINE
  5
3AEC
330
18
100
AcDbEntity
  8
5
  6
PHANTOM
 48
0.15
100
AcDbLine
 10
349.0342103442037
 20
289.9162485119519
 30
0.0
 11
346.3884845226455
 21
289.7655883715557
 31
0.0
  0
LINE
  5
3AED
330
18
100
AcDbEntity
  8
1
  6
Continuous
 48
0.25
100
AcDbLine
 10
350.3625146749333
 20
286.8474477420536
 30
0.0
 11
350.3625146749333
 21
283.4474477420535
 31
0.0
  0
LINE
  5
3AEE
330
18
100
AcDbEntity
  8
4
  6
CENTER
 48
0.1
100
AcDbLine
 10
350.815991505159
 20
285.0095943326109
 30
0.0
 11
345.175114332041
 21
284.6884396699861
 31
0.0
  0
LINE
  5
3AEF
330
18
100
AcDbEntity
  8
5
  6
PHANTOM
 48
0.15
100
AcDbLine
 10
344.6383969729566
 20
275.6432786325189
 30
0.0
 11
347.1842622247137
 21
275.7882231747334
 31
0.0
  0
LINE
  5
3AF0
330
18
100
AcDbEntity
  8
5
  6
PHANTOM
 48
0.15
100
AcDbLine
 10
346.3884845226455
 20
289.7655883715557
 30
0.0
 11
347.1842622247137
 21
275.7882231747334
 31
0.0
  0
ARC
  5
3AF1
330
18
100
AcDbEntity
  8
1
  6
Continuous
 48
0.25
100
AcDbCircle
 10
357.6625146539837
 20
296.1474477420535
 30
0.0
 40
1.6
100
AcDbArc
 50
0.000000000000007
 51
90.0
  0
LINE
  5
3AF2
330
18
100
AcDbEntity
  8
1
  6
Continuous
 48
0.25
100
AcDbLine
 10
349.0625146749333
 20
297.7474477420534
 30
0.0
 11
357.6625146539837
 21
297.7474477420535
 31
0.0
  0
LINE
  5
3AF3
330
18
100
AcDbEntity
  8
1
  6
Continuous
 48
0.25
100
AcDbLine
 10
349.0625146749333
 20
296.1474477420535
 30
0.0
 11
357.6625146749333
 21
296.1474477420535
 31
0.0
  0
LINE
  5
3AF4
330
18
100
AcDbEntity
  8
4
  6
CENTER
 48
0.05
100
AcDbLine
 10
353.3625116584428
 20
294.6474477420535
 30
0.0
 11
353.3625116584428
 21
299.2474477420535
 31
0.0
  0
LINE
  5
3AF5
330
18
100
AcDbEntity
  8
1
  6
Continuous
 48
0.25
100
AcDbLine
 10
349.0625146749333
 20
297.7474477420534
 30
0.0
 11
349.0625146749333
 21
296.1474477420535
 31
0.0
  0
LINE
  5
3AF6
330
18
100
AcDbEntity
  8
5
  6
PHANTOM
 48
0.15
100
AcDbLine
 10
343.0409838075909
 20
275.5523326094246
 30
0.0
 11
343.4957139230626
 21
267.5652667825966
 31
0.0
  0
ARC
  5
3DA6
330
18
100
AcDbEntity
  8
1
  6
Continuous
 48
0.25
100
AcDbCircle
 10
356.5125026749837
 20
282.1474177420892
 30
0.0
 40
1.0
100
AcDbArc
 50
0.0
 51
90.0
  0
LINE
  5
3DA7
330
18
100
AcDbEntity
  8
1
  6
Continuous
 48
0.25
100
AcDbLine
 10
354.3625146749333
 20
283.1474477420536
 30
0.0
 11
356.5125026749837
 21
283.1474177420892
 31
0.0
  0
ARC
  5
3DA8
330
18
100
AcDbEntity
  8
1
  6
Continuous
 48
0.25
100
AcDbCircle
 10
356.5125026749837
 20
279.1474177420892
 30
0.0
 40
1.0
100
AcDbArc
 50
270.0
 51
0.0
  0
LINE
  5
3DA9
330
18
100
AcDbEntity
  8
1
  6
Continuous
 48
0.25
100
AcDbLine
 10
354.5125026749837
 20
278.1474177420892
 30
0.0
 11
356.5125026749837
 21
278.1474177420892
 31
0.0
  0
LINE
  5
3DAA
330
18
100
AcDbEntity
  8
1
  6
Continuous
 48
0.25
100
AcDbLine
 10
357.5125026749836
 20
279.1474177420892
 30
0.0
 11
357.5125026749836
 21
282.1474177420892
 31
0.0
  0
LINE
  5
3DAC
330
18
100
AcDbEntity
  8
1
  6
Continuous
 48
0.25
100
AcDbLine
 10
355.5125026749849
 20
278.1474177420893
 30
0.0
 11
355.5125026749849
 21
276.1474177421803
 31
0.0
  0
LINE
  5
3DAD
330
18
100
AcDbEntity
  8
1
  6
Continuous
 48
0.25
100
AcDbLine
 10
355.5625146749293
 20
278.1474177420319
 30
0.0
 11
355.5625146749293
 21
276.1474177421803
 31
0.0
  0
LINE
  5
3DAE
330
18
100
AcDbEntity
  8
1
  6
Continuous
 48
0.25
100
AcDbLine
 10
357.3625146748964
 20
260.4189810804144
 30
0.0
 11
357.3625146748964
 21
269.1474177420892
 31
0.0
  0
LINE
  5
3DB2
330
18
100
AcDbEntity
  8
1
  6
Continuous
 48
0.25
100
AcDbLine
 10
351.9625146748966
 20
253.1474177420535
 30
0.0
 11
351.9625146748966
 21
268.1474177421801
 31
0.0
  0
LINE
  5
3DB3
330
18
100
AcDbEntity
  8
1
  6
Continuous
 48
0.25
100
AcDbLine
 10
352.9625146749292
 20
253.1474177420535
 30
0.0
 11
352.9625146749292
 21
268.1474177421801
 31
0.0
  0
LINE
  5
3DB4
330
18
100
AcDbEntity
  8
1
  6
Continuous
 48
0.25
100
AcDbLine
 10
351.9625146748966
 20
253.1474177420535
 30
0.0
 11
352.9625146749292
 21
253.1474177420535
 31
0.0
  0
LINE
  5
3DB5
330
18
100
AcDbEntity
  8
1
  6
Continuous
 48
0.25
100
AcDbLine
 10
357.5608613304571
 20
260.1474177421805
 30
0.0
 11
358.3625146748965
 21
260.1474177421805
 31
0.0
  0
ARC
  5
3DB7
330
18
100
AcDbEntity
  8
1
  6
Continuous
 48
0.25
100
AcDbCircle
 10
355.1625146749294
 20
262.8474177420534
 30
0.0
 40
0.4
100
AcDbArc
 50
0.0
 51
180.0
  0
ARC
  5
3DB9
330
18
100
AcDbEntity
  8
1
  6
Continuous
 48
0.25
100
AcDbCircle
 10
354.3625146749293
 20
262.8474177420534
 30
0.0
 40
0.4
100
AcDbArc
 50
0.0
 51
180.0
  0
ARC
  5
6E05
330
18
100
AcDbEntity
  8
1
  6
Continuous
 48
0.25
100
AcDbCircle
 10
355.5625312152713
 20
211.1449137672564
 30
0.0
 40
1.6
100
AcDbArc
 50
0.0
 51
69.89512095499886
  0
LINE
  5
6E06
330
18
100
AcDbEntity
  8
1
  6
Continuous
 48
0.25
100
AcDbLine
 10
356.1125146749286
 20
223.3974177419942
 30
0.0
 11
356.1125146749286
 21
212.6474177419944
 31
0.0
  0
LINE
  5
6E08
330
18
100
AcDbEntity
  8
1
  6
Continuous
 48
0.25
100
AcDbLine
 10
356.1125146749286
 20
212.8974177419943
 30
0.0
 11
354.5125158810073
 21
212.8974177419945
 31
0.0
  0
LINE
  5
6E09
330
18
100
AcDbEntity
  8
1
  6
Continuous
 48
0.25
100
AcDbLine
 10
356.1125146749286
 20
223.3974177419942
 30
0.0
 11
354.5125158809947
 21
223.3974177419942
 31
0.0
  0
LINE
  5
6E0A
330
18
100
AcDbEntity
  8
1
  6
Continuous
 48
0.25
100
AcDbLine
 10
356.6125158809957
 20
212.8974177419937
 30
0.0
 11
356.6125158809957
 21
223.6474177419935
 31
0.0
  0
LINE
  5
6E0D
330
18
100
AcDbEntity
  8
1
  6
Continuous
 48
0.25
100
AcDbLine
 10
356.6125158809957
 20
223.3974177419936
 30
0.0
 11
358.2125146749169
 21
223.3974177419934
 31
0.0
  0
ARC
  5
6E0F
330
18
100
AcDbEntity
  8
1
  6
Continuous
 48
0.25
100
AcDbCircle
 10
357.162499340653
 20
225.1499217167315
 30
0.0
 40
1.6
100
AcDbArc
 50
180.0
 51
249.8951209549988
  0
LINE
  5
6E10
330
18
100
AcDbEntity
  8
1
  6
Continuous
 48
0.25
100
AcDbLine
 10
357.162522664942
 20
212.8974177420142
 30
0.0
 11
357.1625312152716
 21
146.1473854033429
 31
0.0
  0
LINE
  5
6E12
330
18
100
AcDbEntity
  8
1
  6
Continuous
 48
0.25
100
AcDbLine
 10
355.5625225075605
 20
211.3956135147629
 30
0.0
 11
355.5625312152717
 21
146.1473854033429
 31
0.0
  0
LINE
  5
6E15
330
18
100
AcDbEntity
  8
1
  6
Continuous
100
AcDbLine
 10
356.1125146749286
 20
222.1474177419939
 30
0.0
 11
356.6125158809957
 21
222.1474177419939
 31
0.0
  0
LINE
  5
6E16
330
18
100
AcDbEntity
  8
1
  6
Continuous
100
AcDbLine
 10
356.1125146749286
 20
214.147417741994
 30
0.0
 11
356.6125158809957
 21
214.147417741994
 31
0.0
  0
LINE
  5
7596
330
18
100
AcDbEntity
  8
4
  6
CENTER
 48
0.08
100
AcDbLine
 10
137.7625158211162
 20
401.7474092758899
 30
0.0
 11
133.1625158211162
 21
401.74740927589
 31
0.0
  0
LINE
  5
7597
330
18
100
AcDbEntity
  8
4
  6
CENTER
 48
0.08
100
AcDbLine
 10
137.7625158211161
 20
381.7474092758896
 30
0.0
 11
133.1625158211163
 21
381.7474092758898
 31
0.0
  0
LINE
  5
787A
330
18
100
AcDbEntity
  8
1
  6
Continuous
 48
0.25
100
AcDbLine
 10
244.6625152479344
 20
285.1474477420534
 30
0.0
 11
244.6625152480244
 21
283.147417742089
 31
0.0
  0
ARC
  5
798E
330
18
100
AcDbEntity
  8
5
  6
PHANTOM
 48
0.15
100
AcDbCircle
 10
260.6625152477823
 20
216.1474177418158
 30
0.0
 40
2.000000000241862
100
AcDbArc
 50
344.0577399461373
 51
90.00000777781329
  0
LINE
  5
798F
330
18
100
AcDbEntity
  8
5
  6
PHANTOM
 48
0.15
100
AcDbLine
 10
253.9125152480044
 20
218.1474166623998
 30
0.0
 11
260.6625149762856
 21
218.147417742049
 31
0.0
  0
ARC
  5
7990
330
18
100
AcDbEntity
  8
5
  6
PHANTOM
 48
0.15
100
AcDbCircle
 10
310.6625423080216
 20
201.8646556139748
 30
0.0
 40
50.0
100
AcDbArc
 50
164.0577399461373
 51
189.3890016462156
  0
ARC
  5
7991
330
18
100
AcDbEntity
  8
5
  6
PHANTOM
 48
0.15
100
AcDbCircle
 10
119.6625152480239
 20
167.7907172797577
 30
0.0
 40
144.0
100
AcDbArc
 50
3.697736769536775
 51
9.389001646215648
  0
LINE
  5
7992
330
18
100
AcDbEntity
  8
5
  6
PHANTOM
 48
0.15
100
AcDbLine
 10
261.7334185383072
 20
191.2823847021212
 30
0.0
 11
261.3323675544509
 21
193.7078266478762
 31
0.0
  0
LINE
  5
7993
330
18
100
AcDbEntity
  8
5
  6
PHANTOM
 48
0.15
100
AcDbLine
 10
266.662515248024
 20
167.1474177420177
 30
0.0
 11
266.662515248024
 21
176.1474177419264
 31
0.0
  0
ARC
  5
7994
330
18
100
AcDbEntity
  8
5
  6
PHANTOM
 48
0.15
100
AcDbCircle
 10
264.3715207992964
 20
177.1474177419264
 30
0.0
 40
1.0
100
AcDbArc
 50
199.3262950834889
 51
270.0
  0
LINE
  5
7995
330
18
100
AcDbEntity
  8
5
  6
PHANTOM
 48
0.15
100
AcDbLine
 10
264.3715207992964
 20
176.1474177419264
 30
0.0
 11
266.6625152480239
 21
176.1474177419264
 31
0.0
  0
ARC
  5
7996
330
18
100
AcDbEntity
  8
5
  6
PHANTOM
 48
0.15
100
AcDbCircle
 10
152.6624637298081
 20
173.6474522908543
 30
0.0
 40
100.0
100
AcDbArc
 50
2.718402193192831
 51
13.26138975162589
  0
ARC
  5
7997
330
18
100
AcDbEntity
  8
5
  6
PHANTOM
 48
0.15
100
AcDbCircle
 10
298.6625152480241
 20
208.0565347645016
 30
0.0
 40
50.0
100
AcDbArc
 50
180.0
 51
193.2613897516258
  0
LINE
  5
7998
330
18
100
AcDbEntity
  8
5
  6
PHANTOM
 48
0.15
100
AcDbLine
 10
249.1624881880251
 20
160.1474177419269
 30
0.0
 11
249.1624881880251
 21
168.1474177419268
 31
0.0
  0
LINE
  5
7999
330
18
100
AcDbEntity
  8
5
  6
PHANTOM
 48
0.15
100
AcDbLine
 10
252.5499331143464
 20
178.3901793495111
 30
0.0
 11
251.1885950643035
 21
168.1474177419268
 31
0.0
  0
LINE
  5
799A
330
18
100
AcDbEntity
  8
5
  6
PHANTOM
 48
0.15
100
AcDbLine
 10
249.1624881880251
 20
168.1474177419268
 30
0.0
 11
251.1885950643035
 21
168.1474177419268
 31
0.0
  0
ARC
  5
799B
330
18
100
AcDbEntity
  8
5
  6
PHANTOM
 48
0.15
100
AcDbCircle
 10
119.6625152480239
 20
167.7907172797577
 30
0.0
 40
144.0
100
AcDbArc
 50
356.3610829201168
 51
359.7440383953115
  0
ARC
  5
799C
330
18
100
AcDbEntity
  8
5
  6
PHANTOM
 48
0.15
100
AcDbCircle
 10
270.6625152480238
 20
161.9453767131864
 30
0.0
 40
8.0
100
AcDbArc
 50
204.3156667950638
 51
224.4153085971945
  0
LINE
  5
799D
330
18
100
AcDbEntity
  8
5
  6
PHANTOM
 48
0.15
100
AcDbLine
 10
263.6625152480239
 20
167.1474177420177
 30
0.0
 11
266.6625152480239
 21
167.1474177420177
 31
0.0
  0
ARC
  5
799E
330
18
100
AcDbEntity
  8
5
  6
PHANTOM
 48
0.15
100
AcDbCircle
 10
263.6625152480239
 20
166.1474177420177
 30
0.0
 40
1.0
100
AcDbArc
 50
90.0
 51
90.08233042049964
  0
LINE
  5
799F
330
18
100
AcDbEntity
  8
5
  6
PHANTOM
 48
0.15
100
AcDbLine
 10
271.6625152480238
 20
138.5473877420533
 30
0.0
 11
271.6625152480238
 21
140.1473877420533
 31
0.0
  0
LINE
  5
79A0
330
18
100
AcDbEntity
  8
5
  6
PHANTOM
 48
0.15
100
AcDbLine
 10
271.6625152480238
 20
140.1473877420533
 30
0.0
 11
262.6625152480239
 21
140.1473877420533
 31
0.0
  0
ARC
  5
79A1
330
18
100
AcDbEntity
  8
5
  6
PHANTOM
 48
0.15
100
AcDbCircle
 10
260.662515248024
 20
152.1474177420535
 30
0.0
 40
6.0
100
AcDbArc
 50
289.4712206344893
 51
44.41530859719454
  0
LINE
  5
79A2
330
18
100
AcDbEntity
  8
5
  6
PHANTOM
 48
0.15
100
AcDbLine
 10
262.6625152480239
 20
140.1473877420534
 30
0.0
 11
262.6625152480239
 21
146.490563492561
 31
0.0
  0
CIRCLE
  5
79A3
330
18
100
AcDbEntity
  8
5
  6
PHANTOM
 48
0.15
100
AcDbCircle
 10
257.6625152480238
 20
151.1473877420534
 30
0.0
 40
2.499999999999999
  0
LINE
  5
79A4
330
18
100
AcDbEntity
  8
5
  6
PHANTOM
 48
0.15
100
AcDbLine
 10
250.662515248024
 20
158.1474177420177
 30
0.0
 11
251.8782622513157
 21
158.1474177420177
 31
0.0
  0
LINE
  5
79A5
330
18
100
AcDbEntity
  8
5
  6
PHANTOM
 48
0.15
100
AcDbLine
 10
251.7588027626813
 20
159.2546823205974
 30
0.0
 11
251.8782622513157
 21
158.1474177420177
 31
0.0
  0
ARC
  5
79A6
330
18
100
AcDbEntity
  8
5
  6
PHANTOM
 48
0.15
100
AcDbCircle
 10
250.7645722510983
 20
159.1474177419266
 30
0.0
 40
1.0
100
AcDbArc
 50
6.157654382114647
 51
90.0
  0
LINE
  5
79A7
330
18
100
AcDbEntity
  8
5
  6
PHANTOM
 48
0.15
100
AcDbLine
 10
250.662515248024
 20
153.1474177420178
 30
0.0
 11
250.662515248024
 21
158.1474177420178
 31
0.0
  0
LINE
  5
79A8
330
18
100
AcDbEntity
  8
5
  6
PHANTOM
 48
0.15
100
AcDbLine
 10
249.1624881880251
 20
160.1474177419267
 30
0.0
 11
250.7645722510983
 21
160.1474177419266
 31
0.0
  0
LINE
  5
79A9
330
18
100
AcDbEntity
  8
5
  6
PHANTOM
 48
0.15
100
AcDbLine
 10
250.6625152480239
 20
153.1474177420178
 30
0.0
 11
252.6625152480238
 21
153.1474177420178
 31
0.0
  0
LINE
  5
79AA
330
18
100
AcDbEntity
  8
5
  6
PHANTOM
 48
0.15
100
AcDbLine
 10
252.6625152480239
 20
140.1473877420534
 30
0.0
 11
252.6625152480239
 21
153.1474177420179
 31
0.0
  0
LINE
  5
79AB
330
18
100
AcDbEntity
  8
5
  6
PHANTOM
 48
0.15
100
AcDbLine
 10
243.6625152480238
 20
138.5473877420534
 30
0.0
 11
271.6625152480238
 21
138.5473877420533
 31
0.0
  0
LINE
  5
79AC
330
18
100
AcDbEntity
  8
5
  6
PHANTOM
 48
0.15
100
AcDbLine
 10
252.6625152480239
 20
140.1473877420534
 30
0.0
 11
243.6625152480237
 21
140.1473877420534
 31
0.0
  0
LINE
  5
79AD
330
18
100
AcDbEntity
  8
5
  6
PHANTOM
 48
0.15
100
AcDbLine
 10
243.6625152480237
 20
140.1473877420534
 30
0.0
 11
243.6625152480237
 21
138.5473877420534
 31
0.0
  0
ARC
  5
7A21
330
18
100
AcDbEntity
  8
1
  6
Continuous
 48
0.25
100
AcDbCircle
 10
143.9625158141254
 20
38.54742640444648
 30
0.0
 40
5.0
100
AcDbArc
 50
256.7029283350645
 51
329.3165834183059
  0
LINE
  5
7A22
330
18
100
AcDbEntity
  8
4
  6
CENTER
 48
0.25
100
AcDbLine
 10
132.5625158211163
 20
47.54742640444692
 30
0.0
 11
151.9625158211163
 21
47.54742640444692
 31
0.0
  0
LINE
  5
7A23
330
18
100
AcDbEntity
  8
4
  6
CENTER
 48
0.1
100
AcDbLine
 10
148.7125188376061
 20
57.54742640444647
 30
0.0
 11
139.2125188376061
 21
57.54742640444675
 31
0.0
  0
LINE
  5
7A24
330
18
100
AcDbEntity
  8
4
  6
CENTER
 48
0.1
100
AcDbLine
 10
148.7125188376061
 20
37.54742640444659
 30
0.0
 11
139.2125158211127
 21
37.54742640444669
 31
0.0
  0
ARC
  5
7A25
330
18
100
AcDbEntity
  8
1
  6
Continuous
 48
0.25
100
AcDbCircle
 10
143.9625188376061
 20
57.54742640444647
 30
0.0
 40
3.25
100
AcDbArc
 50
295.5163284439942
 51
197.9196772721435
  0
LINE
  5
7A26
330
18
100
AcDbEntity
  8
1
  6
Continuous
 48
0.25
100
AcDbLine
 10
148.2625158376061
 20
35.995956279584
 30
0.0
 11
148.2625158046106
 21
59.0988965849166
 31
0.0
  0
LINE
  5
7A27
330
18
100
AcDbEntity
  8
1
  6
Continuous
 48
0.25
100
AcDbLine
 10
136.2625158211163
 20
61.54742399602664
 30
0.0
 11
136.2625158211163
 21
53.54742640445319
 31
0.0
  0
LINE
  5
7A28
330
18
100
AcDbEntity
  8
1
  6
Continuous
 48
0.25
100
AcDbLine
 10
134.6625158211164
 20
61.54742399602664
 30
0.0
 11
134.6625158211164
 21
53.54742640447671
 31
0.0
  0
LINE
  5
7A29
330
18
100
AcDbEntity
  8
1
  6
Continuous
 48
0.25
100
AcDbLine
 10
138.9625158211524
 20
53.27030205995839
 30
0.0
 11
138.9625158211524
 21
55.54745532595645
 31
0.0
  0
LINE
  5
7A2A
330
18
100
AcDbEntity
  8
1
  6
Continuous
 48
0.25
100
AcDbLine
 10
145.3625158212514
 20
55.54745532605547
 30
0.0
 11
145.3625158217467
 21
50.54742640444688
 31
0.0
  0
ARC
  5
7A2B
330
18
100
AcDbEntity
  8
1
  6
Continuous
 48
0.25
100
AcDbCircle
 10
142.1625158212019
 20
55.14745532595643
 30
0.0
 40
0.4
100
AcDbArc
 50
0.0
 51
180.0
  0
LINE
  5
7A2E
330
18
100
AcDbEntity
  8
4
  6
CENTER
 48
0.1
100
AcDbLine
 10
143.9625188376061
 20
52.79742640444649
 30
0.0
 11
143.9625188376061
 21
62.29742640444648
 31
0.0
  0
LINE
  5
7A2F
330
18
100
AcDbEntity
  8
1
  6
Continuous
 48
0.25
100
AcDbLine
 10
142.8125278210581
 20
43.7974552402345
 30
0.0
 11
142.8125158211127
 21
33.29745541167852
 31
0.0
  0
LINE
  5
7A30
330
18
100
AcDbEntity
  8
1
  6
Continuous
 48
0.25
100
AcDbLine
 10
140.7125158211127
 20
33.29742640444694
 30
0.0
 11
140.7125158211127
 21
38.54742640423607
 31
0.0
  0
LINE
  5
7A31
330
18
100
AcDbEntity
  8
1
  6
Continuous
 48
0.25
100
AcDbLine
 10
136.2625158211162
 20
41.5474264044534
 30
0.0
 11
136.2625158211163
 21
33.54742861651824
 31
0.0
  0
LINE
  5
7A32
330
18
100
AcDbEntity
  8
1
  6
Continuous
 48
0.25
100
AcDbLine
 10
134.6625158211163
 20
41.54742640443021
 30
0.0
 11
134.6625158211163
 21
33.54742861651824
 31
0.0
  0
LINE
  5
7A33
330
18
100
AcDbEntity
  8
1
  6
Continuous
 48
0.25
100
AcDbLine
 10
139.1125158211125
 20
41.94015675768782
 30
0.0
 11
139.1125158211125
 21
33.29742640444705
 31
0.0
  0
LINE
  5
7A34
330
18
100
AcDbEntity
  8
1
  6
Continuous
 48
0.25
100
AcDbLine
 10
141.2125218210523
 20
38.54742640423717
 30
0.0
 11
141.2125158211127
 21
33.29745541167852
 31
0.0
  0
ARC
  5
7A35
330
18
100
AcDbEntity
  8
1
  6
Continuous
 48
0.25
100
AcDbCircle
 10
143.9625188376061
 20
37.54742640444659
 30
0.0
 40
3.25
100
AcDbArc
 50
249.2772248310547
 51
37.97789761242919
  0
LINE
  5
7A36
330
18
100
AcDbEntity
  8
4
  6
CENTER
 48
0.1
100
AcDbLine
 10
143.9625188376061
 20
32.79742640444659
 30
0.0
 11
143.9625188376061
 21
42.29742640444658
 31
0.0
  0
LINE
  5
7A37
330
18
100
AcDbEntity
  8
1
  6
Continuous
 48
0.25
100
AcDbLine
 10
136.2625158211163
 20
33.54742861651824
 30
0.0
 11
134.6625158211163
 21
33.54742861651824
 31
0.0
  0
LINE
  5
7A38
330
18
100
AcDbEntity
  8
1
  6
Continuous
 48
0.25
100
AcDbLine
 10
140.7125158211127
 20
33.29742640444694
 30
0.0
 11
139.1125158211125
 21
33.29742640444694
 31
0.0
  0
LINE
  5
7A39
330
18
100
AcDbEntity
  8
1
  6
Continuous
 48
0.25
100
AcDbLine
 10
141.2125158211127
 20
33.29745541167852
 30
0.0
 11
142.8125146150543
 21
33.29742640463706
 31
0.0
  0
LINE
  5
7A3A
330
18
100
AcDbEntity
  8
1
  6
Continuous
 48
0.25
100
AcDbLine
 10
142.2625000062307
 20
44.19337600694059
 30
0.0
 11
142.2625000062307
 21
44.54742640444528
 31
0.0
  0
LINE
  5
7A3B
330
18
100
AcDbEntity
  8
1
  6
Continuous
 48
0.25
100
AcDbLine
 10
143.7625000062307
 20
44.19337600694061
 30
0.0
 11
143.7625000062307
 21
44.54742640444607
 31
0.0
  0
LINE
  5
7A3C
330
18
100
AcDbEntity
  8
1
  6
Continuous
 48
0.25
100
AcDbLine
 10
141.7625005716931
 20
44.54742640444498
 30
0.0
 11
141.7625075511014
 21
38.5474264042384
 31
0.0
  0
LINE
  5
7A3D
330
18
100
AcDbEntity
  8
1
  6
Continuous
 48
0.25
100
AcDbLine
 10
140.1624992807773
 20
44.5474264044441
 30
0.0
 11
140.1624992807773
 21
38.54742640423486
 31
0.0
  0
LINE
  5
7A3E
330
18
100
AcDbEntity
  8
1
  6
Continuous
 48
0.25
100
AcDbLine
 10
139.6625158211128
 20
43.14742640445305
 30
0.0
 11
139.6625158211128
 21
44.54742640444385
 31
0.0
  0
LINE
  5
7A3F
330
18
100
AcDbEntity
  8
1
  6
Continuous
 48
0.25
100
AcDbLine
 10
138.0625158211125
 20
51.94742640447579
 30
0.0
 11
138.0625158211085
 21
43.1474264044307
 31
0.0
  0
LINE
  5
7A40
330
18
100
AcDbEntity
  8
1
  6
Continuous
 48
0.25
100
AcDbLine
 10
146.9625158211198
 20
50.74742826595742
 30
0.0
 11
146.9625158211197
 21
40.64742826595742
 31
0.0
  0
LINE
  5
7A41
330
18
100
AcDbEntity
  8
1
  6
Continuous
 48
0.25
100
AcDbLine
 10
144.1625158211197
 20
44.54742640444631
 30
0.0
 11
144.1625158211197
 21
41.95530707330191
 31
0.0
  0
LINE
  5
7A42
330
18
100
AcDbEntity
  8
1
  6
Continuous
 48
0.25
100
AcDbLine
 10
144.3625158211197
 20
42.54745532595648
 30
0.0
 11
144.3625158211197
 21
44.54742640444641
 31
0.0
  0
LINE
  5
7A43
330
18
100
AcDbEntity
  8
1
  6
Continuous
 48
0.25
100
AcDbLine
 10
145.3625158217644
 20
44.54742640444694
 30
0.0
 11
145.3625158214767
 21
40.64742826595742
 31
0.0
  0
LINE
  5
7A44
330
18
100
AcDbEntity
  8
1
  6
Continuous
 48
0.25
100
AcDbLine
 10
140.1624992807773
 20
38.54742640423486
 30
0.0
 11
142.8125218210524
 21
38.54742640428367
 31
0.0
  0
LINE
  5
7A45
330
18
100
AcDbEntity
  8
1
  6
Continuous
100
AcDbLine
 10
140.7125158211127
 20
34.54742640444692
 30
0.0
 11
141.2125172496445
 21
34.54742640444692
 31
0.0
  0
ARC
  5
7A46
330
18
100
AcDbEntity
  8
1
  6
Continuous
 48
0.25
100
AcDbCircle
 10
138.0625158211128
 20
43.14742640445305
 30
0.0
 40
1.6
100
AcDbArc
 50
269.9999999999934
 51
0.0
  0
ARC
  5
7A47
330
18
100
AcDbEntity
  8
1
  6
Continuous
 48
0.25
100
AcDbCircle
 10
138.9125158211164
 20
40.24742640444697
 30
0.0
 40
0.3
100
AcDbArc
 50
90.0
 51
180.0
  0
ARC
  5
7A48
330
18
100
AcDbEntity
  8
1
  6
Continuous
 48
0.25
100
AcDbCircle
 10
138.9125158211164
 20
36.84742640444689
 30
0.0
 40
0.3
100
AcDbArc
 50
180.0
 51
270.0
  0
LINE
  5
7A49
330
18
100
AcDbEntity
  8
1
  6
Continuous
 48
0.25
100
AcDbLine
 10
136.2625158211163
 20
41.54742640445318
 30
0.0
 11
138.0625158211125
 21
41.54742640445296
 31
0.0
  0
LINE
  5
7A4A
330
18
100
AcDbEntity
  8
1
  6
Continuous
 48
0.25
100
AcDbLine
 10
138.6125158211164
 20
40.24742640444697
 30
0.0
 11
138.6125158211164
 21
36.84742640444689
 31
0.0
  0
LINE
  5
7A4B
330
18
100
AcDbEntity
  8
1
  6
Continuous
 48
0.25
100
AcDbLine
 10
139.1125158211164
 20
36.54742640444693
 30
0.0
 11
138.9125158211164
 21
36.54742640444693
 31
0.0
  0
LINE
  5
7A4C
330
18
100
AcDbEntity
  8
1
  6
Continuous
 48
0.25
100
AcDbLine
 10
138.9125158211164
 20
40.54742640444692
 30
0.0
 11
139.1125158211164
 21
40.54742640444692
 31
0.0
  0
LINE
  5
7A4D
330
18
100
AcDbEntity
  8
1
  6
Continuous
 48
0.25
100
AcDbLine
 10
134.6625158211163
 20
36.23080382616264
 30
0.0
 11
136.2625158211163
 21
36.23080382616264
 31
0.0
  0
LINE
  5
7A4E
330
18
100
AcDbEntity
  8
1
  6
Continuous
 48
0.25
100
AcDbLine
 10
138.0625158211126
 20
43.1474264044307
 30
0.0
 11
136.2625158211158
 21
43.14742640443014
 31
0.0
  0
ARC
  5
7A4F
330
18
100
AcDbEntity
  8
1
  6
Continuous
 48
0.25
100
AcDbCircle
 10
136.2625158211163
 20
41.54742640443021
 30
0.0
 40
1.6
100
AcDbArc
 50
90.00000000001952
 51
180.0
  0
LINE
  5
7A50
330
18
100
AcDbEntity
  8
1
  6
Continuous
 48
0.25
100
AcDbLine
 10
139.6625158211127
 20
43.79742640444692
 30
0.0
 11
140.1624992807773
 21
43.79742640444692
 31
0.0
  0
LINE
  5
7A51
330
18
100
AcDbEntity
  8
4
  6
CENTER
 48
0.08
100
AcDbLine
 10
137.7625158211162
 20
37.5474264044467
 30
0.0
 11
133.1625158211164
 21
37.54742640444675
 31
0.0
  0
LINE
  5
7A52
330
18
100
AcDbEntity
  8
1
  6
Continuous
 48
0.25
100
AcDbLine
 10
144.3125158211233
 20
41.90147894102763
 30
0.0
 11
144.3125158211233
 21
35.19337386757293
 31
0.0
  0
ARC
  5
7A53
330
18
100
AcDbEntity
  8
1
  6
Continuous
 48
0.25
100
AcDbCircle
 10
143.9625188376061
 20
37.54742640444659
 30
0.0
 40
1.85
100
AcDbArc
 50
280.9053748560078
 51
54.1753241304554
  0
ARC
  5
7A54
330
18
100
AcDbEntity
  8
1
  6
Continuous
 48
0.25
100
AcDbCircle
 10
145.3625158211197
 20
40.64742826595742
 30
0.0
 40
1.6
100
AcDbArc
 50
270.0
 51
0.0
  0
LINE
  5
7A55
330
18
100
AcDbEntity
  8
1
  6
Continuous
 48
0.25
100
AcDbLine
 10
145.3625158214767
 20
40.64742826595742
 30
0.0
 11
144.3125158211233
 21
40.64742826595742
 31
0.0
  0
ARC
  5
7A56
330
18
100
AcDbEntity
  8
1
  6
Continuous
 48
0.25
100
AcDbCircle
 10
143.5625230271213
 20
37.04742640430025
 30
0.0
 40
2.0
100
AcDbArc
 50
247.9756871629578
 51
292.0243128370421
  0
ARC
  5
7A57
330
18
100
AcDbEntity
  8
1
  6
Continuous
 48
0.25
100
AcDbCircle
 10
143.5625230271214
 20
40.04742640430025
 30
0.0
 40
2.0
100
AcDbArc
 50
67.97568716295784
 51
112.0243128370421
  0
ARC
  5
7A58
330
18
100
AcDbEntity
  8
1
  6
Continuous
 48
0.25
100
AcDbCircle
 10
141.2135596273647
 20
43.79748158387821
 30
0.0
 40
1.598966118462438
100
AcDbArc
 50
359.9990590987415
 51
9.440287237839683
  0
ARC
  5
7A59
330
18
100
AcDbEntity
  8
1
  6
Continuous
 48
0.25
100
AcDbCircle
 10
143.0125000062307
 20
46.04742562871452
 30
0.0
 40
2.0
100
AcDbArc
 50
247.9756871629578
 51
292.0243128370421
  0
LINE
  5
7A5A
330
18
100
AcDbEntity
  8
1
  6
Continuous
 48
0.25
100
AcDbLine
 10
145.3625158211197
 20
39.04742826595743
 30
0.0
 11
144.3125158211233
 21
39.04742826595743
 31
0.0
  0
LINE
  5
7A5B
330
18
100
AcDbEntity
  8
1
  6
Continuous
 48
0.25
100
AcDbLine
 10
144.1625158211197
 20
43.54745532595647
 30
0.0
 11
144.3625158211197
 21
43.54745532595647
 31
0.0
  0
LINE
  5
7A5C
330
18
100
AcDbEntity
  8
1
  6
Continuous
 48
0.25
100
AcDbLine
 10
145.3625158217703
 20
42.54745532595648
 30
0.0
 11
144.3625158211197
 21
42.54745532595648
 31
0.0
  0
LINE
  5
7A5E
330
18
100
AcDbEntity
  8
1
  6
Continuous
 48
0.25
100
AcDbLine
 10
143.3625158211196
 20
42.03740055426989
 30
0.0
 11
143.3625158211196
 21
44.07829157301193
 31
0.0
  0
ARC
  5
7A5F
330
18
100
AcDbEntity
  8
1
  6
Continuous
 48
0.25
100
AcDbCircle
 10
142.9625158211196
 20
42.84742640444706
 30
0.0
 40
0.4
100
AcDbArc
 50
247.9773080818412
 51
0.0
  0
LINE
  5
7A61
330
18
100
AcDbEntity
  8
1
  6
Continuous
 48
0.25
100
AcDbLine
 10
140.1624992807773
 20
53.54744375767173
 30
0.0
 11
141.7625092049827
 21
53.54744375767173
 31
0.0
  0
LINE
  5
7A62
330
18
100
AcDbEntity
  8
1
  6
Continuous
 48
0.25
100
AcDbLine
 10
146.2625158211196
 20
50.54745532595653
 30
0.0
 11
138.0625158211153
 21
50.54742640444294
 31
0.0
  0
LINE
  5
7A63
330
18
100
AcDbEntity
  8
1
  6
Continuous
 48
0.25
100
AcDbLine
 10
146.2625158211196
 20
44.54745532595653
 30
0.0
 11
138.062515821108
 21
44.54742640444293
 31
0.0
  0
LINE
  5
7A64
330
18
100
AcDbEntity
  8
1
  6
Continuous
 48
0.25
100
AcDbLine
 10
140.1624992807773
 20
50.54742640444407
 30
0.0
 11
140.1625092049827
 21
53.54744375767172
 31
0.0
  0
LINE
  5
7A65
330
18
100
AcDbEntity
  8
1
  6
Continuous
 48
0.25
100
AcDbLine
 10
139.6625158211127
 20
50.54742640444384
 30
0.0
 11
139.6625158211127
 21
51.94742640445305
 31
0.0
  0
ARC
  5
7A66
330
18
100
AcDbEntity
  8
1
  6
Continuous
 48
0.25
100
AcDbCircle
 10
138.0625158211128
 20
51.94742640445305
 30
0.0
 40
1.6
100
AcDbArc
 50
0.0
 51
89.99999999999348
  0
LINE
  5
7A67
330
18
100
AcDbEntity
  8
1
  6
Continuous
 48
0.25
100
AcDbLine
 10
137.5625158211156
 20
49.54742640444694
 30
0.0
 11
137.5625158211156
 21
45.54742640444692
 31
0.0
  0
LINE
  5
7A68
330
18
100
AcDbEntity
  8
1
  6
Continuous
 48
0.25
100
AcDbLine
 10
136.2625158211154
 20
51.94742640447692
 30
0.0
 11
138.0625158211125
 21
51.94742640447579
 31
0.0
  0
ARC
  5
7A69
330
18
100
AcDbEntity
  8
1
  6
Continuous
 48
0.25
100
AcDbCircle
 10
138.0625158211124
 20
49.54742640444682
 30
0.0
 40
0.5
100
AcDbArc
 50
90.0
 51
180.0
  0
ARC
  5
7A6A
330
18
100
AcDbEntity
  8
1
  6
Continuous
 48
0.25
100
AcDbCircle
 10
138.0625158211124
 20
45.54742640444682
 30
0.0
 40
0.5
100
AcDbArc
 50
180.0
 51
270.0
  0
LINE
  5
7A6B
330
18
100
AcDbEntity
  8
1
  6
Continuous
 48
0.25
100
AcDbLine
 10
138.0625158211129
 20
53.54742640445296
 30
0.0
 11
136.2625158211163
 21
53.54742640445319
 31
0.0
  0
ARC
  5
7A6C
330
18
100
AcDbEntity
  8
1
  6
Continuous
 48
0.25
100
AcDbCircle
 10
136.2625158211163
 20
53.54742640447671
 30
0.0
 40
1.6
100
AcDbArc
 50
180.0
 51
269.9999999999674
  0
LINE
  5
7A6D
330
18
100
AcDbEntity
  8
1
  6
Continuous
 48
0.25
100
AcDbLine
 10
139.9625158211524
 20
50.54742640444398
 30
0.0
 11
139.9625158211524
 21
55.5474553259564
 31
0.0
  0
LINE
  5
7A6E
330
18
100
AcDbEntity
  8
1
  6
Continuous
 48
0.25
100
AcDbLine
 10
146.2625158211196
 20
50.54745532595653
 30
0.0
 11
146.2625158211196
 21
44.54745532595653
 31
0.0
  0
LINE
  5
7A6F
330
18
100
AcDbEntity
  8
1
  6
Continuous
 48
0.25
100
AcDbLine
 10
146.7625158211196
 20
50.04745532595653
 30
0.0
 11
146.2625158211196
 21
50.54745532595653
 31
0.0
  0
LINE
  5
7A70
330
18
100
AcDbEntity
  8
1
  6
Continuous
 48
0.25
100
AcDbLine
 10
146.7625158211196
 20
45.04745532595653
 30
0.0
 11
146.7625158211196
 21
50.04745532595653
 31
0.0
  0
LINE
  5
7A71
330
18
100
AcDbEntity
  8
1
  6
Continuous
 48
0.25
100
AcDbLine
 10
146.2625158211196
 20
44.54745532595653
 30
0.0
 11
146.7625158211196
 21
45.04745532595653
 31
0.0
  0
LINE
  5
7A72
330
18
100
AcDbEntity
  8
1
  6
Continuous
 48
0.25
100
AcDbLine
 10
143.7625000062307
 20
50.90147525048843
 30
0.0
 11
143.7625000062307
 21
50.54742640444603
 31
0.0
  0
LINE
  5
7A73
330
18
100
AcDbEntity
  8
1
  6
Continuous
 48
0.25
100
AcDbLine
 10
142.2625000062307
 20
50.54742640444522
 30
0.0
 11
142.2625000062307
 21
50.90147525048843
 31
0.0
  0
LINE
  5
7A74
330
18
100
AcDbEntity
  8
1
  6
Continuous
 48
0.25
100
AcDbLine
 10
141.7625158212019
 20
55.14745532595643
 30
0.0
 11
141.7624992807771
 21
50.54742640444493
 31
0.0
  0
LINE
  5
7A75
330
18
100
AcDbEntity
  8
1
  6
Continuous
 48
0.25
100
AcDbLine
 10
145.6625158211163
 20
50.54742640444705
 30
0.0
 11
145.6625158211164
 21
44.54742640444705
 31
0.0
  0
ARC
  5
7A76
330
18
100
AcDbEntity
  8
1
  6
Continuous
 48
0.25
100
AcDbCircle
 10
143.0125000062307
 20
49.04742562871452
 30
0.0
 40
2.0
100
AcDbArc
 50
67.97568716295784
 51
112.0243128370421
  0
LINE
  5
7A77
330
18
100
AcDbEntity
  8
1
  6
Continuous
 48
0.25
100
AcDbLine
 10
144.3625158212461
 20
55.54745532595642
 30
0.0
 11
144.3625158217467
 21
50.54742640434783
 31
0.0
  0
LINE
  5
7A78
330
18
100
AcDbEntity
  8
1
  6
Continuous
 48
0.25
100
AcDbLine
 10
145.3625158211197
 20
50.74742826595742
 30
0.0
 11
146.9625158211198
 21
50.74742826595742
 31
0.0
  0
LINE
  5
7A79
330
18
100
AcDbEntity
  8
1
  6
Continuous
 48
0.25
100
AcDbLine
 10
143.3625158211196
 20
52.24742640444681
 30
0.0
 11
143.3625158211196
 21
51.01655968441709
 31
0.0
  0
LINE
  5
7A7A
330
18
100
AcDbEntity
  8
1
  6
Continuous
 48
0.25
100
AcDbLine
 10
144.1625158211197
 20
50.54742640444622
 30
0.0
 11
144.1625158211196
 21
52.24742640444681
 31
0.0
  0
LINE
  5
7A7B
330
18
100
AcDbEntity
  8
1
  6
Continuous
 48
0.25
100
AcDbLine
 10
144.3625158211197
 20
53.37981742244
 30
0.0
 11
145.3625158217383
 21
53.37981742244
 31
0.0
  0
LINE
  5
7A7C
330
18
100
AcDbEntity
  8
1
  6
Continuous
 48
0.25
100
AcDbLine
 10
142.5625158211196
 20
55.14745532595643
 30
0.0
 11
142.5625158211196
 21
50.99614680762901
 31
0.0
  0
ARC
  5
7A7D
330
18
100
AcDbEntity
  8
1
  6
Continuous
 48
0.25
100
AcDbCircle
 10
142.9625158211196
 20
52.24742640444681
 30
0.0
 40
0.4
100
AcDbArc
 50
0.0
 51
180.0
  0
ARC
  5
7A7E
330
18
100
AcDbEntity
  8
1
  6
Continuous
 48
0.25
100
AcDbCircle
 10
143.7625158211196
 20
52.24742640444681
 30
0.0
 40
0.4
100
AcDbArc
 50
0.0
 51
180.0
  0
LINE
  5
7A7F
330
18
100
AcDbEntity
  8
1
  6
Continuous
100
AcDbLine
 10
144.1625158211197
 20
51.5473974829374
 30
0.0
 11
144.3625158211197
 21
51.5473974829374
 31
0.0
  0
ARC
  5
7A80
330
18
100
AcDbEntity
  8
1
  6
Continuous
 48
0.25
100
AcDbCircle
 10
143.9625158141254
 20
56.54742640444649
 30
0.0
 40
5.0
100
AcDbArc
 50
30.68341732264094
 51
149.316583104691
  0
LINE
  5
7A81
330
18
100
AcDbEntity
  8
1
  6
Continuous
 48
0.25
100
AcDbLine
 10
139.9625158211524
 20
55.54745532595642
 30
0.0
 11
144.3625158212461
 21
55.54745532595642
 31
0.0
  0
LINE
  5
7A82
330
18
100
AcDbEntity
  8
1
  6
Continuous
 48
0.25
100
AcDbLine
 10
139.9625158211524
 20
56.54745532595645
 30
0.0
 11
144.3625158212514
 21
56.54745532595642
 31
0.0
  0
LINE
  5
7A83
330
18
100
AcDbEntity
  8
1
  6
Continuous
 48
0.25
100
AcDbLine
 10
139.6625158046105
 20
59.09889655284555
 30
0.0
 11
139.6625158111515
 21
56.50139452422824
 31
0.0
  0
LINE
  5
7A84
330
18
100
AcDbEntity
  8
1
  6
Continuous
 48
0.25
100
AcDbLine
 10
134.6625158211164
 20
61.54742399602664
 30
0.0
 11
136.2625158211163
 21
61.54742399602664
 31
0.0
  0
LINE
  5
7A85
330
18
100
AcDbEntity
  8
1
  6
Continuous
 48
0.25
100
AcDbLine
 10
134.6625158211164
 20
58.8640487863819
 30
0.0
 11
136.2625158211163
 21
58.8640487863819
 31
0.0
  0
ARC
  5
7A86
330
18
100
AcDbEntity
  8
1
  6
Continuous
 48
0.25
100
AcDbCircle
 10
139.9625158211524
 20
55.54745532595645
 30
0.0
 40
1.0
100
AcDbArc
 50
90.0
 51
180.0
  0
LINE
  5
7A87
330
18
100
AcDbEntity
  8
4
  6
CENTER
 48
0.08
100
AcDbLine
 10
137.7625158211163
 20
57.54742640444681
 30
0.0
 11
133.1625158211163
 21
57.54742640444693
 31
0.0
  0
ARC
  5
7A88
330
18
100
AcDbEntity
  8
1
  6
Continuous
 48
0.25
100
AcDbCircle
 10
143.9625188376061
 20
57.54742640444647
 30
0.0
 40
1.85
100
AcDbArc
 50
310.5888724412224
 51
212.7193787108564
  0
ARC
  5
7A89
330
18
100
AcDbEntity
  8
1
  6
Continuous
 48
0.25
100
AcDbCircle
 10
144.3625158212514
 20
55.54745532595642
 30
0.0
 40
1.0
100
AcDbArc
 50
0.0000000056755344
 51
90.0
  0
LINE
  5
8150
330
18
100
AcDbEntity
  8
4
  6
CENTER
 48
0.05
100
AcDbLine
 10
137.1125158211164
 20
400.747409079541
 30
0.0
 11
141.1625158465558
 21
400.747409079541
 31
0.0
  0
LINE
  5
8151
330
18
100
AcDbEntity
  8
4
  6
CENTER
 48
0.05
100
AcDbLine
 10
137.1125158211164
 20
38.54742640444693
 30
0.0
 11
145.8125158211233
 21
38.54742640419775
 31
0.0
  0
LINE
  5
817B
330
18
100
AcDbEntity
  8
1
  6
Continuous
 48
0.25
100
AcDbLine
 10
138.0625158211143
 20
45.54742640450649
 30
0.0
 11
137.8625158211143
 21
45.54742640450649
 31
0.0
  0
ARC
  5
817C
330
18
100
AcDbEntity
  8
1
  6
Continuous
 48
0.25
100
AcDbCircle
 10
137.8625158211143
 20
45.84742640450643
 30
0.0
 40
0.3
100
AcDbArc
 50
179.9999999999991
 51
270.0
  0
LINE
  5
817D
330
18
100
AcDbEntity
  8
1
  6
Continuous
 48
0.25
100
AcDbLine
 10
138.0625158211143
 20
49.5474264045065
 30
0.0
 11
137.8625158211144
 21
49.5474264045065
 31
0.0
  0
ARC
  5
817E
330
18
100
AcDbEntity
  8
1
  6
Continuous
 48
0.25
100
AcDbCircle
 10
137.8625158211143
 20
49.24742640450649
 30
0.0
 40
0.3
100
AcDbArc
 50
90.0
 51
179.9999999999991
  0
LINE
  5
81CC
330
18
100
AcDbEntity
  8
1
  6
Continuous
 48
0.25
100
AcDbLine
 10
353.1625146749293
 20
262.1474177420535
 30
0.0
 11
352.9625146749292
 21
262.1474177420535
 31
0.0
  0
LINE
  5
81D9
330
18
100
AcDbEntity
  8
1
  6
Continuous
 48
0.25
100
AcDbLine
 10
144.1625158211197
 20
271.1474177420775
 30
0.0
 11
144.1625158211197
 21
269.1474177420892
 31
0.0
  0
ENDSEC
  0
SECTION
  2
OBJECTS
  0
DICTIONARY
  5
C
330
0
100
AcDbDictionary
281
     1
  3
ACAD_CIP_PREVIOUS_PRODUCT_INFO
350
823C
  3
ACAD_COLOR
350
821F
  3
ACAD_DETAILVIEWSTYLE
350
8238
  3
ACAD_GROUP
350
D
  3
ACAD_LAYOUT
350
94
  3
ACAD_MATERIAL
350
81ED
  3
ACAD_MLEADERSTYLE
350
8234
  3
ACAD_MLINESTYLE
350
1B
  3
ACAD_PLOTSETTINGS
350
95
  3
ACAD_PLOTSTYLENAME
350
81EB
  3
ACAD_SCALELIST
350
8222
  3
ACAD_SECTIONVIEWSTYLE
350
8236
  3
ACAD_TABLESTYLE
350
8220
  3
ACAD_VISUALSTYLE
350
8206
  3
ACDB_RECOMPOSE_DATA
350
825A
  3
AcDbVariableDictionary
350
824D
  3
CONTENTDICTIONARY
350
3D
  3
DWGPROPS
350
825B
  0
DICTIONARY
  5
823D
330
E
100
AcDbDictionary
280
     1
281
     1
  3
ADSK_XREC_LAYER_RECONCILED
360
823E
  0
DICTIONARY
  5
823F
330
4E
100
AcDbDictionary
280
     1
281
     1
  3
ADSK_XREC_LAYER_RECONCILED
360
8240
  0
DICTIONARY
  5
8241
330
4F
100
AcDbDictionary
280
     1
281
     1
  3
ADSK_XREC_LAYER_RECONCILED
360
8242
  0
DICTIONARY
  5
8243
330
50
100
AcDbDictionary
280
     1
281
     1
  3
ADSK_XREC_LAYER_RECONCILED
360
8244
  0
DICTIONARY
  5
8245
330
51
100
AcDbDictionary
280
     1
281
     1
  3
ADSK_XREC_LAYER_RECONCILED
360
8246
  0
DICTIONARY
  5
8247
330
52
100
AcDbDictionary
280
     1
281
     1
  3
ADSK_XREC_LAYER_RECONCILED
360
8248
  0
DICTIONARY
  5
8249
330
53
100
AcDbDictionary
280
     1
281
     1
  3
ADSK_XREC_LAYER_RECONCILED
360
824A
  0
DICTIONARY
  5
824B
330
54
100
AcDbDictionary
280
     1
281
     1
  3
ADSK_XREC_LAYER_RECONCILED
360
824C
  0
DICTIONARY
  5
81E6
330
18
100
AcDbDictionary
281
     1
  3
ACAD_LAYOUTSELFREF
350
81E7
  0
DICTIONARY
  5
81E4
330
15
100
AcDbDictionary
281
     1
  3
ACAD_LAYOUTSELFREF
350
81E5
  0
XRECORD
  5
823C
102
{ACAD_REACTORS
330
C
102
}
330
C
100
AcDbXrecord
280
     1
300
ACDLT
300
2014
300
ACDLT_F_S
  0
DICTIONARY
  5
821F
102
{ACAD_REACTORS
330
C
102
}
330
C
100
AcDbDictionary
281
     1
  0
DICTIONARY
  5
8238
102
{ACAD_REACTORS
330
C
102
}
330
C
100
AcDbDictionary
281
     1
  3
Imperial24
350
8239
  0
DICTIONARY
  5
D
102
{ACAD_REACTORS
330
C
102
}
330
C
100
AcDbDictionary
281
     1
  0
DICTIONARY
  5
94
102
{ACAD_REACTORS
330
C
102
}
330
C
100
AcDbDictionary
281
     1
  3
Model
350
823A
  3
レイアウト1
350
823B
  0
DICTIONARY
  5
81ED
102
{ACAD_REACTORS
330
C
102
}
330
C
100
AcDbDictionary
281
     1
  3
ByBlock
350
81F6
  3
ByLayer
350
81EE
  3
Global
350
81FE
  0
DICTIONARY
  5
8234
102
{ACAD_REACTORS
330
C
102
}
330
C
100
AcDbDictionary
281
     1
  3
Standard
350
8235
  0
DICTIONARY
  5
1B
102
{ACAD_REACTORS
330
C
102
}
330
C
100
AcDbDictionary
281
     1
  3
STANDARD
350
1C
  0
DICTIONARY
  5
95
102
{ACAD_REACTORS
330
C
102
}
330
C
100
AcDbDictionary
281
     1
  0
ACDBDICTIONARYWDFLT
  5
81EB
102
{ACAD_REACTORS
330
C
102
}
330
C
100
AcDbDictionary
281
     1
  3
Normal
350
81EC
100
AcDbDictionaryWithDefault
340
81EC
  0
DICTIONARY
  5
8222
102
{ACAD_REACTORS
330
C
102
}
330
C
100
AcDbDictionary
281
     1
  3
A0
350
8223
  3
A1
350
8224
  3
A2
350
8225
  3
A3
350
8226
  3
A4
350
8227
  3
A5
350
8228
  3
A6
350
8229
  3
A7
350
822A
  3
A8
350
822B
  3
A9
350
822C
  3
B0
350
822D
  3
B1
350
822E
  3
B2
350
822F
  3
B3
350
8230
  3
B4
350
8231
  3
B5
350
8232
  3
B6
350
8233
  0
DICTIONARY
  5
8236
102
{ACAD_REACTORS
330
C
102
}
330
C
100
AcDbDictionary
281
     1
  3
Imperial24
350
8237
  0
DICTIONARY
  5
8220
102
{ACAD_REACTORS
330
C
102
}
330
C
100
AcDbDictionary
281
     1
  3
Standard
350
8221
  0
DICTIONARY
  5
8206
102
{ACAD_REACTORS
330
C
102
}
330
C
100
AcDbDictionary
281
     1
  3
2dWireframe
350
820C
  3
Basic
350
820B
  3
Brighten
350
8212
  3
ColorChange
350
8216
  3
Conceptual
350
820F
  3
Dim
350
8211
  3
EdgeColorOff
350
821E
  3
Facepattern
350
8215
  3
Flat
350
8207
  3
FlatWithEdges
350
8208
  3
Gouraud
350
8209
  3
GouraudWithEdges
350
820A
  3
Hidden
350
820E
  3
JitterOff
350
821C
  3
Linepattern
350
8214
  3
OverhangOff
350
821D
  3
Realistic
350
8210
  3
Shaded
350
821B
  3
Shaded with edges
350
821A
  3
Shades of Gray
350
8217
  3
Sketchy
350
8218
  3
Thicken
350
8213
  3
Wireframe
350
820D
  3
X-Ray
350
8219
  0
XRECORD
  5
825A
102
{ACAD_REACTORS
330
C
102
}
330
C
100
AcDbXrecord
280
     1
 90
        1
330
8221
  0
DICTIONARY
  5
824D
102
{ACAD_REACTORS
330
C
102
}
330
C
100
AcDbDictionary
281
     1
  3
CANNOSCALE
350
8252
  3
CMLEADERSTYLE
350
824F
  3
CTABLESTYLE
350
824E
  3
CVIEWDETAILSTYLE
350
8250
  3
CVIEWSECTIONSTYLE
350
8251
  3
DIMASSOC
350
8255
  3
INDEXCTL
350
8254
  3
SORTENTS
350
8253
  3
XCLIPFRAME
350
8256
  0
DICTIONARY
  5
3D
102
{ACAD_REACTORS
330
C
102
}
330
C
100
AcDbDictionary
281
     1
  0
XRECORD
  5
825B
102
{ACAD_REACTORS
330
C
102
}
330
C
100
AcDbXrecord
280
     1
  1
DWGPROPS COOKIE
  2

  3

  4

  6

  7

  8
Yoshitsune
  9

300
=
301
=
302
=
303
=
304
=
305
=
306
=
307
=
308
=
309
=
 40
0.7405143981481482
 41
2454865.650739062
 42
2457192.622231783
  1

 90
        0
  0
XRECORD
  5
823E
102
{ACAD_REACTORS
330
823D
102
}
330
823D
100
AcDbXrecord
280
     1
290
     1
  0
XRECORD
  5
8240
102
{ACAD_REACTORS
330
823F
102
}
330
823F
100
AcDbXrecord
280
     1
290
     1
  0
XRECORD
  5
8242
102
{ACAD_REACTORS
330
8241
102
}
330
8241
100
AcDbXrecord
280
     1
290
     1
  0
XRECORD
  5
8244
102
{ACAD_REACTORS
330
8243
102
}
330
8243
100
AcDbXrecord
280
     1
290
     1
  0
XRECORD
  5
8246
102
{ACAD_REACTORS
330
8245
102
}
330
8245
100
AcDbXrecord
280
     1
290
     1
  0
XRECORD
  5
8248
102
{ACAD_REACTORS
330
8247
102
}
330
8247
100
AcDbXrecord
280
     1
290
     1
  0
XRECORD
  5
824A
102
{ACAD_REACTORS
330
8249
102
}
330
8249
100
AcDbXrecord
280
     1
290
     1
  0
XRECORD
  5
824C
102
{ACAD_REACTORS
330
824B
102
}
330
824B
100
AcDbXrecord
280
     1
290
     1
  0
XRECORD
  5
81E7
102
{ACAD_REACTORS
330
81E6
102
}
330
81E6
100
AcDbXrecord
280
     1
340
18
  0
XRECORD
  5
81E5
102
{ACAD_REACTORS
330
81E4
102
}
330
81E4
100
AcDbXrecord
280
     1
340
15
  0
ACDBDETAILVIEWSTYLE
  5
8239
102
{ACAD_XDICTIONARY
360
8293
102
}
102
{ACAD_REACTORS
330
8238
102
}
330
8238
100
AcDbModelDocViewStyle
 70
     0
  3
Imperial24
290
     0
100
AcDbDetailViewStyle
 70
     0
 71
     0
 90
        3
 71
     1
340
F
 40
0.24
340
0
 40
0.24
300

 40
0.36
280
     3
 71
     2
340
14
 90
       25
 71
     3
340
F
 40
0.24
 90
        1
 40
0.75
 90
        1
300
%<\AcVar ViewType \f "%tc1">% %<\AcVar ViewDetailId>%\PSCALE %<\AcVar ViewScale \f "%sn">%
 71
     4
340
14
 90
       25
340
14
 90
       25
280
     0
  0
LAYOUT
  5
823A
102
{ACAD_XDICTIONARY
360
8295
102
}
102
{ACAD_REACTORS
330
94
102
}
330
94
100
AcDbPlotSettings
  1

  2
Canon LBP9100C
  4

  6

 40
0.0
 41
0.0
 42
0.0
 43
0.0
 44
0.0
 45
0.0
 46
0.0
 47
0.0
 48
0.0
 49
0.0
140
0.0
141
0.0
142
1.0
143
1.0
 70
  1712
 72
     0
 73
     0
 74
     0
  7

 75
     0
147
1.0
148
0.0
149
0.0
100
AcDbLayout
  1
Model
 70
     1
 71
     0
 10
0.0
 20
0.0
 11
12.0
 21
9.0
 12
0.0
 22
0.0
 32
0.0
 14
0.0
 24
0.0
 34
0.0
 15
0.0
 25
0.0
 35
0.0
146
0.0
 13
0.0
 23
0.0
 33
0.0
 16
1.0
 26
0.0
 36
0.0
 17
0.0
 27
1.0
 37
0.0
 76
     0
330
18
331
81E3
  0
LAYOUT
  5
823B
102
{ACAD_XDICTIONARY
360
8297
102
}
102
{ACAD_REACTORS
330
94
102
}
330
94
100
AcDbPlotSettings
  1

  2
Canon LBP9100C
  4

  6

 40
0.0
 41
0.0
 42
0.0
 43
0.0
 44
0.0
 45
0.0
 46
0.0
 47
0.0
 48
0.0
 49
0.0
140
0.0
141
0.0
142
1.0
143
1.0
 70
   688
 72
     0
 73
     0
 74
     5
  7

 75
    16
147
1.0
148
0.0
149
0.0
100
AcDbLayout
  1
レイアウト1
 70
     1
 71
     1
 10
0.0
 20
0.0
 11
420.0
 21
297.0
 12
0.0
 22
0.0
 32
0.0
 14
1.000000000000000E+20
 24
1.000000000000000E+20
 34
1.000000000000000E+20
 15
-1.000000000000000E+20
 25
-1.000000000000000E+20
 35
-1.000000000000000E+20
146
0.0
 13
0.0
 23
0.0
 33
0.0
 16
1.0
 26
0.0
 36
0.0
 17
0.0
 27
1.0
 37
0.0
 76
     0
330
15
  0
MATERIAL
  5
81F6
102
{ACAD_XDICTIONARY
360
81F7
102
}
102
{ACAD_REACTORS
330
81ED
102
}
330
81ED
100
AcDbMaterial
  1
ByBlock
 72
     0
 43
0.0208333333333333
 43
0.0
 43
0.0
 43
0.0
 43
0.0
 43
0.0208333333333333
 43
0.0
 43
0.0
 43
0.0
 43
0.0
 43
1.0
 43
0.0
 43
0.0
 43
0.0
 43
0.0
 43
1.0
 77
     0
 47
0.0208333333333333
 47
0.0
 47
0.0
 47
0.0
 47
0.0
 47
0.0208333333333333
 47
0.0
 47
0.0
 47
0.0
 47
0.0
 47
1.0
 47
0.0
 47
0.0
 47
0.0
 47
0.0
 47
1.0
171
     0
 49
0.0208333333333333
 49
0.0
 49
0.0
 49
0.0
 49
0.0
 49
0.0208333333333333
 49
0.0
 49
0.0
 49
0.0
 49
0.0
 49
1.0
 49
0.0
 49
0.0
 49
0.0
 49
0.0
 49
1.0
175
     0
142
0.0208333333333333
142
0.0
142
0.0
142
0.0
142
0.0
142
0.0208333333333333
142
0.0
142
0.0
142
0.0
142
0.0
142
1.0
142
0.0
142
0.0
142
0.0
142
0.0
142
1.0
179
     0
144
0.0208333333333333
144
0.0
144
0.0
144
0.0
144
0.0
144
0.0208333333333333
144
0.0
144
0.0
144
0.0
144
0.0
144
1.0
144
0.0
144
0.0
144
0.0
144
0.0
144
1.0
147
0.0208333333333333
147
0.0
147
0.0
147
0.0
147
0.0
147
0.0208333333333333
147
0.0
147
0.0
147
0.0
147
0.0
147
1.0
147
0.0
147
0.0
147
0.0
147
0.0
147
1.0
  0
MATERIAL
  5
81EE
102
{ACAD_XDICTIONARY
360
81EF
102
}
102
{ACAD_REACTORS
330
81ED
102
}
330
81ED
100
AcDbMaterial
  1
ByLayer
 72
     0
 43
0.0208333333333333
 43
0.0
 43
0.0
 43
0.0
 43
0.0
 43
0.0208333333333333
 43
0.0
 43
0.0
 43
0.0
 43
0.0
 43
1.0
 43
0.0
 43
0.0
 43
0.0
 43
0.0
 43
1.0
 77
     0
 47
0.0208333333333333
 47
0.0
 47
0.0
 47
0.0
 47
0.0
 47
0.0208333333333333
 47
0.0
 47
0.0
 47
0.0
 47
0.0
 47
1.0
 47
0.0
 47
0.0
 47
0.0
 47
0.0
 47
1.0
171
     0
 49
0.0208333333333333
 49
0.0
 49
0.0
 49
0.0
 49
0.0
 49
0.0208333333333333
 49
0.0
 49
0.0
 49
0.0
 49
0.0
 49
1.0
 49
0.0
 49
0.0
 49
0.0
 49
0.0
 49
1.0
175
     0
142
0.0208333333333333
142
0.0
142
0.0
142
0.0
142
0.0
142
0.0208333333333333
142
0.0
142
0.0
142
0.0
142
0.0
142
1.0
142
0.0
142
0.0
142
0.0
142
0.0
142
1.0
179
     0
144
0.0208333333333333
144
0.0
144
0.0
144
0.0
144
0.0
144
0.0208333333333333
144
0.0
144
0.0
144
0.0
144
0.0
144
1.0
144
0.0
144
0.0
144
0.0
144
0.0
144
1.0
147
0.0208333333333333
147
0.0
147
0.0
147
0.0
147
0.0
147
0.0208333333333333
147
0.0
147
0.0
147
0.0
147
0.0
147
1.0
147
0.0
147
0.0
147
0.0
147
0.0
147
1.0
  0
MATERIAL
  5
81FE
102
{ACAD_XDICTIONARY
360
81FF
102
}
102
{ACAD_REACTORS
330
81ED
102
}
330
81ED
100
AcDbMaterial
  1
Global
 72
     0
 43
0.0208333333333333
 43
0.0
 43
0.0
 43
0.0
 43
0.0
 43
0.0208333333333333
 43
0.0
 43
0.0
 43
0.0
 43
0.0
 43
1.0
 43
0.0
 43
0.0
 43
0.0
 43
0.0
 43
1.0
 77
     0
 47
0.0208333333333333
 47
0.0
 47
0.0
 47
0.0
 47
0.0
 47
0.0208333333333333
 47
0.0
 47
0.0
 47
0.0
 47
0.0
 47
1.0
 47
0.0
 47
0.0
 47
0.0
 47
0.0
 47
1.0
171
     0
 49
0.0208333333333333
 49
0.0
 49
0.0
 49
0.0
 49
0.0
 49
0.0208333333333333
 49
0.0
 49
0.0
 49
0.0
 49
0.0
 49
1.0
 49
0.0
 49
0.0
 49
0.0
 49
0.0
 49
1.0
175
     0
142
0.0208333333333333
142
0.0
142
0.0
142
0.0
142
0.0
142
0.0208333333333333
142
0.0
142
0.0
142
0.0
142
0.0
142
1.0
142
0.0
142
0.0
142
0.0
142
0.0
142
1.0
179
     0
144
0.0208333333333333
144
0.0
144
0.0
144
0.0
144
0.0
144
0.0208333333333333
144
0.0
144
0.0
144
0.0
144
0.0
144
1.0
144
0.0
144
0.0
144
0.0
144
0.0
144
1.0
147
0.0208333333333333
147
0.0
147
0.0
147
0.0
147
0.0
147
0.0208333333333333
147
0.0
147
0.0
147
0.0
147
0.0
147
1.0
147
0.0
147
0.0
147
0.0
147
0.0
147
1.0
  0
MLEADERSTYLE
  5
8235
102
{ACAD_REACTORS
330
8234
102
}
330
8234
100
AcDbMLeaderStyle
170
     2
171
     1
172
     0
 90
        2
 40
0.0
 41
0.0
173
     1
 91
-1056964608
340
12
 92
       -2
290
     1
 42
0.09
291
     1
 43
0.36
  3
Standard
 44
0.18
300

342
F
174
     1
178
     6
175
     1
176
     0
 93
-1056964608
 45
0.18
292
     0
297
     0
 46
0.18
 94
-1056964608
 47
1.0
 49
1.0
140
1.0
293
     1
141
0.0
294
     1
177
     0
142
1.0
295
     0
296
     0
143
0.125
1001
ACAD_MLEADERVER
1070
     2
  0
MLINESTYLE
  5
1C
102
{ACAD_REACTORS
330
1B
102
}
330
1B
100
AcDbMlineStyle
  2
STANDARD
 70
     0
  3

 62
   256
 51
90.0
 52
90.0
 71
     2
 49
0.5
 62
   256
  6
BYLAYER
 49
-0.5
 62
   256
  6
BYLAYER
  0
ACDBPLACEHOLDER
  5
81EC
102
{ACAD_REACTORS
330
81EB
102
}
330
81EB
  0
SCALE
  5
8223
102
{ACAD_REACTORS
330
8222
102
}
330
8222
100
AcDbScale
 70
     0
300
1:1
140
1.0
141
1.0
290
     1
  0
SCALE
  5
8224
102
{ACAD_REACTORS
330
8222
102
}
330
8222
100
AcDbScale
 70
     0
300
1/128" = 1'-0"
140
0.0078125
141
12.0
290
     0
  0
SCALE
  5
8225
102
{ACAD_REACTORS
330
8222
102
}
330
8222
100
AcDbScale
 70
     0
300
1/64" = 1'-0"
140
0.015625
141
12.0
290
     0
  0
SCALE
  5
8226
102
{ACAD_REACTORS
330
8222
102
}
330
8222
100
AcDbScale
 70
     0
300
1/32" = 1'-0"
140
0.03125
141
12.0
290
     0
  0
SCALE
  5
8227
102
{ACAD_REACTORS
330
8222
102
}
330
8222
100
AcDbScale
 70
     0
300
1/16" = 1'-0"
140
0.0625
141
12.0
290
     0
  0
SCALE
  5
8228
102
{ACAD_REACTORS
330
8222
102
}
330
8222
100
AcDbScale
 70
     0
300
3/32" = 1'-0"
140
0.09375
141
12.0
290
     0
  0
SCALE
  5
8229
102
{ACAD_REACTORS
330
8222
102
}
330
8222
100
AcDbScale
 70
     0
300
1/8" = 1'-0"
140
0.125
141
12.0
290
     0
  0
SCALE
  5
822A
102
{ACAD_REACTORS
330
8222
102
}
330
8222
100
AcDbScale
 70
     0
300
3/16" = 1'-0"
140
0.1875
141
12.0
290
     0
  0
SCALE
  5
822B
102
{ACAD_REACTORS
330
8222
102
}
330
8222
100
AcDbScale
 70
     0
300
1/4" = 1'-0"
140
0.25
141
12.0
290
     0
  0
SCALE
  5
822C
102
{ACAD_REACTORS
330
8222
102
}
330
8222
100
AcDbScale
 70
     0
300
3/8" = 1'-0"
140
0.375
141
12.0
290
     0
  0
SCALE
  5
822D
102
{ACAD_REACTORS
330
8222
102
}
330
8222
100
AcDbScale
 70
     0
300
1/2" = 1'-0"
140
0.5
141
12.0
290
     0
  0
SCALE
  5
822E
102
{ACAD_REACTORS
330
8222
102
}
330
8222
100
AcDbScale
 70
     0
300
3/4" = 1'-0"
140
0.75
141
12.0
290
     0
  0
SCALE
  5
822F
102
{ACAD_REACTORS
330
8222
102
}
330
8222
100
AcDbScale
 70
     0
300
1" = 1'-0"
140
1.0
141
12.0
290
     0
  0
SCALE
  5
8230
102
{ACAD_REACTORS
330
8222
102
}
330
8222
100
AcDbScale
 70
     0
300
1-1/2" = 1'-0"
140
1.5
141
12.0
290
     0
  0
SCALE
  5
8231
102
{ACAD_REACTORS
330
8222
102
}
330
8222
100
AcDbScale
 70
     0
300
3" = 1'-0"
140
3.0
141
12.0
290
     0
  0
SCALE
  5
8232
102
{ACAD_REACTORS
330
8222
102
}
330
8222
100
AcDbScale
 70
     0
300
6" = 1'-0"
140
6.0
141
12.0
290
     0
  0
SCALE
  5
8233
102
{ACAD_REACTORS
330
8222
102
}
330
8222
100
AcDbScale
 70
     0
300
1'-0" = 1'-0"
140
12.0
141
12.0
290
     0
  0
ACDBSECTIONVIEWSTYLE
  5
8237
102
{ACAD_XDICTIONARY
360
8291
102
}
102
{ACAD_REACTORS
330
8236
102
}
330
8236
100
AcDbModelDocViewStyle
 70
     0
  3
Imperial24
290
     0
100
AcDbSectionViewStyle
 70
     0
 71
     0
 90
       78
 71
     1
340
F
 40
0.24
340
0
340
0
 40
0.24
300
I, O, Q, S, X, Z
 40
0.48
 90
        3
 40
0.18
 90
        1
 71
     2
340
14
 90
       25
340
14
 90
       50
 40
0.24
 40
0.0
 40
0.24
 71
     3
340
F
 40
0.24
 90
        1
 40
0.75
 90
        1
300
%<\AcVar ViewType \f "%tc1">% %<\AcVar ViewSectionStartId>%-%<\AcVar ViewSectionEndId>%\PSCALE %<\AcVar ViewScale \f "%sn">%
 71
     4
300
ANSI31
 40
1.0
 90
        0
290
     0
290
     0
 90
        6
 40
0.0
 40
1.570796326794896
 40
0.2617993877991494
 40
1.308996938995747
 40
-0.2617993877991494
 40
1.832595714594046
  0
TABLESTYLE
  5
8221
102
{ACAD_XDICTIONARY
360
8258
102
}
102
{ACAD_REACTORS
330
8220
102
}
330
8220
100
AcDbTableStyle
  3
Standard
 70
     0
 71
     0
 40
0.06
 41
0.06
280
     0
281
     0
  7
STANDARD
140
0.18
170
     2
 62
     0
 63
     7
283
     0
274
    -2
284
     1
 64
     0
275
    -2
285
     1
 65
     0
276
    -2
286
     1
 66
     0
277
    -2
287
     1
 67
     0
278
    -2
288
     1
 68
     0
279
    -2
289
     1
 69
     0
  7
STANDARD
140
0.25
170
     5
 62
     0
 63
     7
283
     0
274
    -2
284
     1
 64
     0
275
    -2
285
     1
 65
     0
276
    -2
286
     1
 66
     0
277
    -2
287
     1
 67
     0
278
    -2
288
     1
 68
     0
279
    -2
289
     1
 69
     0
  7
STANDARD
140
0.18
170
     5
 62
     0
 63
     7
283
     0
274
    -2
284
     1
 64
     0
275
    -2
285
     1
 65
     0
276
    -2
286
     1
 66
     0
277
    -2
287
     1
 67
     0
278
    -2
288
     1
 68
     0
279
    -2
289
     1
 69
     0
  0
VISUALSTYLE
  5
820C
102
{ACAD_XDICTIONARY
360
8269
102
}
102
{ACAD_REACTORS
330
8206
102
}
330
8206
100
AcDbVisualStyle
  2
2dWireframe
 70
     4
 71
     0
 72
     2
 73
     0
 90
        0
 40
-0.6
 41
-30.0
 62
     5
 63
     7
 74
     1
 91
        4
 64
     7
 65
   257
 75
     1
175
     1
 42
1.0
 92
        0
 66
   257
 43
1.0
 76
     1
 77
     6
 78
     2
 67
     7
 79
     5
170
     0
171
     0
290
     0
174
     0
 93
        1
 44
0.0
173
     0
291
     0
 45
0.0
1001
ACAD
1000
AcDbSavedByObjectVersion
1070
     0
  0
VISUALSTYLE
  5
820B
102
{ACAD_XDICTIONARY
360
8267
102
}
102
{ACAD_REACTORS
330
8206
102
}
330
8206
100
AcDbVisualStyle
  2
Basic
 70
     7
 71
     1
 72
     0
 73
     1
 90
        0
 40
-0.6
 41
-30.0
 62
     5
 63
     7
 74
     0
 91
        4
 64
     7
 65
   257
 75
     1
175
     1
 42
1.0
 92
        8
 66
     7
 43
1.0
 76
     1
 77
     6
 78
     2
 67
     7
 79
     5
170
     0
171
     0
290
     0
174
     0
 93
        1
 44
0.0
173
     0
291
     1
 45
0.0
1001
ACAD
1000
AcDbSavedByObjectVersion
1070
     0
  0
VISUALSTYLE
  5
8212
102
{ACAD_XDICTIONARY
360
8275
102
}
102
{ACAD_REACTORS
330
8206
102
}
330
8206
100
AcDbVisualStyle
  2
Brighten
 70
    12
 71
     2
 72
     2
 73
     0
 90
        0
 40
-0.6
 41
-30.0
 62
     5
 63
     7
 74
     1
 91
        4
 64
     7
 65
   257
 75
     1
175
     1
 42
1.0
 92
        8
 66
     7
 43
1.0
 76
     1
 77
     6
 78
     2
 67
     7
 79
     5
170
     0
171
     0
290
     0
174
     0
 93
        1
 44
50.0
173
     0
291
     1
 45
0.0
1001
ACAD
1000
AcDbSavedByObjectVersion
1070
     0
  0
VISUALSTYLE
  5
8216
102
{ACAD_XDICTIONARY
360
827D
102
}
102
{ACAD_REACTORS
330
8206
102
}
330
8206
100
AcDbVisualStyle
  2
ColorChange
 70
    16
 71
     2
 72
     2
 73
     3
 90
        0
 40
-0.6
 41
-30.0
 62
     5
 63
     8
 74
     1
 91
        4
 64
     7
 65
   257
 75
     1
175
     1
 42
1.0
 92
        8
 66
     8
 43
1.0
 76
     1
 77
     6
 78
     2
 67
     7
 79
     5
170
     0
171
     0
290
     0
174
     0
 93
        1
 44
0.0
173
     0
291
     1
 45
0.0
1001
ACAD
1000
AcDbSavedByObjectVersion
1070
     0
  0
VISUALSTYLE
  5
820F
102
{ACAD_XDICTIONARY
360
826F
102
}
102
{ACAD_REACTORS
330
8206
102
}
330
8206
100
AcDbVisualStyle
  2
Conceptual
 70
     9
 71
     3
 72
     2
 73
     0
 90
        0
 40
-0.6
 41
-30.0
 62
     5
 63
     7
 74
     2
 91
        2
 64
     7
 65
   257
 75
     1
175
     1
 42
179.0
 92
        8
 66
     7
 43
1.0
 76
     1
 77
     6
 78
     2
 67
     7
 79
     3
170
     0
171
     0
290
     0
174
     0
 93
        1
 44
0.0
173
     0
291
     0
 45
0.0
1001
ACAD
1000
AcDbSavedByObjectVersion
1070
     0
  0
VISUALSTYLE
  5
8211
102
{ACAD_XDICTIONARY
360
8273
102
}
102
{ACAD_REACTORS
330
8206
102
}
330
8206
100
AcDbVisualStyle
  2
Dim
 70
    11
 71
     2
 72
     2
 73
     0
 90
        0
 40
-0.6
 41
-30.0
 62
     5
 63
     7
 74
     1
 91
        4
 64
     7
 65
   257
 75
     1
175
     1
 42
1.0
 92
        8
 66
     7
 43
1.0
 76
     1
 77
     6
 78
     2
 67
     7
 79
     5
170
     0
171
     0
290
     0
174
     0
 93
        1
 44
-50.0
173
     0
291
     1
 45
0.0
1001
ACAD
1000
AcDbSavedByObjectVersion
1070
     0
  0
VISUALSTYLE
  5
821E
102
{ACAD_XDICTIONARY
360
828D
102
}
102
{ACAD_REACTORS
330
8206
102
}
330
8206
100
AcDbVisualStyle
  2
EdgeColorOff
 70
    22
 71
     2
 72
     2
 73
     0
 90
        0
 40
-0.6
 41
-30.0
 62
     5
 63
     7
 74
     1
 91
        4
 64
     7
 65
   257
 75
     1
175
     1
 42
1.0
 92
        8
 66
     7
 43
1.0
 76
     1
 77
     6
 78
     2
 67
     7
 79
     5
170
     0
171
     0
290
     0
174
     0
 93
        1
 44
0.0
173
     0
291
     1
 45
0.0
1001
ACAD
1000
AcDbSavedByObjectVersion
1070
     0
  0
VISUALSTYLE
  5
8215
102
{ACAD_XDICTIONARY
360
827B
102
}
102
{ACAD_REACTORS
330
8206
102
}
330
8206
100
AcDbVisualStyle
  2
Facepattern
 70
    15
 71
     2
 72
     2
 73
     0
 90
        0
 40
-0.6
 41
-30.0
 62
     5
 63
     7
 74
     1
 91
        4
 64
     7
 65
   257
 75
     1
175
     1
 42
1.0
 92
        8
 66
     7
 43
1.0
 76
     1
 77
     6
 78
     2
 67
     7
 79
     5
170
     0
171
     0
290
     0
174
     0
 93
        1
 44
0.0
173
     0
291
     1
 45
0.0
1001
ACAD
1000
AcDbSavedByObjectVersion
1070
     0
  0
VISUALSTYLE
  5
8207
102
{ACAD_XDICTIONARY
360
825F
102
}
102
{ACAD_REACTORS
330
8206
102
}
330
8206
100
AcDbVisualStyle
  2
Flat
 70
     0
 71
     2
 72
     1
 73
     1
 90
        2
 40
-0.6
 41
30.0
 62
     5
 63
     7
 74
     0
 91
        0
 64
     7
 65
   257
 75
     1
175
     1
 42
1.0
 92
        8
 66
     7
 43
1.0
 76
     1
 77
     6
 78
     2
 67
     7
 79
     5
170
     0
171
     0
290
     0
174
     0
 93
       13
 44
0.0
173
     0
291
     1
 45
0.0
1001
ACAD
1000
AcDbSavedByObjectVersion
1070
     0
  0
VISUALSTYLE
  5
8208
102
{ACAD_XDICTIONARY
360
8261
102
}
102
{ACAD_REACTORS
330
8206
102
}
330
8206
100
AcDbVisualStyle
  2
FlatWithEdges
 70
     1
 71
     2
 72
     1
 73
     1
 90
        2
 40
-0.6
 41
30.0
 62
     5
 63
     7
 74
     1
 91
        0
 64
     7
 65
   257
 75
     1
175
     1
 42
1.0
 92
        0
 66
   257
 43
1.0
 76
     1
 77
     6
 78
     2
 67
     7
 79
     5
170
     0
171
     0
290
     0
174
     0
 93
       13
 44
0.0
173
     0
291
     1
 45
0.0
1001
ACAD
1000
AcDbSavedByObjectVersion
1070
     0
  0
VISUALSTYLE
  5
8209
102
{ACAD_XDICTIONARY
360
8263
102
}
102
{ACAD_REACTORS
330
8206
102
}
330
8206
100
AcDbVisualStyle
  2
Gouraud
 70
     2
 71
     2
 72
     2
 73
     1
 90
        2
 40
-0.6
 41
30.0
 62
     5
 63
     7
 74
     0
 91
        0
 64
     7
 65
   257
 75
     1
175
     1
 42
1.0
 92
        0
 66
     7
 43
1.0
 76
     1
 77
     6
 78
     2
 67
     7
 79
     5
170
     0
171
     0
290
     0
174
     0
 93
       13
 44
0.0
173
     0
291
     1
 45
0.0
1001
ACAD
1000
AcDbSavedByObjectVersion
1070
     0
  0
VISUALSTYLE
  5
820A
102
{ACAD_XDICTIONARY
360
8265
102
}
102
{ACAD_REACTORS
330
8206
102
}
330
8206
100
AcDbVisualStyle
  2
GouraudWithEdges
 70
     3
 71
     2
 72
     2
 73
     1
 90
        2
 40
-0.6
 41
30.0
 62
     5
 63
     7
 74
     1
 91
        0
 64
     7
 65
   257
 75
     1
175
     1
 42
1.0
 92
        0
 66
   257
 43
1.0
 76
     1
 77
     6
 78
     2
 67
     7
 79
     5
170
     0
171
     0
290
     0
174
     0
 93
       13
 44
0.0
173
     0
291
     1
 45
0.0
1001
ACAD
1000
AcDbSavedByObjectVersion
1070
     0
  0
VISUALSTYLE
  5
820E
102
{ACAD_XDICTIONARY
360
826D
102
}
102
{ACAD_REACTORS
330
8206
102
}
330
8206
100
AcDbVisualStyle
  2
Hidden
 70
     6
 71
     1
 72
     2
 73
     2
 90
        0
 40
-0.6
 41
-30.0
 62
     5
 63
     7
 74
     2
 91
        2
 64
     7
 65
   257
 75
     2
175
     1
 42
40.0
 92
        0
 66
   257
 43
1.0
 76
     1
 77
     6
 78
     2
 67
     7
 79
     3
170
     0
171
     0
290
     0
174
     0
 93
        1
 44
0.0
173
     0
291
     0
 45
0.0
1001
ACAD
1000
AcDbSavedByObjectVersion
1070
     0
  0
VISUALSTYLE
  5
821C
102
{ACAD_XDICTIONARY
360
8289
102
}
102
{ACAD_REACTORS
330
8206
102
}
330
8206
100
AcDbVisualStyle
  2
JitterOff
 70
    20
 71
     2
 72
     2
 73
     0
 90
        0
 40
-0.6
 41
-30.0
 62
     5
 63
     7
 74
     1
 91
        4
 64
     7
 65
   257
 75
     1
175
     1
 42
1.0
 92
       10
 66
     7
 43
1.0
 76
     1
 77
     6
 78
     2
 67
     7
 79
     5
170
     0
171
     0
290
     0
174
     0
 93
        1
 44
0.0
173
     0
291
     1
 45
0.0
1001
ACAD
1000
AcDbSavedByObjectVersion
1070
     0
  0
VISUALSTYLE
  5
8214
102
{ACAD_XDICTIONARY
360
8279
102
}
102
{ACAD_REACTORS
330
8206
102
}
330
8206
100
AcDbVisualStyle
  2
Linepattern
 70
    14
 71
     2
 72
     2
 73
     0
 90
        0
 40
-0.6
 41
-30.0
 62
     5
 63
     7
 74
     1
 91
        4
 64
     7
 65
   257
 75
     7
175
     7
 42
1.0
 92
        8
 66
     7
 43
1.0
 76
     1
 77
     6
 78
     2
 67
     7
 79
     5
170
     0
171
     0
290
     0
174
     0
 93
        1
 44
0.0
173
     0
291
     1
 45
0.0
1001
ACAD
1000
AcDbSavedByObjectVersion
1070
     0
  0
VISUALSTYLE
  5
821D
102
{ACAD_XDICTIONARY
360
828B
102
}
102
{ACAD_REACTORS
330
8206
102
}
330
8206
100
AcDbVisualStyle
  2
OverhangOff
 70
    21
 71
     2
 72
     2
 73
     0
 90
        0
 40
-0.6
 41
-30.0
 62
     5
 63
     7
 74
     1
 91
        4
 64
     7
 65
   257
 75
     1
175
     1
 42
1.0
 92
        9
 66
     7
 43
1.0
 76
     1
 77
     6
 78
     2
 67
     7
 79
     5
170
     0
171
     0
290
     0
174
     0
 93
        1
 44
0.0
173
     0
291
     1
 45
0.0
1001
ACAD
1000
AcDbSavedByObjectVersion
1070
     0
  0
VISUALSTYLE
  5
8210
102
{ACAD_XDICTIONARY
360
8271
102
}
102
{ACAD_REACTORS
330
8206
102
}
330
8206
100
AcDbVisualStyle
  2
Realistic
 70
     8
 71
     2
 72
     3
 73
     0
 90
        2
 40
-0.6
 41
30.0
 62
     5
 63
     7
 74
     0
 91
        0
 64
     7
 65
   257
 75
     1
175
     1
 42
1.0
 92
        8
 66
   257
 43
1.0
 76
     1
 77
     6
 78
     2
 67
     7
 79
     3
170
     0
171
     0
290
     0
174
     0
 93
       13
 44
0.0
173
     0
291
     0
 45
0.0
1001
ACAD
1000
AcDbSavedByObjectVersion
1070
     0
  0
VISUALSTYLE
  5
821B
102
{ACAD_XDICTIONARY
360
8287
102
}
102
{ACAD_REACTORS
330
8206
102
}
330
8206
100
AcDbVisualStyle
  2
Shaded
 70
    27
 71
     2
 72
     2
 73
     1
 90
        2
 40
-0.6
 41
30.0
 62
     5
 63
     7
 74
     0
 91
        4
 64
     7
 65
   257
 75
     1
175
     1
 42
1.0
 92
        8
 66
   257
 43
1.0
 76
     1
 77
     6
 78
     2
 67
     8
 79
     3
170
     0
171
     0
290
     0
174
     0
 93
        5
 44
0.0
173
     0
291
     0
 45
0.0
1001
ACAD
1000
AcDbSavedByObjectVersion
1070
     0
  0
VISUALSTYLE
  5
821A
102
{ACAD_XDICTIONARY
360
8285
102
}
102
{ACAD_REACTORS
330
8206
102
}
330
8206
100
AcDbVisualStyle
  2
Shaded with edges
 70
    26
 71
     2
 72
     2
 73
     1
 90
        2
 40
-0.6
 41
30.0
 62
     5
 63
     7
 74
     1
 91
       10
 64
     7
 65
   257
 75
     2
175
     1
 42
1.0
 92
        8
 66
   257
 43
1.0
 76
     1
 77
     6
 78
     2
 67
     7
 79
     3
170
     0
171
     0
290
     0
174
     0
 93
        5
 44
0.0
173
     0
291
     0
 45
0.0
1001
ACAD
1000
AcDbSavedByObjectVersion
1070
     0
  0
VISUALSTYLE
  5
8217
102
{ACAD_XDICTIONARY
360
827F
102
}
102
{ACAD_REACTORS
330
8206
102
}
330
8206
100
AcDbVisualStyle
  2
Shades of Gray
 70
    23
 71
     2
 72
     2
 73
     3
 90
        0
 40
-0.6
 41
-30.0
 62
     5
 63
     7
 74
     2
 91
        2
 64
     7
 65
     7
 75
     1
175
     1
 42
40.0
 92
        8
 66
     7
 43
1.0
 76
     1
 77
     6
 78
     2
 67
     7
 79
     3
170
     0
171
     0
290
     0
174
     0
 93
        1
 44
0.0
173
     0
291
     0
 45
0.0
1001
ACAD
1000
AcDbSavedByObjectVersion
1070
     0
  0
VISUALSTYLE
  5
8218
102
{ACAD_XDICTIONARY
360
8281
102
}
102
{ACAD_REACTORS
330
8206
102
}
330
8206
100
AcDbVisualStyle
  2
Sketchy
 70
    24
 71
     1
 72
     2
 73
     2
 90
        0
 40
-0.6
 41
-30.0
 62
     5
 63
     7
 74
     2
 91
        2
 64
     7
 65
     7
 75
     1
175
     1
 42
40.0
 92
       11
 66
     7
 43
1.0
 76
     1
 77
     6
 78
     2
 67
     7
 79
     6
170
     0
171
     0
290
     0
174
     0
 93
        1
 44
0.0
173
     0
291
     0
 45
0.0
1001
ACAD
1000
AcDbSavedByObjectVersion
1070
     0
  0
VISUALSTYLE
  5
8213
102
{ACAD_XDICTIONARY
360
8277
102
}
102
{ACAD_REACTORS
330
8206
102
}
330
8206
100
AcDbVisualStyle
  2
Thicken
 70
    13
 71
     2
 72
     2
 73
     0
 90
        0
 40
-0.6
 41
-30.0
 62
     5
 63
     7
 74
     1
 91
        4
 64
     7
 65
   257
 75
     1
175
     1
 42
1.0
 92
       12
 66
     7
 43
1.0
 76
     1
 77
     6
 78
     2
 67
     7
 79
     5
170
     0
171
     0
290
     0
174
     0
 93
        1
 44
0.0
173
     0
291
     1
 45
0.0
1001
ACAD
1000
AcDbSavedByObjectVersion
1070
     0
  0
VISUALSTYLE
  5
820D
102
{ACAD_XDICTIONARY
360
826B
102
}
102
{ACAD_REACTORS
330
8206
102
}
330
8206
100
AcDbVisualStyle
  2
Wireframe
 70
     5
 71
     0
 72
     2
 73
     0
 90
        0
 40
-0.6
 41
-30.0
 62
     5
 63
     7
 74
     1
 91
        4
 64
     7
 65
   257
 75
     1
175
     1
 42
1.0
 92
        0
 66
   257
 43
1.0
 76
     1
 77
     6
 78
     2
 67
     7
 79
     3
170
     0
171
     0
290
     0
174
     0
 93
        1
 44
0.0
173
     0
291
     0
 45
0.0
1001
ACAD
1000
AcDbSavedByObjectVersion
1070
     0
  0
VISUALSTYLE
  5
8219
102
{ACAD_XDICTIONARY
360
8283
102
}
102
{ACAD_REACTORS
330
8206
102
}
330
8206
100
AcDbVisualStyle
  2
X-Ray
 70
    25
 71
     2
 72
     2
 73
     1
 90
        1
 40
0.5
 41
-30.0
 62
     5
 63
     7
 74
     1
 91
        0
 64
     7
 65
   257
 75
     1
175
     1
 42
1.0
 92
        8
 66
     7
 43
1.0
 76
     1
 77
     6
 78
     2
 67
     7
 79
     3
170
     0
171
     0
290
     0
174
     0
 93
       13
 44
0.0
173
     0
291
     0
 45
0.0
1001
ACAD
1000
AcDbSavedByObjectVersion
1070
     0
  0
DICTIONARYVAR
  5
8252
102
{ACAD_REACTORS
330
824D
102
}
330
824D
100
DictionaryVariables
280
     0
  1
1:1
  0
DICTIONARYVAR
  5
824F
102
{ACAD_REACTORS
330
824D
102
}
330
824D
100
DictionaryVariables
280
     0
  1
STANDARD
  0
DICTIONARYVAR
  5
824E
102
{ACAD_REACTORS
330
824D
102
}
330
824D
100
DictionaryVariables
280
     0
  1
STANDARD
  0
DICTIONARYVAR
  5
8250
102
{ACAD_REACTORS
330
824D
102
}
330
824D
100
DictionaryVariables
280
     0
  1
Imperial24
  0
DICTIONARYVAR
  5
8251
102
{ACAD_REACTORS
330
824D
102
}
330
824D
100
DictionaryVariables
280
     0
  1
Imperial24
  0
DICTIONARYVAR
  5
8255
102
{ACAD_REACTORS
330
824D
102
}
330
824D
100
DictionaryVariables
280
     0
  1
1
  0
DICTIONARYVAR
  5
8254
102
{ACAD_REACTORS
330
824D
102
}
330
824D
100
DictionaryVariables
280
     0
  1
0
  0
DICTIONARYVAR
  5
8253
102
{ACAD_REACTORS
330
824D
102
}
330
824D
100
DictionaryVariables
280
     0
  1
127
  0
DICTIONARYVAR
  5
8256
102
{ACAD_REACTORS
330
824D
102
}
330
824D
100
DictionaryVariables
280
     0
  1
2
  0
DICTIONARY
  5
8293
330
8239
100
AcDbDictionary
280
     1
281
     1
  3
ACAD_XREC_ROUNDTRIP
360
8294
  0
DICTIONARY
  5
8295
330
823A
100
AcDbDictionary
280
     1
281
     1
  3
ACAD_XREC_ROUNDTRIP
360
8296
  0
DICTIONARY
  5
8297
330
823B
100
AcDbDictionary
280
     1
281
     1
  3
ACAD_XREC_ROUNDTRIP
360
8298
  0
DICTIONARY
  5
81F7
330
81F6
100
AcDbDictionary
280
     1
281
     1
  3
ACAD_XREC_ROUNDTRIP
360
825D
  3
BUMPTILE
360
81F9
  3
DIFFUSETILE
360
81F8
  3
OPACITYTILE
360
81FC
  3
REFLECTIONTILE
360
81FB
  3
REFRACTIONTILE
360
81FD
  3
SPECULARTILE
360
81FA
  0
DICTIONARY
  5
81EF
330
81EE
100
AcDbDictionary
280
     1
281
     1
  3
ACAD_XREC_ROUNDTRIP
360
825C
  3
BUMPTILE
360
81F1
  3
DIFFUSETILE
360
81F0
  3
OPACITYTILE
360
81F4
  3
REFLECTIONTILE
360
81F3
  3
REFRACTIONTILE
360
81F5
  3
SPECULARTILE
360
81F2
  0
DICTIONARY
  5
81FF
330
81FE
100
AcDbDictionary
280
     1
281
     1
  3
ACAD_XREC_ROUNDTRIP
360
825E
  3
BUMPTILE
360
8201
  3
DIFFUSETILE
360
8200
  3
OPACITYTILE
360
8204
  3
REFLECTIONTILE
360
8203
  3
REFRACTIONTILE
360
8205
  3
SPECULARTILE
360
8202
  0
DICTIONARY
  5
8291
330
8237
100
AcDbDictionary
280
     1
281
     1
  3
ACAD_XREC_ROUNDTRIP
360
8292
  0
DICTIONARY
  5
8258
330
8221
100
AcDbDictionary
280
     1
281
     1
  3
ACAD_ROUNDTRIP_2008_TABLESTYLE_CELLSTYLEMAP
360
8259
  3
ACAD_XREC_ROUNDTRIP
360
828F
  0
DICTIONARY
  5
8269
330
820C
100
AcDbDictionary
280
     1
281
     1
  3
ACAD_XREC_ROUNDTRIP
360
826A
  0
DICTIONARY
  5
8267
330
820B
100
AcDbDictionary
280
     1
281
     1
  3
ACAD_XREC_ROUNDTRIP
360
8268
  0
DICTIONARY
  5
8275
330
8212
100
AcDbDictionary
280
     1
281
     1
  3
ACAD_XREC_ROUNDTRIP
360
8276
  0
DICTIONARY
  5
827D
330
8216
100
AcDbDictionary
280
     1
281
     1
  3
ACAD_XREC_ROUNDTRIP
360
827E
  0
DICTIONARY
  5
826F
330
820F
100
AcDbDictionary
280
     1
281
     1
  3
ACAD_XREC_ROUNDTRIP
360
8270
  0
DICTIONARY
  5
8273
330
8211
100
AcDbDictionary
280
     1
281
     1
  3
ACAD_XREC_ROUNDTRIP
360
8274
  0
DICTIONARY
  5
828D
330
821E
100
AcDbDictionary
280
     1
281
     1
  3
ACAD_XREC_ROUNDTRIP
360
828E
  0
DICTIONARY
  5
827B
330
8215
100
AcDbDictionary
280
     1
281
     1
  3
ACAD_XREC_ROUNDTRIP
360
827C
  0
DICTIONARY
  5
825F
330
8207
100
AcDbDictionary
280
     1
281
     1
  3
ACAD_XREC_ROUNDTRIP
360
8260
  0
DICTIONARY
  5
8261
330
8208
100
AcDbDictionary
280
     1
281
     1
  3
ACAD_XREC_ROUNDTRIP
360
8262
  0
DICTIONARY
  5
8263
330
8209
100
AcDbDictionary
280
     1
281
     1
  3
ACAD_XREC_ROUNDTRIP
360
8264
  0
DICTIONARY
  5
8265
330
820A
100
AcDbDictionary
280
     1
281
     1
  3
ACAD_XREC_ROUNDTRIP
360
8266
  0
DICTIONARY
  5
826D
330
820E
100
AcDbDictionary
280
     1
281
     1
  3
ACAD_XREC_ROUNDTRIP
360
826E
  0
DICTIONARY
  5
8289
330
821C
100
AcDbDictionary
280
     1
281
     1
  3
ACAD_XREC_ROUNDTRIP
360
828A
  0
DICTIONARY
  5
8279
330
8214
100
AcDbDictionary
280
     1
281
     1
  3
ACAD_XREC_ROUNDTRIP
360
827A
  0
DICTIONARY
  5
828B
330
821D
100
AcDbDictionary
280
     1
281
     1
  3
ACAD_XREC_ROUNDTRIP
360
828C
  0
DICTIONARY
  5
8271
330
8210
100
AcDbDictionary
280
     1
281
     1
  3
ACAD_XREC_ROUNDTRIP
360
8272
  0
DICTIONARY
  5
8287
330
821B
100
AcDbDictionary
280
     1
281
     1
  3
ACAD_XREC_ROUNDTRIP
360
8288
  0
DICTIONARY
  5
8285
330
821A
100
AcDbDictionary
280
     1
281
     1
  3
ACAD_XREC_ROUNDTRIP
360
8286
  0
DICTIONARY
  5
827F
330
8217
100
AcDbDictionary
280
     1
281
     1
  3
ACAD_XREC_ROUNDTRIP
360
8280
  0
DICTIONARY
  5
8281
330
8218
100
AcDbDictionary
280
     1
281
     1
  3
ACAD_XREC_ROUNDTRIP
360
8282
  0
DICTIONARY
  5
8277
330
8213
100
AcDbDictionary
280
     1
281
     1
  3
ACAD_XREC_ROUNDTRIP
360
8278
  0
DICTIONARY
  5
826B
330
820D
100
AcDbDictionary
280
     1
281
     1
  3
ACAD_XREC_ROUNDTRIP
360
826C
  0
DICTIONARY
  5
8283
330
8219
100
AcDbDictionary
280
     1
281
     1
  3
ACAD_XREC_ROUNDTRIP
360
8284
  0
XRECORD
  5
8294
102
{ACAD_REACTORS
330
8293
102
}
330
8293
100
AcDbXrecord
280
     1
102
DISPLAYNAME
  1
Imperial24
102
FLAGS
 90
        0
  0
XRECORD
  5
8296
102
{ACAD_REACTORS
330
8295
102
}
330
8295
100
AcDbXrecord
280
     1
102
SHADEPLOT
 70
     0
102
SHADEPLOTRESLEVEL
 70
     2
102
SHADEPLOTCUSTOMDPI
 70
   300
  0
XRECORD
  5
8298
102
{ACAD_REACTORS
330
8297
102
}
330
8297
100
AcDbXrecord
280
     1
102
SHADEPLOT
 70
     0
102
SHADEPLOTRESLEVEL
 70
     2
102
SHADEPLOTCUSTOMDPI
 70
   300
  0
XRECORD
  5
825D
102
{ACAD_REACTORS
330
81F7
102
}
330
81F7
100
AcDbXrecord
280
     1
102
MATERIAL
148
0.0
149
0.0
149
0.0
 93
        0
 94
      127
282
     0
 72
     0
 77
     0
171
     0
175
     0
179
     0
273
     0
  0
XRECORD
  5
81F9
102
{ACAD_REACTORS
330
81F7
102
}
330
81F7
100
AcDbXrecord
280
     1
270
     1
271
     1
  0
XRECORD
  5
81F8
102
{ACAD_REACTORS
330
81F7
102
}
330
81F7
100
AcDbXrecord
280
     1
270
     1
271
     1
  0
XRECORD
  5
81FC
102
{ACAD_REACTORS
330
81F7
102
}
330
81F7
100
AcDbXrecord
280
     1
270
     1
271
     1
  0
XRECORD
  5
81FB
102
{ACAD_REACTORS
330
81F7
102
}
330
81F7
100
AcDbXrecord
280
     1
270
     1
271
     1
  0
XRECORD
  5
81FD
102
{ACAD_REACTORS
330
81F7
102
}
330
81F7
100
AcDbXrecord
280
     1
270
     1
271
     1
  0
XRECORD
  5
81FA
102
{ACAD_REACTORS
330
81F7
102
}
330
81F7
100
AcDbXrecord
280
     1
270
     1
271
     1
  0
XRECORD
  5
825C
102
{ACAD_REACTORS
330
81EF
102
}
330
81EF
100
AcDbXrecord
280
     1
102
MATERIAL
148
0.0
149
0.0
149
0.0
 93
        0
 94
      127
282
     0
 72
     0
 77
     0
171
     0
175
     0
179
     0
273
     0
  0
XRECORD
  5
81F1
102
{ACAD_REACTORS
330
81EF
102
}
330
81EF
100
AcDbXrecord
280
     1
270
     1
271
     1
  0
XRECORD
  5
81F0
102
{ACAD_REACTORS
330
81EF
102
}
330
81EF
100
AcDbXrecord
280
     1
270
     1
271
     1
  0
XRECORD
  5
81F4
102
{ACAD_REACTORS
330
81EF
102
}
330
81EF
100
AcDbXrecord
280
     1
270
     1
271
     1
  0
XRECORD
  5
81F3
102
{ACAD_REACTORS
330
81EF
102
}
330
81EF
100
AcDbXrecord
280
     1
270
     1
271
     1
  0
XRECORD
  5
81F5
102
{ACAD_REACTORS
330
81EF
102
}
330
81EF
100
AcDbXrecord
280
     1
270
     1
271
     1
  0
XRECORD
  5
81F2
102
{ACAD_REACTORS
330
81EF
102
}
330
81EF
100
AcDbXrecord
280
     1
270
     1
271
     1
  0
XRECORD
  5
825E
102
{ACAD_REACTORS
330
81FF
102
}
330
81FF
100
AcDbXrecord
280
     1
102
MATERIAL
148
0.0
149
0.0
149
0.0
 93
        0
 94
      127
282
     0
 72
     0
 77
     0
171
     0
175
     0
179
     0
273
     0
  0
XRECORD
  5
8201
102
{ACAD_REACTORS
330
81FF
102
}
330
81FF
100
AcDbXrecord
280
     1
270
     1
271
     1
  0
XRECORD
  5
8200
102
{ACAD_REACTORS
330
81FF
102
}
330
81FF
100
AcDbXrecord
280
     1
270
     1
271
     1
  0
XRECORD
  5
8204
102
{ACAD_REACTORS
330
81FF
102
}
330
81FF
100
AcDbXrecord
280
     1
270
     1
271
     1
  0
XRECORD
  5
8203
102
{ACAD_REACTORS
330
81FF
102
}
330
81FF
100
AcDbXrecord
280
     1
270
     1
271
     1
  0
XRECORD
  5
8205
102
{ACAD_REACTORS
330
81FF
102
}
330
81FF
100
AcDbXrecord
280
     1
270
     1
271
     1
  0
XRECORD
  5
8202
102
{ACAD_REACTORS
330
81FF
102
}
330
81FF
100
AcDbXrecord
280
     1
270
     1
271
     1
  0
XRECORD
  5
8292
102
{ACAD_REACTORS
330
8291
102
}
330
8291
100
AcDbXrecord
280
     1
102
DISPLAYNAME
  1
Imperial24
102
FLAGS
 90
        0
  0
CELLSTYLEMAP
  5
8259
102
{ACAD_REACTORS
330
8258
102
}
330
8258
100
AcDbCellStyleMap
 90
        3
300
CELLSTYLE
  1
TABLEFORMAT_BEGIN
 90
        5
170
     1
 91
        0
 92
    32768
 62
   257
 93
        1
300
CONTENTFORMAT
  1
CONTENTFORMAT_BEGIN
 90
        0
 91
        0
 92
      512
 93
        0
300

 40
0.0
140
1.0
 94
        5
 62
     0
340
F
144
0.25
309
CONTENTFORMAT_END
171
     0
 94
        0
309
TABLEFORMAT_END
  1
CELLSTYLE_BEGIN
 90
        1
 91
        1
300
_TITLE
309
CELLSTYLE_END
300
CELLSTYLE
  1
TABLEFORMAT_BEGIN
 90
        5
170
     1
 91
        0
 92
        0
 62
   257
 93
        1
300
CONTENTFORMAT
  1
CONTENTFORMAT_BEGIN
 90
        0
 91
        0
 92
      512
 93
        0
300

 40
0.0
140
1.0
 94
        5
 62
     0
340
F
144
0.18
309
CONTENTFORMAT_END
171
     0
 94
        0
309
TABLEFORMAT_END
  1
CELLSTYLE_BEGIN
 90
        2
 91
        1
300
_HEADER
309
CELLSTYLE_END
300
CELLSTYLE
  1
TABLEFORMAT_BEGIN
 90
        5
170
     1
 91
        0
 92
        0
 62
   257
 93
        1
300
CONTENTFORMAT
  1
CONTENTFORMAT_BEGIN
 90
        0
 91
        0
 92
      512
 93
        0
300

 40
0.0
140
1.0
 94
        2
 62
     0
340
F
144
0.18
309
CONTENTFORMAT_END
171
     0
 94
        0
309
TABLEFORMAT_END
  1
CELLSTYLE_BEGIN
 90
        3
 91
        2
300
_DATA
309
CELLSTYLE_END
  0
XRECORD
  5
828F
102
{ACAD_REACTORS
330
8258
102
}
330
8258
100
AcDbXrecord
280
     1
102
ACAD_ROUNDTRIP_PRE2007_TABLESTYLE
 90
      512
 91
        0
  1

 92
      512
 93
        0
  2

 94
      512
 95
        0
  3

  0
XRECORD
  5
826A
102
{ACAD_REACTORS
330
8269
102
}
330
8269
100
AcDbXrecord
280
     1
102
RTVSPost2010Prop28
280
     1
102
RTVSPost2010PropOp28
 70
     1
102
RTVSPost2010Prop29
280
     1
102
RTVSPost2010PropOp29
 70
     1
102
RTVSPost2010Prop30
280
     0
102
RTVSPost2010PropOp30
 70
     1
102
RTVSPost2010Prop31
280
     0
102
RTVSPost2010PropOp31
 70
     1
102
RTVSPost2010Prop32
280
     0
102
RTVSPost2010PropOp32
 70
     1
102
RTVSPost2010Prop33
280
     0
102
RTVSPost2010PropOp33
 70
     1
102
RTVSPost2010Prop34
280
     0
102
RTVSPost2010PropOp34
 70
     1
102
RTVSPost2010Prop35
280
     0
102
RTVSPost2010PropOp35
 70
     1
102
RTVSPost2010Prop36
280
     0
102
RTVSPost2010PropOp36
 70
     1
102
RTVSPost2010Prop37
 90
       50
102
RTVSPost2010PropOp37
 70
     1
102
RTVSPost2010Prop38
140
0.0
102
RTVSPost2010PropOp38
 70
     1
102
RTVSPost2010Prop39
140
1.0
102
RTVSPost2010PropOp39
 70
     1
102
RTVSPost2010Prop40
 90
        0
102
RTVSPost2010PropOp40
 70
     1
102
RTVSPost2010Prop41ColorIndex
 90
       18
102
RTVSPost2010Prop41ColorRGB
 90
        0
102
RTVSPost2010PropOp41
 70
     1
102
RTVSPost2010Prop42
 90
       50
102
RTVSPost2010PropOp42
 70
     1
102
RTVSPost2010Prop43
 90
        3
102
RTVSPost2010PropOp43
 70
     1
102
RTVSPost2010Prop44ColorIndex
 90
        5
102
RTVSPost2010Prop44ColorRGB
 90
      255
102
RTVSPost2010PropOp44
 70
     1
102
RTVSPost2010Prop45
280
     0
102
RTVSPost2010PropOp45
 70
     1
102
RTVSPost2010Prop46
 90
       50
102
RTVSPost2010PropOp46
 70
     1
102
RTVSPost2010Prop47
 90
       50
102
RTVSPost2010PropOp47
 70
     1
102
RTVSPost2010Prop48
 90
       50
102
RTVSPost2010PropOp48
 70
     1
102
RTVSPost2010Prop49
280
     0
102
RTVSPost2010PropOp49
 70
     1
102
RTVSPost2010Prop50
 90
       50
102
RTVSPost2010PropOp50
 70
     1
102
RTVSPost2010Prop51ColorIndex
 90
      256
102
RTVSPost2010Prop51ColorRGB
 90
-16777216
102
RTVSPost2010PropOp51
 70
     0
102
RTVSPost2010Prop52
140
1.0
102
RTVSPost2010PropOp52
 70
     0
102
RTVSPost2010Prop53
 90
        2
102
RTVSPost2010PropOp53
 70
     1
102
RTVSPost2010Prop54
  1
strokes_ogs.tif
102
RTVSPost2010PropOp54
 70
     1
102
RTVSPost2010Prop55
280
     0
102
RTVSPost2010PropOp55
 70
     1
102
RTVSPost2010Prop56
140
1.0
102
RTVSPost2010PropOp56
 70
     1
102
RTVSPost2010Prop57
140
1.0
102
RTVSPost2010PropOp57
 70
     1
102
RTVSPropertyOp0
 70
     1
102
RTVSPropertyOp1
 70
     1
102
RTVSPropertyOp2
 70
     1
102
RTVSPropertyOp3
 70
     1
102
RTVSPropertyOp4
 70
     1
102
RTVSPropertyOp5
 70
     1
102
RTVSPropertyOp6
 70
     1
102
RTVSPropertyOp7
 70
     1
102
RTVSPropertyOp8
 70
     1
102
RTVSPropertyOp9
 70
     1
102
RTVSPropertyOp10
 70
     1
102
RTVSPropertyOp11
 70
     1
102
RTVSPropertyOp12
 70
     1
102
RTVSPropertyOp13
 70
     1
102
RTVSPropertyOp14
 70
     1
102
RTVSPropertyOp15
 70
     1
102
RTVSPropertyOp16
 70
     1
102
RTVSPropertyOp17
 70
     1
102
RTVSPropertyOp18
 70
     1
102
RTVSPropertyOp19
 70
     1
102
RTVSPropertyOp20
 70
     1
102
RTVSPropertyOp21
 70
     1
102
RTVSPropertyOp22
 70
     1
102
RTVSPropertyOp23
 70
     1
102
RTVSPropertyOp24
 70
     1
102
RTVSPropertyOp25
 70
     1
102
RTVSPropertyOp26
 70
     1
102
RTVSPropertyOp27
 70
     1
102
RTVSPropertyOp28
 70
     1
102
RTVSPropertyOp29
 70
     1
102
RTVSPropertyOp30
 70
     1
102
RTVSPropertyOp31
 70
     1
102
RTVSPropertyOp32
 70
     1
102
RTVSPropertyOp33
 70
     1
102
RTVSPropertyOp34
 70
     1
102
RTVSPropertyOp35
 70
     1
102
RTVSPropertyOp36
 70
     1
102
RTVSPropertyOp37
 70
     1
102
RTVSPropertyOp38
 70
     1
102
RTVSPropertyOp39
 70
     1
102
RTVSPropertyOp40
 70
     1
102
RTVSPropertyOp41
 70
     1
102
RTVSPropertyOp42
 70
     1
102
RTVSPropertyOp43
 70
     1
102
RTVSPropertyOp44
 70
     1
102
RTVSPropertyOp45
 70
     1
102
RTVSPropertyOp46
 70
     1
102
RTVSPropertyOp47
 70
     1
102
RTVSPropertyOp48
 70
     1
102
RTVSPropertyOp49
 70
     1
102
RTVSPropertyOp50
 70
     1
102
RTVSPropertyOp51
 70
     0
102
RTVSPropertyOp52
 70
     0
102
RTVSPropertyOp53
 70
     1
102
RTVSPropertyOp54
 70
     1
102
RTVSPropertyOp55
 70
     1
102
RTVSPropertyOp56
 70
     1
102
RTVSPropertyOp57
 70
     1
102
RTVSPropertyOp58
 70
     1
102
RTVSPropertyOp59
 70
     1
102
RTVSPropertyOp60
 70
     1
102
RTVSPropertyOp61
 70
     1
102
RTVSPropertyOp62
 70
     1
  0
XRECORD
  5
8268
102
{ACAD_REACTORS
330
8267
102
}
330
8267
100
AcDbXrecord
280
     1
102
RTVSPost2010Prop28
280
     0
102
RTVSPost2010PropOp28
 70
     1
102
RTVSPost2010Prop29
280
     1
102
RTVSPost2010PropOp29
 70
     1
102
RTVSPost2010Prop30
280
     1
102
RTVSPost2010PropOp30
 70
     1
102
RTVSPost2010Prop31
280
     0
102
RTVSPost2010PropOp31
 70
     1
102
RTVSPost2010Prop32
280
     0
102
RTVSPost2010PropOp32
 70
     1
102
RTVSPost2010Prop33
280
     0
102
RTVSPost2010PropOp33
 70
     1
102
RTVSPost2010Prop34
280
     0
102
RTVSPost2010PropOp34
 70
     1
102
RTVSPost2010Prop35
280
     0
102
RTVSPost2010PropOp35
 70
     1
102
RTVSPost2010Prop36
280
     0
102
RTVSPost2010PropOp36
 70
     1
102
RTVSPost2010Prop37
 90
       50
102
RTVSPost2010PropOp37
 70
     1
102
RTVSPost2010Prop38
140
0.0
102
RTVSPost2010PropOp38
 70
     1
102
RTVSPost2010Prop39
140
1.0
102
RTVSPost2010PropOp39
 70
     1
102
RTVSPost2010Prop40
 90
        0
102
RTVSPost2010PropOp40
 70
     1
102
RTVSPost2010Prop41ColorIndex
 90
       18
102
RTVSPost2010Prop41ColorRGB
 90
        0
102
RTVSPost2010PropOp41
 70
     1
102
RTVSPost2010Prop42
 90
       50
102
RTVSPost2010PropOp42
 70
     1
102
RTVSPost2010Prop43
 90
        3
102
RTVSPost2010PropOp43
 70
     1
102
RTVSPost2010Prop44ColorIndex
 90
        5
102
RTVSPost2010Prop44ColorRGB
 90
      255
102
RTVSPost2010PropOp44
 70
     1
102
RTVSPost2010Prop45
280
     0
102
RTVSPost2010PropOp45
 70
     1
102
RTVSPost2010Prop46
 90
       50
102
RTVSPost2010PropOp46
 70
     1
102
RTVSPost2010Prop47
 90
       50
102
RTVSPost2010PropOp47
 70
     1
102
RTVSPost2010Prop48
 90
       50
102
RTVSPost2010PropOp48
 70
     1
102
RTVSPost2010Prop49
280
     0
102
RTVSPost2010PropOp49
 70
     1
102
RTVSPost2010Prop50
 90
       50
102
RTVSPost2010PropOp50
 70
     1
102
RTVSPost2010Prop51ColorIndex
 90
      256
102
RTVSPost2010Prop51ColorRGB
 90
-16777216
102
RTVSPost2010PropOp51
 70
     0
102
RTVSPost2010Prop52
140
1.0
102
RTVSPost2010PropOp52
 70
     0
102
RTVSPost2010Prop53
 90
        2
102
RTVSPost2010PropOp53
 70
     1
102
RTVSPost2010Prop54
  1
strokes_ogs.tif
102
RTVSPost2010PropOp54
 70
     1
102
RTVSPost2010Prop55
280
     0
102
RTVSPost2010PropOp55
 70
     1
102
RTVSPost2010Prop56
140
1.0
102
RTVSPost2010PropOp56
 70
     1
102
RTVSPost2010Prop57
140
1.0
102
RTVSPost2010PropOp57
 70
     1
102
RTVSPropertyOp0
 70
     1
102
RTVSPropertyOp1
 70
     1
102
RTVSPropertyOp2
 70
     1
102
RTVSPropertyOp3
 70
     1
102
RTVSPropertyOp4
 70
     1
102
RTVSPropertyOp5
 70
     1
102
RTVSPropertyOp6
 70
     1
102
RTVSPropertyOp7
 70
     1
102
RTVSPropertyOp8
 70
     1
102
RTVSPropertyOp9
 70
     1
102
RTVSPropertyOp10
 70
     1
102
RTVSPropertyOp11
 70
     1
102
RTVSPropertyOp12
 70
     1
102
RTVSPropertyOp13
 70
     1
102
RTVSPropertyOp14
 70
     1
102
RTVSPropertyOp15
 70
     1
102
RTVSPropertyOp16
 70
     1
102
RTVSPropertyOp17
 70
     1
102
RTVSPropertyOp18
 70
     1
102
RTVSPropertyOp19
 70
     1
102
RTVSPropertyOp20
 70
     1
102
RTVSPropertyOp21
 70
     1
102
RTVSPropertyOp22
 70
     1
102
RTVSPropertyOp23
 70
     1
102
RTVSPropertyOp24
 70
     1
102
RTVSPropertyOp25
 70
     1
102
RTVSPropertyOp26
 70
     1
102
RTVSPropertyOp27
 70
     1
102
RTVSPropertyOp28
 70
     1
102
RTVSPropertyOp29
 70
     1
102
RTVSPropertyOp30
 70
     1
102
RTVSPropertyOp31
 70
     1
102
RTVSPropertyOp32
 70
     1
102
RTVSPropertyOp33
 70
     1
102
RTVSPropertyOp34
 70
     1
102
RTVSPropertyOp35
 70
     1
102
RTVSPropertyOp36
 70
     1
102
RTVSPropertyOp37
 70
     1
102
RTVSPropertyOp38
 70
     1
102
RTVSPropertyOp39
 70
     1
102
RTVSPropertyOp40
 70
     1
102
RTVSPropertyOp41
 70
     1
102
RTVSPropertyOp42
 70
     1
102
RTVSPropertyOp43
 70
     1
102
RTVSPropertyOp44
 70
     1
102
RTVSPropertyOp45
 70
     1
102
RTVSPropertyOp46
 70
     1
102
RTVSPropertyOp47
 70
     1
102
RTVSPropertyOp48
 70
     1
102
RTVSPropertyOp49
 70
     1
102
RTVSPropertyOp50
 70
     1
102
RTVSPropertyOp51
 70
     0
102
RTVSPropertyOp52
 70
     0
102
RTVSPropertyOp53
 70
     1
102
RTVSPropertyOp54
 70
     1
102
RTVSPropertyOp55
 70
     1
102
RTVSPropertyOp56
 70
     1
102
RTVSPropertyOp57
 70
     1
102
RTVSPropertyOp58
 70
     1
102
RTVSPropertyOp59
 70
     1
102
RTVSPropertyOp60
 70
     1
102
RTVSPropertyOp61
 70
     1
102
RTVSPropertyOp62
 70
     1
  0
XRECORD
  5
8276
102
{ACAD_REACTORS
330
8275
102
}
330
8275
100
AcDbXrecord
280
     1
102
RTVSPost2010Prop28
280
     0
102
RTVSPost2010PropOp28
 70
     1
102
RTVSPost2010Prop29
280
     1
102
RTVSPost2010PropOp29
 70
     1
102
RTVSPost2010Prop30
280
     1
102
RTVSPost2010PropOp30
 70
     1
102
RTVSPost2010Prop31
280
     0
102
RTVSPost2010PropOp31
 70
     1
102
RTVSPost2010Prop32
280
     0
102
RTVSPost2010PropOp32
 70
     1
102
RTVSPost2010Prop33
280
     0
102
RTVSPost2010PropOp33
 70
     1
102
RTVSPost2010Prop34
280
     0
102
RTVSPost2010PropOp34
 70
     1
102
RTVSPost2010Prop35
280
     0
102
RTVSPost2010PropOp35
 70
     1
102
RTVSPost2010Prop36
280
     0
102
RTVSPost2010PropOp36
 70
     1
102
RTVSPost2010Prop37
 90
       50
102
RTVSPost2010PropOp37
 70
     1
102
RTVSPost2010Prop38
140
0.0
102
RTVSPost2010PropOp38
 70
     1
102
RTVSPost2010Prop39
140
1.0
102
RTVSPost2010PropOp39
 70
     1
102
RTVSPost2010Prop40
 90
        0
102
RTVSPost2010PropOp40
 70
     1
102
RTVSPost2010Prop41ColorIndex
 90
       18
102
RTVSPost2010Prop41ColorRGB
 90
        0
102
RTVSPost2010PropOp41
 70
     1
102
RTVSPost2010Prop42
 90
       50
102
RTVSPost2010PropOp42
 70
     1
102
RTVSPost2010Prop43
 90
        3
102
RTVSPost2010PropOp43
 70
     1
102
RTVSPost2010Prop44ColorIndex
 90
        5
102
RTVSPost2010Prop44ColorRGB
 90
      255
102
RTVSPost2010PropOp44
 70
     1
102
RTVSPost2010Prop45
280
     0
102
RTVSPost2010PropOp45
 70
     1
102
RTVSPost2010Prop46
 90
       50
102
RTVSPost2010PropOp46
 70
     1
102
RTVSPost2010Prop47
 90
       50
102
RTVSPost2010PropOp47
 70
     1
102
RTVSPost2010Prop48
 90
       50
102
RTVSPost2010PropOp48
 70
     1
102
RTVSPost2010Prop49
280
     0
102
RTVSPost2010PropOp49
 70
     1
102
RTVSPost2010Prop50
 90
       50
102
RTVSPost2010PropOp50
 70
     1
102
RTVSPost2010Prop51ColorIndex
 90
      256
102
RTVSPost2010Prop51ColorRGB
 90
-16777216
102
RTVSPost2010PropOp51
 70
     0
102
RTVSPost2010Prop52
140
1.0
102
RTVSPost2010PropOp52
 70
     0
102
RTVSPost2010Prop53
 90
        2
102
RTVSPost2010PropOp53
 70
     1
102
RTVSPost2010Prop54
  1
strokes_ogs.tif
102
RTVSPost2010PropOp54
 70
     1
102
RTVSPost2010Prop55
280
     0
102
RTVSPost2010PropOp55
 70
     1
102
RTVSPost2010Prop56
140
1.0
102
RTVSPost2010PropOp56
 70
     1
102
RTVSPost2010Prop57
140
1.0
102
RTVSPost2010PropOp57
 70
     1
102
RTVSPropertyOp0
 70
     1
102
RTVSPropertyOp1
 70
     1
102
RTVSPropertyOp2
 70
     1
102
RTVSPropertyOp3
 70
     1
102
RTVSPropertyOp4
 70
     1
102
RTVSPropertyOp5
 70
     1
102
RTVSPropertyOp6
 70
     1
102
RTVSPropertyOp7
 70
     1
102
RTVSPropertyOp8
 70
     1
102
RTVSPropertyOp9
 70
     1
102
RTVSPropertyOp10
 70
     1
102
RTVSPropertyOp11
 70
     1
102
RTVSPropertyOp12
 70
     1
102
RTVSPropertyOp13
 70
     1
102
RTVSPropertyOp14
 70
     1
102
RTVSPropertyOp15
 70
     1
102
RTVSPropertyOp16
 70
     1
102
RTVSPropertyOp17
 70
     1
102
RTVSPropertyOp18
 70
     1
102
RTVSPropertyOp19
 70
     1
102
RTVSPropertyOp20
 70
     1
102
RTVSPropertyOp21
 70
     1
102
RTVSPropertyOp22
 70
     1
102
RTVSPropertyOp23
 70
     1
102
RTVSPropertyOp24
 70
     1
102
RTVSPropertyOp25
 70
     1
102
RTVSPropertyOp26
 70
     1
102
RTVSPropertyOp27
 70
     1
102
RTVSPropertyOp28
 70
     1
102
RTVSPropertyOp29
 70
     1
102
RTVSPropertyOp30
 70
     1
102
RTVSPropertyOp31
 70
     1
102
RTVSPropertyOp32
 70
     1
102
RTVSPropertyOp33
 70
     1
102
RTVSPropertyOp34
 70
     1
102
RTVSPropertyOp35
 70
     1
102
RTVSPropertyOp36
 70
     1
102
RTVSPropertyOp37
 70
     1
102
RTVSPropertyOp38
 70
     1
102
RTVSPropertyOp39
 70
     1
102
RTVSPropertyOp40
 70
     1
102
RTVSPropertyOp41
 70
     1
102
RTVSPropertyOp42
 70
     1
102
RTVSPropertyOp43
 70
     1
102
RTVSPropertyOp44
 70
     1
102
RTVSPropertyOp45
 70
     1
102
RTVSPropertyOp46
 70
     1
102
RTVSPropertyOp47
 70
     1
102
RTVSPropertyOp48
 70
     1
102
RTVSPropertyOp49
 70
     1
102
RTVSPropertyOp50
 70
     1
102
RTVSPropertyOp51
 70
     0
102
RTVSPropertyOp52
 70
     0
102
RTVSPropertyOp53
 70
     1
102
RTVSPropertyOp54
 70
     1
102
RTVSPropertyOp55
 70
     1
102
RTVSPropertyOp56
 70
     1
102
RTVSPropertyOp57
 70
     1
102
RTVSPropertyOp58
 70
     1
102
RTVSPropertyOp59
 70
     1
102
RTVSPropertyOp60
 70
     1
102
RTVSPropertyOp61
 70
     1
102
RTVSPropertyOp62
 70
     1
  0
XRECORD
  5
827E
102
{ACAD_REACTORS
330
827D
102
}
330
827D
100
AcDbXrecord
280
     1
102
RTVSPost2010Prop28
280
     0
102
RTVSPost2010PropOp28
 70
     1
102
RTVSPost2010Prop29
280
     1
102
RTVSPost2010PropOp29
 70
     1
102
RTVSPost2010Prop30
280
     1
102
RTVSPost2010PropOp30
 70
     1
102
RTVSPost2010Prop31
280
     0
102
RTVSPost2010PropOp31
 70
     1
102
RTVSPost2010Prop32
280
     0
102
RTVSPost2010PropOp32
 70
     1
102
RTVSPost2010Prop33
280
     0
102
RTVSPost2010PropOp33
 70
     1
102
RTVSPost2010Prop34
280
     0
102
RTVSPost2010PropOp34
 70
     1
102
RTVSPost2010Prop35
280
     0
102
RTVSPost2010PropOp35
 70
     1
102
RTVSPost2010Prop36
280
     0
102
RTVSPost2010PropOp36
 70
     1
102
RTVSPost2010Prop37
 90
       50
102
RTVSPost2010PropOp37
 70
     1
102
RTVSPost2010Prop38
140
0.0
102
RTVSPost2010PropOp38
 70
     1
102
RTVSPost2010Prop39
140
1.0
102
RTVSPost2010PropOp39
 70
     1
102
RTVSPost2010Prop40
 90
        0
102
RTVSPost2010PropOp40
 70
     1
102
RTVSPost2010Prop41ColorIndex
 90
       18
102
RTVSPost2010Prop41ColorRGB
 90
        0
102
RTVSPost2010PropOp41
 70
     1
102
RTVSPost2010Prop42
 90
       50
102
RTVSPost2010PropOp42
 70
     1
102
RTVSPost2010Prop43
 90
        3
102
RTVSPost2010PropOp43
 70
     1
102
RTVSPost2010Prop44ColorIndex
 90
        5
102
RTVSPost2010Prop44ColorRGB
 90
      255
102
RTVSPost2010PropOp44
 70
     1
102
RTVSPost2010Prop45
280
     0
102
RTVSPost2010PropOp45
 70
     1
102
RTVSPost2010Prop46
 90
       50
102
RTVSPost2010PropOp46
 70
     1
102
RTVSPost2010Prop47
 90
       50
102
RTVSPost2010PropOp47
 70
     1
102
RTVSPost2010Prop48
 90
       50
102
RTVSPost2010PropOp48
 70
     1
102
RTVSPost2010Prop49
280
     0
102
RTVSPost2010PropOp49
 70
     1
102
RTVSPost2010Prop50
 90
       50
102
RTVSPost2010PropOp50
 70
     1
102
RTVSPost2010Prop51ColorIndex
 90
      256
102
RTVSPost2010Prop51ColorRGB
 90
-16777216
102
RTVSPost2010PropOp51
 70
     0
102
RTVSPost2010Prop52
140
1.0
102
RTVSPost2010PropOp52
 70
     0
102
RTVSPost2010Prop53
 90
        2
102
RTVSPost2010PropOp53
 70
     1
102
RTVSPost2010Prop54
  1
strokes_ogs.tif
102
RTVSPost2010PropOp54
 70
     1
102
RTVSPost2010Prop55
280
     0
102
RTVSPost2010PropOp55
 70
     1
102
RTVSPost2010Prop56
140
1.0
102
RTVSPost2010PropOp56
 70
     1
102
RTVSPost2010Prop57
140
1.0
102
RTVSPost2010PropOp57
 70
     1
102
RTVSPropertyOp0
 70
     1
102
RTVSPropertyOp1
 70
     1
102
RTVSPropertyOp2
 70
     1
102
RTVSPropertyOp3
 70
     1
102
RTVSPropertyOp4
 70
     1
102
RTVSPropertyOp5
 70
     1
102
RTVSPropertyOp6
 70
     1
102
RTVSPropertyOp7
 70
     1
102
RTVSPropertyOp8
 70
     1
102
RTVSPropertyOp9
 70
     1
102
RTVSPropertyOp10
 70
     1
102
RTVSPropertyOp11
 70
     1
102
RTVSPropertyOp12
 70
     1
102
RTVSPropertyOp13
 70
     1
102
RTVSPropertyOp14
 70
     1
102
RTVSPropertyOp15
 70
     1
102
RTVSPropertyOp16
 70
     1
102
RTVSPropertyOp17
 70
     1
102
RTVSPropertyOp18
 70
     1
102
RTVSPropertyOp19
 70
     1
102
RTVSPropertyOp20
 70
     1
102
RTVSPropertyOp21
 70
     1
102
RTVSPropertyOp22
 70
     1
102
RTVSPropertyOp23
 70
     1
102
RTVSPropertyOp24
 70
     1
102
RTVSPropertyOp25
 70
     1
102
RTVSPropertyOp26
 70
     1
102
RTVSPropertyOp27
 70
     1
102
RTVSPropertyOp28
 70
     1
102
RTVSPropertyOp29
 70
     1
102
RTVSPropertyOp30
 70
     1
102
RTVSPropertyOp31
 70
     1
102
RTVSPropertyOp32
 70
     1
102
RTVSPropertyOp33
 70
     1
102
RTVSPropertyOp34
 70
     1
102
RTVSPropertyOp35
 70
     1
102
RTVSPropertyOp36
 70
     1
102
RTVSPropertyOp37
 70
     1
102
RTVSPropertyOp38
 70
     1
102
RTVSPropertyOp39
 70
     1
102
RTVSPropertyOp40
 70
     1
102
RTVSPropertyOp41
 70
     1
102
RTVSPropertyOp42
 70
     1
102
RTVSPropertyOp43
 70
     1
102
RTVSPropertyOp44
 70
     1
102
RTVSPropertyOp45
 70
     1
102
RTVSPropertyOp46
 70
     1
102
RTVSPropertyOp47
 70
     1
102
RTVSPropertyOp48
 70
     1
102
RTVSPropertyOp49
 70
     1
102
RTVSPropertyOp50
 70
     1
102
RTVSPropertyOp51
 70
     0
102
RTVSPropertyOp52
 70
     0
102
RTVSPropertyOp53
 70
     1
102
RTVSPropertyOp54
 70
     1
102
RTVSPropertyOp55
 70
     1
102
RTVSPropertyOp56
 70
     1
102
RTVSPropertyOp57
 70
     1
102
RTVSPropertyOp58
 70
     1
102
RTVSPropertyOp59
 70
     1
102
RTVSPropertyOp60
 70
     1
102
RTVSPropertyOp61
 70
     1
102
RTVSPropertyOp62
 70
     1
  0
XRECORD
  5
8270
102
{ACAD_REACTORS
330
826F
102
}
330
826F
100
AcDbXrecord
280
     1
102
RTVSPost2010Prop28
280
     0
102
RTVSPost2010PropOp28
 70
     1
102
RTVSPost2010Prop29
280
     1
102
RTVSPost2010PropOp29
 70
     1
102
RTVSPost2010Prop30
280
     1
102
RTVSPost2010PropOp30
 70
     1
102
RTVSPost2010Prop31
280
     0
102
RTVSPost2010PropOp31
 70
     1
102
RTVSPost2010Prop32
280
     0
102
RTVSPost2010PropOp32
 70
     1
102
RTVSPost2010Prop33
280
     0
102
RTVSPost2010PropOp33
 70
     1
102
RTVSPost2010Prop34
280
     0
102
RTVSPost2010PropOp34
 70
     1
102
RTVSPost2010Prop35
280
     0
102
RTVSPost2010PropOp35
 70
     1
102
RTVSPost2010Prop36
280
     0
102
RTVSPost2010PropOp36
 70
     1
102
RTVSPost2010Prop37
 90
       50
102
RTVSPost2010PropOp37
 70
     1
102
RTVSPost2010Prop38
140
0.0
102
RTVSPost2010PropOp38
 70
     1
102
RTVSPost2010Prop39
140
1.0
102
RTVSPost2010PropOp39
 70
     1
102
RTVSPost2010Prop40
 90
        0
102
RTVSPost2010PropOp40
 70
     1
102
RTVSPost2010Prop41ColorIndex
 90
       18
102
RTVSPost2010Prop41ColorRGB
 90
        0
102
RTVSPost2010PropOp41
 70
     1
102
RTVSPost2010Prop42
 90
       50
102
RTVSPost2010PropOp42
 70
     1
102
RTVSPost2010Prop43
 90
        3
102
RTVSPost2010PropOp43
 70
     1
102
RTVSPost2010Prop44ColorIndex
 90
        5
102
RTVSPost2010Prop44ColorRGB
 90
      255
102
RTVSPost2010PropOp44
 70
     1
102
RTVSPost2010Prop45
280
     0
102
RTVSPost2010PropOp45
 70
     1
102
RTVSPost2010Prop46
 90
       50
102
RTVSPost2010PropOp46
 70
     1
102
RTVSPost2010Prop47
 90
       50
102
RTVSPost2010PropOp47
 70
     1
102
RTVSPost2010Prop48
 90
       50
102
RTVSPost2010PropOp48
 70
     1
102
RTVSPost2010Prop49
280
     0
102
RTVSPost2010PropOp49
 70
     1
102
RTVSPost2010Prop50
 90
       50
102
RTVSPost2010PropOp50
 70
     1
102
RTVSPost2010Prop51ColorIndex
 90
      256
102
RTVSPost2010Prop51ColorRGB
 90
-16777216
102
RTVSPost2010PropOp51
 70
     0
102
RTVSPost2010Prop52
140
1.0
102
RTVSPost2010PropOp52
 70
     0
102
RTVSPost2010Prop53
 90
        2
102
RTVSPost2010PropOp53
 70
     1
102
RTVSPost2010Prop54
  1
strokes_ogs.tif
102
RTVSPost2010PropOp54
 70
     1
102
RTVSPost2010Prop55
280
     0
102
RTVSPost2010PropOp55
 70
     1
102
RTVSPost2010Prop56
140
1.0
102
RTVSPost2010PropOp56
 70
     1
102
RTVSPost2010Prop57
140
1.0
102
RTVSPost2010PropOp57
 70
     1
102
RTVSPropertyOp0
 70
     1
102
RTVSPropertyOp1
 70
     1
102
RTVSPropertyOp2
 70
     1
102
RTVSPropertyOp3
 70
     1
102
RTVSPropertyOp4
 70
     1
102
RTVSPropertyOp5
 70
     1
102
RTVSPropertyOp6
 70
     1
102
RTVSPropertyOp7
 70
     1
102
RTVSPropertyOp8
 70
     1
102
RTVSPropertyOp9
 70
     1
102
RTVSPropertyOp10
 70
     1
102
RTVSPropertyOp11
 70
     1
102
RTVSPropertyOp12
 70
     1
102
RTVSPropertyOp13
 70
     1
102
RTVSPropertyOp14
 70
     1
102
RTVSPropertyOp15
 70
     1
102
RTVSPropertyOp16
 70
     1
102
RTVSPropertyOp17
 70
     1
102
RTVSPropertyOp18
 70
     1
102
RTVSPropertyOp19
 70
     1
102
RTVSPropertyOp20
 70
     1
102
RTVSPropertyOp21
 70
     1
102
RTVSPropertyOp22
 70
     1
102
RTVSPropertyOp23
 70
     1
102
RTVSPropertyOp24
 70
     1
102
RTVSPropertyOp25
 70
     1
102
RTVSPropertyOp26
 70
     1
102
RTVSPropertyOp27
 70
     1
102
RTVSPropertyOp28
 70
     1
102
RTVSPropertyOp29
 70
     1
102
RTVSPropertyOp30
 70
     1
102
RTVSPropertyOp31
 70
     1
102
RTVSPropertyOp32
 70
     1
102
RTVSPropertyOp33
 70
     1
102
RTVSPropertyOp34
 70
     1
102
RTVSPropertyOp35
 70
     1
102
RTVSPropertyOp36
 70
     1
102
RTVSPropertyOp37
 70
     1
102
RTVSPropertyOp38
 70
     1
102
RTVSPropertyOp39
 70
     1
102
RTVSPropertyOp40
 70
     1
102
RTVSPropertyOp41
 70
     1
102
RTVSPropertyOp42
 70
     1
102
RTVSPropertyOp43
 70
     1
102
RTVSPropertyOp44
 70
     1
102
RTVSPropertyOp45
 70
     1
102
RTVSPropertyOp46
 70
     1
102
RTVSPropertyOp47
 70
     1
102
RTVSPropertyOp48
 70
     1
102
RTVSPropertyOp49
 70
     1
102
RTVSPropertyOp50
 70
     1
102
RTVSPropertyOp51
 70
     0
102
RTVSPropertyOp52
 70
     0
102
RTVSPropertyOp53
 70
     1
102
RTVSPropertyOp54
 70
     1
102
RTVSPropertyOp55
 70
     1
102
RTVSPropertyOp56
 70
     1
102
RTVSPropertyOp57
 70
     1
102
RTVSPropertyOp58
 70
     1
102
RTVSPropertyOp59
 70
     1
102
RTVSPropertyOp60
 70
     1
102
RTVSPropertyOp61
 70
     1
102
RTVSPropertyOp62
 70
     1
  0
XRECORD
  5
8274
102
{ACAD_REACTORS
330
8273
102
}
330
8273
100
AcDbXrecord
280
     1
102
RTVSPost2010Prop28
280
     0
102
RTVSPost2010PropOp28
 70
     1
102
RTVSPost2010Prop29
280
     1
102
RTVSPost2010PropOp29
 70
     1
102
RTVSPost2010Prop30
280
     1
102
RTVSPost2010PropOp30
 70
     1
102
RTVSPost2010Prop31
280
     0
102
RTVSPost2010PropOp31
 70
     1
102
RTVSPost2010Prop32
280
     0
102
RTVSPost2010PropOp32
 70
     1
102
RTVSPost2010Prop33
280
     0
102
RTVSPost2010PropOp33
 70
     1
102
RTVSPost2010Prop34
280
     0
102
RTVSPost2010PropOp34
 70
     1
102
RTVSPost2010Prop35
280
     0
102
RTVSPost2010PropOp35
 70
     1
102
RTVSPost2010Prop36
280
     0
102
RTVSPost2010PropOp36
 70
     1
102
RTVSPost2010Prop37
 90
       50
102
RTVSPost2010PropOp37
 70
     1
102
RTVSPost2010Prop38
140
0.0
102
RTVSPost2010PropOp38
 70
     1
102
RTVSPost2010Prop39
140
1.0
102
RTVSPost2010PropOp39
 70
     1
102
RTVSPost2010Prop40
 90
        0
102
RTVSPost2010PropOp40
 70
     1
102
RTVSPost2010Prop41ColorIndex
 90
       18
102
RTVSPost2010Prop41ColorRGB
 90
        0
102
RTVSPost2010PropOp41
 70
     1
102
RTVSPost2010Prop42
 90
       50
102
RTVSPost2010PropOp42
 70
     1
102
RTVSPost2010Prop43
 90
        3
102
RTVSPost2010PropOp43
 70
     1
102
RTVSPost2010Prop44ColorIndex
 90
        5
102
RTVSPost2010Prop44ColorRGB
 90
      255
102
RTVSPost2010PropOp44
 70
     1
102
RTVSPost2010Prop45
280
     0
102
RTVSPost2010PropOp45
 70
     1
102
RTVSPost2010Prop46
 90
       50
102
RTVSPost2010PropOp46
 70
     1
102
RTVSPost2010Prop47
 90
       50
102
RTVSPost2010PropOp47
 70
     1
102
RTVSPost2010Prop48
 90
       50
102
RTVSPost2010PropOp48
 70
     1
102
RTVSPost2010Prop49
280
     0
102
RTVSPost2010PropOp49
 70
     1
102
RTVSPost2010Prop50
 90
       50
102
RTVSPost2010PropOp50
 70
     1
102
RTVSPost2010Prop51ColorIndex
 90
      256
102
RTVSPost2010Prop51ColorRGB
 90
-16777216
102
RTVSPost2010PropOp51
 70
     0
102
RTVSPost2010Prop52
140
1.0
102
RTVSPost2010PropOp52
 70
     0
102
RTVSPost2010Prop53
 90
        2
102
RTVSPost2010PropOp53
 70
     1
102
RTVSPost2010Prop54
  1
strokes_ogs.tif
102
RTVSPost2010PropOp54
 70
     1
102
RTVSPost2010Prop55
280
     0
102
RTVSPost2010PropOp55
 70
     1
102
RTVSPost2010Prop56
140
1.0
102
RTVSPost2010PropOp56
 70
     1
102
RTVSPost2010Prop57
140
1.0
102
RTVSPost2010PropOp57
 70
     1
102
RTVSPropertyOp0
 70
     1
102
RTVSPropertyOp1
 70
     1
102
RTVSPropertyOp2
 70
     1
102
RTVSPropertyOp3
 70
     1
102
RTVSPropertyOp4
 70
     1
102
RTVSPropertyOp5
 70
     1
102
RTVSPropertyOp6
 70
     1
102
RTVSPropertyOp7
 70
     1
102
RTVSPropertyOp8
 70
     1
102
RTVSPropertyOp9
 70
     1
102
RTVSPropertyOp10
 70
     1
102
RTVSPropertyOp11
 70
     1
102
RTVSPropertyOp12
 70
     1
102
RTVSPropertyOp13
 70
     1
102
RTVSPropertyOp14
 70
     1
102
RTVSPropertyOp15
 70
     1
102
RTVSPropertyOp16
 70
     1
102
RTVSPropertyOp17
 70
     1
102
RTVSPropertyOp18
 70
     1
102
RTVSPropertyOp19
 70
     1
102
RTVSPropertyOp20
 70
     1
102
RTVSPropertyOp21
 70
     1
102
RTVSPropertyOp22
 70
     1
102
RTVSPropertyOp23
 70
     1
102
RTVSPropertyOp24
 70
     1
102
RTVSPropertyOp25
 70
     1
102
RTVSPropertyOp26
 70
     1
102
RTVSPropertyOp27
 70
     1
102
RTVSPropertyOp28
 70
     1
102
RTVSPropertyOp29
 70
     1
102
RTVSPropertyOp30
 70
     1
102
RTVSPropertyOp31
 70
     1
102
RTVSPropertyOp32
 70
     1
102
RTVSPropertyOp33
 70
     1
102
RTVSPropertyOp34
 70
     1
102
RTVSPropertyOp35
 70
     1
102
RTVSPropertyOp36
 70
     1
102
RTVSPropertyOp37
 70
     1
102
RTVSPropertyOp38
 70
     1
102
RTVSPropertyOp39
 70
     1
102
RTVSPropertyOp40
 70
     1
102
RTVSPropertyOp41
 70
     1
102
RTVSPropertyOp42
 70
     1
102
RTVSPropertyOp43
 70
     1
102
RTVSPropertyOp44
 70
     1
102
RTVSPropertyOp45
 70
     1
102
RTVSPropertyOp46
 70
     1
102
RTVSPropertyOp47
 70
     1
102
RTVSPropertyOp48
 70
     1
102
RTVSPropertyOp49
 70
     1
102
RTVSPropertyOp50
 70
     1
102
RTVSPropertyOp51
 70
     0
102
RTVSPropertyOp52
 70
     0
102
RTVSPropertyOp53
 70
     1
102
RTVSPropertyOp54
 70
     1
102
RTVSPropertyOp55
 70
     1
102
RTVSPropertyOp56
 70
     1
102
RTVSPropertyOp57
 70
     1
102
RTVSPropertyOp58
 70
     1
102
RTVSPropertyOp59
 70
     1
102
RTVSPropertyOp60
 70
     1
102
RTVSPropertyOp61
 70
     1
102
RTVSPropertyOp62
 70
     1
  0
XRECORD
  5
828E
102
{ACAD_REACTORS
330
828D
102
}
330
828D
100
AcDbXrecord
280
     1
102
RTVSPost2010Prop28
280
     0
102
RTVSPost2010PropOp28
 70
     1
102
RTVSPost2010Prop29
280
     1
102
RTVSPost2010PropOp29
 70
     1
102
RTVSPost2010Prop30
280
     1
102
RTVSPost2010PropOp30
 70
     1
102
RTVSPost2010Prop31
280
     0
102
RTVSPost2010PropOp31
 70
     1
102
RTVSPost2010Prop32
280
     0
102
RTVSPost2010PropOp32
 70
     1
102
RTVSPost2010Prop33
280
     0
102
RTVSPost2010PropOp33
 70
     1
102
RTVSPost2010Prop34
280
     0
102
RTVSPost2010PropOp34
 70
     1
102
RTVSPost2010Prop35
280
     0
102
RTVSPost2010PropOp35
 70
     1
102
RTVSPost2010Prop36
280
     0
102
RTVSPost2010PropOp36
 70
     1
102
RTVSPost2010Prop37
 90
       50
102
RTVSPost2010PropOp37
 70
     0
102
RTVSPost2010Prop38
140
0.0
102
RTVSPost2010PropOp38
 70
     0
102
RTVSPost2010Prop39
140
1.0
102
RTVSPost2010PropOp39
 70
     0
102
RTVSPost2010Prop40
 90
        0
102
RTVSPost2010PropOp40
 70
     0
102
RTVSPost2010Prop41ColorIndex
 90
       18
102
RTVSPost2010Prop41ColorRGB
 90
        0
102
RTVSPost2010PropOp41
 70
     0
102
RTVSPost2010Prop42
 90
       50
102
RTVSPost2010PropOp42
 70
     0
102
RTVSPost2010Prop43
 90
        3
102
RTVSPost2010PropOp43
 70
     0
102
RTVSPost2010Prop44ColorIndex
 90
        5
102
RTVSPost2010Prop44ColorRGB
 90
      255
102
RTVSPost2010PropOp44
 70
     0
102
RTVSPost2010Prop45
280
     0
102
RTVSPost2010PropOp45
 70
     1
102
RTVSPost2010Prop46
 90
       50
102
RTVSPost2010PropOp46
 70
     0
102
RTVSPost2010Prop47
 90
       50
102
RTVSPost2010PropOp47
 70
     0
102
RTVSPost2010Prop48
 90
       50
102
RTVSPost2010PropOp48
 70
     0
102
RTVSPost2010Prop49
280
     0
102
RTVSPost2010PropOp49
 70
     1
102
RTVSPost2010Prop50
 90
       50
102
RTVSPost2010PropOp50
 70
     0
102
RTVSPost2010Prop51ColorIndex
 90
      256
102
RTVSPost2010Prop51ColorRGB
 90
-16777216
102
RTVSPost2010PropOp51
 70
     0
102
RTVSPost2010Prop52
140
1.0
102
RTVSPost2010PropOp52
 70
     0
102
RTVSPost2010Prop53
 90
        2
102
RTVSPost2010PropOp53
 70
     0
102
RTVSPost2010Prop54
  1
strokes_ogs.tif
102
RTVSPost2010PropOp54
 70
     0
102
RTVSPost2010Prop55
280
     0
102
RTVSPost2010PropOp55
 70
     1
102
RTVSPost2010Prop56
140
1.0
102
RTVSPost2010PropOp56
 70
     0
102
RTVSPost2010Prop57
140
1.0
102
RTVSPost2010PropOp57
 70
     0
102
RTVSPropertyOp0
 70
     0
102
RTVSPropertyOp1
 70
     0
102
RTVSPropertyOp2
 70
     0
102
RTVSPropertyOp3
 70
     0
102
RTVSPropertyOp4
 70
     0
102
RTVSPropertyOp5
 70
     0
102
RTVSPropertyOp6
 70
     0
102
RTVSPropertyOp7
 70
     0
102
RTVSPropertyOp8
 70
     0
102
RTVSPropertyOp9
 70
     0
102
RTVSPropertyOp10
 70
     0
102
RTVSPropertyOp11
 70
     0
102
RTVSPropertyOp12
 70
     0
102
RTVSPropertyOp13
 70
     0
102
RTVSPropertyOp14
 70
     2
102
RTVSPropertyOp15
 70
     0
102
RTVSPropertyOp16
 70
     0
102
RTVSPropertyOp17
 70
     0
102
RTVSPropertyOp18
 70
     0
102
RTVSPropertyOp19
 70
     0
102
RTVSPropertyOp20
 70
     0
102
RTVSPropertyOp21
 70
     0
102
RTVSPropertyOp22
 70
     0
102
RTVSPropertyOp23
 70
     0
102
RTVSPropertyOp24
 70
     0
102
RTVSPropertyOp25
 70
     0
102
RTVSPropertyOp26
 70
     0
102
RTVSPropertyOp27
 70
     0
102
RTVSPropertyOp28
 70
     1
102
RTVSPropertyOp29
 70
     1
102
RTVSPropertyOp30
 70
     1
102
RTVSPropertyOp31
 70
     1
102
RTVSPropertyOp32
 70
     1
102
RTVSPropertyOp33
 70
     1
102
RTVSPropertyOp34
 70
     1
102
RTVSPropertyOp35
 70
     1
102
RTVSPropertyOp36
 70
     1
102
RTVSPropertyOp37
 70
     0
102
RTVSPropertyOp38
 70
     0
102
RTVSPropertyOp39
 70
     0
102
RTVSPropertyOp40
 70
     0
102
RTVSPropertyOp41
 70
     0
102
RTVSPropertyOp42
 70
     0
102
RTVSPropertyOp43
 70
     0
102
RTVSPropertyOp44
 70
     0
102
RTVSPropertyOp45
 70
     1
102
RTVSPropertyOp46
 70
     0
102
RTVSPropertyOp47
 70
     0
102
RTVSPropertyOp48
 70
     0
102
RTVSPropertyOp49
 70
     1
102
RTVSPropertyOp50
 70
     0
102
RTVSPropertyOp51
 70
     0
102
RTVSPropertyOp52
 70
     0
102
RTVSPropertyOp53
 70
     0
102
RTVSPropertyOp54
 70
     0
102
RTVSPropertyOp55
 70
     1
102
RTVSPropertyOp56
 70
     0
102
RTVSPropertyOp57
 70
     0
102
RTVSPropertyOp58
 70
     0
102
RTVSPropertyOp59
 70
     0
102
RTVSPropertyOp60
 70
     0
102
RTVSPropertyOp61
 70
     0
102
RTVSPropertyOp62
 70
     0
  0
XRECORD
  5
827C
102
{ACAD_REACTORS
330
827B
102
}
330
827B
100
AcDbXrecord
280
     1
102
RTVSPost2010Prop28
280
     0
102
RTVSPost2010PropOp28
 70
     1
102
RTVSPost2010Prop29
280
     1
102
RTVSPost2010PropOp29
 70
     1
102
RTVSPost2010Prop30
280
     1
102
RTVSPost2010PropOp30
 70
     1
102
RTVSPost2010Prop31
280
     0
102
RTVSPost2010PropOp31
 70
     1
102
RTVSPost2010Prop32
280
     0
102
RTVSPost2010PropOp32
 70
     1
102
RTVSPost2010Prop33
280
     0
102
RTVSPost2010PropOp33
 70
     1
102
RTVSPost2010Prop34
280
     0
102
RTVSPost2010PropOp34
 70
     1
102
RTVSPost2010Prop35
280
     0
102
RTVSPost2010PropOp35
 70
     1
102
RTVSPost2010Prop36
280
     0
102
RTVSPost2010PropOp36
 70
     1
102
RTVSPost2010Prop37
 90
       50
102
RTVSPost2010PropOp37
 70
     1
102
RTVSPost2010Prop38
140
0.0
102
RTVSPost2010PropOp38
 70
     1
102
RTVSPost2010Prop39
140
1.0
102
RTVSPost2010PropOp39
 70
     1
102
RTVSPost2010Prop40
 90
        0
102
RTVSPost2010PropOp40
 70
     1
102
RTVSPost2010Prop41ColorIndex
 90
       18
102
RTVSPost2010Prop41ColorRGB
 90
        0
102
RTVSPost2010PropOp41
 70
     1
102
RTVSPost2010Prop42
 90
       50
102
RTVSPost2010PropOp42
 70
     1
102
RTVSPost2010Prop43
 90
        3
102
RTVSPost2010PropOp43
 70
     1
102
RTVSPost2010Prop44ColorIndex
 90
        5
102
RTVSPost2010Prop44ColorRGB
 90
      255
102
RTVSPost2010PropOp44
 70
     1
102
RTVSPost2010Prop45
280
     0
102
RTVSPost2010PropOp45
 70
     1
102
RTVSPost2010Prop46
 90
       50
102
RTVSPost2010PropOp46
 70
     1
102
RTVSPost2010Prop47
 90
       50
102
RTVSPost2010PropOp47
 70
     1
102
RTVSPost2010Prop48
 90
       50
102
RTVSPost2010PropOp48
 70
     1
102
RTVSPost2010Prop49
280
     0
102
RTVSPost2010PropOp49
 70
     1
102
RTVSPost2010Prop50
 90
       50
102
RTVSPost2010PropOp50
 70
     1
102
RTVSPost2010Prop51ColorIndex
 90
      256
102
RTVSPost2010Prop51ColorRGB
 90
-16777216
102
RTVSPost2010PropOp51
 70
     0
102
RTVSPost2010Prop52
140
1.0
102
RTVSPost2010PropOp52
 70
     0
102
RTVSPost2010Prop53
 90
        2
102
RTVSPost2010PropOp53
 70
     1
102
RTVSPost2010Prop54
  1
strokes_ogs.tif
102
RTVSPost2010PropOp54
 70
     1
102
RTVSPost2010Prop55
280
     0
102
RTVSPost2010PropOp55
 70
     1
102
RTVSPost2010Prop56
140
1.0
102
RTVSPost2010PropOp56
 70
     1
102
RTVSPost2010Prop57
140
1.0
102
RTVSPost2010PropOp57
 70
     1
102
RTVSPropertyOp0
 70
     1
102
RTVSPropertyOp1
 70
     1
102
RTVSPropertyOp2
 70
     1
102
RTVSPropertyOp3
 70
     1
102
RTVSPropertyOp4
 70
     1
102
RTVSPropertyOp5
 70
     1
102
RTVSPropertyOp6
 70
     1
102
RTVSPropertyOp7
 70
     1
102
RTVSPropertyOp8
 70
     1
102
RTVSPropertyOp9
 70
     1
102
RTVSPropertyOp10
 70
     1
102
RTVSPropertyOp11
 70
     1
102
RTVSPropertyOp12
 70
     1
102
RTVSPropertyOp13
 70
     1
102
RTVSPropertyOp14
 70
     1
102
RTVSPropertyOp15
 70
     1
102
RTVSPropertyOp16
 70
     1
102
RTVSPropertyOp17
 70
     1
102
RTVSPropertyOp18
 70
     1
102
RTVSPropertyOp19
 70
     1
102
RTVSPropertyOp20
 70
     1
102
RTVSPropertyOp21
 70
     1
102
RTVSPropertyOp22
 70
     1
102
RTVSPropertyOp23
 70
     1
102
RTVSPropertyOp24
 70
     1
102
RTVSPropertyOp25
 70
     1
102
RTVSPropertyOp26
 70
     1
102
RTVSPropertyOp27
 70
     1
102
RTVSPropertyOp28
 70
     1
102
RTVSPropertyOp29
 70
     1
102
RTVSPropertyOp30
 70
     1
102
RTVSPropertyOp31
 70
     1
102
RTVSPropertyOp32
 70
     1
102
RTVSPropertyOp33
 70
     1
102
RTVSPropertyOp34
 70
     1
102
RTVSPropertyOp35
 70
     1
102
RTVSPropertyOp36
 70
     1
102
RTVSPropertyOp37
 70
     1
102
RTVSPropertyOp38
 70
     1
102
RTVSPropertyOp39
 70
     1
102
RTVSPropertyOp40
 70
     1
102
RTVSPropertyOp41
 70
     1
102
RTVSPropertyOp42
 70
     1
102
RTVSPropertyOp43
 70
     1
102
RTVSPropertyOp44
 70
     1
102
RTVSPropertyOp45
 70
     1
102
RTVSPropertyOp46
 70
     1
102
RTVSPropertyOp47
 70
     1
102
RTVSPropertyOp48
 70
     1
102
RTVSPropertyOp49
 70
     1
102
RTVSPropertyOp50
 70
     1
102
RTVSPropertyOp51
 70
     0
102
RTVSPropertyOp52
 70
     0
102
RTVSPropertyOp53
 70
     1
102
RTVSPropertyOp54
 70
     1
102
RTVSPropertyOp55
 70
     1
102
RTVSPropertyOp56
 70
     1
102
RTVSPropertyOp57
 70
     1
102
RTVSPropertyOp58
 70
     1
102
RTVSPropertyOp59
 70
     1
102
RTVSPropertyOp60
 70
     1
102
RTVSPropertyOp61
 70
     1
102
RTVSPropertyOp62
 70
     1
  0
XRECORD
  5
8260
102
{ACAD_REACTORS
330
825F
102
}
330
825F
100
AcDbXrecord
280
     1
102
RTVSPost2010Prop28
280
     0
102
RTVSPost2010PropOp28
 70
     1
102
RTVSPost2010Prop29
280
     1
102
RTVSPost2010PropOp29
 70
     1
102
RTVSPost2010Prop30
280
     1
102
RTVSPost2010PropOp30
 70
     1
102
RTVSPost2010Prop31
280
     0
102
RTVSPost2010PropOp31
 70
     1
102
RTVSPost2010Prop32
280
     0
102
RTVSPost2010PropOp32
 70
     1
102
RTVSPost2010Prop33
280
     0
102
RTVSPost2010PropOp33
 70
     1
102
RTVSPost2010Prop34
280
     0
102
RTVSPost2010PropOp34
 70
     1
102
RTVSPost2010Prop35
280
     0
102
RTVSPost2010PropOp35
 70
     1
102
RTVSPost2010Prop36
280
     0
102
RTVSPost2010PropOp36
 70
     1
102
RTVSPost2010Prop37
 90
       50
102
RTVSPost2010PropOp37
 70
     1
102
RTVSPost2010Prop38
140
0.0
102
RTVSPost2010PropOp38
 70
     1
102
RTVSPost2010Prop39
140
1.0
102
RTVSPost2010PropOp39
 70
     1
102
RTVSPost2010Prop40
 90
        0
102
RTVSPost2010PropOp40
 70
     1
102
RTVSPost2010Prop41ColorIndex
 90
       18
102
RTVSPost2010Prop41ColorRGB
 90
        0
102
RTVSPost2010PropOp41
 70
     1
102
RTVSPost2010Prop42
 90
       50
102
RTVSPost2010PropOp42
 70
     1
102
RTVSPost2010Prop43
 90
        3
102
RTVSPost2010PropOp43
 70
     1
102
RTVSPost2010Prop44ColorIndex
 90
        5
102
RTVSPost2010Prop44ColorRGB
 90
      255
102
RTVSPost2010PropOp44
 70
     1
102
RTVSPost2010Prop45
280
     0
102
RTVSPost2010PropOp45
 70
     1
102
RTVSPost2010Prop46
 90
       50
102
RTVSPost2010PropOp46
 70
     1
102
RTVSPost2010Prop47
 90
       50
102
RTVSPost2010PropOp47
 70
     1
102
RTVSPost2010Prop48
 90
       50
102
RTVSPost2010PropOp48
 70
     1
102
RTVSPost2010Prop49
280
     0
102
RTVSPost2010PropOp49
 70
     1
102
RTVSPost2010Prop50
 90
       50
102
RTVSPost2010PropOp50
 70
     1
102
RTVSPost2010Prop51ColorIndex
 90
      256
102
RTVSPost2010Prop51ColorRGB
 90
-16777216
102
RTVSPost2010PropOp51
 70
     0
102
RTVSPost2010Prop52
140
1.0
102
RTVSPost2010PropOp52
 70
     0
102
RTVSPost2010Prop53
 90
        2
102
RTVSPost2010PropOp53
 70
     1
102
RTVSPost2010Prop54
  1
strokes_ogs.tif
102
RTVSPost2010PropOp54
 70
     1
102
RTVSPost2010Prop55
280
     0
102
RTVSPost2010PropOp55
 70
     1
102
RTVSPost2010Prop56
140
1.0
102
RTVSPost2010PropOp56
 70
     1
102
RTVSPost2010Prop57
140
1.0
102
RTVSPost2010PropOp57
 70
     1
102
RTVSPropertyOp0
 70
     1
102
RTVSPropertyOp1
 70
     1
102
RTVSPropertyOp2
 70
     1
102
RTVSPropertyOp3
 70
     1
102
RTVSPropertyOp4
 70
     1
102
RTVSPropertyOp5
 70
     1
102
RTVSPropertyOp6
 70
     1
102
RTVSPropertyOp7
 70
     1
102
RTVSPropertyOp8
 70
     1
102
RTVSPropertyOp9
 70
     1
102
RTVSPropertyOp10
 70
     1
102
RTVSPropertyOp11
 70
     1
102
RTVSPropertyOp12
 70
     1
102
RTVSPropertyOp13
 70
     1
102
RTVSPropertyOp14
 70
     1
102
RTVSPropertyOp15
 70
     1
102
RTVSPropertyOp16
 70
     1
102
RTVSPropertyOp17
 70
     1
102
RTVSPropertyOp18
 70
     1
102
RTVSPropertyOp19
 70
     1
102
RTVSPropertyOp20
 70
     1
102
RTVSPropertyOp21
 70
     1
102
RTVSPropertyOp22
 70
     1
102
RTVSPropertyOp23
 70
     1
102
RTVSPropertyOp24
 70
     1
102
RTVSPropertyOp25
 70
     1
102
RTVSPropertyOp26
 70
     1
102
RTVSPropertyOp27
 70
     1
102
RTVSPropertyOp28
 70
     1
102
RTVSPropertyOp29
 70
     1
102
RTVSPropertyOp30
 70
     1
102
RTVSPropertyOp31
 70
     1
102
RTVSPropertyOp32
 70
     1
102
RTVSPropertyOp33
 70
     1
102
RTVSPropertyOp34
 70
     1
102
RTVSPropertyOp35
 70
     1
102
RTVSPropertyOp36
 70
     1
102
RTVSPropertyOp37
 70
     1
102
RTVSPropertyOp38
 70
     1
102
RTVSPropertyOp39
 70
     1
102
RTVSPropertyOp40
 70
     1
102
RTVSPropertyOp41
 70
     1
102
RTVSPropertyOp42
 70
     1
102
RTVSPropertyOp43
 70
     1
102
RTVSPropertyOp44
 70
     1
102
RTVSPropertyOp45
 70
     1
102
RTVSPropertyOp46
 70
     1
102
RTVSPropertyOp47
 70
     1
102
RTVSPropertyOp48
 70
     1
102
RTVSPropertyOp49
 70
     1
102
RTVSPropertyOp50
 70
     1
102
RTVSPropertyOp51
 70
     0
102
RTVSPropertyOp52
 70
     0
102
RTVSPropertyOp53
 70
     1
102
RTVSPropertyOp54
 70
     1
102
RTVSPropertyOp55
 70
     1
102
RTVSPropertyOp56
 70
     1
102
RTVSPropertyOp57
 70
     1
102
RTVSPropertyOp58
 70
     1
102
RTVSPropertyOp59
 70
     1
102
RTVSPropertyOp60
 70
     1
102
RTVSPropertyOp61
 70
     1
102
RTVSPropertyOp62
 70
     1
  0
XRECORD
  5
8262
102
{ACAD_REACTORS
330
8261
102
}
330
8261
100
AcDbXrecord
280
     1
102
RTVSPost2010Prop28
280
     0
102
RTVSPost2010PropOp28
 70
     1
102
RTVSPost2010Prop29
280
     1
102
RTVSPost2010PropOp29
 70
     1
102
RTVSPost2010Prop30
280
     1
102
RTVSPost2010PropOp30
 70
     1
102
RTVSPost2010Prop31
280
     0
102
RTVSPost2010PropOp31
 70
     1
102
RTVSPost2010Prop32
280
     0
102
RTVSPost2010PropOp32
 70
     1
102
RTVSPost2010Prop33
280
     0
102
RTVSPost2010PropOp33
 70
     1
102
RTVSPost2010Prop34
280
     0
102
RTVSPost2010PropOp34
 70
     1
102
RTVSPost2010Prop35
280
     0
102
RTVSPost2010PropOp35
 70
     1
102
RTVSPost2010Prop36
280
     0
102
RTVSPost2010PropOp36
 70
     1
102
RTVSPost2010Prop37
 90
       50
102
RTVSPost2010PropOp37
 70
     1
102
RTVSPost2010Prop38
140
0.0
102
RTVSPost2010PropOp38
 70
     1
102
RTVSPost2010Prop39
140
1.0
102
RTVSPost2010PropOp39
 70
     1
102
RTVSPost2010Prop40
 90
        0
102
RTVSPost2010PropOp40
 70
     1
102
RTVSPost2010Prop41ColorIndex
 90
       18
102
RTVSPost2010Prop41ColorRGB
 90
        0
102
RTVSPost2010PropOp41
 70
     1
102
RTVSPost2010Prop42
 90
       50
102
RTVSPost2010PropOp42
 70
     1
102
RTVSPost2010Prop43
 90
        3
102
RTVSPost2010PropOp43
 70
     1
102
RTVSPost2010Prop44ColorIndex
 90
        5
102
RTVSPost2010Prop44ColorRGB
 90
      255
102
RTVSPost2010PropOp44
 70
     1
102
RTVSPost2010Prop45
280
     0
102
RTVSPost2010PropOp45
 70
     1
102
RTVSPost2010Prop46
 90
       50
102
RTVSPost2010PropOp46
 70
     1
102
RTVSPost2010Prop47
 90
       50
102
RTVSPost2010PropOp47
 70
     1
102
RTVSPost2010Prop48
 90
       50
102
RTVSPost2010PropOp48
 70
     1
102
RTVSPost2010Prop49
280
     0
102
RTVSPost2010PropOp49
 70
     1
102
RTVSPost2010Prop50
 90
       50
102
RTVSPost2010PropOp50
 70
     1
102
RTVSPost2010Prop51ColorIndex
 90
      256
102
RTVSPost2010Prop51ColorRGB
 90
-16777216
102
RTVSPost2010PropOp51
 70
     0
102
RTVSPost2010Prop52
140
1.0
102
RTVSPost2010PropOp52
 70
     0
102
RTVSPost2010Prop53
 90
        2
102
RTVSPost2010PropOp53
 70
     1
102
RTVSPost2010Prop54
  1
strokes_ogs.tif
102
RTVSPost2010PropOp54
 70
     1
102
RTVSPost2010Prop55
280
     0
102
RTVSPost2010PropOp55
 70
     1
102
RTVSPost2010Prop56
140
1.0
102
RTVSPost2010PropOp56
 70
     1
102
RTVSPost2010Prop57
140
1.0
102
RTVSPost2010PropOp57
 70
     1
102
RTVSPropertyOp0
 70
     1
102
RTVSPropertyOp1
 70
     1
102
RTVSPropertyOp2
 70
     1
102
RTVSPropertyOp3
 70
     1
102
RTVSPropertyOp4
 70
     1
102
RTVSPropertyOp5
 70
     1
102
RTVSPropertyOp6
 70
     1
102
RTVSPropertyOp7
 70
     1
102
RTVSPropertyOp8
 70
     1
102
RTVSPropertyOp9
 70
     1
102
RTVSPropertyOp10
 70
     1
102
RTVSPropertyOp11
 70
     1
102
RTVSPropertyOp12
 70
     1
102
RTVSPropertyOp13
 70
     1
102
RTVSPropertyOp14
 70
     1
102
RTVSPropertyOp15
 70
     1
102
RTVSPropertyOp16
 70
     1
102
RTVSPropertyOp17
 70
     1
102
RTVSPropertyOp18
 70
     1
102
RTVSPropertyOp19
 70
     1
102
RTVSPropertyOp20
 70
     1
102
RTVSPropertyOp21
 70
     1
102
RTVSPropertyOp22
 70
     1
102
RTVSPropertyOp23
 70
     1
102
RTVSPropertyOp24
 70
     1
102
RTVSPropertyOp25
 70
     1
102
RTVSPropertyOp26
 70
     1
102
RTVSPropertyOp27
 70
     1
102
RTVSPropertyOp28
 70
     1
102
RTVSPropertyOp29
 70
     1
102
RTVSPropertyOp30
 70
     1
102
RTVSPropertyOp31
 70
     1
102
RTVSPropertyOp32
 70
     1
102
RTVSPropertyOp33
 70
     1
102
RTVSPropertyOp34
 70
     1
102
RTVSPropertyOp35
 70
     1
102
RTVSPropertyOp36
 70
     1
102
RTVSPropertyOp37
 70
     1
102
RTVSPropertyOp38
 70
     1
102
RTVSPropertyOp39
 70
     1
102
RTVSPropertyOp40
 70
     1
102
RTVSPropertyOp41
 70
     1
102
RTVSPropertyOp42
 70
     1
102
RTVSPropertyOp43
 70
     1
102
RTVSPropertyOp44
 70
     1
102
RTVSPropertyOp45
 70
     1
102
RTVSPropertyOp46
 70
     1
102
RTVSPropertyOp47
 70
     1
102
RTVSPropertyOp48
 70
     1
102
RTVSPropertyOp49
 70
     1
102
RTVSPropertyOp50
 70
     1
102
RTVSPropertyOp51
 70
     0
102
RTVSPropertyOp52
 70
     0
102
RTVSPropertyOp53
 70
     1
102
RTVSPropertyOp54
 70
     1
102
RTVSPropertyOp55
 70
     1
102
RTVSPropertyOp56
 70
     1
102
RTVSPropertyOp57
 70
     1
102
RTVSPropertyOp58
 70
     1
102
RTVSPropertyOp59
 70
     1
102
RTVSPropertyOp60
 70
     1
102
RTVSPropertyOp61
 70
     1
102
RTVSPropertyOp62
 70
     1
  0
XRECORD
  5
8264
102
{ACAD_REACTORS
330
8263
102
}
330
8263
100
AcDbXrecord
280
     1
102
RTVSPost2010Prop28
280
     0
102
RTVSPost2010PropOp28
 70
     1
102
RTVSPost2010Prop29
280
     1
102
RTVSPost2010PropOp29
 70
     1
102
RTVSPost2010Prop30
280
     1
102
RTVSPost2010PropOp30
 70
     1
102
RTVSPost2010Prop31
280
     0
102
RTVSPost2010PropOp31
 70
     1
102
RTVSPost2010Prop32
280
     0
102
RTVSPost2010PropOp32
 70
     1
102
RTVSPost2010Prop33
280
     0
102
RTVSPost2010PropOp33
 70
     1
102
RTVSPost2010Prop34
280
     0
102
RTVSPost2010PropOp34
 70
     1
102
RTVSPost2010Prop35
280
     0
102
RTVSPost2010PropOp35
 70
     1
102
RTVSPost2010Prop36
280
     0
102
RTVSPost2010PropOp36
 70
     1
102
RTVSPost2010Prop37
 90
       50
102
RTVSPost2010PropOp37
 70
     1
102
RTVSPost2010Prop38
140
0.0
102
RTVSPost2010PropOp38
 70
     1
102
RTVSPost2010Prop39
140
1.0
102
RTVSPost2010PropOp39
 70
     1
102
RTVSPost2010Prop40
 90
        0
102
RTVSPost2010PropOp40
 70
     1
102
RTVSPost2010Prop41ColorIndex
 90
       18
102
RTVSPost2010Prop41ColorRGB
 90
        0
102
RTVSPost2010PropOp41
 70
     1
102
RTVSPost2010Prop42
 90
       50
102
RTVSPost2010PropOp42
 70
     1
102
RTVSPost2010Prop43
 90
        3
102
RTVSPost2010PropOp43
 70
     1
102
RTVSPost2010Prop44ColorIndex
 90
        5
102
RTVSPost2010Prop44ColorRGB
 90
      255
102
RTVSPost2010PropOp44
 70
     1
102
RTVSPost2010Prop45
280
     0
102
RTVSPost2010PropOp45
 70
     1
102
RTVSPost2010Prop46
 90
       50
102
RTVSPost2010PropOp46
 70
     1
102
RTVSPost2010Prop47
 90
       50
102
RTVSPost2010PropOp47
 70
     1
102
RTVSPost2010Prop48
 90
       50
102
RTVSPost2010PropOp48
 70
     1
102
RTVSPost2010Prop49
280
     0
102
RTVSPost2010PropOp49
 70
     1
102
RTVSPost2010Prop50
 90
       50
102
RTVSPost2010PropOp50
 70
     1
102
RTVSPost2010Prop51ColorIndex
 90
      256
102
RTVSPost2010Prop51ColorRGB
 90
-16777216
102
RTVSPost2010PropOp51
 70
     0
102
RTVSPost2010Prop52
140
1.0
102
RTVSPost2010PropOp52
 70
     0
102
RTVSPost2010Prop53
 90
        2
102
RTVSPost2010PropOp53
 70
     1
102
RTVSPost2010Prop54
  1
strokes_ogs.tif
102
RTVSPost2010PropOp54
 70
     1
102
RTVSPost2010Prop55
280
     0
102
RTVSPost2010PropOp55
 70
     1
102
RTVSPost2010Prop56
140
1.0
102
RTVSPost2010PropOp56
 70
     1
102
RTVSPost2010Prop57
140
1.0
102
RTVSPost2010PropOp57
 70
     1
102
RTVSPropertyOp0
 70
     1
102
RTVSPropertyOp1
 70
     1
102
RTVSPropertyOp2
 70
     1
102
RTVSPropertyOp3
 70
     1
102
RTVSPropertyOp4
 70
     1
102
RTVSPropertyOp5
 70
     1
102
RTVSPropertyOp6
 70
     1
102
RTVSPropertyOp7
 70
     1
102
RTVSPropertyOp8
 70
     1
102
RTVSPropertyOp9
 70
     1
102
RTVSPropertyOp10
 70
     1
102
RTVSPropertyOp11
 70
     1
102
RTVSPropertyOp12
 70
     1
102
RTVSPropertyOp13
 70
     1
102
RTVSPropertyOp14
 70
     1
102
RTVSPropertyOp15
 70
     1
102
RTVSPropertyOp16
 70
     1
102
RTVSPropertyOp17
 70
     1
102
RTVSPropertyOp18
 70
     1
102
RTVSPropertyOp19
 70
     1
102
RTVSPropertyOp20
 70
     1
102
RTVSPropertyOp21
 70
     1
102
RTVSPropertyOp22
 70
     1
102
RTVSPropertyOp23
 70
     1
102
RTVSPropertyOp24
 70
     1
102
RTVSPropertyOp25
 70
     1
102
RTVSPropertyOp26
 70
     1
102
RTVSPropertyOp27
 70
     1
102
RTVSPropertyOp28
 70
     1
102
RTVSPropertyOp29
 70
     1
102
RTVSPropertyOp30
 70
     1
102
RTVSPropertyOp31
 70
     1
102
RTVSPropertyOp32
 70
     1
102
RTVSPropertyOp33
 70
     1
102
RTVSPropertyOp34
 70
     1
102
RTVSPropertyOp35
 70
     1
102
RTVSPropertyOp36
 70
     1
102
RTVSPropertyOp37
 70
     1
102
RTVSPropertyOp38
 70
     1
102
RTVSPropertyOp39
 70
     1
102
RTVSPropertyOp40
 70
     1
102
RTVSPropertyOp41
 70
     1
102
RTVSPropertyOp42
 70
     1
102
RTVSPropertyOp43
 70
     1
102
RTVSPropertyOp44
 70
     1
102
RTVSPropertyOp45
 70
     1
102
RTVSPropertyOp46
 70
     1
102
RTVSPropertyOp47
 70
     1
102
RTVSPropertyOp48
 70
     1
102
RTVSPropertyOp49
 70
     1
102
RTVSPropertyOp50
 70
     1
102
RTVSPropertyOp51
 70
     0
102
RTVSPropertyOp52
 70
     0
102
RTVSPropertyOp53
 70
     1
102
RTVSPropertyOp54
 70
     1
102
RTVSPropertyOp55
 70
     1
102
RTVSPropertyOp56
 70
     1
102
RTVSPropertyOp57
 70
     1
102
RTVSPropertyOp58
 70
     1
102
RTVSPropertyOp59
 70
     1
102
RTVSPropertyOp60
 70
     1
102
RTVSPropertyOp61
 70
     1
102
RTVSPropertyOp62
 70
     1
  0
XRECORD
  5
8266
102
{ACAD_REACTORS
330
8265
102
}
330
8265
100
AcDbXrecord
280
     1
102
RTVSPost2010Prop28
280
     0
102
RTVSPost2010PropOp28
 70
     1
102
RTVSPost2010Prop29
280
     1
102
RTVSPost2010PropOp29
 70
     1
102
RTVSPost2010Prop30
280
     1
102
RTVSPost2010PropOp30
 70
     1
102
RTVSPost2010Prop31
280
     0
102
RTVSPost2010PropOp31
 70
     1
102
RTVSPost2010Prop32
280
     0
102
RTVSPost2010PropOp32
 70
     1
102
RTVSPost2010Prop33
280
     0
102
RTVSPost2010PropOp33
 70
     1
102
RTVSPost2010Prop34
280
     0
102
RTVSPost2010PropOp34
 70
     1
102
RTVSPost2010Prop35
280
     0
102
RTVSPost2010PropOp35
 70
     1
102
RTVSPost2010Prop36
280
     0
102
RTVSPost2010PropOp36
 70
     1
102
RTVSPost2010Prop37
 90
       50
102
RTVSPost2010PropOp37
 70
     1
102
RTVSPost2010Prop38
140
0.0
102
RTVSPost2010PropOp38
 70
     1
102
RTVSPost2010Prop39
140
1.0
102
RTVSPost2010PropOp39
 70
     1
102
RTVSPost2010Prop40
 90
        0
102
RTVSPost2010PropOp40
 70
     1
102
RTVSPost2010Prop41ColorIndex
 90
       18
102
RTVSPost2010Prop41ColorRGB
 90
        0
102
RTVSPost2010PropOp41
 70
     1
102
RTVSPost2010Prop42
 90
       50
102
RTVSPost2010PropOp42
 70
     1
102
RTVSPost2010Prop43
 90
        3
102
RTVSPost2010PropOp43
 70
     1
102
RTVSPost2010Prop44ColorIndex
 90
        5
102
RTVSPost2010Prop44ColorRGB
 90
      255
102
RTVSPost2010PropOp44
 70
     1
102
RTVSPost2010Prop45
280
     0
102
RTVSPost2010PropOp45
 70
     1
102
RTVSPost2010Prop46
 90
       50
102
RTVSPost2010PropOp46
 70
     1
102
RTVSPost2010Prop47
 90
       50
102
RTVSPost2010PropOp47
 70
     1
102
RTVSPost2010Prop48
 90
       50
102
RTVSPost2010PropOp48
 70
     1
102
RTVSPost2010Prop49
280
     0
102
RTVSPost2010PropOp49
 70
     1
102
RTVSPost2010Prop50
 90
       50
102
RTVSPost2010PropOp50
 70
     1
102
RTVSPost2010Prop51ColorIndex
 90
      256
102
RTVSPost2010Prop51ColorRGB
 90
-16777216
102
RTVSPost2010PropOp51
 70
     0
102
RTVSPost2010Prop52
140
1.0
102
RTVSPost2010PropOp52
 70
     0
102
RTVSPost2010Prop53
 90
        2
102
RTVSPost2010PropOp53
 70
     1
102
RTVSPost2010Prop54
  1
strokes_ogs.tif
102
RTVSPost2010PropOp54
 70
     1
102
RTVSPost2010Prop55
280
     0
102
RTVSPost2010PropOp55
 70
     1
102
RTVSPost2010Prop56
140
1.0
102
RTVSPost2010PropOp56
 70
     1
102
RTVSPost2010Prop57
140
1.0
102
RTVSPost2010PropOp57
 70
     1
102
RTVSPropertyOp0
 70
     1
102
RTVSPropertyOp1
 70
     1
102
RTVSPropertyOp2
 70
     1
102
RTVSPropertyOp3
 70
     1
102
RTVSPropertyOp4
 70
     1
102
RTVSPropertyOp5
 70
     1
102
RTVSPropertyOp6
 70
     1
102
RTVSPropertyOp7
 70
     1
102
RTVSPropertyOp8
 70
     1
102
RTVSPropertyOp9
 70
     1
102
RTVSPropertyOp10
 70
     1
102
RTVSPropertyOp11
 70
     1
102
RTVSPropertyOp12
 70
     1
102
RTVSPropertyOp13
 70
     1
102
RTVSPropertyOp14
 70
     1
102
RTVSPropertyOp15
 70
     1
102
RTVSPropertyOp16
 70
     1
102
RTVSPropertyOp17
 70
     1
102
RTVSPropertyOp18
 70
     1
102
RTVSPropertyOp19
 70
     1
102
RTVSPropertyOp20
 70
     1
102
RTVSPropertyOp21
 70
     1
102
RTVSPropertyOp22
 70
     1
102
RTVSPropertyOp23
 70
     1
102
RTVSPropertyOp24
 70
     1
102
RTVSPropertyOp25
 70
     1
102
RTVSPropertyOp26
 70
     1
102
RTVSPropertyOp27
 70
     1
102
RTVSPropertyOp28
 70
     1
102
RTVSPropertyOp29
 70
     1
102
RTVSPropertyOp30
 70
     1
102
RTVSPropertyOp31
 70
     1
102
RTVSPropertyOp32
 70
     1
102
RTVSPropertyOp33
 70
     1
102
RTVSPropertyOp34
 70
     1
102
RTVSPropertyOp35
 70
     1
102
RTVSPropertyOp36
 70
     1
102
RTVSPropertyOp37
 70
     1
102
RTVSPropertyOp38
 70
     1
102
RTVSPropertyOp39
 70
     1
102
RTVSPropertyOp40
 70
     1
102
RTVSPropertyOp41
 70
     1
102
RTVSPropertyOp42
 70
     1
102
RTVSPropertyOp43
 70
     1
102
RTVSPropertyOp44
 70
     1
102
RTVSPropertyOp45
 70
     1
102
RTVSPropertyOp46
 70
     1
102
RTVSPropertyOp47
 70
     1
102
RTVSPropertyOp48
 70
     1
102
RTVSPropertyOp49
 70
     1
102
RTVSPropertyOp50
 70
     1
102
RTVSPropertyOp51
 70
     0
102
RTVSPropertyOp52
 70
     0
102
RTVSPropertyOp53
 70
     1
102
RTVSPropertyOp54
 70
     1
102
RTVSPropertyOp55
 70
     1
102
RTVSPropertyOp56
 70
     1
102
RTVSPropertyOp57
 70
     1
102
RTVSPropertyOp58
 70
     1
102
RTVSPropertyOp59
 70
     1
102
RTVSPropertyOp60
 70
     1
102
RTVSPropertyOp61
 70
     1
102
RTVSPropertyOp62
 70
     1
  0
XRECORD
  5
826E
102
{ACAD_REACTORS
330
826D
102
}
330
826D
100
AcDbXrecord
280
     1
102
RTVSPost2010Prop28
280
     0
102
RTVSPost2010PropOp28
 70
     1
102
RTVSPost2010Prop29
280
     1
102
RTVSPost2010PropOp29
 70
     1
102
RTVSPost2010Prop30
280
     1
102
RTVSPost2010PropOp30
 70
     1
102
RTVSPost2010Prop31
280
     0
102
RTVSPost2010PropOp31
 70
     1
102
RTVSPost2010Prop32
280
     0
102
RTVSPost2010PropOp32
 70
     1
102
RTVSPost2010Prop33
280
     0
102
RTVSPost2010PropOp33
 70
     1
102
RTVSPost2010Prop34
280
     0
102
RTVSPost2010PropOp34
 70
     1
102
RTVSPost2010Prop35
280
     0
102
RTVSPost2010PropOp35
 70
     1
102
RTVSPost2010Prop36
280
     0
102
RTVSPost2010PropOp36
 70
     1
102
RTVSPost2010Prop37
 90
       50
102
RTVSPost2010PropOp37
 70
     1
102
RTVSPost2010Prop38
140
0.0
102
RTVSPost2010PropOp38
 70
     1
102
RTVSPost2010Prop39
140
1.0
102
RTVSPost2010PropOp39
 70
     1
102
RTVSPost2010Prop40
 90
        0
102
RTVSPost2010PropOp40
 70
     1
102
RTVSPost2010Prop41ColorIndex
 90
       18
102
RTVSPost2010Prop41ColorRGB
 90
        0
102
RTVSPost2010PropOp41
 70
     1
102
RTVSPost2010Prop42
 90
       50
102
RTVSPost2010PropOp42
 70
     1
102
RTVSPost2010Prop43
 90
        3
102
RTVSPost2010PropOp43
 70
     1
102
RTVSPost2010Prop44ColorIndex
 90
        5
102
RTVSPost2010Prop44ColorRGB
 90
      255
102
RTVSPost2010PropOp44
 70
     1
102
RTVSPost2010Prop45
280
     0
102
RTVSPost2010PropOp45
 70
     1
102
RTVSPost2010Prop46
 90
       50
102
RTVSPost2010PropOp46
 70
     1
102
RTVSPost2010Prop47
 90
       50
102
RTVSPost2010PropOp47
 70
     1
102
RTVSPost2010Prop48
 90
       50
102
RTVSPost2010PropOp48
 70
     1
102
RTVSPost2010Prop49
280
     0
102
RTVSPost2010PropOp49
 70
     1
102
RTVSPost2010Prop50
 90
       50
102
RTVSPost2010PropOp50
 70
     1
102
RTVSPost2010Prop51ColorIndex
 90
      256
102
RTVSPost2010Prop51ColorRGB
 90
-16777216
102
RTVSPost2010PropOp51
 70
     0
102
RTVSPost2010Prop52
140
1.0
102
RTVSPost2010PropOp52
 70
     0
102
RTVSPost2010Prop53
 90
        2
102
RTVSPost2010PropOp53
 70
     1
102
RTVSPost2010Prop54
  1
strokes_ogs.tif
102
RTVSPost2010PropOp54
 70
     1
102
RTVSPost2010Prop55
280
     0
102
RTVSPost2010PropOp55
 70
     1
102
RTVSPost2010Prop56
140
1.0
102
RTVSPost2010PropOp56
 70
     1
102
RTVSPost2010Prop57
140
1.0
102
RTVSPost2010PropOp57
 70
     1
102
RTVSPropertyOp0
 70
     1
102
RTVSPropertyOp1
 70
     1
102
RTVSPropertyOp2
 70
     1
102
RTVSPropertyOp3
 70
     1
102
RTVSPropertyOp4
 70
     1
102
RTVSPropertyOp5
 70
     1
102
RTVSPropertyOp6
 70
     1
102
RTVSPropertyOp7
 70
     1
102
RTVSPropertyOp8
 70
     1
102
RTVSPropertyOp9
 70
     1
102
RTVSPropertyOp10
 70
     1
102
RTVSPropertyOp11
 70
     1
102
RTVSPropertyOp12
 70
     1
102
RTVSPropertyOp13
 70
     1
102
RTVSPropertyOp14
 70
     1
102
RTVSPropertyOp15
 70
     1
102
RTVSPropertyOp16
 70
     1
102
RTVSPropertyOp17
 70
     1
102
RTVSPropertyOp18
 70
     1
102
RTVSPropertyOp19
 70
     1
102
RTVSPropertyOp20
 70
     1
102
RTVSPropertyOp21
 70
     1
102
RTVSPropertyOp22
 70
     1
102
RTVSPropertyOp23
 70
     1
102
RTVSPropertyOp24
 70
     1
102
RTVSPropertyOp25
 70
     1
102
RTVSPropertyOp26
 70
     1
102
RTVSPropertyOp27
 70
     1
102
RTVSPropertyOp28
 70
     1
102
RTVSPropertyOp29
 70
     1
102
RTVSPropertyOp30
 70
     1
102
RTVSPropertyOp31
 70
     1
102
RTVSPropertyOp32
 70
     1
102
RTVSPropertyOp33
 70
     1
102
RTVSPropertyOp34
 70
     1
102
RTVSPropertyOp35
 70
     1
102
RTVSPropertyOp36
 70
     1
102
RTVSPropertyOp37
 70
     1
102
RTVSPropertyOp38
 70
     1
102
RTVSPropertyOp39
 70
     1
102
RTVSPropertyOp40
 70
     1
102
RTVSPropertyOp41
 70
     1
102
RTVSPropertyOp42
 70
     1
102
RTVSPropertyOp43
 70
     1
102
RTVSPropertyOp44
 70
     1
102
RTVSPropertyOp45
 70
     1
102
RTVSPropertyOp46
 70
     1
102
RTVSPropertyOp47
 70
     1
102
RTVSPropertyOp48
 70
     1
102
RTVSPropertyOp49
 70
     1
102
RTVSPropertyOp50
 70
     1
102
RTVSPropertyOp51
 70
     0
102
RTVSPropertyOp52
 70
     0
102
RTVSPropertyOp53
 70
     1
102
RTVSPropertyOp54
 70
     1
102
RTVSPropertyOp55
 70
     1
102
RTVSPropertyOp56
 70
     1
102
RTVSPropertyOp57
 70
     1
102
RTVSPropertyOp58
 70
     1
102
RTVSPropertyOp59
 70
     1
102
RTVSPropertyOp60
 70
     1
102
RTVSPropertyOp61
 70
     1
102
RTVSPropertyOp62
 70
     1
  0
XRECORD
  5
828A
102
{ACAD_REACTORS
330
8289
102
}
330
8289
100
AcDbXrecord
280
     1
102
RTVSPost2010Prop28
280
     0
102
RTVSPost2010PropOp28
 70
     1
102
RTVSPost2010Prop29
280
     1
102
RTVSPost2010PropOp29
 70
     1
102
RTVSPost2010Prop30
280
     1
102
RTVSPost2010PropOp30
 70
     1
102
RTVSPost2010Prop31
280
     0
102
RTVSPost2010PropOp31
 70
     1
102
RTVSPost2010Prop32
280
     0
102
RTVSPost2010PropOp32
 70
     1
102
RTVSPost2010Prop33
280
     0
102
RTVSPost2010PropOp33
 70
     1
102
RTVSPost2010Prop34
280
     0
102
RTVSPost2010PropOp34
 70
     1
102
RTVSPost2010Prop35
280
     0
102
RTVSPost2010PropOp35
 70
     1
102
RTVSPost2010Prop36
280
     0
102
RTVSPost2010PropOp36
 70
     1
102
RTVSPost2010Prop37
 90
       50
102
RTVSPost2010PropOp37
 70
     0
102
RTVSPost2010Prop38
140
0.0
102
RTVSPost2010PropOp38
 70
     0
102
RTVSPost2010Prop39
140
1.0
102
RTVSPost2010PropOp39
 70
     0
102
RTVSPost2010Prop40
 90
        0
102
RTVSPost2010PropOp40
 70
     0
102
RTVSPost2010Prop41ColorIndex
 90
       18
102
RTVSPost2010Prop41ColorRGB
 90
        0
102
RTVSPost2010PropOp41
 70
     0
102
RTVSPost2010Prop42
 90
       50
102
RTVSPost2010PropOp42
 70
     0
102
RTVSPost2010Prop43
 90
        3
102
RTVSPost2010PropOp43
 70
     0
102
RTVSPost2010Prop44ColorIndex
 90
        5
102
RTVSPost2010Prop44ColorRGB
 90
      255
102
RTVSPost2010PropOp44
 70
     0
102
RTVSPost2010Prop45
280
     0
102
RTVSPost2010PropOp45
 70
     1
102
RTVSPost2010Prop46
 90
       50
102
RTVSPost2010PropOp46
 70
     0
102
RTVSPost2010Prop47
 90
       50
102
RTVSPost2010PropOp47
 70
     0
102
RTVSPost2010Prop48
 90
       50
102
RTVSPost2010PropOp48
 70
     0
102
RTVSPost2010Prop49
280
     0
102
RTVSPost2010PropOp49
 70
     1
102
RTVSPost2010Prop50
 90
       50
102
RTVSPost2010PropOp50
 70
     0
102
RTVSPost2010Prop51ColorIndex
 90
      256
102
RTVSPost2010Prop51ColorRGB
 90
-16777216
102
RTVSPost2010PropOp51
 70
     0
102
RTVSPost2010Prop52
140
1.0
102
RTVSPost2010PropOp52
 70
     0
102
RTVSPost2010Prop53
 90
        2
102
RTVSPost2010PropOp53
 70
     0
102
RTVSPost2010Prop54
  1
strokes_ogs.tif
102
RTVSPost2010PropOp54
 70
     0
102
RTVSPost2010Prop55
280
     0
102
RTVSPost2010PropOp55
 70
     1
102
RTVSPost2010Prop56
140
1.0
102
RTVSPost2010PropOp56
 70
     0
102
RTVSPost2010Prop57
140
1.0
102
RTVSPost2010PropOp57
 70
     0
102
RTVSPropertyOp0
 70
     0
102
RTVSPropertyOp1
 70
     0
102
RTVSPropertyOp2
 70
     0
102
RTVSPropertyOp3
 70
     0
102
RTVSPropertyOp4
 70
     0
102
RTVSPropertyOp5
 70
     0
102
RTVSPropertyOp6
 70
     0
102
RTVSPropertyOp7
 70
     0
102
RTVSPropertyOp8
 70
     0
102
RTVSPropertyOp9
 70
     0
102
RTVSPropertyOp10
 70
     0
102
RTVSPropertyOp11
 70
     0
102
RTVSPropertyOp12
 70
     0
102
RTVSPropertyOp13
 70
     0
102
RTVSPropertyOp14
 70
     2
102
RTVSPropertyOp15
 70
     0
102
RTVSPropertyOp16
 70
     0
102
RTVSPropertyOp17
 70
     0
102
RTVSPropertyOp18
 70
     0
102
RTVSPropertyOp19
 70
     0
102
RTVSPropertyOp20
 70
     0
102
RTVSPropertyOp21
 70
     0
102
RTVSPropertyOp22
 70
     0
102
RTVSPropertyOp23
 70
     0
102
RTVSPropertyOp24
 70
     0
102
RTVSPropertyOp25
 70
     0
102
RTVSPropertyOp26
 70
     0
102
RTVSPropertyOp27
 70
     0
102
RTVSPropertyOp28
 70
     1
102
RTVSPropertyOp29
 70
     1
102
RTVSPropertyOp30
 70
     1
102
RTVSPropertyOp31
 70
     1
102
RTVSPropertyOp32
 70
     1
102
RTVSPropertyOp33
 70
     1
102
RTVSPropertyOp34
 70
     1
102
RTVSPropertyOp35
 70
     1
102
RTVSPropertyOp36
 70
     1
102
RTVSPropertyOp37
 70
     0
102
RTVSPropertyOp38
 70
     0
102
RTVSPropertyOp39
 70
     0
102
RTVSPropertyOp40
 70
     0
102
RTVSPropertyOp41
 70
     0
102
RTVSPropertyOp42
 70
     0
102
RTVSPropertyOp43
 70
     0
102
RTVSPropertyOp44
 70
     0
102
RTVSPropertyOp45
 70
     1
102
RTVSPropertyOp46
 70
     0
102
RTVSPropertyOp47
 70
     0
102
RTVSPropertyOp48
 70
     0
102
RTVSPropertyOp49
 70
     1
102
RTVSPropertyOp50
 70
     0
102
RTVSPropertyOp51
 70
     0
102
RTVSPropertyOp52
 70
     0
102
RTVSPropertyOp53
 70
     0
102
RTVSPropertyOp54
 70
     0
102
RTVSPropertyOp55
 70
     1
102
RTVSPropertyOp56
 70
     0
102
RTVSPropertyOp57
 70
     0
102
RTVSPropertyOp58
 70
     0
102
RTVSPropertyOp59
 70
     0
102
RTVSPropertyOp60
 70
     0
102
RTVSPropertyOp61
 70
     0
102
RTVSPropertyOp62
 70
     0
  0
XRECORD
  5
827A
102
{ACAD_REACTORS
330
8279
102
}
330
8279
100
AcDbXrecord
280
     1
102
RTVSPost2010Prop28
280
     0
102
RTVSPost2010PropOp28
 70
     1
102
RTVSPost2010Prop29
280
     1
102
RTVSPost2010PropOp29
 70
     1
102
RTVSPost2010Prop30
280
     1
102
RTVSPost2010PropOp30
 70
     1
102
RTVSPost2010Prop31
280
     0
102
RTVSPost2010PropOp31
 70
     1
102
RTVSPost2010Prop32
280
     0
102
RTVSPost2010PropOp32
 70
     1
102
RTVSPost2010Prop33
280
     0
102
RTVSPost2010PropOp33
 70
     1
102
RTVSPost2010Prop34
280
     0
102
RTVSPost2010PropOp34
 70
     1
102
RTVSPost2010Prop35
280
     0
102
RTVSPost2010PropOp35
 70
     1
102
RTVSPost2010Prop36
280
     0
102
RTVSPost2010PropOp36
 70
     1
102
RTVSPost2010Prop37
 90
       50
102
RTVSPost2010PropOp37
 70
     1
102
RTVSPost2010Prop38
140
0.0
102
RTVSPost2010PropOp38
 70
     1
102
RTVSPost2010Prop39
140
1.0
102
RTVSPost2010PropOp39
 70
     1
102
RTVSPost2010Prop40
 90
        0
102
RTVSPost2010PropOp40
 70
     1
102
RTVSPost2010Prop41ColorIndex
 90
       18
102
RTVSPost2010Prop41ColorRGB
 90
        0
102
RTVSPost2010PropOp41
 70
     1
102
RTVSPost2010Prop42
 90
       50
102
RTVSPost2010PropOp42
 70
     1
102
RTVSPost2010Prop43
 90
        3
102
RTVSPost2010PropOp43
 70
     1
102
RTVSPost2010Prop44ColorIndex
 90
        5
102
RTVSPost2010Prop44ColorRGB
 90
      255
102
RTVSPost2010PropOp44
 70
     1
102
RTVSPost2010Prop45
280
     0
102
RTVSPost2010PropOp45
 70
     1
102
RTVSPost2010Prop46
 90
       50
102
RTVSPost2010PropOp46
 70
     1
102
RTVSPost2010Prop47
 90
       50
102
RTVSPost2010PropOp47
 70
     1
102
RTVSPost2010Prop48
 90
       50
102
RTVSPost2010PropOp48
 70
     1
102
RTVSPost2010Prop49
280
     0
102
RTVSPost2010PropOp49
 70
     1
102
RTVSPost2010Prop50
 90
       50
102
RTVSPost2010PropOp50
 70
     1
102
RTVSPost2010Prop51ColorIndex
 90
      256
102
RTVSPost2010Prop51ColorRGB
 90
-16777216
102
RTVSPost2010PropOp51
 70
     0
102
RTVSPost2010Prop52
140
1.0
102
RTVSPost2010PropOp52
 70
     0
102
RTVSPost2010Prop53
 90
        2
102
RTVSPost2010PropOp53
 70
     1
102
RTVSPost2010Prop54
  1
strokes_ogs.tif
102
RTVSPost2010PropOp54
 70
     1
102
RTVSPost2010Prop55
280
     0
102
RTVSPost2010PropOp55
 70
     1
102
RTVSPost2010Prop56
140
1.0
102
RTVSPost2010PropOp56
 70
     1
102
RTVSPost2010Prop57
140
1.0
102
RTVSPost2010PropOp57
 70
     1
102
RTVSPropertyOp0
 70
     1
102
RTVSPropertyOp1
 70
     1
102
RTVSPropertyOp2
 70
     1
102
RTVSPropertyOp3
 70
     1
102
RTVSPropertyOp4
 70
     1
102
RTVSPropertyOp5
 70
     1
102
RTVSPropertyOp6
 70
     1
102
RTVSPropertyOp7
 70
     1
102
RTVSPropertyOp8
 70
     1
102
RTVSPropertyOp9
 70
     1
102
RTVSPropertyOp10
 70
     1
102
RTVSPropertyOp11
 70
     1
102
RTVSPropertyOp12
 70
     1
102
RTVSPropertyOp13
 70
     1
102
RTVSPropertyOp14
 70
     1
102
RTVSPropertyOp15
 70
     1
102
RTVSPropertyOp16
 70
     1
102
RTVSPropertyOp17
 70
     1
102
RTVSPropertyOp18
 70
     1
102
RTVSPropertyOp19
 70
     1
102
RTVSPropertyOp20
 70
     1
102
RTVSPropertyOp21
 70
     1
102
RTVSPropertyOp22
 70
     1
102
RTVSPropertyOp23
 70
     1
102
RTVSPropertyOp24
 70
     1
102
RTVSPropertyOp25
 70
     1
102
RTVSPropertyOp26
 70
     1
102
RTVSPropertyOp27
 70
     1
102
RTVSPropertyOp28
 70
     1
102
RTVSPropertyOp29
 70
     1
102
RTVSPropertyOp30
 70
     1
102
RTVSPropertyOp31
 70
     1
102
RTVSPropertyOp32
 70
     1
102
RTVSPropertyOp33
 70
     1
102
RTVSPropertyOp34
 70
     1
102
RTVSPropertyOp35
 70
     1
102
RTVSPropertyOp36
 70
     1
102
RTVSPropertyOp37
 70
     1
102
RTVSPropertyOp38
 70
     1
102
RTVSPropertyOp39
 70
     1
102
RTVSPropertyOp40
 70
     1
102
RTVSPropertyOp41
 70
     1
102
RTVSPropertyOp42
 70
     1
102
RTVSPropertyOp43
 70
     1
102
RTVSPropertyOp44
 70
     1
102
RTVSPropertyOp45
 70
     1
102
RTVSPropertyOp46
 70
     1
102
RTVSPropertyOp47
 70
     1
102
RTVSPropertyOp48
 70
     1
102
RTVSPropertyOp49
 70
     1
102
RTVSPropertyOp50
 70
     1
102
RTVSPropertyOp51
 70
     0
102
RTVSPropertyOp52
 70
     0
102
RTVSPropertyOp53
 70
     1
102
RTVSPropertyOp54
 70
     1
102
RTVSPropertyOp55
 70
     1
102
RTVSPropertyOp56
 70
     1
102
RTVSPropertyOp57
 70
     1
102
RTVSPropertyOp58
 70
     1
102
RTVSPropertyOp59
 70
     1
102
RTVSPropertyOp60
 70
     1
102
RTVSPropertyOp61
 70
     1
102
RTVSPropertyOp62
 70
     1
  0
XRECORD
  5
828C
102
{ACAD_REACTORS
330
828B
102
}
330
828B
100
AcDbXrecord
280
     1
102
RTVSPost2010Prop28
280
     0
102
RTVSPost2010PropOp28
 70
     1
102
RTVSPost2010Prop29
280
     1
102
RTVSPost2010PropOp29
 70
     1
102
RTVSPost2010Prop30
280
     1
102
RTVSPost2010PropOp30
 70
     1
102
RTVSPost2010Prop31
280
     0
102
RTVSPost2010PropOp31
 70
     1
102
RTVSPost2010Prop32
280
     0
102
RTVSPost2010PropOp32
 70
     1
102
RTVSPost2010Prop33
280
     0
102
RTVSPost2010PropOp33
 70
     1
102
RTVSPost2010Prop34
280
     0
102
RTVSPost2010PropOp34
 70
     1
102
RTVSPost2010Prop35
280
     0
102
RTVSPost2010PropOp35
 70
     1
102
RTVSPost2010Prop36
280
     0
102
RTVSPost2010PropOp36
 70
     1
102
RTVSPost2010Prop37
 90
       50
102
RTVSPost2010PropOp37
 70
     0
102
RTVSPost2010Prop38
140
0.0
102
RTVSPost2010PropOp38
 70
     0
102
RTVSPost2010Prop39
140
1.0
102
RTVSPost2010PropOp39
 70
     0
102
RTVSPost2010Prop40
 90
        0
102
RTVSPost2010PropOp40
 70
     0
102
RTVSPost2010Prop41ColorIndex
 90
       18
102
RTVSPost2010Prop41ColorRGB
 90
        0
102
RTVSPost2010PropOp41
 70
     0
102
RTVSPost2010Prop42
 90
       50
102
RTVSPost2010PropOp42
 70
     0
102
RTVSPost2010Prop43
 90
        3
102
RTVSPost2010PropOp43
 70
     0
102
RTVSPost2010Prop44ColorIndex
 90
        5
102
RTVSPost2010Prop44ColorRGB
 90
      255
102
RTVSPost2010PropOp44
 70
     0
102
RTVSPost2010Prop45
280
     0
102
RTVSPost2010PropOp45
 70
     1
102
RTVSPost2010Prop46
 90
       50
102
RTVSPost2010PropOp46
 70
     0
102
RTVSPost2010Prop47
 90
       50
102
RTVSPost2010PropOp47
 70
     0
102
RTVSPost2010Prop48
 90
       50
102
RTVSPost2010PropOp48
 70
     0
102
RTVSPost2010Prop49
280
     0
102
RTVSPost2010PropOp49
 70
     1
102
RTVSPost2010Prop50
 90
       50
102
RTVSPost2010PropOp50
 70
     0
102
RTVSPost2010Prop51ColorIndex
 90
      256
102
RTVSPost2010Prop51ColorRGB
 90
-16777216
102
RTVSPost2010PropOp51
 70
     0
102
RTVSPost2010Prop52
140
1.0
102
RTVSPost2010PropOp52
 70
     0
102
RTVSPost2010Prop53
 90
        2
102
RTVSPost2010PropOp53
 70
     0
102
RTVSPost2010Prop54
  1
strokes_ogs.tif
102
RTVSPost2010PropOp54
 70
     0
102
RTVSPost2010Prop55
280
     0
102
RTVSPost2010PropOp55
 70
     1
102
RTVSPost2010Prop56
140
1.0
102
RTVSPost2010PropOp56
 70
     0
102
RTVSPost2010Prop57
140
1.0
102
RTVSPost2010PropOp57
 70
     0
102
RTVSPropertyOp0
 70
     0
102
RTVSPropertyOp1
 70
     0
102
RTVSPropertyOp2
 70
     0
102
RTVSPropertyOp3
 70
     0
102
RTVSPropertyOp4
 70
     0
102
RTVSPropertyOp5
 70
     0
102
RTVSPropertyOp6
 70
     0
102
RTVSPropertyOp7
 70
     0
102
RTVSPropertyOp8
 70
     0
102
RTVSPropertyOp9
 70
     0
102
RTVSPropertyOp10
 70
     0
102
RTVSPropertyOp11
 70
     0
102
RTVSPropertyOp12
 70
     0
102
RTVSPropertyOp13
 70
     0
102
RTVSPropertyOp14
 70
     2
102
RTVSPropertyOp15
 70
     0
102
RTVSPropertyOp16
 70
     0
102
RTVSPropertyOp17
 70
     0
102
RTVSPropertyOp18
 70
     0
102
RTVSPropertyOp19
 70
     0
102
RTVSPropertyOp20
 70
     0
102
RTVSPropertyOp21
 70
     0
102
RTVSPropertyOp22
 70
     0
102
RTVSPropertyOp23
 70
     0
102
RTVSPropertyOp24
 70
     0
102
RTVSPropertyOp25
 70
     0
102
RTVSPropertyOp26
 70
     0
102
RTVSPropertyOp27
 70
     0
102
RTVSPropertyOp28
 70
     1
102
RTVSPropertyOp29
 70
     1
102
RTVSPropertyOp30
 70
     1
102
RTVSPropertyOp31
 70
     1
102
RTVSPropertyOp32
 70
     1
102
RTVSPropertyOp33
 70
     1
102
RTVSPropertyOp34
 70
     1
102
RTVSPropertyOp35
 70
     1
102
RTVSPropertyOp36
 70
     1
102
RTVSPropertyOp37
 70
     0
102
RTVSPropertyOp38
 70
     0
102
RTVSPropertyOp39
 70
     0
102
RTVSPropertyOp40
 70
     0
102
RTVSPropertyOp41
 70
     0
102
RTVSPropertyOp42
 70
     0
102
RTVSPropertyOp43
 70
     0
102
RTVSPropertyOp44
 70
     0
102
RTVSPropertyOp45
 70
     1
102
RTVSPropertyOp46
 70
     0
102
RTVSPropertyOp47
 70
     0
102
RTVSPropertyOp48
 70
     0
102
RTVSPropertyOp49
 70
     1
102
RTVSPropertyOp50
 70
     0
102
RTVSPropertyOp51
 70
     0
102
RTVSPropertyOp52
 70
     0
102
RTVSPropertyOp53
 70
     0
102
RTVSPropertyOp54
 70
     0
102
RTVSPropertyOp55
 70
     1
102
RTVSPropertyOp56
 70
     0
102
RTVSPropertyOp57
 70
     0
102
RTVSPropertyOp58
 70
     0
102
RTVSPropertyOp59
 70
     0
102
RTVSPropertyOp60
 70
     0
102
RTVSPropertyOp61
 70
     0
102
RTVSPropertyOp62
 70
     0
  0
XRECORD
  5
8272
102
{ACAD_REACTORS
330
8271
102
}
330
8271
100
AcDbXrecord
280
     1
102
RTVSPost2010Prop28
280
     0
102
RTVSPost2010PropOp28
 70
     1
102
RTVSPost2010Prop29
280
     1
102
RTVSPost2010PropOp29
 70
     1
102
RTVSPost2010Prop30
280
     1
102
RTVSPost2010PropOp30
 70
     1
102
RTVSPost2010Prop31
280
     0
102
RTVSPost2010PropOp31
 70
     1
102
RTVSPost2010Prop32
280
     0
102
RTVSPost2010PropOp32
 70
     1
102
RTVSPost2010Prop33
280
     0
102
RTVSPost2010PropOp33
 70
     1
102
RTVSPost2010Prop34
280
     0
102
RTVSPost2010PropOp34
 70
     1
102
RTVSPost2010Prop35
280
     0
102
RTVSPost2010PropOp35
 70
     1
102
RTVSPost2010Prop36
280
     0
102
RTVSPost2010PropOp36
 70
     1
102
RTVSPost2010Prop37
 90
       50
102
RTVSPost2010PropOp37
 70
     1
102
RTVSPost2010Prop38
140
0.0
102
RTVSPost2010PropOp38
 70
     1
102
RTVSPost2010Prop39
140
1.0
102
RTVSPost2010PropOp39
 70
     1
102
RTVSPost2010Prop40
 90
        0
102
RTVSPost2010PropOp40
 70
     1
102
RTVSPost2010Prop41ColorIndex
 90
       18
102
RTVSPost2010Prop41ColorRGB
 90
        0
102
RTVSPost2010PropOp41
 70
     1
102
RTVSPost2010Prop42
 90
       50
102
RTVSPost2010PropOp42
 70
     1
102
RTVSPost2010Prop43
 90
        3
102
RTVSPost2010PropOp43
 70
     1
102
RTVSPost2010Prop44ColorIndex
 90
        5
102
RTVSPost2010Prop44ColorRGB
 90
      255
102
RTVSPost2010PropOp44
 70
     1
102
RTVSPost2010Prop45
280
     0
102
RTVSPost2010PropOp45
 70
     1
102
RTVSPost2010Prop46
 90
       50
102
RTVSPost2010PropOp46
 70
     1
102
RTVSPost2010Prop47
 90
       50
102
RTVSPost2010PropOp47
 70
     1
102
RTVSPost2010Prop48
 90
       50
102
RTVSPost2010PropOp48
 70
     1
102
RTVSPost2010Prop49
280
     0
102
RTVSPost2010PropOp49
 70
     1
102
RTVSPost2010Prop50
 90
       50
102
RTVSPost2010PropOp50
 70
     1
102
RTVSPost2010Prop51ColorIndex
 90
      256
102
RTVSPost2010Prop51ColorRGB
 90
-16777216
102
RTVSPost2010PropOp51
 70
     0
102
RTVSPost2010Prop52
140
1.0
102
RTVSPost2010PropOp52
 70
     0
102
RTVSPost2010Prop53
 90
        2
102
RTVSPost2010PropOp53
 70
     1
102
RTVSPost2010Prop54
  1
strokes_ogs.tif
102
RTVSPost2010PropOp54
 70
     1
102
RTVSPost2010Prop55
280
     0
102
RTVSPost2010PropOp55
 70
     1
102
RTVSPost2010Prop56
140
1.0
102
RTVSPost2010PropOp56
 70
     1
102
RTVSPost2010Prop57
140
1.0
102
RTVSPost2010PropOp57
 70
     1
102
RTVSPropertyOp0
 70
     1
102
RTVSPropertyOp1
 70
     1
102
RTVSPropertyOp2
 70
     1
102
RTVSPropertyOp3
 70
     1
102
RTVSPropertyOp4
 70
     1
102
RTVSPropertyOp5
 70
     1
102
RTVSPropertyOp6
 70
     1
102
RTVSPropertyOp7
 70
     1
102
RTVSPropertyOp8
 70
     1
102
RTVSPropertyOp9
 70
     1
102
RTVSPropertyOp10
 70
     1
102
RTVSPropertyOp11
 70
     1
102
RTVSPropertyOp12
 70
     1
102
RTVSPropertyOp13
 70
     1
102
RTVSPropertyOp14
 70
     1
102
RTVSPropertyOp15
 70
     1
102
RTVSPropertyOp16
 70
     1
102
RTVSPropertyOp17
 70
     1
102
RTVSPropertyOp18
 70
     1
102
RTVSPropertyOp19
 70
     1
102
RTVSPropertyOp20
 70
     1
102
RTVSPropertyOp21
 70
     1
102
RTVSPropertyOp22
 70
     1
102
RTVSPropertyOp23
 70
     1
102
RTVSPropertyOp24
 70
     1
102
RTVSPropertyOp25
 70
     1
102
RTVSPropertyOp26
 70
     1
102
RTVSPropertyOp27
 70
     1
102
RTVSPropertyOp28
 70
     1
102
RTVSPropertyOp29
 70
     1
102
RTVSPropertyOp30
 70
     1
102
RTVSPropertyOp31
 70
     1
102
RTVSPropertyOp32
 70
     1
102
RTVSPropertyOp33
 70
     1
102
RTVSPropertyOp34
 70
     1
102
RTVSPropertyOp35
 70
     1
102
RTVSPropertyOp36
 70
     1
102
RTVSPropertyOp37
 70
     1
102
RTVSPropertyOp38
 70
     1
102
RTVSPropertyOp39
 70
     1
102
RTVSPropertyOp40
 70
     1
102
RTVSPropertyOp41
 70
     1
102
RTVSPropertyOp42
 70
     1
102
RTVSPropertyOp43
 70
     1
102
RTVSPropertyOp44
 70
     1
102
RTVSPropertyOp45
 70
     1
102
RTVSPropertyOp46
 70
     1
102
RTVSPropertyOp47
 70
     1
102
RTVSPropertyOp48
 70
     1
102
RTVSPropertyOp49
 70
     1
102
RTVSPropertyOp50
 70
     1
102
RTVSPropertyOp51
 70
     0
102
RTVSPropertyOp52
 70
     0
102
RTVSPropertyOp53
 70
     1
102
RTVSPropertyOp54
 70
     1
102
RTVSPropertyOp55
 70
     1
102
RTVSPropertyOp56
 70
     1
102
RTVSPropertyOp57
 70
     1
102
RTVSPropertyOp58
 70
     1
102
RTVSPropertyOp59
 70
     1
102
RTVSPropertyOp60
 70
     1
102
RTVSPropertyOp61
 70
     1
102
RTVSPropertyOp62
 70
     1
  0
XRECORD
  5
8288
102
{ACAD_REACTORS
330
8287
102
}
330
8287
100
AcDbXrecord
280
     1
102
RTVSPost2010Prop28
280
     0
102
RTVSPost2010PropOp28
 70
     1
102
RTVSPost2010Prop29
280
     1
102
RTVSPost2010PropOp29
 70
     1
102
RTVSPost2010Prop30
280
     1
102
RTVSPost2010PropOp30
 70
     1
102
RTVSPost2010Prop31
280
     0
102
RTVSPost2010PropOp31
 70
     1
102
RTVSPost2010Prop32
280
     0
102
RTVSPost2010PropOp32
 70
     1
102
RTVSPost2010Prop33
280
     0
102
RTVSPost2010PropOp33
 70
     1
102
RTVSPost2010Prop34
280
     0
102
RTVSPost2010PropOp34
 70
     1
102
RTVSPost2010Prop35
280
     0
102
RTVSPost2010PropOp35
 70
     1
102
RTVSPost2010Prop36
280
     0
102
RTVSPost2010PropOp36
 70
     1
102
RTVSPost2010Prop37
 90
       50
102
RTVSPost2010PropOp37
 70
     1
102
RTVSPost2010Prop38
140
0.0
102
RTVSPost2010PropOp38
 70
     1
102
RTVSPost2010Prop39
140
1.0
102
RTVSPost2010PropOp39
 70
     1
102
RTVSPost2010Prop40
 90
        0
102
RTVSPost2010PropOp40
 70
     1
102
RTVSPost2010Prop41ColorIndex
 90
       18
102
RTVSPost2010Prop41ColorRGB
 90
        0
102
RTVSPost2010PropOp41
 70
     1
102
RTVSPost2010Prop42
 90
       50
102
RTVSPost2010PropOp42
 70
     1
102
RTVSPost2010Prop43
 90
        3
102
RTVSPost2010PropOp43
 70
     1
102
RTVSPost2010Prop44ColorIndex
 90
        5
102
RTVSPost2010Prop44ColorRGB
 90
      255
102
RTVSPost2010PropOp44
 70
     1
102
RTVSPost2010Prop45
280
     0
102
RTVSPost2010PropOp45
 70
     1
102
RTVSPost2010Prop46
 90
       50
102
RTVSPost2010PropOp46
 70
     1
102
RTVSPost2010Prop47
 90
       50
102
RTVSPost2010PropOp47
 70
     1
102
RTVSPost2010Prop48
 90
       50
102
RTVSPost2010PropOp48
 70
     1
102
RTVSPost2010Prop49
280
     0
102
RTVSPost2010PropOp49
 70
     1
102
RTVSPost2010Prop50
 90
       50
102
RTVSPost2010PropOp50
 70
     1
102
RTVSPost2010Prop51ColorIndex
 90
      256
102
RTVSPost2010Prop51ColorRGB
 90
-16777216
102
RTVSPost2010PropOp51
 70
     0
102
RTVSPost2010Prop52
140
1.0
102
RTVSPost2010PropOp52
 70
     0
102
RTVSPost2010Prop53
 90
        2
102
RTVSPost2010PropOp53
 70
     1
102
RTVSPost2010Prop54
  1
strokes_ogs.tif
102
RTVSPost2010PropOp54
 70
     1
102
RTVSPost2010Prop55
280
     0
102
RTVSPost2010PropOp55
 70
     1
102
RTVSPost2010Prop56
140
1.0
102
RTVSPost2010PropOp56
 70
     1
102
RTVSPost2010Prop57
140
1.0
102
RTVSPost2010PropOp57
 70
     1
102
RTVSPropertyOp0
 70
     1
102
RTVSPropertyOp1
 70
     1
102
RTVSPropertyOp2
 70
     1
102
RTVSPropertyOp3
 70
     1
102
RTVSPropertyOp4
 70
     1
102
RTVSPropertyOp5
 70
     1
102
RTVSPropertyOp6
 70
     1
102
RTVSPropertyOp7
 70
     1
102
RTVSPropertyOp8
 70
     1
102
RTVSPropertyOp9
 70
     1
102
RTVSPropertyOp10
 70
     1
102
RTVSPropertyOp11
 70
     1
102
RTVSPropertyOp12
 70
     1
102
RTVSPropertyOp13
 70
     1
102
RTVSPropertyOp14
 70
     1
102
RTVSPropertyOp15
 70
     1
102
RTVSPropertyOp16
 70
     1
102
RTVSPropertyOp17
 70
     1
102
RTVSPropertyOp18
 70
     1
102
RTVSPropertyOp19
 70
     1
102
RTVSPropertyOp20
 70
     1
102
RTVSPropertyOp21
 70
     1
102
RTVSPropertyOp22
 70
     1
102
RTVSPropertyOp23
 70
     1
102
RTVSPropertyOp24
 70
     1
102
RTVSPropertyOp25
 70
     1
102
RTVSPropertyOp26
 70
     1
102
RTVSPropertyOp27
 70
     1
102
RTVSPropertyOp28
 70
     1
102
RTVSPropertyOp29
 70
     1
102
RTVSPropertyOp30
 70
     1
102
RTVSPropertyOp31
 70
     1
102
RTVSPropertyOp32
 70
     1
102
RTVSPropertyOp33
 70
     1
102
RTVSPropertyOp34
 70
     1
102
RTVSPropertyOp35
 70
     1
102
RTVSPropertyOp36
 70
     1
102
RTVSPropertyOp37
 70
     1
102
RTVSPropertyOp38
 70
     1
102
RTVSPropertyOp39
 70
     1
102
RTVSPropertyOp40
 70
     1
102
RTVSPropertyOp41
 70
     1
102
RTVSPropertyOp42
 70
     1
102
RTVSPropertyOp43
 70
     1
102
RTVSPropertyOp44
 70
     1
102
RTVSPropertyOp45
 70
     1
102
RTVSPropertyOp46
 70
     1
102
RTVSPropertyOp47
 70
     1
102
RTVSPropertyOp48
 70
     1
102
RTVSPropertyOp49
 70
     1
102
RTVSPropertyOp50
 70
     1
102
RTVSPropertyOp51
 70
     0
102
RTVSPropertyOp52
 70
     0
102
RTVSPropertyOp53
 70
     1
102
RTVSPropertyOp54
 70
     1
102
RTVSPropertyOp55
 70
     1
102
RTVSPropertyOp56
 70
     1
102
RTVSPropertyOp57
 70
     1
102
RTVSPropertyOp58
 70
     1
102
RTVSPropertyOp59
 70
     1
102
RTVSPropertyOp60
 70
     1
102
RTVSPropertyOp61
 70
     1
102
RTVSPropertyOp62
 70
     1
  0
XRECORD
  5
8286
102
{ACAD_REACTORS
330
8285
102
}
330
8285
100
AcDbXrecord
280
     1
102
RTVSPost2010Prop28
280
     0
102
RTVSPost2010PropOp28
 70
     1
102
RTVSPost2010Prop29
280
     1
102
RTVSPost2010PropOp29
 70
     1
102
RTVSPost2010Prop30
280
     1
102
RTVSPost2010PropOp30
 70
     1
102
RTVSPost2010Prop31
280
     0
102
RTVSPost2010PropOp31
 70
     1
102
RTVSPost2010Prop32
280
     0
102
RTVSPost2010PropOp32
 70
     1
102
RTVSPost2010Prop33
280
     0
102
RTVSPost2010PropOp33
 70
     1
102
RTVSPost2010Prop34
280
     0
102
RTVSPost2010PropOp34
 70
     1
102
RTVSPost2010Prop35
280
     0
102
RTVSPost2010PropOp35
 70
     1
102
RTVSPost2010Prop36
280
     0
102
RTVSPost2010PropOp36
 70
     1
102
RTVSPost2010Prop37
 90
       50
102
RTVSPost2010PropOp37
 70
     1
102
RTVSPost2010Prop38
140
0.0
102
RTVSPost2010PropOp38
 70
     1
102
RTVSPost2010Prop39
140
1.0
102
RTVSPost2010PropOp39
 70
     1
102
RTVSPost2010Prop40
 90
        0
102
RTVSPost2010PropOp40
 70
     1
102
RTVSPost2010Prop41ColorIndex
 90
       18
102
RTVSPost2010Prop41ColorRGB
 90
        0
102
RTVSPost2010PropOp41
 70
     1
102
RTVSPost2010Prop42
 90
       50
102
RTVSPost2010PropOp42
 70
     1
102
RTVSPost2010Prop43
 90
        3
102
RTVSPost2010PropOp43
 70
     1
102
RTVSPost2010Prop44ColorIndex
 90
        5
102
RTVSPost2010Prop44ColorRGB
 90
      255
102
RTVSPost2010PropOp44
 70
     1
102
RTVSPost2010Prop45
280
     0
102
RTVSPost2010PropOp45
 70
     1
102
RTVSPost2010Prop46
 90
       50
102
RTVSPost2010PropOp46
 70
     1
102
RTVSPost2010Prop47
 90
       50
102
RTVSPost2010PropOp47
 70
     1
102
RTVSPost2010Prop48
 90
       50
102
RTVSPost2010PropOp48
 70
     1
102
RTVSPost2010Prop49
280
     0
102
RTVSPost2010PropOp49
 70
     1
102
RTVSPost2010Prop50
 90
       50
102
RTVSPost2010PropOp50
 70
     1
102
RTVSPost2010Prop51ColorIndex
 90
      256
102
RTVSPost2010Prop51ColorRGB
 90
-16777216
102
RTVSPost2010PropOp51
 70
     0
102
RTVSPost2010Prop52
140
1.0
102
RTVSPost2010PropOp52
 70
     0
102
RTVSPost2010Prop53
 90
        2
102
RTVSPost2010PropOp53
 70
     1
102
RTVSPost2010Prop54
  1
strokes_ogs.tif
102
RTVSPost2010PropOp54
 70
     1
102
RTVSPost2010Prop55
280
     0
102
RTVSPost2010PropOp55
 70
     1
102
RTVSPost2010Prop56
140
1.0
102
RTVSPost2010PropOp56
 70
     1
102
RTVSPost2010Prop57
140
1.0
102
RTVSPost2010PropOp57
 70
     1
102
RTVSPropertyOp0
 70
     1
102
RTVSPropertyOp1
 70
     1
102
RTVSPropertyOp2
 70
     1
102
RTVSPropertyOp3
 70
     1
102
RTVSPropertyOp4
 70
     1
102
RTVSPropertyOp5
 70
     1
102
RTVSPropertyOp6
 70
     1
102
RTVSPropertyOp7
 70
     1
102
RTVSPropertyOp8
 70
     1
102
RTVSPropertyOp9
 70
     1
102
RTVSPropertyOp10
 70
     1
102
RTVSPropertyOp11
 70
     1
102
RTVSPropertyOp12
 70
     1
102
RTVSPropertyOp13
 70
     1
102
RTVSPropertyOp14
 70
     1
102
RTVSPropertyOp15
 70
     1
102
RTVSPropertyOp16
 70
     1
102
RTVSPropertyOp17
 70
     1
102
RTVSPropertyOp18
 70
     1
102
RTVSPropertyOp19
 70
     1
102
RTVSPropertyOp20
 70
     1
102
RTVSPropertyOp21
 70
     1
102
RTVSPropertyOp22
 70
     1
102
RTVSPropertyOp23
 70
     1
102
RTVSPropertyOp24
 70
     1
102
RTVSPropertyOp25
 70
     1
102
RTVSPropertyOp26
 70
     1
102
RTVSPropertyOp27
 70
     1
102
RTVSPropertyOp28
 70
     1
102
RTVSPropertyOp29
 70
     1
102
RTVSPropertyOp30
 70
     1
102
RTVSPropertyOp31
 70
     1
102
RTVSPropertyOp32
 70
     1
102
RTVSPropertyOp33
 70
     1
102
RTVSPropertyOp34
 70
     1
102
RTVSPropertyOp35
 70
     1
102
RTVSPropertyOp36
 70
     1
102
RTVSPropertyOp37
 70
     1
102
RTVSPropertyOp38
 70
     1
102
RTVSPropertyOp39
 70
     1
102
RTVSPropertyOp40
 70
     1
102
RTVSPropertyOp41
 70
     1
102
RTVSPropertyOp42
 70
     1
102
RTVSPropertyOp43
 70
     1
102
RTVSPropertyOp44
 70
     1
102
RTVSPropertyOp45
 70
     1
102
RTVSPropertyOp46
 70
     1
102
RTVSPropertyOp47
 70
     1
102
RTVSPropertyOp48
 70
     1
102
RTVSPropertyOp49
 70
     1
102
RTVSPropertyOp50
 70
     1
102
RTVSPropertyOp51
 70
     0
102
RTVSPropertyOp52
 70
     0
102
RTVSPropertyOp53
 70
     1
102
RTVSPropertyOp54
 70
     1
102
RTVSPropertyOp55
 70
     1
102
RTVSPropertyOp56
 70
     1
102
RTVSPropertyOp57
 70
     1
102
RTVSPropertyOp58
 70
     1
102
RTVSPropertyOp59
 70
     1
102
RTVSPropertyOp60
 70
     1
102
RTVSPropertyOp61
 70
     1
102
RTVSPropertyOp62
 70
     1
  0
XRECORD
  5
8280
102
{ACAD_REACTORS
330
827F
102
}
330
827F
100
AcDbXrecord
280
     1
102
RTVSPost2010Prop28
280
     0
102
RTVSPost2010PropOp28
 70
     1
102
RTVSPost2010Prop29
280
     1
102
RTVSPost2010PropOp29
 70
     1
102
RTVSPost2010Prop30
280
     1
102
RTVSPost2010PropOp30
 70
     1
102
RTVSPost2010Prop31
280
     0
102
RTVSPost2010PropOp31
 70
     1
102
RTVSPost2010Prop32
280
     0
102
RTVSPost2010PropOp32
 70
     1
102
RTVSPost2010Prop33
280
     0
102
RTVSPost2010PropOp33
 70
     1
102
RTVSPost2010Prop34
280
     0
102
RTVSPost2010PropOp34
 70
     1
102
RTVSPost2010Prop35
280
     0
102
RTVSPost2010PropOp35
 70
     1
102
RTVSPost2010Prop36
280
     0
102
RTVSPost2010PropOp36
 70
     1
102
RTVSPost2010Prop37
 90
       50
102
RTVSPost2010PropOp37
 70
     1
102
RTVSPost2010Prop38
140
0.0
102
RTVSPost2010PropOp38
 70
     1
102
RTVSPost2010Prop39
140
1.0
102
RTVSPost2010PropOp39
 70
     1
102
RTVSPost2010Prop40
 90
        0
102
RTVSPost2010PropOp40
 70
     1
102
RTVSPost2010Prop41ColorIndex
 90
       18
102
RTVSPost2010Prop41ColorRGB
 90
        0
102
RTVSPost2010PropOp41
 70
     1
102
RTVSPost2010Prop42
 90
       50
102
RTVSPost2010PropOp42
 70
     1
102
RTVSPost2010Prop43
 90
        3
102
RTVSPost2010PropOp43
 70
     1
102
RTVSPost2010Prop44ColorIndex
 90
        5
102
RTVSPost2010Prop44ColorRGB
 90
      255
102
RTVSPost2010PropOp44
 70
     1
102
RTVSPost2010Prop45
280
     0
102
RTVSPost2010PropOp45
 70
     1
102
RTVSPost2010Prop46
 90
       50
102
RTVSPost2010PropOp46
 70
     1
102
RTVSPost2010Prop47
 90
       50
102
RTVSPost2010PropOp47
 70
     1
102
RTVSPost2010Prop48
 90
       50
102
RTVSPost2010PropOp48
 70
     1
102
RTVSPost2010Prop49
280
     0
102
RTVSPost2010PropOp49
 70
     1
102
RTVSPost2010Prop50
 90
       50
102
RTVSPost2010PropOp50
 70
     1
102
RTVSPost2010Prop51ColorIndex
 90
      256
102
RTVSPost2010Prop51ColorRGB
 90
-16777216
102
RTVSPost2010PropOp51
 70
     0
102
RTVSPost2010Prop52
140
1.0
102
RTVSPost2010PropOp52
 70
     0
102
RTVSPost2010Prop53
 90
        2
102
RTVSPost2010PropOp53
 70
     1
102
RTVSPost2010Prop54
  1
strokes_ogs.tif
102
RTVSPost2010PropOp54
 70
     1
102
RTVSPost2010Prop55
280
     0
102
RTVSPost2010PropOp55
 70
     1
102
RTVSPost2010Prop56
140
1.0
102
RTVSPost2010PropOp56
 70
     1
102
RTVSPost2010Prop57
140
1.0
102
RTVSPost2010PropOp57
 70
     1
102
RTVSPropertyOp0
 70
     1
102
RTVSPropertyOp1
 70
     1
102
RTVSPropertyOp2
 70
     1
102
RTVSPropertyOp3
 70
     1
102
RTVSPropertyOp4
 70
     1
102
RTVSPropertyOp5
 70
     1
102
RTVSPropertyOp6
 70
     1
102
RTVSPropertyOp7
 70
     1
102
RTVSPropertyOp8
 70
     1
102
RTVSPropertyOp9
 70
     1
102
RTVSPropertyOp10
 70
     1
102
RTVSPropertyOp11
 70
     1
102
RTVSPropertyOp12
 70
     1
102
RTVSPropertyOp13
 70
     1
102
RTVSPropertyOp14
 70
     1
102
RTVSPropertyOp15
 70
     1
102
RTVSPropertyOp16
 70
     1
102
RTVSPropertyOp17
 70
     1
102
RTVSPropertyOp18
 70
     1
102
RTVSPropertyOp19
 70
     1
102
RTVSPropertyOp20
 70
     1
102
RTVSPropertyOp21
 70
     1
102
RTVSPropertyOp22
 70
     1
102
RTVSPropertyOp23
 70
     1
102
RTVSPropertyOp24
 70
     1
102
RTVSPropertyOp25
 70
     1
102
RTVSPropertyOp26
 70
     1
102
RTVSPropertyOp27
 70
     1
102
RTVSPropertyOp28
 70
     1
102
RTVSPropertyOp29
 70
     1
102
RTVSPropertyOp30
 70
     1
102
RTVSPropertyOp31
 70
     1
102
RTVSPropertyOp32
 70
     1
102
RTVSPropertyOp33
 70
     1
102
RTVSPropertyOp34
 70
     1
102
RTVSPropertyOp35
 70
     1
102
RTVSPropertyOp36
 70
     1
102
RTVSPropertyOp37
 70
     1
102
RTVSPropertyOp38
 70
     1
102
RTVSPropertyOp39
 70
     1
102
RTVSPropertyOp40
 70
     1
102
RTVSPropertyOp41
 70
     1
102
RTVSPropertyOp42
 70
     1
102
RTVSPropertyOp43
 70
     1
102
RTVSPropertyOp44
 70
     1
102
RTVSPropertyOp45
 70
     1
102
RTVSPropertyOp46
 70
     1
102
RTVSPropertyOp47
 70
     1
102
RTVSPropertyOp48
 70
     1
102
RTVSPropertyOp49
 70
     1
102
RTVSPropertyOp50
 70
     1
102
RTVSPropertyOp51
 70
     0
102
RTVSPropertyOp52
 70
     0
102
RTVSPropertyOp53
 70
     1
102
RTVSPropertyOp54
 70
     1
102
RTVSPropertyOp55
 70
     1
102
RTVSPropertyOp56
 70
     1
102
RTVSPropertyOp57
 70
     1
102
RTVSPropertyOp58
 70
     1
102
RTVSPropertyOp59
 70
     1
102
RTVSPropertyOp60
 70
     1
102
RTVSPropertyOp61
 70
     1
102
RTVSPropertyOp62
 70
     1
  0
XRECORD
  5
8282
102
{ACAD_REACTORS
330
8281
102
}
330
8281
100
AcDbXrecord
280
     1
102
RTVSPost2010Prop28
280
     0
102
RTVSPost2010PropOp28
 70
     1
102
RTVSPost2010Prop29
280
     1
102
RTVSPost2010PropOp29
 70
     1
102
RTVSPost2010Prop30
280
     1
102
RTVSPost2010PropOp30
 70
     1
102
RTVSPost2010Prop31
280
     0
102
RTVSPost2010PropOp31
 70
     1
102
RTVSPost2010Prop32
280
     0
102
RTVSPost2010PropOp32
 70
     1
102
RTVSPost2010Prop33
280
     0
102
RTVSPost2010PropOp33
 70
     1
102
RTVSPost2010Prop34
280
     0
102
RTVSPost2010PropOp34
 70
     1
102
RTVSPost2010Prop35
280
     0
102
RTVSPost2010PropOp35
 70
     1
102
RTVSPost2010Prop36
280
     0
102
RTVSPost2010PropOp36
 70
     1
102
RTVSPost2010Prop37
 90
       50
102
RTVSPost2010PropOp37
 70
     1
102
RTVSPost2010Prop38
140
0.0
102
RTVSPost2010PropOp38
 70
     1
102
RTVSPost2010Prop39
140
1.0
102
RTVSPost2010PropOp39
 70
     1
102
RTVSPost2010Prop40
 90
        0
102
RTVSPost2010PropOp40
 70
     1
102
RTVSPost2010Prop41ColorIndex
 90
       18
102
RTVSPost2010Prop41ColorRGB
 90
        0
102
RTVSPost2010PropOp41
 70
     1
102
RTVSPost2010Prop42
 90
       50
102
RTVSPost2010PropOp42
 70
     1
102
RTVSPost2010Prop43
 90
        3
102
RTVSPost2010PropOp43
 70
     1
102
RTVSPost2010Prop44ColorIndex
 90
        5
102
RTVSPost2010Prop44ColorRGB
 90
      255
102
RTVSPost2010PropOp44
 70
     1
102
RTVSPost2010Prop45
280
     0
102
RTVSPost2010PropOp45
 70
     1
102
RTVSPost2010Prop46
 90
       50
102
RTVSPost2010PropOp46
 70
     1
102
RTVSPost2010Prop47
 90
       50
102
RTVSPost2010PropOp47
 70
     1
102
RTVSPost2010Prop48
 90
       50
102
RTVSPost2010PropOp48
 70
     1
102
RTVSPost2010Prop49
280
     0
102
RTVSPost2010PropOp49
 70
     1
102
RTVSPost2010Prop50
 90
       50
102
RTVSPost2010PropOp50
 70
     1
102
RTVSPost2010Prop51ColorIndex
 90
      256
102
RTVSPost2010Prop51ColorRGB
 90
-16777216
102
RTVSPost2010PropOp51
 70
     0
102
RTVSPost2010Prop52
140
1.0
102
RTVSPost2010PropOp52
 70
     0
102
RTVSPost2010Prop53
 90
        2
102
RTVSPost2010PropOp53
 70
     1
102
RTVSPost2010Prop54
  1
strokes_ogs.tif
102
RTVSPost2010PropOp54
 70
     1
102
RTVSPost2010Prop55
280
     0
102
RTVSPost2010PropOp55
 70
     1
102
RTVSPost2010Prop56
140
1.0
102
RTVSPost2010PropOp56
 70
     1
102
RTVSPost2010Prop57
140
1.0
102
RTVSPost2010PropOp57
 70
     1
102
RTVSPropertyOp0
 70
     1
102
RTVSPropertyOp1
 70
     1
102
RTVSPropertyOp2
 70
     1
102
RTVSPropertyOp3
 70
     1
102
RTVSPropertyOp4
 70
     1
102
RTVSPropertyOp5
 70
     1
102
RTVSPropertyOp6
 70
     1
102
RTVSPropertyOp7
 70
     1
102
RTVSPropertyOp8
 70
     1
102
RTVSPropertyOp9
 70
     1
102
RTVSPropertyOp10
 70
     1
102
RTVSPropertyOp11
 70
     1
102
RTVSPropertyOp12
 70
     1
102
RTVSPropertyOp13
 70
     1
102
RTVSPropertyOp14
 70
     1
102
RTVSPropertyOp15
 70
     1
102
RTVSPropertyOp16
 70
     1
102
RTVSPropertyOp17
 70
     1
102
RTVSPropertyOp18
 70
     1
102
RTVSPropertyOp19
 70
     1
102
RTVSPropertyOp20
 70
     1
102
RTVSPropertyOp21
 70
     1
102
RTVSPropertyOp22
 70
     1
102
RTVSPropertyOp23
 70
     1
102
RTVSPropertyOp24
 70
     1
102
RTVSPropertyOp25
 70
     1
102
RTVSPropertyOp26
 70
     1
102
RTVSPropertyOp27
 70
     1
102
RTVSPropertyOp28
 70
     1
102
RTVSPropertyOp29
 70
     1
102
RTVSPropertyOp30
 70
     1
102
RTVSPropertyOp31
 70
     1
102
RTVSPropertyOp32
 70
     1
102
RTVSPropertyOp33
 70
     1
102
RTVSPropertyOp34
 70
     1
102
RTVSPropertyOp35
 70
     1
102
RTVSPropertyOp36
 70
     1
102
RTVSPropertyOp37
 70
     1
102
RTVSPropertyOp38
 70
     1
102
RTVSPropertyOp39
 70
     1
102
RTVSPropertyOp40
 70
     1
102
RTVSPropertyOp41
 70
     1
102
RTVSPropertyOp42
 70
     1
102
RTVSPropertyOp43
 70
     1
102
RTVSPropertyOp44
 70
     1
102
RTVSPropertyOp45
 70
     1
102
RTVSPropertyOp46
 70
     1
102
RTVSPropertyOp47
 70
     1
102
RTVSPropertyOp48
 70
     1
102
RTVSPropertyOp49
 70
     1
102
RTVSPropertyOp50
 70
     1
102
RTVSPropertyOp51
 70
     0
102
RTVSPropertyOp52
 70
     0
102
RTVSPropertyOp53
 70
     1
102
RTVSPropertyOp54
 70
     1
102
RTVSPropertyOp55
 70
     1
102
RTVSPropertyOp56
 70
     1
102
RTVSPropertyOp57
 70
     1
102
RTVSPropertyOp58
 70
     1
102
RTVSPropertyOp59
 70
     1
102
RTVSPropertyOp60
 70
     1
102
RTVSPropertyOp61
 70
     1
102
RTVSPropertyOp62
 70
     1
  0
XRECORD
  5
8278
102
{ACAD_REACTORS
330
8277
102
}
330
8277
100
AcDbXrecord
280
     1
102
RTVSPost2010Prop28
280
     0
102
RTVSPost2010PropOp28
 70
     1
102
RTVSPost2010Prop29
280
     1
102
RTVSPost2010PropOp29
 70
     1
102
RTVSPost2010Prop30
280
     1
102
RTVSPost2010PropOp30
 70
     1
102
RTVSPost2010Prop31
280
     0
102
RTVSPost2010PropOp31
 70
     1
102
RTVSPost2010Prop32
280
     0
102
RTVSPost2010PropOp32
 70
     1
102
RTVSPost2010Prop33
280
     0
102
RTVSPost2010PropOp33
 70
     1
102
RTVSPost2010Prop34
280
     0
102
RTVSPost2010PropOp34
 70
     1
102
RTVSPost2010Prop35
280
     0
102
RTVSPost2010PropOp35
 70
     1
102
RTVSPost2010Prop36
280
     0
102
RTVSPost2010PropOp36
 70
     1
102
RTVSPost2010Prop37
 90
       50
102
RTVSPost2010PropOp37
 70
     1
102
RTVSPost2010Prop38
140
0.0
102
RTVSPost2010PropOp38
 70
     1
102
RTVSPost2010Prop39
140
1.0
102
RTVSPost2010PropOp39
 70
     1
102
RTVSPost2010Prop40
 90
        0
102
RTVSPost2010PropOp40
 70
     1
102
RTVSPost2010Prop41ColorIndex
 90
       18
102
RTVSPost2010Prop41ColorRGB
 90
        0
102
RTVSPost2010PropOp41
 70
     1
102
RTVSPost2010Prop42
 90
       50
102
RTVSPost2010PropOp42
 70
     1
102
RTVSPost2010Prop43
 90
        3
102
RTVSPost2010PropOp43
 70
     1
102
RTVSPost2010Prop44ColorIndex
 90
        5
102
RTVSPost2010Prop44ColorRGB
 90
      255
102
RTVSPost2010PropOp44
 70
     1
102
RTVSPost2010Prop45
280
     0
102
RTVSPost2010PropOp45
 70
     1
102
RTVSPost2010Prop46
 90
       50
102
RTVSPost2010PropOp46
 70
     1
102
RTVSPost2010Prop47
 90
       50
102
RTVSPost2010PropOp47
 70
     1
102
RTVSPost2010Prop48
 90
       50
102
RTVSPost2010PropOp48
 70
     1
102
RTVSPost2010Prop49
280
     0
102
RTVSPost2010PropOp49
 70
     1
102
RTVSPost2010Prop50
 90
       50
102
RTVSPost2010PropOp50
 70
     1
102
RTVSPost2010Prop51ColorIndex
 90
      256
102
RTVSPost2010Prop51ColorRGB
 90
-16777216
102
RTVSPost2010PropOp51
 70
     0
102
RTVSPost2010Prop52
140
1.0
102
RTVSPost2010PropOp52
 70
     0
102
RTVSPost2010Prop53
 90
        2
102
RTVSPost2010PropOp53
 70
     1
102
RTVSPost2010Prop54
  1
strokes_ogs.tif
102
RTVSPost2010PropOp54
 70
     1
102
RTVSPost2010Prop55
280
     0
102
RTVSPost2010PropOp55
 70
     1
102
RTVSPost2010Prop56
140
1.0
102
RTVSPost2010PropOp56
 70
     1
102
RTVSPost2010Prop57
140
1.0
102
RTVSPost2010PropOp57
 70
     1
102
RTVSPropertyOp0
 70
     1
102
RTVSPropertyOp1
 70
     1
102
RTVSPropertyOp2
 70
     1
102
RTVSPropertyOp3
 70
     1
102
RTVSPropertyOp4
 70
     1
102
RTVSPropertyOp5
 70
     1
102
RTVSPropertyOp6
 70
     1
102
RTVSPropertyOp7
 70
     1
102
RTVSPropertyOp8
 70
     1
102
RTVSPropertyOp9
 70
     1
102
RTVSPropertyOp10
 70
     1
102
RTVSPropertyOp11
 70
     1
102
RTVSPropertyOp12
 70
     1
102
RTVSPropertyOp13
 70
     1
102
RTVSPropertyOp14
 70
     1
102
RTVSPropertyOp15
 70
     1
102
RTVSPropertyOp16
 70
     1
102
RTVSPropertyOp17
 70
     1
102
RTVSPropertyOp18
 70
     1
102
RTVSPropertyOp19
 70
     1
102
RTVSPropertyOp20
 70
     1
102
RTVSPropertyOp21
 70
     1
102
RTVSPropertyOp22
 70
     1
102
RTVSPropertyOp23
 70
     1
102
RTVSPropertyOp24
 70
     1
102
RTVSPropertyOp25
 70
     1
102
RTVSPropertyOp26
 70
     1
102
RTVSPropertyOp27
 70
     1
102
RTVSPropertyOp28
 70
     1
102
RTVSPropertyOp29
 70
     1
102
RTVSPropertyOp30
 70
     1
102
RTVSPropertyOp31
 70
     1
102
RTVSPropertyOp32
 70
     1
102
RTVSPropertyOp33
 70
     1
102
RTVSPropertyOp34
 70
     1
102
RTVSPropertyOp35
 70
     1
102
RTVSPropertyOp36
 70
     1
102
RTVSPropertyOp37
 70
     1
102
RTVSPropertyOp38
 70
     1
102
RTVSPropertyOp39
 70
     1
102
RTVSPropertyOp40
 70
     1
102
RTVSPropertyOp41
 70
     1
102
RTVSPropertyOp42
 70
     1
102
RTVSPropertyOp43
 70
     1
102
RTVSPropertyOp44
 70
     1
102
RTVSPropertyOp45
 70
     1
102
RTVSPropertyOp46
 70
     1
102
RTVSPropertyOp47
 70
     1
102
RTVSPropertyOp48
 70
     1
102
RTVSPropertyOp49
 70
     1
102
RTVSPropertyOp50
 70
     1
102
RTVSPropertyOp51
 70
     0
102
RTVSPropertyOp52
 70
     0
102
RTVSPropertyOp53
 70
     1
102
RTVSPropertyOp54
 70
     1
102
RTVSPropertyOp55
 70
     1
102
RTVSPropertyOp56
 70
     1
102
RTVSPropertyOp57
 70
     1
102
RTVSPropertyOp58
 70
     1
102
RTVSPropertyOp59
 70
     1
102
RTVSPropertyOp60
 70
     1
102
RTVSPropertyOp61
 70
     1
102
RTVSPropertyOp62
 70
     1
  0
XRECORD
  5
826C
102
{ACAD_REACTORS
330
826B
102
}
330
826B
100
AcDbXrecord
280
     1
102
RTVSPost2010Prop28
280
     0
102
RTVSPost2010PropOp28
 70
     1
102
RTVSPost2010Prop29
280
     1
102
RTVSPost2010PropOp29
 70
     1
102
RTVSPost2010Prop30
280
     1
102
RTVSPost2010PropOp30
 70
     1
102
RTVSPost2010Prop31
280
     0
102
RTVSPost2010PropOp31
 70
     1
102
RTVSPost2010Prop32
280
     0
102
RTVSPost2010PropOp32
 70
     1
102
RTVSPost2010Prop33
280
     0
102
RTVSPost2010PropOp33
 70
     1
102
RTVSPost2010Prop34
280
     0
102
RTVSPost2010PropOp34
 70
     1
102
RTVSPost2010Prop35
280
     0
102
RTVSPost2010PropOp35
 70
     1
102
RTVSPost2010Prop36
280
     0
102
RTVSPost2010PropOp36
 70
     1
102
RTVSPost2010Prop37
 90
       50
102
RTVSPost2010PropOp37
 70
     1
102
RTVSPost2010Prop38
140
0.0
102
RTVSPost2010PropOp38
 70
     1
102
RTVSPost2010Prop39
140
1.0
102
RTVSPost2010PropOp39
 70
     1
102
RTVSPost2010Prop40
 90
        0
102
RTVSPost2010PropOp40
 70
     1
102
RTVSPost2010Prop41ColorIndex
 90
       18
102
RTVSPost2010Prop41ColorRGB
 90
        0
102
RTVSPost2010PropOp41
 70
     1
102
RTVSPost2010Prop42
 90
       50
102
RTVSPost2010PropOp42
 70
     1
102
RTVSPost2010Prop43
 90
        3
102
RTVSPost2010PropOp43
 70
     1
102
RTVSPost2010Prop44ColorIndex
 90
        5
102
RTVSPost2010Prop44ColorRGB
 90
      255
102
RTVSPost2010PropOp44
 70
     1
102
RTVSPost2010Prop45
280
     0
102
RTVSPost2010PropOp45
 70
     1
102
RTVSPost2010Prop46
 90
       50
102
RTVSPost2010PropOp46
 70
     1
102
RTVSPost2010Prop47
 90
       50
102
RTVSPost2010PropOp47
 70
     1
102
RTVSPost2010Prop48
 90
       50
102
RTVSPost2010PropOp48
 70
     1
102
RTVSPost2010Prop49
280
     0
102
RTVSPost2010PropOp49
 70
     1
102
RTVSPost2010Prop50
 90
       50
102
RTVSPost2010PropOp50
 70
     1
102
RTVSPost2010Prop51ColorIndex
 90
      256
102
RTVSPost2010Prop51ColorRGB
 90
-16777216
102
RTVSPost2010PropOp51
 70
     0
102
RTVSPost2010Prop52
140
1.0
102
RTVSPost2010PropOp52
 70
     0
102
RTVSPost2010Prop53
 90
        2
102
RTVSPost2010PropOp53
 70
     1
102
RTVSPost2010Prop54
  1
strokes_ogs.tif
102
RTVSPost2010PropOp54
 70
     1
102
RTVSPost2010Prop55
280
     0
102
RTVSPost2010PropOp55
 70
     1
102
RTVSPost2010Prop56
140
1.0
102
RTVSPost2010PropOp56
 70
     1
102
RTVSPost2010Prop57
140
1.0
102
RTVSPost2010PropOp57
 70
     1
102
RTVSPropertyOp0
 70
     1
102
RTVSPropertyOp1
 70
     1
102
RTVSPropertyOp2
 70
     1
102
RTVSPropertyOp3
 70
     1
102
RTVSPropertyOp4
 70
     1
102
RTVSPropertyOp5
 70
     1
102
RTVSPropertyOp6
 70
     1
102
RTVSPropertyOp7
 70
     1
102
RTVSPropertyOp8
 70
     1
102
RTVSPropertyOp9
 70
     1
102
RTVSPropertyOp10
 70
     1
102
RTVSPropertyOp11
 70
     1
102
RTVSPropertyOp12
 70
     1
102
RTVSPropertyOp13
 70
     1
102
RTVSPropertyOp14
 70
     1
102
RTVSPropertyOp15
 70
     1
102
RTVSPropertyOp16
 70
     1
102
RTVSPropertyOp17
 70
     1
102
RTVSPropertyOp18
 70
     1
102
RTVSPropertyOp19
 70
     1
102
RTVSPropertyOp20
 70
     1
102
RTVSPropertyOp21
 70
     1
102
RTVSPropertyOp22
 70
     1
102
RTVSPropertyOp23
 70
     1
102
RTVSPropertyOp24
 70
     1
102
RTVSPropertyOp25
 70
     1
102
RTVSPropertyOp26
 70
     1
102
RTVSPropertyOp27
 70
     1
102
RTVSPropertyOp28
 70
     1
102
RTVSPropertyOp29
 70
     1
102
RTVSPropertyOp30
 70
     1
102
RTVSPropertyOp31
 70
     1
102
RTVSPropertyOp32
 70
     1
102
RTVSPropertyOp33
 70
     1
102
RTVSPropertyOp34
 70
     1
102
RTVSPropertyOp35
 70
     1
102
RTVSPropertyOp36
 70
     1
102
RTVSPropertyOp37
 70
     1
102
RTVSPropertyOp38
 70
     1
102
RTVSPropertyOp39
 70
     1
102
RTVSPropertyOp40
 70
     1
102
RTVSPropertyOp41
 70
     1
102
RTVSPropertyOp42
 70
     1
102
RTVSPropertyOp43
 70
     1
102
RTVSPropertyOp44
 70
     1
102
RTVSPropertyOp45
 70
     1
102
RTVSPropertyOp46
 70
     1
102
RTVSPropertyOp47
 70
     1
102
RTVSPropertyOp48
 70
     1
102
RTVSPropertyOp49
 70
     1
102
RTVSPropertyOp50
 70
     1
102
RTVSPropertyOp51
 70
     0
102
RTVSPropertyOp52
 70
     0
102
RTVSPropertyOp53
 70
     1
102
RTVSPropertyOp54
 70
     1
102
RTVSPropertyOp55
 70
     1
102
RTVSPropertyOp56
 70
     1
102
RTVSPropertyOp57
 70
     1
102
RTVSPropertyOp58
 70
     1
102
RTVSPropertyOp59
 70
     1
102
RTVSPropertyOp60
 70
     1
102
RTVSPropertyOp61
 70
     1
102
RTVSPropertyOp62
 70
     1
  0
XRECORD
  5
8284
102
{ACAD_REACTORS
330
8283
102
}
330
8283
100
AcDbXrecord
280
     1
102
RTVSPost2010Prop28
280
     0
102
RTVSPost2010PropOp28
 70
     1
102
RTVSPost2010Prop29
280
     1
102
RTVSPost2010PropOp29
 70
     1
102
RTVSPost2010Prop30
280
     1
102
RTVSPost2010PropOp30
 70
     1
102
RTVSPost2010Prop31
280
     0
102
RTVSPost2010PropOp31
 70
     1
102
RTVSPost2010Prop32
280
     0
102
RTVSPost2010PropOp32
 70
     1
102
RTVSPost2010Prop33
280
     0
102
RTVSPost2010PropOp33
 70
     1
102
RTVSPost2010Prop34
280
     0
102
RTVSPost2010PropOp34
 70
     1
102
RTVSPost2010Prop35
280
     0
102
RTVSPost2010PropOp35
 70
     1
102
RTVSPost2010Prop36
280
     0
102
RTVSPost2010PropOp36
 70
     1
102
RTVSPost2010Prop37
 90
       50
102
RTVSPost2010PropOp37
 70
     1
102
RTVSPost2010Prop38
140
0.0
102
RTVSPost2010PropOp38
 70
     1
102
RTVSPost2010Prop39
140
1.0
102
RTVSPost2010PropOp39
 70
     1
102
RTVSPost2010Prop40
 90
        0
102
RTVSPost2010PropOp40
 70
     1
102
RTVSPost2010Prop41ColorIndex
 90
       18
102
RTVSPost2010Prop41ColorRGB
 90
        0
102
RTVSPost2010PropOp41
 70
     1
102
RTVSPost2010Prop42
 90
       50
102
RTVSPost2010PropOp42
 70
     1
102
RTVSPost2010Prop43
 90
        3
102
RTVSPost2010PropOp43
 70
     1
102
RTVSPost2010Prop44ColorIndex
 90
        5
102
RTVSPost2010Prop44ColorRGB
 90
      255
102
RTVSPost2010PropOp44
 70
     1
102
RTVSPost2010Prop45
280
     0
102
RTVSPost2010PropOp45
 70
     1
102
RTVSPost2010Prop46
 90
       50
102
RTVSPost2010PropOp46
 70
     1
102
RTVSPost2010Prop47
 90
       50
102
RTVSPost2010PropOp47
 70
     1
102
RTVSPost2010Prop48
 90
       50
102
RTVSPost2010PropOp48
 70
     1
102
RTVSPost2010Prop49
280
     0
102
RTVSPost2010PropOp49
 70
     1
102
RTVSPost2010Prop50
 90
       50
102
RTVSPost2010PropOp50
 70
     1
102
RTVSPost2010Prop51ColorIndex
 90
      256
102
RTVSPost2010Prop51ColorRGB
 90
-16777216
102
RTVSPost2010PropOp51
 70
     0
102
RTVSPost2010Prop52
140
1.0
102
RTVSPost2010PropOp52
 70
     0
102
RTVSPost2010Prop53
 90
        2
102
RTVSPost2010PropOp53
 70
     1
102
RTVSPost2010Prop54
  1
strokes_ogs.tif
102
RTVSPost2010PropOp54
 70
     1
102
RTVSPost2010Prop55
280
     0
102
RTVSPost2010PropOp55
 70
     1
102
RTVSPost2010Prop56
140
1.0
102
RTVSPost2010PropOp56
 70
     1
102
RTVSPost2010Prop57
140
1.0
102
RTVSPost2010PropOp57
 70
     1
102
RTVSPropertyOp0
 70
     1
102
RTVSPropertyOp1
 70
     1
102
RTVSPropertyOp2
 70
     1
102
RTVSPropertyOp3
 70
     1
102
RTVSPropertyOp4
 70
     1
102
RTVSPropertyOp5
 70
     1
102
RTVSPropertyOp6
 70
     1
102
RTVSPropertyOp7
 70
     1
102
RTVSPropertyOp8
 70
     1
102
RTVSPropertyOp9
 70
     1
102
RTVSPropertyOp10
 70
     1
102
RTVSPropertyOp11
 70
     1
102
RTVSPropertyOp12
 70
     1
102
RTVSPropertyOp13
 70
     1
102
RTVSPropertyOp14
 70
     1
102
RTVSPropertyOp15
 70
     1
102
RTVSPropertyOp16
 70
     1
102
RTVSPropertyOp17
 70
     1
102
RTVSPropertyOp18
 70
     1
102
RTVSPropertyOp19
 70
     1
102
RTVSPropertyOp20
 70
     1
102
RTVSPropertyOp21
 70
     1
102
RTVSPropertyOp22
 70
     1
102
RTVSPropertyOp23
 70
     1
102
RTVSPropertyOp24
 70
     1
102
RTVSPropertyOp25
 70
     1
102
RTVSPropertyOp26
 70
     1
102
RTVSPropertyOp27
 70
     1
102
RTVSPropertyOp28
 70
     1
102
RTVSPropertyOp29
 70
     1
102
RTVSPropertyOp30
 70
     1
102
RTVSPropertyOp31
 70
     1
102
RTVSPropertyOp32
 70
     1
102
RTVSPropertyOp33
 70
     1
102
RTVSPropertyOp34
 70
     1
102
RTVSPropertyOp35
 70
     1
102
RTVSPropertyOp36
 70
     1
102
RTVSPropertyOp37
 70
     1
102
RTVSPropertyOp38
 70
     1
102
RTVSPropertyOp39
 70
     1
102
RTVSPropertyOp40
 70
     1
102
RTVSPropertyOp41
 70
     1
102
RTVSPropertyOp42
 70
     1
102
RTVSPropertyOp43
 70
     1
102
RTVSPropertyOp44
 70
     1
102
RTVSPropertyOp45
 70
     1
102
RTVSPropertyOp46
 70
     1
102
RTVSPropertyOp47
 70
     1
102
RTVSPropertyOp48
 70
     1
102
RTVSPropertyOp49
 70
     1
102
RTVSPropertyOp50
 70
     1
102
RTVSPropertyOp51
 70
     0
102
RTVSPropertyOp52
 70
     0
102
RTVSPropertyOp53
 70
     1
102
RTVSPropertyOp54
 70
     1
102
RTVSPropertyOp55
 70
     1
102
RTVSPropertyOp56
 70
     1
102
RTVSPropertyOp57
 70
     1
102
RTVSPropertyOp58
 70
     1
102
RTVSPropertyOp59
 70
     1
102
RTVSPropertyOp60
 70
     1
102
RTVSPropertyOp61
 70
     1
102
RTVSPropertyOp62
 70
     1
  0
ENDSEC
  0
EOF
