  0
SECTION
  2
HEADER
  9
$ACADVER
  1
AC1015
  9
$ACADMAINTVER
 70
    20
  9
$DWGCODEPAGE
  3
ANSI_932
  9
$INSBASE
 10
0.0
 20
0.0
 30
0.0
  9
$EXTMIN
 10
9.9999975266385
 20
10.0
 30
0.0
  9
$EXTMAX
 10
359.7429823504148
 20
405.9974090795408
 30
0.0
  9
$LIMMIN
 10
0.0000015376081137
 20
-0.0000001931532552
  9
$LIMMAX
 10
645.0000015376082
 20
444.6590907159373
  9
$ORTHOMODE
 70
     0
  9
$REGENMODE
 70
     1
  9
$FILLMODE
 70
     1
  9
$QTEXTMODE
 70
     0
  9
$MIRRTEXT
 70
     1
  9
$LTSCALE
 40
1.0
  9
$ATTMODE
 70
     1
  9
$TEXTSIZE
 40
1.0
  9
$TRACEWID
 40
1.0
  9
$TEXTSTYLE
  7
STANDARD
  9
$CLAYER
  8
0
  9
$CELTYPE
  6
BYLAYER
  9
$CECOLOR
 62
   256
  9
$CELTSCALE
 40
1.0
  9
$DISPSILH
 70
     0
  9
$DIMSCALE
 40
1.0
  9
$DIMASZ
 40
3.0
  9
$DIMEXO
 40
1.0
  9
$DIMDLI
 40
10.0
  9
$DIMRND
 40
0.0
  9
$DIMDLE
 40
0.0
  9
$DIMEXE
 40
1.0
  9
$DIMTP
 40
0.0
  9
$DIMTM
 40
0.0
  9
$DIMTXT
 40
3.2
  9
$DIMCEN
 40
0.0
  9
$DIMTSZ
 40
0.0
  9
$DIMTOL
 70
     0
  9
$DIMLIM
 70
     0
  9
$DIMTIH
 70
     0
  9
$DIMTOH
 70
     0
  9
$DIMSE1
 70
     0
  9
$DIMSE2
 70
     0
  9
$DIMTAD
 70
     3
  9
$DIMZIN
 70
     8
  9
$DIMBLK
  1

  9
$DIMASO
 70
     1
  9
$DIMSHO
 70
     1
  9
$DIMPOST
  1

  9
$DIMAPOST
  1

  9
$DIMALT
 70
     0
  9
$DIMALTD
 70
     2
  9
$DIMALTF
 40
25.4
  9
$DIMLFAC
 40
1.0
  9
$DIMTOFL
 70
     1
  9
$DIMTVP
 40
0.0
  9
$DIMTIX
 70
     0
  9
$DIMSOXD
 70
     0
  9
$DIMSAH
 70
     1
  9
$DIMBLK1
  1
OPEN
  9
$DIMBLK2
  1
OPEN
  9
$DIMSTYLE
  2
STANDARD
  9
$DIMCLRD
 70
     0
  9
$DIMCLRE
 70
     0
  9
$DIMCLRT
 70
     0
  9
$DIMTFAC
 40
1.0
  9
$DIMGAP
 40
1.0
  9
$DIMJUST
 70
     0
  9
$DIMSD1
 70
     0
  9
$DIMSD2
 70
     0
  9
$DIMTOLJ
 70
     1
  9
$DIMTZIN
 70
     0
  9
$DIMALTZ
 70
     0
  9
$DIMALTTZ
 70
     0
  9
$DIMUPT
 70
     0
  9
$DIMDEC
 70
     4
  9
$DIMTDEC
 70
     4
  9
$DIMALTU
 70
     2
  9
$DIMALTTD
 70
     2
  9
$DIMTXSTY
  7
STANDARD
  9
$DIMAUNIT
 70
     0
  9
$DIMADEC
 70
     0
  9
$DIMALTRND
 40
0.0
  9
$DIMAZIN
 70
     0
  9
$DIMDSEP
 70
    46
  9
$DIMATFIT
 70
     3
  9
$DIMFRAC
 70
     0
  9
$DIMLDRBLK
  1
OPEN
  9
$DIMLUNIT
 70
     2
  9
$DIMLWD
 70
    -2
  9
$DIMLWE
 70
    -2
  9
$DIMTMOVE
 70
     0
  9
$LUNITS
 70
     2
  9
$LUPREC
 70
     4
  9
$SKETCHINC
 40
1.0
  9
$FILLETRAD
 40
0.0
  9
$AUNITS
 70
     0
  9
$AUPREC
 70
     0
  9
$MENU
  1
.
  9
$ELEVATION
 40
0.0
  9
$PELEVATION
 40
0.0
  9
$THICKNESS
 40
0.0
  9
$LIMCHECK
 70
     0
  9
$CHAMFERA
 40
10.0
  9
$CHAMFERB
 40
10.0
  9
$CHAMFERC
 40
20.0
  9
$CHAMFERD
 40
0.0
  9
$SKPOLY
 70
     0
  9
$TDCREATE
 40
2454865.650739062
  9
$TDUCREATE
 40
2454865.275739063
  9
$TDUPDATE
 40
2457192.622242430
  9
$TDUUPDATE
 40
2457192.247242431
  9
$TDINDWG
 40
0.7776874074
  9
$TDUSRTIMER
 40
0.7776874074
  9
$USRTIMER
 70
     1
  9
$ANGBASE
 50
0.0
  9
$ANGDIR
 70
     0
  9
$PDMODE
 70
     0
  9
$PDSIZE
 40
0.0
  9
$PLINEWID
 40
0.0
  9
$SPLFRAME
 70
     0
  9
$SPLINETYPE
 70
     6
  9
$SPLINESEGS
 70
     8
  9
$HANDSEED
  5
9DD0
  9
$SURFTAB1
 70
     6
  9
$SURFTAB2
 70
     6
  9
$SURFTYPE
 70
     6
  9
$SURFU
 70
     6
  9
$SURFV
 70
     6
  9
$UCSBASE
  2

  9
$UCSNAME
  2

  9
$UCSORG
 10
0.0
 20
0.0
 30
0.0
  9
$UCSXDIR
 10
1.0
 20
0.0
 30
0.0
  9
$UCSYDIR
 10
0.0
 20
1.0
 30
0.0
  9
$UCSORTHOREF
  2

  9
$UCSORTHOVIEW
 70
     0
  9
$UCSORGTOP
 10
0.0
 20
0.0
 30
0.0
  9
$UCSORGBOTTOM
 10
0.0
 20
0.0
 30
0.0
  9
$UCSORGLEFT
 10
0.0
 20
0.0
 30
0.0
  9
$UCSORGRIGHT
 10
0.0
 20
0.0
 30
0.0
  9
$UCSORGFRONT
 10
0.0
 20
0.0
 30
0.0
  9
$UCSORGBACK
 10
0.0
 20
0.0
 30
0.0
  9
$PUCSBASE
  2

  9
$PUCSNAME
  2

  9
$PUCSORG
 10
0.0
 20
0.0
 30
0.0
  9
$PUCSXDIR
 10
1.0
 20
0.0
 30
0.0
  9
$PUCSYDIR
 10
0.0
 20
1.0
 30
0.0
  9
$PUCSORTHOREF
  2

  9
$PUCSORTHOVIEW
 70
     0
  9
$PUCSORGTOP
 10
0.0
 20
0.0
 30
0.0
  9
$PUCSORGBOTTOM
 10
0.0
 20
0.0
 30
0.0
  9
$PUCSORGLEFT
 10
0.0
 20
0.0
 30
0.0
  9
$PUCSORGRIGHT
 10
0.0
 20
0.0
 30
0.0
  9
$PUCSORGFRONT
 10
0.0
 20
0.0
 30
0.0
  9
$PUCSORGBACK
 10
0.0
 20
0.0
 30
0.0
  9
$USERI1
 70
     0
  9
$USERI2
 70
     0
  9
$USERI3
 70
     0
  9
$USERI4
 70
     0
  9
$USERI5
 70
     0
  9
$USERR1
 40
0.0
  9
$USERR2
 40
0.0
  9
$USERR3
 40
0.0
  9
$USERR4
 40
0.0
  9
$USERR5
 40
0.0
  9
$WORLDVIEW
 70
     1
  9
$SHADEDGE
 70
     3
  9
$SHADEDIF
 70
    70
  9
$TILEMODE
 70
     1
  9
$MAXACTVP
 70
    48
  9
$PINSBASE
 10
0.0
 20
0.0
 30
0.0
  9
$PLIMCHECK
 70
     0
  9
$PEXTMIN
 10
1.000000000000000E+20
 20
1.000000000000000E+20
 30
1.000000000000000E+20
  9
$PEXTMAX
 10
-1.000000000000000E+20
 20
-1.000000000000000E+20
 30
-1.000000000000000E+20
  9
$PLIMMIN
 10
0.0
 20
0.0
  9
$PLIMMAX
 10
420.0
 20
297.0
  9
$UNITMODE
 70
     0
  9
$VISRETAIN
 70
     1
  9
$PLINEGEN
 70
     0
  9
$PSLTSCALE
 70
     1
  9
$TREEDEPTH
 70
  3020
  9
$CMLSTYLE
  2
STANDARD
  9
$CMLJUST
 70
     0
  9
$CMLSCALE
 40
20.0
  9
$PROXYGRAPHICS
 70
     1
  9
$MEASUREMENT
 70
     0
  9
$CELWEIGHT
370
    -1
  9
$ENDCAPS
280
     0
  9
$JOINSTYLE
280
     0
  9
$LWDISPLAY
290
     0
  9
$INSUNITS
 70
     0
  9
$HYPERLINKBASE
  1

  9
$STYLESHEET
  1

  9
$XEDIT
290
     1
  9
$CEPSNTYPE
380
     0
  9
$PSTYLEMODE
290
     1
  9
$FINGERPRINTGUID
  2
{8795F976-5BC4-4E41-AB27-E402EA4A301C}
  9
$VERSIONGUID
  2
{B1D2F660-048B-454F-9F9A-B6F75E24E2CE}
  9
$EXTNAMES
290
     1
  9
$PSVPSCALE
 40
0.0
  9
$OLESTARTUP
290
     0
  0
ENDSEC
  0
SECTION
  2
CLASSES
  0
CLASS
  1
ACDBDICTIONARYWDFLT
  2
AcDbDictionaryWithDefault
  3
ObjectDBX Classes
 90
        0
280
     0
281
     0
  0
CLASS
  1
ACDBPLACEHOLDER
  2
AcDbPlaceHolder
  3
ObjectDBX Classes
 90
        0
280
     0
281
     0
  0
CLASS
  1
LAYOUT
  2
AcDbLayout
  3
ObjectDBX Classes
 90
        0
280
     0
281
     0
  0
CLASS
  1
DICTIONARYVAR
  2
AcDbDictionaryVar
  3
ObjectDBX Classes
 90
        0
280
     0
281
     0
  0
CLASS
  1
MATERIAL
  2
AcDbMaterial
  3
ObjectDBX Classes
 90
     1153
280
     0
281
     0
  0
CLASS
  1
VISUALSTYLE
  2
AcDbVisualStyle
  3
ObjectDBX Classes
 90
     4095
280
     0
281
     0
  0
CLASS
  1
TABLESTYLE
  2
AcDbTableStyle
  3
ObjectDBX Classes
 90
     4095
280
     0
281
     0
  0
CLASS
  1
SCALE
  2
AcDbScale
  3
ObjectDBX Classes
 90
     1153
280
     0
281
     0
  0
CLASS
  1
MLEADERSTYLE
  2
AcDbMLeaderStyle
  3
ACDB_MLEADERSTYLE_CLASS
 90
     4095
280
     0
281
     0
  0
CLASS
  1
ACDBSECTIONVIEWSTYLE
  2
AcDbSectionViewStyle
  3
ObjectDBX Classes
 90
     1025
280
     0
281
     0
  0
CLASS
  1
ACDBDETAILVIEWSTYLE
  2
AcDbDetailViewStyle
  3
ObjectDBX Classes
 90
     1025
280
     0
281
     0
  0
CLASS
  1
CELLSTYLEMAP
  2
AcDbCellStyleMap
  3
ObjectDBX Classes
 90
     1152
280
     0
281
     0
  0
ENDSEC
  0
SECTION
  2
TABLES
  0
TABLE
  2
VPORT
  5
8
330
0
100
AcDbSymbolTable
 70
     1
  0
VPORT
  5
9D1A
330
8
100
AcDbSymbolTableRecord
100
AcDbViewportTableRecord
  2
*ACTIVE
 70
     0
 10
0.0
 20
0.0
 11
1.0
 21
1.0
 12
348.8855536034953
 22
207.9963198159973
 13
0.0
 23
0.0
 14
10.0
 24
10.0
 15
10.0
 25
10.0
 16
0.0
 26
0.0
 36
1.0
 17
0.0
 27
0.0
 37
0.0
 40
399.068743891875
 41
1.899603698811096
 42
50.0
 43
0.0
 44
0.0
 50
0.0
 51
0.0
 71
     0
 72
   100
 73
     1
 74
     0
 75
     0
 76
     0
 77
     0
 78
     0
281
     0
 65
     1
110
0.0
120
0.0
130
0.0
111
1.0
121
0.0
131
0.0
112
0.0
122
1.0
132
0.0
 79
     0
146
0.0
1001
ACAD_NAV_VCDISPLAY
1070
     3
  0
ENDTAB
  0
TABLE
  2
LTYPE
  5
5
330
0
100
AcDbSymbolTable
 70
     4
  0
LTYPE
  5
12
330
5
100
AcDbSymbolTableRecord
100
AcDbLinetypeTableRecord
  2
BYBLOCK
 70
     0
  3

 72
    65
 73
     0
 40
0.0
  0
LTYPE
  5
13
330
5
100
AcDbSymbolTableRecord
100
AcDbLinetypeTableRecord
  2
BYLAYER
 70
     0
  3

 72
    65
 73
     0
 40
0.0
  0
LTYPE
  5
14
330
5
100
AcDbSymbolTableRecord
100
AcDbLinetypeTableRecord
  2
CONTINUOUS
 70
     0
  3
Solid line
 72
    65
 73
     0
 40
0.0
  0
LTYPE
  5
4B
330
5
100
AcDbSymbolTableRecord
100
AcDbLinetypeTableRecord
  2
DASHED
 70
     0
  3
Dashed __ __ __ __ __ __ __ __ __ __ __ __ __ _
 72
    65
 73
     2
 40
19.04999999999999
 49
12.7
 74
     0
 49
-6.349999999999998
 74
     0
  0
LTYPE
  5
4C
330
5
100
AcDbSymbolTableRecord
100
AcDbLinetypeTableRecord
  2
CENTER
 70
     0
  3
Center ____ _ ____ _ ____ _ ____ _ ____ _ ____
 72
    65
 73
     4
 40
50.8
 49
31.75
 74
     0
 49
-6.349999999999998
 74
     0
 49
6.349999999999998
 74
     0
 49
-6.349999999999998
 74
     0
  0
LTYPE
  5
4D
330
5
100
AcDbSymbolTableRecord
100
AcDbLinetypeTableRecord
  2
PHANTOM
 70
     0
  3
Phantom ______  __  __  ______  __  __  ______
 72
    65
 73
     6
 40
63.5
 49
31.75
 74
     0
 49
-6.349999999999998
 74
     0
 49
6.349999999999998
 74
     0
 49
-6.349999999999998
 74
     0
 49
6.349999999999998
 74
     0
 49
-6.349999999999998
 74
     0
  0
ENDTAB
  0
TABLE
  2
LAYER
  5
2
330
0
100
AcDbSymbolTable
 70
     8
  0
LAYER
  5
E
102
{ACAD_XDICTIONARY
360
9D74
102
}
330
2
100
AcDbSymbolTableRecord
100
AcDbLayerTableRecord
  2
0
 70
     0
 62
     7
  6
CONTINUOUS
370
    -3
390
9D23
  0
LAYER
  5
4E
102
{ACAD_XDICTIONARY
360
9D76
102
}
330
2
100
AcDbSymbolTableRecord
100
AcDbLayerTableRecord
  2
4
 70
     0
 62
     1
  6
CENTER
370
    -3
390
9D23
  0
LAYER
  5
4F
102
{ACAD_XDICTIONARY
360
9D78
102
}
330
2
100
AcDbSymbolTableRecord
100
AcDbLayerTableRecord
  2
5
 70
     0
 62
     6
  6
PHANTOM
370
    -3
390
9D23
  0
LAYER
  5
50
102
{ACAD_XDICTIONARY
360
9D7A
102
}
330
2
100
AcDbSymbolTableRecord
100
AcDbLayerTableRecord
  2
1
 70
     0
 62
     7
  6
CONTINUOUS
370
    -3
390
9D23
  0
LAYER
  5
51
102
{ACAD_XDICTIONARY
360
9D7C
102
}
330
2
100
AcDbSymbolTableRecord
100
AcDbLayerTableRecord
  2
2
 70
     0
 62
     4
  6
CONTINUOUS
370
    -3
390
9D23
  0
LAYER
  5
52
102
{ACAD_XDICTIONARY
360
9D7E
102
}
330
2
100
AcDbSymbolTableRecord
100
AcDbLayerTableRecord
  2
3
 70
     0
 62
     2
  6
DASHED
370
    -3
390
9D23
  0
LAYER
  5
53
102
{ACAD_XDICTIONARY
360
9D80
102
}
330
2
100
AcDbSymbolTableRecord
100
AcDbLayerTableRecord
  2
6
 70
     0
 62
     5
  6
CONTINUOUS
370
    -3
390
9D23
  0
LAYER
  5
54
102
{ACAD_XDICTIONARY
360
9D82
102
}
330
2
100
AcDbSymbolTableRecord
100
AcDbLayerTableRecord
  2
7
 70
     0
 62
     3
  6
CONTINUOUS
370
    -3
390
9D23
  0
ENDTAB
  0
TABLE
  2
STYLE
  5
3
330
0
100
AcDbSymbolTable
 70
     1
  0
STYLE
  5
F
330
3
100
AcDbSymbolTableRecord
100
AcDbTextStyleTableRecord
  2
STANDARD
 70
     0
 40
0.0
 41
1.0
 50
0.0
 71
     0
 42
1.0
  3
simplex.shx
  4

  0
ENDTAB
  0
TABLE
  2
VIEW
  5
6
330
0
100
AcDbSymbolTable
 70
     0
  0
ENDTAB
  0
TABLE
  2
UCS
  5
7
330
0
100
AcDbSymbolTable
 70
     0
  0
ENDTAB
  0
TABLE
  2
APPID
  5
9
330
0
100
AcDbSymbolTable
 70
     7
  0
APPID
  5
10
330
9
100
AcDbSymbolTableRecord
100
AcDbRegAppTableRecord
  2
ACAD
 70
     0
  0
APPID
  5
3E
330
9
100
AcDbSymbolTableRecord
100
AcDbRegAppTableRecord
  2
CONTENTTABDATA
 70
     0
  0
APPID
  5
3F
330
9
100
AcDbSymbolTableRecord
100
AcDbRegAppTableRecord
  2
CONTENTCURRENTTAB
 70
     0
  0
APPID
  5
F0A
330
9
100
AcDbSymbolTableRecord
100
AcDbRegAppTableRecord
  2
CONTENTBLOCKICON
 70
     0
  0
APPID
  5
F0B
330
9
100
AcDbSymbolTableRecord
100
AcDbRegAppTableRecord
  2
CONTENTBLOCKDESCRIPTION
 70
     0
  0
APPID
  5
9D8E
330
9
100
AcDbSymbolTableRecord
100
AcDbRegAppTableRecord
  2
ACAD_NAV_VCDISPLAY
 70
     0
  0
APPID
  5
9DC7
330
9
100
AcDbSymbolTableRecord
100
AcDbRegAppTableRecord
  2
ACAD_MLEADERVER
 70
     0
  0
ENDTAB
  0
TABLE
  2
DIMSTYLE
  5
A
330
0
100
AcDbSymbolTable
 70
     1
100
AcDbDimStyleTable
 71
     0
  0
DIMSTYLE
105
1D
330
A
100
AcDbSymbolTableRecord
100
AcDbDimStyleTableRecord
  2
STANDARD
 70
     0
 41
3.0
 42
1.0
 43
10.0
 44
1.0
 73
     0
 74
     0
 77
     3
 78
     8
140
3.2
141
0.0
147
1.0
172
     1
173
     1
340
F
341
2E
343
2E
344
2E
  0
ENDTAB
  0
TABLE
  2
BLOCK_RECORD
  5
1
330
0
100
AcDbSymbolTable
 70
     1
  0
BLOCK_RECORD
  5
18
102
{ACAD_XDICTIONARY
360
9D1D
102
}
330
1
100
AcDbSymbolTableRecord
100
AcDbBlockTableRecord
  2
*MODEL_SPACE
340
9D71
  0
BLOCK_RECORD
  5
15
102
{ACAD_XDICTIONARY
360
9D1B
102
}
330
1
100
AcDbSymbolTableRecord
100
AcDbBlockTableRecord
  2
*PAPER_SPACE
340
9D72
  0
BLOCK_RECORD
  5
2E
330
1
100
AcDbSymbolTableRecord
100
AcDbBlockTableRecord
  2
_OPEN
340
0
  0
ENDTAB
  0
ENDSEC
  0
SECTION
  2
BLOCKS
  0
BLOCK
  5
19
330
18
100
AcDbEntity
  8
0
100
AcDbBlockBegin
  2
*MODEL_SPACE
 70
     0
 10
0.0
 20
0.0
 30
0.0
  3
*MODEL_SPACE
  1

  0
ENDBLK
  5
1A
330
18
100
AcDbEntity
  8
0
100
AcDbBlockEnd
  0
BLOCK
  5
16
330
15
100
AcDbEntity
 67
     1
  8
0
100
AcDbBlockBegin
  2
*PAPER_SPACE
 70
     0
 10
0.0
 20
0.0
 30
0.0
  3
*PAPER_SPACE
  1

  0
ENDBLK
  5
17
330
15
100
AcDbEntity
 67
     1
  8
0
100
AcDbBlockEnd
  0
BLOCK
  5
2F
330
2E
100
AcDbEntity
  8
0
100
AcDbBlockBegin
  2
_OPEN
 70
     0
 10
0.0
 20
0.0
 30
0.0
  3
_OPEN
  1

  0
LINE
  5
30
330
2E
100
AcDbEntity
  8
0
  6
ByBlock
 62
     0
100
AcDbLine
 10
-1.0
 20
0.1666666666666666
 30
0.0
 11
0.0
 21
0.0
 31
0.0
  0
LINE
  5
31
330
2E
100
AcDbEntity
  8
0
  6
ByBlock
 62
     0
100
AcDbLine
 10
0.0
 20
0.0
 30
0.0
 11
-1.0
 21
-0.1666666666666666
 31
0.0
  0
LINE
  5
32
330
2E
100
AcDbEntity
  8
0
  6
ByBlock
 62
     0
100
AcDbLine
 10
0.0
 20
0.0
 30
0.0
 11
-1.0
 21
0.0
 31
0.0
  0
ENDBLK
  5
33
330
2E
100
AcDbEntity
  8
0
100
AcDbBlockEnd
  0
ENDSEC
  0
SECTION
  2
ENTITIES
  0
TEXT
  5
63
330
18
100
AcDbEntity
  8
4
  6
CENTER
 48
0.25
100
AcDbText
 10
23.97950852663849
 20
10.0
 30
0.0
 40
1.399999999999999
  1
4
100
AcDbText
  0
TEXT
  5
64
330
18
100
AcDbEntity
  8
7
  6
Continuous
 48
0.25
100
AcDbText
 10
9.999997526638502
 20
26.0000007607689
 30
0.0
 40
3.0
  1
CODE No.5504
100
AcDbText
  0
TEXT
  5
65
330
18
100
AcDbEntity
  8
7
  6
Continuous
 48
0.25
100
AcDbText
 10
9.999997526638502
 20
18.00000076076889
 30
0.0
 40
3.0
  1
TYPE No.TM-300-R
100
AcDbText
  0
TEXT
  5
66
330
18
100
AcDbEntity
  8
1
  6
Continuous
 48
0.25
100
AcDbText
 10
9.999997526638502
 20
10.00000076076889
 30
0.0
 40
1.399999999999999
  1
LAYER
100
AcDbText
  0
TEXT
  5
67
330
18
100
AcDbEntity
  8
2
  6
Continuous
 48
0.25
100
AcDbText
 10
19.9795085266385
 20
10.0
 30
0.0
 40
1.399999999999999
  1
2
100
AcDbText
  0
TEXT
  5
68
330
18
100
AcDbEntity
  8
3
  6
DASHED
 48
0.25
100
AcDbText
 10
21.9795085266385
 20
10.0
 30
0.0
 40
1.399999999999999
  1
3
100
AcDbText
  0
TEXT
  5
69
330
18
100
AcDbEntity
  8
1
  6
Continuous
 48
0.25
100
AcDbText
 10
17.9795085266385
 20
10.0
 30
0.0
 40
1.399999999999999
  1
1
100
AcDbText
  0
TEXT
  5
6A
330
18
100
AcDbEntity
  8
5
  6
PHANTOM
 48
0.25
100
AcDbText
 10
25.9795085266385
 20
10.0
 30
0.0
 40
1.399999999999999
  1
5
100
AcDbText
  0
TEXT
  5
6B
330
18
100
AcDbEntity
  8
6
  6
Continuous
 48
0.25
100
AcDbText
 10
27.9795085266385
 20
10.0
 30
0.0
 40
1.399999999999999
  1
6
100
AcDbText
  0
TEXT
  5
6C
330
18
100
AcDbEntity
  8
7
  6
Continuous
 48
0.25
100
AcDbText
 10
29.9795085266385
 20
10.0
 30
0.0
 40
1.399999999999999
  1
7
100
AcDbText
  0
LINE
  5
4B3
330
18
100
AcDbEntity
  8
1
  6
Continuous
 48
0.25
100
AcDbLine
 10
148.4713908659201
 20
296.1474477441484
 30
0.0
 11
148.4713908868696
 21
280.1474477420536
 31
0.0
  0
LINE
  5
4B4
330
18
100
AcDbEntity
  8
1
  6
Continuous
 48
0.25
100
AcDbLine
 10
146.8713908868696
 20
297.7474477420534
 30
0.0
 11
146.8713908868696
 21
280.1474477420534
 31
0.0
  0
LINE
  5
4B5
330
18
100
AcDbEntity
  8
1
  6
Continuous
 48
0.25
100
AcDbLine
 10
240.8713898064594
 20
285.1474477420536
 30
0.0
 11
240.8713898064594
 21
297.7474477420536
 31
0.0
  0
LINE
  5
4B6
330
18
100
AcDbEntity
  8
1
  6
Continuous
 48
0.25
100
AcDbLine
 10
250.8713898064592
 20
297.7474477420536
 30
0.0
 11
250.8713898064595
 21
285.1474477420536
 31
0.0
  0
ARC
  5
4B7
330
18
100
AcDbEntity
  8
1
  6
Continuous
 48
0.25
100
AcDbCircle
 10
249.8714059074675
 20
145.14738555965
 30
0.0
 40
1.0
100
AcDbArc
 50
90.0000000000004
 51
180.0
  0
LINE
  5
4B8
330
18
100
AcDbEntity
  8
1
  6
Continuous
 48
0.25
100
AcDbLine
 10
257.1880275801036
 20
156.14738555965
 30
0.0
 11
234.5547826198845
 21
156.1473855596499
 31
0.0
  0
LINE
  5
4B9
330
18
100
AcDbEntity
  8
4
  6
CENTER
 48
0.1
100
AcDbLine
 10
249.8713898064595
 20
285.1474477420536
 30
0.0
 11
241.8713898064595
 21
285.1474477420536
 31
0.0
  0
LINE
  5
4BA
330
18
100
AcDbEntity
  8
4
  6
CENTER
 48
0.1
100
AcDbLine
 10
249.8713898064594
 20
258.1474177420537
 30
0.0
 11
241.8713898064594
 21
258.1474177420537
 31
0.0
  0
LINE
  5
4BB
330
18
100
AcDbEntity
  8
4
  6
CENTER
 48
0.25
100
AcDbLine
 10
261.6213898064595
 20
218.1474177420537
 30
0.0
 11
248.1213898064595
 21
218.1474177420536
 31
0.0
  0
ARC
  5
4BD
330
18
100
AcDbEntity
  8
1
  6
Continuous
 48
0.25
100
AcDbCircle
 10
254.8713898064596
 20
218.1474176271905
 30
0.0
 40
5.5
100
AcDbArc
 50
180.0000131623839
 51
270.000013162381
  0
ARC
  5
4BE
330
18
100
AcDbEntity
  8
1
  6
Continuous
 48
0.25
100
AcDbCircle
 10
254.8713898064595
 20
218.1474177419941
 30
0.0
 40
6.751801008010772
100
AcDbArc
 50
90.0
 51
180.0000051151127
  0
ARC
  5
4BF
330
18
100
AcDbEntity
  8
1
  6
Continuous
 48
0.25
100
AcDbCircle
 10
254.8713898064595
 20
218.1474177420537
 30
0.0
 40
5.25
100
AcDbArc
 50
179.9999934194621
 51
90.0
  0
ARC
  5
4C0
330
18
100
AcDbEntity
  8
1
  6
Continuous
 48
0.25
100
AcDbCircle
 10
245.8713898064595
 20
285.1474477420536
 30
0.0
 40
5.000000000000071
100
AcDbArc
 50
180.0
 51
0.000000000000007
  0
LINE
  5
4C1
330
18
100
AcDbEntity
  8
1
  6
Continuous
 48
0.25
100
AcDbLine
 10
250.8714270684431
 20
173.7382304569476
 30
0.0
 11
250.8714311095332
 21
156.1473855596499
 31
0.0
  0
CIRCLE
  5
4C2
330
18
100
AcDbEntity
  8
1
  6
Continuous
 48
0.25
100
AcDbCircle
 10
255.8714051981686
 20
151.1473855596499
 30
0.0
 40
1.85
  0
LINE
  5
4C3
330
18
100
AcDbEntity
  8
1
  6
Continuous
 48
0.25
100
AcDbLine
 10
257.1880275801039
 20
146.14738555965
 30
0.0
 11
249.8714059074675
 21
146.1473855596499
 31
0.0
  0
LINE
  5
4C4
330
18
100
AcDbEntity
  8
4
  6
CENTER
 48
0.1
100
AcDbLine
 10
259.2214051981686
 20
151.1473855596499
 30
0.0
 11
252.5214051981686
 21
151.1473855596499
 31
0.0
  0
ARC
  5
4C5
330
18
100
AcDbEntity
  8
1
  6
Continuous
 48
0.25
100
AcDbCircle
 10
253.8714027897483
 20
151.1473855596499
 30
0.0
 40
6.0
100
AcDbArc
 50
303.5573097619228
 51
56.44269023808035
  0
LINE
  5
4C6
330
18
100
AcDbEntity
  8
4
  6
CENTER
 48
0.1
100
AcDbLine
 10
255.8714051981685
 20
147.7973855596499
 30
0.0
 11
255.8714051981685
 21
154.4973855596499
 31
0.0
  0
LINE
  5
4C7
330
18
100
AcDbEntity
  8
1
  6
Continuous
 48
0.25
100
AcDbLine
 10
250.2714051981687
 20
146.14738555965
 30
0.0
 11
250.2714051981687
 21
156.14738555965
 31
0.0
  0
LINE
  5
4C8
330
18
100
AcDbEntity
  8
1
  6
Continuous
 48
0.25
100
AcDbLine
 10
254.8713898064594
 20
228.2383007196056
 30
0.0
 11
254.8713898064595
 21
223.3974177420536
 31
0.0
  0
ARC
  5
4C9
330
18
100
AcDbEntity
  8
1
  6
Continuous
 48
0.25
100
AcDbCircle
 10
350.8714270893049
 20
173.6474177420539
 30
0.0
 40
100.0
100
AcDbArc
 50
166.738582684567
 51
180.0
  0
LINE
  5
4CA
330
18
100
AcDbEntity
  8
1
  6
Continuous
 48
0.25
100
AcDbLine
 10
254.8713910125259
 20
212.8974176271906
 30
0.0
 11
254.8713921245961
 21
208.0565819396256
 31
0.0
  0
ARC
  5
4CB
330
18
100
AcDbEntity
  8
1
  6
Continuous
 48
0.25
100
AcDbCircle
 10
204.8713921245986
 20
208.0565704532806
 30
0.0
 40
50.0
100
AcDbArc
 50
346.738582684567
 51
0.0000000000008212
  0
CIRCLE
  5
4CC
330
18
100
AcDbEntity
  8
1
  6
Continuous
 48
0.25
100
AcDbCircle
 10
254.8713898064595
 20
218.1474177420537
 30
0.0
 40
0.8000000000000007
  0
CIRCLE
  5
4CD
330
18
100
AcDbEntity
  8
1
  6
Continuous
 48
0.25
100
AcDbCircle
 10
254.8713898064595
 20
218.1474177420537
 30
0.0
 40
2.0
  0
LINE
  5
4CE
330
18
100
AcDbEntity
  8
4
  6
CENTER
 48
0.25
100
AcDbLine
 10
254.8713898064595
 20
211.3974176271905
 30
0.0
 11
254.8713898064595
 21
224.8974177420536
 31
0.0
  0
LINE
  5
4CF
330
18
100
AcDbEntity
  8
1
  6
Continuous
 48
0.25
100
AcDbLine
 10
250.9839719401369
 20
257.9046561345967
 30
0.0
 11
252.3453099901798
 21
268.1474177421804
 31
0.0
  0
ARC
  5
4D0
330
18
100
AcDbEntity
  8
1
  6
Continuous
 48
0.25
100
AcDbCircle
 10
350.8714413246753
 20
262.6473831932534
 30
0.0
 40
100.0
100
AcDbArc
 50
180.0
 51
193.2613897516277
  0
ARC
  5
4D1
330
18
100
AcDbEntity
  8
1
  6
Continuous
 48
0.25
100
AcDbCircle
 10
204.8713898064595
 20
228.238300719605
 30
0.0
 40
50.0
100
AcDbArc
 50
0.0000000000008212
 51
13.26138975162758
  0
LINE
  5
4D2
330
18
100
AcDbEntity
  8
1
  6
Continuous
 48
0.25
100
AcDbLine
 10
254.3714168664584
 20
268.1474177421804
 30
0.0
 11
254.3714168664584
 21
276.1474177421803
 31
0.0
  0
LINE
  5
4D3
330
18
100
AcDbEntity
  8
1
  6
Continuous
 48
0.25
100
AcDbLine
 10
251.5303036934204
 20
268.0874399776514
 30
0.0
 11
250.8713898064593
 21
263.1297456974858
 31
0.0
  0
LINE
  5
4D4
330
18
100
AcDbEntity
  8
1
  6
Continuous
 48
0.25
100
AcDbLine
 10
250.8714168664585
 20
267.1474177421803
 30
0.0
 11
250.8714168664585
 21
262.6473831932536
 31
0.0
  0
LINE
  5
4D5
330
18
100
AcDbEntity
  8
1
  6
Continuous
 48
0.25
100
AcDbLine
 10
251.8714168664583
 20
268.1474177421803
 30
0.0
 11
254.3714168664584
 21
268.1474177421803
 31
0.0
  0
ARC
  5
4D7
330
18
100
AcDbEntity
  8
1
  6
Continuous
 48
0.25
100
AcDbCircle
 10
251.8714168664585
 20
267.1474177421804
 30
0.0
 40
1.0
100
AcDbArc
 50
90.0
 51
180.0
  0
LINE
  5
4D8
330
18
100
AcDbEntity
  8
1
  6
Continuous
 48
0.25
100
AcDbLine
 10
251.7751022918022
 20
277.0401531635096
 30
0.0
 11
250.8713898064595
 21
285.4166231758874
 31
0.0
  0
LINE
  5
4D9
330
18
100
AcDbEntity
  8
1
  6
Continuous
 48
0.25
100
AcDbLine
 10
251.1162076449165
 20
283.1474177420893
 30
0.0
 11
252.8713898064594
 21
283.1474177420894
 31
0.0
  0
LINE
  5
4DA
330
18
100
AcDbEntity
  8
1
  6
Continuous
 48
0.25
100
AcDbLine
 10
251.6556428031677
 20
278.1474177420895
 30
0.0
 11
252.8713898064593
 21
278.1474177420895
 31
0.0
  0
ARC
  5
4DB
330
18
100
AcDbEntity
  8
1
  6
Continuous
 48
0.25
100
AcDbCircle
 10
252.7693328033851
 20
277.1474177421806
 30
0.0
 40
1.0
100
AcDbArc
 50
186.1576543821163
 51
270.0
  0
LINE
  5
4DC
330
18
100
AcDbEntity
  8
1
  6
Continuous
 48
0.25
100
AcDbLine
 10
252.7693328033851
 20
276.1474177421805
 30
0.0
 11
254.3714168664584
 21
276.1474177421805
 31
0.0
  0
LINE
  5
4DD
330
18
100
AcDbEntity
  8
1
  6
Continuous
 48
0.25
100
AcDbLine
 10
252.8713898064593
 20
283.1474177420893
 30
0.0
 11
252.8713898064594
 21
278.1474177420895
 31
0.0
  0
LINE
  5
4DE
330
18
100
AcDbEntity
  8
1
  6
Continuous
 48
0.25
100
AcDbLine
 10
251.8713898064593
 20
283.1474177420893
 30
0.0
 11
251.8713898064593
 21
278.1474177420895
 31
0.0
  0
LINE
  5
4DF
330
18
100
AcDbEntity
  8
5
  6
PHANTOM
 48
0.15
100
AcDbLine
 10
142.6340827922373
 20
212.7911144037661
 30
0.0
 11
146.4282487005267
 21
146.1490021752421
 31
0.0
  0
LINE
  5
4E0
330
18
100
AcDbEntity
  8
5
  6
PHANTOM
 48
0.15
100
AcDbLine
 10
141.1220341328784
 20
211.2007950988662
 30
0.0
 11
144.8308355351612
 21
146.0580561521478
 31
0.0
  0
LINE
  5
4E1
330
18
100
AcDbEntity
  8
1
  6
Continuous
 48
0.25
100
AcDbLine
 10
144.7713908868656
 20
260.1474177421806
 30
0.0
 11
144.7714074272081
 21
146.1473854033429
 31
0.0
  0
LINE
  5
4E2
330
18
100
AcDbEntity
  8
1
  6
Continuous
 48
0.25
100
AcDbLine
 10
146.3713908868656
 20
260.1474177421806
 30
0.0
 11
146.371407427208
 21
146.1473854033429
 31
0.0
  0
ARC
  5
4E3
330
18
100
AcDbEntity
  8
1
  6
Continuous
 48
0.25
100
AcDbCircle
 10
383.8714013747447
 20
167.7907467996645
 30
0.0
 40
144.0
100
AcDbArc
 50
170.6110115161649
 51
184.6378091444175
  0
LINE
  5
4E4
330
18
100
AcDbEntity
  8
1
  6
Continuous
 48
0.25
100
AcDbLine
 10
241.8714059074677
 20
146.1473855596499
 30
0.0
 11
234.5547826198845
 21
146.1473855596499
 31
0.0
  0
LINE
  5
4E5
330
18
100
AcDbEntity
  8
4
  6
CENTER
 48
0.1
100
AcDbLine
 10
239.2214051981686
 20
151.1473855596499
 30
0.0
 11
232.5214051981686
 21
151.1473855596498
 31
0.0
  0
LINE
  5
4E6
330
18
100
AcDbEntity
  8
1
  6
Continuous
 48
0.25
100
AcDbLine
 10
242.8714059074677
 20
141.5474016562996
 30
0.0
 11
242.8714059074677
 21
145.1473855596499
 31
0.0
  0
LINE
  5
4E7
330
18
100
AcDbEntity
  8
1
  6
Continuous
 48
0.25
100
AcDbLine
 10
248.8714059074676
 20
141.5474016562996
 30
0.0
 11
248.8714059074676
 21
145.14738555965
 31
0.0
  0
LINE
  5
4E8
330
18
100
AcDbEntity
  8
1
  6
Continuous
 48
0.25
100
AcDbLine
 10
248.8714059074676
 20
141.5474016562996
 30
0.0
 11
242.8714059074677
 21
141.5474016562996
 31
0.0
  0
CIRCLE
  5
4E9
330
18
100
AcDbEntity
  8
1
  6
Continuous
 48
0.25
100
AcDbCircle
 10
245.8714051981686
 20
151.14738555965
 30
0.0
 40
2.0
  0
LINE
  5
4EA
330
18
100
AcDbEntity
  8
4
  6
CENTER
 48
0.1
100
AcDbLine
 10
245.8714051981686
 20
147.64738555965
 30
0.0
 11
245.8714051981686
 21
154.64738555965
 31
0.0
  0
CIRCLE
  5
4EB
330
18
100
AcDbEntity
  8
1
  6
Continuous
 48
0.25
100
AcDbCircle
 10
245.8714051981686
 20
151.14738555965
 30
0.0
 40
0.8000000000000007
  0
LINE
  5
4EC
330
18
100
AcDbEntity
  8
1
  6
Continuous
 48
0.25
100
AcDbLine
 10
241.4714051981686
 20
146.1473855596499
 30
0.0
 11
241.4714051981686
 21
156.1473855596499
 31
0.0
  0
ARC
  5
4ED
330
18
100
AcDbEntity
  8
1
  6
Continuous
 48
0.25
100
AcDbCircle
 10
241.8714059074676
 20
145.14738555965
 30
0.0
 40
1.0
100
AcDbArc
 50
0.0000000000008212
 51
90.0000000000004
  0
ARC
  5
4EE
330
18
100
AcDbEntity
  8
1
  6
Continuous
 48
0.25
100
AcDbCircle
 10
237.8714074102399
 20
151.1473855596499
 30
0.0
 40
6.0
100
AcDbArc
 50
123.5573097619211
 51
236.4426902380788
  0
CIRCLE
  5
4EF
330
18
100
AcDbEntity
  8
1
  6
Continuous
 48
0.25
100
AcDbCircle
 10
235.8714051981686
 20
151.1473855596499
 30
0.0
 40
1.85
  0
LINE
  5
4F0
330
18
100
AcDbEntity
  8
4
  6
CENTER
 48
0.1
100
AcDbLine
 10
235.8714051981686
 20
147.7973855596499
 30
0.0
 11
235.8714051981686
 21
154.4973855596499
 31
0.0
  0
ARC
  5
4F1
330
18
100
AcDbEntity
  8
1
  6
Continuous
 48
0.25
100
AcDbCircle
 10
146.871407427208
 20
143.1473855596499
 30
0.0
 40
1.6
100
AcDbArc
 50
270.0000000000004
 51
0.0000000000008212
  0
LINE
  5
4F2
330
18
100
AcDbEntity
  8
1
  6
Continuous
 48
0.25
100
AcDbLine
 10
151.8714074272043
 20
156.1473855596499
 30
0.0
 11
146.8714074272079
 21
156.1473855596499
 31
0.0
  0
LINE
  5
4F3
330
18
100
AcDbEntity
  8
1
  6
Continuous
 48
0.25
100
AcDbLine
 10
151.8714074272043
 20
146.1473855596499
 30
0.0
 11
146.8714074272079
 21
146.1473855596499
 31
0.0
  0
LINE
  5
4F4
330
18
100
AcDbEntity
  8
4
  6
CENTER
 48
0.2
100
AcDbLine
 10
153.3714074272043
 20
151.1473863353823
 30
0.0
 11
141.2714067017545
 21
151.1473863353822
 31
0.0
  0
LINE
  5
4F5
330
18
100
AcDbEntity
  8
1
  6
Continuous
 48
0.25
100
AcDbLine
 10
148.471407427208
 20
143.1473855596499
 30
0.0
 11
148.471407427208
 21
146.1473855596499
 31
0.0
  0
LINE
  5
4F6
330
18
100
AcDbEntity
  8
1
  6
Continuous
 48
0.25
100
AcDbLine
 10
151.8714074272043
 20
156.1473855596499
 30
0.0
 11
151.8714074272043
 21
146.14738555965
 31
0.0
  0
LINE
  5
4F7
330
18
100
AcDbEntity
  8
1
  6
Continuous
 48
0.25
100
AcDbLine
 10
150.2714074272044
 20
156.1473855596498
 30
0.0
 11
150.2714074272044
 21
146.1473855596499
 31
0.0
  0
LINE
  5
4F8
330
18
100
AcDbEntity
  8
1
  6
Continuous
 48
0.25
100
AcDbLine
 10
142.471407427208
 20
143.1473855596499
 30
0.0
 11
142.471407427208
 21
147.54738555965
 31
0.0
  0
LINE
  5
4F9
330
18
100
AcDbEntity
  8
1
  6
Continuous
 48
0.25
100
AcDbLine
 10
140.871407427208
 20
143.1473855596499
 30
0.0
 11
140.871407427208
 21
147.54738555965
 31
0.0
  0
LINE
  5
4FA
330
18
100
AcDbEntity
  8
1
  6
Continuous
 48
0.25
100
AcDbLine
 10
146.871407427208
 20
143.1473855596499
 30
0.0
 11
146.871407427208
 21
156.1473855596499
 31
0.0
  0
ARC
  5
4FB
330
18
100
AcDbEntity
  8
1
  6
Continuous
 48
0.25
100
AcDbCircle
 10
142.471407427208
 20
143.1473855596499
 30
0.0
 40
1.6
100
AcDbArc
 50
180.0
 51
270.0
  0
LINE
  5
4FC
330
18
100
AcDbEntity
  8
1
  6
Continuous
 48
0.25
100
AcDbLine
 10
142.471407427208
 20
141.54738555965
 30
0.0
 11
146.871407427208
 21
141.54738555965
 31
0.0
  0
LINE
  5
4FD
330
18
100
AcDbEntity
  8
1
  6
Continuous
 48
0.25
100
AcDbLine
 10
142.471407427208
 20
143.1473855596499
 30
0.0
 11
146.871407427208
 21
143.1473855596499
 31
0.0
  0
LINE
  5
4FE
330
18
100
AcDbEntity
  8
1
  6
Continuous
 48
0.25
100
AcDbLine
 10
140.871407427208
 20
147.5473855596499
 30
0.0
 11
142.471407427208
 21
147.54738555965
 31
0.0
  0
LINE
  5
4FF
330
18
100
AcDbEntity
  8
1
  6
Continuous
 48
0.25
100
AcDbLine
 10
144.2714067017545
 20
154.5014351814237
 30
0.0
 11
144.2714067017545
 21
147.7933359378759
 31
0.0
  0
LINE
  5
500
330
18
100
AcDbEntity
  8
1
  6
Continuous
 48
0.25
100
AcDbLine
 10
142.7714067017545
 20
154.5014351814236
 30
0.0
 11
142.7714067017545
 21
147.7933359378759
 31
0.0
  0
LINE
  5
501
330
18
100
AcDbEntity
  8
5
  6
PHANTOM
 48
0.15
100
AcDbLine
 10
146.4282487005265
 20
146.1490021752422
 30
0.0
 11
144.830835535161
 21
146.0580561521479
 31
0.0
  0
LINE
  5
502
330
18
100
AcDbEntity
  8
1
  6
Continuous
 48
0.25
100
AcDbLine
 10
146.3714074272078
 20
146.1473854033429
 30
0.0
 11
144.771407427208
 21
146.1473854033429
 31
0.0
  0
LINE
  5
503
330
18
100
AcDbEntity
  8
1
  6
Continuous
 48
0.25
100
AcDbLine
 10
146.8714074272079
 20
147.1473855596498
 30
0.0
 11
146.3714074272079
 21
147.1473855596498
 31
0.0
  0
LINE
  5
504
330
18
100
AcDbEntity
  8
1
  6
Continuous
 48
0.25
100
AcDbLine
 10
144.7714064841186
 20
149.6473863353823
 30
0.0
 11
144.2714067017546
 21
149.6473863353823
 31
0.0
  0
ARC
  5
505
330
18
100
AcDbEntity
  8
1
  6
Continuous
 48
0.25
100
AcDbCircle
 10
143.5214067017545
 20
149.6473855596498
 30
0.0
 40
2.0
100
AcDbArc
 50
247.975687162958
 51
292.0243128370427
  0
LINE
  5
506
330
18
100
AcDbEntity
  8
1
  6
Continuous
 48
0.25
100
AcDbLine
 10
146.3714074272079
 20
155.1473855596498
 30
0.0
 11
146.8714074272079
 21
155.1473855596498
 31
0.0
  0
LINE
  5
507
330
18
100
AcDbEntity
  8
1
  6
Continuous
 48
0.25
100
AcDbLine
 10
144.7714064841186
 20
152.6473863353823
 30
0.0
 11
144.2714067017545
 21
152.6473863353823
 31
0.0
  0
ARC
  5
508
330
18
100
AcDbEntity
  8
1
  6
Continuous
 48
0.25
100
AcDbCircle
 10
143.5214067017545
 20
152.6473855596498
 30
0.0
 40
2.0
100
AcDbArc
 50
67.97568716295794
 51
112.024312837042
  0
ARC
  5
509
330
18
100
AcDbEntity
  8
1
  6
Continuous
 48
0.25
100
AcDbCircle
 10
192.8713627464621
 20
234.430179870132
 30
0.0
 40
50.0
100
AcDbArc
 50
344.0577399461373
 51
9.389001646216527
  0
LINE
  5
50A
330
18
100
AcDbEntity
  8
1
  6
Continuous
 48
0.25
100
AcDbLine
 10
241.8004926877971
 20
191.2823815845205
 30
0.0
 11
242.2015431144643
 21
193.707823622408
 31
0.0
  0
ARC
  5
50B
330
18
100
AcDbEntity
  8
1
  6
Continuous
 48
0.25
100
AcDbCircle
 10
192.8713664870522
 20
201.8646412560388
 30
0.0
 40
50.0
100
AcDbArc
 50
350.611011516165
 51
15.94227321624476
  0
LINE
  5
50C
330
18
100
AcDbEntity
  8
1
  6
Continuous
 48
0.25
100
AcDbLine
 10
242.8713900781983
 20
218.1474177420495
 30
0.0
 11
249.6213898064599
 21
218.147418345027
 31
0.0
  0
ARC
  5
50D
330
18
100
AcDbEntity
  8
1
  6
Continuous
 48
0.25
100
AcDbCircle
 10
242.8713902661556
 20
216.1474148702301
 30
0.0
 40
2.000000000241862
100
AcDbArc
 50
90.00000538456811
 51
195.9422732162446
  0
ARC
  5
50E
330
18
100
AcDbEntity
  8
1
  6
Continuous
 48
0.25
100
AcDbCircle
 10
242.8713898067014
 20
220.1474177422913
 30
0.0
 40
2.000000000241862
100
AcDbArc
 50
164.0577399461373
 51
270.0000077778133
  0
LINE
  5
50F
330
18
100
AcDbEntity
  8
4
  6
CENTER
 48
0.1
100
AcDbLine
 10
245.8713898064593
 20
254.1474177420537
 30
0.0
 11
245.8713898064593
 21
262.1474177420537
 31
0.0
  0
ARC
  5
510
330
18
100
AcDbEntity
  8
1
  6
Continuous
 48
0.25
100
AcDbCircle
 10
383.8713898064595
 20
268.5041182043501
 30
0.0
 40
144.0
100
AcDbArc
 50
183.3268946302396
 51
189.3890016462165
  0
CIRCLE
  5
511
330
18
100
AcDbEntity
  8
1
  6
Continuous
 48
0.25
100
AcDbCircle
 10
245.8713898064594
 20
258.1474177420537
 30
0.0
 40
2.5
  0
LINE
  5
512
330
18
100
AcDbEntity
  8
1
  6
Continuous
 48
0.25
100
AcDbLine
 10
241.8004865161764
 20
245.0124507819858
 30
0.0
 11
242.2015375000327
 21
242.5870088362307
 31
0.0
  0
LINE
  5
513
330
18
100
AcDbEntity
  8
1
  6
Continuous
 48
0.25
100
AcDbLine
 10
236.8713898064594
 20
260.1474177421806
 30
0.0
 11
240.9938888056952
 21
260.1474177421806
 31
0.0
  0
LINE
  5
514
330
18
100
AcDbEntity
  8
1
  6
Continuous
 48
0.25
100
AcDbLine
 10
236.8713898064594
 20
269.1474177420893
 30
0.0
 11
240.9938888056952
 21
269.1474177420894
 31
0.0
  0
ARC
  5
515
330
18
100
AcDbEntity
  8
1
  6
Continuous
 48
0.25
100
AcDbCircle
 10
242.8713898064594
 20
284.1474177420536
 30
0.0
 40
6.0
100
AcDbArc
 50
109.4712206344903
 51
224.4153085971945
  0
ARC
  5
516
330
18
100
AcDbEntity
  8
1
  6
Continuous
 48
0.25
100
AcDbCircle
 10
383.8713898064595
 20
268.5041182043501
 30
0.0
 40
144.0
100
AcDbArc
 50
173.243713887612
 51
179.744037984534
  0
ARC
  5
517
330
18
100
AcDbEntity
  8
1
  6
Continuous
 48
0.25
100
AcDbCircle
 10
237.8713898064595
 20
264.647417742135
 30
0.0
 40
5.999999999999999
100
AcDbArc
 50
321.3178125473481
 51
38.68218745265187
  0
ARC
  5
518
330
18
100
AcDbEntity
  8
1
  6
Continuous
 48
0.25
100
AcDbCircle
 10
240.9938888056952
 20
262.1474177421807
 30
0.0
 40
2.0
100
AcDbArc
 50
270.0
 51
321.3178125473481
  0
ARC
  5
519
330
18
100
AcDbEntity
  8
1
  6
Continuous
 48
0.25
100
AcDbCircle
 10
239.1623842551872
 20
259.1474177421806
 30
0.0
 40
1.0
100
AcDbArc
 50
28.75992130860353
 51
90.0
  0
LINE
  5
51A
330
18
100
AcDbEntity
  8
1
  6
Continuous
 48
0.25
100
AcDbLine
 10
240.1711738199543
 20
259.2171420855182
 30
0.0
 11
239.872371051146
 21
260.1474177421806
 31
0.0
  0
ARC
  5
51B
330
18
100
AcDbEntity
  8
1
  6
Continuous
 48
0.25
100
AcDbCircle
 10
240.9938888056953
 20
267.1474177420894
 30
0.0
 40
2.0
100
AcDbArc
 50
38.68218745265187
 51
90.0
  0
CIRCLE
  5
51C
330
18
100
AcDbEntity
  8
1
  6
Continuous
 48
0.25
100
AcDbCircle
 10
245.8713898064595
 20
285.1474477420536
 30
0.0
 40
2.5
  0
LINE
  5
51D
330
18
100
AcDbEntity
  8
4
  6
CENTER
 48
0.1
100
AcDbLine
 10
245.8713898064595
 20
281.1474477420536
 30
0.0
 11
245.8713898064595
 21
289.1474477420537
 31
0.0
  0
CIRCLE
  5
51E
330
18
100
AcDbEntity
  8
1
  6
Continuous
 48
0.25
100
AcDbCircle
 10
245.8713898064595
 20
285.1474477420536
 30
0.0
 40
1.0
  0
ARC
  5
51F
330
18
100
AcDbEntity
  8
1
  6
Continuous
 48
0.25
100
AcDbCircle
 10
232.8713898064596
 20
274.3494587709207
 30
0.0
 40
8.0
100
AcDbArc
 50
24.31566679506478
 51
44.41530859719427
  0
ARC
  5
520
330
18
100
AcDbEntity
  8
1
  6
Continuous
 48
0.25
100
AcDbCircle
 10
242.8828057122145
 20
284.8859505138163
 30
0.0
 40
2.749999999999998
100
AcDbArc
 50
137.0059033270645
 51
215.135659115022
  0
LINE
  5
521
330
18
100
AcDbEntity
  8
1
  6
Continuous
 48
0.25
100
AcDbLine
 10
236.8713898064596
 20
269.1474177420893
 30
0.0
 11
236.8713898064596
 21
260.1474177421806
 31
0.0
  0
LINE
  5
522
330
18
100
AcDbEntity
  8
5
  6
PHANTOM
 48
0.15
100
AcDbLine
 10
140.2041125061192
 20
255.4719977477595
 30
0.0
 11
141.9518835089263
 21
224.7735111411623
 31
0.0
  0
LINE
  5
523
330
18
100
AcDbEntity
  8
5
  6
PHANTOM
 48
0.15
100
AcDbLine
 10
138.7317504768608
 20
253.1846080139286
 30
0.0
 11
140.4398348358549
 21
223.1831920771132
 31
0.0
  0
LINE
  5
524
330
18
100
AcDbEntity
  8
4
  6
CENTER
 48
0.1
100
AcDbLine
 10
145.3807281302774
 20
218.2059922709658
 30
0.0
 11
136.6947941169348
 21
217.7114719823413
 31
0.0
  0
ARC
  5
526
330
18
100
AcDbEntity
  8
1
  6
Continuous
 48
0.25
100
AcDbCircle
 10
147.621390886862
 20
216.4474177420535
 30
0.0
 40
0.3
100
AcDbArc
 50
270.0
 51
0.0000000000008212
  0
ARC
  5
527
330
18
100
AcDbEntity
  8
1
  6
Continuous
 48
0.25
100
AcDbCircle
 10
147.621390886862
 20
219.8474177420535
 30
0.0
 40
0.3
100
AcDbArc
 50
0.0000000000008212
 51
90.0
  0
LINE
  5
528
330
18
100
AcDbEntity
  8
1
  6
Continuous
 48
0.25
100
AcDbLine
 10
147.921390886862
 20
219.8474177420535
 30
0.0
 11
147.921390886862
 21
216.4474177420535
 31
0.0
  0
ARC
  5
529
330
18
100
AcDbEntity
  8
5
  6
PHANTOM
 48
0.15
100
AcDbCircle
 10
141.489162640718
 20
223.242959717272
 30
0.0
 40
1.598966118462465
100
AcDbArc
 50
3.257597226669171
 51
73.1788987703976
  0
LINE
  5
52A
330
18
100
AcDbEntity
  8
4
  6
CENTER
 48
0.1
100
AcDbLine
 10
148.9213908870698
 20
218.1474177419939
 30
0.0
 11
140.721390886862
 21
218.1474177419939
 31
0.0
  0
LINE
  5
52B
330
18
100
AcDbEntity
  8
5
  6
PHANTOM
 48
0.15
100
AcDbLine
 10
143.7865231639145
 20
219.8179814110195
 30
0.0
 11
143.97978346299
 21
216.4234784346176
 31
0.0
  0
LINE
  5
52C
330
18
100
AcDbEntity
  8
1
  6
Continuous
 48
0.25
100
AcDbLine
 10
143.721392092931
 20
223.3974176271903
 30
0.0
 11
143.721392092931
 21
212.8974176271902
 31
0.0
  0
LINE
  5
52D
330
18
100
AcDbEntity
  8
1
  6
Continuous
 48
0.25
100
AcDbLine
 10
147.4213908868658
 20
223.3974177420536
 30
0.0
 11
147.4213908868658
 21
212.8974177420535
 31
0.0
  0
LINE
  5
52E
330
18
100
AcDbEntity
  8
1
  6
Continuous
 48
0.25
100
AcDbLine
 10
142.221390886862
 20
221.5014673638273
 30
0.0
 11
142.221390886862
 21
214.7933681202795
 31
0.0
  0
LINE
  5
52F
330
18
100
AcDbEntity
  8
1
  6
Continuous
 48
0.25
100
AcDbLine
 10
147.4213908868621
 20
216.1474177420535
 30
0.0
 11
147.621390886862
 21
216.1474177420535
 31
0.0
  0
LINE
  5
530
330
18
100
AcDbEntity
  8
1
  6
Continuous
 48
0.25
100
AcDbLine
 10
147.4213908868658
 20
212.8974177420535
 30
0.0
 11
146.3714074272077
 21
212.8974177420535
 31
0.0
  0
LINE
  5
531
330
18
100
AcDbEntity
  8
5
  6
PHANTOM
 48
0.15
100
AcDbLine
 10
143.6823783375577
 20
212.8507973417459
 30
0.0
 11
142.6340924613865
 21
212.7911149542642
 31
0.0
  0
LINE
  5
532
330
18
100
AcDbEntity
  8
5
  6
PHANTOM
 48
0.15
100
AcDbLine
 10
143.4976442281473
 20
216.0955428338948
 30
0.0
 11
143.6823783375576
 21
212.8507973417461
 31
0.0
  0
LINE
  5
533
330
18
100
AcDbEntity
  8
5
  6
PHANTOM
 48
0.15
100
AcDbLine
 10
143.4976442281435
 20
216.0955428338945
 30
0.0
 11
143.6973208738141
 21
216.1069110867813
 31
0.0
  0
ARC
  5
534
330
18
100
AcDbEntity
  8
5
  6
PHANTOM
 48
0.15
100
AcDbCircle
 10
143.6802684944841
 20
216.4064260552874
 30
0.0
 40
0.3
100
AcDbArc
 50
273.2585208383066
 51
3.258520838307048
  0
ARC
  5
535
330
18
100
AcDbEntity
  8
1
  6
Continuous
 48
0.25
100
AcDbCircle
 10
145.3203570048258
 20
212.8973916105412
 30
0.0
 40
1.598966118462438
100
AcDbArc
 50
179.999067744258
 51
249.920377935273
  0
ARC
  5
536
330
18
100
AcDbEntity
  8
1
  6
Continuous
 48
0.25
100
AcDbCircle
 10
142.971390886862
 20
216.6474177420535
 30
0.0
 40
2.0
100
AcDbArc
 50
247.975687162958
 51
292.024312837042
  0
ARC
  5
538
330
18
100
AcDbEntity
  8
1
  6
Continuous
 48
0.25
100
AcDbCircle
 10
145.8224247686074
 20
223.3974435174898
 30
0.0
 40
1.598966118462465
100
AcDbArc
 50
359.9990763883622
 51
69.92037793209132
  0
LINE
  5
539
330
18
100
AcDbEntity
  8
1
  6
Continuous
 48
0.25
100
AcDbLine
 10
147.4213908868621
 20
220.1474177420535
 30
0.0
 11
147.621390886862
 21
220.1474177420535
 31
0.0
  0
ARC
  5
53A
330
18
100
AcDbEntity
  8
5
  6
PHANTOM
 48
0.15
100
AcDbCircle
 10
143.4870081954085
 20
219.8009290316893
 30
0.0
 40
0.3
100
AcDbArc
 50
3.258520838307048
 51
93.25852083830666
  0
LINE
  5
53B
330
18
100
AcDbEntity
  8
5
  6
PHANTOM
 48
0.15
100
AcDbLine
 10
143.2702791704077
 20
220.0890757473085
 30
0.0
 11
143.4699558160783
 21
220.1004440001953
 31
0.0
  0
LINE
  5
53C
330
18
100
AcDbEntity
  8
5
  6
PHANTOM
 48
0.15
100
AcDbLine
 10
143.085545061001
 20
223.3338212394578
 30
0.0
 11
143.2702791704115
 21
220.0890757473088
 31
0.0
  0
LINE
  5
53D
330
18
100
AcDbEntity
  8
1
  6
Continuous
 48
0.25
100
AcDbLine
 10
143.721392092931
 20
223.3974176271903
 30
0.0
 11
144.7713908868657
 21
223.3974176271903
 31
0.0
  0
ARC
  5
53E
330
18
100
AcDbEntity
  8
1
  6
Continuous
 48
0.25
100
AcDbCircle
 10
142.971390886862
 20
219.6474177420535
 30
0.0
 40
2.0
100
AcDbArc
 50
67.97568716295794
 51
112.024312837042
  0
LINE
  5
53F
330
18
100
AcDbEntity
  8
5
  6
PHANTOM
 48
0.15
100
AcDbLine
 10
138.0017204903615
 20
221.1453616049894
 30
0.0
 11
138.3830173333133
 21
214.4481078261004
 31
0.0
  0
ARC
  5
540
330
18
100
AcDbEntity
  8
5
  6
PHANTOM
 48
0.15
100
AcDbCircle
 10
139.0264182297535
 20
216.3417908213403
 30
0.0
 40
2.0
100
AcDbArc
 50
251.2342080012643
 51
295.2828336753486
  0
LINE
  5
541
330
18
100
AcDbEntity
  8
5
  6
PHANTOM
 48
0.15
100
AcDbLine
 10
139.8805933799625
 20
214.5333697913061
 30
0.0
 11
139.9883616032939
 21
212.640484617217
 31
0.0
  0
ARC
  5
542
330
18
100
AcDbEntity
  8
5
  6
PHANTOM
 48
0.15
100
AcDbCircle
 10
141.5847428328746
 20
212.7313458300086
 30
0.0
 40
1.598966118462438
100
AcDbArc
 50
183.2575885825655
 51
253.1788987735793
  0
ARC
  5
543
330
18
100
AcDbEntity
  8
5
  6
PHANTOM
 48
0.15
100
AcDbCircle
 10
138.8558944364516
 20
219.3369405064007
 30
0.0
 40
2.0
100
AcDbArc
 50
71.23420800126436
 51
115.2828336753486
  0
LINE
  5
544
330
18
100
AcDbEntity
  8
5
  6
PHANTOM
 48
0.15
100
AcDbLine
 10
139.3915283267374
 20
223.1235085149287
 30
0.0
 11
140.4398295123933
 21
223.1831917740302
 31
0.0
  0
LINE
  5
545
330
18
100
AcDbEntity
  8
5
  6
PHANTOM
 48
0.15
100
AcDbLine
 10
139.3915283267373
 20
223.1235085149288
 30
0.0
 11
139.4992965370107
 21
221.230623570195
 31
0.0
  0
LINE
  5
546
330
18
100
AcDbEntity
  8
4
  6
CENTER
 48
0.1
100
AcDbLine
 10
140.0248677170953
 20
285.0095943326109
 30
0.0
 11
134.3839905439774
 21
284.6884396699861
 31
0.0
  0
LINE
  5
547
330
18
100
AcDbEntity
  8
5
  6
PHANTOM
 48
0.15
100
AcDbLine
 10
138.2430865561401
 20
289.9162485119519
 30
0.0
 11
135.5973607345817
 21
289.7655883715557
 31
0.0
  0
LINE
  5
548
330
18
100
AcDbEntity
  8
5
  6
PHANTOM
 48
0.15
100
AcDbLine
 10
135.5973607345817
 20
289.7655883715557
 30
0.0
 11
136.3931384366501
 21
275.7882231747334
 31
0.0
  0
LINE
  5
549
330
18
100
AcDbEntity
  8
5
  6
PHANTOM
 48
0.15
100
AcDbLine
 10
133.847273184893
 20
275.6432786325189
 30
0.0
 11
136.39313843665
 21
275.7882231747334
 31
0.0
  0
LINE
  5
54A
330
18
100
AcDbEntity
  8
5
  6
PHANTOM
 48
0.15
100
AcDbLine
 10
136.2958408764713
 20
253.7470571259362
 30
0.0
 11
136.3356297615752
 21
253.0481888660888
 31
0.0
  0
ARC
  5
54B
330
18
100
AcDbEntity
  8
5
  6
PHANTOM
 48
0.15
100
AcDbCircle
 10
137.4412527577216
 20
257.8187467779468
 30
0.0
 40
3.625000000000051
100
AcDbArc
 50
319.655701865604
 51
36.74389746370517
  0
LINE
  5
54C
330
18
100
AcDbEntity
  8
1
  6
Continuous
 48
0.25
100
AcDbLine
 10
143.9713908868656
 20
260.1474177421806
 30
0.0
 11
143.9713908868657
 21
253.4474177420536
 31
0.0
  0
LINE
  5
54D
330
18
100
AcDbEntity
  8
1
  6
Continuous
 48
0.25
100
AcDbLine
 10
143.1713908868656
 20
260.1474177421805
 30
0.0
 11
143.1713908868656
 21
253.4474177420536
 31
0.0
  0
LINE
  5
54E
330
18
100
AcDbEntity
  8
1
  6
Continuous
 48
0.25
100
AcDbLine
 10
142.3713908868656
 20
260.1474177421806
 30
0.0
 11
142.3713908868656
 21
253.4474177420536
 31
0.0
  0
LINE
  5
54F
330
18
100
AcDbEntity
  8
1
  6
Continuous
 48
0.25
100
AcDbLine
 10
142.1713908868656
 20
260.1474177421805
 30
0.0
 11
142.1713908868656
 21
253.1474177420535
 31
0.0
  0
LINE
  5
550
330
18
100
AcDbEntity
  8
1
  6
Continuous
 48
0.25
100
AcDbLine
 10
141.1713908868656
 20
276.1474177421804
 30
0.0
 11
141.171390886833
 21
253.1474177420535
 31
0.0
  0
LINE
  5
551
330
18
100
AcDbEntity
  8
1
  6
Continuous
 48
0.25
100
AcDbLine
 10
139.7713908868656
 20
260.6474177420535
 30
0.0
 11
139.7713908868656
 21
255.6474177420535
 31
0.0
  0
LINE
  5
552
330
18
100
AcDbEntity
  8
1
  6
Continuous
 48
0.25
100
AcDbLine
 10
140.2713908868656
 20
255.1474177420535
 30
0.0
 11
140.2713908868656
 21
261.1474177420535
 31
0.0
  0
ARC
  5
553
330
18
100
AcDbEntity
  8
1
  6
Continuous
 48
0.25
100
AcDbCircle
 10
143.7463908868655
 20
258.1474177420535
 30
0.0
 40
3.625000000000051
100
AcDbArc
 50
316.3971810272984
 51
33.48537662539885
  0
LINE
  5
554
330
18
100
AcDbEntity
  8
4
  6
CENTER
 48
0.2
100
AcDbLine
 10
148.8713908868655
 20
258.1474177420535
 30
0.0
 11
138.2713908868656
 21
258.1474177420535
 31
0.0
  0
LINE
  5
555
330
18
100
AcDbEntity
  8
1
  6
Continuous
 48
0.25
100
AcDbLine
 10
142.1713908868656
 20
253.1474177420535
 30
0.0
 11
141.1713908868328
 21
253.1474177420535
 31
0.0
  0
LINE
  5
556
330
18
100
AcDbEntity
  8
1
  6
Continuous
 48
0.25
100
AcDbLine
 10
142.3713908868656
 20
254.1474177420535
 30
0.0
 11
142.1713908868656
 21
254.1474177420535
 31
0.0
  0
ARC
  5
559
330
18
100
AcDbEntity
  8
1
  6
Continuous
 48
0.25
100
AcDbCircle
 10
142.7713908868656
 20
253.4474177420536
 30
0.0
 40
0.4
100
AcDbArc
 50
180.0
 51
0.000000000000007
  0
ARC
  5
55A
330
18
100
AcDbEntity
  8
1
  6
Continuous
 48
0.25
100
AcDbCircle
 10
143.5713908868657
 20
253.4474177420536
 30
0.0
 40
0.4
100
AcDbArc
 50
180.0
 51
0.000000000000007
  0
ARC
  5
55B
330
18
100
AcDbEntity
  8
1
  6
Continuous
 48
0.25
100
AcDbCircle
 10
144.3713908868657
 20
253.4474177420536
 30
0.0
 40
0.4
100
AcDbArc
 50
180.0
 51
0.000000000000007
  0
LINE
  5
55C
330
18
100
AcDbEntity
  8
1
  6
Continuous
 48
0.25
100
AcDbLine
 10
140.2713908868656
 20
255.1474177420535
 30
0.0
 11
139.7713908868656
 21
255.6474177420535
 31
0.0
  0
LINE
  5
55D
330
18
100
AcDbEntity
  8
1
  6
Continuous
 48
0.25
100
AcDbLine
 10
141.1713908868656
 20
255.1474177420535
 30
0.0
 11
140.2713908868656
 21
255.1474177420535
 31
0.0
  0
ARC
  5
55E
330
18
100
AcDbEntity
  8
5
  6
PHANTOM
 48
0.15
100
AcDbCircle
 10
136.7349830529167
 20
253.0709253718624
 30
0.0
 40
0.4
100
AcDbArc
 50
183.258520838307
 51
3.258520838307048
  0
ARC
  5
55F
330
18
100
AcDbEntity
  8
5
  6
PHANTOM
 48
0.15
100
AcDbCircle
 10
137.5336896355995
 20
253.1163983834095
 30
0.0
 40
0.4
100
AcDbArc
 50
183.258520838307
 51
3.258520838307048
  0
ARC
  5
560
330
18
100
AcDbEntity
  8
5
  6
PHANTOM
 48
0.15
100
AcDbCircle
 10
138.3323962182824
 20
253.1618713949567
 30
0.0
 40
0.4
100
AcDbArc
 50
183.258520838307
 51
3.258520838307048
  0
LINE
  5
561
330
18
100
AcDbEntity
  8
4
  6
CENTER
 48
0.2
100
AcDbLine
 10
150.4713908868696
 20
285.1474477418036
 30
0.0
 11
138.0713908868696
 21
285.1474477418311
 31
0.0
  0
LINE
  5
562
330
18
100
AcDbEntity
  8
1
  6
Continuous
 48
0.25
100
AcDbLine
 10
146.8713908868696
 20
280.1474477420534
 30
0.0
 11
148.4713908868696
 21
280.1474477420534
 31
0.0
  0
LINE
  5
563
330
18
100
AcDbEntity
  8
1
  6
Continuous
 48
0.25
100
AcDbLine
 10
148.9713908868696
 20
287.1474477420536
 30
0.0
 11
148.9713908868696
 21
283.1474477420536
 31
0.0
  0
ARC
  5
564
330
18
100
AcDbEntity
  8
1
  6
Continuous
 48
0.25
100
AcDbCircle
 10
148.4713908868696
 20
283.1474477420536
 30
0.0
 40
0.5
100
AcDbArc
 50
270.0
 51
0.000000000000007
  0
ARC
  5
565
330
18
100
AcDbEntity
  8
1
  6
Continuous
 48
0.25
100
AcDbCircle
 10
148.4713908868696
 20
287.1474477420536
 30
0.0
 40
0.5
100
AcDbArc
 50
0.0000000000008212
 51
90.0
  0
LINE
  5
566
330
18
100
AcDbEntity
  8
5
  6
PHANTOM
 48
0.15
100
AcDbLine
 10
138.2430865561401
 20
289.9162485119519
 30
0.0
 11
139.4367548233741
 21
268.95017060901
 31
0.0
  0
LINE
  5
567
330
18
100
AcDbEntity
  8
1
  6
Continuous
 48
0.25
100
AcDbLine
 10
146.3713908868656
 20
290.1474478983634
 30
0.0
 11
146.3713908868656
 21
269.1474177420892
 31
0.0
  0
LINE
  5
568
330
18
100
AcDbEntity
  8
1
  6
Continuous
 48
0.25
100
AcDbLine
 10
144.7213788869213
 20
290.1474177420535
 30
0.0
 11
144.7213788869213
 21
272.1474177420776
 31
0.0
  0
LINE
  5
569
330
18
100
AcDbEntity
  8
1
  6
Continuous
 48
0.25
100
AcDbLine
 10
144.7713908868656
 20
290.1474478983635
 30
0.0
 11
144.7713908868656
 21
269.1474177420892
 31
0.0
  0
LINE
  5
56A
330
18
100
AcDbEntity
  8
1
  6
Continuous
 48
0.25
100
AcDbLine
 10
143.72137888692
 20
290.1474177420534
 30
0.0
 11
143.72137888692
 21
272.1474177420775
 31
0.0
  0
LINE
  5
56B
330
18
100
AcDbEntity
  8
1
  6
Continuous
 48
0.25
100
AcDbLine
 10
139.5713908868655
 20
276.1474177421804
 30
0.0
 11
139.5713908868655
 21
268.1474177421801
 31
0.0
  0
LINE
  5
56C
330
18
100
AcDbEntity
  8
1
  6
Continuous
 48
0.25
100
AcDbLine
 10
141.1713908868328
 20
269.1474177420892
 30
0.0
 11
147.5713908868328
 21
269.1474177420892
 31
0.0
  0
LINE
  5
56D
330
18
100
AcDbEntity
  8
1
  6
Continuous
 48
0.25
100
AcDbLine
 10
141.1713908868328
 20
260.1474177421805
 30
0.0
 11
147.5713908868328
 21
260.1474177421805
 31
0.0
  0
ARC
  5
56E
330
18
100
AcDbEntity
  8
1
  6
Continuous
 48
0.25
100
AcDbCircle
 10
142.1713908868329
 20
271.1474177420775
 30
0.0
 40
1.0
100
AcDbArc
 50
90.0
 51
180.0
  0
LINE
  5
56F
330
18
100
AcDbEntity
  8
1
  6
Continuous
 48
0.25
100
AcDbLine
 10
147.5713908868328
 20
260.1474177421806
 30
0.0
 11
147.5713908868328
 21
269.1474177420893
 31
0.0
  0
LINE
  5
570
330
18
100
AcDbEntity
  8
1
  6
Continuous
 48
0.25
100
AcDbLine
 10
142.1713908868656
 20
271.1474177420775
 30
0.0
 11
142.1713908868656
 21
269.1474177420892
 31
0.0
  0
LINE
  5
571
330
18
100
AcDbEntity
  8
1
  6
Continuous
 48
0.25
100
AcDbLine
 10
142.1713908868329
 20
272.1474177420775
 30
0.0
 11
143.72137888692
 21
272.1474177420775
 31
0.0
  0
LINE
  5
572
330
18
100
AcDbEntity
  8
1
  6
Continuous
 48
0.25
100
AcDbLine
 10
142.1713908868656
 20
271.1474177420775
 30
0.0
 11
143.7213788869213
 21
271.1474177420775
 31
0.0
  0
ARC
  5
573
330
18
100
AcDbEntity
  8
1
  6
Continuous
 48
0.25
100
AcDbCircle
 10
143.7213788869213
 20
272.1474177420775
 30
0.0
 40
1.0
100
AcDbArc
 50
270.0000000000029
 51
0.000000000000007
  0
LINE
  5
574
330
18
100
AcDbEntity
  8
1
  6
Continuous
 48
0.25
100
AcDbLine
 10
143.9713908868656
 20
269.1474177420892
 30
0.0
 11
143.9713908868654
 21
271.1477463849218
 31
0.0
  0
LINE
  5
577
330
18
100
AcDbEntity
  8
5
  6
PHANTOM
 48
0.15
100
AcDbLine
 10
141.146386077266
 20
260.0329310712387
 30
0.0
 11
140.6348146973655
 21
269.0183801263291
 31
0.0
  0
LINE
  5
578
330
18
100
AcDbEntity
  8
5
  6
PHANTOM
 48
0.15
100
AcDbLine
 10
140.3460288232242
 20
259.987364081503
 30
0.0
 11
141.1463860772661
 21
260.0329310712386
 31
0.0
  0
LINE
  5
579
330
18
100
AcDbEntity
  8
1
  6
Continuous
 48
0.25
100
AcDbLine
 10
139.7713908868656
 20
260.6474177420536
 30
0.0
 11
140.2713908868656
 21
261.1474177420536
 31
0.0
  0
LINE
  5
57A
330
18
100
AcDbEntity
  8
1
  6
Continuous
 48
0.25
100
AcDbLine
 10
140.2713908868656
 20
261.1474177420535
 30
0.0
 11
141.1713908868656
 21
261.1474177420535
 31
0.0
  0
LINE
  5
57B
330
18
100
AcDbEntity
  8
5
  6
PHANTOM
 48
0.15
100
AcDbLine
 10
139.436754823374
 20
268.95017060901
 30
0.0
 11
140.6348146973656
 21
269.0183801263289
 31
0.0
  0
LINE
  5
57C
330
18
100
AcDbEntity
  8
1
  6
Continuous
 48
0.25
100
AcDbLine
 10
139.5713908868655
 20
268.1474177421801
 30
0.0
 11
141.1713908868655
 21
268.1474177421801
 31
0.0
  0
LINE
  5
57D
330
18
100
AcDbEntity
  8
1
  6
Continuous
 48
0.25
100
AcDbLine
 10
141.1713908868656
 20
276.1474177421803
 30
0.0
 11
143.72137888692
 21
276.1474177421803
 31
0.0
  0
LINE
  5
57E
330
18
100
AcDbEntity
  8
1
  6
Continuous
 48
0.25
100
AcDbLine
 10
142.5713908868696
 20
282.6474477420537
 30
0.0
 11
139.5713908868696
 21
283.4474477420537
 31
0.0
  0
LINE
  5
57F
330
18
100
AcDbEntity
  8
1
  6
Continuous
 48
0.25
100
AcDbLine
 10
139.5713908868698
 20
286.8474477420536
 30
0.0
 11
142.5713908868698
 21
287.6474477420536
 31
0.0
  0
LINE
  5
580
330
18
100
AcDbEntity
  8
1
  6
Continuous
 48
0.25
100
AcDbLine
 10
142.5713908868696
 20
287.6474477420535
 30
0.0
 11
142.5713908868696
 21
282.6474477420537
 31
0.0
  0
LINE
  5
581
330
18
100
AcDbEntity
  8
1
  6
Continuous
 48
0.25
100
AcDbLine
 10
143.5713908868696
 20
287.6474477420535
 30
0.0
 11
143.5713908868696
 21
282.6474477420537
 31
0.0
  0
LINE
  5
582
330
18
100
AcDbEntity
  8
1
  6
Continuous
 48
0.25
100
AcDbLine
 10
146.8713908868696
 20
281.1474477420535
 30
0.0
 11
146.3713908868696
 21
281.1474477420535
 31
0.0
  0
LINE
  5
583
330
18
100
AcDbEntity
  8
1
  6
Continuous
 48
0.25
100
AcDbLine
 10
146.72137888692
 20
279.1474177420893
 30
0.0
 11
146.72137888692
 21
281.1474477420536
 31
0.0
  0
ARC
  5
584
330
18
100
AcDbEntity
  8
1
  6
Continuous
 48
0.25
100
AcDbCircle
 10
145.72137888692
 20
279.1474177420892
 30
0.0
 40
1.0
100
AcDbArc
 50
310.54250662403
 51
0.000000000000007
  0
LINE
  5
585
330
18
100
AcDbEntity
  8
1
  6
Continuous
 48
0.25
100
AcDbLine
 10
144.7213788869204
 20
283.1474177420892
 30
0.0
 11
144.7713908868695
 21
283.1474477420538
 31
0.0
  0
LINE
  5
586
330
18
100
AcDbEntity
  8
1
  6
Continuous
 48
0.25
100
AcDbLine
 10
144.7213788869212
 20
276.1474177421803
 30
0.0
 11
144.7713908868656
 21
276.1474177421803
 31
0.0
  0
LINE
  5
587
330
18
100
AcDbEntity
  8
1
  6
Continuous
 48
0.25
100
AcDbLine
 10
143.5713908868696
 20
282.6474477420537
 30
0.0
 11
142.5713908868696
 21
282.6474477420537
 31
0.0
  0
LINE
  5
588
330
18
100
AcDbEntity
  8
1
  6
Continuous
 48
0.25
100
AcDbLine
 10
143.72137888692
 20
283.1474477420536
 30
0.0
 11
143.5713908868696
 21
283.1474477420536
 31
0.0
  0
LINE
  5
589
330
18
100
AcDbEntity
  8
1
  6
Continuous
 48
0.25
100
AcDbLine
 10
144.7213788869206
 20
278.1474177420893
 30
0.0
 11
144.7713908868656
 21
278.1474177420319
 31
0.0
  0
LINE
  5
58A
330
18
100
AcDbEntity
  8
1
  6
Continuous
 48
0.25
100
AcDbLine
 10
144.7713908868656
 20
290.1474478983635
 30
0.0
 11
146.3713908868655
 21
290.1474478983635
 31
0.0
  0
LINE
  5
58B
330
18
100
AcDbEntity
  8
1
  6
Continuous
 48
0.25
100
AcDbLine
 10
146.3713908868696
 20
289.1474477420537
 30
0.0
 11
146.8713908868696
 21
289.1474477420537
 31
0.0
  0
LINE
  5
58C
330
18
100
AcDbEntity
  8
1
  6
Continuous
 48
0.25
100
AcDbLine
 10
142.5713908868696
 20
287.6474477420535
 30
0.0
 11
143.5713908868696
 21
287.6474477420535
 31
0.0
  0
LINE
  5
58D
330
18
100
AcDbEntity
  8
1
  6
Continuous
 48
0.25
100
AcDbLine
 10
143.5713908868696
 20
287.1474477420536
 30
0.0
 11
143.72137888692
 21
287.1474477420536
 31
0.0
  0
LINE
  5
58E
330
18
100
AcDbEntity
  8
1
  6
Continuous
 48
0.25
100
AcDbLine
 10
144.7213788869213
 20
287.1474477420536
 30
0.0
 11
144.7713908868696
 21
287.1474477420536
 31
0.0
  0
LINE
  5
58F
330
18
100
AcDbEntity
  8
1
  6
Continuous
 48
0.25
100
AcDbLine
 10
143.72137888692
 20
290.1474177420534
 30
0.0
 11
144.7213788869212
 21
290.1474177420535
 31
0.0
  0
LINE
  5
590
330
18
100
AcDbEntity
  8
1
  6
Continuous
 48
0.25
100
AcDbLine
 10
141.1713908868655
 20
276.1474177421803
 30
0.0
 11
139.5713908868655
 21
276.1474177421803
 31
0.0
  0
LINE
  5
591
330
18
100
AcDbEntity
  8
1
  6
Continuous
 48
0.25
100
AcDbLine
 10
139.5713908868696
 20
286.8474477420536
 30
0.0
 11
139.5713908868696
 21
283.4474477420535
 31
0.0
  0
LINE
  5
592
330
18
100
AcDbEntity
  8
5
  6
PHANTOM
 48
0.15
100
AcDbLine
 10
133.3305762639316
 20
260.0887608227056
 30
0.0
 11
133.6147825861015
 21
255.0968446809381
 31
0.0
  0
LINE
  5
593
330
18
100
AcDbEntity
  8
5
  6
PHANTOM
 48
0.15
100
AcDbLine
 10
134.1423948324953
 20
254.6260736989784
 30
0.0
 11
133.6147825861016
 21
255.0968446809381
 31
0.0
  0
LINE
  5
594
330
18
100
AcDbEntity
  8
5
  6
PHANTOM
 48
0.15
100
AcDbLine
 10
135.0409397380134
 20
254.677230836969
 30
0.0
 11
134.1423948324953
 21
254.6260736989783
 31
0.0
  0
LINE
  5
595
330
18
100
AcDbEntity
  8
5
  6
PHANTOM
 48
0.15
100
AcDbLine
 10
135.0409397379836
 20
254.6772308369672
 30
0.0
 11
135.1546222668487
 21
252.6804643802602
 31
0.0
  0
LINE
  5
596
330
18
100
AcDbEntity
  8
5
  6
PHANTOM
 48
0.15
100
AcDbLine
 10
136.1530054952348
 20
252.7373056446958
 30
0.0
 11
135.1546222668486
 21
252.6804643802601
 31
0.0
  0
LINE
  5
597
330
18
100
AcDbEntity
  8
5
  6
PHANTOM
 48
0.15
100
AcDbLine
 10
136.0961642308008
 20
253.7356888730494
 30
0.0
 11
136.1530054952347
 21
252.737305644696
 31
0.0
  0
LINE
  5
598
330
18
100
AcDbEntity
  8
5
  6
PHANTOM
 48
0.15
100
AcDbLine
 10
136.2958408764715
 20
253.7470571259361
 30
0.0
 11
136.0961642308008
 21
253.7356888730493
 31
0.0
  0
LINE
  5
599
330
18
100
AcDbEntity
  8
5
  6
PHANTOM
 48
0.15
100
AcDbLine
 10
132.2498600195273
 20
275.5523326094246
 30
0.0
 11
132.704590134999
 21
267.5652667825966
 31
0.0
  0
LINE
  5
59A
330
18
100
AcDbEntity
  8
5
  6
PHANTOM
 48
0.15
100
AcDbLine
 10
134.3020033003534
 20
267.6562128056902
 30
0.0
 11
134.6998921513883
 21
260.6675302070887
 31
0.0
  0
LINE
  5
59B
330
18
100
AcDbEntity
  8
5
  6
PHANTOM
 48
0.15
100
AcDbLine
 10
133.3305762639316
 20
260.0887608227057
 30
0.0
 11
133.8013472458914
 21
260.6163730690994
 31
0.0
  0
LINE
  5
59C
330
18
100
AcDbEntity
  8
5
  6
PHANTOM
 48
0.15
100
AcDbLine
 10
133.8013472458915
 20
260.6163730690993
 30
0.0
 11
134.6998921514095
 21
260.6675302070898
 31
0.0
  0
LINE
  5
59D
330
18
100
AcDbEntity
  8
5
  6
PHANTOM
 48
0.15
100
AcDbLine
 10
132.704590134999
 20
267.5652667825964
 30
0.0
 11
134.3020033003646
 21
267.6562128056908
 31
0.0
  0
LINE
  5
59E
330
18
100
AcDbEntity
  8
5
  6
PHANTOM
 48
0.15
100
AcDbLine
 10
133.8472731848929
 20
275.6432786325189
 30
0.0
 11
132.2498600195273
 21
275.5523326094245
 31
0.0
  0
LINE
  5
59F
330
18
100
AcDbEntity
  8
1
  6
Continuous
 48
0.25
100
AcDbLine
 10
231.8713898064594
 20
297.7474477420536
 30
0.0
 11
259.8713898064594
 21
297.7474477420537
 31
0.0
  0
LINE
  5
5A0
330
18
100
AcDbEntity
  8
1
  6
Continuous
 48
0.25
100
AcDbLine
 10
250.8713898064592
 20
296.1474477420537
 30
0.0
 11
259.8713898064594
 21
296.1474477420537
 31
0.0
  0
LINE
  5
5A1
330
18
100
AcDbEntity
  8
4
  6
CENTER
 48
0.05
100
AcDbLine
 10
255.8713898064595
 20
294.6474477420537
 30
0.0
 11
255.8713898064594
 21
299.2474477420537
 31
0.0
  0
LINE
  5
5A2
330
18
100
AcDbEntity
  8
1
  6
Continuous
 48
0.25
100
AcDbLine
 10
259.8713898064594
 20
297.7474477420537
 30
0.0
 11
259.8713898064594
 21
296.1474477420537
 31
0.0
  0
LINE
  5
5A3
330
18
100
AcDbEntity
  8
1
  6
Continuous
 48
0.25
100
AcDbLine
 10
257.422859931322
 20
296.1474477420537
 30
0.0
 11
257.422859931322
 21
297.7474477420537
 31
0.0
  0
LINE
  5
5A4
330
18
100
AcDbEntity
  8
1
  6
Continuous
 48
0.25
100
AcDbLine
 10
231.8713898064594
 20
296.1474477420537
 30
0.0
 11
240.8713898064594
 21
296.1474477420537
 31
0.0
  0
LINE
  5
5A5
330
18
100
AcDbEntity
  8
4
  6
CENTER
 48
0.05
100
AcDbLine
 10
235.8713898064594
 20
294.6474477420537
 30
0.0
 11
235.8713898064594
 21
299.2474477420537
 31
0.0
  0
LINE
  5
5A6
330
18
100
AcDbEntity
  8
1
  6
Continuous
 48
0.25
100
AcDbLine
 10
234.3199196259893
 20
296.1474477420537
 30
0.0
 11
234.3199196259893
 21
297.7474477420536
 31
0.0
  0
LINE
  5
5A7
330
18
100
AcDbEntity
  8
1
  6
Continuous
 48
0.25
100
AcDbLine
 10
231.8713898064594
 20
296.1474477420537
 30
0.0
 11
231.8713898064594
 21
297.7474477420536
 31
0.0
  0
CIRCLE
  5
5A8
330
18
100
AcDbEntity
  8
1
  6
Continuous
 48
0.25
100
AcDbCircle
 10
142.5713878703791
 20
401.7474090795413
 30
0.0
 40
1.85
  0
LINE
  5
5A9
330
18
100
AcDbEntity
  8
4
  6
CENTER
 48
0.1
100
AcDbLine
 10
142.5713878703791
 20
405.0974090795413
 30
0.0
 11
142.5713878703791
 21
398.3974090795413
 31
0.0
  0
LINE
  5
5AB
330
18
100
AcDbEntity
  8
1
  6
Continuous
 48
0.25
100
AcDbLine
 10
147.4213908868728
 20
396.7474090795414
 30
0.0
 11
147.4213908868728
 21
405.9974090795408
 31
0.0
  0
LINE
  5
5AC
330
18
100
AcDbEntity
  8
1
  6
Continuous
 48
0.25
100
AcDbLine
 10
150.2713908868691
 20
397.7474090795345
 30
0.0
 11
150.271390886869
 21
405.7474068674697
 31
0.0
  0
LINE
  5
5AD
330
18
100
AcDbEntity
  8
1
  6
Continuous
 48
0.25
100
AcDbLine
 10
151.871390886869
 20
397.7474090795577
 30
0.0
 11
151.871390886869
 21
405.7474068674697
 31
0.0
  0
LINE
  5
5AF
330
18
100
AcDbEntity
  8
1
  6
Continuous
 48
0.25
100
AcDbLine
 10
138.2713908703792
 20
403.2988792044037
 30
0.0
 11
138.2713909033747
 21
380.1959388990713
 31
0.0
  0
LINE
  5
5B0
330
18
100
AcDbEntity
  8
1
  6
Continuous
 48
0.25
100
AcDbLine
 10
146.871390886877
 20
396.7474090795412
 30
0.0
 11
146.8713908451973
 21
403.2988793259871
 31
0.0
  0
LINE
  5
5B2
330
18
100
AcDbEntity
  8
4
  6
CENTER
 48
0.25
100
AcDbLine
 10
133.2713908868769
 20
391.7474090797241
 30
0.0
 11
153.9713908868696
 21
391.7474090797698
 31
0.0
  0
ARC
  5
5B3
330
18
100
AcDbEntity
  8
1
  6
Continuous
 48
0.25
100
AcDbCircle
 10
146.8713908659201
 20
296.1474477420535
 30
0.0
 40
1.6
100
AcDbArc
 50
0.000000000000007
 51
90.0
  0
LINE
  5
5B4
330
18
100
AcDbEntity
  8
1
  6
Continuous
 48
0.25
100
AcDbLine
 10
138.2713908868697
 20
296.1474477420535
 30
0.0
 11
146.8713908868696
 21
296.1474477420535
 31
0.0
  0
LINE
  5
5B5
330
18
100
AcDbEntity
  8
1
  6
Continuous
 48
0.25
100
AcDbLine
 10
138.2713908868697
 20
297.7474477420534
 30
0.0
 11
146.8713908659201
 21
297.7474477420535
 31
0.0
  0
LINE
  5
5B6
330
18
100
AcDbEntity
  8
4
  6
CENTER
 48
0.05
100
AcDbLine
 10
142.5713878703793
 20
294.6474477420535
 30
0.0
 11
142.5713878703793
 21
299.2474477420535
 31
0.0
  0
LINE
  5
5B7
330
18
100
AcDbEntity
  8
1
  6
Continuous
 48
0.25
100
AcDbLine
 10
138.2713908868697
 20
297.7474477420534
 30
0.0
 11
138.2713908868697
 21
296.1474477420535
 31
0.0
  0
LINE
  5
5B8
330
18
100
AcDbEntity
  8
1
  6
Continuous
 48
0.25
100
AcDbLine
 10
146.871390886877
 20
386.7474090795393
 30
0.0
 11
148.4713908868769
 21
386.7474090795393
 31
0.0
  0
LINE
  5
5B9
330
18
100
AcDbEntity
  8
1
  6
Continuous
 48
0.25
100
AcDbLine
 10
148.4713908868769
 20
396.7474090795414
 30
0.0
 11
146.871390886877
 21
396.7474090795414
 31
0.0
  0
ARC
  5
5BA
330
18
100
AcDbEntity
  8
1
  6
Continuous
 48
0.25
100
AcDbCircle
 10
148.4713908868726
 20
396.1474090795349
 30
0.0
 40
1.6
100
AcDbArc
 50
89.99999999999351
 51
131.0144996657236
  0
ARC
  5
5BB
330
18
100
AcDbEntity
  8
1
  6
Continuous
 48
0.25
100
AcDbCircle
 10
148.4713908868726
 20
387.347409079535
 30
0.0
 40
1.6
100
AcDbArc
 50
235.7711336707665
 51
269.9999999999934
  0
ARC
  5
5BC
330
18
100
AcDbEntity
  8
1
  6
Continuous
 48
0.25
100
AcDbCircle
 10
147.6213908868688
 20
399.0474090795408
 30
0.0
 40
0.3
100
AcDbArc
 50
270.0
 51
0.000000000000007
  0
ARC
  5
5BD
330
18
100
AcDbEntity
  8
1
  6
Continuous
 48
0.25
100
AcDbCircle
 10
147.6213908868688
 20
402.4474090795409
 30
0.0
 40
0.3
100
AcDbArc
 50
0.000000000000007
 51
89.99999999999962
  0
ARC
  5
5BE
330
18
100
AcDbEntity
  8
1
  6
Continuous
 48
0.25
100
AcDbCircle
 10
150.271390886869
 20
385.7474090795112
 30
0.0
 40
1.6
100
AcDbArc
 50
0.000000000000007
 51
89.99999999996823
  0
LINE
  5
5BF
330
18
100
AcDbEntity
  8
1
  6
Continuous
 48
0.25
100
AcDbLine
 10
150.271390886869
 20
377.7474114879614
 30
0.0
 11
150.271390886869
 21
385.7474090795347
 31
0.0
  0
LINE
  5
5C0
330
18
100
AcDbEntity
  8
1
  6
Continuous
 48
0.25
100
AcDbLine
 10
151.8713908868689
 20
377.7474114879614
 30
0.0
 11
151.8713908868689
 21
385.7474090795112
 31
0.0
  0
LINE
  5
5C1
330
18
100
AcDbEntity
  8
1
  6
Continuous
 48
0.25
100
AcDbLine
 10
151.8713908868689
 20
377.7474114879614
 30
0.0
 11
150.271390886869
 21
377.7474114879614
 31
0.0
  0
LINE
  5
5C2
330
18
100
AcDbEntity
  8
1
  6
Continuous
 48
0.25
100
AcDbLine
 10
151.8713908868689
 20
380.430786697606
 30
0.0
 11
150.271390886869
 21
380.430786697606
 31
0.0
  0
LINE
  5
5C3
330
18
100
AcDbEntity
  8
1
  6
Continuous
 48
0.25
100
AcDbLine
 10
148.4713908868724
 20
385.7474090795349
 30
0.0
 11
150.271390886869
 21
385.7474090795347
 31
0.0
  0
LINE
  5
5C4
330
18
100
AcDbEntity
  8
1
  6
Continuous
 48
0.25
100
AcDbLine
 10
148.471390886877
 20
386.7474090795413
 30
0.0
 11
148.471390886877
 21
396.7474090795414
 31
0.0
  0
LINE
  5
5C5
330
18
100
AcDbEntity
  8
1
  6
Continuous
 48
0.25
100
AcDbLine
 10
148.9713908868696
 20
389.747409079541
 30
0.0
 11
148.9713908868696
 21
393.747409079541
 31
0.0
  0
LINE
  5
5C6
330
18
100
AcDbEntity
  8
1
  6
Continuous
 48
0.25
100
AcDbLine
 10
150.2713908868699
 20
387.347409079511
 30
0.0
 11
148.4713908868728
 21
387.3474090795121
 31
0.0
  0
ARC
  5
5C7
330
18
100
AcDbEntity
  8
1
  6
Continuous
 48
0.25
100
AcDbCircle
 10
148.4713908868728
 20
389.7474090795411
 30
0.0
 40
0.5
100
AcDbArc
 50
270.0
 51
0.000000000000007
  0
ARC
  5
5C8
330
18
100
AcDbEntity
  8
1
  6
Continuous
 48
0.25
100
AcDbCircle
 10
148.4713908868728
 20
393.7474090795411
 30
0.0
 40
0.5
100
AcDbArc
 50
0.000000000000007
 51
90.0
  0
ARC
  5
5C9
330
18
100
AcDbEntity
  8
1
  6
Continuous
 48
0.25
100
AcDbCircle
 10
150.271390886869
 20
397.7474090795577
 30
0.0
 40
1.6
100
AcDbArc
 50
270.0000000000187
 51
0.000000000000007
  0
LINE
  5
5CA
330
18
100
AcDbEntity
  8
1
  6
Continuous
 48
0.25
100
AcDbLine
 10
148.4713908868727
 20
396.1474090795572
 30
0.0
 11
150.2713908868695
 21
396.1474090795578
 31
0.0
  0
LINE
  5
5CB
330
18
100
AcDbEntity
  8
1
  6
Continuous
 48
0.25
100
AcDbLine
 10
150.271390886869
 20
397.7474090795347
 30
0.0
 11
148.4713908868728
 21
397.7474090795349
 31
0.0
  0
LINE
  5
5CC
330
18
100
AcDbEntity
  8
1
  6
Continuous
 48
0.25
100
AcDbLine
 10
147.9213908868689
 20
399.0474090795408
 30
0.0
 11
147.9213908868689
 21
402.4474090795409
 31
0.0
  0
LINE
  5
5CD
330
18
100
AcDbEntity
  8
1
  6
Continuous
 48
0.25
100
AcDbLine
 10
146.8713909033748
 20
380.1959389311424
 30
0.0
 11
146.8713908868769
 21
386.7474090795413
 31
0.0
  0
LINE
  5
5CE
330
18
100
AcDbEntity
  8
1
  6
Continuous
 48
0.25
100
AcDbLine
 10
147.5713908868398
 20
383.7474090795408
 30
0.0
 11
147.5713908868398
 21
386.7474090795412
 31
0.0
  0
CIRCLE
  5
5CF
330
18
100
AcDbEntity
  8
1
  6
Continuous
 48
0.25
100
AcDbCircle
 10
142.5713878703791
 20
381.7474090795414
 30
0.0
 40
1.85
  0
LINE
  5
5D0
330
18
100
AcDbEntity
  8
4
  6
CENTER
 48
0.1
100
AcDbLine
 10
139.2213878703792
 20
381.7474090795414
 30
0.0
 11
145.9213878703792
 21
381.7474090795414
 31
0.0
  0
ARC
  5
5D2
330
18
100
AcDbEntity
  8
1
  6
Continuous
 48
0.25
100
AcDbCircle
 10
142.5713908938599
 20
382.7474090795414
 30
0.0
 40
5.0
100
AcDbArc
 50
210.6834173226416
 51
329.3165831046904
  0
LINE
  5
5D4
330
18
100
AcDbEntity
  8
4
  6
CENTER
 48
0.1
100
AcDbLine
 10
142.5713878703791
 20
385.0974090795414
 30
0.0
 11
142.5713878703791
 21
378.3974090795414
 31
0.0
  0
ARC
  5
5D5
330
18
100
AcDbEntity
  8
1
  6
Continuous
 48
0.25
100
AcDbCircle
 10
146.5713908868398
 20
383.7474090795408
 30
0.0
 40
1.0
100
AcDbArc
 50
287.4576037239767
 51
0.000000000000007
  0
LINE
  5
5D8
330
18
100
AcDbEntity
  8
4
  6
CENTER
 48
0.1
100
AcDbLine
 10
139.2213878703792
 20
401.7474090795413
 30
0.0
 11
145.9213878703792
 21
401.7474090795413
 31
0.0
  0
LINE
  5
5DA
330
18
100
AcDbEntity
  8
1
  6
Continuous
 48
0.25
100
AcDbLine
 10
146.8713908516224
 20
400.747409079541
 30
0.0
 11
147.4213908870767
 21
400.747409079541
 31
0.0
  0
LINE
  5
5DB
330
18
100
AcDbEntity
  8
1
  6
Continuous
 48
0.25
100
AcDbLine
 10
147.4213908868689
 20
402.747409079541
 30
0.0
 11
147.6213908868688
 21
402.747409079541
 31
0.0
  0
LINE
  5
5DC
330
18
100
AcDbEntity
  8
1
  6
Continuous
 48
0.25
100
AcDbLine
 10
147.6213908868688
 20
398.747409079541
 30
0.0
 11
147.4213908868689
 21
398.747409079541
 31
0.0
  0
LINE
  5
5DD
330
18
100
AcDbEntity
  8
1
  6
Continuous
 48
0.25
100
AcDbLine
 10
151.871390886869
 20
403.0640316578253
 30
0.0
 11
150.271390886869
 21
403.0640316578253
 31
0.0
  0
LINE
  5
5DE
330
18
100
AcDbEntity
  8
1
  6
Continuous
 48
0.25
100
AcDbLine
 10
150.271390886869
 20
405.7474068674697
 30
0.0
 11
151.871390886869
 21
405.7474068674697
 31
0.0
  0
ARC
  5
5DF
330
18
100
AcDbEntity
  8
1
  6
Continuous
 48
0.25
100
AcDbCircle
 10
142.5713908938599
 20
400.7474090795414
 30
0.0
 40
5.0
100
AcDbArc
 50
30.68341820174198
 51
149.3165834183059
  0
LINE
  5
5E0
330
18
100
AcDbEntity
  8
1
  6
Continuous
 48
0.25
100
AcDbLine
 10
143.7213908868726
 20
405.9974090795408
 30
0.0
 11
145.3213908868726
 21
405.9974090795408
 31
0.0
  0
LINE
  5
5E1
330
18
100
AcDbEntity
  8
1
  6
Continuous
 48
0.25
100
AcDbLine
 10
145.3213908868726
 20
404.9232323562653
 30
0.0
 11
145.3213908868726
 21
405.9974090795408
 31
0.0
  0
LINE
  5
5E2
330
18
100
AcDbEntity
  8
1
  6
Continuous
 48
0.25
100
AcDbLine
 10
145.8213908868726
 20
405.9974090795408
 30
0.0
 11
145.8213908868726
 21
404.5470801239106
 31
0.0
  0
LINE
  5
5E3
330
18
100
AcDbEntity
  8
1
  6
Continuous
 48
0.25
100
AcDbLine
 10
145.8213908868726
 20
405.9974090795408
 30
0.0
 11
147.4213908868728
 21
405.9974090795408
 31
0.0
  0
LINE
  5
5E4
330
18
100
AcDbEntity
  8
1
  6
Continuous
 48
0.25
100
AcDbLine
 10
145.5713908938605
 20
404.7474090795408
 30
0.0
 11
145.8213908868716
 21
404.7474090795408
 31
0.0
  0
LINE
  5
5E5
330
18
100
AcDbEntity
  8
1
  6
Continuous
 48
0.25
100
AcDbLine
 10
143.7213908868726
 20
405.6133622252334
 30
0.0
 11
143.7213908868726
 21
405.9974090795408
 31
0.0
  0
ARC
  5
5E7
330
18
100
AcDbEntity
  8
5
  6
PHANTOM
 48
0.1
100
AcDbCircle
 10
44.56432178897503
 20
284.3182830663475
 30
0.0
 40
6.0
100
AcDbArc
 50
321.5253515423555
 51
95.94066013955028
  0
LINE
  5
5E8
330
18
100
AcDbEntity
  8
1
  6
Continuous
 48
0.25
100
AcDbLine
 10
49.27139145996093
 20
296.1474477420535
 30
0.0
 11
49.27139145996093
 21
289.8042719915458
 31
0.0
  0
LINE
  5
5E9
330
18
100
AcDbEntity
  8
1
  6
Continuous
 48
0.25
100
AcDbLine
 10
39.27139145996093
 20
296.1474477420535
 30
0.0
 11
39.27139145996093
 21
285.416623175887
 31
0.0
  0
ARC
  5
5EA
330
18
100
AcDbEntity
  8
1
  6
Continuous
 48
0.25
100
AcDbCircle
 10
47.27139145996104
 20
284.1474177420533
 30
0.0
 40
6.0
100
AcDbArc
 50
315.5846914028058
 51
90.0000000000004
  0
LINE
  5
5FA
330
18
100
AcDbEntity
  8
1
  6
Continuous
 48
0.25
100
AcDbLine
 10
39.27135417711056
 20
173.6473947693653
 30
0.0
 11
39.27134900825731
 21
151.1474012306265
 31
0.0
  0
ARC
  5
5FB
330
18
100
AcDbEntity
  8
1
  6
Continuous
 48
0.25
100
AcDbCircle
 10
-93.72862010832362
 20
167.7907467996636
 30
0.0
 40
144.0
100
AcDbArc
 50
353.1231144747506
 51
9.388988483835802
  0
LINE
  5
5FF
330
18
100
AcDbEntity
  8
1
  6
Continuous
 48
0.25
100
AcDbLine
 10
55.58799845018771
 20
146.1473855596497
 30
0.0
 11
48.27137606825246
 21
146.1473855596497
 31
0.0
  0
LINE
  5
600
330
18
100
AcDbEntity
  8
1
  6
Continuous
 48
0.25
100
AcDbLine
 10
55.58799845018747
 20
156.1473855596497
 30
0.0
 11
49.79988625551523
 21
156.1473855596496
 31
0.0
  0
LINE
  5
601
330
18
100
AcDbEntity
  8
4
  6
CENTER
 48
0.1
100
AcDbLine
 10
59.02137606825245
 20
151.1473855596496
 30
0.0
 11
49.52137606825246
 21
151.1473855596496
 31
0.0
  0
CIRCLE
  5
602
330
18
100
AcDbEntity
  8
1
  6
Continuous
 48
0.25
100
AcDbCircle
 10
54.27137606825247
 20
151.1473855596496
 30
0.0
 40
1.85
  0
CIRCLE
  5
603
330
18
100
AcDbEntity
  8
1
  6
Continuous
 48
0.25
100
AcDbCircle
 10
54.27137606825247
 20
151.1473855596496
 30
0.0
 40
3.25
  0
ARC
  5
604
330
18
100
AcDbEntity
  8
1
  6
Continuous
 48
0.25
100
AcDbCircle
 10
52.27137365983215
 20
151.1473855596496
 30
0.0
 40
6.0
100
AcDbArc
 50
303.5573097619228
 51
56.44269023808035
  0
LINE
  5
605
330
18
100
AcDbEntity
  8
1
  6
Continuous
 48
0.25
100
AcDbLine
 10
50.27137606825252
 20
146.1473855596497
 30
0.0
 11
50.27137606825245
 21
156.1473855596497
 31
0.0
  0
LINE
  5
606
330
18
100
AcDbEntity
  8
4
  6
CENTER
 48
0.1
100
AcDbLine
 10
54.27137606825247
 20
146.3973855596496
 30
0.0
 11
54.27137606825247
 21
155.8973855596496
 31
0.0
  0
LINE
  5
608
330
18
100
AcDbEntity
  8
1
  6
Continuous
 48
0.25
100
AcDbLine
 10
40.27137606825252
 20
146.1473855596496
 30
0.0
 11
32.95475348996845
 21
146.1473855596495
 31
0.0
  0
LINE
  5
609
330
18
100
AcDbEntity
  8
1
  6
Continuous
 48
0.25
100
AcDbLine
 10
39.27135015688807
 20
156.1473855596496
 30
0.0
 11
32.95475348996845
 21
156.1473855596495
 31
0.0
  0
LINE
  5
60B
330
18
100
AcDbEntity
  8
1
  6
Continuous
 48
0.25
100
AcDbLine
 10
41.27137606825264
 20
141.5473855596498
 30
0.0
 11
41.27137606825264
 21
145.5473855596497
 31
0.0
  0
LINE
  5
60C
330
18
100
AcDbEntity
  8
1
  6
Continuous
 48
0.25
100
AcDbLine
 10
47.27137606825252
 20
141.5473855596497
 30
0.0
 11
47.27137606825252
 21
145.5473855596497
 31
0.0
  0
LINE
  5
60D
330
18
100
AcDbEntity
  8
4
  6
CENTER
 48
0.1
100
AcDbLine
 10
44.27137606825239
 20
146.1473855596497
 30
0.0
 11
44.27137606825239
 21
156.1473855596497
 31
0.0
  0
LINE
  5
60E
330
18
100
AcDbEntity
  8
1
  6
Continuous
 48
0.25
100
AcDbLine
 10
47.27137606825252
 20
141.5473855596498
 30
0.0
 11
41.27137606825252
 21
141.5473855596498
 31
0.0
  0
LINE
  5
610
330
18
100
AcDbEntity
  8
1
  6
Continuous
 48
0.25
100
AcDbLine
 10
45.27137606825245
 20
147.5473855596496
 30
0.0
 11
43.27137606825252
 21
147.5473855596496
 31
0.0
  0
LINE
  5
611
330
18
100
AcDbEntity
  8
4
  6
CENTER
 48
0.1
100
AcDbLine
 10
49.27137606825247
 20
151.1473855596496
 30
0.0
 11
29.52137606825229
 21
151.1473855596495
 31
0.0
  0
CIRCLE
  5
612
330
18
100
AcDbEntity
  8
1
  6
Continuous
 48
0.25
100
AcDbCircle
 10
44.27137606825247
 20
151.1473855596497
 30
0.0
 40
3.5
  0
ARC
  5
614
330
18
100
AcDbEntity
  8
1
  6
Continuous
 48
0.25
100
AcDbCircle
 10
45.27137606825252
 20
145.5473855596497
 30
0.0
 40
2.0
100
AcDbArc
 50
0.0000000000008212
 51
90.0000000000004
  0
ARC
  5
615
330
18
100
AcDbEntity
  8
1
  6
Continuous
 48
0.25
100
AcDbCircle
 10
44.27136253826509
 20
151.1473989333513
 30
0.0
 40
5.000013530008358
100
AcDbArc
 50
300.4032526916194
 51
353.1231144747515
  0
ARC
  5
616
330
18
100
AcDbEntity
  8
1
  6
Continuous
 48
0.25
100
AcDbCircle
 10
48.27137606825252
 20
145.1473855596497
 30
0.0
 40
1.0
100
AcDbArc
 50
90.0000000000004
 51
180.0
  0
ARC
  5
617
330
18
100
AcDbEntity
  8
1
  6
Continuous
 48
0.25
100
AcDbCircle
 10
43.27137606825252
 20
145.5473855596497
 30
0.0
 40
2.0
100
AcDbArc
 50
90.0000000000004
 51
180.0
  0
ARC
  5
618
330
18
100
AcDbEntity
  8
1
  6
Continuous
 48
0.25
100
AcDbCircle
 10
44.27136253826509
 20
151.1473989333513
 30
0.0
 40
5.000013530008358
100
AcDbArc
 50
179.999973675237
 51
239.596988007214
  0
ARC
  5
619
330
18
100
AcDbEntity
  8
1
  6
Continuous
 48
0.25
100
AcDbCircle
 10
40.27137606825252
 20
145.1473855596496
 30
0.0
 40
1.0
100
AcDbArc
 50
0.0000000000008212
 51
90.0000000000004
  0
LINE
  5
61B
330
18
100
AcDbEntity
  8
4
  6
CENTER
 48
0.05
100
AcDbLine
 10
36.27139145996128
 20
141.6473877420531
 30
0.0
 11
36.27139145996128
 21
137.047387742053
 31
0.0
  0
CIRCLE
  5
61C
330
18
100
AcDbEntity
  8
1
  6
Continuous
 48
0.25
100
AcDbCircle
 10
34.27137606825229
 20
151.1473855596495
 30
0.0
 40
1.85
  0
CIRCLE
  5
61D
330
18
100
AcDbEntity
  8
1
  6
Continuous
 48
0.25
100
AcDbCircle
 10
34.27137606825229
 20
151.1473855596495
 30
0.0
 40
3.25
  0
ARC
  5
620
330
18
100
AcDbEntity
  8
1
  6
Continuous
 48
0.25
100
AcDbCircle
 10
36.27137828032371
 20
151.1473855596497
 30
0.0
 40
6.0
100
AcDbArc
 50
123.5573097619211
 51
236.4426902380788
  0
LINE
  5
621
330
18
100
AcDbEntity
  8
1
  6
Continuous
 48
0.25
100
AcDbLine
 10
38.27137606825252
 20
146.1473855596497
 30
0.0
 11
38.27137606825246
 21
156.1473855596496
 31
0.0
  0
LINE
  5
622
330
18
100
AcDbEntity
  8
4
  6
CENTER
 48
0.1
100
AcDbLine
 10
34.27137606825229
 20
146.3973855596495
 30
0.0
 11
34.27137606825229
 21
155.8973855596495
 31
0.0
  0
LINE
  5
628
330
18
100
AcDbEntity
  8
4
  6
CENTER
 48
0.05
100
AcDbLine
 10
16.27139145996127
 20
141.6473877420531
 30
0.0
 11
16.27139145996127
 21
137.047387742053
 31
0.0
  0
LINE
  5
62F
330
18
100
AcDbEntity
  8
1
  6
Continuous
 48
0.25
100
AcDbLine
 10
35.27139145996128
 20
228.1474390907126
 30
0.0
 11
35.27139145996128
 21
223.3974177420533
 31
0.0
  0
ARC
  5
630
330
18
100
AcDbEntity
  8
1
  6
Continuous
 48
0.25
100
AcDbCircle
 10
97.27141851995865
 20
234.430179870132
 30
0.0
 40
50.0
100
AcDbArc
 50
170.6109983537841
 51
195.9422600538634
  0
ARC
  5
632
330
18
100
AcDbEntity
  8
1
  6
Continuous
 48
0.25
100
AcDbCircle
 10
-60.72864582288421
 20
173.6474177420529
 30
0.0
 40
100.0
100
AcDbArc
 50
0.0000000000008212
 51
13.26141731543296
  0
LINE
  5
633
330
18
100
AcDbEntity
  8
1
  6
Continuous
 48
0.25
100
AcDbLine
 10
48.34228857862379
 20
191.2823815845202
 30
0.0
 11
47.94123815195657
 21
193.7078236224076
 31
0.0
  0
LINE
  5
66A
330
18
100
AcDbEntity
  8
4
  6
CENTER
 48
0.25
100
AcDbLine
 10
42.02139137423912
 20
218.1474177420533
 30
0.0
 11
28.5213915456832
 21
218.1474177420532
 31
0.0
  0
ARC
  5
66C
330
18
100
AcDbEntity
  8
1
  6
Continuous
 48
0.25
100
AcDbCircle
 10
35.27139145996116
 20
218.1474178684626
 30
0.0
 40
6.751801490405534
100
AcDbArc
 50
269.9999868376193
 51
359.9999847901865
  0
ARC
  5
66E
330
18
100
AcDbEntity
  8
1
  6
Continuous
 48
0.25
100
AcDbCircle
 10
35.27139145996116
 20
218.1474177420534
 30
0.0
 40
5.5
100
AcDbArc
 50
359.9999922221867
 51
90.0
  0
CIRCLE
  5
66F
330
18
100
AcDbEntity
  8
1
  6
Continuous
 48
0.25
100
AcDbCircle
 10
35.27139145996116
 20
218.1474177420534
 30
0.0
 40
3.5
  0
ARC
  5
671
330
18
100
AcDbEntity
  8
1
  6
Continuous
 48
0.25
100
AcDbCircle
 10
97.27141477936873
 20
201.8646412560388
 30
0.0
 40
50.0
100
AcDbArc
 50
164.0577267837553
 51
189.3889884838358
  0
LINE
  5
672
330
18
100
AcDbEntity
  8
1
  6
Continuous
 48
0.25
100
AcDbLine
 10
40.52139145994127
 20
218.1474166623999
 30
0.0
 11
47.27139118822246
 21
218.1474177420492
 31
0.0
  0
ARC
  5
673
330
18
100
AcDbEntity
  8
1
  6
Continuous
 48
0.25
100
AcDbCircle
 10
47.27139100026514
 20
216.1474148702298
 30
0.0
 40
2.000000000241862
100
AcDbArc
 50
344.0577267837554
 51
89.99999461543188
  0
ARC
  5
674
330
18
100
AcDbEntity
  8
1
  6
Continuous
 48
0.25
100
AcDbCircle
 10
47.27139145971935
 20
220.147417742291
 30
0.0
 40
2.000000000241862
100
AcDbArc
 50
269.9999922221871
 51
15.94226005386265
  0
LINE
  5
675
330
18
100
AcDbEntity
  8
1
  6
Continuous
 48
0.25
100
AcDbLine
 10
35.27139145996116
 20
212.8974177420533
 30
0.0
 11
35.27138914182482
 21
208.0565819396239
 31
0.0
  0
ARC
  5
677
330
18
100
AcDbEntity
  8
1
  6
Continuous
 48
0.25
100
AcDbCircle
 10
85.27138914182225
 20
208.0565704532797
 30
0.0
 40
50.0
100
AcDbArc
 50
180.0
 51
193.261417315433
  0
LINE
  5
678
330
18
100
AcDbEntity
  8
4
  6
CENTER
 48
0.25
100
AcDbLine
 10
35.27139145996116
 20
211.3974178277755
 30
0.0
 11
35.27139145996105
 21
224.8974176563314
 31
0.0
  0
ARC
  5
679
330
18
100
AcDbEntity
  8
5
  6
PHANTOM
 48
0.1
100
AcDbCircle
 10
50.84086869424205
 20
259.8364187353984
 30
0.0
 40
1.0
100
AcDbArc
 50
95.94066013954986
 51
157.1807388309522
  0
LINE
  5
67A
330
18
100
AcDbEntity
  8
5
  6
PHANTOM
 48
0.1
100
AcDbLine
 10
49.10068672259733
 20
269.7093339875147
 30
0.0
 11
52.0845755813655
 21
270.0198292024863
 31
0.0
  0
ARC
  5
67B
330
18
100
AcDbEntity
  8
1
  6
Continuous
 48
0.25
100
AcDbCircle
 10
-93.72860854003908
 20
268.5041182043491
 30
0.0
 40
144.0
100
AcDbArc
 50
0.2559616046884807
 51
3.638917079882353
  0
ARC
  5
67C
330
18
100
AcDbEntity
  8
1
  6
Continuous
 48
0.25
100
AcDbCircle
 10
-93.72860854003908
 20
268.5041182043491
 30
0.0
 40
144.0
100
AcDbArc
 50
350.6109983537835
 51
356.3022632304631
  0
ARC
  5
67D
330
18
100
AcDbEntity
  8
1
  6
Continuous
 48
0.25
100
AcDbCircle
 10
50.98039701123335
 20
259.1474177421804
 30
0.0
 40
1.0
100
AcDbArc
 50
90.0
 51
160.6737049165112
  0
ARC
  5
67E
330
18
100
AcDbEntity
  8
1
  6
Continuous
 48
0.25
100
AcDbCircle
 10
50.27139145996094
 20
270.1474177420891
 30
0.0
 40
1.0
100
AcDbArc
 50
180.0000000000008
 51
270.0
  0
ARC
  5
67F
330
18
100
AcDbEntity
  8
1
  6
Continuous
 48
0.25
100
AcDbCircle
 10
57.27139145996082
 20
274.3494587709204
 30
0.0
 40
8.0
100
AcDbArc
 50
135.584691402806
 51
180.0000000000008
  0
LINE
  5
680
330
18
100
AcDbEntity
  8
1
  6
Continuous
 48
0.25
100
AcDbLine
 10
50.10375355644467
 20
259.6285583174558
 30
0.0
 11
49.12706304848931
 21
256.5877852775413
 31
0.0
  0
LINE
  5
681
330
18
100
AcDbEntity
  8
5
  6
PHANTOM
 48
0.1
100
AcDbLine
 10
52.0845755813655
 20
270.0198292024863
 30
0.0
 11
53.01606122627085
 21
261.0681626262731
 31
0.0
  0
LINE
  5
682
330
18
100
AcDbEntity
  8
1
  6
Continuous
 48
0.25
100
AcDbLine
 10
53.27139145996104
 20
269.1474177420891
 30
0.0
 11
53.27139145996104
 21
260.1474177421804
 31
0.0
  0
LINE
  5
683
330
18
100
AcDbEntity
  8
5
  6
PHANTOM
 48
0.1
100
AcDbLine
 10
50.73737028925156
 20
260.8310483549877
 30
0.0
 11
53.01606122627085
 21
261.0681626262731
 31
0.0
  0
LINE
  5
684
330
18
100
AcDbEntity
  8
1
  6
Continuous
 48
0.25
100
AcDbLine
 10
50.98039701123335
 20
260.1474177421804
 30
0.0
 11
53.27139145996094
 21
260.1474177421804
 31
0.0
  0
LINE
  5
685
330
18
100
AcDbEntity
  8
1
  6
Continuous
 48
0.25
100
AcDbLine
 10
50.27139145996094
 20
269.1474177420891
 30
0.0
 11
53.27139145996094
 21
269.1474177420891
 31
0.0
  0
LINE
  5
686
330
18
100
AcDbEntity
  8
1
  6
Continuous
 48
0.25
100
AcDbLine
 10
39.21584746502256
 20
257.4754989112103
 30
0.0
 11
37.79747127624048
 21
268.14741774218
 31
0.0
  0
LINE
  5
687
330
18
100
AcDbEntity
  8
5
  6
PHANTOM
 48
0.1
100
AcDbLine
 10
37.22827526219985
 20
277.5225181089228
 30
0.0
 11
39.29824336201446
 21
257.6299257171007
 31
0.0
  0
LINE
  5
688
330
18
100
AcDbEntity
  8
5
  6
PHANTOM
 48
0.1
100
AcDbLine
 10
49.91913586617298
 20
260.2242442034376
 30
0.0
 11
49.26240571735823
 21
257.0987153617471
 31
0.0
  0
LINE
  5
689
330
18
100
AcDbEntity
  8
1
  6
Continuous
 48
0.25
100
AcDbLine
 10
39.27139145996104
 20
268.14741774218
 30
0.0
 11
39.27139145996116
 21
258.1474177420534
 31
0.0
  0
LINE
  5
68A
330
18
100
AcDbEntity
  8
4
  6
CENTER
 48
0.1
100
AcDbLine
 10
44.27139145996116
 20
253.6474177420533
 30
0.0
 11
44.27139145996104
 21
262.6474177420533
 31
0.0
  0
LINE
  5
68B
330
18
100
AcDbEntity
  8
1
  6
Continuous
 48
0.25
100
AcDbLine
 10
48.989637296531
 20
256.4926802324492
 30
0.0
 11
50.03674784391924
 21
259.4783652441011
 31
0.0
  0
CIRCLE
  5
68C
330
18
100
AcDbEntity
  8
1
  6
Continuous
 48
0.25
100
AcDbCircle
 10
44.27139145996116
 20
258.1474177420533
 30
0.0
 40
2.5
  0
CIRCLE
  5
68D
330
18
100
AcDbEntity
  8
1
  6
Continuous
 48
0.25
100
AcDbCircle
 10
44.27139145996116
 20
258.1474177420533
 30
0.0
 40
3.0
  0
ARC
  5
68E
330
18
100
AcDbEntity
  8
1
  6
Continuous
 48
0.25
100
AcDbCircle
 10
44.27139145996116
 20
258.1474177420533
 30
0.0
 40
5.099999999999998
100
AcDbArc
 50
187.5706599238505
 51
272.7413000000002
  0
ARC
  5
68F
330
18
100
AcDbEntity
  8
1
  6
Continuous
 48
0.25
100
AcDbCircle
 10
-60.72866005825492
 20
262.6473831932525
 30
0.0
 40
100.0
100
AcDbArc
 50
346.7386102483732
 51
357.2815978068078
  0
LINE
  5
690
330
18
100
AcDbEntity
  8
4
  6
CENTER
 48
0.1
100
AcDbLine
 10
48.77139145996117
 20
258.1474177420534
 30
0.0
 11
39.77139145996116
 21
258.1474177420534
 31
0.0
  0
ARC
  5
691
330
18
100
AcDbEntity
  8
1
  6
Continuous
 48
0.25
100
AcDbCircle
 10
44.27139145996116
 20
258.1474177420533
 30
0.0
 40
5.0
100
AcDbArc
 50
180.0
 51
340.6737049165103
  0
LINE
  5
692
330
18
100
AcDbEntity
  8
1
  6
Continuous
 48
0.25
100
AcDbLine
 10
48.34229475024418
 20
245.0124507819856
 30
0.0
 11
47.94124376638788
 21
242.5870088362306
 31
0.0
  0
ARC
  5
693
330
18
100
AcDbEntity
  8
1
  6
Continuous
 48
0.25
100
AcDbCircle
 10
44.27139145996116
 20
258.1474177420533
 30
0.0
 40
5.099999999999998
100
AcDbArc
 50
272.7413000000002
 51
342.1930806439271
  0
ARC
  5
694
330
18
100
AcDbEntity
  8
1
  6
Continuous
 48
0.25
100
AcDbCircle
 10
85.27139145996114
 20
228.2383007196052
 30
0.0
 40
50.0
100
AcDbArc
 50
166.7386102483731
 51
180.0
  0
ARC
  5
695
330
18
100
AcDbEntity
  8
5
  6
PHANTOM
 48
0.1
100
AcDbCircle
 10
41.47693452521647
 20
285.0024174709652
 30
0.0
 40
5.0
100
AcDbArc
 50
95.94066013955153
 51
179.7830057574348
  0
LINE
  5
696
330
18
100
AcDbEntity
  8
1
  6
Continuous
 48
0.25
100
AcDbLine
 10
35.77136439996209
 20
268.14741774218
 30
0.0
 11
44.70743237753795
 21
268.1474177421801
 31
0.0
  0
LINE
  5
697
330
18
100
AcDbEntity
  8
1
  6
Continuous
 48
0.25
100
AcDbLine
 10
37.27139145996094
 20
283.147417742089
 30
0.0
 11
39.27139145996082
 21
283.147417742089
 31
0.0
  0
LINE
  5
698
330
18
100
AcDbEntity
  8
1
  6
Continuous
 48
0.25
100
AcDbLine
 10
37.27139145996105
 20
278.1474177420891
 30
0.0
 11
39.27139145996093
 21
278.1474177420891
 31
0.0
  0
LINE
  5
699
330
18
100
AcDbEntity
  8
1
  6
Continuous
 48
0.25
100
AcDbLine
 10
35.77136439996209
 20
276.1474177421801
 30
0.0
 11
44.70743237738568
 21
276.1474177421804
 31
0.0
  0
LINE
  5
69A
330
18
100
AcDbEntity
  8
1
  6
Continuous
 48
0.25
100
AcDbLine
 10
38.36767897461831
 20
277.0401531635094
 30
0.0
 11
38.4871384632527
 21
278.1474177420891
 31
0.0
  0
ARC
  5
69B
330
18
100
AcDbEntity
  8
1
  6
Continuous
 48
0.25
100
AcDbCircle
 10
37.37344846303531
 20
277.1474177421802
 30
0.0
 40
1.0
100
AcDbArc
 50
270.0
 51
353.8423456178843
  0
ARC
  5
69C
330
18
100
AcDbEntity
  8
1
  6
Continuous
 48
0.25
100
AcDbCircle
 10
44.27139145996092
 20
285.1474177420533
 30
0.0
 40
5.0
100
AcDbArc
 50
90.00000000000204
 51
180.0000000000008
  0
ARC
  5
69D
330
18
100
AcDbEntity
  8
5
  6
PHANTOM
 48
0.1
100
AcDbCircle
 10
55.52469111054303
 20
275.607926912043
 30
0.0
 40
8.0
100
AcDbArc
 50
141.5253515423558
 51
185.9406601395503
  0
ARC
  5
69E
330
18
100
AcDbEntity
  8
1
  6
Continuous
 48
0.25
100
AcDbCircle
 10
42.47136439996203
 20
272.147417742095
 30
0.0
 40
5.0
100
AcDbArc
 50
318.1896851063995
 51
41.8103148979616
  0
ARC
  5
69F
330
18
100
AcDbEntity
  8
5
  6
PHANTOM
 48
0.1
100
AcDbCircle
 10
48.99718831760677
 20
270.703963607104
 30
0.0
 40
1.0
100
AcDbArc
 50
185.9406601395503
 51
275.9406601395498
  0
LINE
  5
6A0
330
18
100
AcDbEntity
  8
5
  6
PHANTOM
 48
0.1
100
AcDbLine
 10
47.56765415382854
 20
274.7799396721187
 30
0.0
 11
48.00255869801745
 21
270.6004652021136
 31
0.0
  0
LINE
  5
6A1
330
18
100
AcDbEntity
  8
1
  6
Continuous
 48
0.25
100
AcDbLine
 10
47.47136439996203
 20
272.1474177420774
 30
0.0
 11
49.27139145996083
 21
272.1474177420774
 31
0.0
  0
LINE
  5
6A2
330
18
100
AcDbEntity
  8
1
  6
Continuous
 48
0.25
100
AcDbLine
 10
49.27139145996083
 20
274.3494587709203
 30
0.0
 11
49.27139145996093
 21
270.1474177420891
 31
0.0
  0
ARC
  5
6A3
330
18
100
AcDbEntity
  8
1
  6
Continuous
 48
0.25
100
AcDbCircle
 10
44.70743237753795
 20
270.14741774218
 30
0.0
 40
2.0
100
AcDbArc
 50
270.0
 51
318.1896851064003
  0
LINE
  5
6A4
330
18
100
AcDbEntity
  8
1
  6
Continuous
 48
0.25
100
AcDbLine
 10
38.6045060887325
 20
268.14741774218
 30
0.0
 11
39.27139145996104
 21
263.1297456974855
 31
0.0
  0
ARC
  5
6A5
330
18
100
AcDbEntity
  8
1
  6
Continuous
 48
0.25
100
AcDbCircle
 10
-60.72866005825492
 20
262.6473831932525
 30
0.0
 40
100.0
100
AcDbArc
 50
359.5526988445215
 51
0.0000183286957485
  0
ARC
  5
6A6
330
18
100
AcDbEntity
  8
1
  6
Continuous
 48
0.25
100
AcDbCircle
 10
-60.72863560003789
 20
262.5566039933954
 30
0.0
 40
100.0
100
AcDbArc
 50
359.6024976037799
 51
0.000000000000007
  0
ARC
  5
6A7
330
18
100
AcDbEntity
  8
1
  6
Continuous
 48
0.25
100
AcDbCircle
 10
38.27136439996209
 20
267.1474177421801
 30
0.0
 40
1.0
100
AcDbArc
 50
0.0000000000008212
 51
70.05529090269394
  0
LINE
  5
6A8
330
18
100
AcDbEntity
  8
4
  6
CENTER
 48
0.1
100
AcDbLine
 10
48.32139145996089
 20
285.1474477420534
 30
0.0
 11
40.27139145996081
 21
285.1474477420534
 31
0.0
  0
CIRCLE
  5
6A9
330
18
100
AcDbEntity
  8
1
  6
Continuous
 48
0.25
100
AcDbCircle
 10
44.27139145996082
 20
285.1474477420534
 30
0.0
 40
1.7
  0
CIRCLE
  5
6AA
330
18
100
AcDbEntity
  8
1
  6
Continuous
 48
0.25
100
AcDbCircle
 10
44.27139145996082
 20
285.1474477420534
 30
0.0
 40
2.499999999999999
  0
LINE
  5
6AB
330
18
100
AcDbEntity
  8
4
  6
CENTER
 48
0.1
100
AcDbLine
 10
44.27139145996082
 20
281.1474477420535
 30
0.0
 11
44.27139145996082
 21
289.1474477420534
 31
0.0
  0
ARC
  5
6AD
330
18
100
AcDbEntity
  8
1
  6
Continuous
 48
0.25
100
AcDbCircle
 10
47.25997555420586
 20
284.885950513816
 30
0.0
 40
2.749999999999998
100
AcDbArc
 50
251.5066011783097
 51
98.49339882169369
  0
ARC
  5
6AE
330
18
100
AcDbEntity
  8
1
  6
Continuous
 48
0.25
100
AcDbCircle
 10
44.70743237738568
 20
274.1474177421801
 30
0.0
 40
2.0
100
AcDbArc
 50
41.8103148979616
 51
90.0
  0
LINE
  5
6AF
330
18
100
AcDbEntity
  8
1
  6
Continuous
 48
0.25
100
AcDbLine
 10
44.97811018481402
 20
282.7494175829557
 30
0.0
 11
46.38768821588306
 21
282.277959946463
 31
0.0
  0
LINE
  5
6B0
330
18
100
AcDbEntity
  8
1
  6
Continuous
 48
0.25
100
AcDbLine
 10
44.27139145996071
 20
290.1474177420533
 30
0.0
 11
47.27139145996093
 21
290.1474177420533
 31
0.0
  0
ARC
  5
6B1
330
18
100
AcDbEntity
  8
1
  6
Continuous
 48
0.25
100
AcDbCircle
 10
-93.72860854003908
 20
268.5041182043491
 30
0.0
 40
144.0
100
AcDbArc
 50
5.898817022772337
 51
6.876872362867509
  0
ARC
  5
6B2
330
18
100
AcDbEntity
  8
1
  6
Continuous
 48
0.25
100
AcDbCircle
 10
44.27137792997043
 20
285.147434368355
 30
0.0
 40
5.000013530008358
100
AcDbArc
 50
6.876872362867509
 51
23.20609846677815
  0
LINE
  5
6B3
330
18
100
AcDbEntity
  8
1
  6
Continuous
 48
0.25
100
AcDbLine
 10
49.27139145996093
 20
285.4451925504463
 30
0.0
 11
49.27139145996093
 21
286.7612387727447
 31
0.0
  0
LINE
  5
6B5
330
18
100
AcDbEntity
  8
1
  6
Continuous
 48
0.25
100
AcDbLine
 10
46.85381302996435
 20
287.6057909510295
 30
0.0
 11
45.38387804607086
 21
287.386280830009
 31
0.0
  0
LINE
  5
6B6
330
18
100
AcDbEntity
  8
1
  6
Continuous
 48
0.25
100
AcDbLine
 10
39.02657362150396
 20
283.147417742089
 30
0.0
 11
39.30021192010829
 21
285.6837587129996
 31
0.0
  0
LINE
  5
6B8
330
18
100
AcDbEntity
  8
1
  6
Continuous
 48
0.25
100
AcDbLine
 10
39.27139145996093
 20
278.1474177420891
 30
0.0
 11
39.27139145996093
 21
276.1474177421801
 31
0.0
  0
LINE
  5
6B9
330
18
100
AcDbEntity
  8
5
  6
PHANTOM
 48
0.1
100
AcDbLine
 10
40.95944250026368
 20
289.9755655689118
 30
0.0
 11
43.94333135903186
 21
290.2860607838835
 31
0.0
  0
LINE
  5
6BA
330
18
100
AcDbEntity
  8
1
  6
Continuous
 48
0.25
100
AcDbLine
 10
35.77136439996209
 20
276.1474177421799
 30
0.0
 11
35.77136439996209
 21
268.14741774218
 31
0.0
  0
LINE
  5
6BB
330
18
100
AcDbEntity
  8
5
  6
PHANTOM
 48
0.1
100
AcDbLine
 10
36.46728016371397
 20
282.4703279510757
 30
0.0
 11
36.4769416755586
 21
285.0213689335712
 31
0.0
  0
LINE
  5
6BC
330
18
100
AcDbEntity
  8
5
  6
PHANTOM
 48
0.1
100
AcDbLine
 10
35.23901602302126
 20
277.3155212989418
 30
0.0
 11
37.22827526219973
 21
277.5225181089228
 31
0.0
  0
LINE
  5
6BD
330
18
100
AcDbEntity
  8
5
  6
PHANTOM
 48
0.1
100
AcDbLine
 10
34.72152399806864
 20
282.2886693968881
 30
0.0
 11
36.46728016371414
 21
282.4703279510757
 31
0.0
  0
LINE
  5
6BE
330
18
100
AcDbEntity
  8
1
  6
Continuous
 48
0.25
100
AcDbLine
 10
37.27139145996105
 20
283.147417742089
 30
0.0
 11
37.27139145996105
 21
278.1474177420891
 31
0.0
  0
LINE
  5
6BF
330
18
100
AcDbEntity
  8
5
  6
PHANTOM
 48
0.1
100
AcDbLine
 10
34.72152399806864
 20
282.2886693968884
 30
0.0
 11
35.23901602302137
 21
277.3155212989418
 31
0.0
  0
LINE
  5
8B8
330
18
100
AcDbEntity
  8
1
  6
Continuous
 48
0.25
100
AcDbLine
 10
58.27139145996082
 20
296.1474477420535
 30
0.0
 11
30.27139145996071
 21
296.1474477420535
 31
0.0
  0
LINE
  5
8B9
330
18
100
AcDbEntity
  8
1
  6
Continuous
 48
0.25
100
AcDbLine
 10
30.27139145996082
 20
297.7474477420534
 30
0.0
 11
58.27139145996082
 21
297.7474477420535
 31
0.0
  0
LINE
  5
8BA
330
18
100
AcDbEntity
  8
1
  6
Continuous
 48
0.25
100
AcDbLine
 10
58.27139145996082
 20
297.7474477420535
 30
0.0
 11
58.27139145996082
 21
296.1474477420535
 31
0.0
  0
LINE
  5
8BB
330
18
100
AcDbEntity
  8
4
  6
CENTER
 48
0.05
100
AcDbLine
 10
54.27139145996083
 20
294.6474477420537
 30
0.0
 11
54.27139145996083
 21
299.2474477420535
 31
0.0
  0
LINE
  5
8BC
330
18
100
AcDbEntity
  8
1
  6
Continuous
 48
0.25
100
AcDbLine
 10
55.82286160835999
 20
296.1474477420535
 30
0.0
 11
55.82286160835999
 21
297.7474477420535
 31
0.0
  0
LINE
  5
8BD
330
18
100
AcDbEntity
  8
4
  6
CENTER
 48
0.05
100
AcDbLine
 10
34.27139145996082
 20
294.6474477420535
 30
0.0
 11
34.27139145996071
 21
299.2474477420534
 31
0.0
  0
LINE
  5
8BE
330
18
100
AcDbEntity
  8
1
  6
Continuous
 48
0.25
100
AcDbLine
 10
32.71992125595412
 20
296.1474477420535
 30
0.0
 11
32.71992125595412
 21
297.7474477420534
 31
0.0
  0
LINE
  5
8BF
330
18
100
AcDbEntity
  8
1
  6
Continuous
 48
0.25
100
AcDbLine
 10
30.27139145996071
 20
296.1474477420535
 30
0.0
 11
30.27139145996071
 21
297.7474477420534
 31
0.0
  0
ARC
  5
8D3
330
18
100
AcDbEntity
  8
1
  6
Continuous
100
AcDbCircle
 10
35.27139145996116
 20
218.1474177420534
 30
0.0
 40
5.249999914277984
100
AcDbArc
 50
359.9999999999993
 51
269.9999999999997
  0
LINE
  5
8D9
330
18
100
AcDbEntity
  8
4
  6
CENTER
 48
0.1
100
AcDbLine
 10
249.3714051981686
 20
151.1473855596499
 30
0.0
 11
242.3714051981686
 21
151.1473855596499
 31
0.0
  0
LINE
  5
D0F
330
18
100
AcDbEntity
  8
1
  6
Continuous
100
AcDbLine
 10
143.721392092931
 20
218.1474177419939
 30
0.0
 11
147.4213908870698
 21
218.1474177419939
 31
0.0
  0
LINE
  5
1A8A
330
18
100
AcDbEntity
  8
1
  6
Continuous
100
AcDbLine
 10
44.77136607651661
 20
168.0554908713919
 30
0.0
 11
44.77136607651661
 21
167.8302458930074
 31
0.0
  0
ARC
  5
1A8B
330
18
100
AcDbEntity
  8
1
  6
Continuous
100
AcDbCircle
 10
45.52136607651656
 20
168.0554908713919
 30
0.0
 40
0.7500000000000006
100
AcDbArc
 50
270.0
 51
180.0
  0
ARC
  5
1A8C
330
18
100
AcDbEntity
  8
1
  6
Continuous
100
AcDbCircle
 10
44.02136607651654
 20
168.0554908713919
 30
0.0
 40
0.75
100
AcDbArc
 50
0.0
 51
270.0
  0
LINE
  5
1AC6
330
18
100
AcDbEntity
  8
0
  6
Continuous
100
AcDbLine
 10
46.2713660765166
 20
162.5113117842663
 30
0.0
 11
43.2713660765166
 21
163.4938117842663
 31
0.0
  0
LINE
  5
1AC7
330
18
100
AcDbEntity
  8
1
  6
Continuous
100
AcDbLine
 10
43.2713660765166
 20
160.6353382807245
 30
0.0
 11
43.2713660765166
 21
158.8353382807245
 31
0.0
  0
LINE
  5
1AC8
330
18
100
AcDbEntity
  8
1
  6
Continuous
100
AcDbLine
 10
43.2713660765166
 20
161.5288117842663
 30
0.0
 11
46.2713660765166
 21
161.5288117842663
 31
0.0
  0
LINE
  5
1AC9
330
18
100
AcDbEntity
  8
0
  6
Continuous
100
AcDbLine
 10
43.2713660765166
 20
161.5288117842663
 30
0.0
 11
46.2713660765166
 21
162.5113117842663
 31
0.0
  0
LINE
  5
1ACA
330
18
100
AcDbEntity
  8
1
  6
Continuous
100
AcDbLine
 10
43.2713660765166
 20
159.7353382807245
 30
0.0
 11
46.2713660765166
 21
159.7353382807245
 31
0.0
  0
LINE
  5
1ACB
330
18
100
AcDbEntity
  8
1
  6
Continuous
100
AcDbLine
 10
43.2713660765166
 20
163.4938117842663
 30
0.0
 11
46.2713660765166
 21
163.4938117842663
 31
0.0
  0
LINE
  5
1ACC
330
18
100
AcDbEntity
  8
1
  6
Continuous
100
AcDbLine
 10
44.77136607651661
 20
166.2288116743817
 30
0.0
 11
44.77136607651661
 21
164.8201338576835
 31
0.0
  0
LINE
  5
1ACD
330
18
100
AcDbEntity
  8
1
  6
Continuous
100
AcDbLine
 10
43.26853567442461
 20
177.5353184064016
 30
0.0
 11
46.26853567442461
 21
177.5353184064016
 31
0.0
  0
LINE
  5
1B16
330
18
100
AcDbEntity
  8
1
  6
Continuous
 48
0.25
100
AcDbLine
 10
44.27089329311106
 20
184.369363124053
 30
0.0
 11
44.27089329311106
 21
184.8132538880531
 31
0.0
  0
ARC
  5
2141
330
18
100
AcDbEntity
  8
1
  6
Continuous
100
AcDbCircle
 10
44.02136607651654
 20
170.4969785084883
 30
0.0
 40
0.7499999999999997
100
AcDbArc
 50
90.00000000000005
 51
270.0
  0
ARC
  5
2142
330
18
100
AcDbEntity
  8
1
  6
Continuous
100
AcDbCircle
 10
45.52136607651656
 20
170.4969785084883
 30
0.0
 40
0.7499999999999997
100
AcDbArc
 50
270.0
 51
90.00000000000005
  0
LINE
  5
2143
330
18
100
AcDbEntity
  8
1
  6
Continuous
100
AcDbLine
 10
44.02136607651661
 20
169.7469785084883
 30
0.0
 11
45.5213660765166
 21
169.7469785084883
 31
0.0
  0
LINE
  5
2144
330
18
100
AcDbEntity
  8
1
  6
Continuous
100
AcDbLine
 10
44.02136607651661
 20
171.2469785084883
 30
0.0
 11
45.5213660765166
 21
171.2469785084883
 31
0.0
  0
ARC
  5
2145
330
18
100
AcDbEntity
  8
1
  6
Continuous
100
AcDbCircle
 10
44.02136607651654
 20
173.1896231210656
 30
0.0
 40
0.7499999999999997
100
AcDbArc
 50
90.00000000000005
 51
270.0
  0
ARC
  5
2146
330
18
100
AcDbEntity
  8
1
  6
Continuous
100
AcDbCircle
 10
45.52136607651656
 20
173.1896231210656
 30
0.0
 40
0.7499999999999997
100
AcDbArc
 50
270.0
 51
90.00000000000005
  0
LINE
  5
2147
330
18
100
AcDbEntity
  8
1
  6
Continuous
100
AcDbLine
 10
44.02136607651661
 20
172.4396231210656
 30
0.0
 11
45.5213660765166
 21
172.4396231210656
 31
0.0
  0
LINE
  5
2148
330
18
100
AcDbEntity
  8
1
  6
Continuous
100
AcDbLine
 10
44.02136607651661
 20
173.9396231210657
 30
0.0
 11
45.5213660765166
 21
173.9396231210657
 31
0.0
  0
LINE
  5
2149
330
18
100
AcDbEntity
  8
1
  6
Continuous
100
AcDbLine
 10
44.77136607651661
 20
176.409299405483
 30
0.0
 11
44.77136607651661
 21
175.0006215887849
 31
0.0
  0
LINE
  5
3A50
330
18
100
AcDbEntity
  8
5
  6
PHANTOM
 48
0.15
100
AcDbLine
 10
358.1455691850491
 20
275.6432786325189
 30
0.0
 11
359.7429823504148
 21
275.5523326094245
 31
0.0
  0
LINE
  5
3A51
330
18
100
AcDbEntity
  8
5
  6
PHANTOM
 48
0.15
100
AcDbLine
 10
359.288252234943
 20
267.5652667825964
 30
0.0
 11
357.6908390695773
 21
267.6562128056908
 31
0.0
  0
LINE
  5
3A53
330
18
100
AcDbEntity
  8
5
  6
PHANTOM
 48
0.15
100
AcDbLine
 10
358.6622661060103
 20
260.0887608227056
 30
0.0
 11
358.3780597838405
 21
255.0968446809381
 31
0.0
  0
LINE
  5
3A54
330
18
100
AcDbEntity
  8
1
  6
Continuous
 48
0.25
100
AcDbLine
 10
351.7214514830763
 20
255.1474177420535
 30
0.0
 11
351.7214514830763
 21
261.1474177420535
 31
0.0
  0
LINE
  5
3A55
330
18
100
AcDbEntity
  8
1
  6
Continuous
 48
0.25
100
AcDbLine
 10
352.2214514830764
 20
260.6474177420535
 30
0.0
 11
352.2214514830764
 21
255.6474177420535
 31
0.0
  0
ARC
  5
3A56
330
18
100
AcDbEntity
  8
1
  6
Continuous
 48
0.25
100
AcDbCircle
 10
348.2464514830765
 20
258.1474177420535
 30
0.0
 40
3.625000000000051
100
AcDbArc
 50
136.3972043311987
 51
223.6028189727015
  0
ARC
  5
3A57
330
18
100
AcDbEntity
  8
5
  6
PHANTOM
 48
0.15
100
AcDbCircle
 10
354.5515896122204
 20
257.8187467779468
 30
0.0
 40
3.625000000000051
100
AcDbArc
 50
143.2561025362948
 51
220.3442981343959
  0
LINE
  5
3A5B
330
18
100
AcDbEntity
  8
1
  6
Continuous
 48
0.25
100
AcDbLine
 10
349.6214514830764
 20
262.8474177420534
 30
0.0
 11
349.6214514830764
 21
253.4474177420536
 31
0.0
  0
LINE
  5
3A5C
330
18
100
AcDbEntity
  8
1
  6
Continuous
 48
0.25
100
AcDbLine
 10
348.0214514830763
 20
268.1474177421801
 30
0.0
 11
348.0214514830763
 21
253.4474177420536
 31
0.0
  0
LINE
  5
3A5D
330
18
100
AcDbEntity
  8
1
  6
Continuous
 48
0.25
100
AcDbLine
 10
348.8214514830763
 20
262.8474177420534
 30
0.0
 11
348.8214514830763
 21
253.4474177420536
 31
0.0
  0
LINE
  5
3A5E
330
18
100
AcDbEntity
  8
1
  6
Continuous
 48
0.25
100
AcDbLine
 10
345.6214528713903
 20
278.3874926110623
 30
0.0
 11
345.6214456196347
 21
224.8992166066412
 31
0.0
  0
LINE
  5
3A5F
330
18
100
AcDbEntity
  8
1
  6
Continuous
 48
0.25
100
AcDbLine
 10
347.2214512242651
 20
268.1474177421801
 30
0.0
 11
347.2214452521477
 21
223.3974177419942
 31
0.0
  0
LINE
  5
3A60
330
18
100
AcDbEntity
  8
5
  6
PHANTOM
 48
0.15
100
AcDbLine
 10
350.8708082370636
 20
211.2007950988662
 30
0.0
 11
347.1620068347808
 21
146.0580561521478
 31
0.0
  0
LINE
  5
3A61
330
18
100
AcDbEntity
  8
5
  6
PHANTOM
 48
0.15
100
AcDbLine
 10
349.3587595777047
 20
212.7911144037661
 30
0.0
 11
345.5645936694153
 21
146.1490021752421
 31
0.0
  0
LINE
  5
3A62
330
18
100
AcDbEntity
  8
1
  6
Continuous
 48
0.25
100
AcDbLine
 10
345.1214349427341
 20
143.1473855596499
 30
0.0
 11
345.1214349427341
 21
156.1473855596499
 31
0.0
  0
LINE
  5
3A63
330
18
100
AcDbEntity
  8
1
  6
Continuous
 48
0.25
100
AcDbLine
 10
341.7214349427376
 20
156.1473855596498
 30
0.0
 11
341.7214349427376
 21
146.1473855596499
 31
0.0
  0
LINE
  5
3A64
330
18
100
AcDbEntity
  8
1
  6
Continuous
 48
0.25
100
AcDbLine
 10
340.1214349427377
 20
156.1473855596499
 30
0.0
 11
340.1214349427377
 21
146.14738555965
 31
0.0
  0
LINE
  5
3A66
330
18
100
AcDbEntity
  8
4
  6
CENTER
 48
0.2
100
AcDbLine
 10
338.6214349427377
 20
151.1473863353823
 30
0.0
 11
350.7214356681874
 21
151.1473863353822
 31
0.0
  0
LINE
  5
3A67
330
18
100
AcDbEntity
  8
1
  6
Continuous
 48
0.25
100
AcDbLine
 10
340.1214349427377
 20
146.1473855596499
 30
0.0
 11
345.1214349427341
 21
146.1473855596499
 31
0.0
  0
ARC
  5
3A68
330
18
100
AcDbEntity
  8
1
  6
Continuous
 48
0.25
100
AcDbCircle
 10
345.1214349427341
 20
143.1473855596499
 30
0.0
 40
1.6
100
AcDbArc
 50
179.9999999999991
 51
269.9999999999996
  0
LINE
  5
3A69
330
18
100
AcDbEntity
  8
1
  6
Continuous
 48
0.25
100
AcDbLine
 10
343.521434942734
 20
143.1473855596499
 30
0.0
 11
343.521434942734
 21
146.1473855596499
 31
0.0
  0
ARC
  5
3A6A
330
18
100
AcDbEntity
  8
1
  6
Continuous
 48
0.25
100
AcDbCircle
 10
348.4714356681874
 20
152.6473855596498
 30
0.0
 40
2.0
100
AcDbArc
 50
67.97568716295794
 51
112.024312837042
  0
LINE
  5
3A6B
330
18
100
AcDbEntity
  8
1
  6
Continuous
 48
0.25
100
AcDbLine
 10
347.2214358858234
 20
152.6473863353823
 30
0.0
 11
347.7214356681874
 21
152.6473863353823
 31
0.0
  0
ARC
  5
3A6C
330
18
100
AcDbEntity
  8
1
  6
Continuous
 48
0.25
100
AcDbCircle
 10
348.4714356681874
 20
149.6473855596498
 30
0.0
 40
2.0
100
AcDbArc
 50
247.9756871629572
 51
292.0243128370419
  0
LINE
  5
3A6D
330
18
100
AcDbEntity
  8
1
  6
Continuous
 48
0.25
100
AcDbLine
 10
347.2214358858234
 20
149.6473863353823
 30
0.0
 11
347.7214356681873
 21
149.6473863353823
 31
0.0
  0
LINE
  5
3A6E
330
18
100
AcDbEntity
  8
1
  6
Continuous
 48
0.25
100
AcDbLine
 10
345.1214349427341
 20
147.1473855596498
 30
0.0
 11
345.6214349427341
 21
147.1473855596498
 31
0.0
  0
LINE
  5
3A6F
330
18
100
AcDbEntity
  8
1
  6
Continuous
 48
0.25
100
AcDbLine
 10
345.6214349427343
 20
146.1473854033429
 30
0.0
 11
347.221434942734
 21
146.1473854033429
 31
0.0
  0
LINE
  5
3A70
330
18
100
AcDbEntity
  8
5
  6
PHANTOM
 48
0.15
100
AcDbLine
 10
345.5645936694155
 20
146.1490021752422
 30
0.0
 11
347.1620068347809
 21
146.0580561521479
 31
0.0
  0
LINE
  5
3A71
330
18
100
AcDbEntity
  8
1
  6
Continuous
 48
0.25
100
AcDbLine
 10
349.2214356681874
 20
154.5014351814236
 30
0.0
 11
349.2214356681874
 21
147.7933359378759
 31
0.0
  0
LINE
  5
3A72
330
18
100
AcDbEntity
  8
1
  6
Continuous
 48
0.25
100
AcDbLine
 10
347.7214356681874
 20
154.5014351814237
 30
0.0
 11
347.7214356681874
 21
147.7933359378759
 31
0.0
  0
LINE
  5
3A73
330
18
100
AcDbEntity
  8
1
  6
Continuous
 48
0.25
100
AcDbLine
 10
351.1214349427342
 20
147.54738555965
 30
0.0
 11
349.521434942734
 21
147.54738555965
 31
0.0
  0
LINE
  5
3A74
330
18
100
AcDbEntity
  8
1
  6
Continuous
 48
0.25
100
AcDbLine
 10
349.521434942734
 20
143.1473855596499
 30
0.0
 11
345.1214349427341
 21
143.1473855596499
 31
0.0
  0
LINE
  5
3A75
330
18
100
AcDbEntity
  8
1
  6
Continuous
 48
0.25
100
AcDbLine
 10
349.521434942734
 20
141.54738555965
 30
0.0
 11
345.1214349427341
 21
141.54738555965
 31
0.0
  0
ARC
  5
3A76
330
18
100
AcDbEntity
  8
1
  6
Continuous
 48
0.25
100
AcDbCircle
 10
349.521434942734
 20
143.1473855596499
 30
0.0
 40
1.6
100
AcDbArc
 50
270.0
 51
0.000000000000007
  0
LINE
  5
3A77
330
18
100
AcDbEntity
  8
1
  6
Continuous
 48
0.25
100
AcDbLine
 10
351.1214349427342
 20
143.1473855596499
 30
0.0
 11
351.1214349427342
 21
147.54738555965
 31
0.0
  0
LINE
  5
3A78
330
18
100
AcDbEntity
  8
1
  6
Continuous
 48
0.25
100
AcDbLine
 10
349.521434942734
 20
143.1473855596499
 30
0.0
 11
349.521434942734
 21
147.54738555965
 31
0.0
  0
LINE
  5
3A79
330
18
100
AcDbEntity
  8
1
  6
Continuous
 48
0.25
100
AcDbLine
 10
340.1214349427377
 20
156.1473855596499
 30
0.0
 11
345.1214349427341
 21
156.1473855596499
 31
0.0
  0
LINE
  5
3A7B
330
18
100
AcDbEntity
  8
1
  6
Continuous
 48
0.25
100
AcDbLine
 10
345.6214349427341
 20
155.1473855596498
 30
0.0
 11
345.1214349427341
 21
155.1473855596498
 31
0.0
  0
ARC
  5
3A7C
330
18
100
AcDbEntity
  8
1
  6
Continuous
 48
0.25
100
AcDbCircle
 10
346.1704176013347
 20
223.3974435174898
 30
0.0
 40
1.598966118462465
100
AcDbArc
 50
110.0796220679086
 51
180.0009236116378
  0
ARC
  5
3A7D
330
18
100
AcDbEntity
  8
5
  6
PHANTOM
 48
0.15
100
AcDbCircle
 10
350.503679729224
 20
223.242959717272
 30
0.0
 40
1.598966118462465
100
AcDbArc
 50
106.8211012296023
 51
176.7424027733308
  0
LINE
  5
3A7E
330
18
100
AcDbEntity
  8
5
  6
PHANTOM
 48
0.15
100
AcDbLine
 10
353.2610918930813
 20
253.1846080139286
 30
0.0
 11
351.553007534087
 21
223.1831920771132
 31
0.0
  0
LINE
  5
3A7F
330
18
100
AcDbEntity
  8
4
  6
CENTER
 48
0.1
100
AcDbLine
 10
343.0714514828723
 20
218.1474177419939
 30
0.0
 11
351.27145148308
 21
218.1474177419939
 31
0.0
  0
ARC
  5
3A80
330
18
100
AcDbEntity
  8
5
  6
PHANTOM
 48
0.15
100
AcDbCircle
 10
350.4080995370673
 20
212.7313458300086
 30
0.0
 40
1.598966118462438
100
AcDbArc
 50
286.8211012264207
 51
356.7424114174345
  0
LINE
  5
3A81
330
18
100
AcDbEntity
  8
4
  6
CENTER
 48
0.1
100
AcDbLine
 10
346.6121142396646
 20
218.2059922709658
 30
0.0
 11
355.2980482530072
 21
217.7114719823413
 31
0.0
  0
ARC
  5
3A83
330
18
100
AcDbEntity
  8
1
  6
Continuous
 48
0.25
100
AcDbCircle
 10
349.02145148308
 20
219.6474177420535
 30
0.0
 40
2.0
100
AcDbArc
 50
67.97568716295794
 51
112.024312837042
  0
LINE
  5
3A84
330
18
100
AcDbEntity
  8
1
  6
Continuous
 48
0.25
100
AcDbLine
 10
348.271450277011
 20
223.3974176271903
 30
0.0
 11
347.2214514830762
 21
223.3974176271903
 31
0.0
  0
LINE
  5
3A85
330
18
100
AcDbEntity
  8
5
  6
PHANTOM
 48
0.15
100
AcDbLine
 10
348.9072973089409
 20
223.3338212394578
 30
0.0
 11
348.7225631995306
 21
220.0890757473088
 31
0.0
  0
LINE
  5
3A86
330
18
100
AcDbEntity
  8
5
  6
PHANTOM
 48
0.15
100
AcDbLine
 10
348.7225631995343
 20
220.0890757473085
 30
0.0
 11
348.5228865538636
 21
220.1004440001953
 31
0.0
  0
ARC
  5
3A87
330
18
100
AcDbEntity
  8
5
  6
PHANTOM
 48
0.15
100
AcDbCircle
 10
348.5058341745335
 20
219.8009290316893
 30
0.0
 40
0.3
100
AcDbArc
 50
86.74147916169337
 51
176.7414791616929
  0
LINE
  5
3A88
330
18
100
AcDbEntity
  8
1
  6
Continuous
 48
0.25
100
AcDbLine
 10
344.57145148308
 20
220.1474177420535
 30
0.0
 11
344.3714514830801
 21
220.1474177420535
 31
0.0
  0
ARC
  5
3A89
330
18
100
AcDbEntity
  8
1
  6
Continuous
 48
0.25
100
AcDbCircle
 10
344.3714514830799
 20
219.8474177420535
 30
0.0
 40
0.3
100
AcDbArc
 50
90.0
 51
179.9999999999991
  0
ARC
  5
3A8A
330
18
100
AcDbEntity
  8
1
  6
Continuous
 48
0.25
100
AcDbCircle
 10
349.0214514830799
 20
216.6474177420535
 30
0.0
 40
2.0
100
AcDbArc
 50
247.975687162958
 51
292.0243128370419
  0
ARC
  5
3A8B
330
18
100
AcDbEntity
  8
1
  6
Continuous
 48
0.25
100
AcDbCircle
 10
346.6724853651164
 20
212.8973916105412
 30
0.0
 40
1.598966118462438
100
AcDbArc
 50
290.0793232260492
 51
0.0009322557418145
  0
ARC
  5
3A8C
330
18
100
AcDbEntity
  8
5
  6
PHANTOM
 48
0.15
100
AcDbCircle
 10
348.3125738754578
 20
216.4064260552874
 30
0.0
 40
0.3
100
AcDbArc
 50
176.7414791616929
 51
266.7414791616933
  0
LINE
  5
3A8D
330
18
100
AcDbEntity
  8
5
  6
PHANTOM
 48
0.15
100
AcDbLine
 10
348.4951981417984
 20
216.0955428338945
 30
0.0
 11
348.2955214961278
 21
216.1069110867813
 31
0.0
  0
LINE
  5
3A8E
330
18
100
AcDbEntity
  8
5
  6
PHANTOM
 48
0.15
100
AcDbLine
 10
348.4951981417947
 20
216.0955428338948
 30
0.0
 11
348.3104640323844
 21
212.8507973417461
 31
0.0
  0
LINE
  5
3A8F
330
18
100
AcDbEntity
  8
5
  6
PHANTOM
 48
0.15
100
AcDbLine
 10
348.3104640323842
 20
212.8507973417459
 30
0.0
 11
349.3587499085555
 21
212.7911149542642
 31
0.0
  0
LINE
  5
3A90
330
18
100
AcDbEntity
  8
1
  6
Continuous
 48
0.25
100
AcDbLine
 10
344.5714514830761
 20
212.8974177420535
 30
0.0
 11
346.1714502770101
 21
212.8974177419937
 31
0.0
  0
LINE
  5
3A91
330
18
100
AcDbEntity
  8
1
  6
Continuous
 48
0.25
100
AcDbLine
 10
344.57145148308
 20
216.1474177420535
 30
0.0
 11
344.3714514830799
 21
216.1474177420535
 31
0.0
  0
ARC
  5
3A92
330
18
100
AcDbEntity
  8
1
  6
Continuous
 48
0.25
100
AcDbCircle
 10
344.3714514830799
 20
216.4474177420535
 30
0.0
 40
0.3
100
AcDbArc
 50
179.9999999999991
 51
270.0
  0
LINE
  5
3A93
330
18
100
AcDbEntity
  8
1
  6
Continuous
 48
0.25
100
AcDbLine
 10
349.77145148308
 20
221.5014673638273
 30
0.0
 11
349.77145148308
 21
214.7933681202795
 31
0.0
  0
LINE
  5
3A94
330
18
100
AcDbEntity
  8
1
  6
Continuous
 48
0.25
100
AcDbLine
 10
344.5714514830761
 20
223.3974177420536
 30
0.0
 11
344.5714514830761
 21
212.8974177420535
 31
0.0
  0
LINE
  5
3A95
330
18
100
AcDbEntity
  8
1
  6
Continuous
 48
0.25
100
AcDbLine
 10
348.271450277011
 20
223.3974176271903
 30
0.0
 11
348.271450277011
 21
212.8974176271902
 31
0.0
  0
LINE
  5
3A96
330
18
100
AcDbEntity
  8
5
  6
PHANTOM
 48
0.15
100
AcDbLine
 10
348.2063192060274
 20
219.8179814110195
 30
0.0
 11
348.0130589069519
 21
216.4234784346176
 31
0.0
  0
LINE
  5
3A97
330
18
100
AcDbEntity
  8
1
  6
Continuous
 48
0.25
100
AcDbLine
 10
344.07145148308
 20
219.8474177420535
 30
0.0
 11
344.07145148308
 21
216.4474177420535
 31
0.0
  0
LINE
  5
3A98
330
18
100
AcDbEntity
  8
5
  6
PHANTOM
 48
0.15
100
AcDbLine
 10
352.6013140432048
 20
223.1235085149288
 30
0.0
 11
352.4935458329313
 21
221.230623570195
 31
0.0
  0
LINE
  5
3A99
330
18
100
AcDbEntity
  8
5
  6
PHANTOM
 48
0.15
100
AcDbLine
 10
352.6013140432046
 20
223.1235085149287
 30
0.0
 11
351.5530128575488
 21
223.1831917740302
 31
0.0
  0
ARC
  5
3A9A
330
18
100
AcDbEntity
  8
5
  6
PHANTOM
 48
0.15
100
AcDbCircle
 10
353.1369479334904
 20
219.3369405064007
 30
0.0
 40
2.0
100
AcDbArc
 50
64.71716632465138
 51
108.7657919987356
  0
LINE
  5
3A9B
330
18
100
AcDbEntity
  8
5
  6
PHANTOM
 48
0.15
100
AcDbLine
 10
352.1122489899795
 20
214.5333697913061
 30
0.0
 11
352.0044807666482
 21
212.640484617217
 31
0.0
  0
ARC
  5
3A9C
330
18
100
AcDbEntity
  8
5
  6
PHANTOM
 48
0.15
100
AcDbCircle
 10
352.9664241401885
 20
216.3417908213403
 30
0.0
 40
2.0
100
AcDbArc
 50
244.7171663246513
 51
288.7657919987356
  0
LINE
  5
3A9D
330
18
100
AcDbEntity
  8
5
  6
PHANTOM
 48
0.15
100
AcDbLine
 10
353.9911218795805
 20
221.1453616049894
 30
0.0
 11
353.6098250366287
 21
214.4481078261004
 31
0.0
  0
LINE
  5
3A9E
330
18
100
AcDbEntity
  8
5
  6
PHANTOM
 48
0.15
100
AcDbLine
 10
351.7887298638228
 20
255.4719977477595
 30
0.0
 11
350.0409588610157
 21
224.7735111411623
 31
0.0
  0
LINE
  5
3A9F
330
18
100
AcDbEntity
  8
1
  6
Continuous
 48
0.25
100
AcDbLine
 10
350.8214514830764
 20
255.1474177420535
 30
0.0
 11
351.7214514830763
 21
255.1474177420535
 31
0.0
  0
ARC
  5
3AA0
330
18
100
AcDbEntity
  8
1
  6
Continuous
 48
0.25
100
AcDbCircle
 10
727.0061186540496
 20
256.8127157599741
 30
0.0
 40
378.184673805808
100
AcDbArc
 50
179.9533647527821
 51
180.0155450820163
  0
LINE
  5
3AA2
330
18
100
AcDbEntity
  8
1
  6
Continuous
 48
0.25
100
AcDbLine
 10
349.6214514830764
 20
254.1474177420535
 30
0.0
 11
349.8214514830765
 21
254.1474177420535
 31
0.0
  0
ARC
  5
3AA3
330
18
100
AcDbEntity
  8
1
  6
Continuous
 48
0.25
100
AcDbCircle
 10
349.2214514830764
 20
253.4474177420536
 30
0.0
 40
0.4
100
AcDbArc
 50
180.0
 51
0.000000000000007
  0
ARC
  5
3AA4
330
18
100
AcDbEntity
  8
1
  6
Continuous
 48
0.25
100
AcDbCircle
 10
348.4214514830763
 20
253.4474177420536
 30
0.0
 40
0.4
100
AcDbArc
 50
180.0
 51
0.000000000000007
  0
ARC
  5
3AA5
330
18
100
AcDbEntity
  8
1
  6
Continuous
 48
0.25
100
AcDbCircle
 10
347.6214514830764
 20
253.4474177420536
 30
0.0
 40
0.4
100
AcDbArc
 50
180.0
 51
0.000000000000007
  0
LINE
  5
3AA7
330
18
100
AcDbEntity
  8
5
  6
PHANTOM
 48
0.15
100
AcDbLine
 10
355.6970014934705
 20
253.7470571259361
 30
0.0
 11
355.8966781391412
 21
253.7356888730493
 31
0.0
  0
LINE
  5
3AA8
330
18
100
AcDbEntity
  8
5
  6
PHANTOM
 48
0.15
100
AcDbLine
 10
356.9519026319287
 20
254.677230836969
 30
0.0
 11
357.8504475374467
 21
254.6260736989783
 31
0.0
  0
LINE
  5
3AA9
330
18
100
AcDbEntity
  8
5
  6
PHANTOM
 48
0.15
100
AcDbLine
 10
357.8504475374467
 20
254.6260736989784
 30
0.0
 11
358.3780597838404
 21
255.0968446809381
 31
0.0
  0
LINE
  5
3AAA
330
18
100
AcDbEntity
  8
1
  6
Continuous
 48
0.25
100
AcDbLine
 10
351.7214514830763
 20
255.1474177420535
 30
0.0
 11
352.2214514830764
 21
255.6474177420535
 31
0.0
  0
LINE
  5
3AAB
330
18
100
AcDbEntity
  8
5
  6
PHANTOM
 48
0.15
100
AcDbLine
 10
355.8398368747072
 20
252.7373056446958
 30
0.0
 11
356.8382201030934
 21
252.6804643802601
 31
0.0
  0
ARC
  5
3AAC
330
18
100
AcDbEntity
  8
5
  6
PHANTOM
 48
0.15
100
AcDbCircle
 10
353.6604461516597
 20
253.1618713949567
 30
0.0
 40
0.4
100
AcDbArc
 50
176.7414791616929
 51
356.7414791616929
  0
ARC
  5
3AAD
330
18
100
AcDbEntity
  8
5
  6
PHANTOM
 48
0.15
100
AcDbCircle
 10
354.4591527343425
 20
253.1163983834095
 30
0.0
 40
0.4
100
AcDbArc
 50
176.7414791616929
 51
356.7414791616929
  0
ARC
  5
3AAE
330
18
100
AcDbEntity
  8
5
  6
PHANTOM
 48
0.15
100
AcDbCircle
 10
355.2578593170253
 20
253.0709253718624
 30
0.0
 40
0.4
100
AcDbArc
 50
176.7414791616929
 51
356.7414791616929
  0
LINE
  5
3AAF
330
18
100
AcDbEntity
  8
5
  6
PHANTOM
 48
0.15
100
AcDbLine
 10
355.8966781391412
 20
253.7356888730494
 30
0.0
 11
355.8398368747073
 21
252.737305644696
 31
0.0
  0
LINE
  5
3AB0
330
18
100
AcDbEntity
  8
5
  6
PHANTOM
 48
0.15
100
AcDbLine
 10
356.9519026319584
 20
254.6772308369672
 30
0.0
 11
356.8382201030934
 21
252.6804643802602
 31
0.0
  0
LINE
  5
3AB1
330
18
100
AcDbEntity
  8
5
  6
PHANTOM
 48
0.15
100
AcDbLine
 10
355.6970014934706
 20
253.7470571259362
 30
0.0
 11
355.6572126083668
 21
253.0481888660888
 31
0.0
  0
LINE
  5
3AB4
330
18
100
AcDbEntity
  8
1
  6
Continuous
 48
0.25
100
AcDbLine
 10
345.1214514830723
 20
297.7474477420534
 30
0.0
 11
345.1214514830723
 21
280.1474477420534
 31
0.0
  0
LINE
  5
3AB5
330
18
100
AcDbEntity
  8
1
  6
Continuous
 48
0.25
100
AcDbLine
 10
343.5214515040219
 20
296.1474477441484
 30
0.0
 11
343.5214514830723
 21
280.1474477420536
 31
0.0
  0
LINE
  5
3AB6
330
18
100
AcDbEntity
  8
1
  6
Continuous
 48
0.25
100
AcDbLine
 10
345.1214514830723
 20
280.1474477420534
 30
0.0
 11
343.5214514830723
 21
280.1474477420534
 31
0.0
  0
LINE
  5
3AB7
330
18
100
AcDbEntity
  8
4
  6
CENTER
 48
0.2
100
AcDbLine
 10
341.5214514830723
 20
285.1474477418036
 30
0.0
 11
353.9214514830724
 21
285.1474477418311
 31
0.0
  0
LINE
  5
3AB8
330
18
100
AcDbEntity
  8
4
  6
CENTER
 48
0.2
100
AcDbLine
 10
343.1214514830764
 20
258.1474177420535
 30
0.0
 11
353.7214514830763
 21
258.1474177420535
 31
0.0
  0
ARC
  5
3AB9
330
18
100
AcDbEntity
  8
1
  6
Continuous
 48
0.25
100
AcDbCircle
 10
343.5214514830723
 20
287.1474477420536
 30
0.0
 40
0.5
100
AcDbArc
 50
90.0
 51
179.9999999999991
  0
ARC
  5
3ABA
330
18
100
AcDbEntity
  8
1
  6
Continuous
 48
0.25
100
AcDbCircle
 10
343.5214514830723
 20
283.1474477420536
 30
0.0
 40
0.5
100
AcDbArc
 50
180.0
 51
270.0
  0
LINE
  5
3ABB
330
18
100
AcDbEntity
  8
1
  6
Continuous
 48
0.25
100
AcDbLine
 10
343.0214514830723
 20
287.1474477420536
 30
0.0
 11
343.0214514830723
 21
283.1474477420536
 31
0.0
  0
LINE
  5
3ABC
330
18
100
AcDbEntity
  8
1
  6
Continuous
 48
0.25
100
AcDbLine
 10
352.4214514830764
 20
276.1474177421804
 30
0.0
 11
352.4214514830764
 21
268.1474177421801
 31
0.0
  0
LINE
  5
3ABD
330
18
100
AcDbEntity
  8
1
  6
Continuous
 48
0.25
100
AcDbLine
 10
348.2714634830219
 20
290.1474177420534
 30
0.0
 11
348.2714634830219
 21
276.1474177421803
 31
0.0
  0
LINE
  5
3ABE
330
18
100
AcDbEntity
  8
1
  6
Continuous
 48
0.25
100
AcDbLine
 10
347.2214514830764
 20
290.1474478983635
 30
0.0
 11
347.2214514830764
 21
283.1474177420892
 31
0.0
  0
LINE
  5
3ABF
330
18
100
AcDbEntity
  8
1
  6
Continuous
 48
0.25
100
AcDbLine
 10
347.2714634830207
 20
290.1474177420535
 30
0.0
 11
347.2714634830207
 21
283.1474177420892
 31
0.0
  0
LINE
  5
3AC0
330
18
100
AcDbEntity
  8
1
  6
Continuous
 48
0.25
100
AcDbLine
 10
345.6214514830764
 20
290.1474478983634
 30
0.0
 11
345.6214514830764
 21
282.9073416856036
 31
0.0
  0
LINE
  5
3AC1
330
18
100
AcDbEntity
  8
5
  6
PHANTOM
 48
0.15
100
AcDbLine
 10
353.7497558138019
 20
289.9162485119519
 30
0.0
 11
352.5560875465678
 21
268.95017060901
 31
0.0
  0
LINE
  5
3AC2
330
18
100
AcDbEntity
  8
1
  6
Continuous
 48
0.25
100
AcDbLine
 10
352.4214514830764
 20
268.1474177421801
 30
0.0
 11
345.6214514830764
 21
268.1474177421801
 31
0.0
  0
LINE
  5
3AC3
330
18
100
AcDbEntity
  8
5
  6
PHANTOM
 48
0.15
100
AcDbLine
 10
352.5560875465678
 20
268.95017060901
 30
0.0
 11
351.3580276725765
 21
269.0183801263289
 31
0.0
  0
LINE
  5
3AC4
330
18
100
AcDbEntity
  8
1
  6
Continuous
 48
0.25
100
AcDbLine
 10
351.7214514830763
 20
261.1474177420535
 30
0.0
 11
350.8214514830764
 21
261.1474177420535
 31
0.0
  0
LINE
  5
3AC5
330
18
100
AcDbEntity
  8
5
  6
PHANTOM
 48
0.15
100
AcDbLine
 10
351.6468135467177
 20
259.987364081503
 30
0.0
 11
350.846456292676
 21
260.0329310712386
 31
0.0
  0
LINE
  5
3AD0
330
18
100
AcDbEntity
  8
1
  6
Continuous
 48
0.25
100
AcDbLine
 10
345.6214514830764
 20
269.1474177420892
 30
0.0
 11
344.4214514831092
 21
269.1474177420892
 31
0.0
  0
LINE
  5
3AD2
330
18
100
AcDbEntity
  8
5
  6
PHANTOM
 48
0.15
100
AcDbLine
 10
350.846456292676
 20
260.0329310712387
 30
0.0
 11
351.3580276725766
 21
269.0183801263291
 31
0.0
  0
LINE
  5
3AD3
330
18
100
AcDbEntity
  8
1
  6
Continuous
 48
0.25
100
AcDbLine
 10
344.4214514831092
 20
260.1474177421806
 30
0.0
 11
344.4214514831092
 21
269.1474177420893
 31
0.0
  0
LINE
  5
3AD4
330
18
100
AcDbEntity
  8
5
  6
PHANTOM
 48
0.15
100
AcDbLine
 10
358.1914951240505
 20
260.6163730690993
 30
0.0
 11
357.2929502185324
 21
260.6675302070898
 31
0.0
  0
LINE
  5
3AD5
330
18
100
AcDbEntity
  8
5
  6
PHANTOM
 48
0.15
100
AcDbLine
 10
358.6622661060104
 20
260.0887608227057
 30
0.0
 11
358.1914951240506
 21
260.6163730690994
 31
0.0
  0
LINE
  5
3AD6
330
18
100
AcDbEntity
  8
1
  6
Continuous
 48
0.25
100
AcDbLine
 10
352.2214514830764
 20
260.6474177420536
 30
0.0
 11
351.7214514830764
 21
261.1474177420536
 31
0.0
  0
LINE
  5
3AD7
330
18
100
AcDbEntity
  8
5
  6
PHANTOM
 48
0.15
100
AcDbLine
 10
357.6908390695886
 20
267.6562128056902
 30
0.0
 11
357.2929502185539
 21
260.6675302070887
 31
0.0
  0
LINE
  5
3AD8
330
18
100
AcDbEntity
  8
1
  6
Continuous
 48
0.25
100
AcDbLine
 10
352.4214514830723
 20
286.8474477420536
 30
0.0
 11
349.4214514830723
 21
287.6474477420536
 31
0.0
  0
LINE
  5
3AD9
330
18
100
AcDbEntity
  8
1
  6
Continuous
 48
0.25
100
AcDbLine
 10
349.4214514830724
 20
282.6474477420537
 30
0.0
 11
352.4214514830724
 21
283.4474477420537
 31
0.0
  0
LINE
  5
3ADB
330
18
100
AcDbEntity
  8
1
  6
Continuous
 48
0.25
100
AcDbLine
 10
348.271463483022
 20
290.1474177420534
 30
0.0
 11
347.2714634830209
 21
290.1474177420535
 31
0.0
  0
LINE
  5
3ADC
330
18
100
AcDbEntity
  8
1
  6
Continuous
 48
0.25
100
AcDbLine
 10
347.2214514830764
 20
290.1474478983635
 30
0.0
 11
345.6214514830765
 21
290.1474478983635
 31
0.0
  0
LINE
  5
3ADD
330
18
100
AcDbEntity
  8
1
  6
Continuous
 48
0.25
100
AcDbLine
 10
347.2714634830207
 20
287.1474477420536
 30
0.0
 11
347.2214514830723
 21
287.1474477420536
 31
0.0
  0
LINE
  5
3ADE
330
18
100
AcDbEntity
  8
1
  6
Continuous
 48
0.25
100
AcDbLine
 10
348.4214514830723
 20
287.1474477420536
 30
0.0
 11
348.2714634830219
 21
287.1474477420536
 31
0.0
  0
LINE
  5
3ADF
330
18
100
AcDbEntity
  8
1
  6
Continuous
 48
0.25
100
AcDbLine
 10
349.4214514830724
 20
287.6474477420535
 30
0.0
 11
348.4214514830723
 21
287.6474477420535
 31
0.0
  0
LINE
  5
3AE0
330
18
100
AcDbEntity
  8
1
  6
Continuous
 48
0.25
100
AcDbLine
 10
345.6214514830723
 20
289.1474477420537
 30
0.0
 11
345.1214514830724
 21
289.1474477420537
 31
0.0
  0
LINE
  5
3AE1
330
18
100
AcDbEntity
  8
1
  6
Continuous
 48
0.25
100
AcDbLine
 10
347.2714634830214
 20
278.1474177420893
 30
0.0
 11
347.2214514830763
 21
278.1474177420319
 31
0.0
  0
LINE
  5
3AE3
330
18
100
AcDbEntity
  8
1
  6
Continuous
 48
0.25
100
AcDbLine
 10
348.4214514830723
 20
282.6474477420537
 30
0.0
 11
349.4214514830724
 21
282.6474477420537
 31
0.0
  0
LINE
  5
3AE6
330
18
100
AcDbEntity
  8
1
  6
Continuous
 48
0.25
100
AcDbLine
 10
345.271463483022
 20
279.1474177420893
 30
0.0
 11
345.271463483022
 21
281.1474477420536
 31
0.0
  0
LINE
  5
3AE7
330
18
100
AcDbEntity
  8
1
  6
Continuous
 48
0.25
100
AcDbLine
 10
345.1214514830724
 20
281.1474477420535
 30
0.0
 11
345.271463483022
 21
281.1474477420535
 31
0.0
  0
LINE
  5
3AE8
330
18
100
AcDbEntity
  8
1
  6
Continuous
 48
0.25
100
AcDbLine
 10
348.4214514830723
 20
287.6474477420535
 30
0.0
 11
348.4214514830723
 21
282.6474477420537
 31
0.0
  0
LINE
  5
3AE9
330
18
100
AcDbEntity
  8
1
  6
Continuous
 48
0.25
100
AcDbLine
 10
349.4214514830724
 20
287.6474477420535
 30
0.0
 11
349.4214514830724
 21
282.6474477420537
 31
0.0
  0
LINE
  5
3AEB
330
18
100
AcDbEntity
  8
1
  6
Continuous
 48
0.25
100
AcDbLine
 10
352.4214514830764
 20
276.1474177421804
 30
0.0
 11
345.6214525676887
 21
276.1474177421803
 31
0.0
  0
LINE
  5
3AEC
330
18
100
AcDbEntity
  8
5
  6
PHANTOM
 48
0.15
100
AcDbLine
 10
353.7497558138019
 20
289.9162485119519
 30
0.0
 11
356.3954816353602
 21
289.7655883715557
 31
0.0
  0
LINE
  5
3AED
330
18
100
AcDbEntity
  8
1
  6
Continuous
 48
0.25
100
AcDbLine
 10
352.4214514830724
 20
286.8474477420536
 30
0.0
 11
352.4214514830724
 21
283.4474477420535
 31
0.0
  0
LINE
  5
3AEE
330
18
100
AcDbEntity
  8
4
  6
CENTER
 48
0.1
100
AcDbLine
 10
351.9679746528467
 20
285.0095943326109
 30
0.0
 11
357.6088518259647
 21
284.6884396699861
 31
0.0
  0
LINE
  5
3AEF
330
18
100
AcDbEntity
  8
5
  6
PHANTOM
 48
0.15
100
AcDbLine
 10
358.145569185049
 20
275.6432786325189
 30
0.0
 11
355.599703933292
 21
275.7882231747334
 31
0.0
  0
LINE
  5
3AF0
330
18
100
AcDbEntity
  8
5
  6
PHANTOM
 48
0.15
100
AcDbLine
 10
356.3954816353602
 20
289.7655883715557
 30
0.0
 11
355.599703933292
 21
275.7882231747334
 31
0.0
  0
ARC
  5
3AF1
330
18
100
AcDbEntity
  8
1
  6
Continuous
 48
0.25
100
AcDbCircle
 10
345.121451504022
 20
296.1474477420535
 30
0.0
 40
1.6
100
AcDbArc
 50
90.0
 51
180.0
  0
LINE
  5
3AF2
330
18
100
AcDbEntity
  8
1
  6
Continuous
 48
0.25
100
AcDbLine
 10
353.7214514830723
 20
297.7474477420534
 30
0.0
 11
345.121451504022
 21
297.7474477420535
 31
0.0
  0
LINE
  5
3AF3
330
18
100
AcDbEntity
  8
1
  6
Continuous
 48
0.25
100
AcDbLine
 10
353.7214514830723
 20
296.1474477420535
 30
0.0
 11
345.1214514830723
 21
296.1474477420535
 31
0.0
  0
LINE
  5
3AF4
330
18
100
AcDbEntity
  8
4
  6
CENTER
 48
0.05
100
AcDbLine
 10
349.4214544995629
 20
294.6474477420535
 30
0.0
 11
349.4214544995629
 21
299.2474477420535
 31
0.0
  0
LINE
  5
3AF5
330
18
100
AcDbEntity
  8
1
  6
Continuous
 48
0.25
100
AcDbLine
 10
353.7214514830723
 20
297.7474477420534
 30
0.0
 11
353.7214514830723
 21
296.1474477420535
 31
0.0
  0
LINE
  5
3AF6
330
18
100
AcDbEntity
  8
5
  6
PHANTOM
 48
0.15
100
AcDbLine
 10
359.7429823504148
 20
275.5523326094246
 30
0.0
 11
359.288252234943
 21
267.5652667825966
 31
0.0
  0
ARC
  5
3DA6
330
18
100
AcDbEntity
  8
1
  6
Continuous
 48
0.25
100
AcDbCircle
 10
346.271463483022
 20
282.1474177420892
 30
0.0
 40
1.0
100
AcDbArc
 50
90.0
 51
180.0
  0
LINE
  5
3DA7
330
18
100
AcDbEntity
  8
1
  6
Continuous
 48
0.25
100
AcDbLine
 10
348.4214514830723
 20
283.1474477420536
 30
0.0
 11
346.271463483022
 21
283.1474177420892
 31
0.0
  0
ARC
  5
3DA8
330
18
100
AcDbEntity
  8
1
  6
Continuous
 48
0.25
100
AcDbCircle
 10
346.271463483022
 20
279.1474177420892
 30
0.0
 40
1.0
100
AcDbArc
 50
180.0
 51
270.0
  0
LINE
  5
3DA9
330
18
100
AcDbEntity
  8
1
  6
Continuous
 48
0.25
100
AcDbLine
 10
348.271463483022
 20
278.1474177420892
 30
0.0
 11
346.271463483022
 21
278.1474177420892
 31
0.0
  0
LINE
  5
3DAA
330
18
100
AcDbEntity
  8
1
  6
Continuous
 48
0.25
100
AcDbLine
 10
345.271463483022
 20
279.1474177420892
 30
0.0
 11
345.271463483022
 21
282.1474177420892
 31
0.0
  0
LINE
  5
3DAC
330
18
100
AcDbEntity
  8
1
  6
Continuous
 48
0.25
100
AcDbLine
 10
347.2714634830207
 20
278.1474177420893
 30
0.0
 11
347.2714634830207
 21
276.1474177421803
 31
0.0
  0
LINE
  5
3DAD
330
18
100
AcDbEntity
  8
1
  6
Continuous
 48
0.25
100
AcDbLine
 10
347.2214514830763
 20
278.1474177420319
 30
0.0
 11
347.2214514830763
 21
276.1474177421803
 31
0.0
  0
LINE
  5
3DAE
330
18
100
AcDbEntity
  8
1
  6
Continuous
 48
0.25
100
AcDbLine
 10
345.4214514831092
 20
260.4189810804144
 30
0.0
 11
345.4214514831092
 21
269.1474177420892
 31
0.0
  0
LINE
  5
3DB2
330
18
100
AcDbEntity
  8
1
  6
Continuous
 48
0.25
100
AcDbLine
 10
350.8214514831091
 20
253.1474177420535
 30
0.0
 11
350.8214514831091
 21
268.1474177421801
 31
0.0
  0
LINE
  5
3DB3
330
18
100
AcDbEntity
  8
1
  6
Continuous
 48
0.25
100
AcDbLine
 10
349.8214514830763
 20
253.1474177420535
 30
0.0
 11
349.8214514830763
 21
268.1474177421801
 31
0.0
  0
LINE
  5
3DB4
330
18
100
AcDbEntity
  8
1
  6
Continuous
 48
0.25
100
AcDbLine
 10
350.8214514831091
 20
253.1474177420535
 30
0.0
 11
349.8214514830763
 21
253.1474177420535
 31
0.0
  0
LINE
  5
3DB5
330
18
100
AcDbEntity
  8
1
  6
Continuous
 48
0.25
100
AcDbLine
 10
345.2231048275485
 20
260.1474177421805
 30
0.0
 11
344.4214514831092
 21
260.1474177421805
 31
0.0
  0
ARC
  5
3DB7
330
18
100
AcDbEntity
  8
1
  6
Continuous
 48
0.25
100
AcDbCircle
 10
349.2214514830764
 20
262.8474177420534
 30
0.0
 40
0.4
100
AcDbArc
 50
0.000000000000007
 51
180.0
  0
ARC
  5
3DB9
330
18
100
AcDbEntity
  8
1
  6
Continuous
 48
0.25
100
AcDbCircle
 10
348.4214514830763
 20
262.8474177420534
 30
0.0
 40
0.4
100
AcDbArc
 50
0.000000000000007
 51
180.0
  0
ARC
  5
6E05
330
18
100
AcDbEntity
  8
1
  6
Continuous
 48
0.25
100
AcDbCircle
 10
347.2214349427344
 20
211.1449137672564
 30
0.0
 40
1.6
100
AcDbArc
 50
110.1048790450011
 51
180.0
  0
LINE
  5
6E06
330
18
100
AcDbEntity
  8
1
  6
Continuous
 48
0.25
100
AcDbLine
 10
346.671451483077
 20
223.3974177419942
 30
0.0
 11
346.671451483077
 21
212.6474177419944
 31
0.0
  0
LINE
  5
6E08
330
18
100
AcDbEntity
  8
1
  6
Continuous
 48
0.25
100
AcDbLine
 10
346.671451483077
 20
212.8974177419943
 30
0.0
 11
348.2714502769984
 21
212.8974177419945
 31
0.0
  0
LINE
  5
6E09
330
18
100
AcDbEntity
  8
1
  6
Continuous
 48
0.25
100
AcDbLine
 10
346.671451483077
 20
223.3974177419942
 30
0.0
 11
348.271450277011
 21
223.3974177419942
 31
0.0
  0
LINE
  5
6E0A
330
18
100
AcDbEntity
  8
1
  6
Continuous
 48
0.25
100
AcDbLine
 10
346.1714502770101
 20
212.8974177419937
 30
0.0
 11
346.1714502770101
 21
223.6474177419935
 31
0.0
  0
LINE
  5
6E0D
330
18
100
AcDbEntity
  8
1
  6
Continuous
 48
0.25
100
AcDbLine
 10
346.1714502770101
 20
223.3974177419936
 30
0.0
 11
344.5714514830887
 21
223.3974177419934
 31
0.0
  0
ARC
  5
6E0F
330
18
100
AcDbEntity
  8
1
  6
Continuous
 48
0.25
100
AcDbCircle
 10
345.6214668173526
 20
225.1499217167315
 30
0.0
 40
1.6
100
AcDbArc
 50
290.1048790450011
 51
0.000000000000007
  0
LINE
  5
6E10
330
18
100
AcDbEntity
  8
1
  6
Continuous
 48
0.25
100
AcDbLine
 10
345.6214434930637
 20
212.8974177420143
 30
0.0
 11
345.621434942734
 21
146.1473854033429
 31
0.0
  0
LINE
  5
6E12
330
18
100
AcDbEntity
  8
1
  6
Continuous
 48
0.25
100
AcDbLine
 10
347.2214436504452
 20
211.3956135147629
 30
0.0
 11
347.221434942734
 21
146.1473854033429
 31
0.0
  0
LINE
  5
6E15
330
18
100
AcDbEntity
  8
1
  6
Continuous
100
AcDbLine
 10
346.671451483077
 20
222.1474177419939
 30
0.0
 11
346.1714502770101
 21
222.1474177419939
 31
0.0
  0
LINE
  5
6E16
330
18
100
AcDbEntity
  8
1
  6
Continuous
100
AcDbLine
 10
346.671451483077
 20
214.147417741994
 30
0.0
 11
346.1714502770101
 21
214.147417741994
 31
0.0
  0
LINE
  5
7596
330
18
100
AcDbEntity
  8
4
  6
CENTER
 48
0.08
100
AcDbLine
 10
148.771390886869
 20
401.7474092758899
 30
0.0
 11
153.3713908868691
 21
401.74740927589
 31
0.0
  0
LINE
  5
7597
330
18
100
AcDbEntity
  8
4
  6
CENTER
 48
0.08
100
AcDbLine
 10
148.771390886869
 20
381.7474092758896
 30
0.0
 11
153.371390886869
 21
381.7474092758898
 31
0.0
  0
LINE
  5
787A
330
18
100
AcDbEntity
  8
1
  6
Continuous
 48
0.25
100
AcDbLine
 10
39.27139146005098
 20
285.1474477420534
 30
0.0
 11
39.27139145996093
 21
283.147417742089
 31
0.0
  0
ARC
  5
798E
330
18
100
AcDbEntity
  8
5
  6
PHANTOM
 48
0.15
100
AcDbCircle
 10
23.27139146020297
 20
216.1474177418158
 30
0.0
 40
2.000000000241862
100
AcDbArc
 50
89.99999222218672
 51
195.9422600538627
  0
LINE
  5
798F
330
18
100
AcDbEntity
  8
5
  6
PHANTOM
 48
0.15
100
AcDbLine
 10
30.02139145998089
 20
218.1474166623999
 30
0.0
 11
23.27139173169971
 21
218.1474177420489
 31
0.0
  0
ARC
  5
7990
330
18
100
AcDbEntity
  8
5
  6
PHANTOM
 48
0.15
100
AcDbCircle
 10
-26.72863560003631
 20
201.8646556139748
 30
0.0
 40
50.0
100
AcDbArc
 50
350.6109983537843
 51
15.94226005386265
  0
ARC
  5
7991
330
18
100
AcDbEntity
  8
5
  6
PHANTOM
 48
0.15
100
AcDbCircle
 10
164.2713914599613
 20
167.7907172797576
 30
0.0
 40
144.0
100
AcDbArc
 50
170.6109983537843
 51
176.3022632304632
  0
LINE
  5
7992
330
18
100
AcDbEntity
  8
5
  6
PHANTOM
 48
0.15
100
AcDbLine
 10
22.20048816967815
 20
191.2823847021212
 30
0.0
 11
22.60153915353444
 21
193.7078266478762
 31
0.0
  0
LINE
  5
7993
330
18
100
AcDbEntity
  8
5
  6
PHANTOM
 48
0.15
100
AcDbLine
 10
17.27139145996128
 20
167.1474177420177
 30
0.0
 11
17.27139145996128
 21
176.1474177419264
 31
0.0
  0
ARC
  5
7994
330
18
100
AcDbEntity
  8
5
  6
PHANTOM
 48
0.15
100
AcDbCircle
 10
19.56238590868898
 20
177.1474177419264
 30
0.0
 40
1.0
100
AcDbArc
 50
270.0
 51
340.6737049165109
  0
LINE
  5
7995
330
18
100
AcDbEntity
  8
5
  6
PHANTOM
 48
0.15
100
AcDbLine
 10
19.56238590868898
 20
176.1474177419264
 30
0.0
 11
17.27139145996139
 21
176.1474177419264
 31
0.0
  0
ARC
  5
7996
330
18
100
AcDbEntity
  8
5
  6
PHANTOM
 48
0.15
100
AcDbCircle
 10
131.2714429781772
 20
173.6474522908544
 30
0.0
 40
100.0
100
AcDbArc
 50
166.7386102483741
 51
177.2815978068071
  0
ARC
  5
7997
330
18
100
AcDbEntity
  8
5
  6
PHANTOM
 48
0.15
100
AcDbCircle
 10
-14.72860854003883
 20
208.0565347645016
 30
0.0
 40
50.0
100
AcDbArc
 50
346.7386102483741
 51
0.000000000000007
  0
LINE
  5
7998
330
18
100
AcDbEntity
  8
5
  6
PHANTOM
 48
0.15
100
AcDbLine
 10
34.77141851996023
 20
160.1474177419269
 30
0.0
 11
34.77141851996023
 21
168.1474177419268
 31
0.0
  0
LINE
  5
7999
330
18
100
AcDbEntity
  8
5
  6
PHANTOM
 48
0.15
100
AcDbLine
 10
31.3839735936389
 20
178.3901793495111
 30
0.0
 11
32.74531164368184
 21
168.1474177419268
 31
0.0
  0
LINE
  5
799A
330
18
100
AcDbEntity
  8
5
  6
PHANTOM
 48
0.15
100
AcDbLine
 10
34.77141851996023
 20
168.1474177419268
 30
0.0
 11
32.74531164368184
 21
168.1474177419268
 31
0.0
  0
ARC
  5
799B
330
18
100
AcDbEntity
  8
5
  6
PHANTOM
 48
0.15
100
AcDbCircle
 10
164.2713914599613
 20
167.7907172797576
 30
0.0
 40
144.0
100
AcDbArc
 50
180.2559616046884
 51
183.6389170798831
  0
ARC
  5
799C
330
18
100
AcDbEntity
  8
5
  6
PHANTOM
 48
0.15
100
AcDbCircle
 10
13.2713914599615
 20
161.9453767131864
 30
0.0
 40
8.0
100
AcDbArc
 50
315.5846914028054
 51
335.6843332049361
  0
LINE
  5
799D
330
18
100
AcDbEntity
  8
5
  6
PHANTOM
 48
0.15
100
AcDbLine
 10
20.27139145996139
 20
167.1474177420177
 30
0.0
 11
17.27139145996139
 21
167.1474177420177
 31
0.0
  0
ARC
  5
799E
330
18
100
AcDbEntity
  8
5
  6
PHANTOM
 48
0.15
100
AcDbCircle
 10
20.27139145996139
 20
166.1474177420177
 30
0.0
 40
1.0
100
AcDbArc
 50
89.91766957950037
 51
90.0
  0
LINE
  5
799F
330
18
100
AcDbEntity
  8
5
  6
PHANTOM
 48
0.15
100
AcDbLine
 10
12.2713914599615
 20
138.5473877420533
 30
0.0
 11
12.2713914599615
 21
140.1473877420533
 31
0.0
  0
LINE
  5
79A0
330
18
100
AcDbEntity
  8
5
  6
PHANTOM
 48
0.15
100
AcDbLine
 10
12.2713914599615
 20
140.1473877420533
 30
0.0
 11
21.27139145996139
 21
140.1473877420533
 31
0.0
  0
ARC
  5
79A1
330
18
100
AcDbEntity
  8
5
  6
PHANTOM
 48
0.15
100
AcDbCircle
 10
23.27139145996127
 20
152.1474177420535
 30
0.0
 40
6.0
100
AcDbArc
 50
135.5846914028054
 51
250.5287793655107
  0
LINE
  5
79A2
330
18
100
AcDbEntity
  8
5
  6
PHANTOM
 48
0.15
100
AcDbLine
 10
21.27139145996139
 20
140.1473877420534
 30
0.0
 11
21.27139145996139
 21
146.490563492561
 31
0.0
  0
CIRCLE
  5
79A3
330
18
100
AcDbEntity
  8
5
  6
PHANTOM
 48
0.15
100
AcDbCircle
 10
26.2713914599615
 20
151.1473877420534
 30
0.0
 40
2.499999999999999
  0
LINE
  5
79A4
330
18
100
AcDbEntity
  8
5
  6
PHANTOM
 48
0.15
100
AcDbLine
 10
33.27139145996127
 20
158.1474177420177
 30
0.0
 11
32.05564445666962
 21
158.1474177420177
 31
0.0
  0
LINE
  5
79A5
330
18
100
AcDbEntity
  8
5
  6
PHANTOM
 48
0.15
100
AcDbLine
 10
32.17510394530401
 20
159.2546823205974
 30
0.0
 11
32.05564445666962
 21
158.1474177420177
 31
0.0
  0
ARC
  5
79A6
330
18
100
AcDbEntity
  8
5
  6
PHANTOM
 48
0.15
100
AcDbCircle
 10
33.16933445688702
 20
159.1474177419266
 30
0.0
 40
1.0
100
AcDbArc
 50
90.0
 51
173.8423456178853
  0
LINE
  5
79A7
330
18
100
AcDbEntity
  8
5
  6
PHANTOM
 48
0.15
100
AcDbLine
 10
33.27139145996127
 20
153.1474177420178
 30
0.0
 11
33.27139145996127
 21
158.1474177420178
 31
0.0
  0
LINE
  5
79A8
330
18
100
AcDbEntity
  8
5
  6
PHANTOM
 48
0.15
100
AcDbLine
 10
34.77141851996023
 20
160.1474177419267
 30
0.0
 11
33.16933445688702
 21
160.1474177419266
 31
0.0
  0
LINE
  5
79A9
330
18
100
AcDbEntity
  8
5
  6
PHANTOM
 48
0.15
100
AcDbLine
 10
33.27139145996139
 20
153.1474177420178
 30
0.0
 11
31.2713914599615
 21
153.1474177420178
 31
0.0
  0
LINE
  5
79AA
330
18
100
AcDbEntity
  8
5
  6
PHANTOM
 48
0.15
100
AcDbLine
 10
31.27139145996139
 20
140.1473877420534
 30
0.0
 11
31.27139145996139
 21
153.1474177420179
 31
0.0
  0
LINE
  5
79AB
330
18
100
AcDbEntity
  8
5
  6
PHANTOM
 48
0.15
100
AcDbLine
 10
40.27139145996151
 20
138.5473877420534
 30
0.0
 11
12.2713914599615
 21
138.5473877420533
 31
0.0
  0
LINE
  5
79AC
330
18
100
AcDbEntity
  8
5
  6
PHANTOM
 48
0.15
100
AcDbLine
 10
31.27139145996139
 20
140.1473877420534
 30
0.0
 11
40.27139145996161
 21
140.1473877420534
 31
0.0
  0
LINE
  5
79AD
330
18
100
AcDbEntity
  8
5
  6
PHANTOM
 48
0.15
100
AcDbLine
 10
40.27139145996161
 20
140.1473877420534
 30
0.0
 11
40.27139145996161
 21
138.5473877420534
 31
0.0
  0
ARC
  5
7A21
330
18
100
AcDbEntity
  8
1
  6
Continuous
 48
0.25
100
AcDbCircle
 10
142.5713908938599
 20
38.54742640444646
 30
0.0
 40
5.0
100
AcDbArc
 50
210.6834165816941
 51
283.2970716649354
  0
LINE
  5
7A22
330
18
100
AcDbEntity
  8
4
  6
CENTER
 48
0.25
100
AcDbLine
 10
153.9713908868689
 20
47.54742640444692
 30
0.0
 11
134.5713908868689
 21
47.54742640444692
 31
0.0
  0
LINE
  5
7A23
330
18
100
AcDbEntity
  8
4
  6
CENTER
 48
0.1
100
AcDbLine
 10
137.8213878703792
 20
57.54742640444646
 30
0.0
 11
147.3213878703791
 21
57.54742640444675
 31
0.0
  0
LINE
  5
7A24
330
18
100
AcDbEntity
  8
4
  6
CENTER
 48
0.1
100
AcDbLine
 10
137.8213878703792
 20
37.54742640444657
 30
0.0
 11
147.3213908868726
 21
37.54742640444669
 31
0.0
  0
ARC
  5
7A25
330
18
100
AcDbEntity
  8
1
  6
Continuous
 48
0.25
100
AcDbCircle
 10
142.5713878703791
 20
57.54742640444646
 30
0.0
 40
3.25
100
AcDbArc
 50
342.0803227278564
 51
244.4836715560059
  0
LINE
  5
7A26
330
18
100
AcDbEntity
  8
1
  6
Continuous
 48
0.25
100
AcDbLine
 10
138.2713908703792
 20
35.99595627958399
 30
0.0
 11
138.2713909033747
 21
59.0988965849166
 31
0.0
  0
LINE
  5
7A27
330
18
100
AcDbEntity
  8
1
  6
Continuous
 48
0.25
100
AcDbLine
 10
150.271390886869
 20
61.54742399602662
 30
0.0
 11
150.271390886869
 21
53.54742640445318
 31
0.0
  0
LINE
  5
7A28
330
18
100
AcDbEntity
  8
1
  6
Continuous
 48
0.25
100
AcDbLine
 10
151.8713908868689
 20
61.54742399602662
 30
0.0
 11
151.8713908868689
 21
53.54742640447671
 31
0.0
  0
LINE
  5
7A29
330
18
100
AcDbEntity
  8
1
  6
Continuous
 48
0.25
100
AcDbLine
 10
147.5713908868328
 20
53.27030205995839
 30
0.0
 11
147.5713908868328
 21
55.54745532595642
 31
0.0
  0
LINE
  5
7A2A
330
18
100
AcDbEntity
  8
1
  6
Continuous
 48
0.25
100
AcDbLine
 10
141.1713908867338
 20
55.54745532605547
 30
0.0
 11
141.1713908862386
 21
50.54742640444686
 31
0.0
  0
ARC
  5
7A2B
330
18
100
AcDbEntity
  8
1
  6
Continuous
 48
0.25
100
AcDbCircle
 10
142.771390886948
 20
55.14745532595643
 30
0.0
 40
0.4
100
AcDbArc
 50
0.000000000000007
 51
180.0
  0
LINE
  5
7A2E
330
18
100
AcDbEntity
  8
4
  6
CENTER
 48
0.1
100
AcDbLine
 10
142.5713878703791
 20
52.79742640444647
 30
0.0
 11
142.5713878703791
 21
62.29742640444647
 31
0.0
  0
LINE
  5
7A2F
330
18
100
AcDbEntity
  8
1
  6
Continuous
 48
0.25
100
AcDbLine
 10
143.7213788869271
 20
43.79745524023451
 30
0.0
 11
143.7213908868725
 21
33.29745541167852
 31
0.0
  0
LINE
  5
7A30
330
18
100
AcDbEntity
  8
1
  6
Continuous
 48
0.25
100
AcDbLine
 10
145.8213908868726
 20
33.29742640444694
 30
0.0
 11
145.8213908868726
 21
38.54742640423609
 31
0.0
  0
LINE
  5
7A31
330
18
100
AcDbEntity
  8
1
  6
Continuous
 48
0.25
100
AcDbLine
 10
150.2713908868691
 20
41.5474264044534
 30
0.0
 11
150.271390886869
 21
33.54742861651824
 31
0.0
  0
LINE
  5
7A32
330
18
100
AcDbEntity
  8
1
  6
Continuous
 48
0.25
100
AcDbLine
 10
151.871390886869
 20
41.5474264044302
 30
0.0
 11
151.871390886869
 21
33.54742861651824
 31
0.0
  0
LINE
  5
7A33
330
18
100
AcDbEntity
  8
1
  6
Continuous
 48
0.25
100
AcDbLine
 10
147.4213908868728
 20
41.9401567576878
 30
0.0
 11
147.4213908868728
 21
33.29742640444705
 31
0.0
  0
LINE
  5
7A34
330
18
100
AcDbEntity
  8
1
  6
Continuous
 48
0.25
100
AcDbLine
 10
145.3213848869329
 20
38.54742640423717
 30
0.0
 11
145.3213908868725
 21
33.29745541167852
 31
0.0
  0
ARC
  5
7A35
330
18
100
AcDbEntity
  8
1
  6
Continuous
 48
0.25
100
AcDbCircle
 10
142.5713878703791
 20
37.54742640444657
 30
0.0
 40
3.25
100
AcDbArc
 50
142.0221023875708
 51
290.7227751689453
  0
LINE
  5
7A36
330
18
100
AcDbEntity
  8
4
  6
CENTER
 48
0.1
100
AcDbLine
 10
142.5713878703791
 20
32.79742640444659
 30
0.0
 11
142.5713878703791
 21
42.29742640444658
 31
0.0
  0
LINE
  5
7A37
330
18
100
AcDbEntity
  8
1
  6
Continuous
 48
0.25
100
AcDbLine
 10
150.271390886869
 20
33.54742861651824
 30
0.0
 11
151.871390886869
 21
33.54742861651824
 31
0.0
  0
LINE
  5
7A38
330
18
100
AcDbEntity
  8
1
  6
Continuous
 48
0.25
100
AcDbLine
 10
145.8213908868726
 20
33.29742640444694
 30
0.0
 11
147.4213908868728
 21
33.29742640444694
 31
0.0
  0
LINE
  5
7A39
330
18
100
AcDbEntity
  8
1
  6
Continuous
 48
0.25
100
AcDbLine
 10
145.3213908868725
 20
33.29745541167852
 30
0.0
 11
143.721392092931
 21
33.29742640463706
 31
0.0
  0
LINE
  5
7A3A
330
18
100
AcDbEntity
  8
1
  6
Continuous
 48
0.25
100
AcDbLine
 10
144.2714067017545
 20
44.19337600694057
 30
0.0
 11
144.2714067017545
 21
44.54742640444528
 31
0.0
  0
LINE
  5
7A3B
330
18
100
AcDbEntity
  8
1
  6
Continuous
 48
0.25
100
AcDbLine
 10
142.7714067017545
 20
44.19337600694061
 30
0.0
 11
142.7714067017545
 21
44.54742640444607
 31
0.0
  0
LINE
  5
7A3C
330
18
100
AcDbEntity
  8
1
  6
Continuous
 48
0.25
100
AcDbLine
 10
144.7714061362921
 20
44.54742640444499
 30
0.0
 11
144.7713991568839
 21
38.5474264042384
 31
0.0
  0
LINE
  5
7A3D
330
18
100
AcDbEntity
  8
1
  6
Continuous
 48
0.25
100
AcDbLine
 10
146.371407427208
 20
44.5474264044441
 30
0.0
 11
146.371407427208
 21
38.54742640423486
 31
0.0
  0
LINE
  5
7A3E
330
18
100
AcDbEntity
  8
1
  6
Continuous
 48
0.25
100
AcDbLine
 10
146.8713908868725
 20
43.14742640445305
 30
0.0
 11
146.8713908868725
 21
44.54742640444385
 31
0.0
  0
LINE
  5
7A3F
330
18
100
AcDbEntity
  8
1
  6
Continuous
 48
0.25
100
AcDbLine
 10
148.4713908868728
 20
51.94742640447579
 30
0.0
 11
148.4713908868767
 21
43.14742640443068
 31
0.0
  0
LINE
  5
7A40
330
18
100
AcDbEntity
  8
1
  6
Continuous
 48
0.25
100
AcDbLine
 10
139.5713908868655
 20
50.7474282659574
 30
0.0
 11
139.5713908868655
 21
40.64742826595741
 31
0.0
  0
LINE
  5
7A41
330
18
100
AcDbEntity
  8
1
  6
Continuous
 48
0.25
100
AcDbLine
 10
142.3713908868656
 20
44.5474264044463
 30
0.0
 11
142.3713908868656
 21
41.95530707330192
 31
0.0
  0
LINE
  5
7A42
330
18
100
AcDbEntity
  8
1
  6
Continuous
 48
0.25
100
AcDbLine
 10
142.1713908868656
 20
42.54745532595649
 30
0.0
 11
142.1713908868656
 21
44.5474264044464
 31
0.0
  0
LINE
  5
7A43
330
18
100
AcDbEntity
  8
1
  6
Continuous
 48
0.25
100
AcDbLine
 10
141.1713908862208
 20
44.54742640444692
 30
0.0
 11
141.1713908865085
 21
40.64742826595741
 31
0.0
  0
LINE
  5
7A44
330
18
100
AcDbEntity
  8
1
  6
Continuous
 48
0.25
100
AcDbLine
 10
146.371407427208
 20
38.54742640423486
 30
0.0
 11
143.7213848869329
 21
38.5474264042407
 31
0.0
  0
LINE
  5
7A45
330
18
100
AcDbEntity
  8
1
  6
Continuous
100
AcDbLine
 10
145.8213908868726
 20
34.54742640444692
 30
0.0
 11
145.3213894583408
 21
34.54742640444692
 31
0.0
  0
ARC
  5
7A46
330
18
100
AcDbEntity
  8
1
  6
Continuous
 48
0.25
100
AcDbCircle
 10
148.4713908868725
 20
43.14742640445305
 30
0.0
 40
1.6
100
AcDbArc
 50
180.0
 51
270.0000000000065
  0
ARC
  5
7A47
330
18
100
AcDbEntity
  8
1
  6
Continuous
 48
0.25
100
AcDbCircle
 10
147.6213908868688
 20
40.24742640444697
 30
0.0
 40
0.3
100
AcDbArc
 50
0.000000000000007
 51
90.0
  0
ARC
  5
7A48
330
18
100
AcDbEntity
  8
1
  6
Continuous
 48
0.25
100
AcDbCircle
 10
147.6213908868688
 20
36.84742640444687
 30
0.0
 40
0.3
100
AcDbArc
 50
270.0
 51
0.000000000000007
  0
LINE
  5
7A49
330
18
100
AcDbEntity
  8
1
  6
Continuous
 48
0.25
100
AcDbLine
 10
150.271390886869
 20
41.54742640445316
 30
0.0
 11
148.4713908868728
 21
41.54742640445294
 31
0.0
  0
LINE
  5
7A4A
330
18
100
AcDbEntity
  8
1
  6
Continuous
 48
0.25
100
AcDbLine
 10
147.9213908868689
 20
40.24742640444697
 30
0.0
 11
147.9213908868689
 21
36.84742640444687
 31
0.0
  0
LINE
  5
7A4B
330
18
100
AcDbEntity
  8
1
  6
Continuous
 48
0.25
100
AcDbLine
 10
147.4213908868689
 20
36.54742640444692
 30
0.0
 11
147.6213908868688
 21
36.54742640444692
 31
0.0
  0
LINE
  5
7A4C
330
18
100
AcDbEntity
  8
1
  6
Continuous
 48
0.25
100
AcDbLine
 10
147.6213908868688
 20
40.54742640444692
 30
0.0
 11
147.4213908868689
 21
40.54742640444692
 31
0.0
  0
LINE
  5
7A4D
330
18
100
AcDbEntity
  8
1
  6
Continuous
 48
0.25
100
AcDbLine
 10
151.871390886869
 20
36.23080382616262
 30
0.0
 11
150.271390886869
 21
36.23080382616262
 31
0.0
  0
LINE
  5
7A4E
330
18
100
AcDbEntity
  8
1
  6
Continuous
 48
0.25
100
AcDbLine
 10
148.4713908868727
 20
43.14742640443068
 30
0.0
 11
150.2713908868695
 21
43.14742640443011
 31
0.0
  0
ARC
  5
7A4F
330
18
100
AcDbEntity
  8
1
  6
Continuous
 48
0.25
100
AcDbCircle
 10
150.271390886869
 20
41.5474264044302
 30
0.0
 40
1.6
100
AcDbArc
 50
0.000000000000007
 51
89.99999999998047
  0
LINE
  5
7A50
330
18
100
AcDbEntity
  8
1
  6
Continuous
 48
0.25
100
AcDbLine
 10
146.8713908868725
 20
43.79742640444692
 30
0.0
 11
146.371407427208
 21
43.79742640444692
 31
0.0
  0
LINE
  5
7A51
330
18
100
AcDbEntity
  8
4
  6
CENTER
 48
0.08
100
AcDbLine
 10
148.771390886869
 20
37.54742640444669
 30
0.0
 11
153.3713908868689
 21
37.54742640444675
 31
0.0
  0
LINE
  5
7A52
330
18
100
AcDbEntity
  8
1
  6
Continuous
 48
0.25
100
AcDbLine
 10
142.2213908868619
 20
41.90147894102763
 30
0.0
 11
142.2213908868619
 21
35.19337386757291
 31
0.0
  0
ARC
  5
7A53
330
18
100
AcDbEntity
  8
1
  6
Continuous
 48
0.25
100
AcDbCircle
 10
142.5713878703791
 20
37.54742640444657
 30
0.0
 40
1.85
100
AcDbArc
 50
125.8246758695445
 51
259.0946251439922
  0
ARC
  5
7A54
330
18
100
AcDbEntity
  8
1
  6
Continuous
 48
0.25
100
AcDbCircle
 10
141.1713908868655
 20
40.64742826595743
 30
0.0
 40
1.6
100
AcDbArc
 50
180.0
 51
270.0
  0
LINE
  5
7A55
330
18
100
AcDbEntity
  8
1
  6
Continuous
 48
0.25
100
AcDbLine
 10
141.1713908865086
 20
40.64742826595741
 30
0.0
 11
142.2213908868619
 21
40.64742826595743
 31
0.0
  0
ARC
  5
7A56
330
18
100
AcDbEntity
  8
1
  6
Continuous
 48
0.25
100
AcDbCircle
 10
142.9713836808639
 20
37.04742640430025
 30
0.0
 40
2.0
100
AcDbArc
 50
247.9756871629578
 51
292.0243128370421
  0
ARC
  5
7A57
330
18
100
AcDbEntity
  8
1
  6
Continuous
 48
0.25
100
AcDbCircle
 10
142.9713836808639
 20
40.04742640430025
 30
0.0
 40
2.0
100
AcDbArc
 50
67.97568716295785
 51
112.0243128370421
  0
ARC
  5
7A58
330
18
100
AcDbEntity
  8
1
  6
Continuous
 48
0.25
100
AcDbCircle
 10
145.3203470806206
 20
43.79748158387821
 30
0.0
 40
1.598966118462438
100
AcDbArc
 50
170.5597127621603
 51
180.0009409012585
  0
ARC
  5
7A59
330
18
100
AcDbEntity
  8
1
  6
Continuous
 48
0.25
100
AcDbCircle
 10
143.5214067017545
 20
46.0474256287145
 30
0.0
 40
2.0
100
AcDbArc
 50
247.9756871629578
 51
292.0243128370421
  0
LINE
  5
7A5A
330
18
100
AcDbEntity
  8
1
  6
Continuous
 48
0.25
100
AcDbLine
 10
141.1713908868655
 20
39.04742826595742
 30
0.0
 11
142.2213908868619
 21
39.04742826595742
 31
0.0
  0
LINE
  5
7A5B
330
18
100
AcDbEntity
  8
1
  6
Continuous
 48
0.25
100
AcDbLine
 10
142.3713908868656
 20
43.54745532595648
 30
0.0
 11
142.1713908868656
 21
43.54745532595648
 31
0.0
  0
LINE
  5
7A5C
330
18
100
AcDbEntity
  8
1
  6
Continuous
 48
0.25
100
AcDbLine
 10
141.1713908862149
 20
42.54745532595649
 30
0.0
 11
142.1713908868656
 21
42.54745532595649
 31
0.0
  0
LINE
  5
7A5E
330
18
100
AcDbEntity
  8
1
  6
Continuous
 48
0.25
100
AcDbLine
 10
143.1713908868657
 20
42.03740055426988
 30
0.0
 11
143.1713908868657
 21
44.07829157301192
 31
0.0
  0
ARC
  5
7A5F
330
18
100
AcDbEntity
  8
1
  6
Continuous
 48
0.25
100
AcDbCircle
 10
143.5713908868657
 20
42.84742640444703
 30
0.0
 40
0.4
100
AcDbArc
 50
180.0
 51
292.0226919181587
  0
LINE
  5
7A61
330
18
100
AcDbEntity
  8
1
  6
Continuous
 48
0.25
100
AcDbLine
 10
146.371407427208
 20
53.54744375767172
 30
0.0
 11
144.7713975030026
 21
53.54744375767172
 31
0.0
  0
LINE
  5
7A62
330
18
100
AcDbEntity
  8
1
  6
Continuous
 48
0.25
100
AcDbLine
 10
140.2713908868656
 20
50.54745532595655
 30
0.0
 11
148.4713908868699
 21
50.54742640444294
 31
0.0
  0
LINE
  5
7A63
330
18
100
AcDbEntity
  8
1
  6
Continuous
 48
0.25
100
AcDbLine
 10
140.2713908868656
 20
44.54745532595653
 30
0.0
 11
148.4713908868773
 21
44.54742640444293
 31
0.0
  0
LINE
  5
7A64
330
18
100
AcDbEntity
  8
1
  6
Continuous
 48
0.25
100
AcDbLine
 10
146.371407427208
 20
50.54742640444407
 30
0.0
 11
146.3713975030026
 21
53.54744375767172
 31
0.0
  0
LINE
  5
7A65
330
18
100
AcDbEntity
  8
1
  6
Continuous
 48
0.25
100
AcDbLine
 10
146.8713908868725
 20
50.54742640444385
 30
0.0
 11
146.8713908868725
 21
51.94742640445304
 31
0.0
  0
ARC
  5
7A66
330
18
100
AcDbEntity
  8
1
  6
Continuous
 48
0.25
100
AcDbCircle
 10
148.4713908868725
 20
51.94742640445304
 30
0.0
 40
1.6
100
AcDbArc
 50
90.00000000000651
 51
180.0
  0
LINE
  5
7A67
330
18
100
AcDbEntity
  8
1
  6
Continuous
 48
0.25
100
AcDbLine
 10
148.9713908868696
 20
49.54742640444692
 30
0.0
 11
148.9713908868696
 21
45.54742640444692
 31
0.0
  0
LINE
  5
7A68
330
18
100
AcDbEntity
  8
1
  6
Continuous
 48
0.25
100
AcDbLine
 10
150.2713908868699
 20
51.94742640447691
 30
0.0
 11
148.4713908868728
 21
51.94742640447579
 31
0.0
  0
ARC
  5
7A69
330
18
100
AcDbEntity
  8
1
  6
Continuous
 48
0.25
100
AcDbCircle
 10
148.4713908868728
 20
49.54742640444681
 30
0.0
 40
0.5
100
AcDbArc
 50
0.000000000000007
 51
90.0
  0
ARC
  5
7A6A
330
18
100
AcDbEntity
  8
1
  6
Continuous
 48
0.25
100
AcDbCircle
 10
148.4713908868728
 20
45.54742640444681
 30
0.0
 40
0.5
100
AcDbArc
 50
270.0
 51
0.000000000000007
  0
LINE
  5
7A6B
330
18
100
AcDbEntity
  8
1
  6
Continuous
 48
0.25
100
AcDbLine
 10
148.4713908868724
 20
53.54742640445294
 30
0.0
 11
150.271390886869
 21
53.54742640445318
 31
0.0
  0
ARC
  5
7A6C
330
18
100
AcDbEntity
  8
1
  6
Continuous
 48
0.25
100
AcDbCircle
 10
150.271390886869
 20
53.54742640447671
 30
0.0
 40
1.6
100
AcDbArc
 50
270.0000000000325
 51
0.000000000000007
  0
LINE
  5
7A6D
330
18
100
AcDbEntity
  8
1
  6
Continuous
 48
0.25
100
AcDbLine
 10
146.5713908868328
 20
50.54742640444397
 30
0.0
 11
146.5713908868329
 21
55.5474553259564
 31
0.0
  0
LINE
  5
7A6E
330
18
100
AcDbEntity
  8
1
  6
Continuous
 48
0.25
100
AcDbLine
 10
140.2713908868656
 20
50.54745532595655
 30
0.0
 11
140.2713908868656
 21
44.54745532595653
 31
0.0
  0
LINE
  5
7A6F
330
18
100
AcDbEntity
  8
1
  6
Continuous
 48
0.25
100
AcDbLine
 10
139.7713908868656
 20
50.04745532595655
 30
0.0
 11
140.2713908868656
 21
50.54745532595655
 31
0.0
  0
LINE
  5
7A70
330
18
100
AcDbEntity
  8
1
  6
Continuous
 48
0.25
100
AcDbLine
 10
139.7713908868656
 20
45.04745532595655
 30
0.0
 11
139.7713908868656
 21
50.04745532595655
 31
0.0
  0
LINE
  5
7A71
330
18
100
AcDbEntity
  8
1
  6
Continuous
 48
0.25
100
AcDbLine
 10
140.2713908868656
 20
44.54745532595653
 30
0.0
 11
139.7713908868656
 21
45.04745532595655
 31
0.0
  0
LINE
  5
7A72
330
18
100
AcDbEntity
  8
1
  6
Continuous
 48
0.25
100
AcDbLine
 10
142.7714067017545
 20
50.90147525048843
 30
0.0
 11
142.7714067017545
 21
50.54742640444601
 31
0.0
  0
LINE
  5
7A73
330
18
100
AcDbEntity
  8
1
  6
Continuous
 48
0.25
100
AcDbLine
 10
144.2714067017545
 20
50.54742640444522
 30
0.0
 11
144.2714067017545
 21
50.90147525048843
 31
0.0
  0
LINE
  5
7A74
330
18
100
AcDbEntity
  8
1
  6
Continuous
 48
0.25
100
AcDbLine
 10
144.7713966399799
 20
53.54744375767172
 30
0.0
 11
144.771407427208
 21
50.54742640444493
 31
0.0
  0
LINE
  5
7A75
330
18
100
AcDbEntity
  8
1
  6
Continuous
 48
0.25
100
AcDbLine
 10
140.871390886869
 20
50.54742640444704
 30
0.0
 11
140.8713908868689
 21
44.54742640444703
 31
0.0
  0
ARC
  5
7A76
330
18
100
AcDbEntity
  8
1
  6
Continuous
 48
0.25
100
AcDbCircle
 10
143.5214067017545
 20
49.04742562871451
 30
0.0
 40
2.0
100
AcDbArc
 50
67.97568716295785
 51
112.0243128370421
  0
LINE
  5
7A77
330
18
100
AcDbEntity
  8
1
  6
Continuous
 48
0.25
100
AcDbLine
 10
142.1713908867391
 20
55.54745532595642
 30
0.0
 11
142.1713908862385
 21
50.54742640434785
 31
0.0
  0
LINE
  5
7A78
330
18
100
AcDbEntity
  8
1
  6
Continuous
 48
0.25
100
AcDbLine
 10
141.1713908868656
 20
50.7474282659574
 30
0.0
 11
139.5713908868655
 21
50.7474282659574
 31
0.0
  0
LINE
  5
7A79
330
18
100
AcDbEntity
  8
1
  6
Continuous
 48
0.25
100
AcDbLine
 10
143.9713908868657
 20
52.24742640444679
 30
0.0
 11
143.9713908868657
 21
51.01655968441708
 31
0.0
  0
LINE
  5
7A7A
330
18
100
AcDbEntity
  8
1
  6
Continuous
 48
0.25
100
AcDbLine
 10
142.3713908868656
 20
50.54742640444624
 30
0.0
 11
142.3713908869481
 21
55.14745532595643
 31
0.0
  0
LINE
  5
7A7B
330
18
100
AcDbEntity
  8
1
  6
Continuous
 48
0.25
100
AcDbLine
 10
142.1713908868656
 20
53.37981742244
 30
0.0
 11
141.1713908862469
 21
53.37981742244
 31
0.0
  0
LINE
  5
7A7C
330
18
100
AcDbEntity
  8
1
  6
Continuous
 48
0.25
100
AcDbLine
 10
143.1713908868657
 20
55.14745532595643
 30
0.0
 11
143.1713908868657
 21
50.99614680762903
 31
0.0
  0
ARC
  5
7A7D
330
18
100
AcDbEntity
  8
1
  6
Continuous
 48
0.25
100
AcDbCircle
 10
143.5713908868657
 20
52.24742640444679
 30
0.0
 40
0.4
100
AcDbArc
 50
0.000000000000007
 51
180.0
  0
ARC
  5
7A7E
330
18
100
AcDbEntity
  8
1
  6
Continuous
 48
0.25
100
AcDbCircle
 10
144.3713908868658
 20
52.24742640444679
 30
0.0
 40
0.4
100
AcDbArc
 50
0.000000000000007
 51
180.0
  0
LINE
  5
7A7F
330
18
100
AcDbEntity
  8
1
  6
Continuous
100
AcDbLine
 10
142.3713908868656
 20
51.5473974829374
 30
0.0
 11
142.1713908868656
 21
51.5473974829374
 31
0.0
  0
ARC
  5
7A80
330
18
100
AcDbEntity
  8
1
  6
Continuous
 48
0.25
100
AcDbCircle
 10
142.5713908938599
 20
56.54742640444647
 30
0.0
 40
5.0
100
AcDbArc
 50
30.68341689530895
 51
149.316582677359
  0
LINE
  5
7A81
330
18
100
AcDbEntity
  8
1
  6
Continuous
 48
0.25
100
AcDbLine
 10
146.5713908868328
 20
55.54745532595642
 30
0.0
 11
142.1713908867391
 21
55.54745532595642
 31
0.0
  0
LINE
  5
7A82
330
18
100
AcDbEntity
  8
1
  6
Continuous
 48
0.25
100
AcDbLine
 10
146.5713908868328
 20
56.54745532595644
 30
0.0
 11
142.1713908867338
 21
56.54745532595644
 31
0.0
  0
LINE
  5
7A83
330
18
100
AcDbEntity
  8
1
  6
Continuous
 48
0.25
100
AcDbLine
 10
146.8713909033748
 20
59.09889655284554
 30
0.0
 11
146.8713908968338
 21
56.50139452422826
 31
0.0
  0
LINE
  5
7A84
330
18
100
AcDbEntity
  8
1
  6
Continuous
 48
0.25
100
AcDbLine
 10
151.8713908868689
 20
61.54742399602662
 30
0.0
 11
150.271390886869
 21
61.54742399602662
 31
0.0
  0
LINE
  5
7A85
330
18
100
AcDbEntity
  8
1
  6
Continuous
 48
0.25
100
AcDbLine
 10
151.8713908868689
 20
58.86404878638188
 30
0.0
 11
150.271390886869
 21
58.86404878638188
 31
0.0
  0
ARC
  5
7A86
330
18
100
AcDbEntity
  8
1
  6
Continuous
 48
0.25
100
AcDbCircle
 10
146.5713908868328
 20
55.54745532595642
 30
0.0
 40
1.0
100
AcDbArc
 50
0.000000000000007
 51
90.0
  0
LINE
  5
7A87
330
18
100
AcDbEntity
  8
4
  6
CENTER
 48
0.08
100
AcDbLine
 10
148.771390886869
 20
57.54742640444681
 30
0.0
 11
153.371390886869
 21
57.54742640444693
 31
0.0
  0
ARC
  5
7A88
330
18
100
AcDbEntity
  8
1
  6
Continuous
 48
0.25
100
AcDbCircle
 10
142.5713878703791
 20
57.54742640444646
 30
0.0
 40
1.85
100
AcDbArc
 50
327.2806212891437
 51
229.4111275587776
  0
ARC
  5
7A89
330
18
100
AcDbEntity
  8
1
  6
Continuous
 48
0.25
100
AcDbCircle
 10
142.1713908867338
 20
55.54745532595642
 30
0.0
 40
1.0
100
AcDbArc
 50
90.0
 51
179.9999999943244
  0
ARC
  5
90B0
330
18
100
AcDbEntity
  8
1
  6
Continuous
 48
0.25
100
AcDbCircle
 10
43.0168116631111
 20
185.0370037040531
 30
0.0
 40
0.22226115795
100
AcDbArc
 50
90.0
 51
169.8959999999996
  0
ARC
  5
90B1
330
18
100
AcDbEntity
  8
1
  6
Continuous
 48
0.25
100
AcDbCircle
 10
42.80839953611111
 20
184.8592669550532
 30
0.0
 40
0.04445223159
100
AcDbArc
 50
172.2069999999995
 51
270.0
  0
LINE
  5
90B2
330
18
100
AcDbEntity
  8
1
  6
Continuous
 48
0.25
100
AcDbLine
 10
42.75787538411111
 20
183.4815815960532
 30
0.0
 11
45.78481341911106
 21
183.4815815960532
 31
0.0
  0
LINE
  5
90B3
330
18
100
AcDbEntity
  8
1
  6
Continuous
 48
0.25
100
AcDbLine
 10
42.72088448711111
 20
183.9254723600531
 30
0.0
 11
45.82180431611106
 21
183.9254723600531
 31
0.0
  0
LINE
  5
90B4
330
18
100
AcDbEntity
  8
1
  6
Continuous
 48
0.25
100
AcDbLine
 10
42.72088448711111
 20
184.3702653410532
 30
0.0
 11
45.82180431611106
 21
184.3702653410532
 31
0.0
  0
ARC
  5
90B5
330
18
100
AcDbEntity
  8
1
  6
Continuous
 48
0.25
100
AcDbCircle
 10
48.00426723911112
 20
184.1474177420532
 30
0.0
 40
5.73293041659
100
AcDbArc
 50
144.4620000000002
 51
215.5376999999992
  0
ARC
  5
90B6
330
18
100
AcDbEntity
  8
1
  6
Continuous
 48
0.25
100
AcDbCircle
 10
48.00426723911112
 20
184.1474177420532
 30
0.0
 40
5.2885253889
100
AcDbArc
 50
169.8959999999996
 51
172.2069999999995
  0
ARC
  5
90B7
330
18
100
AcDbEntity
  8
1
  6
Continuous
 48
0.25
100
AcDbCircle
 10
40.5384215641111
 20
184.1474177420532
 30
0.0
 40
5.73293041659
100
AcDbArc
 50
324.4620000000002
 51
35.53799999999972
  0
LINE
  5
90B8
330
18
100
AcDbEntity
  8
1
  6
Continuous
 48
0.25
100
AcDbLine
 10
43.73768304611107
 20
183.0367886150531
 30
0.0
 11
42.88959906611107
 21
183.0367886150531
 31
0.0
  0
ARC
  5
90B9
330
18
100
AcDbEntity
  8
1
  6
Continuous
 48
0.25
100
AcDbCircle
 10
42.88959906611107
 20
182.9925799820532
 30
0.0
 40
0.04445223159
100
AcDbArc
 50
90.0
 51
192.7289000000001
  0
ARC
  5
90BA
330
18
100
AcDbEntity
  8
1
  6
Continuous
 48
0.25
100
AcDbCircle
 10
48.00426723911112
 20
184.1474177420532
 30
0.0
 40
5.2885253889
100
AcDbArc
 50
192.7289000000001
 51
193.2680999999998
  0
ARC
  5
90BB
330
18
100
AcDbEntity
  8
1
  6
Continuous
 48
0.25
100
AcDbCircle
 10
48.00426723911112
 20
184.1474177420532
 30
0.0
 40
5.2885253889
100
AcDbArc
 50
193.2680999999998
 51
195.2574999999999
  0
LINE
  5
90BC
330
18
100
AcDbEntity
  8
1
  6
Continuous
 48
0.25
100
AcDbLine
 10
44.27089329311106
 20
183.9254723600531
 30
0.0
 11
44.27089329311106
 21
183.4815815960532
 31
0.0
  0
ARC
  5
90BD
330
18
100
AcDbEntity
  8
1
  6
Continuous
 48
0.25
100
AcDbCircle
 10
40.5384215641111
 20
184.1474177420532
 30
0.0
 40
5.2885253889
100
AcDbArc
 50
344.742
 51
344.7939999999999
  0
ARC
  5
90BE
330
18
100
AcDbEntity
  8
1
  6
Continuous
 48
0.25
100
AcDbCircle
 10
40.5384215641111
 20
184.1474177420532
 30
0.0
 40
5.2885253889
100
AcDbArc
 50
344.7939999999999
 51
347.2710000000003
  0
ARC
  5
90BF
330
18
100
AcDbEntity
  8
1
  6
Continuous
 48
0.25
100
AcDbCircle
 10
45.65308973711113
 20
182.9925799820532
 30
0.0
 40
0.04445223159
100
AcDbArc
 50
347.2710000000003
 51
90.0
  0
LINE
  5
90C0
330
18
100
AcDbEntity
  8
1
  6
Continuous
 48
0.25
100
AcDbLine
 10
45.6530897371111
 20
183.0367886150531
 30
0.0
 11
44.80410354011107
 21
183.0367886150531
 31
0.0
  0
ARC
  5
90C1
330
18
100
AcDbEntity
  8
1
  6
Continuous
 48
0.25
100
AcDbCircle
 10
44.27089329311107
 20
181.4813665070532
 30
0.0
 40
1.14531937065
100
AcDbArc
 50
215.5376999999992
 51
256.5373999999994
  0
ARC
  5
90C2
330
18
100
AcDbEntity
  8
1
  6
Continuous
 48
0.25
100
AcDbCircle
 10
43.45168025711113
 20
181.9261594880531
 30
0.0
 40
0.22226115795
100
AcDbArc
 50
206.0143999999998
 51
270.0
  0
ARC
  5
90C3
330
18
100
AcDbEntity
  8
1
  6
Continuous
 48
0.25
100
AcDbCircle
 10
48.00426723911112
 20
184.1474177420532
 30
0.0
 40
5.2885253889
100
AcDbArc
 50
202.944
 51
206.0143999999998
  0
ARC
  5
90C4
330
18
100
AcDbEntity
  8
1
  6
Continuous
 48
0.25
100
AcDbCircle
 10
43.1746996381111
 20
182.1038962370532
 30
0.0
 40
0.04445223159
100
AcDbArc
 50
90.0
 51
202.944
  0
ARC
  5
90C5
330
18
100
AcDbEntity
  8
1
  6
Continuous
 48
0.25
100
AcDbCircle
 10
44.27089329311107
 20
181.4813665070532
 30
0.0
 40
1.14531937065
100
AcDbArc
 50
270.0
 51
324.4620000000002
  0
ARC
  5
90C6
330
18
100
AcDbEntity
  8
1
  6
Continuous
 48
0.25
100
AcDbCircle
 10
45.09100854611107
 20
181.9261594880531
 30
0.0
 40
0.22226115795
100
AcDbArc
 50
270.0
 51
333.9859999999999
  0
ARC
  5
90C7
330
18
100
AcDbEntity
  8
1
  6
Continuous
 48
0.25
100
AcDbCircle
 10
45.36708694811111
 20
182.1038962370532
 30
0.0
 40
0.04445223159
100
AcDbArc
 50
337.0559999999999
 51
90.0
  0
ARC
  5
90C8
330
18
100
AcDbEntity
  8
1
  6
Continuous
 48
0.25
100
AcDbCircle
 10
40.5384215641111
 20
184.1474177420532
 30
0.0
 40
5.2885253889
100
AcDbArc
 50
333.9859999999999
 51
337.0559999999999
  0
LINE
  5
90C9
330
18
100
AcDbEntity
  8
1
  6
Continuous
 48
0.25
100
AcDbLine
 10
43.05199812611106
 20
181.2594211250532
 30
0.0
 11
44.96830703411109
 21
181.2594211250532
 31
0.0
  0
LINE
  5
90CA
330
18
100
AcDbEntity
  8
1
  6
Continuous
 48
0.25
100
AcDbLine
 10
45.09100854611104
 20
181.7033118890532
 30
0.0
 11
43.45168025711112
 21
181.7033118890532
 31
0.0
  0
LINE
  5
90CB
330
18
100
AcDbEntity
  8
1
  6
Continuous
 48
0.25
100
AcDbLine
 10
43.17469963811109
 20
182.1481048700531
 30
0.0
 11
45.3670869481111
 21
182.1481048700531
 31
0.0
  0
LINE
  5
90CC
330
18
100
AcDbEntity
  8
1
  6
Continuous
 48
0.25
100
AcDbLine
 10
43.11695775011108
 20
182.5919956340532
 30
0.0
 11
45.42573105311109
 21
182.5919956340532
 31
0.0
  0
ARC
  5
90CD
330
18
100
AcDbEntity
  8
1
  6
Continuous
 48
0.25
100
AcDbCircle
 10
43.11695775011108
 20
182.8148432330532
 30
0.0
 40
0.22226115795
100
AcDbArc
 50
195.2574999999999
 51
270.0
  0
ARC
  5
90CE
330
18
100
AcDbEntity
  8
1
  6
Continuous
 48
0.25
100
AcDbCircle
 10
45.4257310531111
 20
182.8148432330532
 30
0.0
 40
0.22226115795
100
AcDbArc
 50
270.0
 51
344.742
  0
LINE
  5
90CF
330
18
100
AcDbEntity
  8
1
  6
Continuous
 48
0.25
100
AcDbLine
 10
43.73768304611107
 20
185.2589490860532
 30
0.0
 11
43.0168116631111
 21
185.2589490860532
 31
0.0
  0
LINE
  5
90D0
330
18
100
AcDbEntity
  8
1
  6
Continuous
 48
0.25
100
AcDbLine
 10
43.01951831411108
 20
186.1476328310532
 30
0.0
 11
44.0489479111111
 21
186.1476328310532
 31
0.0
  0
LINE
  5
90D1
330
18
100
AcDbEntity
  8
1
  6
Continuous
 48
0.25
100
AcDbLine
 10
44.0489479111111
 20
186.5924258120532
 30
0.0
 11
43.09981562711107
 21
186.5924258120532
 31
0.0
  0
LINE
  5
90D2
330
18
100
AcDbEntity
  8
1
  6
Continuous
 48
0.25
100
AcDbLine
 10
44.27089329311106
 20
185.2589490860532
 30
0.0
 11
44.27089329311106
 21
185.0370037040531
 31
0.0
  0
ARC
  5
90D3
330
18
100
AcDbEntity
  8
1
  6
Continuous
 48
0.25
100
AcDbCircle
 10
45.52587714011111
 20
185.0370037040531
 30
0.0
 40
0.22226115795
100
AcDbArc
 50
10.10400000000032
 51
90.0
  0
ARC
  5
90D4
330
18
100
AcDbEntity
  8
1
  6
Continuous
 48
0.25
100
AcDbCircle
 10
45.73428926711109
 20
184.8592669550532
 30
0.0
 40
0.04445223159
100
AcDbArc
 50
270.0
 51
7.793000000000374
  0
ARC
  5
90D5
330
18
100
AcDbEntity
  8
1
  6
Continuous
 48
0.25
100
AcDbCircle
 10
40.5384215641111
 20
184.1474177420532
 30
0.0
 40
5.2885253889
100
AcDbArc
 50
7.793000000000374
 51
10.10400000000032
  0
LINE
  5
90D6
330
18
100
AcDbEntity
  8
1
  6
Continuous
 48
0.25
100
AcDbLine
 10
45.5258771401111
 20
185.2589490860532
 30
0.0
 11
44.27089329311106
 21
185.2589490860532
 31
0.0
  0
LINE
  5
90D7
330
18
100
AcDbEntity
  8
1
  6
Continuous
 48
0.25
100
AcDbLine
 10
44.27089329311106
 20
186.3695782130531
 30
0.0
 11
45.33731378711109
 21
186.3695782130531
 31
0.0
  0
LINE
  5
90D8
330
18
100
AcDbEntity
  8
1
  6
Continuous
 48
0.25
100
AcDbLine
 10
44.27089329311106
 20
187.9592845670531
 30
0.0
 11
44.27089329311106
 21
187.0408276610531
 31
0.0
  0
ARC
  5
90D9
330
18
100
AcDbEntity
  8
1
  6
Continuous
 48
0.25
100
AcDbCircle
 10
44.27089329311107
 20
186.8143711940532
 30
0.0
 40
1.14531937065
100
AcDbArc
 50
35.53799999999972
 51
45.69900000000106
  0
ARC
  5
90DA
330
18
100
AcDbEntity
  8
1
  6
Continuous
 48
0.25
100
AcDbCircle
 10
44.0489479111111
 20
186.3695782130531
 30
0.0
 40
0.22226115795
100
AcDbArc
 50
270.0
 51
90.0
  0
LINE
  5
90DB
330
18
100
AcDbEntity
  8
1
  6
Continuous
 48
0.25
100
AcDbLine
 10
42.80839953611109
 20
184.8141561050532
 30
0.0
 11
45.73428926711108
 21
184.8141561050532
 31
0.0
  0
LINE
  5
90DC
330
18
100
AcDbEntity
  8
1
  6
Continuous
 48
0.25
100
AcDbLine
 10
42.8102039701111
 20
185.7028398500531
 30
0.0
 11
45.5926411981111
 21
185.7028398500531
 31
0.0
  0
LINE
  5
90DD
330
18
100
AcDbEntity
  8
1
  6
Continuous
 48
0.25
100
AcDbLine
 10
45.1027373671111
 20
186.8179800620532
 30
0.0
 11
43.22973487511108
 21
187.3205149310532
 31
0.0
  0
ARC
  5
90DE
330
18
100
AcDbEntity
  8
1
  6
Continuous
 48
0.25
100
AcDbCircle
 10
44.27089329311107
 20
186.8143711940532
 30
0.0
 40
1.14531937065
100
AcDbArc
 50
62.24999999999966
 51
144.4620000000002
  0
ARC
  5
90FB
330
18
100
AcDbEntity
  8
1
  6
Continuous
100
AcDbCircle
 10
44.01853567442461
 20
178.4353184064003
 30
0.0
 40
0.75
100
AcDbArc
 50
359.9999999999643
 51
179.9999999999625
  0
LINE
  5
90FC
330
18
100
AcDbEntity
  8
1
  6
Continuous
100
AcDbLine
 10
44.76853567442461
 20
177.5353184064016
 30
0.0
 11
44.76853567442461
 21
178.4353184064003
 31
0.0
  0
LINE
  5
90FD
330
18
100
AcDbEntity
  8
1
  6
Continuous
100
AcDbLine
 10
44.76853567442461
 20
177.9853184064009
 30
0.0
 11
46.26853567442461
 21
179.1853184064003
 31
0.0
  0
LINE
  5
90FE
330
18
100
AcDbEntity
  8
1
  6
Continuous
100
AcDbLine
 10
43.26853567442461
 20
177.5353184064016
 30
0.0
 11
43.26853567442461
 21
178.4353184064003
 31
0.0
  0
LINE
  5
9CA8
330
18
100
AcDbEntity
  8
4
  6
CENTER
 48
0.05
100
AcDbLine
 10
145.8213908868725
 20
37.54742640448965
 30
0.0
 11
154.5213908868795
 21
37.54742640424048
 31
0.0
  0
LINE
  5
9CAA
330
18
100
AcDbEntity
  8
4
  6
CENTER
 48
0.05
100
AcDbLine
 10
140.7213908868619
 20
38.5474264042407
 30
0.0
 11
149.4213908868689
 21
38.5474264042407
 31
0.0
  0
LINE
  5
9CED
330
18
100
AcDbEntity
  8
4
  6
CENTER
 48
0.05
100
AcDbLine
 10
145.3713908614295
 20
400.7474090795407
 30
0.0
 11
149.4213908868689
 21
400.747409079541
 31
0.0
  0
LINE
  5
9CF2
330
18
100
AcDbEntity
  8
1
  6
Continuous
 48
0.25
100
AcDbLine
 10
148.471390886667
 20
45.54742640450649
 30
0.0
 11
148.6713908866671
 21
45.54742640450649
 31
0.0
  0
ARC
  5
9CF3
330
18
100
AcDbEntity
  8
1
  6
Continuous
 48
0.25
100
AcDbCircle
 10
148.6713908866671
 20
45.84742640450643
 30
0.0
 40
0.3
100
AcDbArc
 50
270.0
 51
0.0000000000008212
  0
LINE
  5
9CF4
330
18
100
AcDbEntity
  8
1
  6
Continuous
 48
0.25
100
AcDbLine
 10
148.471390886667
 20
49.5474264045065
 30
0.0
 11
148.671390886667
 21
49.5474264045065
 31
0.0
  0
ARC
  5
9CF5
330
18
100
AcDbEntity
  8
1
  6
Continuous
 48
0.25
100
AcDbCircle
 10
148.6713908866671
 20
49.24742640450649
 30
0.0
 40
0.3
100
AcDbArc
 50
0.0000000000008212
 51
90.0
  0
ARC
  5
9D00
330
18
100
AcDbEntity
  8
1
  6
Continuous
 48
0.25
100
AcDbCircle
 10
144.3713908868655
 20
269.6619876875792
 30
0.0
 40
1.553583681032477
100
AcDbArc
 50
75.65348416838891
 51
104.346515831611
  0
ARC
  5
9D01
330
18
100
AcDbEntity
  8
1
  6
Continuous
 48
0.25
100
AcDbCircle
 10
143.9913908868654
 20
271.1477463849218
 30
0.0
 40
0.02
100
AcDbArc
 50
104.3465158315787
 51
180.0
  0
ARC
  5
9D02
330
18
100
AcDbEntity
  8
1
  6
Continuous
 48
0.25
100
AcDbCircle
 10
144.7513908868656
 20
271.1477463849218
 30
0.0
 40
0.02
100
AcDbArc
 50
0.0
 51
75.6534841684213
  0
LINE
  5
9D0A
330
18
100
AcDbEntity
  8
1
  6
Continuous
 48
0.25
100
AcDbLine
 10
349.6214514830764
 20
262.1474177420535
 30
0.0
 11
349.8214514830765
 21
262.1474177420535
 31
0.0
  0
ENDSEC
  0
SECTION
  2
OBJECTS
  0
DICTIONARY
  5
C
330
0
100
AcDbDictionary
281
     1
  3
ACAD_CIP_PREVIOUS_PRODUCT_INFO
350
9D73
  3
ACAD_COLOR
350
9D56
  3
ACAD_DETAILVIEWSTYLE
350
9D6F
  3
ACAD_GROUP
350
D
  3
ACAD_LAYOUT
350
94
  3
ACAD_MATERIAL
350
9D24
  3
ACAD_MLEADERSTYLE
350
9D6B
  3
ACAD_MLINESTYLE
350
1B
  3
ACAD_PLOTSETTINGS
350
95
  3
ACAD_PLOTSTYLENAME
350
9D22
  3
ACAD_SCALELIST
350
9D59
  3
ACAD_SECTIONVIEWSTYLE
350
9D6D
  3
ACAD_TABLESTYLE
350
9D57
  3
ACAD_VISUALSTYLE
350
9D3D
  3
ACDB_RECOMPOSE_DATA
350
9D91
  3
AcDbVariableDictionary
350
9D84
  3
CONTENTDICTIONARY
350
3D
  3
DWGPROPS
350
9D92
  0
DICTIONARY
  5
9D74
330
E
100
AcDbDictionary
280
     1
281
     1
  3
ADSK_XREC_LAYER_RECONCILED
360
9D75
  0
DICTIONARY
  5
9D76
330
4E
100
AcDbDictionary
280
     1
281
     1
  3
ADSK_XREC_LAYER_RECONCILED
360
9D77
  0
DICTIONARY
  5
9D78
330
4F
100
AcDbDictionary
280
     1
281
     1
  3
ADSK_XREC_LAYER_RECONCILED
360
9D79
  0
DICTIONARY
  5
9D7A
330
50
100
AcDbDictionary
280
     1
281
     1
  3
ADSK_XREC_LAYER_RECONCILED
360
9D7B
  0
DICTIONARY
  5
9D7C
330
51
100
AcDbDictionary
280
     1
281
     1
  3
ADSK_XREC_LAYER_RECONCILED
360
9D7D
  0
DICTIONARY
  5
9D7E
330
52
100
AcDbDictionary
280
     1
281
     1
  3
ADSK_XREC_LAYER_RECONCILED
360
9D7F
  0
DICTIONARY
  5
9D80
330
53
100
AcDbDictionary
280
     1
281
     1
  3
ADSK_XREC_LAYER_RECONCILED
360
9D81
  0
DICTIONARY
  5
9D82
330
54
100
AcDbDictionary
280
     1
281
     1
  3
ADSK_XREC_LAYER_RECONCILED
360
9D83
  0
DICTIONARY
  5
9D1D
330
18
100
AcDbDictionary
281
     1
  3
ACAD_LAYOUTSELFREF
350
9D1E
  0
DICTIONARY
  5
9D1B
330
15
100
AcDbDictionary
281
     1
  3
ACAD_LAYOUTSELFREF
350
9D1C
  0
XRECORD
  5
9D73
102
{ACAD_REACTORS
330
C
102
}
330
C
100
AcDbXrecord
280
     1
300
ACDLT
300
2014
300
ACDLT_F_S
  0
DICTIONARY
  5
9D56
102
{ACAD_REACTORS
330
C
102
}
330
C
100
AcDbDictionary
281
     1
  0
DICTIONARY
  5
9D6F
102
{ACAD_REACTORS
330
C
102
}
330
C
100
AcDbDictionary
281
     1
  3
Imperial24
350
9D70
  0
DICTIONARY
  5
D
102
{ACAD_REACTORS
330
C
102
}
330
C
100
AcDbDictionary
281
     1
  0
DICTIONARY
  5
94
102
{ACAD_REACTORS
330
C
102
}
330
C
100
AcDbDictionary
281
     1
  3
Model
350
9D71
  3
レイアウト1
350
9D72
  0
DICTIONARY
  5
9D24
102
{ACAD_REACTORS
330
C
102
}
330
C
100
AcDbDictionary
281
     1
  3
ByBlock
350
9D2D
  3
ByLayer
350
9D25
  3
Global
350
9D35
  0
DICTIONARY
  5
9D6B
102
{ACAD_REACTORS
330
C
102
}
330
C
100
AcDbDictionary
281
     1
  3
Standard
350
9D6C
  0
DICTIONARY
  5
1B
102
{ACAD_REACTORS
330
C
102
}
330
C
100
AcDbDictionary
281
     1
  3
STANDARD
350
1C
  0
DICTIONARY
  5
95
102
{ACAD_REACTORS
330
C
102
}
330
C
100
AcDbDictionary
281
     1
  0
ACDBDICTIONARYWDFLT
  5
9D22
102
{ACAD_REACTORS
330
C
102
}
330
C
100
AcDbDictionary
281
     1
  3
Normal
350
9D23
100
AcDbDictionaryWithDefault
340
9D23
  0
DICTIONARY
  5
9D59
102
{ACAD_REACTORS
330
C
102
}
330
C
100
AcDbDictionary
281
     1
  3
A0
350
9D5A
  3
A1
350
9D5B
  3
A2
350
9D5C
  3
A3
350
9D5D
  3
A4
350
9D5E
  3
A5
350
9D5F
  3
A6
350
9D60
  3
A7
350
9D61
  3
A8
350
9D62
  3
A9
350
9D63
  3
B0
350
9D64
  3
B1
350
9D65
  3
B2
350
9D66
  3
B3
350
9D67
  3
B4
350
9D68
  3
B5
350
9D69
  3
B6
350
9D6A
  0
DICTIONARY
  5
9D6D
102
{ACAD_REACTORS
330
C
102
}
330
C
100
AcDbDictionary
281
     1
  3
Imperial24
350
9D6E
  0
DICTIONARY
  5
9D57
102
{ACAD_REACTORS
330
C
102
}
330
C
100
AcDbDictionary
281
     1
  3
Standard
350
9D58
  0
DICTIONARY
  5
9D3D
102
{ACAD_REACTORS
330
C
102
}
330
C
100
AcDbDictionary
281
     1
  3
2dWireframe
350
9D43
  3
Basic
350
9D42
  3
Brighten
350
9D49
  3
ColorChange
350
9D4D
  3
Conceptual
350
9D46
  3
Dim
350
9D48
  3
EdgeColorOff
350
9D55
  3
Facepattern
350
9D4C
  3
Flat
350
9D3E
  3
FlatWithEdges
350
9D3F
  3
Gouraud
350
9D40
  3
GouraudWithEdges
350
9D41
  3
Hidden
350
9D45
  3
JitterOff
350
9D53
  3
Linepattern
350
9D4B
  3
OverhangOff
350
9D54
  3
Realistic
350
9D47
  3
Shaded
350
9D52
  3
Shaded with edges
350
9D51
  3
Shades of Gray
350
9D4E
  3
Sketchy
350
9D4F
  3
Thicken
350
9D4A
  3
Wireframe
350
9D44
  3
X-Ray
350
9D50
  0
XRECORD
  5
9D91
102
{ACAD_REACTORS
330
C
102
}
330
C
100
AcDbXrecord
280
     1
 90
        1
330
9D58
  0
DICTIONARY
  5
9D84
102
{ACAD_REACTORS
330
C
102
}
330
C
100
AcDbDictionary
281
     1
  3
CANNOSCALE
350
9D89
  3
CMLEADERSTYLE
350
9D86
  3
CTABLESTYLE
350
9D85
  3
CVIEWDETAILSTYLE
350
9D87
  3
CVIEWSECTIONSTYLE
350
9D88
  3
DIMASSOC
350
9D8C
  3
INDEXCTL
350
9D8B
  3
SORTENTS
350
9D8A
  3
XCLIPFRAME
350
9D8D
  0
DICTIONARY
  5
3D
102
{ACAD_REACTORS
330
C
102
}
330
C
100
AcDbDictionary
281
     1
  0
XRECORD
  5
9D92
102
{ACAD_REACTORS
330
C
102
}
330
C
100
AcDbXrecord
280
     1
  1
DWGPROPS COOKIE
  2

  3

  4

  6

  7

  8
Yoshitsune
  9

300
=
301
=
302
=
303
=
304
=
305
=
306
=
307
=
308
=
309
=
 40
0.7776866666666667
 41
2454865.650739062
 42
2457192.62224243
  1

 90
        0
  0
XRECORD
  5
9D75
102
{ACAD_REACTORS
330
9D74
102
}
330
9D74
100
AcDbXrecord
280
     1
290
     1
  0
XRECORD
  5
9D77
102
{ACAD_REACTORS
330
9D76
102
}
330
9D76
100
AcDbXrecord
280
     1
290
     1
  0
XRECORD
  5
9D79
102
{ACAD_REACTORS
330
9D78
102
}
330
9D78
100
AcDbXrecord
280
     1
290
     1
  0
XRECORD
  5
9D7B
102
{ACAD_REACTORS
330
9D7A
102
}
330
9D7A
100
AcDbXrecord
280
     1
290
     1
  0
XRECORD
  5
9D7D
102
{ACAD_REACTORS
330
9D7C
102
}
330
9D7C
100
AcDbXrecord
280
     1
290
     1
  0
XRECORD
  5
9D7F
102
{ACAD_REACTORS
330
9D7E
102
}
330
9D7E
100
AcDbXrecord
280
     1
290
     1
  0
XRECORD
  5
9D81
102
{ACAD_REACTORS
330
9D80
102
}
330
9D80
100
AcDbXrecord
280
     1
290
     1
  0
XRECORD
  5
9D83
102
{ACAD_REACTORS
330
9D82
102
}
330
9D82
100
AcDbXrecord
280
     1
290
     1
  0
XRECORD
  5
9D1E
102
{ACAD_REACTORS
330
9D1D
102
}
330
9D1D
100
AcDbXrecord
280
     1
340
18
  0
XRECORD
  5
9D1C
102
{ACAD_REACTORS
330
9D1B
102
}
330
9D1B
100
AcDbXrecord
280
     1
340
15
  0
ACDBDETAILVIEWSTYLE
  5
9D70
102
{ACAD_XDICTIONARY
360
9DCA
102
}
102
{ACAD_REACTORS
330
9D6F
102
}
330
9D6F
100
AcDbModelDocViewStyle
 70
     0
  3
Imperial24
290
     0
100
AcDbDetailViewStyle
 70
     0
 71
     0
 90
        3
 71
     1
340
F
 40
0.24
340
0
 40
0.24
300

 40
0.36
280
     3
 71
     2
340
14
 90
       25
 71
     3
340
F
 40
0.24
 90
        1
 40
0.75
 90
        1
300
%<\AcVar ViewType \f "%tc1">% %<\AcVar ViewDetailId>%\PSCALE %<\AcVar ViewScale \f "%sn">%
 71
     4
340
14
 90
       25
340
14
 90
       25
280
     0
  0
LAYOUT
  5
9D71
102
{ACAD_XDICTIONARY
360
9DCC
102
}
102
{ACAD_REACTORS
330
94
102
}
330
94
100
AcDbPlotSettings
  1

  2
Canon LBP9100C
  4

  6

 40
0.0
 41
0.0
 42
0.0
 43
0.0
 44
0.0
 45
0.0
 46
0.0
 47
0.0
 48
0.0
 49
0.0
140
0.0
141
0.0
142
1.0
143
1.0
 70
  1712
 72
     0
 73
     0
 74
     0
  7

 75
     0
147
1.0
148
0.0
149
0.0
100
AcDbLayout
  1
Model
 70
     1
 71
     0
 10
0.0
 20
0.0
 11
12.0
 21
9.0
 12
0.0
 22
0.0
 32
0.0
 14
0.0
 24
0.0
 34
0.0
 15
0.0
 25
0.0
 35
0.0
146
0.0
 13
0.0
 23
0.0
 33
0.0
 16
1.0
 26
0.0
 36
0.0
 17
0.0
 27
1.0
 37
0.0
 76
     0
330
18
331
9D1A
  0
LAYOUT
  5
9D72
102
{ACAD_XDICTIONARY
360
9DCE
102
}
102
{ACAD_REACTORS
330
94
102
}
330
94
100
AcDbPlotSettings
  1

  2
Canon LBP9100C
  4

  6

 40
0.0
 41
0.0
 42
0.0
 43
0.0
 44
0.0
 45
0.0
 46
0.0
 47
0.0
 48
0.0
 49
0.0
140
0.0
141
0.0
142
1.0
143
1.0
 70
   688
 72
     0
 73
     0
 74
     5
  7

 75
    16
147
1.0
148
0.0
149
0.0
100
AcDbLayout
  1
レイアウト1
 70
     1
 71
     1
 10
0.0
 20
0.0
 11
420.0
 21
297.0
 12
0.0
 22
0.0
 32
0.0
 14
1.000000000000000E+20
 24
1.000000000000000E+20
 34
1.000000000000000E+20
 15
-1.000000000000000E+20
 25
-1.000000000000000E+20
 35
-1.000000000000000E+20
146
0.0
 13
0.0
 23
0.0
 33
0.0
 16
1.0
 26
0.0
 36
0.0
 17
0.0
 27
1.0
 37
0.0
 76
     0
330
15
  0
MATERIAL
  5
9D2D
102
{ACAD_XDICTIONARY
360
9D2E
102
}
102
{ACAD_REACTORS
330
9D24
102
}
330
9D24
100
AcDbMaterial
  1
ByBlock
 72
     0
 43
0.0208333333333333
 43
0.0
 43
0.0
 43
0.0
 43
0.0
 43
0.0208333333333333
 43
0.0
 43
0.0
 43
0.0
 43
0.0
 43
1.0
 43
0.0
 43
0.0
 43
0.0
 43
0.0
 43
1.0
 77
     0
 47
0.0208333333333333
 47
0.0
 47
0.0
 47
0.0
 47
0.0
 47
0.0208333333333333
 47
0.0
 47
0.0
 47
0.0
 47
0.0
 47
1.0
 47
0.0
 47
0.0
 47
0.0
 47
0.0
 47
1.0
171
     0
 49
0.0208333333333333
 49
0.0
 49
0.0
 49
0.0
 49
0.0
 49
0.0208333333333333
 49
0.0
 49
0.0
 49
0.0
 49
0.0
 49
1.0
 49
0.0
 49
0.0
 49
0.0
 49
0.0
 49
1.0
175
     0
142
0.0208333333333333
142
0.0
142
0.0
142
0.0
142
0.0
142
0.0208333333333333
142
0.0
142
0.0
142
0.0
142
0.0
142
1.0
142
0.0
142
0.0
142
0.0
142
0.0
142
1.0
179
     0
144
0.0208333333333333
144
0.0
144
0.0
144
0.0
144
0.0
144
0.0208333333333333
144
0.0
144
0.0
144
0.0
144
0.0
144
1.0
144
0.0
144
0.0
144
0.0
144
0.0
144
1.0
147
0.0208333333333333
147
0.0
147
0.0
147
0.0
147
0.0
147
0.0208333333333333
147
0.0
147
0.0
147
0.0
147
0.0
147
1.0
147
0.0
147
0.0
147
0.0
147
0.0
147
1.0
  0
MATERIAL
  5
9D25
102
{ACAD_XDICTIONARY
360
9D26
102
}
102
{ACAD_REACTORS
330
9D24
102
}
330
9D24
100
AcDbMaterial
  1
ByLayer
 72
     0
 43
0.0208333333333333
 43
0.0
 43
0.0
 43
0.0
 43
0.0
 43
0.0208333333333333
 43
0.0
 43
0.0
 43
0.0
 43
0.0
 43
1.0
 43
0.0
 43
0.0
 43
0.0
 43
0.0
 43
1.0
 77
     0
 47
0.0208333333333333
 47
0.0
 47
0.0
 47
0.0
 47
0.0
 47
0.0208333333333333
 47
0.0
 47
0.0
 47
0.0
 47
0.0
 47
1.0
 47
0.0
 47
0.0
 47
0.0
 47
0.0
 47
1.0
171
     0
 49
0.0208333333333333
 49
0.0
 49
0.0
 49
0.0
 49
0.0
 49
0.0208333333333333
 49
0.0
 49
0.0
 49
0.0
 49
0.0
 49
1.0
 49
0.0
 49
0.0
 49
0.0
 49
0.0
 49
1.0
175
     0
142
0.0208333333333333
142
0.0
142
0.0
142
0.0
142
0.0
142
0.0208333333333333
142
0.0
142
0.0
142
0.0
142
0.0
142
1.0
142
0.0
142
0.0
142
0.0
142
0.0
142
1.0
179
     0
144
0.0208333333333333
144
0.0
144
0.0
144
0.0
144
0.0
144
0.0208333333333333
144
0.0
144
0.0
144
0.0
144
0.0
144
1.0
144
0.0
144
0.0
144
0.0
144
0.0
144
1.0
147
0.0208333333333333
147
0.0
147
0.0
147
0.0
147
0.0
147
0.0208333333333333
147
0.0
147
0.0
147
0.0
147
0.0
147
1.0
147
0.0
147
0.0
147
0.0
147
0.0
147
1.0
  0
MATERIAL
  5
9D35
102
{ACAD_XDICTIONARY
360
9D36
102
}
102
{ACAD_REACTORS
330
9D24
102
}
330
9D24
100
AcDbMaterial
  1
Global
 72
     0
 43
0.0208333333333333
 43
0.0
 43
0.0
 43
0.0
 43
0.0
 43
0.0208333333333333
 43
0.0
 43
0.0
 43
0.0
 43
0.0
 43
1.0
 43
0.0
 43
0.0
 43
0.0
 43
0.0
 43
1.0
 77
     0
 47
0.0208333333333333
 47
0.0
 47
0.0
 47
0.0
 47
0.0
 47
0.0208333333333333
 47
0.0
 47
0.0
 47
0.0
 47
0.0
 47
1.0
 47
0.0
 47
0.0
 47
0.0
 47
0.0
 47
1.0
171
     0
 49
0.0208333333333333
 49
0.0
 49
0.0
 49
0.0
 49
0.0
 49
0.0208333333333333
 49
0.0
 49
0.0
 49
0.0
 49
0.0
 49
1.0
 49
0.0
 49
0.0
 49
0.0
 49
0.0
 49
1.0
175
     0
142
0.0208333333333333
142
0.0
142
0.0
142
0.0
142
0.0
142
0.0208333333333333
142
0.0
142
0.0
142
0.0
142
0.0
142
1.0
142
0.0
142
0.0
142
0.0
142
0.0
142
1.0
179
     0
144
0.0208333333333333
144
0.0
144
0.0
144
0.0
144
0.0
144
0.0208333333333333
144
0.0
144
0.0
144
0.0
144
0.0
144
1.0
144
0.0
144
0.0
144
0.0
144
0.0
144
1.0
147
0.0208333333333333
147
0.0
147
0.0
147
0.0
147
0.0
147
0.0208333333333333
147
0.0
147
0.0
147
0.0
147
0.0
147
1.0
147
0.0
147
0.0
147
0.0
147
0.0
147
1.0
  0
MLEADERSTYLE
  5
9D6C
102
{ACAD_REACTORS
330
9D6B
102
}
330
9D6B
100
AcDbMLeaderStyle
170
     2
171
     1
172
     0
 90
        2
 40
0.0
 41
0.0
173
     1
 91
-1056964608
340
12
 92
       -2
290
     1
 42
0.09
291
     1
 43
0.36
  3
Standard
 44
0.18
300

342
F
174
     1
178
     6
175
     1
176
     0
 93
-1056964608
 45
0.18
292
     0
297
     0
 46
0.18
 94
-1056964608
 47
1.0
 49
1.0
140
1.0
293
     1
141
0.0
294
     1
177
     0
142
1.0
295
     0
296
     0
143
0.125
1001
ACAD_MLEADERVER
1070
     2
  0
MLINESTYLE
  5
1C
102
{ACAD_REACTORS
330
1B
102
}
330
1B
100
AcDbMlineStyle
  2
STANDARD
 70
     0
  3

 62
   256
 51
90.0
 52
90.0
 71
     2
 49
0.5
 62
   256
  6
BYLAYER
 49
-0.5
 62
   256
  6
BYLAYER
  0
ACDBPLACEHOLDER
  5
9D23
102
{ACAD_REACTORS
330
9D22
102
}
330
9D22
  0
SCALE
  5
9D5A
102
{ACAD_REACTORS
330
9D59
102
}
330
9D59
100
AcDbScale
 70
     0
300
1:1
140
1.0
141
1.0
290
     1
  0
SCALE
  5
9D5B
102
{ACAD_REACTORS
330
9D59
102
}
330
9D59
100
AcDbScale
 70
     0
300
1/128" = 1'-0"
140
0.0078125
141
12.0
290
     0
  0
SCALE
  5
9D5C
102
{ACAD_REACTORS
330
9D59
102
}
330
9D59
100
AcDbScale
 70
     0
300
1/64" = 1'-0"
140
0.015625
141
12.0
290
     0
  0
SCALE
  5
9D5D
102
{ACAD_REACTORS
330
9D59
102
}
330
9D59
100
AcDbScale
 70
     0
300
1/32" = 1'-0"
140
0.03125
141
12.0
290
     0
  0
SCALE
  5
9D5E
102
{ACAD_REACTORS
330
9D59
102
}
330
9D59
100
AcDbScale
 70
     0
300
1/16" = 1'-0"
140
0.0625
141
12.0
290
     0
  0
SCALE
  5
9D5F
102
{ACAD_REACTORS
330
9D59
102
}
330
9D59
100
AcDbScale
 70
     0
300
3/32" = 1'-0"
140
0.09375
141
12.0
290
     0
  0
SCALE
  5
9D60
102
{ACAD_REACTORS
330
9D59
102
}
330
9D59
100
AcDbScale
 70
     0
300
1/8" = 1'-0"
140
0.125
141
12.0
290
     0
  0
SCALE
  5
9D61
102
{ACAD_REACTORS
330
9D59
102
}
330
9D59
100
AcDbScale
 70
     0
300
3/16" = 1'-0"
140
0.1875
141
12.0
290
     0
  0
SCALE
  5
9D62
102
{ACAD_REACTORS
330
9D59
102
}
330
9D59
100
AcDbScale
 70
     0
300
1/4" = 1'-0"
140
0.25
141
12.0
290
     0
  0
SCALE
  5
9D63
102
{ACAD_REACTORS
330
9D59
102
}
330
9D59
100
AcDbScale
 70
     0
300
3/8" = 1'-0"
140
0.375
141
12.0
290
     0
  0
SCALE
  5
9D64
102
{ACAD_REACTORS
330
9D59
102
}
330
9D59
100
AcDbScale
 70
     0
300
1/2" = 1'-0"
140
0.5
141
12.0
290
     0
  0
SCALE
  5
9D65
102
{ACAD_REACTORS
330
9D59
102
}
330
9D59
100
AcDbScale
 70
     0
300
3/4" = 1'-0"
140
0.75
141
12.0
290
     0
  0
SCALE
  5
9D66
102
{ACAD_REACTORS
330
9D59
102
}
330
9D59
100
AcDbScale
 70
     0
300
1" = 1'-0"
140
1.0
141
12.0
290
     0
  0
SCALE
  5
9D67
102
{ACAD_REACTORS
330
9D59
102
}
330
9D59
100
AcDbScale
 70
     0
300
1-1/2" = 1'-0"
140
1.5
141
12.0
290
     0
  0
SCALE
  5
9D68
102
{ACAD_REACTORS
330
9D59
102
}
330
9D59
100
AcDbScale
 70
     0
300
3" = 1'-0"
140
3.0
141
12.0
290
     0
  0
SCALE
  5
9D69
102
{ACAD_REACTORS
330
9D59
102
}
330
9D59
100
AcDbScale
 70
     0
300
6" = 1'-0"
140
6.0
141
12.0
290
     0
  0
SCALE
  5
9D6A
102
{ACAD_REACTORS
330
9D59
102
}
330
9D59
100
AcDbScale
 70
     0
300
1'-0" = 1'-0"
140
12.0
141
12.0
290
     0
  0
ACDBSECTIONVIEWSTYLE
  5
9D6E
102
{ACAD_XDICTIONARY
360
9DC8
102
}
102
{ACAD_REACTORS
330
9D6D
102
}
330
9D6D
100
AcDbModelDocViewStyle
 70
     0
  3
Imperial24
290
     0
100
AcDbSectionViewStyle
 70
     0
 71
     0
 90
       78
 71
     1
340
F
 40
0.24
340
0
340
0
 40
0.24
300
I, O, Q, S, X, Z
 40
0.48
 90
        3
 40
0.18
 90
        1
 71
     2
340
14
 90
       25
340
14
 90
       50
 40
0.24
 40
0.0
 40
0.24
 71
     3
340
F
 40
0.24
 90
        1
 40
0.75
 90
        1
300
%<\AcVar ViewType \f "%tc1">% %<\AcVar ViewSectionStartId>%-%<\AcVar ViewSectionEndId>%\PSCALE %<\AcVar ViewScale \f "%sn">%
 71
     4
300
ANSI31
 40
1.0
 90
        0
290
     0
290
     0
 90
        6
 40
0.0
 40
1.570796326794896
 40
0.2617993877991494
 40
1.308996938995747
 40
-0.2617993877991494
 40
1.832595714594046
  0
TABLESTYLE
  5
9D58
102
{ACAD_XDICTIONARY
360
9D8F
102
}
102
{ACAD_REACTORS
330
9D57
102
}
330
9D57
100
AcDbTableStyle
  3
Standard
 70
     0
 71
     0
 40
0.06
 41
0.06
280
     0
281
     0
  7
STANDARD
140
0.18
170
     2
 62
     0
 63
     7
283
     0
274
    -2
284
     1
 64
     0
275
    -2
285
     1
 65
     0
276
    -2
286
     1
 66
     0
277
    -2
287
     1
 67
     0
278
    -2
288
     1
 68
     0
279
    -2
289
     1
 69
     0
  7
STANDARD
140
0.25
170
     5
 62
     0
 63
     7
283
     0
274
    -2
284
     1
 64
     0
275
    -2
285
     1
 65
     0
276
    -2
286
     1
 66
     0
277
    -2
287
     1
 67
     0
278
    -2
288
     1
 68
     0
279
    -2
289
     1
 69
     0
  7
STANDARD
140
0.18
170
     5
 62
     0
 63
     7
283
     0
274
    -2
284
     1
 64
     0
275
    -2
285
     1
 65
     0
276
    -2
286
     1
 66
     0
277
    -2
287
     1
 67
     0
278
    -2
288
     1
 68
     0
279
    -2
289
     1
 69
     0
  0
VISUALSTYLE
  5
9D43
102
{ACAD_XDICTIONARY
360
9DA0
102
}
102
{ACAD_REACTORS
330
9D3D
102
}
330
9D3D
100
AcDbVisualStyle
  2
2dWireframe
 70
     4
 71
     0
 72
     2
 73
     0
 90
        0
 40
-0.6
 41
-30.0
 62
     5
 63
     7
 74
     1
 91
        4
 64
     7
 65
   257
 75
     1
175
     1
 42
1.0
 92
        0
 66
   257
 43
1.0
 76
     1
 77
     6
 78
     2
 67
     7
 79
     5
170
     0
171
     0
290
     0
174
     0
 93
        1
 44
0.0
173
     0
291
     0
 45
0.0
1001
ACAD
1000
AcDbSavedByObjectVersion
1070
     0
  0
VISUALSTYLE
  5
9D42
102
{ACAD_XDICTIONARY
360
9D9E
102
}
102
{ACAD_REACTORS
330
9D3D
102
}
330
9D3D
100
AcDbVisualStyle
  2
Basic
 70
     7
 71
     1
 72
     0
 73
     1
 90
        0
 40
-0.6
 41
-30.0
 62
     5
 63
     7
 74
     0
 91
        4
 64
     7
 65
   257
 75
     1
175
     1
 42
1.0
 92
        8
 66
     7
 43
1.0
 76
     1
 77
     6
 78
     2
 67
     7
 79
     5
170
     0
171
     0
290
     0
174
     0
 93
        1
 44
0.0
173
     0
291
     1
 45
0.0
1001
ACAD
1000
AcDbSavedByObjectVersion
1070
     0
  0
VISUALSTYLE
  5
9D49
102
{ACAD_XDICTIONARY
360
9DAC
102
}
102
{ACAD_REACTORS
330
9D3D
102
}
330
9D3D
100
AcDbVisualStyle
  2
Brighten
 70
    12
 71
     2
 72
     2
 73
     0
 90
        0
 40
-0.6
 41
-30.0
 62
     5
 63
     7
 74
     1
 91
        4
 64
     7
 65
   257
 75
     1
175
     1
 42
1.0
 92
        8
 66
     7
 43
1.0
 76
     1
 77
     6
 78
     2
 67
     7
 79
     5
170
     0
171
     0
290
     0
174
     0
 93
        1
 44
50.0
173
     0
291
     1
 45
0.0
1001
ACAD
1000
AcDbSavedByObjectVersion
1070
     0
  0
VISUALSTYLE
  5
9D4D
102
{ACAD_XDICTIONARY
360
9DB4
102
}
102
{ACAD_REACTORS
330
9D3D
102
}
330
9D3D
100
AcDbVisualStyle
  2
ColorChange
 70
    16
 71
     2
 72
     2
 73
     3
 90
        0
 40
-0.6
 41
-30.0
 62
     5
 63
     8
 74
     1
 91
        4
 64
     7
 65
   257
 75
     1
175
     1
 42
1.0
 92
        8
 66
     8
 43
1.0
 76
     1
 77
     6
 78
     2
 67
     7
 79
     5
170
     0
171
     0
290
     0
174
     0
 93
        1
 44
0.0
173
     0
291
     1
 45
0.0
1001
ACAD
1000
AcDbSavedByObjectVersion
1070
     0
  0
VISUALSTYLE
  5
9D46
102
{ACAD_XDICTIONARY
360
9DA6
102
}
102
{ACAD_REACTORS
330
9D3D
102
}
330
9D3D
100
AcDbVisualStyle
  2
Conceptual
 70
     9
 71
     3
 72
     2
 73
     0
 90
        0
 40
-0.6
 41
-30.0
 62
     5
 63
     7
 74
     2
 91
        2
 64
     7
 65
   257
 75
     1
175
     1
 42
179.0
 92
        8
 66
     7
 43
1.0
 76
     1
 77
     6
 78
     2
 67
     7
 79
     3
170
     0
171
     0
290
     0
174
     0
 93
        1
 44
0.0
173
     0
291
     0
 45
0.0
1001
ACAD
1000
AcDbSavedByObjectVersion
1070
     0
  0
VISUALSTYLE
  5
9D48
102
{ACAD_XDICTIONARY
360
9DAA
102
}
102
{ACAD_REACTORS
330
9D3D
102
}
330
9D3D
100
AcDbVisualStyle
  2
Dim
 70
    11
 71
     2
 72
     2
 73
     0
 90
        0
 40
-0.6
 41
-30.0
 62
     5
 63
     7
 74
     1
 91
        4
 64
     7
 65
   257
 75
     1
175
     1
 42
1.0
 92
        8
 66
     7
 43
1.0
 76
     1
 77
     6
 78
     2
 67
     7
 79
     5
170
     0
171
     0
290
     0
174
     0
 93
        1
 44
-50.0
173
     0
291
     1
 45
0.0
1001
ACAD
1000
AcDbSavedByObjectVersion
1070
     0
  0
VISUALSTYLE
  5
9D55
102
{ACAD_XDICTIONARY
360
9DC4
102
}
102
{ACAD_REACTORS
330
9D3D
102
}
330
9D3D
100
AcDbVisualStyle
  2
EdgeColorOff
 70
    22
 71
     2
 72
     2
 73
     0
 90
        0
 40
-0.6
 41
-30.0
 62
     5
 63
     7
 74
     1
 91
        4
 64
     7
 65
   257
 75
     1
175
     1
 42
1.0
 92
        8
 66
     7
 43
1.0
 76
     1
 77
     6
 78
     2
 67
     7
 79
     5
170
     0
171
     0
290
     0
174
     0
 93
        1
 44
0.0
173
     0
291
     1
 45
0.0
1001
ACAD
1000
AcDbSavedByObjectVersion
1070
     0
  0
VISUALSTYLE
  5
9D4C
102
{ACAD_XDICTIONARY
360
9DB2
102
}
102
{ACAD_REACTORS
330
9D3D
102
}
330
9D3D
100
AcDbVisualStyle
  2
Facepattern
 70
    15
 71
     2
 72
     2
 73
     0
 90
        0
 40
-0.6
 41
-30.0
 62
     5
 63
     7
 74
     1
 91
        4
 64
     7
 65
   257
 75
     1
175
     1
 42
1.0
 92
        8
 66
     7
 43
1.0
 76
     1
 77
     6
 78
     2
 67
     7
 79
     5
170
     0
171
     0
290
     0
174
     0
 93
        1
 44
0.0
173
     0
291
     1
 45
0.0
1001
ACAD
1000
AcDbSavedByObjectVersion
1070
     0
  0
VISUALSTYLE
  5
9D3E
102
{ACAD_XDICTIONARY
360
9D96
102
}
102
{ACAD_REACTORS
330
9D3D
102
}
330
9D3D
100
AcDbVisualStyle
  2
Flat
 70
     0
 71
     2
 72
     1
 73
     1
 90
        2
 40
-0.6
 41
30.0
 62
     5
 63
     7
 74
     0
 91
        0
 64
     7
 65
   257
 75
     1
175
     1
 42
1.0
 92
        8
 66
     7
 43
1.0
 76
     1
 77
     6
 78
     2
 67
     7
 79
     5
170
     0
171
     0
290
     0
174
     0
 93
       13
 44
0.0
173
     0
291
     1
 45
0.0
1001
ACAD
1000
AcDbSavedByObjectVersion
1070
     0
  0
VISUALSTYLE
  5
9D3F
102
{ACAD_XDICTIONARY
360
9D98
102
}
102
{ACAD_REACTORS
330
9D3D
102
}
330
9D3D
100
AcDbVisualStyle
  2
FlatWithEdges
 70
     1
 71
     2
 72
     1
 73
     1
 90
        2
 40
-0.6
 41
30.0
 62
     5
 63
     7
 74
     1
 91
        0
 64
     7
 65
   257
 75
     1
175
     1
 42
1.0
 92
        0
 66
   257
 43
1.0
 76
     1
 77
     6
 78
     2
 67
     7
 79
     5
170
     0
171
     0
290
     0
174
     0
 93
       13
 44
0.0
173
     0
291
     1
 45
0.0
1001
ACAD
1000
AcDbSavedByObjectVersion
1070
     0
  0
VISUALSTYLE
  5
9D40
102
{ACAD_XDICTIONARY
360
9D9A
102
}
102
{ACAD_REACTORS
330
9D3D
102
}
330
9D3D
100
AcDbVisualStyle
  2
Gouraud
 70
     2
 71
     2
 72
     2
 73
     1
 90
        2
 40
-0.6
 41
30.0
 62
     5
 63
     7
 74
     0
 91
        0
 64
     7
 65
   257
 75
     1
175
     1
 42
1.0
 92
        0
 66
     7
 43
1.0
 76
     1
 77
     6
 78
     2
 67
     7
 79
     5
170
     0
171
     0
290
     0
174
     0
 93
       13
 44
0.0
173
     0
291
     1
 45
0.0
1001
ACAD
1000
AcDbSavedByObjectVersion
1070
     0
  0
VISUALSTYLE
  5
9D41
102
{ACAD_XDICTIONARY
360
9D9C
102
}
102
{ACAD_REACTORS
330
9D3D
102
}
330
9D3D
100
AcDbVisualStyle
  2
GouraudWithEdges
 70
     3
 71
     2
 72
     2
 73
     1
 90
        2
 40
-0.6
 41
30.0
 62
     5
 63
     7
 74
     1
 91
        0
 64
     7
 65
   257
 75
     1
175
     1
 42
1.0
 92
        0
 66
   257
 43
1.0
 76
     1
 77
     6
 78
     2
 67
     7
 79
     5
170
     0
171
     0
290
     0
174
     0
 93
       13
 44
0.0
173
     0
291
     1
 45
0.0
1001
ACAD
1000
AcDbSavedByObjectVersion
1070
     0
  0
VISUALSTYLE
  5
9D45
102
{ACAD_XDICTIONARY
360
9DA4
102
}
102
{ACAD_REACTORS
330
9D3D
102
}
330
9D3D
100
AcDbVisualStyle
  2
Hidden
 70
     6
 71
     1
 72
     2
 73
     2
 90
        0
 40
-0.6
 41
-30.0
 62
     5
 63
     7
 74
     2
 91
        2
 64
     7
 65
   257
 75
     2
175
     1
 42
40.0
 92
        0
 66
   257
 43
1.0
 76
     1
 77
     6
 78
     2
 67
     7
 79
     3
170
     0
171
     0
290
     0
174
     0
 93
        1
 44
0.0
173
     0
291
     0
 45
0.0
1001
ACAD
1000
AcDbSavedByObjectVersion
1070
     0
  0
VISUALSTYLE
  5
9D53
102
{ACAD_XDICTIONARY
360
9DC0
102
}
102
{ACAD_REACTORS
330
9D3D
102
}
330
9D3D
100
AcDbVisualStyle
  2
JitterOff
 70
    20
 71
     2
 72
     2
 73
     0
 90
        0
 40
-0.6
 41
-30.0
 62
     5
 63
     7
 74
     1
 91
        4
 64
     7
 65
   257
 75
     1
175
     1
 42
1.0
 92
       10
 66
     7
 43
1.0
 76
     1
 77
     6
 78
     2
 67
     7
 79
     5
170
     0
171
     0
290
     0
174
     0
 93
        1
 44
0.0
173
     0
291
     1
 45
0.0
1001
ACAD
1000
AcDbSavedByObjectVersion
1070
     0
  0
VISUALSTYLE
  5
9D4B
102
{ACAD_XDICTIONARY
360
9DB0
102
}
102
{ACAD_REACTORS
330
9D3D
102
}
330
9D3D
100
AcDbVisualStyle
  2
Linepattern
 70
    14
 71
     2
 72
     2
 73
     0
 90
        0
 40
-0.6
 41
-30.0
 62
     5
 63
     7
 74
     1
 91
        4
 64
     7
 65
   257
 75
     7
175
     7
 42
1.0
 92
        8
 66
     7
 43
1.0
 76
     1
 77
     6
 78
     2
 67
     7
 79
     5
170
     0
171
     0
290
     0
174
     0
 93
        1
 44
0.0
173
     0
291
     1
 45
0.0
1001
ACAD
1000
AcDbSavedByObjectVersion
1070
     0
  0
VISUALSTYLE
  5
9D54
102
{ACAD_XDICTIONARY
360
9DC2
102
}
102
{ACAD_REACTORS
330
9D3D
102
}
330
9D3D
100
AcDbVisualStyle
  2
OverhangOff
 70
    21
 71
     2
 72
     2
 73
     0
 90
        0
 40
-0.6
 41
-30.0
 62
     5
 63
     7
 74
     1
 91
        4
 64
     7
 65
   257
 75
     1
175
     1
 42
1.0
 92
        9
 66
     7
 43
1.0
 76
     1
 77
     6
 78
     2
 67
     7
 79
     5
170
     0
171
     0
290
     0
174
     0
 93
        1
 44
0.0
173
     0
291
     1
 45
0.0
1001
ACAD
1000
AcDbSavedByObjectVersion
1070
     0
  0
VISUALSTYLE
  5
9D47
102
{ACAD_XDICTIONARY
360
9DA8
102
}
102
{ACAD_REACTORS
330
9D3D
102
}
330
9D3D
100
AcDbVisualStyle
  2
Realistic
 70
     8
 71
     2
 72
     3
 73
     0
 90
        2
 40
-0.6
 41
30.0
 62
     5
 63
     7
 74
     0
 91
        0
 64
     7
 65
   257
 75
     1
175
     1
 42
1.0
 92
        8
 66
   257
 43
1.0
 76
     1
 77
     6
 78
     2
 67
     7
 79
     3
170
     0
171
     0
290
     0
174
     0
 93
       13
 44
0.0
173
     0
291
     0
 45
0.0
1001
ACAD
1000
AcDbSavedByObjectVersion
1070
     0
  0
VISUALSTYLE
  5
9D52
102
{ACAD_XDICTIONARY
360
9DBE
102
}
102
{ACAD_REACTORS
330
9D3D
102
}
330
9D3D
100
AcDbVisualStyle
  2
Shaded
 70
    27
 71
     2
 72
     2
 73
     1
 90
        2
 40
-0.6
 41
30.0
 62
     5
 63
     7
 74
     0
 91
        4
 64
     7
 65
   257
 75
     1
175
     1
 42
1.0
 92
        8
 66
   257
 43
1.0
 76
     1
 77
     6
 78
     2
 67
     8
 79
     3
170
     0
171
     0
290
     0
174
     0
 93
        5
 44
0.0
173
     0
291
     0
 45
0.0
1001
ACAD
1000
AcDbSavedByObjectVersion
1070
     0
  0
VISUALSTYLE
  5
9D51
102
{ACAD_XDICTIONARY
360
9DBC
102
}
102
{ACAD_REACTORS
330
9D3D
102
}
330
9D3D
100
AcDbVisualStyle
  2
Shaded with edges
 70
    26
 71
     2
 72
     2
 73
     1
 90
        2
 40
-0.6
 41
30.0
 62
     5
 63
     7
 74
     1
 91
       10
 64
     7
 65
   257
 75
     2
175
     1
 42
1.0
 92
        8
 66
   257
 43
1.0
 76
     1
 77
     6
 78
     2
 67
     7
 79
     3
170
     0
171
     0
290
     0
174
     0
 93
        5
 44
0.0
173
     0
291
     0
 45
0.0
1001
ACAD
1000
AcDbSavedByObjectVersion
1070
     0
  0
VISUALSTYLE
  5
9D4E
102
{ACAD_XDICTIONARY
360
9DB6
102
}
102
{ACAD_REACTORS
330
9D3D
102
}
330
9D3D
100
AcDbVisualStyle
  2
Shades of Gray
 70
    23
 71
     2
 72
     2
 73
     3
 90
        0
 40
-0.6
 41
-30.0
 62
     5
 63
     7
 74
     2
 91
        2
 64
     7
 65
     7
 75
     1
175
     1
 42
40.0
 92
        8
 66
     7
 43
1.0
 76
     1
 77
     6
 78
     2
 67
     7
 79
     3
170
     0
171
     0
290
     0
174
     0
 93
        1
 44
0.0
173
     0
291
     0
 45
0.0
1001
ACAD
1000
AcDbSavedByObjectVersion
1070
     0
  0
VISUALSTYLE
  5
9D4F
102
{ACAD_XDICTIONARY
360
9DB8
102
}
102
{ACAD_REACTORS
330
9D3D
102
}
330
9D3D
100
AcDbVisualStyle
  2
Sketchy
 70
    24
 71
     1
 72
     2
 73
     2
 90
        0
 40
-0.6
 41
-30.0
 62
     5
 63
     7
 74
     2
 91
        2
 64
     7
 65
     7
 75
     1
175
     1
 42
40.0
 92
       11
 66
     7
 43
1.0
 76
     1
 77
     6
 78
     2
 67
     7
 79
     6
170
     0
171
     0
290
     0
174
     0
 93
        1
 44
0.0
173
     0
291
     0
 45
0.0
1001
ACAD
1000
AcDbSavedByObjectVersion
1070
     0
  0
VISUALSTYLE
  5
9D4A
102
{ACAD_XDICTIONARY
360
9DAE
102
}
102
{ACAD_REACTORS
330
9D3D
102
}
330
9D3D
100
AcDbVisualStyle
  2
Thicken
 70
    13
 71
     2
 72
     2
 73
     0
 90
        0
 40
-0.6
 41
-30.0
 62
     5
 63
     7
 74
     1
 91
        4
 64
     7
 65
   257
 75
     1
175
     1
 42
1.0
 92
       12
 66
     7
 43
1.0
 76
     1
 77
     6
 78
     2
 67
     7
 79
     5
170
     0
171
     0
290
     0
174
     0
 93
        1
 44
0.0
173
     0
291
     1
 45
0.0
1001
ACAD
1000
AcDbSavedByObjectVersion
1070
     0
  0
VISUALSTYLE
  5
9D44
102
{ACAD_XDICTIONARY
360
9DA2
102
}
102
{ACAD_REACTORS
330
9D3D
102
}
330
9D3D
100
AcDbVisualStyle
  2
Wireframe
 70
     5
 71
     0
 72
     2
 73
     0
 90
        0
 40
-0.6
 41
-30.0
 62
     5
 63
     7
 74
     1
 91
        4
 64
     7
 65
   257
 75
     1
175
     1
 42
1.0
 92
        0
 66
   257
 43
1.0
 76
     1
 77
     6
 78
     2
 67
     7
 79
     3
170
     0
171
     0
290
     0
174
     0
 93
        1
 44
0.0
173
     0
291
     0
 45
0.0
1001
ACAD
1000
AcDbSavedByObjectVersion
1070
     0
  0
VISUALSTYLE
  5
9D50
102
{ACAD_XDICTIONARY
360
9DBA
102
}
102
{ACAD_REACTORS
330
9D3D
102
}
330
9D3D
100
AcDbVisualStyle
  2
X-Ray
 70
    25
 71
     2
 72
     2
 73
     1
 90
        1
 40
0.5
 41
-30.0
 62
     5
 63
     7
 74
     1
 91
        0
 64
     7
 65
   257
 75
     1
175
     1
 42
1.0
 92
        8
 66
     7
 43
1.0
 76
     1
 77
     6
 78
     2
 67
     7
 79
     3
170
     0
171
     0
290
     0
174
     0
 93
       13
 44
0.0
173
     0
291
     0
 45
0.0
1001
ACAD
1000
AcDbSavedByObjectVersion
1070
     0
  0
DICTIONARYVAR
  5
9D89
102
{ACAD_REACTORS
330
9D84
102
}
330
9D84
100
DictionaryVariables
280
     0
  1
1:1
  0
DICTIONARYVAR
  5
9D86
102
{ACAD_REACTORS
330
9D84
102
}
330
9D84
100
DictionaryVariables
280
     0
  1
STANDARD
  0
DICTIONARYVAR
  5
9D85
102
{ACAD_REACTORS
330
9D84
102
}
330
9D84
100
DictionaryVariables
280
     0
  1
STANDARD
  0
DICTIONARYVAR
  5
9D87
102
{ACAD_REACTORS
330
9D84
102
}
330
9D84
100
DictionaryVariables
280
     0
  1
Imperial24
  0
DICTIONARYVAR
  5
9D88
102
{ACAD_REACTORS
330
9D84
102
}
330
9D84
100
DictionaryVariables
280
     0
  1
Imperial24
  0
DICTIONARYVAR
  5
9D8C
102
{ACAD_REACTORS
330
9D84
102
}
330
9D84
100
DictionaryVariables
280
     0
  1
1
  0
DICTIONARYVAR
  5
9D8B
102
{ACAD_REACTORS
330
9D84
102
}
330
9D84
100
DictionaryVariables
280
     0
  1
0
  0
DICTIONARYVAR
  5
9D8A
102
{ACAD_REACTORS
330
9D84
102
}
330
9D84
100
DictionaryVariables
280
     0
  1
127
  0
DICTIONARYVAR
  5
9D8D
102
{ACAD_REACTORS
330
9D84
102
}
330
9D84
100
DictionaryVariables
280
     0
  1
2
  0
DICTIONARY
  5
9DCA
330
9D70
100
AcDbDictionary
280
     1
281
     1
  3
ACAD_XREC_ROUNDTRIP
360
9DCB
  0
DICTIONARY
  5
9DCC
330
9D71
100
AcDbDictionary
280
     1
281
     1
  3
ACAD_XREC_ROUNDTRIP
360
9DCD
  0
DICTIONARY
  5
9DCE
330
9D72
100
AcDbDictionary
280
     1
281
     1
  3
ACAD_XREC_ROUNDTRIP
360
9DCF
  0
DICTIONARY
  5
9D2E
330
9D2D
100
AcDbDictionary
280
     1
281
     1
  3
ACAD_XREC_ROUNDTRIP
360
9D94
  3
BUMPTILE
360
9D30
  3
DIFFUSETILE
360
9D2F
  3
OPACITYTILE
360
9D33
  3
REFLECTIONTILE
360
9D32
  3
REFRACTIONTILE
360
9D34
  3
SPECULARTILE
360
9D31
  0
DICTIONARY
  5
9D26
330
9D25
100
AcDbDictionary
280
     1
281
     1
  3
ACAD_XREC_ROUNDTRIP
360
9D93
  3
BUMPTILE
360
9D28
  3
DIFFUSETILE
360
9D27
  3
OPACITYTILE
360
9D2B
  3
REFLECTIONTILE
360
9D2A
  3
REFRACTIONTILE
360
9D2C
  3
SPECULARTILE
360
9D29
  0
DICTIONARY
  5
9D36
330
9D35
100
AcDbDictionary
280
     1
281
     1
  3
ACAD_XREC_ROUNDTRIP
360
9D95
  3
BUMPTILE
360
9D38
  3
DIFFUSETILE
360
9D37
  3
OPACITYTILE
360
9D3B
  3
REFLECTIONTILE
360
9D3A
  3
REFRACTIONTILE
360
9D3C
  3
SPECULARTILE
360
9D39
  0
DICTIONARY
  5
9DC8
330
9D6E
100
AcDbDictionary
280
     1
281
     1
  3
ACAD_XREC_ROUNDTRIP
360
9DC9
  0
DICTIONARY
  5
9D8F
330
9D58
100
AcDbDictionary
280
     1
281
     1
  3
ACAD_ROUNDTRIP_2008_TABLESTYLE_CELLSTYLEMAP
360
9D90
  3
ACAD_XREC_ROUNDTRIP
360
9DC6
  0
DICTIONARY
  5
9DA0
330
9D43
100
AcDbDictionary
280
     1
281
     1
  3
ACAD_XREC_ROUNDTRIP
360
9DA1
  0
DICTIONARY
  5
9D9E
330
9D42
100
AcDbDictionary
280
     1
281
     1
  3
ACAD_XREC_ROUNDTRIP
360
9D9F
  0
DICTIONARY
  5
9DAC
330
9D49
100
AcDbDictionary
280
     1
281
     1
  3
ACAD_XREC_ROUNDTRIP
360
9DAD
  0
DICTIONARY
  5
9DB4
330
9D4D
100
AcDbDictionary
280
     1
281
     1
  3
ACAD_XREC_ROUNDTRIP
360
9DB5
  0
DICTIONARY
  5
9DA6
330
9D46
100
AcDbDictionary
280
     1
281
     1
  3
ACAD_XREC_ROUNDTRIP
360
9DA7
  0
DICTIONARY
  5
9DAA
330
9D48
100
AcDbDictionary
280
     1
281
     1
  3
ACAD_XREC_ROUNDTRIP
360
9DAB
  0
DICTIONARY
  5
9DC4
330
9D55
100
AcDbDictionary
280
     1
281
     1
  3
ACAD_XREC_ROUNDTRIP
360
9DC5
  0
DICTIONARY
  5
9DB2
330
9D4C
100
AcDbDictionary
280
     1
281
     1
  3
ACAD_XREC_ROUNDTRIP
360
9DB3
  0
DICTIONARY
  5
9D96
330
9D3E
100
AcDbDictionary
280
     1
281
     1
  3
ACAD_XREC_ROUNDTRIP
360
9D97
  0
DICTIONARY
  5
9D98
330
9D3F
100
AcDbDictionary
280
     1
281
     1
  3
ACAD_XREC_ROUNDTRIP
360
9D99
  0
DICTIONARY
  5
9D9A
330
9D40
100
AcDbDictionary
280
     1
281
     1
  3
ACAD_XREC_ROUNDTRIP
360
9D9B
  0
DICTIONARY
  5
9D9C
330
9D41
100
AcDbDictionary
280
     1
281
     1
  3
ACAD_XREC_ROUNDTRIP
360
9D9D
  0
DICTIONARY
  5
9DA4
330
9D45
100
AcDbDictionary
280
     1
281
     1
  3
ACAD_XREC_ROUNDTRIP
360
9DA5
  0
DICTIONARY
  5
9DC0
330
9D53
100
AcDbDictionary
280
     1
281
     1
  3
ACAD_XREC_ROUNDTRIP
360
9DC1
  0
DICTIONARY
  5
9DB0
330
9D4B
100
AcDbDictionary
280
     1
281
     1
  3
ACAD_XREC_ROUNDTRIP
360
9DB1
  0
DICTIONARY
  5
9DC2
330
9D54
100
AcDbDictionary
280
     1
281
     1
  3
ACAD_XREC_ROUNDTRIP
360
9DC3
  0
DICTIONARY
  5
9DA8
330
9D47
100
AcDbDictionary
280
     1
281
     1
  3
ACAD_XREC_ROUNDTRIP
360
9DA9
  0
DICTIONARY
  5
9DBE
330
9D52
100
AcDbDictionary
280
     1
281
     1
  3
ACAD_XREC_ROUNDTRIP
360
9DBF
  0
DICTIONARY
  5
9DBC
330
9D51
100
AcDbDictionary
280
     1
281
     1
  3
ACAD_XREC_ROUNDTRIP
360
9DBD
  0
DICTIONARY
  5
9DB6
330
9D4E
100
AcDbDictionary
280
     1
281
     1
  3
ACAD_XREC_ROUNDTRIP
360
9DB7
  0
DICTIONARY
  5
9DB8
330
9D4F
100
AcDbDictionary
280
     1
281
     1
  3
ACAD_XREC_ROUNDTRIP
360
9DB9
  0
DICTIONARY
  5
9DAE
330
9D4A
100
AcDbDictionary
280
     1
281
     1
  3
ACAD_XREC_ROUNDTRIP
360
9DAF
  0
DICTIONARY
  5
9DA2
330
9D44
100
AcDbDictionary
280
     1
281
     1
  3
ACAD_XREC_ROUNDTRIP
360
9DA3
  0
DICTIONARY
  5
9DBA
330
9D50
100
AcDbDictionary
280
     1
281
     1
  3
ACAD_XREC_ROUNDTRIP
360
9DBB
  0
XRECORD
  5
9DCB
102
{ACAD_REACTORS
330
9DCA
102
}
330
9DCA
100
AcDbXrecord
280
     1
102
DISPLAYNAME
  1
Imperial24
102
FLAGS
 90
        0
  0
XRECORD
  5
9DCD
102
{ACAD_REACTORS
330
9DCC
102
}
330
9DCC
100
AcDbXrecord
280
     1
102
SHADEPLOT
 70
     0
102
SHADEPLOTRESLEVEL
 70
     2
102
SHADEPLOTCUSTOMDPI
 70
   300
  0
XRECORD
  5
9DCF
102
{ACAD_REACTORS
330
9DCE
102
}
330
9DCE
100
AcDbXrecord
280
     1
102
SHADEPLOT
 70
     0
102
SHADEPLOTRESLEVEL
 70
     2
102
SHADEPLOTCUSTOMDPI
 70
   300
  0
XRECORD
  5
9D94
102
{ACAD_REACTORS
330
9D2E
102
}
330
9D2E
100
AcDbXrecord
280
     1
102
MATERIAL
148
0.0
149
0.0
149
0.0
 93
        0
 94
      127
282
     0
 72
     0
 77
     0
171
     0
175
     0
179
     0
273
     0
  0
XRECORD
  5
9D30
102
{ACAD_REACTORS
330
9D2E
102
}
330
9D2E
100
AcDbXrecord
280
     1
270
     1
271
     1
  0
XRECORD
  5
9D2F
102
{ACAD_REACTORS
330
9D2E
102
}
330
9D2E
100
AcDbXrecord
280
     1
270
     1
271
     1
  0
XRECORD
  5
9D33
102
{ACAD_REACTORS
330
9D2E
102
}
330
9D2E
100
AcDbXrecord
280
     1
270
     1
271
     1
  0
XRECORD
  5
9D32
102
{ACAD_REACTORS
330
9D2E
102
}
330
9D2E
100
AcDbXrecord
280
     1
270
     1
271
     1
  0
XRECORD
  5
9D34
102
{ACAD_REACTORS
330
9D2E
102
}
330
9D2E
100
AcDbXrecord
280
     1
270
     1
271
     1
  0
XRECORD
  5
9D31
102
{ACAD_REACTORS
330
9D2E
102
}
330
9D2E
100
AcDbXrecord
280
     1
270
     1
271
     1
  0
XRECORD
  5
9D93
102
{ACAD_REACTORS
330
9D26
102
}
330
9D26
100
AcDbXrecord
280
     1
102
MATERIAL
148
0.0
149
0.0
149
0.0
 93
        0
 94
      127
282
     0
 72
     0
 77
     0
171
     0
175
     0
179
     0
273
     0
  0
XRECORD
  5
9D28
102
{ACAD_REACTORS
330
9D26
102
}
330
9D26
100
AcDbXrecord
280
     1
270
     1
271
     1
  0
XRECORD
  5
9D27
102
{ACAD_REACTORS
330
9D26
102
}
330
9D26
100
AcDbXrecord
280
     1
270
     1
271
     1
  0
XRECORD
  5
9D2B
102
{ACAD_REACTORS
330
9D26
102
}
330
9D26
100
AcDbXrecord
280
     1
270
     1
271
     1
  0
XRECORD
  5
9D2A
102
{ACAD_REACTORS
330
9D26
102
}
330
9D26
100
AcDbXrecord
280
     1
270
     1
271
     1
  0
XRECORD
  5
9D2C
102
{ACAD_REACTORS
330
9D26
102
}
330
9D26
100
AcDbXrecord
280
     1
270
     1
271
     1
  0
XRECORD
  5
9D29
102
{ACAD_REACTORS
330
9D26
102
}
330
9D26
100
AcDbXrecord
280
     1
270
     1
271
     1
  0
XRECORD
  5
9D95
102
{ACAD_REACTORS
330
9D36
102
}
330
9D36
100
AcDbXrecord
280
     1
102
MATERIAL
148
0.0
149
0.0
149
0.0
 93
        0
 94
      127
282
     0
 72
     0
 77
     0
171
     0
175
     0
179
     0
273
     0
  0
XRECORD
  5
9D38
102
{ACAD_REACTORS
330
9D36
102
}
330
9D36
100
AcDbXrecord
280
     1
270
     1
271
     1
  0
XRECORD
  5
9D37
102
{ACAD_REACTORS
330
9D36
102
}
330
9D36
100
AcDbXrecord
280
     1
270
     1
271
     1
  0
XRECORD
  5
9D3B
102
{ACAD_REACTORS
330
9D36
102
}
330
9D36
100
AcDbXrecord
280
     1
270
     1
271
     1
  0
XRECORD
  5
9D3A
102
{ACAD_REACTORS
330
9D36
102
}
330
9D36
100
AcDbXrecord
280
     1
270
     1
271
     1
  0
XRECORD
  5
9D3C
102
{ACAD_REACTORS
330
9D36
102
}
330
9D36
100
AcDbXrecord
280
     1
270
     1
271
     1
  0
XRECORD
  5
9D39
102
{ACAD_REACTORS
330
9D36
102
}
330
9D36
100
AcDbXrecord
280
     1
270
     1
271
     1
  0
XRECORD
  5
9DC9
102
{ACAD_REACTORS
330
9DC8
102
}
330
9DC8
100
AcDbXrecord
280
     1
102
DISPLAYNAME
  1
Imperial24
102
FLAGS
 90
        0
  0
CELLSTYLEMAP
  5
9D90
102
{ACAD_REACTORS
330
9D8F
102
}
330
9D8F
100
AcDbCellStyleMap
 90
        3
300
CELLSTYLE
  1
TABLEFORMAT_BEGIN
 90
        5
170
     1
 91
        0
 92
    32768
 62
   257
 93
        1
300
CONTENTFORMAT
  1
CONTENTFORMAT_BEGIN
 90
        0
 91
        0
 92
      512
 93
        0
300

 40
0.0
140
1.0
 94
        5
 62
     0
340
F
144
0.25
309
CONTENTFORMAT_END
171
     0
 94
        0
309
TABLEFORMAT_END
  1
CELLSTYLE_BEGIN
 90
        1
 91
        1
300
_TITLE
309
CELLSTYLE_END
300
CELLSTYLE
  1
TABLEFORMAT_BEGIN
 90
        5
170
     1
 91
        0
 92
        0
 62
   257
 93
        1
300
CONTENTFORMAT
  1
CONTENTFORMAT_BEGIN
 90
        0
 91
        0
 92
      512
 93
        0
300

 40
0.0
140
1.0
 94
        5
 62
     0
340
F
144
0.18
309
CONTENTFORMAT_END
171
     0
 94
        0
309
TABLEFORMAT_END
  1
CELLSTYLE_BEGIN
 90
        2
 91
        1
300
_HEADER
309
CELLSTYLE_END
300
CELLSTYLE
  1
TABLEFORMAT_BEGIN
 90
        5
170
     1
 91
        0
 92
        0
 62
   257
 93
        1
300
CONTENTFORMAT
  1
CONTENTFORMAT_BEGIN
 90
        0
 91
        0
 92
      512
 93
        0
300

 40
0.0
140
1.0
 94
        2
 62
     0
340
F
144
0.18
309
CONTENTFORMAT_END
171
     0
 94
        0
309
TABLEFORMAT_END
  1
CELLSTYLE_BEGIN
 90
        3
 91
        2
300
_DATA
309
CELLSTYLE_END
  0
XRECORD
  5
9DC6
102
{ACAD_REACTORS
330
9D8F
102
}
330
9D8F
100
AcDbXrecord
280
     1
102
ACAD_ROUNDTRIP_PRE2007_TABLESTYLE
 90
      512
 91
        0
  1

 92
      512
 93
        0
  2

 94
      512
 95
        0
  3

  0
XRECORD
  5
9DA1
102
{ACAD_REACTORS
330
9DA0
102
}
330
9DA0
100
AcDbXrecord
280
     1
102
RTVSPost2010Prop28
280
     1
102
RTVSPost2010PropOp28
 70
     1
102
RTVSPost2010Prop29
280
     1
102
RTVSPost2010PropOp29
 70
     1
102
RTVSPost2010Prop30
280
     0
102
RTVSPost2010PropOp30
 70
     1
102
RTVSPost2010Prop31
280
     0
102
RTVSPost2010PropOp31
 70
     1
102
RTVSPost2010Prop32
280
     0
102
RTVSPost2010PropOp32
 70
     1
102
RTVSPost2010Prop33
280
     0
102
RTVSPost2010PropOp33
 70
     1
102
RTVSPost2010Prop34
280
     0
102
RTVSPost2010PropOp34
 70
     1
102
RTVSPost2010Prop35
280
     0
102
RTVSPost2010PropOp35
 70
     1
102
RTVSPost2010Prop36
280
     0
102
RTVSPost2010PropOp36
 70
     1
102
RTVSPost2010Prop37
 90
       50
102
RTVSPost2010PropOp37
 70
     1
102
RTVSPost2010Prop38
140
0.0
102
RTVSPost2010PropOp38
 70
     1
102
RTVSPost2010Prop39
140
1.0
102
RTVSPost2010PropOp39
 70
     1
102
RTVSPost2010Prop40
 90
        0
102
RTVSPost2010PropOp40
 70
     1
102
RTVSPost2010Prop41ColorIndex
 90
       18
102
RTVSPost2010Prop41ColorRGB
 90
        0
102
RTVSPost2010PropOp41
 70
     1
102
RTVSPost2010Prop42
 90
       50
102
RTVSPost2010PropOp42
 70
     1
102
RTVSPost2010Prop43
 90
        3
102
RTVSPost2010PropOp43
 70
     1
102
RTVSPost2010Prop44ColorIndex
 90
        5
102
RTVSPost2010Prop44ColorRGB
 90
      255
102
RTVSPost2010PropOp44
 70
     1
102
RTVSPost2010Prop45
280
     0
102
RTVSPost2010PropOp45
 70
     1
102
RTVSPost2010Prop46
 90
       50
102
RTVSPost2010PropOp46
 70
     1
102
RTVSPost2010Prop47
 90
       50
102
RTVSPost2010PropOp47
 70
     1
102
RTVSPost2010Prop48
 90
       50
102
RTVSPost2010PropOp48
 70
     1
102
RTVSPost2010Prop49
280
     0
102
RTVSPost2010PropOp49
 70
     1
102
RTVSPost2010Prop50
 90
       50
102
RTVSPost2010PropOp50
 70
     1
102
RTVSPost2010Prop51ColorIndex
 90
      256
102
RTVSPost2010Prop51ColorRGB
 90
-16777216
102
RTVSPost2010PropOp51
 70
     0
102
RTVSPost2010Prop52
140
1.0
102
RTVSPost2010PropOp52
 70
     0
102
RTVSPost2010Prop53
 90
        2
102
RTVSPost2010PropOp53
 70
     1
102
RTVSPost2010Prop54
  1
strokes_ogs.tif
102
RTVSPost2010PropOp54
 70
     1
102
RTVSPost2010Prop55
280
     0
102
RTVSPost2010PropOp55
 70
     1
102
RTVSPost2010Prop56
140
1.0
102
RTVSPost2010PropOp56
 70
     1
102
RTVSPost2010Prop57
140
1.0
102
RTVSPost2010PropOp57
 70
     1
102
RTVSPropertyOp0
 70
     1
102
RTVSPropertyOp1
 70
     1
102
RTVSPropertyOp2
 70
     1
102
RTVSPropertyOp3
 70
     1
102
RTVSPropertyOp4
 70
     1
102
RTVSPropertyOp5
 70
     1
102
RTVSPropertyOp6
 70
     1
102
RTVSPropertyOp7
 70
     1
102
RTVSPropertyOp8
 70
     1
102
RTVSPropertyOp9
 70
     1
102
RTVSPropertyOp10
 70
     1
102
RTVSPropertyOp11
 70
     1
102
RTVSPropertyOp12
 70
     1
102
RTVSPropertyOp13
 70
     1
102
RTVSPropertyOp14
 70
     1
102
RTVSPropertyOp15
 70
     1
102
RTVSPropertyOp16
 70
     1
102
RTVSPropertyOp17
 70
     1
102
RTVSPropertyOp18
 70
     1
102
RTVSPropertyOp19
 70
     1
102
RTVSPropertyOp20
 70
     1
102
RTVSPropertyOp21
 70
     1
102
RTVSPropertyOp22
 70
     1
102
RTVSPropertyOp23
 70
     1
102
RTVSPropertyOp24
 70
     1
102
RTVSPropertyOp25
 70
     1
102
RTVSPropertyOp26
 70
     1
102
RTVSPropertyOp27
 70
     1
102
RTVSPropertyOp28
 70
     1
102
RTVSPropertyOp29
 70
     1
102
RTVSPropertyOp30
 70
     1
102
RTVSPropertyOp31
 70
     1
102
RTVSPropertyOp32
 70
     1
102
RTVSPropertyOp33
 70
     1
102
RTVSPropertyOp34
 70
     1
102
RTVSPropertyOp35
 70
     1
102
RTVSPropertyOp36
 70
     1
102
RTVSPropertyOp37
 70
     1
102
RTVSPropertyOp38
 70
     1
102
RTVSPropertyOp39
 70
     1
102
RTVSPropertyOp40
 70
     1
102
RTVSPropertyOp41
 70
     1
102
RTVSPropertyOp42
 70
     1
102
RTVSPropertyOp43
 70
     1
102
RTVSPropertyOp44
 70
     1
102
RTVSPropertyOp45
 70
     1
102
RTVSPropertyOp46
 70
     1
102
RTVSPropertyOp47
 70
     1
102
RTVSPropertyOp48
 70
     1
102
RTVSPropertyOp49
 70
     1
102
RTVSPropertyOp50
 70
     1
102
RTVSPropertyOp51
 70
     0
102
RTVSPropertyOp52
 70
     0
102
RTVSPropertyOp53
 70
     1
102
RTVSPropertyOp54
 70
     1
102
RTVSPropertyOp55
 70
     1
102
RTVSPropertyOp56
 70
     1
102
RTVSPropertyOp57
 70
     1
102
RTVSPropertyOp58
 70
     1
102
RTVSPropertyOp59
 70
     1
102
RTVSPropertyOp60
 70
     1
102
RTVSPropertyOp61
 70
     1
102
RTVSPropertyOp62
 70
     1
  0
XRECORD
  5
9D9F
102
{ACAD_REACTORS
330
9D9E
102
}
330
9D9E
100
AcDbXrecord
280
     1
102
RTVSPost2010Prop28
280
     0
102
RTVSPost2010PropOp28
 70
     1
102
RTVSPost2010Prop29
280
     1
102
RTVSPost2010PropOp29
 70
     1
102
RTVSPost2010Prop30
280
     1
102
RTVSPost2010PropOp30
 70
     1
102
RTVSPost2010Prop31
280
     0
102
RTVSPost2010PropOp31
 70
     1
102
RTVSPost2010Prop32
280
     0
102
RTVSPost2010PropOp32
 70
     1
102
RTVSPost2010Prop33
280
     0
102
RTVSPost2010PropOp33
 70
     1
102
RTVSPost2010Prop34
280
     0
102
RTVSPost2010PropOp34
 70
     1
102
RTVSPost2010Prop35
280
     0
102
RTVSPost2010PropOp35
 70
     1
102
RTVSPost2010Prop36
280
     0
102
RTVSPost2010PropOp36
 70
     1
102
RTVSPost2010Prop37
 90
       50
102
RTVSPost2010PropOp37
 70
     1
102
RTVSPost2010Prop38
140
0.0
102
RTVSPost2010PropOp38
 70
     1
102
RTVSPost2010Prop39
140
1.0
102
RTVSPost2010PropOp39
 70
     1
102
RTVSPost2010Prop40
 90
        0
102
RTVSPost2010PropOp40
 70
     1
102
RTVSPost2010Prop41ColorIndex
 90
       18
102
RTVSPost2010Prop41ColorRGB
 90
        0
102
RTVSPost2010PropOp41
 70
     1
102
RTVSPost2010Prop42
 90
       50
102
RTVSPost2010PropOp42
 70
     1
102
RTVSPost2010Prop43
 90
        3
102
RTVSPost2010PropOp43
 70
     1
102
RTVSPost2010Prop44ColorIndex
 90
        5
102
RTVSPost2010Prop44ColorRGB
 90
      255
102
RTVSPost2010PropOp44
 70
     1
102
RTVSPost2010Prop45
280
     0
102
RTVSPost2010PropOp45
 70
     1
102
RTVSPost2010Prop46
 90
       50
102
RTVSPost2010PropOp46
 70
     1
102
RTVSPost2010Prop47
 90
       50
102
RTVSPost2010PropOp47
 70
     1
102
RTVSPost2010Prop48
 90
       50
102
RTVSPost2010PropOp48
 70
     1
102
RTVSPost2010Prop49
280
     0
102
RTVSPost2010PropOp49
 70
     1
102
RTVSPost2010Prop50
 90
       50
102
RTVSPost2010PropOp50
 70
     1
102
RTVSPost2010Prop51ColorIndex
 90
      256
102
RTVSPost2010Prop51ColorRGB
 90
-16777216
102
RTVSPost2010PropOp51
 70
     0
102
RTVSPost2010Prop52
140
1.0
102
RTVSPost2010PropOp52
 70
     0
102
RTVSPost2010Prop53
 90
        2
102
RTVSPost2010PropOp53
 70
     1
102
RTVSPost2010Prop54
  1
strokes_ogs.tif
102
RTVSPost2010PropOp54
 70
     1
102
RTVSPost2010Prop55
280
     0
102
RTVSPost2010PropOp55
 70
     1
102
RTVSPost2010Prop56
140
1.0
102
RTVSPost2010PropOp56
 70
     1
102
RTVSPost2010Prop57
140
1.0
102
RTVSPost2010PropOp57
 70
     1
102
RTVSPropertyOp0
 70
     1
102
RTVSPropertyOp1
 70
     1
102
RTVSPropertyOp2
 70
     1
102
RTVSPropertyOp3
 70
     1
102
RTVSPropertyOp4
 70
     1
102
RTVSPropertyOp5
 70
     1
102
RTVSPropertyOp6
 70
     1
102
RTVSPropertyOp7
 70
     1
102
RTVSPropertyOp8
 70
     1
102
RTVSPropertyOp9
 70
     1
102
RTVSPropertyOp10
 70
     1
102
RTVSPropertyOp11
 70
     1
102
RTVSPropertyOp12
 70
     1
102
RTVSPropertyOp13
 70
     1
102
RTVSPropertyOp14
 70
     1
102
RTVSPropertyOp15
 70
     1
102
RTVSPropertyOp16
 70
     1
102
RTVSPropertyOp17
 70
     1
102
RTVSPropertyOp18
 70
     1
102
RTVSPropertyOp19
 70
     1
102
RTVSPropertyOp20
 70
     1
102
RTVSPropertyOp21
 70
     1
102
RTVSPropertyOp22
 70
     1
102
RTVSPropertyOp23
 70
     1
102
RTVSPropertyOp24
 70
     1
102
RTVSPropertyOp25
 70
     1
102
RTVSPropertyOp26
 70
     1
102
RTVSPropertyOp27
 70
     1
102
RTVSPropertyOp28
 70
     1
102
RTVSPropertyOp29
 70
     1
102
RTVSPropertyOp30
 70
     1
102
RTVSPropertyOp31
 70
     1
102
RTVSPropertyOp32
 70
     1
102
RTVSPropertyOp33
 70
     1
102
RTVSPropertyOp34
 70
     1
102
RTVSPropertyOp35
 70
     1
102
RTVSPropertyOp36
 70
     1
102
RTVSPropertyOp37
 70
     1
102
RTVSPropertyOp38
 70
     1
102
RTVSPropertyOp39
 70
     1
102
RTVSPropertyOp40
 70
     1
102
RTVSPropertyOp41
 70
     1
102
RTVSPropertyOp42
 70
     1
102
RTVSPropertyOp43
 70
     1
102
RTVSPropertyOp44
 70
     1
102
RTVSPropertyOp45
 70
     1
102
RTVSPropertyOp46
 70
     1
102
RTVSPropertyOp47
 70
     1
102
RTVSPropertyOp48
 70
     1
102
RTVSPropertyOp49
 70
     1
102
RTVSPropertyOp50
 70
     1
102
RTVSPropertyOp51
 70
     0
102
RTVSPropertyOp52
 70
     0
102
RTVSPropertyOp53
 70
     1
102
RTVSPropertyOp54
 70
     1
102
RTVSPropertyOp55
 70
     1
102
RTVSPropertyOp56
 70
     1
102
RTVSPropertyOp57
 70
     1
102
RTVSPropertyOp58
 70
     1
102
RTVSPropertyOp59
 70
     1
102
RTVSPropertyOp60
 70
     1
102
RTVSPropertyOp61
 70
     1
102
RTVSPropertyOp62
 70
     1
  0
XRECORD
  5
9DAD
102
{ACAD_REACTORS
330
9DAC
102
}
330
9DAC
100
AcDbXrecord
280
     1
102
RTVSPost2010Prop28
280
     0
102
RTVSPost2010PropOp28
 70
     1
102
RTVSPost2010Prop29
280
     1
102
RTVSPost2010PropOp29
 70
     1
102
RTVSPost2010Prop30
280
     1
102
RTVSPost2010PropOp30
 70
     1
102
RTVSPost2010Prop31
280
     0
102
RTVSPost2010PropOp31
 70
     1
102
RTVSPost2010Prop32
280
     0
102
RTVSPost2010PropOp32
 70
     1
102
RTVSPost2010Prop33
280
     0
102
RTVSPost2010PropOp33
 70
     1
102
RTVSPost2010Prop34
280
     0
102
RTVSPost2010PropOp34
 70
     1
102
RTVSPost2010Prop35
280
     0
102
RTVSPost2010PropOp35
 70
     1
102
RTVSPost2010Prop36
280
     0
102
RTVSPost2010PropOp36
 70
     1
102
RTVSPost2010Prop37
 90
       50
102
RTVSPost2010PropOp37
 70
     1
102
RTVSPost2010Prop38
140
0.0
102
RTVSPost2010PropOp38
 70
     1
102
RTVSPost2010Prop39
140
1.0
102
RTVSPost2010PropOp39
 70
     1
102
RTVSPost2010Prop40
 90
        0
102
RTVSPost2010PropOp40
 70
     1
102
RTVSPost2010Prop41ColorIndex
 90
       18
102
RTVSPost2010Prop41ColorRGB
 90
        0
102
RTVSPost2010PropOp41
 70
     1
102
RTVSPost2010Prop42
 90
       50
102
RTVSPost2010PropOp42
 70
     1
102
RTVSPost2010Prop43
 90
        3
102
RTVSPost2010PropOp43
 70
     1
102
RTVSPost2010Prop44ColorIndex
 90
        5
102
RTVSPost2010Prop44ColorRGB
 90
      255
102
RTVSPost2010PropOp44
 70
     1
102
RTVSPost2010Prop45
280
     0
102
RTVSPost2010PropOp45
 70
     1
102
RTVSPost2010Prop46
 90
       50
102
RTVSPost2010PropOp46
 70
     1
102
RTVSPost2010Prop47
 90
       50
102
RTVSPost2010PropOp47
 70
     1
102
RTVSPost2010Prop48
 90
       50
102
RTVSPost2010PropOp48
 70
     1
102
RTVSPost2010Prop49
280
     0
102
RTVSPost2010PropOp49
 70
     1
102
RTVSPost2010Prop50
 90
       50
102
RTVSPost2010PropOp50
 70
     1
102
RTVSPost2010Prop51ColorIndex
 90
      256
102
RTVSPost2010Prop51ColorRGB
 90
-16777216
102
RTVSPost2010PropOp51
 70
     0
102
RTVSPost2010Prop52
140
1.0
102
RTVSPost2010PropOp52
 70
     0
102
RTVSPost2010Prop53
 90
        2
102
RTVSPost2010PropOp53
 70
     1
102
RTVSPost2010Prop54
  1
strokes_ogs.tif
102
RTVSPost2010PropOp54
 70
     1
102
RTVSPost2010Prop55
280
     0
102
RTVSPost2010PropOp55
 70
     1
102
RTVSPost2010Prop56
140
1.0
102
RTVSPost2010PropOp56
 70
     1
102
RTVSPost2010Prop57
140
1.0
102
RTVSPost2010PropOp57
 70
     1
102
RTVSPropertyOp0
 70
     1
102
RTVSPropertyOp1
 70
     1
102
RTVSPropertyOp2
 70
     1
102
RTVSPropertyOp3
 70
     1
102
RTVSPropertyOp4
 70
     1
102
RTVSPropertyOp5
 70
     1
102
RTVSPropertyOp6
 70
     1
102
RTVSPropertyOp7
 70
     1
102
RTVSPropertyOp8
 70
     1
102
RTVSPropertyOp9
 70
     1
102
RTVSPropertyOp10
 70
     1
102
RTVSPropertyOp11
 70
     1
102
RTVSPropertyOp12
 70
     1
102
RTVSPropertyOp13
 70
     1
102
RTVSPropertyOp14
 70
     1
102
RTVSPropertyOp15
 70
     1
102
RTVSPropertyOp16
 70
     1
102
RTVSPropertyOp17
 70
     1
102
RTVSPropertyOp18
 70
     1
102
RTVSPropertyOp19
 70
     1
102
RTVSPropertyOp20
 70
     1
102
RTVSPropertyOp21
 70
     1
102
RTVSPropertyOp22
 70
     1
102
RTVSPropertyOp23
 70
     1
102
RTVSPropertyOp24
 70
     1
102
RTVSPropertyOp25
 70
     1
102
RTVSPropertyOp26
 70
     1
102
RTVSPropertyOp27
 70
     1
102
RTVSPropertyOp28
 70
     1
102
RTVSPropertyOp29
 70
     1
102
RTVSPropertyOp30
 70
     1
102
RTVSPropertyOp31
 70
     1
102
RTVSPropertyOp32
 70
     1
102
RTVSPropertyOp33
 70
     1
102
RTVSPropertyOp34
 70
     1
102
RTVSPropertyOp35
 70
     1
102
RTVSPropertyOp36
 70
     1
102
RTVSPropertyOp37
 70
     1
102
RTVSPropertyOp38
 70
     1
102
RTVSPropertyOp39
 70
     1
102
RTVSPropertyOp40
 70
     1
102
RTVSPropertyOp41
 70
     1
102
RTVSPropertyOp42
 70
     1
102
RTVSPropertyOp43
 70
     1
102
RTVSPropertyOp44
 70
     1
102
RTVSPropertyOp45
 70
     1
102
RTVSPropertyOp46
 70
     1
102
RTVSPropertyOp47
 70
     1
102
RTVSPropertyOp48
 70
     1
102
RTVSPropertyOp49
 70
     1
102
RTVSPropertyOp50
 70
     1
102
RTVSPropertyOp51
 70
     0
102
RTVSPropertyOp52
 70
     0
102
RTVSPropertyOp53
 70
     1
102
RTVSPropertyOp54
 70
     1
102
RTVSPropertyOp55
 70
     1
102
RTVSPropertyOp56
 70
     1
102
RTVSPropertyOp57
 70
     1
102
RTVSPropertyOp58
 70
     1
102
RTVSPropertyOp59
 70
     1
102
RTVSPropertyOp60
 70
     1
102
RTVSPropertyOp61
 70
     1
102
RTVSPropertyOp62
 70
     1
  0
XRECORD
  5
9DB5
102
{ACAD_REACTORS
330
9DB4
102
}
330
9DB4
100
AcDbXrecord
280
     1
102
RTVSPost2010Prop28
280
     0
102
RTVSPost2010PropOp28
 70
     1
102
RTVSPost2010Prop29
280
     1
102
RTVSPost2010PropOp29
 70
     1
102
RTVSPost2010Prop30
280
     1
102
RTVSPost2010PropOp30
 70
     1
102
RTVSPost2010Prop31
280
     0
102
RTVSPost2010PropOp31
 70
     1
102
RTVSPost2010Prop32
280
     0
102
RTVSPost2010PropOp32
 70
     1
102
RTVSPost2010Prop33
280
     0
102
RTVSPost2010PropOp33
 70
     1
102
RTVSPost2010Prop34
280
     0
102
RTVSPost2010PropOp34
 70
     1
102
RTVSPost2010Prop35
280
     0
102
RTVSPost2010PropOp35
 70
     1
102
RTVSPost2010Prop36
280
     0
102
RTVSPost2010PropOp36
 70
     1
102
RTVSPost2010Prop37
 90
       50
102
RTVSPost2010PropOp37
 70
     1
102
RTVSPost2010Prop38
140
0.0
102
RTVSPost2010PropOp38
 70
     1
102
RTVSPost2010Prop39
140
1.0
102
RTVSPost2010PropOp39
 70
     1
102
RTVSPost2010Prop40
 90
        0
102
RTVSPost2010PropOp40
 70
     1
102
RTVSPost2010Prop41ColorIndex
 90
       18
102
RTVSPost2010Prop41ColorRGB
 90
        0
102
RTVSPost2010PropOp41
 70
     1
102
RTVSPost2010Prop42
 90
       50
102
RTVSPost2010PropOp42
 70
     1
102
RTVSPost2010Prop43
 90
        3
102
RTVSPost2010PropOp43
 70
     1
102
RTVSPost2010Prop44ColorIndex
 90
        5
102
RTVSPost2010Prop44ColorRGB
 90
      255
102
RTVSPost2010PropOp44
 70
     1
102
RTVSPost2010Prop45
280
     0
102
RTVSPost2010PropOp45
 70
     1
102
RTVSPost2010Prop46
 90
       50
102
RTVSPost2010PropOp46
 70
     1
102
RTVSPost2010Prop47
 90
       50
102
RTVSPost2010PropOp47
 70
     1
102
RTVSPost2010Prop48
 90
       50
102
RTVSPost2010PropOp48
 70
     1
102
RTVSPost2010Prop49
280
     0
102
RTVSPost2010PropOp49
 70
     1
102
RTVSPost2010Prop50
 90
       50
102
RTVSPost2010PropOp50
 70
     1
102
RTVSPost2010Prop51ColorIndex
 90
      256
102
RTVSPost2010Prop51ColorRGB
 90
-16777216
102
RTVSPost2010PropOp51
 70
     0
102
RTVSPost2010Prop52
140
1.0
102
RTVSPost2010PropOp52
 70
     0
102
RTVSPost2010Prop53
 90
        2
102
RTVSPost2010PropOp53
 70
     1
102
RTVSPost2010Prop54
  1
strokes_ogs.tif
102
RTVSPost2010PropOp54
 70
     1
102
RTVSPost2010Prop55
280
     0
102
RTVSPost2010PropOp55
 70
     1
102
RTVSPost2010Prop56
140
1.0
102
RTVSPost2010PropOp56
 70
     1
102
RTVSPost2010Prop57
140
1.0
102
RTVSPost2010PropOp57
 70
     1
102
RTVSPropertyOp0
 70
     1
102
RTVSPropertyOp1
 70
     1
102
RTVSPropertyOp2
 70
     1
102
RTVSPropertyOp3
 70
     1
102
RTVSPropertyOp4
 70
     1
102
RTVSPropertyOp5
 70
     1
102
RTVSPropertyOp6
 70
     1
102
RTVSPropertyOp7
 70
     1
102
RTVSPropertyOp8
 70
     1
102
RTVSPropertyOp9
 70
     1
102
RTVSPropertyOp10
 70
     1
102
RTVSPropertyOp11
 70
     1
102
RTVSPropertyOp12
 70
     1
102
RTVSPropertyOp13
 70
     1
102
RTVSPropertyOp14
 70
     1
102
RTVSPropertyOp15
 70
     1
102
RTVSPropertyOp16
 70
     1
102
RTVSPropertyOp17
 70
     1
102
RTVSPropertyOp18
 70
     1
102
RTVSPropertyOp19
 70
     1
102
RTVSPropertyOp20
 70
     1
102
RTVSPropertyOp21
 70
     1
102
RTVSPropertyOp22
 70
     1
102
RTVSPropertyOp23
 70
     1
102
RTVSPropertyOp24
 70
     1
102
RTVSPropertyOp25
 70
     1
102
RTVSPropertyOp26
 70
     1
102
RTVSPropertyOp27
 70
     1
102
RTVSPropertyOp28
 70
     1
102
RTVSPropertyOp29
 70
     1
102
RTVSPropertyOp30
 70
     1
102
RTVSPropertyOp31
 70
     1
102
RTVSPropertyOp32
 70
     1
102
RTVSPropertyOp33
 70
     1
102
RTVSPropertyOp34
 70
     1
102
RTVSPropertyOp35
 70
     1
102
RTVSPropertyOp36
 70
     1
102
RTVSPropertyOp37
 70
     1
102
RTVSPropertyOp38
 70
     1
102
RTVSPropertyOp39
 70
     1
102
RTVSPropertyOp40
 70
     1
102
RTVSPropertyOp41
 70
     1
102
RTVSPropertyOp42
 70
     1
102
RTVSPropertyOp43
 70
     1
102
RTVSPropertyOp44
 70
     1
102
RTVSPropertyOp45
 70
     1
102
RTVSPropertyOp46
 70
     1
102
RTVSPropertyOp47
 70
     1
102
RTVSPropertyOp48
 70
     1
102
RTVSPropertyOp49
 70
     1
102
RTVSPropertyOp50
 70
     1
102
RTVSPropertyOp51
 70
     0
102
RTVSPropertyOp52
 70
     0
102
RTVSPropertyOp53
 70
     1
102
RTVSPropertyOp54
 70
     1
102
RTVSPropertyOp55
 70
     1
102
RTVSPropertyOp56
 70
     1
102
RTVSPropertyOp57
 70
     1
102
RTVSPropertyOp58
 70
     1
102
RTVSPropertyOp59
 70
     1
102
RTVSPropertyOp60
 70
     1
102
RTVSPropertyOp61
 70
     1
102
RTVSPropertyOp62
 70
     1
  0
XRECORD
  5
9DA7
102
{ACAD_REACTORS
330
9DA6
102
}
330
9DA6
100
AcDbXrecord
280
     1
102
RTVSPost2010Prop28
280
     0
102
RTVSPost2010PropOp28
 70
     1
102
RTVSPost2010Prop29
280
     1
102
RTVSPost2010PropOp29
 70
     1
102
RTVSPost2010Prop30
280
     1
102
RTVSPost2010PropOp30
 70
     1
102
RTVSPost2010Prop31
280
     0
102
RTVSPost2010PropOp31
 70
     1
102
RTVSPost2010Prop32
280
     0
102
RTVSPost2010PropOp32
 70
     1
102
RTVSPost2010Prop33
280
     0
102
RTVSPost2010PropOp33
 70
     1
102
RTVSPost2010Prop34
280
     0
102
RTVSPost2010PropOp34
 70
     1
102
RTVSPost2010Prop35
280
     0
102
RTVSPost2010PropOp35
 70
     1
102
RTVSPost2010Prop36
280
     0
102
RTVSPost2010PropOp36
 70
     1
102
RTVSPost2010Prop37
 90
       50
102
RTVSPost2010PropOp37
 70
     1
102
RTVSPost2010Prop38
140
0.0
102
RTVSPost2010PropOp38
 70
     1
102
RTVSPost2010Prop39
140
1.0
102
RTVSPost2010PropOp39
 70
     1
102
RTVSPost2010Prop40
 90
        0
102
RTVSPost2010PropOp40
 70
     1
102
RTVSPost2010Prop41ColorIndex
 90
       18
102
RTVSPost2010Prop41ColorRGB
 90
        0
102
RTVSPost2010PropOp41
 70
     1
102
RTVSPost2010Prop42
 90
       50
102
RTVSPost2010PropOp42
 70
     1
102
RTVSPost2010Prop43
 90
        3
102
RTVSPost2010PropOp43
 70
     1
102
RTVSPost2010Prop44ColorIndex
 90
        5
102
RTVSPost2010Prop44ColorRGB
 90
      255
102
RTVSPost2010PropOp44
 70
     1
102
RTVSPost2010Prop45
280
     0
102
RTVSPost2010PropOp45
 70
     1
102
RTVSPost2010Prop46
 90
       50
102
RTVSPost2010PropOp46
 70
     1
102
RTVSPost2010Prop47
 90
       50
102
RTVSPost2010PropOp47
 70
     1
102
RTVSPost2010Prop48
 90
       50
102
RTVSPost2010PropOp48
 70
     1
102
RTVSPost2010Prop49
280
     0
102
RTVSPost2010PropOp49
 70
     1
102
RTVSPost2010Prop50
 90
       50
102
RTVSPost2010PropOp50
 70
     1
102
RTVSPost2010Prop51ColorIndex
 90
      256
102
RTVSPost2010Prop51ColorRGB
 90
-16777216
102
RTVSPost2010PropOp51
 70
     0
102
RTVSPost2010Prop52
140
1.0
102
RTVSPost2010PropOp52
 70
     0
102
RTVSPost2010Prop53
 90
        2
102
RTVSPost2010PropOp53
 70
     1
102
RTVSPost2010Prop54
  1
strokes_ogs.tif
102
RTVSPost2010PropOp54
 70
     1
102
RTVSPost2010Prop55
280
     0
102
RTVSPost2010PropOp55
 70
     1
102
RTVSPost2010Prop56
140
1.0
102
RTVSPost2010PropOp56
 70
     1
102
RTVSPost2010Prop57
140
1.0
102
RTVSPost2010PropOp57
 70
     1
102
RTVSPropertyOp0
 70
     1
102
RTVSPropertyOp1
 70
     1
102
RTVSPropertyOp2
 70
     1
102
RTVSPropertyOp3
 70
     1
102
RTVSPropertyOp4
 70
     1
102
RTVSPropertyOp5
 70
     1
102
RTVSPropertyOp6
 70
     1
102
RTVSPropertyOp7
 70
     1
102
RTVSPropertyOp8
 70
     1
102
RTVSPropertyOp9
 70
     1
102
RTVSPropertyOp10
 70
     1
102
RTVSPropertyOp11
 70
     1
102
RTVSPropertyOp12
 70
     1
102
RTVSPropertyOp13
 70
     1
102
RTVSPropertyOp14
 70
     1
102
RTVSPropertyOp15
 70
     1
102
RTVSPropertyOp16
 70
     1
102
RTVSPropertyOp17
 70
     1
102
RTVSPropertyOp18
 70
     1
102
RTVSPropertyOp19
 70
     1
102
RTVSPropertyOp20
 70
     1
102
RTVSPropertyOp21
 70
     1
102
RTVSPropertyOp22
 70
     1
102
RTVSPropertyOp23
 70
     1
102
RTVSPropertyOp24
 70
     1
102
RTVSPropertyOp25
 70
     1
102
RTVSPropertyOp26
 70
     1
102
RTVSPropertyOp27
 70
     1
102
RTVSPropertyOp28
 70
     1
102
RTVSPropertyOp29
 70
     1
102
RTVSPropertyOp30
 70
     1
102
RTVSPropertyOp31
 70
     1
102
RTVSPropertyOp32
 70
     1
102
RTVSPropertyOp33
 70
     1
102
RTVSPropertyOp34
 70
     1
102
RTVSPropertyOp35
 70
     1
102
RTVSPropertyOp36
 70
     1
102
RTVSPropertyOp37
 70
     1
102
RTVSPropertyOp38
 70
     1
102
RTVSPropertyOp39
 70
     1
102
RTVSPropertyOp40
 70
     1
102
RTVSPropertyOp41
 70
     1
102
RTVSPropertyOp42
 70
     1
102
RTVSPropertyOp43
 70
     1
102
RTVSPropertyOp44
 70
     1
102
RTVSPropertyOp45
 70
     1
102
RTVSPropertyOp46
 70
     1
102
RTVSPropertyOp47
 70
     1
102
RTVSPropertyOp48
 70
     1
102
RTVSPropertyOp49
 70
     1
102
RTVSPropertyOp50
 70
     1
102
RTVSPropertyOp51
 70
     0
102
RTVSPropertyOp52
 70
     0
102
RTVSPropertyOp53
 70
     1
102
RTVSPropertyOp54
 70
     1
102
RTVSPropertyOp55
 70
     1
102
RTVSPropertyOp56
 70
     1
102
RTVSPropertyOp57
 70
     1
102
RTVSPropertyOp58
 70
     1
102
RTVSPropertyOp59
 70
     1
102
RTVSPropertyOp60
 70
     1
102
RTVSPropertyOp61
 70
     1
102
RTVSPropertyOp62
 70
     1
  0
XRECORD
  5
9DAB
102
{ACAD_REACTORS
330
9DAA
102
}
330
9DAA
100
AcDbXrecord
280
     1
102
RTVSPost2010Prop28
280
     0
102
RTVSPost2010PropOp28
 70
     1
102
RTVSPost2010Prop29
280
     1
102
RTVSPost2010PropOp29
 70
     1
102
RTVSPost2010Prop30
280
     1
102
RTVSPost2010PropOp30
 70
     1
102
RTVSPost2010Prop31
280
     0
102
RTVSPost2010PropOp31
 70
     1
102
RTVSPost2010Prop32
280
     0
102
RTVSPost2010PropOp32
 70
     1
102
RTVSPost2010Prop33
280
     0
102
RTVSPost2010PropOp33
 70
     1
102
RTVSPost2010Prop34
280
     0
102
RTVSPost2010PropOp34
 70
     1
102
RTVSPost2010Prop35
280
     0
102
RTVSPost2010PropOp35
 70
     1
102
RTVSPost2010Prop36
280
     0
102
RTVSPost2010PropOp36
 70
     1
102
RTVSPost2010Prop37
 90
       50
102
RTVSPost2010PropOp37
 70
     1
102
RTVSPost2010Prop38
140
0.0
102
RTVSPost2010PropOp38
 70
     1
102
RTVSPost2010Prop39
140
1.0
102
RTVSPost2010PropOp39
 70
     1
102
RTVSPost2010Prop40
 90
        0
102
RTVSPost2010PropOp40
 70
     1
102
RTVSPost2010Prop41ColorIndex
 90
       18
102
RTVSPost2010Prop41ColorRGB
 90
        0
102
RTVSPost2010PropOp41
 70
     1
102
RTVSPost2010Prop42
 90
       50
102
RTVSPost2010PropOp42
 70
     1
102
RTVSPost2010Prop43
 90
        3
102
RTVSPost2010PropOp43
 70
     1
102
RTVSPost2010Prop44ColorIndex
 90
        5
102
RTVSPost2010Prop44ColorRGB
 90
      255
102
RTVSPost2010PropOp44
 70
     1
102
RTVSPost2010Prop45
280
     0
102
RTVSPost2010PropOp45
 70
     1
102
RTVSPost2010Prop46
 90
       50
102
RTVSPost2010PropOp46
 70
     1
102
RTVSPost2010Prop47
 90
       50
102
RTVSPost2010PropOp47
 70
     1
102
RTVSPost2010Prop48
 90
       50
102
RTVSPost2010PropOp48
 70
     1
102
RTVSPost2010Prop49
280
     0
102
RTVSPost2010PropOp49
 70
     1
102
RTVSPost2010Prop50
 90
       50
102
RTVSPost2010PropOp50
 70
     1
102
RTVSPost2010Prop51ColorIndex
 90
      256
102
RTVSPost2010Prop51ColorRGB
 90
-16777216
102
RTVSPost2010PropOp51
 70
     0
102
RTVSPost2010Prop52
140
1.0
102
RTVSPost2010PropOp52
 70
     0
102
RTVSPost2010Prop53
 90
        2
102
RTVSPost2010PropOp53
 70
     1
102
RTVSPost2010Prop54
  1
strokes_ogs.tif
102
RTVSPost2010PropOp54
 70
     1
102
RTVSPost2010Prop55
280
     0
102
RTVSPost2010PropOp55
 70
     1
102
RTVSPost2010Prop56
140
1.0
102
RTVSPost2010PropOp56
 70
     1
102
RTVSPost2010Prop57
140
1.0
102
RTVSPost2010PropOp57
 70
     1
102
RTVSPropertyOp0
 70
     1
102
RTVSPropertyOp1
 70
     1
102
RTVSPropertyOp2
 70
     1
102
RTVSPropertyOp3
 70
     1
102
RTVSPropertyOp4
 70
     1
102
RTVSPropertyOp5
 70
     1
102
RTVSPropertyOp6
 70
     1
102
RTVSPropertyOp7
 70
     1
102
RTVSPropertyOp8
 70
     1
102
RTVSPropertyOp9
 70
     1
102
RTVSPropertyOp10
 70
     1
102
RTVSPropertyOp11
 70
     1
102
RTVSPropertyOp12
 70
     1
102
RTVSPropertyOp13
 70
     1
102
RTVSPropertyOp14
 70
     1
102
RTVSPropertyOp15
 70
     1
102
RTVSPropertyOp16
 70
     1
102
RTVSPropertyOp17
 70
     1
102
RTVSPropertyOp18
 70
     1
102
RTVSPropertyOp19
 70
     1
102
RTVSPropertyOp20
 70
     1
102
RTVSPropertyOp21
 70
     1
102
RTVSPropertyOp22
 70
     1
102
RTVSPropertyOp23
 70
     1
102
RTVSPropertyOp24
 70
     1
102
RTVSPropertyOp25
 70
     1
102
RTVSPropertyOp26
 70
     1
102
RTVSPropertyOp27
 70
     1
102
RTVSPropertyOp28
 70
     1
102
RTVSPropertyOp29
 70
     1
102
RTVSPropertyOp30
 70
     1
102
RTVSPropertyOp31
 70
     1
102
RTVSPropertyOp32
 70
     1
102
RTVSPropertyOp33
 70
     1
102
RTVSPropertyOp34
 70
     1
102
RTVSPropertyOp35
 70
     1
102
RTVSPropertyOp36
 70
     1
102
RTVSPropertyOp37
 70
     1
102
RTVSPropertyOp38
 70
     1
102
RTVSPropertyOp39
 70
     1
102
RTVSPropertyOp40
 70
     1
102
RTVSPropertyOp41
 70
     1
102
RTVSPropertyOp42
 70
     1
102
RTVSPropertyOp43
 70
     1
102
RTVSPropertyOp44
 70
     1
102
RTVSPropertyOp45
 70
     1
102
RTVSPropertyOp46
 70
     1
102
RTVSPropertyOp47
 70
     1
102
RTVSPropertyOp48
 70
     1
102
RTVSPropertyOp49
 70
     1
102
RTVSPropertyOp50
 70
     1
102
RTVSPropertyOp51
 70
     0
102
RTVSPropertyOp52
 70
     0
102
RTVSPropertyOp53
 70
     1
102
RTVSPropertyOp54
 70
     1
102
RTVSPropertyOp55
 70
     1
102
RTVSPropertyOp56
 70
     1
102
RTVSPropertyOp57
 70
     1
102
RTVSPropertyOp58
 70
     1
102
RTVSPropertyOp59
 70
     1
102
RTVSPropertyOp60
 70
     1
102
RTVSPropertyOp61
 70
     1
102
RTVSPropertyOp62
 70
     1
  0
XRECORD
  5
9DC5
102
{ACAD_REACTORS
330
9DC4
102
}
330
9DC4
100
AcDbXrecord
280
     1
102
RTVSPost2010Prop28
280
     0
102
RTVSPost2010PropOp28
 70
     1
102
RTVSPost2010Prop29
280
     1
102
RTVSPost2010PropOp29
 70
     1
102
RTVSPost2010Prop30
280
     1
102
RTVSPost2010PropOp30
 70
     1
102
RTVSPost2010Prop31
280
     0
102
RTVSPost2010PropOp31
 70
     1
102
RTVSPost2010Prop32
280
     0
102
RTVSPost2010PropOp32
 70
     1
102
RTVSPost2010Prop33
280
     0
102
RTVSPost2010PropOp33
 70
     1
102
RTVSPost2010Prop34
280
     0
102
RTVSPost2010PropOp34
 70
     1
102
RTVSPost2010Prop35
280
     0
102
RTVSPost2010PropOp35
 70
     1
102
RTVSPost2010Prop36
280
     0
102
RTVSPost2010PropOp36
 70
     1
102
RTVSPost2010Prop37
 90
       50
102
RTVSPost2010PropOp37
 70
     0
102
RTVSPost2010Prop38
140
0.0
102
RTVSPost2010PropOp38
 70
     0
102
RTVSPost2010Prop39
140
1.0
102
RTVSPost2010PropOp39
 70
     0
102
RTVSPost2010Prop40
 90
        0
102
RTVSPost2010PropOp40
 70
     0
102
RTVSPost2010Prop41ColorIndex
 90
       18
102
RTVSPost2010Prop41ColorRGB
 90
        0
102
RTVSPost2010PropOp41
 70
     0
102
RTVSPost2010Prop42
 90
       50
102
RTVSPost2010PropOp42
 70
     0
102
RTVSPost2010Prop43
 90
        3
102
RTVSPost2010PropOp43
 70
     0
102
RTVSPost2010Prop44ColorIndex
 90
        5
102
RTVSPost2010Prop44ColorRGB
 90
      255
102
RTVSPost2010PropOp44
 70
     0
102
RTVSPost2010Prop45
280
     0
102
RTVSPost2010PropOp45
 70
     1
102
RTVSPost2010Prop46
 90
       50
102
RTVSPost2010PropOp46
 70
     0
102
RTVSPost2010Prop47
 90
       50
102
RTVSPost2010PropOp47
 70
     0
102
RTVSPost2010Prop48
 90
       50
102
RTVSPost2010PropOp48
 70
     0
102
RTVSPost2010Prop49
280
     0
102
RTVSPost2010PropOp49
 70
     1
102
RTVSPost2010Prop50
 90
       50
102
RTVSPost2010PropOp50
 70
     0
102
RTVSPost2010Prop51ColorIndex
 90
      256
102
RTVSPost2010Prop51ColorRGB
 90
-16777216
102
RTVSPost2010PropOp51
 70
     0
102
RTVSPost2010Prop52
140
1.0
102
RTVSPost2010PropOp52
 70
     0
102
RTVSPost2010Prop53
 90
        2
102
RTVSPost2010PropOp53
 70
     0
102
RTVSPost2010Prop54
  1
strokes_ogs.tif
102
RTVSPost2010PropOp54
 70
     0
102
RTVSPost2010Prop55
280
     0
102
RTVSPost2010PropOp55
 70
     1
102
RTVSPost2010Prop56
140
1.0
102
RTVSPost2010PropOp56
 70
     0
102
RTVSPost2010Prop57
140
1.0
102
RTVSPost2010PropOp57
 70
     0
102
RTVSPropertyOp0
 70
     0
102
RTVSPropertyOp1
 70
     0
102
RTVSPropertyOp2
 70
     0
102
RTVSPropertyOp3
 70
     0
102
RTVSPropertyOp4
 70
     0
102
RTVSPropertyOp5
 70
     0
102
RTVSPropertyOp6
 70
     0
102
RTVSPropertyOp7
 70
     0
102
RTVSPropertyOp8
 70
     0
102
RTVSPropertyOp9
 70
     0
102
RTVSPropertyOp10
 70
     0
102
RTVSPropertyOp11
 70
     0
102
RTVSPropertyOp12
 70
     0
102
RTVSPropertyOp13
 70
     0
102
RTVSPropertyOp14
 70
     2
102
RTVSPropertyOp15
 70
     0
102
RTVSPropertyOp16
 70
     0
102
RTVSPropertyOp17
 70
     0
102
RTVSPropertyOp18
 70
     0
102
RTVSPropertyOp19
 70
     0
102
RTVSPropertyOp20
 70
     0
102
RTVSPropertyOp21
 70
     0
102
RTVSPropertyOp22
 70
     0
102
RTVSPropertyOp23
 70
     0
102
RTVSPropertyOp24
 70
     0
102
RTVSPropertyOp25
 70
     0
102
RTVSPropertyOp26
 70
     0
102
RTVSPropertyOp27
 70
     0
102
RTVSPropertyOp28
 70
     1
102
RTVSPropertyOp29
 70
     1
102
RTVSPropertyOp30
 70
     1
102
RTVSPropertyOp31
 70
     1
102
RTVSPropertyOp32
 70
     1
102
RTVSPropertyOp33
 70
     1
102
RTVSPropertyOp34
 70
     1
102
RTVSPropertyOp35
 70
     1
102
RTVSPropertyOp36
 70
     1
102
RTVSPropertyOp37
 70
     0
102
RTVSPropertyOp38
 70
     0
102
RTVSPropertyOp39
 70
     0
102
RTVSPropertyOp40
 70
     0
102
RTVSPropertyOp41
 70
     0
102
RTVSPropertyOp42
 70
     0
102
RTVSPropertyOp43
 70
     0
102
RTVSPropertyOp44
 70
     0
102
RTVSPropertyOp45
 70
     1
102
RTVSPropertyOp46
 70
     0
102
RTVSPropertyOp47
 70
     0
102
RTVSPropertyOp48
 70
     0
102
RTVSPropertyOp49
 70
     1
102
RTVSPropertyOp50
 70
     0
102
RTVSPropertyOp51
 70
     0
102
RTVSPropertyOp52
 70
     0
102
RTVSPropertyOp53
 70
     0
102
RTVSPropertyOp54
 70
     0
102
RTVSPropertyOp55
 70
     1
102
RTVSPropertyOp56
 70
     0
102
RTVSPropertyOp57
 70
     0
102
RTVSPropertyOp58
 70
     0
102
RTVSPropertyOp59
 70
     0
102
RTVSPropertyOp60
 70
     0
102
RTVSPropertyOp61
 70
     0
102
RTVSPropertyOp62
 70
     0
  0
XRECORD
  5
9DB3
102
{ACAD_REACTORS
330
9DB2
102
}
330
9DB2
100
AcDbXrecord
280
     1
102
RTVSPost2010Prop28
280
     0
102
RTVSPost2010PropOp28
 70
     1
102
RTVSPost2010Prop29
280
     1
102
RTVSPost2010PropOp29
 70
     1
102
RTVSPost2010Prop30
280
     1
102
RTVSPost2010PropOp30
 70
     1
102
RTVSPost2010Prop31
280
     0
102
RTVSPost2010PropOp31
 70
     1
102
RTVSPost2010Prop32
280
     0
102
RTVSPost2010PropOp32
 70
     1
102
RTVSPost2010Prop33
280
     0
102
RTVSPost2010PropOp33
 70
     1
102
RTVSPost2010Prop34
280
     0
102
RTVSPost2010PropOp34
 70
     1
102
RTVSPost2010Prop35
280
     0
102
RTVSPost2010PropOp35
 70
     1
102
RTVSPost2010Prop36
280
     0
102
RTVSPost2010PropOp36
 70
     1
102
RTVSPost2010Prop37
 90
       50
102
RTVSPost2010PropOp37
 70
     1
102
RTVSPost2010Prop38
140
0.0
102
RTVSPost2010PropOp38
 70
     1
102
RTVSPost2010Prop39
140
1.0
102
RTVSPost2010PropOp39
 70
     1
102
RTVSPost2010Prop40
 90
        0
102
RTVSPost2010PropOp40
 70
     1
102
RTVSPost2010Prop41ColorIndex
 90
       18
102
RTVSPost2010Prop41ColorRGB
 90
        0
102
RTVSPost2010PropOp41
 70
     1
102
RTVSPost2010Prop42
 90
       50
102
RTVSPost2010PropOp42
 70
     1
102
RTVSPost2010Prop43
 90
        3
102
RTVSPost2010PropOp43
 70
     1
102
RTVSPost2010Prop44ColorIndex
 90
        5
102
RTVSPost2010Prop44ColorRGB
 90
      255
102
RTVSPost2010PropOp44
 70
     1
102
RTVSPost2010Prop45
280
     0
102
RTVSPost2010PropOp45
 70
     1
102
RTVSPost2010Prop46
 90
       50
102
RTVSPost2010PropOp46
 70
     1
102
RTVSPost2010Prop47
 90
       50
102
RTVSPost2010PropOp47
 70
     1
102
RTVSPost2010Prop48
 90
       50
102
RTVSPost2010PropOp48
 70
     1
102
RTVSPost2010Prop49
280
     0
102
RTVSPost2010PropOp49
 70
     1
102
RTVSPost2010Prop50
 90
       50
102
RTVSPost2010PropOp50
 70
     1
102
RTVSPost2010Prop51ColorIndex
 90
      256
102
RTVSPost2010Prop51ColorRGB
 90
-16777216
102
RTVSPost2010PropOp51
 70
     0
102
RTVSPost2010Prop52
140
1.0
102
RTVSPost2010PropOp52
 70
     0
102
RTVSPost2010Prop53
 90
        2
102
RTVSPost2010PropOp53
 70
     1
102
RTVSPost2010Prop54
  1
strokes_ogs.tif
102
RTVSPost2010PropOp54
 70
     1
102
RTVSPost2010Prop55
280
     0
102
RTVSPost2010PropOp55
 70
     1
102
RTVSPost2010Prop56
140
1.0
102
RTVSPost2010PropOp56
 70
     1
102
RTVSPost2010Prop57
140
1.0
102
RTVSPost2010PropOp57
 70
     1
102
RTVSPropertyOp0
 70
     1
102
RTVSPropertyOp1
 70
     1
102
RTVSPropertyOp2
 70
     1
102
RTVSPropertyOp3
 70
     1
102
RTVSPropertyOp4
 70
     1
102
RTVSPropertyOp5
 70
     1
102
RTVSPropertyOp6
 70
     1
102
RTVSPropertyOp7
 70
     1
102
RTVSPropertyOp8
 70
     1
102
RTVSPropertyOp9
 70
     1
102
RTVSPropertyOp10
 70
     1
102
RTVSPropertyOp11
 70
     1
102
RTVSPropertyOp12
 70
     1
102
RTVSPropertyOp13
 70
     1
102
RTVSPropertyOp14
 70
     1
102
RTVSPropertyOp15
 70
     1
102
RTVSPropertyOp16
 70
     1
102
RTVSPropertyOp17
 70
     1
102
RTVSPropertyOp18
 70
     1
102
RTVSPropertyOp19
 70
     1
102
RTVSPropertyOp20
 70
     1
102
RTVSPropertyOp21
 70
     1
102
RTVSPropertyOp22
 70
     1
102
RTVSPropertyOp23
 70
     1
102
RTVSPropertyOp24
 70
     1
102
RTVSPropertyOp25
 70
     1
102
RTVSPropertyOp26
 70
     1
102
RTVSPropertyOp27
 70
     1
102
RTVSPropertyOp28
 70
     1
102
RTVSPropertyOp29
 70
     1
102
RTVSPropertyOp30
 70
     1
102
RTVSPropertyOp31
 70
     1
102
RTVSPropertyOp32
 70
     1
102
RTVSPropertyOp33
 70
     1
102
RTVSPropertyOp34
 70
     1
102
RTVSPropertyOp35
 70
     1
102
RTVSPropertyOp36
 70
     1
102
RTVSPropertyOp37
 70
     1
102
RTVSPropertyOp38
 70
     1
102
RTVSPropertyOp39
 70
     1
102
RTVSPropertyOp40
 70
     1
102
RTVSPropertyOp41
 70
     1
102
RTVSPropertyOp42
 70
     1
102
RTVSPropertyOp43
 70
     1
102
RTVSPropertyOp44
 70
     1
102
RTVSPropertyOp45
 70
     1
102
RTVSPropertyOp46
 70
     1
102
RTVSPropertyOp47
 70
     1
102
RTVSPropertyOp48
 70
     1
102
RTVSPropertyOp49
 70
     1
102
RTVSPropertyOp50
 70
     1
102
RTVSPropertyOp51
 70
     0
102
RTVSPropertyOp52
 70
     0
102
RTVSPropertyOp53
 70
     1
102
RTVSPropertyOp54
 70
     1
102
RTVSPropertyOp55
 70
     1
102
RTVSPropertyOp56
 70
     1
102
RTVSPropertyOp57
 70
     1
102
RTVSPropertyOp58
 70
     1
102
RTVSPropertyOp59
 70
     1
102
RTVSPropertyOp60
 70
     1
102
RTVSPropertyOp61
 70
     1
102
RTVSPropertyOp62
 70
     1
  0
XRECORD
  5
9D97
102
{ACAD_REACTORS
330
9D96
102
}
330
9D96
100
AcDbXrecord
280
     1
102
RTVSPost2010Prop28
280
     0
102
RTVSPost2010PropOp28
 70
     1
102
RTVSPost2010Prop29
280
     1
102
RTVSPost2010PropOp29
 70
     1
102
RTVSPost2010Prop30
280
     1
102
RTVSPost2010PropOp30
 70
     1
102
RTVSPost2010Prop31
280
     0
102
RTVSPost2010PropOp31
 70
     1
102
RTVSPost2010Prop32
280
     0
102
RTVSPost2010PropOp32
 70
     1
102
RTVSPost2010Prop33
280
     0
102
RTVSPost2010PropOp33
 70
     1
102
RTVSPost2010Prop34
280
     0
102
RTVSPost2010PropOp34
 70
     1
102
RTVSPost2010Prop35
280
     0
102
RTVSPost2010PropOp35
 70
     1
102
RTVSPost2010Prop36
280
     0
102
RTVSPost2010PropOp36
 70
     1
102
RTVSPost2010Prop37
 90
       50
102
RTVSPost2010PropOp37
 70
     1
102
RTVSPost2010Prop38
140
0.0
102
RTVSPost2010PropOp38
 70
     1
102
RTVSPost2010Prop39
140
1.0
102
RTVSPost2010PropOp39
 70
     1
102
RTVSPost2010Prop40
 90
        0
102
RTVSPost2010PropOp40
 70
     1
102
RTVSPost2010Prop41ColorIndex
 90
       18
102
RTVSPost2010Prop41ColorRGB
 90
        0
102
RTVSPost2010PropOp41
 70
     1
102
RTVSPost2010Prop42
 90
       50
102
RTVSPost2010PropOp42
 70
     1
102
RTVSPost2010Prop43
 90
        3
102
RTVSPost2010PropOp43
 70
     1
102
RTVSPost2010Prop44ColorIndex
 90
        5
102
RTVSPost2010Prop44ColorRGB
 90
      255
102
RTVSPost2010PropOp44
 70
     1
102
RTVSPost2010Prop45
280
     0
102
RTVSPost2010PropOp45
 70
     1
102
RTVSPost2010Prop46
 90
       50
102
RTVSPost2010PropOp46
 70
     1
102
RTVSPost2010Prop47
 90
       50
102
RTVSPost2010PropOp47
 70
     1
102
RTVSPost2010Prop48
 90
       50
102
RTVSPost2010PropOp48
 70
     1
102
RTVSPost2010Prop49
280
     0
102
RTVSPost2010PropOp49
 70
     1
102
RTVSPost2010Prop50
 90
       50
102
RTVSPost2010PropOp50
 70
     1
102
RTVSPost2010Prop51ColorIndex
 90
      256
102
RTVSPost2010Prop51ColorRGB
 90
-16777216
102
RTVSPost2010PropOp51
 70
     0
102
RTVSPost2010Prop52
140
1.0
102
RTVSPost2010PropOp52
 70
     0
102
RTVSPost2010Prop53
 90
        2
102
RTVSPost2010PropOp53
 70
     1
102
RTVSPost2010Prop54
  1
strokes_ogs.tif
102
RTVSPost2010PropOp54
 70
     1
102
RTVSPost2010Prop55
280
     0
102
RTVSPost2010PropOp55
 70
     1
102
RTVSPost2010Prop56
140
1.0
102
RTVSPost2010PropOp56
 70
     1
102
RTVSPost2010Prop57
140
1.0
102
RTVSPost2010PropOp57
 70
     1
102
RTVSPropertyOp0
 70
     1
102
RTVSPropertyOp1
 70
     1
102
RTVSPropertyOp2
 70
     1
102
RTVSPropertyOp3
 70
     1
102
RTVSPropertyOp4
 70
     1
102
RTVSPropertyOp5
 70
     1
102
RTVSPropertyOp6
 70
     1
102
RTVSPropertyOp7
 70
     1
102
RTVSPropertyOp8
 70
     1
102
RTVSPropertyOp9
 70
     1
102
RTVSPropertyOp10
 70
     1
102
RTVSPropertyOp11
 70
     1
102
RTVSPropertyOp12
 70
     1
102
RTVSPropertyOp13
 70
     1
102
RTVSPropertyOp14
 70
     1
102
RTVSPropertyOp15
 70
     1
102
RTVSPropertyOp16
 70
     1
102
RTVSPropertyOp17
 70
     1
102
RTVSPropertyOp18
 70
     1
102
RTVSPropertyOp19
 70
     1
102
RTVSPropertyOp20
 70
     1
102
RTVSPropertyOp21
 70
     1
102
RTVSPropertyOp22
 70
     1
102
RTVSPropertyOp23
 70
     1
102
RTVSPropertyOp24
 70
     1
102
RTVSPropertyOp25
 70
     1
102
RTVSPropertyOp26
 70
     1
102
RTVSPropertyOp27
 70
     1
102
RTVSPropertyOp28
 70
     1
102
RTVSPropertyOp29
 70
     1
102
RTVSPropertyOp30
 70
     1
102
RTVSPropertyOp31
 70
     1
102
RTVSPropertyOp32
 70
     1
102
RTVSPropertyOp33
 70
     1
102
RTVSPropertyOp34
 70
     1
102
RTVSPropertyOp35
 70
     1
102
RTVSPropertyOp36
 70
     1
102
RTVSPropertyOp37
 70
     1
102
RTVSPropertyOp38
 70
     1
102
RTVSPropertyOp39
 70
     1
102
RTVSPropertyOp40
 70
     1
102
RTVSPropertyOp41
 70
     1
102
RTVSPropertyOp42
 70
     1
102
RTVSPropertyOp43
 70
     1
102
RTVSPropertyOp44
 70
     1
102
RTVSPropertyOp45
 70
     1
102
RTVSPropertyOp46
 70
     1
102
RTVSPropertyOp47
 70
     1
102
RTVSPropertyOp48
 70
     1
102
RTVSPropertyOp49
 70
     1
102
RTVSPropertyOp50
 70
     1
102
RTVSPropertyOp51
 70
     0
102
RTVSPropertyOp52
 70
     0
102
RTVSPropertyOp53
 70
     1
102
RTVSPropertyOp54
 70
     1
102
RTVSPropertyOp55
 70
     1
102
RTVSPropertyOp56
 70
     1
102
RTVSPropertyOp57
 70
     1
102
RTVSPropertyOp58
 70
     1
102
RTVSPropertyOp59
 70
     1
102
RTVSPropertyOp60
 70
     1
102
RTVSPropertyOp61
 70
     1
102
RTVSPropertyOp62
 70
     1
  0
XRECORD
  5
9D99
102
{ACAD_REACTORS
330
9D98
102
}
330
9D98
100
AcDbXrecord
280
     1
102
RTVSPost2010Prop28
280
     0
102
RTVSPost2010PropOp28
 70
     1
102
RTVSPost2010Prop29
280
     1
102
RTVSPost2010PropOp29
 70
     1
102
RTVSPost2010Prop30
280
     1
102
RTVSPost2010PropOp30
 70
     1
102
RTVSPost2010Prop31
280
     0
102
RTVSPost2010PropOp31
 70
     1
102
RTVSPost2010Prop32
280
     0
102
RTVSPost2010PropOp32
 70
     1
102
RTVSPost2010Prop33
280
     0
102
RTVSPost2010PropOp33
 70
     1
102
RTVSPost2010Prop34
280
     0
102
RTVSPost2010PropOp34
 70
     1
102
RTVSPost2010Prop35
280
     0
102
RTVSPost2010PropOp35
 70
     1
102
RTVSPost2010Prop36
280
     0
102
RTVSPost2010PropOp36
 70
     1
102
RTVSPost2010Prop37
 90
       50
102
RTVSPost2010PropOp37
 70
     1
102
RTVSPost2010Prop38
140
0.0
102
RTVSPost2010PropOp38
 70
     1
102
RTVSPost2010Prop39
140
1.0
102
RTVSPost2010PropOp39
 70
     1
102
RTVSPost2010Prop40
 90
        0
102
RTVSPost2010PropOp40
 70
     1
102
RTVSPost2010Prop41ColorIndex
 90
       18
102
RTVSPost2010Prop41ColorRGB
 90
        0
102
RTVSPost2010PropOp41
 70
     1
102
RTVSPost2010Prop42
 90
       50
102
RTVSPost2010PropOp42
 70
     1
102
RTVSPost2010Prop43
 90
        3
102
RTVSPost2010PropOp43
 70
     1
102
RTVSPost2010Prop44ColorIndex
 90
        5
102
RTVSPost2010Prop44ColorRGB
 90
      255
102
RTVSPost2010PropOp44
 70
     1
102
RTVSPost2010Prop45
280
     0
102
RTVSPost2010PropOp45
 70
     1
102
RTVSPost2010Prop46
 90
       50
102
RTVSPost2010PropOp46
 70
     1
102
RTVSPost2010Prop47
 90
       50
102
RTVSPost2010PropOp47
 70
     1
102
RTVSPost2010Prop48
 90
       50
102
RTVSPost2010PropOp48
 70
     1
102
RTVSPost2010Prop49
280
     0
102
RTVSPost2010PropOp49
 70
     1
102
RTVSPost2010Prop50
 90
       50
102
RTVSPost2010PropOp50
 70
     1
102
RTVSPost2010Prop51ColorIndex
 90
      256
102
RTVSPost2010Prop51ColorRGB
 90
-16777216
102
RTVSPost2010PropOp51
 70
     0
102
RTVSPost2010Prop52
140
1.0
102
RTVSPost2010PropOp52
 70
     0
102
RTVSPost2010Prop53
 90
        2
102
RTVSPost2010PropOp53
 70
     1
102
RTVSPost2010Prop54
  1
strokes_ogs.tif
102
RTVSPost2010PropOp54
 70
     1
102
RTVSPost2010Prop55
280
     0
102
RTVSPost2010PropOp55
 70
     1
102
RTVSPost2010Prop56
140
1.0
102
RTVSPost2010PropOp56
 70
     1
102
RTVSPost2010Prop57
140
1.0
102
RTVSPost2010PropOp57
 70
     1
102
RTVSPropertyOp0
 70
     1
102
RTVSPropertyOp1
 70
     1
102
RTVSPropertyOp2
 70
     1
102
RTVSPropertyOp3
 70
     1
102
RTVSPropertyOp4
 70
     1
102
RTVSPropertyOp5
 70
     1
102
RTVSPropertyOp6
 70
     1
102
RTVSPropertyOp7
 70
     1
102
RTVSPropertyOp8
 70
     1
102
RTVSPropertyOp9
 70
     1
102
RTVSPropertyOp10
 70
     1
102
RTVSPropertyOp11
 70
     1
102
RTVSPropertyOp12
 70
     1
102
RTVSPropertyOp13
 70
     1
102
RTVSPropertyOp14
 70
     1
102
RTVSPropertyOp15
 70
     1
102
RTVSPropertyOp16
 70
     1
102
RTVSPropertyOp17
 70
     1
102
RTVSPropertyOp18
 70
     1
102
RTVSPropertyOp19
 70
     1
102
RTVSPropertyOp20
 70
     1
102
RTVSPropertyOp21
 70
     1
102
RTVSPropertyOp22
 70
     1
102
RTVSPropertyOp23
 70
     1
102
RTVSPropertyOp24
 70
     1
102
RTVSPropertyOp25
 70
     1
102
RTVSPropertyOp26
 70
     1
102
RTVSPropertyOp27
 70
     1
102
RTVSPropertyOp28
 70
     1
102
RTVSPropertyOp29
 70
     1
102
RTVSPropertyOp30
 70
     1
102
RTVSPropertyOp31
 70
     1
102
RTVSPropertyOp32
 70
     1
102
RTVSPropertyOp33
 70
     1
102
RTVSPropertyOp34
 70
     1
102
RTVSPropertyOp35
 70
     1
102
RTVSPropertyOp36
 70
     1
102
RTVSPropertyOp37
 70
     1
102
RTVSPropertyOp38
 70
     1
102
RTVSPropertyOp39
 70
     1
102
RTVSPropertyOp40
 70
     1
102
RTVSPropertyOp41
 70
     1
102
RTVSPropertyOp42
 70
     1
102
RTVSPropertyOp43
 70
     1
102
RTVSPropertyOp44
 70
     1
102
RTVSPropertyOp45
 70
     1
102
RTVSPropertyOp46
 70
     1
102
RTVSPropertyOp47
 70
     1
102
RTVSPropertyOp48
 70
     1
102
RTVSPropertyOp49
 70
     1
102
RTVSPropertyOp50
 70
     1
102
RTVSPropertyOp51
 70
     0
102
RTVSPropertyOp52
 70
     0
102
RTVSPropertyOp53
 70
     1
102
RTVSPropertyOp54
 70
     1
102
RTVSPropertyOp55
 70
     1
102
RTVSPropertyOp56
 70
     1
102
RTVSPropertyOp57
 70
     1
102
RTVSPropertyOp58
 70
     1
102
RTVSPropertyOp59
 70
     1
102
RTVSPropertyOp60
 70
     1
102
RTVSPropertyOp61
 70
     1
102
RTVSPropertyOp62
 70
     1
  0
XRECORD
  5
9D9B
102
{ACAD_REACTORS
330
9D9A
102
}
330
9D9A
100
AcDbXrecord
280
     1
102
RTVSPost2010Prop28
280
     0
102
RTVSPost2010PropOp28
 70
     1
102
RTVSPost2010Prop29
280
     1
102
RTVSPost2010PropOp29
 70
     1
102
RTVSPost2010Prop30
280
     1
102
RTVSPost2010PropOp30
 70
     1
102
RTVSPost2010Prop31
280
     0
102
RTVSPost2010PropOp31
 70
     1
102
RTVSPost2010Prop32
280
     0
102
RTVSPost2010PropOp32
 70
     1
102
RTVSPost2010Prop33
280
     0
102
RTVSPost2010PropOp33
 70
     1
102
RTVSPost2010Prop34
280
     0
102
RTVSPost2010PropOp34
 70
     1
102
RTVSPost2010Prop35
280
     0
102
RTVSPost2010PropOp35
 70
     1
102
RTVSPost2010Prop36
280
     0
102
RTVSPost2010PropOp36
 70
     1
102
RTVSPost2010Prop37
 90
       50
102
RTVSPost2010PropOp37
 70
     1
102
RTVSPost2010Prop38
140
0.0
102
RTVSPost2010PropOp38
 70
     1
102
RTVSPost2010Prop39
140
1.0
102
RTVSPost2010PropOp39
 70
     1
102
RTVSPost2010Prop40
 90
        0
102
RTVSPost2010PropOp40
 70
     1
102
RTVSPost2010Prop41ColorIndex
 90
       18
102
RTVSPost2010Prop41ColorRGB
 90
        0
102
RTVSPost2010PropOp41
 70
     1
102
RTVSPost2010Prop42
 90
       50
102
RTVSPost2010PropOp42
 70
     1
102
RTVSPost2010Prop43
 90
        3
102
RTVSPost2010PropOp43
 70
     1
102
RTVSPost2010Prop44ColorIndex
 90
        5
102
RTVSPost2010Prop44ColorRGB
 90
      255
102
RTVSPost2010PropOp44
 70
     1
102
RTVSPost2010Prop45
280
     0
102
RTVSPost2010PropOp45
 70
     1
102
RTVSPost2010Prop46
 90
       50
102
RTVSPost2010PropOp46
 70
     1
102
RTVSPost2010Prop47
 90
       50
102
RTVSPost2010PropOp47
 70
     1
102
RTVSPost2010Prop48
 90
       50
102
RTVSPost2010PropOp48
 70
     1
102
RTVSPost2010Prop49
280
     0
102
RTVSPost2010PropOp49
 70
     1
102
RTVSPost2010Prop50
 90
       50
102
RTVSPost2010PropOp50
 70
     1
102
RTVSPost2010Prop51ColorIndex
 90
      256
102
RTVSPost2010Prop51ColorRGB
 90
-16777216
102
RTVSPost2010PropOp51
 70
     0
102
RTVSPost2010Prop52
140
1.0
102
RTVSPost2010PropOp52
 70
     0
102
RTVSPost2010Prop53
 90
        2
102
RTVSPost2010PropOp53
 70
     1
102
RTVSPost2010Prop54
  1
strokes_ogs.tif
102
RTVSPost2010PropOp54
 70
     1
102
RTVSPost2010Prop55
280
     0
102
RTVSPost2010PropOp55
 70
     1
102
RTVSPost2010Prop56
140
1.0
102
RTVSPost2010PropOp56
 70
     1
102
RTVSPost2010Prop57
140
1.0
102
RTVSPost2010PropOp57
 70
     1
102
RTVSPropertyOp0
 70
     1
102
RTVSPropertyOp1
 70
     1
102
RTVSPropertyOp2
 70
     1
102
RTVSPropertyOp3
 70
     1
102
RTVSPropertyOp4
 70
     1
102
RTVSPropertyOp5
 70
     1
102
RTVSPropertyOp6
 70
     1
102
RTVSPropertyOp7
 70
     1
102
RTVSPropertyOp8
 70
     1
102
RTVSPropertyOp9
 70
     1
102
RTVSPropertyOp10
 70
     1
102
RTVSPropertyOp11
 70
     1
102
RTVSPropertyOp12
 70
     1
102
RTVSPropertyOp13
 70
     1
102
RTVSPropertyOp14
 70
     1
102
RTVSPropertyOp15
 70
     1
102
RTVSPropertyOp16
 70
     1
102
RTVSPropertyOp17
 70
     1
102
RTVSPropertyOp18
 70
     1
102
RTVSPropertyOp19
 70
     1
102
RTVSPropertyOp20
 70
     1
102
RTVSPropertyOp21
 70
     1
102
RTVSPropertyOp22
 70
     1
102
RTVSPropertyOp23
 70
     1
102
RTVSPropertyOp24
 70
     1
102
RTVSPropertyOp25
 70
     1
102
RTVSPropertyOp26
 70
     1
102
RTVSPropertyOp27
 70
     1
102
RTVSPropertyOp28
 70
     1
102
RTVSPropertyOp29
 70
     1
102
RTVSPropertyOp30
 70
     1
102
RTVSPropertyOp31
 70
     1
102
RTVSPropertyOp32
 70
     1
102
RTVSPropertyOp33
 70
     1
102
RTVSPropertyOp34
 70
     1
102
RTVSPropertyOp35
 70
     1
102
RTVSPropertyOp36
 70
     1
102
RTVSPropertyOp37
 70
     1
102
RTVSPropertyOp38
 70
     1
102
RTVSPropertyOp39
 70
     1
102
RTVSPropertyOp40
 70
     1
102
RTVSPropertyOp41
 70
     1
102
RTVSPropertyOp42
 70
     1
102
RTVSPropertyOp43
 70
     1
102
RTVSPropertyOp44
 70
     1
102
RTVSPropertyOp45
 70
     1
102
RTVSPropertyOp46
 70
     1
102
RTVSPropertyOp47
 70
     1
102
RTVSPropertyOp48
 70
     1
102
RTVSPropertyOp49
 70
     1
102
RTVSPropertyOp50
 70
     1
102
RTVSPropertyOp51
 70
     0
102
RTVSPropertyOp52
 70
     0
102
RTVSPropertyOp53
 70
     1
102
RTVSPropertyOp54
 70
     1
102
RTVSPropertyOp55
 70
     1
102
RTVSPropertyOp56
 70
     1
102
RTVSPropertyOp57
 70
     1
102
RTVSPropertyOp58
 70
     1
102
RTVSPropertyOp59
 70
     1
102
RTVSPropertyOp60
 70
     1
102
RTVSPropertyOp61
 70
     1
102
RTVSPropertyOp62
 70
     1
  0
XRECORD
  5
9D9D
102
{ACAD_REACTORS
330
9D9C
102
}
330
9D9C
100
AcDbXrecord
280
     1
102
RTVSPost2010Prop28
280
     0
102
RTVSPost2010PropOp28
 70
     1
102
RTVSPost2010Prop29
280
     1
102
RTVSPost2010PropOp29
 70
     1
102
RTVSPost2010Prop30
280
     1
102
RTVSPost2010PropOp30
 70
     1
102
RTVSPost2010Prop31
280
     0
102
RTVSPost2010PropOp31
 70
     1
102
RTVSPost2010Prop32
280
     0
102
RTVSPost2010PropOp32
 70
     1
102
RTVSPost2010Prop33
280
     0
102
RTVSPost2010PropOp33
 70
     1
102
RTVSPost2010Prop34
280
     0
102
RTVSPost2010PropOp34
 70
     1
102
RTVSPost2010Prop35
280
     0
102
RTVSPost2010PropOp35
 70
     1
102
RTVSPost2010Prop36
280
     0
102
RTVSPost2010PropOp36
 70
     1
102
RTVSPost2010Prop37
 90
       50
102
RTVSPost2010PropOp37
 70
     1
102
RTVSPost2010Prop38
140
0.0
102
RTVSPost2010PropOp38
 70
     1
102
RTVSPost2010Prop39
140
1.0
102
RTVSPost2010PropOp39
 70
     1
102
RTVSPost2010Prop40
 90
        0
102
RTVSPost2010PropOp40
 70
     1
102
RTVSPost2010Prop41ColorIndex
 90
       18
102
RTVSPost2010Prop41ColorRGB
 90
        0
102
RTVSPost2010PropOp41
 70
     1
102
RTVSPost2010Prop42
 90
       50
102
RTVSPost2010PropOp42
 70
     1
102
RTVSPost2010Prop43
 90
        3
102
RTVSPost2010PropOp43
 70
     1
102
RTVSPost2010Prop44ColorIndex
 90
        5
102
RTVSPost2010Prop44ColorRGB
 90
      255
102
RTVSPost2010PropOp44
 70
     1
102
RTVSPost2010Prop45
280
     0
102
RTVSPost2010PropOp45
 70
     1
102
RTVSPost2010Prop46
 90
       50
102
RTVSPost2010PropOp46
 70
     1
102
RTVSPost2010Prop47
 90
       50
102
RTVSPost2010PropOp47
 70
     1
102
RTVSPost2010Prop48
 90
       50
102
RTVSPost2010PropOp48
 70
     1
102
RTVSPost2010Prop49
280
     0
102
RTVSPost2010PropOp49
 70
     1
102
RTVSPost2010Prop50
 90
       50
102
RTVSPost2010PropOp50
 70
     1
102
RTVSPost2010Prop51ColorIndex
 90
      256
102
RTVSPost2010Prop51ColorRGB
 90
-16777216
102
RTVSPost2010PropOp51
 70
     0
102
RTVSPost2010Prop52
140
1.0
102
RTVSPost2010PropOp52
 70
     0
102
RTVSPost2010Prop53
 90
        2
102
RTVSPost2010PropOp53
 70
     1
102
RTVSPost2010Prop54
  1
strokes_ogs.tif
102
RTVSPost2010PropOp54
 70
     1
102
RTVSPost2010Prop55
280
     0
102
RTVSPost2010PropOp55
 70
     1
102
RTVSPost2010Prop56
140
1.0
102
RTVSPost2010PropOp56
 70
     1
102
RTVSPost2010Prop57
140
1.0
102
RTVSPost2010PropOp57
 70
     1
102
RTVSPropertyOp0
 70
     1
102
RTVSPropertyOp1
 70
     1
102
RTVSPropertyOp2
 70
     1
102
RTVSPropertyOp3
 70
     1
102
RTVSPropertyOp4
 70
     1
102
RTVSPropertyOp5
 70
     1
102
RTVSPropertyOp6
 70
     1
102
RTVSPropertyOp7
 70
     1
102
RTVSPropertyOp8
 70
     1
102
RTVSPropertyOp9
 70
     1
102
RTVSPropertyOp10
 70
     1
102
RTVSPropertyOp11
 70
     1
102
RTVSPropertyOp12
 70
     1
102
RTVSPropertyOp13
 70
     1
102
RTVSPropertyOp14
 70
     1
102
RTVSPropertyOp15
 70
     1
102
RTVSPropertyOp16
 70
     1
102
RTVSPropertyOp17
 70
     1
102
RTVSPropertyOp18
 70
     1
102
RTVSPropertyOp19
 70
     1
102
RTVSPropertyOp20
 70
     1
102
RTVSPropertyOp21
 70
     1
102
RTVSPropertyOp22
 70
     1
102
RTVSPropertyOp23
 70
     1
102
RTVSPropertyOp24
 70
     1
102
RTVSPropertyOp25
 70
     1
102
RTVSPropertyOp26
 70
     1
102
RTVSPropertyOp27
 70
     1
102
RTVSPropertyOp28
 70
     1
102
RTVSPropertyOp29
 70
     1
102
RTVSPropertyOp30
 70
     1
102
RTVSPropertyOp31
 70
     1
102
RTVSPropertyOp32
 70
     1
102
RTVSPropertyOp33
 70
     1
102
RTVSPropertyOp34
 70
     1
102
RTVSPropertyOp35
 70
     1
102
RTVSPropertyOp36
 70
     1
102
RTVSPropertyOp37
 70
     1
102
RTVSPropertyOp38
 70
     1
102
RTVSPropertyOp39
 70
     1
102
RTVSPropertyOp40
 70
     1
102
RTVSPropertyOp41
 70
     1
102
RTVSPropertyOp42
 70
     1
102
RTVSPropertyOp43
 70
     1
102
RTVSPropertyOp44
 70
     1
102
RTVSPropertyOp45
 70
     1
102
RTVSPropertyOp46
 70
     1
102
RTVSPropertyOp47
 70
     1
102
RTVSPropertyOp48
 70
     1
102
RTVSPropertyOp49
 70
     1
102
RTVSPropertyOp50
 70
     1
102
RTVSPropertyOp51
 70
     0
102
RTVSPropertyOp52
 70
     0
102
RTVSPropertyOp53
 70
     1
102
RTVSPropertyOp54
 70
     1
102
RTVSPropertyOp55
 70
     1
102
RTVSPropertyOp56
 70
     1
102
RTVSPropertyOp57
 70
     1
102
RTVSPropertyOp58
 70
     1
102
RTVSPropertyOp59
 70
     1
102
RTVSPropertyOp60
 70
     1
102
RTVSPropertyOp61
 70
     1
102
RTVSPropertyOp62
 70
     1
  0
XRECORD
  5
9DA5
102
{ACAD_REACTORS
330
9DA4
102
}
330
9DA4
100
AcDbXrecord
280
     1
102
RTVSPost2010Prop28
280
     0
102
RTVSPost2010PropOp28
 70
     1
102
RTVSPost2010Prop29
280
     1
102
RTVSPost2010PropOp29
 70
     1
102
RTVSPost2010Prop30
280
     1
102
RTVSPost2010PropOp30
 70
     1
102
RTVSPost2010Prop31
280
     0
102
RTVSPost2010PropOp31
 70
     1
102
RTVSPost2010Prop32
280
     0
102
RTVSPost2010PropOp32
 70
     1
102
RTVSPost2010Prop33
280
     0
102
RTVSPost2010PropOp33
 70
     1
102
RTVSPost2010Prop34
280
     0
102
RTVSPost2010PropOp34
 70
     1
102
RTVSPost2010Prop35
280
     0
102
RTVSPost2010PropOp35
 70
     1
102
RTVSPost2010Prop36
280
     0
102
RTVSPost2010PropOp36
 70
     1
102
RTVSPost2010Prop37
 90
       50
102
RTVSPost2010PropOp37
 70
     1
102
RTVSPost2010Prop38
140
0.0
102
RTVSPost2010PropOp38
 70
     1
102
RTVSPost2010Prop39
140
1.0
102
RTVSPost2010PropOp39
 70
     1
102
RTVSPost2010Prop40
 90
        0
102
RTVSPost2010PropOp40
 70
     1
102
RTVSPost2010Prop41ColorIndex
 90
       18
102
RTVSPost2010Prop41ColorRGB
 90
        0
102
RTVSPost2010PropOp41
 70
     1
102
RTVSPost2010Prop42
 90
       50
102
RTVSPost2010PropOp42
 70
     1
102
RTVSPost2010Prop43
 90
        3
102
RTVSPost2010PropOp43
 70
     1
102
RTVSPost2010Prop44ColorIndex
 90
        5
102
RTVSPost2010Prop44ColorRGB
 90
      255
102
RTVSPost2010PropOp44
 70
     1
102
RTVSPost2010Prop45
280
     0
102
RTVSPost2010PropOp45
 70
     1
102
RTVSPost2010Prop46
 90
       50
102
RTVSPost2010PropOp46
 70
     1
102
RTVSPost2010Prop47
 90
       50
102
RTVSPost2010PropOp47
 70
     1
102
RTVSPost2010Prop48
 90
       50
102
RTVSPost2010PropOp48
 70
     1
102
RTVSPost2010Prop49
280
     0
102
RTVSPost2010PropOp49
 70
     1
102
RTVSPost2010Prop50
 90
       50
102
RTVSPost2010PropOp50
 70
     1
102
RTVSPost2010Prop51ColorIndex
 90
      256
102
RTVSPost2010Prop51ColorRGB
 90
-16777216
102
RTVSPost2010PropOp51
 70
     0
102
RTVSPost2010Prop52
140
1.0
102
RTVSPost2010PropOp52
 70
     0
102
RTVSPost2010Prop53
 90
        2
102
RTVSPost2010PropOp53
 70
     1
102
RTVSPost2010Prop54
  1
strokes_ogs.tif
102
RTVSPost2010PropOp54
 70
     1
102
RTVSPost2010Prop55
280
     0
102
RTVSPost2010PropOp55
 70
     1
102
RTVSPost2010Prop56
140
1.0
102
RTVSPost2010PropOp56
 70
     1
102
RTVSPost2010Prop57
140
1.0
102
RTVSPost2010PropOp57
 70
     1
102
RTVSPropertyOp0
 70
     1
102
RTVSPropertyOp1
 70
     1
102
RTVSPropertyOp2
 70
     1
102
RTVSPropertyOp3
 70
     1
102
RTVSPropertyOp4
 70
     1
102
RTVSPropertyOp5
 70
     1
102
RTVSPropertyOp6
 70
     1
102
RTVSPropertyOp7
 70
     1
102
RTVSPropertyOp8
 70
     1
102
RTVSPropertyOp9
 70
     1
102
RTVSPropertyOp10
 70
     1
102
RTVSPropertyOp11
 70
     1
102
RTVSPropertyOp12
 70
     1
102
RTVSPropertyOp13
 70
     1
102
RTVSPropertyOp14
 70
     1
102
RTVSPropertyOp15
 70
     1
102
RTVSPropertyOp16
 70
     1
102
RTVSPropertyOp17
 70
     1
102
RTVSPropertyOp18
 70
     1
102
RTVSPropertyOp19
 70
     1
102
RTVSPropertyOp20
 70
     1
102
RTVSPropertyOp21
 70
     1
102
RTVSPropertyOp22
 70
     1
102
RTVSPropertyOp23
 70
     1
102
RTVSPropertyOp24
 70
     1
102
RTVSPropertyOp25
 70
     1
102
RTVSPropertyOp26
 70
     1
102
RTVSPropertyOp27
 70
     1
102
RTVSPropertyOp28
 70
     1
102
RTVSPropertyOp29
 70
     1
102
RTVSPropertyOp30
 70
     1
102
RTVSPropertyOp31
 70
     1
102
RTVSPropertyOp32
 70
     1
102
RTVSPropertyOp33
 70
     1
102
RTVSPropertyOp34
 70
     1
102
RTVSPropertyOp35
 70
     1
102
RTVSPropertyOp36
 70
     1
102
RTVSPropertyOp37
 70
     1
102
RTVSPropertyOp38
 70
     1
102
RTVSPropertyOp39
 70
     1
102
RTVSPropertyOp40
 70
     1
102
RTVSPropertyOp41
 70
     1
102
RTVSPropertyOp42
 70
     1
102
RTVSPropertyOp43
 70
     1
102
RTVSPropertyOp44
 70
     1
102
RTVSPropertyOp45
 70
     1
102
RTVSPropertyOp46
 70
     1
102
RTVSPropertyOp47
 70
     1
102
RTVSPropertyOp48
 70
     1
102
RTVSPropertyOp49
 70
     1
102
RTVSPropertyOp50
 70
     1
102
RTVSPropertyOp51
 70
     0
102
RTVSPropertyOp52
 70
     0
102
RTVSPropertyOp53
 70
     1
102
RTVSPropertyOp54
 70
     1
102
RTVSPropertyOp55
 70
     1
102
RTVSPropertyOp56
 70
     1
102
RTVSPropertyOp57
 70
     1
102
RTVSPropertyOp58
 70
     1
102
RTVSPropertyOp59
 70
     1
102
RTVSPropertyOp60
 70
     1
102
RTVSPropertyOp61
 70
     1
102
RTVSPropertyOp62
 70
     1
  0
XRECORD
  5
9DC1
102
{ACAD_REACTORS
330
9DC0
102
}
330
9DC0
100
AcDbXrecord
280
     1
102
RTVSPost2010Prop28
280
     0
102
RTVSPost2010PropOp28
 70
     1
102
RTVSPost2010Prop29
280
     1
102
RTVSPost2010PropOp29
 70
     1
102
RTVSPost2010Prop30
280
     1
102
RTVSPost2010PropOp30
 70
     1
102
RTVSPost2010Prop31
280
     0
102
RTVSPost2010PropOp31
 70
     1
102
RTVSPost2010Prop32
280
     0
102
RTVSPost2010PropOp32
 70
     1
102
RTVSPost2010Prop33
280
     0
102
RTVSPost2010PropOp33
 70
     1
102
RTVSPost2010Prop34
280
     0
102
RTVSPost2010PropOp34
 70
     1
102
RTVSPost2010Prop35
280
     0
102
RTVSPost2010PropOp35
 70
     1
102
RTVSPost2010Prop36
280
     0
102
RTVSPost2010PropOp36
 70
     1
102
RTVSPost2010Prop37
 90
       50
102
RTVSPost2010PropOp37
 70
     0
102
RTVSPost2010Prop38
140
0.0
102
RTVSPost2010PropOp38
 70
     0
102
RTVSPost2010Prop39
140
1.0
102
RTVSPost2010PropOp39
 70
     0
102
RTVSPost2010Prop40
 90
        0
102
RTVSPost2010PropOp40
 70
     0
102
RTVSPost2010Prop41ColorIndex
 90
       18
102
RTVSPost2010Prop41ColorRGB
 90
        0
102
RTVSPost2010PropOp41
 70
     0
102
RTVSPost2010Prop42
 90
       50
102
RTVSPost2010PropOp42
 70
     0
102
RTVSPost2010Prop43
 90
        3
102
RTVSPost2010PropOp43
 70
     0
102
RTVSPost2010Prop44ColorIndex
 90
        5
102
RTVSPost2010Prop44ColorRGB
 90
      255
102
RTVSPost2010PropOp44
 70
     0
102
RTVSPost2010Prop45
280
     0
102
RTVSPost2010PropOp45
 70
     1
102
RTVSPost2010Prop46
 90
       50
102
RTVSPost2010PropOp46
 70
     0
102
RTVSPost2010Prop47
 90
       50
102
RTVSPost2010PropOp47
 70
     0
102
RTVSPost2010Prop48
 90
       50
102
RTVSPost2010PropOp48
 70
     0
102
RTVSPost2010Prop49
280
     0
102
RTVSPost2010PropOp49
 70
     1
102
RTVSPost2010Prop50
 90
       50
102
RTVSPost2010PropOp50
 70
     0
102
RTVSPost2010Prop51ColorIndex
 90
      256
102
RTVSPost2010Prop51ColorRGB
 90
-16777216
102
RTVSPost2010PropOp51
 70
     0
102
RTVSPost2010Prop52
140
1.0
102
RTVSPost2010PropOp52
 70
     0
102
RTVSPost2010Prop53
 90
        2
102
RTVSPost2010PropOp53
 70
     0
102
RTVSPost2010Prop54
  1
strokes_ogs.tif
102
RTVSPost2010PropOp54
 70
     0
102
RTVSPost2010Prop55
280
     0
102
RTVSPost2010PropOp55
 70
     1
102
RTVSPost2010Prop56
140
1.0
102
RTVSPost2010PropOp56
 70
     0
102
RTVSPost2010Prop57
140
1.0
102
RTVSPost2010PropOp57
 70
     0
102
RTVSPropertyOp0
 70
     0
102
RTVSPropertyOp1
 70
     0
102
RTVSPropertyOp2
 70
     0
102
RTVSPropertyOp3
 70
     0
102
RTVSPropertyOp4
 70
     0
102
RTVSPropertyOp5
 70
     0
102
RTVSPropertyOp6
 70
     0
102
RTVSPropertyOp7
 70
     0
102
RTVSPropertyOp8
 70
     0
102
RTVSPropertyOp9
 70
     0
102
RTVSPropertyOp10
 70
     0
102
RTVSPropertyOp11
 70
     0
102
RTVSPropertyOp12
 70
     0
102
RTVSPropertyOp13
 70
     0
102
RTVSPropertyOp14
 70
     2
102
RTVSPropertyOp15
 70
     0
102
RTVSPropertyOp16
 70
     0
102
RTVSPropertyOp17
 70
     0
102
RTVSPropertyOp18
 70
     0
102
RTVSPropertyOp19
 70
     0
102
RTVSPropertyOp20
 70
     0
102
RTVSPropertyOp21
 70
     0
102
RTVSPropertyOp22
 70
     0
102
RTVSPropertyOp23
 70
     0
102
RTVSPropertyOp24
 70
     0
102
RTVSPropertyOp25
 70
     0
102
RTVSPropertyOp26
 70
     0
102
RTVSPropertyOp27
 70
     0
102
RTVSPropertyOp28
 70
     1
102
RTVSPropertyOp29
 70
     1
102
RTVSPropertyOp30
 70
     1
102
RTVSPropertyOp31
 70
     1
102
RTVSPropertyOp32
 70
     1
102
RTVSPropertyOp33
 70
     1
102
RTVSPropertyOp34
 70
     1
102
RTVSPropertyOp35
 70
     1
102
RTVSPropertyOp36
 70
     1
102
RTVSPropertyOp37
 70
     0
102
RTVSPropertyOp38
 70
     0
102
RTVSPropertyOp39
 70
     0
102
RTVSPropertyOp40
 70
     0
102
RTVSPropertyOp41
 70
     0
102
RTVSPropertyOp42
 70
     0
102
RTVSPropertyOp43
 70
     0
102
RTVSPropertyOp44
 70
     0
102
RTVSPropertyOp45
 70
     1
102
RTVSPropertyOp46
 70
     0
102
RTVSPropertyOp47
 70
     0
102
RTVSPropertyOp48
 70
     0
102
RTVSPropertyOp49
 70
     1
102
RTVSPropertyOp50
 70
     0
102
RTVSPropertyOp51
 70
     0
102
RTVSPropertyOp52
 70
     0
102
RTVSPropertyOp53
 70
     0
102
RTVSPropertyOp54
 70
     0
102
RTVSPropertyOp55
 70
     1
102
RTVSPropertyOp56
 70
     0
102
RTVSPropertyOp57
 70
     0
102
RTVSPropertyOp58
 70
     0
102
RTVSPropertyOp59
 70
     0
102
RTVSPropertyOp60
 70
     0
102
RTVSPropertyOp61
 70
     0
102
RTVSPropertyOp62
 70
     0
  0
XRECORD
  5
9DB1
102
{ACAD_REACTORS
330
9DB0
102
}
330
9DB0
100
AcDbXrecord
280
     1
102
RTVSPost2010Prop28
280
     0
102
RTVSPost2010PropOp28
 70
     1
102
RTVSPost2010Prop29
280
     1
102
RTVSPost2010PropOp29
 70
     1
102
RTVSPost2010Prop30
280
     1
102
RTVSPost2010PropOp30
 70
     1
102
RTVSPost2010Prop31
280
     0
102
RTVSPost2010PropOp31
 70
     1
102
RTVSPost2010Prop32
280
     0
102
RTVSPost2010PropOp32
 70
     1
102
RTVSPost2010Prop33
280
     0
102
RTVSPost2010PropOp33
 70
     1
102
RTVSPost2010Prop34
280
     0
102
RTVSPost2010PropOp34
 70
     1
102
RTVSPost2010Prop35
280
     0
102
RTVSPost2010PropOp35
 70
     1
102
RTVSPost2010Prop36
280
     0
102
RTVSPost2010PropOp36
 70
     1
102
RTVSPost2010Prop37
 90
       50
102
RTVSPost2010PropOp37
 70
     1
102
RTVSPost2010Prop38
140
0.0
102
RTVSPost2010PropOp38
 70
     1
102
RTVSPost2010Prop39
140
1.0
102
RTVSPost2010PropOp39
 70
     1
102
RTVSPost2010Prop40
 90
        0
102
RTVSPost2010PropOp40
 70
     1
102
RTVSPost2010Prop41ColorIndex
 90
       18
102
RTVSPost2010Prop41ColorRGB
 90
        0
102
RTVSPost2010PropOp41
 70
     1
102
RTVSPost2010Prop42
 90
       50
102
RTVSPost2010PropOp42
 70
     1
102
RTVSPost2010Prop43
 90
        3
102
RTVSPost2010PropOp43
 70
     1
102
RTVSPost2010Prop44ColorIndex
 90
        5
102
RTVSPost2010Prop44ColorRGB
 90
      255
102
RTVSPost2010PropOp44
 70
     1
102
RTVSPost2010Prop45
280
     0
102
RTVSPost2010PropOp45
 70
     1
102
RTVSPost2010Prop46
 90
       50
102
RTVSPost2010PropOp46
 70
     1
102
RTVSPost2010Prop47
 90
       50
102
RTVSPost2010PropOp47
 70
     1
102
RTVSPost2010Prop48
 90
       50
102
RTVSPost2010PropOp48
 70
     1
102
RTVSPost2010Prop49
280
     0
102
RTVSPost2010PropOp49
 70
     1
102
RTVSPost2010Prop50
 90
       50
102
RTVSPost2010PropOp50
 70
     1
102
RTVSPost2010Prop51ColorIndex
 90
      256
102
RTVSPost2010Prop51ColorRGB
 90
-16777216
102
RTVSPost2010PropOp51
 70
     0
102
RTVSPost2010Prop52
140
1.0
102
RTVSPost2010PropOp52
 70
     0
102
RTVSPost2010Prop53
 90
        2
102
RTVSPost2010PropOp53
 70
     1
102
RTVSPost2010Prop54
  1
strokes_ogs.tif
102
RTVSPost2010PropOp54
 70
     1
102
RTVSPost2010Prop55
280
     0
102
RTVSPost2010PropOp55
 70
     1
102
RTVSPost2010Prop56
140
1.0
102
RTVSPost2010PropOp56
 70
     1
102
RTVSPost2010Prop57
140
1.0
102
RTVSPost2010PropOp57
 70
     1
102
RTVSPropertyOp0
 70
     1
102
RTVSPropertyOp1
 70
     1
102
RTVSPropertyOp2
 70
     1
102
RTVSPropertyOp3
 70
     1
102
RTVSPropertyOp4
 70
     1
102
RTVSPropertyOp5
 70
     1
102
RTVSPropertyOp6
 70
     1
102
RTVSPropertyOp7
 70
     1
102
RTVSPropertyOp8
 70
     1
102
RTVSPropertyOp9
 70
     1
102
RTVSPropertyOp10
 70
     1
102
RTVSPropertyOp11
 70
     1
102
RTVSPropertyOp12
 70
     1
102
RTVSPropertyOp13
 70
     1
102
RTVSPropertyOp14
 70
     1
102
RTVSPropertyOp15
 70
     1
102
RTVSPropertyOp16
 70
     1
102
RTVSPropertyOp17
 70
     1
102
RTVSPropertyOp18
 70
     1
102
RTVSPropertyOp19
 70
     1
102
RTVSPropertyOp20
 70
     1
102
RTVSPropertyOp21
 70
     1
102
RTVSPropertyOp22
 70
     1
102
RTVSPropertyOp23
 70
     1
102
RTVSPropertyOp24
 70
     1
102
RTVSPropertyOp25
 70
     1
102
RTVSPropertyOp26
 70
     1
102
RTVSPropertyOp27
 70
     1
102
RTVSPropertyOp28
 70
     1
102
RTVSPropertyOp29
 70
     1
102
RTVSPropertyOp30
 70
     1
102
RTVSPropertyOp31
 70
     1
102
RTVSPropertyOp32
 70
     1
102
RTVSPropertyOp33
 70
     1
102
RTVSPropertyOp34
 70
     1
102
RTVSPropertyOp35
 70
     1
102
RTVSPropertyOp36
 70
     1
102
RTVSPropertyOp37
 70
     1
102
RTVSPropertyOp38
 70
     1
102
RTVSPropertyOp39
 70
     1
102
RTVSPropertyOp40
 70
     1
102
RTVSPropertyOp41
 70
     1
102
RTVSPropertyOp42
 70
     1
102
RTVSPropertyOp43
 70
     1
102
RTVSPropertyOp44
 70
     1
102
RTVSPropertyOp45
 70
     1
102
RTVSPropertyOp46
 70
     1
102
RTVSPropertyOp47
 70
     1
102
RTVSPropertyOp48
 70
     1
102
RTVSPropertyOp49
 70
     1
102
RTVSPropertyOp50
 70
     1
102
RTVSPropertyOp51
 70
     0
102
RTVSPropertyOp52
 70
     0
102
RTVSPropertyOp53
 70
     1
102
RTVSPropertyOp54
 70
     1
102
RTVSPropertyOp55
 70
     1
102
RTVSPropertyOp56
 70
     1
102
RTVSPropertyOp57
 70
     1
102
RTVSPropertyOp58
 70
     1
102
RTVSPropertyOp59
 70
     1
102
RTVSPropertyOp60
 70
     1
102
RTVSPropertyOp61
 70
     1
102
RTVSPropertyOp62
 70
     1
  0
XRECORD
  5
9DC3
102
{ACAD_REACTORS
330
9DC2
102
}
330
9DC2
100
AcDbXrecord
280
     1
102
RTVSPost2010Prop28
280
     0
102
RTVSPost2010PropOp28
 70
     1
102
RTVSPost2010Prop29
280
     1
102
RTVSPost2010PropOp29
 70
     1
102
RTVSPost2010Prop30
280
     1
102
RTVSPost2010PropOp30
 70
     1
102
RTVSPost2010Prop31
280
     0
102
RTVSPost2010PropOp31
 70
     1
102
RTVSPost2010Prop32
280
     0
102
RTVSPost2010PropOp32
 70
     1
102
RTVSPost2010Prop33
280
     0
102
RTVSPost2010PropOp33
 70
     1
102
RTVSPost2010Prop34
280
     0
102
RTVSPost2010PropOp34
 70
     1
102
RTVSPost2010Prop35
280
     0
102
RTVSPost2010PropOp35
 70
     1
102
RTVSPost2010Prop36
280
     0
102
RTVSPost2010PropOp36
 70
     1
102
RTVSPost2010Prop37
 90
       50
102
RTVSPost2010PropOp37
 70
     0
102
RTVSPost2010Prop38
140
0.0
102
RTVSPost2010PropOp38
 70
     0
102
RTVSPost2010Prop39
140
1.0
102
RTVSPost2010PropOp39
 70
     0
102
RTVSPost2010Prop40
 90
        0
102
RTVSPost2010PropOp40
 70
     0
102
RTVSPost2010Prop41ColorIndex
 90
       18
102
RTVSPost2010Prop41ColorRGB
 90
        0
102
RTVSPost2010PropOp41
 70
     0
102
RTVSPost2010Prop42
 90
       50
102
RTVSPost2010PropOp42
 70
     0
102
RTVSPost2010Prop43
 90
        3
102
RTVSPost2010PropOp43
 70
     0
102
RTVSPost2010Prop44ColorIndex
 90
        5
102
RTVSPost2010Prop44ColorRGB
 90
      255
102
RTVSPost2010PropOp44
 70
     0
102
RTVSPost2010Prop45
280
     0
102
RTVSPost2010PropOp45
 70
     1
102
RTVSPost2010Prop46
 90
       50
102
RTVSPost2010PropOp46
 70
     0
102
RTVSPost2010Prop47
 90
       50
102
RTVSPost2010PropOp47
 70
     0
102
RTVSPost2010Prop48
 90
       50
102
RTVSPost2010PropOp48
 70
     0
102
RTVSPost2010Prop49
280
     0
102
RTVSPost2010PropOp49
 70
     1
102
RTVSPost2010Prop50
 90
       50
102
RTVSPost2010PropOp50
 70
     0
102
RTVSPost2010Prop51ColorIndex
 90
      256
102
RTVSPost2010Prop51ColorRGB
 90
-16777216
102
RTVSPost2010PropOp51
 70
     0
102
RTVSPost2010Prop52
140
1.0
102
RTVSPost2010PropOp52
 70
     0
102
RTVSPost2010Prop53
 90
        2
102
RTVSPost2010PropOp53
 70
     0
102
RTVSPost2010Prop54
  1
strokes_ogs.tif
102
RTVSPost2010PropOp54
 70
     0
102
RTVSPost2010Prop55
280
     0
102
RTVSPost2010PropOp55
 70
     1
102
RTVSPost2010Prop56
140
1.0
102
RTVSPost2010PropOp56
 70
     0
102
RTVSPost2010Prop57
140
1.0
102
RTVSPost2010PropOp57
 70
     0
102
RTVSPropertyOp0
 70
     0
102
RTVSPropertyOp1
 70
     0
102
RTVSPropertyOp2
 70
     0
102
RTVSPropertyOp3
 70
     0
102
RTVSPropertyOp4
 70
     0
102
RTVSPropertyOp5
 70
     0
102
RTVSPropertyOp6
 70
     0
102
RTVSPropertyOp7
 70
     0
102
RTVSPropertyOp8
 70
     0
102
RTVSPropertyOp9
 70
     0
102
RTVSPropertyOp10
 70
     0
102
RTVSPropertyOp11
 70
     0
102
RTVSPropertyOp12
 70
     0
102
RTVSPropertyOp13
 70
     0
102
RTVSPropertyOp14
 70
     2
102
RTVSPropertyOp15
 70
     0
102
RTVSPropertyOp16
 70
     0
102
RTVSPropertyOp17
 70
     0
102
RTVSPropertyOp18
 70
     0
102
RTVSPropertyOp19
 70
     0
102
RTVSPropertyOp20
 70
     0
102
RTVSPropertyOp21
 70
     0
102
RTVSPropertyOp22
 70
     0
102
RTVSPropertyOp23
 70
     0
102
RTVSPropertyOp24
 70
     0
102
RTVSPropertyOp25
 70
     0
102
RTVSPropertyOp26
 70
     0
102
RTVSPropertyOp27
 70
     0
102
RTVSPropertyOp28
 70
     1
102
RTVSPropertyOp29
 70
     1
102
RTVSPropertyOp30
 70
     1
102
RTVSPropertyOp31
 70
     1
102
RTVSPropertyOp32
 70
     1
102
RTVSPropertyOp33
 70
     1
102
RTVSPropertyOp34
 70
     1
102
RTVSPropertyOp35
 70
     1
102
RTVSPropertyOp36
 70
     1
102
RTVSPropertyOp37
 70
     0
102
RTVSPropertyOp38
 70
     0
102
RTVSPropertyOp39
 70
     0
102
RTVSPropertyOp40
 70
     0
102
RTVSPropertyOp41
 70
     0
102
RTVSPropertyOp42
 70
     0
102
RTVSPropertyOp43
 70
     0
102
RTVSPropertyOp44
 70
     0
102
RTVSPropertyOp45
 70
     1
102
RTVSPropertyOp46
 70
     0
102
RTVSPropertyOp47
 70
     0
102
RTVSPropertyOp48
 70
     0
102
RTVSPropertyOp49
 70
     1
102
RTVSPropertyOp50
 70
     0
102
RTVSPropertyOp51
 70
     0
102
RTVSPropertyOp52
 70
     0
102
RTVSPropertyOp53
 70
     0
102
RTVSPropertyOp54
 70
     0
102
RTVSPropertyOp55
 70
     1
102
RTVSPropertyOp56
 70
     0
102
RTVSPropertyOp57
 70
     0
102
RTVSPropertyOp58
 70
     0
102
RTVSPropertyOp59
 70
     0
102
RTVSPropertyOp60
 70
     0
102
RTVSPropertyOp61
 70
     0
102
RTVSPropertyOp62
 70
     0
  0
XRECORD
  5
9DA9
102
{ACAD_REACTORS
330
9DA8
102
}
330
9DA8
100
AcDbXrecord
280
     1
102
RTVSPost2010Prop28
280
     0
102
RTVSPost2010PropOp28
 70
     1
102
RTVSPost2010Prop29
280
     1
102
RTVSPost2010PropOp29
 70
     1
102
RTVSPost2010Prop30
280
     1
102
RTVSPost2010PropOp30
 70
     1
102
RTVSPost2010Prop31
280
     0
102
RTVSPost2010PropOp31
 70
     1
102
RTVSPost2010Prop32
280
     0
102
RTVSPost2010PropOp32
 70
     1
102
RTVSPost2010Prop33
280
     0
102
RTVSPost2010PropOp33
 70
     1
102
RTVSPost2010Prop34
280
     0
102
RTVSPost2010PropOp34
 70
     1
102
RTVSPost2010Prop35
280
     0
102
RTVSPost2010PropOp35
 70
     1
102
RTVSPost2010Prop36
280
     0
102
RTVSPost2010PropOp36
 70
     1
102
RTVSPost2010Prop37
 90
       50
102
RTVSPost2010PropOp37
 70
     1
102
RTVSPost2010Prop38
140
0.0
102
RTVSPost2010PropOp38
 70
     1
102
RTVSPost2010Prop39
140
1.0
102
RTVSPost2010PropOp39
 70
     1
102
RTVSPost2010Prop40
 90
        0
102
RTVSPost2010PropOp40
 70
     1
102
RTVSPost2010Prop41ColorIndex
 90
       18
102
RTVSPost2010Prop41ColorRGB
 90
        0
102
RTVSPost2010PropOp41
 70
     1
102
RTVSPost2010Prop42
 90
       50
102
RTVSPost2010PropOp42
 70
     1
102
RTVSPost2010Prop43
 90
        3
102
RTVSPost2010PropOp43
 70
     1
102
RTVSPost2010Prop44ColorIndex
 90
        5
102
RTVSPost2010Prop44ColorRGB
 90
      255
102
RTVSPost2010PropOp44
 70
     1
102
RTVSPost2010Prop45
280
     0
102
RTVSPost2010PropOp45
 70
     1
102
RTVSPost2010Prop46
 90
       50
102
RTVSPost2010PropOp46
 70
     1
102
RTVSPost2010Prop47
 90
       50
102
RTVSPost2010PropOp47
 70
     1
102
RTVSPost2010Prop48
 90
       50
102
RTVSPost2010PropOp48
 70
     1
102
RTVSPost2010Prop49
280
     0
102
RTVSPost2010PropOp49
 70
     1
102
RTVSPost2010Prop50
 90
       50
102
RTVSPost2010PropOp50
 70
     1
102
RTVSPost2010Prop51ColorIndex
 90
      256
102
RTVSPost2010Prop51ColorRGB
 90
-16777216
102
RTVSPost2010PropOp51
 70
     0
102
RTVSPost2010Prop52
140
1.0
102
RTVSPost2010PropOp52
 70
     0
102
RTVSPost2010Prop53
 90
        2
102
RTVSPost2010PropOp53
 70
     1
102
RTVSPost2010Prop54
  1
strokes_ogs.tif
102
RTVSPost2010PropOp54
 70
     1
102
RTVSPost2010Prop55
280
     0
102
RTVSPost2010PropOp55
 70
     1
102
RTVSPost2010Prop56
140
1.0
102
RTVSPost2010PropOp56
 70
     1
102
RTVSPost2010Prop57
140
1.0
102
RTVSPost2010PropOp57
 70
     1
102
RTVSPropertyOp0
 70
     1
102
RTVSPropertyOp1
 70
     1
102
RTVSPropertyOp2
 70
     1
102
RTVSPropertyOp3
 70
     1
102
RTVSPropertyOp4
 70
     1
102
RTVSPropertyOp5
 70
     1
102
RTVSPropertyOp6
 70
     1
102
RTVSPropertyOp7
 70
     1
102
RTVSPropertyOp8
 70
     1
102
RTVSPropertyOp9
 70
     1
102
RTVSPropertyOp10
 70
     1
102
RTVSPropertyOp11
 70
     1
102
RTVSPropertyOp12
 70
     1
102
RTVSPropertyOp13
 70
     1
102
RTVSPropertyOp14
 70
     1
102
RTVSPropertyOp15
 70
     1
102
RTVSPropertyOp16
 70
     1
102
RTVSPropertyOp17
 70
     1
102
RTVSPropertyOp18
 70
     1
102
RTVSPropertyOp19
 70
     1
102
RTVSPropertyOp20
 70
     1
102
RTVSPropertyOp21
 70
     1
102
RTVSPropertyOp22
 70
     1
102
RTVSPropertyOp23
 70
     1
102
RTVSPropertyOp24
 70
     1
102
RTVSPropertyOp25
 70
     1
102
RTVSPropertyOp26
 70
     1
102
RTVSPropertyOp27
 70
     1
102
RTVSPropertyOp28
 70
     1
102
RTVSPropertyOp29
 70
     1
102
RTVSPropertyOp30
 70
     1
102
RTVSPropertyOp31
 70
     1
102
RTVSPropertyOp32
 70
     1
102
RTVSPropertyOp33
 70
     1
102
RTVSPropertyOp34
 70
     1
102
RTVSPropertyOp35
 70
     1
102
RTVSPropertyOp36
 70
     1
102
RTVSPropertyOp37
 70
     1
102
RTVSPropertyOp38
 70
     1
102
RTVSPropertyOp39
 70
     1
102
RTVSPropertyOp40
 70
     1
102
RTVSPropertyOp41
 70
     1
102
RTVSPropertyOp42
 70
     1
102
RTVSPropertyOp43
 70
     1
102
RTVSPropertyOp44
 70
     1
102
RTVSPropertyOp45
 70
     1
102
RTVSPropertyOp46
 70
     1
102
RTVSPropertyOp47
 70
     1
102
RTVSPropertyOp48
 70
     1
102
RTVSPropertyOp49
 70
     1
102
RTVSPropertyOp50
 70
     1
102
RTVSPropertyOp51
 70
     0
102
RTVSPropertyOp52
 70
     0
102
RTVSPropertyOp53
 70
     1
102
RTVSPropertyOp54
 70
     1
102
RTVSPropertyOp55
 70
     1
102
RTVSPropertyOp56
 70
     1
102
RTVSPropertyOp57
 70
     1
102
RTVSPropertyOp58
 70
     1
102
RTVSPropertyOp59
 70
     1
102
RTVSPropertyOp60
 70
     1
102
RTVSPropertyOp61
 70
     1
102
RTVSPropertyOp62
 70
     1
  0
XRECORD
  5
9DBF
102
{ACAD_REACTORS
330
9DBE
102
}
330
9DBE
100
AcDbXrecord
280
     1
102
RTVSPost2010Prop28
280
     0
102
RTVSPost2010PropOp28
 70
     1
102
RTVSPost2010Prop29
280
     1
102
RTVSPost2010PropOp29
 70
     1
102
RTVSPost2010Prop30
280
     1
102
RTVSPost2010PropOp30
 70
     1
102
RTVSPost2010Prop31
280
     0
102
RTVSPost2010PropOp31
 70
     1
102
RTVSPost2010Prop32
280
     0
102
RTVSPost2010PropOp32
 70
     1
102
RTVSPost2010Prop33
280
     0
102
RTVSPost2010PropOp33
 70
     1
102
RTVSPost2010Prop34
280
     0
102
RTVSPost2010PropOp34
 70
     1
102
RTVSPost2010Prop35
280
     0
102
RTVSPost2010PropOp35
 70
     1
102
RTVSPost2010Prop36
280
     0
102
RTVSPost2010PropOp36
 70
     1
102
RTVSPost2010Prop37
 90
       50
102
RTVSPost2010PropOp37
 70
     1
102
RTVSPost2010Prop38
140
0.0
102
RTVSPost2010PropOp38
 70
     1
102
RTVSPost2010Prop39
140
1.0
102
RTVSPost2010PropOp39
 70
     1
102
RTVSPost2010Prop40
 90
        0
102
RTVSPost2010PropOp40
 70
     1
102
RTVSPost2010Prop41ColorIndex
 90
       18
102
RTVSPost2010Prop41ColorRGB
 90
        0
102
RTVSPost2010PropOp41
 70
     1
102
RTVSPost2010Prop42
 90
       50
102
RTVSPost2010PropOp42
 70
     1
102
RTVSPost2010Prop43
 90
        3
102
RTVSPost2010PropOp43
 70
     1
102
RTVSPost2010Prop44ColorIndex
 90
        5
102
RTVSPost2010Prop44ColorRGB
 90
      255
102
RTVSPost2010PropOp44
 70
     1
102
RTVSPost2010Prop45
280
     0
102
RTVSPost2010PropOp45
 70
     1
102
RTVSPost2010Prop46
 90
       50
102
RTVSPost2010PropOp46
 70
     1
102
RTVSPost2010Prop47
 90
       50
102
RTVSPost2010PropOp47
 70
     1
102
RTVSPost2010Prop48
 90
       50
102
RTVSPost2010PropOp48
 70
     1
102
RTVSPost2010Prop49
280
     0
102
RTVSPost2010PropOp49
 70
     1
102
RTVSPost2010Prop50
 90
       50
102
RTVSPost2010PropOp50
 70
     1
102
RTVSPost2010Prop51ColorIndex
 90
      256
102
RTVSPost2010Prop51ColorRGB
 90
-16777216
102
RTVSPost2010PropOp51
 70
     0
102
RTVSPost2010Prop52
140
1.0
102
RTVSPost2010PropOp52
 70
     0
102
RTVSPost2010Prop53
 90
        2
102
RTVSPost2010PropOp53
 70
     1
102
RTVSPost2010Prop54
  1
strokes_ogs.tif
102
RTVSPost2010PropOp54
 70
     1
102
RTVSPost2010Prop55
280
     0
102
RTVSPost2010PropOp55
 70
     1
102
RTVSPost2010Prop56
140
1.0
102
RTVSPost2010PropOp56
 70
     1
102
RTVSPost2010Prop57
140
1.0
102
RTVSPost2010PropOp57
 70
     1
102
RTVSPropertyOp0
 70
     1
102
RTVSPropertyOp1
 70
     1
102
RTVSPropertyOp2
 70
     1
102
RTVSPropertyOp3
 70
     1
102
RTVSPropertyOp4
 70
     1
102
RTVSPropertyOp5
 70
     1
102
RTVSPropertyOp6
 70
     1
102
RTVSPropertyOp7
 70
     1
102
RTVSPropertyOp8
 70
     1
102
RTVSPropertyOp9
 70
     1
102
RTVSPropertyOp10
 70
     1
102
RTVSPropertyOp11
 70
     1
102
RTVSPropertyOp12
 70
     1
102
RTVSPropertyOp13
 70
     1
102
RTVSPropertyOp14
 70
     1
102
RTVSPropertyOp15
 70
     1
102
RTVSPropertyOp16
 70
     1
102
RTVSPropertyOp17
 70
     1
102
RTVSPropertyOp18
 70
     1
102
RTVSPropertyOp19
 70
     1
102
RTVSPropertyOp20
 70
     1
102
RTVSPropertyOp21
 70
     1
102
RTVSPropertyOp22
 70
     1
102
RTVSPropertyOp23
 70
     1
102
RTVSPropertyOp24
 70
     1
102
RTVSPropertyOp25
 70
     1
102
RTVSPropertyOp26
 70
     1
102
RTVSPropertyOp27
 70
     1
102
RTVSPropertyOp28
 70
     1
102
RTVSPropertyOp29
 70
     1
102
RTVSPropertyOp30
 70
     1
102
RTVSPropertyOp31
 70
     1
102
RTVSPropertyOp32
 70
     1
102
RTVSPropertyOp33
 70
     1
102
RTVSPropertyOp34
 70
     1
102
RTVSPropertyOp35
 70
     1
102
RTVSPropertyOp36
 70
     1
102
RTVSPropertyOp37
 70
     1
102
RTVSPropertyOp38
 70
     1
102
RTVSPropertyOp39
 70
     1
102
RTVSPropertyOp40
 70
     1
102
RTVSPropertyOp41
 70
     1
102
RTVSPropertyOp42
 70
     1
102
RTVSPropertyOp43
 70
     1
102
RTVSPropertyOp44
 70
     1
102
RTVSPropertyOp45
 70
     1
102
RTVSPropertyOp46
 70
     1
102
RTVSPropertyOp47
 70
     1
102
RTVSPropertyOp48
 70
     1
102
RTVSPropertyOp49
 70
     1
102
RTVSPropertyOp50
 70
     1
102
RTVSPropertyOp51
 70
     0
102
RTVSPropertyOp52
 70
     0
102
RTVSPropertyOp53
 70
     1
102
RTVSPropertyOp54
 70
     1
102
RTVSPropertyOp55
 70
     1
102
RTVSPropertyOp56
 70
     1
102
RTVSPropertyOp57
 70
     1
102
RTVSPropertyOp58
 70
     1
102
RTVSPropertyOp59
 70
     1
102
RTVSPropertyOp60
 70
     1
102
RTVSPropertyOp61
 70
     1
102
RTVSPropertyOp62
 70
     1
  0
XRECORD
  5
9DBD
102
{ACAD_REACTORS
330
9DBC
102
}
330
9DBC
100
AcDbXrecord
280
     1
102
RTVSPost2010Prop28
280
     0
102
RTVSPost2010PropOp28
 70
     1
102
RTVSPost2010Prop29
280
     1
102
RTVSPost2010PropOp29
 70
     1
102
RTVSPost2010Prop30
280
     1
102
RTVSPost2010PropOp30
 70
     1
102
RTVSPost2010Prop31
280
     0
102
RTVSPost2010PropOp31
 70
     1
102
RTVSPost2010Prop32
280
     0
102
RTVSPost2010PropOp32
 70
     1
102
RTVSPost2010Prop33
280
     0
102
RTVSPost2010PropOp33
 70
     1
102
RTVSPost2010Prop34
280
     0
102
RTVSPost2010PropOp34
 70
     1
102
RTVSPost2010Prop35
280
     0
102
RTVSPost2010PropOp35
 70
     1
102
RTVSPost2010Prop36
280
     0
102
RTVSPost2010PropOp36
 70
     1
102
RTVSPost2010Prop37
 90
       50
102
RTVSPost2010PropOp37
 70
     1
102
RTVSPost2010Prop38
140
0.0
102
RTVSPost2010PropOp38
 70
     1
102
RTVSPost2010Prop39
140
1.0
102
RTVSPost2010PropOp39
 70
     1
102
RTVSPost2010Prop40
 90
        0
102
RTVSPost2010PropOp40
 70
     1
102
RTVSPost2010Prop41ColorIndex
 90
       18
102
RTVSPost2010Prop41ColorRGB
 90
        0
102
RTVSPost2010PropOp41
 70
     1
102
RTVSPost2010Prop42
 90
       50
102
RTVSPost2010PropOp42
 70
     1
102
RTVSPost2010Prop43
 90
        3
102
RTVSPost2010PropOp43
 70
     1
102
RTVSPost2010Prop44ColorIndex
 90
        5
102
RTVSPost2010Prop44ColorRGB
 90
      255
102
RTVSPost2010PropOp44
 70
     1
102
RTVSPost2010Prop45
280
     0
102
RTVSPost2010PropOp45
 70
     1
102
RTVSPost2010Prop46
 90
       50
102
RTVSPost2010PropOp46
 70
     1
102
RTVSPost2010Prop47
 90
       50
102
RTVSPost2010PropOp47
 70
     1
102
RTVSPost2010Prop48
 90
       50
102
RTVSPost2010PropOp48
 70
     1
102
RTVSPost2010Prop49
280
     0
102
RTVSPost2010PropOp49
 70
     1
102
RTVSPost2010Prop50
 90
       50
102
RTVSPost2010PropOp50
 70
     1
102
RTVSPost2010Prop51ColorIndex
 90
      256
102
RTVSPost2010Prop51ColorRGB
 90
-16777216
102
RTVSPost2010PropOp51
 70
     0
102
RTVSPost2010Prop52
140
1.0
102
RTVSPost2010PropOp52
 70
     0
102
RTVSPost2010Prop53
 90
        2
102
RTVSPost2010PropOp53
 70
     1
102
RTVSPost2010Prop54
  1
strokes_ogs.tif
102
RTVSPost2010PropOp54
 70
     1
102
RTVSPost2010Prop55
280
     0
102
RTVSPost2010PropOp55
 70
     1
102
RTVSPost2010Prop56
140
1.0
102
RTVSPost2010PropOp56
 70
     1
102
RTVSPost2010Prop57
140
1.0
102
RTVSPost2010PropOp57
 70
     1
102
RTVSPropertyOp0
 70
     1
102
RTVSPropertyOp1
 70
     1
102
RTVSPropertyOp2
 70
     1
102
RTVSPropertyOp3
 70
     1
102
RTVSPropertyOp4
 70
     1
102
RTVSPropertyOp5
 70
     1
102
RTVSPropertyOp6
 70
     1
102
RTVSPropertyOp7
 70
     1
102
RTVSPropertyOp8
 70
     1
102
RTVSPropertyOp9
 70
     1
102
RTVSPropertyOp10
 70
     1
102
RTVSPropertyOp11
 70
     1
102
RTVSPropertyOp12
 70
     1
102
RTVSPropertyOp13
 70
     1
102
RTVSPropertyOp14
 70
     1
102
RTVSPropertyOp15
 70
     1
102
RTVSPropertyOp16
 70
     1
102
RTVSPropertyOp17
 70
     1
102
RTVSPropertyOp18
 70
     1
102
RTVSPropertyOp19
 70
     1
102
RTVSPropertyOp20
 70
     1
102
RTVSPropertyOp21
 70
     1
102
RTVSPropertyOp22
 70
     1
102
RTVSPropertyOp23
 70
     1
102
RTVSPropertyOp24
 70
     1
102
RTVSPropertyOp25
 70
     1
102
RTVSPropertyOp26
 70
     1
102
RTVSPropertyOp27
 70
     1
102
RTVSPropertyOp28
 70
     1
102
RTVSPropertyOp29
 70
     1
102
RTVSPropertyOp30
 70
     1
102
RTVSPropertyOp31
 70
     1
102
RTVSPropertyOp32
 70
     1
102
RTVSPropertyOp33
 70
     1
102
RTVSPropertyOp34
 70
     1
102
RTVSPropertyOp35
 70
     1
102
RTVSPropertyOp36
 70
     1
102
RTVSPropertyOp37
 70
     1
102
RTVSPropertyOp38
 70
     1
102
RTVSPropertyOp39
 70
     1
102
RTVSPropertyOp40
 70
     1
102
RTVSPropertyOp41
 70
     1
102
RTVSPropertyOp42
 70
     1
102
RTVSPropertyOp43
 70
     1
102
RTVSPropertyOp44
 70
     1
102
RTVSPropertyOp45
 70
     1
102
RTVSPropertyOp46
 70
     1
102
RTVSPropertyOp47
 70
     1
102
RTVSPropertyOp48
 70
     1
102
RTVSPropertyOp49
 70
     1
102
RTVSPropertyOp50
 70
     1
102
RTVSPropertyOp51
 70
     0
102
RTVSPropertyOp52
 70
     0
102
RTVSPropertyOp53
 70
     1
102
RTVSPropertyOp54
 70
     1
102
RTVSPropertyOp55
 70
     1
102
RTVSPropertyOp56
 70
     1
102
RTVSPropertyOp57
 70
     1
102
RTVSPropertyOp58
 70
     1
102
RTVSPropertyOp59
 70
     1
102
RTVSPropertyOp60
 70
     1
102
RTVSPropertyOp61
 70
     1
102
RTVSPropertyOp62
 70
     1
  0
XRECORD
  5
9DB7
102
{ACAD_REACTORS
330
9DB6
102
}
330
9DB6
100
AcDbXrecord
280
     1
102
RTVSPost2010Prop28
280
     0
102
RTVSPost2010PropOp28
 70
     1
102
RTVSPost2010Prop29
280
     1
102
RTVSPost2010PropOp29
 70
     1
102
RTVSPost2010Prop30
280
     1
102
RTVSPost2010PropOp30
 70
     1
102
RTVSPost2010Prop31
280
     0
102
RTVSPost2010PropOp31
 70
     1
102
RTVSPost2010Prop32
280
     0
102
RTVSPost2010PropOp32
 70
     1
102
RTVSPost2010Prop33
280
     0
102
RTVSPost2010PropOp33
 70
     1
102
RTVSPost2010Prop34
280
     0
102
RTVSPost2010PropOp34
 70
     1
102
RTVSPost2010Prop35
280
     0
102
RTVSPost2010PropOp35
 70
     1
102
RTVSPost2010Prop36
280
     0
102
RTVSPost2010PropOp36
 70
     1
102
RTVSPost2010Prop37
 90
       50
102
RTVSPost2010PropOp37
 70
     1
102
RTVSPost2010Prop38
140
0.0
102
RTVSPost2010PropOp38
 70
     1
102
RTVSPost2010Prop39
140
1.0
102
RTVSPost2010PropOp39
 70
     1
102
RTVSPost2010Prop40
 90
        0
102
RTVSPost2010PropOp40
 70
     1
102
RTVSPost2010Prop41ColorIndex
 90
       18
102
RTVSPost2010Prop41ColorRGB
 90
        0
102
RTVSPost2010PropOp41
 70
     1
102
RTVSPost2010Prop42
 90
       50
102
RTVSPost2010PropOp42
 70
     1
102
RTVSPost2010Prop43
 90
        3
102
RTVSPost2010PropOp43
 70
     1
102
RTVSPost2010Prop44ColorIndex
 90
        5
102
RTVSPost2010Prop44ColorRGB
 90
      255
102
RTVSPost2010PropOp44
 70
     1
102
RTVSPost2010Prop45
280
     0
102
RTVSPost2010PropOp45
 70
     1
102
RTVSPost2010Prop46
 90
       50
102
RTVSPost2010PropOp46
 70
     1
102
RTVSPost2010Prop47
 90
       50
102
RTVSPost2010PropOp47
 70
     1
102
RTVSPost2010Prop48
 90
       50
102
RTVSPost2010PropOp48
 70
     1
102
RTVSPost2010Prop49
280
     0
102
RTVSPost2010PropOp49
 70
     1
102
RTVSPost2010Prop50
 90
       50
102
RTVSPost2010PropOp50
 70
     1
102
RTVSPost2010Prop51ColorIndex
 90
      256
102
RTVSPost2010Prop51ColorRGB
 90
-16777216
102
RTVSPost2010PropOp51
 70
     0
102
RTVSPost2010Prop52
140
1.0
102
RTVSPost2010PropOp52
 70
     0
102
RTVSPost2010Prop53
 90
        2
102
RTVSPost2010PropOp53
 70
     1
102
RTVSPost2010Prop54
  1
strokes_ogs.tif
102
RTVSPost2010PropOp54
 70
     1
102
RTVSPost2010Prop55
280
     0
102
RTVSPost2010PropOp55
 70
     1
102
RTVSPost2010Prop56
140
1.0
102
RTVSPost2010PropOp56
 70
     1
102
RTVSPost2010Prop57
140
1.0
102
RTVSPost2010PropOp57
 70
     1
102
RTVSPropertyOp0
 70
     1
102
RTVSPropertyOp1
 70
     1
102
RTVSPropertyOp2
 70
     1
102
RTVSPropertyOp3
 70
     1
102
RTVSPropertyOp4
 70
     1
102
RTVSPropertyOp5
 70
     1
102
RTVSPropertyOp6
 70
     1
102
RTVSPropertyOp7
 70
     1
102
RTVSPropertyOp8
 70
     1
102
RTVSPropertyOp9
 70
     1
102
RTVSPropertyOp10
 70
     1
102
RTVSPropertyOp11
 70
     1
102
RTVSPropertyOp12
 70
     1
102
RTVSPropertyOp13
 70
     1
102
RTVSPropertyOp14
 70
     1
102
RTVSPropertyOp15
 70
     1
102
RTVSPropertyOp16
 70
     1
102
RTVSPropertyOp17
 70
     1
102
RTVSPropertyOp18
 70
     1
102
RTVSPropertyOp19
 70
     1
102
RTVSPropertyOp20
 70
     1
102
RTVSPropertyOp21
 70
     1
102
RTVSPropertyOp22
 70
     1
102
RTVSPropertyOp23
 70
     1
102
RTVSPropertyOp24
 70
     1
102
RTVSPropertyOp25
 70
     1
102
RTVSPropertyOp26
 70
     1
102
RTVSPropertyOp27
 70
     1
102
RTVSPropertyOp28
 70
     1
102
RTVSPropertyOp29
 70
     1
102
RTVSPropertyOp30
 70
     1
102
RTVSPropertyOp31
 70
     1
102
RTVSPropertyOp32
 70
     1
102
RTVSPropertyOp33
 70
     1
102
RTVSPropertyOp34
 70
     1
102
RTVSPropertyOp35
 70
     1
102
RTVSPropertyOp36
 70
     1
102
RTVSPropertyOp37
 70
     1
102
RTVSPropertyOp38
 70
     1
102
RTVSPropertyOp39
 70
     1
102
RTVSPropertyOp40
 70
     1
102
RTVSPropertyOp41
 70
     1
102
RTVSPropertyOp42
 70
     1
102
RTVSPropertyOp43
 70
     1
102
RTVSPropertyOp44
 70
     1
102
RTVSPropertyOp45
 70
     1
102
RTVSPropertyOp46
 70
     1
102
RTVSPropertyOp47
 70
     1
102
RTVSPropertyOp48
 70
     1
102
RTVSPropertyOp49
 70
     1
102
RTVSPropertyOp50
 70
     1
102
RTVSPropertyOp51
 70
     0
102
RTVSPropertyOp52
 70
     0
102
RTVSPropertyOp53
 70
     1
102
RTVSPropertyOp54
 70
     1
102
RTVSPropertyOp55
 70
     1
102
RTVSPropertyOp56
 70
     1
102
RTVSPropertyOp57
 70
     1
102
RTVSPropertyOp58
 70
     1
102
RTVSPropertyOp59
 70
     1
102
RTVSPropertyOp60
 70
     1
102
RTVSPropertyOp61
 70
     1
102
RTVSPropertyOp62
 70
     1
  0
XRECORD
  5
9DB9
102
{ACAD_REACTORS
330
9DB8
102
}
330
9DB8
100
AcDbXrecord
280
     1
102
RTVSPost2010Prop28
280
     0
102
RTVSPost2010PropOp28
 70
     1
102
RTVSPost2010Prop29
280
     1
102
RTVSPost2010PropOp29
 70
     1
102
RTVSPost2010Prop30
280
     1
102
RTVSPost2010PropOp30
 70
     1
102
RTVSPost2010Prop31
280
     0
102
RTVSPost2010PropOp31
 70
     1
102
RTVSPost2010Prop32
280
     0
102
RTVSPost2010PropOp32
 70
     1
102
RTVSPost2010Prop33
280
     0
102
RTVSPost2010PropOp33
 70
     1
102
RTVSPost2010Prop34
280
     0
102
RTVSPost2010PropOp34
 70
     1
102
RTVSPost2010Prop35
280
     0
102
RTVSPost2010PropOp35
 70
     1
102
RTVSPost2010Prop36
280
     0
102
RTVSPost2010PropOp36
 70
     1
102
RTVSPost2010Prop37
 90
       50
102
RTVSPost2010PropOp37
 70
     1
102
RTVSPost2010Prop38
140
0.0
102
RTVSPost2010PropOp38
 70
     1
102
RTVSPost2010Prop39
140
1.0
102
RTVSPost2010PropOp39
 70
     1
102
RTVSPost2010Prop40
 90
        0
102
RTVSPost2010PropOp40
 70
     1
102
RTVSPost2010Prop41ColorIndex
 90
       18
102
RTVSPost2010Prop41ColorRGB
 90
        0
102
RTVSPost2010PropOp41
 70
     1
102
RTVSPost2010Prop42
 90
       50
102
RTVSPost2010PropOp42
 70
     1
102
RTVSPost2010Prop43
 90
        3
102
RTVSPost2010PropOp43
 70
     1
102
RTVSPost2010Prop44ColorIndex
 90
        5
102
RTVSPost2010Prop44ColorRGB
 90
      255
102
RTVSPost2010PropOp44
 70
     1
102
RTVSPost2010Prop45
280
     0
102
RTVSPost2010PropOp45
 70
     1
102
RTVSPost2010Prop46
 90
       50
102
RTVSPost2010PropOp46
 70
     1
102
RTVSPost2010Prop47
 90
       50
102
RTVSPost2010PropOp47
 70
     1
102
RTVSPost2010Prop48
 90
       50
102
RTVSPost2010PropOp48
 70
     1
102
RTVSPost2010Prop49
280
     0
102
RTVSPost2010PropOp49
 70
     1
102
RTVSPost2010Prop50
 90
       50
102
RTVSPost2010PropOp50
 70
     1
102
RTVSPost2010Prop51ColorIndex
 90
      256
102
RTVSPost2010Prop51ColorRGB
 90
-16777216
102
RTVSPost2010PropOp51
 70
     0
102
RTVSPost2010Prop52
140
1.0
102
RTVSPost2010PropOp52
 70
     0
102
RTVSPost2010Prop53
 90
        2
102
RTVSPost2010PropOp53
 70
     1
102
RTVSPost2010Prop54
  1
strokes_ogs.tif
102
RTVSPost2010PropOp54
 70
     1
102
RTVSPost2010Prop55
280
     0
102
RTVSPost2010PropOp55
 70
     1
102
RTVSPost2010Prop56
140
1.0
102
RTVSPost2010PropOp56
 70
     1
102
RTVSPost2010Prop57
140
1.0
102
RTVSPost2010PropOp57
 70
     1
102
RTVSPropertyOp0
 70
     1
102
RTVSPropertyOp1
 70
     1
102
RTVSPropertyOp2
 70
     1
102
RTVSPropertyOp3
 70
     1
102
RTVSPropertyOp4
 70
     1
102
RTVSPropertyOp5
 70
     1
102
RTVSPropertyOp6
 70
     1
102
RTVSPropertyOp7
 70
     1
102
RTVSPropertyOp8
 70
     1
102
RTVSPropertyOp9
 70
     1
102
RTVSPropertyOp10
 70
     1
102
RTVSPropertyOp11
 70
     1
102
RTVSPropertyOp12
 70
     1
102
RTVSPropertyOp13
 70
     1
102
RTVSPropertyOp14
 70
     1
102
RTVSPropertyOp15
 70
     1
102
RTVSPropertyOp16
 70
     1
102
RTVSPropertyOp17
 70
     1
102
RTVSPropertyOp18
 70
     1
102
RTVSPropertyOp19
 70
     1
102
RTVSPropertyOp20
 70
     1
102
RTVSPropertyOp21
 70
     1
102
RTVSPropertyOp22
 70
     1
102
RTVSPropertyOp23
 70
     1
102
RTVSPropertyOp24
 70
     1
102
RTVSPropertyOp25
 70
     1
102
RTVSPropertyOp26
 70
     1
102
RTVSPropertyOp27
 70
     1
102
RTVSPropertyOp28
 70
     1
102
RTVSPropertyOp29
 70
     1
102
RTVSPropertyOp30
 70
     1
102
RTVSPropertyOp31
 70
     1
102
RTVSPropertyOp32
 70
     1
102
RTVSPropertyOp33
 70
     1
102
RTVSPropertyOp34
 70
     1
102
RTVSPropertyOp35
 70
     1
102
RTVSPropertyOp36
 70
     1
102
RTVSPropertyOp37
 70
     1
102
RTVSPropertyOp38
 70
     1
102
RTVSPropertyOp39
 70
     1
102
RTVSPropertyOp40
 70
     1
102
RTVSPropertyOp41
 70
     1
102
RTVSPropertyOp42
 70
     1
102
RTVSPropertyOp43
 70
     1
102
RTVSPropertyOp44
 70
     1
102
RTVSPropertyOp45
 70
     1
102
RTVSPropertyOp46
 70
     1
102
RTVSPropertyOp47
 70
     1
102
RTVSPropertyOp48
 70
     1
102
RTVSPropertyOp49
 70
     1
102
RTVSPropertyOp50
 70
     1
102
RTVSPropertyOp51
 70
     0
102
RTVSPropertyOp52
 70
     0
102
RTVSPropertyOp53
 70
     1
102
RTVSPropertyOp54
 70
     1
102
RTVSPropertyOp55
 70
     1
102
RTVSPropertyOp56
 70
     1
102
RTVSPropertyOp57
 70
     1
102
RTVSPropertyOp58
 70
     1
102
RTVSPropertyOp59
 70
     1
102
RTVSPropertyOp60
 70
     1
102
RTVSPropertyOp61
 70
     1
102
RTVSPropertyOp62
 70
     1
  0
XRECORD
  5
9DAF
102
{ACAD_REACTORS
330
9DAE
102
}
330
9DAE
100
AcDbXrecord
280
     1
102
RTVSPost2010Prop28
280
     0
102
RTVSPost2010PropOp28
 70
     1
102
RTVSPost2010Prop29
280
     1
102
RTVSPost2010PropOp29
 70
     1
102
RTVSPost2010Prop30
280
     1
102
RTVSPost2010PropOp30
 70
     1
102
RTVSPost2010Prop31
280
     0
102
RTVSPost2010PropOp31
 70
     1
102
RTVSPost2010Prop32
280
     0
102
RTVSPost2010PropOp32
 70
     1
102
RTVSPost2010Prop33
280
     0
102
RTVSPost2010PropOp33
 70
     1
102
RTVSPost2010Prop34
280
     0
102
RTVSPost2010PropOp34
 70
     1
102
RTVSPost2010Prop35
280
     0
102
RTVSPost2010PropOp35
 70
     1
102
RTVSPost2010Prop36
280
     0
102
RTVSPost2010PropOp36
 70
     1
102
RTVSPost2010Prop37
 90
       50
102
RTVSPost2010PropOp37
 70
     1
102
RTVSPost2010Prop38
140
0.0
102
RTVSPost2010PropOp38
 70
     1
102
RTVSPost2010Prop39
140
1.0
102
RTVSPost2010PropOp39
 70
     1
102
RTVSPost2010Prop40
 90
        0
102
RTVSPost2010PropOp40
 70
     1
102
RTVSPost2010Prop41ColorIndex
 90
       18
102
RTVSPost2010Prop41ColorRGB
 90
        0
102
RTVSPost2010PropOp41
 70
     1
102
RTVSPost2010Prop42
 90
       50
102
RTVSPost2010PropOp42
 70
     1
102
RTVSPost2010Prop43
 90
        3
102
RTVSPost2010PropOp43
 70
     1
102
RTVSPost2010Prop44ColorIndex
 90
        5
102
RTVSPost2010Prop44ColorRGB
 90
      255
102
RTVSPost2010PropOp44
 70
     1
102
RTVSPost2010Prop45
280
     0
102
RTVSPost2010PropOp45
 70
     1
102
RTVSPost2010Prop46
 90
       50
102
RTVSPost2010PropOp46
 70
     1
102
RTVSPost2010Prop47
 90
       50
102
RTVSPost2010PropOp47
 70
     1
102
RTVSPost2010Prop48
 90
       50
102
RTVSPost2010PropOp48
 70
     1
102
RTVSPost2010Prop49
280
     0
102
RTVSPost2010PropOp49
 70
     1
102
RTVSPost2010Prop50
 90
       50
102
RTVSPost2010PropOp50
 70
     1
102
RTVSPost2010Prop51ColorIndex
 90
      256
102
RTVSPost2010Prop51ColorRGB
 90
-16777216
102
RTVSPost2010PropOp51
 70
     0
102
RTVSPost2010Prop52
140
1.0
102
RTVSPost2010PropOp52
 70
     0
102
RTVSPost2010Prop53
 90
        2
102
RTVSPost2010PropOp53
 70
     1
102
RTVSPost2010Prop54
  1
strokes_ogs.tif
102
RTVSPost2010PropOp54
 70
     1
102
RTVSPost2010Prop55
280
     0
102
RTVSPost2010PropOp55
 70
     1
102
RTVSPost2010Prop56
140
1.0
102
RTVSPost2010PropOp56
 70
     1
102
RTVSPost2010Prop57
140
1.0
102
RTVSPost2010PropOp57
 70
     1
102
RTVSPropertyOp0
 70
     1
102
RTVSPropertyOp1
 70
     1
102
RTVSPropertyOp2
 70
     1
102
RTVSPropertyOp3
 70
     1
102
RTVSPropertyOp4
 70
     1
102
RTVSPropertyOp5
 70
     1
102
RTVSPropertyOp6
 70
     1
102
RTVSPropertyOp7
 70
     1
102
RTVSPropertyOp8
 70
     1
102
RTVSPropertyOp9
 70
     1
102
RTVSPropertyOp10
 70
     1
102
RTVSPropertyOp11
 70
     1
102
RTVSPropertyOp12
 70
     1
102
RTVSPropertyOp13
 70
     1
102
RTVSPropertyOp14
 70
     1
102
RTVSPropertyOp15
 70
     1
102
RTVSPropertyOp16
 70
     1
102
RTVSPropertyOp17
 70
     1
102
RTVSPropertyOp18
 70
     1
102
RTVSPropertyOp19
 70
     1
102
RTVSPropertyOp20
 70
     1
102
RTVSPropertyOp21
 70
     1
102
RTVSPropertyOp22
 70
     1
102
RTVSPropertyOp23
 70
     1
102
RTVSPropertyOp24
 70
     1
102
RTVSPropertyOp25
 70
     1
102
RTVSPropertyOp26
 70
     1
102
RTVSPropertyOp27
 70
     1
102
RTVSPropertyOp28
 70
     1
102
RTVSPropertyOp29
 70
     1
102
RTVSPropertyOp30
 70
     1
102
RTVSPropertyOp31
 70
     1
102
RTVSPropertyOp32
 70
     1
102
RTVSPropertyOp33
 70
     1
102
RTVSPropertyOp34
 70
     1
102
RTVSPropertyOp35
 70
     1
102
RTVSPropertyOp36
 70
     1
102
RTVSPropertyOp37
 70
     1
102
RTVSPropertyOp38
 70
     1
102
RTVSPropertyOp39
 70
     1
102
RTVSPropertyOp40
 70
     1
102
RTVSPropertyOp41
 70
     1
102
RTVSPropertyOp42
 70
     1
102
RTVSPropertyOp43
 70
     1
102
RTVSPropertyOp44
 70
     1
102
RTVSPropertyOp45
 70
     1
102
RTVSPropertyOp46
 70
     1
102
RTVSPropertyOp47
 70
     1
102
RTVSPropertyOp48
 70
     1
102
RTVSPropertyOp49
 70
     1
102
RTVSPropertyOp50
 70
     1
102
RTVSPropertyOp51
 70
     0
102
RTVSPropertyOp52
 70
     0
102
RTVSPropertyOp53
 70
     1
102
RTVSPropertyOp54
 70
     1
102
RTVSPropertyOp55
 70
     1
102
RTVSPropertyOp56
 70
     1
102
RTVSPropertyOp57
 70
     1
102
RTVSPropertyOp58
 70
     1
102
RTVSPropertyOp59
 70
     1
102
RTVSPropertyOp60
 70
     1
102
RTVSPropertyOp61
 70
     1
102
RTVSPropertyOp62
 70
     1
  0
XRECORD
  5
9DA3
102
{ACAD_REACTORS
330
9DA2
102
}
330
9DA2
100
AcDbXrecord
280
     1
102
RTVSPost2010Prop28
280
     0
102
RTVSPost2010PropOp28
 70
     1
102
RTVSPost2010Prop29
280
     1
102
RTVSPost2010PropOp29
 70
     1
102
RTVSPost2010Prop30
280
     1
102
RTVSPost2010PropOp30
 70
     1
102
RTVSPost2010Prop31
280
     0
102
RTVSPost2010PropOp31
 70
     1
102
RTVSPost2010Prop32
280
     0
102
RTVSPost2010PropOp32
 70
     1
102
RTVSPost2010Prop33
280
     0
102
RTVSPost2010PropOp33
 70
     1
102
RTVSPost2010Prop34
280
     0
102
RTVSPost2010PropOp34
 70
     1
102
RTVSPost2010Prop35
280
     0
102
RTVSPost2010PropOp35
 70
     1
102
RTVSPost2010Prop36
280
     0
102
RTVSPost2010PropOp36
 70
     1
102
RTVSPost2010Prop37
 90
       50
102
RTVSPost2010PropOp37
 70
     1
102
RTVSPost2010Prop38
140
0.0
102
RTVSPost2010PropOp38
 70
     1
102
RTVSPost2010Prop39
140
1.0
102
RTVSPost2010PropOp39
 70
     1
102
RTVSPost2010Prop40
 90
        0
102
RTVSPost2010PropOp40
 70
     1
102
RTVSPost2010Prop41ColorIndex
 90
       18
102
RTVSPost2010Prop41ColorRGB
 90
        0
102
RTVSPost2010PropOp41
 70
     1
102
RTVSPost2010Prop42
 90
       50
102
RTVSPost2010PropOp42
 70
     1
102
RTVSPost2010Prop43
 90
        3
102
RTVSPost2010PropOp43
 70
     1
102
RTVSPost2010Prop44ColorIndex
 90
        5
102
RTVSPost2010Prop44ColorRGB
 90
      255
102
RTVSPost2010PropOp44
 70
     1
102
RTVSPost2010Prop45
280
     0
102
RTVSPost2010PropOp45
 70
     1
102
RTVSPost2010Prop46
 90
       50
102
RTVSPost2010PropOp46
 70
     1
102
RTVSPost2010Prop47
 90
       50
102
RTVSPost2010PropOp47
 70
     1
102
RTVSPost2010Prop48
 90
       50
102
RTVSPost2010PropOp48
 70
     1
102
RTVSPost2010Prop49
280
     0
102
RTVSPost2010PropOp49
 70
     1
102
RTVSPost2010Prop50
 90
       50
102
RTVSPost2010PropOp50
 70
     1
102
RTVSPost2010Prop51ColorIndex
 90
      256
102
RTVSPost2010Prop51ColorRGB
 90
-16777216
102
RTVSPost2010PropOp51
 70
     0
102
RTVSPost2010Prop52
140
1.0
102
RTVSPost2010PropOp52
 70
     0
102
RTVSPost2010Prop53
 90
        2
102
RTVSPost2010PropOp53
 70
     1
102
RTVSPost2010Prop54
  1
strokes_ogs.tif
102
RTVSPost2010PropOp54
 70
     1
102
RTVSPost2010Prop55
280
     0
102
RTVSPost2010PropOp55
 70
     1
102
RTVSPost2010Prop56
140
1.0
102
RTVSPost2010PropOp56
 70
     1
102
RTVSPost2010Prop57
140
1.0
102
RTVSPost2010PropOp57
 70
     1
102
RTVSPropertyOp0
 70
     1
102
RTVSPropertyOp1
 70
     1
102
RTVSPropertyOp2
 70
     1
102
RTVSPropertyOp3
 70
     1
102
RTVSPropertyOp4
 70
     1
102
RTVSPropertyOp5
 70
     1
102
RTVSPropertyOp6
 70
     1
102
RTVSPropertyOp7
 70
     1
102
RTVSPropertyOp8
 70
     1
102
RTVSPropertyOp9
 70
     1
102
RTVSPropertyOp10
 70
     1
102
RTVSPropertyOp11
 70
     1
102
RTVSPropertyOp12
 70
     1
102
RTVSPropertyOp13
 70
     1
102
RTVSPropertyOp14
 70
     1
102
RTVSPropertyOp15
 70
     1
102
RTVSPropertyOp16
 70
     1
102
RTVSPropertyOp17
 70
     1
102
RTVSPropertyOp18
 70
     1
102
RTVSPropertyOp19
 70
     1
102
RTVSPropertyOp20
 70
     1
102
RTVSPropertyOp21
 70
     1
102
RTVSPropertyOp22
 70
     1
102
RTVSPropertyOp23
 70
     1
102
RTVSPropertyOp24
 70
     1
102
RTVSPropertyOp25
 70
     1
102
RTVSPropertyOp26
 70
     1
102
RTVSPropertyOp27
 70
     1
102
RTVSPropertyOp28
 70
     1
102
RTVSPropertyOp29
 70
     1
102
RTVSPropertyOp30
 70
     1
102
RTVSPropertyOp31
 70
     1
102
RTVSPropertyOp32
 70
     1
102
RTVSPropertyOp33
 70
     1
102
RTVSPropertyOp34
 70
     1
102
RTVSPropertyOp35
 70
     1
102
RTVSPropertyOp36
 70
     1
102
RTVSPropertyOp37
 70
     1
102
RTVSPropertyOp38
 70
     1
102
RTVSPropertyOp39
 70
     1
102
RTVSPropertyOp40
 70
     1
102
RTVSPropertyOp41
 70
     1
102
RTVSPropertyOp42
 70
     1
102
RTVSPropertyOp43
 70
     1
102
RTVSPropertyOp44
 70
     1
102
RTVSPropertyOp45
 70
     1
102
RTVSPropertyOp46
 70
     1
102
RTVSPropertyOp47
 70
     1
102
RTVSPropertyOp48
 70
     1
102
RTVSPropertyOp49
 70
     1
102
RTVSPropertyOp50
 70
     1
102
RTVSPropertyOp51
 70
     0
102
RTVSPropertyOp52
 70
     0
102
RTVSPropertyOp53
 70
     1
102
RTVSPropertyOp54
 70
     1
102
RTVSPropertyOp55
 70
     1
102
RTVSPropertyOp56
 70
     1
102
RTVSPropertyOp57
 70
     1
102
RTVSPropertyOp58
 70
     1
102
RTVSPropertyOp59
 70
     1
102
RTVSPropertyOp60
 70
     1
102
RTVSPropertyOp61
 70
     1
102
RTVSPropertyOp62
 70
     1
  0
XRECORD
  5
9DBB
102
{ACAD_REACTORS
330
9DBA
102
}
330
9DBA
100
AcDbXrecord
280
     1
102
RTVSPost2010Prop28
280
     0
102
RTVSPost2010PropOp28
 70
     1
102
RTVSPost2010Prop29
280
     1
102
RTVSPost2010PropOp29
 70
     1
102
RTVSPost2010Prop30
280
     1
102
RTVSPost2010PropOp30
 70
     1
102
RTVSPost2010Prop31
280
     0
102
RTVSPost2010PropOp31
 70
     1
102
RTVSPost2010Prop32
280
     0
102
RTVSPost2010PropOp32
 70
     1
102
RTVSPost2010Prop33
280
     0
102
RTVSPost2010PropOp33
 70
     1
102
RTVSPost2010Prop34
280
     0
102
RTVSPost2010PropOp34
 70
     1
102
RTVSPost2010Prop35
280
     0
102
RTVSPost2010PropOp35
 70
     1
102
RTVSPost2010Prop36
280
     0
102
RTVSPost2010PropOp36
 70
     1
102
RTVSPost2010Prop37
 90
       50
102
RTVSPost2010PropOp37
 70
     1
102
RTVSPost2010Prop38
140
0.0
102
RTVSPost2010PropOp38
 70
     1
102
RTVSPost2010Prop39
140
1.0
102
RTVSPost2010PropOp39
 70
     1
102
RTVSPost2010Prop40
 90
        0
102
RTVSPost2010PropOp40
 70
     1
102
RTVSPost2010Prop41ColorIndex
 90
       18
102
RTVSPost2010Prop41ColorRGB
 90
        0
102
RTVSPost2010PropOp41
 70
     1
102
RTVSPost2010Prop42
 90
       50
102
RTVSPost2010PropOp42
 70
     1
102
RTVSPost2010Prop43
 90
        3
102
RTVSPost2010PropOp43
 70
     1
102
RTVSPost2010Prop44ColorIndex
 90
        5
102
RTVSPost2010Prop44ColorRGB
 90
      255
102
RTVSPost2010PropOp44
 70
     1
102
RTVSPost2010Prop45
280
     0
102
RTVSPost2010PropOp45
 70
     1
102
RTVSPost2010Prop46
 90
       50
102
RTVSPost2010PropOp46
 70
     1
102
RTVSPost2010Prop47
 90
       50
102
RTVSPost2010PropOp47
 70
     1
102
RTVSPost2010Prop48
 90
       50
102
RTVSPost2010PropOp48
 70
     1
102
RTVSPost2010Prop49
280
     0
102
RTVSPost2010PropOp49
 70
     1
102
RTVSPost2010Prop50
 90
       50
102
RTVSPost2010PropOp50
 70
     1
102
RTVSPost2010Prop51ColorIndex
 90
      256
102
RTVSPost2010Prop51ColorRGB
 90
-16777216
102
RTVSPost2010PropOp51
 70
     0
102
RTVSPost2010Prop52
140
1.0
102
RTVSPost2010PropOp52
 70
     0
102
RTVSPost2010Prop53
 90
        2
102
RTVSPost2010PropOp53
 70
     1
102
RTVSPost2010Prop54
  1
strokes_ogs.tif
102
RTVSPost2010PropOp54
 70
     1
102
RTVSPost2010Prop55
280
     0
102
RTVSPost2010PropOp55
 70
     1
102
RTVSPost2010Prop56
140
1.0
102
RTVSPost2010PropOp56
 70
     1
102
RTVSPost2010Prop57
140
1.0
102
RTVSPost2010PropOp57
 70
     1
102
RTVSPropertyOp0
 70
     1
102
RTVSPropertyOp1
 70
     1
102
RTVSPropertyOp2
 70
     1
102
RTVSPropertyOp3
 70
     1
102
RTVSPropertyOp4
 70
     1
102
RTVSPropertyOp5
 70
     1
102
RTVSPropertyOp6
 70
     1
102
RTVSPropertyOp7
 70
     1
102
RTVSPropertyOp8
 70
     1
102
RTVSPropertyOp9
 70
     1
102
RTVSPropertyOp10
 70
     1
102
RTVSPropertyOp11
 70
     1
102
RTVSPropertyOp12
 70
     1
102
RTVSPropertyOp13
 70
     1
102
RTVSPropertyOp14
 70
     1
102
RTVSPropertyOp15
 70
     1
102
RTVSPropertyOp16
 70
     1
102
RTVSPropertyOp17
 70
     1
102
RTVSPropertyOp18
 70
     1
102
RTVSPropertyOp19
 70
     1
102
RTVSPropertyOp20
 70
     1
102
RTVSPropertyOp21
 70
     1
102
RTVSPropertyOp22
 70
     1
102
RTVSPropertyOp23
 70
     1
102
RTVSPropertyOp24
 70
     1
102
RTVSPropertyOp25
 70
     1
102
RTVSPropertyOp26
 70
     1
102
RTVSPropertyOp27
 70
     1
102
RTVSPropertyOp28
 70
     1
102
RTVSPropertyOp29
 70
     1
102
RTVSPropertyOp30
 70
     1
102
RTVSPropertyOp31
 70
     1
102
RTVSPropertyOp32
 70
     1
102
RTVSPropertyOp33
 70
     1
102
RTVSPropertyOp34
 70
     1
102
RTVSPropertyOp35
 70
     1
102
RTVSPropertyOp36
 70
     1
102
RTVSPropertyOp37
 70
     1
102
RTVSPropertyOp38
 70
     1
102
RTVSPropertyOp39
 70
     1
102
RTVSPropertyOp40
 70
     1
102
RTVSPropertyOp41
 70
     1
102
RTVSPropertyOp42
 70
     1
102
RTVSPropertyOp43
 70
     1
102
RTVSPropertyOp44
 70
     1
102
RTVSPropertyOp45
 70
     1
102
RTVSPropertyOp46
 70
     1
102
RTVSPropertyOp47
 70
     1
102
RTVSPropertyOp48
 70
     1
102
RTVSPropertyOp49
 70
     1
102
RTVSPropertyOp50
 70
     1
102
RTVSPropertyOp51
 70
     0
102
RTVSPropertyOp52
 70
     0
102
RTVSPropertyOp53
 70
     1
102
RTVSPropertyOp54
 70
     1
102
RTVSPropertyOp55
 70
     1
102
RTVSPropertyOp56
 70
     1
102
RTVSPropertyOp57
 70
     1
102
RTVSPropertyOp58
 70
     1
102
RTVSPropertyOp59
 70
     1
102
RTVSPropertyOp60
 70
     1
102
RTVSPropertyOp61
 70
     1
102
RTVSPropertyOp62
 70
     1
  0
ENDSEC
  0
EOF
