ISO-10303-21;
HEADER;
FILE_DESCRIPTION (( 'STEP AP214' ),
    '1' );
FILE_NAME ('TM_339_10_15.STEP',
    '2016-05-09T04:35:24',
    ( '' ),
    ( '' ),
    'SwSTEP 2.0',
    'SolidWorks 2015',
    '' );
FILE_SCHEMA (( 'AUTOMOTIVE_DESIGN' ));
ENDSEC;

DATA;
#1 = STYLED_ITEM ( 'NONE', ( #195 ), #167 ) ;
#2 = SHAPE_DEFINITION_REPRESENTATION ( #106, #141 ) ;
#3 = ADVANCED_FACE ( 'NONE', ( #139 ), #25, .F. ) ;
#4 = PRODUCT_DEFINITION_FORMATION_WITH_SPECIFIED_SOURCE ( 'ANY', '', #105, .NOT_KNOWN. ) ;
#5 = FACE_OUTER_BOUND ( 'NONE', #121, .T. ) ;
#6 = DIRECTION ( 'NONE',  ( 0.0000000000000000000, -1.000000000000000000, 0.0000000000000000000 ) ) ;
#7 = CARTESIAN_POINT ( 'NONE',  ( 0.0000000000000000000, 1000.000000000000000, 10.00000000000000000 ) ) ;
#8 = UNCERTAINTY_MEASURE_WITH_UNIT (LENGTH_MEASURE( 1.000000000000000100E-005 ), #101, 'distance_accuracy_value', 'NONE');
#9 = DIRECTION ( 'NONE',  ( 0.0000000000000000000, -1.000000000000000000, 0.0000000000000000000 ) ) ;
#10 = VECTOR ( 'NONE', #9, 1000.000000000000000 ) ;
#11 = CARTESIAN_POINT ( 'NONE',  ( 15.00000000000000000, 0.0000000000000000000, 0.0000000000000000000 ) ) ;
#12 = DIRECTION ( 'NONE',  ( 1.000000000000000000, 0.0000000000000000000, 0.0000000000000000000 ) ) ;
#13 =( NAMED_UNIT ( * ) PLANE_ANGLE_UNIT ( ) SI_UNIT ( $, .RADIAN. ) );
#14 = APPLICATION_CONTEXT ( 'automotive_design' ) ;
#15 = VECTOR ( 'NONE', #113, 1000.000000000000000 ) ;
#16 = EDGE_CURVE ( 'NONE', #34, #130, #201, .T. ) ;
#17 = PRODUCT_RELATED_PRODUCT_CATEGORY ( 'part', '', ( #105 ) ) ;
#18 = UNCERTAINTY_MEASURE_WITH_UNIT (LENGTH_MEASURE( 1.000000000000000100E-005 ), #192, 'distance_accuracy_value', 'NONE');
#19 = VECTOR ( 'NONE', #56, 1000.000000000000000 ) ;
#20 = ORIENTED_EDGE ( 'NONE', *, *, #32, .F. ) ;
#21 = ORIENTED_EDGE ( 'NONE', *, *, #202, .T. ) ;
#22 = LINE ( 'NONE', #127, #134 ) ;
#23 = DIRECTION ( 'NONE',  ( 0.0000000000000000000, 0.0000000000000000000, -1.000000000000000000 ) ) ;
#24 = DIRECTION ( 'NONE',  ( 0.0000000000000000000, 0.0000000000000000000, 1.000000000000000000 ) ) ;
#25 = PLANE ( 'NONE',  #223 ) ;
#26 = SURFACE_STYLE_FILL_AREA ( #190 ) ;
#27 = DIRECTION ( 'NONE',  ( 0.0000000000000000000, 0.0000000000000000000, -1.000000000000000000 ) ) ;
#28 = DIRECTION ( 'NONE',  ( 0.0000000000000000000, 0.0000000000000000000, -1.000000000000000000 ) ) ;
#29 = DIRECTION ( 'NONE',  ( -1.000000000000000000, 0.0000000000000000000, 0.0000000000000000000 ) ) ;
#30 = DIRECTION ( 'NONE',  ( 0.0000000000000000000, 0.0000000000000000000, 1.000000000000000000 ) ) ;
#31 = APPLICATION_CONTEXT ( 'automotive_design' ) ;
#32 = EDGE_CURVE ( 'NONE', #130, #226, #61, .T. ) ;
#33 = COLOUR_RGB ( '',0.7921568627450980000, 0.8196078431372548800, 0.9333333333333333500 ) ;
#34 = VERTEX_POINT ( 'NONE', #79 ) ;
#35 = PRESENTATION_LAYER_ASSIGNMENT (  '', '', ( #67 ) ) ;
#36 = VERTEX_POINT ( 'NONE', #110 ) ;
#37 = ORIENTED_EDGE ( 'NONE', *, *, #16, .F. ) ;
#38 = CARTESIAN_POINT ( 'NONE',  ( 0.0000000000000000000, 1000.000000000000000, 0.0000000000000000000 ) ) ;
#39 = ORIENTED_EDGE ( 'NONE', *, *, #137, .F. ) ;
#40 = DIRECTION ( 'NONE',  ( 1.000000000000000000, 0.0000000000000000000, 0.0000000000000000000 ) ) ;
#41 = CARTESIAN_POINT ( 'NONE',  ( 0.0000000000000000000, 1000.000000000000000, 10.00000000000000000 ) ) ;
#42 = CARTESIAN_POINT ( 'NONE',  ( 0.0000000000000000000, 200.0000000000000000, 0.0000000000000000000 ) ) ;
#43 = ITEM_DEFINED_TRANSFORMATION ( 'NONE', 'NONE', #211,  #136 ) ;
#44 = PLANE ( 'NONE',  #52 ) ;
#45 = CARTESIAN_POINT ( 'NONE',  ( 0.0000000000000000000, 0.0000000000000000000, 10.00000000000000000 ) ) ;
#46 = ORIENTED_EDGE ( 'NONE', *, *, #16, .T. ) ;
#47 = DIRECTION ( 'NONE',  ( 0.0000000000000000000, 0.0000000000000000000, 1.000000000000000000 ) ) ;
#48 = CARTESIAN_POINT ( 'NONE',  ( 0.0000000000000000000, 0.0000000000000000000, 0.0000000000000000000 ) ) ;
#49 = PRODUCT_CONTEXT ( 'NONE', #31, 'mechanical' ) ;
#50 = EDGE_LOOP ( 'NONE', ( #54, #21, #213, #169 ) ) ;
#51 = AXIS2_PLACEMENT_3D ( 'NONE', #131, #30, #149 ) ;
#52 = AXIS2_PLACEMENT_3D ( 'NONE', #62, #188, #86 ) ;
#53 = SURFACE_SIDE_STYLE ('',( #126 ) ) ;
#54 = ORIENTED_EDGE ( 'NONE', *, *, #137, .T. ) ;
#55 = AXIS2_PLACEMENT_3D ( 'NONE', #208, #60, #186 ) ;
#56 = DIRECTION ( 'NONE',  ( 0.0000000000000000000, -1.000000000000000000, 0.0000000000000000000 ) ) ;
#57 = FACE_OUTER_BOUND ( 'NONE', #102, .T. ) ;
#58 = DIRECTION ( 'NONE',  ( -0.0000000000000000000, 1.000000000000000000, 0.0000000000000000000 ) ) ;
#59 = VECTOR ( 'NONE', #227, 1000.000000000000000 ) ;
#60 = DIRECTION ( 'NONE',  ( -0.0000000000000000000, 1.000000000000000000, 0.0000000000000000000 ) ) ;
#61 = LINE ( 'NONE', #81, #145 ) ;
#62 = CARTESIAN_POINT ( 'NONE',  ( 15.00000000000000000, 1000.000000000000000, 10.00000000000000000 ) ) ;
#63 = ADVANCED_FACE ( 'NONE', ( #5 ), #96, .F. ) ;
#64 = LINE ( 'NONE', #114, #155 ) ;
#65 = FILL_AREA_STYLE_COLOUR ( '', #33 ) ;
#66 = DIRECTION ( 'NONE',  ( 1.000000000000000000, 0.0000000000000000000, 0.0000000000000000000 ) ) ;
#67 = STYLED_ITEM ( 'NONE', ( #187 ), #74 ) ;
#68 = APPLICATION_PROTOCOL_DEFINITION ( 'draft international standard', 'automotive_design', 1998, #172 ) ;
#69 = LINE ( 'NONE', #87, #109 ) ;
#70 = PRESENTATION_LAYER_ASSIGNMENT (  '', '', ( #1 ) ) ;
#71 = SHAPE_REPRESENTATION ( 'TM_339_10_15', ( #72, #211 ), #217 ) ;
#72 = AXIS2_PLACEMENT_3D ( 'NONE', #99, #236, #118 ) ;
#73 = VECTOR ( 'NONE', #85, 1000.000000000000000 ) ;
#74 = MANIFOLD_SOLID_BREP ( '²ÝÎß°Ä1', #176 ) ;
#75 = EDGE_CURVE ( 'NONE', #36, #191, #80, .T. ) ;
#76 = PRODUCT_DEFINITION_SHAPE ( 'NONE', 'NONE',  #184 ) ;
#77 = ORIENTED_EDGE ( 'NONE', *, *, #228, .T. ) ;
#78 =( LENGTH_UNIT ( ) NAMED_UNIT ( * ) SI_UNIT ( .MILLI., .METRE. ) );
#79 = CARTESIAN_POINT ( 'NONE',  ( 15.00000000000000000, 200.0000000000000000, 10.00000000000000000 ) ) ;
#80 = LINE ( 'NONE', #38, #196 ) ;
#81 = CARTESIAN_POINT ( 'NONE',  ( 15.00000000000000000, 0.0000000000000000000, 10.00000000000000000 ) ) ;
#82 = ORIENTED_EDGE ( 'NONE', *, *, #198, .F. ) ;
#83 = CARTESIAN_POINT ( 'NONE',  ( 15.00000000000000000, 200.0000000000000000, 10.00000000000000000 ) ) ;
#84 = FACE_OUTER_BOUND ( 'NONE', #153, .T. ) ;
#85 = DIRECTION ( 'NONE',  ( -1.000000000000000000, 0.0000000000000000000, 0.0000000000000000000 ) ) ;
#86 = DIRECTION ( 'NONE',  ( 0.0000000000000000000, 0.0000000000000000000, 1.000000000000000000 ) ) ;
#87 = CARTESIAN_POINT ( 'NONE',  ( 0.0000000000000000000, 0.0000000000000000000, 0.0000000000000000000 ) ) ;
#88 = ORIENTED_EDGE ( 'NONE', *, *, #119, .F. ) ;
#89 = SURFACE_SIDE_STYLE ('',( #26 ) ) ;
#90 =( NAMED_UNIT ( * ) PLANE_ANGLE_UNIT ( ) SI_UNIT ( $, .RADIAN. ) );
#91 = AXIS2_PLACEMENT_3D ( 'NONE', #42, #58, #185 ) ;
#92 = PRODUCT_CONTEXT ( 'NONE', #14, 'mechanical' ) ;
#93 = FACE_OUTER_BOUND ( 'NONE', #178, .T. ) ;
#94 = UNCERTAINTY_MEASURE_WITH_UNIT (LENGTH_MEASURE( 1.000000000000000100E-005 ), #78, 'distance_accuracy_value', 'NONE');
#95 = SHAPE_DEFINITION_REPRESENTATION ( #76, #71 ) ;
#96 = PLANE ( 'NONE',  #157 ) ;
#97 = DIRECTION ( 'NONE',  ( 1.000000000000000000, 0.0000000000000000000, 0.0000000000000000000 ) ) ;
#98 = ORIENTED_EDGE ( 'NONE', *, *, #202, .F. ) ;
#99 = CARTESIAN_POINT ( 'NONE',  ( 0.0000000000000000000, 0.0000000000000000000, 0.0000000000000000000 ) ) ;
#100 = LINE ( 'NONE', #146, #222 ) ;
#101 =( LENGTH_UNIT ( ) NAMED_UNIT ( * ) SI_UNIT ( .MILLI., .METRE. ) );
#102 = EDGE_LOOP ( 'NONE', ( #234, #161, #39, #46 ) ) ;
#103 = APPLICATION_PROTOCOL_DEFINITION ( 'draft international standard', 'automotive_design', 1998, #216 ) ;
#104 = EDGE_LOOP ( 'NONE', ( #194, #128, #98, #177 ) ) ;
#105 = PRODUCT ( 'rubber foam', 'rubber foam', '', ( #92 ) ) ;
#106 = PRODUCT_DEFINITION_SHAPE ( 'NONE', 'NONE',  #229 ) ;
#107 = LINE ( 'NONE', #165, #15 ) ;
#108 = EDGE_CURVE ( 'NONE', #180, #226, #224, .T. ) ;
#109 = VECTOR ( 'NONE', #189, 1000.000000000000000 ) ;
#110 = CARTESIAN_POINT ( 'NONE',  ( 0.0000000000000000000, 200.0000000000000000, 0.0000000000000000000 ) ) ;
#111 = PLANE ( 'NONE',  #91 ) ;
#112 = PLANE ( 'NONE',  #207 ) ;
#113 = DIRECTION ( 'NONE',  ( 0.0000000000000000000, 0.0000000000000000000, 1.000000000000000000 ) ) ;
#114 = CARTESIAN_POINT ( 'NONE',  ( 0.0000000000000000000, 200.0000000000000000, 10.00000000000000000 ) ) ;
#115 =( LENGTH_UNIT ( ) NAMED_UNIT ( * ) SI_UNIT ( .MILLI., .METRE. ) );
#116 =( NAMED_UNIT ( * ) SI_UNIT ( $, .STERADIAN. ) SOLID_ANGLE_UNIT ( ) );
#117 =( GEOMETRIC_REPRESENTATION_CONTEXT ( 3 ) GLOBAL_UNCERTAINTY_ASSIGNED_CONTEXT ( ( #138 ) ) GLOBAL_UNIT_ASSIGNED_CONTEXT ( ( #115, #13, #129 ) ) REPRESENTATION_CONTEXT ( 'NONE', 'WORKASPACE' ) );
#118 = DIRECTION ( 'NONE',  ( 1.000000000000000000, 0.0000000000000000000, 0.0000000000000000000 ) ) ;
#119 = EDGE_CURVE ( 'NONE', #156, #214, #144, .T. ) ;
#120 = PRODUCT_DEFINITION_CONTEXT ( 'detailed design', #216, 'design' ) ;
#121 = EDGE_LOOP ( 'NONE', ( #77, #37, #82, #175 ) ) ;
#122 = VECTOR ( 'NONE', #27, 1000.000000000000000 ) ;
#123 = DIRECTION ( 'NONE',  ( 0.0000000000000000000, 0.0000000000000000000, -1.000000000000000000 ) ) ;
#124 = ORIENTED_EDGE ( 'NONE', *, *, #166, .F. ) ;
#125 = DIRECTION ( 'NONE',  ( 1.000000000000000000, 0.0000000000000000000, 0.0000000000000000000 ) ) ;
#126 = SURFACE_STYLE_FILL_AREA ( #162 ) ;
#127 = CARTESIAN_POINT ( 'NONE',  ( 0.0000000000000000000, 0.0000000000000000000, 10.00000000000000000 ) ) ;
#128 = ORIENTED_EDGE ( 'NONE', *, *, #75, .F. ) ;
#129 =( NAMED_UNIT ( * ) SI_UNIT ( $, .STERADIAN. ) SOLID_ANGLE_UNIT ( ) );
#130 = VERTEX_POINT ( 'NONE', #142 ) ;
#131 = CARTESIAN_POINT ( 'NONE',  ( 0.0000000000000000000, 0.0000000000000000000, 0.0000000000000000000 ) ) ;
#132 = ORIENTED_EDGE ( 'NONE', *, *, #75, .T. ) ;
#133 = ADVANCED_FACE ( 'NONE', ( #233 ), #111, .T. ) ;
#134 = VECTOR ( 'NONE', #97, 1000.000000000000000 ) ;
#135 = ORIENTED_EDGE ( 'NONE', *, *, #158, .F. ) ;
#136 = AXIS2_PLACEMENT_3D ( 'NONE', #148, #47, #168 ) ;
#137 = EDGE_CURVE ( 'NONE', #34, #180, #230, .T. ) ;
#138 = UNCERTAINTY_MEASURE_WITH_UNIT (LENGTH_MEASURE( 1.000000000000000100E-005 ), #115, 'distance_accuracy_value', 'NONE');
#139 = FACE_OUTER_BOUND ( 'NONE', #104, .T. ) ;
#140 = DIRECTION ( 'NONE',  ( -1.000000000000000000, 0.0000000000000000000, 0.0000000000000000000 ) ) ;
#141 = SHAPE_REPRESENTATION ( 'rubber foam', ( #136 ), #117 ) ;
#142 = CARTESIAN_POINT ( 'NONE',  ( 15.00000000000000000, 0.0000000000000000000, 10.00000000000000000 ) ) ;
#143 = CARTESIAN_POINT ( 'NONE',  ( 0.0000000000000000000, 200.0000000000000000, 10.00000000000000000 ) ) ;
#144 = LINE ( 'NONE', #41, #10 ) ;
#145 = VECTOR ( 'NONE', #123, 1000.000000000000000 ) ;
#146 = CARTESIAN_POINT ( 'NONE',  ( 15.00000000000000000, 200.0000000000000000, 0.0000000000000000000 ) ) ;
#147 = CARTESIAN_POINT ( 'NONE',  ( 15.00000000000000000, 0.0000000000000000000, 0.0000000000000000000 ) ) ;
#148 = CARTESIAN_POINT ( 'NONE',  ( 0.0000000000000000000, 0.0000000000000000000, 0.0000000000000000000 ) ) ;
#149 = DIRECTION ( 'NONE',  ( 1.000000000000000000, 0.0000000000000000000, 0.0000000000000000000 ) ) ;
#150 = ORIENTED_EDGE ( 'NONE', *, *, #228, .F. ) ;
#151 = APPLICATION_PROTOCOL_DEFINITION ( 'draft international standard', 'automotive_design', 1998, #31 ) ;
#152 = ADVANCED_FACE ( 'NONE', ( #93 ), #112, .F. ) ;
#153 = EDGE_LOOP ( 'NONE', ( #20, #150, #173, #124 ) ) ;
#154 = ADVANCED_FACE ( 'NONE', ( #84 ), #231, .F. ) ;
#155 = VECTOR ( 'NONE', #12, 1000.000000000000000 ) ;
#156 = VERTEX_POINT ( 'NONE', #143 ) ;
#157 = AXIS2_PLACEMENT_3D ( 'NONE', #7, #23, #140 ) ;
#158 = EDGE_CURVE ( 'NONE', #36, #156, #107, .T. ) ;
#159 =( GEOMETRIC_REPRESENTATION_CONTEXT ( 3 ) GLOBAL_UNCERTAINTY_ASSIGNED_CONTEXT ( ( #8 ) ) GLOBAL_UNIT_ASSIGNED_CONTEXT ( ( #101, #235, #116 ) ) REPRESENTATION_CONTEXT ( 'NONE', 'WORKASPACE' ) );
#160 = PRODUCT_DEFINITION_CONTEXT ( 'detailed design', #172, 'design' ) ;
#161 = ORIENTED_EDGE ( 'NONE', *, *, #108, .F. ) ;
#162 = FILL_AREA_STYLE ('',( #163 ) ) ;
#163 = FILL_AREA_STYLE_COLOUR ( '', #221 ) ;
#164 = CARTESIAN_POINT ( 'NONE',  ( 0.0000000000000000000, 1000.000000000000000, 0.0000000000000000000 ) ) ;
#165 = CARTESIAN_POINT ( 'NONE',  ( 0.0000000000000000000, 200.0000000000000000, 0.0000000000000000000 ) ) ;
#166 = EDGE_CURVE ( 'NONE', #226, #191, #206, .T. ) ;
#167 = ADVANCED_BREP_SHAPE_REPRESENTATION ( '', ( #74, #136 ), #117 ) ;
#168 = DIRECTION ( 'NONE',  ( 1.000000000000000000, 0.0000000000000000000, 0.0000000000000000000 ) ) ;
#169 = ORIENTED_EDGE ( 'NONE', *, *, #198, .T. ) ;
#170 = DIRECTION ( 'NONE',  ( 0.0000000000000000000, 0.0000000000000000000, 1.000000000000000000 ) ) ;
#171 = MECHANICAL_DESIGN_GEOMETRIC_PRESENTATION_REPRESENTATION (  '', ( #67 ), #182 ) ;
#172 = APPLICATION_CONTEXT ( 'automotive_design' ) ;
#173 = ORIENTED_EDGE ( 'NONE', *, *, #238, .F. ) ;
#174 = PRODUCT ( 'TM_339_10_15', 'TM_339_10_15', '', ( #49 ) ) ;
#175 = ORIENTED_EDGE ( 'NONE', *, *, #119, .T. ) ;
#176 = CLOSED_SHELL ( 'NONE', ( #197, #3, #152, #63, #133, #154 ) ) ;
#177 = ORIENTED_EDGE ( 'NONE', *, *, #108, .T. ) ;
#178 = EDGE_LOOP ( 'NONE', ( #210, #88, #135, #132 ) ) ;
#179 = CONTEXT_DEPENDENT_SHAPE_REPRESENTATION ( #237, #218 ) ;
#180 = VERTEX_POINT ( 'NONE', #209 ) ;
#181 = SURFACE_STYLE_USAGE ( .BOTH. , #53 ) ;
#182 =( GEOMETRIC_REPRESENTATION_CONTEXT ( 3 ) GLOBAL_UNCERTAINTY_ASSIGNED_CONTEXT ( ( #94 ) ) GLOBAL_UNIT_ASSIGNED_CONTEXT ( ( #78, #203, #205 ) ) REPRESENTATION_CONTEXT ( 'NONE', 'WORKASPACE' ) );
#183 = CARTESIAN_POINT ( 'NONE',  ( 15.00000000000000000, 1000.000000000000000, 10.00000000000000000 ) ) ;
#184 = PRODUCT_DEFINITION ( 'UNKNOWN', '', #200, #160 ) ;
#185 = DIRECTION ( 'NONE',  ( 1.000000000000000000, 0.0000000000000000000, 0.0000000000000000000 ) ) ;
#186 = DIRECTION ( 'NONE',  ( 1.000000000000000000, 0.0000000000000000000, 0.0000000000000000000 ) ) ;
#187 = PRESENTATION_STYLE_ASSIGNMENT (( #181 ) ) ;
#188 = DIRECTION ( 'NONE',  ( -1.000000000000000000, 0.0000000000000000000, 0.0000000000000000000 ) ) ;
#189 = DIRECTION ( 'NONE',  ( 0.0000000000000000000, 0.0000000000000000000, 1.000000000000000000 ) ) ;
#190 = FILL_AREA_STYLE ('',( #65 ) ) ;
#191 = VERTEX_POINT ( 'NONE', #232 ) ;
#192 =( LENGTH_UNIT ( ) NAMED_UNIT ( * ) SI_UNIT ( .MILLI., .METRE. ) );
#193 = APPLICATION_PROTOCOL_DEFINITION ( 'draft international standard', 'automotive_design', 1998, #14 ) ;
#194 = ORIENTED_EDGE ( 'NONE', *, *, #166, .T. ) ;
#195 = PRESENTATION_STYLE_ASSIGNMENT (( #212 ) ) ;
#196 = VECTOR ( 'NONE', #6, 1000.000000000000000 ) ;
#197 = ADVANCED_FACE ( 'NONE', ( #57 ), #44, .F. ) ;
#198 = EDGE_CURVE ( 'NONE', #156, #34, #64, .T. ) ;
#199 = SHAPE_REPRESENTATION_RELATIONSHIP ( 'NONE' , 'NONE' ,  #141, #167 ) ;
#200 = PRODUCT_DEFINITION_FORMATION_WITH_SPECIFIED_SOURCE ( 'ANY', '', #174, .NOT_KNOWN. ) ;
#201 = LINE ( 'NONE', #183, #19 ) ;
#202 = EDGE_CURVE ( 'NONE', #180, #36, #100, .T. ) ;
#203 =( NAMED_UNIT ( * ) PLANE_ANGLE_UNIT ( ) SI_UNIT ( $, .RADIAN. ) );
#204 = CARTESIAN_POINT ( 'NONE',  ( 15.00000000000000000, 1000.000000000000000, 0.0000000000000000000 ) ) ;
#205 =( NAMED_UNIT ( * ) SI_UNIT ( $, .STERADIAN. ) SOLID_ANGLE_UNIT ( ) );
#206 = LINE ( 'NONE', #11, #73 ) ;
#207 = AXIS2_PLACEMENT_3D ( 'NONE', #164, #125, #28 ) ;
#208 = CARTESIAN_POINT ( 'NONE',  ( 0.0000000000000000000, 0.0000000000000000000, 0.0000000000000000000 ) ) ;
#209 = CARTESIAN_POINT ( 'NONE',  ( 15.00000000000000000, 200.0000000000000000, 0.0000000000000000000 ) ) ;
#210 = ORIENTED_EDGE ( 'NONE', *, *, #238, .T. ) ;
#211 = AXIS2_PLACEMENT_3D ( 'NONE', #48, #170, #66 ) ;
#212 = SURFACE_STYLE_USAGE ( .BOTH. , #89 ) ;
#213 = ORIENTED_EDGE ( 'NONE', *, *, #158, .T. ) ;
#214 = VERTEX_POINT ( 'NONE', #45 ) ;
#215 =( NAMED_UNIT ( * ) SI_UNIT ( $, .STERADIAN. ) SOLID_ANGLE_UNIT ( ) );
#216 = APPLICATION_CONTEXT ( 'automotive_design' ) ;
#217 =( GEOMETRIC_REPRESENTATION_CONTEXT ( 3 ) GLOBAL_UNCERTAINTY_ASSIGNED_CONTEXT ( ( #18 ) ) GLOBAL_UNIT_ASSIGNED_CONTEXT ( ( #192, #90, #215 ) ) REPRESENTATION_CONTEXT ( 'NONE', 'WORKASPACE' ) );
#218 = PRODUCT_DEFINITION_SHAPE ( 'NONE', 'NONE',  #239 ) ;
#219 = PRODUCT_RELATED_PRODUCT_CATEGORY ( 'part', '', ( #174 ) ) ;
#220 = MECHANICAL_DESIGN_GEOMETRIC_PRESENTATION_REPRESENTATION (  '', ( #1 ), #159 ) ;
#221 = COLOUR_RGB ( '',0.7921568627450980000, 0.8196078431372548800, 0.9333333333333333500 ) ;
#222 = VECTOR ( 'NONE', #29, 1000.000000000000000 ) ;
#223 = AXIS2_PLACEMENT_3D ( 'NONE', #225, #24, #40 ) ;
#224 = LINE ( 'NONE', #204, #59 ) ;
#225 = CARTESIAN_POINT ( 'NONE',  ( 15.00000000000000000, 1000.000000000000000, 0.0000000000000000000 ) ) ;
#226 = VERTEX_POINT ( 'NONE', #147 ) ;
#227 = DIRECTION ( 'NONE',  ( 0.0000000000000000000, -1.000000000000000000, 0.0000000000000000000 ) ) ;
#228 = EDGE_CURVE ( 'NONE', #214, #130, #22, .T. ) ;
#229 = PRODUCT_DEFINITION ( 'UNKNOWN', '', #4, #120 ) ;
#230 = LINE ( 'NONE', #83, #122 ) ;
#231 = PLANE ( 'NONE',  #55 ) ;
#232 = CARTESIAN_POINT ( 'NONE',  ( 0.0000000000000000000, 0.0000000000000000000, 0.0000000000000000000 ) ) ;
#233 = FACE_OUTER_BOUND ( 'NONE', #50, .T. ) ;
#234 = ORIENTED_EDGE ( 'NONE', *, *, #32, .T. ) ;
#235 =( NAMED_UNIT ( * ) PLANE_ANGLE_UNIT ( ) SI_UNIT ( $, .RADIAN. ) );
#236 = DIRECTION ( 'NONE',  ( 0.0000000000000000000, 0.0000000000000000000, 1.000000000000000000 ) ) ;
#237 =( REPRESENTATION_RELATIONSHIP ('NONE','NONE', #71, #141 ) REPRESENTATION_RELATIONSHIP_WITH_TRANSFORMATION ( #43 )SHAPE_REPRESENTATION_RELATIONSHIP( ) );
#238 = EDGE_CURVE ( 'NONE', #191, #214, #69, .T. ) ;
#239 = NEXT_ASSEMBLY_USAGE_OCCURRENCE ( 'NAUO1', ' ', ' ', #184, #229, $ ) ;
ENDSEC;
END-ISO-10303-21;
