ISO-10303-21;
HEADER;
FILE_DESCRIPTION (( 'STEP AP214' ),
    '1' );
FILE_NAME ('TM_339_20_15.STEP',
    '2016-05-09T04:49:45',
    ( '' ),
    ( '' ),
    'SwSTEP 2.0',
    'SolidWorks 2015',
    '' );
FILE_SCHEMA (( 'AUTOMOTIVE_DESIGN' ));
ENDSEC;

DATA;
#1 = DIRECTION ( 'NONE',  ( 0.0000000000000000000, -1.000000000000000000, 0.0000000000000000000 ) ) ;
#2 = DIRECTION ( 'NONE',  ( 1.000000000000000000, 0.0000000000000000000, 0.0000000000000000000 ) ) ;
#3 = DIRECTION ( 'NONE',  ( 0.0000000000000000000, -1.000000000000000000, 0.0000000000000000000 ) ) ;
#4 = VECTOR ( 'NONE', #100, 1000.000000000000000 ) ;
#5 = CARTESIAN_POINT ( 'NONE',  ( 0.0000000000000000000, 0.0000000000000000000, 0.0000000000000000000 ) ) ;
#6 = ORIENTED_EDGE ( 'NONE', *, *, #144, .F. ) ;
#7 =( GEOMETRIC_REPRESENTATION_CONTEXT ( 3 ) GLOBAL_UNCERTAINTY_ASSIGNED_CONTEXT ( ( #31 ) ) GLOBAL_UNIT_ASSIGNED_CONTEXT ( ( #74, #206, #94 ) ) REPRESENTATION_CONTEXT ( 'NONE', 'WORKASPACE' ) );
#8 = PRODUCT_DEFINITION_FORMATION_WITH_SPECIFIED_SOURCE ( 'ANY', '', #169, .NOT_KNOWN. ) ;
#9 = LINE ( 'NONE', #60, #200 ) ;
#10 = FILL_AREA_STYLE ('',( #228 ) ) ;
#11 = ORIENTED_EDGE ( 'NONE', *, *, #62, .T. ) ;
#12 = AXIS2_PLACEMENT_3D ( 'NONE', #129, #64, #197 ) ;
#13 = CARTESIAN_POINT ( 'NONE',  ( 15.00000000000000000, 0.0000000000000000000, 20.00000000000000000 ) ) ;
#14 = CONTEXT_DEPENDENT_SHAPE_REPRESENTATION ( #211, #234 ) ;
#15 = VERTEX_POINT ( 'NONE', #226 ) ;
#16 = VECTOR ( 'NONE', #3, 1000.000000000000000 ) ;
#17 =( NAMED_UNIT ( * ) SI_UNIT ( $, .STERADIAN. ) SOLID_ANGLE_UNIT ( ) );
#18 = AXIS2_PLACEMENT_3D ( 'NONE', #182, #113, #2 ) ;
#19 = PRODUCT_RELATED_PRODUCT_CATEGORY ( 'part', '', ( #169 ) ) ;
#20 = SHAPE_DEFINITION_REPRESENTATION ( #28, #139 ) ;
#21 = CARTESIAN_POINT ( 'NONE',  ( 0.0000000000000000000, 0.0000000000000000000, 20.00000000000000000 ) ) ;
#22 =( LENGTH_UNIT ( ) NAMED_UNIT ( * ) SI_UNIT ( .MILLI., .METRE. ) );
#23 = DIRECTION ( 'NONE',  ( 1.000000000000000000, 0.0000000000000000000, 0.0000000000000000000 ) ) ;
#24 = PRODUCT_CONTEXT ( 'NONE', #149, 'mechanical' ) ;
#25 = LINE ( 'NONE', #95, #16 ) ;
#26 = CARTESIAN_POINT ( 'NONE',  ( 0.0000000000000000000, 0.0000000000000000000, 0.0000000000000000000 ) ) ;
#27 = DIRECTION ( 'NONE',  ( 1.000000000000000000, 0.0000000000000000000, 0.0000000000000000000 ) ) ;
#28 = PRODUCT_DEFINITION_SHAPE ( 'NONE', 'NONE',  #213 ) ;
#29 = LINE ( 'NONE', #75, #164 ) ;
#30 = DIRECTION ( 'NONE',  ( -1.000000000000000000, 0.0000000000000000000, 0.0000000000000000000 ) ) ;
#31 = UNCERTAINTY_MEASURE_WITH_UNIT (LENGTH_MEASURE( 1.000000000000000100E-005 ), #74, 'distance_accuracy_value', 'NONE');
#32 = PRODUCT_DEFINITION ( 'UNKNOWN', '', #8, #102 ) ;
#33 = DIRECTION ( 'NONE',  ( 0.0000000000000000000, -1.000000000000000000, 0.0000000000000000000 ) ) ;
#34 = LINE ( 'NONE', #21, #217 ) ;
#35 = ORIENTED_EDGE ( 'NONE', *, *, #93, .F. ) ;
#36 = AXIS2_PLACEMENT_3D ( 'NONE', #84, #30, #110 ) ;
#37 = DIRECTION ( 'NONE',  ( 1.000000000000000000, -0.0000000000000000000, -0.0000000000000000000 ) ) ;
#38 = ORIENTED_EDGE ( 'NONE', *, *, #179, .T. ) ;
#39 = CARTESIAN_POINT ( 'NONE',  ( 0.0000000000000000000, 0.0000000000000000000, 0.0000000000000000000 ) ) ;
#40 = APPLICATION_PROTOCOL_DEFINITION ( 'draft international standard', 'automotive_design', 1998, #149 ) ;
#41 = VERTEX_POINT ( 'NONE', #76 ) ;
#42 = DIRECTION ( 'NONE',  ( 0.0000000000000000000, 0.0000000000000000000, 1.000000000000000000 ) ) ;
#43 = ORIENTED_EDGE ( 'NONE', *, *, #168, .F. ) ;
#44 = APPLICATION_PROTOCOL_DEFINITION ( 'draft international standard', 'automotive_design', 1998, #153 ) ;
#45 = ORIENTED_EDGE ( 'NONE', *, *, #168, .T. ) ;
#46 = CLOSED_SHELL ( 'NONE', ( #233, #86, #216, #161, #145, #67 ) ) ;
#47 = DIRECTION ( 'NONE',  ( -0.0000000000000000000, 1.000000000000000000, 0.0000000000000000000 ) ) ;
#48 = DIRECTION ( 'NONE',  ( 0.0000000000000000000, -1.000000000000000000, 0.0000000000000000000 ) ) ;
#49 = DIRECTION ( 'NONE',  ( -0.0000000000000000000, -0.0000000000000000000, -1.000000000000000000 ) ) ;
#50 = COLOUR_RGB ( '',0.7921568627450980000, 0.8196078431372548800, 0.9333333333333333500 ) ;
#51 = SURFACE_STYLE_FILL_AREA ( #10 ) ;
#52 = DIRECTION ( 'NONE',  ( 1.000000000000000000, 0.0000000000000000000, 0.0000000000000000000 ) ) ;
#53 = DIRECTION ( 'NONE',  ( 1.000000000000000000, 0.0000000000000000000, 0.0000000000000000000 ) ) ;
#54 = SURFACE_STYLE_USAGE ( .BOTH. , #98 ) ;
#55 = LINE ( 'NONE', #61, #4 ) ;
#56 = PRODUCT_CONTEXT ( 'NONE', #131, 'mechanical' ) ;
#57 = ORIENTED_EDGE ( 'NONE', *, *, #81, .T. ) ;
#58 = AXIS2_PLACEMENT_3D ( 'NONE', #150, #71, #52 ) ;
#59 = SURFACE_STYLE_FILL_AREA ( #72 ) ;
#60 = CARTESIAN_POINT ( 'NONE',  ( 0.0000000000000000000, 1000.000000000000000, 20.00000000000000000 ) ) ;
#61 = CARTESIAN_POINT ( 'NONE',  ( 0.0000000000000000000, 200.0000000000000000, 0.0000000000000000000 ) ) ;
#62 = EDGE_CURVE ( 'NONE', #136, #41, #126, .T. ) ;
#63 = FACE_OUTER_BOUND ( 'NONE', #141, .T. ) ;
#64 = DIRECTION ( 'NONE',  ( -0.0000000000000000000, 1.000000000000000000, 0.0000000000000000000 ) ) ;
#65 = DIRECTION ( 'NONE',  ( 1.000000000000000000, 0.0000000000000000000, 0.0000000000000000000 ) ) ;
#66 = SHAPE_REPRESENTATION ( 'rubber foam', ( #138 ), #111 ) ;
#67 = ADVANCED_FACE ( 'NONE', ( #97 ), #89, .F. ) ;
#68 = VECTOR ( 'NONE', #37, 1000.000000000000000 ) ;
#69 = DIRECTION ( 'NONE',  ( -1.000000000000000000, -0.0000000000000000000, -0.0000000000000000000 ) ) ;
#70 = ORIENTED_EDGE ( 'NONE', *, *, #105, .T. ) ;
#71 = DIRECTION ( 'NONE',  ( 0.0000000000000000000, 0.0000000000000000000, 1.000000000000000000 ) ) ;
#72 = FILL_AREA_STYLE ('',( #186 ) ) ;
#73 =( NAMED_UNIT ( * ) PLANE_ANGLE_UNIT ( ) SI_UNIT ( $, .RADIAN. ) );
#74 =( LENGTH_UNIT ( ) NAMED_UNIT ( * ) SI_UNIT ( .MILLI., .METRE. ) );
#75 = CARTESIAN_POINT ( 'NONE',  ( 15.00000000000000000, 0.0000000000000000000, 0.0000000000000000000 ) ) ;
#76 = CARTESIAN_POINT ( 'NONE',  ( 0.0000000000000000000, 200.0000000000000000, 20.00000000000000000 ) ) ;
#77 = VECTOR ( 'NONE', #196, 1000.000000000000000 ) ;
#78 = ORIENTED_EDGE ( 'NONE', *, *, #144, .T. ) ;
#79 = APPLICATION_PROTOCOL_DEFINITION ( 'draft international standard', 'automotive_design', 1998, #190 ) ;
#80 = FACE_OUTER_BOUND ( 'NONE', #87, .T. ) ;
#81 = EDGE_CURVE ( 'NONE', #147, #199, #121, .T. ) ;
#82 = CARTESIAN_POINT ( 'NONE',  ( 0.0000000000000000000, 0.0000000000000000000, 0.0000000000000000000 ) ) ;
#83 = ORIENTED_EDGE ( 'NONE', *, *, #105, .F. ) ;
#84 = CARTESIAN_POINT ( 'NONE',  ( 0.0000000000000000000, 1000.000000000000000, 20.00000000000000000 ) ) ;
#85 = ORIENTED_EDGE ( 'NONE', *, *, #130, .F. ) ;
#86 = ADVANCED_FACE ( 'NONE', ( #101 ), #116, .T. ) ;
#87 = EDGE_LOOP ( 'NONE', ( #43, #85, #180, #142 ) ) ;
#88 = ORIENTED_EDGE ( 'NONE', *, *, #117, .T. ) ;
#89 = PLANE ( 'NONE',  #154 ) ;
#90 = ADVANCED_BREP_SHAPE_REPRESENTATION ( '', ( #137, #138 ), #111 ) ;
#91 = ORIENTED_EDGE ( 'NONE', *, *, #194, .T. ) ;
#92 = SURFACE_STYLE_USAGE ( .BOTH. , #204 ) ;
#93 = EDGE_CURVE ( 'NONE', #224, #199, #208, .T. ) ;
#94 =( NAMED_UNIT ( * ) SI_UNIT ( $, .STERADIAN. ) SOLID_ANGLE_UNIT ( ) );
#95 = CARTESIAN_POINT ( 'NONE',  ( 15.00000000000000000, 1000.000000000000000, 20.00000000000000000 ) ) ;
#96 =( NAMED_UNIT ( * ) PLANE_ANGLE_UNIT ( ) SI_UNIT ( $, .RADIAN. ) );
#97 = FACE_OUTER_BOUND ( 'NONE', #225, .T. ) ;
#98 = SURFACE_SIDE_STYLE ('',( #51 ) ) ;
#99 = VECTOR ( 'NONE', #49, 1000.000000000000000 ) ;
#100 = DIRECTION ( 'NONE',  ( -0.0000000000000000000, -0.0000000000000000000, -1.000000000000000000 ) ) ;
#101 = FACE_OUTER_BOUND ( 'NONE', #229, .T. ) ;
#102 = PRODUCT_DEFINITION_CONTEXT ( 'detailed design', #190, 'design' ) ;
#103 = ORIENTED_EDGE ( 'NONE', *, *, #117, .F. ) ;
#104 = CARTESIAN_POINT ( 'NONE',  ( 0.0000000000000000000, 0.0000000000000000000, 0.0000000000000000000 ) ) ;
#105 = EDGE_CURVE ( 'NONE', #41, #181, #9, .T. ) ;
#106 = LINE ( 'NONE', #193, #99 ) ;
#107 = ORIENTED_EDGE ( 'NONE', *, *, #157, .T. ) ;
#108 = DIRECTION ( 'NONE',  ( 0.0000000000000000000, 0.0000000000000000000, -1.000000000000000000 ) ) ;
#109 = FACE_OUTER_BOUND ( 'NONE', #178, .T. ) ;
#110 = DIRECTION ( 'NONE',  ( 0.0000000000000000000, 0.0000000000000000000, 1.000000000000000000 ) ) ;
#111 =( GEOMETRIC_REPRESENTATION_CONTEXT ( 3 ) GLOBAL_UNCERTAINTY_ASSIGNED_CONTEXT ( ( #155 ) ) GLOBAL_UNIT_ASSIGNED_CONTEXT ( ( #22, #127, #17 ) ) REPRESENTATION_CONTEXT ( 'NONE', 'WORKASPACE' ) );
#112 = PLANE ( 'NONE',  #12 ) ;
#113 = DIRECTION ( 'NONE',  ( 0.0000000000000000000, 0.0000000000000000000, 1.000000000000000000 ) ) ;
#114 = PLANE ( 'NONE',  #58 ) ;
#115 = PRODUCT ( 'TM_339_20_15', 'TM_339_20_15', '', ( #24 ) ) ;
#116 = PLANE ( 'NONE',  #177 ) ;
#117 = EDGE_CURVE ( 'NONE', #181, #147, #106, .T. ) ;
#118 = CARTESIAN_POINT ( 'NONE',  ( 15.00000000000000000, 200.0000000000000000, 20.00000000000000000 ) ) ;
#119 = ORIENTED_EDGE ( 'NONE', *, *, #194, .F. ) ;
#120 = LINE ( 'NONE', #237, #172 ) ;
#121 = LINE ( 'NONE', #104, #77 ) ;
#122 = DIRECTION ( 'NONE',  ( -1.000000000000000000, -0.0000000000000000000, -0.0000000000000000000 ) ) ;
#123 = AXIS2_PLACEMENT_3D ( 'NONE', #218, #108, #235 ) ;
#124 = ORIENTED_EDGE ( 'NONE', *, *, #209, .T. ) ;
#125 = FACE_OUTER_BOUND ( 'NONE', #227, .T. ) ;
#126 = LINE ( 'NONE', #176, #201 ) ;
#127 =( NAMED_UNIT ( * ) PLANE_ANGLE_UNIT ( ) SI_UNIT ( $, .RADIAN. ) );
#128 = ORIENTED_EDGE ( 'NONE', *, *, #209, .F. ) ;
#129 = CARTESIAN_POINT ( 'NONE',  ( 0.0000000000000000000, 200.0000000000000000, 0.0000000000000000000 ) ) ;
#130 = EDGE_CURVE ( 'NONE', #41, #15, #55, .T. ) ;
#131 = APPLICATION_CONTEXT ( 'automotive_design' ) ;
#132 = CARTESIAN_POINT ( 'NONE',  ( 15.00000000000000000, 200.0000000000000000, 0.0000000000000000000 ) ) ;
#133 = DIRECTION ( 'NONE',  ( 0.0000000000000000000, 0.0000000000000000000, 1.000000000000000000 ) ) ;
#134 = PRODUCT_DEFINITION_CONTEXT ( 'detailed design', #153, 'design' ) ;
#135 = ORIENTED_EDGE ( 'NONE', *, *, #157, .F. ) ;
#136 = VERTEX_POINT ( 'NONE', #118 ) ;
#137 = MANIFOLD_SOLID_BREP ( '²ÝÎß°Ä1', #46 ) ;
#138 = AXIS2_PLACEMENT_3D ( 'NONE', #39, #167, #53 ) ;
#139 = SHAPE_REPRESENTATION ( 'TM_339_20_15', ( #18, #231 ), #7 ) ;
#140 = CARTESIAN_POINT ( 'NONE',  ( 15.00000000000000000, 1000.000000000000000, 0.0000000000000000000 ) ) ;
#141 = EDGE_LOOP ( 'NONE', ( #135, #128, #11, #70 ) ) ;
#142 = ORIENTED_EDGE ( 'NONE', *, *, #179, .F. ) ;
#143 = CARTESIAN_POINT ( 'NONE',  ( 0.0000000000000000000, 200.0000000000000000, 0.0000000000000000000 ) ) ;
#144 = EDGE_CURVE ( 'NONE', #15, #147, #223, .T. ) ;
#145 = ADVANCED_FACE ( 'NONE', ( #80 ), #112, .T. ) ;
#146 = PRESENTATION_STYLE_ASSIGNMENT (( #54 ) ) ;
#147 = VERTEX_POINT ( 'NONE', #82 ) ;
#148 = STYLED_ITEM ( 'NONE', ( #192 ), #90 ) ;
#149 = APPLICATION_CONTEXT ( 'automotive_design' ) ;
#150 = CARTESIAN_POINT ( 'NONE',  ( 15.00000000000000000, 1000.000000000000000, 20.00000000000000000 ) ) ;
#151 = LINE ( 'NONE', #143, #68 ) ;
#152 = CARTESIAN_POINT ( 'NONE',  ( 0.0000000000000000000, 0.0000000000000000000, 0.0000000000000000000 ) ) ;
#153 = APPLICATION_CONTEXT ( 'automotive_design' ) ;
#154 = AXIS2_PLACEMENT_3D ( 'NONE', #26, #47, #65 ) ;
#155 = UNCERTAINTY_MEASURE_WITH_UNIT (LENGTH_MEASURE( 1.000000000000000100E-005 ), #22, 'distance_accuracy_value', 'NONE');
#156 = DIRECTION ( 'NONE',  ( 0.0000000000000000000, 0.0000000000000000000, -1.000000000000000000 ) ) ;
#157 = EDGE_CURVE ( 'NONE', #163, #181, #34, .T. ) ;
#158 = VECTOR ( 'NONE', #48, 1000.000000000000000 ) ;
#159 = PRESENTATION_LAYER_ASSIGNMENT (  '', '', ( #148 ) ) ;
#160 = ITEM_DEFINED_TRANSFORMATION ( 'NONE', 'NONE', #231,  #138 ) ;
#161 = ADVANCED_FACE ( 'NONE', ( #125 ), #230, .T. ) ;
#162 = PRODUCT_DEFINITION_SHAPE ( 'NONE', 'NONE',  #32 ) ;
#163 = VERTEX_POINT ( 'NONE', #13 ) ;
#164 = VECTOR ( 'NONE', #207, 1000.000000000000000 ) ;
#165 = STYLED_ITEM ( 'NONE', ( #146 ), #137 ) ;
#166 = CARTESIAN_POINT ( 'NONE',  ( 15.00000000000000000, 0.0000000000000000000, 0.0000000000000000000 ) ) ;
#167 = DIRECTION ( 'NONE',  ( 0.0000000000000000000, 0.0000000000000000000, 1.000000000000000000 ) ) ;
#168 = EDGE_CURVE ( 'NONE', #15, #224, #151, .T. ) ;
#169 = PRODUCT ( 'rubber foam', 'rubber foam', '', ( #56 ) ) ;
#170 = DIRECTION ( 'NONE',  ( 1.000000000000000000, 0.0000000000000000000, 0.0000000000000000000 ) ) ;
#171 = APPLICATION_PROTOCOL_DEFINITION ( 'draft international standard', 'automotive_design', 1998, #131 ) ;
#172 = VECTOR ( 'NONE', #183, 1000.000000000000000 ) ;
#173 = MECHANICAL_DESIGN_GEOMETRIC_PRESENTATION_REPRESENTATION (  '', ( #148 ), #185 ) ;
#174 = CARTESIAN_POINT ( 'NONE',  ( 15.00000000000000000, 1000.000000000000000, 0.0000000000000000000 ) ) ;
#175 = VECTOR ( 'NONE', #1, 1000.000000000000000 ) ;
#176 = CARTESIAN_POINT ( 'NONE',  ( 0.0000000000000000000, 200.0000000000000000, 20.00000000000000000 ) ) ;
#177 = AXIS2_PLACEMENT_3D ( 'NONE', #140, #27, #156 ) ;
#178 = EDGE_LOOP ( 'NONE', ( #189, #6, #45, #184 ) ) ;
#179 = EDGE_CURVE ( 'NONE', #224, #136, #120, .T. ) ;
#180 = ORIENTED_EDGE ( 'NONE', *, *, #62, .F. ) ;
#181 = VERTEX_POINT ( 'NONE', #188 ) ;
#182 = CARTESIAN_POINT ( 'NONE',  ( 0.0000000000000000000, 0.0000000000000000000, 0.0000000000000000000 ) ) ;
#183 = DIRECTION ( 'NONE',  ( -0.0000000000000000000, -0.0000000000000000000, 1.000000000000000000 ) ) ;
#184 = ORIENTED_EDGE ( 'NONE', *, *, #93, .T. ) ;
#185 =( GEOMETRIC_REPRESENTATION_CONTEXT ( 3 ) GLOBAL_UNCERTAINTY_ASSIGNED_CONTEXT ( ( #236 ) ) GLOBAL_UNIT_ASSIGNED_CONTEXT ( ( #210, #96, #222 ) ) REPRESENTATION_CONTEXT ( 'NONE', 'WORKASPACE' ) );
#186 = FILL_AREA_STYLE_COLOUR ( '', #50 ) ;
#187 =( LENGTH_UNIT ( ) NAMED_UNIT ( * ) SI_UNIT ( .MILLI., .METRE. ) );
#188 = CARTESIAN_POINT ( 'NONE',  ( 0.0000000000000000000, 0.0000000000000000000, 20.00000000000000000 ) ) ;
#189 = ORIENTED_EDGE ( 'NONE', *, *, #81, .F. ) ;
#190 = APPLICATION_CONTEXT ( 'automotive_design' ) ;
#191 = PRESENTATION_LAYER_ASSIGNMENT (  '', '', ( #165 ) ) ;
#192 = PRESENTATION_STYLE_ASSIGNMENT (( #92 ) ) ;
#193 = CARTESIAN_POINT ( 'NONE',  ( 0.0000000000000000000, 0.0000000000000000000, 0.0000000000000000000 ) ) ;
#194 = EDGE_CURVE ( 'NONE', #199, #163, #29, .T. ) ;
#195 = COLOUR_RGB ( '',0.7921568627450980000, 0.8196078431372548800, 0.9333333333333333500 ) ;
#196 = DIRECTION ( 'NONE',  ( 1.000000000000000000, -0.0000000000000000000, -0.0000000000000000000 ) ) ;
#197 = DIRECTION ( 'NONE',  ( 1.000000000000000000, 0.0000000000000000000, 0.0000000000000000000 ) ) ;
#198 = UNCERTAINTY_MEASURE_WITH_UNIT (LENGTH_MEASURE( 1.000000000000000100E-005 ), #187, 'distance_accuracy_value', 'NONE');
#199 = VERTEX_POINT ( 'NONE', #166 ) ;
#200 = VECTOR ( 'NONE', #33, 1000.000000000000000 ) ;
#201 = VECTOR ( 'NONE', #69, 1000.000000000000000 ) ;
#202 = PLANE ( 'NONE',  #123 ) ;
#203 = MECHANICAL_DESIGN_GEOMETRIC_PRESENTATION_REPRESENTATION (  '', ( #165 ), #215 ) ;
#204 = SURFACE_SIDE_STYLE ('',( #59 ) ) ;
#205 =( NAMED_UNIT ( * ) SI_UNIT ( $, .STERADIAN. ) SOLID_ANGLE_UNIT ( ) );
#206 =( NAMED_UNIT ( * ) PLANE_ANGLE_UNIT ( ) SI_UNIT ( $, .RADIAN. ) );
#207 = DIRECTION ( 'NONE',  ( -0.0000000000000000000, -0.0000000000000000000, 1.000000000000000000 ) ) ;
#208 = LINE ( 'NONE', #174, #158 ) ;
#209 = EDGE_CURVE ( 'NONE', #136, #163, #25, .T. ) ;
#210 =( LENGTH_UNIT ( ) NAMED_UNIT ( * ) SI_UNIT ( .MILLI., .METRE. ) );
#211 =( REPRESENTATION_RELATIONSHIP ('NONE','NONE', #139, #66 ) REPRESENTATION_RELATIONSHIP_WITH_TRANSFORMATION ( #160 )SHAPE_REPRESENTATION_RELATIONSHIP( ) );
#212 = SHAPE_REPRESENTATION_RELATIONSHIP ( 'NONE' , 'NONE' ,  #66, #90 ) ;
#213 = PRODUCT_DEFINITION ( 'UNKNOWN', '', #220, #134 ) ;
#214 = SHAPE_DEFINITION_REPRESENTATION ( #162, #66 ) ;
#215 =( GEOMETRIC_REPRESENTATION_CONTEXT ( 3 ) GLOBAL_UNCERTAINTY_ASSIGNED_CONTEXT ( ( #198 ) ) GLOBAL_UNIT_ASSIGNED_CONTEXT ( ( #187, #73, #205 ) ) REPRESENTATION_CONTEXT ( 'NONE', 'WORKASPACE' ) );
#216 = ADVANCED_FACE ( 'NONE', ( #63 ), #114, .T. ) ;
#217 = VECTOR ( 'NONE', #122, 1000.000000000000000 ) ;
#218 = CARTESIAN_POINT ( 'NONE',  ( 0.0000000000000000000, 1000.000000000000000, 0.0000000000000000000 ) ) ;
#219 = AXIS2_PLACEMENT_3D ( 'NONE', #5, #133, #23 ) ;
#220 = PRODUCT_DEFINITION_FORMATION_WITH_SPECIFIED_SOURCE ( 'ANY', '', #115, .NOT_KNOWN. ) ;
#221 = CARTESIAN_POINT ( 'NONE',  ( 0.0000000000000000000, 1000.000000000000000, 0.0000000000000000000 ) ) ;
#222 =( NAMED_UNIT ( * ) SI_UNIT ( $, .STERADIAN. ) SOLID_ANGLE_UNIT ( ) );
#223 = LINE ( 'NONE', #221, #175 ) ;
#224 = VERTEX_POINT ( 'NONE', #132 ) ;
#225 = EDGE_LOOP ( 'NONE', ( #57, #91, #107, #88 ) ) ;
#226 = CARTESIAN_POINT ( 'NONE',  ( 0.0000000000000000000, 200.0000000000000000, 0.0000000000000000000 ) ) ;
#227 = EDGE_LOOP ( 'NONE', ( #103, #83, #238, #78 ) ) ;
#228 = FILL_AREA_STYLE_COLOUR ( '', #195 ) ;
#229 = EDGE_LOOP ( 'NONE', ( #119, #35, #38, #124 ) ) ;
#230 = PLANE ( 'NONE',  #36 ) ;
#231 = AXIS2_PLACEMENT_3D ( 'NONE', #152, #42, #170 ) ;
#232 = PRODUCT_RELATED_PRODUCT_CATEGORY ( 'part', '', ( #115 ) ) ;
#233 = ADVANCED_FACE ( 'NONE', ( #109 ), #202, .T. ) ;
#234 = PRODUCT_DEFINITION_SHAPE ( 'NONE', 'NONE',  #239 ) ;
#235 = DIRECTION ( 'NONE',  ( -1.000000000000000000, 0.0000000000000000000, 0.0000000000000000000 ) ) ;
#236 = UNCERTAINTY_MEASURE_WITH_UNIT (LENGTH_MEASURE( 1.000000000000000100E-005 ), #210, 'distance_accuracy_value', 'NONE');
#237 = CARTESIAN_POINT ( 'NONE',  ( 15.00000000000000000, 200.0000000000000000, 0.0000000000000000000 ) ) ;
#238 = ORIENTED_EDGE ( 'NONE', *, *, #130, .T. ) ;
#239 = NEXT_ASSEMBLY_USAGE_OCCURRENCE ( 'NAUO1', ' ', ' ', #213, #32, $ ) ;
ENDSEC;
END-ISO-10303-21;
