ISO-10303-21;
HEADER;
FILE_DESCRIPTION (( 'STEP AP214' ),
    '1' );
FILE_NAME ('TM_340W_14.STEP',
    '2016-05-09T07:56:53',
    ( '' ),
    ( '' ),
    'SwSTEP 2.0',
    'SolidWorks 2015',
    '' );
FILE_SCHEMA (( 'AUTOMOTIVE_DESIGN' ));
ENDSEC;

DATA;
#1 = ADVANCED_FACE ( 'NONE', ( #15 ), #32, .F. ) ;
#2 = EDGE_LOOP ( 'NONE', ( #134, #150, #210, #238 ) ) ;
#3 = ORIENTED_EDGE ( 'NONE', *, *, #56, .F. ) ;
#4 = AXIS2_PLACEMENT_3D ( 'NONE', #57, #40, #160 ) ;
#5 = APPLICATION_PROTOCOL_DEFINITION ( 'draft international standard', 'automotive_design', 1998, #100 ) ;
#6 =( NAMED_UNIT ( * ) PLANE_ANGLE_UNIT ( ) SI_UNIT ( $, .RADIAN. ) );
#7 = SURFACE_SIDE_STYLE ('',( #228 ) ) ;
#8 =( NAMED_UNIT ( * ) SI_UNIT ( $, .STERADIAN. ) SOLID_ANGLE_UNIT ( ) );
#9 = ORIENTED_EDGE ( 'NONE', *, *, #21, .F. ) ;
#10 = ORIENTED_EDGE ( 'NONE', *, *, #168, .F. ) ;
#11 = CARTESIAN_POINT ( 'NONE',  ( 0.0000000000000000000, 0.0000000000000000000, 0.0000000000000000000 ) ) ;
#12 = ORIENTED_EDGE ( 'NONE', *, *, #181, .T. ) ;
#13 = PLANE ( 'NONE',  #205 ) ;
#14 = CARTESIAN_POINT ( 'NONE',  ( 25.00000000000000000, 200.0000000000000000, 0.0000000000000000000 ) ) ;
#15 = FACE_OUTER_BOUND ( 'NONE', #103, .T. ) ;
#16 = EDGE_CURVE ( 'NONE', #187, #175, #119, .T. ) ;
#17 =( GEOMETRIC_REPRESENTATION_CONTEXT ( 3 ) GLOBAL_UNCERTAINTY_ASSIGNED_CONTEXT ( ( #66 ) ) GLOBAL_UNIT_ASSIGNED_CONTEXT ( ( #71, #148, #8 ) ) REPRESENTATION_CONTEXT ( 'NONE', 'WORKASPACE' ) );
#18 = ORIENTED_EDGE ( 'NONE', *, *, #186, .T. ) ;
#19 = VECTOR ( 'NONE', #88, 1000.000000000000000 ) ;
#20 = UNCERTAINTY_MEASURE_WITH_UNIT (LENGTH_MEASURE( 1.000000000000000100E-005 ), #194, 'distance_accuracy_value', 'NONE');
#21 = EDGE_CURVE ( 'NONE', #225, #44, #180, .T. ) ;
#22 = CARTESIAN_POINT ( 'NONE',  ( 25.00000000000000000, 200.0000000000000000, 15.00000000000000000 ) ) ;
#23 = FACE_OUTER_BOUND ( 'NONE', #2, .T. ) ;
#24 = CARTESIAN_POINT ( 'NONE',  ( 0.0000000000000000000, 1000.000000000000000, 15.00000000000000000 ) ) ;
#25 = AXIS2_PLACEMENT_3D ( 'NONE', #11, #236, #123 ) ;
#26 = VECTOR ( 'NONE', #59, 1000.000000000000000 ) ;
#27 = AXIS2_PLACEMENT_3D ( 'NONE', #212, #54, #84 ) ;
#28 = AXIS2_PLACEMENT_3D ( 'NONE', #196, #69, #207 ) ;
#29 = DIRECTION ( 'NONE',  ( -0.0000000000000000000, 1.000000000000000000, 0.0000000000000000000 ) ) ;
#30 = DIRECTION ( 'NONE',  ( 0.0000000000000000000, 0.0000000000000000000, 1.000000000000000000 ) ) ;
#31 = CARTESIAN_POINT ( 'NONE',  ( 0.0000000000000000000, 200.0000000000000000, 0.0000000000000000000 ) ) ;
#32 = PLANE ( 'NONE',  #214 ) ;
#33 = APPLICATION_CONTEXT ( 'automotive_design' ) ;
#34 =( NAMED_UNIT ( * ) SI_UNIT ( $, .STERADIAN. ) SOLID_ANGLE_UNIT ( ) );
#35 =( GEOMETRIC_REPRESENTATION_CONTEXT ( 3 ) GLOBAL_UNCERTAINTY_ASSIGNED_CONTEXT ( ( #74 ) ) GLOBAL_UNIT_ASSIGNED_CONTEXT ( ( #184, #222, #178 ) ) REPRESENTATION_CONTEXT ( 'NONE', 'WORKASPACE' ) );
#36 = EDGE_LOOP ( 'NONE', ( #153, #9, #43, #110 ) ) ;
#37 = AXIS2_PLACEMENT_3D ( 'NONE', #75, #224, #173 ) ;
#38 = COLOUR_RGB ( '',0.7921568627450980000, 0.8196078431372548800, 0.9333333333333333500 ) ;
#39 = CARTESIAN_POINT ( 'NONE',  ( 0.0000000000000000000, 0.0000000000000000000, 0.0000000000000000000 ) ) ;
#40 = DIRECTION ( 'NONE',  ( 0.0000000000000000000, 0.0000000000000000000, 1.000000000000000000 ) ) ;
#41 = VECTOR ( 'NONE', #58, 1000.000000000000000 ) ;
#42 = EDGE_CURVE ( 'NONE', #225, #187, #128, .T. ) ;
#43 = ORIENTED_EDGE ( 'NONE', *, *, #48, .F. ) ;
#44 = VERTEX_POINT ( 'NONE', #78 ) ;
#45 = ORIENTED_EDGE ( 'NONE', *, *, #48, .T. ) ;
#46 = VECTOR ( 'NONE', #176, 1000.000000000000000 ) ;
#47 = PRODUCT_DEFINITION_CONTEXT ( 'detailed design', #124, 'design' ) ;
#48 = EDGE_CURVE ( 'NONE', #229, #225, #169, .T. ) ;
#49 = AXIS2_PLACEMENT_3D ( 'NONE', #152, #161, #98 ) ;
#50 = ORIENTED_EDGE ( 'NONE', *, *, #181, .F. ) ;
#51 = LINE ( 'NONE', #122, #121 ) ;
#52 = PRODUCT_DEFINITION ( 'UNKNOWN', '', #106, #127 ) ;
#53 = PLANE ( 'NONE',  #49 ) ;
#54 = DIRECTION ( 'NONE',  ( 0.0000000000000000000, 0.0000000000000000000, -1.000000000000000000 ) ) ;
#55 = ADVANCED_FACE ( 'NONE', ( #193 ), #189, .F. ) ;
#56 = EDGE_CURVE ( 'NONE', #111, #44, #109, .T. ) ;
#57 = CARTESIAN_POINT ( 'NONE',  ( 0.0000000000000000000, 0.0000000000000000000, 0.0000000000000000000 ) ) ;
#58 = DIRECTION ( 'NONE',  ( 0.0000000000000000000, 0.0000000000000000000, -1.000000000000000000 ) ) ;
#59 = DIRECTION ( 'NONE',  ( 0.0000000000000000000, 0.0000000000000000000, 1.000000000000000000 ) ) ;
#60 = VECTOR ( 'NONE', #167, 1000.000000000000000 ) ;
#61 = FACE_OUTER_BOUND ( 'NONE', #221, .T. ) ;
#62 = CONTEXT_DEPENDENT_SHAPE_REPRESENTATION ( #198, #101 ) ;
#63 = VECTOR ( 'NONE', #91, 1000.000000000000000 ) ;
#64 = SHAPE_DEFINITION_REPRESENTATION ( #154, #132 ) ;
#65 = AXIS2_PLACEMENT_3D ( 'NONE', #179, #112, #227 ) ;
#66 = UNCERTAINTY_MEASURE_WITH_UNIT (LENGTH_MEASURE( 1.000000000000000100E-005 ), #71, 'distance_accuracy_value', 'NONE');
#67 = PRODUCT_CONTEXT ( 'NONE', #100, 'mechanical' ) ;
#68 = CLOSED_SHELL ( 'NONE', ( #55, #237, #142, #233, #215, #1 ) ) ;
#69 = DIRECTION ( 'NONE',  ( 0.0000000000000000000, 0.0000000000000000000, 1.000000000000000000 ) ) ;
#70 = STYLED_ITEM ( 'NONE', ( #108 ), #218 ) ;
#71 =( LENGTH_UNIT ( ) NAMED_UNIT ( * ) SI_UNIT ( .MILLI., .METRE. ) );
#72 = CARTESIAN_POINT ( 'NONE',  ( 25.00000000000000000, 1000.000000000000000, 0.0000000000000000000 ) ) ;
#73 = DIRECTION ( 'NONE',  ( 0.0000000000000000000, 0.0000000000000000000, 1.000000000000000000 ) ) ;
#74 = UNCERTAINTY_MEASURE_WITH_UNIT (LENGTH_MEASURE( 1.000000000000000100E-005 ), #184, 'distance_accuracy_value', 'NONE');
#75 = CARTESIAN_POINT ( 'NONE',  ( 0.0000000000000000000, 0.0000000000000000000, 0.0000000000000000000 ) ) ;
#76 = SHAPE_DEFINITION_REPRESENTATION ( #118, #80 ) ;
#77 = FILL_AREA_STYLE_COLOUR ( '', #38 ) ;
#78 = CARTESIAN_POINT ( 'NONE',  ( 25.00000000000000000, 0.0000000000000000000, 0.0000000000000000000 ) ) ;
#79 = PRODUCT_DEFINITION ( 'UNKNOWN', '', #87, #47 ) ;
#80 = SHAPE_REPRESENTATION ( 'rubber foam', ( #28 ), #135 ) ;
#81 = FACE_OUTER_BOUND ( 'NONE', #36, .T. ) ;
#82 = VERTEX_POINT ( 'NONE', #209 ) ;
#83 = ORIENTED_EDGE ( 'NONE', *, *, #186, .F. ) ;
#84 = DIRECTION ( 'NONE',  ( -1.000000000000000000, 0.0000000000000000000, 0.0000000000000000000 ) ) ;
#85 = CARTESIAN_POINT ( 'NONE',  ( 0.0000000000000000000, 0.0000000000000000000, 0.0000000000000000000 ) ) ;
#86 = DIRECTION ( 'NONE',  ( 1.000000000000000000, 0.0000000000000000000, 0.0000000000000000000 ) ) ;
#87 = PRODUCT_DEFINITION_FORMATION_WITH_SPECIFIED_SOURCE ( 'ANY', '', #170, .NOT_KNOWN. ) ;
#88 = DIRECTION ( 'NONE',  ( 1.000000000000000000, 0.0000000000000000000, 0.0000000000000000000 ) ) ;
#89 = DIRECTION ( 'NONE',  ( 1.000000000000000000, 0.0000000000000000000, 0.0000000000000000000 ) ) ;
#90 = DIRECTION ( 'NONE',  ( 0.0000000000000000000, -1.000000000000000000, 0.0000000000000000000 ) ) ;
#91 = DIRECTION ( 'NONE',  ( 1.000000000000000000, 0.0000000000000000000, 0.0000000000000000000 ) ) ;
#92 = VERTEX_POINT ( 'NONE', #85 ) ;
#93 = PRODUCT_RELATED_PRODUCT_CATEGORY ( 'part', '', ( #170 ) ) ;
#94 = DIRECTION ( 'NONE',  ( 1.000000000000000000, 0.0000000000000000000, 0.0000000000000000000 ) ) ;
#95 = CARTESIAN_POINT ( 'NONE',  ( 0.0000000000000000000, 200.0000000000000000, 0.0000000000000000000 ) ) ;
#96 = VECTOR ( 'NONE', #90, 1000.000000000000000 ) ;
#97 =( NAMED_UNIT ( * ) PLANE_ANGLE_UNIT ( ) SI_UNIT ( $, .RADIAN. ) );
#98 = DIRECTION ( 'NONE',  ( 0.0000000000000000000, 0.0000000000000000000, -1.000000000000000000 ) ) ;
#99 = LINE ( 'NONE', #231, #19 ) ;
#100 = APPLICATION_CONTEXT ( 'automotive_design' ) ;
#101 = PRODUCT_DEFINITION_SHAPE ( 'NONE', 'NONE',  #239 ) ;
#102 = SURFACE_STYLE_USAGE ( .BOTH. , #7 ) ;
#103 = EDGE_LOOP ( 'NONE', ( #50, #10, #83, #3 ) ) ;
#104 = SHAPE_REPRESENTATION_RELATIONSHIP ( 'NONE' , 'NONE' ,  #80, #218 ) ;
#105 = APPLICATION_PROTOCOL_DEFINITION ( 'draft international standard', 'automotive_design', 1998, #33 ) ;
#106 = PRODUCT_DEFINITION_FORMATION_WITH_SPECIFIED_SOURCE ( 'ANY', '', #155, .NOT_KNOWN. ) ;
#107 = UNCERTAINTY_MEASURE_WITH_UNIT (LENGTH_MEASURE( 1.000000000000000100E-005 ), #151, 'distance_accuracy_value', 'NONE');
#108 = PRESENTATION_STYLE_ASSIGNMENT (( #102 ) ) ;
#109 = LINE ( 'NONE', #216, #163 ) ;
#110 = ORIENTED_EDGE ( 'NONE', *, *, #217, .T. ) ;
#111 = VERTEX_POINT ( 'NONE', #149 ) ;
#112 = DIRECTION ( 'NONE',  ( -1.000000000000000000, 0.0000000000000000000, 0.0000000000000000000 ) ) ;
#113 = ORIENTED_EDGE ( 'NONE', *, *, #158, .T. ) ;
#114 = SURFACE_STYLE_USAGE ( .BOTH. , #137 ) ;
#115 = STYLED_ITEM ( 'NONE', ( #230 ), #129 ) ;
#116 = APPLICATION_PROTOCOL_DEFINITION ( 'draft international standard', 'automotive_design', 1998, #124 ) ;
#117 = PRODUCT_RELATED_PRODUCT_CATEGORY ( 'part', '', ( #155 ) ) ;
#118 = PRODUCT_DEFINITION_SHAPE ( 'NONE', 'NONE',  #52 ) ;
#119 = LINE ( 'NONE', #95, #26 ) ;
#120 = CARTESIAN_POINT ( 'NONE',  ( 25.00000000000000000, 1000.000000000000000, 0.0000000000000000000 ) ) ;
#121 = VECTOR ( 'NONE', #30, 1000.000000000000000 ) ;
#122 = CARTESIAN_POINT ( 'NONE',  ( 0.0000000000000000000, 0.0000000000000000000, 0.0000000000000000000 ) ) ;
#123 = DIRECTION ( 'NONE',  ( 1.000000000000000000, 0.0000000000000000000, 0.0000000000000000000 ) ) ;
#124 = APPLICATION_CONTEXT ( 'automotive_design' ) ;
#125 = CARTESIAN_POINT ( 'NONE',  ( 0.0000000000000000000, 0.0000000000000000000, 15.00000000000000000 ) ) ;
#126 = COLOUR_RGB ( '',0.7921568627450980000, 0.8196078431372548800, 0.9333333333333333500 ) ;
#127 = PRODUCT_DEFINITION_CONTEXT ( 'detailed design', #190, 'design' ) ;
#128 = LINE ( 'NONE', #14, #143 ) ;
#129 = MANIFOLD_SOLID_BREP ( '²ÝÎß°Ä1', #68 ) ;
#130 = EDGE_CURVE ( 'NONE', #175, #229, #99, .T. ) ;
#131 = ORIENTED_EDGE ( 'NONE', *, *, #42, .F. ) ;
#132 = SHAPE_REPRESENTATION ( 'TM_340W_14', ( #37, #4 ), #17 ) ;
#133 = ORIENTED_EDGE ( 'NONE', *, *, #217, .F. ) ;
#134 = ORIENTED_EDGE ( 'NONE', *, *, #168, .T. ) ;
#135 =( GEOMETRIC_REPRESENTATION_CONTEXT ( 3 ) GLOBAL_UNCERTAINTY_ASSIGNED_CONTEXT ( ( #20 ) ) GLOBAL_UNIT_ASSIGNED_CONTEXT ( ( #194, #97, #199 ) ) REPRESENTATION_CONTEXT ( 'NONE', 'WORKASPACE' ) );
#136 = FILL_AREA_STYLE ('',( #77 ) ) ;
#137 = SURFACE_SIDE_STYLE ('',( #200 ) ) ;
#138 = DIRECTION ( 'NONE',  ( 0.0000000000000000000, -1.000000000000000000, 0.0000000000000000000 ) ) ;
#139 = FACE_OUTER_BOUND ( 'NONE', #188, .T. ) ;
#140 = CARTESIAN_POINT ( 'NONE',  ( 25.00000000000000000, 200.0000000000000000, 15.00000000000000000 ) ) ;
#141 =( GEOMETRIC_REPRESENTATION_CONTEXT ( 3 ) GLOBAL_UNCERTAINTY_ASSIGNED_CONTEXT ( ( #107 ) ) GLOBAL_UNIT_ASSIGNED_CONTEXT ( ( #151, #6, #34 ) ) REPRESENTATION_CONTEXT ( 'NONE', 'WORKASPACE' ) );
#142 = ADVANCED_FACE ( 'NONE', ( #139 ), #197, .F. ) ;
#143 = VECTOR ( 'NONE', #171, 1000.000000000000000 ) ;
#144 = CARTESIAN_POINT ( 'NONE',  ( 0.0000000000000000000, 200.0000000000000000, 15.00000000000000000 ) ) ;
#145 = LINE ( 'NONE', #24, #96 ) ;
#146 = CARTESIAN_POINT ( 'NONE',  ( 25.00000000000000000, 1000.000000000000000, 15.00000000000000000 ) ) ;
#147 = ORIENTED_EDGE ( 'NONE', *, *, #16, .T. ) ;
#148 =( NAMED_UNIT ( * ) PLANE_ANGLE_UNIT ( ) SI_UNIT ( $, .RADIAN. ) );
#149 = CARTESIAN_POINT ( 'NONE',  ( 25.00000000000000000, 0.0000000000000000000, 15.00000000000000000 ) ) ;
#150 = ORIENTED_EDGE ( 'NONE', *, *, #158, .F. ) ;
#151 =( LENGTH_UNIT ( ) NAMED_UNIT ( * ) SI_UNIT ( .MILLI., .METRE. ) );
#152 = CARTESIAN_POINT ( 'NONE',  ( 0.0000000000000000000, 1000.000000000000000, 0.0000000000000000000 ) ) ;
#153 = ORIENTED_EDGE ( 'NONE', *, *, #56, .T. ) ;
#154 = PRODUCT_DEFINITION_SHAPE ( 'NONE', 'NONE',  #79 ) ;
#155 = PRODUCT ( 'rubber foam', 'rubber foam', '', ( #223 ) ) ;
#156 = ITEM_DEFINED_TRANSFORMATION ( 'NONE', 'NONE', #4,  #28 ) ;
#157 = VECTOR ( 'NONE', #159, 1000.000000000000000 ) ;
#158 = EDGE_CURVE ( 'NONE', #175, #82, #145, .T. ) ;
#159 = DIRECTION ( 'NONE',  ( 0.0000000000000000000, -1.000000000000000000, 0.0000000000000000000 ) ) ;
#160 = DIRECTION ( 'NONE',  ( 1.000000000000000000, 0.0000000000000000000, 0.0000000000000000000 ) ) ;
#161 = DIRECTION ( 'NONE',  ( 1.000000000000000000, 0.0000000000000000000, 0.0000000000000000000 ) ) ;
#162 = CARTESIAN_POINT ( 'NONE',  ( 25.00000000000000000, 0.0000000000000000000, 0.0000000000000000000 ) ) ;
#163 = VECTOR ( 'NONE', #182, 1000.000000000000000 ) ;
#164 = CARTESIAN_POINT ( 'NONE',  ( 25.00000000000000000, 200.0000000000000000, 0.0000000000000000000 ) ) ;
#165 = CARTESIAN_POINT ( 'NONE',  ( 0.0000000000000000000, 200.0000000000000000, 0.0000000000000000000 ) ) ;
#166 = DIRECTION ( 'NONE',  ( -0.0000000000000000000, 1.000000000000000000, 0.0000000000000000000 ) ) ;
#167 = DIRECTION ( 'NONE',  ( -1.000000000000000000, 0.0000000000000000000, 0.0000000000000000000 ) ) ;
#168 = EDGE_CURVE ( 'NONE', #92, #82, #51, .T. ) ;
#169 = LINE ( 'NONE', #22, #41 ) ;
#170 = PRODUCT ( 'TM_340W_14', 'TM_340W_14', '', ( #67 ) ) ;
#171 = DIRECTION ( 'NONE',  ( -1.000000000000000000, 0.0000000000000000000, 0.0000000000000000000 ) ) ;
#172 = EDGE_LOOP ( 'NONE', ( #12, #133, #232, #113 ) ) ;
#173 = DIRECTION ( 'NONE',  ( 1.000000000000000000, 0.0000000000000000000, 0.0000000000000000000 ) ) ;
#174 = PRESENTATION_LAYER_ASSIGNMENT (  '', '', ( #70 ) ) ;
#175 = VERTEX_POINT ( 'NONE', #144 ) ;
#176 = DIRECTION ( 'NONE',  ( 0.0000000000000000000, -1.000000000000000000, 0.0000000000000000000 ) ) ;
#177 = MECHANICAL_DESIGN_GEOMETRIC_PRESENTATION_REPRESENTATION (  '', ( #115 ), #141 ) ;
#178 =( NAMED_UNIT ( * ) SI_UNIT ( $, .STERADIAN. ) SOLID_ANGLE_UNIT ( ) );
#179 = CARTESIAN_POINT ( 'NONE',  ( 25.00000000000000000, 1000.000000000000000, 15.00000000000000000 ) ) ;
#180 = LINE ( 'NONE', #72, #235 ) ;
#181 = EDGE_CURVE ( 'NONE', #82, #111, #183, .T. ) ;
#182 = DIRECTION ( 'NONE',  ( 0.0000000000000000000, 0.0000000000000000000, -1.000000000000000000 ) ) ;
#183 = LINE ( 'NONE', #125, #63 ) ;
#184 =( LENGTH_UNIT ( ) NAMED_UNIT ( * ) SI_UNIT ( .MILLI., .METRE. ) );
#185 = PLANE ( 'NONE',  #65 ) ;
#186 = EDGE_CURVE ( 'NONE', #44, #92, #201, .T. ) ;
#187 = VERTEX_POINT ( 'NONE', #31 ) ;
#188 = EDGE_LOOP ( 'NONE', ( #18, #211, #131, #206 ) ) ;
#189 = PLANE ( 'NONE',  #27 ) ;
#190 = APPLICATION_CONTEXT ( 'automotive_design' ) ;
#191 = EDGE_CURVE ( 'NONE', #187, #92, #204, .T. ) ;
#192 = CARTESIAN_POINT ( 'NONE',  ( 0.0000000000000000000, 1000.000000000000000, 0.0000000000000000000 ) ) ;
#193 = FACE_OUTER_BOUND ( 'NONE', #172, .T. ) ;
#194 =( LENGTH_UNIT ( ) NAMED_UNIT ( * ) SI_UNIT ( .MILLI., .METRE. ) );
#195 = ORIENTED_EDGE ( 'NONE', *, *, #42, .T. ) ;
#196 = CARTESIAN_POINT ( 'NONE',  ( 0.0000000000000000000, 0.0000000000000000000, 0.0000000000000000000 ) ) ;
#197 = PLANE ( 'NONE',  #219 ) ;
#198 =( REPRESENTATION_RELATIONSHIP ('NONE','NONE', #132, #80 ) REPRESENTATION_RELATIONSHIP_WITH_TRANSFORMATION ( #156 )SHAPE_REPRESENTATION_RELATIONSHIP( ) );
#199 =( NAMED_UNIT ( * ) SI_UNIT ( $, .STERADIAN. ) SOLID_ANGLE_UNIT ( ) );
#200 = SURFACE_STYLE_FILL_AREA ( #136 ) ;
#201 = LINE ( 'NONE', #162, #60 ) ;
#202 = MECHANICAL_DESIGN_GEOMETRIC_PRESENTATION_REPRESENTATION (  '', ( #70 ), #35 ) ;
#203 = LINE ( 'NONE', #146, #157 ) ;
#204 = LINE ( 'NONE', #192, #46 ) ;
#205 = AXIS2_PLACEMENT_3D ( 'NONE', #165, #166, #86 ) ;
#206 = ORIENTED_EDGE ( 'NONE', *, *, #21, .T. ) ;
#207 = DIRECTION ( 'NONE',  ( 1.000000000000000000, 0.0000000000000000000, 0.0000000000000000000 ) ) ;
#208 = APPLICATION_PROTOCOL_DEFINITION ( 'draft international standard', 'automotive_design', 1998, #190 ) ;
#209 = CARTESIAN_POINT ( 'NONE',  ( 0.0000000000000000000, 0.0000000000000000000, 15.00000000000000000 ) ) ;
#210 = ORIENTED_EDGE ( 'NONE', *, *, #16, .F. ) ;
#211 = ORIENTED_EDGE ( 'NONE', *, *, #191, .F. ) ;
#212 = CARTESIAN_POINT ( 'NONE',  ( 0.0000000000000000000, 1000.000000000000000, 15.00000000000000000 ) ) ;
#213 = FILL_AREA_STYLE_COLOUR ( '', #126 ) ;
#214 = AXIS2_PLACEMENT_3D ( 'NONE', #39, #29, #89 ) ;
#215 = ADVANCED_FACE ( 'NONE', ( #61 ), #13, .T. ) ;
#216 = CARTESIAN_POINT ( 'NONE',  ( 25.00000000000000000, 0.0000000000000000000, 15.00000000000000000 ) ) ;
#217 = EDGE_CURVE ( 'NONE', #229, #111, #203, .T. ) ;
#218 = ADVANCED_BREP_SHAPE_REPRESENTATION ( '', ( #129, #28 ), #135 ) ;
#219 = AXIS2_PLACEMENT_3D ( 'NONE', #120, #73, #94 ) ;
#220 = ORIENTED_EDGE ( 'NONE', *, *, #130, .T. ) ;
#221 = EDGE_LOOP ( 'NONE', ( #220, #45, #195, #147 ) ) ;
#222 =( NAMED_UNIT ( * ) PLANE_ANGLE_UNIT ( ) SI_UNIT ( $, .RADIAN. ) );
#223 = PRODUCT_CONTEXT ( 'NONE', #33, 'mechanical' ) ;
#224 = DIRECTION ( 'NONE',  ( 0.0000000000000000000, 0.0000000000000000000, 1.000000000000000000 ) ) ;
#225 = VERTEX_POINT ( 'NONE', #164 ) ;
#226 = PRESENTATION_LAYER_ASSIGNMENT (  '', '', ( #115 ) ) ;
#227 = DIRECTION ( 'NONE',  ( 0.0000000000000000000, 0.0000000000000000000, 1.000000000000000000 ) ) ;
#228 = SURFACE_STYLE_FILL_AREA ( #234 ) ;
#229 = VERTEX_POINT ( 'NONE', #140 ) ;
#230 = PRESENTATION_STYLE_ASSIGNMENT (( #114 ) ) ;
#231 = CARTESIAN_POINT ( 'NONE',  ( 0.0000000000000000000, 200.0000000000000000, 15.00000000000000000 ) ) ;
#232 = ORIENTED_EDGE ( 'NONE', *, *, #130, .F. ) ;
#233 = ADVANCED_FACE ( 'NONE', ( #23 ), #53, .F. ) ;
#234 = FILL_AREA_STYLE ('',( #213 ) ) ;
#235 = VECTOR ( 'NONE', #138, 1000.000000000000000 ) ;
#236 = DIRECTION ( 'NONE',  ( 0.0000000000000000000, 0.0000000000000000000, 1.000000000000000000 ) ) ;
#237 = ADVANCED_FACE ( 'NONE', ( #81 ), #185, .F. ) ;
#238 = ORIENTED_EDGE ( 'NONE', *, *, #191, .T. ) ;
#239 = NEXT_ASSEMBLY_USAGE_OCCURRENCE ( 'NAUO1', ' ', ' ', #79, #52, $ ) ;
ENDSEC;
END-ISO-10303-21;
