ISO-10303-21;
HEADER;
FILE_DESCRIPTION (( 'STEP AP214' ),
    '1' );
FILE_NAME ('TM_340W_17.STEP',
    '2016-05-09T08:10:04',
    ( '' ),
    ( '' ),
    'SwSTEP 2.0',
    'SolidWorks 2015',
    '' );
FILE_SCHEMA (( 'AUTOMOTIVE_DESIGN' ));
ENDSEC;

DATA;
#1 = UNCERTAINTY_MEASURE_WITH_UNIT (LENGTH_MEASURE( 1.000000000000000100E-005 ), #147, 'distance_accuracy_value', 'NONE');
#2 = CARTESIAN_POINT ( 'NONE',  ( 0.0000000000000000000, 0.0000000000000000000, 0.0000000000000000000 ) ) ;
#3 =( NAMED_UNIT ( * ) SI_UNIT ( $, .STERADIAN. ) SOLID_ANGLE_UNIT ( ) );
#4 = CLOSED_SHELL ( 'NONE', ( #200, #49, #88, #29, #177, #58 ) ) ;
#5 = CARTESIAN_POINT ( 'NONE',  ( 0.0000000000000000000, 1000.000000000000000, 0.0000000000000000000 ) ) ;
#6 = CARTESIAN_POINT ( 'NONE',  ( 0.0000000000000000000, 200.0000000000000000, 20.00000000000000000 ) ) ;
#7 = PRODUCT_RELATED_PRODUCT_CATEGORY ( 'part', '', ( #109 ) ) ;
#8 = UNCERTAINTY_MEASURE_WITH_UNIT (LENGTH_MEASURE( 1.000000000000000100E-005 ), #234, 'distance_accuracy_value', 'NONE');
#9 = PRODUCT_DEFINITION_CONTEXT ( 'detailed design', #169, 'design' ) ;
#10 = LINE ( 'NONE', #11, #91 ) ;
#11 = CARTESIAN_POINT ( 'NONE',  ( 0.0000000000000000000, 200.0000000000000000, 20.00000000000000000 ) ) ;
#12 = CARTESIAN_POINT ( 'NONE',  ( 0.0000000000000000000, 0.0000000000000000000, 0.0000000000000000000 ) ) ;
#13 = ITEM_DEFINED_TRANSFORMATION ( 'NONE', 'NONE', #127,  #68 ) ;
#14 = VECTOR ( 'NONE', #118, 1000.000000000000000 ) ;
#15 = VERTEX_POINT ( 'NONE', #123 ) ;
#16 = PRESENTATION_LAYER_ASSIGNMENT (  '', '', ( #72 ) ) ;
#17 = APPLICATION_CONTEXT ( 'automotive_design' ) ;
#18 = VERTEX_POINT ( 'NONE', #44 ) ;
#19 = SHAPE_REPRESENTATION_RELATIONSHIP ( 'NONE' , 'NONE' ,  #184, #124 ) ;
#20 = EDGE_LOOP ( 'NONE', ( #192, #173, #45, #189 ) ) ;
#21 = EDGE_CURVE ( 'NONE', #185, #39, #231, .T. ) ;
#22 = EDGE_LOOP ( 'NONE', ( #32, #82, #140, #111 ) ) ;
#23 =( LENGTH_UNIT ( ) NAMED_UNIT ( * ) SI_UNIT ( .MILLI., .METRE. ) );
#24 = VECTOR ( 'NONE', #110, 1000.000000000000000 ) ;
#25 = LINE ( 'NONE', #186, #160 ) ;
#26 = CARTESIAN_POINT ( 'NONE',  ( 0.0000000000000000000, 0.0000000000000000000, 20.00000000000000000 ) ) ;
#27 = AXIS2_PLACEMENT_3D ( 'NONE', #233, #165, #225 ) ;
#28 = CONTEXT_DEPENDENT_SHAPE_REPRESENTATION ( #90, #154 ) ;
#29 = ADVANCED_FACE ( 'NONE', ( #209 ), #99, .F. ) ;
#30 = PLANE ( 'NONE',  #218 ) ;
#31 =( GEOMETRIC_REPRESENTATION_CONTEXT ( 3 ) GLOBAL_UNCERTAINTY_ASSIGNED_CONTEXT ( ( #229 ) ) GLOBAL_UNIT_ASSIGNED_CONTEXT ( ( #23, #148, #3 ) ) REPRESENTATION_CONTEXT ( 'NONE', 'WORKASPACE' ) );
#32 = ORIENTED_EDGE ( 'NONE', *, *, #77, .T. ) ;
#33 = VECTOR ( 'NONE', #162, 1000.000000000000000 ) ;
#34 = PRODUCT_DEFINITION_SHAPE ( 'NONE', 'NONE',  #195 ) ;
#35 = SHAPE_REPRESENTATION ( 'TM_340W_17', ( #150, #127 ), #137 ) ;
#36 = AXIS2_PLACEMENT_3D ( 'NONE', #5, #228, #61 ) ;
#37 =( LENGTH_UNIT ( ) NAMED_UNIT ( * ) SI_UNIT ( .MILLI., .METRE. ) );
#38 = ORIENTED_EDGE ( 'NONE', *, *, #180, .F. ) ;
#39 = VERTEX_POINT ( 'NONE', #202 ) ;
#40 = DIRECTION ( 'NONE',  ( 1.000000000000000000, 0.0000000000000000000, 0.0000000000000000000 ) ) ;
#41 = VECTOR ( 'NONE', #112, 1000.000000000000000 ) ;
#42 = DIRECTION ( 'NONE',  ( 0.0000000000000000000, 0.0000000000000000000, 1.000000000000000000 ) ) ;
#43 = CARTESIAN_POINT ( 'NONE',  ( 0.0000000000000000000, 0.0000000000000000000, 0.0000000000000000000 ) ) ;
#44 = CARTESIAN_POINT ( 'NONE',  ( 25.00000000000000000, 200.0000000000000000, 20.00000000000000000 ) ) ;
#45 = ORIENTED_EDGE ( 'NONE', *, *, #222, .F. ) ;
#46 = PRESENTATION_STYLE_ASSIGNMENT (( #230 ) ) ;
#47 = CARTESIAN_POINT ( 'NONE',  ( 0.0000000000000000000, 0.0000000000000000000, 0.0000000000000000000 ) ) ;
#48 = EDGE_CURVE ( 'NONE', #185, #103, #176, .T. ) ;
#49 = ADVANCED_FACE ( 'NONE', ( #179 ), #64, .F. ) ;
#50 = PRODUCT_CONTEXT ( 'NONE', #214, 'mechanical' ) ;
#51 = CARTESIAN_POINT ( 'NONE',  ( 25.00000000000000000, 0.0000000000000000000, 20.00000000000000000 ) ) ;
#52 = FILL_AREA_STYLE ('',( #53 ) ) ;
#53 = FILL_AREA_STYLE_COLOUR ( '', #238 ) ;
#54 = FACE_OUTER_BOUND ( 'NONE', #56, .T. ) ;
#55 = MANIFOLD_SOLID_BREP ( '²ÝÎß°Ä1', #4 ) ;
#56 = EDGE_LOOP ( 'NONE', ( #151, #59, #183, #102 ) ) ;
#57 = ORIENTED_EDGE ( 'NONE', *, *, #159, .T. ) ;
#58 = ADVANCED_FACE ( 'NONE', ( #168 ), #30, .F. ) ;
#59 = ORIENTED_EDGE ( 'NONE', *, *, #222, .T. ) ;
#60 = LINE ( 'NONE', #175, #14 ) ;
#61 = DIRECTION ( 'NONE',  ( 0.0000000000000000000, 0.0000000000000000000, -1.000000000000000000 ) ) ;
#62 = VERTEX_POINT ( 'NONE', #141 ) ;
#63 = ORIENTED_EDGE ( 'NONE', *, *, #77, .F. ) ;
#64 = PLANE ( 'NONE',  #204 ) ;
#65 = PRESENTATION_LAYER_ASSIGNMENT (  '', '', ( #117 ) ) ;
#66 = CARTESIAN_POINT ( 'NONE',  ( 0.0000000000000000000, 0.0000000000000000000, 0.0000000000000000000 ) ) ;
#67 = LINE ( 'NONE', #84, #212 ) ;
#68 = AXIS2_PLACEMENT_3D ( 'NONE', #170, #42, #71 ) ;
#69 = DIRECTION ( 'NONE',  ( -1.000000000000000000, 0.0000000000000000000, 0.0000000000000000000 ) ) ;
#70 =( NAMED_UNIT ( * ) PLANE_ANGLE_UNIT ( ) SI_UNIT ( $, .RADIAN. ) );
#71 = DIRECTION ( 'NONE',  ( 1.000000000000000000, 0.0000000000000000000, 0.0000000000000000000 ) ) ;
#72 = STYLED_ITEM ( 'NONE', ( #46 ), #55 ) ;
#73 = DIRECTION ( 'NONE',  ( 0.0000000000000000000, 0.0000000000000000000, 1.000000000000000000 ) ) ;
#74 = EDGE_CURVE ( 'NONE', #100, #15, #67, .T. ) ;
#75 = MECHANICAL_DESIGN_GEOMETRIC_PRESENTATION_REPRESENTATION (  '', ( #117 ), #199 ) ;
#76 = FACE_OUTER_BOUND ( 'NONE', #22, .T. ) ;
#77 = EDGE_CURVE ( 'NONE', #15, #62, #188, .T. ) ;
#78 = DIRECTION ( 'NONE',  ( 1.000000000000000000, 0.0000000000000000000, 0.0000000000000000000 ) ) ;
#79 = SURFACE_SIDE_STYLE ('',( #182 ) ) ;
#80 = FACE_OUTER_BOUND ( 'NONE', #136, .T. ) ;
#81 = DIRECTION ( 'NONE',  ( -0.0000000000000000000, 1.000000000000000000, 0.0000000000000000000 ) ) ;
#82 = ORIENTED_EDGE ( 'NONE', *, *, #113, .F. ) ;
#83 = VECTOR ( 'NONE', #211, 1000.000000000000000 ) ;
#84 = CARTESIAN_POINT ( 'NONE',  ( 0.0000000000000000000, 1000.000000000000000, 20.00000000000000000 ) ) ;
#85 = DIRECTION ( 'NONE',  ( 1.000000000000000000, 0.0000000000000000000, 0.0000000000000000000 ) ) ;
#86 =( NAMED_UNIT ( * ) PLANE_ANGLE_UNIT ( ) SI_UNIT ( $, .RADIAN. ) );
#87 = SURFACE_SIDE_STYLE ('',( #119 ) ) ;
#88 = ADVANCED_FACE ( 'NONE', ( #80 ), #206, .F. ) ;
#89 = DIRECTION ( 'NONE',  ( 1.000000000000000000, 0.0000000000000000000, 0.0000000000000000000 ) ) ;
#90 =( REPRESENTATION_RELATIONSHIP ('NONE','NONE', #35, #184 ) REPRESENTATION_RELATIONSHIP_WITH_TRANSFORMATION ( #13 )SHAPE_REPRESENTATION_RELATIONSHIP( ) );
#91 = VECTOR ( 'NONE', #208, 1000.000000000000000 ) ;
#92 = DIRECTION ( 'NONE',  ( 0.0000000000000000000, 0.0000000000000000000, -1.000000000000000000 ) ) ;
#93 = CARTESIAN_POINT ( 'NONE',  ( 25.00000000000000000, 200.0000000000000000, 20.00000000000000000 ) ) ;
#94 = LINE ( 'NONE', #156, #24 ) ;
#95 = CARTESIAN_POINT ( 'NONE',  ( 25.00000000000000000, 200.0000000000000000, 0.0000000000000000000 ) ) ;
#96 = SHAPE_DEFINITION_REPRESENTATION ( #34, #35 ) ;
#97 = CARTESIAN_POINT ( 'NONE',  ( 25.00000000000000000, 1000.000000000000000, 20.00000000000000000 ) ) ;
#98 = VERTEX_POINT ( 'NONE', #47 ) ;
#99 = PLANE ( 'NONE',  #36 ) ;
#100 = VERTEX_POINT ( 'NONE', #6 ) ;
#101 = PRODUCT_CONTEXT ( 'NONE', #17, 'mechanical' ) ;
#102 = ORIENTED_EDGE ( 'NONE', *, *, #193, .T. ) ;
#103 = VERTEX_POINT ( 'NONE', #191 ) ;
#104 = VECTOR ( 'NONE', #92, 1000.000000000000000 ) ;
#105 = UNCERTAINTY_MEASURE_WITH_UNIT (LENGTH_MEASURE( 1.000000000000000100E-005 ), #37, 'distance_accuracy_value', 'NONE');
#106 = PRESENTATION_STYLE_ASSIGNMENT (( #120 ) ) ;
#107 = SHAPE_DEFINITION_REPRESENTATION ( #237, #184 ) ;
#108 = VECTOR ( 'NONE', #164, 1000.000000000000000 ) ;
#109 = PRODUCT ( 'rubber foam', 'rubber foam', '', ( #101 ) ) ;
#110 = DIRECTION ( 'NONE',  ( 0.0000000000000000000, -1.000000000000000000, 0.0000000000000000000 ) ) ;
#111 = ORIENTED_EDGE ( 'NONE', *, *, #74, .T. ) ;
#112 = DIRECTION ( 'NONE',  ( 0.0000000000000000000, 0.0000000000000000000, 1.000000000000000000 ) ) ;
#113 = EDGE_CURVE ( 'NONE', #18, #62, #94, .T. ) ;
#114 = ORIENTED_EDGE ( 'NONE', *, *, #193, .F. ) ;
#115 = AXIS2_PLACEMENT_3D ( 'NONE', #43, #220, #196 ) ;
#116 = APPLICATION_PROTOCOL_DEFINITION ( 'draft international standard', 'automotive_design', 1998, #214 ) ;
#117 = STYLED_ITEM ( 'NONE', ( #106 ), #124 ) ;
#118 = DIRECTION ( 'NONE',  ( -1.000000000000000000, 0.0000000000000000000, 0.0000000000000000000 ) ) ;
#119 = SURFACE_STYLE_FILL_AREA ( #52 ) ;
#120 = SURFACE_STYLE_USAGE ( .BOTH. , #87 ) ;
#121 = CARTESIAN_POINT ( 'NONE',  ( 0.0000000000000000000, 0.0000000000000000000, 0.0000000000000000000 ) ) ;
#122 = DIRECTION ( 'NONE',  ( 0.0000000000000000000, -1.000000000000000000, 0.0000000000000000000 ) ) ;
#123 = CARTESIAN_POINT ( 'NONE',  ( 0.0000000000000000000, 0.0000000000000000000, 20.00000000000000000 ) ) ;
#124 = ADVANCED_BREP_SHAPE_REPRESENTATION ( '', ( #55, #68 ), #224 ) ;
#125 = VECTOR ( 'NONE', #227, 1000.000000000000000 ) ;
#126 = PRODUCT ( 'TM_340W_17', 'TM_340W_17', '', ( #50 ) ) ;
#127 = AXIS2_PLACEMENT_3D ( 'NONE', #12, #215, #89 ) ;
#128 = CARTESIAN_POINT ( 'NONE',  ( 25.00000000000000000, 1000.000000000000000, 0.0000000000000000000 ) ) ;
#129 = ORIENTED_EDGE ( 'NONE', *, *, #74, .F. ) ;
#130 = CARTESIAN_POINT ( 'NONE',  ( 25.00000000000000000, 200.0000000000000000, 0.0000000000000000000 ) ) ;
#131 = ORIENTED_EDGE ( 'NONE', *, *, #180, .T. ) ;
#132 = LINE ( 'NONE', #93, #104 ) ;
#133 = CARTESIAN_POINT ( 'NONE',  ( 0.0000000000000000000, 200.0000000000000000, 0.0000000000000000000 ) ) ;
#134 =( NAMED_UNIT ( * ) PLANE_ANGLE_UNIT ( ) SI_UNIT ( $, .RADIAN. ) );
#135 = APPLICATION_CONTEXT ( 'automotive_design' ) ;
#136 = EDGE_LOOP ( 'NONE', ( #131, #153, #152, #219 ) ) ;
#137 =( GEOMETRIC_REPRESENTATION_CONTEXT ( 3 ) GLOBAL_UNCERTAINTY_ASSIGNED_CONTEXT ( ( #8 ) ) GLOBAL_UNIT_ASSIGNED_CONTEXT ( ( #234, #134, #198 ) ) REPRESENTATION_CONTEXT ( 'NONE', 'WORKASPACE' ) );
#138 = APPLICATION_PROTOCOL_DEFINITION ( 'draft international standard', 'automotive_design', 1998, #169 ) ;
#139 = APPLICATION_PROTOCOL_DEFINITION ( 'draft international standard', 'automotive_design', 1998, #135 ) ;
#140 = ORIENTED_EDGE ( 'NONE', *, *, #149, .F. ) ;
#141 = CARTESIAN_POINT ( 'NONE',  ( 25.00000000000000000, 0.0000000000000000000, 20.00000000000000000 ) ) ;
#142 = EDGE_LOOP ( 'NONE', ( #171, #129, #114, #57 ) ) ;
#143 = DIRECTION ( 'NONE',  ( -1.000000000000000000, 0.0000000000000000000, 0.0000000000000000000 ) ) ;
#144 = PLANE ( 'NONE',  #217 ) ;
#145 = MECHANICAL_DESIGN_GEOMETRIC_PRESENTATION_REPRESENTATION (  '', ( #72 ), #31 ) ;
#146 = EDGE_LOOP ( 'NONE', ( #63, #163, #38, #216 ) ) ;
#147 =( LENGTH_UNIT ( ) NAMED_UNIT ( * ) SI_UNIT ( .MILLI., .METRE. ) );
#148 =( NAMED_UNIT ( * ) PLANE_ANGLE_UNIT ( ) SI_UNIT ( $, .RADIAN. ) );
#149 = EDGE_CURVE ( 'NONE', #100, #18, #10, .T. ) ;
#150 = AXIS2_PLACEMENT_3D ( 'NONE', #121, #73, #40 ) ;
#151 = ORIENTED_EDGE ( 'NONE', *, *, #149, .T. ) ;
#152 = ORIENTED_EDGE ( 'NONE', *, *, #48, .F. ) ;
#153 = ORIENTED_EDGE ( 'NONE', *, *, #159, .F. ) ;
#154 = PRODUCT_DEFINITION_SHAPE ( 'NONE', 'NONE',  #239 ) ;
#155 = APPLICATION_PROTOCOL_DEFINITION ( 'draft international standard', 'automotive_design', 1998, #17 ) ;
#156 = CARTESIAN_POINT ( 'NONE',  ( 25.00000000000000000, 1000.000000000000000, 20.00000000000000000 ) ) ;
#157 = COLOUR_RGB ( '',0.7921568627450980000, 0.8196078431372548800, 0.9333333333333333500 ) ;
#158 = DIRECTION ( 'NONE',  ( 0.0000000000000000000, 0.0000000000000000000, 1.000000000000000000 ) ) ;
#159 = EDGE_CURVE ( 'NONE', #103, #98, #201, .T. ) ;
#160 = VECTOR ( 'NONE', #158, 1000.000000000000000 ) ;
#161 = PRODUCT_DEFINITION ( 'UNKNOWN', '', #236, #203 ) ;
#162 = DIRECTION ( 'NONE',  ( 1.000000000000000000, 0.0000000000000000000, 0.0000000000000000000 ) ) ;
#163 = ORIENTED_EDGE ( 'NONE', *, *, #174, .F. ) ;
#164 = DIRECTION ( 'NONE',  ( 0.0000000000000000000, -1.000000000000000000, 0.0000000000000000000 ) ) ;
#165 = DIRECTION ( 'NONE',  ( 0.0000000000000000000, 0.0000000000000000000, -1.000000000000000000 ) ) ;
#166 = VECTOR ( 'NONE', #143, 1000.000000000000000 ) ;
#167 = DIRECTION ( 'NONE',  ( 0.0000000000000000000, 0.0000000000000000000, 1.000000000000000000 ) ) ;
#168 = FACE_OUTER_BOUND ( 'NONE', #146, .T. ) ;
#169 = APPLICATION_CONTEXT ( 'automotive_design' ) ;
#170 = CARTESIAN_POINT ( 'NONE',  ( 0.0000000000000000000, 0.0000000000000000000, 0.0000000000000000000 ) ) ;
#171 = ORIENTED_EDGE ( 'NONE', *, *, #174, .T. ) ;
#172 =( NAMED_UNIT ( * ) SI_UNIT ( $, .STERADIAN. ) SOLID_ANGLE_UNIT ( ) );
#173 = ORIENTED_EDGE ( 'NONE', *, *, #21, .F. ) ;
#174 = EDGE_CURVE ( 'NONE', #98, #15, #223, .T. ) ;
#175 = CARTESIAN_POINT ( 'NONE',  ( 25.00000000000000000, 0.0000000000000000000, 0.0000000000000000000 ) ) ;
#176 = LINE ( 'NONE', #130, #166 ) ;
#177 = ADVANCED_FACE ( 'NONE', ( #54 ), #144, .T. ) ;
#178 = DIRECTION ( 'NONE',  ( 1.000000000000000000, 0.0000000000000000000, 0.0000000000000000000 ) ) ;
#179 = FACE_OUTER_BOUND ( 'NONE', #20, .T. ) ;
#180 = EDGE_CURVE ( 'NONE', #39, #98, #60, .T. ) ;
#181 = CARTESIAN_POINT ( 'NONE',  ( 25.00000000000000000, 1000.000000000000000, 0.0000000000000000000 ) ) ;
#182 = SURFACE_STYLE_FILL_AREA ( #210 ) ;
#183 = ORIENTED_EDGE ( 'NONE', *, *, #48, .T. ) ;
#184 = SHAPE_REPRESENTATION ( 'rubber foam', ( #68 ), #224 ) ;
#185 = VERTEX_POINT ( 'NONE', #95 ) ;
#186 = CARTESIAN_POINT ( 'NONE',  ( 0.0000000000000000000, 200.0000000000000000, 0.0000000000000000000 ) ) ;
#187 = DIRECTION ( 'NONE',  ( 0.0000000000000000000, 0.0000000000000000000, 1.000000000000000000 ) ) ;
#188 = LINE ( 'NONE', #26, #33 ) ;
#189 = ORIENTED_EDGE ( 'NONE', *, *, #113, .T. ) ;
#190 = FILL_AREA_STYLE_COLOUR ( '', #157 ) ;
#191 = CARTESIAN_POINT ( 'NONE',  ( 0.0000000000000000000, 200.0000000000000000, 0.0000000000000000000 ) ) ;
#192 = ORIENTED_EDGE ( 'NONE', *, *, #205, .T. ) ;
#193 = EDGE_CURVE ( 'NONE', #103, #100, #25, .T. ) ;
#194 =( NAMED_UNIT ( * ) SI_UNIT ( $, .STERADIAN. ) SOLID_ANGLE_UNIT ( ) );
#195 = PRODUCT_DEFINITION ( 'UNKNOWN', '', #207, #9 ) ;
#196 = DIRECTION ( 'NONE',  ( 1.000000000000000000, 0.0000000000000000000, 0.0000000000000000000 ) ) ;
#197 = AXIS2_PLACEMENT_3D ( 'NONE', #128, #187, #78 ) ;
#198 =( NAMED_UNIT ( * ) SI_UNIT ( $, .STERADIAN. ) SOLID_ANGLE_UNIT ( ) );
#199 =( GEOMETRIC_REPRESENTATION_CONTEXT ( 3 ) GLOBAL_UNCERTAINTY_ASSIGNED_CONTEXT ( ( #1 ) ) GLOBAL_UNIT_ASSIGNED_CONTEXT ( ( #147, #86, #172 ) ) REPRESENTATION_CONTEXT ( 'NONE', 'WORKASPACE' ) );
#200 = ADVANCED_FACE ( 'NONE', ( #76 ), #213, .F. ) ;
#201 = LINE ( 'NONE', #235, #125 ) ;
#202 = CARTESIAN_POINT ( 'NONE',  ( 25.00000000000000000, 0.0000000000000000000, 0.0000000000000000000 ) ) ;
#203 = PRODUCT_DEFINITION_CONTEXT ( 'detailed design', #135, 'design' ) ;
#204 = AXIS2_PLACEMENT_3D ( 'NONE', #97, #69, #167 ) ;
#205 = EDGE_CURVE ( 'NONE', #62, #39, #226, .T. ) ;
#206 = PLANE ( 'NONE',  #197 ) ;
#207 = PRODUCT_DEFINITION_FORMATION_WITH_SPECIFIED_SOURCE ( 'ANY', '', #126, .NOT_KNOWN. ) ;
#208 = DIRECTION ( 'NONE',  ( 1.000000000000000000, 0.0000000000000000000, 0.0000000000000000000 ) ) ;
#209 = FACE_OUTER_BOUND ( 'NONE', #142, .T. ) ;
#210 = FILL_AREA_STYLE ('',( #190 ) ) ;
#211 = DIRECTION ( 'NONE',  ( 0.0000000000000000000, 0.0000000000000000000, -1.000000000000000000 ) ) ;
#212 = VECTOR ( 'NONE', #122, 1000.000000000000000 ) ;
#213 = PLANE ( 'NONE',  #27 ) ;
#214 = APPLICATION_CONTEXT ( 'automotive_design' ) ;
#215 = DIRECTION ( 'NONE',  ( 0.0000000000000000000, 0.0000000000000000000, 1.000000000000000000 ) ) ;
#216 = ORIENTED_EDGE ( 'NONE', *, *, #205, .F. ) ;
#217 = AXIS2_PLACEMENT_3D ( 'NONE', #133, #232, #85 ) ;
#218 = AXIS2_PLACEMENT_3D ( 'NONE', #2, #81, #178 ) ;
#219 = ORIENTED_EDGE ( 'NONE', *, *, #21, .T. ) ;
#220 = DIRECTION ( 'NONE',  ( 0.0000000000000000000, 0.0000000000000000000, 1.000000000000000000 ) ) ;
#221 = PRODUCT_RELATED_PRODUCT_CATEGORY ( 'part', '', ( #126 ) ) ;
#222 = EDGE_CURVE ( 'NONE', #18, #185, #132, .T. ) ;
#223 = LINE ( 'NONE', #66, #41 ) ;
#224 =( GEOMETRIC_REPRESENTATION_CONTEXT ( 3 ) GLOBAL_UNCERTAINTY_ASSIGNED_CONTEXT ( ( #105 ) ) GLOBAL_UNIT_ASSIGNED_CONTEXT ( ( #37, #70, #194 ) ) REPRESENTATION_CONTEXT ( 'NONE', 'WORKASPACE' ) );
#225 = DIRECTION ( 'NONE',  ( -1.000000000000000000, 0.0000000000000000000, 0.0000000000000000000 ) ) ;
#226 = LINE ( 'NONE', #51, #83 ) ;
#227 = DIRECTION ( 'NONE',  ( 0.0000000000000000000, -1.000000000000000000, 0.0000000000000000000 ) ) ;
#228 = DIRECTION ( 'NONE',  ( 1.000000000000000000, 0.0000000000000000000, 0.0000000000000000000 ) ) ;
#229 = UNCERTAINTY_MEASURE_WITH_UNIT (LENGTH_MEASURE( 1.000000000000000100E-005 ), #23, 'distance_accuracy_value', 'NONE');
#230 = SURFACE_STYLE_USAGE ( .BOTH. , #79 ) ;
#231 = LINE ( 'NONE', #181, #108 ) ;
#232 = DIRECTION ( 'NONE',  ( -0.0000000000000000000, 1.000000000000000000, 0.0000000000000000000 ) ) ;
#233 = CARTESIAN_POINT ( 'NONE',  ( 0.0000000000000000000, 1000.000000000000000, 20.00000000000000000 ) ) ;
#234 =( LENGTH_UNIT ( ) NAMED_UNIT ( * ) SI_UNIT ( .MILLI., .METRE. ) );
#235 = CARTESIAN_POINT ( 'NONE',  ( 0.0000000000000000000, 1000.000000000000000, 0.0000000000000000000 ) ) ;
#236 = PRODUCT_DEFINITION_FORMATION_WITH_SPECIFIED_SOURCE ( 'ANY', '', #109, .NOT_KNOWN. ) ;
#237 = PRODUCT_DEFINITION_SHAPE ( 'NONE', 'NONE',  #161 ) ;
#238 = COLOUR_RGB ( '',0.7921568627450980000, 0.8196078431372548800, 0.9333333333333333500 ) ;
#239 = NEXT_ASSEMBLY_USAGE_OCCURRENCE ( 'NAUO1', ' ', ' ', #195, #161, $ ) ;
ENDSEC;
END-ISO-10303-21;
