ISO-10303-21;
HEADER;
FILE_DESCRIPTION (( 'STEP AP214' ),
    '1' );
FILE_NAME ('TM_341W_9.STEP',
    '2016-05-10T04:24:15',
    ( '' ),
    ( '' ),
    'SwSTEP 2.0',
    'SolidWorks 2015',
    '' );
FILE_SCHEMA (( 'AUTOMOTIVE_DESIGN' ));
ENDSEC;

DATA;
#1 = MANIFOLD_SOLID_BREP ( '²ÝÎß°Ä1', #210 ) ;
#2 = EDGE_CURVE ( 'NONE', #145, #97, #7, .T. ) ;
#3 = AXIS2_PLACEMENT_3D ( 'NONE', #89, #100, #64 ) ;
#4 = ORIENTED_EDGE ( 'NONE', *, *, #208, .T. ) ;
#5 = ORIENTED_EDGE ( 'NONE', *, *, #173, .T. ) ;
#6 = DIRECTION ( 'NONE',  ( -0.0000000000000000000, -0.0000000000000000000, 1.000000000000000000 ) ) ;
#7 = CIRCLE ( 'NONE', #193, 10.00000000000000000 ) ;
#8 = STYLED_ITEM ( 'NONE', ( #24 ), #233 ) ;
#9 = ORIENTED_EDGE ( 'NONE', *, *, #130, .F. ) ;
#10 = DIRECTION ( 'NONE',  ( -0.0000000000000000000, -0.0000000000000000000, -1.000000000000000000 ) ) ;
#11 = DIRECTION ( 'NONE',  ( -0.0000000000000000000, -0.0000000000000000000, -1.000000000000000000 ) ) ;
#12 = VECTOR ( 'NONE', #139, 1000.000000000000000 ) ;
#13 = CARTESIAN_POINT ( 'NONE',  ( 10.00000000000000000, 200.0000000000000000, -2.500000000000000000 ) ) ;
#14 = CARTESIAN_POINT ( 'NONE',  ( -10.00000000000000000, 1000.000000000000000, -2.500000000000000000 ) ) ;
#15 = CARTESIAN_POINT ( 'NONE',  ( -10.00000000000000000, 1000.000000000000000, -2.500000000000000000 ) ) ;
#16 = EDGE_CURVE ( 'NONE', #121, #145, #134, .T. ) ;
#17 = PRODUCT_RELATED_PRODUCT_CATEGORY ( 'part', '', ( #95 ) ) ;
#18 = COLOUR_RGB ( '',0.7921568627450980000, 0.8196078431372548800, 0.9333333333333333500 ) ;
#19 = PLANE ( 'NONE',  #44 ) ;
#20 = CARTESIAN_POINT ( 'NONE',  ( 0.0000000000000000000, 0.0000000000000000000, 0.0000000000000000000 ) ) ;
#21 = ORIENTED_EDGE ( 'NONE', *, *, #62, .F. ) ;
#22 = AXIS2_PLACEMENT_3D ( 'NONE', #49, #88, #196 ) ;
#23 = VECTOR ( 'NONE', #6, 1000.000000000000000 ) ;
#24 = PRESENTATION_STYLE_ASSIGNMENT (( #175 ) ) ;
#25 =( LENGTH_UNIT ( ) NAMED_UNIT ( * ) SI_UNIT ( .MILLI., .METRE. ) );
#26 = PRODUCT_CONTEXT ( 'NONE', #150, 'mechanical' ) ;
#27 = DIRECTION ( 'NONE',  ( -1.000000000000000000, 0.0000000000000000000, 0.0000000000000000000 ) ) ;
#28 = EDGE_LOOP ( 'NONE', ( #206, #154, #176, #228 ) ) ;
#29 =( NAMED_UNIT ( * ) PLANE_ANGLE_UNIT ( ) SI_UNIT ( $, .RADIAN. ) );
#30 = CARTESIAN_POINT ( 'NONE',  ( 0.0000000000000000000, 0.0000000000000000000, 0.0000000000000000000 ) ) ;
#31 = FACE_OUTER_BOUND ( 'NONE', #28, .T. ) ;
#32 = UNCERTAINTY_MEASURE_WITH_UNIT (LENGTH_MEASURE( 1.000000000000000100E-005 ), #25, 'distance_accuracy_value', 'NONE');
#33 = DIRECTION ( 'NONE',  ( 1.000000000000000000, 0.0000000000000000000, 0.0000000000000000000 ) ) ;
#34 = SURFACE_SIDE_STYLE ('',( #129 ) ) ;
#35 = VECTOR ( 'NONE', #54, 1000.000000000000000 ) ;
#36 = PRODUCT_DEFINITION ( 'UNKNOWN', '', #48, #159 ) ;
#37 = AXIS2_PLACEMENT_3D ( 'NONE', #128, #222, #141 ) ;
#38 = VERTEX_POINT ( 'NONE', #77 ) ;
#39 = CARTESIAN_POINT ( 'NONE',  ( 10.00000000000000000, 1000.000000000000000, -7.500000000000000000 ) ) ;
#40 = CARTESIAN_POINT ( 'NONE',  ( 0.0000000000000000000, 200.0000000000000000, -7.500000000000000000 ) ) ;
#41 = ADVANCED_FACE ( 'NONE', ( #102 ), #80, .T. ) ;
#42 = DIRECTION ( 'NONE',  ( -0.0000000000000000000, -1.000000000000000000, -0.0000000000000000000 ) ) ;
#43 = SHAPE_DEFINITION_REPRESENTATION ( #84, #221 ) ;
#44 = AXIS2_PLACEMENT_3D ( 'NONE', #14, #179, #216 ) ;
#45 = APPLICATION_PROTOCOL_DEFINITION ( 'draft international standard', 'automotive_design', 1998, #67 ) ;
#46 = VECTOR ( 'NONE', #168, 1000.000000000000000 ) ;
#47 = CARTESIAN_POINT ( 'NONE',  ( -10.00000000000000000, 200.0000000000000000, 0.0000000000000000000 ) ) ;
#48 = PRODUCT_DEFINITION_FORMATION_WITH_SPECIFIED_SOURCE ( 'ANY', '', #95, .NOT_KNOWN. ) ;
#49 = CARTESIAN_POINT ( 'NONE',  ( 0.0000000000000000000, 0.0000000000000000000, 0.0000000000000000000 ) ) ;
#50 = EDGE_LOOP ( 'NONE', ( #231, #140, #133, #5 ) ) ;
#51 = PRODUCT_DEFINITION_FORMATION_WITH_SPECIFIED_SOURCE ( 'ANY', '', #169, .NOT_KNOWN. ) ;
#52 =( NAMED_UNIT ( * ) SI_UNIT ( $, .STERADIAN. ) SOLID_ANGLE_UNIT ( ) );
#53 = PLANE ( 'NONE',  #165 ) ;
#54 = DIRECTION ( 'NONE',  ( -0.0000000000000000000, -0.0000000000000000000, 1.000000000000000000 ) ) ;
#55 = ORIENTED_EDGE ( 'NONE', *, *, #188, .F. ) ;
#56 = ORIENTED_EDGE ( 'NONE', *, *, #132, .F. ) ;
#57 = LINE ( 'NONE', #75, #12 ) ;
#58 =( LENGTH_UNIT ( ) NAMED_UNIT ( * ) SI_UNIT ( .MILLI., .METRE. ) );
#59 = FILL_AREA_STYLE_COLOUR ( '', #18 ) ;
#60 = LINE ( 'NONE', #167, #46 ) ;
#61 = CARTESIAN_POINT ( 'NONE',  ( 10.00000000000000000, 200.0000000000000000, 0.0000000000000000000 ) ) ;
#62 = EDGE_CURVE ( 'NONE', #105, #97, #213, .T. ) ;
#63 = PRODUCT_DEFINITION_SHAPE ( 'NONE', 'NONE',  #36 ) ;
#64 = DIRECTION ( 'NONE',  ( 0.0000000000000000000, 0.0000000000000000000, -1.000000000000000000 ) ) ;
#65 = ORIENTED_EDGE ( 'NONE', *, *, #2, .F. ) ;
#66 = ORIENTED_EDGE ( 'NONE', *, *, #208, .F. ) ;
#67 = APPLICATION_CONTEXT ( 'automotive_design' ) ;
#68 = AXIS2_PLACEMENT_3D ( 'NONE', #174, #189, #71 ) ;
#69 = EDGE_CURVE ( 'NONE', #170, #121, #158, .T. ) ;
#70 = ADVANCED_FACE ( 'NONE', ( #164 ), #19, .T. ) ;
#71 = DIRECTION ( 'NONE',  ( 1.000000000000000000, 0.0000000000000000000, 0.0000000000000000000 ) ) ;
#72 = VERTEX_POINT ( 'NONE', #13 ) ;
#73 = UNCERTAINTY_MEASURE_WITH_UNIT (LENGTH_MEASURE( 1.000000000000000100E-005 ), #211, 'distance_accuracy_value', 'NONE');
#74 = DIRECTION ( 'NONE',  ( 0.0000000000000000000, -1.000000000000000000, 0.0000000000000000000 ) ) ;
#75 = CARTESIAN_POINT ( 'NONE',  ( 0.0000000000000000000, 0.0000000000000000000, -7.500000000000000000 ) ) ;
#76 = PRODUCT_RELATED_PRODUCT_CATEGORY ( 'part', '', ( #169 ) ) ;
#77 = CARTESIAN_POINT ( 'NONE',  ( -10.00000000000000000, 0.0000000000000000000, -7.500000000000000000 ) ) ;
#78 = EDGE_LOOP ( 'NONE', ( #147, #92, #125, #152 ) ) ;
#79 = VECTOR ( 'NONE', #10, 1000.000000000000000 ) ;
#80 = PLANE ( 'NONE',  #155 ) ;
#81 = EDGE_CURVE ( 'NONE', #38, #121, #57, .T. ) ;
#82 = CARTESIAN_POINT ( 'NONE',  ( 0.0000000000000000000, 0.0000000000000000000, 0.0000000000000000000 ) ) ;
#83 =( LENGTH_UNIT ( ) NAMED_UNIT ( * ) SI_UNIT ( .MILLI., .METRE. ) );
#84 = PRODUCT_DEFINITION_SHAPE ( 'NONE', 'NONE',  #234 ) ;
#85 = ADVANCED_FACE ( 'NONE', ( #96 ), #178, .F. ) ;
#86 = SHAPE_REPRESENTATION_RELATIONSHIP ( 'NONE' , 'NONE' ,  #219, #233 ) ;
#87 = AXIS2_PLACEMENT_3D ( 'NONE', #82, #209, #122 ) ;
#88 = DIRECTION ( 'NONE',  ( 0.0000000000000000000, 0.0000000000000000000, 1.000000000000000000 ) ) ;
#89 = CARTESIAN_POINT ( 'NONE',  ( 0.0000000000000000000, 1000.000000000000000, -2.500000000000000000 ) ) ;
#90 = APPLICATION_CONTEXT ( 'automotive_design' ) ;
#91 = UNCERTAINTY_MEASURE_WITH_UNIT (LENGTH_MEASURE( 1.000000000000000100E-005 ), #83, 'distance_accuracy_value', 'NONE');
#92 = ORIENTED_EDGE ( 'NONE', *, *, #201, .F. ) ;
#93 = PRESENTATION_STYLE_ASSIGNMENT (( #235 ) ) ;
#94 = CARTESIAN_POINT ( 'NONE',  ( 0.0000000000000000000, 0.0000000000000000000, -2.500000000000000000 ) ) ;
#95 = PRODUCT ( 'rubber foam', 'rubber foam', '', ( #229 ) ) ;
#96 = FACE_OUTER_BOUND ( 'NONE', #50, .T. ) ;
#97 = VERTEX_POINT ( 'NONE', #163 ) ;
#98 = PRESENTATION_LAYER_ASSIGNMENT (  '', '', ( #8 ) ) ;
#99 = FILL_AREA_STYLE ('',( #59 ) ) ;
#100 = DIRECTION ( 'NONE',  ( 0.0000000000000000000, -1.000000000000000000, 0.0000000000000000000 ) ) ;
#101 = MECHANICAL_DESIGN_GEOMETRIC_PRESENTATION_REPRESENTATION (  '', ( #8 ), #195 ) ;
#102 = FACE_OUTER_BOUND ( 'NONE', #146, .T. ) ;
#103 = CARTESIAN_POINT ( 'NONE',  ( -10.00000000000000000, 0.0000000000000000000, 0.0000000000000000000 ) ) ;
#104 = LINE ( 'NONE', #61, #23 ) ;
#105 = VERTEX_POINT ( 'NONE', #114 ) ;
#106 = EDGE_CURVE ( 'NONE', #223, #170, #194, .T. ) ;
#107 = DIRECTION ( 'NONE',  ( 1.000000000000000000, 0.0000000000000000000, 0.0000000000000000000 ) ) ;
#108 = VECTOR ( 'NONE', #226, 1000.000000000000000 ) ;
#109 =( NAMED_UNIT ( * ) PLANE_ANGLE_UNIT ( ) SI_UNIT ( $, .RADIAN. ) );
#110 = DIRECTION ( 'NONE',  ( 0.0000000000000000000, -1.000000000000000000, 0.0000000000000000000 ) ) ;
#111 = AXIS2_PLACEMENT_3D ( 'NONE', #118, #149, #27 ) ;
#112 = ORIENTED_EDGE ( 'NONE', *, *, #201, .T. ) ;
#113 = MECHANICAL_DESIGN_GEOMETRIC_PRESENTATION_REPRESENTATION (  '', ( #224 ), #185 ) ;
#114 = CARTESIAN_POINT ( 'NONE',  ( -10.00000000000000000, 200.0000000000000000, -2.500000000000000000 ) ) ;
#115 = DIRECTION ( 'NONE',  ( 1.000000000000000000, -0.0000000000000000000, -0.0000000000000000000 ) ) ;
#116 = VECTOR ( 'NONE', #110, 1000.000000000000000 ) ;
#117 =( NAMED_UNIT ( * ) PLANE_ANGLE_UNIT ( ) SI_UNIT ( $, .RADIAN. ) );
#118 = CARTESIAN_POINT ( 'NONE',  ( -10.00000000000000000, 1000.000000000000000, -7.500000000000000000 ) ) ;
#119 = APPLICATION_PROTOCOL_DEFINITION ( 'draft international standard', 'automotive_design', 1998, #150 ) ;
#120 = ORIENTED_EDGE ( 'NONE', *, *, #173, .F. ) ;
#121 = VERTEX_POINT ( 'NONE', #143 ) ;
#122 = DIRECTION ( 'NONE',  ( 1.000000000000000000, 0.0000000000000000000, 0.0000000000000000000 ) ) ;
#123 = VECTOR ( 'NONE', #115, 1000.000000000000000 ) ;
#124 = CARTESIAN_POINT ( 'NONE',  ( 0.0000000000000000000, 200.0000000000000000, 0.0000000000000000000 ) ) ;
#125 = ORIENTED_EDGE ( 'NONE', *, *, #106, .T. ) ;
#126 = FACE_OUTER_BOUND ( 'NONE', #153, .T. ) ;
#127 = CARTESIAN_POINT ( 'NONE',  ( 10.00000000000000000, 0.0000000000000000000, -2.500000000000000000 ) ) ;
#128 = CARTESIAN_POINT ( 'NONE',  ( 0.0000000000000000000, 200.0000000000000000, -2.500000000000000000 ) ) ;
#129 = SURFACE_STYLE_FILL_AREA ( #99 ) ;
#130 = EDGE_CURVE ( 'NONE', #72, #105, #186, .T. ) ;
#131 = PRODUCT_DEFINITION_SHAPE ( 'NONE', 'NONE',  #241 ) ;
#132 = EDGE_CURVE ( 'NONE', #72, #145, #60, .T. ) ;
#133 = ORIENTED_EDGE ( 'NONE', *, *, #2, .T. ) ;
#134 = LINE ( 'NONE', #237, #35 ) ;
#135 = ADVANCED_FACE ( 'NONE', ( #31 ), #53, .T. ) ;
#136 = PLANE ( 'NONE',  #111 ) ;
#137 =( NAMED_UNIT ( * ) SI_UNIT ( $, .STERADIAN. ) SOLID_ANGLE_UNIT ( ) );
#138 = VECTOR ( 'NONE', #74, 1000.000000000000000 ) ;
#139 = DIRECTION ( 'NONE',  ( 1.000000000000000000, -0.0000000000000000000, -0.0000000000000000000 ) ) ;
#140 = ORIENTED_EDGE ( 'NONE', *, *, #16, .T. ) ;
#141 = DIRECTION ( 'NONE',  ( 0.0000000000000000000, 0.0000000000000000000, 1.000000000000000000 ) ) ;
#142 = CYLINDRICAL_SURFACE ( 'NONE', #3, 10.00000000000000000 ) ;
#143 = CARTESIAN_POINT ( 'NONE',  ( 10.00000000000000000, 0.0000000000000000000, -7.500000000000000000 ) ) ;
#144 = DIRECTION ( 'NONE',  ( 1.000000000000000000, 0.0000000000000000000, 0.0000000000000000000 ) ) ;
#145 = VERTEX_POINT ( 'NONE', #127 ) ;
#146 = EDGE_LOOP ( 'NONE', ( #182, #66, #9, #55 ) ) ;
#147 = ORIENTED_EDGE ( 'NONE', *, *, #81, .F. ) ;
#148 = DIRECTION ( 'NONE',  ( 1.000000000000000000, 0.0000000000000000000, 0.0000000000000000000 ) ) ;
#149 = DIRECTION ( 'NONE',  ( 0.0000000000000000000, 0.0000000000000000000, -1.000000000000000000 ) ) ;
#150 = APPLICATION_CONTEXT ( 'automotive_design' ) ;
#151 = SURFACE_STYLE_FILL_AREA ( #180 ) ;
#152 = ORIENTED_EDGE ( 'NONE', *, *, #69, .T. ) ;
#153 = EDGE_LOOP ( 'NONE', ( #65, #56, #184, #192 ) ) ;
#154 = ORIENTED_EDGE ( 'NONE', *, *, #69, .F. ) ;
#155 = AXIS2_PLACEMENT_3D ( 'NONE', #124, #205, #33 ) ;
#156 = PRESENTATION_LAYER_ASSIGNMENT (  '', '', ( #224 ) ) ;
#157 = CARTESIAN_POINT ( 'NONE',  ( -10.00000000000000000, 200.0000000000000000, -7.500000000000000000 ) ) ;
#158 = LINE ( 'NONE', #236, #138 ) ;
#159 = PRODUCT_DEFINITION_CONTEXT ( 'detailed design', #90, 'design' ) ;
#160 =( NAMED_UNIT ( * ) SI_UNIT ( $, .STERADIAN. ) SOLID_ANGLE_UNIT ( ) );
#161 = ITEM_DEFINED_TRANSFORMATION ( 'NONE', 'NONE', #22,  #87 ) ;
#162 = EDGE_LOOP ( 'NONE', ( #120, #21, #4, #112 ) ) ;
#163 = CARTESIAN_POINT ( 'NONE',  ( -10.00000000000000000, 0.0000000000000000000, -2.500000000000000000 ) ) ;
#164 = FACE_OUTER_BOUND ( 'NONE', #162, .T. ) ;
#165 = AXIS2_PLACEMENT_3D ( 'NONE', #39, #148, #187 ) ;
#166 = DIRECTION ( 'NONE',  ( 0.0000000000000000000, 0.0000000000000000000, 1.000000000000000000 ) ) ;
#167 = CARTESIAN_POINT ( 'NONE',  ( 10.00000000000000000, 1000.000000000000000, -2.500000000000000000 ) ) ;
#168 = DIRECTION ( 'NONE',  ( 0.0000000000000000000, -1.000000000000000000, 0.0000000000000000000 ) ) ;
#169 = PRODUCT ( 'TM_341W_9', 'TM_341W_9', '', ( #26 ) ) ;
#170 = VERTEX_POINT ( 'NONE', #207 ) ;
#171 = DIRECTION ( 'NONE',  ( 0.0000000000000000000, 0.0000000000000000000, 1.000000000000000000 ) ) ;
#172 = CARTESIAN_POINT ( 'NONE',  ( -10.00000000000000000, 1000.000000000000000, -7.500000000000000000 ) ) ;
#173 = EDGE_CURVE ( 'NONE', #97, #38, #202, .T. ) ;
#174 = CARTESIAN_POINT ( 'NONE',  ( 0.0000000000000000000, 0.0000000000000000000, 0.0000000000000000000 ) ) ;
#175 = SURFACE_STYLE_USAGE ( .BOTH. , #34 ) ;
#176 = ORIENTED_EDGE ( 'NONE', *, *, #188, .T. ) ;
#177 = CONTEXT_DEPENDENT_SHAPE_REPRESENTATION ( #204, #131 ) ;
#178 = PLANE ( 'NONE',  #239 ) ;
#179 = DIRECTION ( 'NONE',  ( -1.000000000000000000, 0.0000000000000000000, 0.0000000000000000000 ) ) ;
#180 = FILL_AREA_STYLE ('',( #214 ) ) ;
#181 = SURFACE_SIDE_STYLE ('',( #151 ) ) ;
#182 = ORIENTED_EDGE ( 'NONE', *, *, #106, .F. ) ;
#183 = AXIS2_PLACEMENT_3D ( 'NONE', #30, #171, #107 ) ;
#184 = ORIENTED_EDGE ( 'NONE', *, *, #130, .T. ) ;
#185 =( GEOMETRIC_REPRESENTATION_CONTEXT ( 3 ) GLOBAL_UNCERTAINTY_ASSIGNED_CONTEXT ( ( #73 ) ) GLOBAL_UNIT_ASSIGNED_CONTEXT ( ( #211, #109, #220 ) ) REPRESENTATION_CONTEXT ( 'NONE', 'WORKASPACE' ) );
#186 = CIRCLE ( 'NONE', #37, 10.00000000000000000 ) ;
#187 = DIRECTION ( 'NONE',  ( 0.0000000000000000000, 0.0000000000000000000, -1.000000000000000000 ) ) ;
#188 = EDGE_CURVE ( 'NONE', #170, #72, #104, .T. ) ;
#189 = DIRECTION ( 'NONE',  ( 0.0000000000000000000, 0.0000000000000000000, 1.000000000000000000 ) ) ;
#190 = APPLICATION_CONTEXT ( 'automotive_design' ) ;
#191 = FACE_OUTER_BOUND ( 'NONE', #78, .T. ) ;
#192 = ORIENTED_EDGE ( 'NONE', *, *, #62, .T. ) ;
#193 = AXIS2_PLACEMENT_3D ( 'NONE', #94, #42, #166 ) ;
#194 = LINE ( 'NONE', #40, #123 ) ;
#195 =( GEOMETRIC_REPRESENTATION_CONTEXT ( 3 ) GLOBAL_UNCERTAINTY_ASSIGNED_CONTEXT ( ( #217 ) ) GLOBAL_UNIT_ASSIGNED_CONTEXT ( ( #58, #203, #52 ) ) REPRESENTATION_CONTEXT ( 'NONE', 'WORKASPACE' ) );
#196 = DIRECTION ( 'NONE',  ( 1.000000000000000000, 0.0000000000000000000, 0.0000000000000000000 ) ) ;
#197 =( GEOMETRIC_REPRESENTATION_CONTEXT ( 3 ) GLOBAL_UNCERTAINTY_ASSIGNED_CONTEXT ( ( #91 ) ) GLOBAL_UNIT_ASSIGNED_CONTEXT ( ( #83, #117, #137 ) ) REPRESENTATION_CONTEXT ( 'NONE', 'WORKASPACE' ) );
#198 = PRODUCT_DEFINITION_CONTEXT ( 'detailed design', #67, 'design' ) ;
#199 = DIRECTION ( 'NONE',  ( -0.0000000000000000000, 1.000000000000000000, 0.0000000000000000000 ) ) ;
#200 = LINE ( 'NONE', #172, #108 ) ;
#201 = EDGE_CURVE ( 'NONE', #223, #38, #200, .T. ) ;
#202 = LINE ( 'NONE', #103, #240 ) ;
#203 =( NAMED_UNIT ( * ) PLANE_ANGLE_UNIT ( ) SI_UNIT ( $, .RADIAN. ) );
#204 =( REPRESENTATION_RELATIONSHIP ('NONE','NONE', #221, #219 ) REPRESENTATION_RELATIONSHIP_WITH_TRANSFORMATION ( #161 )SHAPE_REPRESENTATION_RELATIONSHIP( ) );
#205 = DIRECTION ( 'NONE',  ( -0.0000000000000000000, 1.000000000000000000, 0.0000000000000000000 ) ) ;
#206 = ORIENTED_EDGE ( 'NONE', *, *, #16, .F. ) ;
#207 = CARTESIAN_POINT ( 'NONE',  ( 10.00000000000000000, 200.0000000000000000, -7.500000000000000000 ) ) ;
#208 = EDGE_CURVE ( 'NONE', #105, #223, #230, .T. ) ;
#209 = DIRECTION ( 'NONE',  ( 0.0000000000000000000, 0.0000000000000000000, 1.000000000000000000 ) ) ;
#210 = CLOSED_SHELL ( 'NONE', ( #212, #135, #227, #70, #41, #85 ) ) ;
#211 =( LENGTH_UNIT ( ) NAMED_UNIT ( * ) SI_UNIT ( .MILLI., .METRE. ) );
#212 = ADVANCED_FACE ( 'NONE', ( #191 ), #136, .T. ) ;
#213 = LINE ( 'NONE', #15, #116 ) ;
#214 = FILL_AREA_STYLE_COLOUR ( '', #238 ) ;
#215 = SHAPE_DEFINITION_REPRESENTATION ( #63, #219 ) ;
#216 = DIRECTION ( 'NONE',  ( 0.0000000000000000000, 0.0000000000000000000, 1.000000000000000000 ) ) ;
#217 = UNCERTAINTY_MEASURE_WITH_UNIT (LENGTH_MEASURE( 1.000000000000000100E-005 ), #58, 'distance_accuracy_value', 'NONE');
#218 =( GEOMETRIC_REPRESENTATION_CONTEXT ( 3 ) GLOBAL_UNCERTAINTY_ASSIGNED_CONTEXT ( ( #32 ) ) GLOBAL_UNIT_ASSIGNED_CONTEXT ( ( #25, #29, #160 ) ) REPRESENTATION_CONTEXT ( 'NONE', 'WORKASPACE' ) );
#219 = SHAPE_REPRESENTATION ( 'rubber foam', ( #87 ), #218 ) ;
#220 =( NAMED_UNIT ( * ) SI_UNIT ( $, .STERADIAN. ) SOLID_ANGLE_UNIT ( ) );
#221 = SHAPE_REPRESENTATION ( 'TM_341W_9', ( #183, #22 ), #197 ) ;
#222 = DIRECTION ( 'NONE',  ( -0.0000000000000000000, -1.000000000000000000, -0.0000000000000000000 ) ) ;
#223 = VERTEX_POINT ( 'NONE', #157 ) ;
#224 = STYLED_ITEM ( 'NONE', ( #93 ), #1 ) ;
#225 = APPLICATION_PROTOCOL_DEFINITION ( 'draft international standard', 'automotive_design', 1998, #190 ) ;
#226 = DIRECTION ( 'NONE',  ( 0.0000000000000000000, -1.000000000000000000, 0.0000000000000000000 ) ) ;
#227 = ADVANCED_FACE ( 'NONE', ( #126 ), #142, .T. ) ;
#228 = ORIENTED_EDGE ( 'NONE', *, *, #132, .T. ) ;
#229 = PRODUCT_CONTEXT ( 'NONE', #190, 'mechanical' ) ;
#230 = LINE ( 'NONE', #47, #79 ) ;
#231 = ORIENTED_EDGE ( 'NONE', *, *, #81, .T. ) ;
#232 = APPLICATION_PROTOCOL_DEFINITION ( 'draft international standard', 'automotive_design', 1998, #90 ) ;
#233 = ADVANCED_BREP_SHAPE_REPRESENTATION ( '', ( #1, #87 ), #218 ) ;
#234 = PRODUCT_DEFINITION ( 'UNKNOWN', '', #51, #198 ) ;
#235 = SURFACE_STYLE_USAGE ( .BOTH. , #181 ) ;
#236 = CARTESIAN_POINT ( 'NONE',  ( 10.00000000000000000, 1000.000000000000000, -7.500000000000000000 ) ) ;
#237 = CARTESIAN_POINT ( 'NONE',  ( 10.00000000000000000, 0.0000000000000000000, 0.0000000000000000000 ) ) ;
#238 = COLOUR_RGB ( '',0.7921568627450980000, 0.8196078431372548800, 0.9333333333333333500 ) ;
#239 = AXIS2_PLACEMENT_3D ( 'NONE', #20, #199, #144 ) ;
#240 = VECTOR ( 'NONE', #11, 1000.000000000000000 ) ;
#241 = NEXT_ASSEMBLY_USAGE_OCCURRENCE ( 'NAUO1', ' ', ' ', #234, #36, $ ) ;
ENDSEC;
END-ISO-10303-21;
