ISO-10303-21;
HEADER;
FILE_DESCRIPTION (( 'STEP AP214' ),
    '1' );
FILE_NAME ('TM_341_6.STEP',
    '2016-05-10T03:05:13',
    ( '' ),
    ( '' ),
    'SwSTEP 2.0',
    'SolidWorks 2015',
    '' );
FILE_SCHEMA (( 'AUTOMOTIVE_DESIGN' ));
ENDSEC;

DATA;
#1 = APPLICATION_CONTEXT ( 'automotive_design' ) ;
#2 = EDGE_LOOP ( 'NONE', ( #74, #41, #113, #99 ) ) ;
#3 = PRESENTATION_STYLE_ASSIGNMENT (( #134 ) ) ;
#4 = ORIENTED_EDGE ( 'NONE', *, *, #60, .T. ) ;
#5 = AXIS2_PLACEMENT_3D ( 'NONE', #232, #210, #86 ) ;
#6 = PRODUCT ( 'TM_341_6', 'TM_341_6', '', ( #111 ) ) ;
#7 = AXIS2_PLACEMENT_3D ( 'NONE', #170, #157, #89 ) ;
#8 = PRODUCT_RELATED_PRODUCT_CATEGORY ( 'part', '', ( #199 ) ) ;
#9 = DIRECTION ( 'NONE',  ( 0.0000000000000000000, 0.0000000000000000000, 1.000000000000000000 ) ) ;
#10 = CLOSED_SHELL ( 'NONE', ( #200, #44, #179, #63, #112, #130 ) ) ;
#11 = DIRECTION ( 'NONE',  ( -0.0000000000000000000, -0.0000000000000000000, -1.000000000000000000 ) ) ;
#12 = UNCERTAINTY_MEASURE_WITH_UNIT (LENGTH_MEASURE( 1.000000000000000100E-005 ), #217, 'distance_accuracy_value', 'NONE');
#13 = CARTESIAN_POINT ( 'NONE',  ( -6.500000000000000000, 200.0000000000000000, 1.000000000000000000 ) ) ;
#14 = CARTESIAN_POINT ( 'NONE',  ( -6.500000000000000000, 0.0000000000000000000, -7.500000000000000000 ) ) ;
#15 = SURFACE_SIDE_STYLE ('',( #133 ) ) ;
#16 = CARTESIAN_POINT ( 'NONE',  ( 0.0000000000000000000, 0.0000000000000000000, 1.000000000000000000 ) ) ;
#17 = ITEM_DEFINED_TRANSFORMATION ( 'NONE', 'NONE', #176,  #30 ) ;
#18 = ORIENTED_EDGE ( 'NONE', *, *, #71, .F. ) ;
#19 = PRODUCT_DEFINITION ( 'UNKNOWN', '', #239, #186 ) ;
#20 = VECTOR ( 'NONE', #166, 1000.000000000000000 ) ;
#21 = APPLICATION_PROTOCOL_DEFINITION ( 'draft international standard', 'automotive_design', 1998, #128 ) ;
#22 =( GEOMETRIC_REPRESENTATION_CONTEXT ( 3 ) GLOBAL_UNCERTAINTY_ASSIGNED_CONTEXT ( ( #12 ) ) GLOBAL_UNIT_ASSIGNED_CONTEXT ( ( #217, #109, #73 ) ) REPRESENTATION_CONTEXT ( 'NONE', 'WORKASPACE' ) );
#23 = SHAPE_DEFINITION_REPRESENTATION ( #131, #209 ) ;
#24 = ORIENTED_EDGE ( 'NONE', *, *, #203, .T. ) ;
#25 = VECTOR ( 'NONE', #101, 1000.000000000000000 ) ;
#26 = VECTOR ( 'NONE', #57, 1000.000000000000000 ) ;
#27 = SURFACE_SIDE_STYLE ('',( #48 ) ) ;
#28 = PRODUCT_DEFINITION_SHAPE ( 'NONE', 'NONE',  #192 ) ;
#29 = CARTESIAN_POINT ( 'NONE',  ( -6.500000000000000000, 200.0000000000000000, 0.0000000000000000000 ) ) ;
#30 = AXIS2_PLACEMENT_3D ( 'NONE', #184, #68, #165 ) ;
#31 = ORIENTED_EDGE ( 'NONE', *, *, #120, .F. ) ;
#32 = DIRECTION ( 'NONE',  ( 0.0000000000000000000, -1.000000000000000000, 0.0000000000000000000 ) ) ;
#33 = LINE ( 'NONE', #135, #69 ) ;
#34 = DIRECTION ( 'NONE',  ( -0.0000000000000000000, 1.000000000000000000, 0.0000000000000000000 ) ) ;
#35 = DIRECTION ( 'NONE',  ( -0.0000000000000000000, -1.000000000000000000, -0.0000000000000000000 ) ) ;
#36 = DIRECTION ( 'NONE',  ( 0.0000000000000000000, -1.000000000000000000, 0.0000000000000000000 ) ) ;
#37 = VECTOR ( 'NONE', #54, 1000.000000000000000 ) ;
#38 = CARTESIAN_POINT ( 'NONE',  ( -6.500000000000000000, 1000.000000000000000, 1.000000000000000000 ) ) ;
#39 =( NAMED_UNIT ( * ) PLANE_ANGLE_UNIT ( ) SI_UNIT ( $, .RADIAN. ) );
#40 = DIRECTION ( 'NONE',  ( 0.0000000000000000000, 0.0000000000000000000, 1.000000000000000000 ) ) ;
#41 = ORIENTED_EDGE ( 'NONE', *, *, #94, .F. ) ;
#42 = UNCERTAINTY_MEASURE_WITH_UNIT (LENGTH_MEASURE( 1.000000000000000100E-005 ), #228, 'distance_accuracy_value', 'NONE');
#43 = VECTOR ( 'NONE', #36, 1000.000000000000000 ) ;
#44 = ADVANCED_FACE ( 'NONE', ( #93 ), #91, .T. ) ;
#45 = ORIENTED_EDGE ( 'NONE', *, *, #94, .T. ) ;
#46 = EDGE_CURVE ( 'NONE', #108, #182, #160, .T. ) ;
#47 = PRESENTATION_STYLE_ASSIGNMENT (( #122 ) ) ;
#48 = SURFACE_STYLE_FILL_AREA ( #147 ) ;
#49 = FILL_AREA_STYLE_COLOUR ( '', #96 ) ;
#50 = DIRECTION ( 'NONE',  ( 0.0000000000000000000, 0.0000000000000000000, -1.000000000000000000 ) ) ;
#51 = CARTESIAN_POINT ( 'NONE',  ( 0.0000000000000000000, 0.0000000000000000000, -7.500000000000000000 ) ) ;
#52 = ORIENTED_EDGE ( 'NONE', *, *, #196, .T. ) ;
#53 = CARTESIAN_POINT ( 'NONE',  ( 6.500000000000000000, 200.0000000000000000, -7.500000000000000000 ) ) ;
#54 = DIRECTION ( 'NONE',  ( -0.0000000000000000000, -0.0000000000000000000, 1.000000000000000000 ) ) ;
#55 = DIRECTION ( 'NONE',  ( 1.000000000000000000, 0.0000000000000000000, 0.0000000000000000000 ) ) ;
#56 = EDGE_LOOP ( 'NONE', ( #240, #183, #141, #24 ) ) ;
#57 = DIRECTION ( 'NONE',  ( 0.0000000000000000000, -1.000000000000000000, 0.0000000000000000000 ) ) ;
#58 = SHAPE_REPRESENTATION ( 'TM_341_6', ( #172, #176 ), #191 ) ;
#59 = AXIS2_PLACEMENT_3D ( 'NONE', #211, #102, #50 ) ;
#60 = EDGE_CURVE ( 'NONE', #114, #108, #117, .T. ) ;
#61 = APPLICATION_PROTOCOL_DEFINITION ( 'draft international standard', 'automotive_design', 1998, #1 ) ;
#62 = DIRECTION ( 'NONE',  ( 1.000000000000000000, 0.0000000000000000000, 0.0000000000000000000 ) ) ;
#63 = ADVANCED_FACE ( 'NONE', ( #79 ), #140, .T. ) ;
#64 = CONTEXT_DEPENDENT_SHAPE_REPRESENTATION ( #78, #66 ) ;
#65 = VERTEX_POINT ( 'NONE', #76 ) ;
#66 = PRODUCT_DEFINITION_SHAPE ( 'NONE', 'NONE',  #241 ) ;
#67 = ORIENTED_EDGE ( 'NONE', *, *, #60, .F. ) ;
#68 = DIRECTION ( 'NONE',  ( 0.0000000000000000000, 0.0000000000000000000, 1.000000000000000000 ) ) ;
#69 = VECTOR ( 'NONE', #32, 1000.000000000000000 ) ;
#70 = CARTESIAN_POINT ( 'NONE',  ( 0.0000000000000000000, 200.0000000000000000, -7.500000000000000000 ) ) ;
#71 = EDGE_CURVE ( 'NONE', #182, #65, #225, .T. ) ;
#72 = CARTESIAN_POINT ( 'NONE',  ( 6.500000000000000000, 0.0000000000000000000, -7.500000000000000000 ) ) ;
#73 =( NAMED_UNIT ( * ) SI_UNIT ( $, .STERADIAN. ) SOLID_ANGLE_UNIT ( ) );
#74 = ORIENTED_EDGE ( 'NONE', *, *, #203, .F. ) ;
#75 = CARTESIAN_POINT ( 'NONE',  ( 0.0000000000000000000, 0.0000000000000000000, 0.0000000000000000000 ) ) ;
#76 = CARTESIAN_POINT ( 'NONE',  ( -6.500000000000000000, 0.0000000000000000000, 1.000000000000000000 ) ) ;
#77 = FACE_OUTER_BOUND ( 'NONE', #81, .T. ) ;
#78 =( REPRESENTATION_RELATIONSHIP ('NONE','NONE', #58, #209 ) REPRESENTATION_RELATIONSHIP_WITH_TRANSFORMATION ( #17 )SHAPE_REPRESENTATION_RELATIONSHIP( ) );
#79 = FACE_OUTER_BOUND ( 'NONE', #2, .T. ) ;
#80 = UNCERTAINTY_MEASURE_WITH_UNIT (LENGTH_MEASURE( 1.000000000000000100E-005 ), #237, 'distance_accuracy_value', 'NONE');
#81 = EDGE_LOOP ( 'NONE', ( #31, #201, #190, #4 ) ) ;
#82 = SHAPE_REPRESENTATION_RELATIONSHIP ( 'NONE' , 'NONE' ,  #209, #233 ) ;
#83 = EDGE_CURVE ( 'NONE', #114, #145, #125, .T. ) ;
#84 = VECTOR ( 'NONE', #215, 1000.000000000000000 ) ;
#85 = EDGE_LOOP ( 'NONE', ( #18, #231, #161, #45 ) ) ;
#86 = DIRECTION ( 'NONE',  ( -1.000000000000000000, 0.0000000000000000000, 0.0000000000000000000 ) ) ;
#87 = DIRECTION ( 'NONE',  ( 1.000000000000000000, -0.0000000000000000000, -0.0000000000000000000 ) ) ;
#88 = CIRCLE ( 'NONE', #188, 6.500000000000000000 ) ;
#89 = DIRECTION ( 'NONE',  ( 0.0000000000000000000, 0.0000000000000000000, -1.000000000000000000 ) ) ;
#90 = CARTESIAN_POINT ( 'NONE',  ( 0.0000000000000000000, 0.0000000000000000000, 0.0000000000000000000 ) ) ;
#91 = PLANE ( 'NONE',  #7 ) ;
#92 = DIRECTION ( 'NONE',  ( 1.000000000000000000, 0.0000000000000000000, 0.0000000000000000000 ) ) ;
#93 = FACE_OUTER_BOUND ( 'NONE', #180, .T. ) ;
#94 = EDGE_CURVE ( 'NONE', #226, #65, #164, .T. ) ;
#95 = APPLICATION_CONTEXT ( 'automotive_design' ) ;
#96 = COLOUR_RGB ( '',0.7921568627450980000, 0.8196078431372548800, 0.9333333333333333500 ) ;
#97 = AXIS2_PLACEMENT_3D ( 'NONE', #16, #124, #9 ) ;
#98 = VERTEX_POINT ( 'NONE', #193 ) ;
#99 = ORIENTED_EDGE ( 'NONE', *, *, #104, .T. ) ;
#100 =( NAMED_UNIT ( * ) PLANE_ANGLE_UNIT ( ) SI_UNIT ( $, .RADIAN. ) );
#101 = DIRECTION ( 'NONE',  ( -0.0000000000000000000, -0.0000000000000000000, -1.000000000000000000 ) ) ;
#102 = DIRECTION ( 'NONE',  ( 0.0000000000000000000, -1.000000000000000000, 0.0000000000000000000 ) ) ;
#103 =( NAMED_UNIT ( * ) PLANE_ANGLE_UNIT ( ) SI_UNIT ( $, .RADIAN. ) );
#104 = EDGE_CURVE ( 'NONE', #98, #154, #169, .T. ) ;
#105 = DIRECTION ( 'NONE',  ( 1.000000000000000000, 0.0000000000000000000, 0.0000000000000000000 ) ) ;
#106 = CARTESIAN_POINT ( 'NONE',  ( -6.500000000000000000, 1000.000000000000000, -7.500000000000000000 ) ) ;
#107 = SHAPE_DEFINITION_REPRESENTATION ( #28, #58 ) ;
#108 = VERTEX_POINT ( 'NONE', #72 ) ;
#109 =( NAMED_UNIT ( * ) PLANE_ANGLE_UNIT ( ) SI_UNIT ( $, .RADIAN. ) );
#110 = LINE ( 'NONE', #51, #20 ) ;
#111 = PRODUCT_CONTEXT ( 'NONE', #128, 'mechanical' ) ;
#112 = ADVANCED_FACE ( 'NONE', ( #216 ), #123, .T. ) ;
#113 = ORIENTED_EDGE ( 'NONE', *, *, #235, .T. ) ;
#114 = VERTEX_POINT ( 'NONE', #53 ) ;
#115 = VECTOR ( 'NONE', #87, 1000.000000000000000 ) ;
#116 = EDGE_CURVE ( 'NONE', #145, #226, #88, .T. ) ;
#117 = LINE ( 'NONE', #126, #26 ) ;
#118 = MANIFOLD_SOLID_BREP ( '²ÝÎß°Ä1', #10 ) ;
#119 = PLANE ( 'NONE',  #5 ) ;
#120 = EDGE_CURVE ( 'NONE', #154, #108, #110, .T. ) ;
#121 = LINE ( 'NONE', #29, #212 ) ;
#122 = SURFACE_STYLE_USAGE ( .BOTH. , #15 ) ;
#123 = PLANE ( 'NONE',  #174 ) ;
#124 = DIRECTION ( 'NONE',  ( -0.0000000000000000000, -1.000000000000000000, -0.0000000000000000000 ) ) ;
#125 = LINE ( 'NONE', #138, #37 ) ;
#126 = CARTESIAN_POINT ( 'NONE',  ( 6.500000000000000000, 1000.000000000000000, -7.500000000000000000 ) ) ;
#127 = ORIENTED_EDGE ( 'NONE', *, *, #83, .T. ) ;
#128 = APPLICATION_CONTEXT ( 'automotive_design' ) ;
#129 = COLOUR_RGB ( '',0.7921568627450980000, 0.8196078431372548800, 0.9333333333333333500 ) ;
#130 = ADVANCED_FACE ( 'NONE', ( #227 ), #151, .F. ) ;
#131 = PRODUCT_DEFINITION_SHAPE ( 'NONE', 'NONE',  #19 ) ;
#132 = EDGE_LOOP ( 'NONE', ( #173, #144, #195, #146 ) ) ;
#133 = SURFACE_STYLE_FILL_AREA ( #167 ) ;
#134 = SURFACE_STYLE_USAGE ( .BOTH. , #27 ) ;
#135 = CARTESIAN_POINT ( 'NONE',  ( 6.500000000000000000, 1000.000000000000000, 1.000000000000000000 ) ) ;
#136 = DIRECTION ( 'NONE',  ( 1.000000000000000000, 0.0000000000000000000, 0.0000000000000000000 ) ) ;
#137 = DIRECTION ( 'NONE',  ( 0.0000000000000000000, 0.0000000000000000000, 1.000000000000000000 ) ) ;
#138 = CARTESIAN_POINT ( 'NONE',  ( 6.500000000000000000, 200.0000000000000000, 0.0000000000000000000 ) ) ;
#139 = AXIS2_PLACEMENT_3D ( 'NONE', #90, #40, #92 ) ;
#140 = PLANE ( 'NONE',  #222 ) ;
#141 = ORIENTED_EDGE ( 'NONE', *, *, #71, .T. ) ;
#142 = MECHANICAL_DESIGN_GEOMETRIC_PRESENTATION_REPRESENTATION (  '', ( #162 ), #208 ) ;
#143 = APPLICATION_CONTEXT ( 'automotive_design' ) ;
#144 = ORIENTED_EDGE ( 'NONE', *, *, #235, .F. ) ;
#145 = VERTEX_POINT ( 'NONE', #234 ) ;
#146 = ORIENTED_EDGE ( 'NONE', *, *, #83, .F. ) ;
#147 = FILL_AREA_STYLE ('',( #49 ) ) ;
#148 = CARTESIAN_POINT ( 'NONE',  ( 0.0000000000000000000, 0.0000000000000000000, 0.0000000000000000000 ) ) ;
#149 = CARTESIAN_POINT ( 'NONE',  ( 6.500000000000000000, 0.0000000000000000000, 1.000000000000000000 ) ) ;
#150 = PRESENTATION_LAYER_ASSIGNMENT (  '', '', ( #162 ) ) ;
#151 = PLANE ( 'NONE',  #202 ) ;
#152 = CARTESIAN_POINT ( 'NONE',  ( 0.0000000000000000000, 200.0000000000000000, 1.000000000000000000 ) ) ;
#153 = DIRECTION ( 'NONE',  ( 0.0000000000000000000, 0.0000000000000000000, 1.000000000000000000 ) ) ;
#154 = VERTEX_POINT ( 'NONE', #14 ) ;
#155 = PRODUCT_DEFINITION_CONTEXT ( 'detailed design', #1, 'design' ) ;
#156 = EDGE_CURVE ( 'NONE', #98, #114, #178, .T. ) ;
#157 = DIRECTION ( 'NONE',  ( 1.000000000000000000, 0.0000000000000000000, 0.0000000000000000000 ) ) ;
#158 = LINE ( 'NONE', #187, #25 ) ;
#159 = DIRECTION ( 'NONE',  ( 0.0000000000000000000, 0.0000000000000000000, 1.000000000000000000 ) ) ;
#160 = LINE ( 'NONE', #236, #206 ) ;
#161 = ORIENTED_EDGE ( 'NONE', *, *, #116, .T. ) ;
#162 = STYLED_ITEM ( 'NONE', ( #47 ), #118 ) ;
#163 = PRESENTATION_LAYER_ASSIGNMENT (  '', '', ( #229 ) ) ;
#164 = LINE ( 'NONE', #38, #84 ) ;
#165 = DIRECTION ( 'NONE',  ( 1.000000000000000000, 0.0000000000000000000, 0.0000000000000000000 ) ) ;
#166 = DIRECTION ( 'NONE',  ( 1.000000000000000000, -0.0000000000000000000, -0.0000000000000000000 ) ) ;
#167 = FILL_AREA_STYLE ('',( #214 ) ) ;
#168 = CARTESIAN_POINT ( 'NONE',  ( 0.0000000000000000000, 200.0000000000000000, 0.0000000000000000000 ) ) ;
#169 = LINE ( 'NONE', #106, #43 ) ;
#170 = CARTESIAN_POINT ( 'NONE',  ( 6.500000000000000000, 1000.000000000000000, -7.500000000000000000 ) ) ;
#171 = DIRECTION ( 'NONE',  ( 0.0000000000000000000, 0.0000000000000000000, 1.000000000000000000 ) ) ;
#172 = AXIS2_PLACEMENT_3D ( 'NONE', #148, #159, #62 ) ;
#173 = ORIENTED_EDGE ( 'NONE', *, *, #156, .F. ) ;
#174 = AXIS2_PLACEMENT_3D ( 'NONE', #168, #238, #105 ) ;
#175 = APPLICATION_PROTOCOL_DEFINITION ( 'draft international standard', 'automotive_design', 1998, #95 ) ;
#176 = AXIS2_PLACEMENT_3D ( 'NONE', #75, #171, #55 ) ;
#177 =( NAMED_UNIT ( * ) SI_UNIT ( $, .STERADIAN. ) SOLID_ANGLE_UNIT ( ) );
#178 = LINE ( 'NONE', #70, #115 ) ;
#179 = ADVANCED_FACE ( 'NONE', ( #204 ), #221, .T. ) ;
#180 = EDGE_LOOP ( 'NONE', ( #230, #67, #127, #52 ) ) ;
#181 = UNCERTAINTY_MEASURE_WITH_UNIT (LENGTH_MEASURE( 1.000000000000000100E-005 ), #220, 'distance_accuracy_value', 'NONE');
#182 = VERTEX_POINT ( 'NONE', #149 ) ;
#183 = ORIENTED_EDGE ( 'NONE', *, *, #46, .T. ) ;
#184 = CARTESIAN_POINT ( 'NONE',  ( 0.0000000000000000000, 0.0000000000000000000, 0.0000000000000000000 ) ) ;
#185 =( GEOMETRIC_REPRESENTATION_CONTEXT ( 3 ) GLOBAL_UNCERTAINTY_ASSIGNED_CONTEXT ( ( #42 ) ) GLOBAL_UNIT_ASSIGNED_CONTEXT ( ( #228, #100, #207 ) ) REPRESENTATION_CONTEXT ( 'NONE', 'WORKASPACE' ) );
#186 = PRODUCT_DEFINITION_CONTEXT ( 'detailed design', #95, 'design' ) ;
#187 = CARTESIAN_POINT ( 'NONE',  ( -6.500000000000000000, 0.0000000000000000000, 0.0000000000000000000 ) ) ;
#188 = AXIS2_PLACEMENT_3D ( 'NONE', #152, #35, #137 ) ;
#189 = CARTESIAN_POINT ( 'NONE',  ( 0.0000000000000000000, 0.0000000000000000000, 0.0000000000000000000 ) ) ;
#190 = ORIENTED_EDGE ( 'NONE', *, *, #156, .T. ) ;
#191 =( GEOMETRIC_REPRESENTATION_CONTEXT ( 3 ) GLOBAL_UNCERTAINTY_ASSIGNED_CONTEXT ( ( #181 ) ) GLOBAL_UNIT_ASSIGNED_CONTEXT ( ( #220, #39, #177 ) ) REPRESENTATION_CONTEXT ( 'NONE', 'WORKASPACE' ) );
#192 = PRODUCT_DEFINITION ( 'UNKNOWN', '', #205, #155 ) ;
#193 = CARTESIAN_POINT ( 'NONE',  ( -6.500000000000000000, 200.0000000000000000, -7.500000000000000000 ) ) ;
#194 = DIRECTION ( 'NONE',  ( -0.0000000000000000000, -0.0000000000000000000, 1.000000000000000000 ) ) ;
#195 = ORIENTED_EDGE ( 'NONE', *, *, #116, .F. ) ;
#196 = EDGE_CURVE ( 'NONE', #145, #182, #33, .T. ) ;
#197 = CARTESIAN_POINT ( 'NONE',  ( -6.500000000000000000, 1000.000000000000000, 1.000000000000000000 ) ) ;
#198 = PRODUCT_CONTEXT ( 'NONE', #143, 'mechanical' ) ;
#199 = PRODUCT ( 'rubber foam', 'rubber foam', '', ( #198 ) ) ;
#200 = ADVANCED_FACE ( 'NONE', ( #77 ), #119, .T. ) ;
#201 = ORIENTED_EDGE ( 'NONE', *, *, #104, .F. ) ;
#202 = AXIS2_PLACEMENT_3D ( 'NONE', #189, #34, #136 ) ;
#203 = EDGE_CURVE ( 'NONE', #65, #154, #158, .T. ) ;
#204 = FACE_OUTER_BOUND ( 'NONE', #85, .T. ) ;
#205 = PRODUCT_DEFINITION_FORMATION_WITH_SPECIFIED_SOURCE ( 'ANY', '', #6, .NOT_KNOWN. ) ;
#206 = VECTOR ( 'NONE', #194, 1000.000000000000000 ) ;
#207 =( NAMED_UNIT ( * ) SI_UNIT ( $, .STERADIAN. ) SOLID_ANGLE_UNIT ( ) );
#208 =( GEOMETRIC_REPRESENTATION_CONTEXT ( 3 ) GLOBAL_UNCERTAINTY_ASSIGNED_CONTEXT ( ( #80 ) ) GLOBAL_UNIT_ASSIGNED_CONTEXT ( ( #237, #103, #213 ) ) REPRESENTATION_CONTEXT ( 'NONE', 'WORKASPACE' ) );
#209 = SHAPE_REPRESENTATION ( 'rubber foam', ( #30 ), #185 ) ;
#210 = DIRECTION ( 'NONE',  ( 0.0000000000000000000, 0.0000000000000000000, -1.000000000000000000 ) ) ;
#211 = CARTESIAN_POINT ( 'NONE',  ( 0.0000000000000000000, 1000.000000000000000, 1.000000000000000000 ) ) ;
#212 = VECTOR ( 'NONE', #11, 1000.000000000000000 ) ;
#213 =( NAMED_UNIT ( * ) SI_UNIT ( $, .STERADIAN. ) SOLID_ANGLE_UNIT ( ) );
#214 = FILL_AREA_STYLE_COLOUR ( '', #129 ) ;
#215 = DIRECTION ( 'NONE',  ( 0.0000000000000000000, -1.000000000000000000, 0.0000000000000000000 ) ) ;
#216 = FACE_OUTER_BOUND ( 'NONE', #132, .T. ) ;
#217 =( LENGTH_UNIT ( ) NAMED_UNIT ( * ) SI_UNIT ( .MILLI., .METRE. ) );
#218 = DIRECTION ( 'NONE',  ( -1.000000000000000000, 0.0000000000000000000, 0.0000000000000000000 ) ) ;
#219 = MECHANICAL_DESIGN_GEOMETRIC_PRESENTATION_REPRESENTATION (  '', ( #229 ), #22 ) ;
#220 =( LENGTH_UNIT ( ) NAMED_UNIT ( * ) SI_UNIT ( .MILLI., .METRE. ) );
#221 = CYLINDRICAL_SURFACE ( 'NONE', #59, 6.500000000000000000 ) ;
#222 = AXIS2_PLACEMENT_3D ( 'NONE', #197, #218, #153 ) ;
#223 = APPLICATION_PROTOCOL_DEFINITION ( 'draft international standard', 'automotive_design', 1998, #143 ) ;
#224 = PRODUCT_RELATED_PRODUCT_CATEGORY ( 'part', '', ( #6 ) ) ;
#225 = CIRCLE ( 'NONE', #97, 6.500000000000000000 ) ;
#226 = VERTEX_POINT ( 'NONE', #13 ) ;
#227 = FACE_OUTER_BOUND ( 'NONE', #56, .T. ) ;
#228 =( LENGTH_UNIT ( ) NAMED_UNIT ( * ) SI_UNIT ( .MILLI., .METRE. ) );
#229 = STYLED_ITEM ( 'NONE', ( #3 ), #233 ) ;
#230 = ORIENTED_EDGE ( 'NONE', *, *, #46, .F. ) ;
#231 = ORIENTED_EDGE ( 'NONE', *, *, #196, .F. ) ;
#232 = CARTESIAN_POINT ( 'NONE',  ( -6.500000000000000000, 1000.000000000000000, -7.500000000000000000 ) ) ;
#233 = ADVANCED_BREP_SHAPE_REPRESENTATION ( '', ( #118, #30 ), #185 ) ;
#234 = CARTESIAN_POINT ( 'NONE',  ( 6.500000000000000000, 200.0000000000000000, 1.000000000000000000 ) ) ;
#235 = EDGE_CURVE ( 'NONE', #226, #98, #121, .T. ) ;
#236 = CARTESIAN_POINT ( 'NONE',  ( 6.500000000000000000, 0.0000000000000000000, 0.0000000000000000000 ) ) ;
#237 =( LENGTH_UNIT ( ) NAMED_UNIT ( * ) SI_UNIT ( .MILLI., .METRE. ) );
#238 = DIRECTION ( 'NONE',  ( -0.0000000000000000000, 1.000000000000000000, 0.0000000000000000000 ) ) ;
#239 = PRODUCT_DEFINITION_FORMATION_WITH_SPECIFIED_SOURCE ( 'ANY', '', #199, .NOT_KNOWN. ) ;
#240 = ORIENTED_EDGE ( 'NONE', *, *, #120, .T. ) ;
#241 = NEXT_ASSEMBLY_USAGE_OCCURRENCE ( 'NAUO1', ' ', ' ', #192, #19, $ ) ;
ENDSEC;
END-ISO-10303-21;
