  0
SECTION
  2
HEADER
  9
$ACADVER
  1
AC1015
  9
$DWGCODEPAGE
  3
ANSI_932
  9
$LTSCALE
 40
20.0
  9
$FILLMODE
 70
     1
  9
$CLAYER
  8
0
  9
$PDMODE
 70
     0
  9
$SPLFRAME
 70
     0
  9
$SPLINETYPE
 70
     6
  9
$SPLINESEGS
 70
     8
  9
$DIMASZ
 40
2.000000
  9
$DIMEXE
 40
1.500000
  9
$DIMEXO
 40
0.800000
  9
$DIMTAD
 70
     1
  9
$DIMTIH
 70
     0
  9
$DIMTOH
 70
     0
  9
$DIMTVP
 40
0.500000
  9
$DIMTXT
 40
3.100000
  9
$EXTMIN
 10
0.000000
 20
0.000000
 30
0.000000
  9
$EXTMAX
 10
297.000000
 20
420.000000
 30
0.000000
  9
$MEASUREMENT
 70
  1
  9
$LIMMIN
 10
0.000000
 20
0.000000
  9
$LIMMAX
 10
297.000000
 20
420.000000
  9
$HANDSEED
  5
188
  9
$LWDISPLAY
290
     0
  9
$DIMBLK
  1
_OPEN
  9
$DIMDEC
 70
     2
  9
$DIMADEC
 70
     2
  9
$DIMAUNIT
 70
     0
  9
$DIMZIN
 70
     8
  9
$DIMAZIN
 70
     2
  9
$DIMTOFL
 70
     1
  0
ENDSEC
  0
SECTION
  2
CLASSES
  0
ENDSEC
  0
SECTION
  2
TABLES
  0
TABLE
  2
VPORT
  5
151
100
AcDbSymbolTable
 70
     1
  0
VPORT
  5
152
100
AcDbSymbolTableRecord
100
AcDbViewportTableRecord
  2
*ACTIVE
 70
     0
 12
246.875151
 22
191.000004
 40
469.431206
 41
1.009201
  0
ENDTAB
  0
TABLE
  2
LTYPE
  5
153
100
AcDbSymbolTable
 70
     3
  0
LTYPE
  5
154
100
AcDbSymbolTableRecord
100
AcDbLinetypeTableRecord
  2
BYBLOCK
 70
     0
  3

 72
    65
 73
     0
 40
0.0
  0
LTYPE
  5
155
100
AcDbSymbolTableRecord
100
AcDbLinetypeTableRecord
  2
BYLAYER
 70
     0
  3

 72
    65
 73
     0
 40
0.0
  0
LTYPE
  5
156
100
AcDbSymbolTableRecord
100
AcDbLinetypeTableRecord
  2
CONTINUOUS
 70
     0
  3
Solid line (NEC CAE2D for Win R15.2 : 2020.05.26)
 72
    65
 73
     0
 40
0.0
  0
LTYPE
  5
157
100
AcDbSymbolTableRecord
100
AcDbLinetypeTableRecord
  2
CENTER
 70
     0
  3
____ _ ____ _ ____ _ ____ _ ____ _ ____
 72
    65
 73
     4
 40
2.0
 49
1.25
 74
     0
 49
-0.25
 74
     0
 49
0.25
 74
     0
 49
-0.25
 74
     0
  0
LTYPE
  5
158
100
AcDbSymbolTableRecord
100
AcDbLinetypeTableRecord
  2
PHANTOM
 70
     0
  3
______  __  __  ______  __  __  ______ 
 72
    65
 73
     6
 40
2.5
 49
1.25
 74
     0
 49
-0.25
 74
     0
 49
0.25
 74
     0
 49
-0.25
 74
     0
 49
0.25
 74
     0
 49
-0.25
 74
     0
  0
ENDTAB
  0
TABLE
  2
LAYER
  5
159
100
AcDbSymbolTable
 70
    16
  0
LAYER
  5
15A
100
AcDbSymbolTableRecord
100
AcDbLayerTableRecord
  2
0
 70
     0
 62
     7
  6
CONTINUOUS
370
    -3
390

  0
LAYER
  5
15B
100
AcDbSymbolTableRecord
100
AcDbLayerTableRecord
  2
A0
 70
     0
 62
     9
  6
CONTINUOUS
370
    -3
390

  0
LAYER
  5
15C
100
AcDbSymbolTableRecord
100
AcDbLayerTableRecord
  2
A2
 70
     0
 62
     9
  6
CONTINUOUS
370
    -3
390

  0
LAYER
  5
15D
100
AcDbSymbolTableRecord
100
AcDbLayerTableRecord
  2
A3
 70
     0
 62
    12
  6
CONTINUOUS
370
    -3
390

  0
LAYER
  5
15E
100
AcDbSymbolTableRecord
100
AcDbLayerTableRecord
  2
A4
 70
     0
 62
     9
  6
CONTINUOUS
370
    -3
390

  0
LAYER
  5
15F
100
AcDbSymbolTableRecord
100
AcDbLayerTableRecord
  2
A5
 70
     0
 62
     8
  6
CONTINUOUS
370
    -3
390

  0
LAYER
  5
160
100
AcDbSymbolTableRecord
100
AcDbLayerTableRecord
  2
A6
 70
     0
 62
    12
  6
CONTINUOUS
370
    -3
390

  0
LAYER
  5
161
100
AcDbSymbolTableRecord
100
AcDbLayerTableRecord
  2
A7
 70
     0
 62
    12
  6
CONTINUOUS
370
    -3
390

  0
LAYER
  5
162
100
AcDbSymbolTableRecord
100
AcDbLayerTableRecord
  2
A8
 70
     0
 62
    10
  6
CONTINUOUS
370
    -3
390

  0
LAYER
  5
163
100
AcDbSymbolTableRecord
100
AcDbLayerTableRecord
  2
A9
 70
     0
 62
     9
  6
CONTINUOUS
370
    -3
390

  0
LAYER
  5
164
100
AcDbSymbolTableRecord
100
AcDbLayerTableRecord
  2
A10
 70
     0
 62
     6
  6
CONTINUOUS
370
    -3
390

  0
LAYER
  5
165
100
AcDbSymbolTableRecord
100
AcDbLayerTableRecord
  2
A20
 70
     0
 62
     1
  6
CONTINUOUS
370
    -3
390

  0
LAYER
  5
166
100
AcDbSymbolTableRecord
100
AcDbLayerTableRecord
  2
A30
 70
     0
 62
     1
  6
CONTINUOUS
370
    -3
390

  0
LAYER
  5
167
100
AcDbSymbolTableRecord
100
AcDbLayerTableRecord
  2
A40
 70
     0
 62
     9
  6
CONTINUOUS
370
    -3
390

  0
LAYER
  5
168
100
AcDbSymbolTableRecord
100
AcDbLayerTableRecord
  2
A50
 70
     0
 62
    12
  6
CONTINUOUS
370
    -3
390

  0
LAYER
  5
169
100
AcDbSymbolTableRecord
100
AcDbLayerTableRecord
  2
A1023
 70
     0
 62
    16
  6
CONTINUOUS
370
    -3
390

  0
ENDTAB
  0
TABLE
  2
STYLE
  5
16A
100
AcDbSymbolTable
 70
     4
  0
STYLE
  5
16B
100
AcDbSymbolTableRecord
100
AcDbTextStyleTableRecord
  2
STANDARD
 70
    64
 40
0.0
 41
1.0
 50
0.0
 71
     0
 42
3.000000000000000
  3
TXT
  4

  0
STYLE
  5
16C
100
AcDbSymbolTableRecord
100
AcDbTextStyleTableRecord
  2
ANKTATE
 70
    68
 40
0.0
 41
1.0
 50
0.0
 71
     0
 42
3.000000000000000
  3
TXT
  4

  0
STYLE
  5
16D
100
AcDbSymbolTableRecord
100
AcDbTextStyleTableRecord
  2
KNJYOKO
 70
    64
 40
0.0
 41
1.0
 50
0.0
 71
     0
 42
3.000000000000000
  3
TXT
  4
BIGFONT
  0
STYLE
  5
16E
100
AcDbSymbolTableRecord
100
AcDbTextStyleTableRecord
  2
KNJTATE
 70
    68
 40
0.0
 41
1.0
 50
0.0
 71
     0
 42
3.000000000000000
  3
TXT
  4
BIGFONT
  0
ENDTAB
  0
TABLE
  2
VIEW
  5
16F
100
AcDbSymbolTable
 70
     0
  0
ENDTAB
  0
TABLE
  2
UCS
  5
170
100
AcDbSymbolTable
 70
     0
  0
ENDTAB
  0
TABLE
  2
APPID
  5
171
100
AcDbSymbolTable
 70
     1
  0
APPID
  5
172
100
AcDbSymbolTableRecord
100
AcDbRegAppTableRecord
  2
ACAD
 70
     0
  0
ENDTAB
  0
TABLE
  2
DIMSTYLE
  5
173
100
AcDbSymbolTable
 70
     2
100
AcDbDimStyleTable
  0
DIMSTYLE
105
174
100
AcDbSymbolTableRecord
100
AcDbDimStyleTableRecord
  2
STANDARD
 70
     0
 41
2.000000
 44
1.500000
 42
0.800000
145
0.661290
140
3.100000
144
1.000000
146
0.645161
340
16B
  0
DIMSTYLE
105
175
100
AcDbSymbolTableRecord
100
AcDbDimStyleTableRecord
  2
A001
 70
     0
 41
2.000000
 44
1.500000
 42
0.800000
145
0.661290
140
3.100000
144
1.000000
146
0.645161
 77
     1
 73
     0
 74
     0
271
     2
179
     2
275
     0
 78
     8
 79
     2
172
     1
340
16B
  0
ENDTAB
  0
TABLE
  2
BLOCK_RECORD
  5
176
100
AcDbSymbolTable
 70
    12
  0
BLOCK_RECORD
  5
177
100
AcDbSymbolTableRecord
100
AcDbBlockTableRecord
  2
*MODEL_SPACE
  0
BLOCK_RECORD
  5
178
100
AcDbSymbolTableRecord
100
AcDbBlockTableRecord
  2
*PAPER_SPACE
  0
BLOCK_RECORD
  5
179
100
AcDbSymbolTableRecord
100
AcDbBlockTableRecord
  2
*PAPER_SPACE0
  0
BLOCK_RECORD
  5
1
100
AcDbSymbolTableRecord
100
AcDbBlockTableRecord
  2
_NONE
  0
BLOCK_RECORD
  5
4
100
AcDbSymbolTableRecord
100
AcDbBlockTableRecord
  2
_CLOSED
  0
BLOCK_RECORD
  5
B
100
AcDbSymbolTableRecord
100
AcDbBlockTableRecord
  2
_DOT
  0
BLOCK_RECORD
  5
13
100
AcDbSymbolTableRecord
100
AcDbBlockTableRecord
  2
_OPEN
  0
BLOCK_RECORD
  5
19
100
AcDbSymbolTableRecord
100
AcDbBlockTableRecord
  2
_ORIGIN
  0
BLOCK_RECORD
  5
1E
100
AcDbSymbolTableRecord
100
AcDbBlockTableRecord
  2
_OPEN30
  0
BLOCK_RECORD
  5
24
100
AcDbSymbolTableRecord
100
AcDbBlockTableRecord
  2
_BOXFILLED
  0
BLOCK_RECORD
  5
29
100
AcDbSymbolTableRecord
100
AcDbBlockTableRecord
  2
_BOXBLANK
  0
BLOCK_RECORD
  5
31
100
AcDbSymbolTableRecord
100
AcDbBlockTableRecord
  2
_OBLIQUE
  0
BLOCK_RECORD
  5
35
100
AcDbSymbolTableRecord
100
AcDbBlockTableRecord
  2
_OPEN90
  0
BLOCK_RECORD
  5
3B
100
AcDbSymbolTableRecord
100
AcDbBlockTableRecord
  2
_CLOSEDBLANK
  0
BLOCK_RECORD
  5
41
100
AcDbSymbolTableRecord
100
AcDbBlockTableRecord
  2
_DOTBLANK
  0
ENDTAB
  0
ENDSEC
  0
SECTION
  2
BLOCKS
  0
BLOCK
  5
17A
100
AcDbEntity
  8
0
100
AcDbBlockBegin
  2
*MODEL_SPACE
 70
     0
 10
0.0
 20
0.0
 30
0.0
  3
*MODEL_SPACE
  1

  0
ENDBLK
  5
17B
100
AcDbEntity
  8
0
100
AcDbBlockEnd
  0
BLOCK
  5
17C
100
AcDbEntity
  8
0
100
AcDbBlockBegin
  2
*PAPER_SPACE
 70
     0
 10
0.0
 20
0.0
 30
0.0
  3
*PAPER_SPACE
  1

  0
ENDBLK
  5
17D
100
AcDbEntity
  8
0
100
AcDbBlockEnd
  0
BLOCK
  5
17E
100
AcDbEntity
  8
0
100
AcDbBlockBegin
  2
*PAPER_SPACE0
 70
     0
 10
0.0
 20
0.0
 30
0.0
  3
*PAPER_SPACE0
  1

  0
ENDBLK
  5
17F
100
AcDbEntity
  8
0
100
AcDbBlockEnd
  0
BLOCK
  5
2
330
1
100
AcDbEntity
  8
0
100
AcDbBlockBegin
  2
_NONE
 70
     0
 10
0.0
 20
0.0
 30
0.0
  3
_NONE
  1

  0
ENDBLK
  5
3
330
1
100
AcDbEntity
  8
0
100
AcDbBlockEnd
  0
BLOCK
  5
5
330
4
100
AcDbEntity
  8
0
100
AcDbBlockBegin
  2
_CLOSED
 70
     0
 10
0.0
 20
0.0
 30
0.0
  3
_CLOSED
  1

  0
LINE
  5
6
330
4
100
AcDbEntity
  8
0
  6
BYBLOCK
 62
     0
370
    -2
100
AcDbLine
 10
-1.0
 20
0.166667
 30
0.0
 11
0.0
 21
0.0
 31
0.0
  0
LINE
  5
7
330
4
100
AcDbEntity
  8
0
  6
BYBLOCK
 62
     0
370
    -2
100
AcDbLine
 10
0.0
 20
0.0
 30
0.0
 11
-1.0
 21
-0.166667
 31
0.0
  0
LINE
  5
8
330
4
100
AcDbEntity
  8
0
  6
BYBLOCK
 62
     0
370
    -2
100
AcDbLine
 10
-1.0
 20
0.166667
 30
0.0
 11
-1.0
 21
-0.166667
 31
0.0
  0
LINE
  5
9
330
4
100
AcDbEntity
  8
0
  6
BYBLOCK
 62
     0
370
    -2
100
AcDbLine
 10
0.0
 20
0.0
 30
0.0
 11
-1.0
 21
0.0
 31
0.0
  0
ENDBLK
  5
A
330
4
100
AcDbEntity
  8
0
100
AcDbBlockEnd
  0
BLOCK
  5
C
330
B
100
AcDbEntity
  8
0
100
AcDbBlockBegin
  2
_DOT
 70
     0
 10
0.0
 20
0.0
 30
0.0
  3
_DOT
  1

  0
POLYLINE
  5
D
330
B
100
AcDbEntity
  8
0
  6
BYBLOCK
 62
     0
370
    -2
100
AcDb2dPolyline
 66
     1
 10
0.0
 20
0.0
 30
0.0
 70
     1
 40
0.5
 41
0.5
  0
VERTEX
  5
E
330
B
100
AcDbEntity
  8
0
  6
BYBLOCK
 62
     0
370
    -2
100
AcDbVertex
100
AcDb2dVertex
 10
-0.25
 20
0.0
 30
0.0
 42
1.0
  0
VERTEX
  5
F
330
B
100
AcDbEntity
  8
0
  6
BYBLOCK
 62
     0
370
    -2
100
AcDbVertex
100
AcDb2dVertex
 10
0.25
 20
0.0
 30
0.0
 42
1.0
  0
SEQEND
  5
10
330
B
100
AcDbEntity
  8
0
  6
BYBLOCK
 62
     0
370
    -2
  0
LINE
  5
11
330
B
100
AcDbEntity
  8
0
  6
BYBLOCK
 62
     0
370
    -2
100
AcDbLine
 10
-0.5
 20
0.0
 30
0.0
 11
-1.0
 21
0.0
 31
0.0
  0
ENDBLK
  5
12
330
B
100
AcDbEntity
  8
0
100
AcDbBlockEnd
  0
BLOCK
  5
14
330
13
100
AcDbEntity
  8
0
100
AcDbBlockBegin
  2
_OPEN
 70
     0
 10
0.0
 20
0.0
 30
0.0
  3
_OPEN
  1

  0
LINE
  5
15
330
13
100
AcDbEntity
  8
0
  6
BYBLOCK
 62
     0
370
    -2
100
AcDbLine
 10
-1.0
 20
0.166667
 30
0.0
 11
0.0
 21
0.0
 31
0.0
  0
LINE
  5
16
330
13
100
AcDbEntity
  8
0
  6
BYBLOCK
 62
     0
370
    -2
100
AcDbLine
 10
0.0
 20
0.0
 30
0.0
 11
-1.0
 21
-0.166667
 31
0.0
  0
LINE
  5
17
330
13
100
AcDbEntity
  8
0
  6
BYBLOCK
 62
     0
370
    -2
100
AcDbLine
 10
0.0
 20
0.0
 30
0.0
 11
-1.0
 21
0.0
 31
0.0
  0
ENDBLK
  5
18
330
13
100
AcDbEntity
  8
0
100
AcDbBlockEnd
  0
BLOCK
  5
1A
330
19
100
AcDbEntity
  8
0
100
AcDbBlockBegin
  2
_ORIGIN
 70
     0
 10
0.0
 20
0.0
 30
0.0
  3
_ORIGIN
  1

  0
CIRCLE
  5
1B
330
19
100
AcDbEntity
  8
0
  6
BYBLOCK
 62
     0
370
    -2
100
AcDbCircle
 10
0.0
 20
0.0
 30
0.0
 40
0.5
  0
LINE
  5
1C
330
19
100
AcDbEntity
  8
0
  6
BYBLOCK
 62
     0
370
    -2
100
AcDbLine
 10
0.0
 20
0.0
 30
0.0
 11
-1.0
 21
0.0
 31
0.0
  0
ENDBLK
  5
1D
330
19
100
AcDbEntity
  8
0
100
AcDbBlockEnd
  0
BLOCK
  5
1F
330
1E
100
AcDbEntity
  8
0
100
AcDbBlockBegin
  2
_OPEN30
 70
     0
 10
0.0
 20
0.0
 30
0.0
  3
_OPEN30
  1

  0
LINE
  5
20
330
1E
100
AcDbEntity
  8
0
  6
BYBLOCK
 62
     0
370
    -2
100
AcDbLine
 10
-1.0
 20
0.267949
 30
0.0
 11
0.0
 21
0.0
 31
0.0
  0
LINE
  5
21
330
1E
100
AcDbEntity
  8
0
  6
BYBLOCK
 62
     0
370
    -2
100
AcDbLine
 10
0.0
 20
0.0
 30
0.0
 11
-1.0
 21
-0.267949
 31
0.0
  0
LINE
  5
22
330
1E
100
AcDbEntity
  8
0
  6
BYBLOCK
 62
     0
370
    -2
100
AcDbLine
 10
0.0
 20
0.0
 30
0.0
 11
-1.0
 21
0.0
 31
0.0
  0
ENDBLK
  5
23
330
1E
100
AcDbEntity
  8
0
100
AcDbBlockEnd
  0
BLOCK
  5
25
330
24
100
AcDbEntity
  8
0
100
AcDbBlockBegin
  2
_BOXFILLED
 70
     0
 10
0.0
 20
0.0
 30
0.0
  3
_BOXFILLED
  1

  0
SOLID
  5
26
330
24
100
AcDbEntity
  8
0
  6
BYBLOCK
 62
     0
370
    -2
100
AcDbTrace
 10
-0.5
 20
0.5
 30
0.0
 11
0.5
 21
0.5
 31
0.0
 12
-0.5
 22
-0.5
 32
0.0
 13
0.5
 23
-0.5
 33
0.0
  0
LINE
  5
27
330
24
100
AcDbEntity
  8
0
  6
BYBLOCK
 62
     0
370
    -2
100
AcDbLine
 10
-0.5
 20
0.0
 30
0.0
 11
-1.0
 21
0.0
 31
0.0
  0
ENDBLK
  5
28
330
24
100
AcDbEntity
  8
0
100
AcDbBlockEnd
  0
BLOCK
  5
2A
330
29
100
AcDbEntity
  8
0
100
AcDbBlockBegin
  2
_BOXBLANK
 70
     0
 10
0.0
 20
0.0
 30
0.0
  3
_BOXBLANK
  1

  0
LINE
  5
2B
330
29
100
AcDbEntity
  8
0
  6
BYBLOCK
 62
     0
370
    -2
100
AcDbLine
 10
-0.5
 20
-0.5
 30
0.0
 11
0.5
 21
-0.5
 31
0.0
  0
LINE
  5
2C
330
29
100
AcDbEntity
  8
0
  6
BYBLOCK
 62
     0
370
    -2
100
AcDbLine
 10
0.5
 20
-0.5
 30
0.0
 11
0.5
 21
0.5
 31
0.0
  0
LINE
  5
2D
330
29
100
AcDbEntity
  8
0
  6
BYBLOCK
 62
     0
370
    -2
100
AcDbLine
 10
0.5
 20
0.5
 30
0.0
 11
-0.5
 21
0.5
 31
0.0
  0
LINE
  5
2E
330
29
100
AcDbEntity
  8
0
  6
BYBLOCK
 62
     0
370
    -2
100
AcDbLine
 10
-0.5
 20
0.5
 30
0.0
 11
-0.5
 21
-0.5
 31
0.0
  0
LINE
  5
2F
330
29
100
AcDbEntity
  8
0
  6
BYBLOCK
 62
     0
370
    -2
100
AcDbLine
 10
-0.5
 20
0.0
 30
0.0
 11
-1.0
 21
0.0
 31
0.0
  0
ENDBLK
  5
30
330
29
100
AcDbEntity
  8
0
100
AcDbBlockEnd
  0
BLOCK
  5
32
330
31
100
AcDbEntity
  8
0
100
AcDbBlockBegin
  2
_OBLIQUE
 70
     0
 10
0.0
 20
0.0
 30
0.0
  3
_OBLIQUE
  1

  0
LINE
  5
33
330
31
100
AcDbEntity
  8
0
  6
BYBLOCK
 62
     0
370
    -2
100
AcDbLine
 10
-0.5
 20
-0.5
 30
0.0
 11
0.5
 21
0.5
 31
0.0
  0
ENDBLK
  5
34
330
31
100
AcDbEntity
  8
0
100
AcDbBlockEnd
  0
BLOCK
  5
36
330
35
100
AcDbEntity
  8
0
100
AcDbBlockBegin
  2
_OPEN90
 70
     0
 10
0.0
 20
0.0
 30
0.0
  3
_OPEN90
  1

  0
LINE
  5
37
330
35
100
AcDbEntity
  8
0
  6
BYBLOCK
 62
     0
370
    -2
100
AcDbLine
 10
-0.5
 20
0.5
 30
0.0
 11
0.0
 21
0.0
 31
0.0
  0
LINE
  5
38
330
35
100
AcDbEntity
  8
0
  6
BYBLOCK
 62
     0
370
    -2
100
AcDbLine
 10
0.0
 20
0.0
 30
0.0
 11
-0.5
 21
-0.5
 31
0.0
  0
LINE
  5
39
330
35
100
AcDbEntity
  8
0
  6
BYBLOCK
 62
     0
370
    -2
100
AcDbLine
 10
0.0
 20
0.0
 30
0.0
 11
-1.0
 21
0.0
 31
0.0
  0
ENDBLK
  5
3A
330
35
100
AcDbEntity
  8
0
100
AcDbBlockEnd
  0
BLOCK
  5
3C
330
3B
100
AcDbEntity
  8
0
100
AcDbBlockBegin
  2
_CLOSEDBLANK
 70
     0
 10
0.0
 20
0.0
 30
0.0
  3
_CLOSEDBLANK
  1

  0
LINE
  5
3D
330
3B
100
AcDbEntity
  8
0
  6
BYBLOCK
 62
     0
370
    -2
100
AcDbLine
 10
-1.0
 20
0.1666666666666666
 30
0.0
 11
0.0
 21
0.0
 31
0.0
  0
LINE
  5
3E
330
3B
100
AcDbEntity
  8
0
  6
BYBLOCK
 62
     0
370
    -2
100
AcDbLine
 10
0.0
 20
0.0
 30
0.0
 11
-1.0
 21
-0.1666666666666666
 31
0.0
  0
LINE
  5
3F
330
3B
100
AcDbEntity
  8
0
  6
BYBLOCK
 62
     0
370
    -2
100
AcDbLine
 10
-1.0
 20
0.1666666666666666
 30
0.0
 11
-1.0
 21
-0.1666666666666666
 31
0.0
  0
ENDBLK
  5
40
330
3B
100
AcDbEntity
  8
0
100
AcDbBlockEnd
  0
BLOCK
  5
42
330
41
100
AcDbEntity
  8
0
100
AcDbBlockBegin
  2
_DOTBLANK
 70
     0
 10
0.0
 20
0.0
 30
0.0
  3
_DOTBLANK
  1

  0
CIRCLE
  5
43
330
41
100
AcDbEntity
  8
0
  6
BYBLOCK
 62
     0
370
    -2
100
AcDbCircle
 10
0.0
 20
0.0
 30
0.0
 40
0.5
  0
LINE
  5
44
330
41
100
AcDbEntity
  8
0
  6
BYBLOCK
 62
     0
370
    -2
100
AcDbLine
 10
-0.5
 20
0.0
 30
0.0
 11
-1.0
 21
0.0
 31
0.0
  0
ENDBLK
  5
45
330
41
100
AcDbEntity
  8
0
100
AcDbBlockEnd
  0
ENDSEC
  0
SECTION
  2
ENTITIES
  0
MTEXT
  5
46
100
AcDbEntity
  8
A8
  6
CONTINUOUS
 62
7
100
AcDbMText
 10
9.999997526638502
 20
18.00000076076889
 30
0.0000000000000000
 40
3.000000000000000
 41
0.0000000000000000
 44
0.6739999771118164
 71
     7
 72
     1
  1
{\H0.94x;{TYPE No.TM-367-100-8}}
 11
1.000000000000000
 21
0.0000000000000000
 31
0.0000000000000000
  7
STANDARD
  0
POINT
  5
47
100
AcDbEntity
  8
A0
  6
CONTINUOUS
 62
5
100
AcDbPoint
 10
9.999997526638502
 20
18.00000076076889
 30
0.0000000000000000
  0
LINE
  5
48
100
AcDbEntity
  8
A2
  6
CENTER
 62
4
100
AcDbLine
 10
193.7500919999997
 20
411.9656070000001
 30
0.0000000000000000
 11
166.2500920000001
 21
411.9656070000001
 31
0.0000000000000000
  0
LINE
  5
49
100
AcDbEntity
  8
A2
  6
CENTER
 62
4
100
AcDbLine
 10
193.7500919999997
 20
-29.96559899999992
 30
0.0000000000000000
 11
166.2500920000001
 21
-29.96559899999992
 31
0.0000000000000000
  0
LINE
  5
4A
100
AcDbEntity
  8
A2
  6
CENTER
 62
4
100
AcDbLine
 10
180.0000919999999
 20
425.7156069999999
 30
0.0000000000000000
 11
180.0000919999999
 21
398.2156070000002
 31
0.0000000000000000
  0
LINE
  5
4B
100
AcDbEntity
  8
A2
  6
CENTER
 62
4
100
AcDbLine
 10
180.0000919999999
 20
-16.21559900000018
 30
0.0000000000000000
 11
180.0000919999999
 21
-43.71559899999973
 31
0.0000000000000000
  0
ARC
  5
4C
100
AcDbEntity
  8
A8
  6
CONTINUOUS
 62
7
100
AcDbCircle
 10
175.3500919999998
 20
324.1000000000000
 30
0.0000000000000000
 40
3.100000000000023
100
AcDbArc
 50
180.0000000000000
 51
270.0000000000000
  0
ARC
  5
4D
100
AcDbEntity
  8
A8
  6
CONTINUOUS
 62
7
100
AcDbCircle
 10
184.6500919999999
 20
324.1000000000000
 30
0.0000000000000000
 40
0.5000000000000000
100
AcDbArc
 50
270.0000000000000
 51
360.0000000000000
  0
ARC
  5
4E
100
AcDbEntity
  8
A8
  6
CONTINUOUS
 62
7
100
AcDbCircle
 10
175.3500919999998
 20
324.1000000000000
 30
0.0000000000000000
 40
0.5000000000000000
100
AcDbArc
 50
180.0000000000000
 51
270.0000000000000
  0
ARC
  5
4F
100
AcDbEntity
  8
A8
  6
CONTINUOUS
 62
7
100
AcDbCircle
 10
184.6500919999999
 20
324.1000000000000
 30
0.0000000000000000
 40
3.100000000000023
100
AcDbArc
 50
270.0000000000000
 51
360.0000000000000
  0
ARC
  5
50
100
AcDbEntity
  8
A8
  6
CONTINUOUS
 62
7
100
AcDbCircle
 10
184.6500919999999
 20
56.90000000000006
 30
0.0000000000000000
 40
3.099999999999994
100
AcDbArc
 50
0.0000000000000000
 51
90.00000000000000
  0
ARC
  5
51
100
AcDbEntity
  8
A8
  6
CONTINUOUS
 62
7
100
AcDbCircle
 10
175.3500919999998
 20
56.90000000000006
 30
0.0000000000000000
 40
3.099999999999994
100
AcDbArc
 50
90.00000000000001
 51
180.0000000000000
  0
ARC
  5
52
100
AcDbEntity
  8
A8
  6
CONTINUOUS
 62
7
100
AcDbCircle
 10
175.3500919999998
 20
56.90000000000006
 30
0.0000000000000000
 40
0.5000000000000000
100
AcDbArc
 50
90.00000000000000
 51
180.0000000000000
  0
ARC
  5
53
100
AcDbEntity
  8
A8
  6
CONTINUOUS
 62
7
100
AcDbCircle
 10
184.6500919999999
 20
56.90000000000006
 30
0.0000000000000000
 40
0.5000000000000000
100
AcDbArc
 50
0.0000000000000000
 51
90.00000000000000
  0
ARC
  5
54
100
AcDbEntity
  8
A8
  6
CONTINUOUS
 62
7
100
AcDbCircle
 10
172.5000919999999
 20
174.9999999999999
 30
0.0000000000000000
 40
0.9000000000000000
100
AcDbArc
 50
270.0000000000000
 51
450.0000000000000
  0
ARC
  5
55
100
AcDbEntity
  8
A8
  6
CONTINUOUS
 62
7
100
AcDbCircle
 10
187.5000919999999
 20
174.9999999999999
 30
0.0000000000000000
 40
0.9000000000000000
100
AcDbArc
 50
90.00000000000000
 51
270.0000000000000
  0
ARC
  5
56
100
AcDbEntity
  8
A8
  6
CONTINUOUS
 62
7
100
AcDbCircle
 10
172.5000919999999
 20
186.9999999999999
 30
0.0000000000000000
 40
0.9000000000000000
100
AcDbArc
 50
270.0000000000000
 51
450.0000000000000
  0
ARC
  5
57
100
AcDbEntity
  8
A8
  6
CONTINUOUS
 62
7
100
AcDbCircle
 10
187.5000919999999
 20
186.9999999999999
 30
0.0000000000000000
 40
0.9000000000000000
100
AcDbArc
 50
90.00000000000000
 51
270.0000000000000
  0
LINE
  5
58
100
AcDbEntity
  8
A8
  6
CONTINUOUS
 62
7
100
AcDbLine
 10
176.5000919999999
 20
167.9999999999999
 30
0.0000000000000000
 11
176.5000919999999
 21
60.00000000000013
 31
0.0000000000000000
  0
LINE
  5
59
100
AcDbEntity
  8
A8
  6
CONTINUOUS
 62
7
100
AcDbLine
 10
183.5000919999999
 20
60.00000000000013
 30
0.0000000000000000
 11
183.5000919999999
 21
167.9999999999999
 31
0.0000000000000000
  0
LINE
  5
5A
100
AcDbEntity
  8
A8
  6
CONTINUOUS
 62
7
100
AcDbLine
 10
174.8500919999998
 20
337.0000000000000
 30
0.0000000000000000
 11
172.2500919999998
 21
337.0000000000000
 31
0.0000000000000000
  0
LINE
  5
5B
100
AcDbEntity
  8
A8
  6
CONTINUOUS
 62
7
100
AcDbLine
 10
174.8500919999998
 20
337.0000000000000
 30
0.0000000000000000
 11
174.8500919999998
 21
324.1000000000000
 31
0.0000000000000000
  0
LINE
  5
5C
100
AcDbEntity
  8
A8
  6
CONTINUOUS
 62
7
100
AcDbLine
 10
187.7500919999999
 20
337.0000000000000
 30
0.0000000000000000
 11
185.1500919999999
 21
337.0000000000000
 31
0.0000000000000000
  0
LINE
  5
5D
100
AcDbEntity
  8
A8
  6
CONTINUOUS
 62
7
100
AcDbLine
 10
185.1500919999999
 20
337.0000000000000
 30
0.0000000000000000
 11
185.1500919999999
 21
324.1000000000000
 31
0.0000000000000000
  0
LINE
  5
5E
100
AcDbEntity
  8
A8
  6
CONTINUOUS
 62
7
100
AcDbLine
 10
187.7500919999999
 20
324.1000000000000
 30
0.0000000000000000
 11
187.7500919999999
 21
337.0000000000000
 31
0.0000000000000000
  0
LINE
  5
5F
100
AcDbEntity
  8
A8
  6
CONTINUOUS
 62
7
100
AcDbLine
 10
172.2500919999999
 20
337.0000000000000
 30
0.0000000000000000
 11
172.2500919999999
 21
324.1000000000000
 31
0.0000000000000000
  0
LINE
  5
60
100
AcDbEntity
  8
A8
  6
CONTINUOUS
 62
7
100
AcDbLine
 10
184.6500919999999
 20
323.6000000000000
 30
0.0000000000000000
 11
175.3500919999998
 21
323.6000000000000
 31
0.0000000000000000
  0
LINE
  5
61
100
AcDbEntity
  8
A8
  6
CONTINUOUS
 62
7
100
AcDbLine
 10
175.3500919999998
 20
321.0000000000000
 30
0.0000000000000000
 11
184.6500919999999
 21
321.0000000000000
 31
0.0000000000000000
  0
LINE
  5
62
100
AcDbEntity
  8
A8
  6
CONTINUOUS
 62
7
100
AcDbLine
 10
172.2500919999998
 20
44.00000000000002
 30
0.0000000000000000
 11
174.8500919999998
 21
44.00000000000001
 31
0.0000000000000000
  0
LINE
  5
63
100
AcDbEntity
  8
A8
  6
CONTINUOUS
 62
7
100
AcDbLine
 10
185.1500919999999
 20
44.00000000000001
 30
0.0000000000000000
 11
187.7500919999999
 21
44.00000000000001
 31
0.0000000000000000
  0
LINE
  5
64
100
AcDbEntity
  8
A8
  6
CONTINUOUS
 62
7
100
AcDbLine
 10
185.1500920000000
 20
44.00000000000001
 30
0.0000000000000000
 11
185.1500920000000
 21
56.90000000000003
 31
0.0000000000000000
  0
LINE
  5
65
100
AcDbEntity
  8
A8
  6
CONTINUOUS
 62
7
100
AcDbLine
 10
187.7500919999999
 20
56.90000000000011
 30
0.0000000000000000
 11
187.7500919999999
 21
44.00000000000001
 31
0.0000000000000000
  0
LINE
  5
66
100
AcDbEntity
  8
A8
  6
CONTINUOUS
 62
7
100
AcDbLine
 10
175.3500919999998
 20
60.00000000000004
 30
0.0000000000000000
 11
184.6500920000000
 21
60.00000000000007
 31
0.0000000000000000
  0
LINE
  5
67
100
AcDbEntity
  8
A8
  6
CONTINUOUS
 62
7
100
AcDbLine
 10
172.2500919999999
 20
44.00000000000000
 30
0.0000000000000000
 11
172.2500919999999
 21
56.90000000000006
 31
0.0000000000000000
  0
LINE
  5
68
100
AcDbEntity
  8
A8
  6
CONTINUOUS
 62
7
100
AcDbLine
 10
174.8500919999998
 20
56.90000000000011
 30
0.0000000000000000
 11
174.8500919999998
 21
44.00000000000001
 31
0.0000000000000000
  0
LINE
  5
69
100
AcDbEntity
  8
A8
  6
CONTINUOUS
 62
7
100
AcDbLine
 10
184.6500919999999
 20
57.40000000000011
 30
0.0000000000000000
 11
175.3500919999998
 21
57.40000000000011
 31
0.0000000000000000
  0
LINE
  5
6A
100
AcDbEntity
  8
A8
  6
CONTINUOUS
 62
7
100
AcDbLine
 10
173.4000919999999
 20
169.6999999999999
 30
0.0000000000000000
 11
173.4000919999999
 21
167.9999999999999
 31
0.0000000000000000
  0
LINE
  5
6B
100
AcDbEntity
  8
A8
  6
CONTINUOUS
 62
7
100
AcDbLine
 10
186.6000919999998
 20
167.9999999999999
 30
0.0000000000000000
 11
186.6000919999998
 21
169.6999999999999
 31
0.0000000000000000
  0
LINE
  5
6C
100
AcDbEntity
  8
A8
  6
CONTINUOUS
 62
7
100
AcDbLine
 10
186.6000919999998
 20
167.9999999999999
 30
0.0000000000000000
 11
173.4000919999999
 21
167.9999999999999
 31
0.0000000000000000
  0
LINE
  5
6D
100
AcDbEntity
  8
A8
  6
CONTINUOUS
 62
7
100
AcDbLine
 10
172.5000919999999
 20
174.1000000000000
 30
0.0000000000000000
 11
172.5000919999999
 21
169.6999999999999
 31
0.0000000000000000
  0
LINE
  5
6E
100
AcDbEntity
  8
A8
  6
CONTINUOUS
 62
7
100
AcDbLine
 10
187.5000919999999
 20
169.6999999999999
 30
0.0000000000000000
 11
187.5000919999999
 21
174.1000000000000
 31
0.0000000000000000
  0
LINE
  5
6F
100
AcDbEntity
  8
A8
  6
CONTINUOUS
 62
7
100
AcDbLine
 10
187.5000919999999
 20
174.1000000000000
 30
0.0000000000000000
 11
172.5000919999999
 21
174.1000000000000
 31
0.0000000000000000
  0
LINE
  5
70
100
AcDbEntity
  8
A8
  6
CONTINUOUS
 62
7
100
AcDbLine
 10
187.5000919999999
 20
169.6999999999999
 30
0.0000000000000000
 11
172.5000919999999
 21
169.6999999999999
 31
0.0000000000000000
  0
LINE
  5
71
100
AcDbEntity
  8
A8
  6
CONTINUOUS
 62
7
100
AcDbLine
 10
172.5000919999999
 20
186.1000000000000
 30
0.0000000000000000
 11
172.5000919999999
 21
175.8999999999999
 31
0.0000000000000000
  0
LINE
  5
72
100
AcDbEntity
  8
A8
  6
CONTINUOUS
 62
7
100
AcDbLine
 10
187.5000919999999
 20
175.8999999999999
 30
0.0000000000000000
 11
187.5000919999999
 21
186.1000000000000
 31
0.0000000000000000
  0
LINE
  5
73
100
AcDbEntity
  8
A8
  6
CONTINUOUS
 62
7
100
AcDbLine
 10
187.5000919999999
 20
186.1000000000000
 30
0.0000000000000000
 11
172.5000919999999
 21
186.1000000000000
 31
0.0000000000000000
  0
LINE
  5
74
100
AcDbEntity
  8
A8
  6
CONTINUOUS
 62
7
100
AcDbLine
 10
187.5000919999999
 20
175.8999999999999
 30
0.0000000000000000
 11
172.5000919999999
 21
175.8999999999999
 31
0.0000000000000000
  0
LINE
  5
75
100
AcDbEntity
  8
A8
  6
CONTINUOUS
 62
7
100
AcDbLine
 10
172.5000919999999
 20
318.2500000000000
 30
0.0000000000000000
 11
172.5000919999999
 21
187.8999999999999
 31
0.0000000000000000
  0
LINE
  5
76
100
AcDbEntity
  8
A8
  6
CONTINUOUS
 62
7
100
AcDbLine
 10
187.5000919999999
 20
187.8999999999999
 30
0.0000000000000000
 11
187.5000919999999
 21
318.2500000000000
 31
0.0000000000000000
  0
LINE
  5
77
100
AcDbEntity
  8
A8
  6
CONTINUOUS
 62
7
100
AcDbLine
 10
187.5000919999999
 20
187.8999999999999
 30
0.0000000000000000
 11
172.5000919999999
 21
187.8999999999999
 31
0.0000000000000000
  0
LINE
  5
78
100
AcDbEntity
  8
A8
  6
CONTINUOUS
 62
7
100
AcDbLine
 10
175.3500919999998
 20
321.0000000000000
 30
0.0000000000000000
 11
174.8915463629429
 21
321.0000000000000
 31
0.0000000000000000
  0
LINE
  5
79
100
AcDbEntity
  8
A8
  6
CONTINUOUS
 62
7
100
AcDbLine
 10
174.8915463629430
 20
320.9999999999999
 30
0.0000000000000000
 11
172.4264189807084
 21
319.4999999999999
 31
0.0000000000000000
  0
LINE
  5
7A
100
AcDbEntity
  8
A8
  6
CONTINUOUS
 62
7
100
AcDbLine
 10
187.5737650192915
 20
319.4999999999999
 30
0.0000000000000000
 11
185.1086376370570
 21
320.9999999999999
 31
0.0000000000000000
  0
LINE
  5
7B
100
AcDbEntity
  8
A8
  6
CONTINUOUS
 62
7
100
AcDbLine
 10
185.1086376370569
 20
321.0000000000000
 30
0.0000000000000000
 11
184.6500919999999
 21
321.0000000000000
 31
0.0000000000000000
  0
LINE
  5
7C
100
AcDbEntity
  8
A8
  6
CONTINUOUS
 62
7
100
AcDbLine
 10
172.4264189807085
 20
319.4999999999998
 30
0.0000000000000000
 11
172.2500920000002
 21
318.4999999999997
 31
0.0000000000000000
  0
LINE
  5
7D
100
AcDbEntity
  8
A8
  6
CONTINUOUS
 62
7
100
AcDbLine
 10
187.7500919999997
 20
318.4999999999997
 30
0.0000000000000000
 11
187.5737650192914
 21
319.4999999999998
 31
0.0000000000000000
  0
LINE
  5
7E
100
AcDbEntity
  8
A8
  6
CONTINUOUS
 62
7
100
AcDbLine
 10
187.5737650192913
 20
319.5000000000000
 30
0.0000000000000000
 11
172.4264189807084
 21
319.5000000000000
 31
0.0000000000000000
  0
LINE
  5
7F
100
AcDbEntity
  8
A8
  6
CONTINUOUS
 62
7
100
AcDbLine
 10
187.5000920000000
 20
318.2499999999999
 30
0.0000000000000000
 11
187.7500919999998
 21
318.4999999999996
 31
0.0000000000000000
  0
LINE
  5
80
100
AcDbEntity
  8
A8
  6
CONTINUOUS
 62
7
100
AcDbLine
 10
172.2500920000003
 20
318.4999999999998
 30
0.0000000000000000
 11
172.5000920000000
 21
318.2500000000001
 31
0.0000000000000000
  0
LINE
  5
81
100
AcDbEntity
  8
A8
  6
CONTINUOUS
 62
7
100
AcDbLine
 10
187.7500919999997
 20
318.4999999999998
 30
0.0000000000000000
 11
172.2500920000000
 21
318.4999999999998
 31
0.0000000000000000
  0
LINE
  5
82
100
AcDbEntity
  8
A8
  6
CONTINUOUS
 62
7
100
AcDbLine
 10
187.5000919999999
 20
318.2500000000000
 30
0.0000000000000000
 11
172.5000919999999
 21
318.2500000000000
 31
0.0000000000000000
  0
LINE
  5
83
100
AcDbEntity
  8
A10
  6
CENTER
 62
4
100
AcDbLine
 10
180.0000919999999
 20
343.0000000000002
 30
0.0000000000000000
 11
180.0000919999999
 21
38.00000000000000
 31
0.0000000000000000
  0
LINE
  5
84
100
AcDbEntity
  8
A10
  6
CENTER
 62
4
100
AcDbLine
 10
166.2500919999998
 20
330.9999999999999
 30
0.0000000000000000
 11
193.7500919999999
 21
330.9999999999999
 31
0.0000000000000000
  0
LINE
  5
85
100
AcDbEntity
  8
A10
  6
CENTER
 62
4
100
AcDbLine
 10
166.2500919999999
 20
49.99999999999997
 30
0.0000000000000000
 11
193.7500919999999
 21
49.99999999999997
 31
0.0000000000000000
  0
CIRCLE
  5
86
100
AcDbEntity
  8
A4
  6
CONTINUOUS
 62
7
100
AcDbCircle
 10
50.00000000000002
 20
331.0000000000000
 30
0.0000000000000000
 40
3.250000000000000
  0
CIRCLE
  5
87
100
AcDbEntity
  8
A4
  6
CONTINUOUS
 62
7
100
AcDbCircle
 10
50.00000000000000
 20
50.00000000000000
 30
0.0000000000000000
 40
3.249999999999986
  0
ARC
  5
88
100
AcDbEntity
  8
A4
  6
CONTINUOUS
 62
7
100
AcDbCircle
 10
42.50000000000002
 20
174.9999999999999
 30
0.0000000000000000
 40
0.9000000000000000
100
AcDbArc
 50
270.0000000000000
 51
450.0000000000000
  0
ARC
  5
89
100
AcDbEntity
  8
A4
  6
CONTINUOUS
 62
7
100
AcDbCircle
 10
57.50000000000002
 20
174.9999999999999
 30
0.0000000000000000
 40
0.9000000000000000
100
AcDbArc
 50
90.00000000000000
 51
270.0000000000000
  0
ARC
  5
8A
100
AcDbEntity
  8
A4
  6
CONTINUOUS
 62
7
100
AcDbCircle
 10
42.50000000000002
 20
186.9999999999999
 30
0.0000000000000000
 40
0.9000000000000000
100
AcDbArc
 50
270.0000000000000
 51
450.0000000000000
  0
ARC
  5
8B
100
AcDbEntity
  8
A4
  6
CONTINUOUS
 62
7
100
AcDbCircle
 10
57.50000000000002
 20
186.9999999999999
 30
0.0000000000000000
 40
0.9000000000000000
100
AcDbArc
 50
90.00000000000000
 51
270.0000000000000
  0
ARC
  5
8C
100
AcDbEntity
  8
A4
  6
CONTINUOUS
 62
7
100
AcDbCircle
 10
50.00000000000002
 20
331.0000000000000
 30
0.0000000000000000
 40
6.000000000000000
100
AcDbArc
 50
0.0000000000000000
 51
180.0000000000000
  0
ARC
  5
8D
100
AcDbEntity
  8
A4
  6
CONTINUOUS
 62
7
100
AcDbCircle
 10
50.00000000000000
 20
50.00000000000000
 30
0.0000000000000000
 40
6.000000000000057
100
AcDbArc
 50
180.0000000000000
 51
360.0000000000000
  0
LINE
  5
8E
100
AcDbEntity
  8
A4
  6
CONTINUOUS
 62
7
100
AcDbLine
 10
46.49999999999990
 20
168.0000000000000
 30
0.0000000000000000
 11
46.49999999999990
 21
60.00000000000017
 31
0.0000000000000000
  0
LINE
  5
8F
100
AcDbEntity
  8
A4
  6
CONTINUOUS
 62
7
100
AcDbLine
 10
53.49999999999990
 20
60.00000000000017
 30
0.0000000000000000
 11
53.49999999999990
 21
168.0000000000000
 31
0.0000000000000000
  0
LINE
  5
90
100
AcDbEntity
  8
A4
  6
CONTINUOUS
 62
7
100
AcDbLine
 10
43.40000000000001
 20
169.6999999999999
 30
0.0000000000000000
 11
43.40000000000001
 21
168.0000000000000
 31
0.0000000000000000
  0
LINE
  5
91
100
AcDbEntity
  8
A4
  6
CONTINUOUS
 62
7
100
AcDbLine
 10
56.59999999999994
 20
168.0000000000000
 30
0.0000000000000000
 11
56.59999999999994
 21
169.6999999999999
 31
0.0000000000000000
  0
LINE
  5
92
100
AcDbEntity
  8
A4
  6
CONTINUOUS
 62
7
100
AcDbLine
 10
56.59999999999994
 20
168.0000000000000
 30
0.0000000000000000
 11
43.40000000000001
 21
168.0000000000000
 31
0.0000000000000000
  0
LINE
  5
93
100
AcDbEntity
  8
A4
  6
CONTINUOUS
 62
7
100
AcDbLine
 10
42.49999999999993
 20
318.2500000000000
 30
0.0000000000000000
 11
42.49999999999992
 21
187.8999999999999
 31
0.0000000000000000
  0
LINE
  5
94
100
AcDbEntity
  8
A4
  6
CONTINUOUS
 62
7
100
AcDbLine
 10
57.49999999999992
 20
187.8999999999999
 30
0.0000000000000000
 11
57.49999999999993
 21
318.2500000000000
 31
0.0000000000000000
  0
LINE
  5
95
100
AcDbEntity
  8
A4
  6
CONTINUOUS
 62
7
100
AcDbLine
 10
57.49999999999992
 20
187.8999999999999
 30
0.0000000000000000
 11
42.49999999999992
 21
187.8999999999999
 31
0.0000000000000000
  0
LINE
  5
96
100
AcDbEntity
  8
A4
  6
CONTINUOUS
 62
7
100
AcDbLine
 10
42.49999999999992
 20
174.1000000000000
 30
0.0000000000000000
 11
42.49999999999991
 21
169.6999999999999
 31
0.0000000000000000
  0
LINE
  5
97
100
AcDbEntity
  8
A4
  6
CONTINUOUS
 62
7
100
AcDbLine
 10
57.49999999999991
 20
169.6999999999999
 30
0.0000000000000000
 11
57.49999999999992
 21
174.1000000000000
 31
0.0000000000000000
  0
LINE
  5
98
100
AcDbEntity
  8
A4
  6
CONTINUOUS
 62
7
100
AcDbLine
 10
57.49999999999992
 20
174.1000000000000
 30
0.0000000000000000
 11
42.49999999999992
 21
174.1000000000000
 31
0.0000000000000000
  0
LINE
  5
99
100
AcDbEntity
  8
A4
  6
CONTINUOUS
 62
7
100
AcDbLine
 10
57.49999999999991
 20
169.6999999999999
 30
0.0000000000000000
 11
42.49999999999991
 21
169.6999999999999
 31
0.0000000000000000
  0
LINE
  5
9A
100
AcDbEntity
  8
A4
  6
CONTINUOUS
 62
7
100
AcDbLine
 10
42.49999999999992
 20
186.1000000000000
 30
0.0000000000000000
 11
42.49999999999992
 21
175.8999999999999
 31
0.0000000000000000
  0
LINE
  5
9B
100
AcDbEntity
  8
A4
  6
CONTINUOUS
 62
7
100
AcDbLine
 10
57.49999999999992
 20
175.8999999999999
 30
0.0000000000000000
 11
57.49999999999992
 21
186.1000000000000
 31
0.0000000000000000
  0
LINE
  5
9C
100
AcDbEntity
  8
A4
  6
CONTINUOUS
 62
7
100
AcDbLine
 10
57.49999999999992
 20
186.1000000000000
 30
0.0000000000000000
 11
42.49999999999992
 21
186.1000000000000
 31
0.0000000000000000
  0
LINE
  5
9D
100
AcDbEntity
  8
A4
  6
CONTINUOUS
 62
7
100
AcDbLine
 10
57.49999999999992
 20
175.8999999999999
 30
0.0000000000000000
 11
42.49999999999992
 21
175.8999999999999
 31
0.0000000000000000
  0
LINE
  5
9E
100
AcDbEntity
  8
A4
  6
CONTINUOUS
 62
7
100
AcDbLine
 10
44.89145436294299
 20
321.0000000000000
 30
0.0000000000000000
 11
42.42632698070852
 21
319.5000000000000
 31
0.0000000000000000
  0
LINE
  5
9F
100
AcDbEntity
  8
A4
  6
CONTINUOUS
 62
7
100
AcDbLine
 10
57.57367301929172
 20
319.5000000000000
 30
0.0000000000000000
 11
55.10854563705712
 21
321.0000000000001
 31
0.0000000000000000
  0
LINE
  5
A0
100
AcDbEntity
  8
A4
  6
CONTINUOUS
 62
7
100
AcDbLine
 10
57.49999999999983
 20
318.2499999999999
 30
0.0000000000000000
 11
57.74999999999972
 21
318.4999999999998
 31
0.0000000000000000
  0
LINE
  5
A1
100
AcDbEntity
  8
A4
  6
CONTINUOUS
 62
7
100
AcDbLine
 10
42.25000000000028
 20
318.4999999999997
 30
0.0000000000000000
 11
42.50000000000003
 21
318.2500000000000
 31
0.0000000000000000
  0
LINE
  5
A2
100
AcDbEntity
  8
A4
  6
CONTINUOUS
 62
7
100
AcDbLine
 10
57.49999999999993
 20
318.2500000000000
 30
0.0000000000000000
 11
42.49999999999993
 21
318.2500000000000
 31
0.0000000000000000
  0
LINE
  5
A3
100
AcDbEntity
  8
A4
  6
CONTINUOUS
 62
7
100
AcDbLine
 10
42.42632698070850
 20
319.4999999999998
 30
0.0000000000000000
 11
42.25000000000018
 21
318.4999999999996
 31
0.0000000000000000
  0
LINE
  5
A4
100
AcDbEntity
  8
A4
  6
CONTINUOUS
 62
7
100
AcDbLine
 10
57.74999999999984
 20
318.4999999999998
 30
0.0000000000000000
 11
57.57367301929153
 21
319.5000000000001
 31
0.0000000000000000
  0
LINE
  5
A5
100
AcDbEntity
  8
A4
  6
CONTINUOUS
 62
7
100
AcDbLine
 10
57.57367301929143
 20
319.5000000000000
 30
0.0000000000000000
 11
42.42632698070854
 21
319.5000000000000
 31
0.0000000000000000
  0
LINE
  5
A6
100
AcDbEntity
  8
A4
  6
CONTINUOUS
 62
7
100
AcDbLine
 10
57.74999999999970
 20
318.4999999999998
 30
0.0000000000000000
 11
42.25000000000016
 21
318.4999999999998
 31
0.0000000000000000
  0
LINE
  5
A7
100
AcDbEntity
  8
A4
  6
CONTINUOUS
 62
7
100
AcDbLine
 10
43.99999999999999
 20
50.00000000000010
 30
0.0000000000000000
 11
44.00000000000011
 21
60.00000000000016
 31
0.0000000000000000
  0
LINE
  5
A8
100
AcDbEntity
  8
A4
  6
CONTINUOUS
 62
7
100
AcDbLine
 10
56.00000000000011
 20
50.00000000000003
 30
0.0000000000000000
 11
56.00000000000011
 21
60.00000000000016
 31
0.0000000000000000
  0
LINE
  5
A9
100
AcDbEntity
  8
A4
  6
CONTINUOUS
 62
7
100
AcDbLine
 10
43.99999999999990
 20
60.00000000000017
 30
0.0000000000000000
 11
55.99999999999990
 21
60.00000000000017
 31
0.0000000000000000
  0
LINE
  5
AA
100
AcDbEntity
  8
A4
  6
CONTINUOUS
 62
7
100
AcDbLine
 10
55.99999999999991
 20
331.0000000000000
 30
0.0000000000000000
 11
55.99999999999991
 21
321.0000000000000
 31
0.0000000000000000
  0
LINE
  5
AB
100
AcDbEntity
  8
A4
  6
CONTINUOUS
 62
7
100
AcDbLine
 10
43.99999999999991
 20
331.0000000000000
 30
0.0000000000000000
 11
43.99999999999991
 21
321.0000000000000
 31
0.0000000000000000
  0
LINE
  5
AC
100
AcDbEntity
  8
A4
  6
CONTINUOUS
 62
7
100
AcDbLine
 10
44.00000000000002
 20
321.0000000000000
 30
0.0000000000000000
 11
55.99999999999991
 21
321.0000000000000
 31
0.0000000000000000
  0
LINE
  5
AD
100
AcDbEntity
  8
A4
  6
CENTER
 62
4
100
AcDbLine
 10
62.00000000000025
 20
331.0000000000000
 30
0.0000000000000000
 11
37.99999999999979
 21
331.0000000000000
 31
0.0000000000000000
  0
LINE
  5
AE
100
AcDbEntity
  8
A4
  6
CENTER
 62
4
100
AcDbLine
 10
50.00000000000000
 20
343.0000000000002
 30
0.0000000000000000
 11
50.00000000000000
 21
38.00000000000003
 31
0.0000000000000000
  0
LINE
  5
AF
100
AcDbEntity
  8
A4
  6
CENTER
 62
4
100
AcDbLine
 10
62.00000000000011
 20
50.00000000000000
 30
0.0000000000000000
 11
38.00000000000000
 21
50.00000000000000
 31
0.0000000000000000
  0
CIRCLE
  5
B0
100
AcDbEntity
  8
A4
  6
CONTINUOUS
 62
7
100
AcDbCircle
 10
330.0001830000001
 20
331.0000000000000
 30
0.0000000000000000
 40
3.250000000000000
  0
CIRCLE
  5
B1
100
AcDbEntity
  8
A4
  6
CONTINUOUS
 62
7
100
AcDbCircle
 10
330.0001830000001
 20
50.00000000000006
 30
0.0000000000000000
 40
3.249999999999986
  0
ARC
  5
B2
100
AcDbEntity
  8
A4
  6
CONTINUOUS
 62
7
100
AcDbCircle
 10
322.5001830000001
 20
175.0000000000000
 30
0.0000000000000000
 40
0.9000000000000000
100
AcDbArc
 50
270.0000000000000
 51
450.0000000000000
  0
ARC
  5
B3
100
AcDbEntity
  8
A4
  6
CONTINUOUS
 62
7
100
AcDbCircle
 10
337.5001830000001
 20
175.0000000000000
 30
0.0000000000000000
 40
0.9000000000000000
100
AcDbArc
 50
90.00000000000000
 51
270.0000000000000
  0
ARC
  5
B4
100
AcDbEntity
  8
A4
  6
CONTINUOUS
 62
7
100
AcDbCircle
 10
322.5001830000001
 20
186.9999999999999
 30
0.0000000000000000
 40
0.9000000000000000
100
AcDbArc
 50
270.0000000000000
 51
450.0000000000000
  0
ARC
  5
B5
100
AcDbEntity
  8
A4
  6
CONTINUOUS
 62
7
100
AcDbCircle
 10
337.5001830000001
 20
186.9999999999999
 30
0.0000000000000000
 40
0.9000000000000000
100
AcDbArc
 50
90.00000000000000
 51
270.0000000000000
  0
ARC
  5
B6
100
AcDbEntity
  8
A4
  6
CONTINUOUS
 62
7
100
AcDbCircle
 10
330.0001830000001
 20
331.0000000000000
 30
0.0000000000000000
 40
6.000000000000000
100
AcDbArc
 50
0.0000000000000000
 51
180.0000000000000
  0
ARC
  5
B7
100
AcDbEntity
  8
A4
  6
CONTINUOUS
 62
7
100
AcDbCircle
 10
330.0001830000001
 20
50.00000000000006
 30
0.0000000000000000
 40
6.000000000000057
100
AcDbArc
 50
180.0000000000000
 51
360.0000000000000
  0
LINE
  5
B8
100
AcDbEntity
  8
A4
  6
CONTINUOUS
 62
7
100
AcDbLine
 10
326.5001830000000
 20
168.0000000000000
 30
0.0000000000000000
 11
326.5001830000000
 21
60.00000000000022
 31
0.0000000000000000
  0
LINE
  5
B9
100
AcDbEntity
  8
A4
  6
CONTINUOUS
 62
7
100
AcDbLine
 10
333.5001830000000
 20
60.00000000000022
 30
0.0000000000000000
 11
333.5001830000000
 21
168.0000000000000
 31
0.0000000000000000
  0
LINE
  5
BA
100
AcDbEntity
  8
A4
  6
CONTINUOUS
 62
7
100
AcDbLine
 10
323.4001830000001
 20
169.6999999999999
 30
0.0000000000000000
 11
323.4001830000001
 21
168.0000000000000
 31
0.0000000000000000
  0
LINE
  5
BB
100
AcDbEntity
  8
A4
  6
CONTINUOUS
 62
7
100
AcDbLine
 10
336.6001830000000
 20
168.0000000000000
 30
0.0000000000000000
 11
336.6001830000000
 21
169.6999999999999
 31
0.0000000000000000
  0
LINE
  5
BC
100
AcDbEntity
  8
A4
  6
CONTINUOUS
 62
7
100
AcDbLine
 10
336.6001830000000
 20
168.0000000000000
 30
0.0000000000000000
 11
323.4001830000001
 21
168.0000000000000
 31
0.0000000000000000
  0
LINE
  5
BD
100
AcDbEntity
  8
A4
  6
CONTINUOUS
 62
7
100
AcDbLine
 10
322.5001830000000
 20
318.2500000000001
 30
0.0000000000000000
 11
322.5001830000000
 21
187.9000000000000
 31
0.0000000000000000
  0
LINE
  5
BE
100
AcDbEntity
  8
A4
  6
CONTINUOUS
 62
7
100
AcDbLine
 10
337.5001830000000
 20
187.9000000000000
 30
0.0000000000000000
 11
337.5001830000000
 21
318.2500000000001
 31
0.0000000000000000
  0
LINE
  5
BF
100
AcDbEntity
  8
A4
  6
CONTINUOUS
 62
7
100
AcDbLine
 10
337.5001830000000
 20
187.9000000000000
 30
0.0000000000000000
 11
322.5001830000000
 21
187.9000000000000
 31
0.0000000000000000
  0
LINE
  5
C0
100
AcDbEntity
  8
A4
  6
CONTINUOUS
 62
7
100
AcDbLine
 10
322.5001830000000
 20
174.1000000000000
 30
0.0000000000000000
 11
322.5001830000000
 21
169.6999999999999
 31
0.0000000000000000
  0
LINE
  5
C1
100
AcDbEntity
  8
A4
  6
CONTINUOUS
 62
7
100
AcDbLine
 10
337.5001830000000
 20
169.6999999999999
 30
0.0000000000000000
 11
337.5001830000000
 21
174.1000000000000
 31
0.0000000000000000
  0
LINE
  5
C2
100
AcDbEntity
  8
A4
  6
CONTINUOUS
 62
7
100
AcDbLine
 10
337.5001830000000
 20
174.1000000000000
 30
0.0000000000000000
 11
322.5001830000000
 21
174.1000000000000
 31
0.0000000000000000
  0
LINE
  5
C3
100
AcDbEntity
  8
A4
  6
CONTINUOUS
 62
7
100
AcDbLine
 10
337.5001830000000
 20
169.6999999999999
 30
0.0000000000000000
 11
322.5001830000000
 21
169.6999999999999
 31
0.0000000000000000
  0
LINE
  5
C4
100
AcDbEntity
  8
A4
  6
CONTINUOUS
 62
7
100
AcDbLine
 10
322.5001830000000
 20
186.1000000000001
 30
0.0000000000000000
 11
322.5001830000000
 21
175.9000000000000
 31
0.0000000000000000
  0
LINE
  5
C5
100
AcDbEntity
  8
A4
  6
CONTINUOUS
 62
7
100
AcDbLine
 10
337.5001830000000
 20
175.9000000000000
 30
0.0000000000000000
 11
337.5001830000000
 21
186.1000000000001
 31
0.0000000000000000
  0
LINE
  5
C6
100
AcDbEntity
  8
A4
  6
CONTINUOUS
 62
7
100
AcDbLine
 10
337.5001830000000
 20
186.1000000000001
 30
0.0000000000000000
 11
322.5001830000000
 21
186.1000000000001
 31
0.0000000000000000
  0
LINE
  5
C7
100
AcDbEntity
  8
A4
  6
CONTINUOUS
 62
7
100
AcDbLine
 10
337.5001830000000
 20
175.9000000000000
 30
0.0000000000000000
 11
322.5001830000000
 21
175.9000000000000
 31
0.0000000000000000
  0
LINE
  5
C8
100
AcDbEntity
  8
A4
  6
CONTINUOUS
 62
7
100
AcDbLine
 10
324.8916373629432
 20
321.0000000000001
 30
0.0000000000000000
 11
322.4265099807087
 21
319.5000000000001
 31
0.0000000000000000
  0
LINE
  5
C9
100
AcDbEntity
  8
A4
  6
CONTINUOUS
 62
7
100
AcDbLine
 10
337.5738560192917
 20
319.5000000000000
 30
0.0000000000000000
 11
335.1087286370572
 21
321.0000000000001
 31
0.0000000000000000
  0
LINE
  5
CA
100
AcDbEntity
  8
A4
  6
CONTINUOUS
 62
7
100
AcDbLine
 10
337.5001829999999
 20
318.2499999999999
 30
0.0000000000000000
 11
337.7501829999998
 21
318.4999999999998
 31
0.0000000000000000
  0
LINE
  5
CB
100
AcDbEntity
  8
A4
  6
CONTINUOUS
 62
7
100
AcDbLine
 10
322.2501830000004
 20
318.4999999999998
 30
0.0000000000000000
 11
322.5001830000002
 21
318.2500000000001
 31
0.0000000000000000
  0
LINE
  5
CC
100
AcDbEntity
  8
A4
  6
CONTINUOUS
 62
7
100
AcDbLine
 10
337.5001830000000
 20
318.2500000000001
 30
0.0000000000000000
 11
322.5001830000000
 21
318.2500000000001
 31
0.0000000000000000
  0
LINE
  5
CD
100
AcDbEntity
  8
A4
  6
CONTINUOUS
 62
7
100
AcDbLine
 10
322.4265099807085
 20
319.4999999999999
 30
0.0000000000000000
 11
322.2501830000002
 21
318.4999999999997
 31
0.0000000000000000
  0
LINE
  5
CE
100
AcDbEntity
  8
A4
  6
CONTINUOUS
 62
7
100
AcDbLine
 10
337.7501830000000
 20
318.4999999999999
 30
0.0000000000000000
 11
337.5738560192917
 21
319.5000000000002
 31
0.0000000000000000
  0
LINE
  5
CF
100
AcDbEntity
  8
A4
  6
CONTINUOUS
 62
7
100
AcDbLine
 10
337.5738560192915
 20
319.5000000000001
 30
0.0000000000000000
 11
322.4265099807086
 21
319.5000000000001
 31
0.0000000000000000
  0
LINE
  5
D0
100
AcDbEntity
  8
A4
  6
CONTINUOUS
 62
7
100
AcDbLine
 10
337.7501829999998
 20
318.4999999999999
 30
0.0000000000000000
 11
322.2501830000002
 21
318.4999999999999
 31
0.0000000000000000
  0
LINE
  5
D1
100
AcDbEntity
  8
A4
  6
CONTINUOUS
 62
7
100
AcDbLine
 10
324.0001830000001
 20
50.00000000000016
 30
0.0000000000000000
 11
324.0001830000002
 21
60.00000000000021
 31
0.0000000000000000
  0
LINE
  5
D2
100
AcDbEntity
  8
A4
  6
CONTINUOUS
 62
7
100
AcDbLine
 10
336.0001830000002
 20
50.00000000000009
 30
0.0000000000000000
 11
336.0001830000002
 21
60.00000000000021
 31
0.0000000000000000
  0
LINE
  5
D3
100
AcDbEntity
  8
A4
  6
CONTINUOUS
 62
7
100
AcDbLine
 10
324.0001830000000
 20
60.00000000000022
 30
0.0000000000000000
 11
336.0001830000000
 21
60.00000000000022
 31
0.0000000000000000
  0
LINE
  5
D4
100
AcDbEntity
  8
A4
  6
CONTINUOUS
 62
7
100
AcDbLine
 10
336.0001830000000
 20
331.0000000000000
 30
0.0000000000000000
 11
336.0001830000000
 21
321.0000000000001
 31
0.0000000000000000
  0
LINE
  5
D5
100
AcDbEntity
  8
A4
  6
CONTINUOUS
 62
7
100
AcDbLine
 10
324.0001830000000
 20
331.0000000000000
 30
0.0000000000000000
 11
324.0001830000000
 21
321.0000000000001
 31
0.0000000000000000
  0
LINE
  5
D6
100
AcDbEntity
  8
A4
  6
CONTINUOUS
 62
7
100
AcDbLine
 10
324.0001830000001
 20
321.0000000000001
 30
0.0000000000000000
 11
336.0001830000000
 21
321.0000000000001
 31
0.0000000000000000
  0
LINE
  5
D7
100
AcDbEntity
  8
A4
  6
CENTER
 62
4
100
AcDbLine
 10
342.0001830000003
 20
331.0000000000000
 30
0.0000000000000000
 11
318.0001829999999
 21
331.0000000000000
 31
0.0000000000000000
  0
LINE
  5
D8
100
AcDbEntity
  8
A4
  6
CENTER
 62
4
100
AcDbLine
 10
330.0001830000001
 20
343.0000000000002
 30
0.0000000000000000
 11
330.0001830000001
 21
38.00000000000009
 31
0.0000000000000000
  0
LINE
  5
D9
100
AcDbEntity
  8
A4
  6
CENTER
 62
4
100
AcDbLine
 10
342.0001830000002
 20
50.00000000000006
 30
0.0000000000000000
 11
318.0001830000001
 21
50.00000000000006
 31
0.0000000000000000
  0
ARC
  5
DA
100
AcDbEntity
  8
A8
  6
CONTINUOUS
 62
7
100
AcDbCircle
 10
465.3503049999996
 20
324.1000000000001
 30
0.0000000000000000
 40
3.100000000000023
100
AcDbArc
 50
180.0000000000000
 51
270.0000000000000
  0
ARC
  5
DB
100
AcDbEntity
  8
A8
  6
CONTINUOUS
 62
7
100
AcDbCircle
 10
474.6503049999997
 20
324.1000000000001
 30
0.0000000000000000
 40
0.5000000000000000
100
AcDbArc
 50
270.0000000000000
 51
360.0000000000000
  0
ARC
  5
DC
100
AcDbEntity
  8
A8
  6
CONTINUOUS
 62
7
100
AcDbCircle
 10
465.3503049999996
 20
324.1000000000001
 30
0.0000000000000000
 40
0.5000000000000000
100
AcDbArc
 50
180.0000000000000
 51
270.0000000000000
  0
ARC
  5
DD
100
AcDbEntity
  8
A8
  6
CONTINUOUS
 62
7
100
AcDbCircle
 10
474.6503049999997
 20
324.1000000000001
 30
0.0000000000000000
 40
3.100000000000023
100
AcDbArc
 50
270.0000000000000
 51
360.0000000000000
  0
ARC
  5
DE
100
AcDbEntity
  8
A8
  6
CONTINUOUS
 62
7
100
AcDbCircle
 10
474.6503049999997
 20
56.90000000000018
 30
0.0000000000000000
 40
3.099999999999994
100
AcDbArc
 50
0.0000000000000000
 51
90.00000000000000
  0
ARC
  5
DF
100
AcDbEntity
  8
A8
  6
CONTINUOUS
 62
7
100
AcDbCircle
 10
465.3503049999996
 20
56.90000000000018
 30
0.0000000000000000
 40
3.099999999999994
100
AcDbArc
 50
90.00000000000001
 51
180.0000000000000
  0
ARC
  5
E0
100
AcDbEntity
  8
A8
  6
CONTINUOUS
 62
7
100
AcDbCircle
 10
465.3503049999996
 20
56.90000000000018
 30
0.0000000000000000
 40
0.5000000000000000
100
AcDbArc
 50
90.00000000000000
 51
180.0000000000000
  0
ARC
  5
E1
100
AcDbEntity
  8
A8
  6
CONTINUOUS
 62
7
100
AcDbCircle
 10
474.6503049999997
 20
56.90000000000018
 30
0.0000000000000000
 40
0.5000000000000000
100
AcDbArc
 50
0.0000000000000000
 51
90.00000000000000
  0
ARC
  5
E2
100
AcDbEntity
  8
A8
  6
CONTINUOUS
 62
7
100
AcDbCircle
 10
462.5003049999997
 20
175.0000000000000
 30
0.0000000000000000
 40
0.9000000000000000
100
AcDbArc
 50
270.0000000000000
 51
450.0000000000000
  0
ARC
  5
E3
100
AcDbEntity
  8
A8
  6
CONTINUOUS
 62
7
100
AcDbCircle
 10
477.5003049999997
 20
175.0000000000000
 30
0.0000000000000000
 40
0.9000000000000000
100
AcDbArc
 50
90.00000000000000
 51
270.0000000000000
  0
ARC
  5
E4
100
AcDbEntity
  8
A8
  6
CONTINUOUS
 62
7
100
AcDbCircle
 10
462.5003049999997
 20
187.0000000000000
 30
0.0000000000000000
 40
0.9000000000000000
100
AcDbArc
 50
270.0000000000000
 51
450.0000000000000
  0
ARC
  5
E5
100
AcDbEntity
  8
A8
  6
CONTINUOUS
 62
7
100
AcDbCircle
 10
477.5003049999997
 20
187.0000000000000
 30
0.0000000000000000
 40
0.9000000000000000
100
AcDbArc
 50
90.00000000000000
 51
270.0000000000000
  0
LINE
  5
E6
100
AcDbEntity
  8
A8
  6
CONTINUOUS
 62
7
100
AcDbLine
 10
466.5003049999997
 20
168.0000000000000
 30
0.0000000000000000
 11
466.5003049999997
 21
60.00000000000024
 31
0.0000000000000000
  0
LINE
  5
E7
100
AcDbEntity
  8
A8
  6
CONTINUOUS
 62
7
100
AcDbLine
 10
473.5003049999997
 20
60.00000000000024
 30
0.0000000000000000
 11
473.5003049999997
 21
168.0000000000000
 31
0.0000000000000000
  0
LINE
  5
E8
100
AcDbEntity
  8
A8
  6
CONTINUOUS
 62
7
100
AcDbLine
 10
464.8503049999996
 20
337.0000000000001
 30
0.0000000000000000
 11
462.2503049999996
 21
337.0000000000001
 31
0.0000000000000000
  0
LINE
  5
E9
100
AcDbEntity
  8
A8
  6
CONTINUOUS
 62
7
100
AcDbLine
 10
464.8503049999996
 20
337.0000000000001
 30
0.0000000000000000
 11
464.8503049999996
 21
324.1000000000001
 31
0.0000000000000000
  0
LINE
  5
EA
100
AcDbEntity
  8
A8
  6
CONTINUOUS
 62
7
100
AcDbLine
 10
477.7503049999997
 20
337.0000000000001
 30
0.0000000000000000
 11
475.1503049999997
 21
337.0000000000001
 31
0.0000000000000000
  0
LINE
  5
EB
100
AcDbEntity
  8
A8
  6
CONTINUOUS
 62
7
100
AcDbLine
 10
475.1503049999997
 20
337.0000000000001
 30
0.0000000000000000
 11
475.1503049999997
 21
324.1000000000001
 31
0.0000000000000000
  0
LINE
  5
EC
100
AcDbEntity
  8
A8
  6
CONTINUOUS
 62
7
100
AcDbLine
 10
477.7503049999997
 20
324.1000000000001
 30
0.0000000000000000
 11
477.7503049999997
 21
337.0000000000001
 31
0.0000000000000000
  0
LINE
  5
ED
100
AcDbEntity
  8
A8
  6
CONTINUOUS
 62
7
100
AcDbLine
 10
462.2503049999997
 20
337.0000000000001
 30
0.0000000000000000
 11
462.2503049999997
 21
324.1000000000001
 31
0.0000000000000000
  0
LINE
  5
EE
100
AcDbEntity
  8
A8
  6
CONTINUOUS
 62
7
100
AcDbLine
 10
474.6503049999997
 20
323.6000000000001
 30
0.0000000000000000
 11
465.3503049999996
 21
323.6000000000001
 31
0.0000000000000000
  0
LINE
  5
EF
100
AcDbEntity
  8
A8
  6
CONTINUOUS
 62
7
100
AcDbLine
 10
465.3503049999996
 20
321.0000000000001
 30
0.0000000000000000
 11
474.6503049999997
 21
321.0000000000001
 31
0.0000000000000000
  0
LINE
  5
F0
100
AcDbEntity
  8
A8
  6
CONTINUOUS
 62
7
100
AcDbLine
 10
462.2503049999996
 20
44.00000000000013
 30
0.0000000000000000
 11
464.8503049999996
 21
44.00000000000013
 31
0.0000000000000000
  0
LINE
  5
F1
100
AcDbEntity
  8
A8
  6
CONTINUOUS
 62
7
100
AcDbLine
 10
475.1503049999997
 20
44.00000000000013
 30
0.0000000000000000
 11
477.7503049999997
 21
44.00000000000013
 31
0.0000000000000000
  0
LINE
  5
F2
100
AcDbEntity
  8
A8
  6
CONTINUOUS
 62
7
100
AcDbLine
 10
475.1503049999998
 20
44.00000000000013
 30
0.0000000000000000
 11
475.1503049999998
 21
56.90000000000015
 31
0.0000000000000000
  0
LINE
  5
F3
100
AcDbEntity
  8
A8
  6
CONTINUOUS
 62
7
100
AcDbLine
 10
477.7503049999997
 20
56.90000000000022
 30
0.0000000000000000
 11
477.7503049999997
 21
44.00000000000013
 31
0.0000000000000000
  0
LINE
  5
F4
100
AcDbEntity
  8
A8
  6
CONTINUOUS
 62
7
100
AcDbLine
 10
465.3503049999997
 20
60.00000000000016
 30
0.0000000000000000
 11
474.6503049999998
 21
60.00000000000018
 31
0.0000000000000000
  0
LINE
  5
F5
100
AcDbEntity
  8
A8
  6
CONTINUOUS
 62
7
100
AcDbLine
 10
462.2503049999997
 20
44.00000000000011
 30
0.0000000000000000
 11
462.2503049999997
 21
56.90000000000018
 31
0.0000000000000000
  0
LINE
  5
F6
100
AcDbEntity
  8
A8
  6
CONTINUOUS
 62
7
100
AcDbLine
 10
464.8503049999996
 20
56.90000000000022
 30
0.0000000000000000
 11
464.8503049999996
 21
44.00000000000013
 31
0.0000000000000000
  0
LINE
  5
F7
100
AcDbEntity
  8
A8
  6
CONTINUOUS
 62
7
100
AcDbLine
 10
474.6503049999997
 20
57.40000000000022
 30
0.0000000000000000
 11
465.3503049999996
 21
57.40000000000022
 31
0.0000000000000000
  0
LINE
  5
F8
100
AcDbEntity
  8
A8
  6
CONTINUOUS
 62
7
100
AcDbLine
 10
463.4003049999997
 20
169.7000000000000
 30
0.0000000000000000
 11
463.4003049999997
 21
168.0000000000000
 31
0.0000000000000000
  0
LINE
  5
F9
100
AcDbEntity
  8
A8
  6
CONTINUOUS
 62
7
100
AcDbLine
 10
476.6003049999996
 20
168.0000000000000
 30
0.0000000000000000
 11
476.6003049999996
 21
169.7000000000000
 31
0.0000000000000000
  0
LINE
  5
FA
100
AcDbEntity
  8
A8
  6
CONTINUOUS
 62
7
100
AcDbLine
 10
476.6003049999996
 20
168.0000000000000
 30
0.0000000000000000
 11
463.4003049999997
 21
168.0000000000000
 31
0.0000000000000000
  0
LINE
  5
FB
100
AcDbEntity
  8
A8
  6
CONTINUOUS
 62
7
100
AcDbLine
 10
462.5003049999997
 20
174.1000000000001
 30
0.0000000000000000
 11
462.5003049999997
 21
169.7000000000000
 31
0.0000000000000000
  0
LINE
  5
FC
100
AcDbEntity
  8
A8
  6
CONTINUOUS
 62
7
100
AcDbLine
 10
477.5003049999997
 20
169.7000000000000
 30
0.0000000000000000
 11
477.5003049999997
 21
174.1000000000001
 31
0.0000000000000000
  0
LINE
  5
FD
100
AcDbEntity
  8
A8
  6
CONTINUOUS
 62
7
100
AcDbLine
 10
477.5003049999997
 20
174.1000000000001
 30
0.0000000000000000
 11
462.5003049999997
 21
174.1000000000001
 31
0.0000000000000000
  0
LINE
  5
FE
100
AcDbEntity
  8
A8
  6
CONTINUOUS
 62
7
100
AcDbLine
 10
477.5003049999997
 20
169.7000000000000
 30
0.0000000000000000
 11
462.5003049999997
 21
169.7000000000000
 31
0.0000000000000000
  0
LINE
  5
FF
100
AcDbEntity
  8
A8
  6
CONTINUOUS
 62
7
100
AcDbLine
 10
462.5003049999997
 20
186.1000000000001
 30
0.0000000000000000
 11
462.5003049999997
 21
175.9000000000000
 31
0.0000000000000000
  0
LINE
  5
100
100
AcDbEntity
  8
A8
  6
CONTINUOUS
 62
7
100
AcDbLine
 10
477.5003049999997
 20
175.9000000000000
 30
0.0000000000000000
 11
477.5003049999997
 21
186.1000000000001
 31
0.0000000000000000
  0
LINE
  5
101
100
AcDbEntity
  8
A8
  6
CONTINUOUS
 62
7
100
AcDbLine
 10
477.5003049999997
 20
186.1000000000001
 30
0.0000000000000000
 11
462.5003049999997
 21
186.1000000000001
 31
0.0000000000000000
  0
LINE
  5
102
100
AcDbEntity
  8
A8
  6
CONTINUOUS
 62
7
100
AcDbLine
 10
477.5003049999997
 20
175.9000000000000
 30
0.0000000000000000
 11
462.5003049999997
 21
175.9000000000000
 31
0.0000000000000000
  0
LINE
  5
103
100
AcDbEntity
  8
A8
  6
CONTINUOUS
 62
7
100
AcDbLine
 10
462.5003049999997
 20
318.2500000000001
 30
0.0000000000000000
 11
462.5003049999997
 21
187.9000000000000
 31
0.0000000000000000
  0
LINE
  5
104
100
AcDbEntity
  8
A8
  6
CONTINUOUS
 62
7
100
AcDbLine
 10
477.5003049999997
 20
187.9000000000000
 30
0.0000000000000000
 11
477.5003049999997
 21
318.2500000000001
 31
0.0000000000000000
  0
LINE
  5
105
100
AcDbEntity
  8
A8
  6
CONTINUOUS
 62
7
100
AcDbLine
 10
477.5003049999997
 20
187.9000000000000
 30
0.0000000000000000
 11
462.5003049999997
 21
187.9000000000000
 31
0.0000000000000000
  0
LINE
  5
106
100
AcDbEntity
  8
A8
  6
CONTINUOUS
 62
7
100
AcDbLine
 10
465.3503049999996
 20
321.0000000000001
 30
0.0000000000000000
 11
464.8917593629427
 21
321.0000000000001
 31
0.0000000000000000
  0
LINE
  5
107
100
AcDbEntity
  8
A8
  6
CONTINUOUS
 62
7
100
AcDbLine
 10
464.8917593629426
 20
321.0000000000000
 30
0.0000000000000000
 11
462.4266319807081
 21
319.5000000000000
 31
0.0000000000000000
  0
LINE
  5
108
100
AcDbEntity
  8
A8
  6
CONTINUOUS
 62
7
100
AcDbLine
 10
477.5739780192913
 20
319.5000000000000
 30
0.0000000000000000
 11
475.1088506370568
 21
321.0000000000000
 31
0.0000000000000000
  0
LINE
  5
109
100
AcDbEntity
  8
A8
  6
CONTINUOUS
 62
7
100
AcDbLine
 10
475.1088506370567
 20
321.0000000000001
 30
0.0000000000000000
 11
474.6503049999997
 21
321.0000000000001
 31
0.0000000000000000
  0
LINE
  5
10A
100
AcDbEntity
  8
A8
  6
CONTINUOUS
 62
7
100
AcDbLine
 10
462.4266319807083
 20
319.4999999999999
 30
0.0000000000000000
 11
462.2503050000000
 21
318.4999999999998
 31
0.0000000000000000
  0
LINE
  5
10B
100
AcDbEntity
  8
A8
  6
CONTINUOUS
 62
7
100
AcDbLine
 10
477.7503049999995
 20
318.4999999999997
 30
0.0000000000000000
 11
477.5739780192912
 21
319.4999999999999
 31
0.0000000000000000
  0
LINE
  5
10C
100
AcDbEntity
  8
A8
  6
CONTINUOUS
 62
7
100
AcDbLine
 10
477.5739780192911
 20
319.5000000000001
 30
0.0000000000000000
 11
462.4266319807082
 21
319.5000000000001
 31
0.0000000000000000
  0
LINE
  5
10D
100
AcDbEntity
  8
A8
  6
CONTINUOUS
 62
7
100
AcDbLine
 10
477.5003049999997
 20
318.2499999999999
 30
0.0000000000000000
 11
477.7503049999995
 21
318.4999999999995
 31
0.0000000000000000
  0
LINE
  5
10E
100
AcDbEntity
  8
A8
  6
CONTINUOUS
 62
7
100
AcDbLine
 10
462.2503050000001
 20
318.4999999999999
 30
0.0000000000000000
 11
462.5003049999998
 21
318.2500000000002
 31
0.0000000000000000
  0
LINE
  5
10F
100
AcDbEntity
  8
A8
  6
CONTINUOUS
 62
7
100
AcDbLine
 10
477.7503049999995
 20
318.4999999999998
 30
0.0000000000000000
 11
462.2503049999998
 21
318.4999999999999
 31
0.0000000000000000
  0
LINE
  5
110
100
AcDbEntity
  8
A8
  6
CONTINUOUS
 62
7
100
AcDbLine
 10
477.5003049999997
 20
318.2500000000001
 30
0.0000000000000000
 11
462.5003049999997
 21
318.2500000000001
 31
0.0000000000000000
  0
LINE
  5
111
100
AcDbEntity
  8
A10
  6
CENTER
 62
4
100
AcDbLine
 10
470.0003049999997
 20
343.0000000000002
 30
0.0000000000000000
 11
470.0003049999997
 21
38.00000000000011
 31
0.0000000000000000
  0
LINE
  5
112
100
AcDbEntity
  8
A10
  6
CENTER
 62
4
100
AcDbLine
 10
456.2503049999996
 20
331.0000000000001
 30
0.0000000000000000
 11
483.7503049999997
 21
331.0000000000001
 31
0.0000000000000000
  0
LINE
  5
113
100
AcDbEntity
  8
A10
  6
CENTER
 62
4
100
AcDbLine
 10
456.2503049999997
 20
50.00000000000009
 30
0.0000000000000000
 11
483.7503049999997
 21
50.00000000000009
 31
0.0000000000000000
  0
ARC
  5
114
100
AcDbEntity
  8
A5
  6
CONTINUOUS
 62
7
100
AcDbCircle
 10
180.0000919999999
 20
411.9656070000001
 30
0.0000000000000000
 40
7.749999999999813
100
AcDbArc
 50
50.73197399824868
 51
129.2680260017513
  0
ARC
  5
115
100
AcDbEntity
  8
A5
  6
CONTINUOUS
 62
7
100
AcDbCircle
 10
180.0000919999999
 20
411.9656070000001
 30
0.0000000000000000
 40
7.749999999999813
100
AcDbArc
 50
230.7319739982481
 51
309.2680260017503
  0
ARC
  5
116
100
AcDbEntity
  8
A5
  6
CONTINUOUS
 62
7
100
AcDbCircle
 10
180.0000919999999
 20
411.9656070000001
 30
0.0000000000000000
 40
7.573673019291488
100
AcDbArc
 50
52.39327169154981
 51
127.6067283084502
  0
ARC
  5
117
100
AcDbEntity
  8
A5
  6
CONTINUOUS
 62
7
100
AcDbCircle
 10
180.0000919999999
 20
411.9656070000001
 30
0.0000000000000000
 40
7.573673019291488
100
AcDbArc
 50
232.3932716915498
 51
307.6067283084487
  0
LINE
  5
118
100
AcDbEntity
  8
A5
  6
CONTINUOUS
 62
7
100
AcDbLine
 10
185.1500919999999
 20
405.9656070000000
 30
0.0000000000000000
 11
185.1500919999999
 21
417.9656070000000
 31
0.0000000000000000
  0
LINE
  5
119
100
AcDbEntity
  8
A5
  6
CONTINUOUS
 62
7
100
AcDbLine
 10
187.7500919999999
 20
417.9656070000000
 30
0.0000000000000000
 11
187.7500919999999
 21
405.9656070000000
 31
0.0000000000000000
  0
LINE
  5
11A
100
AcDbEntity
  8
A5
  6
CONTINUOUS
 62
7
100
AcDbLine
 10
172.2500919999999
 20
405.9656070000000
 30
0.0000000000000000
 11
187.7500920000000
 21
405.9656070000000
 31
0.0000000000000000
  0
LINE
  5
11B
100
AcDbEntity
  8
A5
  6
CONTINUOUS
 62
7
100
AcDbLine
 10
172.2500919999999
 20
417.9656070000000
 30
0.0000000000000000
 11
187.7500919999999
 21
417.9656070000000
 31
0.0000000000000000
  0
LINE
  5
11C
100
AcDbEntity
  8
A5
  6
CONTINUOUS
 62
7
100
AcDbLine
 10
172.2500919999998
 20
417.9656070000000
 30
0.0000000000000000
 11
172.2500919999998
 21
405.9656070000000
 31
0.0000000000000000
  0
LINE
  5
11D
100
AcDbEntity
  8
A5
  6
CONTINUOUS
 62
7
100
AcDbLine
 10
174.8500920000000
 20
417.9656070000000
 30
0.0000000000000000
 11
174.8500920000000
 21
405.9656070000000
 31
0.0000000000000000
  0
ARC
  5
11E
100
AcDbEntity
  8
A7
  6
CONTINUOUS
 62
7
100
AcDbCircle
 10
180.0000919999999
 20
-29.96559899999991
 30
0.0000000000000000
 40
7.749999999999813
100
AcDbArc
 50
230.7319739982481
 51
309.2680260017503
  0
ARC
  5
11F
100
AcDbEntity
  8
A7
  6
CONTINUOUS
 62
7
100
AcDbCircle
 10
180.0000919999999
 20
-29.96559899999991
 30
0.0000000000000000
 40
7.749999999999813
100
AcDbArc
 50
50.73197399824868
 51
129.2680260017513
  0
ARC
  5
120
100
AcDbEntity
  8
A7
  6
CONTINUOUS
 62
7
100
AcDbCircle
 10
180.0000919999999
 20
-29.96559899999991
 30
0.0000000000000000
 40
7.500000000000007
100
AcDbArc
 50
233.1301023541560
 51
306.8698976458426
  0
ARC
  5
121
100
AcDbEntity
  8
A7
  6
CONTINUOUS
 62
7
100
AcDbCircle
 10
180.0000919999999
 20
-29.96559899999991
 30
0.0000000000000000
 40
7.500000000000007
100
AcDbArc
 50
53.13010235415588
 51
126.8698976458440
  0
ARC
  5
122
100
AcDbEntity
  8
A7
  6
CONTINUOUS
 62
7
100
AcDbCircle
 10
180.0000919999999
 20
-29.96559899999991
 30
0.0000000000000000
 40
6.599999999999994
100
AcDbArc
 50
245.3800226713431
 51
294.6199773286546
  0
ARC
  5
123
100
AcDbEntity
  8
A7
  6
CONTINUOUS
 62
7
100
AcDbCircle
 10
180.0000919999999
 20
-29.96559899999991
 30
0.0000000000000000
 40
6.599999999999994
100
AcDbArc
 50
65.38002267134313
 51
114.6199773286568
  0
LINE
  5
124
100
AcDbEntity
  8
A7
  6
CONTINUOUS
 62
7
100
AcDbLine
 10
187.7500919999999
 20
-35.96559900000002
 30
0.0000000000000000
 11
187.7500919999999
 21
-23.96559899999991
 31
0.0000000000000000
  0
LINE
  5
125
100
AcDbEntity
  8
A7
  6
CONTINUOUS
 62
7
100
AcDbLine
 10
185.1500919999999
 20
-23.96559899999991
 30
0.0000000000000000
 11
185.1500919999999
 21
-35.96559900000002
 31
0.0000000000000000
  0
LINE
  5
126
100
AcDbEntity
  8
A7
  6
CONTINUOUS
 62
7
100
AcDbLine
 10
187.7500919999999
 20
-35.96559900000004
 30
0.0000000000000000
 11
172.2500919999998
 21
-35.96559900000003
 31
0.0000000000000000
  0
LINE
  5
127
100
AcDbEntity
  8
A7
  6
CONTINUOUS
 62
7
100
AcDbLine
 10
187.7500919999999
 20
-23.96559899999999
 30
0.0000000000000000
 11
172.2500919999998
 21
-23.96559899999965
 31
0.0000000000000000
  0
LINE
  5
128
100
AcDbEntity
  8
A7
  6
CONTINUOUS
 62
7
100
AcDbLine
 10
172.2500919999998
 20
-35.96559900000002
 30
0.0000000000000000
 11
172.2500919999998
 21
-23.96559899999991
 31
0.0000000000000000
  0
LINE
  5
129
100
AcDbEntity
  8
A7
  6
CONTINUOUS
 62
7
100
AcDbLine
 10
174.8500919999997
 20
-35.96559900000006
 30
0.0000000000000000
 11
174.8500919999997
 21
-23.96559899999995
 31
0.0000000000000000
  0
ARC
  5
12A
100
AcDbEntity
  8
A8
  6
PHANTOM
 62
1
100
AcDbCircle
 10
184.6500919999999
 20
156.9000000000000
 30
0.0000000000000000
 40
3.099999999999994
100
AcDbArc
 50
0.0000000000000000
 51
90.00000000000000
  0
ARC
  5
12B
100
AcDbEntity
  8
A8
  6
PHANTOM
 62
1
100
AcDbCircle
 10
175.3500919999998
 20
156.9000000000000
 30
0.0000000000000000
 40
3.099999999999994
100
AcDbArc
 50
90.00000000000001
 51
180.0000000000000
  0
ARC
  5
12C
100
AcDbEntity
  8
A8
  6
PHANTOM
 62
1
100
AcDbCircle
 10
175.3500919999998
 20
156.9000000000000
 30
0.0000000000000000
 40
0.5000000000000000
100
AcDbArc
 50
90.00000000000000
 51
180.0000000000000
  0
ARC
  5
12D
100
AcDbEntity
  8
A8
  6
PHANTOM
 62
1
100
AcDbCircle
 10
184.6500919999999
 20
156.9000000000000
 30
0.0000000000000000
 40
0.5000000000000000
100
AcDbArc
 50
0.0000000000000000
 51
90.00000000000000
  0
LINE
  5
12E
100
AcDbEntity
  8
A8
  6
PHANTOM
 62
1
100
AcDbLine
 10
172.2500919999998
 20
144.0000000000000
 30
0.0000000000000000
 11
174.8500919999998
 21
144.0000000000000
 31
0.0000000000000000
  0
LINE
  5
12F
100
AcDbEntity
  8
A8
  6
PHANTOM
 62
1
100
AcDbLine
 10
185.1500919999999
 20
144.0000000000000
 30
0.0000000000000000
 11
187.7500919999999
 21
144.0000000000000
 31
0.0000000000000000
  0
LINE
  5
130
100
AcDbEntity
  8
A8
  6
PHANTOM
 62
1
100
AcDbLine
 10
185.1500920000000
 20
143.9999999999999
 30
0.0000000000000000
 11
185.1500920000000
 21
156.9000000000000
 31
0.0000000000000000
  0
LINE
  5
131
100
AcDbEntity
  8
A8
  6
PHANTOM
 62
1
100
AcDbLine
 10
187.7500919999999
 20
156.9000000000000
 30
0.0000000000000000
 11
187.7500919999999
 21
143.9999999999999
 31
0.0000000000000000
  0
LINE
  5
132
100
AcDbEntity
  8
A8
  6
PHANTOM
 62
1
100
AcDbLine
 10
175.3500919999998
 20
160.0000000000000
 30
0.0000000000000000
 11
184.6500920000000
 21
160.0000000000000
 31
0.0000000000000000
  0
LINE
  5
133
100
AcDbEntity
  8
A8
  6
PHANTOM
 62
1
100
AcDbLine
 10
172.2500919999999
 20
143.9999999999999
 30
0.0000000000000000
 11
172.2500919999999
 21
156.9000000000000
 31
0.0000000000000000
  0
LINE
  5
134
100
AcDbEntity
  8
A8
  6
PHANTOM
 62
1
100
AcDbLine
 10
174.8500919999998
 20
156.9000000000000
 30
0.0000000000000000
 11
174.8500919999998
 21
143.9999999999999
 31
0.0000000000000000
  0
LINE
  5
135
100
AcDbEntity
  8
A8
  6
PHANTOM
 62
1
100
AcDbLine
 10
184.6500919999999
 20
157.4000000000001
 30
0.0000000000000000
 11
175.3500919999998
 21
157.4000000000001
 31
0.0000000000000000
  0
LINE
  5
136
100
AcDbEntity
  8
A10
  6
CENTER
 62
4
100
AcDbLine
 10
166.2500919999999
 20
149.9999999999999
 30
0.0000000000000000
 11
193.7500919999999
 21
149.9999999999999
 31
0.0000000000000000
  0
CIRCLE
  5
137
100
AcDbEntity
  8
A4
  6
PHANTOM
 62
1
100
AcDbCircle
 10
50.00000000000002
 20
149.9999999999999
 30
0.0000000000000000
 40
3.249999999999986
  0
ARC
  5
138
100
AcDbEntity
  8
A4
  6
PHANTOM
 62
1
100
AcDbCircle
 10
50.00000000000002
 20
149.9999999999999
 30
0.0000000000000000
 40
6.000000000000057
100
AcDbArc
 50
180.0000000000000
 51
360.0000000000000
  0
LINE
  5
139
100
AcDbEntity
  8
A4
  6
PHANTOM
 62
1
100
AcDbLine
 10
44.00000000000001
 20
150.0000000000000
 30
0.0000000000000000
 11
44.00000000000013
 21
160.0000000000001
 31
0.0000000000000000
  0
LINE
  5
13A
100
AcDbEntity
  8
A4
  6
PHANTOM
 62
1
100
AcDbLine
 10
56.00000000000014
 20
150.0000000000000
 30
0.0000000000000000
 11
56.00000000000014
 21
160.0000000000001
 31
0.0000000000000000
  0
LINE
  5
13B
100
AcDbEntity
  8
A4
  6
PHANTOM
 62
1
100
AcDbLine
 10
43.99999999999991
 20
160.0000000000001
 30
0.0000000000000000
 11
55.99999999999991
 21
160.0000000000001
 31
0.0000000000000000
  0
LINE
  5
13C
100
AcDbEntity
  8
A4
  6
CENTER
 62
4
100
AcDbLine
 10
62.00000000000014
 20
149.9999999999999
 30
0.0000000000000000
 11
38.00000000000002
 21
149.9999999999999
 31
0.0000000000000000
  0
CIRCLE
  5
13D
100
AcDbEntity
  8
A4
  6
PHANTOM
 62
1
100
AcDbCircle
 10
330.0001830000001
 20
150.0000000000000
 30
0.0000000000000000
 40
3.249999999999986
  0
ARC
  5
13E
100
AcDbEntity
  8
A4
  6
PHANTOM
 62
1
100
AcDbCircle
 10
330.0001830000001
 20
150.0000000000000
 30
0.0000000000000000
 40
6.000000000000057
100
AcDbArc
 50
180.0000000000000
 51
360.0000000000000
  0
LINE
  5
13F
100
AcDbEntity
  8
A4
  6
PHANTOM
 62
1
100
AcDbLine
 10
324.0001830000001
 20
150.0000000000001
 30
0.0000000000000000
 11
324.0001830000002
 21
160.0000000000001
 31
0.0000000000000000
  0
LINE
  5
140
100
AcDbEntity
  8
A4
  6
PHANTOM
 62
1
100
AcDbLine
 10
336.0001830000002
 20
150.0000000000000
 30
0.0000000000000000
 11
336.0001830000002
 21
160.0000000000002
 31
0.0000000000000000
  0
LINE
  5
141
100
AcDbEntity
  8
A4
  6
PHANTOM
 62
1
100
AcDbLine
 10
324.0001830000000
 20
160.0000000000001
 30
0.0000000000000000
 11
336.0001830000000
 21
160.0000000000001
 31
0.0000000000000000
  0
LINE
  5
142
100
AcDbEntity
  8
A4
  6
CENTER
 62
4
100
AcDbLine
 10
342.0001830000002
 20
150.0000000000000
 30
0.0000000000000000
 11
318.0001830000001
 21
150.0000000000000
 31
0.0000000000000000
  0
ARC
  5
143
100
AcDbEntity
  8
A8
  6
PHANTOM
 62
1
100
AcDbCircle
 10
474.6503049999997
 20
156.9000000000001
 30
0.0000000000000000
 40
3.099999999999994
100
AcDbArc
 50
0.0000000000000000
 51
90.00000000000000
  0
ARC
  5
144
100
AcDbEntity
  8
A8
  6
PHANTOM
 62
1
100
AcDbCircle
 10
465.3503049999996
 20
156.9000000000001
 30
0.0000000000000000
 40
3.099999999999994
100
AcDbArc
 50
90.00000000000001
 51
180.0000000000000
  0
ARC
  5
145
100
AcDbEntity
  8
A8
  6
PHANTOM
 62
1
100
AcDbCircle
 10
465.3503049999996
 20
156.9000000000001
 30
0.0000000000000000
 40
0.5000000000000000
100
AcDbArc
 50
90.00000000000000
 51
180.0000000000000
  0
ARC
  5
146
100
AcDbEntity
  8
A8
  6
PHANTOM
 62
1
100
AcDbCircle
 10
474.6503049999997
 20
156.9000000000001
 30
0.0000000000000000
 40
0.5000000000000000
100
AcDbArc
 50
0.0000000000000000
 51
90.00000000000000
  0
LINE
  5
147
100
AcDbEntity
  8
A8
  6
PHANTOM
 62
1
100
AcDbLine
 10
462.2503049999996
 20
144.0000000000001
 30
0.0000000000000000
 11
464.8503049999996
 21
144.0000000000001
 31
0.0000000000000000
  0
LINE
  5
148
100
AcDbEntity
  8
A8
  6
PHANTOM
 62
1
100
AcDbLine
 10
475.1503049999997
 20
144.0000000000001
 30
0.0000000000000000
 11
477.7503049999997
 21
144.0000000000001
 31
0.0000000000000000
  0
LINE
  5
149
100
AcDbEntity
  8
A8
  6
PHANTOM
 62
1
100
AcDbLine
 10
475.1503049999998
 20
144.0000000000001
 30
0.0000000000000000
 11
475.1503049999998
 21
156.9000000000001
 31
0.0000000000000000
  0
LINE
  5
14A
100
AcDbEntity
  8
A8
  6
PHANTOM
 62
1
100
AcDbLine
 10
477.7503049999997
 20
156.9000000000001
 30
0.0000000000000000
 11
477.7503049999997
 21
144.0000000000001
 31
0.0000000000000000
  0
LINE
  5
14B
100
AcDbEntity
  8
A8
  6
PHANTOM
 62
1
100
AcDbLine
 10
465.3503049999997
 20
160.0000000000001
 30
0.0000000000000000
 11
474.6503049999998
 21
160.0000000000001
 31
0.0000000000000000
  0
LINE
  5
14C
100
AcDbEntity
  8
A8
  6
PHANTOM
 62
1
100
AcDbLine
 10
462.2503049999997
 20
144.0000000000001
 30
0.0000000000000000
 11
462.2503049999997
 21
156.9000000000001
 31
0.0000000000000000
  0
LINE
  5
14D
100
AcDbEntity
  8
A8
  6
PHANTOM
 62
1
100
AcDbLine
 10
464.8503049999996
 20
156.9000000000001
 30
0.0000000000000000
 11
464.8503049999996
 21
144.0000000000001
 31
0.0000000000000000
  0
LINE
  5
14E
100
AcDbEntity
  8
A8
  6
PHANTOM
 62
1
100
AcDbLine
 10
474.6503049999997
 20
157.4000000000002
 30
0.0000000000000000
 11
465.3503049999996
 21
157.4000000000002
 31
0.0000000000000000
  0
LINE
  5
14F
100
AcDbEntity
  8
A10
  6
CENTER
 62
4
100
AcDbLine
 10
456.2503049999997
 20
150.0000000000000
 30
0.0000000000000000
 11
483.7503049999997
 21
150.0000000000000
 31
0.0000000000000000
  0
POINT
  5
150
100
AcDbEntity
  8
A10
  6
CONTINUOUS
 62
5
100
AcDbPoint
 10
50.00000000000001
 20
50.00000000000000
 30
0.0000000000000000
  0
ENDSEC
  0
SECTION
  2
OBJECTS
  0
DICTIONARY
  5
180
100
AcDbDictionary
  3
ACAD_GROUP
350
181
  3
ACAD_LAYOUT
350
182
  3
ACAD_MLINESTYLE
350
183
  0
DICTIONARY
  5
181
102
{ACAD_REACTORS
330
180
102
}
330
180
100
AcDbDictionary
  0
DICTIONARY
  5
182
102
{ACAD_REACTORS
330
180
102
}
330
180
100
AcDbDictionary
  3
Model
350
184
  3
ﾚｲｱｳﾄ1
350
185
  3
ﾚｲｱｳﾄ2
350
186
  0
DICTIONARY
  5
183
102
{ACAD_REACTORS
330
180
102
}
330
180
100
AcDbDictionary
  3
STANDARD
350
187
  0
LAYOUT
  5
184
102
{ACAD_REACTORS
330
182
102
}
330
182
100
AcDbPlotSettings
 70
11952
  4
A3
 44
297.000000
 45
420.000000
 73
  1
 72
  1
100
AcDbLayout
  1
Model
 71
0
330
177
  0
LAYOUT
  5
185
102
{ACAD_REACTORS
330
182
102
}
330
182
100
AcDbPlotSettings
100
AcDbLayout
  1
ﾚｲｱｳﾄ1
 71
1
330
178
  0
LAYOUT
  5
186
102
{ACAD_REACTORS
330
182
102
}
330
182
100
AcDbPlotSettings
100
AcDbLayout
  1
ﾚｲｱｳﾄ2
 71
2
330
179
  0
MLINESTYLE
  5
187
102
{ACAD_REACTORS
330
183
102
}
330
183
100
AcDbMlineStyle
  2
STANDARD
 70
     0
  3

 62
   256
 51
90.00
 52
90.00
 71
     2
 49
0.50
 62
   256
  6
BYLAYER
 49
-0.50
 62
   256
  6
BYLAYER
  0
ENDSEC
  0
EOF
