  0
SECTION
  2
HEADER
  9
$ACADVER
  1
AC1015
  9
$DWGCODEPAGE
  3
ANSI_932
  9
$LTSCALE
 40
20.0
  9
$FILLMODE
 70
     1
  9
$CLAYER
  8
0
  9
$PDMODE
 70
     0
  9
$SPLFRAME
 70
     0
  9
$SPLINETYPE
 70
     6
  9
$SPLINESEGS
 70
     8
  9
$DIMASZ
 40
2.000000
  9
$DIMEXE
 40
1.500000
  9
$DIMEXO
 40
0.800000
  9
$DIMTAD
 70
     1
  9
$DIMTIH
 70
     0
  9
$DIMTOH
 70
     0
  9
$DIMTVP
 40
0.500000
  9
$DIMTXT
 40
3.100000
  9
$EXTMIN
 10
0.000000
 20
0.000000
 30
0.000000
  9
$EXTMAX
 10
297.000000
 20
420.000000
 30
0.000000
  9
$MEASUREMENT
 70
  1
  9
$LIMMIN
 10
0.000000
 20
0.000000
  9
$LIMMAX
 10
297.000000
 20
420.000000
  9
$HANDSEED
  5
286
  9
$LWDISPLAY
290
     0
  9
$DIMBLK
  1
_OPEN
  9
$DIMDEC
 70
     2
  9
$DIMADEC
 70
     2
  9
$DIMAUNIT
 70
     0
  9
$DIMZIN
 70
     8
  9
$DIMAZIN
 70
     2
  9
$DIMTOFL
 70
     1
  0
ENDSEC
  0
SECTION
  2
CLASSES
  0
ENDSEC
  0
SECTION
  2
TABLES
  0
TABLE
  2
VPORT
  5
24F
100
AcDbSymbolTable
 70
     1
  0
VPORT
  5
250
100
AcDbSymbolTableRecord
100
AcDbViewportTableRecord
  2
*ACTIVE
 70
     0
 12
185.624999
 22
133.000000
 40
400.500000
 41
0.877029
  0
ENDTAB
  0
TABLE
  2
LTYPE
  5
251
100
AcDbSymbolTable
 70
     3
  0
LTYPE
  5
252
100
AcDbSymbolTableRecord
100
AcDbLinetypeTableRecord
  2
BYBLOCK
 70
     0
  3

 72
    65
 73
     0
 40
0.0
  0
LTYPE
  5
253
100
AcDbSymbolTableRecord
100
AcDbLinetypeTableRecord
  2
BYLAYER
 70
     0
  3

 72
    65
 73
     0
 40
0.0
  0
LTYPE
  5
254
100
AcDbSymbolTableRecord
100
AcDbLinetypeTableRecord
  2
CONTINUOUS
 70
     0
  3
Solid line (NEC CAE2D for Win R15.2 : 2020.05.26)
 72
    65
 73
     0
 40
0.0
  0
LTYPE
  5
255
100
AcDbSymbolTableRecord
100
AcDbLinetypeTableRecord
  2
CENTER
 70
     0
  3
____ _ ____ _ ____ _ ____ _ ____ _ ____
 72
    65
 73
     4
 40
2.0
 49
1.25
 74
     0
 49
-0.25
 74
     0
 49
0.25
 74
     0
 49
-0.25
 74
     0
  0
LTYPE
  5
256
100
AcDbSymbolTableRecord
100
AcDbLinetypeTableRecord
  2
PHANTOM
 70
     0
  3
______  __  __  ______  __  __  ______ 
 72
    65
 73
     6
 40
2.5
 49
1.25
 74
     0
 49
-0.25
 74
     0
 49
0.25
 74
     0
 49
-0.25
 74
     0
 49
0.25
 74
     0
 49
-0.25
 74
     0
  0
ENDTAB
  0
TABLE
  2
LAYER
  5
257
100
AcDbSymbolTable
 70
    16
  0
LAYER
  5
258
100
AcDbSymbolTableRecord
100
AcDbLayerTableRecord
  2
0
 70
     0
 62
     7
  6
CONTINUOUS
370
    -3
390

  0
LAYER
  5
259
100
AcDbSymbolTableRecord
100
AcDbLayerTableRecord
  2
A0
 70
     0
 62
     9
  6
CONTINUOUS
370
    -3
390

  0
LAYER
  5
25A
100
AcDbSymbolTableRecord
100
AcDbLayerTableRecord
  2
A2
 70
     0
 62
     9
  6
CONTINUOUS
370
    -3
390

  0
LAYER
  5
25B
100
AcDbSymbolTableRecord
100
AcDbLayerTableRecord
  2
A3
 70
     0
 62
    12
  6
CONTINUOUS
370
    -3
390

  0
LAYER
  5
25C
100
AcDbSymbolTableRecord
100
AcDbLayerTableRecord
  2
A4
 70
     0
 62
     9
  6
CONTINUOUS
370
    -3
390

  0
LAYER
  5
25D
100
AcDbSymbolTableRecord
100
AcDbLayerTableRecord
  2
A5
 70
     0
 62
     8
  6
CONTINUOUS
370
    -3
390

  0
LAYER
  5
25E
100
AcDbSymbolTableRecord
100
AcDbLayerTableRecord
  2
A6
 70
     0
 62
    12
  6
CONTINUOUS
370
    -3
390

  0
LAYER
  5
25F
100
AcDbSymbolTableRecord
100
AcDbLayerTableRecord
  2
A7
 70
     0
 62
    12
  6
CONTINUOUS
370
    -3
390

  0
LAYER
  5
260
100
AcDbSymbolTableRecord
100
AcDbLayerTableRecord
  2
A8
 70
     0
 62
    10
  6
CONTINUOUS
370
    -3
390

  0
LAYER
  5
261
100
AcDbSymbolTableRecord
100
AcDbLayerTableRecord
  2
A9
 70
     0
 62
     9
  6
CONTINUOUS
370
    -3
390

  0
LAYER
  5
262
100
AcDbSymbolTableRecord
100
AcDbLayerTableRecord
  2
A10
 70
     0
 62
     6
  6
CONTINUOUS
370
    -3
390

  0
LAYER
  5
263
100
AcDbSymbolTableRecord
100
AcDbLayerTableRecord
  2
A20
 70
     0
 62
     1
  6
CONTINUOUS
370
    -3
390

  0
LAYER
  5
264
100
AcDbSymbolTableRecord
100
AcDbLayerTableRecord
  2
A30
 70
     0
 62
     1
  6
CONTINUOUS
370
    -3
390

  0
LAYER
  5
265
100
AcDbSymbolTableRecord
100
AcDbLayerTableRecord
  2
A40
 70
     0
 62
     9
  6
CONTINUOUS
370
    -3
390

  0
LAYER
  5
266
100
AcDbSymbolTableRecord
100
AcDbLayerTableRecord
  2
A50
 70
     0
 62
    12
  6
CONTINUOUS
370
    -3
390

  0
LAYER
  5
267
100
AcDbSymbolTableRecord
100
AcDbLayerTableRecord
  2
A1023
 70
     0
 62
    16
  6
CONTINUOUS
370
    -3
390

  0
ENDTAB
  0
TABLE
  2
STYLE
  5
268
100
AcDbSymbolTable
 70
     4
  0
STYLE
  5
269
100
AcDbSymbolTableRecord
100
AcDbTextStyleTableRecord
  2
STANDARD
 70
    64
 40
0.0
 41
1.0
 50
0.0
 71
     0
 42
3.000000000000000
  3
TXT
  4

  0
STYLE
  5
26A
100
AcDbSymbolTableRecord
100
AcDbTextStyleTableRecord
  2
ANKTATE
 70
    68
 40
0.0
 41
1.0
 50
0.0
 71
     0
 42
3.000000000000000
  3
TXT
  4

  0
STYLE
  5
26B
100
AcDbSymbolTableRecord
100
AcDbTextStyleTableRecord
  2
KNJYOKO
 70
    64
 40
0.0
 41
1.0
 50
0.0
 71
     0
 42
3.000000000000000
  3
TXT
  4
BIGFONT
  0
STYLE
  5
26C
100
AcDbSymbolTableRecord
100
AcDbTextStyleTableRecord
  2
KNJTATE
 70
    68
 40
0.0
 41
1.0
 50
0.0
 71
     0
 42
3.000000000000000
  3
TXT
  4
BIGFONT
  0
ENDTAB
  0
TABLE
  2
VIEW
  5
26D
100
AcDbSymbolTable
 70
     0
  0
ENDTAB
  0
TABLE
  2
UCS
  5
26E
100
AcDbSymbolTable
 70
     0
  0
ENDTAB
  0
TABLE
  2
APPID
  5
26F
100
AcDbSymbolTable
 70
     1
  0
APPID
  5
270
100
AcDbSymbolTableRecord
100
AcDbRegAppTableRecord
  2
ACAD
 70
     0
  0
ENDTAB
  0
TABLE
  2
DIMSTYLE
  5
271
100
AcDbSymbolTable
 70
     2
100
AcDbDimStyleTable
  0
DIMSTYLE
105
272
100
AcDbSymbolTableRecord
100
AcDbDimStyleTableRecord
  2
STANDARD
 70
     0
 41
2.000000
 44
1.500000
 42
0.800000
145
0.661290
140
3.100000
144
1.000000
146
0.645161
340
269
  0
DIMSTYLE
105
273
100
AcDbSymbolTableRecord
100
AcDbDimStyleTableRecord
  2
A001
 70
     0
 41
2.000000
 44
1.500000
 42
0.800000
145
0.661290
140
3.100000
144
1.000000
146
0.645161
 77
     1
 73
     0
 74
     0
271
     2
179
     2
275
     0
 78
     8
 79
     2
172
     1
340
269
  0
ENDTAB
  0
TABLE
  2
BLOCK_RECORD
  5
274
100
AcDbSymbolTable
 70
    12
  0
BLOCK_RECORD
  5
275
100
AcDbSymbolTableRecord
100
AcDbBlockTableRecord
  2
*MODEL_SPACE
  0
BLOCK_RECORD
  5
276
100
AcDbSymbolTableRecord
100
AcDbBlockTableRecord
  2
*PAPER_SPACE
  0
BLOCK_RECORD
  5
277
100
AcDbSymbolTableRecord
100
AcDbBlockTableRecord
  2
*PAPER_SPACE0
  0
BLOCK_RECORD
  5
1
100
AcDbSymbolTableRecord
100
AcDbBlockTableRecord
  2
_NONE
  0
BLOCK_RECORD
  5
4
100
AcDbSymbolTableRecord
100
AcDbBlockTableRecord
  2
_CLOSED
  0
BLOCK_RECORD
  5
B
100
AcDbSymbolTableRecord
100
AcDbBlockTableRecord
  2
_DOT
  0
BLOCK_RECORD
  5
13
100
AcDbSymbolTableRecord
100
AcDbBlockTableRecord
  2
_OPEN
  0
BLOCK_RECORD
  5
19
100
AcDbSymbolTableRecord
100
AcDbBlockTableRecord
  2
_ORIGIN
  0
BLOCK_RECORD
  5
1E
100
AcDbSymbolTableRecord
100
AcDbBlockTableRecord
  2
_OPEN30
  0
BLOCK_RECORD
  5
24
100
AcDbSymbolTableRecord
100
AcDbBlockTableRecord
  2
_BOXFILLED
  0
BLOCK_RECORD
  5
29
100
AcDbSymbolTableRecord
100
AcDbBlockTableRecord
  2
_BOXBLANK
  0
BLOCK_RECORD
  5
31
100
AcDbSymbolTableRecord
100
AcDbBlockTableRecord
  2
_OBLIQUE
  0
BLOCK_RECORD
  5
35
100
AcDbSymbolTableRecord
100
AcDbBlockTableRecord
  2
_OPEN90
  0
BLOCK_RECORD
  5
3B
100
AcDbSymbolTableRecord
100
AcDbBlockTableRecord
  2
_CLOSEDBLANK
  0
BLOCK_RECORD
  5
41
100
AcDbSymbolTableRecord
100
AcDbBlockTableRecord
  2
_DOTBLANK
  0
ENDTAB
  0
ENDSEC
  0
SECTION
  2
BLOCKS
  0
BLOCK
  5
278
100
AcDbEntity
  8
0
100
AcDbBlockBegin
  2
*MODEL_SPACE
 70
     0
 10
0.0
 20
0.0
 30
0.0
  3
*MODEL_SPACE
  1

  0
ENDBLK
  5
279
100
AcDbEntity
  8
0
100
AcDbBlockEnd
  0
BLOCK
  5
27A
100
AcDbEntity
  8
0
100
AcDbBlockBegin
  2
*PAPER_SPACE
 70
     0
 10
0.0
 20
0.0
 30
0.0
  3
*PAPER_SPACE
  1

  0
ENDBLK
  5
27B
100
AcDbEntity
  8
0
100
AcDbBlockEnd
  0
BLOCK
  5
27C
100
AcDbEntity
  8
0
100
AcDbBlockBegin
  2
*PAPER_SPACE0
 70
     0
 10
0.0
 20
0.0
 30
0.0
  3
*PAPER_SPACE0
  1

  0
ENDBLK
  5
27D
100
AcDbEntity
  8
0
100
AcDbBlockEnd
  0
BLOCK
  5
2
330
1
100
AcDbEntity
  8
0
100
AcDbBlockBegin
  2
_NONE
 70
     0
 10
0.0
 20
0.0
 30
0.0
  3
_NONE
  1

  0
ENDBLK
  5
3
330
1
100
AcDbEntity
  8
0
100
AcDbBlockEnd
  0
BLOCK
  5
5
330
4
100
AcDbEntity
  8
0
100
AcDbBlockBegin
  2
_CLOSED
 70
     0
 10
0.0
 20
0.0
 30
0.0
  3
_CLOSED
  1

  0
LINE
  5
6
330
4
100
AcDbEntity
  8
0
  6
BYBLOCK
 62
     0
370
    -2
100
AcDbLine
 10
-1.0
 20
0.166667
 30
0.0
 11
0.0
 21
0.0
 31
0.0
  0
LINE
  5
7
330
4
100
AcDbEntity
  8
0
  6
BYBLOCK
 62
     0
370
    -2
100
AcDbLine
 10
0.0
 20
0.0
 30
0.0
 11
-1.0
 21
-0.166667
 31
0.0
  0
LINE
  5
8
330
4
100
AcDbEntity
  8
0
  6
BYBLOCK
 62
     0
370
    -2
100
AcDbLine
 10
-1.0
 20
0.166667
 30
0.0
 11
-1.0
 21
-0.166667
 31
0.0
  0
LINE
  5
9
330
4
100
AcDbEntity
  8
0
  6
BYBLOCK
 62
     0
370
    -2
100
AcDbLine
 10
0.0
 20
0.0
 30
0.0
 11
-1.0
 21
0.0
 31
0.0
  0
ENDBLK
  5
A
330
4
100
AcDbEntity
  8
0
100
AcDbBlockEnd
  0
BLOCK
  5
C
330
B
100
AcDbEntity
  8
0
100
AcDbBlockBegin
  2
_DOT
 70
     0
 10
0.0
 20
0.0
 30
0.0
  3
_DOT
  1

  0
POLYLINE
  5
D
330
B
100
AcDbEntity
  8
0
  6
BYBLOCK
 62
     0
370
    -2
100
AcDb2dPolyline
 66
     1
 10
0.0
 20
0.0
 30
0.0
 70
     1
 40
0.5
 41
0.5
  0
VERTEX
  5
E
330
B
100
AcDbEntity
  8
0
  6
BYBLOCK
 62
     0
370
    -2
100
AcDbVertex
100
AcDb2dVertex
 10
-0.25
 20
0.0
 30
0.0
 42
1.0
  0
VERTEX
  5
F
330
B
100
AcDbEntity
  8
0
  6
BYBLOCK
 62
     0
370
    -2
100
AcDbVertex
100
AcDb2dVertex
 10
0.25
 20
0.0
 30
0.0
 42
1.0
  0
SEQEND
  5
10
330
B
100
AcDbEntity
  8
0
  6
BYBLOCK
 62
     0
370
    -2
  0
LINE
  5
11
330
B
100
AcDbEntity
  8
0
  6
BYBLOCK
 62
     0
370
    -2
100
AcDbLine
 10
-0.5
 20
0.0
 30
0.0
 11
-1.0
 21
0.0
 31
0.0
  0
ENDBLK
  5
12
330
B
100
AcDbEntity
  8
0
100
AcDbBlockEnd
  0
BLOCK
  5
14
330
13
100
AcDbEntity
  8
0
100
AcDbBlockBegin
  2
_OPEN
 70
     0
 10
0.0
 20
0.0
 30
0.0
  3
_OPEN
  1

  0
LINE
  5
15
330
13
100
AcDbEntity
  8
0
  6
BYBLOCK
 62
     0
370
    -2
100
AcDbLine
 10
-1.0
 20
0.166667
 30
0.0
 11
0.0
 21
0.0
 31
0.0
  0
LINE
  5
16
330
13
100
AcDbEntity
  8
0
  6
BYBLOCK
 62
     0
370
    -2
100
AcDbLine
 10
0.0
 20
0.0
 30
0.0
 11
-1.0
 21
-0.166667
 31
0.0
  0
LINE
  5
17
330
13
100
AcDbEntity
  8
0
  6
BYBLOCK
 62
     0
370
    -2
100
AcDbLine
 10
0.0
 20
0.0
 30
0.0
 11
-1.0
 21
0.0
 31
0.0
  0
ENDBLK
  5
18
330
13
100
AcDbEntity
  8
0
100
AcDbBlockEnd
  0
BLOCK
  5
1A
330
19
100
AcDbEntity
  8
0
100
AcDbBlockBegin
  2
_ORIGIN
 70
     0
 10
0.0
 20
0.0
 30
0.0
  3
_ORIGIN
  1

  0
CIRCLE
  5
1B
330
19
100
AcDbEntity
  8
0
  6
BYBLOCK
 62
     0
370
    -2
100
AcDbCircle
 10
0.0
 20
0.0
 30
0.0
 40
0.5
  0
LINE
  5
1C
330
19
100
AcDbEntity
  8
0
  6
BYBLOCK
 62
     0
370
    -2
100
AcDbLine
 10
0.0
 20
0.0
 30
0.0
 11
-1.0
 21
0.0
 31
0.0
  0
ENDBLK
  5
1D
330
19
100
AcDbEntity
  8
0
100
AcDbBlockEnd
  0
BLOCK
  5
1F
330
1E
100
AcDbEntity
  8
0
100
AcDbBlockBegin
  2
_OPEN30
 70
     0
 10
0.0
 20
0.0
 30
0.0
  3
_OPEN30
  1

  0
LINE
  5
20
330
1E
100
AcDbEntity
  8
0
  6
BYBLOCK
 62
     0
370
    -2
100
AcDbLine
 10
-1.0
 20
0.267949
 30
0.0
 11
0.0
 21
0.0
 31
0.0
  0
LINE
  5
21
330
1E
100
AcDbEntity
  8
0
  6
BYBLOCK
 62
     0
370
    -2
100
AcDbLine
 10
0.0
 20
0.0
 30
0.0
 11
-1.0
 21
-0.267949
 31
0.0
  0
LINE
  5
22
330
1E
100
AcDbEntity
  8
0
  6
BYBLOCK
 62
     0
370
    -2
100
AcDbLine
 10
0.0
 20
0.0
 30
0.0
 11
-1.0
 21
0.0
 31
0.0
  0
ENDBLK
  5
23
330
1E
100
AcDbEntity
  8
0
100
AcDbBlockEnd
  0
BLOCK
  5
25
330
24
100
AcDbEntity
  8
0
100
AcDbBlockBegin
  2
_BOXFILLED
 70
     0
 10
0.0
 20
0.0
 30
0.0
  3
_BOXFILLED
  1

  0
SOLID
  5
26
330
24
100
AcDbEntity
  8
0
  6
BYBLOCK
 62
     0
370
    -2
100
AcDbTrace
 10
-0.5
 20
0.5
 30
0.0
 11
0.5
 21
0.5
 31
0.0
 12
-0.5
 22
-0.5
 32
0.0
 13
0.5
 23
-0.5
 33
0.0
  0
LINE
  5
27
330
24
100
AcDbEntity
  8
0
  6
BYBLOCK
 62
     0
370
    -2
100
AcDbLine
 10
-0.5
 20
0.0
 30
0.0
 11
-1.0
 21
0.0
 31
0.0
  0
ENDBLK
  5
28
330
24
100
AcDbEntity
  8
0
100
AcDbBlockEnd
  0
BLOCK
  5
2A
330
29
100
AcDbEntity
  8
0
100
AcDbBlockBegin
  2
_BOXBLANK
 70
     0
 10
0.0
 20
0.0
 30
0.0
  3
_BOXBLANK
  1

  0
LINE
  5
2B
330
29
100
AcDbEntity
  8
0
  6
BYBLOCK
 62
     0
370
    -2
100
AcDbLine
 10
-0.5
 20
-0.5
 30
0.0
 11
0.5
 21
-0.5
 31
0.0
  0
LINE
  5
2C
330
29
100
AcDbEntity
  8
0
  6
BYBLOCK
 62
     0
370
    -2
100
AcDbLine
 10
0.5
 20
-0.5
 30
0.0
 11
0.5
 21
0.5
 31
0.0
  0
LINE
  5
2D
330
29
100
AcDbEntity
  8
0
  6
BYBLOCK
 62
     0
370
    -2
100
AcDbLine
 10
0.5
 20
0.5
 30
0.0
 11
-0.5
 21
0.5
 31
0.0
  0
LINE
  5
2E
330
29
100
AcDbEntity
  8
0
  6
BYBLOCK
 62
     0
370
    -2
100
AcDbLine
 10
-0.5
 20
0.5
 30
0.0
 11
-0.5
 21
-0.5
 31
0.0
  0
LINE
  5
2F
330
29
100
AcDbEntity
  8
0
  6
BYBLOCK
 62
     0
370
    -2
100
AcDbLine
 10
-0.5
 20
0.0
 30
0.0
 11
-1.0
 21
0.0
 31
0.0
  0
ENDBLK
  5
30
330
29
100
AcDbEntity
  8
0
100
AcDbBlockEnd
  0
BLOCK
  5
32
330
31
100
AcDbEntity
  8
0
100
AcDbBlockBegin
  2
_OBLIQUE
 70
     0
 10
0.0
 20
0.0
 30
0.0
  3
_OBLIQUE
  1

  0
LINE
  5
33
330
31
100
AcDbEntity
  8
0
  6
BYBLOCK
 62
     0
370
    -2
100
AcDbLine
 10
-0.5
 20
-0.5
 30
0.0
 11
0.5
 21
0.5
 31
0.0
  0
ENDBLK
  5
34
330
31
100
AcDbEntity
  8
0
100
AcDbBlockEnd
  0
BLOCK
  5
36
330
35
100
AcDbEntity
  8
0
100
AcDbBlockBegin
  2
_OPEN90
 70
     0
 10
0.0
 20
0.0
 30
0.0
  3
_OPEN90
  1

  0
LINE
  5
37
330
35
100
AcDbEntity
  8
0
  6
BYBLOCK
 62
     0
370
    -2
100
AcDbLine
 10
-0.5
 20
0.5
 30
0.0
 11
0.0
 21
0.0
 31
0.0
  0
LINE
  5
38
330
35
100
AcDbEntity
  8
0
  6
BYBLOCK
 62
     0
370
    -2
100
AcDbLine
 10
0.0
 20
0.0
 30
0.0
 11
-0.5
 21
-0.5
 31
0.0
  0
LINE
  5
39
330
35
100
AcDbEntity
  8
0
  6
BYBLOCK
 62
     0
370
    -2
100
AcDbLine
 10
0.0
 20
0.0
 30
0.0
 11
-1.0
 21
0.0
 31
0.0
  0
ENDBLK
  5
3A
330
35
100
AcDbEntity
  8
0
100
AcDbBlockEnd
  0
BLOCK
  5
3C
330
3B
100
AcDbEntity
  8
0
100
AcDbBlockBegin
  2
_CLOSEDBLANK
 70
     0
 10
0.0
 20
0.0
 30
0.0
  3
_CLOSEDBLANK
  1

  0
LINE
  5
3D
330
3B
100
AcDbEntity
  8
0
  6
BYBLOCK
 62
     0
370
    -2
100
AcDbLine
 10
-1.0
 20
0.1666666666666666
 30
0.0
 11
0.0
 21
0.0
 31
0.0
  0
LINE
  5
3E
330
3B
100
AcDbEntity
  8
0
  6
BYBLOCK
 62
     0
370
    -2
100
AcDbLine
 10
0.0
 20
0.0
 30
0.0
 11
-1.0
 21
-0.1666666666666666
 31
0.0
  0
LINE
  5
3F
330
3B
100
AcDbEntity
  8
0
  6
BYBLOCK
 62
     0
370
    -2
100
AcDbLine
 10
-1.0
 20
0.1666666666666666
 30
0.0
 11
-1.0
 21
-0.1666666666666666
 31
0.0
  0
ENDBLK
  5
40
330
3B
100
AcDbEntity
  8
0
100
AcDbBlockEnd
  0
BLOCK
  5
42
330
41
100
AcDbEntity
  8
0
100
AcDbBlockBegin
  2
_DOTBLANK
 70
     0
 10
0.0
 20
0.0
 30
0.0
  3
_DOTBLANK
  1

  0
CIRCLE
  5
43
330
41
100
AcDbEntity
  8
0
  6
BYBLOCK
 62
     0
370
    -2
100
AcDbCircle
 10
0.0
 20
0.0
 30
0.0
 40
0.5
  0
LINE
  5
44
330
41
100
AcDbEntity
  8
0
  6
BYBLOCK
 62
     0
370
    -2
100
AcDbLine
 10
-0.5
 20
0.0
 30
0.0
 11
-1.0
 21
0.0
 31
0.0
  0
ENDBLK
  5
45
330
41
100
AcDbEntity
  8
0
100
AcDbBlockEnd
  0
ENDSEC
  0
SECTION
  2
ENTITIES
  0
MTEXT
  5
46
100
AcDbEntity
  8
A8
  6
CONTINUOUS
 62
7
100
AcDbMText
 10
9.999997526638502
 20
18.00000076076889
 30
0.0000000000000000
 40
3.000000000000000
 41
0.0000000000000000
 44
0.6739999771118164
 71
     7
 72
     1
  1
{\H0.94x;{TYPE No.TM-368-35-20}}
 11
1.000000000000000
 21
0.0000000000000000
 31
0.0000000000000000
  7
STANDARD
  0
POINT
  5
47
100
AcDbEntity
  8
A0
  6
CONTINUOUS
 62
5
100
AcDbPoint
 10
9.999997526638502
 20
18.00000076076889
 30
0.0000000000000000
  0
ARC
  5
48
100
AcDbEntity
  8
A4
  6
CONTINUOUS
 62
7
100
AcDbCircle
 10
151.8000000001057
 20
205.7000000000859
 30
0.0000000000000000
 40
0.5000000000000000
100
AcDbArc
 50
270.0000000000000
 51
360.0000000000000
  0
ARC
  5
49
100
AcDbEntity
  8
A4
  6
CONTINUOUS
 62
7
100
AcDbCircle
 10
151.8000000001057
 20
205.7000000000859
 30
0.0000000000000000
 40
3.699999999999989
100
AcDbArc
 50
270.0000000001813
 51
352.2335658308739
  0
ARC
  5
4A
100
AcDbEntity
  8
A4
  6
CONTINUOUS
 62
7
100
AcDbCircle
 10
151.8000000001057
 20
60.29999999999995
 30
0.0000000000000000
 40
3.699999999999989
100
AcDbArc
 50
7.766434167429408
 51
90.00000000000000
  0
ARC
  5
4B
100
AcDbEntity
  8
A4
  6
CONTINUOUS
 62
7
100
AcDbCircle
 10
151.8000000001057
 20
60.29999999999995
 30
0.0000000000000000
 40
0.5000000000000000
100
AcDbArc
 50
0.0000000000000000
 51
90.00000000000000
  0
ARC
  5
4C
100
AcDbEntity
  8
A4
  6
CONTINUOUS
 62
7
100
AcDbCircle
 10
139.2000000000960
 20
128.4999999997628
 30
0.0000000000000000
 40
0.9000000000000000
100
AcDbArc
 50
270.0000000000000
 51
450.0000000000000
  0
ARC
  5
4D
100
AcDbEntity
  8
A4
  6
CONTINUOUS
 62
7
100
AcDbCircle
 10
160.8000000001153
 20
128.4999999997628
 30
0.0000000000000000
 40
0.9000000000000000
100
AcDbArc
 50
90.00000000000000
 51
270.0000000000000
  0
ARC
  5
4E
100
AcDbEntity
  8
A4
  6
CONTINUOUS
 62
7
100
AcDbCircle
 10
139.2000000000593
 20
114.9999999997628
 30
0.0000000000000000
 40
0.9000000000000000
100
AcDbArc
 50
270.0000000000000
 51
450.0000000000000
  0
ARC
  5
4F
100
AcDbEntity
  8
A4
  6
CONTINUOUS
 62
7
100
AcDbCircle
 10
160.8000000001521
 20
114.9999999997628
 30
0.0000000000000000
 40
0.9000000000000000
100
AcDbArc
 50
90.00000000000000
 51
270.0000000000000
  0
LINE
  5
50
100
AcDbEntity
  8
A4
  6
CONTINUOUS
 62
7
100
AcDbLine
 10
145.0000000001936
 20
107.9999999997627
 30
0.0000000000000000
 11
145.0000000001936
 21
64.00000000000004
 31
0.0000000000000000
  0
LINE
  5
51
100
AcDbEntity
  8
A4
  6
CONTINUOUS
 62
7
100
AcDbLine
 10
155.0000000000180
 20
64.00000000001562
 30
0.0000000000000000
 11
155.0000000000180
 21
107.9999999997627
 31
0.0000000000000000
  0
LINE
  5
52
100
AcDbEntity
  8
A4
  6
CONTINUOUS
 62
7
100
AcDbLine
 10
143.5000000001057
 20
205.2000000000858
 30
0.0000000000000000
 11
143.5000000001057
 21
202.0000000000267
 31
0.0000000000000000
  0
LINE
  5
53
100
AcDbEntity
  8
A4
  6
CONTINUOUS
 62
7
100
AcDbLine
 10
143.5000000001057
 20
205.2000000000858
 30
0.0000000000000000
 11
151.8000000001057
 21
205.2000000000858
 31
0.0000000000000000
  0
LINE
  5
54
100
AcDbEntity
  8
A4
  6
CONTINUOUS
 62
7
100
AcDbLine
 10
143.5000000001057
 20
202.0000000000266
 30
0.0000000000000000
 11
154.9518992686707
 21
202.0000000000266
 31
0.0000000000000000
  0
LINE
  5
55
100
AcDbEntity
  8
A4
  6
CONTINUOUS
 62
7
100
AcDbLine
 10
155.5000000001057
 20
43.50000000000004
 30
0.0000000000000000
 11
155.7500000001057
 21
43.50000000000004
 31
0.0000000000000000
  0
LINE
  5
56
100
AcDbEntity
  8
A4
  6
CONTINUOUS
 62
7
100
AcDbLine
 10
155.7500000001057
 20
56.50000000000004
 30
0.0000000000000000
 11
155.5000000001057
 21
56.50000000000004
 31
0.0000000000000000
  0
LINE
  5
57
100
AcDbEntity
  8
A4
  6
CONTINUOUS
 62
7
100
AcDbLine
 10
151.2500000001057
 20
43.50000000000004
 30
0.0000000000000000
 11
151.5000000001058
 21
43.50000000000004
 31
0.0000000000000000
  0
LINE
  5
58
100
AcDbEntity
  8
A4
  6
CONTINUOUS
 62
7
100
AcDbLine
 10
151.5000000001058
 20
56.50000000000004
 30
0.0000000000000000
 11
151.2500000001057
 21
56.50000000000004
 31
0.0000000000000000
  0
LINE
  5
59
100
AcDbEntity
  8
A4
  6
CONTINUOUS
 62
7
100
AcDbLine
 10
155.5000000001057
 20
209.5000000000860
 30
0.0000000000000000
 11
155.7500000001057
 21
209.5000000000860
 31
0.0000000000000000
  0
LINE
  5
5A
100
AcDbEntity
  8
A4
  6
CONTINUOUS
 62
7
100
AcDbLine
 10
155.7500000001057
 20
222.5000000000860
 30
0.0000000000000000
 11
155.5000000001057
 21
222.5000000000860
 31
0.0000000000000000
  0
LINE
  5
5B
100
AcDbEntity
  8
A4
  6
CONTINUOUS
 62
7
100
AcDbLine
 10
151.2500000001057
 20
209.5000000000860
 30
0.0000000000000000
 11
151.5000000001057
 21
209.5000000000860
 31
0.0000000000000000
  0
LINE
  5
5C
100
AcDbEntity
  8
A4
  6
CONTINUOUS
 62
7
100
AcDbLine
 10
151.5000000001057
 20
222.5000000000860
 30
0.0000000000000000
 11
151.2500000001057
 21
222.5000000000860
 31
0.0000000000000000
  0
LINE
  5
5D
100
AcDbEntity
  8
A4
  6
CONTINUOUS
 62
7
100
AcDbLine
 10
151.2500000001056
 20
50.50000000004236
 30
0.0000000000000000
 11
148.5000000001056
 21
50.50000000004803
 31
0.0000000000000000
  0
LINE
  5
5E
100
AcDbEntity
  8
A4
  6
CONTINUOUS
 62
7
100
AcDbLine
 10
148.5000000001058
 20
55.97913037155782
 30
0.0000000000000000
 11
151.2500000001057
 21
56.88186021364019
 31
0.0000000000000000
  0
LINE
  5
5F
100
AcDbEntity
  8
A4
  6
CONTINUOUS
 62
7
100
AcDbLine
 10
148.5000000001057
 20
55.97913037155790
 30
0.0000000000000000
 11
148.5000000001057
 21
50.50000000004813
 31
0.0000000000000000
  0
LINE
  5
60
100
AcDbEntity
  8
A4
  6
CONTINUOUS
 62
7
100
AcDbLine
 10
151.2500000001057
 20
56.88186021364019
 30
0.0000000000000000
 11
151.2500000001057
 21
43.11813978636303
 31
0.0000000000000000
  0
LINE
  5
61
100
AcDbEntity
  8
A4
  6
CONTINUOUS
 62
7
100
AcDbLine
 10
151.2500000001057
 20
215.5000000000467
 30
0.0000000000000000
 11
148.5000000001057
 21
215.5000000000467
 31
0.0000000000000000
  0
LINE
  5
62
100
AcDbEntity
  8
A4
  6
CONTINUOUS
 62
7
100
AcDbLine
 10
151.2500000001058
 20
209.1181397864522
 30
0.0000000000000000
 11
148.5000000001058
 21
210.0208696285354
 31
0.0000000000000000
  0
LINE
  5
63
100
AcDbEntity
  8
A4
  6
CONTINUOUS
 62
7
100
AcDbLine
 10
148.5000000001058
 20
215.5000000000467
 30
0.0000000000000000
 11
148.5000000001058
 21
210.0208696285352
 31
0.0000000000000000
  0
LINE
  5
64
100
AcDbEntity
  8
A4
  6
CONTINUOUS
 62
7
100
AcDbLine
 10
151.2500000001057
 20
222.8818602137231
 30
0.0000000000000000
 11
151.2500000001057
 21
209.1181397864521
 31
0.0000000000000000
  0
LINE
  5
65
100
AcDbEntity
  8
A4
  6
CONTINUOUS
 62
7
100
AcDbLine
 10
148.5000000001058
 20
221.9791303716397
 30
0.0000000000000000
 11
151.2500000001058
 21
222.8818602137229
 31
0.0000000000000000
  0
LINE
  5
66
100
AcDbEntity
  8
A4
  6
CONTINUOUS
 62
7
100
AcDbLine
 10
148.5000000001058
 20
221.9791303716398
 30
0.0000000000000000
 11
148.5000000001058
 21
216.5000000000467
 31
0.0000000000000000
  0
LINE
  5
67
100
AcDbEntity
  8
A4
  6
CONTINUOUS
 62
7
100
AcDbLine
 10
151.2500000001057
 20
216.5000000000467
 30
0.0000000000000000
 11
148.5000000001057
 21
216.5000000000467
 31
0.0000000000000000
  0
LINE
  5
68
100
AcDbEntity
  8
A4
  6
CONTINUOUS
 62
7
100
AcDbLine
 10
151.2500000001057
 20
49.50000000004236
 30
0.0000000000000000
 11
148.5000000001056
 21
49.50000000004803
 31
0.0000000000000000
  0
LINE
  5
69
100
AcDbEntity
  8
A4
  6
CONTINUOUS
 62
7
100
AcDbLine
 10
151.2500000001059
 20
43.11813978636301
 30
0.0000000000000000
 11
148.5000000001058
 21
44.02086962844543
 31
0.0000000000000000
  0
LINE
  5
6A
100
AcDbEntity
  8
A4
  6
CONTINUOUS
 62
7
100
AcDbLine
 10
148.5000000001057
 20
49.50000000004813
 30
0.0000000000000000
 11
148.5000000001057
 21
44.02086962844537
 31
0.0000000000000000
  0
LINE
  5
6B
100
AcDbEntity
  8
A4
  6
CONTINUOUS
 62
7
100
AcDbLine
 10
158.5000000001056
 20
55.99999999999989
 30
0.0000000000000000
 11
155.7500000001055
 21
57.50000000000002
 31
0.0000000000000000
  0
LINE
  5
6C
100
AcDbEntity
  8
A4
  6
CONTINUOUS
 62
7
100
AcDbLine
 10
155.7500000001057
 20
42.49999999999996
 30
0.0000000000000000
 11
158.5000000001056
 21
43.99999999999998
 31
0.0000000000000000
  0
LINE
  5
6D
100
AcDbEntity
  8
A4
  6
CONTINUOUS
 62
7
100
AcDbLine
 10
158.5000000001057
 20
55.99999999999993
 30
0.0000000000000000
 11
158.5000000001057
 21
44.00000000000004
 31
0.0000000000000000
  0
LINE
  5
6E
100
AcDbEntity
  8
A4
  6
CONTINUOUS
 62
7
100
AcDbLine
 10
155.7500000001057
 20
57.50000000000004
 30
0.0000000000000000
 11
155.7500000001057
 21
42.50000000000004
 31
0.0000000000000000
  0
LINE
  5
6F
100
AcDbEntity
  8
A4
  6
CONTINUOUS
 62
7
100
AcDbLine
 10
151.5000000001058
 20
42.50000000000004
 30
0.0000000000000000
 11
152.3000000001058
 21
42.50000000000004
 31
0.0000000000000000
  0
LINE
  5
70
100
AcDbEntity
  8
A4
  6
CONTINUOUS
 62
7
100
AcDbLine
 10
152.3000000001058
 20
57.50000000000004
 30
0.0000000000000000
 11
151.5000000001058
 21
57.50000000000004
 31
0.0000000000000000
  0
LINE
  5
71
100
AcDbEntity
  8
A4
  6
CONTINUOUS
 62
7
100
AcDbLine
 10
151.5000000001058
 20
57.50000000000004
 30
0.0000000000000000
 11
151.5000000001058
 21
42.50000000000004
 31
0.0000000000000000
  0
LINE
  5
72
100
AcDbEntity
  8
A4
  6
CONTINUOUS
 62
7
100
AcDbLine
 10
158.5000000001058
 20
222.0000000000856
 30
0.0000000000000000
 11
155.7500000001059
 21
223.5000000000859
 31
0.0000000000000000
  0
LINE
  5
73
100
AcDbEntity
  8
A4
  6
CONTINUOUS
 62
7
100
AcDbLine
 10
155.7500000001058
 20
208.5000000000858
 30
0.0000000000000000
 11
158.5000000001057
 21
210.0000000000859
 31
0.0000000000000000
  0
LINE
  5
74
100
AcDbEntity
  8
A4
  6
CONTINUOUS
 62
7
100
AcDbLine
 10
155.7500000001058
 20
223.5000000000860
 30
0.0000000000000000
 11
155.7500000001058
 21
208.5000000000860
 31
0.0000000000000000
  0
LINE
  5
75
100
AcDbEntity
  8
A4
  6
CONTINUOUS
 62
7
100
AcDbLine
 10
158.5000000001057
 20
222.0000000000857
 30
0.0000000000000000
 11
158.5000000001057
 21
210.0000000000861
 31
0.0000000000000000
  0
LINE
  5
76
100
AcDbEntity
  8
A4
  6
CONTINUOUS
 62
7
100
AcDbLine
 10
151.5000000001057
 20
208.5000000000860
 30
0.0000000000000000
 11
152.3000000001058
 21
208.5000000000860
 31
0.0000000000000000
  0
LINE
  5
77
100
AcDbEntity
  8
A4
  6
CONTINUOUS
 62
7
100
AcDbLine
 10
152.3000000001058
 20
223.5000000000860
 30
0.0000000000000000
 11
151.5000000001057
 21
223.5000000000860
 31
0.0000000000000000
  0
LINE
  5
78
100
AcDbEntity
  8
A4
  6
CONTINUOUS
 62
7
100
AcDbLine
 10
151.5000000001057
 20
223.5000000000860
 30
0.0000000000000000
 11
151.5000000001057
 21
208.5000000000860
 31
0.0000000000000000
  0
LINE
  5
79
100
AcDbEntity
  8
A4
  6
CONTINUOUS
 62
7
100
AcDbLine
 10
151.8000000001057
 20
60.80000000000000
 30
0.0000000000000000
 11
143.5000000001057
 21
60.80000000000000
 31
0.0000000000000000
  0
LINE
  5
7A
100
AcDbEntity
  8
A4
  6
CONTINUOUS
 62
7
100
AcDbLine
 10
143.5000000001057
 20
63.99999999997964
 30
0.0000000000000000
 11
155.0000000000181
 21
64.00000000001560
 31
0.0000000000000000
  0
LINE
  5
7B
100
AcDbEntity
  8
A4
  6
CONTINUOUS
 62
7
100
AcDbLine
 10
143.5000000001057
 20
60.80000000000000
 30
0.0000000000000000
 11
143.5000000001057
 21
64.00000000000004
 31
0.0000000000000000
  0
LINE
  5
7C
100
AcDbEntity
  8
A4
  6
CONTINUOUS
 62
7
100
AcDbLine
 10
155.5000000001057
 20
51.89132317597880
 30
0.0000000000000000
 11
155.5000000001057
 21
60.80000000003854
 31
0.0000000000000000
  0
LINE
  5
7D
100
AcDbEntity
  8
A4
  6
CONTINUOUS
 62
7
100
AcDbLine
 10
152.3000000001057
 20
40.50000000008553
 30
0.0000000000000000
 11
152.3000000001057
 21
60.29999999999995
 31
0.0000000000000000
  0
LINE
  5
7E
100
AcDbEntity
  8
A4
  6
CONTINUOUS
 62
7
100
AcDbLine
 10
155.5000000001057
 20
60.80000000003854
 30
0.0000000000000000
 11
155.4660605568703
 21
60.80000000003854
 31
0.0000000000000000
  0
LINE
  5
7F
100
AcDbEntity
  8
A4
  6
CONTINUOUS
 62
7
100
AcDbLine
 10
155.5000000001057
 20
214.1086768240951
 30
0.0000000000000000
 11
155.5000000001057
 21
205.2000000000467
 31
0.0000000000000000
  0
LINE
  5
80
100
AcDbEntity
  8
A4
  6
CONTINUOUS
 62
7
100
AcDbLine
 10
152.3000000001057
 20
214.1086768240951
 30
0.0000000000000000
 11
152.3000000001057
 21
205.7000000000859
 31
0.0000000000000000
  0
LINE
  5
81
100
AcDbEntity
  8
A4
  6
CONTINUOUS
 62
7
100
AcDbLine
 10
155.5000000001057
 20
205.2000000000467
 30
0.0000000000000000
 11
155.4660605560651
 21
205.2000000000467
 31
0.0000000000000000
  0
LINE
  5
82
100
AcDbEntity
  8
A4
  6
CONTINUOUS
 62
7
100
AcDbLine
 10
155.5000000001057
 20
214.1086768240951
 30
0.0000000000000000
 11
155.5000000001057
 21
225.5000000000469
 31
0.0000000000000000
  0
LINE
  5
83
100
AcDbEntity
  8
A4
  6
CONTINUOUS
 62
7
100
AcDbLine
 10
152.3000000001057
 20
214.1086768240951
 30
0.0000000000000000
 11
152.3000000001057
 21
225.5000000000469
 31
0.0000000000000000
  0
LINE
  5
84
100
AcDbEntity
  8
A4
  6
CONTINUOUS
 62
7
100
AcDbLine
 10
155.5000000001057
 20
225.5000000000469
 30
0.0000000000000000
 11
152.3000000001057
 21
225.5000000000469
 31
0.0000000000000000
  0
LINE
  5
85
100
AcDbEntity
  8
A4
  6
CONTINUOUS
 62
7
100
AcDbLine
 10
152.3000000001057
 20
40.50000000008554
 30
0.0000000000000000
 11
155.5000000001057
 21
40.50000000008554
 31
0.0000000000000000
  0
LINE
  5
86
100
AcDbEntity
  8
A4
  6
CONTINUOUS
 62
7
100
AcDbLine
 10
155.5000000001057
 20
40.50000000008554
 30
0.0000000000000000
 11
155.5000000001057
 21
51.89132317624312
 31
0.0000000000000000
  0
LINE
  5
87
100
AcDbEntity
  8
A4
  6
CONTINUOUS
 62
7
100
AcDbLine
 10
140.1000000001058
 20
109.6999999997628
 30
0.0000000000000000
 11
140.1000000001058
 21
107.9999999997627
 31
0.0000000000000000
  0
LINE
  5
88
100
AcDbEntity
  8
A4
  6
CONTINUOUS
 62
7
100
AcDbLine
 10
159.9000000001057
 20
107.9999999997627
 30
0.0000000000000000
 11
159.9000000001057
 21
109.6999999997628
 31
0.0000000000000000
  0
LINE
  5
89
100
AcDbEntity
  8
A4
  6
CONTINUOUS
 62
7
100
AcDbLine
 10
159.9000000001057
 20
107.9999999997627
 30
0.0000000000000000
 11
140.1000000001058
 21
107.9999999997627
 31
0.0000000000000000
  0
LINE
  5
8A
100
AcDbEntity
  8
A4
  6
CONTINUOUS
 62
7
100
AcDbLine
 10
139.0000000000776
 20
127.5999999997628
 30
0.0000000000000000
 11
139.0000000000776
 21
115.8999999997629
 31
0.0000000000000000
  0
LINE
  5
8B
100
AcDbEntity
  8
A4
  6
CONTINUOUS
 62
7
100
AcDbLine
 10
161.0000000001338
 20
115.8999999997629
 30
0.0000000000000000
 11
161.0000000001338
 21
127.5999999997628
 31
0.0000000000000000
  0
LINE
  5
8C
100
AcDbEntity
  8
A4
  6
CONTINUOUS
 62
7
100
AcDbLine
 10
161.0000000001521
 20
115.8999999997629
 30
0.0000000000000000
 11
139.0000000000593
 21
115.8999999997629
 31
0.0000000000000000
  0
LINE
  5
8D
100
AcDbEntity
  8
A4
  6
CONTINUOUS
 62
7
100
AcDbLine
 10
161.0000000001154
 20
127.5999999997628
 30
0.0000000000000000
 11
139.0000000000961
 21
127.5999999997628
 31
0.0000000000000000
  0
LINE
  5
8E
100
AcDbEntity
  8
A4
  6
CONTINUOUS
 62
7
100
AcDbLine
 10
139.0000000000524
 20
114.0999999997628
 30
0.0000000000000000
 11
139.0000000000524
 21
109.6999999997625
 31
0.0000000000000000
  0
LINE
  5
8F
100
AcDbEntity
  8
A4
  6
CONTINUOUS
 62
7
100
AcDbLine
 10
161.0000000001590
 20
109.6999999997625
 30
0.0000000000000000
 11
161.0000000001590
 21
114.0999999997628
 31
0.0000000000000000
  0
LINE
  5
90
100
AcDbEntity
  8
A4
  6
CONTINUOUS
 62
7
100
AcDbLine
 10
161.0000000001659
 20
109.6999999997625
 30
0.0000000000000000
 11
139.0000000000456
 21
109.6999999997625
 31
0.0000000000000000
  0
LINE
  5
91
100
AcDbEntity
  8
A4
  6
CONTINUOUS
 62
7
100
AcDbLine
 10
161.0000000001521
 20
114.0999999997628
 30
0.0000000000000000
 11
139.0000000000593
 21
114.0999999997628
 31
0.0000000000000000
  0
LINE
  5
92
100
AcDbEntity
  8
A4
  6
CONTINUOUS
 62
7
100
AcDbLine
 10
138.9999999999999
 20
196.8944483019338
 30
0.0000000000000000
 11
138.9999999999999
 21
129.3999999997629
 31
0.0000000000000000
  0
LINE
  5
93
100
AcDbEntity
  8
A4
  6
CONTINUOUS
 62
7
100
AcDbLine
 10
161.0000000002117
 20
129.3999999997629
 30
0.0000000000000000
 11
161.0000000002117
 21
196.8944483019338
 31
0.0000000000000000
  0
LINE
  5
94
100
AcDbEntity
  8
A4
  6
CONTINUOUS
 62
7
100
AcDbLine
 10
161.0000000003175
 20
129.3999999997629
 30
0.0000000000000000
 11
138.9999999998939
 21
129.3999999997629
 31
0.0000000000000000
  0
LINE
  5
95
100
AcDbEntity
  8
A4
  6
CONTINUOUS
 62
7
100
AcDbLine
 10
145.0481007315968
 20
202.0000000000625
 30
0.0000000000000000
 11
138.9263269808141
 21
198.1000000000471
 31
0.0000000000000000
  0
LINE
  5
96
100
AcDbEntity
  8
A4
  6
CONTINUOUS
 62
7
100
AcDbLine
 10
161.0736730193972
 20
198.1000000000471
 30
0.0000000000000000
 11
154.9518992686147
 21
202.0000000000625
 31
0.0000000000000000
  0
LINE
  5
97
100
AcDbEntity
  8
A4
  6
CONTINUOUS
 62
7
100
AcDbLine
 10
161.0000000001059
 20
196.8944483019337
 30
0.0000000000000000
 11
161.2500000001058
 21
197.1000000000469
 31
0.0000000000000000
  0
LINE
  5
98
100
AcDbEntity
  8
A4
  6
CONTINUOUS
 62
7
100
AcDbLine
 10
138.7500000001058
 20
197.1000000000468
 30
0.0000000000000000
 11
139.0000000001057
 21
196.8944483019336
 31
0.0000000000000000
  0
LINE
  5
99
100
AcDbEntity
  8
A4
  6
CONTINUOUS
 62
7
100
AcDbLine
 10
161.0000000001058
 20
196.8944483019338
 30
0.0000000000000000
 11
139.0000000001056
 21
196.8944483019338
 31
0.0000000000000000
  0
LINE
  5
9A
100
AcDbEntity
  8
A4
  6
CONTINUOUS
 62
7
100
AcDbLine
 10
138.9263269808142
 20
198.1000000000471
 30
0.0000000000000000
 11
138.7500000001057
 21
197.1000000000469
 31
0.0000000000000000
  0
LINE
  5
9B
100
AcDbEntity
  8
A4
  6
CONTINUOUS
 62
7
100
AcDbLine
 10
161.2500000001058
 20
197.1000000000469
 30
0.0000000000000000
 11
161.0736730193973
 21
198.1000000000471
 31
0.0000000000000000
  0
LINE
  5
9C
100
AcDbEntity
  8
A4
  6
CONTINUOUS
 62
7
100
AcDbLine
 10
161.2500000001057
 20
197.1000000000469
 30
0.0000000000000000
 11
138.7500000001057
 21
197.1000000000469
 31
0.0000000000000000
  0
LINE
  5
9D
100
AcDbEntity
  8
A4
  6
CONTINUOUS
 62
7
100
AcDbLine
 10
161.0736730193972
 20
198.1000000000471
 30
0.0000000000000000
 11
138.9263269808142
 21
198.1000000000471
 31
0.0000000000000000
  0
CIRCLE
  5
9E
100
AcDbEntity
  8
A5
  6
CONTINUOUS
 62
7
100
AcDbCircle
 10
150.0000000001058
 20
316.0000000000859
 30
0.0000000000000000
 40
11.25000000000000
  0
CIRCLE
  5
9F
100
AcDbEntity
  8
A5
  6
CONTINUOUS
 62
7
100
AcDbCircle
 10
150.0000000001058
 20
316.0000000000859
 30
0.0000000000000000
 40
11.07367301929150
  0
ARC
  5
A0
100
AcDbEntity
  8
A5
  6
CONTINUOUS
 62
7
100
AcDbCircle
 10
146.1672885659785
 20
310.5000000000859
 30
0.0000000000000000
 40
2.000000000000000
100
AcDbArc
 50
193.8352236140381
 51
270.0000000000000
  0
ARC
  5
A1
100
AcDbEntity
  8
A5
  6
CONTINUOUS
 62
7
100
AcDbCircle
 10
146.9651445327478
 20
320.5000000000859
 30
0.0000000000000000
 40
3.000000000000000
100
AcDbArc
 50
90.00000000000000
 51
168.1971083096929
  0
ARC
  5
A2
100
AcDbEntity
  8
A5
  6
CONTINUOUS
 62
7
100
AcDbCircle
 10
168.5000000001058
 20
316.0000000000859
 30
0.0000000000000000
 40
25.00000000000000
100
AcDbArc
 50
168.1971083096929
 51
193.8352236140381
  0
LINE
  5
A3
100
AcDbEntity
  8
A5
  6
CONTINUOUS
 62
7
100
AcDbLine
 10
152.3000000001058
 20
323.5000000000860
 30
0.0000000000000000
 11
146.9651445327478
 21
323.5000000000860
 31
0.0000000000000000
  0
LINE
  5
A4
100
AcDbEntity
  8
A5
  6
CONTINUOUS
 62
7
100
AcDbLine
 10
152.3000000001058
 20
308.5000000000860
 30
0.0000000000000000
 11
146.1672885659785
 21
308.5000000000860
 31
0.0000000000000000
  0
LINE
  5
A5
100
AcDbEntity
  8
A5
  6
CONTINUOUS
 62
7
100
AcDbLine
 10
155.5000000001059
 20
309.5000000000860
 30
0.0000000000000000
 11
155.7500000001059
 21
309.5000000000860
 31
0.0000000000000000
  0
LINE
  5
A6
100
AcDbEntity
  8
A5
  6
CONTINUOUS
 62
7
100
AcDbLine
 10
155.7500000001059
 20
322.5000000000860
 30
0.0000000000000000
 11
155.5000000001059
 21
322.5000000000860
 31
0.0000000000000000
  0
LINE
  5
A7
100
AcDbEntity
  8
A5
  6
CONTINUOUS
 62
7
100
AcDbLine
 10
151.2500000001059
 20
309.5000000000860
 30
0.0000000000000000
 11
151.5000000001059
 21
309.5000000000860
 31
0.0000000000000000
  0
LINE
  5
A8
100
AcDbEntity
  8
A5
  6
CONTINUOUS
 62
7
100
AcDbLine
 10
151.5000000001059
 20
322.5000000000860
 30
0.0000000000000000
 11
151.2500000001059
 21
322.5000000000860
 31
0.0000000000000000
  0
LINE
  5
A9
100
AcDbEntity
  8
A5
  6
CONTINUOUS
 62
7
100
AcDbLine
 10
151.2500000001058
 20
316.5000000001285
 30
0.0000000000000000
 11
148.5000000001058
 21
316.5000000001230
 31
0.0000000000000000
  0
LINE
  5
AA
100
AcDbEntity
  8
A5
  6
CONTINUOUS
 62
7
100
AcDbLine
 10
151.2500000001059
 20
322.8818602137227
 30
0.0000000000000000
 11
148.5000000001058
 21
321.9791303716399
 31
0.0000000000000000
  0
LINE
  5
AB
100
AcDbEntity
  8
A5
  6
CONTINUOUS
 62
7
100
AcDbLine
 10
148.5000000001060
 20
321.9791303716400
 30
0.0000000000000000
 11
148.5000000001060
 21
316.5000000001231
 31
0.0000000000000000
  0
LINE
  5
AC
100
AcDbEntity
  8
A5
  6
CONTINUOUS
 62
7
100
AcDbLine
 10
151.2500000001058
 20
322.8818602137225
 30
0.0000000000000000
 11
151.2500000001058
 21
309.1181397864491
 31
0.0000000000000000
  0
LINE
  5
AD
100
AcDbEntity
  8
A5
  6
CONTINUOUS
 62
7
100
AcDbLine
 10
151.2500000001058
 20
315.5000000001285
 30
0.0000000000000000
 11
148.5000000001058
 21
315.5000000001230
 31
0.0000000000000000
  0
LINE
  5
AE
100
AcDbEntity
  8
A5
  6
CONTINUOUS
 62
7
100
AcDbLine
 10
148.5000000001060
 20
315.5000000001231
 30
0.0000000000000000
 11
148.5000000001060
 21
310.0208696285320
 31
0.0000000000000000
  0
LINE
  5
AF
100
AcDbEntity
  8
A5
  6
CONTINUOUS
 62
7
100
AcDbLine
 10
151.2500000001058
 20
309.1181397864492
 30
0.0000000000000000
 11
148.5000000001058
 21
310.0208696285321
 31
0.0000000000000000
  0
LINE
  5
B0
100
AcDbEntity
  8
A5
  6
CONTINUOUS
 62
7
100
AcDbLine
 10
158.5000000001058
 20
322.0000000000859
 30
0.0000000000000000
 11
155.7500000001060
 21
323.5000000000860
 31
0.0000000000000000
  0
LINE
  5
B1
100
AcDbEntity
  8
A5
  6
CONTINUOUS
 62
7
100
AcDbLine
 10
155.7500000001057
 20
308.5000000000859
 30
0.0000000000000000
 11
158.5000000001057
 21
310.0000000000862
 31
0.0000000000000000
  0
LINE
  5
B2
100
AcDbEntity
  8
A5
  6
CONTINUOUS
 62
7
100
AcDbLine
 10
155.7500000001060
 20
323.5000000000860
 30
0.0000000000000000
 11
155.7500000001060
 21
308.5000000000860
 31
0.0000000000000000
  0
LINE
  5
B3
100
AcDbEntity
  8
A5
  6
CONTINUOUS
 62
7
100
AcDbLine
 10
158.5000000001059
 20
322.0000000000858
 30
0.0000000000000000
 11
158.5000000001059
 21
310.0000000000861
 31
0.0000000000000000
  0
LINE
  5
B4
100
AcDbEntity
  8
A5
  6
CONTINUOUS
 62
7
100
AcDbLine
 10
151.5000000001059
 20
323.5000000000860
 30
0.0000000000000000
 11
151.5000000001059
 21
308.5000000000860
 31
0.0000000000000000
  0
LINE
  5
B5
100
AcDbEntity
  8
A5
  6
CONTINUOUS
 62
7
100
AcDbLine
 10
155.5000000001059
 20
325.5000000000860
 30
0.0000000000000000
 11
152.3000000001058
 21
325.5000000000860
 31
0.0000000000000000
  0
LINE
  5
B6
100
AcDbEntity
  8
A5
  6
CONTINUOUS
 62
7
100
AcDbLine
 10
152.3000000001058
 20
306.5000000000860
 30
0.0000000000000000
 11
155.5000000001059
 21
306.5000000000860
 31
0.0000000000000000
  0
LINE
  5
B7
100
AcDbEntity
  8
A5
  6
CONTINUOUS
 62
7
100
AcDbLine
 10
152.3000000001058
 20
306.5000000000860
 30
0.0000000000000000
 11
152.3000000001058
 21
325.5000000000860
 31
0.0000000000000000
  0
LINE
  5
B8
100
AcDbEntity
  8
A5
  6
CONTINUOUS
 62
7
100
AcDbLine
 10
155.5000000001059
 20
306.5000000000860
 30
0.0000000000000000
 11
155.5000000001059
 21
325.5000000000860
 31
0.0000000000000000
  0
CIRCLE
  5
B9
100
AcDbEntity
  8
A6
  6
CONTINUOUS
 62
7
100
AcDbCircle
 10
50.00000000010584
 20
50.00000000000000
 30
0.0000000000000000
 40
7.499999999999993
  0
CIRCLE
  5
BA
100
AcDbEntity
  8
A6
  6
CONTINUOUS
 62
7
100
AcDbCircle
 10
50.00000000010584
 20
216.0000000000859
 30
0.0000000000000000
 40
7.500000000000007
  0
CIRCLE
  5
BB
100
AcDbEntity
  8
A6
  6
CONTINUOUS
 62
7
100
AcDbCircle
 10
50.00000000010584
 20
216.0000000000859
 30
0.0000000000000000
 40
3.999999999999893
  0
CIRCLE
  5
BC
100
AcDbEntity
  8
A6
  6
CONTINUOUS
 62
7
100
AcDbCircle
 10
50.00000000010584
 20
50.00000000000000
 30
0.0000000000000000
 40
4.000000000000004
  0
ARC
  5
BD
100
AcDbEntity
  8
A6
  6
CONTINUOUS
 62
7
100
AcDbCircle
 10
50.00000000078330
 20
50.00000000008549
 30
0.0000000000000000
 40
9.499999999999986
100
AcDbArc
 50
168.5164460944108
 51
371.4835539072160
  0
ARC
  5
BE
100
AcDbEntity
  8
A6
  6
CONTINUOUS
 62
7
100
AcDbCircle
 10
50.00000000010584
 20
216.0000000000468
 30
0.0000000000000000
 40
9.500000000000000
100
AcDbArc
 50
348.5164460940513
 51
551.4835539059487
  0
ARC
  5
BF
100
AcDbEntity
  8
A6
  6
CONTINUOUS
 62
7
100
AcDbCircle
 10
50.00000000010584
 20
50.00000000000000
 30
0.0000000000000000
 40
6.499999999999992
100
AcDbArc
 50
175.5882742138326
 51
184.4117257853729
  0
ARC
  5
C0
100
AcDbEntity
  8
A6
  6
CONTINUOUS
 62
7
100
AcDbCircle
 10
50.00000000010584
 20
216.0000000000859
 30
0.0000000000000000
 40
6.500000000000005
100
AcDbArc
 50
355.5882742138826
 51
364.4117257854230
  0
ARC
  5
C1
100
AcDbEntity
  8
A6
  6
CONTINUOUS
 62
7
100
AcDbCircle
 10
50.00000000010584
 20
216.0000000000859
 30
0.0000000000000000
 40
6.500000000000005
100
AcDbArc
 50
175.5882742145771
 51
184.4117257861174
  0
ARC
  5
C2
100
AcDbEntity
  8
A6
  6
CONTINUOUS
 62
7
100
AcDbCircle
 10
50.00000000010584
 20
216.0000000000859
 30
0.0000000000000000
 40
6.500000000000005
100
AcDbArc
 50
85.58827421458527
 51
94.41172578612564
  0
ARC
  5
C3
100
AcDbEntity
  8
A6
  6
CONTINUOUS
 62
7
100
AcDbCircle
 10
50.00000000010584
 20
50.00000000000000
 30
0.0000000000000000
 40
6.499999999999992
100
AcDbArc
 50
265.5882742138327
 51
274.4117257853729
  0
ARC
  5
C4
100
AcDbEntity
  8
A6
  6
CONTINUOUS
 62
7
100
AcDbCircle
 10
50.00000000010584
 20
50.00000000000000
 30
0.0000000000000000
 40
6.499999999999992
100
AcDbArc
 50
355.5882742146269
 51
364.4117257861673
  0
ARC
  5
C5
100
AcDbEntity
  8
A6
  6
CONTINUOUS
 62
7
100
AcDbCircle
 10
50.00000000010584
 20
216.0000000000859
 30
0.0000000000000000
 40
6.500000000000005
100
AcDbArc
 50
265.5882742142333
 51
274.4117257857737
  0
ARC
  5
C6
100
AcDbEntity
  8
A6
  6
CONTINUOUS
 62
7
100
AcDbCircle
 10
50.00000000010584
 20
50.00000000000000
 30
0.0000000000000000
 40
6.499999999999992
100
AcDbArc
 50
85.58827421498491
 51
94.41172578652528
  0
ARC
  5
C7
100
AcDbEntity
  8
A6
  6
CONTINUOUS
 62
7
100
AcDbCircle
 10
50.00000000010584
 20
216.0000000000859
 30
0.0000000000000000
 40
4.124999999999951
100
AcDbArc
 50
83.03793730926877
 51
96.96206269143798
  0
ARC
  5
C8
100
AcDbEntity
  8
A6
  6
CONTINUOUS
 62
7
100
AcDbCircle
 10
50.00000000010584
 20
216.0000000000859
 30
0.0000000000000000
 40
4.124999999999951
100
AcDbArc
 50
173.0379373094651
 51
186.9620626916341
  0
ARC
  5
C9
100
AcDbEntity
  8
A6
  6
CONTINUOUS
 62
7
100
AcDbCircle
 10
50.00000000010584
 20
216.0000000000859
 30
0.0000000000000000
 40
4.124999999999951
100
AcDbArc
 50
263.0379373089210
 51
276.9620626910899
  0
ARC
  5
CA
100
AcDbEntity
  8
A6
  6
CONTINUOUS
 62
7
100
AcDbCircle
 10
50.00000000010584
 20
216.0000000000859
 30
0.0000000000000000
 40
4.124999999999951
100
AcDbArc
 50
353.0379373083658
 51
366.9620626905349
  0
ARC
  5
CB
100
AcDbEntity
  8
A6
  6
CONTINUOUS
 62
7
100
AcDbCircle
 10
50.00000000010584
 20
50.00000000000000
 30
0.0000000000000000
 40
4.125000000000020
100
AcDbArc
 50
83.03793731011140
 51
96.96206269228003
  0
ARC
  5
CC
100
AcDbEntity
  8
A6
  6
CONTINUOUS
 62
7
100
AcDbCircle
 10
50.00000000010584
 20
50.00000000000000
 30
0.0000000000000000
 40
4.125000000000020
100
AcDbArc
 50
173.0379373080778
 51
186.9620626902467
  0
ARC
  5
CD
100
AcDbEntity
  8
A6
  6
CONTINUOUS
 62
7
100
AcDbCircle
 10
50.00000000010584
 20
50.00000000000000
 30
0.0000000000000000
 40
4.125000000000020
100
AcDbArc
 50
263.0379373080777
 51
276.9620626902466
  0
ARC
  5
CE
100
AcDbEntity
  8
A6
  6
CONTINUOUS
 62
7
100
AcDbCircle
 10
50.00000000010584
 20
50.00000000000000
 30
0.0000000000000000
 40
4.125000000000020
100
AcDbArc
 50
353.0379373097534
 51
366.9620626919222
  0
ARC
  5
CF
100
AcDbEntity
  8
A6
  6
CONTINUOUS
 62
7
100
AcDbCircle
 10
50.00000000010584
 20
216.0000000000859
 30
0.0000000000000000
 40
4.500000000000115
100
AcDbArc
 50
276.3793702084475
 51
353.6206297910541
  0
ARC
  5
D0
100
AcDbEntity
  8
A6
  6
CONTINUOUS
 62
7
100
AcDbCircle
 10
50.00000000010584
 20
216.0000000000859
 30
0.0000000000000000
 40
5.000000000000115
100
AcDbArc
 50
275.7391704772709
 51
354.2608295222811
  0
ARC
  5
D1
100
AcDbEntity
  8
A6
  6
CONTINUOUS
 62
7
100
AcDbCircle
 10
50.00000000010584
 20
216.0000000000859
 30
0.0000000000000000
 40
6.899999999999851
100
AcDbArc
 50
94.15551026884827
 51
175.8444897318343
  0
ARC
  5
D2
100
AcDbEntity
  8
A6
  6
CONTINUOUS
 62
7
100
AcDbCircle
 10
50.00000000010584
 20
216.0000000000859
 30
0.0000000000000000
 40
6.000000000000005
100
AcDbArc
 50
94.78019184755428
 51
175.2198081531772
  0
ARC
  5
D3
100
AcDbEntity
  8
A6
  6
CONTINUOUS
 62
7
100
AcDbCircle
 10
50.00000000010584
 20
216.0000000000859
 30
0.0000000000000000
 40
6.899999999999851
100
AcDbArc
 50
4.155510268165595
 51
85.84448973186279
  0
ARC
  5
D4
100
AcDbEntity
  8
A6
  6
CONTINUOUS
 62
7
100
AcDbCircle
 10
50.00000000010584
 20
216.0000000000859
 30
0.0000000000000000
 40
4.500000000000115
100
AcDbArc
 50
6.379370207939385
 51
83.62062979191120
  0
ARC
  5
D5
100
AcDbEntity
  8
A6
  6
CONTINUOUS
 62
7
100
AcDbCircle
 10
50.00000000010584
 20
50.00000000000000
 30
0.0000000000000000
 40
4.500000000000004
100
AcDbArc
 50
186.3793702077059
 51
263.6206297908204
  0
ARC
  5
D6
100
AcDbEntity
  8
A6
  6
CONTINUOUS
 62
7
100
AcDbCircle
 10
50.00000000010584
 20
50.00000000000000
 30
0.0000000000000000
 40
6.899999999999920
100
AcDbArc
 50
184.1555102681394
 51
265.8444897311542
  0
ARC
  5
D7
100
AcDbEntity
  8
A6
  6
CONTINUOUS
 62
7
100
AcDbCircle
 10
50.00000000010584
 20
50.00000000000000
 30
0.0000000000000000
 40
6.899999999999920
100
AcDbArc
 50
274.1555102681396
 51
355.8444897318603
  0
ARC
  5
D8
100
AcDbEntity
  8
A6
  6
CONTINUOUS
 62
7
100
AcDbCircle
 10
50.00000000010584
 20
50.00000000000000
 30
0.0000000000000000
 40
5.999999999999991
100
AcDbArc
 50
274.7801918467385
 51
355.2198081532615
  0
ARC
  5
D9
100
AcDbEntity
  8
A6
  6
CONTINUOUS
 62
7
100
AcDbCircle
 10
50.00000000010584
 20
50.00000000000000
 30
0.0000000000000000
 40
4.999999999999908
100
AcDbArc
 50
275.7391704766409
 51
354.2608295233591
  0
ARC
  5
DA
100
AcDbEntity
  8
A6
  6
CONTINUOUS
 62
7
100
AcDbCircle
 10
50.00000000010584
 20
50.00000000000000
 30
0.0000000000000000
 40
4.500000000000004
100
AcDbArc
 50
276.3793702077061
 51
353.6206297922940
  0
ARC
  5
DB
100
AcDbEntity
  8
A6
  6
CONTINUOUS
 62
7
100
AcDbCircle
 10
50.00000000010584
 20
216.0000000000859
 30
0.0000000000000000
 40
4.500000000000115
100
AcDbArc
 50
186.3793702089459
 51
263.6206297915624
  0
ARC
  5
DC
100
AcDbEntity
  8
A6
  6
CONTINUOUS
 62
7
100
AcDbCircle
 10
50.00000000010584
 20
50.00000000000000
 30
0.0000000000000000
 40
6.899999999999920
100
AcDbArc
 50
94.15551026920362
 51
175.8444897311542
  0
ARC
  5
DD
100
AcDbEntity
  8
A6
  6
CONTINUOUS
 62
7
100
AcDbCircle
 10
50.00000000010584
 20
50.00000000000000
 30
0.0000000000000000
 40
5.999999999999991
100
AcDbArc
 50
4.780191847659832
 51
85.21980815361931
  0
ARC
  5
DE
100
AcDbEntity
  8
A6
  6
CONTINUOUS
 62
7
100
AcDbCircle
 10
50.00000000010584
 20
50.00000000000000
 30
0.0000000000000000
 40
6.899999999999920
100
AcDbArc
 50
4.155510268845725
 51
85.84448973221836
  0
ARC
  5
DF
100
AcDbEntity
  8
A6
  6
CONTINUOUS
 62
7
100
AcDbCircle
 10
50.00000000010584
 20
216.0000000000859
 30
0.0000000000000000
 40
6.899999999999851
100
AcDbArc
 50
184.1555102688197
 51
265.8444897315105
  0
ARC
  5
E0
100
AcDbEntity
  8
A6
  6
CONTINUOUS
 62
7
100
AcDbCircle
 10
50.00000000010584
 20
50.00000000000000
 30
0.0000000000000000
 40
4.500000000000004
100
AcDbArc
 50
96.37937020953740
 51
173.6206297908203
  0
ARC
  5
E1
100
AcDbEntity
  8
A6
  6
CONTINUOUS
 62
7
100
AcDbCircle
 10
50.00000000010584
 20
216.0000000000859
 30
0.0000000000000000
 40
6.899999999999851
100
AcDbArc
 50
274.1555102684959
 51
355.8444897311804
  0
ARC
  5
E2
100
AcDbEntity
  8
A6
  6
CONTINUOUS
 62
7
100
AcDbCircle
 10
50.00000000010584
 20
216.0000000000859
 30
0.0000000000000000
 40
6.000000000000005
100
AcDbArc
 50
274.7801918472031
 51
355.2198081524244
  0
ARC
  5
E3
100
AcDbEntity
  8
A6
  6
CONTINUOUS
 62
7
100
AcDbCircle
 10
50.00000000010584
 20
50.00000000000000
 30
0.0000000000000000
 40
5.999999999999991
100
AcDbArc
 50
94.78019184801768
 51
175.2198081523401
  0
ARC
  5
E4
100
AcDbEntity
  8
A6
  6
CONTINUOUS
 62
7
100
AcDbCircle
 10
50.00000000010584
 20
50.00000000000000
 30
0.0000000000000000
 40
4.999999999999908
100
AcDbArc
 50
95.73917047825083
 51
174.2608295221071
  0
ARC
  5
E5
100
AcDbEntity
  8
A6
  6
CONTINUOUS
 62
7
100
AcDbCircle
 10
50.00000000010584
 20
50.00000000000000
 30
0.0000000000000000
 40
4.500000000000004
100
AcDbArc
 50
6.379370209179649
 51
83.62062979265184
  0
ARC
  5
E6
100
AcDbEntity
  8
A6
  6
CONTINUOUS
 62
7
100
AcDbCircle
 10
50.00000000010584
 20
50.00000000000000
 30
0.0000000000000000
 40
4.999999999999908
100
AcDbArc
 50
5.739170477892920
 51
84.26082952371699
  0
ARC
  5
E7
100
AcDbEntity
  8
A6
  6
CONTINUOUS
 62
7
100
AcDbCircle
 10
50.00000000010584
 20
216.0000000000859
 30
0.0000000000000000
 40
5.000000000000115
100
AcDbArc
 50
185.7391704777189
 51
264.2608295227380
  0
ARC
  5
E8
100
AcDbEntity
  8
A6
  6
CONTINUOUS
 62
7
100
AcDbCircle
 10
50.00000000010584
 20
216.0000000000859
 30
0.0000000000000000
 40
6.000000000000005
100
AcDbArc
 50
184.7801918475755
 51
265.2198081528045
  0
ARC
  5
E9
100
AcDbEntity
  8
A6
  6
CONTINUOUS
 62
7
100
AcDbCircle
 10
50.00000000010584
 20
50.00000000000000
 30
0.0000000000000000
 40
4.999999999999908
100
AcDbArc
 50
185.7391704766409
 51
264.2608295221071
  0
ARC
  5
EA
100
AcDbEntity
  8
A6
  6
CONTINUOUS
 62
7
100
AcDbCircle
 10
50.00000000010584
 20
50.00000000000000
 30
0.0000000000000000
 40
5.999999999999991
100
AcDbArc
 50
184.7801918467385
 51
265.2198081523401
  0
ARC
  5
EB
100
AcDbEntity
  8
A6
  6
CONTINUOUS
 62
7
100
AcDbCircle
 10
50.00000000010584
 20
216.0000000000859
 30
0.0000000000000000
 40
5.000000000000115
100
AcDbArc
 50
5.739170476814178
 51
84.26082952308782
  0
ARC
  5
EC
100
AcDbEntity
  8
A6
  6
CONTINUOUS
 62
7
100
AcDbCircle
 10
50.00000000010584
 20
216.0000000000859
 30
0.0000000000000000
 40
6.000000000000005
100
AcDbArc
 50
4.780191846822811
 51
85.21980815315601
  0
ARC
  5
ED
100
AcDbEntity
  8
A6
  6
CONTINUOUS
 62
7
100
AcDbCircle
 10
50.00000000010584
 20
216.0000000000859
 30
0.0000000000000000
 40
5.000000000000115
100
AcDbArc
 50
95.73917047762087
 51
174.2608295231858
  0
ARC
  5
EE
100
AcDbEntity
  8
A6
  6
CONTINUOUS
 62
7
100
AcDbCircle
 10
50.00000000010584
 20
216.0000000000859
 30
0.0000000000000000
 40
4.500000000000115
100
AcDbArc
 50
96.37937020879656
 51
173.6206297920606
  0
ARC
  5
EF
100
AcDbEntity
  8
A6
  6
CONTINUOUS
 62
7
100
AcDbCircle
 10
39.20000000009611
 20
128.4999999997628
 30
0.0000000000000000
 40
0.9000000000000000
100
AcDbArc
 50
270.0000000000000
 51
450.0000000000000
  0
ARC
  5
F0
100
AcDbEntity
  8
A6
  6
CONTINUOUS
 62
7
100
AcDbCircle
 10
60.80000000011557
 20
128.4999999997628
 30
0.0000000000000000
 40
0.9000000000000000
100
AcDbArc
 50
90.00000000000000
 51
270.0000000000000
  0
ARC
  5
F1
100
AcDbEntity
  8
A6
  6
CONTINUOUS
 62
7
100
AcDbCircle
 10
39.20000000005950
 20
114.9999999997628
 30
0.0000000000000000
 40
0.9000000000000000
100
AcDbArc
 50
270.0000000000000
 51
450.0000000000000
  0
ARC
  5
F2
100
AcDbEntity
  8
A6
  6
CONTINUOUS
 62
7
100
AcDbCircle
 10
60.80000000015229
 20
114.9999999997628
 30
0.0000000000000000
 40
0.9000000000000000
100
AcDbArc
 50
90.00000000000000
 51
270.0000000000000
  0
LINE
  5
F3
100
AcDbEntity
  8
A6
  6
CONTINUOUS
 62
7
100
AcDbLine
 10
40.69017204080855
 20
51.89132317597867
 30
0.0000000000000000
 11
42.50000000071562
 21
60.80000000003836
 31
0.0000000000000000
  0
LINE
  5
F4
100
AcDbEntity
  8
A6
  6
CONTINUOUS
 62
7
100
AcDbLine
 10
59.30982795940321
 20
51.89132317597881
 30
0.0000000000000000
 11
57.49999999949617
 21
60.80000000003851
 31
0.0000000000000000
  0
LINE
  5
F5
100
AcDbEntity
  8
A6
  6
CONTINUOUS
 62
7
100
AcDbLine
 10
59.30982796006892
 20
214.1086768240950
 30
0.0000000000000000
 11
57.50000000010598
 21
205.2000000000466
 31
0.0000000000000000
  0
LINE
  5
F6
100
AcDbEntity
  8
A6
  6
CONTINUOUS
 62
7
100
AcDbLine
 10
40.69017204014295
 20
214.1086768240950
 30
0.0000000000000000
 11
42.50000000010590
 21
205.2000000000466
 31
0.0000000000000000
  0
LINE
  5
F7
100
AcDbEntity
  8
A6
  6
CONTINUOUS
 62
7
100
AcDbLine
 10
49.50000000006307
 20
222.8818602137168
 30
0.0000000000000000
 11
49.50000000008070
 21
220.0945848386225
 31
0.0000000000000000
  0
LINE
  5
F8
100
AcDbEntity
  8
A6
  6
CONTINUOUS
 62
7
100
AcDbLine
 10
43.11813978646899
 20
216.5000000000467
 30
0.0000000000000000
 11
45.90541516156134
 21
216.5000000000467
 31
0.0000000000000000
  0
LINE
  5
F9
100
AcDbEntity
  8
A6
  6
CONTINUOUS
 62
7
100
AcDbLine
 10
50.50000000006307
 20
222.8818602137230
 30
0.0000000000000000
 11
50.50000000008070
 21
220.0945848386287
 31
0.0000000000000000
  0
LINE
  5
FA
100
AcDbEntity
  8
A6
  6
CONTINUOUS
 62
7
100
AcDbLine
 10
49.50000000010630
 20
211.9054151615460
 30
0.0000000000000000
 11
49.50000000010630
 21
209.1181397864520
 31
0.0000000000000000
  0
LINE
  5
FB
100
AcDbEntity
  8
A6
  6
CONTINUOUS
 62
7
100
AcDbLine
 10
54.09458483865046
 20
216.5000000000466
 30
0.0000000000000000
 11
56.88186021374270
 21
216.5000000000466
 31
0.0000000000000000
  0
LINE
  5
FC
100
AcDbEntity
  8
A6
  6
CONTINUOUS
 62
7
100
AcDbLine
 10
50.50000000010630
 20
211.9054151615461
 30
0.0000000000000000
 11
50.50000000010630
 21
209.1181397864520
 31
0.0000000000000000
  0
LINE
  5
FD
100
AcDbEntity
  8
A6
  6
CONTINUOUS
 62
7
100
AcDbLine
 10
54.09458483864091
 20
215.5000000000466
 30
0.0000000000000000
 11
56.88186021373690
 21
215.5000000000466
 31
0.0000000000000000
  0
LINE
  5
FE
100
AcDbEntity
  8
A6
  6
CONTINUOUS
 62
7
100
AcDbLine
 10
43.11813978647479
 20
215.5000000000467
 30
0.0000000000000000
 11
45.90541516157100
 21
215.5000000000467
 31
0.0000000000000000
  0
LINE
  5
FF
100
AcDbEntity
  8
A6
  6
CONTINUOUS
 62
7
100
AcDbLine
 10
45.90541516155866
 20
49.50000000005990
 30
0.0000000000000000
 11
43.11813978646870
 21
49.50000000004244
 31
0.0000000000000000
  0
LINE
  5
100
100
AcDbEntity
  8
A6
  6
CONTINUOUS
 62
7
100
AcDbLine
 10
49.50000000004606
 20
45.90541516146748
 30
0.0000000000000000
 11
49.50000000006357
 21
43.11813978636903
 31
0.0000000000000000
  0
LINE
  5
101
100
AcDbEntity
  8
A6
  6
CONTINUOUS
 62
7
100
AcDbLine
 10
50.50000000004594
 20
45.90541516145286
 30
0.0000000000000000
 11
50.50000000006345
 21
43.11813978636294
 31
0.0000000000000000
  0
LINE
  5
102
100
AcDbEntity
  8
A6
  6
CONTINUOUS
 62
7
100
AcDbLine
 10
54.09458483865291
 20
49.50000000005995
 30
0.0000000000000000
 11
56.88186021374298
 21
49.50000000004244
 31
0.0000000000000000
  0
LINE
  5
103
100
AcDbEntity
  8
A6
  6
CONTINUOUS
 62
7
100
AcDbLine
 10
49.50000000002058
 20
56.88186021362785
 30
0.0000000000000000
 11
49.50000000002058
 21
54.09458483852941
 31
0.0000000000000000
  0
LINE
  5
104
100
AcDbEntity
  8
A6
  6
CONTINUOUS
 62
7
100
AcDbLine
 10
45.90541516157343
 20
50.50000000005990
 30
0.0000000000000000
 11
43.11813978647494
 21
50.50000000004244
 31
0.0000000000000000
  0
LINE
  5
105
100
AcDbEntity
  8
A6
  6
CONTINUOUS
 62
7
100
AcDbLine
 10
50.50000000002058
 20
56.88186021364022
 30
0.0000000000000000
 11
50.50000000002058
 21
54.09458483855023
 31
0.0000000000000000
  0
LINE
  5
106
100
AcDbEntity
  8
A6
  6
CONTINUOUS
 62
7
100
AcDbLine
 10
54.09458483863827
 20
50.50000000005995
 30
0.0000000000000000
 11
56.88186021373687
 21
50.50000000004244
 31
0.0000000000000000
  0
LINE
  5
107
100
AcDbEntity
  8
A6
  6
CONTINUOUS
 62
7
100
AcDbLine
 10
45.00000000019373
 20
107.9999999997627
 30
0.0000000000000000
 11
45.00000000019373
 21
64.00000000000004
 31
0.0000000000000000
  0
LINE
  5
108
100
AcDbEntity
  8
A6
  6
CONTINUOUS
 62
7
100
AcDbLine
 10
55.00000000001818
 20
63.99999999999994
 30
0.0000000000000000
 11
55.00000000001818
 21
107.9999999997625
 31
0.0000000000000000
  0
LINE
  5
109
100
AcDbEntity
  8
A6
  6
CONTINUOUS
 62
7
100
AcDbLine
 10
57.50000000010597
 20
205.2000000000859
 30
0.0000000000000000
 11
57.50000000010597
 21
202.0000000000352
 31
0.0000000000000000
  0
LINE
  5
10A
100
AcDbEntity
  8
A6
  6
CONTINUOUS
 62
7
100
AcDbLine
 10
42.50000000010596
 20
205.2000000000858
 30
0.0000000000000000
 11
57.50000000010562
 21
205.2000000000858
 31
0.0000000000000000
  0
LINE
  5
10B
100
AcDbEntity
  8
A6
  6
CONTINUOUS
 62
7
100
AcDbLine
 10
42.50000000010597
 20
202.0000000000377
 30
0.0000000000000000
 11
42.50000000010597
 21
205.2000000000859
 31
0.0000000000000000
  0
LINE
  5
10C
100
AcDbEntity
  8
A6
  6
CONTINUOUS
 62
7
100
AcDbLine
 10
57.50000000069554
 20
60.80000000000000
 30
0.0000000000000000
 11
42.50000000070816
 21
60.80000000000000
 31
0.0000000000000000
  0
LINE
  5
10D
100
AcDbEntity
  8
A6
  6
CONTINUOUS
 62
7
100
AcDbLine
 10
42.50000000071543
 20
64.00000000035975
 30
0.0000000000000000
 11
57.50000000069554
 21
64.00000000035975
 31
0.0000000000000000
  0
LINE
  5
10E
100
AcDbEntity
  8
A6
  6
CONTINUOUS
 62
7
100
AcDbLine
 10
57.50000000069554
 20
63.99999999998902
 30
0.0000000000000000
 11
57.50000000069554
 21
60.80000000000000
 31
0.0000000000000000
  0
LINE
  5
10F
100
AcDbEntity
  8
A6
  6
CONTINUOUS
 62
7
100
AcDbLine
 10
42.50000000010607
 20
202.0000000000266
 30
0.0000000000000000
 11
57.50000000010584
 21
202.0000000000266
 31
0.0000000000000000
  0
LINE
  5
110
100
AcDbEntity
  8
A6
  6
CONTINUOUS
 62
7
100
AcDbLine
 10
42.50000000071567
 20
60.80000000000000
 30
0.0000000000000000
 11
42.50000000071567
 21
63.99999999998902
 31
0.0000000000000000
  0
LINE
  5
111
100
AcDbEntity
  8
A6
  6
CONTINUOUS
 62
7
100
AcDbLine
 10
40.10000000010599
 20
109.6999999997628
 30
0.0000000000000000
 11
40.10000000010599
 21
107.9999999997627
 31
0.0000000000000000
  0
LINE
  5
112
100
AcDbEntity
  8
A6
  6
CONTINUOUS
 62
7
100
AcDbLine
 10
59.90000000010594
 20
107.9999999997627
 30
0.0000000000000000
 11
59.90000000010594
 21
109.6999999997628
 31
0.0000000000000000
  0
LINE
  5
113
100
AcDbEntity
  8
A6
  6
CONTINUOUS
 62
7
100
AcDbLine
 10
59.90000000010593
 20
107.9999999997627
 30
0.0000000000000000
 11
40.10000000010598
 21
107.9999999997627
 31
0.0000000000000000
  0
LINE
  5
114
100
AcDbEntity
  8
A6
  6
CONTINUOUS
 62
7
100
AcDbLine
 10
39.00000000007788
 20
127.5999999997628
 30
0.0000000000000000
 11
39.00000000007788
 21
115.8999999997629
 31
0.0000000000000000
  0
LINE
  5
115
100
AcDbEntity
  8
A6
  6
CONTINUOUS
 62
7
100
AcDbLine
 10
61.00000000013404
 20
115.8999999997629
 30
0.0000000000000000
 11
61.00000000013404
 21
127.5999999997628
 31
0.0000000000000000
  0
LINE
  5
116
100
AcDbEntity
  8
A6
  6
CONTINUOUS
 62
7
100
AcDbLine
 10
61.00000000015234
 20
115.8999999997629
 30
0.0000000000000000
 11
39.00000000007776
 21
115.8999999997629
 31
0.0000000000000000
  0
LINE
  5
117
100
AcDbEntity
  8
A6
  6
CONTINUOUS
 62
7
100
AcDbLine
 10
61.00000000011562
 20
127.5999999997628
 30
0.0000000000000000
 11
39.00000000007788
 21
127.5999999997628
 31
0.0000000000000000
  0
LINE
  5
118
100
AcDbEntity
  8
A6
  6
CONTINUOUS
 62
7
100
AcDbLine
 10
39.00000000005257
 20
114.0999999997628
 30
0.0000000000000000
 11
39.00000000005259
 21
109.6999999997624
 31
0.0000000000000000
  0
LINE
  5
119
100
AcDbEntity
  8
A6
  6
CONTINUOUS
 62
7
100
AcDbLine
 10
61.00000000015928
 20
109.6999999997625
 30
0.0000000000000000
 11
61.00000000015928
 21
114.0999999997628
 31
0.0000000000000000
  0
LINE
  5
11A
100
AcDbEntity
  8
A6
  6
CONTINUOUS
 62
7
100
AcDbLine
 10
61.00000000016610
 20
109.6999999997625
 30
0.0000000000000000
 11
39.00000000005264
 21
109.6999999997625
 31
0.0000000000000000
  0
LINE
  5
11B
100
AcDbEntity
  8
A6
  6
CONTINUOUS
 62
7
100
AcDbLine
 10
61.00000000015234
 20
114.0999999997628
 30
0.0000000000000000
 11
39.00000000005241
 21
114.0999999997628
 31
0.0000000000000000
  0
LINE
  5
11C
100
AcDbEntity
  8
A6
  6
CONTINUOUS
 62
7
100
AcDbLine
 10
38.99999999999997
 20
196.8944483019337
 30
0.0000000000000000
 11
38.99999999999998
 21
129.3999999997628
 31
0.0000000000000000
  0
LINE
  5
11D
100
AcDbEntity
  8
A6
  6
CONTINUOUS
 62
7
100
AcDbLine
 10
61.00000000021181
 20
129.3999999997629
 30
0.0000000000000000
 11
61.00000000021181
 21
196.8944483019338
 31
0.0000000000000000
  0
LINE
  5
11E
100
AcDbEntity
  8
A6
  6
CONTINUOUS
 62
7
100
AcDbLine
 10
61.00000000031775
 20
129.3999999997629
 30
0.0000000000000000
 11
39.00000000000000
 21
129.3999999997629
 31
0.0000000000000000
  0
LINE
  5
11F
100
AcDbEntity
  8
A6
  6
CONTINUOUS
 62
7
100
AcDbLine
 10
45.04810073159710
 20
202.0000000000624
 30
0.0000000000000000
 11
38.92632698081441
 21
198.1000000000470
 31
0.0000000000000000
  0
LINE
  5
120
100
AcDbEntity
  8
A6
  6
CONTINUOUS
 62
7
100
AcDbLine
 10
61.07367301939754
 20
198.1000000000470
 30
0.0000000000000000
 11
54.95189926861486
 21
202.0000000000625
 31
0.0000000000000000
  0
LINE
  5
121
100
AcDbEntity
  8
A6
  6
CONTINUOUS
 62
7
100
AcDbLine
 10
61.00000000010611
 20
196.8944483019337
 30
0.0000000000000000
 11
61.25000000010591
 21
197.1000000000468
 31
0.0000000000000000
  0
LINE
  5
122
100
AcDbEntity
  8
A6
  6
CONTINUOUS
 62
7
100
AcDbLine
 10
38.75000000010617
 20
197.1000000000470
 30
0.0000000000000000
 11
39.00000000010607
 21
196.8944483019337
 31
0.0000000000000000
  0
LINE
  5
123
100
AcDbEntity
  8
A6
  6
CONTINUOUS
 62
7
100
AcDbLine
 10
61.00000000010607
 20
196.8944483019337
 30
0.0000000000000000
 11
39.00000000000023
 21
196.8944483019337
 31
0.0000000000000000
  0
LINE
  5
124
100
AcDbEntity
  8
A6
  6
CONTINUOUS
 62
7
100
AcDbLine
 10
38.92632698081440
 20
198.1000000000470
 30
0.0000000000000000
 11
38.75000000010593
 21
197.1000000000468
 31
0.0000000000000000
  0
LINE
  5
125
100
AcDbEntity
  8
A6
  6
CONTINUOUS
 62
7
100
AcDbLine
 10
61.25000000010597
 20
197.1000000000469
 30
0.0000000000000000
 11
61.07367301939746
 21
198.1000000000472
 31
0.0000000000000000
  0
LINE
  5
126
100
AcDbEntity
  8
A6
  6
CONTINUOUS
 62
7
100
AcDbLine
 10
61.25000000010596
 20
197.1000000000469
 30
0.0000000000000000
 11
38.75000000010584
 21
197.1000000000469
 31
0.0000000000000000
  0
LINE
  5
127
100
AcDbEntity
  8
A6
  6
CONTINUOUS
 62
7
100
AcDbLine
 10
61.07367301939746
 20
198.1000000000471
 30
0.0000000000000000
 11
38.92632698081434
 21
198.1000000000471
 31
0.0000000000000000
  0
CIRCLE
  5
128
100
AcDbEntity
  8
A7
  6
CONTINUOUS
 62
7
100
AcDbCircle
 10
149.9999999999999
 20
-50.00000000000000
 30
0.0000000000000000
 40
11.25000000000000
  0
CIRCLE
  5
129
100
AcDbEntity
  8
A7
  6
CONTINUOUS
 62
7
100
AcDbCircle
 10
149.9999999999999
 20
-50.00000000000000
 30
0.0000000000000000
 40
11.00000000006020
  0
ARC
  5
12A
100
AcDbEntity
  8
A7
  6
CONTINUOUS
 62
7
100
AcDbCircle
 10
149.9999999999999
 20
-50.00000000000000
 30
0.0000000000000000
 40
9.900000000000006
100
AcDbArc
 50
73.65732090077491
 51
180.0000000000000
  0
ARC
  5
12B
100
AcDbEntity
  8
A7
  6
CONTINUOUS
 62
7
100
AcDbCircle
 10
149.9999999999999
 20
-50.00000000000000
 30
0.0000000000000000
 40
9.900000000000006
100
AcDbArc
 50
41.98452703897151
 51
56.25101140411152
  0
ARC
  5
12C
100
AcDbEntity
  8
A7
  6
CONTINUOUS
 62
7
100
AcDbCircle
 10
149.9999999999999
 20
-50.00000000000000
 30
0.0000000000000000
 40
9.900000000000006
100
AcDbArc
 50
329.1581720450533
 51
390.8418279549467
  0
ARC
  5
12D
100
AcDbEntity
  8
A7
  6
CONTINUOUS
 62
7
100
AcDbCircle
 10
149.9999999999999
 20
-50.00000000000000
 30
0.0000000000000000
 40
9.900000000000006
100
AcDbArc
 50
303.7489885958886
 51
318.0154729610285
  0
ARC
  5
12E
100
AcDbEntity
  8
A7
  6
CONTINUOUS
 62
7
100
AcDbCircle
 10
149.9999999999999
 20
-50.00000000000000
 30
0.0000000000000000
 40
9.900000000000006
100
AcDbArc
 50
180.0000000000000
 51
286.3426791270923
  0
ARC
  5
12F
100
AcDbEntity
  8
A7
  6
CONTINUOUS
 62
7
100
AcDbCircle
 10
146.4999999999999
 20
-45.49999999941042
 30
0.0000000000000000
 40
3.000000000000000
100
AcDbArc
 50
90.00000000000000
 51
180.0000000000000
  0
ARC
  5
130
100
AcDbEntity
  8
A7
  6
CONTINUOUS
 62
7
100
AcDbCircle
 10
146.4999999999999
 20
-54.49999999939030
 30
0.0000000000000000
 40
3.000000000000000
100
AcDbArc
 50
180.0000000000005
 51
270.0000000000000
  0
LINE
  5
131
100
AcDbEntity
  8
A7
  6
CONTINUOUS
 62
7
100
AcDbLine
 10
152.3000000000000
 20
-42.49999999941041
 30
0.0000000000000000
 11
146.4999999999999
 21
-42.49999999941043
 31
0.0000000000000000
  0
LINE
  5
132
100
AcDbEntity
  8
A7
  6
CONTINUOUS
 62
7
100
AcDbLine
 10
152.3000000000000
 20
-57.49999999939040
 30
0.0000000000000000
 11
146.5000000000000
 21
-57.49999999939038
 31
0.0000000000000000
  0
LINE
  5
133
100
AcDbEntity
  8
A7
  6
CONTINUOUS
 62
7
100
AcDbLine
 10
143.5000000000000
 20
-54.49999999939025
 30
0.0000000000000000
 11
143.5000000000000
 21
-45.49999999941037
 31
0.0000000000000000
  0
LINE
  5
134
100
AcDbEntity
  8
A7
  6
CONTINUOUS
 62
7
100
AcDbLine
 10
151.2500000000000
 20
-56.49999999999995
 30
0.0000000000000000
 11
151.5000000000001
 21
-56.49999999999995
 31
0.0000000000000000
  0
LINE
  5
135
100
AcDbEntity
  8
A7
  6
CONTINUOUS
 62
7
100
AcDbLine
 10
151.5000000000001
 20
-43.49999999999995
 30
0.0000000000000000
 11
151.2500000000000
 21
-43.49999999999995
 31
0.0000000000000000
  0
LINE
  5
136
100
AcDbEntity
  8
A7
  6
CONTINUOUS
 62
7
100
AcDbLine
 10
155.5000000000000
 20
-56.49999999999995
 30
0.0000000000000000
 11
155.7500000000000
 21
-56.49999999999995
 31
0.0000000000000000
  0
LINE
  5
137
100
AcDbEntity
  8
A7
  6
CONTINUOUS
 62
7
100
AcDbLine
 10
155.7500000000000
 20
-43.49999999999995
 30
0.0000000000000000
 11
155.5000000000000
 21
-43.49999999999995
 31
0.0000000000000000
  0
LINE
  5
138
100
AcDbEntity
  8
A7
  6
CONTINUOUS
 62
7
100
AcDbLine
 10
151.2500000000000
 20
-43.11813978636286
 30
0.0000000000000000
 11
151.2500000000000
 21
-56.88186021363703
 31
0.0000000000000000
  0
LINE
  5
139
100
AcDbEntity
  8
A7
  6
CONTINUOUS
 62
7
100
AcDbLine
 10
148.5000000000000
 20
-50.50000000004813
 30
0.0000000000000000
 11
151.2500000000000
 21
-50.50000000004248
 31
0.0000000000000000
  0
LINE
  5
13A
100
AcDbEntity
  8
A7
  6
CONTINUOUS
 62
7
100
AcDbLine
 10
148.5000000000000
 20
-50.50000000004804
 30
0.0000000000000000
 11
148.5000000000000
 21
-55.97913037155462
 31
0.0000000000000000
  0
LINE
  5
13B
100
AcDbEntity
  8
A7
  6
CONTINUOUS
 62
7
100
AcDbLine
 10
148.4999999999999
 20
-55.97913037155464
 30
0.0000000000000000
 11
151.2500000000000
 21
-56.88186021363705
 31
0.0000000000000000
  0
LINE
  5
13C
100
AcDbEntity
  8
A7
  6
CONTINUOUS
 62
7
100
AcDbLine
 10
148.4999999999999
 20
-49.50000000004798
 30
0.0000000000000000
 11
151.2499999999999
 21
-49.50000000004232
 31
0.0000000000000000
  0
LINE
  5
13D
100
AcDbEntity
  8
A7
  6
CONTINUOUS
 62
7
100
AcDbLine
 10
148.4999999999999
 20
-44.02086962844530
 30
0.0000000000000000
 11
151.2499999999999
 21
-43.11813978636290
 31
0.0000000000000000
  0
LINE
  5
13E
100
AcDbEntity
  8
A7
  6
CONTINUOUS
 62
7
100
AcDbLine
 10
148.5000000000000
 20
-44.02086962844528
 30
0.0000000000000000
 11
148.5000000000000
 21
-49.50000000004804
 31
0.0000000000000000
  0
LINE
  5
13F
100
AcDbEntity
  8
A7
  6
CONTINUOUS
 62
7
100
AcDbLine
 10
151.5000000000001
 20
-42.49999999941041
 30
0.0000000000000000
 11
151.5000000000001
 21
-57.49999999999995
 31
0.0000000000000000
  0
LINE
  5
140
100
AcDbEntity
  8
A7
  6
CONTINUOUS
 62
7
100
AcDbLine
 10
158.5000000000000
 20
-44.00000000000014
 30
0.0000000000000000
 11
158.5000000000000
 21
-55.99999999999984
 31
0.0000000000000000
  0
LINE
  5
141
100
AcDbEntity
  8
A7
  6
CONTINUOUS
 62
7
100
AcDbLine
 10
155.7500000000000
 20
-42.50000000000004
 30
0.0000000000000000
 11
155.7500000000000
 21
-57.49999999999995
 31
0.0000000000000000
  0
LINE
  5
142
100
AcDbEntity
  8
A7
  6
CONTINUOUS
 62
7
100
AcDbLine
 10
158.5000000000000
 20
-44.00000000000011
 30
0.0000000000000000
 11
155.7500000000000
 21
-42.50000000000003
 31
0.0000000000000000
  0
LINE
  5
143
100
AcDbEntity
  8
A7
  6
CONTINUOUS
 62
7
100
AcDbLine
 10
155.7500000000001
 20
-57.50000000000005
 30
0.0000000000000000
 11
158.5000000000002
 21
-55.99999999999993
 31
0.0000000000000000
  0
LINE
  5
144
100
AcDbEntity
  8
A7
  6
CONTINUOUS
 62
7
100
AcDbLine
 10
155.5000000000000
 20
-40.49999999932250
 30
0.0000000000000000
 11
152.3000000000000
 21
-40.49999999932250
 31
0.0000000000000000
  0
LINE
  5
145
100
AcDbEntity
  8
A7
  6
CONTINUOUS
 62
7
100
AcDbLine
 10
152.3000000000000
 20
-59.49999999932249
 30
0.0000000000000000
 11
155.5000000000000
 21
-59.49999999932249
 31
0.0000000000000000
  0
LINE
  5
146
100
AcDbEntity
  8
A7
  6
CONTINUOUS
 62
7
100
AcDbLine
 10
152.3000000000000
 20
-59.49999999932249
 30
0.0000000000000000
 11
152.3000000000000
 21
-40.49999999932250
 31
0.0000000000000000
  0
LINE
  5
147
100
AcDbEntity
  8
A7
  6
CONTINUOUS
 62
7
100
AcDbLine
 10
155.5000000000000
 20
-59.49999999932249
 30
0.0000000000000000
 11
155.5000000000000
 21
-40.49999999932250
 31
0.0000000000000000
  0
CIRCLE
  5
148
100
AcDbEntity
  8
A8
  6
CONTINUOUS
 62
7
100
AcDbCircle
 10
250.0000000001058
 20
216.0000000000859
 30
0.0000000000000000
 40
4.000000000000004
  0
CIRCLE
  5
149
100
AcDbEntity
  8
A8
  6
CONTINUOUS
 62
7
100
AcDbCircle
 10
250.0000000001057
 20
50.00000000000000
 30
0.0000000000000000
 40
3.999999999999906
  0
CIRCLE
  5
14A
100
AcDbEntity
  8
A8
  6
CONTINUOUS
 62
7
100
AcDbCircle
 10
250.0000000001057
 20
50.00000000000000
 30
0.0000000000000000
 40
4.499999999999907
  0
CIRCLE
  5
14B
100
AcDbEntity
  8
A8
  6
CONTINUOUS
 62
7
100
AcDbCircle
 10
250.0000000001057
 20
50.00000000000000
 30
0.0000000000000000
 40
7.499999999999993
  0
CIRCLE
  5
14C
100
AcDbEntity
  8
A8
  6
CONTINUOUS
 62
7
100
AcDbCircle
 10
250.0000000001058
 20
216.0000000000859
 30
0.0000000000000000
 40
7.500000000000007
  0
CIRCLE
  5
14D
100
AcDbEntity
  8
A8
  6
CONTINUOUS
 62
7
100
AcDbCircle
 10
250.0000000001057
 20
50.00000000000000
 30
0.0000000000000000
 40
4.999999999999797
  0
CIRCLE
  5
14E
100
AcDbEntity
  8
A8
  6
CONTINUOUS
 62
7
100
AcDbCircle
 10
250.0000000001057
 20
50.00000000000000
 30
0.0000000000000000
 40
5.999999999999909
  0
CIRCLE
  5
14F
100
AcDbEntity
  8
A8
  6
CONTINUOUS
 62
7
100
AcDbCircle
 10
250.0000000001058
 20
216.0000000000859
 30
0.0000000000000000
 40
5.999999999999783
  0
CIRCLE
  5
150
100
AcDbEntity
  8
A8
  6
CONTINUOUS
 62
7
100
AcDbCircle
 10
250.0000000001058
 20
216.0000000000859
 30
0.0000000000000000
 40
5.000000000000115
  0
CIRCLE
  5
151
100
AcDbEntity
  8
A8
  6
CONTINUOUS
 62
7
100
AcDbCircle
 10
250.0000000001058
 20
216.0000000000859
 30
0.0000000000000000
 40
4.499999999999782
  0
ARC
  5
152
100
AcDbEntity
  8
A8
  6
CONTINUOUS
 62
7
100
AcDbCircle
 10
249.9999999994284
 20
50.00000000008549
 30
0.0000000000000000
 40
9.499999999999986
100
AcDbArc
 50
168.5164460927840
 51
371.4835539055891
  0
ARC
  5
153
100
AcDbEntity
  8
A8
  6
CONTINUOUS
 62
7
100
AcDbCircle
 10
250.0000000001058
 20
216.0000000000468
 30
0.0000000000000000
 40
9.500000000000000
100
AcDbArc
 50
348.5164460940513
 51
551.4835539059487
  0
ARC
  5
154
100
AcDbEntity
  8
A8
  6
CONTINUOUS
 62
7
100
AcDbCircle
 10
239.2000000000961
 20
128.4999999997628
 30
0.0000000000000000
 40
0.9000000000000000
100
AcDbArc
 50
270.0000000000000
 51
450.0000000000000
  0
ARC
  5
155
100
AcDbEntity
  8
A8
  6
CONTINUOUS
 62
7
100
AcDbCircle
 10
260.8000000001155
 20
128.4999999997628
 30
0.0000000000000000
 40
0.9000000000000000
100
AcDbArc
 50
90.00000000000000
 51
270.0000000000000
  0
ARC
  5
156
100
AcDbEntity
  8
A8
  6
CONTINUOUS
 62
7
100
AcDbCircle
 10
239.2000000000594
 20
114.9999999997628
 30
0.0000000000000000
 40
0.9000000000000000
100
AcDbArc
 50
270.0000000000000
 51
450.0000000000000
  0
ARC
  5
157
100
AcDbEntity
  8
A8
  6
CONTINUOUS
 62
7
100
AcDbCircle
 10
260.8000000001522
 20
114.9999999997628
 30
0.0000000000000000
 40
0.9000000000000000
100
AcDbArc
 50
90.00000000000000
 51
270.0000000000000
  0
LINE
  5
158
100
AcDbEntity
  8
A8
  6
CONTINUOUS
 62
7
100
AcDbLine
 10
245.0000000001936
 20
107.9999999997627
 30
0.0000000000000000
 11
245.0000000001936
 21
64.00000000000004
 31
0.0000000000000000
  0
LINE
  5
159
100
AcDbEntity
  8
A8
  6
CONTINUOUS
 62
7
100
AcDbLine
 10
255.0000000000181
 20
64.00000000000004
 30
0.0000000000000000
 11
255.0000000000181
 21
107.9999999997627
 31
0.0000000000000000
  0
LINE
  5
15A
100
AcDbEntity
  8
A8
  6
CONTINUOUS
 62
7
100
AcDbLine
 10
240.6901720408084
 20
51.89132317597896
 30
0.0000000000000000
 11
242.5000000007155
 21
60.80000000003864
 31
0.0000000000000000
  0
LINE
  5
15B
100
AcDbEntity
  8
A8
  6
CONTINUOUS
 62
7
100
AcDbLine
 10
259.3098279594031
 20
51.89132317597873
 30
0.0000000000000000
 11
257.4999999994960
 21
60.80000000003852
 31
0.0000000000000000
  0
LINE
  5
15C
100
AcDbEntity
  8
A8
  6
CONTINUOUS
 62
7
100
AcDbLine
 10
242.5000000001060
 20
202.0000000000860
 30
0.0000000000000000
 11
242.5000000001060
 21
205.2000000000467
 31
0.0000000000000000
  0
LINE
  5
15D
100
AcDbEntity
  8
A8
  6
CONTINUOUS
 62
7
100
AcDbLine
 10
257.5000000001055
 20
202.0000000000528
 30
0.0000000000000000
 11
242.5000000001060
 21
202.0000000000528
 31
0.0000000000000000
  0
LINE
  5
15E
100
AcDbEntity
  8
A8
  6
CONTINUOUS
 62
7
100
AcDbLine
 10
257.5000000001057
 20
202.0000000000860
 30
0.0000000000000000
 11
257.5000000001057
 21
205.2000000000467
 31
0.0000000000000000
  0
LINE
  5
15F
100
AcDbEntity
  8
A8
  6
CONTINUOUS
 62
7
100
AcDbLine
 10
240.6901720401427
 20
214.1086768240951
 30
0.0000000000000000
 11
242.5000000001057
 21
205.2000000000467
 31
0.0000000000000000
  0
LINE
  5
160
100
AcDbEntity
  8
A8
  6
CONTINUOUS
 62
7
100
AcDbLine
 10
259.3098279600687
 20
214.1086768240950
 30
0.0000000000000000
 11
257.5000000001057
 21
205.2000000000465
 31
0.0000000000000000
  0
LINE
  5
161
100
AcDbEntity
  8
A8
  6
CONTINUOUS
 62
7
100
AcDbLine
 10
257.4999999994961
 20
60.80000000003922
 30
0.0000000000000000
 11
257.4999999994961
 21
64.00000000000004
 31
0.0000000000000000
  0
LINE
  5
162
100
AcDbEntity
  8
A8
  6
CONTINUOUS
 62
7
100
AcDbLine
 10
257.4999999994961
 20
64.00000000000003
 30
0.0000000000000000
 11
242.4999999995163
 21
64.00000000000003
 31
0.0000000000000000
  0
LINE
  5
163
100
AcDbEntity
  8
A8
  6
CONTINUOUS
 62
7
100
AcDbLine
 10
242.4999999995163
 20
60.79999999993076
 30
0.0000000000000000
 11
242.4999999995163
 21
64.00000000000004
 31
0.0000000000000000
  0
LINE
  5
164
100
AcDbEntity
  8
A8
  6
CONTINUOUS
 62
7
100
AcDbLine
 10
240.1000000001059
 20
109.6999999997628
 30
0.0000000000000000
 11
240.1000000001059
 21
107.9999999997627
 31
0.0000000000000000
  0
LINE
  5
165
100
AcDbEntity
  8
A8
  6
CONTINUOUS
 62
7
100
AcDbLine
 10
259.9000000001058
 20
107.9999999997627
 30
0.0000000000000000
 11
259.9000000001058
 21
109.6999999997628
 31
0.0000000000000000
  0
LINE
  5
166
100
AcDbEntity
  8
A8
  6
CONTINUOUS
 62
7
100
AcDbLine
 10
259.9000000001058
 20
107.9999999997627
 30
0.0000000000000000
 11
240.1000000001059
 21
107.9999999997627
 31
0.0000000000000000
  0
LINE
  5
167
100
AcDbEntity
  8
A8
  6
CONTINUOUS
 62
7
100
AcDbLine
 10
239.0000000000778
 20
127.5999999997628
 30
0.0000000000000000
 11
239.0000000000778
 21
115.8999999997629
 31
0.0000000000000000
  0
LINE
  5
168
100
AcDbEntity
  8
A8
  6
CONTINUOUS
 62
7
100
AcDbLine
 10
261.0000000001339
 20
115.8999999997629
 30
0.0000000000000000
 11
261.0000000001339
 21
127.5999999997628
 31
0.0000000000000000
  0
LINE
  5
169
100
AcDbEntity
  8
A8
  6
CONTINUOUS
 62
7
100
AcDbLine
 10
261.0000000001522
 20
115.8999999997629
 30
0.0000000000000000
 11
239.0000000000595
 21
115.8999999997629
 31
0.0000000000000000
  0
LINE
  5
16A
100
AcDbEntity
  8
A8
  6
CONTINUOUS
 62
7
100
AcDbLine
 10
261.0000000001155
 20
127.5999999997628
 30
0.0000000000000000
 11
239.0000000000962
 21
127.5999999997628
 31
0.0000000000000000
  0
LINE
  5
16B
100
AcDbEntity
  8
A8
  6
CONTINUOUS
 62
7
100
AcDbLine
 10
239.0000000000525
 20
114.0999999997628
 30
0.0000000000000000
 11
239.0000000000525
 21
109.6999999997625
 31
0.0000000000000000
  0
LINE
  5
16C
100
AcDbEntity
  8
A8
  6
CONTINUOUS
 62
7
100
AcDbLine
 10
261.0000000001592
 20
109.6999999997625
 30
0.0000000000000000
 11
261.0000000001592
 21
114.0999999997628
 31
0.0000000000000000
  0
LINE
  5
16D
100
AcDbEntity
  8
A8
  6
CONTINUOUS
 62
7
100
AcDbLine
 10
261.0000000001660
 20
109.6999999997625
 30
0.0000000000000000
 11
239.0000000000457
 21
109.6999999997625
 31
0.0000000000000000
  0
LINE
  5
16E
100
AcDbEntity
  8
A8
  6
CONTINUOUS
 62
7
100
AcDbLine
 10
261.0000000001522
 20
114.0999999997628
 30
0.0000000000000000
 11
239.0000000000595
 21
114.0999999997628
 31
0.0000000000000000
  0
LINE
  5
16F
100
AcDbEntity
  8
A8
  6
CONTINUOUS
 62
7
100
AcDbLine
 10
238.9999999999999
 20
196.8944483019337
 30
0.0000000000000000
 11
238.9999999999999
 21
129.3999999997629
 31
0.0000000000000000
  0
LINE
  5
170
100
AcDbEntity
  8
A8
  6
CONTINUOUS
 62
7
100
AcDbLine
 10
261.0000000002118
 20
129.3999999997629
 30
0.0000000000000000
 11
261.0000000002118
 21
196.8944483019337
 31
0.0000000000000000
  0
LINE
  5
171
100
AcDbEntity
  8
A8
  6
CONTINUOUS
 62
7
100
AcDbLine
 10
261.0000000003176
 20
129.3999999997629
 30
0.0000000000000000
 11
238.9999999998940
 21
129.3999999997629
 31
0.0000000000000000
  0
LINE
  5
172
100
AcDbEntity
  8
A8
  6
CONTINUOUS
 62
7
100
AcDbLine
 10
245.0481007315971
 20
202.0000000000625
 30
0.0000000000000000
 11
238.9263269808144
 21
198.1000000000471
 31
0.0000000000000000
  0
LINE
  5
173
100
AcDbEntity
  8
A8
  6
CONTINUOUS
 62
7
100
AcDbLine
 10
261.0736730193975
 20
198.1000000000470
 30
0.0000000000000000
 11
254.9518992686147
 21
202.0000000000625
 31
0.0000000000000000
  0
LINE
  5
174
100
AcDbEntity
  8
A8
  6
CONTINUOUS
 62
7
100
AcDbLine
 10
261.0000000001059
 20
196.8944483019336
 30
0.0000000000000000
 11
261.2500000001058
 21
197.1000000000468
 31
0.0000000000000000
  0
LINE
  5
175
100
AcDbEntity
  8
A8
  6
CONTINUOUS
 62
7
100
AcDbLine
 10
238.7500000001059
 20
197.1000000000468
 30
0.0000000000000000
 11
239.0000000001058
 21
196.8944483019336
 31
0.0000000000000000
  0
LINE
  5
176
100
AcDbEntity
  8
A8
  6
CONTINUOUS
 62
7
100
AcDbLine
 10
261.0000000001060
 20
196.8944483019337
 30
0.0000000000000000
 11
239.0000000001057
 21
196.8944483019337
 31
0.0000000000000000
  0
LINE
  5
177
100
AcDbEntity
  8
A8
  6
CONTINUOUS
 62
7
100
AcDbLine
 10
238.9263269808143
 20
198.1000000000470
 30
0.0000000000000000
 11
238.7500000001058
 21
197.1000000000469
 31
0.0000000000000000
  0
LINE
  5
178
100
AcDbEntity
  8
A8
  6
CONTINUOUS
 62
7
100
AcDbLine
 10
261.2500000001058
 20
197.1000000000469
 30
0.0000000000000000
 11
261.0736730193973
 21
198.1000000000471
 31
0.0000000000000000
  0
LINE
  5
179
100
AcDbEntity
  8
A8
  6
CONTINUOUS
 62
7
100
AcDbLine
 10
261.2500000001058
 20
197.1000000000469
 30
0.0000000000000000
 11
238.7500000001058
 21
197.1000000000469
 31
0.0000000000000000
  0
LINE
  5
17A
100
AcDbEntity
  8
A8
  6
CONTINUOUS
 62
7
100
AcDbLine
 10
261.0736730193973
 20
198.1000000000471
 30
0.0000000000000000
 11
238.9263269808143
 21
198.1000000000471
 31
0.0000000000000000
  0
ARC
  5
17B
100
AcDbEntity
  8
A9
  6
CONTINUOUS
 62
7
100
AcDbCircle
 10
348.2000000001059
 20
61.16041554843025
 30
0.0000000000000000
 40
3.699999999999989
100
AcDbArc
 50
90.00000000000000
 51
172.2335658308760
  0
ARC
  5
17C
100
AcDbEntity
  8
A9
  6
CONTINUOUS
 62
7
100
AcDbCircle
 10
348.2000000001059
 20
61.16041554843025
 30
0.0000000000000000
 40
0.5000000000000000
100
AcDbArc
 50
90.00000000000000
 51
180.0000000000000
  0
ARC
  5
17D
100
AcDbEntity
  8
A9
  6
CONTINUOUS
 62
7
100
AcDbCircle
 10
348.2000000001059
 20
206.5604155485161
 30
0.0000000000000000
 40
0.5000000000000000
100
AcDbArc
 50
180.0000000000000
 51
270.0000000000000
  0
ARC
  5
17E
100
AcDbEntity
  8
A9
  6
CONTINUOUS
 62
7
100
AcDbCircle
 10
348.2000000001059
 20
206.5604155485161
 30
0.0000000000000000
 40
3.699999999999989
100
AcDbArc
 50
187.7664341691261
 51
269.9999999998186
  0
ARC
  5
17F
100
AcDbEntity
  8
A9
  6
CONTINUOUS
 62
7
100
AcDbCircle
 10
339.2000000000961
 20
129.3604155481931
 30
0.0000000000000000
 40
0.9000000000000000
100
AcDbArc
 50
270.0000000000000
 51
450.0000000000000
  0
ARC
  5
180
100
AcDbEntity
  8
A9
  6
CONTINUOUS
 62
7
100
AcDbCircle
 10
360.8000000001156
 20
129.3604155481931
 30
0.0000000000000000
 40
0.9000000000000000
100
AcDbArc
 50
90.00000000000000
 51
270.0000000000000
  0
ARC
  5
181
100
AcDbEntity
  8
A9
  6
CONTINUOUS
 62
7
100
AcDbCircle
 10
339.2000000000594
 20
115.8604155481932
 30
0.0000000000000000
 40
0.9000000000000000
100
AcDbArc
 50
270.0000000000000
 51
450.0000000000000
  0
ARC
  5
182
100
AcDbEntity
  8
A9
  6
CONTINUOUS
 62
7
100
AcDbCircle
 10
360.8000000001523
 20
115.8604155481932
 30
0.0000000000000000
 40
0.9000000000000000
100
AcDbArc
 50
90.00000000000000
 51
270.0000000000000
  0
LINE
  5
183
100
AcDbEntity
  8
A9
  6
CONTINUOUS
 62
7
100
AcDbLine
 10
356.5000000001057
 20
64.86041554844584
 30
0.0000000000000000
 11
345.0000000001936
 21
64.86041554844584
 31
0.0000000000000000
  0
LINE
  5
184
100
AcDbEntity
  8
A9
  6
CONTINUOUS
 62
7
100
AcDbLine
 10
345.0000000001936
 20
108.8604155481931
 30
0.0000000000000000
 11
345.0000000001936
 21
64.86041554844586
 31
0.0000000000000000
  0
LINE
  5
185
100
AcDbEntity
  8
A9
  6
CONTINUOUS
 62
7
100
AcDbLine
 10
355.0000000000179
 20
64.86041554843027
 30
0.0000000000000000
 11
355.0000000000179
 21
108.8604155481931
 31
0.0000000000000000
  0
LINE
  5
186
100
AcDbEntity
  8
A9
  6
CONTINUOUS
 62
7
100
AcDbLine
 10
345.0481007315410
 20
202.8604155484570
 30
0.0000000000000000
 11
356.5000000001058
 21
202.8604155484570
 31
0.0000000000000000
  0
LINE
  5
187
100
AcDbEntity
  8
A9
  6
CONTINUOUS
 62
7
100
AcDbLine
 10
356.5000000001058
 20
202.8604155484570
 30
0.0000000000000000
 11
356.5000000001058
 21
206.0604155485160
 31
0.0000000000000000
  0
LINE
  5
188
100
AcDbEntity
  8
A9
  6
CONTINUOUS
 62
7
100
AcDbLine
 10
348.7500000001058
 20
57.36041554843028
 30
0.0000000000000000
 11
348.5000000001057
 21
57.36041554843028
 31
0.0000000000000000
  0
LINE
  5
189
100
AcDbEntity
  8
A9
  6
CONTINUOUS
 62
7
100
AcDbLine
 10
348.5000000001057
 20
44.36041554843028
 30
0.0000000000000000
 11
348.7500000001058
 21
44.36041554843028
 31
0.0000000000000000
  0
LINE
  5
18A
100
AcDbEntity
  8
A9
  6
CONTINUOUS
 62
7
100
AcDbLine
 10
344.5000000001058
 20
57.36041554843028
 30
0.0000000000000000
 11
344.2500000001058
 21
57.36041554843028
 31
0.0000000000000000
  0
LINE
  5
18B
100
AcDbEntity
  8
A9
  6
CONTINUOUS
 62
7
100
AcDbLine
 10
344.2500000001058
 20
44.36041554843028
 30
0.0000000000000000
 11
344.5000000001058
 21
44.36041554843028
 31
0.0000000000000000
  0
LINE
  5
18C
100
AcDbEntity
  8
A9
  6
CONTINUOUS
 62
7
100
AcDbLine
 10
344.5000000001058
 20
223.3604155485162
 30
0.0000000000000000
 11
344.2500000001058
 21
223.3604155485162
 31
0.0000000000000000
  0
LINE
  5
18D
100
AcDbEntity
  8
A9
  6
CONTINUOUS
 62
7
100
AcDbLine
 10
344.2500000001058
 20
210.3604155485162
 30
0.0000000000000000
 11
344.5000000001058
 21
210.3604155485162
 31
0.0000000000000000
  0
LINE
  5
18E
100
AcDbEntity
  8
A9
  6
CONTINUOUS
 62
7
100
AcDbLine
 10
348.7500000001058
 20
223.3604155485162
 30
0.0000000000000000
 11
348.5000000001058
 21
223.3604155485162
 31
0.0000000000000000
  0
LINE
  5
18F
100
AcDbEntity
  8
A9
  6
CONTINUOUS
 62
7
100
AcDbLine
 10
348.5000000001058
 20
210.3604155485162
 30
0.0000000000000000
 11
348.7500000001058
 21
210.3604155485162
 31
0.0000000000000000
  0
LINE
  5
190
100
AcDbEntity
  8
A9
  6
CONTINUOUS
 62
7
100
AcDbLine
 10
348.7500000001058
 20
51.36041554847263
 30
0.0000000000000000
 11
351.5000000001058
 21
51.36041554847831
 31
0.0000000000000000
  0
LINE
  5
191
100
AcDbEntity
  8
A9
  6
CONTINUOUS
 62
7
100
AcDbLine
 10
348.7500000001058
 20
57.74227576205804
 30
0.0000000000000000
 11
351.5000000001058
 21
56.83954591997389
 31
0.0000000000000000
  0
LINE
  5
192
100
AcDbEntity
  8
A9
  6
CONTINUOUS
 62
7
100
AcDbLine
 10
351.5000000001058
 20
51.36041554847836
 30
0.0000000000000000
 11
351.5000000001058
 21
56.83954591997375
 31
0.0000000000000000
  0
LINE
  5
193
100
AcDbEntity
  8
A9
  6
CONTINUOUS
 62
7
100
AcDbLine
 10
348.7500000001058
 20
216.3604155484769
 30
0.0000000000000000
 11
351.5000000001058
 21
216.3604155484769
 31
0.0000000000000000
  0
LINE
  5
194
100
AcDbEntity
  8
A9
  6
CONTINUOUS
 62
7
100
AcDbLine
 10
348.7500000001059
 20
209.9785553348822
 30
0.0000000000000000
 11
351.5000000001060
 21
210.8812851769656
 31
0.0000000000000000
  0
LINE
  5
195
100
AcDbEntity
  8
A9
  6
CONTINUOUS
 62
7
100
AcDbLine
 10
351.5000000001057
 20
210.8812851769653
 30
0.0000000000000000
 11
351.5000000001057
 21
216.3604155484769
 31
0.0000000000000000
  0
LINE
  5
196
100
AcDbEntity
  8
A9
  6
CONTINUOUS
 62
7
100
AcDbLine
 10
348.7500000001058
 20
209.9785553348820
 30
0.0000000000000000
 11
348.7500000001058
 21
223.7422757621469
 31
0.0000000000000000
  0
LINE
  5
197
100
AcDbEntity
  8
A9
  6
CONTINUOUS
 62
7
100
AcDbLine
 10
348.7500000001058
 20
217.3604155484769
 30
0.0000000000000000
 11
351.5000000001057
 21
217.3604155484769
 31
0.0000000000000000
  0
LINE
  5
198
100
AcDbEntity
  8
A9
  6
CONTINUOUS
 62
7
100
AcDbLine
 10
348.7500000001057
 20
223.7422757621469
 30
0.0000000000000000
 11
351.5000000001057
 21
222.8395459200637
 31
0.0000000000000000
  0
LINE
  5
199
100
AcDbEntity
  8
A9
  6
CONTINUOUS
 62
7
100
AcDbLine
 10
351.5000000001057
 20
217.3604155484769
 30
0.0000000000000000
 11
351.5000000001057
 21
222.8395459200637
 31
0.0000000000000000
  0
LINE
  5
19A
100
AcDbEntity
  8
A9
  6
CONTINUOUS
 62
7
100
AcDbLine
 10
348.7500000001058
 20
50.36041554847263
 30
0.0000000000000000
 11
351.5000000001058
 21
50.36041554847831
 31
0.0000000000000000
  0
LINE
  5
19B
100
AcDbEntity
  8
A9
  6
CONTINUOUS
 62
7
100
AcDbLine
 10
348.7500000001059
 20
43.97855533479940
 30
0.0000000000000000
 11
348.7500000001059
 21
57.74227576205803
 31
0.0000000000000000
  0
LINE
  5
19C
100
AcDbEntity
  8
A9
  6
CONTINUOUS
 62
7
100
AcDbLine
 10
348.7500000001060
 20
43.97855533479926
 30
0.0000000000000000
 11
351.5000000001060
 21
44.88128517688352
 31
0.0000000000000000
  0
LINE
  5
19D
100
AcDbEntity
  8
A9
  6
CONTINUOUS
 62
7
100
AcDbLine
 10
351.5000000001059
 20
44.88128517688364
 30
0.0000000000000000
 11
351.5000000001058
 21
50.36041554847834
 31
0.0000000000000000
  0
LINE
  5
19E
100
AcDbEntity
  8
A9
  6
CONTINUOUS
 62
7
100
AcDbLine
 10
356.5000000001058
 20
64.86041554843027
 30
0.0000000000000000
 11
356.5000000001058
 21
61.66041554843029
 31
0.0000000000000000
  0
LINE
  5
19F
100
AcDbEntity
  8
A9
  6
CONTINUOUS
 62
7
100
AcDbLine
 10
348.2000000001057
 20
61.66041554843029
 30
0.0000000000000000
 11
356.5000000001057
 21
61.66041554843029
 31
0.0000000000000000
  0
LINE
  5
1A0
100
AcDbEntity
  8
A9
  6
CONTINUOUS
 62
7
100
AcDbLine
 10
348.5000000001058
 20
43.36041554843029
 30
0.0000000000000000
 11
348.5000000001058
 21
58.36041554843029
 31
0.0000000000000000
  0
LINE
  5
1A1
100
AcDbEntity
  8
A9
  6
CONTINUOUS
 62
7
100
AcDbLine
 10
348.5000000001057
 20
58.36041554843028
 30
0.0000000000000000
 11
347.7000000001057
 21
58.36041554843028
 31
0.0000000000000000
  0
LINE
  5
1A2
100
AcDbEntity
  8
A9
  6
CONTINUOUS
 62
7
100
AcDbLine
 10
347.7000000001057
 20
43.36041554843028
 30
0.0000000000000000
 11
348.5000000001057
 21
43.36041554843028
 31
0.0000000000000000
  0
LINE
  5
1A3
100
AcDbEntity
  8
A9
  6
CONTINUOUS
 62
7
100
AcDbLine
 10
341.5000000001058
 20
44.86041554843037
 30
0.0000000000000000
 11
341.5000000001058
 21
56.86041554843015
 31
0.0000000000000000
  0
LINE
  5
1A4
100
AcDbEntity
  8
A9
  6
CONTINUOUS
 62
7
100
AcDbLine
 10
344.2500000001058
 20
43.36041554843029
 30
0.0000000000000000
 11
344.2500000001058
 21
58.36041554843029
 31
0.0000000000000000
  0
LINE
  5
1A5
100
AcDbEntity
  8
A9
  6
CONTINUOUS
 62
7
100
AcDbLine
 10
341.5000000001057
 20
44.86041554843047
 30
0.0000000000000000
 11
344.2500000001057
 21
43.36041554843032
 31
0.0000000000000000
  0
LINE
  5
1A6
100
AcDbEntity
  8
A9
  6
CONTINUOUS
 62
7
100
AcDbLine
 10
344.2500000001059
 20
58.36041554843017
 30
0.0000000000000000
 11
341.5000000001058
 21
56.86041554843003
 31
0.0000000000000000
  0
LINE
  5
1A7
100
AcDbEntity
  8
A9
  6
CONTINUOUS
 62
7
100
AcDbLine
 10
348.2000000001058
 20
206.0604155485161
 30
0.0000000000000000
 11
356.5000000001058
 21
206.0604155485161
 31
0.0000000000000000
  0
LINE
  5
1A8
100
AcDbEntity
  8
A9
  6
CONTINUOUS
 62
7
100
AcDbLine
 10
344.2500000001057
 20
209.3604155485162
 30
0.0000000000000000
 11
344.2500000001057
 21
224.3604155485162
 31
0.0000000000000000
  0
LINE
  5
1A9
100
AcDbEntity
  8
A9
  6
CONTINUOUS
 62
7
100
AcDbLine
 10
341.5000000001058
 20
210.8604155485163
 30
0.0000000000000000
 11
341.5000000001058
 21
222.8604155485160
 31
0.0000000000000000
  0
LINE
  5
1AA
100
AcDbEntity
  8
A9
  6
CONTINUOUS
 62
7
100
AcDbLine
 10
341.5000000001058
 20
210.8604155485162
 30
0.0000000000000000
 11
344.2500000001058
 21
209.3604155485161
 31
0.0000000000000000
  0
LINE
  5
1AB
100
AcDbEntity
  8
A9
  6
CONTINUOUS
 62
7
100
AcDbLine
 10
344.2500000001056
 20
224.3604155485162
 30
0.0000000000000000
 11
341.5000000001058
 21
222.8604155485160
 31
0.0000000000000000
  0
LINE
  5
1AC
100
AcDbEntity
  8
A9
  6
CONTINUOUS
 62
7
100
AcDbLine
 10
348.5000000001058
 20
209.3604155485162
 30
0.0000000000000000
 11
348.5000000001058
 21
224.3604155485162
 31
0.0000000000000000
  0
LINE
  5
1AD
100
AcDbEntity
  8
A9
  6
CONTINUOUS
 62
7
100
AcDbLine
 10
348.5000000001058
 20
224.3604155485162
 30
0.0000000000000000
 11
347.7000000001058
 21
224.3604155485162
 31
0.0000000000000000
  0
LINE
  5
1AE
100
AcDbEntity
  8
A9
  6
CONTINUOUS
 62
7
100
AcDbLine
 10
347.7000000001058
 20
209.3604155485162
 30
0.0000000000000000
 11
348.5000000001058
 21
209.3604155485162
 31
0.0000000000000000
  0
LINE
  5
1AF
100
AcDbEntity
  8
A9
  6
CONTINUOUS
 62
7
100
AcDbLine
 10
344.5000000001060
 20
61.66041554846871
 30
0.0000000000000000
 11
344.5339394441465
 21
61.66041554846939
 31
0.0000000000000000
  0
LINE
  5
1B0
100
AcDbEntity
  8
A9
  6
CONTINUOUS
 62
7
100
AcDbLine
 10
344.5000000001058
 20
214.9690923725255
 30
0.0000000000000000
 11
344.5000000001058
 21
206.0604155484768
 31
0.0000000000000000
  0
LINE
  5
1B1
100
AcDbEntity
  8
A9
  6
CONTINUOUS
 62
7
100
AcDbLine
 10
344.5000000001058
 20
206.0604155484768
 30
0.0000000000000000
 11
344.5339394441465
 21
206.0604155484768
 31
0.0000000000000000
  0
LINE
  5
1B2
100
AcDbEntity
  8
A9
  6
CONTINUOUS
 62
7
100
AcDbLine
 10
347.7000000001057
 20
61.16041554843025
 30
0.0000000000000000
 11
347.7000000001058
 21
41.36041554851571
 31
0.0000000000000000
  0
LINE
  5
1B3
100
AcDbEntity
  8
A9
  6
CONTINUOUS
 62
7
100
AcDbLine
 10
344.5000000001058
 20
61.66041554846871
 30
0.0000000000000000
 11
344.5000000001059
 21
41.36041554851571
 31
0.0000000000000000
  0
LINE
  5
1B4
100
AcDbEntity
  8
A9
  6
CONTINUOUS
 62
7
100
AcDbLine
 10
344.5000000001058
 20
41.36041554851577
 30
0.0000000000000000
 11
347.7000000001058
 21
41.36041554851577
 31
0.0000000000000000
  0
LINE
  5
1B5
100
AcDbEntity
  8
A9
  6
CONTINUOUS
 62
7
100
AcDbLine
 10
347.7000000001058
 20
226.3604155484771
 30
0.0000000000000000
 11
344.5000000001058
 21
226.3604155484771
 31
0.0000000000000000
  0
LINE
  5
1B6
100
AcDbEntity
  8
A9
  6
CONTINUOUS
 62
7
100
AcDbLine
 10
347.7000000001058
 20
226.3604155484771
 30
0.0000000000000000
 11
347.7000000001058
 21
206.5604155485161
 31
0.0000000000000000
  0
LINE
  5
1B7
100
AcDbEntity
  8
A9
  6
CONTINUOUS
 62
7
100
AcDbLine
 10
344.5000000001058
 20
226.3604155484771
 30
0.0000000000000000
 11
344.5000000001058
 21
214.9690923725255
 31
0.0000000000000000
  0
LINE
  5
1B8
100
AcDbEntity
  8
A9
  6
CONTINUOUS
 62
7
100
AcDbLine
 10
359.9000000001058
 20
108.8604155481931
 30
0.0000000000000000
 11
340.1000000001058
 21
108.8604155481931
 31
0.0000000000000000
  0
LINE
  5
1B9
100
AcDbEntity
  8
A9
  6
CONTINUOUS
 62
7
100
AcDbLine
 10
340.1000000001058
 20
110.5604155481931
 30
0.0000000000000000
 11
340.1000000001058
 21
108.8604155481931
 31
0.0000000000000000
  0
LINE
  5
1BA
100
AcDbEntity
  8
A9
  6
CONTINUOUS
 62
7
100
AcDbLine
 10
359.9000000001058
 20
108.8604155481931
 30
0.0000000000000000
 11
359.9000000001058
 21
110.5604155481931
 31
0.0000000000000000
  0
LINE
  5
1BB
100
AcDbEntity
  8
A9
  6
CONTINUOUS
 62
7
100
AcDbLine
 10
361.0000000001522
 20
116.7604155481931
 30
0.0000000000000000
 11
339.0000000000594
 21
116.7604155481931
 31
0.0000000000000000
  0
LINE
  5
1BC
100
AcDbEntity
  8
A9
  6
CONTINUOUS
 62
7
100
AcDbLine
 10
361.0000000001154
 20
128.4604155481931
 30
0.0000000000000000
 11
339.0000000000961
 21
128.4604155481931
 31
0.0000000000000000
  0
LINE
  5
1BD
100
AcDbEntity
  8
A9
  6
CONTINUOUS
 62
7
100
AcDbLine
 10
339.0000000000777
 20
128.4604155481931
 30
0.0000000000000000
 11
339.0000000000777
 21
116.7604155481931
 31
0.0000000000000000
  0
LINE
  5
1BE
100
AcDbEntity
  8
A9
  6
CONTINUOUS
 62
7
100
AcDbLine
 10
361.0000000001339
 20
116.7604155481931
 30
0.0000000000000000
 11
361.0000000001339
 21
128.4604155481931
 31
0.0000000000000000
  0
LINE
  5
1BF
100
AcDbEntity
  8
A9
  6
CONTINUOUS
 62
7
100
AcDbLine
 10
361.0000000001659
 20
110.5604155481928
 30
0.0000000000000000
 11
339.0000000000456
 21
110.5604155481928
 31
0.0000000000000000
  0
LINE
  5
1C0
100
AcDbEntity
  8
A9
  6
CONTINUOUS
 62
7
100
AcDbLine
 10
361.0000000001522
 20
114.9604155481930
 30
0.0000000000000000
 11
339.0000000000594
 21
114.9604155481931
 31
0.0000000000000000
  0
LINE
  5
1C1
100
AcDbEntity
  8
A9
  6
CONTINUOUS
 62
7
100
AcDbLine
 10
339.0000000000525
 20
114.9604155481931
 30
0.0000000000000000
 11
339.0000000000525
 21
110.5604155481928
 31
0.0000000000000000
  0
LINE
  5
1C2
100
AcDbEntity
  8
A9
  6
CONTINUOUS
 62
7
100
AcDbLine
 10
361.0000000001591
 20
110.5604155481928
 30
0.0000000000000000
 11
361.0000000001591
 21
114.9604155481930
 31
0.0000000000000000
  0
LINE
  5
1C3
100
AcDbEntity
  8
A9
  6
CONTINUOUS
 62
7
100
AcDbLine
 10
361.0000000003176
 20
130.2604155481931
 30
0.0000000000000000
 11
338.9999999998940
 21
130.2604155481931
 31
0.0000000000000000
  0
LINE
  5
1C4
100
AcDbEntity
  8
A9
  6
CONTINUOUS
 62
7
100
AcDbLine
 10
338.9999999999999
 20
197.7548638503638
 30
0.0000000000000000
 11
338.9999999999998
 21
130.2604155481931
 31
0.0000000000000000
  0
LINE
  5
1C5
100
AcDbEntity
  8
A9
  6
CONTINUOUS
 62
7
100
AcDbLine
 10
361.0000000002116
 20
130.2604155481931
 30
0.0000000000000000
 11
361.0000000002117
 21
197.7548638503638
 31
0.0000000000000000
  0
LINE
  5
1C6
100
AcDbEntity
  8
A9
  6
CONTINUOUS
 62
7
100
AcDbLine
 10
345.0481007315969
 20
202.8604155484927
 30
0.0000000000000000
 11
338.9263269808142
 21
198.9604155484773
 31
0.0000000000000000
  0
LINE
  5
1C7
100
AcDbEntity
  8
A9
  6
CONTINUOUS
 62
7
100
AcDbLine
 10
361.0736730193971
 20
198.9604155484773
 30
0.0000000000000000
 11
354.9518992686145
 21
202.8604155484927
 31
0.0000000000000000
  0
LINE
  5
1C8
100
AcDbEntity
  8
A9
  6
CONTINUOUS
 62
7
100
AcDbLine
 10
361.0000000001060
 20
197.7548638503638
 30
0.0000000000000000
 11
339.0000000001057
 21
197.7548638503638
 31
0.0000000000000000
  0
LINE
  5
1C9
100
AcDbEntity
  8
A9
  6
CONTINUOUS
 62
7
100
AcDbLine
 10
361.0000000001058
 20
197.7548638503638
 30
0.0000000000000000
 11
361.2500000001057
 21
197.9604155484770
 31
0.0000000000000000
  0
LINE
  5
1CA
100
AcDbEntity
  8
A9
  6
CONTINUOUS
 62
7
100
AcDbLine
 10
338.7500000001057
 20
197.9604155484771
 30
0.0000000000000000
 11
339.0000000001056
 21
197.7548638503638
 31
0.0000000000000000
  0
LINE
  5
1CB
100
AcDbEntity
  8
A9
  6
CONTINUOUS
 62
7
100
AcDbLine
 10
361.2500000001058
 20
197.9604155484771
 30
0.0000000000000000
 11
338.7500000001058
 21
197.9604155484771
 31
0.0000000000000000
  0
LINE
  5
1CC
100
AcDbEntity
  8
A9
  6
CONTINUOUS
 62
7
100
AcDbLine
 10
361.0736730193973
 20
198.9604155484773
 30
0.0000000000000000
 11
338.9263269808143
 21
198.9604155484773
 31
0.0000000000000000
  0
LINE
  5
1CD
100
AcDbEntity
  8
A9
  6
CONTINUOUS
 62
7
100
AcDbLine
 10
338.9263269808145
 20
198.9604155484773
 30
0.0000000000000000
 11
338.7500000001060
 21
197.9604155484771
 31
0.0000000000000000
  0
LINE
  5
1CE
100
AcDbEntity
  8
A9
  6
CONTINUOUS
 62
7
100
AcDbLine
 10
361.2500000001056
 20
197.9604155484770
 30
0.0000000000000000
 11
361.0736730193971
 21
198.9604155484773
 31
0.0000000000000000
  0
LINE
  5
1CF
100
AcDbEntity
  8
A10
  6
CENTER
 62
4
100
AcDbLine
 10
50.00000000000000
 20
231.5000000000468
 30
0.0000000000000000
 11
50.00000000000000
 21
34.50000000008555
 31
0.0000000000000000
  0
LINE
  5
1D0
100
AcDbEntity
  8
A6
  6
CENTER
 62
4
100
AcDbLine
 10
65.50000000010584
 20
216.0000000000859
 30
0.0000000000000000
 11
34.50000000010584
 21
216.0000000000859
 31
0.0000000000000000
  0
LINE
  5
1D1
100
AcDbEntity
  8
A6
  6
CENTER
 62
4
100
AcDbLine
 10
65.50000000078330
 20
50.00000000000000
 30
0.0000000000000000
 11
34.50000000078330
 21
50.00000000000000
 31
0.0000000000000000
  0
LINE
  5
1D2
100
AcDbEntity
  8
A10
  6
CENTER
 62
4
100
AcDbLine
 10
149.9999999999999
 20
211.2000000000858
 30
0.0000000000000000
 11
149.9999999999999
 21
54.80000000000001
 31
0.0000000000000000
  0
LINE
  5
1D3
100
AcDbEntity
  8
A10
  6
CENTER
 62
4
100
AcDbLine
 10
142.5000000001058
 20
216.0000000000859
 30
0.0000000000000000
 11
164.5000000001057
 21
216.0000000000859
 31
0.0000000000000000
  0
LINE
  5
1D4
100
AcDbEntity
  8
A10
  6
CENTER
 62
4
100
AcDbLine
 10
142.5000000001057
 20
50.00000000000000
 30
0.0000000000000000
 11
164.5000000001057
 21
50.00000000000000
 31
0.0000000000000000
  0
LINE
  5
1D5
100
AcDbEntity
  8
A5
  6
CENTER
 62
4
100
AcDbLine
 10
167.2500000001058
 20
316.0000000000859
 30
0.0000000000000000
 11
132.7500000001058
 21
316.0000000000859
 31
0.0000000000000000
  0
LINE
  5
1D6
100
AcDbEntity
  8
A5
  6
CENTER
 62
4
100
AcDbLine
 10
150.0000000001058
 20
333.2500000000859
 30
0.0000000000000000
 11
150.0000000001058
 21
298.7500000000859
 31
0.0000000000000000
  0
LINE
  5
1D7
100
AcDbEntity
  8
A7
  6
CENTER
 62
4
100
AcDbLine
 10
167.2499999999999
 20
-50.00000000000000
 30
0.0000000000000000
 11
132.7499999999999
 21
-50.00000000000000
 31
0.0000000000000000
  0
LINE
  5
1D8
100
AcDbEntity
  8
A7
  6
CENTER
 62
4
100
AcDbLine
 10
149.9999999999999
 20
-32.75000000000000
 30
0.0000000000000000
 11
149.9999999999999
 21
-67.25000000000000
 31
0.0000000000000000
  0
LINE
  5
1D9
100
AcDbEntity
  8
A10
  6
CENTER
 62
4
100
AcDbLine
 10
249.9999999999999
 20
231.5000000000468
 30
0.0000000000000000
 11
249.9999999999999
 21
34.50000000008555
 31
0.0000000000000000
  0
LINE
  5
1DA
100
AcDbEntity
  8
A8
  6
CENTER
 62
4
100
AcDbLine
 10
265.5000000001058
 20
216.0000000000468
 30
0.0000000000000000
 11
234.5000000001058
 21
216.0000000000468
 31
0.0000000000000000
  0
LINE
  5
1DB
100
AcDbEntity
  8
A8
  6
CENTER
 62
4
100
AcDbLine
 10
265.4999999994284
 20
50.00000000008549
 30
0.0000000000000000
 11
234.4999999994284
 21
50.00000000008549
 31
0.0000000000000000
  0
LINE
  5
1DC
100
AcDbEntity
  8
A10
  6
CENTER
 62
4
100
AcDbLine
 10
349.9999999999999
 20
212.0604155485161
 30
0.0000000000000000
 11
349.9999999999998
 21
55.66041554843030
 31
0.0000000000000000
  0
LINE
  5
1DD
100
AcDbEntity
  8
A10
  6
CENTER
 62
4
100
AcDbLine
 10
335.5000000001058
 20
50.86041554843010
 30
0.0000000000000000
 11
357.5000000001058
 21
50.86041554843010
 31
0.0000000000000000
  0
LINE
  5
1DE
100
AcDbEntity
  8
A10
  6
CENTER
 62
4
100
AcDbLine
 10
335.5000000001058
 20
216.8604155485161
 30
0.0000000000000000
 11
357.5000000001057
 21
216.8604155485161
 31
0.0000000000000000
  0
POINT
  5
1DF
100
AcDbEntity
  8
A10
  6
CONTINUOUS
 62
5
100
AcDbPoint
 10
50.00000000000000
 20
50.00000000000000
 30
0.0000000000000000
  0
ARC
  5
1E0
100
AcDbEntity
  8
A4
  6
PHANTOM
 62
1
100
AcDbCircle
 10
151.8000000001057
 20
95.30000000008589
 30
0.0000000000000000
 40
3.699999999999989
100
AcDbArc
 50
7.766434167429408
 51
90.00000000000000
  0
ARC
  5
1E1
100
AcDbEntity
  8
A4
  6
PHANTOM
 62
1
100
AcDbCircle
 10
151.8000000001057
 20
95.30000000008589
 30
0.0000000000000000
 40
0.5000000000000000
100
AcDbArc
 50
0.0000000000000000
 51
90.00000000000000
  0
LINE
  5
1E2
100
AcDbEntity
  8
A4
  6
PHANTOM
 62
1
100
AcDbLine
 10
155.5000000001057
 20
78.50000000008596
 30
0.0000000000000000
 11
155.7500000001057
 21
78.50000000008596
 31
0.0000000000000000
  0
LINE
  5
1E3
100
AcDbEntity
  8
A4
  6
PHANTOM
 62
1
100
AcDbLine
 10
155.7500000001057
 20
91.50000000008596
 30
0.0000000000000000
 11
155.5000000001057
 21
91.50000000008596
 31
0.0000000000000000
  0
LINE
  5
1E4
100
AcDbEntity
  8
A4
  6
PHANTOM
 62
1
100
AcDbLine
 10
151.2500000001057
 20
78.50000000008596
 30
0.0000000000000000
 11
151.5000000001058
 21
78.50000000008596
 31
0.0000000000000000
  0
LINE
  5
1E5
100
AcDbEntity
  8
A4
  6
PHANTOM
 62
1
100
AcDbLine
 10
151.5000000001058
 20
91.50000000008596
 30
0.0000000000000000
 11
151.2500000001057
 21
91.50000000008596
 31
0.0000000000000000
  0
LINE
  5
1E6
100
AcDbEntity
  8
A4
  6
PHANTOM
 62
1
100
AcDbLine
 10
151.2500000001056
 20
85.50000000012828
 30
0.0000000000000000
 11
148.5000000001056
 21
85.50000000013395
 31
0.0000000000000000
  0
LINE
  5
1E7
100
AcDbEntity
  8
A4
  6
PHANTOM
 62
1
100
AcDbLine
 10
148.5000000001058
 20
90.97913037164375
 30
0.0000000000000000
 11
151.2500000001057
 21
91.88186021372613
 31
0.0000000000000000
  0
LINE
  5
1E8
100
AcDbEntity
  8
A4
  6
PHANTOM
 62
1
100
AcDbLine
 10
148.5000000001057
 20
90.97913037164382
 30
0.0000000000000000
 11
148.5000000001057
 21
85.50000000013405
 31
0.0000000000000000
  0
LINE
  5
1E9
100
AcDbEntity
  8
A4
  6
PHANTOM
 62
1
100
AcDbLine
 10
151.2500000001057
 20
91.88186021372613
 30
0.0000000000000000
 11
151.2500000001057
 21
78.11813978644896
 31
0.0000000000000000
  0
LINE
  5
1EA
100
AcDbEntity
  8
A4
  6
PHANTOM
 62
1
100
AcDbLine
 10
151.2500000001057
 20
84.50000000012828
 30
0.0000000000000000
 11
148.5000000001056
 21
84.50000000013395
 31
0.0000000000000000
  0
LINE
  5
1EB
100
AcDbEntity
  8
A4
  6
PHANTOM
 62
1
100
AcDbLine
 10
151.2500000001058
 20
78.11813978644896
 30
0.0000000000000000
 11
148.5000000001058
 21
79.02086962853139
 31
0.0000000000000000
  0
LINE
  5
1EC
100
AcDbEntity
  8
A4
  6
PHANTOM
 62
1
100
AcDbLine
 10
148.5000000001057
 20
84.50000000013405
 30
0.0000000000000000
 11
148.5000000001057
 21
79.02086962853129
 31
0.0000000000000000
  0
LINE
  5
1ED
100
AcDbEntity
  8
A4
  6
PHANTOM
 62
1
100
AcDbLine
 10
158.5000000001056
 20
91.00000000008583
 30
0.0000000000000000
 11
155.7500000001055
 21
92.50000000008596
 31
0.0000000000000000
  0
LINE
  5
1EE
100
AcDbEntity
  8
A4
  6
PHANTOM
 62
1
100
AcDbLine
 10
155.7500000001057
 20
77.50000000008589
 30
0.0000000000000000
 11
158.5000000001056
 21
79.00000000008590
 31
0.0000000000000000
  0
LINE
  5
1EF
100
AcDbEntity
  8
A4
  6
PHANTOM
 62
1
100
AcDbLine
 10
158.5000000001057
 20
91.00000000008585
 30
0.0000000000000000
 11
158.5000000001057
 21
79.00000000008596
 31
0.0000000000000000
  0
LINE
  5
1F0
100
AcDbEntity
  8
A4
  6
PHANTOM
 62
1
100
AcDbLine
 10
155.7500000001057
 20
92.50000000008596
 30
0.0000000000000000
 11
155.7500000001057
 21
77.50000000008596
 31
0.0000000000000000
  0
LINE
  5
1F1
100
AcDbEntity
  8
A4
  6
PHANTOM
 62
1
100
AcDbLine
 10
151.5000000001058
 20
77.50000000008596
 30
0.0000000000000000
 11
152.3000000001058
 21
77.50000000008596
 31
0.0000000000000000
  0
LINE
  5
1F2
100
AcDbEntity
  8
A4
  6
PHANTOM
 62
1
100
AcDbLine
 10
152.3000000001058
 20
92.50000000008596
 30
0.0000000000000000
 11
151.5000000001058
 21
92.50000000008596
 31
0.0000000000000000
  0
LINE
  5
1F3
100
AcDbEntity
  8
A4
  6
PHANTOM
 62
1
100
AcDbLine
 10
151.5000000001058
 20
92.50000000008596
 30
0.0000000000000000
 11
151.5000000001058
 21
77.50000000008596
 31
0.0000000000000000
  0
LINE
  5
1F4
100
AcDbEntity
  8
A4
  6
PHANTOM
 62
1
100
AcDbLine
 10
151.8000000001057
 20
95.80000000008593
 30
0.0000000000000000
 11
143.5000000001057
 21
95.80000000008593
 31
0.0000000000000000
  0
LINE
  5
1F5
100
AcDbEntity
  8
A4
  6
PHANTOM
 62
1
100
AcDbLine
 10
143.5000000001057
 20
99.00000000006557
 30
0.0000000000000000
 11
151.8000000000941
 21
99.00000000009152
 31
0.0000000000000000
  0
LINE
  5
1F6
100
AcDbEntity
  8
A4
  6
PHANTOM
 62
1
100
AcDbLine
 10
143.5000000001057
 20
95.80000000008592
 30
0.0000000000000000
 11
143.5000000001057
 21
99.00000000008598
 31
0.0000000000000000
  0
LINE
  5
1F7
100
AcDbEntity
  8
A4
  6
PHANTOM
 62
1
100
AcDbLine
 10
155.5000000001057
 20
86.89132317606472
 30
0.0000000000000000
 11
155.5000000001057
 21
95.80000000012446
 31
0.0000000000000000
  0
LINE
  5
1F8
100
AcDbEntity
  8
A4
  6
PHANTOM
 62
1
100
AcDbLine
 10
152.3000000001057
 20
75.50000000017147
 30
0.0000000000000000
 11
152.3000000001057
 21
95.30000000008589
 31
0.0000000000000000
  0
LINE
  5
1F9
100
AcDbEntity
  8
A4
  6
PHANTOM
 62
1
100
AcDbLine
 10
155.5000000001057
 20
95.80000000012446
 30
0.0000000000000000
 11
155.4660605568703
 21
95.80000000012446
 31
0.0000000000000000
  0
LINE
  5
1FA
100
AcDbEntity
  8
A4
  6
PHANTOM
 62
1
100
AcDbLine
 10
152.3000000001057
 20
75.50000000017145
 30
0.0000000000000000
 11
155.5000000001057
 21
75.50000000017145
 31
0.0000000000000000
  0
LINE
  5
1FB
100
AcDbEntity
  8
A4
  6
PHANTOM
 62
1
100
AcDbLine
 10
155.5000000001057
 20
75.50000000017145
 30
0.0000000000000000
 11
155.5000000001057
 21
86.89132317632904
 31
0.0000000000000000
  0
CIRCLE
  5
1FC
100
AcDbEntity
  8
A6
  6
PHANTOM
 62
1
100
AcDbCircle
 10
50.00000000010584
 20
85.00000000008593
 30
0.0000000000000000
 40
7.499999999999993
  0
CIRCLE
  5
1FD
100
AcDbEntity
  8
A6
  6
PHANTOM
 62
1
100
AcDbCircle
 10
50.00000000010584
 20
85.00000000008593
 30
0.0000000000000000
 40
4.000000000000004
  0
ARC
  5
1FE
100
AcDbEntity
  8
A6
  6
PHANTOM
 62
1
100
AcDbCircle
 10
50.00000000078330
 20
85.00000000017143
 30
0.0000000000000000
 40
9.499999999999986
100
AcDbArc
 50
168.5164460944108
 51
371.4835539072160
  0
ARC
  5
1FF
100
AcDbEntity
  8
A6
  6
PHANTOM
 62
1
100
AcDbCircle
 10
50.00000000010584
 20
85.00000000008593
 30
0.0000000000000000
 40
6.499999999999992
100
AcDbArc
 50
175.5882742138326
 51
184.4117257853729
  0
ARC
  5
200
100
AcDbEntity
  8
A6
  6
PHANTOM
 62
1
100
AcDbCircle
 10
50.00000000010584
 20
85.00000000008593
 30
0.0000000000000000
 40
6.499999999999992
100
AcDbArc
 50
265.5882742138327
 51
274.4117257853729
  0
ARC
  5
201
100
AcDbEntity
  8
A6
  6
PHANTOM
 62
1
100
AcDbCircle
 10
50.00000000010584
 20
85.00000000008593
 30
0.0000000000000000
 40
6.499999999999992
100
AcDbArc
 50
355.5882742146269
 51
364.4117257861673
  0
ARC
  5
202
100
AcDbEntity
  8
A6
  6
PHANTOM
 62
1
100
AcDbCircle
 10
50.00000000010584
 20
85.00000000008593
 30
0.0000000000000000
 40
6.499999999999992
100
AcDbArc
 50
85.58827421498491
 51
94.41172578652528
  0
ARC
  5
203
100
AcDbEntity
  8
A6
  6
PHANTOM
 62
1
100
AcDbCircle
 10
50.00000000010584
 20
85.00000000008593
 30
0.0000000000000000
 40
4.125000000000020
100
AcDbArc
 50
83.03793731011140
 51
96.96206269228003
  0
ARC
  5
204
100
AcDbEntity
  8
A6
  6
PHANTOM
 62
1
100
AcDbCircle
 10
50.00000000010584
 20
85.00000000008593
 30
0.0000000000000000
 40
4.125000000000020
100
AcDbArc
 50
173.0379373080778
 51
186.9620626902467
  0
ARC
  5
205
100
AcDbEntity
  8
A6
  6
PHANTOM
 62
1
100
AcDbCircle
 10
50.00000000010584
 20
85.00000000008593
 30
0.0000000000000000
 40
4.125000000000020
100
AcDbArc
 50
263.0379373080777
 51
276.9620626902466
  0
ARC
  5
206
100
AcDbEntity
  8
A6
  6
PHANTOM
 62
1
100
AcDbCircle
 10
50.00000000010584
 20
85.00000000008593
 30
0.0000000000000000
 40
4.125000000000020
100
AcDbArc
 50
353.0379373097534
 51
366.9620626919222
  0
ARC
  5
207
100
AcDbEntity
  8
A6
  6
PHANTOM
 62
1
100
AcDbCircle
 10
50.00000000010584
 20
85.00000000008593
 30
0.0000000000000000
 40
4.500000000000004
100
AcDbArc
 50
186.3793702077059
 51
263.6206297908204
  0
ARC
  5
208
100
AcDbEntity
  8
A6
  6
PHANTOM
 62
1
100
AcDbCircle
 10
50.00000000010584
 20
85.00000000008593
 30
0.0000000000000000
 40
6.899999999999920
100
AcDbArc
 50
184.1555102681394
 51
265.8444897311542
  0
ARC
  5
209
100
AcDbEntity
  8
A6
  6
PHANTOM
 62
1
100
AcDbCircle
 10
50.00000000010584
 20
85.00000000008593
 30
0.0000000000000000
 40
6.899999999999920
100
AcDbArc
 50
274.1555102681396
 51
355.8444897318603
  0
ARC
  5
20A
100
AcDbEntity
  8
A6
  6
PHANTOM
 62
1
100
AcDbCircle
 10
50.00000000010584
 20
85.00000000008593
 30
0.0000000000000000
 40
5.999999999999991
100
AcDbArc
 50
274.7801918467385
 51
355.2198081532615
  0
ARC
  5
20B
100
AcDbEntity
  8
A6
  6
PHANTOM
 62
1
100
AcDbCircle
 10
50.00000000010584
 20
85.00000000008593
 30
0.0000000000000000
 40
4.999999999999908
100
AcDbArc
 50
275.7391704766409
 51
354.2608295233591
  0
ARC
  5
20C
100
AcDbEntity
  8
A6
  6
PHANTOM
 62
1
100
AcDbCircle
 10
50.00000000010584
 20
85.00000000008593
 30
0.0000000000000000
 40
4.500000000000004
100
AcDbArc
 50
276.3793702077061
 51
353.6206297922940
  0
ARC
  5
20D
100
AcDbEntity
  8
A6
  6
PHANTOM
 62
1
100
AcDbCircle
 10
50.00000000010584
 20
85.00000000008593
 30
0.0000000000000000
 40
6.899999999999920
100
AcDbArc
 50
94.15551026920362
 51
175.8444897311542
  0
ARC
  5
20E
100
AcDbEntity
  8
A6
  6
PHANTOM
 62
1
100
AcDbCircle
 10
50.00000000010584
 20
85.00000000008593
 30
0.0000000000000000
 40
5.999999999999991
100
AcDbArc
 50
4.780191847659832
 51
85.21980815361931
  0
ARC
  5
20F
100
AcDbEntity
  8
A6
  6
PHANTOM
 62
1
100
AcDbCircle
 10
50.00000000010584
 20
85.00000000008593
 30
0.0000000000000000
 40
6.899999999999920
100
AcDbArc
 50
4.155510268845725
 51
85.84448973221836
  0
ARC
  5
210
100
AcDbEntity
  8
A6
  6
PHANTOM
 62
1
100
AcDbCircle
 10
50.00000000010584
 20
85.00000000008593
 30
0.0000000000000000
 40
4.500000000000004
100
AcDbArc
 50
96.37937020953740
 51
173.6206297908203
  0
ARC
  5
211
100
AcDbEntity
  8
A6
  6
PHANTOM
 62
1
100
AcDbCircle
 10
50.00000000010584
 20
85.00000000008593
 30
0.0000000000000000
 40
5.999999999999991
100
AcDbArc
 50
94.78019184801768
 51
175.2198081523401
  0
ARC
  5
212
100
AcDbEntity
  8
A6
  6
PHANTOM
 62
1
100
AcDbCircle
 10
50.00000000010584
 20
85.00000000008593
 30
0.0000000000000000
 40
4.999999999999908
100
AcDbArc
 50
95.73917047825083
 51
174.2608295221071
  0
ARC
  5
213
100
AcDbEntity
  8
A6
  6
PHANTOM
 62
1
100
AcDbCircle
 10
50.00000000010584
 20
85.00000000008593
 30
0.0000000000000000
 40
4.500000000000004
100
AcDbArc
 50
6.379370209179649
 51
83.62062979265184
  0
ARC
  5
214
100
AcDbEntity
  8
A6
  6
PHANTOM
 62
1
100
AcDbCircle
 10
50.00000000010584
 20
85.00000000008593
 30
0.0000000000000000
 40
4.999999999999908
100
AcDbArc
 50
5.739170477892920
 51
84.26082952371699
  0
ARC
  5
215
100
AcDbEntity
  8
A6
  6
PHANTOM
 62
1
100
AcDbCircle
 10
50.00000000010584
 20
85.00000000008593
 30
0.0000000000000000
 40
4.999999999999908
100
AcDbArc
 50
185.7391704766409
 51
264.2608295221071
  0
ARC
  5
216
100
AcDbEntity
  8
A6
  6
PHANTOM
 62
1
100
AcDbCircle
 10
50.00000000010584
 20
85.00000000008593
 30
0.0000000000000000
 40
5.999999999999991
100
AcDbArc
 50
184.7801918467385
 51
265.2198081523401
  0
LINE
  5
217
100
AcDbEntity
  8
A6
  6
PHANTOM
 62
1
100
AcDbLine
 10
40.69017204080855
 20
86.89132317606460
 30
0.0000000000000000
 11
42.50000000071561
 21
95.80000000012429
 31
0.0000000000000000
  0
LINE
  5
218
100
AcDbEntity
  8
A6
  6
PHANTOM
 62
1
100
AcDbLine
 10
59.30982795940320
 20
86.89132317606476
 30
0.0000000000000000
 11
57.49999999949615
 21
95.80000000012444
 31
0.0000000000000000
  0
LINE
  5
219
100
AcDbEntity
  8
A6
  6
PHANTOM
 62
1
100
AcDbLine
 10
45.90541516155866
 20
84.50000000014583
 30
0.0000000000000000
 11
43.11813978646870
 21
84.50000000012837
 31
0.0000000000000000
  0
LINE
  5
21A
100
AcDbEntity
  8
A6
  6
PHANTOM
 62
1
100
AcDbLine
 10
49.50000000004606
 20
80.90541516155341
 30
0.0000000000000000
 11
49.50000000006357
 21
78.11813978645496
 31
0.0000000000000000
  0
LINE
  5
21B
100
AcDbEntity
  8
A6
  6
PHANTOM
 62
1
100
AcDbLine
 10
50.50000000004594
 20
80.90541516153878
 30
0.0000000000000000
 11
50.50000000006345
 21
78.11813978644886
 31
0.0000000000000000
  0
LINE
  5
21C
100
AcDbEntity
  8
A6
  6
PHANTOM
 62
1
100
AcDbLine
 10
54.09458483865290
 20
84.50000000014589
 30
0.0000000000000000
 11
56.88186021374297
 21
84.50000000012838
 31
0.0000000000000000
  0
LINE
  5
21D
100
AcDbEntity
  8
A6
  6
PHANTOM
 62
1
100
AcDbLine
 10
49.50000000002058
 20
91.88186021371378
 30
0.0000000000000000
 11
49.50000000002058
 21
89.09458483861533
 31
0.0000000000000000
  0
LINE
  5
21E
100
AcDbEntity
  8
A6
  6
PHANTOM
 62
1
100
AcDbLine
 10
45.90541516157343
 20
85.50000000014583
 30
0.0000000000000000
 11
43.11813978647494
 21
85.50000000012837
 31
0.0000000000000000
  0
LINE
  5
21F
100
AcDbEntity
  8
A6
  6
PHANTOM
 62
1
100
AcDbLine
 10
50.50000000002058
 20
91.88186021372616
 30
0.0000000000000000
 11
50.50000000002058
 21
89.09458483863617
 31
0.0000000000000000
  0
LINE
  5
220
100
AcDbEntity
  8
A6
  6
PHANTOM
 62
1
100
AcDbLine
 10
54.09458483863826
 20
85.50000000014589
 30
0.0000000000000000
 11
56.88186021373686
 21
85.50000000012838
 31
0.0000000000000000
  0
LINE
  5
221
100
AcDbEntity
  8
A6
  6
PHANTOM
 62
1
100
AcDbLine
 10
57.50000000069554
 20
95.80000000008593
 30
0.0000000000000000
 11
42.50000000070816
 21
95.80000000008593
 31
0.0000000000000000
  0
LINE
  5
222
100
AcDbEntity
  8
A6
  6
PHANTOM
 62
1
100
AcDbLine
 10
42.50000000071543
 20
99.00000000044568
 30
0.0000000000000000
 11
57.50000000069554
 21
99.00000000044568
 31
0.0000000000000000
  0
LINE
  5
223
100
AcDbEntity
  8
A6
  6
PHANTOM
 62
1
100
AcDbLine
 10
57.50000000069554
 20
99.00000000007495
 30
0.0000000000000000
 11
57.50000000069554
 21
95.80000000008593
 31
0.0000000000000000
  0
LINE
  5
224
100
AcDbEntity
  8
A6
  6
PHANTOM
 62
1
100
AcDbLine
 10
42.50000000071567
 20
95.80000000008593
 30
0.0000000000000000
 11
42.50000000071567
 21
99.00000000007495
 31
0.0000000000000000
  0
CIRCLE
  5
225
100
AcDbEntity
  8
A8
  6
PHANTOM
 62
1
100
AcDbCircle
 10
250.0000000001057
 20
85.00000000008593
 30
0.0000000000000000
 40
3.999999999999906
  0
CIRCLE
  5
226
100
AcDbEntity
  8
A8
  6
PHANTOM
 62
1
100
AcDbCircle
 10
250.0000000001057
 20
85.00000000008593
 30
0.0000000000000000
 40
4.499999999999907
  0
CIRCLE
  5
227
100
AcDbEntity
  8
A8
  6
PHANTOM
 62
1
100
AcDbCircle
 10
250.0000000001057
 20
85.00000000008593
 30
0.0000000000000000
 40
7.499999999999993
  0
CIRCLE
  5
228
100
AcDbEntity
  8
A8
  6
PHANTOM
 62
1
100
AcDbCircle
 10
250.0000000001057
 20
85.00000000008593
 30
0.0000000000000000
 40
4.999999999999797
  0
CIRCLE
  5
229
100
AcDbEntity
  8
A8
  6
PHANTOM
 62
1
100
AcDbCircle
 10
250.0000000001057
 20
85.00000000008593
 30
0.0000000000000000
 40
5.999999999999909
  0
ARC
  5
22A
100
AcDbEntity
  8
A8
  6
PHANTOM
 62
1
100
AcDbCircle
 10
249.9999999994284
 20
85.00000000017143
 30
0.0000000000000000
 40
9.499999999999986
100
AcDbArc
 50
168.5164460927840
 51
371.4835539055891
  0
LINE
  5
22B
100
AcDbEntity
  8
A8
  6
PHANTOM
 62
1
100
AcDbLine
 10
240.6901720408084
 20
86.89132317606489
 30
0.0000000000000000
 11
242.5000000007155
 21
95.80000000012457
 31
0.0000000000000000
  0
LINE
  5
22C
100
AcDbEntity
  8
A8
  6
PHANTOM
 62
1
100
AcDbLine
 10
259.3098279594030
 20
86.89132317606466
 30
0.0000000000000000
 11
257.4999999994960
 21
95.80000000012447
 31
0.0000000000000000
  0
LINE
  5
22D
100
AcDbEntity
  8
A8
  6
PHANTOM
 62
1
100
AcDbLine
 10
257.4999999994961
 20
95.80000000012515
 30
0.0000000000000000
 11
257.4999999994961
 21
99.00000000008598
 31
0.0000000000000000
  0
LINE
  5
22E
100
AcDbEntity
  8
A8
  6
PHANTOM
 62
1
100
AcDbLine
 10
257.4999999994961
 20
99.00000000008596
 30
0.0000000000000000
 11
242.4999999995163
 21
99.00000000008596
 31
0.0000000000000000
  0
LINE
  5
22F
100
AcDbEntity
  8
A8
  6
PHANTOM
 62
1
100
AcDbLine
 10
242.4999999995163
 20
95.80000000001669
 30
0.0000000000000000
 11
242.4999999995163
 21
99.00000000008598
 31
0.0000000000000000
  0
ARC
  5
230
100
AcDbEntity
  8
A9
  6
PHANTOM
 62
1
100
AcDbCircle
 10
348.2000000001059
 20
96.16041554851618
 30
0.0000000000000000
 40
3.699999999999989
100
AcDbArc
 50
90.00000000000000
 51
172.2335658308760
  0
ARC
  5
231
100
AcDbEntity
  8
A9
  6
PHANTOM
 62
1
100
AcDbCircle
 10
348.2000000001059
 20
96.16041554851618
 30
0.0000000000000000
 40
0.5000000000000000
100
AcDbArc
 50
90.00000000000000
 51
180.0000000000000
  0
LINE
  5
232
100
AcDbEntity
  8
A9
  6
PHANTOM
 62
1
100
AcDbLine
 10
356.5000000001057
 20
99.86041554853178
 30
0.0000000000000000
 11
348.2000000001059
 21
99.86041554853178
 31
0.0000000000000000
  0
LINE
  5
233
100
AcDbEntity
  8
A9
  6
PHANTOM
 62
1
100
AcDbLine
 10
348.7500000001058
 20
92.36041554851620
 30
0.0000000000000000
 11
348.5000000001057
 21
92.36041554851620
 31
0.0000000000000000
  0
LINE
  5
234
100
AcDbEntity
  8
A9
  6
PHANTOM
 62
1
100
AcDbLine
 10
348.5000000001057
 20
79.36041554851620
 30
0.0000000000000000
 11
348.7500000001058
 21
79.36041554851620
 31
0.0000000000000000
  0
LINE
  5
235
100
AcDbEntity
  8
A9
  6
PHANTOM
 62
1
100
AcDbLine
 10
344.5000000001058
 20
92.36041554851622
 30
0.0000000000000000
 11
344.2500000001058
 21
92.36041554851622
 31
0.0000000000000000
  0
LINE
  5
236
100
AcDbEntity
  8
A9
  6
PHANTOM
 62
1
100
AcDbLine
 10
344.2500000001058
 20
79.36041554851622
 30
0.0000000000000000
 11
344.5000000001058
 21
79.36041554851622
 31
0.0000000000000000
  0
LINE
  5
237
100
AcDbEntity
  8
A9
  6
PHANTOM
 62
1
100
AcDbLine
 10
348.7500000001058
 20
86.36041554855856
 30
0.0000000000000000
 11
351.5000000001058
 21
86.36041554856425
 31
0.0000000000000000
  0
LINE
  5
238
100
AcDbEntity
  8
A9
  6
PHANTOM
 62
1
100
AcDbLine
 10
348.7500000001057
 20
92.74227576214400
 30
0.0000000000000000
 11
351.5000000001057
 21
91.83954592005985
 31
0.0000000000000000
  0
LINE
  5
239
100
AcDbEntity
  8
A9
  6
PHANTOM
 62
1
100
AcDbLine
 10
351.5000000001058
 20
86.36041554856429
 30
0.0000000000000000
 11
351.5000000001058
 21
91.83954592005968
 31
0.0000000000000000
  0
LINE
  5
23A
100
AcDbEntity
  8
A9
  6
PHANTOM
 62
1
100
AcDbLine
 10
348.7500000001058
 20
85.36041554855856
 30
0.0000000000000000
 11
351.5000000001058
 21
85.36041554856425
 31
0.0000000000000000
  0
LINE
  5
23B
100
AcDbEntity
  8
A9
  6
PHANTOM
 62
1
100
AcDbLine
 10
348.7500000001059
 20
78.97855533488533
 30
0.0000000000000000
 11
348.7500000001059
 21
92.74227576214396
 31
0.0000000000000000
  0
LINE
  5
23C
100
AcDbEntity
  8
A9
  6
PHANTOM
 62
1
100
AcDbLine
 10
348.7500000001060
 20
78.97855533488519
 30
0.0000000000000000
 11
351.5000000001059
 21
79.88128517696946
 31
0.0000000000000000
  0
LINE
  5
23D
100
AcDbEntity
  8
A9
  6
PHANTOM
 62
1
100
AcDbLine
 10
351.5000000001059
 20
79.88128517696958
 30
0.0000000000000000
 11
351.5000000001058
 21
85.36041554856428
 31
0.0000000000000000
  0
LINE
  5
23E
100
AcDbEntity
  8
A9
  6
PHANTOM
 62
1
100
AcDbLine
 10
356.5000000001058
 20
99.86041554851620
 30
0.0000000000000000
 11
356.5000000001058
 21
96.66041554851621
 31
0.0000000000000000
  0
LINE
  5
23F
100
AcDbEntity
  8
A9
  6
PHANTOM
 62
1
100
AcDbLine
 10
348.2000000001057
 20
96.66041554851623
 30
0.0000000000000000
 11
356.5000000001057
 21
96.66041554851623
 31
0.0000000000000000
  0
LINE
  5
240
100
AcDbEntity
  8
A9
  6
PHANTOM
 62
1
100
AcDbLine
 10
348.5000000001058
 20
78.36041554851623
 30
0.0000000000000000
 11
348.5000000001058
 21
93.36041554851623
 31
0.0000000000000000
  0
LINE
  5
241
100
AcDbEntity
  8
A9
  6
PHANTOM
 62
1
100
AcDbLine
 10
348.5000000001057
 20
93.36041554851620
 30
0.0000000000000000
 11
347.7000000001057
 21
93.36041554851622
 31
0.0000000000000000
  0
LINE
  5
242
100
AcDbEntity
  8
A9
  6
PHANTOM
 62
1
100
AcDbLine
 10
347.7000000001057
 20
78.36041554851622
 30
0.0000000000000000
 11
348.5000000001057
 21
78.36041554851620
 31
0.0000000000000000
  0
LINE
  5
243
100
AcDbEntity
  8
A9
  6
PHANTOM
 62
1
100
AcDbLine
 10
341.5000000001058
 20
79.86041554851630
 30
0.0000000000000000
 11
341.5000000001058
 21
91.86041554851607
 31
0.0000000000000000
  0
LINE
  5
244
100
AcDbEntity
  8
A9
  6
PHANTOM
 62
1
100
AcDbLine
 10
344.2500000001058
 20
78.36041554851623
 30
0.0000000000000000
 11
344.2500000001058
 21
93.36041554851623
 31
0.0000000000000000
  0
LINE
  5
245
100
AcDbEntity
  8
A9
  6
PHANTOM
 62
1
100
AcDbLine
 10
341.5000000001057
 20
79.86041554851641
 30
0.0000000000000000
 11
344.2500000001057
 21
78.36041554851627
 31
0.0000000000000000
  0
LINE
  5
246
100
AcDbEntity
  8
A9
  6
PHANTOM
 62
1
100
AcDbLine
 10
344.2500000001060
 20
93.36041554851612
 30
0.0000000000000000
 11
341.5000000001058
 21
91.86041554851597
 31
0.0000000000000000
  0
LINE
  5
247
100
AcDbEntity
  8
A9
  6
PHANTOM
 62
1
100
AcDbLine
 10
344.5000000001060
 20
96.66041554855464
 30
0.0000000000000000
 11
344.5339394441465
 21
96.66041554855532
 31
0.0000000000000000
  0
LINE
  5
248
100
AcDbEntity
  8
A9
  6
PHANTOM
 62
1
100
AcDbLine
 10
347.7000000001057
 20
96.16041554851617
 30
0.0000000000000000
 11
347.7000000001058
 21
76.36041554860164
 31
0.0000000000000000
  0
LINE
  5
249
100
AcDbEntity
  8
A9
  6
PHANTOM
 62
1
100
AcDbLine
 10
344.5000000001057
 20
96.66041554855465
 30
0.0000000000000000
 11
344.5000000001058
 21
76.36041554860165
 31
0.0000000000000000
  0
LINE
  5
24A
100
AcDbEntity
  8
A9
  6
PHANTOM
 62
1
100
AcDbLine
 10
344.5000000001058
 20
76.36041554860171
 30
0.0000000000000000
 11
347.7000000001058
 21
76.36041554860171
 31
0.0000000000000000
  0
LINE
  5
24B
100
AcDbEntity
  8
A6
  6
CENTER
 62
4
100
AcDbLine
 10
65.50000000078330
 20
85.00000000008593
 30
0.0000000000000000
 11
34.50000000078330
 21
85.00000000008593
 31
0.0000000000000000
  0
LINE
  5
24C
100
AcDbEntity
  8
A10
  6
CENTER
 62
4
100
AcDbLine
 10
142.5000000001057
 20
85.00000000008593
 30
0.0000000000000000
 11
164.5000000001057
 21
85.00000000008593
 31
0.0000000000000000
  0
LINE
  5
24D
100
AcDbEntity
  8
A8
  6
CENTER
 62
4
100
AcDbLine
 10
265.4999999994284
 20
85.00000000017143
 30
0.0000000000000000
 11
234.4999999994284
 21
85.00000000017143
 31
0.0000000000000000
  0
LINE
  5
24E
100
AcDbEntity
  8
A10
  6
CENTER
 62
4
100
AcDbLine
 10
335.5000000001058
 20
85.86041554851604
 30
0.0000000000000000
 11
357.5000000001058
 21
85.86041554851604
 31
0.0000000000000000
  0
ENDSEC
  0
SECTION
  2
OBJECTS
  0
DICTIONARY
  5
27E
100
AcDbDictionary
  3
ACAD_GROUP
350
27F
  3
ACAD_LAYOUT
350
280
  3
ACAD_MLINESTYLE
350
281
  0
DICTIONARY
  5
27F
102
{ACAD_REACTORS
330
27E
102
}
330
27E
100
AcDbDictionary
  0
DICTIONARY
  5
280
102
{ACAD_REACTORS
330
27E
102
}
330
27E
100
AcDbDictionary
  3
Model
350
282
  3
ﾚｲｱｳﾄ1
350
283
  3
ﾚｲｱｳﾄ2
350
284
  0
DICTIONARY
  5
281
102
{ACAD_REACTORS
330
27E
102
}
330
27E
100
AcDbDictionary
  3
STANDARD
350
285
  0
LAYOUT
  5
282
102
{ACAD_REACTORS
330
280
102
}
330
280
100
AcDbPlotSettings
 70
11952
  4
A3
 44
297.000000
 45
420.000000
 73
  1
 72
  1
100
AcDbLayout
  1
Model
 71
0
330
275
  0
LAYOUT
  5
283
102
{ACAD_REACTORS
330
280
102
}
330
280
100
AcDbPlotSettings
100
AcDbLayout
  1
ﾚｲｱｳﾄ1
 71
1
330
276
  0
LAYOUT
  5
284
102
{ACAD_REACTORS
330
280
102
}
330
280
100
AcDbPlotSettings
100
AcDbLayout
  1
ﾚｲｱｳﾄ2
 71
2
330
277
  0
MLINESTYLE
  5
285
102
{ACAD_REACTORS
330
281
102
}
330
281
100
AcDbMlineStyle
  2
STANDARD
 70
     0
  3

 62
   256
 51
90.00
 52
90.00
 71
     2
 49
0.50
 62
   256
  6
BYLAYER
 49
-0.50
 62
   256
  6
BYLAYER
  0
ENDSEC
  0
EOF
