  0
SECTION
  2
HEADER
  9
$ACADVER
  1
AC1015
  9
$DWGCODEPAGE
  3
ANSI_932
  9
$LTSCALE
 40
20.0
  9
$FILLMODE
 70
     1
  9
$CLAYER
  8
0
  9
$PDMODE
 70
     0
  9
$SPLFRAME
 70
     0
  9
$SPLINETYPE
 70
     6
  9
$SPLINESEGS
 70
     8
  9
$DIMASZ
 40
2.000000
  9
$DIMEXE
 40
1.500000
  9
$DIMEXO
 40
0.800000
  9
$DIMTAD
 70
     1
  9
$DIMTIH
 70
     0
  9
$DIMTOH
 70
     0
  9
$DIMTVP
 40
0.500000
  9
$DIMTXT
 40
3.100000
  9
$EXTMIN
 10
0.000000
 20
0.000000
 30
0.000000
  9
$EXTMAX
 10
297.000000
 20
420.000000
 30
0.000000
  9
$MEASUREMENT
 70
  1
  9
$LIMMIN
 10
0.000000
 20
0.000000
  9
$LIMMAX
 10
297.000000
 20
420.000000
  9
$HANDSEED
  5
192
  9
$LWDISPLAY
290
     0
  9
$DIMBLK
  1
_OPEN
  9
$DIMDEC
 70
     2
  9
$DIMADEC
 70
     2
  9
$DIMAUNIT
 70
     0
  9
$DIMZIN
 70
     8
  9
$DIMAZIN
 70
     2
  9
$DIMTOFL
 70
     1
  0
ENDSEC
  0
SECTION
  2
CLASSES
  0
ENDSEC
  0
SECTION
  2
TABLES
  0
TABLE
  2
VPORT
  5
15B
100
AcDbSymbolTable
 70
     1
  0
VPORT
  5
15C
100
AcDbSymbolTableRecord
100
AcDbViewportTableRecord
  2
*ACTIVE
 70
     0
 12
187.049999
 22
213.424984
 40
561.350032
 41
0.630801
  0
ENDTAB
  0
TABLE
  2
LTYPE
  5
15D
100
AcDbSymbolTable
 70
     3
  0
LTYPE
  5
15E
100
AcDbSymbolTableRecord
100
AcDbLinetypeTableRecord
  2
BYBLOCK
 70
     0
  3

 72
    65
 73
     0
 40
0.0
  0
LTYPE
  5
15F
100
AcDbSymbolTableRecord
100
AcDbLinetypeTableRecord
  2
BYLAYER
 70
     0
  3

 72
    65
 73
     0
 40
0.0
  0
LTYPE
  5
160
100
AcDbSymbolTableRecord
100
AcDbLinetypeTableRecord
  2
CONTINUOUS
 70
     0
  3
Solid line (NEC CAE2D for Win R15.2 : 2020.05.29)
 72
    65
 73
     0
 40
0.0
  0
LTYPE
  5
161
100
AcDbSymbolTableRecord
100
AcDbLinetypeTableRecord
  2
CENTER
 70
     0
  3
____ _ ____ _ ____ _ ____ _ ____ _ ____
 72
    65
 73
     4
 40
2.0
 49
1.25
 74
     0
 49
-0.25
 74
     0
 49
0.25
 74
     0
 49
-0.25
 74
     0
  0
LTYPE
  5
162
100
AcDbSymbolTableRecord
100
AcDbLinetypeTableRecord
  2
PHANTOM
 70
     0
  3
______  __  __  ______  __  __  ______ 
 72
    65
 73
     6
 40
2.5
 49
1.25
 74
     0
 49
-0.25
 74
     0
 49
0.25
 74
     0
 49
-0.25
 74
     0
 49
0.25
 74
     0
 49
-0.25
 74
     0
  0
ENDTAB
  0
TABLE
  2
LAYER
  5
163
100
AcDbSymbolTable
 70
    16
  0
LAYER
  5
164
100
AcDbSymbolTableRecord
100
AcDbLayerTableRecord
  2
0
 70
     0
 62
     7
  6
CONTINUOUS
370
    -3
390

  0
LAYER
  5
165
100
AcDbSymbolTableRecord
100
AcDbLayerTableRecord
  2
A0
 70
     0
 62
     9
  6
CONTINUOUS
370
    -3
390

  0
LAYER
  5
166
100
AcDbSymbolTableRecord
100
AcDbLayerTableRecord
  2
A2
 70
     0
 62
     9
  6
CONTINUOUS
370
    -3
390

  0
LAYER
  5
167
100
AcDbSymbolTableRecord
100
AcDbLayerTableRecord
  2
A3
 70
     0
 62
    12
  6
CONTINUOUS
370
    -3
390

  0
LAYER
  5
168
100
AcDbSymbolTableRecord
100
AcDbLayerTableRecord
  2
A4
 70
     0
 62
     9
  6
CONTINUOUS
370
    -3
390

  0
LAYER
  5
169
100
AcDbSymbolTableRecord
100
AcDbLayerTableRecord
  2
A5
 70
     0
 62
     8
  6
CONTINUOUS
370
    -3
390

  0
LAYER
  5
16A
100
AcDbSymbolTableRecord
100
AcDbLayerTableRecord
  2
A6
 70
     0
 62
    12
  6
CONTINUOUS
370
    -3
390

  0
LAYER
  5
16B
100
AcDbSymbolTableRecord
100
AcDbLayerTableRecord
  2
A7
 70
     0
 62
    12
  6
CONTINUOUS
370
    -3
390

  0
LAYER
  5
16C
100
AcDbSymbolTableRecord
100
AcDbLayerTableRecord
  2
A8
 70
     0
 62
    10
  6
CONTINUOUS
370
    -3
390

  0
LAYER
  5
16D
100
AcDbSymbolTableRecord
100
AcDbLayerTableRecord
  2
A9
 70
     0
 62
     9
  6
CONTINUOUS
370
    -3
390

  0
LAYER
  5
16E
100
AcDbSymbolTableRecord
100
AcDbLayerTableRecord
  2
A10
 70
     0
 62
     6
  6
CONTINUOUS
370
    -3
390

  0
LAYER
  5
16F
100
AcDbSymbolTableRecord
100
AcDbLayerTableRecord
  2
A20
 70
     0
 62
     1
  6
CONTINUOUS
370
    -3
390

  0
LAYER
  5
170
100
AcDbSymbolTableRecord
100
AcDbLayerTableRecord
  2
A30
 70
     0
 62
     1
  6
CONTINUOUS
370
    -3
390

  0
LAYER
  5
171
100
AcDbSymbolTableRecord
100
AcDbLayerTableRecord
  2
A40
 70
     0
 62
     9
  6
CONTINUOUS
370
    -3
390

  0
LAYER
  5
172
100
AcDbSymbolTableRecord
100
AcDbLayerTableRecord
  2
A50
 70
     0
 62
    12
  6
CONTINUOUS
370
    -3
390

  0
LAYER
  5
173
100
AcDbSymbolTableRecord
100
AcDbLayerTableRecord
  2
A1023
 70
     0
 62
    16
  6
CONTINUOUS
370
    -3
390

  0
ENDTAB
  0
TABLE
  2
STYLE
  5
174
100
AcDbSymbolTable
 70
     4
  0
STYLE
  5
175
100
AcDbSymbolTableRecord
100
AcDbTextStyleTableRecord
  2
STANDARD
 70
    64
 40
0.0
 41
1.0
 50
0.0
 71
     0
 42
3.000000000000000
  3
TXT
  4

  0
STYLE
  5
176
100
AcDbSymbolTableRecord
100
AcDbTextStyleTableRecord
  2
ANKTATE
 70
    68
 40
0.0
 41
1.0
 50
0.0
 71
     0
 42
3.000000000000000
  3
TXT
  4

  0
STYLE
  5
177
100
AcDbSymbolTableRecord
100
AcDbTextStyleTableRecord
  2
KNJYOKO
 70
    64
 40
0.0
 41
1.0
 50
0.0
 71
     0
 42
3.000000000000000
  3
TXT
  4
BIGFONT
  0
STYLE
  5
178
100
AcDbSymbolTableRecord
100
AcDbTextStyleTableRecord
  2
KNJTATE
 70
    68
 40
0.0
 41
1.0
 50
0.0
 71
     0
 42
3.000000000000000
  3
TXT
  4
BIGFONT
  0
ENDTAB
  0
TABLE
  2
VIEW
  5
179
100
AcDbSymbolTable
 70
     0
  0
ENDTAB
  0
TABLE
  2
UCS
  5
17A
100
AcDbSymbolTable
 70
     0
  0
ENDTAB
  0
TABLE
  2
APPID
  5
17B
100
AcDbSymbolTable
 70
     1
  0
APPID
  5
17C
100
AcDbSymbolTableRecord
100
AcDbRegAppTableRecord
  2
ACAD
 70
     0
  0
ENDTAB
  0
TABLE
  2
DIMSTYLE
  5
17D
100
AcDbSymbolTable
 70
     2
100
AcDbDimStyleTable
  0
DIMSTYLE
105
17E
100
AcDbSymbolTableRecord
100
AcDbDimStyleTableRecord
  2
STANDARD
 70
     0
 41
2.000000
 44
1.500000
 42
0.800000
145
0.661290
140
3.100000
144
1.000000
146
0.645161
340
175
  0
DIMSTYLE
105
17F
100
AcDbSymbolTableRecord
100
AcDbDimStyleTableRecord
  2
A001
 70
     0
 41
2.000000
 44
1.500000
 42
0.800000
145
0.661290
140
3.100000
144
1.000000
146
0.645161
 77
     1
 73
     0
 74
     0
271
     2
179
     2
275
     0
 78
     8
 79
     2
172
     1
340
175
  0
ENDTAB
  0
TABLE
  2
BLOCK_RECORD
  5
180
100
AcDbSymbolTable
 70
    12
  0
BLOCK_RECORD
  5
181
100
AcDbSymbolTableRecord
100
AcDbBlockTableRecord
  2
*MODEL_SPACE
  0
BLOCK_RECORD
  5
182
100
AcDbSymbolTableRecord
100
AcDbBlockTableRecord
  2
*PAPER_SPACE
  0
BLOCK_RECORD
  5
183
100
AcDbSymbolTableRecord
100
AcDbBlockTableRecord
  2
*PAPER_SPACE0
  0
BLOCK_RECORD
  5
1
100
AcDbSymbolTableRecord
100
AcDbBlockTableRecord
  2
_NONE
  0
BLOCK_RECORD
  5
4
100
AcDbSymbolTableRecord
100
AcDbBlockTableRecord
  2
_CLOSED
  0
BLOCK_RECORD
  5
B
100
AcDbSymbolTableRecord
100
AcDbBlockTableRecord
  2
_DOT
  0
BLOCK_RECORD
  5
13
100
AcDbSymbolTableRecord
100
AcDbBlockTableRecord
  2
_OPEN
  0
BLOCK_RECORD
  5
19
100
AcDbSymbolTableRecord
100
AcDbBlockTableRecord
  2
_ORIGIN
  0
BLOCK_RECORD
  5
1E
100
AcDbSymbolTableRecord
100
AcDbBlockTableRecord
  2
_OPEN30
  0
BLOCK_RECORD
  5
24
100
AcDbSymbolTableRecord
100
AcDbBlockTableRecord
  2
_BOXFILLED
  0
BLOCK_RECORD
  5
29
100
AcDbSymbolTableRecord
100
AcDbBlockTableRecord
  2
_BOXBLANK
  0
BLOCK_RECORD
  5
31
100
AcDbSymbolTableRecord
100
AcDbBlockTableRecord
  2
_OBLIQUE
  0
BLOCK_RECORD
  5
35
100
AcDbSymbolTableRecord
100
AcDbBlockTableRecord
  2
_OPEN90
  0
BLOCK_RECORD
  5
3B
100
AcDbSymbolTableRecord
100
AcDbBlockTableRecord
  2
_CLOSEDBLANK
  0
BLOCK_RECORD
  5
41
100
AcDbSymbolTableRecord
100
AcDbBlockTableRecord
  2
_DOTBLANK
  0
ENDTAB
  0
ENDSEC
  0
SECTION
  2
BLOCKS
  0
BLOCK
  5
184
100
AcDbEntity
  8
0
100
AcDbBlockBegin
  2
*MODEL_SPACE
 70
     0
 10
0.0
 20
0.0
 30
0.0
  3
*MODEL_SPACE
  1

  0
ENDBLK
  5
185
100
AcDbEntity
  8
0
100
AcDbBlockEnd
  0
BLOCK
  5
186
100
AcDbEntity
  8
0
100
AcDbBlockBegin
  2
*PAPER_SPACE
 70
     0
 10
0.0
 20
0.0
 30
0.0
  3
*PAPER_SPACE
  1

  0
ENDBLK
  5
187
100
AcDbEntity
  8
0
100
AcDbBlockEnd
  0
BLOCK
  5
188
100
AcDbEntity
  8
0
100
AcDbBlockBegin
  2
*PAPER_SPACE0
 70
     0
 10
0.0
 20
0.0
 30
0.0
  3
*PAPER_SPACE0
  1

  0
ENDBLK
  5
189
100
AcDbEntity
  8
0
100
AcDbBlockEnd
  0
BLOCK
  5
2
330
1
100
AcDbEntity
  8
0
100
AcDbBlockBegin
  2
_NONE
 70
     0
 10
0.0
 20
0.0
 30
0.0
  3
_NONE
  1

  0
ENDBLK
  5
3
330
1
100
AcDbEntity
  8
0
100
AcDbBlockEnd
  0
BLOCK
  5
5
330
4
100
AcDbEntity
  8
0
100
AcDbBlockBegin
  2
_CLOSED
 70
     0
 10
0.0
 20
0.0
 30
0.0
  3
_CLOSED
  1

  0
LINE
  5
6
330
4
100
AcDbEntity
  8
0
  6
BYBLOCK
 62
     0
370
    -2
100
AcDbLine
 10
-1.0
 20
0.166667
 30
0.0
 11
0.0
 21
0.0
 31
0.0
  0
LINE
  5
7
330
4
100
AcDbEntity
  8
0
  6
BYBLOCK
 62
     0
370
    -2
100
AcDbLine
 10
0.0
 20
0.0
 30
0.0
 11
-1.0
 21
-0.166667
 31
0.0
  0
LINE
  5
8
330
4
100
AcDbEntity
  8
0
  6
BYBLOCK
 62
     0
370
    -2
100
AcDbLine
 10
-1.0
 20
0.166667
 30
0.0
 11
-1.0
 21
-0.166667
 31
0.0
  0
LINE
  5
9
330
4
100
AcDbEntity
  8
0
  6
BYBLOCK
 62
     0
370
    -2
100
AcDbLine
 10
0.0
 20
0.0
 30
0.0
 11
-1.0
 21
0.0
 31
0.0
  0
ENDBLK
  5
A
330
4
100
AcDbEntity
  8
0
100
AcDbBlockEnd
  0
BLOCK
  5
C
330
B
100
AcDbEntity
  8
0
100
AcDbBlockBegin
  2
_DOT
 70
     0
 10
0.0
 20
0.0
 30
0.0
  3
_DOT
  1

  0
POLYLINE
  5
D
330
B
100
AcDbEntity
  8
0
  6
BYBLOCK
 62
     0
370
    -2
100
AcDb2dPolyline
 66
     1
 10
0.0
 20
0.0
 30
0.0
 70
     1
 40
0.5
 41
0.5
  0
VERTEX
  5
E
330
B
100
AcDbEntity
  8
0
  6
BYBLOCK
 62
     0
370
    -2
100
AcDbVertex
100
AcDb2dVertex
 10
-0.25
 20
0.0
 30
0.0
 42
1.0
  0
VERTEX
  5
F
330
B
100
AcDbEntity
  8
0
  6
BYBLOCK
 62
     0
370
    -2
100
AcDbVertex
100
AcDb2dVertex
 10
0.25
 20
0.0
 30
0.0
 42
1.0
  0
SEQEND
  5
10
330
B
100
AcDbEntity
  8
0
  6
BYBLOCK
 62
     0
370
    -2
  0
LINE
  5
11
330
B
100
AcDbEntity
  8
0
  6
BYBLOCK
 62
     0
370
    -2
100
AcDbLine
 10
-0.5
 20
0.0
 30
0.0
 11
-1.0
 21
0.0
 31
0.0
  0
ENDBLK
  5
12
330
B
100
AcDbEntity
  8
0
100
AcDbBlockEnd
  0
BLOCK
  5
14
330
13
100
AcDbEntity
  8
0
100
AcDbBlockBegin
  2
_OPEN
 70
     0
 10
0.0
 20
0.0
 30
0.0
  3
_OPEN
  1

  0
LINE
  5
15
330
13
100
AcDbEntity
  8
0
  6
BYBLOCK
 62
     0
370
    -2
100
AcDbLine
 10
-1.0
 20
0.166667
 30
0.0
 11
0.0
 21
0.0
 31
0.0
  0
LINE
  5
16
330
13
100
AcDbEntity
  8
0
  6
BYBLOCK
 62
     0
370
    -2
100
AcDbLine
 10
0.0
 20
0.0
 30
0.0
 11
-1.0
 21
-0.166667
 31
0.0
  0
LINE
  5
17
330
13
100
AcDbEntity
  8
0
  6
BYBLOCK
 62
     0
370
    -2
100
AcDbLine
 10
0.0
 20
0.0
 30
0.0
 11
-1.0
 21
0.0
 31
0.0
  0
ENDBLK
  5
18
330
13
100
AcDbEntity
  8
0
100
AcDbBlockEnd
  0
BLOCK
  5
1A
330
19
100
AcDbEntity
  8
0
100
AcDbBlockBegin
  2
_ORIGIN
 70
     0
 10
0.0
 20
0.0
 30
0.0
  3
_ORIGIN
  1

  0
CIRCLE
  5
1B
330
19
100
AcDbEntity
  8
0
  6
BYBLOCK
 62
     0
370
    -2
100
AcDbCircle
 10
0.0
 20
0.0
 30
0.0
 40
0.5
  0
LINE
  5
1C
330
19
100
AcDbEntity
  8
0
  6
BYBLOCK
 62
     0
370
    -2
100
AcDbLine
 10
0.0
 20
0.0
 30
0.0
 11
-1.0
 21
0.0
 31
0.0
  0
ENDBLK
  5
1D
330
19
100
AcDbEntity
  8
0
100
AcDbBlockEnd
  0
BLOCK
  5
1F
330
1E
100
AcDbEntity
  8
0
100
AcDbBlockBegin
  2
_OPEN30
 70
     0
 10
0.0
 20
0.0
 30
0.0
  3
_OPEN30
  1

  0
LINE
  5
20
330
1E
100
AcDbEntity
  8
0
  6
BYBLOCK
 62
     0
370
    -2
100
AcDbLine
 10
-1.0
 20
0.267949
 30
0.0
 11
0.0
 21
0.0
 31
0.0
  0
LINE
  5
21
330
1E
100
AcDbEntity
  8
0
  6
BYBLOCK
 62
     0
370
    -2
100
AcDbLine
 10
0.0
 20
0.0
 30
0.0
 11
-1.0
 21
-0.267949
 31
0.0
  0
LINE
  5
22
330
1E
100
AcDbEntity
  8
0
  6
BYBLOCK
 62
     0
370
    -2
100
AcDbLine
 10
0.0
 20
0.0
 30
0.0
 11
-1.0
 21
0.0
 31
0.0
  0
ENDBLK
  5
23
330
1E
100
AcDbEntity
  8
0
100
AcDbBlockEnd
  0
BLOCK
  5
25
330
24
100
AcDbEntity
  8
0
100
AcDbBlockBegin
  2
_BOXFILLED
 70
     0
 10
0.0
 20
0.0
 30
0.0
  3
_BOXFILLED
  1

  0
SOLID
  5
26
330
24
100
AcDbEntity
  8
0
  6
BYBLOCK
 62
     0
370
    -2
100
AcDbTrace
 10
-0.5
 20
0.5
 30
0.0
 11
0.5
 21
0.5
 31
0.0
 12
-0.5
 22
-0.5
 32
0.0
 13
0.5
 23
-0.5
 33
0.0
  0
LINE
  5
27
330
24
100
AcDbEntity
  8
0
  6
BYBLOCK
 62
     0
370
    -2
100
AcDbLine
 10
-0.5
 20
0.0
 30
0.0
 11
-1.0
 21
0.0
 31
0.0
  0
ENDBLK
  5
28
330
24
100
AcDbEntity
  8
0
100
AcDbBlockEnd
  0
BLOCK
  5
2A
330
29
100
AcDbEntity
  8
0
100
AcDbBlockBegin
  2
_BOXBLANK
 70
     0
 10
0.0
 20
0.0
 30
0.0
  3
_BOXBLANK
  1

  0
LINE
  5
2B
330
29
100
AcDbEntity
  8
0
  6
BYBLOCK
 62
     0
370
    -2
100
AcDbLine
 10
-0.5
 20
-0.5
 30
0.0
 11
0.5
 21
-0.5
 31
0.0
  0
LINE
  5
2C
330
29
100
AcDbEntity
  8
0
  6
BYBLOCK
 62
     0
370
    -2
100
AcDbLine
 10
0.5
 20
-0.5
 30
0.0
 11
0.5
 21
0.5
 31
0.0
  0
LINE
  5
2D
330
29
100
AcDbEntity
  8
0
  6
BYBLOCK
 62
     0
370
    -2
100
AcDbLine
 10
0.5
 20
0.5
 30
0.0
 11
-0.5
 21
0.5
 31
0.0
  0
LINE
  5
2E
330
29
100
AcDbEntity
  8
0
  6
BYBLOCK
 62
     0
370
    -2
100
AcDbLine
 10
-0.5
 20
0.5
 30
0.0
 11
-0.5
 21
-0.5
 31
0.0
  0
LINE
  5
2F
330
29
100
AcDbEntity
  8
0
  6
BYBLOCK
 62
     0
370
    -2
100
AcDbLine
 10
-0.5
 20
0.0
 30
0.0
 11
-1.0
 21
0.0
 31
0.0
  0
ENDBLK
  5
30
330
29
100
AcDbEntity
  8
0
100
AcDbBlockEnd
  0
BLOCK
  5
32
330
31
100
AcDbEntity
  8
0
100
AcDbBlockBegin
  2
_OBLIQUE
 70
     0
 10
0.0
 20
0.0
 30
0.0
  3
_OBLIQUE
  1

  0
LINE
  5
33
330
31
100
AcDbEntity
  8
0
  6
BYBLOCK
 62
     0
370
    -2
100
AcDbLine
 10
-0.5
 20
-0.5
 30
0.0
 11
0.5
 21
0.5
 31
0.0
  0
ENDBLK
  5
34
330
31
100
AcDbEntity
  8
0
100
AcDbBlockEnd
  0
BLOCK
  5
36
330
35
100
AcDbEntity
  8
0
100
AcDbBlockBegin
  2
_OPEN90
 70
     0
 10
0.0
 20
0.0
 30
0.0
  3
_OPEN90
  1

  0
LINE
  5
37
330
35
100
AcDbEntity
  8
0
  6
BYBLOCK
 62
     0
370
    -2
100
AcDbLine
 10
-0.5
 20
0.5
 30
0.0
 11
0.0
 21
0.0
 31
0.0
  0
LINE
  5
38
330
35
100
AcDbEntity
  8
0
  6
BYBLOCK
 62
     0
370
    -2
100
AcDbLine
 10
0.0
 20
0.0
 30
0.0
 11
-0.5
 21
-0.5
 31
0.0
  0
LINE
  5
39
330
35
100
AcDbEntity
  8
0
  6
BYBLOCK
 62
     0
370
    -2
100
AcDbLine
 10
0.0
 20
0.0
 30
0.0
 11
-1.0
 21
0.0
 31
0.0
  0
ENDBLK
  5
3A
330
35
100
AcDbEntity
  8
0
100
AcDbBlockEnd
  0
BLOCK
  5
3C
330
3B
100
AcDbEntity
  8
0
100
AcDbBlockBegin
  2
_CLOSEDBLANK
 70
     0
 10
0.0
 20
0.0
 30
0.0
  3
_CLOSEDBLANK
  1

  0
LINE
  5
3D
330
3B
100
AcDbEntity
  8
0
  6
BYBLOCK
 62
     0
370
    -2
100
AcDbLine
 10
-1.0
 20
0.1666666666666666
 30
0.0
 11
0.0
 21
0.0
 31
0.0
  0
LINE
  5
3E
330
3B
100
AcDbEntity
  8
0
  6
BYBLOCK
 62
     0
370
    -2
100
AcDbLine
 10
0.0
 20
0.0
 30
0.0
 11
-1.0
 21
-0.1666666666666666
 31
0.0
  0
LINE
  5
3F
330
3B
100
AcDbEntity
  8
0
  6
BYBLOCK
 62
     0
370
    -2
100
AcDbLine
 10
-1.0
 20
0.1666666666666666
 30
0.0
 11
-1.0
 21
-0.1666666666666666
 31
0.0
  0
ENDBLK
  5
40
330
3B
100
AcDbEntity
  8
0
100
AcDbBlockEnd
  0
BLOCK
  5
42
330
41
100
AcDbEntity
  8
0
100
AcDbBlockBegin
  2
_DOTBLANK
 70
     0
 10
0.0
 20
0.0
 30
0.0
  3
_DOTBLANK
  1

  0
CIRCLE
  5
43
330
41
100
AcDbEntity
  8
0
  6
BYBLOCK
 62
     0
370
    -2
100
AcDbCircle
 10
0.0
 20
0.0
 30
0.0
 40
0.5
  0
LINE
  5
44
330
41
100
AcDbEntity
  8
0
  6
BYBLOCK
 62
     0
370
    -2
100
AcDbLine
 10
-0.5
 20
0.0
 30
0.0
 11
-1.0
 21
0.0
 31
0.0
  0
ENDBLK
  5
45
330
41
100
AcDbEntity
  8
0
100
AcDbBlockEnd
  0
ENDSEC
  0
SECTION
  2
ENTITIES
  0
MTEXT
  5
46
100
AcDbEntity
  8
A8
  6
CONTINUOUS
 62
7
100
AcDbMText
 10
9.999997526638502
 20
18.00000076076889
 30
0.0000000000000000
 40
3.000000000000000
 41
0.0000000000000000
 44
0.6739999771118164
 71
     7
 72
     1
  1
{\H0.94x;{TYPE No.TM-371-100-120}}
 11
1.000000000000000
 21
0.0000000000000000
 31
0.0000000000000000
  7
STANDARD
  0
POINT
  5
47
100
AcDbEntity
  8
A0
  6
CONTINUOUS
 62
5
100
AcDbPoint
 10
9.999997526638502
 20
18.00000076076889
 30
0.0000000000000000
  0
LINE
  5
48
100
AcDbEntity
  8
A2
  6
CENTER
 62
4
100
AcDbLine
 10
257.4999999999999
 20
-39.75002999999973
 30
0.0000000000000000
 11
202.5000000000000
 21
-39.75002999999973
 31
0.0000000000000000
  0
LINE
  5
49
100
AcDbEntity
  8
A2
  6
CENTER
 62
4
100
AcDbLine
 10
230.0000000000000
 20
-12.25002999999975
 30
0.0000000000000000
 11
230.0000000000000
 21
-67.25003199999973
 31
0.0000000000000000
  0
LINE
  5
4A
100
AcDbEntity
  8
A4
  6
CONTINUOUS
 62
7
100
AcDbLine
 10
238.6999970000000
 20
-28.75002999999973
 30
0.0000000000000000
 11
238.6999970000000
 21
-50.75002999999973
 31
0.0000000000000000
  0
LINE
  5
4B
100
AcDbEntity
  8
A4
  6
CONTINUOUS
 62
7
100
AcDbLine
 10
235.5000000000000
 20
-28.75002999999973
 30
0.0000000000000000
 11
235.5000000000000
 21
-50.75002999999973
 31
0.0000000000000000
  0
LINE
  5
4C
100
AcDbEntity
  8
A4
  6
CONTINUOUS
 62
7
100
AcDbLine
 10
224.4999999999998
 20
-28.75002999999973
 30
0.0000000000000000
 11
224.4999999999998
 21
-50.75002999999973
 31
0.0000000000000000
  0
LINE
  5
4D
100
AcDbEntity
  8
A4
  6
CONTINUOUS
 62
7
100
AcDbLine
 10
221.3000029999998
 20
-28.75002999999973
 30
0.0000000000000000
 11
221.3000029999998
 21
-50.75002999999973
 31
0.0000000000000000
  0
LINE
  5
4E
100
AcDbEntity
  8
A4
  6
CONTINUOUS
 62
7
100
AcDbLine
 10
238.6999970000000
 20
-50.75002999999973
 30
0.0000000000000000
 11
221.3000029999998
 21
-50.75002999999973
 31
0.0000000000000000
  0
LINE
  5
4F
100
AcDbEntity
  8
A4
  6
CONTINUOUS
 62
7
100
AcDbLine
 10
238.6999970000000
 20
-28.75002999999973
 30
0.0000000000000000
 11
221.3000029999998
 21
-28.75002999999973
 31
0.0000000000000000
  0
ARC
  5
50
100
AcDbEntity
  8
A4
  6
CONTINUOUS
 62
7
100
AcDbCircle
 10
230.0000000000000
 20
-39.75002999999973
 30
0.0000000000000000
 40
12.75000000000000
100
AcDbArc
 50
313.0277850000000
 51
406.9722150000000
  0
ARC
  5
51
100
AcDbEntity
  8
A4
  6
CONTINUOUS
 62
7
100
AcDbCircle
 10
230.0000000000000
 20
-39.75002999999973
 30
0.0000000000000000
 40
12.75000000000000
100
AcDbArc
 50
59.62621300000000
 51
120.3737920000000
  0
ARC
  5
52
100
AcDbEntity
  8
A4
  6
CONTINUOUS
 62
7
100
AcDbCircle
 10
230.0000000000000
 20
-39.75002999999973
 30
0.0000000000000000
 40
12.75000000000000
100
AcDbArc
 50
133.0277829999999
 51
226.9722129999999
  0
ARC
  5
53
100
AcDbEntity
  8
A4
  6
CONTINUOUS
 62
7
100
AcDbCircle
 10
230.0000000000000
 20
-39.75002999999973
 30
0.0000000000000000
 40
12.75000000000000
100
AcDbArc
 50
239.6262079999998
 51
300.3737870000000
  0
ARC
  5
54
100
AcDbEntity
  8
A4
  6
CONTINUOUS
 62
7
100
AcDbCircle
 10
230.0000000000000
 20
-39.75002999999973
 30
0.0000000000000000
 40
13.70000000000000
100
AcDbArc
 50
309.4226750000000
 51
410.5773250000000
  0
ARC
  5
55
100
AcDbEntity
  8
A4
  6
CONTINUOUS
 62
7
100
AcDbCircle
 10
230.0000000000000
 20
-39.75002999999973
 30
0.0000000000000000
 40
13.70000000000000
100
AcDbArc
 50
233.4098250000000
 51
306.5901750000000
  0
ARC
  5
56
100
AcDbEntity
  8
A4
  6
CONTINUOUS
 62
7
100
AcDbCircle
 10
230.0000000000000
 20
-39.75002999999973
 30
0.0000000000000000
 40
13.70000000000000
100
AcDbArc
 50
129.4226749999999
 51
230.5773250000000
  0
ARC
  5
57
100
AcDbEntity
  8
A4
  6
CONTINUOUS
 62
7
100
AcDbCircle
 10
230.0000000000000
 20
-39.75002999999973
 30
0.0000000000000000
 40
13.70000000000000
100
AcDbArc
 50
53.40982499999999
 51
126.5901749999999
  0
CIRCLE
  5
58
100
AcDbEntity
  8
A4
  6
CONTINUOUS
 62
7
100
AcDbCircle
 10
50.00000000013029
 20
50.00000000000017
 30
0.0000000000000000
 40
5.000000000000000
  0
CIRCLE
  5
59
100
AcDbEntity
  8
A4
  6
CONTINUOUS
 62
7
100
AcDbCircle
 10
50.00000000000000
 20
375.0000000000295
 30
0.0000000000000000
 40
5.000000000000000
  0
ARC
  5
5A
100
AcDbEntity
  8
A4
  6
CONTINUOUS
 62
7
100
AcDbCircle
 10
43.49999999987449
 20
67.00000000000040
 30
0.0000000000000000
 40
0.5000000000000000
100
AcDbArc
 50
0.0000000000000000
 51
90.00000000000000
  0
ARC
  5
5B
100
AcDbEntity
  8
A4
  6
CONTINUOUS
 62
7
100
AcDbCircle
 10
56.50000000012528
 20
67.00000000000040
 30
0.0000000000000000
 40
0.5000000000000000
100
AcDbArc
 50
90.00000000000000
 51
180.0000000000000
  0
ARC
  5
5C
100
AcDbEntity
  8
A4
  6
CONTINUOUS
 62
7
100
AcDbCircle
 10
50.00000000013029
 20
50.00000000000017
 30
0.0000000000000000
 40
11.00000000000001
100
AcDbArc
 50
180.0000050000000
 51
359.9999950000000
  0
ARC
  5
5D
100
AcDbEntity
  8
A4
  6
CONTINUOUS
 62
7
100
AcDbCircle
 10
50.00000000000000
 20
375.0000000000295
 30
0.0000000000000000
 40
11.00000000000000
100
AcDbArc
 50
359.9999950000002
 51
540.0000049999999
  0
ARC
  5
5E
100
AcDbEntity
  8
A4
  6
CONTINUOUS
 62
7
100
AcDbCircle
 10
36.30000005235979
 20
195.0000000000295
 30
0.0000000000000000
 40
1.000000000000000
100
AcDbArc
 50
269.9999970000007
 51
450.0000029999993
  0
ARC
  5
5F
100
AcDbEntity
  8
A4
  6
CONTINUOUS
 62
7
100
AcDbCircle
 10
63.69999994763998
 20
195.0000000000295
 30
0.0000000000000000
 40
1.000000000000000
100
AcDbArc
 50
89.99999700000073
 51
270.0000029999993
  0
ARC
  5
60
100
AcDbEntity
  8
A4
  6
CONTINUOUS
 62
7
100
AcDbCircle
 10
36.30000005235979
 20
182.0000000000295
 30
0.0000000000000000
 40
1.000000000000000
100
AcDbArc
 50
269.9999969999990
 51
450.0000030000010
  0
ARC
  5
61
100
AcDbEntity
  8
A4
  6
CONTINUOUS
 62
7
100
AcDbCircle
 10
63.69999994763998
 20
182.0000000000295
 30
0.0000000000000000
 40
1.000000000000000
100
AcDbArc
 50
89.99999699999900
 51
270.0000030000010
  0
LINE
  5
62
100
AcDbEntity
  8
A4
  6
CONTINUOUS
 62
7
100
AcDbLine
 10
43.99999999987450
 20
67.00000000000048
 30
0.0000000000000000
 11
43.99999999987450
 21
66.00000000000048
 31
0.0000000000000000
  0
LINE
  5
63
100
AcDbEntity
  8
A4
  6
CONTINUOUS
 62
7
100
AcDbLine
 10
56.00000000012529
 20
66.00000000000048
 30
0.0000000000000000
 11
56.00000000012529
 21
67.00000000000048
 31
0.0000000000000000
  0
LINE
  5
64
100
AcDbEntity
  8
A4
  6
CONTINUOUS
 62
7
100
AcDbLine
 10
41.99999999998251
 20
175.0000000000296
 30
0.0000000000000000
 11
41.99999999998250
 21
67.50000000000048
 31
0.0000000000000000
  0
LINE
  5
65
100
AcDbEntity
  8
A4
  6
CONTINUOUS
 62
7
100
AcDbLine
 10
58.00000000001751
 20
67.50000000000048
 30
0.0000000000000000
 11
58.00000000001752
 21
175.0000000000296
 31
0.0000000000000000
  0
LINE
  5
66
100
AcDbEntity
  8
A4
  6
CONTINUOUS
 62
7
100
AcDbLine
 10
58.00000000012529
 20
67.50000000000048
 30
0.0000000000000000
 11
41.99999999987450
 21
67.50000000000048
 31
0.0000000000000000
  0
LINE
  5
67
100
AcDbEntity
  8
A4
  6
CONTINUOUS
 62
7
100
AcDbLine
 10
39.00000000013051
 20
50.00000000000017
 30
0.0000000000000000
 11
39.00000000013051
 21
66.00000000000024
 31
0.0000000000000000
  0
LINE
  5
68
100
AcDbEntity
  8
A4
  6
CONTINUOUS
 62
7
100
AcDbLine
 10
61.00000000013051
 20
66.00000000000024
 30
0.0000000000000000
 11
61.00000000013051
 21
50.00000000000017
 31
0.0000000000000000
  0
LINE
  5
69
100
AcDbEntity
  8
A4
  6
CONTINUOUS
 62
7
100
AcDbLine
 10
39.00000000013098
 20
66.00000000000102
 30
0.0000000000000000
 11
61.00000000013053
 21
66.00000000000033
 31
0.0000000000000000
  0
LINE
  5
6A
100
AcDbEntity
  8
A4
  6
CONTINUOUS
 62
7
100
AcDbLine
 10
39.00000000000000
 20
359.0000000000294
 30
0.0000000000000000
 11
39.00000000000000
 21
375.0000000000295
 31
0.0000000000000000
  0
LINE
  5
6B
100
AcDbEntity
  8
A4
  6
CONTINUOUS
 62
7
100
AcDbLine
 10
61.00000000000000
 20
359.0000000000294
 30
0.0000000000000000
 11
39.00000000000000
 21
359.0000000000294
 31
0.0000000000000000
  0
LINE
  5
6C
100
AcDbEntity
  8
A4
  6
CONTINUOUS
 62
7
100
AcDbLine
 10
61.00000000000000
 20
375.0000000000295
 30
0.0000000000000000
 11
61.00000000000000
 21
359.0000000000294
 31
0.0000000000000000
  0
LINE
  5
6D
100
AcDbEntity
  8
A4
  6
CONTINUOUS
 62
7
100
AcDbLine
 10
37.25000000000001
 20
177.0000000000296
 30
0.0000000000000000
 11
37.25000000000001
 21
175.0000000000296
 31
0.0000000000000000
  0
LINE
  5
6E
100
AcDbEntity
  8
A4
  6
CONTINUOUS
 62
7
100
AcDbLine
 10
62.75000000000001
 20
175.0000000000296
 30
0.0000000000000000
 11
62.75000000000001
 21
177.0000000000296
 31
0.0000000000000000
  0
LINE
  5
6F
100
AcDbEntity
  8
A4
  6
CONTINUOUS
 62
7
100
AcDbLine
 10
62.75000000000001
 20
175.0000000000296
 30
0.0000000000000000
 11
37.25000000000001
 21
175.0000000000296
 31
0.0000000000000000
  0
LINE
  5
70
100
AcDbEntity
  8
A4
  6
CONTINUOUS
 62
7
100
AcDbLine
 10
36.29999999999997
 20
181.0000000000296
 30
0.0000000000000000
 11
36.29999999999997
 21
177.0000000000296
 31
0.0000000000000000
  0
LINE
  5
71
100
AcDbEntity
  8
A4
  6
CONTINUOUS
 62
7
100
AcDbLine
 10
63.70000000000006
 20
177.0000000000296
 30
0.0000000000000000
 11
63.70000000000006
 21
181.0000000000296
 31
0.0000000000000000
  0
LINE
  5
72
100
AcDbEntity
  8
A4
  6
CONTINUOUS
 62
7
100
AcDbLine
 10
63.70000000000006
 20
177.0000000000296
 30
0.0000000000000000
 11
36.29999999999997
 21
177.0000000000296
 31
0.0000000000000000
  0
LINE
  5
73
100
AcDbEntity
  8
A4
  6
CONTINUOUS
 62
7
100
AcDbLine
 10
63.70000000000006
 20
181.0000000000296
 30
0.0000000000000000
 11
36.29999999999997
 21
181.0000000000296
 31
0.0000000000000000
  0
LINE
  5
74
100
AcDbEntity
  8
A4
  6
CONTINUOUS
 62
7
100
AcDbLine
 10
36.29999999999997
 20
194.0000000000296
 30
0.0000000000000000
 11
36.29999999999997
 21
183.0000000000296
 31
0.0000000000000000
  0
LINE
  5
75
100
AcDbEntity
  8
A4
  6
CONTINUOUS
 62
7
100
AcDbLine
 10
63.70000000000006
 20
183.0000000000296
 30
0.0000000000000000
 11
63.70000000000006
 21
194.0000000000296
 31
0.0000000000000000
  0
LINE
  5
76
100
AcDbEntity
  8
A4
  6
CONTINUOUS
 62
7
100
AcDbLine
 10
63.70000000000006
 20
183.0000000000296
 30
0.0000000000000000
 11
36.29999999999997
 21
183.0000000000296
 31
0.0000000000000000
  0
LINE
  5
77
100
AcDbEntity
  8
A4
  6
CONTINUOUS
 62
7
100
AcDbLine
 10
63.70000000000006
 20
194.0000000000296
 30
0.0000000000000000
 11
36.29999999999997
 21
194.0000000000296
 31
0.0000000000000000
  0
LINE
  5
78
100
AcDbEntity
  8
A4
  6
CONTINUOUS
 62
7
100
AcDbLine
 10
36.29999999999998
 20
352.0000000000294
 30
0.0000000000000000
 11
36.29999999999997
 21
196.0000000000296
 31
0.0000000000000000
  0
LINE
  5
79
100
AcDbEntity
  8
A4
  6
CONTINUOUS
 62
7
100
AcDbLine
 10
63.70000000000006
 20
196.0000000000296
 30
0.0000000000000000
 11
63.70000000000007
 21
352.0000000000294
 31
0.0000000000000000
  0
LINE
  5
7A
100
AcDbEntity
  8
A4
  6
CONTINUOUS
 62
7
100
AcDbLine
 10
63.70000000000006
 20
196.0000000000296
 30
0.0000000000000000
 11
36.29999999999997
 21
196.0000000000296
 31
0.0000000000000000
  0
LINE
  5
7B
100
AcDbEntity
  8
A4
  6
CONTINUOUS
 62
7
100
AcDbLine
 10
44.00000000000017
 20
359.0000000000294
 30
0.0000000000000000
 11
35.90000000000020
 21
354.0000000000297
 31
0.0000000000000000
  0
LINE
  5
7C
100
AcDbEntity
  8
A4
  6
CONTINUOUS
 62
7
100
AcDbLine
 10
64.09999999999987
 20
354.0000000000299
 30
0.0000000000000000
 11
55.99999999999990
 21
359.0000000000296
 31
0.0000000000000000
  0
LINE
  5
7D
100
AcDbEntity
  8
A4
  6
CONTINUOUS
 62
7
100
AcDbLine
 10
35.90000000000011
 20
354.0000000000297
 30
0.0000000000000000
 11
35.90000000000011
 21
352.0000000000294
 31
0.0000000000000000
  0
LINE
  5
7E
100
AcDbEntity
  8
A4
  6
CONTINUOUS
 62
7
100
AcDbLine
 10
64.09999999999994
 20
352.0000000000294
 30
0.0000000000000000
 11
64.09999999999994
 21
354.0000000000297
 31
0.0000000000000000
  0
LINE
  5
7F
100
AcDbEntity
  8
A4
  6
CONTINUOUS
 62
7
100
AcDbLine
 10
64.09999999999994
 20
352.0000000000294
 30
0.0000000000000000
 11
35.90000000000011
 21
352.0000000000294
 31
0.0000000000000000
  0
LINE
  5
80
100
AcDbEntity
  8
A4
  6
CONTINUOUS
 62
7
100
AcDbLine
 10
64.09999999999994
 20
354.0000000000297
 30
0.0000000000000000
 11
35.90000000000011
 21
354.0000000000297
 31
0.0000000000000000
  0
CIRCLE
  5
81
100
AcDbEntity
  8
A5
  6
CONTINUOUS
 62
7
100
AcDbCircle
 10
149.9999999999998
 20
475.0000000000293
 30
0.0000000000000000
 40
14.10000000000000
  0
LINE
  5
82
100
AcDbEntity
  8
A5
  6
CONTINUOUS
 62
7
100
AcDbLine
 10
158.6999969999999
 20
464.0000000000294
 30
0.0000000000000000
 11
141.3000030000001
 21
464.0000000000294
 31
0.0000000000000000
  0
LINE
  5
83
100
AcDbEntity
  8
A5
  6
CONTINUOUS
 62
7
100
AcDbLine
 10
158.6999969999999
 20
486.0000000000294
 30
0.0000000000000000
 11
141.3000029999998
 21
486.0000000000294
 31
0.0000000000000000
  0
LINE
  5
84
100
AcDbEntity
  8
A5
  6
CONTINUOUS
 62
7
100
AcDbLine
 10
144.5000000000001
 20
464.0000000000294
 30
0.0000000000000000
 11
144.5000000000001
 21
486.0000000000294
 31
0.0000000000000000
  0
LINE
  5
85
100
AcDbEntity
  8
A5
  6
CONTINUOUS
 62
7
100
AcDbLine
 10
141.3000029999999
 20
486.0000000000294
 30
0.0000000000000000
 11
141.3000029999999
 21
464.0000000000294
 31
0.0000000000000000
  0
LINE
  5
86
100
AcDbEntity
  8
A5
  6
CONTINUOUS
 62
7
100
AcDbLine
 10
155.5000000000001
 20
486.0000000000294
 30
0.0000000000000000
 11
155.5000000000001
 21
464.0000000000294
 31
0.0000000000000000
  0
LINE
  5
87
100
AcDbEntity
  8
A5
  6
CONTINUOUS
 62
7
100
AcDbLine
 10
158.6999970000000
 20
486.0000000000294
 30
0.0000000000000000
 11
158.6999970000000
 21
464.0000000000294
 31
0.0000000000000000
  0
CIRCLE
  5
88
100
AcDbEntity
  8
A7
  6
CONTINUOUS
 62
7
100
AcDbCircle
 10
150.0000000000002
 20
-49.99999999999983
 30
0.0000000000000000
 40
14.10000000000000
  0
ARC
  5
89
100
AcDbEntity
  8
A7
  6
CONTINUOUS
 62
7
100
AcDbCircle
 10
150.0000000000002
 20
-49.99999999999983
 30
0.0000000000000000
 40
13.70000000000002
100
AcDbArc
 50
233.4098254648084
 51
270.0000000000000
  0
ARC
  5
8A
100
AcDbEntity
  8
A7
  6
CONTINUOUS
 62
7
100
AcDbCircle
 10
150.0000000000002
 20
-49.99999999999983
 30
0.0000000000000000
 40
13.70000000000002
100
AcDbArc
 50
129.4226751438073
 51
230.5773248561927
  0
ARC
  5
8B
100
AcDbEntity
  8
A7
  6
CONTINUOUS
 62
7
100
AcDbCircle
 10
150.0000000000002
 20
-49.99999999999983
 30
0.0000000000000000
 40
13.70000000000002
100
AcDbArc
 50
53.40982546480813
 51
126.5901745351919
  0
ARC
  5
8C
100
AcDbEntity
  8
A7
  6
CONTINUOUS
 62
7
100
AcDbCircle
 10
150.0000000000002
 20
-49.99999999999983
 30
0.0000000000000000
 40
13.70000000000002
100
AcDbArc
 50
309.4226751438074
 51
410.5773248561927
  0
ARC
  5
8D
100
AcDbEntity
  8
A7
  6
CONTINUOUS
 62
7
100
AcDbCircle
 10
150.0000000000002
 20
-49.99999999999983
 30
0.0000000000000000
 40
13.70000000000002
100
AcDbArc
 50
270.0000000000000
 51
306.5901745351916
  0
ARC
  5
8E
100
AcDbEntity
  8
A7
  6
CONTINUOUS
 62
7
100
AcDbCircle
 10
150.0000000000002
 20
-49.99999999999983
 30
0.0000000000000000
 40
12.75000000000001
100
AcDbArc
 50
239.6262138001623
 51
270.0000000000000
  0
ARC
  5
8F
100
AcDbEntity
  8
A7
  6
CONTINUOUS
 62
7
100
AcDbCircle
 10
150.0000000000002
 20
-49.99999999999983
 30
0.0000000000000000
 40
12.75000000000001
100
AcDbArc
 50
133.0277664681655
 51
226.9722335318345
  0
ARC
  5
90
100
AcDbEntity
  8
A7
  6
CONTINUOUS
 62
7
100
AcDbCircle
 10
150.0000000000002
 20
-49.99999999999983
 30
0.0000000000000000
 40
12.75000000000001
100
AcDbArc
 50
59.62621380016188
 51
120.3737861998382
  0
ARC
  5
91
100
AcDbEntity
  8
A7
  6
CONTINUOUS
 62
7
100
AcDbCircle
 10
150.0000000000002
 20
-49.99999999999983
 30
0.0000000000000000
 40
12.75000000000001
100
AcDbArc
 50
313.0277664681655
 51
406.9722335318345
  0
ARC
  5
92
100
AcDbEntity
  8
A7
  6
CONTINUOUS
 62
7
100
AcDbCircle
 10
150.0000000000002
 20
-49.99999999999983
 30
0.0000000000000000
 40
12.75000000000001
100
AcDbArc
 50
270.0000000000000
 51
300.3737861998377
  0
LINE
  5
93
100
AcDbEntity
  8
A7
  6
CONTINUOUS
 62
7
100
AcDbLine
 10
141.3000030001306
 20
-60.99999999986940
 30
0.0000000000000000
 11
158.6999970001305
 21
-60.99999999986941
 31
0.0000000000000000
  0
LINE
  5
94
100
AcDbEntity
  8
A7
  6
CONTINUOUS
 62
7
100
AcDbLine
 10
141.3000030001306
 20
-38.99999999986941
 30
0.0000000000000000
 11
158.6999970001305
 21
-38.99999999986941
 31
0.0000000000000000
  0
LINE
  5
95
100
AcDbEntity
  8
A7
  6
CONTINUOUS
 62
7
100
AcDbLine
 10
155.5000000001305
 20
-60.99999999986941
 30
0.0000000000000000
 11
155.5000000001305
 21
-38.99999999986941
 31
0.0000000000000000
  0
LINE
  5
96
100
AcDbEntity
  8
A7
  6
CONTINUOUS
 62
7
100
AcDbLine
 10
158.6999970001305
 20
-60.99999999986941
 30
0.0000000000000000
 11
158.6999970001305
 21
-38.99999999986941
 31
0.0000000000000000
  0
LINE
  5
97
100
AcDbEntity
  8
A7
  6
CONTINUOUS
 62
7
100
AcDbLine
 10
144.5000000001305
 20
-38.99999999986940
 30
0.0000000000000000
 11
144.5000000001305
 21
-60.99999999986940
 31
0.0000000000000000
  0
LINE
  5
98
100
AcDbEntity
  8
A7
  6
CONTINUOUS
 62
7
100
AcDbLine
 10
141.3000030001306
 20
-60.99999999986928
 30
0.0000000000000000
 11
141.3000030001305
 21
-38.99999999986928
 31
0.0000000000000000
  0
ARC
  5
99
100
AcDbEntity
  8
A8
  6
CONTINUOUS
 62
7
100
AcDbCircle
 10
155.4999969999999
 20
362.1606956709904
 30
0.0000000000000000
 40
3.200000000000000
100
AcDbArc
 50
278.9893514721273
 51
360.0000007049361
  0
ARC
  5
9A
100
AcDbEntity
  8
A8
  6
CONTINUOUS
 62
7
100
AcDbCircle
 10
144.5000029999999
 20
362.1606956709904
 30
0.0000000000000000
 40
3.200000000000000
100
AcDbArc
 50
179.9999992950639
 51
261.0106485278728
  0
ARC
  5
9B
100
AcDbEntity
  8
A8
  6
CONTINUOUS
 62
7
100
AcDbCircle
 10
155.4999970001304
 20
62.83930432903838
 30
0.0000000000000000
 40
3.200000000000000
100
AcDbArc
 50
359.9999992950636
 51
441.0106462721787
  0
ARC
  5
9C
100
AcDbEntity
  8
A8
  6
CONTINUOUS
 62
7
100
AcDbCircle
 10
144.5000030001304
 20
62.83930432907977
 30
0.0000000000000000
 40
3.200000000000000
100
AcDbArc
 50
98.98935373255300
 51
180.0000007049364
  0
ARC
  5
9D
100
AcDbEntity
  8
A8
  6
CONTINUOUS
 62
7
100
AcDbCircle
 10
143.4999999998745
 20
67.00000000000040
 30
0.0000000000000000
 40
0.5000000000000000
100
AcDbArc
 50
0.0000000000000000
 51
90.00000000000000
  0
ARC
  5
9E
100
AcDbEntity
  8
A8
  6
CONTINUOUS
 62
7
100
AcDbCircle
 10
156.5000000001253
 20
67.00000000000040
 30
0.0000000000000000
 40
0.5000000000000000
100
AcDbArc
 50
90.00000000000000
 51
180.0000000000000
  0
ARC
  5
9F
100
AcDbEntity
  8
A8
  6
CONTINUOUS
 62
7
100
AcDbCircle
 10
136.3000000523598
 20
195.0000000000295
 30
0.0000000000000000
 40
1.000000000000000
100
AcDbArc
 50
269.9999970000007
 51
450.0000029999993
  0
ARC
  5
A0
100
AcDbEntity
  8
A8
  6
CONTINUOUS
 62
7
100
AcDbCircle
 10
163.6999999476400
 20
195.0000000000295
 30
0.0000000000000000
 40
1.000000000000000
100
AcDbArc
 50
89.99999700000073
 51
270.0000029999993
  0
ARC
  5
A1
100
AcDbEntity
  8
A8
  6
CONTINUOUS
 62
7
100
AcDbCircle
 10
136.3000000523598
 20
182.0000000000295
 30
0.0000000000000000
 40
1.000000000000000
100
AcDbArc
 50
269.9999969999990
 51
450.0000030000010
  0
ARC
  5
A2
100
AcDbEntity
  8
A8
  6
CONTINUOUS
 62
7
100
AcDbCircle
 10
163.6999999476400
 20
182.0000000000295
 30
0.0000000000000000
 40
1.000000000000000
100
AcDbArc
 50
89.99999699999900
 51
270.0000030000010
  0
LINE
  5
A3
100
AcDbEntity
  8
A8
  6
CONTINUOUS
 62
7
100
AcDbLine
 10
143.9999999998745
 20
67.00000000000047
 30
0.0000000000000000
 11
143.9999999998745
 21
66.00000000000047
 31
0.0000000000000000
  0
LINE
  5
A4
100
AcDbEntity
  8
A8
  6
CONTINUOUS
 62
7
100
AcDbLine
 10
156.0000000001253
 20
66.00000000000047
 30
0.0000000000000000
 11
156.0000000001253
 21
67.00000000000047
 31
0.0000000000000000
  0
LINE
  5
A5
100
AcDbEntity
  8
A8
  6
CONTINUOUS
 62
7
100
AcDbLine
 10
141.9999999999823
 20
175.0000000000296
 30
0.0000000000000000
 11
141.9999999999823
 21
67.50000000000047
 31
0.0000000000000000
  0
LINE
  5
A6
100
AcDbEntity
  8
A8
  6
CONTINUOUS
 62
7
100
AcDbLine
 10
158.0000000000175
 20
67.50000000000047
 30
0.0000000000000000
 11
158.0000000000175
 21
175.0000000000296
 31
0.0000000000000000
  0
LINE
  5
A7
100
AcDbEntity
  8
A8
  6
CONTINUOUS
 62
7
100
AcDbLine
 10
158.0000000001253
 20
67.50000000000047
 30
0.0000000000000000
 11
141.9999999998745
 21
67.50000000000047
 31
0.0000000000000000
  0
LINE
  5
A8
100
AcDbEntity
  8
A8
  6
CONTINUOUS
 62
7
100
AcDbLine
 10
144.5000000000000
 20
386.0000000000294
 30
0.0000000000000000
 11
141.3000029999999
 21
386.0000000000294
 31
0.0000000000000000
  0
LINE
  5
A9
100
AcDbEntity
  8
A8
  6
CONTINUOUS
 62
7
100
AcDbLine
 10
158.6999970000000
 20
386.0000000000294
 30
0.0000000000000000
 11
155.4999999999998
 21
386.0000000000294
 31
0.0000000000000000
  0
LINE
  5
AA
100
AcDbEntity
  8
A8
  6
CONTINUOUS
 62
7
100
AcDbLine
 10
155.9999998755604
 20
359.0000000000294
 30
0.0000000000000000
 11
144.0000001244393
 21
359.0000000000294
 31
0.0000000000000000
  0
LINE
  5
AB
100
AcDbEntity
  8
A8
  6
CONTINUOUS
 62
7
100
AcDbLine
 10
158.6999969999997
 20
386.0000000000295
 30
0.0000000000000000
 11
158.6999969999997
 21
362.2000000000295
 31
0.0000000000000000
  0
LINE
  5
AC
100
AcDbEntity
  8
A8
  6
CONTINUOUS
 62
7
100
AcDbLine
 10
155.4999999999998
 20
362.2000120000295
 30
0.0000000000000000
 11
155.4999999999998
 21
386.0000000000295
 31
0.0000000000000000
  0
LINE
  5
AD
100
AcDbEntity
  8
A8
  6
CONTINUOUS
 62
7
100
AcDbLine
 10
144.5000000000000
 20
362.2000120000295
 30
0.0000000000000000
 11
155.5000000000000
 21
362.2000120000295
 31
0.0000000000000000
  0
LINE
  5
AE
100
AcDbEntity
  8
A8
  6
CONTINUOUS
 62
7
100
AcDbLine
 10
144.5000000000000
 20
386.0000000000294
 30
0.0000000000000000
 11
144.5000000000000
 21
362.2000120000294
 31
0.0000000000000000
  0
LINE
  5
AF
100
AcDbEntity
  8
A8
  6
CONTINUOUS
 62
7
100
AcDbLine
 10
141.3000029999998
 20
362.2000000000295
 30
0.0000000000000000
 11
141.3000029999998
 21
386.0000000000295
 31
0.0000000000000000
  0
LINE
  5
B0
100
AcDbEntity
  8
A8
  6
CONTINUOUS
 62
7
100
AcDbLine
 10
155.5000000001305
 20
39.00000000000025
 30
0.0000000000000000
 11
158.6999970001305
 21
39.00000000000025
 31
0.0000000000000000
  0
LINE
  5
B1
100
AcDbEntity
  8
A8
  6
CONTINUOUS
 62
7
100
AcDbLine
 10
141.3000030001306
 20
39.00000000000025
 30
0.0000000000000000
 11
144.5000000001305
 21
39.00000000000025
 31
0.0000000000000000
  0
LINE
  5
B2
100
AcDbEntity
  8
A8
  6
CONTINUOUS
 62
7
100
AcDbLine
 10
156.0000000001253
 20
66.00000000000024
 30
0.0000000000000000
 11
143.9999999998745
 21
66.00000000000024
 31
0.0000000000000000
  0
LINE
  5
B3
100
AcDbEntity
  8
A8
  6
CONTINUOUS
 62
7
100
AcDbLine
 10
141.3000030001301
 20
62.80000000000027
 30
0.0000000000000000
 11
141.3000030001301
 21
39.00000000000026
 31
0.0000000000000000
  0
LINE
  5
B4
100
AcDbEntity
  8
A8
  6
CONTINUOUS
 62
7
100
AcDbLine
 10
144.5000000001305
 20
39.00000000000024
 30
0.0000000000000000
 11
144.5000000001305
 21
62.80000300000030
 31
0.0000000000000000
  0
LINE
  5
B5
100
AcDbEntity
  8
A8
  6
CONTINUOUS
 62
7
100
AcDbLine
 10
144.5000000001305
 20
62.80000300000031
 30
0.0000000000000000
 11
155.5000000001305
 21
62.80000300000031
 31
0.0000000000000000
  0
LINE
  5
B6
100
AcDbEntity
  8
A8
  6
CONTINUOUS
 62
7
100
AcDbLine
 10
155.5000000001305
 20
62.80000300000026
 30
0.0000000000000000
 11
155.5000000001305
 21
39.00000000000023
 31
0.0000000000000000
  0
LINE
  5
B7
100
AcDbEntity
  8
A8
  6
CONTINUOUS
 62
7
100
AcDbLine
 10
158.6999970001305
 20
39.00000000000026
 30
0.0000000000000000
 11
158.6999970001305
 21
62.80000000000015
 31
0.0000000000000000
  0
LINE
  5
B8
100
AcDbEntity
  8
A8
  6
CONTINUOUS
 62
7
100
AcDbLine
 10
137.2500000000000
 20
177.0000000000296
 30
0.0000000000000000
 11
137.2500000000000
 21
175.0000000000296
 31
0.0000000000000000
  0
LINE
  5
B9
100
AcDbEntity
  8
A8
  6
CONTINUOUS
 62
7
100
AcDbLine
 10
162.7500000000000
 20
175.0000000000296
 30
0.0000000000000000
 11
162.7500000000000
 21
177.0000000000296
 31
0.0000000000000000
  0
LINE
  5
BA
100
AcDbEntity
  8
A8
  6
CONTINUOUS
 62
7
100
AcDbLine
 10
162.7500000000000
 20
175.0000000000296
 30
0.0000000000000000
 11
137.2500000000000
 21
175.0000000000296
 31
0.0000000000000000
  0
LINE
  5
BB
100
AcDbEntity
  8
A8
  6
CONTINUOUS
 62
7
100
AcDbLine
 10
136.3000000000000
 20
181.0000000000296
 30
0.0000000000000000
 11
136.3000000000000
 21
177.0000000000296
 31
0.0000000000000000
  0
LINE
  5
BC
100
AcDbEntity
  8
A8
  6
CONTINUOUS
 62
7
100
AcDbLine
 10
163.7000000000000
 20
177.0000000000296
 30
0.0000000000000000
 11
163.7000000000000
 21
181.0000000000296
 31
0.0000000000000000
  0
LINE
  5
BD
100
AcDbEntity
  8
A8
  6
CONTINUOUS
 62
7
100
AcDbLine
 10
163.7000000000000
 20
177.0000000000296
 30
0.0000000000000000
 11
136.3000000000000
 21
177.0000000000296
 31
0.0000000000000000
  0
LINE
  5
BE
100
AcDbEntity
  8
A8
  6
CONTINUOUS
 62
7
100
AcDbLine
 10
163.7000000000000
 20
181.0000000000296
 30
0.0000000000000000
 11
136.3000000000000
 21
181.0000000000296
 31
0.0000000000000000
  0
LINE
  5
BF
100
AcDbEntity
  8
A8
  6
CONTINUOUS
 62
7
100
AcDbLine
 10
136.3000000000000
 20
194.0000000000296
 30
0.0000000000000000
 11
136.3000000000000
 21
183.0000000000296
 31
0.0000000000000000
  0
LINE
  5
C0
100
AcDbEntity
  8
A8
  6
CONTINUOUS
 62
7
100
AcDbLine
 10
163.7000000000000
 20
183.0000000000296
 30
0.0000000000000000
 11
163.7000000000000
 21
194.0000000000296
 31
0.0000000000000000
  0
LINE
  5
C1
100
AcDbEntity
  8
A8
  6
CONTINUOUS
 62
7
100
AcDbLine
 10
163.7000000000000
 20
183.0000000000296
 30
0.0000000000000000
 11
136.3000000000000
 21
183.0000000000296
 31
0.0000000000000000
  0
LINE
  5
C2
100
AcDbEntity
  8
A8
  6
CONTINUOUS
 62
7
100
AcDbLine
 10
163.7000000000000
 20
194.0000000000296
 30
0.0000000000000000
 11
136.3000000000000
 21
194.0000000000296
 31
0.0000000000000000
  0
LINE
  5
C3
100
AcDbEntity
  8
A8
  6
CONTINUOUS
 62
7
100
AcDbLine
 10
136.3000000000000
 20
352.0000000000294
 30
0.0000000000000000
 11
136.3000000000000
 21
196.0000000000296
 31
0.0000000000000000
  0
LINE
  5
C4
100
AcDbEntity
  8
A8
  6
CONTINUOUS
 62
7
100
AcDbLine
 10
163.7000000000000
 20
196.0000000000296
 30
0.0000000000000000
 11
163.7000000000001
 21
352.0000000000294
 31
0.0000000000000000
  0
LINE
  5
C5
100
AcDbEntity
  8
A8
  6
CONTINUOUS
 62
7
100
AcDbLine
 10
163.7000000000000
 20
196.0000000000296
 30
0.0000000000000000
 11
136.3000000000000
 21
196.0000000000296
 31
0.0000000000000000
  0
LINE
  5
C6
100
AcDbEntity
  8
A8
  6
CONTINUOUS
 62
7
100
AcDbLine
 10
144.0000000000001
 20
359.0000000000294
 30
0.0000000000000000
 11
135.8999999999999
 21
354.0000000000297
 31
0.0000000000000000
  0
LINE
  5
C7
100
AcDbEntity
  8
A8
  6
CONTINUOUS
 62
7
100
AcDbLine
 10
164.0999999999997
 20
354.0000000000294
 30
0.0000000000000000
 11
155.9999999999996
 21
359.0000000000292
 31
0.0000000000000000
  0
LINE
  5
C8
100
AcDbEntity
  8
A8
  6
CONTINUOUS
 62
7
100
AcDbLine
 10
135.8999999999999
 20
354.0000000000297
 30
0.0000000000000000
 11
135.8999999999999
 21
352.0000000000294
 31
0.0000000000000000
  0
LINE
  5
C9
100
AcDbEntity
  8
A8
  6
CONTINUOUS
 62
7
100
AcDbLine
 10
164.0999999999999
 20
352.0000000000294
 30
0.0000000000000000
 11
164.0999999999999
 21
354.0000000000297
 31
0.0000000000000000
  0
LINE
  5
CA
100
AcDbEntity
  8
A8
  6
CONTINUOUS
 62
7
100
AcDbLine
 10
164.0999999999999
 20
352.0000000000294
 30
0.0000000000000000
 11
135.8999999999999
 21
352.0000000000294
 31
0.0000000000000000
  0
LINE
  5
CB
100
AcDbEntity
  8
A8
  6
CONTINUOUS
 62
7
100
AcDbLine
 10
164.0999999999999
 20
354.0000000000297
 30
0.0000000000000000
 11
135.8999999999999
 21
354.0000000000297
 31
0.0000000000000000
  0
LINE
  5
CC
100
AcDbEntity
  8
A10
  6
CENTER
 62
4
100
AcDbLine
 10
150.0000000000000
 20
391.0000000000294
 30
0.0000000000000000
 11
150.0000000000000
 21
34.00000000000023
 31
0.0000000000000000
  0
LINE
  5
CD
100
AcDbEntity
  8
A5
  6
CENTER
 62
4
100
AcDbLine
 10
150.0000000000000
 20
494.1000000000293
 30
0.0000000000000000
 11
150.0000000000000
 21
455.9000000000294
 31
0.0000000000000000
  0
LINE
  5
CE
100
AcDbEntity
  8
A5
  6
CENTER
 62
4
100
AcDbLine
 10
130.8999999999999
 20
475.0000000000294
 30
0.0000000000000000
 11
169.1000000000002
 21
475.0000000000294
 31
0.0000000000000000
  0
LINE
  5
CF
100
AcDbEntity
  8
A4
  6
CENTER
 62
4
100
AcDbLine
 10
66.00000000000000
 20
375.0000000000295
 30
0.0000000000000000
 11
34.00000000000000
 21
375.0000000000295
 31
0.0000000000000000
  0
LINE
  5
D0
100
AcDbEntity
  8
A4
  6
CENTER
 62
4
100
AcDbLine
 10
50.00000000000000
 20
391.0000000000294
 30
0.0000000000000000
 11
50.00000000000000
 21
34.00000000000023
 31
0.0000000000000000
  0
LINE
  5
D1
100
AcDbEntity
  8
A10
  6
CENTER
 62
4
100
AcDbLine
 10
136.3000029999998
 20
375.0000000000295
 30
0.0000000000000000
 11
163.6999969999997
 21
375.0000000000295
 31
0.0000000000000000
  0
LINE
  5
D2
100
AcDbEntity
  8
A4
  6
CENTER
 62
4
100
AcDbLine
 10
66.00000000013029
 20
50.00000000000017
 30
0.0000000000000000
 11
34.00000000013029
 21
50.00000000000017
 31
0.0000000000000000
  0
LINE
  5
D3
100
AcDbEntity
  8
A10
  6
CENTER
 62
4
100
AcDbLine
 10
136.3000030001301
 20
50.00000000000017
 30
0.0000000000000000
 11
163.6999970001305
 21
50.00000000000017
 31
0.0000000000000000
  0
LINE
  5
D4
100
AcDbEntity
  8
A7
  6
CENTER
 62
4
100
AcDbLine
 10
150.0000000000002
 20
-34.39999999999985
 30
0.0000000000000000
 11
150.0000000000002
 21
-65.59999999999967
 31
0.0000000000000000
  0
LINE
  5
D5
100
AcDbEntity
  8
A7
  6
CENTER
 62
4
100
AcDbLine
 10
134.4000000000003
 20
-49.99999999999976
 30
0.0000000000000000
 11
165.6000000000001
 21
-49.99999999999976
 31
0.0000000000000000
  0
CIRCLE
  5
D6
100
AcDbEntity
  8
A4
  6
CONTINUOUS
 62
7
100
AcDbCircle
 10
249.9999999998697
 20
50.00000000000017
 30
0.0000000000000000
 40
5.000000000000000
  0
CIRCLE
  5
D7
100
AcDbEntity
  8
A4
  6
CONTINUOUS
 62
7
100
AcDbCircle
 10
250.0000000000000
 20
375.0000000000295
 30
0.0000000000000000
 40
5.000000000000000
  0
ARC
  5
D8
100
AcDbEntity
  8
A4
  6
CONTINUOUS
 62
7
100
AcDbCircle
 10
256.5000000001255
 20
67.00000000000040
 30
0.0000000000000000
 40
0.5000000000000000
100
AcDbArc
 50
90.00000000000000
 51
180.0000000000000
  0
ARC
  5
D9
100
AcDbEntity
  8
A4
  6
CONTINUOUS
 62
7
100
AcDbCircle
 10
243.4999999998747
 20
67.00000000000040
 30
0.0000000000000000
 40
0.5000000000000000
100
AcDbArc
 50
0.0000000000000000
 51
90.00000000000000
  0
ARC
  5
DA
100
AcDbEntity
  8
A4
  6
CONTINUOUS
 62
7
100
AcDbCircle
 10
249.9999999998697
 20
50.00000000000017
 30
0.0000000000000000
 40
11.00000000000001
100
AcDbArc
 50
180.0000050000000
 51
359.9999950000000
  0
ARC
  5
DB
100
AcDbEntity
  8
A4
  6
CONTINUOUS
 62
7
100
AcDbCircle
 10
250.0000000000000
 20
375.0000000000295
 30
0.0000000000000000
 40
11.00000000000000
100
AcDbArc
 50
359.9999950000001
 51
540.0000049999999
  0
ARC
  5
DC
100
AcDbEntity
  8
A4
  6
CONTINUOUS
 62
7
100
AcDbCircle
 10
263.6999999476402
 20
195.0000000000295
 30
0.0000000000000000
 40
1.000000000000000
100
AcDbArc
 50
89.99999700000077
 51
270.0000029999993
  0
ARC
  5
DD
100
AcDbEntity
  8
A4
  6
CONTINUOUS
 62
7
100
AcDbCircle
 10
236.3000000523600
 20
195.0000000000295
 30
0.0000000000000000
 40
1.000000000000000
100
AcDbArc
 50
269.9999970000007
 51
450.0000029999993
  0
ARC
  5
DE
100
AcDbEntity
  8
A4
  6
CONTINUOUS
 62
7
100
AcDbCircle
 10
263.6999999476402
 20
182.0000000000295
 30
0.0000000000000000
 40
1.000000000000000
100
AcDbArc
 50
89.99999699999906
 51
270.0000030000010
  0
ARC
  5
DF
100
AcDbEntity
  8
A4
  6
CONTINUOUS
 62
7
100
AcDbCircle
 10
236.3000000523600
 20
182.0000000000295
 30
0.0000000000000000
 40
1.000000000000000
100
AcDbArc
 50
269.9999969999990
 51
450.0000030000010
  0
LINE
  5
E0
100
AcDbEntity
  8
A4
  6
CONTINUOUS
 62
7
100
AcDbLine
 10
256.0000000001255
 20
67.00000000000047
 30
0.0000000000000000
 11
256.0000000001255
 21
66.00000000000047
 31
0.0000000000000000
  0
LINE
  5
E1
100
AcDbEntity
  8
A4
  6
CONTINUOUS
 62
7
100
AcDbLine
 10
243.9999999998747
 20
66.00000000000047
 30
0.0000000000000000
 11
243.9999999998747
 21
67.00000000000047
 31
0.0000000000000000
  0
LINE
  5
E2
100
AcDbEntity
  8
A4
  6
CONTINUOUS
 62
7
100
AcDbLine
 10
258.0000000000175
 20
175.0000000000296
 30
0.0000000000000000
 11
258.0000000000175
 21
67.50000000000047
 31
0.0000000000000000
  0
LINE
  5
E3
100
AcDbEntity
  8
A4
  6
CONTINUOUS
 62
7
100
AcDbLine
 10
241.9999999999825
 20
67.50000000000047
 30
0.0000000000000000
 11
241.9999999999825
 21
175.0000000000296
 31
0.0000000000000000
  0
LINE
  5
E4
100
AcDbEntity
  8
A4
  6
CONTINUOUS
 62
7
100
AcDbLine
 10
241.9999999998747
 20
67.50000000000047
 30
0.0000000000000000
 11
258.0000000001255
 21
67.50000000000047
 31
0.0000000000000000
  0
LINE
  5
E5
100
AcDbEntity
  8
A4
  6
CONTINUOUS
 62
7
100
AcDbLine
 10
260.9999999998695
 20
50.00000000000017
 30
0.0000000000000000
 11
260.9999999998695
 21
66.00000000000024
 31
0.0000000000000000
  0
LINE
  5
E6
100
AcDbEntity
  8
A4
  6
CONTINUOUS
 62
7
100
AcDbLine
 10
238.9999999998695
 20
66.00000000000024
 30
0.0000000000000000
 11
238.9999999998695
 21
50.00000000000017
 31
0.0000000000000000
  0
LINE
  5
E7
100
AcDbEntity
  8
A4
  6
CONTINUOUS
 62
7
100
AcDbLine
 10
260.9999999998690
 20
66.00000000000104
 30
0.0000000000000000
 11
238.9999999998695
 21
66.00000000000034
 31
0.0000000000000000
  0
LINE
  5
E8
100
AcDbEntity
  8
A4
  6
CONTINUOUS
 62
7
100
AcDbLine
 10
261.0000000000000
 20
359.0000000000294
 30
0.0000000000000000
 11
261.0000000000000
 21
375.0000000000295
 31
0.0000000000000000
  0
LINE
  5
E9
100
AcDbEntity
  8
A4
  6
CONTINUOUS
 62
7
100
AcDbLine
 10
239.0000000000000
 20
359.0000000000294
 30
0.0000000000000000
 11
261.0000000000000
 21
359.0000000000294
 31
0.0000000000000000
  0
LINE
  5
EA
100
AcDbEntity
  8
A4
  6
CONTINUOUS
 62
7
100
AcDbLine
 10
239.0000000000000
 20
375.0000000000295
 30
0.0000000000000000
 11
239.0000000000000
 21
359.0000000000294
 31
0.0000000000000000
  0
LINE
  5
EB
100
AcDbEntity
  8
A4
  6
CONTINUOUS
 62
7
100
AcDbLine
 10
262.7500000000000
 20
177.0000000000296
 30
0.0000000000000000
 11
262.7500000000000
 21
175.0000000000296
 31
0.0000000000000000
  0
LINE
  5
EC
100
AcDbEntity
  8
A4
  6
CONTINUOUS
 62
7
100
AcDbLine
 10
237.2500000000000
 20
175.0000000000296
 30
0.0000000000000000
 11
237.2500000000000
 21
177.0000000000296
 31
0.0000000000000000
  0
LINE
  5
ED
100
AcDbEntity
  8
A4
  6
CONTINUOUS
 62
7
100
AcDbLine
 10
237.2500000000000
 20
175.0000000000296
 30
0.0000000000000000
 11
262.7500000000000
 21
175.0000000000296
 31
0.0000000000000000
  0
LINE
  5
EE
100
AcDbEntity
  8
A4
  6
CONTINUOUS
 62
7
100
AcDbLine
 10
263.7000000000000
 20
181.0000000000296
 30
0.0000000000000000
 11
263.7000000000000
 21
177.0000000000296
 31
0.0000000000000000
  0
LINE
  5
EF
100
AcDbEntity
  8
A4
  6
CONTINUOUS
 62
7
100
AcDbLine
 10
236.3000000000000
 20
177.0000000000296
 30
0.0000000000000000
 11
236.3000000000000
 21
181.0000000000296
 31
0.0000000000000000
  0
LINE
  5
F0
100
AcDbEntity
  8
A4
  6
CONTINUOUS
 62
7
100
AcDbLine
 10
236.3000000000000
 20
177.0000000000296
 30
0.0000000000000000
 11
263.7000000000000
 21
177.0000000000296
 31
0.0000000000000000
  0
LINE
  5
F1
100
AcDbEntity
  8
A4
  6
CONTINUOUS
 62
7
100
AcDbLine
 10
236.3000000000000
 20
181.0000000000296
 30
0.0000000000000000
 11
263.7000000000000
 21
181.0000000000296
 31
0.0000000000000000
  0
LINE
  5
F2
100
AcDbEntity
  8
A4
  6
CONTINUOUS
 62
7
100
AcDbLine
 10
263.7000000000000
 20
194.0000000000296
 30
0.0000000000000000
 11
263.7000000000000
 21
183.0000000000296
 31
0.0000000000000000
  0
LINE
  5
F3
100
AcDbEntity
  8
A4
  6
CONTINUOUS
 62
7
100
AcDbLine
 10
236.3000000000000
 20
183.0000000000296
 30
0.0000000000000000
 11
236.3000000000000
 21
194.0000000000296
 31
0.0000000000000000
  0
LINE
  5
F4
100
AcDbEntity
  8
A4
  6
CONTINUOUS
 62
7
100
AcDbLine
 10
236.3000000000000
 20
183.0000000000296
 30
0.0000000000000000
 11
263.7000000000000
 21
183.0000000000296
 31
0.0000000000000000
  0
LINE
  5
F5
100
AcDbEntity
  8
A4
  6
CONTINUOUS
 62
7
100
AcDbLine
 10
236.3000000000000
 20
194.0000000000296
 30
0.0000000000000000
 11
263.7000000000000
 21
194.0000000000296
 31
0.0000000000000000
  0
LINE
  5
F6
100
AcDbEntity
  8
A4
  6
CONTINUOUS
 62
7
100
AcDbLine
 10
263.7000000000000
 20
352.0000000000294
 30
0.0000000000000000
 11
263.7000000000000
 21
196.0000000000296
 31
0.0000000000000000
  0
LINE
  5
F7
100
AcDbEntity
  8
A4
  6
CONTINUOUS
 62
7
100
AcDbLine
 10
236.3000000000000
 20
196.0000000000296
 30
0.0000000000000000
 11
236.2999999999999
 21
352.0000000000294
 31
0.0000000000000000
  0
LINE
  5
F8
100
AcDbEntity
  8
A4
  6
CONTINUOUS
 62
7
100
AcDbLine
 10
236.3000000000000
 20
196.0000000000296
 30
0.0000000000000000
 11
263.7000000000000
 21
196.0000000000296
 31
0.0000000000000000
  0
LINE
  5
F9
100
AcDbEntity
  8
A4
  6
CONTINUOUS
 62
7
100
AcDbLine
 10
255.9999999999997
 20
359.0000000000294
 30
0.0000000000000000
 11
264.0999999999997
 21
354.0000000000297
 31
0.0000000000000000
  0
LINE
  5
FA
100
AcDbEntity
  8
A4
  6
CONTINUOUS
 62
7
100
AcDbLine
 10
235.9000000000001
 20
354.0000000000298
 30
0.0000000000000000
 11
244.0000000000001
 21
359.0000000000295
 31
0.0000000000000000
  0
LINE
  5
FB
100
AcDbEntity
  8
A4
  6
CONTINUOUS
 62
7
100
AcDbLine
 10
264.0999999999999
 20
354.0000000000297
 30
0.0000000000000000
 11
264.0999999999999
 21
352.0000000000294
 31
0.0000000000000000
  0
LINE
  5
FC
100
AcDbEntity
  8
A4
  6
CONTINUOUS
 62
7
100
AcDbLine
 10
235.9000000000001
 20
352.0000000000294
 30
0.0000000000000000
 11
235.9000000000001
 21
354.0000000000297
 31
0.0000000000000000
  0
LINE
  5
FD
100
AcDbEntity
  8
A4
  6
CONTINUOUS
 62
7
100
AcDbLine
 10
235.9000000000001
 20
352.0000000000294
 30
0.0000000000000000
 11
264.0999999999999
 21
352.0000000000294
 31
0.0000000000000000
  0
LINE
  5
FE
100
AcDbEntity
  8
A4
  6
CONTINUOUS
 62
7
100
AcDbLine
 10
235.9000000000001
 20
354.0000000000297
 30
0.0000000000000000
 11
264.0999999999999
 21
354.0000000000297
 31
0.0000000000000000
  0
LINE
  5
FF
100
AcDbEntity
  8
A4
  6
CENTER
 62
4
100
AcDbLine
 10
234.0000000000000
 20
375.0000000000295
 30
0.0000000000000000
 11
266.0000000000000
 21
375.0000000000295
 31
0.0000000000000000
  0
LINE
  5
100
100
AcDbEntity
  8
A4
  6
CENTER
 62
4
100
AcDbLine
 10
250.0000000000000
 20
391.0000000000294
 30
0.0000000000000000
 11
250.0000000000000
 21
34.00000000000023
 31
0.0000000000000000
  0
LINE
  5
101
100
AcDbEntity
  8
A4
  6
CENTER
 62
4
100
AcDbLine
 10
233.9999999998697
 20
50.00000000000017
 30
0.0000000000000000
 11
265.9999999998697
 21
50.00000000000017
 31
0.0000000000000000
  0
ARC
  5
102
100
AcDbEntity
  8
A8
  6
CONTINUOUS
 62
7
100
AcDbCircle
 10
344.5000030000001
 20
362.1606956709904
 30
0.0000000000000000
 40
3.200000000000000
100
AcDbArc
 50
179.9999992950639
 51
261.0106485278728
  0
ARC
  5
103
100
AcDbEntity
  8
A8
  6
CONTINUOUS
 62
7
100
AcDbCircle
 10
355.4999970000001
 20
362.1606956709904
 30
0.0000000000000000
 40
3.200000000000000
100
AcDbArc
 50
278.9893514721273
 51
360.0000007049361
  0
ARC
  5
104
100
AcDbEntity
  8
A8
  6
CONTINUOUS
 62
7
100
AcDbCircle
 10
344.5000029998696
 20
62.83930432903838
 30
0.0000000000000000
 40
3.200000000000000
100
AcDbArc
 50
98.98935372782121
 51
180.0000007049363
  0
ARC
  5
105
100
AcDbEntity
  8
A8
  6
CONTINUOUS
 62
7
100
AcDbCircle
 10
355.4999969998696
 20
62.83930432907977
 30
0.0000000000000000
 40
3.200000000000000
100
AcDbArc
 50
359.9999992950636
 51
441.0106462674470
  0
ARC
  5
106
100
AcDbEntity
  8
A8
  6
CONTINUOUS
 62
7
100
AcDbCircle
 10
356.5000000001255
 20
67.00000000000040
 30
0.0000000000000000
 40
0.5000000000000000
100
AcDbArc
 50
90.00000000000000
 51
180.0000000000000
  0
ARC
  5
107
100
AcDbEntity
  8
A8
  6
CONTINUOUS
 62
7
100
AcDbCircle
 10
343.4999999998747
 20
67.00000000000040
 30
0.0000000000000000
 40
0.5000000000000000
100
AcDbArc
 50
0.0000000000000000
 51
90.00000000000000
  0
ARC
  5
108
100
AcDbEntity
  8
A8
  6
CONTINUOUS
 62
7
100
AcDbCircle
 10
363.6999999476402
 20
195.0000000000295
 30
0.0000000000000000
 40
1.000000000000000
100
AcDbArc
 50
89.99999700000077
 51
270.0000029999993
  0
ARC
  5
109
100
AcDbEntity
  8
A8
  6
CONTINUOUS
 62
7
100
AcDbCircle
 10
336.3000000523600
 20
195.0000000000295
 30
0.0000000000000000
 40
1.000000000000000
100
AcDbArc
 50
269.9999970000007
 51
450.0000029999993
  0
ARC
  5
10A
100
AcDbEntity
  8
A8
  6
CONTINUOUS
 62
7
100
AcDbCircle
 10
363.6999999476402
 20
182.0000000000295
 30
0.0000000000000000
 40
1.000000000000000
100
AcDbArc
 50
89.99999699999906
 51
270.0000030000010
  0
ARC
  5
10B
100
AcDbEntity
  8
A8
  6
CONTINUOUS
 62
7
100
AcDbCircle
 10
336.3000000523600
 20
182.0000000000295
 30
0.0000000000000000
 40
1.000000000000000
100
AcDbArc
 50
269.9999969999990
 51
450.0000030000010
  0
LINE
  5
10C
100
AcDbEntity
  8
A8
  6
CONTINUOUS
 62
7
100
AcDbLine
 10
356.0000000001255
 20
67.00000000000047
 30
0.0000000000000000
 11
356.0000000001255
 21
66.00000000000047
 31
0.0000000000000000
  0
LINE
  5
10D
100
AcDbEntity
  8
A8
  6
CONTINUOUS
 62
7
100
AcDbLine
 10
343.9999999998747
 20
66.00000000000045
 30
0.0000000000000000
 11
343.9999999998747
 21
67.00000000000045
 31
0.0000000000000000
  0
LINE
  5
10E
100
AcDbEntity
  8
A8
  6
CONTINUOUS
 62
7
100
AcDbLine
 10
358.0000000000177
 20
175.0000000000296
 30
0.0000000000000000
 11
358.0000000000177
 21
67.50000000000047
 31
0.0000000000000000
  0
LINE
  5
10F
100
AcDbEntity
  8
A8
  6
CONTINUOUS
 62
7
100
AcDbLine
 10
341.9999999999825
 20
67.50000000000045
 30
0.0000000000000000
 11
341.9999999999825
 21
175.0000000000296
 31
0.0000000000000000
  0
LINE
  5
110
100
AcDbEntity
  8
A8
  6
CONTINUOUS
 62
7
100
AcDbLine
 10
341.9999999998747
 20
67.50000000000045
 30
0.0000000000000000
 11
358.0000000001255
 21
67.50000000000047
 31
0.0000000000000000
  0
LINE
  5
111
100
AcDbEntity
  8
A8
  6
CONTINUOUS
 62
7
100
AcDbLine
 10
355.5000000000000
 20
386.0000000000294
 30
0.0000000000000000
 11
358.6999970000002
 21
386.0000000000294
 31
0.0000000000000000
  0
LINE
  5
112
100
AcDbEntity
  8
A8
  6
CONTINUOUS
 62
7
100
AcDbLine
 10
341.3000030000001
 20
386.0000000000294
 30
0.0000000000000000
 11
344.5000000000002
 21
386.0000000000294
 31
0.0000000000000000
  0
LINE
  5
113
100
AcDbEntity
  8
A8
  6
CONTINUOUS
 62
7
100
AcDbLine
 10
344.0000001244396
 20
359.0000000000294
 30
0.0000000000000000
 11
355.9999998755607
 21
359.0000000000294
 31
0.0000000000000000
  0
LINE
  5
114
100
AcDbEntity
  8
A8
  6
CONTINUOUS
 62
7
100
AcDbLine
 10
341.3000030000003
 20
386.0000000000295
 30
0.0000000000000000
 11
341.3000030000003
 21
362.2000000000295
 31
0.0000000000000000
  0
LINE
  5
115
100
AcDbEntity
  8
A8
  6
CONTINUOUS
 62
7
100
AcDbLine
 10
344.5000000000002
 20
362.2000120000295
 30
0.0000000000000000
 11
344.5000000000002
 21
386.0000000000295
 31
0.0000000000000000
  0
LINE
  5
116
100
AcDbEntity
  8
A8
  6
CONTINUOUS
 62
7
100
AcDbLine
 10
355.5000000000000
 20
362.2000120000295
 30
0.0000000000000000
 11
344.5000000000000
 21
362.2000120000295
 31
0.0000000000000000
  0
LINE
  5
117
100
AcDbEntity
  8
A8
  6
CONTINUOUS
 62
7
100
AcDbLine
 10
355.5000000000000
 20
386.0000000000294
 30
0.0000000000000000
 11
355.5000000000000
 21
362.2000120000294
 31
0.0000000000000000
  0
LINE
  5
118
100
AcDbEntity
  8
A8
  6
CONTINUOUS
 62
7
100
AcDbLine
 10
358.6999970000002
 20
362.2000000000295
 30
0.0000000000000000
 11
358.6999970000002
 21
386.0000000000295
 31
0.0000000000000000
  0
LINE
  5
119
100
AcDbEntity
  8
A8
  6
CONTINUOUS
 62
7
100
AcDbLine
 10
344.4999999998695
 20
39.00000000000023
 30
0.0000000000000000
 11
341.3000029998695
 21
39.00000000000023
 31
0.0000000000000000
  0
LINE
  5
11A
100
AcDbEntity
  8
A8
  6
CONTINUOUS
 62
7
100
AcDbLine
 10
358.6999969998694
 20
39.00000000000023
 30
0.0000000000000000
 11
355.4999999998695
 21
39.00000000000023
 31
0.0000000000000000
  0
LINE
  5
11B
100
AcDbEntity
  8
A8
  6
CONTINUOUS
 62
7
100
AcDbLine
 10
343.9999999998747
 20
66.00000000000024
 30
0.0000000000000000
 11
356.0000000001255
 21
66.00000000000024
 31
0.0000000000000000
  0
LINE
  5
11C
100
AcDbEntity
  8
A8
  6
CONTINUOUS
 62
7
100
AcDbLine
 10
358.6999969998699
 20
62.80000000000027
 30
0.0000000000000000
 11
358.6999969998699
 21
39.00000000000026
 31
0.0000000000000000
  0
LINE
  5
11D
100
AcDbEntity
  8
A8
  6
CONTINUOUS
 62
7
100
AcDbLine
 10
355.4999999998695
 20
39.00000000000024
 30
0.0000000000000000
 11
355.4999999998695
 21
62.80000300000030
 31
0.0000000000000000
  0
LINE
  5
11E
100
AcDbEntity
  8
A8
  6
CONTINUOUS
 62
7
100
AcDbLine
 10
355.4999999998695
 20
62.80000300000030
 30
0.0000000000000000
 11
344.4999999998695
 21
62.80000300000030
 31
0.0000000000000000
  0
LINE
  5
11F
100
AcDbEntity
  8
A8
  6
CONTINUOUS
 62
7
100
AcDbLine
 10
344.4999999998695
 20
62.80000300000026
 30
0.0000000000000000
 11
344.4999999998695
 21
39.00000000000023
 31
0.0000000000000000
  0
LINE
  5
120
100
AcDbEntity
  8
A8
  6
CONTINUOUS
 62
7
100
AcDbLine
 10
341.3000029998695
 20
39.00000000000026
 30
0.0000000000000000
 11
341.3000029998695
 21
62.80000000000015
 31
0.0000000000000000
  0
LINE
  5
121
100
AcDbEntity
  8
A8
  6
CONTINUOUS
 62
7
100
AcDbLine
 10
362.7500000000000
 20
177.0000000000296
 30
0.0000000000000000
 11
362.7500000000000
 21
175.0000000000296
 31
0.0000000000000000
  0
LINE
  5
122
100
AcDbEntity
  8
A8
  6
CONTINUOUS
 62
7
100
AcDbLine
 10
337.2500000000000
 20
175.0000000000296
 30
0.0000000000000000
 11
337.2500000000000
 21
177.0000000000296
 31
0.0000000000000000
  0
LINE
  5
123
100
AcDbEntity
  8
A8
  6
CONTINUOUS
 62
7
100
AcDbLine
 10
337.2500000000000
 20
175.0000000000296
 30
0.0000000000000000
 11
362.7500000000000
 21
175.0000000000296
 31
0.0000000000000000
  0
LINE
  5
124
100
AcDbEntity
  8
A8
  6
CONTINUOUS
 62
7
100
AcDbLine
 10
363.7000000000000
 20
181.0000000000296
 30
0.0000000000000000
 11
363.7000000000000
 21
177.0000000000296
 31
0.0000000000000000
  0
LINE
  5
125
100
AcDbEntity
  8
A8
  6
CONTINUOUS
 62
7
100
AcDbLine
 10
336.3000000000000
 20
177.0000000000296
 30
0.0000000000000000
 11
336.3000000000000
 21
181.0000000000296
 31
0.0000000000000000
  0
LINE
  5
126
100
AcDbEntity
  8
A8
  6
CONTINUOUS
 62
7
100
AcDbLine
 10
336.3000000000000
 20
177.0000000000296
 30
0.0000000000000000
 11
363.7000000000000
 21
177.0000000000296
 31
0.0000000000000000
  0
LINE
  5
127
100
AcDbEntity
  8
A8
  6
CONTINUOUS
 62
7
100
AcDbLine
 10
336.3000000000000
 20
181.0000000000296
 30
0.0000000000000000
 11
363.7000000000000
 21
181.0000000000296
 31
0.0000000000000000
  0
LINE
  5
128
100
AcDbEntity
  8
A8
  6
CONTINUOUS
 62
7
100
AcDbLine
 10
363.7000000000000
 20
194.0000000000296
 30
0.0000000000000000
 11
363.7000000000000
 21
183.0000000000296
 31
0.0000000000000000
  0
LINE
  5
129
100
AcDbEntity
  8
A8
  6
CONTINUOUS
 62
7
100
AcDbLine
 10
336.3000000000000
 20
183.0000000000296
 30
0.0000000000000000
 11
336.3000000000000
 21
194.0000000000296
 31
0.0000000000000000
  0
LINE
  5
12A
100
AcDbEntity
  8
A8
  6
CONTINUOUS
 62
7
100
AcDbLine
 10
336.3000000000000
 20
183.0000000000296
 30
0.0000000000000000
 11
363.7000000000000
 21
183.0000000000296
 31
0.0000000000000000
  0
LINE
  5
12B
100
AcDbEntity
  8
A8
  6
CONTINUOUS
 62
7
100
AcDbLine
 10
336.3000000000000
 20
194.0000000000296
 30
0.0000000000000000
 11
363.7000000000000
 21
194.0000000000296
 31
0.0000000000000000
  0
LINE
  5
12C
100
AcDbEntity
  8
A8
  6
CONTINUOUS
 62
7
100
AcDbLine
 10
363.7000000000000
 20
352.0000000000294
 30
0.0000000000000000
 11
363.7000000000000
 21
196.0000000000296
 31
0.0000000000000000
  0
LINE
  5
12D
100
AcDbEntity
  8
A8
  6
CONTINUOUS
 62
7
100
AcDbLine
 10
336.3000000000000
 20
196.0000000000296
 30
0.0000000000000000
 11
336.3000000000000
 21
352.0000000000294
 31
0.0000000000000000
  0
LINE
  5
12E
100
AcDbEntity
  8
A8
  6
CONTINUOUS
 62
7
100
AcDbLine
 10
336.3000000000000
 20
196.0000000000296
 30
0.0000000000000000
 11
363.7000000000000
 21
196.0000000000296
 31
0.0000000000000000
  0
LINE
  5
12F
100
AcDbEntity
  8
A8
  6
CONTINUOUS
 62
7
100
AcDbLine
 10
355.9999999999998
 20
359.0000000000295
 30
0.0000000000000000
 11
364.0999999999999
 21
354.0000000000297
 31
0.0000000000000000
  0
LINE
  5
130
100
AcDbEntity
  8
A8
  6
CONTINUOUS
 62
7
100
AcDbLine
 10
335.8999999999999
 20
354.0000000000295
 30
0.0000000000000000
 11
344.0000000000001
 21
359.0000000000293
 31
0.0000000000000000
  0
LINE
  5
131
100
AcDbEntity
  8
A8
  6
CONTINUOUS
 62
7
100
AcDbLine
 10
364.1000000000001
 20
354.0000000000297
 30
0.0000000000000000
 11
364.1000000000001
 21
352.0000000000294
 31
0.0000000000000000
  0
LINE
  5
132
100
AcDbEntity
  8
A8
  6
CONTINUOUS
 62
7
100
AcDbLine
 10
335.9000000000001
 20
352.0000000000294
 30
0.0000000000000000
 11
335.9000000000001
 21
354.0000000000297
 31
0.0000000000000000
  0
LINE
  5
133
100
AcDbEntity
  8
A8
  6
CONTINUOUS
 62
7
100
AcDbLine
 10
335.9000000000001
 20
352.0000000000294
 30
0.0000000000000000
 11
364.1000000000001
 21
352.0000000000294
 31
0.0000000000000000
  0
LINE
  5
134
100
AcDbEntity
  8
A8
  6
CONTINUOUS
 62
7
100
AcDbLine
 10
335.9000000000001
 20
354.0000000000297
 30
0.0000000000000000
 11
364.1000000000001
 21
354.0000000000297
 31
0.0000000000000000
  0
LINE
  5
135
100
AcDbEntity
  8
A10
  6
CENTER
 62
4
100
AcDbLine
 10
350.0000000000000
 20
391.0000000000294
 30
0.0000000000000000
 11
350.0000000000000
 21
34.00000000000023
 31
0.0000000000000000
  0
LINE
  5
136
100
AcDbEntity
  8
A10
  6
CENTER
 62
4
100
AcDbLine
 10
363.6999970000002
 20
375.0000000000295
 30
0.0000000000000000
 11
336.3000030000003
 21
375.0000000000295
 31
0.0000000000000000
  0
LINE
  5
137
100
AcDbEntity
  8
A10
  6
CENTER
 62
4
100
AcDbLine
 10
363.6999969998699
 20
50.00000000000017
 30
0.0000000000000000
 11
336.3000029998695
 21
50.00000000000017
 31
0.0000000000000000
  0
POINT
  5
138
100
AcDbEntity
  8
A10
  6
CONTINUOUS
 62
5
100
AcDbPoint
 10
50.00000000000000
 20
50.00000000000017
 30
0.0000000000000000
  0
CIRCLE
  5
139
100
AcDbEntity
  8
A4
  6
PHANTOM
 62
1
100
AcDbCircle
 10
50.00000000013029
 20
150.0000000000295
 30
0.0000000000000000
 40
5.000000000000000
  0
ARC
  5
13A
100
AcDbEntity
  8
A4
  6
PHANTOM
 62
1
100
AcDbCircle
 10
50.00000000013029
 20
150.0000000000295
 30
0.0000000000000000
 40
11.00000000000001
100
AcDbArc
 50
180.0000050000000
 51
359.9999950000000
  0
LINE
  5
13B
100
AcDbEntity
  8
A4
  6
PHANTOM
 62
1
100
AcDbLine
 10
39.00000000013051
 20
150.0000000000295
 30
0.0000000000000000
 11
39.00000000013051
 21
166.0000000000296
 31
0.0000000000000000
  0
LINE
  5
13C
100
AcDbEntity
  8
A4
  6
PHANTOM
 62
1
100
AcDbLine
 10
61.00000000013051
 20
166.0000000000296
 30
0.0000000000000000
 11
61.00000000013051
 21
150.0000000000295
 31
0.0000000000000000
  0
LINE
  5
13D
100
AcDbEntity
  8
A4
  6
PHANTOM
 62
1
100
AcDbLine
 10
39.00000000013098
 20
166.0000000000303
 30
0.0000000000000000
 11
61.00000000013053
 21
166.0000000000296
 31
0.0000000000000000
  0
ARC
  5
13E
100
AcDbEntity
  8
A8
  6
PHANTOM
 62
1
100
AcDbCircle
 10
155.4999970001304
 20
162.8393043290677
 30
0.0000000000000000
 40
3.200000000000000
100
AcDbArc
 50
359.9999992950636
 51
441.0106462721787
  0
ARC
  5
13F
100
AcDbEntity
  8
A8
  6
PHANTOM
 62
1
100
AcDbCircle
 10
144.5000030001304
 20
162.8393043291091
 30
0.0000000000000000
 40
3.200000000000000
100
AcDbArc
 50
98.98935373255300
 51
180.0000007049364
  0
LINE
  5
140
100
AcDbEntity
  8
A8
  6
PHANTOM
 62
1
100
AcDbLine
 10
155.5000000001305
 20
139.0000000000296
 30
0.0000000000000000
 11
158.6999970001305
 21
139.0000000000296
 31
0.0000000000000000
  0
LINE
  5
141
100
AcDbEntity
  8
A8
  6
PHANTOM
 62
1
100
AcDbLine
 10
141.3000030001306
 20
139.0000000000296
 30
0.0000000000000000
 11
144.5000000001305
 21
139.0000000000296
 31
0.0000000000000000
  0
LINE
  5
142
100
AcDbEntity
  8
A8
  6
PHANTOM
 62
1
100
AcDbLine
 10
156.0000000001253
 20
166.0000000000296
 30
0.0000000000000000
 11
143.9999999998745
 21
166.0000000000296
 31
0.0000000000000000
  0
LINE
  5
143
100
AcDbEntity
  8
A8
  6
PHANTOM
 62
1
100
AcDbLine
 10
141.3000030001301
 20
162.8000000000296
 30
0.0000000000000000
 11
141.3000030001301
 21
139.0000000000296
 31
0.0000000000000000
  0
LINE
  5
144
100
AcDbEntity
  8
A8
  6
PHANTOM
 62
1
100
AcDbLine
 10
144.5000000001305
 20
139.0000000000296
 30
0.0000000000000000
 11
144.5000000001305
 21
162.8000030000296
 31
0.0000000000000000
  0
LINE
  5
145
100
AcDbEntity
  8
A8
  6
PHANTOM
 62
1
100
AcDbLine
 10
144.5000000001305
 20
162.8000030000296
 30
0.0000000000000000
 11
155.5000000001305
 21
162.8000030000296
 31
0.0000000000000000
  0
LINE
  5
146
100
AcDbEntity
  8
A8
  6
PHANTOM
 62
1
100
AcDbLine
 10
155.5000000001305
 20
162.8000030000296
 30
0.0000000000000000
 11
155.5000000001305
 21
139.0000000000295
 31
0.0000000000000000
  0
LINE
  5
147
100
AcDbEntity
  8
A8
  6
PHANTOM
 62
1
100
AcDbLine
 10
158.6999970001305
 20
139.0000000000296
 30
0.0000000000000000
 11
158.6999970001305
 21
162.8000000000295
 31
0.0000000000000000
  0
LINE
  5
148
100
AcDbEntity
  8
A4
  6
CENTER
 62
4
100
AcDbLine
 10
66.00000000013029
 20
150.0000000000295
 30
0.0000000000000000
 11
34.00000000013029
 21
150.0000000000295
 31
0.0000000000000000
  0
LINE
  5
149
100
AcDbEntity
  8
A10
  6
CENTER
 62
4
100
AcDbLine
 10
136.3000030001301
 20
150.0000000000295
 30
0.0000000000000000
 11
163.6999970001305
 21
150.0000000000295
 31
0.0000000000000000
  0
CIRCLE
  5
14A
100
AcDbEntity
  8
A4
  6
PHANTOM
 62
1
100
AcDbCircle
 10
249.9999999998697
 20
150.0000000000295
 30
0.0000000000000000
 40
5.000000000000000
  0
ARC
  5
14B
100
AcDbEntity
  8
A4
  6
PHANTOM
 62
1
100
AcDbCircle
 10
249.9999999998697
 20
150.0000000000295
 30
0.0000000000000000
 40
11.00000000000001
100
AcDbArc
 50
180.0000050000000
 51
359.9999950000000
  0
LINE
  5
14C
100
AcDbEntity
  8
A4
  6
PHANTOM
 62
1
100
AcDbLine
 10
260.9999999998695
 20
150.0000000000295
 30
0.0000000000000000
 11
260.9999999998695
 21
166.0000000000296
 31
0.0000000000000000
  0
LINE
  5
14D
100
AcDbEntity
  8
A4
  6
PHANTOM
 62
1
100
AcDbLine
 10
238.9999999998695
 20
166.0000000000296
 30
0.0000000000000000
 11
238.9999999998695
 21
150.0000000000295
 31
0.0000000000000000
  0
LINE
  5
14E
100
AcDbEntity
  8
A4
  6
PHANTOM
 62
1
100
AcDbLine
 10
260.9999999998690
 20
166.0000000000304
 30
0.0000000000000000
 11
238.9999999998695
 21
166.0000000000296
 31
0.0000000000000000
  0
LINE
  5
14F
100
AcDbEntity
  8
A4
  6
CENTER
 62
4
100
AcDbLine
 10
233.9999999998697
 20
150.0000000000295
 30
0.0000000000000000
 11
265.9999999998697
 21
150.0000000000295
 31
0.0000000000000000
  0
ARC
  5
150
100
AcDbEntity
  8
A8
  6
PHANTOM
 62
1
100
AcDbCircle
 10
344.5000029998696
 20
162.8393043290677
 30
0.0000000000000000
 40
3.200000000000000
100
AcDbArc
 50
98.98935372782121
 51
180.0000007049363
  0
ARC
  5
151
100
AcDbEntity
  8
A8
  6
PHANTOM
 62
1
100
AcDbCircle
 10
355.4999969998696
 20
162.8393043291091
 30
0.0000000000000000
 40
3.200000000000000
100
AcDbArc
 50
359.9999992950636
 51
441.0106462674470
  0
LINE
  5
152
100
AcDbEntity
  8
A8
  6
PHANTOM
 62
1
100
AcDbLine
 10
344.4999999998695
 20
139.0000000000295
 30
0.0000000000000000
 11
341.3000029998695
 21
139.0000000000295
 31
0.0000000000000000
  0
LINE
  5
153
100
AcDbEntity
  8
A8
  6
PHANTOM
 62
1
100
AcDbLine
 10
358.6999969998694
 20
139.0000000000295
 30
0.0000000000000000
 11
355.4999999998695
 21
139.0000000000295
 31
0.0000000000000000
  0
LINE
  5
154
100
AcDbEntity
  8
A8
  6
PHANTOM
 62
1
100
AcDbLine
 10
343.9999999998747
 20
166.0000000000296
 30
0.0000000000000000
 11
356.0000000001255
 21
166.0000000000296
 31
0.0000000000000000
  0
LINE
  5
155
100
AcDbEntity
  8
A8
  6
PHANTOM
 62
1
100
AcDbLine
 10
358.6999969998699
 20
162.8000000000296
 30
0.0000000000000000
 11
358.6999969998699
 21
139.0000000000296
 31
0.0000000000000000
  0
LINE
  5
156
100
AcDbEntity
  8
A8
  6
PHANTOM
 62
1
100
AcDbLine
 10
355.4999999998695
 20
139.0000000000296
 30
0.0000000000000000
 11
355.4999999998695
 21
162.8000030000296
 31
0.0000000000000000
  0
LINE
  5
157
100
AcDbEntity
  8
A8
  6
PHANTOM
 62
1
100
AcDbLine
 10
355.4999999998695
 20
162.8000030000296
 30
0.0000000000000000
 11
344.4999999998695
 21
162.8000030000296
 31
0.0000000000000000
  0
LINE
  5
158
100
AcDbEntity
  8
A8
  6
PHANTOM
 62
1
100
AcDbLine
 10
344.4999999998695
 20
162.8000030000296
 30
0.0000000000000000
 11
344.4999999998695
 21
139.0000000000295
 31
0.0000000000000000
  0
LINE
  5
159
100
AcDbEntity
  8
A8
  6
PHANTOM
 62
1
100
AcDbLine
 10
341.3000029998695
 20
139.0000000000296
 30
0.0000000000000000
 11
341.3000029998695
 21
162.8000000000295
 31
0.0000000000000000
  0
LINE
  5
15A
100
AcDbEntity
  8
A10
  6
CENTER
 62
4
100
AcDbLine
 10
363.6999969998699
 20
150.0000000000295
 30
0.0000000000000000
 11
336.3000029998695
 21
150.0000000000295
 31
0.0000000000000000
  0
ENDSEC
  0
SECTION
  2
OBJECTS
  0
DICTIONARY
  5
18A
100
AcDbDictionary
  3
ACAD_GROUP
350
18B
  3
ACAD_LAYOUT
350
18C
  3
ACAD_MLINESTYLE
350
18D
  0
DICTIONARY
  5
18B
102
{ACAD_REACTORS
330
18A
102
}
330
18A
100
AcDbDictionary
  0
DICTIONARY
  5
18C
102
{ACAD_REACTORS
330
18A
102
}
330
18A
100
AcDbDictionary
  3
Model
350
18E
  3
ﾚｲｱｳﾄ1
350
18F
  3
ﾚｲｱｳﾄ2
350
190
  0
DICTIONARY
  5
18D
102
{ACAD_REACTORS
330
18A
102
}
330
18A
100
AcDbDictionary
  3
STANDARD
350
191
  0
LAYOUT
  5
18E
102
{ACAD_REACTORS
330
18C
102
}
330
18C
100
AcDbPlotSettings
 70
11952
  4
A3
 44
297.000000
 45
420.000000
 73
  1
 72
  1
100
AcDbLayout
  1
Model
 71
0
330
181
  0
LAYOUT
  5
18F
102
{ACAD_REACTORS
330
18C
102
}
330
18C
100
AcDbPlotSettings
100
AcDbLayout
  1
ﾚｲｱｳﾄ1
 71
1
330
182
  0
LAYOUT
  5
190
102
{ACAD_REACTORS
330
18C
102
}
330
18C
100
AcDbPlotSettings
100
AcDbLayout
  1
ﾚｲｱｳﾄ2
 71
2
330
183
  0
MLINESTYLE
  5
191
102
{ACAD_REACTORS
330
18D
102
}
330
18D
100
AcDbMlineStyle
  2
STANDARD
 70
     0
  3

 62
   256
 51
90.00
 52
90.00
 71
     2
 49
0.50
 62
   256
  6
BYLAYER
 49
-0.50
 62
   256
  6
BYLAYER
  0
ENDSEC
  0
EOF
