  0
SECTION
  2
HEADER
  9
$ACADVER
  1
AC1027
  9
$DWGCODEPAGE
  3
ANSI_932
  9
$LTSCALE
 40
20.0
  9
$FILLMODE
 70
     1
  9
$CLAYER
  8
0
  9
$PDMODE
 70
     0
  9
$SPLFRAME
 70
     0
  9
$SPLINETYPE
 70
     6
  9
$SPLINESEGS
 70
     8
  9
$DIMASZ
 40
2.000000
  9
$DIMEXE
 40
1.500000
  9
$DIMEXO
 40
0.800000
  9
$DIMTAD
 70
     1
  9
$DIMTIH
 70
     0
  9
$DIMTOH
 70
     0
  9
$DIMTVP
 40
0.500000
  9
$DIMTXT
 40
3.100000
  9
$EXTMIN
 10
0.000000
 20
0.000000
 30
0.000000
  9
$EXTMAX
 10
297.000000
 20
420.000000
 30
0.000000
  9
$MEASUREMENT
 70
  1
  9
$LIMMIN
 10
0.000000
 20
0.000000
  9
$LIMMAX
 10
297.000000
 20
420.000000
  9
$HANDSEED
  5
11D
  9
$LWDISPLAY
290
     0
  9
$DIMBLK
  1
_OPEN
  9
$DIMDEC
 70
     2
  9
$DIMADEC
 70
     2
  9
$DIMAUNIT
 70
     0
  9
$DIMZIN
 70
     8
  9
$DIMAZIN
 70
     2
  9
$DIMTOFL
 70
     1
  0
ENDSEC
  0
SECTION
  2
CLASSES
  0
ENDSEC
  0
SECTION
  2
TABLES
  0
TABLE
  2
VPORT
  5
E3
100
AcDbSymbolTable
 70
     1
  0
VPORT
  5
E4
100
AcDbSymbolTableRecord
100
AcDbViewportTableRecord
  2
*ACTIVE
 70
     0
 12
133.749161
 22
207.002353
 40
382.996755
 41
0.646215
  0
ENDTAB
  0
TABLE
  2
LTYPE
  5
E5
100
AcDbSymbolTable
 70
     2
  0
LTYPE
  5
E6
100
AcDbSymbolTableRecord
100
AcDbLinetypeTableRecord
  2
BYBLOCK
 70
     0
  3

 72
    65
 73
     0
 40
0.0
  0
LTYPE
  5
E7
100
AcDbSymbolTableRecord
100
AcDbLinetypeTableRecord
  2
BYLAYER
 70
     0
  3

 72
    65
 73
     0
 40
0.0
  0
LTYPE
  5
E8
100
AcDbSymbolTableRecord
100
AcDbLinetypeTableRecord
  2
CONTINUOUS
 70
     0
  3
Solid line (NEC CAE2D for Win R17.0 : 2022.05.16)
 72
    65
 73
     0
 40
0.0
  0
LTYPE
  5
E9
100
AcDbSymbolTableRecord
100
AcDbLinetypeTableRecord
  2
CENTER
 70
     0
  3
____ _ ____ _ ____ _ ____ _ ____ _ ____
 72
    65
 73
     4
 40
2.0
 49
1.25
 74
     0
 49
-0.25
 74
     0
 49
0.25
 74
     0
 49
-0.25
 74
     0
  0
ENDTAB
  0
TABLE
  2
LAYER
  5
EA
100
AcDbSymbolTable
 70
    20
  0
LAYER
  5
EB
100
AcDbSymbolTableRecord
100
AcDbLayerTableRecord
  2
0
 70
     0
 62
     7
  6
CONTINUOUS
370
    -3
390

  0
LAYER
  5
EC
100
AcDbSymbolTableRecord
100
AcDbLayerTableRecord
  2
DXF0
 70
     0
 62
     7
  6
CONTINUOUS
370
    -3
390

  0
LAYER
  5
ED
100
AcDbSymbolTableRecord
100
AcDbLayerTableRecord
  2
DXF0
 70
     0
 62
     7
  6
CONTINUOUS
370
    -3
390

  0
LAYER
  5
EE
100
AcDbSymbolTableRecord
100
AcDbLayerTableRecord
  2
DXF0
 70
     0
 62
     7
  6
CONTINUOUS
370
    -3
390

  0
LAYER
  5
EF
100
AcDbSymbolTableRecord
100
AcDbLayerTableRecord
  2
A0
 70
     0
 62
     9
  6
CONTINUOUS
370
    -3
390

  0
LAYER
  5
F0
100
AcDbSymbolTableRecord
100
AcDbLayerTableRecord
  2
A2
 70
     0
 62
     9
  6
CONTINUOUS
370
    -3
390

  0
LAYER
  5
F1
100
AcDbSymbolTableRecord
100
AcDbLayerTableRecord
  2
A4
 70
     0
 62
     9
  6
CONTINUOUS
370
    -3
390

  0
LAYER
  5
F2
100
AcDbSymbolTableRecord
100
AcDbLayerTableRecord
  2
A5
 70
     0
 62
     8
  6
CONTINUOUS
370
    -3
390

  0
LAYER
  5
F3
100
AcDbSymbolTableRecord
100
AcDbLayerTableRecord
  2
A6
 70
     0
 62
    12
  6
CONTINUOUS
370
    -3
390

  0
LAYER
  5
F4
100
AcDbSymbolTableRecord
100
AcDbLayerTableRecord
  2
A8
 70
     0
 62
    10
  6
CONTINUOUS
370
    -3
390

  0
LAYER
  5
F5
100
AcDbSymbolTableRecord
100
AcDbLayerTableRecord
  2
A9
 70
     0
 62
     9
  6
CONTINUOUS
370
    -3
390

  0
LAYER
  5
F6
100
AcDbSymbolTableRecord
100
AcDbLayerTableRecord
  2
A10
 70
     0
 62
     6
  6
CONTINUOUS
370
    -3
390

  0
LAYER
  5
F7
100
AcDbSymbolTableRecord
100
AcDbLayerTableRecord
  2
A20
 70
     0
 62
     1
  6
CONTINUOUS
370
    -3
390

  0
LAYER
  5
F8
100
AcDbSymbolTableRecord
100
AcDbLayerTableRecord
  2
A30
 70
     0
 62
     1
  6
CONTINUOUS
370
    -3
390

  0
LAYER
  5
F9
100
AcDbSymbolTableRecord
100
AcDbLayerTableRecord
  2
A40
 70
     0
 62
     9
  6
CONTINUOUS
370
    -3
390

  0
LAYER
  5
FA
100
AcDbSymbolTableRecord
100
AcDbLayerTableRecord
  2
A50
 70
     0
 62
    12
  6
CONTINUOUS
370
    -3
390

  0
LAYER
  5
FB
100
AcDbSymbolTableRecord
100
AcDbLayerTableRecord
  2
A1023
 70
     0
 62
     8
  6
CONTINUOUS
370
    -3
390

  0
LAYER
  5
FC
100
AcDbSymbolTableRecord
100
AcDbLayerTableRecord
  2
DXF1023
 70
     0
 62
     8
  6
CONTINUOUS
370
    -3
390

  0
LAYER
  5
FD
100
AcDbSymbolTableRecord
100
AcDbLayerTableRecord
  2
DXF1023
 70
     0
 62
     8
  6
CONTINUOUS
370
    -3
390

  0
LAYER
  5
FE
100
AcDbSymbolTableRecord
100
AcDbLayerTableRecord
  2
DXF1023
 70
     0
 62
    16
  6
CONTINUOUS
370
    -3
390

  0
ENDTAB
  0
TABLE
  2
STYLE
  5
FF
100
AcDbSymbolTable
 70
     4
  0
STYLE
  5
100
100
AcDbSymbolTableRecord
100
AcDbTextStyleTableRecord
  2
STANDARD
 70
    64
 40
0.0
 41
1.0
 50
0.0
 71
     0
 42
3.000000000000000
  3
TXT
  4

  0
STYLE
  5
101
100
AcDbSymbolTableRecord
100
AcDbTextStyleTableRecord
  2
ANKTATE
 70
    68
 40
0.0
 41
1.0
 50
0.0
 71
     0
 42
3.000000000000000
  3
TXT
  4

  0
STYLE
  5
102
100
AcDbSymbolTableRecord
100
AcDbTextStyleTableRecord
  2
KNJYOKO
 70
    64
 40
0.0
 41
1.0
 50
0.0
 71
     0
 42
3.000000000000000
  3
TXT
  4
BIGFONT
  0
STYLE
  5
103
100
AcDbSymbolTableRecord
100
AcDbTextStyleTableRecord
  2
KNJTATE
 70
    68
 40
0.0
 41
1.0
 50
0.0
 71
     0
 42
3.000000000000000
  3
TXT
  4
BIGFONT
  0
ENDTAB
  0
TABLE
  2
VIEW
  5
104
100
AcDbSymbolTable
 70
     0
  0
ENDTAB
  0
TABLE
  2
UCS
  5
105
100
AcDbSymbolTable
 70
     0
  0
ENDTAB
  0
TABLE
  2
APPID
  5
106
100
AcDbSymbolTable
 70
     1
  0
APPID
  5
107
100
AcDbSymbolTableRecord
100
AcDbRegAppTableRecord
  2
ACAD
 70
     0
  0
ENDTAB
  0
TABLE
  2
DIMSTYLE
  5
108
100
AcDbSymbolTable
 70
     1
100
AcDbDimStyleTable
  0
DIMSTYLE
105
109
100
AcDbSymbolTableRecord
100
AcDbDimStyleTableRecord
  2
STANDARD
 70
     0
 41
2.000000
 44
1.500000
 42
0.800000
145
0.661290
140
3.100000
144
1.000000
146
0.645161
340
100
  0
DIMSTYLE
105
10A
100
AcDbSymbolTableRecord
100
AcDbDimStyleTableRecord
  2
DXF001
 70
     0
 41
2.000000
 44
1.500000
 42
0.800000
145
0.661290
140
3.100000
144
1.000000
146
0.645161
 77
     1
 73
     0
 74
     0
271
     2
179
     2
275
     0
 78
     8
 79
     2
172
     1
340
100
  0
ENDTAB
  0
TABLE
  2
BLOCK_RECORD
  5
10B
100
AcDbSymbolTable
 70
    12
  0
BLOCK_RECORD
  5
10C
100
AcDbSymbolTableRecord
100
AcDbBlockTableRecord
  2
*MODEL_SPACE
  0
BLOCK_RECORD
  5
10D
100
AcDbSymbolTableRecord
100
AcDbBlockTableRecord
  2
*PAPER_SPACE
  0
BLOCK_RECORD
  5
10E
100
AcDbSymbolTableRecord
100
AcDbBlockTableRecord
  2
*PAPER_SPACE0
  0
BLOCK_RECORD
  5
1
100
AcDbSymbolTableRecord
100
AcDbBlockTableRecord
  2
_NONE
  0
BLOCK_RECORD
  5
4
100
AcDbSymbolTableRecord
100
AcDbBlockTableRecord
  2
_CLOSED
  0
BLOCK_RECORD
  5
B
100
AcDbSymbolTableRecord
100
AcDbBlockTableRecord
  2
_DOT
  0
BLOCK_RECORD
  5
13
100
AcDbSymbolTableRecord
100
AcDbBlockTableRecord
  2
_OPEN
  0
BLOCK_RECORD
  5
19
100
AcDbSymbolTableRecord
100
AcDbBlockTableRecord
  2
_ORIGIN
  0
BLOCK_RECORD
  5
1E
100
AcDbSymbolTableRecord
100
AcDbBlockTableRecord
  2
_OPEN30
  0
BLOCK_RECORD
  5
24
100
AcDbSymbolTableRecord
100
AcDbBlockTableRecord
  2
_BOXFILLED
  0
BLOCK_RECORD
  5
29
100
AcDbSymbolTableRecord
100
AcDbBlockTableRecord
  2
_BOXBLANK
  0
BLOCK_RECORD
  5
31
100
AcDbSymbolTableRecord
100
AcDbBlockTableRecord
  2
_OBLIQUE
  0
BLOCK_RECORD
  5
35
100
AcDbSymbolTableRecord
100
AcDbBlockTableRecord
  2
_OPEN90
  0
BLOCK_RECORD
  5
3B
100
AcDbSymbolTableRecord
100
AcDbBlockTableRecord
  2
_CLOSEDBLANK
  0
BLOCK_RECORD
  5
41
100
AcDbSymbolTableRecord
100
AcDbBlockTableRecord
  2
_DOTBLANK
  0
ENDTAB
  0
ENDSEC
  0
SECTION
  2
BLOCKS
  0
BLOCK
  5
10F
100
AcDbEntity
  8
0
100
AcDbBlockBegin
  2
*MODEL_SPACE
 70
     0
 10
0.0
 20
0.0
 30
0.0
  3
*MODEL_SPACE
  1

  0
ENDBLK
  5
110
100
AcDbEntity
  8
0
100
AcDbBlockEnd
  0
BLOCK
  5
111
100
AcDbEntity
  8
0
100
AcDbBlockBegin
  2
*PAPER_SPACE
 70
     0
 10
0.0
 20
0.0
 30
0.0
  3
*PAPER_SPACE
  1

  0
ENDBLK
  5
112
100
AcDbEntity
  8
0
100
AcDbBlockEnd
  0
BLOCK
  5
113
100
AcDbEntity
  8
0
100
AcDbBlockBegin
  2
*PAPER_SPACE0
 70
     0
 10
0.0
 20
0.0
 30
0.0
  3
*PAPER_SPACE0
  1

  0
ENDBLK
  5
114
100
AcDbEntity
  8
0
100
AcDbBlockEnd
  0
BLOCK
  5
2
330
1
100
AcDbEntity
  8
0
100
AcDbBlockBegin
  2
_NONE
 70
     0
 10
0.0
 20
0.0
 30
0.0
  3
_NONE
  1

  0
ENDBLK
  5
3
330
1
100
AcDbEntity
  8
0
100
AcDbBlockEnd
  0
BLOCK
  5
5
330
4
100
AcDbEntity
  8
0
100
AcDbBlockBegin
  2
_CLOSED
 70
     0
 10
0.0
 20
0.0
 30
0.0
  3
_CLOSED
  1

  0
LINE
  5
6
330
4
100
AcDbEntity
  8
0
  6
BYBLOCK
 62
     0
370
    -2
100
AcDbLine
 10
-1.0
 20
0.166667
 30
0.0
 11
0.0
 21
0.0
 31
0.0
  0
LINE
  5
7
330
4
100
AcDbEntity
  8
0
  6
BYBLOCK
 62
     0
370
    -2
100
AcDbLine
 10
0.0
 20
0.0
 30
0.0
 11
-1.0
 21
-0.166667
 31
0.0
  0
LINE
  5
8
330
4
100
AcDbEntity
  8
0
  6
BYBLOCK
 62
     0
370
    -2
100
AcDbLine
 10
-1.0
 20
0.166667
 30
0.0
 11
-1.0
 21
-0.166667
 31
0.0
  0
LINE
  5
9
330
4
100
AcDbEntity
  8
0
  6
BYBLOCK
 62
     0
370
    -2
100
AcDbLine
 10
0.0
 20
0.0
 30
0.0
 11
-1.0
 21
0.0
 31
0.0
  0
ENDBLK
  5
A
330
4
100
AcDbEntity
  8
0
100
AcDbBlockEnd
  0
BLOCK
  5
C
330
B
100
AcDbEntity
  8
0
100
AcDbBlockBegin
  2
_DOT
 70
     0
 10
0.0
 20
0.0
 30
0.0
  3
_DOT
  1

  0
POLYLINE
  5
D
330
B
100
AcDbEntity
  8
0
  6
BYBLOCK
 62
     0
370
    -2
100
AcDb2dPolyline
 66
     1
 10
0.0
 20
0.0
 30
0.0
 70
     1
 40
0.5
 41
0.5
  0
VERTEX
  5
E
330
B
100
AcDbEntity
  8
0
  6
BYBLOCK
 62
     0
370
    -2
100
AcDbVertex
100
AcDb2dVertex
 10
-0.25
 20
0.0
 30
0.0
 42
1.0
  0
VERTEX
  5
F
330
B
100
AcDbEntity
  8
0
  6
BYBLOCK
 62
     0
370
    -2
100
AcDbVertex
100
AcDb2dVertex
 10
0.25
 20
0.0
 30
0.0
 42
1.0
  0
SEQEND
  5
10
330
B
100
AcDbEntity
  8
0
  6
BYBLOCK
 62
     0
370
    -2
  0
LINE
  5
11
330
B
100
AcDbEntity
  8
0
  6
BYBLOCK
 62
     0
370
    -2
100
AcDbLine
 10
-0.5
 20
0.0
 30
0.0
 11
-1.0
 21
0.0
 31
0.0
  0
ENDBLK
  5
12
330
B
100
AcDbEntity
  8
0
100
AcDbBlockEnd
  0
BLOCK
  5
14
330
13
100
AcDbEntity
  8
0
100
AcDbBlockBegin
  2
_OPEN
 70
     0
 10
0.0
 20
0.0
 30
0.0
  3
_OPEN
  1

  0
LINE
  5
15
330
13
100
AcDbEntity
  8
0
  6
BYBLOCK
 62
     0
370
    -2
100
AcDbLine
 10
-1.0
 20
0.166667
 30
0.0
 11
0.0
 21
0.0
 31
0.0
  0
LINE
  5
16
330
13
100
AcDbEntity
  8
0
  6
BYBLOCK
 62
     0
370
    -2
100
AcDbLine
 10
0.0
 20
0.0
 30
0.0
 11
-1.0
 21
-0.166667
 31
0.0
  0
LINE
  5
17
330
13
100
AcDbEntity
  8
0
  6
BYBLOCK
 62
     0
370
    -2
100
AcDbLine
 10
0.0
 20
0.0
 30
0.0
 11
-1.0
 21
0.0
 31
0.0
  0
ENDBLK
  5
18
330
13
100
AcDbEntity
  8
0
100
AcDbBlockEnd
  0
BLOCK
  5
1A
330
19
100
AcDbEntity
  8
0
100
AcDbBlockBegin
  2
_ORIGIN
 70
     0
 10
0.0
 20
0.0
 30
0.0
  3
_ORIGIN
  1

  0
CIRCLE
  5
1B
330
19
100
AcDbEntity
  8
0
  6
BYBLOCK
 62
     0
370
    -2
100
AcDbCircle
 10
0.0
 20
0.0
 30
0.0
 40
0.5
  0
LINE
  5
1C
330
19
100
AcDbEntity
  8
0
  6
BYBLOCK
 62
     0
370
    -2
100
AcDbLine
 10
0.0
 20
0.0
 30
0.0
 11
-1.0
 21
0.0
 31
0.0
  0
ENDBLK
  5
1D
330
19
100
AcDbEntity
  8
0
100
AcDbBlockEnd
  0
BLOCK
  5
1F
330
1E
100
AcDbEntity
  8
0
100
AcDbBlockBegin
  2
_OPEN30
 70
     0
 10
0.0
 20
0.0
 30
0.0
  3
_OPEN30
  1

  0
LINE
  5
20
330
1E
100
AcDbEntity
  8
0
  6
BYBLOCK
 62
     0
370
    -2
100
AcDbLine
 10
-1.0
 20
0.267949
 30
0.0
 11
0.0
 21
0.0
 31
0.0
  0
LINE
  5
21
330
1E
100
AcDbEntity
  8
0
  6
BYBLOCK
 62
     0
370
    -2
100
AcDbLine
 10
0.0
 20
0.0
 30
0.0
 11
-1.0
 21
-0.267949
 31
0.0
  0
LINE
  5
22
330
1E
100
AcDbEntity
  8
0
  6
BYBLOCK
 62
     0
370
    -2
100
AcDbLine
 10
0.0
 20
0.0
 30
0.0
 11
-1.0
 21
0.0
 31
0.0
  0
ENDBLK
  5
23
330
1E
100
AcDbEntity
  8
0
100
AcDbBlockEnd
  0
BLOCK
  5
25
330
24
100
AcDbEntity
  8
0
100
AcDbBlockBegin
  2
_BOXFILLED
 70
     0
 10
0.0
 20
0.0
 30
0.0
  3
_BOXFILLED
  1

  0
SOLID
  5
26
330
24
100
AcDbEntity
  8
0
  6
BYBLOCK
 62
     0
370
    -2
100
AcDbTrace
 10
-0.5
 20
0.5
 30
0.0
 11
0.5
 21
0.5
 31
0.0
 12
-0.5
 22
-0.5
 32
0.0
 13
0.5
 23
-0.5
 33
0.0
  0
LINE
  5
27
330
24
100
AcDbEntity
  8
0
  6
BYBLOCK
 62
     0
370
    -2
100
AcDbLine
 10
-0.5
 20
0.0
 30
0.0
 11
-1.0
 21
0.0
 31
0.0
  0
ENDBLK
  5
28
330
24
100
AcDbEntity
  8
0
100
AcDbBlockEnd
  0
BLOCK
  5
2A
330
29
100
AcDbEntity
  8
0
100
AcDbBlockBegin
  2
_BOXBLANK
 70
     0
 10
0.0
 20
0.0
 30
0.0
  3
_BOXBLANK
  1

  0
LINE
  5
2B
330
29
100
AcDbEntity
  8
0
  6
BYBLOCK
 62
     0
370
    -2
100
AcDbLine
 10
-0.5
 20
-0.5
 30
0.0
 11
0.5
 21
-0.5
 31
0.0
  0
LINE
  5
2C
330
29
100
AcDbEntity
  8
0
  6
BYBLOCK
 62
     0
370
    -2
100
AcDbLine
 10
0.5
 20
-0.5
 30
0.0
 11
0.5
 21
0.5
 31
0.0
  0
LINE
  5
2D
330
29
100
AcDbEntity
  8
0
  6
BYBLOCK
 62
     0
370
    -2
100
AcDbLine
 10
0.5
 20
0.5
 30
0.0
 11
-0.5
 21
0.5
 31
0.0
  0
LINE
  5
2E
330
29
100
AcDbEntity
  8
0
  6
BYBLOCK
 62
     0
370
    -2
100
AcDbLine
 10
-0.5
 20
0.5
 30
0.0
 11
-0.5
 21
-0.5
 31
0.0
  0
LINE
  5
2F
330
29
100
AcDbEntity
  8
0
  6
BYBLOCK
 62
     0
370
    -2
100
AcDbLine
 10
-0.5
 20
0.0
 30
0.0
 11
-1.0
 21
0.0
 31
0.0
  0
ENDBLK
  5
30
330
29
100
AcDbEntity
  8
0
100
AcDbBlockEnd
  0
BLOCK
  5
32
330
31
100
AcDbEntity
  8
0
100
AcDbBlockBegin
  2
_OBLIQUE
 70
     0
 10
0.0
 20
0.0
 30
0.0
  3
_OBLIQUE
  1

  0
LINE
  5
33
330
31
100
AcDbEntity
  8
0
  6
BYBLOCK
 62
     0
370
    -2
100
AcDbLine
 10
-0.5
 20
-0.5
 30
0.0
 11
0.5
 21
0.5
 31
0.0
  0
ENDBLK
  5
34
330
31
100
AcDbEntity
  8
0
100
AcDbBlockEnd
  0
BLOCK
  5
36
330
35
100
AcDbEntity
  8
0
100
AcDbBlockBegin
  2
_OPEN90
 70
     0
 10
0.0
 20
0.0
 30
0.0
  3
_OPEN90
  1

  0
LINE
  5
37
330
35
100
AcDbEntity
  8
0
  6
BYBLOCK
 62
     0
370
    -2
100
AcDbLine
 10
-0.5
 20
0.5
 30
0.0
 11
0.0
 21
0.0
 31
0.0
  0
LINE
  5
38
330
35
100
AcDbEntity
  8
0
  6
BYBLOCK
 62
     0
370
    -2
100
AcDbLine
 10
0.0
 20
0.0
 30
0.0
 11
-0.5
 21
-0.5
 31
0.0
  0
LINE
  5
39
330
35
100
AcDbEntity
  8
0
  6
BYBLOCK
 62
     0
370
    -2
100
AcDbLine
 10
0.0
 20
0.0
 30
0.0
 11
-1.0
 21
0.0
 31
0.0
  0
ENDBLK
  5
3A
330
35
100
AcDbEntity
  8
0
100
AcDbBlockEnd
  0
BLOCK
  5
3C
330
3B
100
AcDbEntity
  8
0
100
AcDbBlockBegin
  2
_CLOSEDBLANK
 70
     0
 10
0.0
 20
0.0
 30
0.0
  3
_CLOSEDBLANK
  1

  0
LINE
  5
3D
330
3B
100
AcDbEntity
  8
0
  6
BYBLOCK
 62
     0
370
    -2
100
AcDbLine
 10
-1.0
 20
0.1666666666666666
 30
0.0
 11
0.0
 21
0.0
 31
0.0
  0
LINE
  5
3E
330
3B
100
AcDbEntity
  8
0
  6
BYBLOCK
 62
     0
370
    -2
100
AcDbLine
 10
0.0
 20
0.0
 30
0.0
 11
-1.0
 21
-0.1666666666666666
 31
0.0
  0
LINE
  5
3F
330
3B
100
AcDbEntity
  8
0
  6
BYBLOCK
 62
     0
370
    -2
100
AcDbLine
 10
-1.0
 20
0.1666666666666666
 30
0.0
 11
-1.0
 21
-0.1666666666666666
 31
0.0
  0
ENDBLK
  5
40
330
3B
100
AcDbEntity
  8
0
100
AcDbBlockEnd
  0
BLOCK
  5
42
330
41
100
AcDbEntity
  8
0
100
AcDbBlockBegin
  2
_DOTBLANK
 70
     0
 10
0.0
 20
0.0
 30
0.0
  3
_DOTBLANK
  1

  0
CIRCLE
  5
43
330
41
100
AcDbEntity
  8
0
  6
BYBLOCK
 62
     0
370
    -2
100
AcDbCircle
 10
0.0
 20
0.0
 30
0.0
 40
0.5
  0
LINE
  5
44
330
41
100
AcDbEntity
  8
0
  6
BYBLOCK
 62
     0
370
    -2
100
AcDbLine
 10
-0.5
 20
0.0
 30
0.0
 11
-1.0
 21
0.0
 31
0.0
  0
ENDBLK
  5
45
330
41
100
AcDbEntity
  8
0
100
AcDbBlockEnd
  0
ENDSEC
  0
SECTION
  2
ENTITIES
  0
MTEXT
  5
46
100
AcDbEntity
  8
A8
  6
CONTINUOUS
 62
3
100
AcDbMText
 10
9.999997526638502
 20
18.00000076076889
 30
0.000000000000000
 40
3.000000000000000
 41
0.000000000000000
 44
0.6739999771118164
 71
     7
 72
     1
  1
{\H0.94x;{TYPE No.TM-372S-4\P}
 11
1.000000000000000
 21
0.000000000000000
 31
0.000000000000000
  7
STANDARD
  0
POINT
  5
47
100
AcDbEntity
  8
A0
  6
CONTINUOUS
 62
3
100
AcDbPoint
 10
9.999997526638502
 20
18.00000076076889
 30
0.000000000000000
  0
LINE
  5
48
100
AcDbEntity
  8
A5
  6
CONTINUOUS
 62
7
100
AcDbLine
 10
157.4983240957484
 20
108.0007304607970
 30
0.000000000000000
 11
157.4983240957429
 21
105.5007304607970
 31
0.000000000000000
  0
LINE
  5
49
100
AcDbEntity
  8
A4
  6
CONTINUOUS
 62
7
100
AcDbLine
 10
102.4983240957430
 20
105.5007304609184
 30
0.000000000000000
 11
157.4983240957429
 21
105.5007304607970
 31
0.000000000000000
  0
LINE
  5
4A
100
AcDbEntity
  8
A5
  6
CONTINUOUS
 62
7
100
AcDbLine
 10
102.4983240957485
 20
108.0007304609184
 30
0.000000000000000
 11
102.4983240957430
 21
105.5007304609184
 31
0.000000000000000
  0
LINE
  5
4B
100
AcDbEntity
  8
A9
  6
CONTINUOUS
 62
7
100
AcDbLine
 10
135.4831518896310
 20
121.5486836363607
 30
0.000000000000000
 11
135.4831523531238
 21
128.5007297780156
 31
0.000000000000000
  0
ARC
  5
4C
100
AcDbEntity
  8
A9
  6
CONTINUOUS
 62
7
100
AcDbCircle
 10
129.9983252543355
 20
135.3780716633293
 30
0.000000000000000
 40
14.87734171213799
100
AcDbArc
 50
269.9999961800914
 51
291.6336039474465
  0
ARC
  5
4D
100
AcDbEntity
  8
A9
  6
CONTINUOUS
 62
7
100
AcDbCircle
 10
138.2255658725832
 20
124.6130475997832
 30
0.000000000000000
 40
4.112318197101935
100
AcDbArc
 50
228.1734480905756
 51
269.9999961806658
  0
LINE
  5
4E
100
AcDbEntity
  8
A9
  6
CONTINUOUS
 62
7
100
AcDbLine
 10
140.9679794528822
 20
121.6379101304715
 30
0.000000000000000
 11
140.9679799104264
 21
128.5007295951730
 31
0.000000000000000
  0
LINE
  5
4F
100
AcDbEntity
  8
A9
  6
CONTINUOUS
 62
7
100
AcDbLine
 10
140.9679794528824
 20
121.6379101304715
 30
0.000000000000000
 11
138.9983242624635
 21
120.5007293511617
 31
0.000000000000000
  0
LINE
  5
50
100
AcDbEntity
  8
A9
  6
CONTINUOUS
 62
7
100
AcDbLine
 10
124.5134963019256
 20
121.5486836363849
 30
0.000000000000000
 11
124.5134958384635
 21
128.5007301437010
 31
0.000000000000000
  0
ARC
  5
51
100
AcDbEntity
  8
A9
  6
CONTINUOUS
 62
7
100
AcDbCircle
 10
129.9983229372823
 20
135.3780716633293
 30
0.000000000000000
 40
14.87734171213799
100
AcDbArc
 50
248.3663960523003
 51
270.0000038196554
  0
ARC
  5
52
100
AcDbEntity
  8
A9
  6
CONTINUOUS
 62
7
100
AcDbCircle
 10
121.7710823189870
 20
124.6130475998196
 30
0.000000000000000
 40
4.112318197101935
100
AcDbArc
 50
270.0000038190810
 51
311.8265519091713
  0
LINE
  5
53
100
AcDbEntity
  8
A9
  6
CONTINUOUS
 62
7
100
AcDbLine
 10
119.0286687386748
 20
121.6379101305200
 30
0.000000000000000
 11
119.0286682811610
 21
128.5007303265438
 31
0.000000000000000
  0
LINE
  5
54
100
AcDbEntity
  8
A9
  6
CONTINUOUS
 62
7
100
AcDbLine
 10
119.0286687386748
 20
121.6379101305199
 30
0.000000000000000
 11
120.9983239290886
 21
120.5007293512014
 31
0.000000000000000
  0
LINE
  5
55
100
AcDbEntity
  8
A9
  6
CONTINUOUS
 62
7
100
AcDbLine
 10
140.9679799104264
 20
128.5007295951731
 30
0.000000000000000
 11
119.0286682811610
 21
128.5007303265438
 31
0.000000000000000
  0
LINE
  5
56
100
AcDbEntity
  8
A9
  6
CONTINUOUS
 62
7
100
AcDbLine
 10
123.9983240960546
 20
276.5007303265395
 30
0.000000000000000
 11
135.9983240960546
 21
276.5007303265129
 31
0.000000000000000
  0
LINE
  5
57
100
AcDbEntity
  8
A9
  6
CONTINUOUS
 62
7
100
AcDbLine
 10
125.9983240960588
 20
278.5007303265286
 30
0.000000000000000
 11
133.9983240960587
 21
278.5007303265107
 31
0.000000000000000
  0
LINE
  5
58
100
AcDbEntity
  8
A9
  6
CONTINUOUS
 62
7
100
AcDbLine
 10
135.4831518897728
 20
304.5515523039351
 30
0.000000000000000
 11
135.4831524866055
 21
313.5035984455903
 31
0.000000000000000
  0
ARC
  5
59
100
AcDbEntity
  8
A9
  6
CONTINUOUS
 62
7
100
AcDbCircle
 10
129.9983252544773
 20
318.3809403309036
 30
0.000000000000000
 40
14.87734171213799
100
AcDbArc
 50
269.9999961800914
 51
291.6336039474465
  0
ARC
  5
5A
100
AcDbEntity
  8
A9
  6
CONTINUOUS
 62
7
100
AcDbCircle
 10
138.2255658727250
 20
307.6159162673575
 30
0.000000000000000
 40
4.112318197101935
100
AcDbArc
 50
228.1734480905756
 51
269.9999961806658
  0
LINE
  5
5B
100
AcDbEntity
  8
A9
  6
CONTINUOUS
 62
7
100
AcDbLine
 10
140.9679794530240
 20
304.6407787980455
 30
0.000000000000000
 11
140.9679800439080
 21
313.5035982627473
 31
0.000000000000000
  0
LINE
  5
5C
100
AcDbEntity
  8
A9
  6
CONTINUOUS
 62
7
100
AcDbLine
 10
140.9679794530242
 20
304.6407787980459
 30
0.000000000000000
 11
138.9983242626054
 21
303.5035980187358
 31
0.000000000000000
  0
LINE
  5
5D
100
AcDbEntity
  8
A9
  6
CONTINUOUS
 62
7
100
AcDbLine
 10
124.5134963020675
 20
304.5515523039592
 30
0.000000000000000
 11
124.5134957052742
 21
313.5035988112755
 31
0.000000000000000
  0
ARC
  5
5E
100
AcDbEntity
  8
A9
  6
CONTINUOUS
 62
7
100
AcDbCircle
 10
129.9983229374241
 20
318.3809403309036
 30
0.000000000000000
 40
14.87734171213799
100
AcDbArc
 50
248.3663960523003
 51
270.0000038196554
  0
ARC
  5
5F
100
AcDbEntity
  8
A9
  6
CONTINUOUS
 62
7
100
AcDbCircle
 10
121.7710823191288
 20
307.6159162673939
 30
0.000000000000000
 40
4.112318197101935
100
AcDbArc
 50
270.0000038190810
 51
311.8265519091713
  0
LINE
  5
60
100
AcDbEntity
  8
A9
  6
CONTINUOUS
 62
7
100
AcDbLine
 10
119.0286687388166
 20
304.6407787980943
 30
0.000000000000000
 11
119.0286681479717
 21
313.5035989941182
 31
0.000000000000000
  0
LINE
  5
61
100
AcDbEntity
  8
A9
  6
CONTINUOUS
 62
7
100
AcDbLine
 10
119.0286687388166
 20
304.6407787980942
 30
0.000000000000000
 11
120.9983239292304
 21
303.5035980187757
 31
0.000000000000000
  0
LINE
  5
62
100
AcDbEntity
  8
A9
  6
CONTINUOUS
 62
7
100
AcDbLine
 10
140.9679799105727
 20
313.5035982627477
 30
0.000000000000000
 11
119.0286682813072
 21
313.5035989941185
 31
0.000000000000000
  0
LINE
  5
63
100
AcDbEntity
  8
A9
  6
CONTINUOUS
 62
7
100
AcDbLine
 10
140.0006202216139
 20
120.5007296177539
 30
0.000000000000000
 11
119.9960287700184
 21
120.5007302846288
 31
0.000000000000000
  0
CIRCLE
  5
64
100
AcDbEntity
  8
A9
  6
CONTINUOUS
 62
7
100
AcDbCircle
 10
129.9983240959816
 20
366.0007304608577
 30
0.000000000000000
 40
27.50000000000000
  0
CIRCLE
  5
65
100
AcDbEntity
  8
A9
  6
CONTINUOUS
 62
7
100
AcDbCircle
 10
129.9983240959816
 20
366.0007304608577
 30
0.000000000000000
 40
6.000000000000000
  0
ARC
  5
66
100
AcDbEntity
  8
A9
  6
CONTINUOUS
 62
7
100
AcDbCircle
 10
129.9983240959816
 20
366.0007304608577
 30
0.000000000000000
 40
20.54543342317204
100
AcDbArc
 50
2.789837770388786
 51
87.21016222961121
  0
ARC
  5
67
100
AcDbEntity
  8
A9
  6
CONTINUOUS
 62
7
100
AcDbCircle
 10
129.9983240959816
 20
366.0007304608577
 30
0.000000000000000
 40
20.54543342317204
100
AcDbArc
 50
92.78983777038879
 51
177.2101622296112
  0
ARC
  5
68
100
AcDbEntity
  8
A9
  6
CONTINUOUS
 62
7
100
AcDbCircle
 10
129.9983240959816
 20
366.0007304608577
 30
0.000000000000000
 40
20.54543342317204
100
AcDbArc
 50
272.7898377703888
 51
357.2101622296112
  0
ARC
  5
69
100
AcDbEntity
  8
A9
  6
CONTINUOUS
 62
7
100
AcDbCircle
 10
129.9983240959816
 20
366.0007304608577
 30
0.000000000000000
 40
20.54543342317204
100
AcDbArc
 50
182.7898377703888
 51
267.2101622296113
  0
LINE
  5
6A
100
AcDbEntity
  8
A5
  6
CONTINUOUS
 62
7
100
AcDbLine
 10
124.5134965386799
 20
375.5007304608575
 30
0.000000000000000
 11
135.4831516532826
 21
375.5007304608579
 31
0.000000000000000
  0
LINE
  5
6B
100
AcDbEntity
  8
A5
  6
CONTINUOUS
 62
7
100
AcDbLine
 10
119.0286689813787
 20
366.0007304608578
 30
0.000000000000000
 11
124.5134965386800
 21
375.5007304608574
 31
0.000000000000000
  0
LINE
  5
6C
100
AcDbEntity
  8
A5
  6
CONTINUOUS
 62
7
100
AcDbLine
 10
124.5134965386811
 20
356.5007304608575
 30
0.000000000000000
 11
119.0286689813787
 21
366.0007304608582
 31
0.000000000000000
  0
LINE
  5
6D
100
AcDbEntity
  8
A5
  6
CONTINUOUS
 62
7
100
AcDbLine
 10
135.4831516532837
 20
356.5007304608581
 30
0.000000000000000
 11
124.5134965386810
 21
356.5007304608570
 31
0.000000000000000
  0
LINE
  5
6E
100
AcDbEntity
  8
A5
  6
CONTINUOUS
 62
7
100
AcDbLine
 10
140.9679792105843
 20
366.0007304608579
 30
0.000000000000000
 11
135.4831516532838
 21
356.5007304608582
 31
0.000000000000000
  0
LINE
  5
6F
100
AcDbEntity
  8
A5
  6
CONTINUOUS
 62
7
100
AcDbLine
 10
135.4831516532826
 20
375.5007304608578
 30
0.000000000000000
 11
140.9679792105843
 21
366.0007304608577
 31
0.000000000000000
  0
LINE
  5
70
100
AcDbEntity
  8
A9
  6
CONTINUOUS
 62
7
100
AcDbLine
 10
125.2483240957672
 20
129.0007301358722
 30
0.000000000000000
 11
125.2483240957711
 21
132.5007301192047
 31
0.000000000000000
  0
ARC
  5
71
100
AcDbEntity
  8
A9
  6
CONTINUOUS
 62
7
100
AcDbCircle
 10
124.7483240957672
 20
129.0007301358727
 30
0.000000000000000
 40
0.5000000000000000
100
AcDbArc
 50
270.0000000000000
 51
360.0000000000000
  0
LINE
  5
72
100
AcDbEntity
  8
A9
  6
CONTINUOUS
 62
7
100
AcDbLine
 10
134.9983240958026
 20
132.5007297941778
 30
0.000000000000000
 11
124.9983240958022
 21
132.5007301275387
 31
0.000000000000000
  0
LINE
  5
73
100
AcDbEntity
  8
A9
  6
CONTINUOUS
 62
7
100
AcDbLine
 10
135.9983240958048
 20
133.5007297608417
 30
0.000000000000000
 11
123.9983240958043
 21
133.5007297608417
 31
0.000000000000000
  0
LINE
  5
74
100
AcDbEntity
  8
A9
  6
CONTINUOUS
 62
7
100
AcDbLine
 10
135.9983240958047
 20
133.5007297608416
 30
0.000000000000000
 11
134.9983240958024
 21
132.5007297941777
 31
0.000000000000000
  0
LINE
  5
75
100
AcDbEntity
  8
A9
  6
CONTINUOUS
 62
7
100
AcDbLine
 10
134.7483240957672
 20
129.0007297858443
 30
0.000000000000000
 11
134.7483240957711
 21
132.5007298025118
 31
0.000000000000000
  0
ARC
  5
76
100
AcDbEntity
  8
A9
  6
CONTINUOUS
 62
7
100
AcDbCircle
 10
135.2483240957672
 20
129.0007297858438
 30
0.000000000000000
 40
0.5000000000000000
100
AcDbArc
 50
180.0000000000000
 51
270.0000000000000
  0
LINE
  5
77
100
AcDbEntity
  8
A9
  6
CONTINUOUS
 62
7
100
AcDbLine
 10
124.9983240958021
 20
132.5007301275387
 30
0.000000000000000
 11
123.9983240958044
 21
133.5007301608747
 31
0.000000000000000
  0
CIRCLE
  5
78
100
AcDbEntity
  8
A9
  6
CONTINUOUS
 62
7
100
AcDbCircle
 10
129.9983240956818
 20
48.00397553777822
 30
0.000000000000000
 40
27.50000000000000
  0
LINE
  5
79
100
AcDbEntity
  8
A5
  6
CONTINUOUS
 62
7
100
AcDbLine
 10
124.5134965383801
 20
57.50397553777801
 30
0.000000000000000
 11
135.4831516529828
 21
57.50397553777839
 31
0.000000000000000
  0
LINE
  5
7A
100
AcDbEntity
  8
A5
  6
CONTINUOUS
 62
7
100
AcDbLine
 10
119.0286689810789
 20
48.00397553777816
 30
0.000000000000000
 11
124.5134965383802
 21
57.50397553777800
 31
0.000000000000000
  0
LINE
  5
7B
100
AcDbEntity
  8
A5
  6
CONTINUOUS
 62
7
100
AcDbLine
 10
124.5134965383811
 20
38.50397553777759
 30
0.000000000000000
 11
119.0286689810788
 21
48.00397553777822
 31
0.000000000000000
  0
LINE
  5
7C
100
AcDbEntity
  8
A5
  6
CONTINUOUS
 62
7
100
AcDbLine
 10
135.4831516529839
 20
38.50397553777860
 30
0.000000000000000
 11
124.5134965383812
 21
38.50397553777761
 31
0.000000000000000
  0
LINE
  5
7D
100
AcDbEntity
  8
A5
  6
CONTINUOUS
 62
7
100
AcDbLine
 10
140.9679792102846
 20
48.00397553777816
 30
0.000000000000000
 11
135.4831516529840
 21
38.50397553777856
 31
0.000000000000000
  0
LINE
  5
7E
100
AcDbEntity
  8
A5
  6
CONTINUOUS
 62
7
100
AcDbLine
 10
135.4831516529826
 20
57.50397553777829
 30
0.000000000000000
 11
140.9679792102844
 21
48.00397553777808
 31
0.000000000000000
  0
CIRCLE
  5
7F
100
AcDbEntity
  8
A9
  6
CONTINUOUS
 62
7
100
AcDbCircle
 10
129.9983240956818
 20
48.00397553777822
 30
0.000000000000000
 40
5.400000000000000
  0
ARC
  5
80
100
AcDbEntity
  8
A9
  6
CONTINUOUS
 62
7
100
AcDbCircle
 10
129.9983240956818
 20
48.00397553777822
 30
0.000000000000000
 40
19.39086030791006
100
AcDbArc
 50
2.956094043377901
 51
87.04390595662211
  0
ARC
  5
81
100
AcDbEntity
  8
A9
  6
CONTINUOUS
 62
7
100
AcDbCircle
 10
129.9983240956818
 20
48.00397553777822
 30
0.000000000000000
 40
19.39086030791006
100
AcDbArc
 50
92.95609404337790
 51
177.0439059566221
  0
ARC
  5
82
100
AcDbEntity
  8
A9
  6
CONTINUOUS
 62
7
100
AcDbCircle
 10
129.9983240956818
 20
48.00397553777822
 30
0.000000000000000
 40
19.39086030791006
100
AcDbArc
 50
182.9560940433779
 51
267.0439059566221
  0
ARC
  5
83
100
AcDbEntity
  8
A9
  6
CONTINUOUS
 62
7
100
AcDbCircle
 10
129.9983240956818
 20
48.00397553777822
 30
0.000000000000000
 40
19.39086030791006
100
AcDbArc
 50
272.9560940433777
 51
357.0439059566221
  0
ARC
  5
84
100
AcDbEntity
  8
A9
  6
CONTINUOUS
 62
7
100
AcDbCircle
 10
129.9983240956818
 20
48.00397553777822
 30
0.000000000000000
 40
11.24577871278825
100
AcDbArc
 50
185.1016082398935
 51
264.8983917601066
  0
ARC
  5
85
100
AcDbEntity
  8
A9
  6
CONTINUOUS
 62
7
100
AcDbCircle
 10
129.9983240956818
 20
48.00397553777822
 30
0.000000000000000
 40
11.24577871278825
100
AcDbArc
 50
95.10160823989345
 51
174.8983917601066
  0
ARC
  5
86
100
AcDbEntity
  8
A9
  6
CONTINUOUS
 62
7
100
AcDbCircle
 10
129.9983240956818
 20
48.00397553777822
 30
0.000000000000000
 40
11.24577871278825
100
AcDbArc
 50
275.1016082398934
 51
354.8983917601065
  0
ARC
  5
87
100
AcDbEntity
  8
A9
  6
CONTINUOUS
 62
7
100
AcDbCircle
 10
129.9983240956818
 20
48.00397553777822
 30
0.000000000000000
 40
11.24577871278825
100
AcDbArc
 50
5.101608239893449
 51
84.89839176010655
  0
LINE
  5
88
100
AcDbEntity
  8
A9
  6
CONTINUOUS
 62
7
100
AcDbLine
 10
130.9786039734752
 20
48.98425541557162
 30
0.000000000000000
 11
131.5003435197130
 21
48.75196200332671
 31
0.000000000000000
  0
LINE
  5
89
100
AcDbEntity
  8
A9
  6
CONTINUOUS
 62
7
100
AcDbLine
 10
130.9786039734752
 20
48.98425541557166
 30
0.000000000000000
 11
130.7463105612300
 21
49.50599496181052
 31
0.000000000000000
  0
LINE
  5
8A
100
AcDbEntity
  8
A9
  6
CONTINUOUS
 62
7
100
AcDbLine
 10
131.5003435197131
 20
48.75196200332675
 30
0.000000000000000
 11
132.4411324689037
 21
48.73554047113485
 31
0.000000000000000
  0
LINE
  5
8B
100
AcDbEntity
  8
A9
  6
CONTINUOUS
 62
7
100
AcDbLine
 10
130.7463105612300
 20
49.50599496181061
 30
0.000000000000000
 11
130.7298890290382
 21
50.44678391100010
 31
0.000000000000000
  0
LINE
  5
8C
100
AcDbEntity
  8
A9
  6
CONTINUOUS
 62
7
100
AcDbLine
 10
131.5003435197133
 20
47.25598907222962
 30
0.000000000000000
 11
132.4411324689037
 21
47.27241060442150
 31
0.000000000000000
  0
LINE
  5
8D
100
AcDbEntity
  8
A9
  6
CONTINUOUS
 62
7
100
AcDbLine
 10
130.9786039734752
 20
47.02369565998477
 30
0.000000000000000
 11
131.5003435197133
 21
47.25598907222957
 31
0.000000000000000
  0
LINE
  5
8E
100
AcDbEntity
  8
A9
  6
CONTINUOUS
 62
7
100
AcDbLine
 10
130.9786039734751
 20
47.02369565998476
 30
0.000000000000000
 11
130.7463105612298
 21
46.50195611374611
 31
0.000000000000000
  0
LINE
  5
8F
100
AcDbEntity
  8
A9
  6
CONTINUOUS
 62
7
100
AcDbLine
 10
130.7463105612300
 20
46.50195611374613
 30
0.000000000000000
 11
130.7298890290382
 21
45.56116716455645
 31
0.000000000000000
  0
LINE
  5
90
100
AcDbEntity
  8
A9
  6
CONTINUOUS
 62
7
100
AcDbLine
 10
129.2503376301332
 20
46.50195611374653
 30
0.000000000000000
 11
129.2667591623251
 21
45.56116716455617
 31
0.000000000000000
  0
LINE
  5
91
100
AcDbEntity
  8
A9
  6
CONTINUOUS
 62
7
100
AcDbLine
 10
129.0180442178882
 20
47.02369565998472
 30
0.000000000000000
 11
129.2503376301332
 21
46.50195611374659
 31
0.000000000000000
  0
LINE
  5
92
100
AcDbEntity
  8
A9
  6
CONTINUOUS
 62
7
100
AcDbLine
 10
129.0180442178880
 20
47.02369565998470
 30
0.000000000000000
 11
128.4963046716492
 21
47.25598907223002
 31
0.000000000000000
  0
LINE
  5
93
100
AcDbEntity
  8
A9
  6
CONTINUOUS
 62
7
100
AcDbLine
 10
128.4963046716493
 20
47.25598907223016
 30
0.000000000000000
 11
127.5555157224596
 21
47.27241060442193
 31
0.000000000000000
  0
LINE
  5
94
100
AcDbEntity
  8
A9
  6
CONTINUOUS
 62
7
100
AcDbLine
 10
128.4963046716503
 20
48.75196200332683
 30
0.000000000000000
 11
127.5555157224599
 21
48.73554047113493
 31
0.000000000000000
  0
LINE
  5
95
100
AcDbEntity
  8
A9
  6
CONTINUOUS
 62
7
100
AcDbLine
 10
129.0180442178883
 20
48.98425541557152
 30
0.000000000000000
 11
128.4963046716503
 21
48.75196200332667
 31
0.000000000000000
  0
LINE
  5
96
100
AcDbEntity
  8
A9
  6
CONTINUOUS
 62
7
100
AcDbLine
 10
129.0180442178882
 20
48.98425541557150
 30
0.000000000000000
 11
129.2503376301336
 21
49.50599496181047
 31
0.000000000000000
  0
LINE
  5
97
100
AcDbEntity
  8
A9
  6
CONTINUOUS
 62
7
100
AcDbLine
 10
129.2503376301336
 20
49.50599496181054
 30
0.000000000000000
 11
129.2667591623253
 21
50.44678391100005
 31
0.000000000000000
  0
ARC
  5
98
100
AcDbEntity
  8
A9
  6
CONTINUOUS
 62
7
100
AcDbCircle
 10
129.9983240956818
 20
48.00397553777822
 30
0.000000000000000
 40
2.550000000000000
100
AcDbArc
 50
253.3282509640041
 51
286.6717490359751
  0
ARC
  5
99
100
AcDbEntity
  8
A9
  6
CONTINUOUS
 62
7
100
AcDbCircle
 10
129.9983240956818
 20
48.00397553777822
 30
0.000000000000000
 40
2.550000000000000
100
AcDbArc
 50
163.3282509640078
 51
196.6717490359734
  0
ARC
  5
9A
100
AcDbEntity
  8
A9
  6
CONTINUOUS
 62
7
100
AcDbCircle
 10
129.9983240956818
 20
48.00397553777822
 30
0.000000000000000
 40
2.550000000000000
100
AcDbArc
 50
343.3282509640145
 51
376.6717490359853
  0
ARC
  5
9B
100
AcDbEntity
  8
A9
  6
CONTINUOUS
 62
7
100
AcDbCircle
 10
129.9983240956818
 20
48.00397553777822
 30
0.000000000000000
 40
2.550000000000000
100
AcDbArc
 50
73.32825096401848
 51
106.6717490359765
  0
LINE
  5
9C
100
AcDbEntity
  8
A9
  6
CONTINUOUS
 62
7
100
AcDbLine
 10
135.9983240961206
 20
276.5007303264399
 30
0.000000000000000
 11
133.9983240960588
 21
278.5007303265107
 31
0.000000000000000
  0
LINE
  5
9D
100
AcDbEntity
  8
A9
  6
CONTINUOUS
 62
7
100
AcDbLine
 10
125.9983240960588
 20
278.5007303265281
 30
0.000000000000000
 11
123.9983240961208
 21
276.5007303265991
 31
0.000000000000000
  0
CIRCLE
  5
9E
100
AcDbEntity
  8
A9
  6
CONTINUOUS
 62
7
100
AcDbCircle
 10
129.9983240959816
 20
366.0007304608577
 30
0.000000000000000
 40
4.000000000000000
  0
ARC
  5
9F
100
AcDbEntity
  8
A9
  6
CONTINUOUS
 62
7
100
AcDbCircle
 10
129.9983240959816
 20
366.0007304608577
 30
0.000000000000000
 40
12.50000000000000
100
AcDbArc
 50
4.588565735785825
 51
85.41143426421418
  0
ARC
  5
A0
100
AcDbEntity
  8
A9
  6
CONTINUOUS
 62
7
100
AcDbCircle
 10
129.9983240959816
 20
366.0007304608577
 30
0.000000000000000
 40
12.50000000000000
100
AcDbArc
 50
274.5885657357858
 51
355.4114342642142
  0
ARC
  5
A1
100
AcDbEntity
  8
A9
  6
CONTINUOUS
 62
7
100
AcDbCircle
 10
129.9983240959816
 20
366.0007304608577
 30
0.000000000000000
 40
12.50000000000000
100
AcDbArc
 50
94.58856573578583
 51
175.4114342642142
  0
ARC
  5
A2
100
AcDbEntity
  8
A9
  6
CONTINUOUS
 62
7
100
AcDbCircle
 10
129.9983240959816
 20
366.0007304608577
 30
0.000000000000000
 40
12.50000000000000
100
AcDbArc
 50
184.5885657357858
 51
265.4114342642142
  0
CIRCLE
  5
A3
100
AcDbEntity
  8
A9
  6
CONTINUOUS
 62
7
100
AcDbCircle
 10
129.9983240956818
 20
48.00397553777822
 30
0.000000000000000
 40
4.900000000000000
  0
LINE
  5
A4
100
AcDbEntity
  8
A9
  6
CONTINUOUS
 62
7
100
AcDbLine
 10
110.6422158148847
 20
110.6919868850160
 30
0.000000000000000
 11
113.7869527044181
 21
116.7329702438365
 31
0.000000000000000
  0
ARC
  5
A5
100
AcDbEntity
  8
A9
  6
CONTINUOUS
 62
7
100
AcDbCircle
 10
119.9960285366657
 20
113.5007299511913
 30
0.000000000000000
 40
7.000000000000000
100
AcDbArc
 50
90.00000000000000
 51
152.5000000000001
  0
ARC
  5
A6
100
AcDbEntity
  8
A9
  6
CONTINUOUS
 62
7
100
AcDbCircle
 10
106.2071616489937
 20
113.0007299511912
 30
0.000000000000000
 40
5.000000000000000
100
AcDbArc
 50
270.0000000000000
 51
332.5000000000000
  0
ARC
  5
A7
100
AcDbEntity
  8
A9
  6
CONTINUOUS
 62
7
100
AcDbCircle
 10
140.0006199882613
 20
113.5007299511913
 30
0.000000000000000
 40
7.000000000000000
100
AcDbArc
 50
27.49999999999991
 51
90.00000000000000
  0
LINE
  5
A8
100
AcDbEntity
  8
A9
  6
CONTINUOUS
 62
7
100
AcDbLine
 10
149.3544327100423
 20
110.6919868850162
 30
0.000000000000000
 11
146.2096958205090
 21
116.7329702438366
 31
0.000000000000000
  0
ARC
  5
A9
100
AcDbEntity
  8
A9
  6
CONTINUOUS
 62
7
100
AcDbCircle
 10
153.7894868759333
 20
113.0007299511912
 30
0.000000000000000
 40
5.000000000000000
100
AcDbArc
 50
207.5000000000000
 51
270.0000000000000
  0
LINE
  5
AA
100
AcDbEntity
  8
A9
  6
CONTINUOUS
 62
7
100
AcDbLine
 10
102.4983240957485
 20
108.0007304609184
 30
0.000000000000000
 11
157.4983240957396
 21
108.0007304608577
 31
0.000000000000000
  0
LINE
  5
AB
100
AcDbEntity
  8
A9
  6
CONTINUOUS
 62
7
100
AcDbLine
 10
123.9983240958044
 20
133.5007297608417
 30
0.000000000000000
 11
123.9983240961208
 21
276.5007303265992
 31
0.000000000000000
  0
LINE
  5
AC
100
AcDbEntity
  8
A9
  6
CONTINUOUS
 62
7
100
AcDbLine
 10
135.9983240958048
 20
133.5007297608417
 30
0.000000000000000
 11
135.9983240961207
 21
276.5007303264399
 31
0.000000000000000
  0
LINE
  5
AD
100
AcDbEntity
  8
A4
  6
CONTINUOUS
 62
7
100
AcDbLine
 10
120.9985714244930
 20
303.5035989284491
 30
0.000000000000000
 11
138.9967528527139
 21
303.5035983187931
 31
0.000000000000000
  0
LINE
  5
AE
100
AcDbEntity
  8
A2
  6
CENTER
 62
1
100
AcDbLine
 10
129.9983240957662
 20
100.5007304608577
 30
0.000000000000000
 11
129.9983240959311
 21
283.5007303265196
 31
0.000000000000000
  0
LINE
  5
AF
100
AcDbEntity
  8
A2
  6
CENTER
 62
1
100
AcDbLine
 10
97.49832409568178
 20
48.00397553777822
 30
0.000000000000000
 11
162.4983240956818
 21
48.00397553777822
 31
0.000000000000000
  0
LINE
  5
B0
100
AcDbEntity
  8
A2
  6
CENTER
 62
1
100
AcDbLine
 10
129.9983240956818
 20
15.50397553777822
 30
0.000000000000000
 11
129.9983240956818
 21
80.50397553777822
 31
0.000000000000000
  0
LINE
  5
B1
100
AcDbEntity
  8
A2
  6
CENTER
 62
1
100
AcDbLine
 10
129.9983240959153
 20
298.6682101551540
 30
0.000000000000000
 11
129.9983240959331
 21
318.5035986284327
 31
0.000000000000000
  0
LINE
  5
B2
100
AcDbEntity
  8
A2
  6
CENTER
 62
1
100
AcDbLine
 10
129.9983240959816
 20
333.5007304608577
 30
0.000000000000000
 11
129.9983240959816
 21
398.5007304608577
 31
0.000000000000000
  0
LINE
  5
B3
100
AcDbEntity
  8
A2
  6
CENTER
 62
1
100
AcDbLine
 10
97.49832409598160
 20
366.0007304608577
 30
0.000000000000000
 11
162.4983240959816
 21
366.0007304608577
 31
0.000000000000000
  0
LINE
  5
B4
100
AcDbEntity
  8
A5
  6
CONTINUOUS
 62
4
100
AcDbLine
 10
124.9453240958027
 20
132.5537301293049
 30
0.000000000000000
 11
124.9453240961228
 21
277.4477303265970
 31
0.000000000000000
  0
LINE
  5
B5
100
AcDbEntity
  8
A5
  6
CONTINUOUS
 62
4
100
AcDbLine
 10
135.0513240957874
 20
132.5537301292958
 30
0.000000000000000
 11
135.0513240957284
 21
277.4477303268362
 31
0.000000000000000
  0
POINT
  5
B6
100
AcDbEntity
  8
A0
  6
CONTINUOUS
 62
3
100
AcDbPoint
 10
129.9983240959816
 20
371.0537304608145
 30
0.000000000000000
  0
LINE
  5
B7
100
AcDbEntity
  8
A5
  6
CONTINUOUS
 62
7
100
AcDbLine
 10
257.4983240957484
 20
108.0007304607970
 30
0.000000000000000
 11
257.4983240957429
 21
105.5007304607970
 31
0.000000000000000
  0
LINE
  5
B8
100
AcDbEntity
  8
A4
  6
CONTINUOUS
 62
7
100
AcDbLine
 10
202.4983240957430
 20
105.5007304609184
 30
0.000000000000000
 11
257.4983240957428
 21
105.5007304607970
 31
0.000000000000000
  0
LINE
  5
B9
100
AcDbEntity
  8
A5
  6
CONTINUOUS
 62
7
100
AcDbLine
 10
202.4983240957485
 20
108.0007304609184
 30
0.000000000000000
 11
202.4983240957430
 21
105.5007304609184
 31
0.000000000000000
  0
LINE
  5
BA
100
AcDbEntity
  8
A9
  6
CONTINUOUS
 62
7
100
AcDbLine
 10
223.9983240960546
 20
276.5007303265395
 30
0.000000000000000
 11
235.9983240960546
 21
276.5007303265129
 31
0.000000000000000
  0
LINE
  5
BB
100
AcDbEntity
  8
A9
  6
CONTINUOUS
 62
7
100
AcDbLine
 10
225.9983240960588
 20
278.5007303265286
 30
0.000000000000000
 11
233.9983240960587
 21
278.5007303265107
 31
0.000000000000000
  0
LINE
  5
BC
100
AcDbEntity
  8
A9
  6
CONTINUOUS
 62
7
100
AcDbLine
 10
225.2483240957672
 20
129.0007301358722
 30
0.000000000000000
 11
225.2483240957711
 21
132.5007301192047
 31
0.000000000000000
  0
ARC
  5
BD
100
AcDbEntity
  8
A9
  6
CONTINUOUS
 62
7
100
AcDbCircle
 10
224.7483240957672
 20
129.0007301358727
 30
0.000000000000000
 40
0.5000000000000000
100
AcDbArc
 50
270.0000000000000
 51
360.0000000000000
  0
LINE
  5
BE
100
AcDbEntity
  8
A9
  6
CONTINUOUS
 62
7
100
AcDbLine
 10
234.9983240958026
 20
132.5007297941778
 30
0.000000000000000
 11
224.9983240958022
 21
132.5007301275387
 31
0.000000000000000
  0
LINE
  5
BF
100
AcDbEntity
  8
A9
  6
CONTINUOUS
 62
7
100
AcDbLine
 10
235.9983240958048
 20
133.5007297608417
 30
0.000000000000000
 11
223.9983240958043
 21
133.5007297608417
 31
0.000000000000000
  0
LINE
  5
C0
100
AcDbEntity
  8
A9
  6
CONTINUOUS
 62
7
100
AcDbLine
 10
235.9983240958047
 20
133.5007297608416
 30
0.000000000000000
 11
234.9983240958023
 21
132.5007297941776
 31
0.000000000000000
  0
LINE
  5
C1
100
AcDbEntity
  8
A9
  6
CONTINUOUS
 62
7
100
AcDbLine
 10
234.7483240957672
 20
129.0007297858443
 30
0.000000000000000
 11
234.7483240957711
 21
132.5007298025118
 31
0.000000000000000
  0
ARC
  5
C2
100
AcDbEntity
  8
A9
  6
CONTINUOUS
 62
7
100
AcDbCircle
 10
235.2483240957672
 20
129.0007297858438
 30
0.000000000000000
 40
0.5000000000000000
100
AcDbArc
 50
180.0000000000000
 51
270.0000000000000
  0
LINE
  5
C3
100
AcDbEntity
  8
A9
  6
CONTINUOUS
 62
7
100
AcDbLine
 10
224.9983240958022
 20
132.5007301275386
 30
0.000000000000000
 11
223.9983240958045
 21
133.5007301608746
 31
0.000000000000000
  0
LINE
  5
C4
100
AcDbEntity
  8
A9
  6
CONTINUOUS
 62
7
100
AcDbLine
 10
235.9983240961205
 20
276.5007303264401
 30
0.000000000000000
 11
233.9983240960588
 21
278.5007303265108
 31
0.000000000000000
  0
LINE
  5
C5
100
AcDbEntity
  8
A9
  6
CONTINUOUS
 62
7
100
AcDbLine
 10
225.9983240960591
 20
278.5007303265286
 30
0.000000000000000
 11
223.9983240961208
 21
276.5007303265992
 31
0.000000000000000
  0
LINE
  5
C6
100
AcDbEntity
  8
A9
  6
CONTINUOUS
 62
7
100
AcDbLine
 10
210.6422158148847
 20
110.6919868850160
 30
0.000000000000000
 11
213.7869527044181
 21
116.7329702438365
 31
0.000000000000000
  0
ARC
  5
C7
100
AcDbEntity
  8
A9
  6
CONTINUOUS
 62
7
100
AcDbCircle
 10
219.9960285366657
 20
113.5007299511913
 30
0.000000000000000
 40
7.000000000000000
100
AcDbArc
 50
90.00000000000000
 51
152.5000000000001
  0
ARC
  5
C8
100
AcDbEntity
  8
A9
  6
CONTINUOUS
 62
7
100
AcDbCircle
 10
206.2071616489937
 20
113.0007299511912
 30
0.000000000000000
 40
5.000000000000000
100
AcDbArc
 50
270.0000000000000
 51
332.5000000000000
  0
ARC
  5
C9
100
AcDbEntity
  8
A9
  6
CONTINUOUS
 62
7
100
AcDbCircle
 10
240.0006199882613
 20
113.5007299511913
 30
0.000000000000000
 40
7.000000000000000
100
AcDbArc
 50
27.49999999999991
 51
90.00000000000000
  0
LINE
  5
CA
100
AcDbEntity
  8
A9
  6
CONTINUOUS
 62
7
100
AcDbLine
 10
249.3544327100423
 20
110.6919868850162
 30
0.000000000000000
 11
246.2096958205090
 21
116.7329702438366
 31
0.000000000000000
  0
ARC
  5
CB
100
AcDbEntity
  8
A9
  6
CONTINUOUS
 62
7
100
AcDbCircle
 10
253.7894868759333
 20
113.0007299511912
 30
0.000000000000000
 40
5.000000000000000
100
AcDbArc
 50
207.5000000000000
 51
270.0000000000000
  0
LINE
  5
CC
100
AcDbEntity
  8
A9
  6
CONTINUOUS
 62
7
100
AcDbLine
 10
202.4983240957485
 20
108.0007304609184
 30
0.000000000000000
 11
257.4983240957396
 21
108.0007304608577
 31
0.000000000000000
  0
LINE
  5
CD
100
AcDbEntity
  8
A9
  6
CONTINUOUS
 62
7
100
AcDbLine
 10
223.9983240958044
 20
133.5007297608417
 30
0.000000000000000
 11
223.9983240961208
 21
276.5007303265992
 31
0.000000000000000
  0
LINE
  5
CE
100
AcDbEntity
  8
A9
  6
CONTINUOUS
 62
7
100
AcDbLine
 10
235.9983240958048
 20
133.5007297608417
 30
0.000000000000000
 11
235.9983240961207
 21
276.5007303264400
 31
0.000000000000000
  0
LINE
  5
CF
100
AcDbEntity
  8
A2
  6
CENTER
 62
1
100
AcDbLine
 10
229.9983240957662
 20
100.5007304608577
 30
0.000000000000000
 11
229.9983240959311
 21
283.5007303264295
 31
0.000000000000000
  0
LINE
  5
D0
100
AcDbEntity
  8
A5
  6
CONTINUOUS
 62
4
100
AcDbLine
 10
224.9453240958027
 20
132.5537301293049
 30
0.000000000000000
 11
224.9453240961228
 21
277.4477303265970
 31
0.000000000000000
  0
LINE
  5
D1
100
AcDbEntity
  8
A5
  6
CONTINUOUS
 62
4
100
AcDbLine
 10
235.0513240957874
 20
132.5537301292958
 30
0.000000000000000
 11
235.0513240957284
 21
277.4477303268364
 31
0.000000000000000
  0
LINE
  5
D2
100
AcDbEntity
  8
A9
  6
CONTINUOUS
 62
7
100
AcDbLine
 10
239.4983240957932
 20
120.5007296344985
 30
0.000000000000000
 11
239.4983240957932
 21
128.5007296441654
 31
0.000000000000000
  0
LINE
  5
D3
100
AcDbEntity
  8
A9
  6
CONTINUOUS
 62
7
100
AcDbLine
 10
239.4983240957932
 20
128.5007296441654
 30
0.000000000000000
 11
220.4983240957923
 21
128.5007302775511
 31
0.000000000000000
  0
LINE
  5
D4
100
AcDbEntity
  8
A9
  6
CONTINUOUS
 62
7
100
AcDbLine
 10
229.9983240957932
 20
121.5486835213790
 30
0.000000000000000
 11
229.9983240957932
 21
128.5007299608583
 31
0.000000000000000
  0
LINE
  5
D5
100
AcDbEntity
  8
A9
  6
CONTINUOUS
 62
7
100
AcDbLine
 10
220.4983240957923
 20
120.5007302678842
 30
0.000000000000000
 11
220.4983240957923
 21
128.5007302775512
 31
0.000000000000000
  0
ARC
  5
D6
100
AcDbEntity
  8
A0
  6
CONTINUOUS
 62
7
100
AcDbCircle
 10
225.2483240957927
 20
131.7897351283195
 30
0.000000000000000
 40
11.28900518274364
100
AcDbArc
 50
245.1172076328637
 51
294.8827923671368
  0
ARC
  5
D7
100
AcDbEntity
  8
A0
  6
CONTINUOUS
 62
7
100
AcDbCircle
 10
234.7483240957937
 20
131.7897351283195
 30
0.000000000000000
 40
11.28900518274364
100
AcDbArc
 50
245.1172076328632
 51
294.8827923671361
  0
LINE
  5
D8
100
AcDbEntity
  8
A9
  6
CONTINUOUS
 62
7
100
AcDbLine
 10
239.4983240959239
 20
303.5035980354805
 30
0.000000000000000
 11
239.4983240959239
 21
313.5035981288972
 31
0.000000000000000
  0
LINE
  5
D9
100
AcDbEntity
  8
A9
  6
CONTINUOUS
 62
7
100
AcDbLine
 10
239.4983240959238
 20
313.5035981288972
 30
0.000000000000000
 11
220.4983240959230
 21
313.5035987622830
 31
0.000000000000000
  0
LINE
  5
DA
100
AcDbEntity
  8
A9
  6
CONTINUOUS
 62
7
100
AcDbLine
 10
229.9983240959239
 20
304.5515519223611
 30
0.000000000000000
 11
229.9983240959239
 21
313.5035984455901
 31
0.000000000000000
  0
LINE
  5
DB
100
AcDbEntity
  8
A9
  6
CONTINUOUS
 62
7
100
AcDbLine
 10
220.4983240959229
 20
303.5035986688663
 30
0.000000000000000
 11
220.4983240959229
 21
313.5035987622830
 31
0.000000000000000
  0
ARC
  5
DC
100
AcDbEntity
  8
A0
  6
CONTINUOUS
 62
7
100
AcDbCircle
 10
225.2483240959233
 20
314.7926035293016
 30
0.000000000000000
 40
11.28900518274364
100
AcDbArc
 50
245.1172076328637
 51
294.8827923671368
  0
ARC
  5
DD
100
AcDbEntity
  8
A0
  6
CONTINUOUS
 62
7
100
AcDbCircle
 10
234.7483240959244
 20
314.7926035293016
 30
0.000000000000000
 40
11.28900518274364
100
AcDbArc
 50
245.1172076328632
 51
294.8827923671361
  0
LINE
  5
DE
100
AcDbEntity
  8
A2
  6
CENTER
 62
1
100
AcDbLine
 10
229.9983240959104
 20
298.6682068215454
 30
0.000000000000000
 11
229.9983240959283
 21
318.5035952948240
 31
0.000000000000000
  0
POINT
  5
DF
100
AcDbEntity
  8
A20
  6
CONTINUOUS
 62
3
100
AcDbPoint
 10
50.00000000000000
 20
50.00000000000000
 30
0.000000000000000
  0
LINE
  5
E0
100
AcDbEntity
  8
A9
  6
CONTINUOUS
 62
7
100
AcDbLine
 10
219.9960287700185
 20
120.5007302846288
 30
0.000000000000000
 11
240.0006202216139
 21
120.5007296177539
 31
0.000000000000000
  0
LINE
  5
E1
100
AcDbEntity
  8
A9
  6
CONTINUOUS
 62
7
100
AcDbLine
 10
220.4983240959230
 20
303.5035986688662
 30
0.000000000000000
 11
239.4983240959239
 21
303.5035980354804
 31
0.000000000000000
  0
CIRCLE
  5
E2
100
AcDbEntity
  8
DXF0
  6
CONTINUOUS
 62
4
100
AcDbCircle
 10
129.9983240959816
 20
366.0007304608577
 30
0.000000000000000
 40
5.052999999956796
  0
ENDSEC
  0
SECTION
  2
OBJECTS
  0
DICTIONARY
  5
115
100
AcDbDictionary
  3
ACAD_GROUP
350
116
  3
ACAD_LAYOUT
350
117
  3
ACAD_MLINESTYLE
350
118
  0
DICTIONARY
  5
116
102
{ACAD_REACTORS
330
115
102
}
330
115
100
AcDbDictionary
  0
DICTIONARY
  5
117
102
{ACAD_REACTORS
330
115
102
}
330
115
100
AcDbDictionary
  3
Model
350
119
  3
ﾚｲｱｳﾄ1
350
11A
  3
ﾚｲｱｳﾄ2
350
11B
  0
DICTIONARY
  5
118
102
{ACAD_REACTORS
330
115
102
}
330
115
100
AcDbDictionary
  3
STANDARD
350
11C
  0
LAYOUT
  5
119
102
{ACAD_REACTORS
330
117
102
}
330
117
100
AcDbPlotSettings
 70
11952
  4
A3
 44
297.000000
 45
420.000000
 73
  1
 72
  1
100
AcDbLayout
  1
Model
 71
0
330
10C
  0
LAYOUT
  5
11A
102
{ACAD_REACTORS
330
117
102
}
330
117
100
AcDbPlotSettings
100
AcDbLayout
  1
ﾚｲｱｳﾄ1
 71
1
330
10D
  0
LAYOUT
  5
11B
102
{ACAD_REACTORS
330
117
102
}
330
117
100
AcDbPlotSettings
100
AcDbLayout
  1
ﾚｲｱｳﾄ2
 71
2
330
10E
  0
MLINESTYLE
  5
11C
102
{ACAD_REACTORS
330
118
102
}
330
118
100
AcDbMlineStyle
  2
STANDARD
 70
     0
  3

 62
   256
 51
90.00
 52
90.00
 71
     2
 49
0.50
 62
   256
  6
BYLAYER
 49
-0.50
 62
   256
  6
BYLAYER
  0
ENDSEC
  0
EOF
