  0
SECTION
  2
HEADER
  9
$ACADVER
  1
AC1027
  9
$DWGCODEPAGE
  3
ANSI_932
  9
$LTSCALE
 40
20.0
  9
$FILLMODE
 70
     1
  9
$CLAYER
  8
0
  9
$PDMODE
 70
     0
  9
$SPLFRAME
 70
     0
  9
$SPLINETYPE
 70
     6
  9
$SPLINESEGS
 70
     8
  9
$DIMASZ
 40
2.000000
  9
$DIMEXE
 40
1.500000
  9
$DIMEXO
 40
0.800000
  9
$DIMTAD
 70
     1
  9
$DIMTIH
 70
     0
  9
$DIMTOH
 70
     0
  9
$DIMTVP
 40
0.500000
  9
$DIMTXT
 40
3.100000
  9
$EXTMIN
 10
0.000000
 20
0.000000
 30
0.000000
  9
$EXTMAX
 10
297.000000
 20
420.000000
 30
0.000000
  9
$MEASUREMENT
 70
  1
  9
$LIMMIN
 10
0.000000
 20
0.000000
  9
$LIMMAX
 10
297.000000
 20
420.000000
  9
$HANDSEED
  5
120
  9
$LWDISPLAY
290
     0
  9
$DIMBLK
  1
_OPEN
  9
$DIMDEC
 70
     2
  9
$DIMADEC
 70
     2
  9
$DIMAUNIT
 70
     0
  9
$DIMZIN
 70
     8
  9
$DIMAZIN
 70
     2
  9
$DIMTOFL
 70
     1
  0
ENDSEC
  0
SECTION
  2
CLASSES
  0
ENDSEC
  0
SECTION
  2
TABLES
  0
TABLE
  2
VPORT
  5
E6
100
AcDbSymbolTable
 70
     1
  0
VPORT
  5
E7
100
AcDbSymbolTableRecord
100
AcDbViewportTableRecord
  2
*ACTIVE
 70
     0
 12
126.249108
 22
203.496350
 40
385.999134
 41
0.602328
  0
ENDTAB
  0
TABLE
  2
LTYPE
  5
E8
100
AcDbSymbolTable
 70
     2
  0
LTYPE
  5
E9
100
AcDbSymbolTableRecord
100
AcDbLinetypeTableRecord
  2
BYBLOCK
 70
     0
  3

 72
    65
 73
     0
 40
0.0
  0
LTYPE
  5
EA
100
AcDbSymbolTableRecord
100
AcDbLinetypeTableRecord
  2
BYLAYER
 70
     0
  3

 72
    65
 73
     0
 40
0.0
  0
LTYPE
  5
EB
100
AcDbSymbolTableRecord
100
AcDbLinetypeTableRecord
  2
CONTINUOUS
 70
     0
  3
Solid line (NEC CAE2D for Win R17.0 : 2022.05.16)
 72
    65
 73
     0
 40
0.0
  0
LTYPE
  5
EC
100
AcDbSymbolTableRecord
100
AcDbLinetypeTableRecord
  2
CENTER
 70
     0
  3
____ _ ____ _ ____ _ ____ _ ____ _ ____
 72
    65
 73
     4
 40
2.0
 49
1.25
 74
     0
 49
-0.25
 74
     0
 49
0.25
 74
     0
 49
-0.25
 74
     0
  0
ENDTAB
  0
TABLE
  2
LAYER
  5
ED
100
AcDbSymbolTable
 70
    20
  0
LAYER
  5
EE
100
AcDbSymbolTableRecord
100
AcDbLayerTableRecord
  2
0
 70
     0
 62
     7
  6
CONTINUOUS
370
    -3
390

  0
LAYER
  5
EF
100
AcDbSymbolTableRecord
100
AcDbLayerTableRecord
  2
DXF0
 70
     0
 62
     7
  6
CONTINUOUS
370
    -3
390

  0
LAYER
  5
F0
100
AcDbSymbolTableRecord
100
AcDbLayerTableRecord
  2
DXF0
 70
     0
 62
     7
  6
CONTINUOUS
370
    -3
390

  0
LAYER
  5
F1
100
AcDbSymbolTableRecord
100
AcDbLayerTableRecord
  2
DXF0
 70
     0
 62
     7
  6
CONTINUOUS
370
    -3
390

  0
LAYER
  5
F2
100
AcDbSymbolTableRecord
100
AcDbLayerTableRecord
  2
A0
 70
     0
 62
     9
  6
CONTINUOUS
370
    -3
390

  0
LAYER
  5
F3
100
AcDbSymbolTableRecord
100
AcDbLayerTableRecord
  2
A3
 70
     0
 62
    12
  6
CONTINUOUS
370
    -3
390

  0
LAYER
  5
F4
100
AcDbSymbolTableRecord
100
AcDbLayerTableRecord
  2
A4
 70
     0
 62
     9
  6
CONTINUOUS
370
    -3
390

  0
LAYER
  5
F5
100
AcDbSymbolTableRecord
100
AcDbLayerTableRecord
  2
A5
 70
     0
 62
     8
  6
CONTINUOUS
370
    -3
390

  0
LAYER
  5
F6
100
AcDbSymbolTableRecord
100
AcDbLayerTableRecord
  2
A6
 70
     0
 62
    12
  6
CONTINUOUS
370
    -3
390

  0
LAYER
  5
F7
100
AcDbSymbolTableRecord
100
AcDbLayerTableRecord
  2
A8
 70
     0
 62
    10
  6
CONTINUOUS
370
    -3
390

  0
LAYER
  5
F8
100
AcDbSymbolTableRecord
100
AcDbLayerTableRecord
  2
A9
 70
     0
 62
     9
  6
CONTINUOUS
370
    -3
390

  0
LAYER
  5
F9
100
AcDbSymbolTableRecord
100
AcDbLayerTableRecord
  2
A10
 70
     0
 62
     6
  6
CONTINUOUS
370
    -3
390

  0
LAYER
  5
FA
100
AcDbSymbolTableRecord
100
AcDbLayerTableRecord
  2
A20
 70
     0
 62
     1
  6
CONTINUOUS
370
    -3
390

  0
LAYER
  5
FB
100
AcDbSymbolTableRecord
100
AcDbLayerTableRecord
  2
A30
 70
     0
 62
     1
  6
CONTINUOUS
370
    -3
390

  0
LAYER
  5
FC
100
AcDbSymbolTableRecord
100
AcDbLayerTableRecord
  2
A40
 70
     0
 62
     9
  6
CONTINUOUS
370
    -3
390

  0
LAYER
  5
FD
100
AcDbSymbolTableRecord
100
AcDbLayerTableRecord
  2
A50
 70
     0
 62
    12
  6
CONTINUOUS
370
    -3
390

  0
LAYER
  5
FE
100
AcDbSymbolTableRecord
100
AcDbLayerTableRecord
  2
A1023
 70
     0
 62
     8
  6
CONTINUOUS
370
    -3
390

  0
LAYER
  5
FF
100
AcDbSymbolTableRecord
100
AcDbLayerTableRecord
  2
DXF1023
 70
     0
 62
     8
  6
CONTINUOUS
370
    -3
390

  0
LAYER
  5
100
100
AcDbSymbolTableRecord
100
AcDbLayerTableRecord
  2
DXF1023
 70
     0
 62
     8
  6
CONTINUOUS
370
    -3
390

  0
LAYER
  5
101
100
AcDbSymbolTableRecord
100
AcDbLayerTableRecord
  2
DXF1023
 70
     0
 62
    16
  6
CONTINUOUS
370
    -3
390

  0
ENDTAB
  0
TABLE
  2
STYLE
  5
102
100
AcDbSymbolTable
 70
     4
  0
STYLE
  5
103
100
AcDbSymbolTableRecord
100
AcDbTextStyleTableRecord
  2
STANDARD
 70
    64
 40
0.0
 41
1.0
 50
0.0
 71
     0
 42
3.000000000000000
  3
TXT
  4

  0
STYLE
  5
104
100
AcDbSymbolTableRecord
100
AcDbTextStyleTableRecord
  2
ANKTATE
 70
    68
 40
0.0
 41
1.0
 50
0.0
 71
     0
 42
3.000000000000000
  3
TXT
  4

  0
STYLE
  5
105
100
AcDbSymbolTableRecord
100
AcDbTextStyleTableRecord
  2
KNJYOKO
 70
    64
 40
0.0
 41
1.0
 50
0.0
 71
     0
 42
3.000000000000000
  3
TXT
  4
BIGFONT
  0
STYLE
  5
106
100
AcDbSymbolTableRecord
100
AcDbTextStyleTableRecord
  2
KNJTATE
 70
    68
 40
0.0
 41
1.0
 50
0.0
 71
     0
 42
3.000000000000000
  3
TXT
  4
BIGFONT
  0
ENDTAB
  0
TABLE
  2
VIEW
  5
107
100
AcDbSymbolTable
 70
     0
  0
ENDTAB
  0
TABLE
  2
UCS
  5
108
100
AcDbSymbolTable
 70
     0
  0
ENDTAB
  0
TABLE
  2
APPID
  5
109
100
AcDbSymbolTable
 70
     1
  0
APPID
  5
10A
100
AcDbSymbolTableRecord
100
AcDbRegAppTableRecord
  2
ACAD
 70
     0
  0
ENDTAB
  0
TABLE
  2
DIMSTYLE
  5
10B
100
AcDbSymbolTable
 70
     1
100
AcDbDimStyleTable
  0
DIMSTYLE
105
10C
100
AcDbSymbolTableRecord
100
AcDbDimStyleTableRecord
  2
STANDARD
 70
     0
 41
2.000000
 44
1.500000
 42
0.800000
145
0.661290
140
3.100000
144
1.000000
146
0.645161
340
103
  0
DIMSTYLE
105
10D
100
AcDbSymbolTableRecord
100
AcDbDimStyleTableRecord
  2
DXF001
 70
     0
 41
2.000000
 44
1.500000
 42
0.800000
145
0.661290
140
3.100000
144
1.000000
146
0.645161
 77
     1
 73
     0
 74
     0
271
     2
179
     2
275
     0
 78
     8
 79
     2
172
     1
340
103
  0
ENDTAB
  0
TABLE
  2
BLOCK_RECORD
  5
10E
100
AcDbSymbolTable
 70
    12
  0
BLOCK_RECORD
  5
10F
100
AcDbSymbolTableRecord
100
AcDbBlockTableRecord
  2
*MODEL_SPACE
  0
BLOCK_RECORD
  5
110
100
AcDbSymbolTableRecord
100
AcDbBlockTableRecord
  2
*PAPER_SPACE
  0
BLOCK_RECORD
  5
111
100
AcDbSymbolTableRecord
100
AcDbBlockTableRecord
  2
*PAPER_SPACE0
  0
BLOCK_RECORD
  5
1
100
AcDbSymbolTableRecord
100
AcDbBlockTableRecord
  2
_NONE
  0
BLOCK_RECORD
  5
4
100
AcDbSymbolTableRecord
100
AcDbBlockTableRecord
  2
_CLOSED
  0
BLOCK_RECORD
  5
B
100
AcDbSymbolTableRecord
100
AcDbBlockTableRecord
  2
_DOT
  0
BLOCK_RECORD
  5
13
100
AcDbSymbolTableRecord
100
AcDbBlockTableRecord
  2
_OPEN
  0
BLOCK_RECORD
  5
19
100
AcDbSymbolTableRecord
100
AcDbBlockTableRecord
  2
_ORIGIN
  0
BLOCK_RECORD
  5
1E
100
AcDbSymbolTableRecord
100
AcDbBlockTableRecord
  2
_OPEN30
  0
BLOCK_RECORD
  5
24
100
AcDbSymbolTableRecord
100
AcDbBlockTableRecord
  2
_BOXFILLED
  0
BLOCK_RECORD
  5
29
100
AcDbSymbolTableRecord
100
AcDbBlockTableRecord
  2
_BOXBLANK
  0
BLOCK_RECORD
  5
31
100
AcDbSymbolTableRecord
100
AcDbBlockTableRecord
  2
_OBLIQUE
  0
BLOCK_RECORD
  5
35
100
AcDbSymbolTableRecord
100
AcDbBlockTableRecord
  2
_OPEN90
  0
BLOCK_RECORD
  5
3B
100
AcDbSymbolTableRecord
100
AcDbBlockTableRecord
  2
_CLOSEDBLANK
  0
BLOCK_RECORD
  5
41
100
AcDbSymbolTableRecord
100
AcDbBlockTableRecord
  2
_DOTBLANK
  0
ENDTAB
  0
ENDSEC
  0
SECTION
  2
BLOCKS
  0
BLOCK
  5
112
100
AcDbEntity
  8
0
100
AcDbBlockBegin
  2
*MODEL_SPACE
 70
     0
 10
0.0
 20
0.0
 30
0.0
  3
*MODEL_SPACE
  1

  0
ENDBLK
  5
113
100
AcDbEntity
  8
0
100
AcDbBlockEnd
  0
BLOCK
  5
114
100
AcDbEntity
  8
0
100
AcDbBlockBegin
  2
*PAPER_SPACE
 70
     0
 10
0.0
 20
0.0
 30
0.0
  3
*PAPER_SPACE
  1

  0
ENDBLK
  5
115
100
AcDbEntity
  8
0
100
AcDbBlockEnd
  0
BLOCK
  5
116
100
AcDbEntity
  8
0
100
AcDbBlockBegin
  2
*PAPER_SPACE0
 70
     0
 10
0.0
 20
0.0
 30
0.0
  3
*PAPER_SPACE0
  1

  0
ENDBLK
  5
117
100
AcDbEntity
  8
0
100
AcDbBlockEnd
  0
BLOCK
  5
2
330
1
100
AcDbEntity
  8
0
100
AcDbBlockBegin
  2
_NONE
 70
     0
 10
0.0
 20
0.0
 30
0.0
  3
_NONE
  1

  0
ENDBLK
  5
3
330
1
100
AcDbEntity
  8
0
100
AcDbBlockEnd
  0
BLOCK
  5
5
330
4
100
AcDbEntity
  8
0
100
AcDbBlockBegin
  2
_CLOSED
 70
     0
 10
0.0
 20
0.0
 30
0.0
  3
_CLOSED
  1

  0
LINE
  5
6
330
4
100
AcDbEntity
  8
0
  6
BYBLOCK
 62
     0
370
    -2
100
AcDbLine
 10
-1.0
 20
0.166667
 30
0.0
 11
0.0
 21
0.0
 31
0.0
  0
LINE
  5
7
330
4
100
AcDbEntity
  8
0
  6
BYBLOCK
 62
     0
370
    -2
100
AcDbLine
 10
0.0
 20
0.0
 30
0.0
 11
-1.0
 21
-0.166667
 31
0.0
  0
LINE
  5
8
330
4
100
AcDbEntity
  8
0
  6
BYBLOCK
 62
     0
370
    -2
100
AcDbLine
 10
-1.0
 20
0.166667
 30
0.0
 11
-1.0
 21
-0.166667
 31
0.0
  0
LINE
  5
9
330
4
100
AcDbEntity
  8
0
  6
BYBLOCK
 62
     0
370
    -2
100
AcDbLine
 10
0.0
 20
0.0
 30
0.0
 11
-1.0
 21
0.0
 31
0.0
  0
ENDBLK
  5
A
330
4
100
AcDbEntity
  8
0
100
AcDbBlockEnd
  0
BLOCK
  5
C
330
B
100
AcDbEntity
  8
0
100
AcDbBlockBegin
  2
_DOT
 70
     0
 10
0.0
 20
0.0
 30
0.0
  3
_DOT
  1

  0
POLYLINE
  5
D
330
B
100
AcDbEntity
  8
0
  6
BYBLOCK
 62
     0
370
    -2
100
AcDb2dPolyline
 66
     1
 10
0.0
 20
0.0
 30
0.0
 70
     1
 40
0.5
 41
0.5
  0
VERTEX
  5
E
330
B
100
AcDbEntity
  8
0
  6
BYBLOCK
 62
     0
370
    -2
100
AcDbVertex
100
AcDb2dVertex
 10
-0.25
 20
0.0
 30
0.0
 42
1.0
  0
VERTEX
  5
F
330
B
100
AcDbEntity
  8
0
  6
BYBLOCK
 62
     0
370
    -2
100
AcDbVertex
100
AcDb2dVertex
 10
0.25
 20
0.0
 30
0.0
 42
1.0
  0
SEQEND
  5
10
330
B
100
AcDbEntity
  8
0
  6
BYBLOCK
 62
     0
370
    -2
  0
LINE
  5
11
330
B
100
AcDbEntity
  8
0
  6
BYBLOCK
 62
     0
370
    -2
100
AcDbLine
 10
-0.5
 20
0.0
 30
0.0
 11
-1.0
 21
0.0
 31
0.0
  0
ENDBLK
  5
12
330
B
100
AcDbEntity
  8
0
100
AcDbBlockEnd
  0
BLOCK
  5
14
330
13
100
AcDbEntity
  8
0
100
AcDbBlockBegin
  2
_OPEN
 70
     0
 10
0.0
 20
0.0
 30
0.0
  3
_OPEN
  1

  0
LINE
  5
15
330
13
100
AcDbEntity
  8
0
  6
BYBLOCK
 62
     0
370
    -2
100
AcDbLine
 10
-1.0
 20
0.166667
 30
0.0
 11
0.0
 21
0.0
 31
0.0
  0
LINE
  5
16
330
13
100
AcDbEntity
  8
0
  6
BYBLOCK
 62
     0
370
    -2
100
AcDbLine
 10
0.0
 20
0.0
 30
0.0
 11
-1.0
 21
-0.166667
 31
0.0
  0
LINE
  5
17
330
13
100
AcDbEntity
  8
0
  6
BYBLOCK
 62
     0
370
    -2
100
AcDbLine
 10
0.0
 20
0.0
 30
0.0
 11
-1.0
 21
0.0
 31
0.0
  0
ENDBLK
  5
18
330
13
100
AcDbEntity
  8
0
100
AcDbBlockEnd
  0
BLOCK
  5
1A
330
19
100
AcDbEntity
  8
0
100
AcDbBlockBegin
  2
_ORIGIN
 70
     0
 10
0.0
 20
0.0
 30
0.0
  3
_ORIGIN
  1

  0
CIRCLE
  5
1B
330
19
100
AcDbEntity
  8
0
  6
BYBLOCK
 62
     0
370
    -2
100
AcDbCircle
 10
0.0
 20
0.0
 30
0.0
 40
0.5
  0
LINE
  5
1C
330
19
100
AcDbEntity
  8
0
  6
BYBLOCK
 62
     0
370
    -2
100
AcDbLine
 10
0.0
 20
0.0
 30
0.0
 11
-1.0
 21
0.0
 31
0.0
  0
ENDBLK
  5
1D
330
19
100
AcDbEntity
  8
0
100
AcDbBlockEnd
  0
BLOCK
  5
1F
330
1E
100
AcDbEntity
  8
0
100
AcDbBlockBegin
  2
_OPEN30
 70
     0
 10
0.0
 20
0.0
 30
0.0
  3
_OPEN30
  1

  0
LINE
  5
20
330
1E
100
AcDbEntity
  8
0
  6
BYBLOCK
 62
     0
370
    -2
100
AcDbLine
 10
-1.0
 20
0.267949
 30
0.0
 11
0.0
 21
0.0
 31
0.0
  0
LINE
  5
21
330
1E
100
AcDbEntity
  8
0
  6
BYBLOCK
 62
     0
370
    -2
100
AcDbLine
 10
0.0
 20
0.0
 30
0.0
 11
-1.0
 21
-0.267949
 31
0.0
  0
LINE
  5
22
330
1E
100
AcDbEntity
  8
0
  6
BYBLOCK
 62
     0
370
    -2
100
AcDbLine
 10
0.0
 20
0.0
 30
0.0
 11
-1.0
 21
0.0
 31
0.0
  0
ENDBLK
  5
23
330
1E
100
AcDbEntity
  8
0
100
AcDbBlockEnd
  0
BLOCK
  5
25
330
24
100
AcDbEntity
  8
0
100
AcDbBlockBegin
  2
_BOXFILLED
 70
     0
 10
0.0
 20
0.0
 30
0.0
  3
_BOXFILLED
  1

  0
SOLID
  5
26
330
24
100
AcDbEntity
  8
0
  6
BYBLOCK
 62
     0
370
    -2
100
AcDbTrace
 10
-0.5
 20
0.5
 30
0.0
 11
0.5
 21
0.5
 31
0.0
 12
-0.5
 22
-0.5
 32
0.0
 13
0.5
 23
-0.5
 33
0.0
  0
LINE
  5
27
330
24
100
AcDbEntity
  8
0
  6
BYBLOCK
 62
     0
370
    -2
100
AcDbLine
 10
-0.5
 20
0.0
 30
0.0
 11
-1.0
 21
0.0
 31
0.0
  0
ENDBLK
  5
28
330
24
100
AcDbEntity
  8
0
100
AcDbBlockEnd
  0
BLOCK
  5
2A
330
29
100
AcDbEntity
  8
0
100
AcDbBlockBegin
  2
_BOXBLANK
 70
     0
 10
0.0
 20
0.0
 30
0.0
  3
_BOXBLANK
  1

  0
LINE
  5
2B
330
29
100
AcDbEntity
  8
0
  6
BYBLOCK
 62
     0
370
    -2
100
AcDbLine
 10
-0.5
 20
-0.5
 30
0.0
 11
0.5
 21
-0.5
 31
0.0
  0
LINE
  5
2C
330
29
100
AcDbEntity
  8
0
  6
BYBLOCK
 62
     0
370
    -2
100
AcDbLine
 10
0.5
 20
-0.5
 30
0.0
 11
0.5
 21
0.5
 31
0.0
  0
LINE
  5
2D
330
29
100
AcDbEntity
  8
0
  6
BYBLOCK
 62
     0
370
    -2
100
AcDbLine
 10
0.5
 20
0.5
 30
0.0
 11
-0.5
 21
0.5
 31
0.0
  0
LINE
  5
2E
330
29
100
AcDbEntity
  8
0
  6
BYBLOCK
 62
     0
370
    -2
100
AcDbLine
 10
-0.5
 20
0.5
 30
0.0
 11
-0.5
 21
-0.5
 31
0.0
  0
LINE
  5
2F
330
29
100
AcDbEntity
  8
0
  6
BYBLOCK
 62
     0
370
    -2
100
AcDbLine
 10
-0.5
 20
0.0
 30
0.0
 11
-1.0
 21
0.0
 31
0.0
  0
ENDBLK
  5
30
330
29
100
AcDbEntity
  8
0
100
AcDbBlockEnd
  0
BLOCK
  5
32
330
31
100
AcDbEntity
  8
0
100
AcDbBlockBegin
  2
_OBLIQUE
 70
     0
 10
0.0
 20
0.0
 30
0.0
  3
_OBLIQUE
  1

  0
LINE
  5
33
330
31
100
AcDbEntity
  8
0
  6
BYBLOCK
 62
     0
370
    -2
100
AcDbLine
 10
-0.5
 20
-0.5
 30
0.0
 11
0.5
 21
0.5
 31
0.0
  0
ENDBLK
  5
34
330
31
100
AcDbEntity
  8
0
100
AcDbBlockEnd
  0
BLOCK
  5
36
330
35
100
AcDbEntity
  8
0
100
AcDbBlockBegin
  2
_OPEN90
 70
     0
 10
0.0
 20
0.0
 30
0.0
  3
_OPEN90
  1

  0
LINE
  5
37
330
35
100
AcDbEntity
  8
0
  6
BYBLOCK
 62
     0
370
    -2
100
AcDbLine
 10
-0.5
 20
0.5
 30
0.0
 11
0.0
 21
0.0
 31
0.0
  0
LINE
  5
38
330
35
100
AcDbEntity
  8
0
  6
BYBLOCK
 62
     0
370
    -2
100
AcDbLine
 10
0.0
 20
0.0
 30
0.0
 11
-0.5
 21
-0.5
 31
0.0
  0
LINE
  5
39
330
35
100
AcDbEntity
  8
0
  6
BYBLOCK
 62
     0
370
    -2
100
AcDbLine
 10
0.0
 20
0.0
 30
0.0
 11
-1.0
 21
0.0
 31
0.0
  0
ENDBLK
  5
3A
330
35
100
AcDbEntity
  8
0
100
AcDbBlockEnd
  0
BLOCK
  5
3C
330
3B
100
AcDbEntity
  8
0
100
AcDbBlockBegin
  2
_CLOSEDBLANK
 70
     0
 10
0.0
 20
0.0
 30
0.0
  3
_CLOSEDBLANK
  1

  0
LINE
  5
3D
330
3B
100
AcDbEntity
  8
0
  6
BYBLOCK
 62
     0
370
    -2
100
AcDbLine
 10
-1.0
 20
0.1666666666666666
 30
0.0
 11
0.0
 21
0.0
 31
0.0
  0
LINE
  5
3E
330
3B
100
AcDbEntity
  8
0
  6
BYBLOCK
 62
     0
370
    -2
100
AcDbLine
 10
0.0
 20
0.0
 30
0.0
 11
-1.0
 21
-0.1666666666666666
 31
0.0
  0
LINE
  5
3F
330
3B
100
AcDbEntity
  8
0
  6
BYBLOCK
 62
     0
370
    -2
100
AcDbLine
 10
-1.0
 20
0.1666666666666666
 30
0.0
 11
-1.0
 21
-0.1666666666666666
 31
0.0
  0
ENDBLK
  5
40
330
3B
100
AcDbEntity
  8
0
100
AcDbBlockEnd
  0
BLOCK
  5
42
330
41
100
AcDbEntity
  8
0
100
AcDbBlockBegin
  2
_DOTBLANK
 70
     0
 10
0.0
 20
0.0
 30
0.0
  3
_DOTBLANK
  1

  0
CIRCLE
  5
43
330
41
100
AcDbEntity
  8
0
  6
BYBLOCK
 62
     0
370
    -2
100
AcDbCircle
 10
0.0
 20
0.0
 30
0.0
 40
0.5
  0
LINE
  5
44
330
41
100
AcDbEntity
  8
0
  6
BYBLOCK
 62
     0
370
    -2
100
AcDbLine
 10
-0.5
 20
0.0
 30
0.0
 11
-1.0
 21
0.0
 31
0.0
  0
ENDBLK
  5
45
330
41
100
AcDbEntity
  8
0
100
AcDbBlockEnd
  0
ENDSEC
  0
SECTION
  2
ENTITIES
  0
MTEXT
  5
46
100
AcDbEntity
  8
A8
  6
CONTINUOUS
 62
3
100
AcDbMText
 10
9.999997526638502
 20
18.00000076076889
 30
0.000000000000000
 40
3.000000000000000
 41
0.000000000000000
 44
0.6739999771118164
 71
     7
 72
     1
  1
{\H0.94x;{TYPE No.TM-372S-7}}
 11
1.000000000000000
 21
0.000000000000000
 31
0.000000000000000
  7
STANDARD
  0
POINT
  5
47
100
AcDbEntity
  8
A0
  6
CONTINUOUS
 62
3
100
AcDbPoint
 10
9.999997526638502
 20
18.00000076076889
 30
0.000000000000000
  0
POINT
  5
48
100
AcDbEntity
  8
A10
  6
CONTINUOUS
 62
3
100
AcDbPoint
 10
50.00000000000000
 20
50.00000000000000
 30
0.000000000000000
  0
LINE
  5
49
100
AcDbEntity
  8
A10
  6
CONTINUOUS
 62
7
100
AcDbLine
 10
77.49821930847470
 20
107.9959167771175
 30
0.000000000000000
 11
142.4982193084738
 21
107.9959167769768
 31
0.000000000000000
  0
LINE
  5
4A
100
AcDbEntity
  8
A8
  6
CONTINUOUS
 62
7
100
AcDbLine
 10
101.9982193085213
 20
140.4959163771296
 30
0.000000000000000
 11
101.9982193087879
 21
260.9959166430855
 31
0.000000000000000
  0
LINE
  5
4B
100
AcDbEntity
  8
A8
  6
CONTINUOUS
 62
7
100
AcDbLine
 10
101.9982193088377
 20
283.4913364990612
 30
0.000000000000000
 11
101.9982193088377
 21
283.4959169428872
 31
0.000000000000000
  0
LINE
  5
4C
100
AcDbEntity
  8
A5
  6
CONTINUOUS
 62
4
100
AcDbLine
 10
103.0812193085242
 20
139.4959167771950
 30
0.000000000000000
 11
103.0812193087950
 21
262.0789166430890
 31
0.000000000000000
  0
LINE
  5
4D
100
AcDbEntity
  8
A8
  6
CONTINUOUS
 62
7
100
AcDbLine
 10
117.9982193085341
 20
140.4959163771123
 30
0.000000000000000
 11
117.9982193085283
 21
260.9959166430682
 31
0.000000000000000
  0
LINE
  5
4E
100
AcDbEntity
  8
A5
  6
CONTINUOUS
 62
4
100
AcDbLine
 10
116.9152193085291
 20
139.4959167771800
 30
0.000000000000000
 11
116.9152193085236
 21
262.0789166430740
 31
0.000000000000000
  0
LINE
  5
4F
100
AcDbEntity
  8
A3
  6
CENTER
 62
1
100
AcDbLine
 10
109.9982193084853
 20
100.4959167773001
 30
0.000000000000000
 11
109.9982193086367
 21
268.4959166429620
 31
0.000000000000000
  0
LINE
  5
50
100
AcDbEntity
  8
A3
  6
CENTER
 62
1
100
AcDbLine
 10
109.9982193086502
 20
283.4913364990438
 30
0.000000000000000
 11
109.9982193086709
 21
306.4913364990438
 31
0.000000000000000
  0
LINE
  5
51
100
AcDbEntity
  8
DXF0
  6
CONTINUOUS
 62
7
100
AcDbLine
 10
77.49821930847470
 20
107.9959167771175
 30
0.000000000000000
 11
77.49821930846930
 21
105.4959167771593
 31
0.000000000000000
  0
LINE
  5
52
100
AcDbEntity
  8
DXF0
  6
CONTINUOUS
 62
7
100
AcDbLine
 10
77.49821930849144
 20
105.4959167771593
 30
0.000000000000000
 11
142.4982193084905
 21
105.4959167770186
 31
0.000000000000000
  0
ARC
  5
53
100
AcDbEntity
  8
DXF0
  6
CONTINUOUS
 62
7
100
AcDbCircle
 10
98.69821930845043
 20
116.7959167770717
 30
0.000000000000000
 40
6.700000000001404
100
AcDbArc
 50
89.99999999987598
 51
150.7499999998758
  0
LINE
  5
54
100
AcDbEntity
  8
DXF0
  6
CONTINUOUS
 62
7
100
AcDbLine
 10
87.58007077536263
 20
110.6550863213042
 30
0.000000000000000
 11
92.85249606107374
 21
120.0696790951238
 31
0.000000000000000
  0
ARC
  5
55
100
AcDbEntity
  8
DXF0
  6
CONTINUOUS
 62
7
100
AcDbCircle
 10
83.04309153859364
 20
113.1959167771057
 30
0.000000000000000
 40
5.200000000000102
100
AcDbArc
 50
269.9999999998760
 51
330.7499999997844
  0
LINE
  5
56
100
AcDbEntity
  8
DXF0
  6
CONTINUOUS
 62
7
100
AcDbLine
 10
121.2982193085238
 20
123.4959167768779
 30
0.000000000000000
 11
98.69821930846489
 21
123.4959167769267
 31
0.000000000000000
  0
ARC
  5
57
100
AcDbEntity
  8
DXF0
  6
CONTINUOUS
 62
7
100
AcDbCircle
 10
99.60591446308857
 20
128.6904239732663
 30
0.000000000000000
 40
5.194507196244844
100
AcDbArc
 50
269.9999999994255
 51
311.8265480895158
  0
ARC
  5
58
100
AcDbEntity
  8
DXF0
  6
CONTINUOUS
 62
7
100
AcDbCircle
 10
109.9982193085012
 20
142.2883484133118
 30
0.000000000000000
 40
18.79243163626666
100
AcDbArc
 50
248.3663922326449
 51
291.6336077673514
  0
LINE
  5
59
100
AcDbEntity
  8
DXF0
  6
CONTINUOUS
 62
7
100
AcDbLine
 10
103.0700160782269
 20
124.8196482096970
 30
0.000000000000000
 11
103.0700160782269
 21
133.4959167770685
 31
0.000000000000000
  0
LINE
  5
5A
100
AcDbEntity
  8
DXF0
  6
CONTINUOUS
 62
7
100
AcDbLine
 10
96.14181284795005
 20
124.8563886812464
 30
0.000000000000000
 11
98.49821930850121
 21
123.4959167769271
 31
0.000000000000000
  0
LINE
  5
5B
100
AcDbEntity
  8
DXF0
  6
CONTINUOUS
 62
7
100
AcDbLine
 10
96.14181284795005
 20
124.8563886813729
 30
0.000000000000000
 11
96.14181284795005
 21
133.4959167770836
 31
0.000000000000000
  0
LINE
  5
5C
100
AcDbEntity
  8
DXF0
  6
CONTINUOUS
 62
7
100
AcDbLine
 10
96.14181284795006
 20
133.4959167770836
 30
0.000000000000000
 11
123.8546257690458
 21
133.4959167770237
 31
0.000000000000000
  0
LINE
  5
5D
100
AcDbEntity
  8
DXF0
  6
CONTINUOUS
 62
7
100
AcDbLine
 10
103.2482193085206
 20
133.9959167771952
 30
0.000000000000000
 11
103.2482193085265
 21
139.4959167771946
 31
0.000000000000000
  0
ARC
  5
5E
100
AcDbEntity
  8
DXF0
  6
CONTINUOUS
 62
7
100
AcDbCircle
 10
102.7482193085206
 20
133.9959167770693
 30
0.000000000000000
 40
0.4999999999999949
100
AcDbArc
 50
270.0000000000000
 51
360.0000000000000
  0
LINE
  5
5F
100
AcDbEntity
  8
DXF0
  6
CONTINUOUS
 62
7
100
AcDbLine
 10
101.9982193085213
 20
140.4959167771800
 30
0.000000000000000
 11
117.9982193085341
 21
140.4959167771454
 31
0.000000000000000
  0
LINE
  5
60
100
AcDbEntity
  8
DXF0
  6
CONTINUOUS
 62
7
100
AcDbLine
 10
102.9982193085199
 20
139.4959167771952
 30
0.000000000000000
 11
116.9982193085198
 21
139.4959167771649
 31
0.000000000000000
  0
LINE
  5
61
100
AcDbEntity
  8
DXF0
  6
CONTINUOUS
 62
7
100
AcDbLine
 10
102.9982193085199
 20
139.4959167771951
 30
0.000000000000000
 11
101.9982193085213
 21
140.4959167771974
 31
0.000000000000000
  0
ARC
  5
62
100
AcDbEntity
  8
DXF0
  6
CONTINUOUS
 62
7
100
AcDbCircle
 10
121.2982193085496
 20
116.7959167770513
 30
0.000000000000000
 40
6.700000000001404
100
AcDbArc
 50
29.25000000002095
 51
90.00000000002076
  0
LINE
  5
63
100
AcDbEntity
  8
DXF0
  6
CONTINUOUS
 62
7
100
AcDbLine
 10
132.4163678416264
 20
110.6550863212638
 30
0.000000000000000
 11
127.1439425559322
 21
120.0696790950930
 31
0.000000000000000
  0
ARC
  5
64
100
AcDbEntity
  8
DXF0
  6
CONTINUOUS
 62
7
100
AcDbCircle
 10
136.9533470783999
 20
113.1959167770571
 30
0.000000000000000
 40
5.200000000000102
100
AcDbArc
 50
209.2500000001124
 51
270.0000000000207
  0
ARC
  5
65
100
AcDbEntity
  8
DXF0
  6
CONTINUOUS
 62
7
100
AcDbCircle
 10
120.3905241539329
 20
128.6904239732476
 30
0.000000000000000
 40
5.194507196244844
100
AcDbArc
 50
228.1734519103809
 51
270.0000000004713
  0
LINE
  5
66
100
AcDbEntity
  8
DXF0
  6
CONTINUOUS
 62
7
100
AcDbLine
 10
116.9264225387875
 20
124.8196482096845
 30
0.000000000000000
 11
116.9264225388032
 21
133.4959167770560
 31
0.000000000000000
  0
LINE
  5
67
100
AcDbEntity
  8
DXF0
  6
CONTINUOUS
 62
7
100
AcDbLine
 10
123.8546257690645
 20
124.8563886812214
 30
0.000000000000000
 11
121.4982193085109
 21
123.4959167769064
 31
0.000000000000000
  0
LINE
  5
68
100
AcDbEntity
  8
DXF0
  6
CONTINUOUS
 62
7
100
AcDbLine
 10
123.8546257690645
 20
124.8563886813479
 30
0.000000000000000
 11
123.8546257690800
 21
133.4959167770586
 31
0.000000000000000
  0
LINE
  5
69
100
AcDbEntity
  8
DXF0
  6
CONTINUOUS
 62
7
100
AcDbLine
 10
116.7482193085104
 20
133.9959167771830
 30
0.000000000000000
 11
116.7482193085144
 21
139.4959167771824
 31
0.000000000000000
  0
ARC
  5
6A
100
AcDbEntity
  8
DXF0
  6
CONTINUOUS
 62
7
100
AcDbCircle
 10
117.2482193085104
 20
133.9959167770562
 30
0.000000000000000
 40
0.4999999999999949
100
AcDbArc
 50
179.9999999998968
 51
269.9999999998968
  0
LINE
  5
6B
100
AcDbEntity
  8
DXF0
  6
CONTINUOUS
 62
7
100
AcDbLine
 10
116.9982193085210
 20
139.4959167771825
 30
0.000000000000000
 11
117.9982193085214
 21
140.4959167771829
 31
0.000000000000000
  0
LINE
  5
6C
100
AcDbEntity
  8
DXF0
  6
CONTINUOUS
 62
7
100
AcDbLine
 10
142.4982193085094
 20
107.9959167770589
 30
0.000000000000000
 11
142.4982193085103
 21
105.4959167771007
 31
0.000000000000000
  0
LINE
  5
6D
100
AcDbEntity
  8
DXF0
  6
CONTINUOUS
 62
7
100
AcDbLine
 10
104.4982193086495
 20
263.4959166429738
 30
0.000000000000000
 11
115.4982193086288
 21
263.4959166429500
 31
0.000000000000000
  0
LINE
  5
6E
100
AcDbEntity
  8
DXF0
  6
CONTINUOUS
 62
7
100
AcDbLine
 10
101.9982193086465
 20
260.9959166429792
 30
0.000000000000000
 11
117.9982193086464
 21
260.9959166429446
 31
0.000000000000000
  0
LINE
  5
6F
100
AcDbEntity
  8
DXF0
  6
CONTINUOUS
 62
7
100
AcDbLine
 10
104.4982193086670
 20
263.4959166429913
 30
0.000000000000000
 11
101.9982193086641
 21
260.9959166429967
 31
0.000000000000000
  0
LINE
  5
70
100
AcDbEntity
  8
DXF0
  6
CONTINUOUS
 62
7
100
AcDbLine
 10
115.4982193085974
 20
263.4959166429815
 30
0.000000000000000
 11
117.9982193085958
 21
260.9959166429823
 31
0.000000000000000
  0
LINE
  5
71
100
AcDbEntity
  8
DXF0
  6
CONTINUOUS
 62
7
100
AcDbLine
 10
121.4982193088172
 20
288.4913364988675
 30
0.000000000000000
 11
98.49821930837926
 21
288.4913364989173
 31
0.000000000000000
  0
LINE
  5
72
100
AcDbEntity
  8
DXF0
  6
CONTINUOUS
 62
7
100
AcDbLine
 10
123.8546257692428
 20
301.4913364990138
 30
0.000000000000000
 11
96.14181284809023
 21
301.4913364990738
 31
0.000000000000000
  0
LINE
  5
73
100
AcDbEntity
  8
DXF0
  6
CONTINUOUS
 62
7
100
AcDbLine
 10
103.0700160783670
 20
289.8518084032366
 30
0.000000000000000
 11
103.0700160783670
 21
301.4913364990738
 31
0.000000000000000
  0
LINE
  5
74
100
AcDbEntity
  8
DXF0
  6
CONTINUOUS
 62
7
100
AcDbLine
 10
96.14181284809015
 20
289.8518084032365
 30
0.000000000000000
 11
98.49821930864130
 21
288.4913364989173
 31
0.000000000000000
  0
ARC
  5
75
100
AcDbEntity
  8
DXF0
  6
CONTINUOUS
 62
7
100
AcDbCircle
 10
99.60591446322874
 20
293.6858436952566
 30
0.000000000000000
 40
5.194507196339167
100
AcDbArc
 50
269.9999999994255
 51
311.8265480895158
  0
ARC
  5
76
100
AcDbEntity
  8
DXF0
  6
CONTINUOUS
 62
7
100
AcDbCircle
 10
109.9982193086414
 20
307.2837681353021
 30
0.000000000000000
 40
18.79243163638440
100
AcDbArc
 50
248.3663922326449
 51
291.6336077673514
  0
LINE
  5
77
100
AcDbEntity
  8
DXF0
  6
CONTINUOUS
 62
7
100
AcDbLine
 10
96.14181284809023
 20
289.8518084032366
 30
0.000000000000000
 11
96.14181284809023
 21
301.4913364990738
 31
0.000000000000000
  0
LINE
  5
78
100
AcDbEntity
  8
DXF0
  6
CONTINUOUS
 62
7
100
AcDbLine
 10
116.9264225389451
 20
289.8518084032241
 30
0.000000000000000
 11
116.9264225389660
 21
301.4913364990613
 31
0.000000000000000
  0
LINE
  5
79
100
AcDbEntity
  8
DXF0
  6
CONTINUOUS
 62
7
100
AcDbLine
 10
123.8546257692218
 20
289.8518084032117
 30
0.000000000000000
 11
121.4982193086682
 21
288.4913364988968
 31
0.000000000000000
  0
ARC
  5
7A
100
AcDbEntity
  8
DXF0
  6
CONTINUOUS
 62
7
100
AcDbCircle
 10
120.3905241540902
 20
293.6858436952379
 30
0.000000000000000
 40
5.194507196339167
100
AcDbArc
 50
228.1734519103811
 51
270.0000000004716
  0
LINE
  5
7B
100
AcDbEntity
  8
DXF0
  6
CONTINUOUS
 62
7
100
AcDbLine
 10
123.8546257692218
 20
289.8518084032116
 30
0.000000000000000
 11
123.8546257692428
 21
301.4913364990488
 31
0.000000000000000
  0
CIRCLE
  5
7C
100
AcDbEntity
  8
DXF0
  6
CONTINUOUS
 62
7
100
AcDbCircle
 10
109.9982193084141
 20
358.9959167773000
 30
0.000000000000000
 40
32.50000000000000
  0
ARC
  5
7D
100
AcDbEntity
  8
DXF0
  6
CONTINUOUS
 62
7
100
AcDbCircle
 10
109.9982193084141
 20
358.9959167773000
 30
0.000000000000000
 40
18.54145188431719
100
AcDbArc
 50
183.0916453145555
 51
266.9083546854444
  0
ARC
  5
7E
100
AcDbEntity
  8
DXF0
  6
CONTINUOUS
 62
7
100
AcDbCircle
 10
109.9982193084141
 20
358.9959167773000
 30
0.000000000000000
 40
18.54145188431719
100
AcDbArc
 50
273.0916453145558
 51
356.9083546854445
  0
ARC
  5
7F
100
AcDbEntity
  8
DXF0
  6
CONTINUOUS
 62
7
100
AcDbCircle
 10
109.9982193084141
 20
358.9959167773000
 30
0.000000000000000
 40
27.49038105679207
100
AcDbArc
 50
182.0846718323751
 51
267.9153281676249
  0
ARC
  5
80
100
AcDbEntity
  8
DXF0
  6
CONTINUOUS
 62
7
100
AcDbCircle
 10
109.9982193084141
 20
358.9959167773000
 30
0.000000000000000
 40
27.49038105679207
100
AcDbArc
 50
272.0846718323752
 51
357.9153281676249
  0
ARC
  5
81
100
AcDbEntity
  8
DXF0
  6
CONTINUOUS
 62
7
100
AcDbCircle
 10
109.9982193084141
 20
358.9959167773000
 30
0.000000000000000
 40
27.49038105679207
100
AcDbArc
 50
2.084671832375186
 51
87.91532816762475
  0
ARC
  5
82
100
AcDbEntity
  8
DXF0
  6
CONTINUOUS
 62
7
100
AcDbCircle
 10
109.9982193084141
 20
358.9959167773000
 30
0.000000000000000
 40
27.49038105679207
100
AcDbArc
 50
92.08467183237515
 51
177.9153281676248
  0
ARC
  5
83
100
AcDbEntity
  8
DXF0
  6
CONTINUOUS
 62
7
100
AcDbCircle
 10
109.9982193084141
 20
358.9959167773000
 30
0.000000000000000
 40
18.54145188431719
100
AcDbArc
 50
3.091645314555701
 51
86.90835468544421
  0
ARC
  5
84
100
AcDbEntity
  8
DXF0
  6
CONTINUOUS
 62
7
100
AcDbCircle
 10
109.9982193084141
 20
358.9959167773000
 30
0.000000000000000
 40
18.54145188431719
100
AcDbArc
 50
93.09164531455565
 51
176.9083546854443
  0
CIRCLE
  5
85
100
AcDbEntity
  8
DXF0
  6
CONTINUOUS
 62
7
100
AcDbCircle
 10
109.9982193084141
 20
358.9959167773000
 30
0.000000000000000
 40
5.499999999999986
  0
CIRCLE
  5
86
100
AcDbEntity
  8
DXF0
  6
CONTINUOUS
 62
7
100
AcDbCircle
 10
109.9982193084141
 20
358.9959167773000
 30
0.000000000000000
 40
7.999999999999972
  0
LINE
  5
87
100
AcDbEntity
  8
A3
  6
CENTER
 62
1
100
AcDbLine
 10
72.49821930841409
 20
358.9959167773000
 30
0.000000000000000
 11
147.4982193084141
 21
358.9959167773000
 31
0.000000000000000
  0
LINE
  5
88
100
AcDbEntity
  8
A3
  6
CENTER
 62
1
100
AcDbLine
 10
109.9982193084141
 20
321.4959167773000
 30
0.000000000000000
 11
109.9982193084141
 21
396.4959167773000
 31
0.000000000000000
  0
LINE
  5
89
100
AcDbEntity
  8
DXF0
  6
CONTINUOUS
 62
7
100
AcDbLine
 10
103.0700160781384
 20
346.9959167773002
 30
0.000000000000000
 11
116.9264225386892
 21
346.9959167772998
 31
0.000000000000000
  0
LINE
  5
8A
100
AcDbEntity
  8
DXF0
  6
CONTINUOUS
 62
7
100
AcDbLine
 10
116.9264225386892
 20
346.9959167772997
 30
0.000000000000000
 11
123.8546257689651
 21
358.9959167773002
 31
0.000000000000000
  0
LINE
  5
8B
100
AcDbEntity
  8
DXF0
  6
CONTINUOUS
 62
7
100
AcDbLine
 10
123.8546257689652
 20
358.9959167773002
 30
0.000000000000000
 11
116.9264225386906
 21
370.9959167772996
 31
0.000000000000000
  0
LINE
  5
8C
100
AcDbEntity
  8
DXF0
  6
CONTINUOUS
 62
7
100
AcDbLine
 10
116.9264225386906
 20
370.9695862712221
 30
0.000000000000000
 11
103.0700160781399
 21
370.9695862712232
 31
0.000000000000000
  0
LINE
  5
8D
100
AcDbEntity
  8
DXF0
  6
CONTINUOUS
 62
7
100
AcDbLine
 10
96.14181284786292
 20
358.9959167773001
 30
0.000000000000000
 11
103.0700160781375
 21
370.9959167772996
 31
0.000000000000000
  0
LINE
  5
8E
100
AcDbEntity
  8
DXF0
  6
CONTINUOUS
 62
7
100
AcDbLine
 10
103.0700160781389
 20
346.9959167772998
 30
0.000000000000000
 11
96.14181284786301
 21
358.9959167773002
 31
0.000000000000000
  0
CIRCLE
  5
8F
100
AcDbEntity
  8
DXF0
  6
CONTINUOUS
 62
4
100
AcDbCircle
 10
109.9982193084141
 20
358.9959167773000
 30
0.000000000000000
 40
6.916999999621467
  0
CIRCLE
  5
90
100
AcDbEntity
  8
DXF0
  6
CONTINUOUS
 62
7
100
AcDbCircle
 10
109.9982193084141
 20
47.99678245414766
 30
0.000000000000000
 40
32.50000000000000
  0
ARC
  5
91
100
AcDbEntity
  8
DXF0
  6
CONTINUOUS
 62
7
100
AcDbCircle
 10
109.9982193084141
 20
47.99678245414766
 30
0.000000000000000
 40
12.50000000011000
100
AcDbArc
 50
73.73979528995540
 51
106.2602047100342
  0
ARC
  5
92
100
AcDbEntity
  8
DXF0
  6
CONTINUOUS
 62
7
100
AcDbCircle
 10
109.9982193084141
 20
47.99678245414766
 30
0.000000000000000
 40
12.50000000011000
100
AcDbArc
 50
253.7397952899585
 51
286.2602047100381
  0
ARC
  5
93
100
AcDbEntity
  8
DXF0
  6
CONTINUOUS
 62
7
100
AcDbCircle
 10
109.9982193084141
 20
47.99678245414766
 30
0.000000000000000
 40
22.26110699900980
100
AcDbArc
 50
182.5746728077958
 51
267.4253271922041
  0
ARC
  5
94
100
AcDbEntity
  8
DXF0
  6
CONTINUOUS
 62
7
100
AcDbCircle
 10
109.9982193084141
 20
47.99678245414766
 30
0.000000000000000
 40
22.26110699900980
100
AcDbArc
 50
272.5746728077958
 51
357.4253271922043
  0
ARC
  5
95
100
AcDbEntity
  8
DXF0
  6
CONTINUOUS
 62
7
100
AcDbCircle
 10
109.9982193084141
 20
47.99678245414766
 30
0.000000000000000
 40
22.26110699900980
100
AcDbArc
 50
2.574672807795856
 51
87.42532719220421
  0
ARC
  5
96
100
AcDbEntity
  8
DXF0
  6
CONTINUOUS
 62
7
100
AcDbCircle
 10
109.9982193084141
 20
47.99678245414766
 30
0.000000000000000
 40
22.26110699900980
100
AcDbArc
 50
92.57467280779579
 51
177.4253271922042
  0
LINE
  5
97
100
AcDbEntity
  8
A3
  6
CENTER
 62
1
100
AcDbLine
 10
72.49821930841409
 20
47.99678245414765
 30
0.000000000000000
 11
147.4982193084141
 21
47.99678245414765
 31
0.000000000000000
  0
LINE
  5
98
100
AcDbEntity
  8
A3
  6
CENTER
 62
1
100
AcDbLine
 10
109.9982193084141
 20
10.49678245414765
 30
0.000000000000000
 11
109.9982193084141
 21
85.49678245414763
 31
0.000000000000000
  0
CIRCLE
  5
99
100
AcDbEntity
  8
DXF0
  6
CONTINUOUS
 62
7
100
AcDbCircle
 10
109.9982193084141
 20
47.99678245414766
 30
0.000000000000000
 40
7.399999999999984
  0
CIRCLE
  5
9A
100
AcDbEntity
  8
DXF0
  6
CONTINUOUS
 62
7
100
AcDbCircle
 10
109.9982193084141
 20
47.99678245414766
 30
0.000000000000000
 40
6.399999999999984
  0
ARC
  5
9B
100
AcDbEntity
  8
DXF0
  6
CONTINUOUS
 62
7
100
AcDbCircle
 10
109.9982193084141
 20
47.99678245414766
 30
0.000000000000000
 40
12.50000000011000
100
AcDbArc
 50
313.7397952899577
 51
346.2602047100404
  0
ARC
  5
9C
100
AcDbEntity
  8
DXF0
  6
CONTINUOUS
 62
7
100
AcDbCircle
 10
109.9982193084141
 20
47.99678245414766
 30
0.000000000000000
 40
12.50000000011000
100
AcDbArc
 50
13.73979528996296
 51
46.26020471003254
  0
ARC
  5
9D
100
AcDbEntity
  8
DXF0
  6
CONTINUOUS
 62
7
100
AcDbCircle
 10
109.9982193084141
 20
47.99678245414766
 30
0.000000000000000
 40
12.50000000011000
100
AcDbArc
 50
133.7397952899500
 51
166.2602047100439
  0
ARC
  5
9E
100
AcDbEntity
  8
DXF0
  6
CONTINUOUS
 62
7
100
AcDbCircle
 10
109.9982193084141
 20
47.99678245414766
 30
0.000000000000000
 40
12.50000000011000
100
AcDbArc
 50
193.7397952899606
 51
226.2602047100381
  0
LINE
  5
9F
100
AcDbEntity
  8
DXF0
  6
CONTINUOUS
 62
7
100
AcDbLine
 10
96.14181284786289
 20
47.99678245414781
 30
0.000000000000000
 11
103.0700160781375
 21
59.99678245414725
 31
0.000000000000000
  0
LINE
  5
A0
100
AcDbEntity
  8
DXF0
  6
CONTINUOUS
 62
7
100
AcDbLine
 10
116.9264225386906
 20
59.97045194806968
 30
0.000000000000000
 11
103.0700160781399
 21
59.97045194807087
 31
0.000000000000000
  0
LINE
  5
A1
100
AcDbEntity
  8
DXF0
  6
CONTINUOUS
 62
7
100
AcDbLine
 10
103.0700160781389
 20
35.99678245414746
 30
0.000000000000000
 11
96.14181284786301
 21
47.99678245414782
 31
0.000000000000000
  0
LINE
  5
A2
100
AcDbEntity
  8
DXF0
  6
CONTINUOUS
 62
7
100
AcDbLine
 10
103.0700160781384
 20
35.99678245414781
 30
0.000000000000000
 11
116.9264225386892
 21
35.99678245414741
 31
0.000000000000000
  0
LINE
  5
A3
100
AcDbEntity
  8
DXF0
  6
CONTINUOUS
 62
7
100
AcDbLine
 10
116.9264225386892
 20
35.99678245414746
 30
0.000000000000000
 11
123.8546257689651
 21
47.99678245414781
 31
0.000000000000000
  0
LINE
  5
A4
100
AcDbEntity
  8
DXF0
  6
CONTINUOUS
 62
7
100
AcDbLine
 10
123.8546257689652
 20
47.99678245414781
 30
0.000000000000000
 11
116.9264225386906
 21
59.99678245414725
 31
0.000000000000000
  0
ARC
  5
A5
100
AcDbEntity
  8
DXF0
  6
CONTINUOUS
 62
7
100
AcDbCircle
 10
109.9982193084142
 20
47.99678245414766
 30
0.000000000000000
 40
3.499999999999927
100
AcDbArc
 50
73.32825096401848
 51
106.6717490359765
  0
LINE
  5
A6
100
AcDbEntity
  8
DXF0
  6
CONTINUOUS
 62
7
100
AcDbLine
 10
111.0248673983822
 20
50.05837774203514
 30
0.000000000000000
 11
111.0023280404722
 21
51.34965669190314
 31
0.000000000000000
  0
LINE
  5
A7
100
AcDbEntity
  8
DXF0
  6
CONTINUOUS
 62
7
100
AcDbLine
 10
111.3437014936210
 20
49.34226463935443
 30
0.000000000000000
 11
111.0248673983823
 21
50.05837774203516
 31
0.000000000000000
  0
LINE
  5
A8
100
AcDbEntity
  8
DXF0
  6
CONTINUOUS
 62
7
100
AcDbLine
 10
111.3437014936208
 20
49.34226463935443
 30
0.000000000000000
 11
112.0598145963003
 21
49.02343054411627
 31
0.000000000000000
  0
LINE
  5
A9
100
AcDbEntity
  8
DXF0
  6
CONTINUOUS
 62
7
100
AcDbLine
 10
108.9715712184460
 20
50.05837774203511
 30
0.000000000000000
 11
108.9941105763560
 21
51.34965669190313
 31
0.000000000000000
  0
LINE
  5
AA
100
AcDbEntity
  8
DXF0
  6
CONTINUOUS
 62
7
100
AcDbLine
 10
108.6527371232072
 20
49.34226463935443
 30
0.000000000000000
 11
108.9715712184459
 21
50.05837774203513
 31
0.000000000000000
  0
LINE
  5
AB
100
AcDbEntity
  8
DXF0
  6
CONTINUOUS
 62
7
100
AcDbLine
 10
108.6527371232074
 20
49.34226463935446
 30
0.000000000000000
 11
107.9366240205279
 21
49.02343054411628
 31
0.000000000000000
  0
ARC
  5
AC
100
AcDbEntity
  8
DXF0
  6
CONTINUOUS
 62
7
100
AcDbCircle
 10
109.9982193084141
 20
47.99678245414776
 30
0.000000000000000
 40
3.499999999999927
100
AcDbArc
 50
163.3282509640185
 51
196.6717490359765
  0
LINE
  5
AD
100
AcDbEntity
  8
DXF0
  6
CONTINUOUS
 62
7
100
AcDbLine
 10
107.9366240205266
 20
49.02343054411578
 30
0.000000000000000
 11
106.6453450706586
 21
49.00089118620578
 31
0.000000000000000
  0
LINE
  5
AE
100
AcDbEntity
  8
DXF0
  6
CONTINUOUS
 62
7
100
AcDbLine
 10
108.6527371232073
 20
49.34226463935453
 30
0.000000000000000
 11
107.9366240205266
 21
49.02343054411583
 31
0.000000000000000
  0
LINE
  5
AF
100
AcDbEntity
  8
DXF0
  6
CONTINUOUS
 62
7
100
AcDbLine
 10
107.9366240205266
 20
46.97013436417953
 30
0.000000000000000
 11
106.6453450706586
 21
46.99267372208953
 31
0.000000000000000
  0
LINE
  5
B0
100
AcDbEntity
  8
DXF0
  6
CONTINUOUS
 62
7
100
AcDbLine
 10
108.6527371232073
 20
46.65130026894074
 30
0.000000000000000
 11
107.9366240205266
 21
46.97013436417944
 31
0.000000000000000
  0
LINE
  5
B1
100
AcDbEntity
  8
DXF0
  6
CONTINUOUS
 62
7
100
AcDbLine
 10
108.6527371232073
 20
46.65130026894095
 30
0.000000000000000
 11
108.9715712184454
 21
45.93518716626144
 31
0.000000000000000
  0
ARC
  5
B2
100
AcDbEntity
  8
DXF0
  6
CONTINUOUS
 62
7
100
AcDbCircle
 10
109.9982193084140
 20
47.99678245414764
 30
0.000000000000000
 40
3.499999999999927
100
AcDbArc
 50
253.3282509640185
 51
286.6717490359765
  0
LINE
  5
B3
100
AcDbEntity
  8
DXF0
  6
CONTINUOUS
 62
7
100
AcDbLine
 10
108.9715712184460
 20
45.93518716626016
 30
0.000000000000000
 11
108.9941105763560
 21
44.64390821639218
 31
0.000000000000000
  0
LINE
  5
B4
100
AcDbEntity
  8
DXF0
  6
CONTINUOUS
 62
7
100
AcDbLine
 10
108.6527371232072
 20
46.65130026894083
 30
0.000000000000000
 11
108.9715712184459
 21
45.93518716626010
 31
0.000000000000000
  0
LINE
  5
B5
100
AcDbEntity
  8
DXF0
  6
CONTINUOUS
 62
7
100
AcDbLine
 10
111.0248673983822
 20
45.93518716626017
 30
0.000000000000000
 11
111.0023280404722
 21
44.64390821639216
 31
0.000000000000000
  0
LINE
  5
B6
100
AcDbEntity
  8
DXF0
  6
CONTINUOUS
 62
7
100
AcDbLine
 10
111.3437014936210
 20
46.65130026894087
 30
0.000000000000000
 11
111.0248673983823
 21
45.93518716626014
 31
0.000000000000000
  0
LINE
  5
B7
100
AcDbEntity
  8
DXF0
  6
CONTINUOUS
 62
7
100
AcDbLine
 10
111.3437014936208
 20
46.65130026894084
 30
0.000000000000000
 11
112.0598145963003
 21
46.97013436417902
 31
0.000000000000000
  0
ARC
  5
B8
100
AcDbEntity
  8
DXF0
  6
CONTINUOUS
 62
7
100
AcDbCircle
 10
109.9982193084141
 20
47.99678245414776
 30
0.000000000000000
 40
3.499999999999927
100
AcDbArc
 50
343.3282509640235
 51
376.6717490359815
  0
LINE
  5
B9
100
AcDbEntity
  8
DXF0
  6
CONTINUOUS
 62
7
100
AcDbLine
 10
112.0598145963016
 20
46.97013436417953
 30
0.000000000000000
 11
113.3510935461696
 21
46.99267372208953
 31
0.000000000000000
  0
LINE
  5
BA
100
AcDbEntity
  8
DXF0
  6
CONTINUOUS
 62
7
100
AcDbLine
 10
112.0598145963016
 20
49.02343054411575
 30
0.000000000000000
 11
113.3510935461696
 21
49.00089118620573
 31
0.000000000000000
  0
LINE
  5
BB
100
AcDbEntity
  8
A10
  6
CONTINUOUS
 62
7
100
AcDbLine
 10
177.4982193084795
 20
107.9959167769010
 30
0.000000000000000
 11
242.4982193084786
 21
107.9959167767603
 31
0.000000000000000
  0
LINE
  5
BC
100
AcDbEntity
  8
A8
  6
CONTINUOUS
 62
7
100
AcDbLine
 10
201.9982193085261
 20
140.4959163769131
 30
0.000000000000000
 11
201.9982193087927
 21
260.9959166428690
 31
0.000000000000000
  0
LINE
  5
BD
100
AcDbEntity
  8
A5
  6
CONTINUOUS
 62
4
100
AcDbLine
 10
203.0812193085290
 20
139.4959167769785
 30
0.000000000000000
 11
203.0812193087998
 21
262.0789166428725
 31
0.000000000000000
  0
LINE
  5
BE
100
AcDbEntity
  8
A8
  6
CONTINUOUS
 62
7
100
AcDbLine
 10
217.9982193085389
 20
140.4959163768958
 30
0.000000000000000
 11
217.9982193085331
 21
260.9959166428517
 31
0.000000000000000
  0
LINE
  5
BF
100
AcDbEntity
  8
A5
  6
CONTINUOUS
 62
4
100
AcDbLine
 10
216.9152193085339
 20
139.4959167769635
 30
0.000000000000000
 11
216.9152193085284
 21
262.0789166428576
 31
0.000000000000000
  0
LINE
  5
C0
100
AcDbEntity
  8
A3
  6
CENTER
 62
1
100
AcDbLine
 10
209.9982193084901
 20
100.4959167770837
 30
0.000000000000000
 11
209.9982193086415
 21
268.4959166427456
 31
0.000000000000000
  0
LINE
  5
C1
100
AcDbEntity
  8
DXF0
  6
CONTINUOUS
 62
7
100
AcDbLine
 10
177.4982193084795
 20
107.9959167769010
 30
0.000000000000000
 11
177.4982193084741
 21
105.4959167769428
 31
0.000000000000000
  0
LINE
  5
C2
100
AcDbEntity
  8
DXF0
  6
CONTINUOUS
 62
7
100
AcDbLine
 10
177.4982193084963
 20
105.4959167769428
 30
0.000000000000000
 11
242.4982193084953
 21
105.4959167768021
 31
0.000000000000000
  0
ARC
  5
C3
100
AcDbEntity
  8
DXF0
  6
CONTINUOUS
 62
7
100
AcDbCircle
 10
198.6982193084552
 20
116.7959167768552
 30
0.000000000000000
 40
6.700000000001404
100
AcDbArc
 50
89.99999999987598
 51
150.7499999998758
  0
LINE
  5
C4
100
AcDbEntity
  8
DXF0
  6
CONTINUOUS
 62
7
100
AcDbLine
 10
187.5800707753674
 20
110.6550863210878
 30
0.000000000000000
 11
192.8524960610785
 21
120.0696790949074
 31
0.000000000000000
  0
ARC
  5
C5
100
AcDbEntity
  8
DXF0
  6
CONTINUOUS
 62
7
100
AcDbCircle
 10
183.0430915385984
 20
113.1959167768892
 30
0.000000000000000
 40
5.200000000000102
100
AcDbArc
 50
269.9999999998760
 51
330.7499999997844
  0
LINE
  5
C6
100
AcDbEntity
  8
DXF0
  6
CONTINUOUS
 62
7
100
AcDbLine
 10
221.2982193085286
 20
123.4959167766614
 30
0.000000000000000
 11
198.6982193084697
 21
123.4959167767102
 31
0.000000000000000
  0
LINE
  5
C7
100
AcDbEntity
  8
DXF0
  6
CONTINUOUS
 62
7
100
AcDbLine
 10
197.9982193093195
 20
123.4959167766858
 30
0.000000000000000
 11
197.9982193093195
 21
133.4959167768631
 31
0.000000000000000
  0
LINE
  5
C8
100
AcDbEntity
  8
DXF0
  6
CONTINUOUS
 62
7
100
AcDbLine
 10
197.9982193093195
 20
133.4959167768631
 30
0.000000000000000
 11
221.9982193093948
 21
133.4959167768112
 31
0.000000000000000
  0
LINE
  5
C9
100
AcDbEntity
  8
DXF0
  6
CONTINUOUS
 62
7
100
AcDbLine
 10
203.2482193085254
 20
133.9959167769787
 30
0.000000000000000
 11
203.2482193085313
 21
139.4959167769781
 31
0.000000000000000
  0
ARC
  5
CA
100
AcDbEntity
  8
DXF0
  6
CONTINUOUS
 62
7
100
AcDbCircle
 10
202.7482193085254
 20
133.9959167768529
 30
0.000000000000000
 40
0.4999999999999949
100
AcDbArc
 50
270.0000000000000
 51
360.0000000000000
  0
LINE
  5
CB
100
AcDbEntity
  8
DXF0
  6
CONTINUOUS
 62
7
100
AcDbLine
 10
201.9982193085261
 20
140.4959167769636
 30
0.000000000000000
 11
217.9982193085389
 21
140.4959167769290
 31
0.000000000000000
  0
LINE
  5
CC
100
AcDbEntity
  8
DXF0
  6
CONTINUOUS
 62
7
100
AcDbLine
 10
202.9982193085247
 20
139.4959167769787
 30
0.000000000000000
 11
216.9982193085246
 21
139.4959167769484
 31
0.000000000000000
  0
LINE
  5
CD
100
AcDbEntity
  8
DXF0
  6
CONTINUOUS
 62
7
100
AcDbLine
 10
202.9982193085247
 20
139.4959167769787
 30
0.000000000000000
 11
201.9982193085261
 21
140.4959167769809
 31
0.000000000000000
  0
ARC
  5
CE
100
AcDbEntity
  8
DXF0
  6
CONTINUOUS
 62
7
100
AcDbCircle
 10
221.2982193085543
 20
116.7959167768349
 30
0.000000000000000
 40
6.700000000001404
100
AcDbArc
 50
29.25000000002095
 51
90.00000000002076
  0
LINE
  5
CF
100
AcDbEntity
  8
DXF0
  6
CONTINUOUS
 62
7
100
AcDbLine
 10
232.4163678416312
 20
110.6550863210473
 30
0.000000000000000
 11
227.1439425559370
 21
120.0696790948765
 31
0.000000000000000
  0
ARC
  5
D0
100
AcDbEntity
  8
DXF0
  6
CONTINUOUS
 62
7
100
AcDbCircle
 10
236.9533470784046
 20
113.1959167768407
 30
0.000000000000000
 40
5.200000000000102
100
AcDbArc
 50
209.2500000001124
 51
270.0000000000207
  0
LINE
  5
D1
100
AcDbEntity
  8
DXF0
  6
CONTINUOUS
 62
7
100
AcDbLine
 10
221.9982193093768
 20
123.4959167767501
 30
0.000000000000000
 11
221.9982193093948
 21
133.4959167768112
 31
0.000000000000000
  0
LINE
  5
D2
100
AcDbEntity
  8
DXF0
  6
CONTINUOUS
 62
7
100
AcDbLine
 10
216.7482193085152
 20
133.9959167769666
 30
0.000000000000000
 11
216.7482193085192
 21
139.4959167769660
 31
0.000000000000000
  0
ARC
  5
D3
100
AcDbEntity
  8
DXF0
  6
CONTINUOUS
 62
7
100
AcDbCircle
 10
217.2482193085152
 20
133.9959167768398
 30
0.000000000000000
 40
0.4999999999999949
100
AcDbArc
 50
179.9999999998968
 51
269.9999999998968
  0
LINE
  5
D4
100
AcDbEntity
  8
DXF0
  6
CONTINUOUS
 62
7
100
AcDbLine
 10
216.9982193085258
 20
139.4959167769661
 30
0.000000000000000
 11
217.9982193085262
 21
140.4959167769665
 31
0.000000000000000
  0
LINE
  5
D5
100
AcDbEntity
  8
DXF0
  6
CONTINUOUS
 62
7
100
AcDbLine
 10
242.4982193085142
 20
107.9959167768425
 30
0.000000000000000
 11
242.4982193085151
 21
105.4959167768843
 31
0.000000000000000
  0
LINE
  5
D6
100
AcDbEntity
  8
DXF0
  6
CONTINUOUS
 62
7
100
AcDbLine
 10
204.4982193086543
 20
263.4959166427573
 30
0.000000000000000
 11
215.4982193086336
 21
263.4959166427336
 31
0.000000000000000
  0
LINE
  5
D7
100
AcDbEntity
  8
DXF0
  6
CONTINUOUS
 62
7
100
AcDbLine
 10
201.9982193086513
 20
260.9959166427627
 30
0.000000000000000
 11
217.9982193086512
 21
260.9959166427282
 31
0.000000000000000
  0
LINE
  5
D8
100
AcDbEntity
  8
DXF0
  6
CONTINUOUS
 62
7
100
AcDbLine
 10
204.4982193086718
 20
263.4959166427749
 30
0.000000000000000
 11
201.9982193086691
 21
260.9959166427802
 31
0.000000000000000
  0
LINE
  5
D9
100
AcDbEntity
  8
DXF0
  6
CONTINUOUS
 62
7
100
AcDbLine
 10
215.4982193086022
 20
263.4959166427652
 30
0.000000000000000
 11
217.9982193086007
 21
260.9959166427658
 31
0.000000000000000
  0
LINE
  5
DA
100
AcDbEntity
  8
A3
  6
CENTER
 62
1
100
AcDbLine
 10
209.9982193086729
 20
283.4913364988273
 30
0.000000000000000
 11
209.9982193086936
 21
306.4913364988273
 31
0.000000000000000
  0
LINE
  5
DB
100
AcDbEntity
  8
DXF0
  6
CONTINUOUS
 62
7
100
AcDbLine
 10
197.9982193087119
 20
301.4913364990438
 30
0.000000000000000
 11
221.9982193087344
 21
301.4913364991080
 31
0.000000000000000
  0
LINE
  5
DC
100
AcDbEntity
  8
DXF0
  6
CONTINUOUS
 62
7
100
AcDbLine
 10
197.9982193087467
 20
288.4913364990438
 30
0.000000000000000
 11
221.9982193087692
 21
288.4913364991080
 31
0.000000000000000
  0
LINE
  5
DD
100
AcDbEntity
  8
DXF0
  6
CONTINUOUS
 62
7
100
AcDbLine
 10
209.9982193087119
 20
301.4913364990438
 30
0.000000000000000
 11
209.9982193087119
 21
289.8150679316872
 31
0.000000000000000
  0
LINE
  5
DE
100
AcDbEntity
  8
DXF0
  6
CONTINUOUS
 62
7
100
AcDbLine
 10
197.9982193087119
 20
288.4913364990438
 30
0.000000000000000
 11
197.9982193087053
 21
301.4913364989916
 31
0.000000000000000
  0
ARC
  5
DF
100
AcDbEntity
  8
DXF0
  6
CONTINUOUS
 62
7
100
AcDbCircle
 10
203.9982193087119
 20
302.7511266554149
 30
0.000000000000000
 40
14.25979015637086
100
AcDbArc
 50
245.1171967046837
 51
294.8828032953127
  0
ARC
  5
E0
100
AcDbEntity
  8
DXF0
  6
CONTINUOUS
 62
7
100
AcDbCircle
 10
215.9982193086690
 20
302.7511266554041
 30
0.000000000000000
 40
14.25979015637086
100
AcDbArc
 50
245.1171967045842
 51
294.8828032952134
  0
LINE
  5
E1
100
AcDbEntity
  8
DXF0
  6
CONTINUOUS
 62
7
100
AcDbLine
 10
221.9982193086433
 20
288.4913364990222
 30
0.000000000000000
 11
221.9982193086733
 21
301.4913364989700
 31
0.000000000000000
  0
LINE
  5
E2
100
AcDbEntity
  8
DXF0
  6
CONTINUOUS
 62
7
100
AcDbLine
 10
197.9982193093543
 20
123.4959167766859
 30
0.000000000000000
 11
221.9982193093768
 21
123.4959167767501
 31
0.000000000000000
  0
ARC
  5
E3
100
AcDbEntity
  8
DXF0
  6
CONTINUOUS
 62
7
100
AcDbCircle
 10
203.9982193093195
 20
137.7557069330569
 30
0.000000000000000
 40
14.25979015637086
100
AcDbArc
 50
245.1171967046836
 51
294.8828032953127
  0
ARC
  5
E4
100
AcDbEntity
  8
DXF0
  6
CONTINUOUS
 62
7
100
AcDbCircle
 10
215.9982193092766
 20
137.7557069330461
 30
0.000000000000000
 40
14.25979015637086
100
AcDbArc
 50
245.1171967045842
 51
294.8828032952134
  0
LINE
  5
E5
100
AcDbEntity
  8
DXF0
  6
CONTINUOUS
 62
7
100
AcDbLine
 10
209.9982193093195
 20
124.8196482093292
 30
0.000000000000000
 11
209.9982193093195
 21
133.4959167768372
 31
0.000000000000000
  0
ENDSEC
  0
SECTION
  2
OBJECTS
  0
DICTIONARY
  5
118
100
AcDbDictionary
  3
ACAD_GROUP
350
119
  3
ACAD_LAYOUT
350
11A
  3
ACAD_MLINESTYLE
350
11B
  0
DICTIONARY
  5
119
102
{ACAD_REACTORS
330
118
102
}
330
118
100
AcDbDictionary
  0
DICTIONARY
  5
11A
102
{ACAD_REACTORS
330
118
102
}
330
118
100
AcDbDictionary
  3
Model
350
11C
  3
ﾚｲｱｳﾄ1
350
11D
  3
ﾚｲｱｳﾄ2
350
11E
  0
DICTIONARY
  5
11B
102
{ACAD_REACTORS
330
118
102
}
330
118
100
AcDbDictionary
  3
STANDARD
350
11F
  0
LAYOUT
  5
11C
102
{ACAD_REACTORS
330
11A
102
}
330
11A
100
AcDbPlotSettings
 70
11952
  4
A3
 44
297.000000
 45
420.000000
 73
  1
 72
  1
100
AcDbLayout
  1
Model
 71
0
330
10F
  0
LAYOUT
  5
11D
102
{ACAD_REACTORS
330
11A
102
}
330
11A
100
AcDbPlotSettings
100
AcDbLayout
  1
ﾚｲｱｳﾄ1
 71
1
330
110
  0
LAYOUT
  5
11E
102
{ACAD_REACTORS
330
11A
102
}
330
11A
100
AcDbPlotSettings
100
AcDbLayout
  1
ﾚｲｱｳﾄ2
 71
2
330
111
  0
MLINESTYLE
  5
11F
102
{ACAD_REACTORS
330
11B
102
}
330
11B
100
AcDbMlineStyle
  2
STANDARD
 70
     0
  3

 62
   256
 51
90.00
 52
90.00
 71
     2
 49
0.50
 62
   256
  6
BYLAYER
 49
-0.50
 62
   256
  6
BYLAYER
  0
ENDSEC
  0
EOF
