  0
SECTION
  2
HEADER
  9
$ACADVER
  1
AC1024
  9
$DWGCODEPAGE
  3
ANSI_932
  9
$LTSCALE
 40
20.0
  9
$FILLMODE
 70
     1
  9
$CLAYER
  8
0
  9
$PDMODE
 70
     0
  9
$SPLFRAME
 70
     0
  9
$SPLINETYPE
 70
     6
  9
$SPLINESEGS
 70
     8
  9
$DIMASZ
 40
2.000000
  9
$DIMEXE
 40
1.500000
  9
$DIMEXO
 40
0.800000
  9
$DIMTAD
 70
     1
  9
$DIMTIH
 70
     0
  9
$DIMTOH
 70
     0
  9
$DIMTVP
 40
0.500000
  9
$DIMTXT
 40
3.100000
  9
$EXTMIN
 10
0.000000
 20
0.000000
 30
0.000000
  9
$EXTMAX
 10
297.000000
 20
420.000000
 30
0.000000
  9
$MEASUREMENT
 70
  1
  9
$LIMMIN
 10
0.000000
 20
0.000000
  9
$LIMMAX
 10
297.000000
 20
420.000000
  9
$HANDSEED
  5
3D5
  9
$LWDISPLAY
290
     0
  9
$DIMBLK
  1
_OPEN
  9
$DIMDEC
 70
     2
  9
$DIMADEC
 70
     2
  9
$DIMAUNIT
 70
     0
  9
$DIMZIN
 70
     8
  9
$DIMAZIN
 70
     2
  9
$DIMTOFL
 70
     1
  0
ENDSEC
  0
SECTION
  2
CLASSES
  0
ENDSEC
  0
SECTION
  2
TABLES
  0
TABLE
  2
VPORT
  5
3A0
100
AcDbSymbolTable
 70
     1
  0
VPORT
  5
3A1
100
AcDbSymbolTableRecord
100
AcDbViewportTableRecord
  2
*ACTIVE
 70
     0
 12
91.024433
 22
86.714842
 40
137.429682
 41
1.179140
  0
ENDTAB
  0
TABLE
  2
LTYPE
  5
3A2
100
AcDbSymbolTable
 70
     2
  0
LTYPE
  5
3A3
100
AcDbSymbolTableRecord
100
AcDbLinetypeTableRecord
  2
BYBLOCK
 70
     0
  3

 72
    65
 73
     0
 40
0.0
  0
LTYPE
  5
3A4
100
AcDbSymbolTableRecord
100
AcDbLinetypeTableRecord
  2
BYLAYER
 70
     0
  3

 72
    65
 73
     0
 40
0.0
  0
LTYPE
  5
3A5
100
AcDbSymbolTableRecord
100
AcDbLinetypeTableRecord
  2
CONTINUOUS
 70
     0
  3
Solid line (NEC CAE2D for Win R18.0 : 2024.08.30)
 72
    65
 73
     0
 40
0.0
  0
LTYPE
  5
3A6
100
AcDbSymbolTableRecord
100
AcDbLinetypeTableRecord
  2
CENTER
 70
     0
  3
____ _ ____ _ ____ _ ____ _ ____ _ ____
 72
    65
 73
     4
 40
2.0
 49
1.25
 74
     0
 49
-0.25
 74
     0
 49
0.25
 74
     0
 49
-0.25
 74
     0
  0
ENDTAB
  0
TABLE
  2
LAYER
  5
3A7
100
AcDbSymbolTable
 70
    15
  0
LAYER
  5
3A8
100
AcDbSymbolTableRecord
100
AcDbLayerTableRecord
  2
0
 70
     0
 62
     7
  6
CONTINUOUS
370
    -3
390

  0
LAYER
  5
3A9
100
AcDbSymbolTableRecord
100
AcDbLayerTableRecord
  2
A0
 70
     0
 62
     9
  6
CONTINUOUS
370
    -3
390

  0
LAYER
  5
3AA
100
AcDbSymbolTableRecord
100
AcDbLayerTableRecord
  2
A1
 70
     0
 62
     1
  6
CONTINUOUS
370
    -3
390

  0
LAYER
  5
3AB
100
AcDbSymbolTableRecord
100
AcDbLayerTableRecord
  2
A2
 70
     0
 62
     9
  6
CONTINUOUS
370
    -3
390

  0
LAYER
  5
3AC
100
AcDbSymbolTableRecord
100
AcDbLayerTableRecord
  2
A4
 70
     0
 62
     9
  6
CONTINUOUS
370
    -3
390

  0
LAYER
  5
3AD
100
AcDbSymbolTableRecord
100
AcDbLayerTableRecord
  2
A5
 70
     0
 62
     8
  6
CONTINUOUS
370
    -3
390

  0
LAYER
  5
3AE
100
AcDbSymbolTableRecord
100
AcDbLayerTableRecord
  2
A6
 70
     0
 62
    12
  6
CONTINUOUS
370
    -3
390

  0
LAYER
  5
3AF
100
AcDbSymbolTableRecord
100
AcDbLayerTableRecord
  2
A8
 70
     0
 62
    10
  6
CONTINUOUS
370
    -3
390

  0
LAYER
  5
3B0
100
AcDbSymbolTableRecord
100
AcDbLayerTableRecord
  2
A9
 70
     0
 62
     9
  6
CONTINUOUS
370
    -3
390

  0
LAYER
  5
3B1
100
AcDbSymbolTableRecord
100
AcDbLayerTableRecord
  2
A10
 70
     0
 62
     6
  6
CONTINUOUS
370
    -3
390

  0
LAYER
  5
3B2
100
AcDbSymbolTableRecord
100
AcDbLayerTableRecord
  2
A20
 70
     0
 62
     1
  6
CONTINUOUS
370
    -3
390

  0
LAYER
  5
3B3
100
AcDbSymbolTableRecord
100
AcDbLayerTableRecord
  2
A30
 70
     0
 62
     1
  6
CONTINUOUS
370
    -3
390

  0
LAYER
  5
3B4
100
AcDbSymbolTableRecord
100
AcDbLayerTableRecord
  2
A40
 70
     0
 62
     9
  6
CONTINUOUS
370
    -3
390

  0
LAYER
  5
3B5
100
AcDbSymbolTableRecord
100
AcDbLayerTableRecord
  2
A50
 70
     0
 62
    12
  6
CONTINUOUS
370
    -3
390

  0
LAYER
  5
3B6
100
AcDbSymbolTableRecord
100
AcDbLayerTableRecord
  2
A1023
 70
     0
 62
    16
  6
CONTINUOUS
370
    -3
390

  0
ENDTAB
  0
TABLE
  2
STYLE
  5
3B7
100
AcDbSymbolTable
 70
     4
  0
STYLE
  5
3B8
100
AcDbSymbolTableRecord
100
AcDbTextStyleTableRecord
  2
STANDARD
 70
    64
 40
0.0
 41
1.0
 50
0.0
 71
     0
 42
3.000000000000000
  3
TXT
  4

  0
STYLE
  5
3B9
100
AcDbSymbolTableRecord
100
AcDbTextStyleTableRecord
  2
ANKTATE
 70
    68
 40
0.0
 41
1.0
 50
0.0
 71
     0
 42
3.000000000000000
  3
TXT
  4

  0
STYLE
  5
3BA
100
AcDbSymbolTableRecord
100
AcDbTextStyleTableRecord
  2
KNJYOKO
 70
    64
 40
0.0
 41
1.0
 50
0.0
 71
     0
 42
3.000000000000000
  3
TXT
  4
BIGFONT
  0
STYLE
  5
3BB
100
AcDbSymbolTableRecord
100
AcDbTextStyleTableRecord
  2
KNJTATE
 70
    68
 40
0.0
 41
1.0
 50
0.0
 71
     0
 42
3.000000000000000
  3
TXT
  4
BIGFONT
  0
ENDTAB
  0
TABLE
  2
VIEW
  5
3BC
100
AcDbSymbolTable
 70
     0
  0
ENDTAB
  0
TABLE
  2
UCS
  5
3BD
100
AcDbSymbolTable
 70
     0
  0
ENDTAB
  0
TABLE
  2
APPID
  5
3BE
100
AcDbSymbolTable
 70
     1
  0
APPID
  5
3BF
100
AcDbSymbolTableRecord
100
AcDbRegAppTableRecord
  2
ACAD
 70
     0
  0
ENDTAB
  0
TABLE
  2
DIMSTYLE
  5
3C0
100
AcDbSymbolTable
 70
     2
100
AcDbDimStyleTable
  0
DIMSTYLE
105
3C1
100
AcDbSymbolTableRecord
100
AcDbDimStyleTableRecord
  2
STANDARD
 70
     0
 41
2.000000
 44
1.500000
 42
0.800000
145
0.661290
140
3.100000
144
1.000000
146
0.645161
340
3B8
  0
DIMSTYLE
105
3C2
100
AcDbSymbolTableRecord
100
AcDbDimStyleTableRecord
  2
A001
 70
     0
 41
2.000000
 44
1.500000
 42
0.800000
145
0.661290
140
3.100000
144
1.000000
146
0.645161
 77
     1
 73
     0
 74
     0
271
     2
179
     2
275
     0
 78
     8
 79
     2
172
     1
340
3B8
  0
ENDTAB
  0
TABLE
  2
BLOCK_RECORD
  5
3C3
100
AcDbSymbolTable
 70
    12
  0
BLOCK_RECORD
  5
3C4
100
AcDbSymbolTableRecord
100
AcDbBlockTableRecord
  2
*MODEL_SPACE
  0
BLOCK_RECORD
  5
3C5
100
AcDbSymbolTableRecord
100
AcDbBlockTableRecord
  2
*PAPER_SPACE
  0
BLOCK_RECORD
  5
3C6
100
AcDbSymbolTableRecord
100
AcDbBlockTableRecord
  2
*PAPER_SPACE0
  0
BLOCK_RECORD
  5
1
100
AcDbSymbolTableRecord
100
AcDbBlockTableRecord
  2
_NONE
  0
BLOCK_RECORD
  5
4
100
AcDbSymbolTableRecord
100
AcDbBlockTableRecord
  2
_CLOSED
  0
BLOCK_RECORD
  5
B
100
AcDbSymbolTableRecord
100
AcDbBlockTableRecord
  2
_DOT
  0
BLOCK_RECORD
  5
13
100
AcDbSymbolTableRecord
100
AcDbBlockTableRecord
  2
_OPEN
  0
BLOCK_RECORD
  5
19
100
AcDbSymbolTableRecord
100
AcDbBlockTableRecord
  2
_ORIGIN
  0
BLOCK_RECORD
  5
1E
100
AcDbSymbolTableRecord
100
AcDbBlockTableRecord
  2
_OPEN30
  0
BLOCK_RECORD
  5
24
100
AcDbSymbolTableRecord
100
AcDbBlockTableRecord
  2
_BOXFILLED
  0
BLOCK_RECORD
  5
29
100
AcDbSymbolTableRecord
100
AcDbBlockTableRecord
  2
_BOXBLANK
  0
BLOCK_RECORD
  5
31
100
AcDbSymbolTableRecord
100
AcDbBlockTableRecord
  2
_OBLIQUE
  0
BLOCK_RECORD
  5
35
100
AcDbSymbolTableRecord
100
AcDbBlockTableRecord
  2
_OPEN90
  0
BLOCK_RECORD
  5
3B
100
AcDbSymbolTableRecord
100
AcDbBlockTableRecord
  2
_CLOSEDBLANK
  0
BLOCK_RECORD
  5
41
100
AcDbSymbolTableRecord
100
AcDbBlockTableRecord
  2
_DOTBLANK
  0
ENDTAB
  0
ENDSEC
  0
SECTION
  2
BLOCKS
  0
BLOCK
  5
3C7
100
AcDbEntity
  8
0
100
AcDbBlockBegin
  2
*MODEL_SPACE
 70
     0
 10
0.0
 20
0.0
 30
0.0
  3
*MODEL_SPACE
  1

  0
ENDBLK
  5
3C8
100
AcDbEntity
  8
0
100
AcDbBlockEnd
  0
BLOCK
  5
3C9
100
AcDbEntity
  8
0
100
AcDbBlockBegin
  2
*PAPER_SPACE
 70
     0
 10
0.0
 20
0.0
 30
0.0
  3
*PAPER_SPACE
  1

  0
ENDBLK
  5
3CA
100
AcDbEntity
  8
0
100
AcDbBlockEnd
  0
BLOCK
  5
3CB
100
AcDbEntity
  8
0
100
AcDbBlockBegin
  2
*PAPER_SPACE0
 70
     0
 10
0.0
 20
0.0
 30
0.0
  3
*PAPER_SPACE0
  1

  0
ENDBLK
  5
3CC
100
AcDbEntity
  8
0
100
AcDbBlockEnd
  0
BLOCK
  5
2
330
1
100
AcDbEntity
  8
0
100
AcDbBlockBegin
  2
_NONE
 70
     0
 10
0.0
 20
0.0
 30
0.0
  3
_NONE
  1

  0
ENDBLK
  5
3
330
1
100
AcDbEntity
  8
0
100
AcDbBlockEnd
  0
BLOCK
  5
5
330
4
100
AcDbEntity
  8
0
100
AcDbBlockBegin
  2
_CLOSED
 70
     0
 10
0.0
 20
0.0
 30
0.0
  3
_CLOSED
  1

  0
LINE
  5
6
330
4
100
AcDbEntity
  8
0
  6
BYBLOCK
 62
     0
370
    -2
100
AcDbLine
 10
-1.0
 20
0.166667
 30
0.0
 11
0.0
 21
0.0
 31
0.0
  0
LINE
  5
7
330
4
100
AcDbEntity
  8
0
  6
BYBLOCK
 62
     0
370
    -2
100
AcDbLine
 10
0.0
 20
0.0
 30
0.0
 11
-1.0
 21
-0.166667
 31
0.0
  0
LINE
  5
8
330
4
100
AcDbEntity
  8
0
  6
BYBLOCK
 62
     0
370
    -2
100
AcDbLine
 10
-1.0
 20
0.166667
 30
0.0
 11
-1.0
 21
-0.166667
 31
0.0
  0
LINE
  5
9
330
4
100
AcDbEntity
  8
0
  6
BYBLOCK
 62
     0
370
    -2
100
AcDbLine
 10
0.0
 20
0.0
 30
0.0
 11
-1.0
 21
0.0
 31
0.0
  0
ENDBLK
  5
A
330
4
100
AcDbEntity
  8
0
100
AcDbBlockEnd
  0
BLOCK
  5
C
330
B
100
AcDbEntity
  8
0
100
AcDbBlockBegin
  2
_DOT
 70
     0
 10
0.0
 20
0.0
 30
0.0
  3
_DOT
  1

  0
POLYLINE
  5
D
330
B
100
AcDbEntity
  8
0
  6
BYBLOCK
 62
     0
370
    -2
100
AcDb2dPolyline
 66
     1
 10
0.0
 20
0.0
 30
0.0
 70
     1
 40
0.5
 41
0.5
  0
VERTEX
  5
E
330
B
100
AcDbEntity
  8
0
  6
BYBLOCK
 62
     0
370
    -2
100
AcDbVertex
100
AcDb2dVertex
 10
-0.25
 20
0.0
 30
0.0
 42
1.0
  0
VERTEX
  5
F
330
B
100
AcDbEntity
  8
0
  6
BYBLOCK
 62
     0
370
    -2
100
AcDbVertex
100
AcDb2dVertex
 10
0.25
 20
0.0
 30
0.0
 42
1.0
  0
SEQEND
  5
10
330
B
100
AcDbEntity
  8
0
  6
BYBLOCK
 62
     0
370
    -2
  0
LINE
  5
11
330
B
100
AcDbEntity
  8
0
  6
BYBLOCK
 62
     0
370
    -2
100
AcDbLine
 10
-0.5
 20
0.0
 30
0.0
 11
-1.0
 21
0.0
 31
0.0
  0
ENDBLK
  5
12
330
B
100
AcDbEntity
  8
0
100
AcDbBlockEnd
  0
BLOCK
  5
14
330
13
100
AcDbEntity
  8
0
100
AcDbBlockBegin
  2
_OPEN
 70
     0
 10
0.0
 20
0.0
 30
0.0
  3
_OPEN
  1

  0
LINE
  5
15
330
13
100
AcDbEntity
  8
0
  6
BYBLOCK
 62
     0
370
    -2
100
AcDbLine
 10
-1.0
 20
0.166667
 30
0.0
 11
0.0
 21
0.0
 31
0.0
  0
LINE
  5
16
330
13
100
AcDbEntity
  8
0
  6
BYBLOCK
 62
     0
370
    -2
100
AcDbLine
 10
0.0
 20
0.0
 30
0.0
 11
-1.0
 21
-0.166667
 31
0.0
  0
LINE
  5
17
330
13
100
AcDbEntity
  8
0
  6
BYBLOCK
 62
     0
370
    -2
100
AcDbLine
 10
0.0
 20
0.0
 30
0.0
 11
-1.0
 21
0.0
 31
0.0
  0
ENDBLK
  5
18
330
13
100
AcDbEntity
  8
0
100
AcDbBlockEnd
  0
BLOCK
  5
1A
330
19
100
AcDbEntity
  8
0
100
AcDbBlockBegin
  2
_ORIGIN
 70
     0
 10
0.0
 20
0.0
 30
0.0
  3
_ORIGIN
  1

  0
CIRCLE
  5
1B
330
19
100
AcDbEntity
  8
0
  6
BYBLOCK
 62
     0
370
    -2
100
AcDbCircle
 10
0.0
 20
0.0
 30
0.0
 40
0.5
  0
LINE
  5
1C
330
19
100
AcDbEntity
  8
0
  6
BYBLOCK
 62
     0
370
    -2
100
AcDbLine
 10
0.0
 20
0.0
 30
0.0
 11
-1.0
 21
0.0
 31
0.0
  0
ENDBLK
  5
1D
330
19
100
AcDbEntity
  8
0
100
AcDbBlockEnd
  0
BLOCK
  5
1F
330
1E
100
AcDbEntity
  8
0
100
AcDbBlockBegin
  2
_OPEN30
 70
     0
 10
0.0
 20
0.0
 30
0.0
  3
_OPEN30
  1

  0
LINE
  5
20
330
1E
100
AcDbEntity
  8
0
  6
BYBLOCK
 62
     0
370
    -2
100
AcDbLine
 10
-1.0
 20
0.267949
 30
0.0
 11
0.0
 21
0.0
 31
0.0
  0
LINE
  5
21
330
1E
100
AcDbEntity
  8
0
  6
BYBLOCK
 62
     0
370
    -2
100
AcDbLine
 10
0.0
 20
0.0
 30
0.0
 11
-1.0
 21
-0.267949
 31
0.0
  0
LINE
  5
22
330
1E
100
AcDbEntity
  8
0
  6
BYBLOCK
 62
     0
370
    -2
100
AcDbLine
 10
0.0
 20
0.0
 30
0.0
 11
-1.0
 21
0.0
 31
0.0
  0
ENDBLK
  5
23
330
1E
100
AcDbEntity
  8
0
100
AcDbBlockEnd
  0
BLOCK
  5
25
330
24
100
AcDbEntity
  8
0
100
AcDbBlockBegin
  2
_BOXFILLED
 70
     0
 10
0.0
 20
0.0
 30
0.0
  3
_BOXFILLED
  1

  0
SOLID
  5
26
330
24
100
AcDbEntity
  8
0
  6
BYBLOCK
 62
     0
370
    -2
100
AcDbTrace
 10
-0.5
 20
0.5
 30
0.0
 11
0.5
 21
0.5
 31
0.0
 12
-0.5
 22
-0.5
 32
0.0
 13
0.5
 23
-0.5
 33
0.0
  0
LINE
  5
27
330
24
100
AcDbEntity
  8
0
  6
BYBLOCK
 62
     0
370
    -2
100
AcDbLine
 10
-0.5
 20
0.0
 30
0.0
 11
-1.0
 21
0.0
 31
0.0
  0
ENDBLK
  5
28
330
24
100
AcDbEntity
  8
0
100
AcDbBlockEnd
  0
BLOCK
  5
2A
330
29
100
AcDbEntity
  8
0
100
AcDbBlockBegin
  2
_BOXBLANK
 70
     0
 10
0.0
 20
0.0
 30
0.0
  3
_BOXBLANK
  1

  0
LINE
  5
2B
330
29
100
AcDbEntity
  8
0
  6
BYBLOCK
 62
     0
370
    -2
100
AcDbLine
 10
-0.5
 20
-0.5
 30
0.0
 11
0.5
 21
-0.5
 31
0.0
  0
LINE
  5
2C
330
29
100
AcDbEntity
  8
0
  6
BYBLOCK
 62
     0
370
    -2
100
AcDbLine
 10
0.5
 20
-0.5
 30
0.0
 11
0.5
 21
0.5
 31
0.0
  0
LINE
  5
2D
330
29
100
AcDbEntity
  8
0
  6
BYBLOCK
 62
     0
370
    -2
100
AcDbLine
 10
0.5
 20
0.5
 30
0.0
 11
-0.5
 21
0.5
 31
0.0
  0
LINE
  5
2E
330
29
100
AcDbEntity
  8
0
  6
BYBLOCK
 62
     0
370
    -2
100
AcDbLine
 10
-0.5
 20
0.5
 30
0.0
 11
-0.5
 21
-0.5
 31
0.0
  0
LINE
  5
2F
330
29
100
AcDbEntity
  8
0
  6
BYBLOCK
 62
     0
370
    -2
100
AcDbLine
 10
-0.5
 20
0.0
 30
0.0
 11
-1.0
 21
0.0
 31
0.0
  0
ENDBLK
  5
30
330
29
100
AcDbEntity
  8
0
100
AcDbBlockEnd
  0
BLOCK
  5
32
330
31
100
AcDbEntity
  8
0
100
AcDbBlockBegin
  2
_OBLIQUE
 70
     0
 10
0.0
 20
0.0
 30
0.0
  3
_OBLIQUE
  1

  0
LINE
  5
33
330
31
100
AcDbEntity
  8
0
  6
BYBLOCK
 62
     0
370
    -2
100
AcDbLine
 10
-0.5
 20
-0.5
 30
0.0
 11
0.5
 21
0.5
 31
0.0
  0
ENDBLK
  5
34
330
31
100
AcDbEntity
  8
0
100
AcDbBlockEnd
  0
BLOCK
  5
36
330
35
100
AcDbEntity
  8
0
100
AcDbBlockBegin
  2
_OPEN90
 70
     0
 10
0.0
 20
0.0
 30
0.0
  3
_OPEN90
  1

  0
LINE
  5
37
330
35
100
AcDbEntity
  8
0
  6
BYBLOCK
 62
     0
370
    -2
100
AcDbLine
 10
-0.5
 20
0.5
 30
0.0
 11
0.0
 21
0.0
 31
0.0
  0
LINE
  5
38
330
35
100
AcDbEntity
  8
0
  6
BYBLOCK
 62
     0
370
    -2
100
AcDbLine
 10
0.0
 20
0.0
 30
0.0
 11
-0.5
 21
-0.5
 31
0.0
  0
LINE
  5
39
330
35
100
AcDbEntity
  8
0
  6
BYBLOCK
 62
     0
370
    -2
100
AcDbLine
 10
0.0
 20
0.0
 30
0.0
 11
-1.0
 21
0.0
 31
0.0
  0
ENDBLK
  5
3A
330
35
100
AcDbEntity
  8
0
100
AcDbBlockEnd
  0
BLOCK
  5
3C
330
3B
100
AcDbEntity
  8
0
100
AcDbBlockBegin
  2
_CLOSEDBLANK
 70
     0
 10
0.0
 20
0.0
 30
0.0
  3
_CLOSEDBLANK
  1

  0
LINE
  5
3D
330
3B
100
AcDbEntity
  8
0
  6
BYBLOCK
 62
     0
370
    -2
100
AcDbLine
 10
-1.0
 20
0.1666666666666666
 30
0.0
 11
0.0
 21
0.0
 31
0.0
  0
LINE
  5
3E
330
3B
100
AcDbEntity
  8
0
  6
BYBLOCK
 62
     0
370
    -2
100
AcDbLine
 10
0.0
 20
0.0
 30
0.0
 11
-1.0
 21
-0.1666666666666666
 31
0.0
  0
LINE
  5
3F
330
3B
100
AcDbEntity
  8
0
  6
BYBLOCK
 62
     0
370
    -2
100
AcDbLine
 10
-1.0
 20
0.1666666666666666
 30
0.0
 11
-1.0
 21
-0.1666666666666666
 31
0.0
  0
ENDBLK
  5
40
330
3B
100
AcDbEntity
  8
0
100
AcDbBlockEnd
  0
BLOCK
  5
42
330
41
100
AcDbEntity
  8
0
100
AcDbBlockBegin
  2
_DOTBLANK
 70
     0
 10
0.0
 20
0.0
 30
0.0
  3
_DOTBLANK
  1

  0
CIRCLE
  5
43
330
41
100
AcDbEntity
  8
0
  6
BYBLOCK
 62
     0
370
    -2
100
AcDbCircle
 10
0.0
 20
0.0
 30
0.0
 40
0.5
  0
LINE
  5
44
330
41
100
AcDbEntity
  8
0
  6
BYBLOCK
 62
     0
370
    -2
100
AcDbLine
 10
-0.5
 20
0.0
 30
0.0
 11
-1.0
 21
0.0
 31
0.0
  0
ENDBLK
  5
45
330
41
100
AcDbEntity
  8
0
100
AcDbBlockEnd
  0
ENDSEC
  0
SECTION
  2
ENTITIES
  0
MTEXT
  5
46
100
AcDbEntity
  8
A8
  6
CONTINUOUS
 62
3
100
AcDbMText
 10
9.999997526638502
 20
18.00000076076889
 30
0.000000000000000
 40
3.000000000000000
 41
0.000000000000000
 44
0.6739999771118164
 71
     7
 72
     1
  1
{\H0.93x;{TYPE No.TM-381-1}}
 11
1.000000000000000
 21
0.000000000000000
 31
0.000000000000000
  7
STANDARD
  0
POINT
  5
47
100
AcDbEntity
  8
A0
  6
CONTINUOUS
 62
3
100
AcDbPoint
 10
9.999997526638502
 20
18.00000076076889
 30
0.000000000000000
  0
POINT
  5
48
100
AcDbEntity
  8
A10
  6
CONTINUOUS
 62
3
100
AcDbPoint
 10
50.00000000000000
 20
50.00000000000000
 30
0.000000000000000
  0
LINE
  5
49
100
AcDbEntity
  8
A4
  6
CENTER
 62
1
100
AcDbLine
 10
86.83649315739406
 20
131.7616549421508
 30
0.000000000000000
 11
86.83649315739407
 21
106.7616533421508
 31
0.000000000000000
  0
LINE
  5
4A
100
AcDbEntity
  8
A4
  6
CENTER
 62
1
100
AcDbLine
 10
85.14649075739410
 20
109.7616533421508
 30
0.000000000000000
 11
88.52649555739410
 21
109.7616533421508
 31
0.000000000000000
  0
CIRCLE
  5
4B
100
AcDbEntity
  8
A4
  6
CENTER
 62
1
100
AcDbCircle
 10
86.83649315739407
 20
119.2819947421508
 30
0.000000000000000
 40
4.400000514984140
  0
CIRCLE
  5
4C
100
AcDbEntity
  8
A1
  6
CONTINUOUS
 62
7
100
AcDbCircle
 10
86.83649315739407
 20
128.7616533421508
 30
0.000000000000000
 40
1.050000100135803
  0
LINE
  5
4D
100
AcDbEntity
  8
A1
  6
CONTINUOUS
 62
7
100
AcDbLine
 10
87.88649315739409
 20
108.9951677421508
 30
0.000000000000000
 11
87.88649315739409
 21
110.5281389421508
 31
0.000000000000000
  0
ARC
  5
4E
100
AcDbEntity
  8
A1
  6
CONTINUOUS
 62
7
100
AcDbCircle
 10
86.83649315739407
 20
109.7616533421508
 30
0.000000000000000
 40
1.300000123977661
100
AcDbArc
 50
36.12892299999999
 51
143.8710770000000
  0
LINE
  5
4F
100
AcDbEntity
  8
A1
  6
CONTINUOUS
 62
7
100
AcDbLine
 10
85.78649315739409
 20
108.9951677421508
 30
0.000000000000000
 11
85.78649315739409
 21
110.5281389421508
 31
0.000000000000000
  0
ARC
  5
50
100
AcDbEntity
  8
A1
  6
CONTINUOUS
 62
7
100
AcDbCircle
 10
86.83649315739407
 20
109.7616533421508
 30
0.000000000000000
 40
1.300000123977661
100
AcDbArc
 50
216.1289290000000
 51
323.8710710000000
  0
CIRCLE
  5
51
100
AcDbEntity
  8
A1
  6
CONTINUOUS
 62
7
100
AcDbCircle
 10
86.83649315739407
 20
119.2616533421508
 30
0.000000000000000
 40
5.300000505447388
  0
ARC
  5
52
100
AcDbEntity
  8
A1
  6
CONTINUOUS
 62
7
100
AcDbCircle
 10
84.33649315739407
 20
130.2616533421508
 30
0.000000000000000
 40
1.000000095367432
100
AcDbArc
 50
89.99999500000001
 51
179.9999970000000
  0
LINE
  5
53
100
AcDbEntity
  8
A1
  6
CONTINUOUS
 62
7
100
AcDbLine
 10
84.33649315739406
 20
131.2616549421508
 30
0.000000000000000
 11
89.33649315739406
 21
131.2616549421508
 31
0.000000000000000
  0
ARC
  5
54
100
AcDbEntity
  8
A1
  6
CONTINUOUS
 62
7
100
AcDbCircle
 10
89.33649315739407
 20
130.2616533421508
 30
0.000000000000000
 40
1.000000095367432
100
AcDbArc
 50
2.999999986417573e-06
 51
89.99999500000001
  0
ARC
  5
55
100
AcDbEntity
  8
A1
  6
CONTINUOUS
 62
7
100
AcDbCircle
 10
89.33649315739407
 20
108.2616533421508
 30
0.000000000000000
 40
1.000000095367432
100
AcDbArc
 50
270.0000000000000
 51
360.0000030000000
  0
LINE
  5
56
100
AcDbEntity
  8
A1
  6
CONTINUOUS
 62
7
100
AcDbLine
 10
89.33649315739407
 20
107.2616533421508
 30
0.000000000000000
 11
84.33649315739407
 21
107.2616533421508
 31
0.000000000000000
  0
ARC
  5
57
100
AcDbEntity
  8
A1
  6
CONTINUOUS
 62
7
100
AcDbCircle
 10
84.33649315739407
 20
108.2616533421508
 30
0.000000000000000
 40
1.000000095367432
100
AcDbArc
 50
179.9999970000000
 51
270.0000000000000
  0
LINE
  5
58
100
AcDbEntity
  8
A1
  6
CONTINUOUS
 62
7
100
AcDbLine
 10
90.33649315739407
 20
126.0734087421508
 30
0.000000000000000
 11
90.33649315739407
 21
126.8394975421508
 31
0.000000000000000
  0
LINE
  5
59
100
AcDbEntity
  8
A1
  6
CONTINUOUS
 62
7
100
AcDbLine
 10
90.33649315739407
 20
126.8394975421508
 30
0.000000000000000
 11
90.33649315739407
 21
126.8487687421508
 31
0.000000000000000
  0
LINE
  5
5A
100
AcDbEntity
  8
A1
  6
CONTINUOUS
 62
7
100
AcDbLine
 10
90.33649315739407
 20
126.8487687421508
 30
0.000000000000000
 11
90.33649315739407
 21
130.2616533421508
 31
0.000000000000000
  0
ARC
  5
5B
100
AcDbEntity
  8
A1
  6
CONTINUOUS
 62
7
100
AcDbCircle
 10
90.63649315739407
 20
126.0734087421508
 30
0.000000000000000
 40
0.3000000286102296
100
AcDbArc
 50
179.9999970000000
 51
240.8446370000000
  0
LINE
  5
5C
100
AcDbEntity
  8
A1
  6
CONTINUOUS
 62
7
100
AcDbLine
 10
89.65247215739406
 20
126.3745133421508
 30
0.000000000000000
 11
89.65266755739408
 21
126.3837069421508
 31
0.000000000000000
  0
ARC
  5
5D
100
AcDbEntity
  8
A1
  6
CONTINUOUS
 62
7
100
AcDbCircle
 10
89.83647495739407
 20
126.8486939421508
 30
0.000000000000000
 40
0.5000073733557402
100
AcDbArc
 50
248.4311510000001
 51
360.0084510000000
  0
ARC
  5
5E
100
AcDbEntity
  8
A1
  6
CONTINUOUS
 62
7
100
AcDbCircle
 10
89.83647495739407
 20
126.8394243421508
 30
0.000000000000000
 40
0.5000073424908464
100
AcDbArc
 50
248.4071850000000
 51
360.0084580000000
  0
LINE
  5
5F
100
AcDbEntity
  8
A1
  6
CONTINUOUS
 62
7
100
AcDbLine
 10
90.33649315739409
 20
111.6745377421508
 30
0.000000000000000
 11
90.33649315739409
 21
111.6838091421508
 31
0.000000000000000
  0
LINE
  5
60
100
AcDbEntity
  8
A1
  6
CONTINUOUS
 62
7
100
AcDbLine
 10
90.33649315739409
 20
111.6838091421508
 30
0.000000000000000
 11
90.33649315739409
 21
112.4498979421508
 31
0.000000000000000
  0
LINE
  5
61
100
AcDbEntity
  8
A1
  6
CONTINUOUS
 62
7
100
AcDbLine
 10
90.33649315739409
 20
108.2616533421508
 30
0.000000000000000
 11
90.33649315739409
 21
111.6745377421508
 31
0.000000000000000
  0
ARC
  5
62
100
AcDbEntity
  8
A1
  6
CONTINUOUS
 62
7
100
AcDbCircle
 10
90.63649315739407
 20
112.4498979421508
 30
0.000000000000000
 40
0.3000000286102292
100
AcDbArc
 50
119.1553680000000
 51
179.9999970000000
  0
LINE
  5
63
100
AcDbEntity
  8
A1
  6
CONTINUOUS
 62
7
100
AcDbLine
 10
89.65266755739410
 20
112.1396013421508
 30
0.000000000000000
 11
89.65247215739407
 21
112.1487931421508
 31
0.000000000000000
  0
ARC
  5
64
100
AcDbEntity
  8
A1
  6
CONTINUOUS
 62
7
100
AcDbCircle
 10
89.83647495739407
 20
111.6838823421508
 30
0.000000000000000
 40
0.5000073424908457
100
AcDbArc
 50
359.9915470000000
 51
471.5928180000000
  0
ARC
  5
65
100
AcDbEntity
  8
A1
  6
CONTINUOUS
 62
7
100
AcDbCircle
 10
89.83647495739407
 20
111.6746111421508
 30
0.000000000000000
 40
0.5000073733557377
100
AcDbArc
 50
359.9915470000000
 51
471.5688440000000
  0
LINE
  5
66
100
AcDbEntity
  8
A1
  6
CONTINUOUS
 62
7
100
AcDbLine
 10
83.33649315739406
 20
126.8487687421508
 30
0.000000000000000
 11
83.33649315739406
 21
126.8394975421508
 31
0.000000000000000
  0
LINE
  5
67
100
AcDbEntity
  8
A1
  6
CONTINUOUS
 62
7
100
AcDbLine
 10
83.33649315739406
 20
126.8394975421508
 30
0.000000000000000
 11
83.33649315739406
 21
126.0734087421508
 31
0.000000000000000
  0
LINE
  5
68
100
AcDbEntity
  8
A1
  6
CONTINUOUS
 62
7
100
AcDbLine
 10
83.33649315739406
 20
130.2616533421508
 30
0.000000000000000
 11
83.33649315739406
 21
126.8487687421508
 31
0.000000000000000
  0
ARC
  5
69
100
AcDbEntity
  8
A1
  6
CONTINUOUS
 62
7
100
AcDbCircle
 10
83.03649315739409
 20
126.0734087421508
 30
0.000000000000000
 40
0.3000000286102292
100
AcDbArc
 50
299.1553630000000
 51
360.0000030000000
  0
ARC
  5
6A
100
AcDbEntity
  8
A1
  6
CONTINUOUS
 62
7
100
AcDbCircle
 10
86.83649315739407
 20
119.2616533421508
 30
0.000000000000000
 40
7.658620929337668
100
AcDbArc
 50
68.42539099999999
 51
111.5746090000000
  0
ARC
  5
6B
100
AcDbEntity
  8
A1
  6
CONTINUOUS
 62
7
100
AcDbCircle
 10
83.83651155739412
 20
126.8486939421508
 30
0.000000000000000
 40
0.5000073733557386
100
AcDbArc
 50
179.9915490000000
 51
291.5688490000001
  0
ARC
  5
6C
100
AcDbEntity
  8
A1
  6
CONTINUOUS
 62
7
100
AcDbCircle
 10
86.83649315739407
 20
119.2616533421508
 30
0.000000000000000
 40
7.650000729560853
100
AcDbArc
 50
68.40141700000001
 51
111.5985830000000
  0
LINE
  5
6D
100
AcDbEntity
  8
A1
  6
CONTINUOUS
 62
7
100
AcDbLine
 10
84.02031895739410
 20
126.3837069421508
 30
0.000000000000000
 11
84.02051415739410
 21
126.3745133421508
 31
0.000000000000000
  0
ARC
  5
6E
100
AcDbEntity
  8
A1
  6
CONTINUOUS
 62
7
100
AcDbCircle
 10
83.83651155739412
 20
126.8394243421508
 30
0.000000000000000
 40
0.5000073424908449
100
AcDbArc
 50
179.9915420000000
 51
291.5928150000000
  0
ARC
  5
6F
100
AcDbEntity
  8
A1
  6
CONTINUOUS
 62
7
100
AcDbCircle
 10
83.03649315739409
 20
112.4498979421508
 30
0.000000000000000
 40
0.3000000286102296
100
AcDbArc
 50
2.999999986417573e-06
 51
60.84463199999998
  0
ARC
  5
70
100
AcDbEntity
  8
A1
  6
CONTINUOUS
 62
7
100
AcDbCircle
 10
86.83649315739407
 20
119.2616533421508
 30
0.000000000000000
 40
7.650000729560853
100
AcDbArc
 50
248.4014200000001
 51
291.5985800000000
  0
ARC
  5
71
100
AcDbEntity
  8
A1
  6
CONTINUOUS
 62
7
100
AcDbCircle
 10
83.83651155739412
 20
111.6838823421508
 30
0.000000000000000
 40
0.5000073424908476
100
AcDbArc
 50
68.40718200000002
 51
180.0084530000000
  0
LINE
  5
72
100
AcDbEntity
  8
A1
  6
CONTINUOUS
 62
7
100
AcDbLine
 10
83.33649315739407
 20
112.4498979421508
 30
0.000000000000000
 11
83.33649315739407
 21
111.6838091421508
 31
0.000000000000000
  0
LINE
  5
73
100
AcDbEntity
  8
A1
  6
CONTINUOUS
 62
7
100
AcDbLine
 10
83.33649315739407
 20
111.6838091421508
 30
0.000000000000000
 11
83.33649315739407
 21
111.6745377421508
 31
0.000000000000000
  0
LINE
  5
74
100
AcDbEntity
  8
A1
  6
CONTINUOUS
 62
7
100
AcDbLine
 10
83.33649315739407
 20
111.6745377421508
 30
0.000000000000000
 11
83.33649315739407
 21
108.2616533421508
 31
0.000000000000000
  0
ARC
  5
75
100
AcDbEntity
  8
A1
  6
CONTINUOUS
 62
7
100
AcDbCircle
 10
86.83649315739407
 20
119.2616533421508
 30
0.000000000000000
 40
7.658620929337674
100
AcDbArc
 50
248.4253840000000
 51
291.5746159999999
  0
ARC
  5
76
100
AcDbEntity
  8
A1
  6
CONTINUOUS
 62
7
100
AcDbCircle
 10
83.83651155739412
 20
111.6746111421508
 30
0.000000000000000
 40
0.5000073733557377
100
AcDbArc
 50
68.43115599999996
 51
180.0084530000000
  0
LINE
  5
77
100
AcDbEntity
  8
A1
  6
CONTINUOUS
 62
7
100
AcDbLine
 10
84.02051415739406
 20
112.1487931421508
 30
0.000000000000000
 11
84.02031895739405
 21
112.1396013421508
 31
0.000000000000000
  0
CIRCLE
  5
78
100
AcDbEntity
  8
A1
  6
CONTINUOUS
 62
7
100
AcDbCircle
 10
86.83649315739407
 20
119.2616533421508
 30
0.000000000000000
 40
7.500000715255737
  0
CIRCLE
  5
79
100
AcDbEntity
  8
A1
  6
CONTINUOUS
 62
7
100
AcDbCircle
 10
86.83649315739407
 20
119.2616533421508
 30
0.000000000000000
 40
7.100000677108765
  0
CIRCLE
  5
7A
100
AcDbEntity
  8
A1
  6
CONTINUOUS
 62
7
100
AcDbCircle
 10
86.83649315739407
 20
119.2616533421508
 30
0.000000000000000
 40
2.250000214576722
  0
CIRCLE
  5
7B
100
AcDbEntity
  8
A1
  6
CONTINUOUS
 62
7
100
AcDbCircle
 10
86.83649315739407
 20
119.2616533421508
 30
0.000000000000000
 40
1.950000185966954
  0
ARC
  5
7C
100
AcDbEntity
  8
A1
  6
CONTINUOUS
 62
7
100
AcDbCircle
 10
86.83649315739407
 20
119.2616533421508
 30
0.000000000000000
 40
3.400000324249268
100
AcDbArc
 50
187.1354280000000
 51
189.2282110000000
  0
ARC
  5
7D
100
AcDbEntity
  8
A1
  6
CONTINUOUS
 62
7
100
AcDbCircle
 10
83.06592435739410
 20
118.7896363421508
 30
0.000000000000000
 40
0.4000000381469728
100
AcDbArc
 50
7.135425999999994
 51
70.98508599999997
  0
LINE
  5
7E
100
AcDbEntity
  8
A1
  6
CONTINUOUS
 62
7
100
AcDbLine
 10
81.66054715739406
 20
119.7612153421508
 30
0.000000000000000
 11
81.75529815739405
 21
119.6766999421508
 31
0.000000000000000
  0
LINE
  5
7F
100
AcDbEntity
  8
A1
  6
CONTINUOUS
 62
7
100
AcDbLine
 10
81.75529815739408
 20
119.6766999421508
 30
0.000000000000000
 11
81.85377215739405
 21
119.5964769421508
 31
0.000000000000000
  0
LINE
  5
80
100
AcDbEntity
  8
A1
  6
CONTINUOUS
 62
7
100
AcDbLine
 10
81.85377215739408
 20
119.5964769421508
 30
0.000000000000000
 11
81.95151995739407
 21
119.5236605421508
 31
0.000000000000000
  0
LINE
  5
81
100
AcDbEntity
  8
A1
  6
CONTINUOUS
 62
7
100
AcDbLine
 10
81.95151995739410
 20
119.5236605421508
 30
0.000000000000000
 11
82.05250275739408
 21
119.4555269421508
 31
0.000000000000000
  0
LINE
  5
82
100
AcDbEntity
  8
A1
  6
CONTINUOUS
 62
7
100
AcDbLine
 10
82.05250275739404
 20
119.4555269421508
 30
0.000000000000000
 11
82.15234395739408
 21
119.3952471421507
 31
0.000000000000000
  0
LINE
  5
83
100
AcDbEntity
  8
A1
  6
CONTINUOUS
 62
7
100
AcDbLine
 10
82.15234395739411
 20
119.3952471421508
 30
0.000000000000000
 11
82.25529195739409
 21
119.3400651421508
 31
0.000000000000000
  0
LINE
  5
84
100
AcDbEntity
  8
A1
  6
CONTINUOUS
 62
7
100
AcDbLine
 10
82.25529195739409
 20
119.3400651421507
 30
0.000000000000000
 11
82.30559115739408
 21
119.3155931421508
 31
0.000000000000000
  0
LINE
  5
85
100
AcDbEntity
  8
A1
  6
CONTINUOUS
 62
7
100
AcDbLine
 10
82.30559115739410
 20
119.3155931421508
 30
0.000000000000000
 11
82.35659215739415
 21
119.2926911421508
 31
0.000000000000000
  0
LINE
  5
86
100
AcDbEntity
  8
A1
  6
CONTINUOUS
 62
7
100
AcDbLine
 10
82.35659215739408
 20
119.2926911421508
 30
0.000000000000000
 11
82.40828875739408
 21
119.2717317421508
 31
0.000000000000000
  0
LINE
  5
87
100
AcDbEntity
  8
A1
  6
CONTINUOUS
 62
7
100
AcDbLine
 10
82.40828875739408
 20
119.2717317421508
 30
0.000000000000000
 11
82.49475115739406
 21
119.2423845421508
 31
0.000000000000000
  0
LINE
  5
88
100
AcDbEntity
  8
A1
  6
CONTINUOUS
 62
7
100
AcDbLine
 10
82.49475115739408
 20
119.2423845421508
 30
0.000000000000000
 11
82.56386135739405
 21
119.2222169421508
 31
0.000000000000000
  0
LINE
  5
89
100
AcDbEntity
  8
A1
  6
CONTINUOUS
 62
7
100
AcDbLine
 10
82.56386135739406
 20
119.2222169421508
 30
0.000000000000000
 11
82.60952795739408
 21
119.2096315421509
 31
0.000000000000000
  0
LINE
  5
8A
100
AcDbEntity
  8
A1
  6
CONTINUOUS
 62
7
100
AcDbLine
 10
82.60952795739405
 20
119.2096315421508
 30
0.000000000000000
 11
82.63251375739407
 21
119.2050507421508
 31
0.000000000000000
  0
LINE
  5
8B
100
AcDbEntity
  8
A1
  6
CONTINUOUS
 62
7
100
AcDbLine
 10
82.63251375739404
 20
119.2050507421508
 30
0.000000000000000
 11
82.66712055739404
 21
119.2025759421508
 31
0.000000000000000
  0
LINE
  5
8C
100
AcDbEntity
  8
A1
  6
CONTINUOUS
 62
7
100
AcDbLine
 10
82.66712055739407
 20
119.2025759421508
 30
0.000000000000000
 11
82.68756735739409
 21
119.2042527421508
 31
0.000000000000000
  0
LINE
  5
8D
100
AcDbEntity
  8
A1
  6
CONTINUOUS
 62
7
100
AcDbLine
 10
82.68756735739406
 20
119.2042527421508
 30
0.000000000000000
 11
82.72856475739408
 21
119.2108751421508
 31
0.000000000000000
  0
LINE
  5
8E
100
AcDbEntity
  8
A1
  6
CONTINUOUS
 62
7
100
AcDbLine
 10
82.72856475739407
 20
119.2108751421509
 30
0.000000000000000
 11
82.76731595739409
 21
119.2154787421509
 31
0.000000000000000
  0
LINE
  5
8F
100
AcDbEntity
  8
A1
  6
CONTINUOUS
 62
7
100
AcDbLine
 10
82.76731595739402
 20
119.2154787421508
 30
0.000000000000000
 11
82.79321935739402
 21
119.2171831421508
 31
0.000000000000000
  0
LINE
  5
90
100
AcDbEntity
  8
A1
  6
CONTINUOUS
 62
7
100
AcDbLine
 10
82.79321935739405
 20
119.2171831421508
 30
0.000000000000000
 11
82.84511135739405
 21
119.2183565421508
 31
0.000000000000000
  0
LINE
  5
91
100
AcDbEntity
  8
A1
  6
CONTINUOUS
 62
7
100
AcDbLine
 10
82.84511135739403
 20
119.2183565421508
 30
0.000000000000000
 11
82.89904815739403
 21
119.2176957421508
 31
0.000000000000000
  0
LINE
  5
92
100
AcDbEntity
  8
A1
  6
CONTINUOUS
 62
7
100
AcDbLine
 10
82.89904815739408
 20
119.2176957421508
 30
0.000000000000000
 11
82.95292375739409
 21
119.2152147421508
 31
0.000000000000000
  0
LINE
  5
93
100
AcDbEntity
  8
A1
  6
CONTINUOUS
 62
7
100
AcDbLine
 10
82.95292375739402
 20
119.2152147421508
 30
0.000000000000000
 11
83.00247215739401
 21
119.2110109421508
 31
0.000000000000000
  0
LINE
  5
94
100
AcDbEntity
  8
A1
  6
CONTINUOUS
 62
7
100
AcDbLine
 10
83.00247215739412
 20
119.2110109421508
 30
0.000000000000000
 11
83.05179475739411
 21
119.2044161421508
 31
0.000000000000000
  0
LINE
  5
95
100
AcDbEntity
  8
A1
  6
CONTINUOUS
 62
7
100
AcDbLine
 10
83.05179475739408
 20
119.2044161421508
 30
0.000000000000000
 11
83.12467675739407
 21
119.1892229421508
 31
0.000000000000000
  0
LINE
  5
96
100
AcDbEntity
  8
A1
  6
CONTINUOUS
 62
7
100
AcDbLine
 10
83.12467675739404
 20
119.1892229421508
 30
0.000000000000000
 11
83.19624655739403
 21
119.1678101421508
 31
0.000000000000000
  0
ARC
  5
97
100
AcDbEntity
  8
A1
  6
CONTINUOUS
 62
7
100
AcDbCircle
 10
86.83649315739407
 20
119.2616533421508
 30
0.000000000000000
 40
5.200000495910646
100
AcDbArc
 50
169.1492580000000
 51
174.4871060000000
  0
LINE
  5
98
100
AcDbEntity
  8
A1
  6
CONTINUOUS
 62
7
100
AcDbLine
 10
81.72946195739405
 20
120.2405595421509
 30
0.000000000000000
 11
81.84418975739408
 21
120.2949571421508
 31
0.000000000000000
  0
LINE
  5
99
100
AcDbEntity
  8
A1
  6
CONTINUOUS
 62
7
100
AcDbLine
 10
81.84418975739409
 20
120.2949571421508
 30
0.000000000000000
 11
81.96127355739411
 21
120.3441881421508
 31
0.000000000000000
  0
LINE
  5
9A
100
AcDbEntity
  8
A1
  6
CONTINUOUS
 62
7
100
AcDbLine
 10
81.96127355739409
 20
120.3441881421508
 30
0.000000000000000
 11
82.07558015739410
 21
120.3865159421508
 31
0.000000000000000
  0
LINE
  5
9B
100
AcDbEntity
  8
A1
  6
CONTINUOUS
 62
7
100
AcDbLine
 10
82.07558015739411
 20
120.3865159421508
 30
0.000000000000000
 11
82.19166895739406
 21
120.4234391421508
 31
0.000000000000000
  0
LINE
  5
9C
100
AcDbEntity
  8
A1
  6
CONTINUOUS
 62
7
100
AcDbLine
 10
82.19166895739407
 20
120.4234391421508
 30
0.000000000000000
 11
82.30444975739405
 21
120.4531481421508
 31
0.000000000000000
  0
LINE
  5
9D
100
AcDbEntity
  8
A1
  6
CONTINUOUS
 62
7
100
AcDbLine
 10
82.30444975739402
 20
120.4531481421508
 30
0.000000000000000
 11
82.41876855739402
 21
120.4770921421508
 31
0.000000000000000
  0
LINE
  5
9E
100
AcDbEntity
  8
A1
  6
CONTINUOUS
 62
7
100
AcDbLine
 10
82.41876855739406
 20
120.4770921421508
 30
0.000000000000000
 11
82.47392595739410
 21
120.4864015421508
 31
0.000000000000000
  0
LINE
  5
9F
100
AcDbEntity
  8
A1
  6
CONTINUOUS
 62
7
100
AcDbLine
 10
82.47392595739412
 20
120.4864015421508
 30
0.000000000000000
 11
82.52931535739413
 21
120.4940065421508
 31
0.000000000000000
  0
LINE
  5
A0
100
AcDbEntity
  8
A1
  6
CONTINUOUS
 62
7
100
AcDbLine
 10
82.52931535739408
 20
120.4940065421508
 30
0.000000000000000
 11
82.58482695739407
 21
120.4995515421508
 31
0.000000000000000
  0
LINE
  5
A1
100
AcDbEntity
  8
A1
  6
CONTINUOUS
 62
7
100
AcDbLine
 10
82.58482695739406
 20
120.4995515421508
 30
0.000000000000000
 11
82.67605615739407
 21
120.5033509421508
 31
0.000000000000000
  0
LINE
  5
A2
100
AcDbEntity
  8
A1
  6
CONTINUOUS
 62
7
100
AcDbLine
 10
82.67605615739406
 20
120.5033509421508
 30
0.000000000000000
 11
82.74804095739405
 21
120.5032319421508
 31
0.000000000000000
  0
LINE
  5
A3
100
AcDbEntity
  8
A1
  6
CONTINUOUS
 62
7
100
AcDbLine
 10
82.74804095739407
 20
120.5032319421508
 30
0.000000000000000
 11
82.79540435739405
 21
120.5024415421509
 31
0.000000000000000
  0
LINE
  5
A4
100
AcDbEntity
  8
A1
  6
CONTINUOUS
 62
7
100
AcDbLine
 10
82.79540435739406
 20
120.5024415421508
 30
0.000000000000000
 11
82.81875635739404
 21
120.5003587421508
 31
0.000000000000000
  0
LINE
  5
A5
100
AcDbEntity
  8
A1
  6
CONTINUOUS
 62
7
100
AcDbLine
 10
82.81875635739411
 20
120.5003587421509
 30
0.000000000000000
 11
82.85265535739410
 21
120.4929857421508
 31
0.000000000000000
  0
LINE
  5
A6
100
AcDbEntity
  8
A1
  6
CONTINUOUS
 62
7
100
AcDbLine
 10
82.85265535739404
 20
120.4929857421508
 30
0.000000000000000
 11
82.87180195739407
 21
120.4856157421508
 31
0.000000000000000
  0
LINE
  5
A7
100
AcDbEntity
  8
A1
  6
CONTINUOUS
 62
7
100
AcDbLine
 10
82.87180195739407
 20
120.4856157421509
 30
0.000000000000000
 11
82.90927155739408
 21
120.4677125421508
 31
0.000000000000000
  0
LINE
  5
A8
100
AcDbEntity
  8
A1
  6
CONTINUOUS
 62
7
100
AcDbLine
 10
82.90927155739406
 20
120.4677125421508
 30
0.000000000000000
 11
82.94516015739404
 21
120.4523759421508
 31
0.000000000000000
  0
LINE
  5
A9
100
AcDbEntity
  8
A1
  6
CONTINUOUS
 62
7
100
AcDbLine
 10
82.94516015739407
 20
120.4523759421508
 30
0.000000000000000
 11
82.96953155739408
 21
120.4434449421508
 31
0.000000000000000
  0
LINE
  5
AA
100
AcDbEntity
  8
A1
  6
CONTINUOUS
 62
7
100
AcDbLine
 10
82.96953155739402
 20
120.4434449421508
 30
0.000000000000000
 11
83.01898835739405
 21
120.4276995421508
 31
0.000000000000000
  0
LINE
  5
AB
100
AcDbEntity
  8
A1
  6
CONTINUOUS
 62
7
100
AcDbLine
 10
83.01898835739405
 20
120.4276995421508
 30
0.000000000000000
 11
83.07092915739405
 21
120.4131365421508
 31
0.000000000000000
  0
LINE
  5
AC
100
AcDbEntity
  8
A1
  6
CONTINUOUS
 62
7
100
AcDbLine
 10
83.07092915739409
 20
120.4131365421509
 30
0.000000000000000
 11
83.12332175739412
 21
120.4003373421508
 31
0.000000000000000
  0
LINE
  5
AD
100
AcDbEntity
  8
A1
  6
CONTINUOUS
 62
7
100
AcDbLine
 10
83.12332175739409
 20
120.4003373421508
 30
0.000000000000000
 11
83.17204615739406
 21
120.3904115421508
 31
0.000000000000000
  0
LINE
  5
AE
100
AcDbEntity
  8
A1
  6
CONTINUOUS
 62
7
100
AcDbLine
 10
83.17204615739402
 20
120.3904115421508
 30
0.000000000000000
 11
83.22122835739404
 21
120.3828463421508
 31
0.000000000000000
  0
LINE
  5
AF
100
AcDbEntity
  8
A1
  6
CONTINUOUS
 62
7
100
AcDbLine
 10
83.22122835739408
 20
120.3828463421509
 30
0.000000000000000
 11
83.29544095739412
 21
120.3768877421509
 31
0.000000000000000
  0
LINE
  5
B0
100
AcDbEntity
  8
A1
  6
CONTINUOUS
 62
7
100
AcDbLine
 10
83.29544095739406
 20
120.3768877421508
 30
0.000000000000000
 11
83.37014195739405
 21
120.3772707421508
 31
0.000000000000000
  0
ARC
  5
B1
100
AcDbEntity
  8
A1
  6
CONTINUOUS
 62
7
100
AcDbCircle
 10
83.35164215739408
 20
120.7768435421508
 30
0.000000000000000
 40
0.4000000381469728
100
AcDbArc
 50
272.6512720000000
 51
336.5009350000000
  0
ARC
  5
B2
100
AcDbEntity
  8
A1
  6
CONTINUOUS
 62
7
100
AcDbCircle
 10
86.83649315739407
 20
119.2616533421508
 30
0.000000000000000
 40
3.400000324249268
100
AcDbArc
 50
154.4081600000000
 51
156.5009370000000
  0
ARC
  5
B3
100
AcDbEntity
  8
A1
  6
CONTINUOUS
 62
7
100
AcDbCircle
 10
83.40929595739408
 20
120.9030915421508
 30
0.000000000000000
 40
0.4000000381469728
100
AcDbArc
 50
334.4081580000000
 51
398.2578250000000
  0
LINE
  5
B4
100
AcDbEntity
  8
A1
  6
CONTINUOUS
 62
7
100
AcDbLine
 10
82.75229515739410
 20
122.4802415421508
 30
0.000000000000000
 11
82.78631015739410
 21
122.3579149421509
 31
0.000000000000000
  0
LINE
  5
B5
100
AcDbEntity
  8
A1
  6
CONTINUOUS
 62
7
100
AcDbLine
 10
82.78631015739404
 20
122.3579149421508
 30
0.000000000000000
 11
82.82578155739405
 21
122.2371873421508
 31
0.000000000000000
  0
LINE
  5
B6
100
AcDbEntity
  8
A1
  6
CONTINUOUS
 62
7
100
AcDbLine
 10
82.82578155739409
 20
122.2371873421508
 30
0.000000000000000
 11
82.86864655739409
 21
122.1230837421508
 31
0.000000000000000
  0
LINE
  5
B7
100
AcDbEntity
  8
A1
  6
CONTINUOUS
 62
7
100
AcDbLine
 10
82.86864655739410
 20
122.1230837421508
 30
0.000000000000000
 11
82.91676055739413
 21
122.0111711421508
 31
0.000000000000000
  0
LINE
  5
B8
100
AcDbEntity
  8
A1
  6
CONTINUOUS
 62
7
100
AcDbLine
 10
82.91676055739404
 20
122.0111711421508
 30
0.000000000000000
 11
82.96816435739404
 21
121.9064821421508
 31
0.000000000000000
  0
LINE
  5
B9
100
AcDbEntity
  8
A1
  6
CONTINUOUS
 62
7
100
AcDbLine
 10
82.96816435739406
 20
121.9064821421508
 30
0.000000000000000
 11
83.02493315739406
 21
121.8044039421508
 31
0.000000000000000
  0
LINE
  5
BA
100
AcDbEntity
  8
A1
  6
CONTINUOUS
 62
7
100
AcDbLine
 10
83.02493315739403
 20
121.8044039421508
 30
0.000000000000000
 11
83.05401635739405
 21
121.7566225421508
 31
0.000000000000000
  0
LINE
  5
BB
100
AcDbEntity
  8
A1
  6
CONTINUOUS
 62
7
100
AcDbLine
 10
83.05401635739412
 20
121.7566225421508
 30
0.000000000000000
 11
83.08454015739414
 21
121.7097795421508
 31
0.000000000000000
  0
LINE
  5
BC
100
AcDbEntity
  8
A1
  6
CONTINUOUS
 62
7
100
AcDbLine
 10
83.08454015739407
 20
121.7097795421508
 30
0.000000000000000
 11
83.11669955739406
 21
121.6641985421508
 31
0.000000000000000
  0
LINE
  5
BD
100
AcDbEntity
  8
A1
  6
CONTINUOUS
 62
7
100
AcDbLine
 10
83.11669955739407
 20
121.6641985421508
 30
0.000000000000000
 11
83.17357195739407
 21
121.5927645421508
 31
0.000000000000000
  0
LINE
  5
BE
100
AcDbEntity
  8
A1
  6
CONTINUOUS
 62
7
100
AcDbLine
 10
83.17357195739407
 20
121.5927645421508
 30
0.000000000000000
 11
83.22080715739409
 21
121.5384355421508
 31
0.000000000000000
  0
LINE
  5
BF
100
AcDbEntity
  8
A1
  6
CONTINUOUS
 62
7
100
AcDbLine
 10
83.22080715739403
 20
121.5384355421508
 30
0.000000000000000
 11
83.25241735739404
 21
121.5031603421508
 31
0.000000000000000
  0
LINE
  5
C0
100
AcDbEntity
  8
A1
  6
CONTINUOUS
 62
7
100
AcDbLine
 10
83.25241735739409
 20
121.5031603421508
 30
0.000000000000000
 11
83.26928135739408
 21
121.4868775421508
 31
0.000000000000000
  0
LINE
  5
C1
100
AcDbEntity
  8
A1
  6
CONTINUOUS
 62
7
100
AcDbLine
 10
83.26928135739405
 20
121.4868775421508
 30
0.000000000000000
 11
83.29705235739409
 21
121.4660875421508
 31
0.000000000000000
  0
LINE
  5
C2
100
AcDbEntity
  8
A1
  6
CONTINUOUS
 62
7
100
AcDbLine
 10
83.29705235739407
 20
121.4660875421508
 30
0.000000000000000
 11
83.31516135739406
 21
121.4564439421508
 31
0.000000000000000
  0
LINE
  5
C3
100
AcDbEntity
  8
A1
  6
CONTINUOUS
 62
7
100
AcDbLine
 10
83.31516135739406
 20
121.4564439421508
 30
0.000000000000000
 11
83.35322895739408
 21
121.4398499421508
 31
0.000000000000000
  0
LINE
  5
C4
100
AcDbEntity
  8
A1
  6
CONTINUOUS
 62
7
100
AcDbLine
 10
83.35322895739404
 20
121.4398499421508
 30
0.000000000000000
 11
83.38832415739404
 21
121.4227709421508
 31
0.000000000000000
  0
LINE
  5
C5
100
AcDbEntity
  8
A1
  6
CONTINUOUS
 62
7
100
AcDbLine
 10
83.38832415739407
 20
121.4227709421508
 30
0.000000000000000
 11
83.41103535739407
 21
121.4102007421508
 31
0.000000000000000
  0
LINE
  5
C6
100
AcDbEntity
  8
A1
  6
CONTINUOUS
 62
7
100
AcDbLine
 10
83.41103535739413
 20
121.4102007421508
 30
0.000000000000000
 11
83.45532255739411
 21
121.3831331421509
 31
0.000000000000000
  0
LINE
  5
C7
100
AcDbEntity
  8
A1
  6
CONTINUOUS
 62
7
100
AcDbLine
 10
83.45532255739403
 20
121.3831331421509
 30
0.000000000000000
 11
83.50034215739407
 21
121.3534165421508
 31
0.000000000000000
  0
LINE
  5
C8
100
AcDbEntity
  8
A1
  6
CONTINUOUS
 62
7
100
AcDbLine
 10
83.50034215739409
 20
121.3534165421508
 30
0.000000000000000
 11
83.54432395739407
 21
121.3222017421508
 31
0.000000000000000
  0
LINE
  5
C9
100
AcDbEntity
  8
A1
  6
CONTINUOUS
 62
7
100
AcDbLine
 10
83.54432395739408
 20
121.3222017421508
 30
0.000000000000000
 11
83.58373435739408
 21
121.2918779421508
 31
0.000000000000000
  0
LINE
  5
CA
100
AcDbEntity
  8
A1
  6
CONTINUOUS
 62
7
100
AcDbLine
 10
83.58373435739406
 20
121.2918779421508
 30
0.000000000000000
 11
83.62165555739404
 21
121.2596651421508
 31
0.000000000000000
  0
LINE
  5
CB
100
AcDbEntity
  8
A1
  6
CONTINUOUS
 62
7
100
AcDbLine
 10
83.62165555739409
 20
121.2596651421508
 30
0.000000000000000
 11
83.67475615739407
 21
121.2074799421508
 31
0.000000000000000
  0
LINE
  5
CC
100
AcDbEntity
  8
A1
  6
CONTINUOUS
 62
7
100
AcDbLine
 10
83.67475615739406
 20
121.2074799421508
 30
0.000000000000000
 11
83.72338895739406
 21
121.1507723421508
 31
0.000000000000000
  0
ARC
  5
CD
100
AcDbEntity
  8
A1
  6
CONTINUOUS
 62
7
100
AcDbCircle
 10
86.83649315739407
 20
119.2616533421508
 30
0.000000000000000
 40
5.200000495910646
100
AcDbArc
 50
136.4219770000000
 51
141.7598380000000
  0
LINE
  5
CE
100
AcDbEntity
  8
A1
  6
CONTINUOUS
 62
7
100
AcDbLine
 10
83.06942155739405
 20
122.8462297421508
 30
0.000000000000000
 11
83.19534335739407
 21
122.8299669421508
 31
0.000000000000000
  0
LINE
  5
CF
100
AcDbEntity
  8
A1
  6
CONTINUOUS
 62
7
100
AcDbLine
 10
83.19534335739408
 20
122.8299669421508
 30
0.000000000000000
 11
83.32045915739405
 21
122.8080811421509
 31
0.000000000000000
  0
LINE
  5
D0
100
AcDbEntity
  8
A1
  6
CONTINUOUS
 62
7
100
AcDbLine
 10
83.32045915739403
 20
122.8080811421508
 30
0.000000000000000
 11
83.43950215739406
 21
122.7818925421508
 31
0.000000000000000
  0
LINE
  5
D1
100
AcDbEntity
  8
A1
  6
CONTINUOUS
 62
7
100
AcDbLine
 10
83.43950215739406
 20
122.7818925421508
 30
0.000000000000000
 11
83.55712315739407
 21
122.7501923421508
 31
0.000000000000000
  0
LINE
  5
D2
100
AcDbEntity
  8
A1
  6
CONTINUOUS
 62
7
100
AcDbLine
 10
83.55712315739410
 20
122.7501923421508
 30
0.000000000000000
 11
83.66806675739409
 21
122.7142107421508
 31
0.000000000000000
  0
LINE
  5
D3
100
AcDbEntity
  8
A1
  6
CONTINUOUS
 62
7
100
AcDbLine
 10
83.66806675739410
 20
122.7142107421508
 30
0.000000000000000
 11
83.77717915739406
 21
122.6725481421508
 31
0.000000000000000
  0
LINE
  5
D4
100
AcDbEntity
  8
A1
  6
CONTINUOUS
 62
7
100
AcDbLine
 10
83.77717915739409
 20
122.6725481421508
 30
0.000000000000000
 11
83.82861355739411
 21
122.6505587421508
 31
0.000000000000000
  0
LINE
  5
D5
100
AcDbEntity
  8
A1
  6
CONTINUOUS
 62
7
100
AcDbLine
 10
83.82861355739408
 20
122.6505587421508
 30
0.000000000000000
 11
83.87932775739407
 21
122.6270097421508
 31
0.000000000000000
  0
LINE
  5
D6
100
AcDbEntity
  8
A1
  6
CONTINUOUS
 62
7
100
AcDbLine
 10
83.87932775739407
 20
122.6270097421508
 30
0.000000000000000
 11
83.92902255739401
 21
122.6016649421508
 31
0.000000000000000
  0
LINE
  5
D7
100
AcDbEntity
  8
A1
  6
CONTINUOUS
 62
7
100
AcDbLine
 10
83.92902255739403
 20
122.6016649421508
 30
0.000000000000000
 11
84.00781895739405
 21
122.5555407421508
 31
0.000000000000000
  0
LINE
  5
D8
100
AcDbEntity
  8
A1
  6
CONTINUOUS
 62
7
100
AcDbLine
 10
84.00781895739409
 20
122.5555407421508
 30
0.000000000000000
 11
84.06831695739410
 21
122.5165177421508
 31
0.000000000000000
  0
LINE
  5
D9
100
AcDbEntity
  8
A1
  6
CONTINUOUS
 62
7
100
AcDbLine
 10
84.06831695739412
 20
122.5165177421509
 30
0.000000000000000
 11
84.10773335739412
 21
122.4902483421508
 31
0.000000000000000
  0
LINE
  5
DA
100
AcDbEntity
  8
A1
  6
CONTINUOUS
 62
7
100
AcDbLine
 10
84.10773335739407
 20
122.4902483421508
 30
0.000000000000000
 11
84.12625155739406
 21
122.4758729421508
 31
0.000000000000000
  0
LINE
  5
DB
100
AcDbEntity
  8
A1
  6
CONTINUOUS
 62
7
100
AcDbLine
 10
84.12625155739406
 20
122.4758729421508
 30
0.000000000000000
 11
84.15078155739405
 21
122.4513429421508
 31
0.000000000000000
  0
LINE
  5
DC
100
AcDbEntity
  8
A1
  6
CONTINUOUS
 62
7
100
AcDbLine
 10
84.15078155739405
 20
122.4513429421508
 30
0.000000000000000
 11
84.16290315739407
 21
122.4347901421508
 31
0.000000000000000
  0
LINE
  5
DD
100
AcDbEntity
  8
A1
  6
CONTINUOUS
 62
7
100
AcDbLine
 10
84.16290315739404
 20
122.4347901421508
 30
0.000000000000000
 11
84.18474755739408
 21
122.3994721421508
 31
0.000000000000000
  0
LINE
  5
DE
100
AcDbEntity
  8
A1
  6
CONTINUOUS
 62
7
100
AcDbLine
 10
84.18474755739409
 20
122.3994721421508
 30
0.000000000000000
 11
84.20664695739410
 21
122.3671679421508
 31
0.000000000000000
  0
LINE
  5
DF
100
AcDbEntity
  8
A1
  6
CONTINUOUS
 62
7
100
AcDbLine
 10
84.20664695739410
 20
122.3671679421508
 30
0.000000000000000
 11
84.22232075739410
 21
122.3464769421508
 31
0.000000000000000
  0
LINE
  5
E0
100
AcDbEntity
  8
A1
  6
CONTINUOUS
 62
7
100
AcDbLine
 10
84.22232075739407
 20
122.3464769421508
 30
0.000000000000000
 11
84.25541415739409
 21
122.3064927421508
 31
0.000000000000000
  0
LINE
  5
E1
100
AcDbEntity
  8
A1
  6
CONTINUOUS
 62
7
100
AcDbLine
 10
84.25541415739404
 20
122.3064927421508
 30
0.000000000000000
 11
84.29123555739403
 21
122.2661607421509
 31
0.000000000000000
  0
LINE
  5
E2
100
AcDbEntity
  8
A1
  6
CONTINUOUS
 62
7
100
AcDbLine
 10
84.29123555739406
 20
122.2661607421508
 30
0.000000000000000
 11
84.32839375739404
 21
122.2270677421508
 31
0.000000000000000
  0
LINE
  5
E3
100
AcDbEntity
  8
A1
  6
CONTINUOUS
 62
7
100
AcDbLine
 10
84.32839375739402
 20
122.2270677421508
 30
0.000000000000000
 11
84.36401995739404
 21
122.1923753421508
 31
0.000000000000000
  0
LINE
  5
E4
100
AcDbEntity
  8
A1
  6
CONTINUOUS
 62
7
100
AcDbLine
 10
84.36401995739413
 20
122.1923753421508
 30
0.000000000000000
 11
84.40130035739409
 21
122.1594209421508
 31
0.000000000000000
  0
LINE
  5
E5
100
AcDbEntity
  8
A1
  6
CONTINUOUS
 62
7
100
AcDbLine
 10
84.40130035739406
 20
122.1594209421508
 30
0.000000000000000
 11
84.46051055739403
 21
122.1142869421508
 31
0.000000000000000
  0
LINE
  5
E6
100
AcDbEntity
  8
A1
  6
CONTINUOUS
 62
7
100
AcDbLine
 10
84.46051055739404
 20
122.1142869421508
 30
0.000000000000000
 11
84.52355975739403
 21
122.0742205421508
 31
0.000000000000000
  0
ARC
  5
E7
100
AcDbEntity
  8
A1
  6
CONTINUOUS
 62
7
100
AcDbCircle
 10
84.72402375739409
 20
122.4203661421508
 30
0.000000000000000
 40
0.4000000381469728
100
AcDbArc
 50
239.9240030000000
 51
303.7736630000000
  0
ARC
  5
E8
100
AcDbEntity
  8
A1
  6
CONTINUOUS
 62
7
100
AcDbCircle
 10
86.83649315739407
 20
119.2616533421508
 30
0.000000000000000
 40
3.400000324249268
100
AcDbArc
 50
121.6808850000000
 51
123.7736690000000
  0
ARC
  5
E9
100
AcDbEntity
  8
A1
  6
CONTINUOUS
 62
7
100
AcDbCircle
 10
84.84077795739410
 20
122.4954027421508
 30
0.000000000000000
 40
0.4000000381469728
100
AcDbArc
 50
301.6808830000001
 51
365.5305500000000
  0
LINE
  5
EA
100
AcDbEntity
  8
A1
  6
CONTINUOUS
 62
7
100
AcDbLine
 10
85.14074735739409
 20
124.1773881421508
 30
0.000000000000000
 11
85.10322895739409
 21
124.0560869421509
 31
0.000000000000000
  0
LINE
  5
EB
100
AcDbEntity
  8
A1
  6
CONTINUOUS
 62
7
100
AcDbLine
 10
85.10322895739405
 20
124.0560869421508
 30
0.000000000000000
 11
85.07116115739407
 21
123.9331865421508
 31
0.000000000000000
  0
LINE
  5
EC
100
AcDbEntity
  8
A1
  6
CONTINUOUS
 62
7
100
AcDbLine
 10
85.07116115739407
 20
123.9331865421508
 30
0.000000000000000
 11
85.04553255739407
 21
123.8140229421508
 31
0.000000000000000
  0
LINE
  5
ED
100
AcDbEntity
  8
A1
  6
CONTINUOUS
 62
7
100
AcDbLine
 10
85.04553255739410
 20
123.8140229421508
 30
0.000000000000000
 11
85.02550695739410
 21
123.6938615421508
 31
0.000000000000000
  0
LINE
  5
EE
100
AcDbEntity
  8
A1
  6
CONTINUOUS
 62
7
100
AcDbLine
 10
85.02550695739401
 20
123.6938615421508
 30
0.000000000000000
 11
85.01214635739404
 21
123.5780015421508
 31
0.000000000000000
  0
LINE
  5
EF
100
AcDbEntity
  8
A1
  6
CONTINUOUS
 62
7
100
AcDbLine
 10
85.01214635739407
 20
123.5780015421508
 30
0.000000000000000
 11
85.00471835739407
 21
123.4614367421508
 31
0.000000000000000
  0
LINE
  5
F0
100
AcDbEntity
  8
A1
  6
CONTINUOUS
 62
7
100
AcDbLine
 10
85.00471835739404
 20
123.4614367421508
 30
0.000000000000000
 11
85.00335115739404
 21
123.4055161421508
 31
0.000000000000000
  0
LINE
  5
F1
100
AcDbEntity
  8
A1
  6
CONTINUOUS
 62
7
100
AcDbLine
 10
85.00335115739409
 20
123.4055161421508
 30
0.000000000000000
 11
85.00371115739409
 21
123.3496065421508
 31
0.000000000000000
  0
LINE
  5
F2
100
AcDbEntity
  8
A1
  6
CONTINUOUS
 62
7
100
AcDbLine
 10
85.00371115739404
 20
123.3496065421508
 30
0.000000000000000
 11
85.00612215739403
 21
123.2938737421508
 31
0.000000000000000
  0
LINE
  5
F3
100
AcDbEntity
  8
A1
  6
CONTINUOUS
 62
7
100
AcDbLine
 10
85.00612215739405
 20
123.2938737421508
 30
0.000000000000000
 11
85.01533835739404
 21
123.2030335421508
 31
0.000000000000000
  0
LINE
  5
F4
100
AcDbEntity
  8
A1
  6
CONTINUOUS
 62
7
100
AcDbLine
 10
85.01533835739410
 20
123.2030335421508
 30
0.000000000000000
 11
85.02570215739411
 21
123.1317919421508
 31
0.000000000000000
  0
LINE
  5
F5
100
AcDbEntity
  8
A1
  6
CONTINUOUS
 62
7
100
AcDbLine
 10
85.02570215739409
 20
123.1317919421508
 30
0.000000000000000
 11
85.03322775739410
 21
123.0850267421508
 31
0.000000000000000
  0
LINE
  5
F6
100
AcDbEntity
  8
A1
  6
CONTINUOUS
 62
7
100
AcDbLine
 10
85.03322775739409
 20
123.0850267421508
 30
0.000000000000000
 11
85.03861115739410
 21
123.0622117421508
 31
0.000000000000000
  0
LINE
  5
F7
100
AcDbEntity
  8
A1
  6
CONTINUOUS
 62
7
100
AcDbLine
 10
85.03861115739406
 20
123.0622117421508
 30
0.000000000000000
 11
85.05073275739406
 21
123.0297075421508
 31
0.000000000000000
  0
LINE
  5
F8
100
AcDbEntity
  8
A1
  6
CONTINUOUS
 62
7
100
AcDbLine
 10
85.05073275739407
 20
123.0297075421508
 30
0.000000000000000
 11
85.06075475739408
 21
123.0118029421508
 31
0.000000000000000
  0
LINE
  5
F9
100
AcDbEntity
  8
A1
  6
CONTINUOUS
 62
7
100
AcDbLine
 10
85.06075475739409
 20
123.0118029421508
 30
0.000000000000000
 11
85.08380755739411
 21
122.9772645421508
 31
0.000000000000000
  0
LINE
  5
FA
100
AcDbEntity
  8
A1
  6
CONTINUOUS
 62
7
100
AcDbLine
 10
85.08380755739412
 20
122.9772645421508
 30
0.000000000000000
 11
85.10409575739413
 21
122.9439225421509
 31
0.000000000000000
  0
LINE
  5
FB
100
AcDbEntity
  8
A1
  6
CONTINUOUS
 62
7
100
AcDbLine
 10
85.10409575739408
 20
122.9439225421508
 30
0.000000000000000
 11
85.11640655739407
 21
122.9210695421508
 31
0.000000000000000
  0
LINE
  5
FC
100
AcDbEntity
  8
A1
  6
CONTINUOUS
 62
7
100
AcDbLine
 10
85.11640655739413
 20
122.9210695421509
 30
0.000000000000000
 11
85.13902615739414
 21
122.8743563421509
 31
0.000000000000000
  0
LINE
  5
FD
100
AcDbEntity
  8
A1
  6
CONTINUOUS
 62
7
100
AcDbLine
 10
85.13902615739411
 20
122.8743563421508
 30
0.000000000000000
 11
85.16083395739409
 21
122.8250169421508
 31
0.000000000000000
  0
LINE
  5
FE
100
AcDbEntity
  8
A1
  6
CONTINUOUS
 62
7
100
AcDbLine
 10
85.16083395739409
 20
122.8250169421508
 30
0.000000000000000
 11
85.18095735739406
 21
122.7749787421508
 31
0.000000000000000
  0
LINE
  5
FF
100
AcDbEntity
  8
A1
  6
CONTINUOUS
 62
7
100
AcDbLine
 10
85.18095735739411
 20
122.7749787421508
 30
0.000000000000000
 11
85.19771755739410
 21
122.7281633421508
 31
0.000000000000000
  0
LINE
  5
100
100
AcDbEntity
  8
A1
  6
CONTINUOUS
 62
7
100
AcDbLine
 10
85.19771755739409
 20
122.7281633421508
 30
0.000000000000000
 11
85.21220735739409
 21
122.6805589421508
 31
0.000000000000000
  0
LINE
  5
101
100
AcDbEntity
  8
A1
  6
CONTINUOUS
 62
7
100
AcDbLine
 10
85.21220735739408
 20
122.6805589421507
 30
0.000000000000000
 11
85.22866235739406
 21
122.6079499421508
 31
0.000000000000000
  0
LINE
  5
102
100
AcDbEntity
  8
A1
  6
CONTINUOUS
 62
7
100
AcDbLine
 10
85.22866235739406
 20
122.6079499421509
 30
0.000000000000000
 11
85.23891635739406
 21
122.5339525421508
 31
0.000000000000000
  0
ARC
  5
103
100
AcDbEntity
  8
A1
  6
CONTINUOUS
 62
7
100
AcDbCircle
 10
86.83649315739407
 20
119.2616533421508
 30
0.000000000000000
 40
5.200000495910646
100
AcDbArc
 50
103.6947160000000
 51
109.0325630000000
  0
LINE
  5
104
100
AcDbEntity
  8
A1
  6
CONTINUOUS
 62
7
100
AcDbLine
 10
85.60540195739414
 20
124.3138231421508
 30
0.000000000000000
 11
85.70253935739413
 21
124.2320619421508
 31
0.000000000000000
  0
LINE
  5
105
100
AcDbEntity
  8
A1
  6
CONTINUOUS
 62
7
100
AcDbLine
 10
85.70253935739412
 20
124.2320619421508
 30
0.000000000000000
 11
85.79596575739411
 21
124.1460085421509
 31
0.000000000000000
  0
LINE
  5
106
100
AcDbEntity
  8
A1
  6
CONTINUOUS
 62
7
100
AcDbLine
 10
85.79596575739407
 20
124.1460085421508
 30
0.000000000000000
 11
85.88195215739408
 21
124.0596177421508
 31
0.000000000000000
  0
LINE
  5
107
100
AcDbEntity
  8
A1
  6
CONTINUOUS
 62
7
100
AcDbLine
 10
85.88195215739404
 20
124.0596177421508
 30
0.000000000000000
 11
85.96375755739406
 21
123.9693589421508
 31
0.000000000000000
  0
LINE
  5
108
100
AcDbEntity
  8
A1
  6
CONTINUOUS
 62
7
100
AcDbLine
 10
85.96375755739408
 20
123.9693589421508
 30
0.000000000000000
 11
86.03763455739409
 21
123.8791123421508
 31
0.000000000000000
  0
LINE
  5
109
100
AcDbEntity
  8
A1
  6
CONTINUOUS
 62
7
100
AcDbLine
 10
86.03763455739407
 20
123.8791123421508
 30
0.000000000000000
 11
86.10690335739407
 21
123.7850679421508
 31
0.000000000000000
  0
LINE
  5
10A
100
AcDbEntity
  8
A1
  6
CONTINUOUS
 62
7
100
AcDbLine
 10
86.10690335739406
 20
123.7850679421508
 30
0.000000000000000
 11
86.13828755739408
 21
123.7387621421508
 31
0.000000000000000
  0
LINE
  5
10B
100
AcDbEntity
  8
A1
  6
CONTINUOUS
 62
7
100
AcDbLine
 10
86.13828755739402
 20
123.7387621421508
 30
0.000000000000000
 11
86.16821315739405
 21
123.6915361421508
 31
0.000000000000000
  0
LINE
  5
10C
100
AcDbEntity
  8
A1
  6
CONTINUOUS
 62
7
100
AcDbLine
 10
86.16821315739408
 20
123.6915361421509
 30
0.000000000000000
 11
86.19631975739408
 21
123.6433489421509
 31
0.000000000000000
  0
LINE
  5
10D
100
AcDbEntity
  8
A1
  6
CONTINUOUS
 62
7
100
AcDbLine
 10
86.19631975739409
 20
123.6433489421508
 30
0.000000000000000
 11
86.23767115739409
 21
123.5619431421508
 31
0.000000000000000
  0
LINE
  5
10E
100
AcDbEntity
  8
A1
  6
CONTINUOUS
 62
7
100
AcDbLine
 10
86.23767115739409
 20
123.5619431421508
 30
0.000000000000000
 11
86.26746855739408
 21
123.4964083421508
 31
0.000000000000000
  0
LINE
  5
10F
100
AcDbEntity
  8
A1
  6
CONTINUOUS
 62
7
100
AcDbLine
 10
86.26746855739411
 20
123.4964083421508
 30
0.000000000000000
 11
86.28642595739413
 21
123.4529985421509
 31
0.000000000000000
  0
LINE
  5
110
100
AcDbEntity
  8
A1
  6
CONTINUOUS
 62
7
100
AcDbLine
 10
86.28642595739404
 20
123.4529985421508
 30
0.000000000000000
 11
86.29423235739402
 21
123.4308947421508
 31
0.000000000000000
  0
LINE
  5
111
100
AcDbEntity
  8
A1
  6
CONTINUOUS
 62
7
100
AcDbLine
 10
86.29423235739402
 20
123.4308947421508
 30
0.000000000000000
 11
86.30160555739404
 21
123.3969957421508
 31
0.000000000000000
  0
LINE
  5
112
100
AcDbEntity
  8
A1
  6
CONTINUOUS
 62
7
100
AcDbLine
 10
86.30160555739408
 20
123.3969957421508
 30
0.000000000000000
 11
86.30285675739407
 21
123.3765153421508
 31
0.000000000000000
  0
LINE
  5
113
100
AcDbEntity
  8
A1
  6
CONTINUOUS
 62
7
100
AcDbLine
 10
86.30285675739410
 20
123.3765153421508
 30
0.000000000000000
 11
86.30213655739411
 21
123.3349977421508
 31
0.000000000000000
  0
LINE
  5
114
100
AcDbEntity
  8
A1
  6
CONTINUOUS
 62
7
100
AcDbLine
 10
86.30213655739408
 20
123.3349977421508
 30
0.000000000000000
 11
86.30309475739404
 21
123.2959809421508
 31
0.000000000000000
  0
LINE
  5
115
100
AcDbEntity
  8
A1
  6
CONTINUOUS
 62
7
100
AcDbLine
 10
86.30309475739412
 20
123.2959809421509
 30
0.000000000000000
 11
86.30509675739413
 21
123.2701005421509
 31
0.000000000000000
  0
LINE
  5
116
100
AcDbEntity
  8
A1
  6
CONTINUOUS
 62
7
100
AcDbLine
 10
86.30509675739411
 20
123.2701005421508
 30
0.000000000000000
 11
86.31131615739410
 21
123.2185701421508
 31
0.000000000000000
  0
LINE
  5
117
100
AcDbEntity
  8
A1
  6
CONTINUOUS
 62
7
100
AcDbLine
 10
86.31131615739407
 20
123.2185701421508
 30
0.000000000000000
 11
86.31964755739408
 21
123.1652757421508
 31
0.000000000000000
  0
LINE
  5
118
100
AcDbEntity
  8
A1
  6
CONTINUOUS
 62
7
100
AcDbLine
 10
86.31964755739409
 20
123.1652757421508
 30
0.000000000000000
 11
86.32976715739412
 21
123.1123003421508
 31
0.000000000000000
  0
LINE
  5
119
100
AcDbEntity
  8
A1
  6
CONTINUOUS
 62
7
100
AcDbLine
 10
86.32976715739407
 20
123.1123003421509
 30
0.000000000000000
 11
86.34097935739406
 21
123.0638551421509
 31
0.000000000000000
  0
LINE
  5
11A
100
AcDbEntity
  8
A1
  6
CONTINUOUS
 62
7
100
AcDbLine
 10
86.34097935739405
 20
123.0638551421508
 30
0.000000000000000
 11
86.35452915739407
 21
123.0159761421508
 31
0.000000000000000
  0
LINE
  5
11B
100
AcDbEntity
  8
A1
  6
CONTINUOUS
 62
7
100
AcDbLine
 10
86.35452915739410
 20
123.0159761421508
 30
0.000000000000000
 11
86.37993795739411
 21
122.9459947421508
 31
0.000000000000000
  0
LINE
  5
11C
100
AcDbEntity
  8
A1
  6
CONTINUOUS
 62
7
100
AcDbLine
 10
86.37993795739408
 20
122.9459947421508
 30
0.000000000000000
 11
86.41132235739410
 21
122.8782015421508
 31
0.000000000000000
  0
ARC
  5
11D
100
AcDbEntity
  8
A1
  6
CONTINUOUS
 62
7
100
AcDbCircle
 10
86.76709615739409
 20
123.0610201421508
 30
0.000000000000000
 40
0.4000000381469728
100
AcDbArc
 50
207.1967250000000
 51
271.0463900000000
  0
ARC
  5
11E
100
AcDbEntity
  8
A1
  6
CONTINUOUS
 62
7
100
AcDbCircle
 10
86.83649315739407
 20
119.2616533421508
 30
0.000000000000000
 40
3.400000324249268
100
AcDbArc
 50
88.95360599999998
 51
91.04639400000002
  0
ARC
  5
11F
100
AcDbEntity
  8
A1
  6
CONTINUOUS
 62
7
100
AcDbCircle
 10
86.90589015739408
 20
123.0610201421508
 30
0.000000000000000
 40
0.4000000381469728
100
AcDbArc
 50
268.9536100000000
 51
332.8032749999999
  0
LINE
  5
120
100
AcDbEntity
  8
A1
  6
CONTINUOUS
 62
7
100
AcDbLine
 10
88.06758455739404
 20
124.3138231421508
 30
0.000000000000000
 11
87.97044695739405
 21
124.2320619421508
 31
0.000000000000000
  0
LINE
  5
121
100
AcDbEntity
  8
A1
  6
CONTINUOUS
 62
7
100
AcDbLine
 10
87.97044695739415
 20
124.2320619421508
 30
0.000000000000000
 11
87.87702055739410
 21
124.1460085421508
 31
0.000000000000000
  0
LINE
  5
122
100
AcDbEntity
  8
A1
  6
CONTINUOUS
 62
7
100
AcDbLine
 10
87.87702055739408
 20
124.1460085421508
 30
0.000000000000000
 11
87.79103415739408
 21
124.0596177421508
 31
0.000000000000000
  0
LINE
  5
123
100
AcDbEntity
  8
A1
  6
CONTINUOUS
 62
7
100
AcDbLine
 10
87.79103415739405
 20
124.0596177421508
 30
0.000000000000000
 11
87.70922875739407
 21
123.9693589421508
 31
0.000000000000000
  0
LINE
  5
124
100
AcDbEntity
  8
A1
  6
CONTINUOUS
 62
7
100
AcDbLine
 10
87.70922875739410
 20
123.9693589421509
 30
0.000000000000000
 11
87.63535175739408
 21
123.8791123421509
 31
0.000000000000000
  0
LINE
  5
125
100
AcDbEntity
  8
A1
  6
CONTINUOUS
 62
7
100
AcDbLine
 10
87.63535175739406
 20
123.8791123421508
 30
0.000000000000000
 11
87.56608295739406
 21
123.7850679421508
 31
0.000000000000000
  0
LINE
  5
126
100
AcDbEntity
  8
A1
  6
CONTINUOUS
 62
7
100
AcDbLine
 10
87.56608295739403
 20
123.7850679421508
 30
0.000000000000000
 11
87.53469875739405
 21
123.7387621421508
 31
0.000000000000000
  0
LINE
  5
127
100
AcDbEntity
  8
A1
  6
CONTINUOUS
 62
7
100
AcDbLine
 10
87.53469875739407
 20
123.7387621421508
 30
0.000000000000000
 11
87.50477315739408
 21
123.6915361421508
 31
0.000000000000000
  0
LINE
  5
128
100
AcDbEntity
  8
A1
  6
CONTINUOUS
 62
7
100
AcDbLine
 10
87.50477315739403
 20
123.6915361421508
 30
0.000000000000000
 11
87.47666655739403
 21
123.6433489421508
 31
0.000000000000000
  0
LINE
  5
129
100
AcDbEntity
  8
A1
  6
CONTINUOUS
 62
7
100
AcDbLine
 10
87.47666655739400
 20
123.6433489421508
 30
0.000000000000000
 11
87.43531515739404
 21
123.5619431421508
 31
0.000000000000000
  0
LINE
  5
12A
100
AcDbEntity
  8
A1
  6
CONTINUOUS
 62
7
100
AcDbLine
 10
87.43531515739409
 20
123.5619431421508
 30
0.000000000000000
 11
87.40551775739407
 21
123.4964083421508
 31
0.000000000000000
  0
LINE
  5
12B
100
AcDbEntity
  8
A1
  6
CONTINUOUS
 62
7
100
AcDbLine
 10
87.40551775739405
 20
123.4964083421508
 30
0.000000000000000
 11
87.38656035739405
 21
123.4529985421508
 31
0.000000000000000
  0
LINE
  5
12C
100
AcDbEntity
  8
A1
  6
CONTINUOUS
 62
7
100
AcDbLine
 10
87.38656035739407
 20
123.4529985421508
 30
0.000000000000000
 11
87.37875395739405
 21
123.4308947421508
 31
0.000000000000000
  0
LINE
  5
12D
100
AcDbEntity
  8
A1
  6
CONTINUOUS
 62
7
100
AcDbLine
 10
87.37875395739405
 20
123.4308947421507
 30
0.000000000000000
 11
87.37138095739405
 21
123.3969957421507
 31
0.000000000000000
  0
LINE
  5
12E
100
AcDbEntity
  8
A1
  6
CONTINUOUS
 62
7
100
AcDbLine
 10
87.37138095739409
 20
123.3969957421508
 30
0.000000000000000
 11
87.37012975739411
 21
123.3765153421508
 31
0.000000000000000
  0
LINE
  5
12F
100
AcDbEntity
  8
A1
  6
CONTINUOUS
 62
7
100
AcDbLine
 10
87.37012975739414
 20
123.3765153421508
 30
0.000000000000000
 11
87.37084995739413
 21
123.3349977421508
 31
0.000000000000000
  0
LINE
  5
130
100
AcDbEntity
  8
A1
  6
CONTINUOUS
 62
7
100
AcDbLine
 10
87.37084995739407
 20
123.3349977421508
 30
0.000000000000000
 11
87.36989155739407
 21
123.2959809421508
 31
0.000000000000000
  0
LINE
  5
131
100
AcDbEntity
  8
A1
  6
CONTINUOUS
 62
7
100
AcDbLine
 10
87.36989155739406
 20
123.2959809421508
 30
0.000000000000000
 11
87.36788975739407
 21
123.2701005421508
 31
0.000000000000000
  0
LINE
  5
132
100
AcDbEntity
  8
A1
  6
CONTINUOUS
 62
7
100
AcDbLine
 10
87.36788975739408
 20
123.2701005421508
 30
0.000000000000000
 11
87.36167015739407
 21
123.2185701421508
 31
0.000000000000000
  0
LINE
  5
133
100
AcDbEntity
  8
A1
  6
CONTINUOUS
 62
7
100
AcDbLine
 10
87.36167015739406
 20
123.2185701421507
 30
0.000000000000000
 11
87.35333895739407
 21
123.1652757421508
 31
0.000000000000000
  0
LINE
  5
134
100
AcDbEntity
  8
A1
  6
CONTINUOUS
 62
7
100
AcDbLine
 10
87.35333895739412
 20
123.1652757421508
 30
0.000000000000000
 11
87.34321935739409
 21
123.1123003421508
 31
0.000000000000000
  0
LINE
  5
135
100
AcDbEntity
  8
A1
  6
CONTINUOUS
 62
7
100
AcDbLine
 10
87.34321935739410
 20
123.1123003421508
 30
0.000000000000000
 11
87.33200715739412
 21
123.0638551421509
 31
0.000000000000000
  0
LINE
  5
136
100
AcDbEntity
  8
A1
  6
CONTINUOUS
 62
7
100
AcDbLine
 10
87.33200715739405
 20
123.0638551421507
 30
0.000000000000000
 11
87.31845735739404
 21
123.0159761421508
 31
0.000000000000000
  0
LINE
  5
137
100
AcDbEntity
  8
A1
  6
CONTINUOUS
 62
7
100
AcDbLine
 10
87.31845735739404
 20
123.0159761421508
 30
0.000000000000000
 11
87.29304835739404
 21
122.9459947421508
 31
0.000000000000000
  0
LINE
  5
138
100
AcDbEntity
  8
A1
  6
CONTINUOUS
 62
7
100
AcDbLine
 10
87.29304835739406
 20
122.9459947421508
 30
0.000000000000000
 11
87.26166415739402
 21
122.8782015421508
 31
0.000000000000000
  0
ARC
  5
139
100
AcDbEntity
  8
A1
  6
CONTINUOUS
 62
7
100
AcDbCircle
 10
86.83649315739407
 20
119.2616533421508
 30
0.000000000000000
 40
5.200000495910646
100
AcDbArc
 50
70.96743699999998
 51
76.30528400000001
  0
LINE
  5
13A
100
AcDbEntity
  8
A1
  6
CONTINUOUS
 62
7
100
AcDbLine
 10
88.53223895739407
 20
124.1773881421508
 30
0.000000000000000
 11
88.56975735739405
 21
124.0560869421508
 31
0.000000000000000
  0
LINE
  5
13B
100
AcDbEntity
  8
A1
  6
CONTINUOUS
 62
7
100
AcDbLine
 10
88.56975735739408
 20
124.0560869421509
 30
0.000000000000000
 11
88.60182515739410
 21
123.9331865421509
 31
0.000000000000000
  0
LINE
  5
13C
100
AcDbEntity
  8
A1
  6
CONTINUOUS
 62
7
100
AcDbLine
 10
88.60182515739407
 20
123.9331865421508
 30
0.000000000000000
 11
88.62745395739407
 21
123.8140229421508
 31
0.000000000000000
  0
LINE
  5
13D
100
AcDbEntity
  8
A1
  6
CONTINUOUS
 62
7
100
AcDbLine
 10
88.62745395739407
 20
123.8140229421508
 30
0.000000000000000
 11
88.64747955739409
 21
123.6938615421508
 31
0.000000000000000
  0
LINE
  5
13E
100
AcDbEntity
  8
A1
  6
CONTINUOUS
 62
7
100
AcDbLine
 10
88.64747955739405
 20
123.6938615421508
 30
0.000000000000000
 11
88.66084015739402
 21
123.5780015421508
 31
0.000000000000000
  0
LINE
  5
13F
100
AcDbEntity
  8
A1
  6
CONTINUOUS
 62
7
100
AcDbLine
 10
88.66084015739408
 20
123.5780015421508
 30
0.000000000000000
 11
88.66826815739405
 21
123.4614367421508
 31
0.000000000000000
  0
LINE
  5
140
100
AcDbEntity
  8
A1
  6
CONTINUOUS
 62
7
100
AcDbLine
 10
88.66826815739404
 20
123.4614367421508
 30
0.000000000000000
 11
88.66963535739404
 21
123.4055161421508
 31
0.000000000000000
  0
LINE
  5
141
100
AcDbEntity
  8
A1
  6
CONTINUOUS
 62
7
100
AcDbLine
 10
88.66963535739407
 20
123.4055161421508
 30
0.000000000000000
 11
88.66927515739408
 21
123.3496065421508
 31
0.000000000000000
  0
LINE
  5
142
100
AcDbEntity
  8
A1
  6
CONTINUOUS
 62
7
100
AcDbLine
 10
88.66927515739405
 20
123.3496065421508
 30
0.000000000000000
 11
88.66686435739405
 21
123.2938737421508
 31
0.000000000000000
  0
LINE
  5
143
100
AcDbEntity
  8
A1
  6
CONTINUOUS
 62
7
100
AcDbLine
 10
88.66686435739409
 20
123.2938737421508
 30
0.000000000000000
 11
88.65764795739408
 21
123.2030335421508
 31
0.000000000000000
  0
LINE
  5
144
100
AcDbEntity
  8
A1
  6
CONTINUOUS
 62
7
100
AcDbLine
 10
88.65764795739409
 20
123.2030335421508
 30
0.000000000000000
 11
88.64728415739407
 21
123.1317919421508
 31
0.000000000000000
  0
LINE
  5
145
100
AcDbEntity
  8
A1
  6
CONTINUOUS
 62
7
100
AcDbLine
 10
88.64728415739403
 20
123.1317919421508
 30
0.000000000000000
 11
88.63975855739405
 21
123.0850267421508
 31
0.000000000000000
  0
LINE
  5
146
100
AcDbEntity
  8
A1
  6
CONTINUOUS
 62
7
100
AcDbLine
 10
88.63975855739409
 20
123.0850267421507
 30
0.000000000000000
 11
88.63437535739408
 21
123.0622117421508
 31
0.000000000000000
  0
LINE
  5
147
100
AcDbEntity
  8
A1
  6
CONTINUOUS
 62
7
100
AcDbLine
 10
88.63437535739402
 20
123.0622117421508
 30
0.000000000000000
 11
88.62225375739402
 21
123.0297075421508
 31
0.000000000000000
  0
LINE
  5
148
100
AcDbEntity
  8
A1
  6
CONTINUOUS
 62
7
100
AcDbLine
 10
88.62225375739406
 20
123.0297075421508
 30
0.000000000000000
 11
88.61223175739408
 21
123.0118029421509
 31
0.000000000000000
  0
LINE
  5
149
100
AcDbEntity
  8
A1
  6
CONTINUOUS
 62
7
100
AcDbLine
 10
88.61223175739404
 20
123.0118029421508
 30
0.000000000000000
 11
88.58917875739405
 21
122.9772645421508
 31
0.000000000000000
  0
LINE
  5
14A
100
AcDbEntity
  8
A1
  6
CONTINUOUS
 62
7
100
AcDbLine
 10
88.58917875739407
 20
122.9772645421507
 30
0.000000000000000
 11
88.56889055739406
 21
122.9439225421508
 31
0.000000000000000
  0
LINE
  5
14B
100
AcDbEntity
  8
A1
  6
CONTINUOUS
 62
7
100
AcDbLine
 10
88.56889055739407
 20
122.9439225421508
 30
0.000000000000000
 11
88.55657995739405
 21
122.9210695421508
 31
0.000000000000000
  0
LINE
  5
14C
100
AcDbEntity
  8
A1
  6
CONTINUOUS
 62
7
100
AcDbLine
 10
88.55657995739404
 20
122.9210695421508
 30
0.000000000000000
 11
88.53396015739406
 21
122.8743563421508
 31
0.000000000000000
  0
LINE
  5
14D
100
AcDbEntity
  8
A1
  6
CONTINUOUS
 62
7
100
AcDbLine
 10
88.53396015739406
 20
122.8743563421508
 30
0.000000000000000
 11
88.51215235739409
 21
122.8250169421508
 31
0.000000000000000
  0
LINE
  5
14E
100
AcDbEntity
  8
A1
  6
CONTINUOUS
 62
7
100
AcDbLine
 10
88.51215235739410
 20
122.8250169421508
 30
0.000000000000000
 11
88.49202915739409
 21
122.7749787421508
 31
0.000000000000000
  0
LINE
  5
14F
100
AcDbEntity
  8
A1
  6
CONTINUOUS
 62
7
100
AcDbLine
 10
88.49202915739401
 20
122.7749787421508
 30
0.000000000000000
 11
88.47526875739405
 21
122.7281633421508
 31
0.000000000000000
  0
LINE
  5
150
100
AcDbEntity
  8
A1
  6
CONTINUOUS
 62
7
100
AcDbLine
 10
88.47526875739408
 20
122.7281633421508
 30
0.000000000000000
 11
88.46077915739406
 21
122.6805589421508
 31
0.000000000000000
  0
LINE
  5
151
100
AcDbEntity
  8
A1
  6
CONTINUOUS
 62
7
100
AcDbLine
 10
88.46077915739404
 20
122.6805589421508
 30
0.000000000000000
 11
88.44431795739405
 21
122.6079499421508
 31
0.000000000000000
  0
LINE
  5
152
100
AcDbEntity
  8
A1
  6
CONTINUOUS
 62
7
100
AcDbLine
 10
88.44431795739403
 20
122.6079499421508
 30
0.000000000000000
 11
88.43407015739403
 21
122.5339525421508
 31
0.000000000000000
  0
ARC
  5
153
100
AcDbEntity
  8
A1
  6
CONTINUOUS
 62
7
100
AcDbCircle
 10
88.83220855739407
 20
122.4954027421508
 30
0.000000000000000
 40
0.4000000381469728
100
AcDbArc
 50
174.4694500000000
 51
238.3191170000000
  0
ARC
  5
154
100
AcDbEntity
  8
A1
  6
CONTINUOUS
 62
7
100
AcDbCircle
 10
86.83649315739407
 20
119.2616533421508
 30
0.000000000000000
 40
3.400000324249268
100
AcDbArc
 50
56.22633099999999
 51
58.31911500000002
  0
ARC
  5
155
100
AcDbEntity
  8
A1
  6
CONTINUOUS
 62
7
100
AcDbCircle
 10
88.94896275739410
 20
122.4203661421508
 30
0.000000000000000
 40
0.4000000381469728
100
AcDbArc
 50
236.2263370000001
 51
300.0759970000000
  0
LINE
  5
156
100
AcDbEntity
  8
A1
  6
CONTINUOUS
 62
7
100
AcDbLine
 10
90.60356475739411
 20
122.8462297421509
 30
0.000000000000000
 11
90.47764315739411
 21
122.8299669421508
 31
0.000000000000000
  0
LINE
  5
157
100
AcDbEntity
  8
A1
  6
CONTINUOUS
 62
7
100
AcDbLine
 10
90.47764315739408
 20
122.8299669421508
 30
0.000000000000000
 11
90.35252715739409
 21
122.8080811421508
 31
0.000000000000000
  0
LINE
  5
158
100
AcDbEntity
  8
A1
  6
CONTINUOUS
 62
7
100
AcDbLine
 10
90.35252715739405
 20
122.8080811421508
 30
0.000000000000000
 11
90.23348415739407
 21
122.7818925421508
 31
0.000000000000000
  0
LINE
  5
159
100
AcDbEntity
  8
A1
  6
CONTINUOUS
 62
7
100
AcDbLine
 10
90.23348415739406
 20
122.7818925421508
 30
0.000000000000000
 11
90.11586335739406
 21
122.7501923421508
 31
0.000000000000000
  0
LINE
  5
15A
100
AcDbEntity
  8
A1
  6
CONTINUOUS
 62
7
100
AcDbLine
 10
90.11586335739402
 20
122.7501923421508
 30
0.000000000000000
 11
90.00491975739406
 21
122.7142107421508
 31
0.000000000000000
  0
LINE
  5
15B
100
AcDbEntity
  8
A1
  6
CONTINUOUS
 62
7
100
AcDbLine
 10
90.00491975739408
 20
122.7142107421508
 30
0.000000000000000
 11
89.89580715739413
 21
122.6725481421508
 31
0.000000000000000
  0
LINE
  5
15C
100
AcDbEntity
  8
A1
  6
CONTINUOUS
 62
7
100
AcDbLine
 10
89.89580715739407
 20
122.6725481421508
 30
0.000000000000000
 11
89.84437275739411
 21
122.6505587421508
 31
0.000000000000000
  0
LINE
  5
15D
100
AcDbEntity
  8
A1
  6
CONTINUOUS
 62
7
100
AcDbLine
 10
89.84437275739413
 20
122.6505587421508
 30
0.000000000000000
 11
89.79365875739411
 21
122.6270097421508
 31
0.000000000000000
  0
LINE
  5
15E
100
AcDbEntity
  8
A1
  6
CONTINUOUS
 62
7
100
AcDbLine
 10
89.79365875739406
 20
122.6270097421508
 30
0.000000000000000
 11
89.74396395739409
 21
122.6016649421508
 31
0.000000000000000
  0
LINE
  5
15F
100
AcDbEntity
  8
A1
  6
CONTINUOUS
 62
7
100
AcDbLine
 10
89.74396395739407
 20
122.6016649421508
 30
0.000000000000000
 11
89.66516755739407
 21
122.5555407421508
 31
0.000000000000000
  0
LINE
  5
160
100
AcDbEntity
  8
A1
  6
CONTINUOUS
 62
7
100
AcDbLine
 10
89.66516755739404
 20
122.5555407421508
 30
0.000000000000000
 11
89.60466955739403
 21
122.5165177421508
 31
0.000000000000000
  0
LINE
  5
161
100
AcDbEntity
  8
A1
  6
CONTINUOUS
 62
7
100
AcDbLine
 10
89.60466955739408
 20
122.5165177421508
 30
0.000000000000000
 11
89.56525295739407
 21
122.4902483421508
 31
0.000000000000000
  0
LINE
  5
162
100
AcDbEntity
  8
A1
  6
CONTINUOUS
 62
7
100
AcDbLine
 10
89.56525295739405
 20
122.4902483421508
 30
0.000000000000000
 11
89.54673495739407
 21
122.4758729421508
 31
0.000000000000000
  0
LINE
  5
163
100
AcDbEntity
  8
A1
  6
CONTINUOUS
 62
7
100
AcDbLine
 10
89.54673495739409
 20
122.4758729421508
 30
0.000000000000000
 11
89.52220495739408
 21
122.4513429421508
 31
0.000000000000000
  0
LINE
  5
164
100
AcDbEntity
  8
A1
  6
CONTINUOUS
 62
7
100
AcDbLine
 10
89.52220495739404
 20
122.4513429421508
 30
0.000000000000000
 11
89.51008335739404
 21
122.4347901421508
 31
0.000000000000000
  0
LINE
  5
165
100
AcDbEntity
  8
A1
  6
CONTINUOUS
 62
7
100
AcDbLine
 10
89.51008335739407
 20
122.4347901421508
 30
0.000000000000000
 11
89.48823875739404
 21
122.3994721421508
 31
0.000000000000000
  0
LINE
  5
166
100
AcDbEntity
  8
A1
  6
CONTINUOUS
 62
7
100
AcDbLine
 10
89.48823875739409
 20
122.3994721421508
 30
0.000000000000000
 11
89.46633935739409
 21
122.3671679421508
 31
0.000000000000000
  0
LINE
  5
167
100
AcDbEntity
  8
A1
  6
CONTINUOUS
 62
7
100
AcDbLine
 10
89.46633935739411
 20
122.3671679421508
 30
0.000000000000000
 11
89.45066555739409
 21
122.3464769421508
 31
0.000000000000000
  0
LINE
  5
168
100
AcDbEntity
  8
A1
  6
CONTINUOUS
 62
7
100
AcDbLine
 10
89.45066555739405
 20
122.3464769421507
 30
0.000000000000000
 11
89.41757235739404
 21
122.3064927421507
 31
0.000000000000000
  0
LINE
  5
169
100
AcDbEntity
  8
A1
  6
CONTINUOUS
 62
7
100
AcDbLine
 10
89.41757235739408
 20
122.3064927421509
 30
0.000000000000000
 11
89.38175075739407
 21
122.2661607421508
 31
0.000000000000000
  0
LINE
  5
16A
100
AcDbEntity
  8
A1
  6
CONTINUOUS
 62
7
100
AcDbLine
 10
89.38175075739406
 20
122.2661607421508
 30
0.000000000000000
 11
89.34459255739407
 21
122.2270677421508
 31
0.000000000000000
  0
LINE
  5
16B
100
AcDbEntity
  8
A1
  6
CONTINUOUS
 62
7
100
AcDbLine
 10
89.34459255739407
 20
122.2270677421508
 30
0.000000000000000
 11
89.30896635739410
 21
122.1923753421508
 31
0.000000000000000
  0
LINE
  5
16C
100
AcDbEntity
  8
A1
  6
CONTINUOUS
 62
7
100
AcDbLine
 10
89.30896635739410
 20
122.1923753421508
 30
0.000000000000000
 11
89.27168615739410
 21
122.1594209421508
 31
0.000000000000000
  0
LINE
  5
16D
100
AcDbEntity
  8
A1
  6
CONTINUOUS
 62
7
100
AcDbLine
 10
89.27168615739406
 20
122.1594209421508
 30
0.000000000000000
 11
89.21247575739403
 21
122.1142869421508
 31
0.000000000000000
  0
LINE
  5
16E
100
AcDbEntity
  8
A1
  6
CONTINUOUS
 62
7
100
AcDbLine
 10
89.21247575739412
 20
122.1142869421508
 30
0.000000000000000
 11
89.14942655739409
 21
122.0742205421508
 31
0.000000000000000
  0
ARC
  5
16F
100
AcDbEntity
  8
A1
  6
CONTINUOUS
 62
7
100
AcDbCircle
 10
86.83649315739407
 20
119.2616533421508
 30
0.000000000000000
 40
5.200000495910646
100
AcDbArc
 50
38.24016199999999
 51
43.57802300000004
  0
LINE
  5
170
100
AcDbEntity
  8
A1
  6
CONTINUOUS
 62
7
100
AcDbLine
 10
90.92069115739406
 20
122.4802415421508
 30
0.000000000000000
 11
90.88667635739409
 21
122.3579149421509
 31
0.000000000000000
  0
LINE
  5
171
100
AcDbEntity
  8
A1
  6
CONTINUOUS
 62
7
100
AcDbLine
 10
90.88667635739411
 20
122.3579149421508
 30
0.000000000000000
 11
90.84720495739410
 21
122.2371873421508
 31
0.000000000000000
  0
LINE
  5
172
100
AcDbEntity
  8
A1
  6
CONTINUOUS
 62
7
100
AcDbLine
 10
90.84720495739406
 20
122.2371873421508
 30
0.000000000000000
 11
90.80433995739406
 21
122.1230837421508
 31
0.000000000000000
  0
LINE
  5
173
100
AcDbEntity
  8
A1
  6
CONTINUOUS
 62
7
100
AcDbLine
 10
90.80433995739408
 20
122.1230837421508
 30
0.000000000000000
 11
90.75622575739408
 21
122.0111711421508
 31
0.000000000000000
  0
LINE
  5
174
100
AcDbEntity
  8
A1
  6
CONTINUOUS
 62
7
100
AcDbLine
 10
90.75622575739406
 20
122.0111711421508
 30
0.000000000000000
 11
90.70482195739403
 21
121.9064821421508
 31
0.000000000000000
  0
LINE
  5
175
100
AcDbEntity
  8
A1
  6
CONTINUOUS
 62
7
100
AcDbLine
 10
90.70482195739409
 20
121.9064821421508
 30
0.000000000000000
 11
90.64805315739407
 21
121.8044039421508
 31
0.000000000000000
  0
LINE
  5
176
100
AcDbEntity
  8
A1
  6
CONTINUOUS
 62
7
100
AcDbLine
 10
90.64805315739409
 20
121.8044039421508
 30
0.000000000000000
 11
90.61896995739409
 21
121.7566225421508
 31
0.000000000000000
  0
LINE
  5
177
100
AcDbEntity
  8
A1
  6
CONTINUOUS
 62
7
100
AcDbLine
 10
90.61896995739413
 20
121.7566225421508
 30
0.000000000000000
 11
90.58844635739409
 21
121.7097795421508
 31
0.000000000000000
  0
LINE
  5
178
100
AcDbEntity
  8
A1
  6
CONTINUOUS
 62
7
100
AcDbLine
 10
90.58844635739403
 20
121.7097795421508
 30
0.000000000000000
 11
90.55628695739405
 21
121.6641985421508
 31
0.000000000000000
  0
LINE
  5
179
100
AcDbEntity
  8
A1
  6
CONTINUOUS
 62
7
100
AcDbLine
 10
90.55628695739405
 20
121.6641985421508
 30
0.000000000000000
 11
90.49941435739406
 21
121.5927645421508
 31
0.000000000000000
  0
LINE
  5
17A
100
AcDbEntity
  8
A1
  6
CONTINUOUS
 62
7
100
AcDbLine
 10
90.49941435739409
 20
121.5927645421508
 30
0.000000000000000
 11
90.45217915739407
 21
121.5384355421508
 31
0.000000000000000
  0
LINE
  5
17B
100
AcDbEntity
  8
A1
  6
CONTINUOUS
 62
7
100
AcDbLine
 10
90.45217915739407
 20
121.5384355421508
 30
0.000000000000000
 11
90.42056915739410
 21
121.5031603421508
 31
0.000000000000000
  0
LINE
  5
17C
100
AcDbEntity
  8
A1
  6
CONTINUOUS
 62
7
100
AcDbLine
 10
90.42056915739407
 20
121.5031603421508
 30
0.000000000000000
 11
90.40370515739409
 21
121.4868775421508
 31
0.000000000000000
  0
LINE
  5
17D
100
AcDbEntity
  8
A1
  6
CONTINUOUS
 62
7
100
AcDbLine
 10
90.40370515739409
 20
121.4868775421508
 30
0.000000000000000
 11
90.37593415739410
 21
121.4660875421508
 31
0.000000000000000
  0
LINE
  5
17E
100
AcDbEntity
  8
A1
  6
CONTINUOUS
 62
7
100
AcDbLine
 10
90.37593415739408
 20
121.4660875421508
 30
0.000000000000000
 11
90.35782495739403
 21
121.4564439421508
 31
0.000000000000000
  0
LINE
  5
17F
100
AcDbEntity
  8
A1
  6
CONTINUOUS
 62
7
100
AcDbLine
 10
90.35782495739406
 20
121.4564439421508
 30
0.000000000000000
 11
90.31975735739402
 21
121.4398499421508
 31
0.000000000000000
  0
LINE
  5
180
100
AcDbEntity
  8
A1
  6
CONTINUOUS
 62
7
100
AcDbLine
 10
90.31975735739402
 20
121.4398499421508
 30
0.000000000000000
 11
90.28466215739402
 21
121.4227709421508
 31
0.000000000000000
  0
LINE
  5
181
100
AcDbEntity
  8
A1
  6
CONTINUOUS
 62
7
100
AcDbLine
 10
90.28466215739411
 20
121.4227709421508
 30
0.000000000000000
 11
90.26195095739408
 21
121.4102007421508
 31
0.000000000000000
  0
LINE
  5
182
100
AcDbEntity
  8
A1
  6
CONTINUOUS
 62
7
100
AcDbLine
 10
90.26195095739411
 20
121.4102007421509
 30
0.000000000000000
 11
90.21766375739409
 21
121.3831331421509
 31
0.000000000000000
  0
LINE
  5
183
100
AcDbEntity
  8
A1
  6
CONTINUOUS
 62
7
100
AcDbLine
 10
90.21766375739405
 20
121.3831331421508
 30
0.000000000000000
 11
90.17264435739405
 21
121.3534165421508
 31
0.000000000000000
  0
LINE
  5
184
100
AcDbEntity
  8
A1
  6
CONTINUOUS
 62
7
100
AcDbLine
 10
90.17264435739403
 20
121.3534165421508
 30
0.000000000000000
 11
90.12866235739403
 21
121.3222017421508
 31
0.000000000000000
  0
LINE
  5
185
100
AcDbEntity
  8
A1
  6
CONTINUOUS
 62
7
100
AcDbLine
 10
90.12866235739406
 20
121.3222017421508
 30
0.000000000000000
 11
90.08925195739411
 21
121.2918779421508
 31
0.000000000000000
  0
LINE
  5
186
100
AcDbEntity
  8
A1
  6
CONTINUOUS
 62
7
100
AcDbLine
 10
90.08925195739411
 20
121.2918779421508
 30
0.000000000000000
 11
90.05133075739413
 21
121.2596651421509
 31
0.000000000000000
  0
LINE
  5
187
100
AcDbEntity
  8
A1
  6
CONTINUOUS
 62
7
100
AcDbLine
 10
90.05133075739401
 20
121.2596651421508
 30
0.000000000000000
 11
89.99823015739402
 21
121.2074799421508
 31
0.000000000000000
  0
LINE
  5
188
100
AcDbEntity
  8
A1
  6
CONTINUOUS
 62
7
100
AcDbLine
 10
89.99823015739408
 20
121.2074799421508
 30
0.000000000000000
 11
89.94959735739408
 21
121.1507723421508
 31
0.000000000000000
  0
ARC
  5
189
100
AcDbEntity
  8
A1
  6
CONTINUOUS
 62
7
100
AcDbCircle
 10
90.26369035739408
 20
120.9030915421508
 30
0.000000000000000
 40
0.4000000381469728
100
AcDbArc
 50
141.7421750000000
 51
205.5918420000000
  0
ARC
  5
18A
100
AcDbEntity
  8
A1
  6
CONTINUOUS
 62
7
100
AcDbCircle
 10
86.83649315739407
 20
119.2616533421508
 30
0.000000000000000
 40
3.400000324249268
100
AcDbArc
 50
23.49906300000005
 51
25.59183999999998
  0
ARC
  5
18B
100
AcDbEntity
  8
A1
  6
CONTINUOUS
 62
7
100
AcDbCircle
 10
90.32134435739407
 20
120.7768435421508
 30
0.000000000000000
 40
0.4000000381469728
100
AcDbArc
 50
203.4990650000000
 51
267.3487279999999
  0
LINE
  5
18C
100
AcDbEntity
  8
A1
  6
CONTINUOUS
 62
7
100
AcDbLine
 10
91.94352435739404
 20
120.2405595421508
 30
0.000000000000000
 11
91.82879655739404
 21
120.2949571421508
 31
0.000000000000000
  0
LINE
  5
18D
100
AcDbEntity
  8
A1
  6
CONTINUOUS
 62
7
100
AcDbLine
 10
91.82879655739410
 20
120.2949571421508
 30
0.000000000000000
 11
91.71171295739408
 21
120.3441881421508
 31
0.000000000000000
  0
LINE
  5
18E
100
AcDbEntity
  8
A1
  6
CONTINUOUS
 62
7
100
AcDbLine
 10
91.71171295739404
 20
120.3441881421508
 30
0.000000000000000
 11
91.59740635739408
 21
120.3865159421508
 31
0.000000000000000
  0
LINE
  5
18F
100
AcDbEntity
  8
A1
  6
CONTINUOUS
 62
7
100
AcDbLine
 10
91.59740635739408
 20
120.3865159421508
 30
0.000000000000000
 11
91.48131735739406
 21
120.4234391421508
 31
0.000000000000000
  0
LINE
  5
190
100
AcDbEntity
  8
A1
  6
CONTINUOUS
 62
7
100
AcDbLine
 10
91.48131735739409
 20
120.4234391421508
 30
0.000000000000000
 11
91.36853655739411
 21
120.4531481421508
 31
0.000000000000000
  0
LINE
  5
191
100
AcDbEntity
  8
A1
  6
CONTINUOUS
 62
7
100
AcDbLine
 10
91.36853655739407
 20
120.4531481421508
 30
0.000000000000000
 11
91.25421775739407
 21
120.4770921421508
 31
0.000000000000000
  0
LINE
  5
192
100
AcDbEntity
  8
A1
  6
CONTINUOUS
 62
7
100
AcDbLine
 10
91.25421775739410
 20
120.4770921421508
 30
0.000000000000000
 11
91.19906035739407
 21
120.4864015421508
 31
0.000000000000000
  0
LINE
  5
193
100
AcDbEntity
  8
A1
  6
CONTINUOUS
 62
7
100
AcDbLine
 10
91.19906035739405
 20
120.4864015421508
 30
0.000000000000000
 11
91.14367095739408
 21
120.4940065421508
 31
0.000000000000000
  0
LINE
  5
194
100
AcDbEntity
  8
A1
  6
CONTINUOUS
 62
7
100
AcDbLine
 10
91.14367095739404
 20
120.4940065421508
 30
0.000000000000000
 11
91.08815935739402
 21
120.4995515421508
 31
0.000000000000000
  0
LINE
  5
195
100
AcDbEntity
  8
A1
  6
CONTINUOUS
 62
7
100
AcDbLine
 10
91.08815935739406
 20
120.4995515421508
 30
0.000000000000000
 11
90.99693015739410
 21
120.5033509421508
 31
0.000000000000000
  0
LINE
  5
196
100
AcDbEntity
  8
A1
  6
CONTINUOUS
 62
7
100
AcDbLine
 10
90.99693015739403
 20
120.5033509421508
 30
0.000000000000000
 11
90.92494535739402
 21
120.5032319421508
 31
0.000000000000000
  0
LINE
  5
197
100
AcDbEntity
  8
A1
  6
CONTINUOUS
 62
7
100
AcDbLine
 10
90.92494535739408
 20
120.5032319421508
 30
0.000000000000000
 11
90.87758195739407
 21
120.5024415421508
 31
0.000000000000000
  0
LINE
  5
198
100
AcDbEntity
  8
A1
  6
CONTINUOUS
 62
7
100
AcDbLine
 10
90.87758195739407
 20
120.5024415421508
 30
0.000000000000000
 11
90.85422995739404
 21
120.5003587421508
 31
0.000000000000000
  0
LINE
  5
199
100
AcDbEntity
  8
A1
  6
CONTINUOUS
 62
7
100
AcDbLine
 10
90.85422995739410
 20
120.5003587421509
 30
0.000000000000000
 11
90.82033115739407
 21
120.4929857421508
 31
0.000000000000000
  0
LINE
  5
19A
100
AcDbEntity
  8
A1
  6
CONTINUOUS
 62
7
100
AcDbLine
 10
90.82033115739415
 20
120.4929857421508
 30
0.000000000000000
 11
90.80118435739416
 21
120.4856157421509
 31
0.000000000000000
  0
LINE
  5
19B
100
AcDbEntity
  8
A1
  6
CONTINUOUS
 62
7
100
AcDbLine
 10
90.80118435739408
 20
120.4856157421509
 30
0.000000000000000
 11
90.76371495739403
 21
120.4677125421508
 31
0.000000000000000
  0
LINE
  5
19C
100
AcDbEntity
  8
A1
  6
CONTINUOUS
 62
7
100
AcDbLine
 10
90.76371495739401
 20
120.4677125421509
 30
0.000000000000000
 11
90.72782615739409
 21
120.4523759421509
 31
0.000000000000000
  0
LINE
  5
19D
100
AcDbEntity
  8
A1
  6
CONTINUOUS
 62
7
100
AcDbLine
 10
90.72782615739408
 20
120.4523759421508
 30
0.000000000000000
 11
90.70345495739409
 21
120.4434449421508
 31
0.000000000000000
  0
LINE
  5
19E
100
AcDbEntity
  8
A1
  6
CONTINUOUS
 62
7
100
AcDbLine
 10
90.70345495739403
 20
120.4434449421508
 30
0.000000000000000
 11
90.65399815739403
 21
120.4276995421508
 31
0.000000000000000
  0
LINE
  5
19F
100
AcDbEntity
  8
A1
  6
CONTINUOUS
 62
7
100
AcDbLine
 10
90.65399815739410
 20
120.4276995421508
 30
0.000000000000000
 11
90.60205715739414
 21
120.4131365421508
 31
0.000000000000000
  0
LINE
  5
1A0
100
AcDbEntity
  8
A1
  6
CONTINUOUS
 62
7
100
AcDbLine
 10
90.60205715739414
 20
120.4131365421508
 30
0.000000000000000
 11
90.54966455739414
 21
120.4003373421508
 31
0.000000000000000
  0
LINE
  5
1A1
100
AcDbEntity
  8
A1
  6
CONTINUOUS
 62
7
100
AcDbLine
 10
90.54966455739407
 20
120.4003373421508
 30
0.000000000000000
 11
90.50094015739404
 21
120.3904115421508
 31
0.000000000000000
  0
LINE
  5
1A2
100
AcDbEntity
  8
A1
  6
CONTINUOUS
 62
7
100
AcDbLine
 10
90.50094015739401
 20
120.3904115421508
 30
0.000000000000000
 11
90.45175815739405
 21
120.3828463421508
 31
0.000000000000000
  0
LINE
  5
1A3
100
AcDbEntity
  8
A1
  6
CONTINUOUS
 62
7
100
AcDbLine
 10
90.45175815739405
 20
120.3828463421507
 30
0.000000000000000
 11
90.37754535739403
 21
120.3768877421508
 31
0.000000000000000
  0
LINE
  5
1A4
100
AcDbEntity
  8
A1
  6
CONTINUOUS
 62
7
100
AcDbLine
 10
90.37754535739403
 20
120.3768877421508
 30
0.000000000000000
 11
90.30284455739405
 21
120.3772707421508
 31
0.000000000000000
  0
ARC
  5
1A5
100
AcDbEntity
  8
A1
  6
CONTINUOUS
 62
7
100
AcDbCircle
 10
86.83649315739407
 20
119.2616533421508
 30
0.000000000000000
 40
5.200000495910646
100
AcDbArc
 50
5.512894000000006
 51
10.85074200000002
  0
LINE
  5
1A6
100
AcDbEntity
  8
A1
  6
CONTINUOUS
 62
7
100
AcDbLine
 10
92.01243915739407
 20
119.7612153421508
 30
0.000000000000000
 11
91.91768835739408
 21
119.6766999421508
 31
0.000000000000000
  0
LINE
  5
1A7
100
AcDbEntity
  8
A1
  6
CONTINUOUS
 62
7
100
AcDbLine
 10
91.91768835739407
 20
119.6766999421508
 30
0.000000000000000
 11
91.81921415739407
 21
119.5964769421508
 31
0.000000000000000
  0
LINE
  5
1A8
100
AcDbEntity
  8
A1
  6
CONTINUOUS
 62
7
100
AcDbLine
 10
91.81921415739407
 20
119.5964769421508
 30
0.000000000000000
 11
91.72146635739406
 21
119.5236605421508
 31
0.000000000000000
  0
LINE
  5
1A9
100
AcDbEntity
  8
A1
  6
CONTINUOUS
 62
7
100
AcDbLine
 10
91.72146635739411
 20
119.5236605421508
 30
0.000000000000000
 11
91.62048375739410
 21
119.4555269421508
 31
0.000000000000000
  0
LINE
  5
1AA
100
AcDbEntity
  8
A1
  6
CONTINUOUS
 62
7
100
AcDbLine
 10
91.62048375739411
 20
119.4555269421509
 30
0.000000000000000
 11
91.52064235739408
 21
119.3952471421509
 31
0.000000000000000
  0
LINE
  5
1AB
100
AcDbEntity
  8
A1
  6
CONTINUOUS
 62
7
100
AcDbLine
 10
91.52064235739408
 20
119.3952471421508
 30
0.000000000000000
 11
91.41769435739408
 21
119.3400651421508
 31
0.000000000000000
  0
LINE
  5
1AC
100
AcDbEntity
  8
A1
  6
CONTINUOUS
 62
7
100
AcDbLine
 10
91.41769435739408
 20
119.3400651421508
 30
0.000000000000000
 11
91.36739535739407
 21
119.3155931421508
 31
0.000000000000000
  0
LINE
  5
1AD
100
AcDbEntity
  8
A1
  6
CONTINUOUS
 62
7
100
AcDbLine
 10
91.36739535739412
 20
119.3155931421508
 30
0.000000000000000
 11
91.31639435739409
 21
119.2926911421508
 31
0.000000000000000
  0
LINE
  5
1AE
100
AcDbEntity
  8
A1
  6
CONTINUOUS
 62
7
100
AcDbLine
 10
91.31639435739407
 20
119.2926911421508
 30
0.000000000000000
 11
91.26469755739404
 21
119.2717317421508
 31
0.000000000000000
  0
LINE
  5
1AF
100
AcDbEntity
  8
A1
  6
CONTINUOUS
 62
7
100
AcDbLine
 10
91.26469755739409
 20
119.2717317421508
 30
0.000000000000000
 11
91.17823515739407
 21
119.2423845421508
 31
0.000000000000000
  0
LINE
  5
1B0
100
AcDbEntity
  8
A1
  6
CONTINUOUS
 62
7
100
AcDbLine
 10
91.17823515739410
 20
119.2423845421508
 30
0.000000000000000
 11
91.10912495739407
 21
119.2222169421508
 31
0.000000000000000
  0
LINE
  5
1B1
100
AcDbEntity
  8
A1
  6
CONTINUOUS
 62
7
100
AcDbLine
 10
91.10912495739406
 20
119.2222169421508
 30
0.000000000000000
 11
91.06345855739407
 21
119.2096315421508
 31
0.000000000000000
  0
LINE
  5
1B2
100
AcDbEntity
  8
A1
  6
CONTINUOUS
 62
7
100
AcDbLine
 10
91.06345855739404
 20
119.2096315421508
 30
0.000000000000000
 11
91.04047275739401
 21
119.2050507421508
 31
0.000000000000000
  0
LINE
  5
1B3
100
AcDbEntity
  8
A1
  6
CONTINUOUS
 62
7
100
AcDbLine
 10
91.04047275739410
 20
119.2050507421508
 30
0.000000000000000
 11
91.00586575739409
 21
119.2025759421508
 31
0.000000000000000
  0
LINE
  5
1B4
100
AcDbEntity
  8
A1
  6
CONTINUOUS
 62
7
100
AcDbLine
 10
91.00586575739405
 20
119.2025759421508
 30
0.000000000000000
 11
90.98541895739405
 21
119.2042527421508
 31
0.000000000000000
  0
LINE
  5
1B5
100
AcDbEntity
  8
A1
  6
CONTINUOUS
 62
7
100
AcDbLine
 10
90.98541895739403
 20
119.2042527421508
 30
0.000000000000000
 11
90.94442155739405
 21
119.2108751421508
 31
0.000000000000000
  0
LINE
  5
1B6
100
AcDbEntity
  8
A1
  6
CONTINUOUS
 62
7
100
AcDbLine
 10
90.94442155739408
 20
119.2108751421508
 30
0.000000000000000
 11
90.90567035739410
 21
119.2154787421508
 31
0.000000000000000
  0
LINE
  5
1B7
100
AcDbEntity
  8
A1
  6
CONTINUOUS
 62
7
100
AcDbLine
 10
90.90567035739413
 20
119.2154787421509
 30
0.000000000000000
 11
90.87976715739410
 21
119.2171831421508
 31
0.000000000000000
  0
LINE
  5
1B8
100
AcDbEntity
  8
A1
  6
CONTINUOUS
 62
7
100
AcDbLine
 10
90.87976715739406
 20
119.2171831421508
 30
0.000000000000000
 11
90.82787495739409
 21
119.2183565421508
 31
0.000000000000000
  0
LINE
  5
1B9
100
AcDbEntity
  8
A1
  6
CONTINUOUS
 62
7
100
AcDbLine
 10
90.82787495739409
 20
119.2183565421508
 30
0.000000000000000
 11
90.77393835739410
 21
119.2176957421509
 31
0.000000000000000
  0
LINE
  5
1BA
100
AcDbEntity
  8
A1
  6
CONTINUOUS
 62
7
100
AcDbLine
 10
90.77393835739404
 20
119.2176957421508
 30
0.000000000000000
 11
90.72006255739406
 21
119.2152147421508
 31
0.000000000000000
  0
LINE
  5
1BB
100
AcDbEntity
  8
A1
  6
CONTINUOUS
 62
7
100
AcDbLine
 10
90.72006255739409
 20
119.2152147421508
 30
0.000000000000000
 11
90.67051415739411
 21
119.2110109421508
 31
0.000000000000000
  0
LINE
  5
1BC
100
AcDbEntity
  8
A1
  6
CONTINUOUS
 62
7
100
AcDbLine
 10
90.67051415739407
 20
119.2110109421508
 30
0.000000000000000
 11
90.62119175739406
 21
119.2044161421508
 31
0.000000000000000
  0
LINE
  5
1BD
100
AcDbEntity
  8
A1
  6
CONTINUOUS
 62
7
100
AcDbLine
 10
90.62119175739404
 20
119.2044161421508
 30
0.000000000000000
 11
90.54830955739403
 21
119.1892229421508
 31
0.000000000000000
  0
LINE
  5
1BE
100
AcDbEntity
  8
A1
  6
CONTINUOUS
 62
7
100
AcDbLine
 10
90.54830955739411
 20
119.1892229421508
 30
0.000000000000000
 11
90.47673975739409
 21
119.1678101421508
 31
0.000000000000000
  0
ARC
  5
1BF
100
AcDbEntity
  8
A1
  6
CONTINUOUS
 62
7
100
AcDbCircle
 10
90.60706195739407
 20
118.7896363421508
 30
0.000000000000000
 40
0.4000000381469728
100
AcDbArc
 50
109.0149140000000
 51
172.8645740000000
  0
ARC
  5
1C0
100
AcDbEntity
  8
A1
  6
CONTINUOUS
 62
7
100
AcDbCircle
 10
86.83649315739407
 20
119.2616533421508
 30
0.000000000000000
 40
3.400000324249268
100
AcDbArc
 50
350.7717890000001
 51
352.8645720000000
  0
ARC
  5
1C1
100
AcDbEntity
  8
A1
  6
CONTINUOUS
 62
7
100
AcDbCircle
 10
90.58731115739407
 20
118.6522585421508
 30
0.000000000000000
 40
0.4000000381469728
100
AcDbArc
 50
170.7717900000000
 51
234.6214540000000
  0
LINE
  5
1C2
100
AcDbEntity
  8
A1
  6
CONTINUOUS
 62
7
100
AcDbLine
 10
91.66203635739409
 20
117.3240923421508
 30
0.000000000000000
 11
91.59493435739410
 21
117.4318803421508
 31
0.000000000000000
  0
LINE
  5
1C3
100
AcDbEntity
  8
A1
  6
CONTINUOUS
 62
7
100
AcDbLine
 10
91.59493435739402
 20
117.4318803421508
 30
0.000000000000000
 11
91.52304715739402
 21
117.5365983421508
 31
0.000000000000000
  0
LINE
  5
1C4
100
AcDbEntity
  8
A1
  6
CONTINUOUS
 62
7
100
AcDbLine
 10
91.52304715739403
 20
117.5365983421508
 30
0.000000000000000
 11
91.44977435739405
 21
117.6340043421508
 31
0.000000000000000
  0
LINE
  5
1C5
100
AcDbEntity
  8
A1
  6
CONTINUOUS
 62
7
100
AcDbLine
 10
91.44977435739405
 20
117.6340043421508
 30
0.000000000000000
 11
91.37207675739404
 21
117.7278275421508
 31
0.000000000000000
  0
LINE
  5
1C6
100
AcDbEntity
  8
A1
  6
CONTINUOUS
 62
7
100
AcDbLine
 10
91.37207675739404
 20
117.7278275421508
 30
0.000000000000000
 11
91.29326195739407
 21
117.8137925421508
 31
0.000000000000000
  0
LINE
  5
1C7
100
AcDbEntity
  8
A1
  6
CONTINUOUS
 62
7
100
AcDbLine
 10
91.29326195739405
 20
117.8137925421508
 30
0.000000000000000
 11
91.21003435739404
 21
117.8957415421508
 31
0.000000000000000
  0
LINE
  5
1C8
100
AcDbEntity
  8
A1
  6
CONTINUOUS
 62
7
100
AcDbLine
 10
91.21003435739404
 20
117.8957415421508
 30
0.000000000000000
 11
91.16866475739407
 21
117.9333939421508
 31
0.000000000000000
  0
LINE
  5
1C9
100
AcDbEntity
  8
A1
  6
CONTINUOUS
 62
7
100
AcDbLine
 10
91.16866475739411
 20
117.9333939421508
 30
0.000000000000000
 11
91.12617815739411
 21
117.9697405421508
 31
0.000000000000000
  0
LINE
  5
1CA
100
AcDbEntity
  8
A1
  6
CONTINUOUS
 62
7
100
AcDbLine
 10
91.12617815739408
 20
117.9697405421508
 30
0.000000000000000
 11
91.08248315739407
 21
118.0044145421508
 31
0.000000000000000
  0
LINE
  5
1CB
100
AcDbEntity
  8
A1
  6
CONTINUOUS
 62
7
100
AcDbLine
 10
91.08248315739402
 20
118.0044145421508
 30
0.000000000000000
 11
91.00778835739406
 21
118.0569323421508
 31
0.000000000000000
  0
LINE
  5
1CC
100
AcDbEntity
  8
A1
  6
CONTINUOUS
 62
7
100
AcDbLine
 10
91.00778835739408
 20
118.0569323421508
 30
0.000000000000000
 11
90.94716215739409
 21
118.0957537421508
 31
0.000000000000000
  0
LINE
  5
1CD
100
AcDbEntity
  8
A1
  6
CONTINUOUS
 62
7
100
AcDbLine
 10
90.94716215739403
 20
118.0957537421508
 30
0.000000000000000
 11
90.90689115739404
 21
118.1206941421508
 31
0.000000000000000
  0
LINE
  5
1CE
100
AcDbEntity
  8
A1
  6
CONTINUOUS
 62
7
100
AcDbLine
 10
90.90689115739409
 20
118.1206941421508
 30
0.000000000000000
 11
90.88612695739411
 21
118.1315659421508
 31
0.000000000000000
  0
LINE
  5
1CF
100
AcDbEntity
  8
A1
  6
CONTINUOUS
 62
7
100
AcDbLine
 10
90.88612695739408
 20
118.1315659421508
 30
0.000000000000000
 11
90.85361955739407
 21
118.1436891421508
 31
0.000000000000000
  0
LINE
  5
1D0
100
AcDbEntity
  8
A1
  6
CONTINUOUS
 62
7
100
AcDbLine
 10
90.85361955739408
 20
118.1436891421507
 30
0.000000000000000
 11
90.83352695739407
 21
118.1478411421507
 31
0.000000000000000
  0
LINE
  5
1D1
100
AcDbEntity
  8
A1
  6
CONTINUOUS
 62
7
100
AcDbLine
 10
90.83352695739407
 20
118.1478411421508
 30
0.000000000000000
 11
90.79232815739408
 21
118.1530367421508
 31
0.000000000000000
  0
LINE
  5
1D2
100
AcDbEntity
  8
A1
  6
CONTINUOUS
 62
7
100
AcDbLine
 10
90.79232815739402
 20
118.1530367421508
 30
0.000000000000000
 11
90.75384555739404
 21
118.1595385421508
 31
0.000000000000000
  0
LINE
  5
1D3
100
AcDbEntity
  8
A1
  6
CONTINUOUS
 62
7
100
AcDbLine
 10
90.75384555739407
 20
118.1595385421508
 30
0.000000000000000
 11
90.72851595739408
 21
118.1652009421508
 31
0.000000000000000
  0
LINE
  5
1D4
100
AcDbEntity
  8
A1
  6
CONTINUOUS
 62
7
100
AcDbLine
 10
90.72851595739411
 20
118.1652009421508
 30
0.000000000000000
 11
90.67839375739409
 21
118.1786943421508
 31
0.000000000000000
  0
LINE
  5
1D5
100
AcDbEntity
  8
A1
  6
CONTINUOUS
 62
7
100
AcDbLine
 10
90.67839375739406
 20
118.1786943421507
 30
0.000000000000000
 11
90.62682515739402
 21
118.1945253421508
 31
0.000000000000000
  0
LINE
  5
1D6
100
AcDbEntity
  8
A1
  6
CONTINUOUS
 62
7
100
AcDbLine
 10
90.62682515739408
 20
118.1945253421508
 30
0.000000000000000
 11
90.57583035739407
 21
118.2120835421508
 31
0.000000000000000
  0
LINE
  5
1D7
100
AcDbEntity
  8
A1
  6
CONTINUOUS
 62
7
100
AcDbLine
 10
90.57583035739408
 20
118.2120835421508
 30
0.000000000000000
 11
90.52947415739408
 21
118.2300753421508
 31
0.000000000000000
  0
LINE
  5
1D8
100
AcDbEntity
  8
A1
  6
CONTINUOUS
 62
7
100
AcDbLine
 10
90.52947415739405
 20
118.2300753421508
 30
0.000000000000000
 11
90.48401515739403
 21
118.2502993421508
 31
0.000000000000000
  0
LINE
  5
1D9
100
AcDbEntity
  8
A1
  6
CONTINUOUS
 62
7
100
AcDbLine
 10
90.48401515739407
 20
118.2502993421508
 30
0.000000000000000
 11
90.41835955739407
 21
118.2854097421508
 31
0.000000000000000
  0
LINE
  5
1DA
100
AcDbEntity
  8
A1
  6
CONTINUOUS
 62
7
100
AcDbLine
 10
90.41835955739407
 20
118.2854097421508
 30
0.000000000000000
 11
90.35571935739405
 21
118.3261201421508
 31
0.000000000000000
  0
ARC
  5
1DB
100
AcDbEntity
  8
A1
  6
CONTINUOUS
 62
7
100
AcDbCircle
 10
86.83649315739407
 20
119.2616533421508
 30
0.000000000000000
 40
5.200000495910646
100
AcDbArc
 50
332.7856189999999
 51
338.1234730000000
  0
LINE
  5
1DC
100
AcDbEntity
  8
A1
  6
CONTINUOUS
 62
7
100
AcDbLine
 10
91.46086455739406
 20
116.8835833421508
 30
0.000000000000000
 11
91.33545555739404
 21
116.8637133421508
 31
0.000000000000000
  0
LINE
  5
1DD
100
AcDbEntity
  8
A1
  6
CONTINUOUS
 62
7
100
AcDbLine
 10
91.33545555739403
 20
116.8637133421508
 30
0.000000000000000
 11
91.20924715739405
 21
116.8494615421508
 31
0.000000000000000
  0
LINE
  5
1DE
100
AcDbEntity
  8
A1
  6
CONTINUOUS
 62
7
100
AcDbLine
 10
91.20924715739406
 20
116.8494615421508
 30
0.000000000000000
 11
91.08764675739408
 21
116.8410509421508
 31
0.000000000000000
  0
LINE
  5
1DF
100
AcDbEntity
  8
A1
  6
CONTINUOUS
 62
7
100
AcDbLine
 10
91.08764675739407
 20
116.8410509421508
 30
0.000000000000000
 11
90.96585715739405
 21
116.8383287421508
 31
0.000000000000000
  0
LINE
  5
1E0
100
AcDbEntity
  8
A1
  6
CONTINUOUS
 62
7
100
AcDbLine
 10
90.96585715739410
 20
116.8383287421508
 30
0.000000000000000
 11
90.84927395739409
 21
116.8415971421508
 31
0.000000000000000
  0
LINE
  5
1E1
100
AcDbEntity
  8
A1
  6
CONTINUOUS
 62
7
100
AcDbLine
 10
90.84927395739408
 20
116.8415971421508
 30
0.000000000000000
 11
90.73284335739410
 21
116.8508317421508
 31
0.000000000000000
  0
LINE
  5
1E2
100
AcDbEntity
  8
A1
  6
CONTINUOUS
 62
7
100
AcDbLine
 10
90.73284335739407
 20
116.8508317421508
 30
0.000000000000000
 11
90.67729515739406
 21
116.8574387421508
 31
0.000000000000000
  0
LINE
  5
1E3
100
AcDbEntity
  8
A1
  6
CONTINUOUS
 62
7
100
AcDbLine
 10
90.67729515739407
 20
116.8574387421508
 30
0.000000000000000
 11
90.62200335739411
 21
116.8657487421508
 31
0.000000000000000
  0
LINE
  5
1E4
100
AcDbEntity
  8
A1
  6
CONTINUOUS
 62
7
100
AcDbLine
 10
90.62200335739415
 20
116.8657487421508
 30
0.000000000000000
 11
90.56718175739411
 21
116.8760637421508
 31
0.000000000000000
  0
LINE
  5
1E5
100
AcDbEntity
  8
A1
  6
CONTINUOUS
 62
7
100
AcDbLine
 10
90.56718175739405
 20
116.8760637421508
 30
0.000000000000000
 11
90.47857695739410
 21
116.8981217421508
 31
0.000000000000000
  0
LINE
  5
1E6
100
AcDbEntity
  8
A1
  6
CONTINUOUS
 62
7
100
AcDbLine
 10
90.47857695739410
 20
116.8981217421508
 30
0.000000000000000
 11
90.40954015739412
 21
116.9185197421508
 31
0.000000000000000
  0
LINE
  5
1E7
100
AcDbEntity
  8
A1
  6
CONTINUOUS
 62
7
100
AcDbLine
 10
90.40954015739408
 20
116.9185197421508
 30
0.000000000000000
 11
90.36431915739402
 21
116.9326189421508
 31
0.000000000000000
  0
LINE
  5
1E8
100
AcDbEntity
  8
A1
  6
CONTINUOUS
 62
7
100
AcDbLine
 10
90.36431915739405
 20
116.9326189421508
 30
0.000000000000000
 11
90.34249895739404
 21
116.9411943421508
 31
0.000000000000000
  0
LINE
  5
1E9
100
AcDbEntity
  8
A1
  6
CONTINUOUS
 62
7
100
AcDbLine
 10
90.34249895739404
 20
116.9411943421508
 30
0.000000000000000
 11
90.31205475739404
 21
116.9578203421508
 31
0.000000000000000
  0
LINE
  5
1EA
100
AcDbEntity
  8
A1
  6
CONTINUOUS
 62
7
100
AcDbLine
 10
90.31205475739409
 20
116.9578203421508
 30
0.000000000000000
 11
90.29575835739406
 21
116.9702867421508
 31
0.000000000000000
  0
LINE
  5
1EB
100
AcDbEntity
  8
A1
  6
CONTINUOUS
 62
7
100
AcDbLine
 10
90.29575835739406
 20
116.9702867421508
 30
0.000000000000000
 11
90.26485015739405
 21
116.9980211421508
 31
0.000000000000000
  0
LINE
  5
1EC
100
AcDbEntity
  8
A1
  6
CONTINUOUS
 62
7
100
AcDbLine
 10
90.26485015739404
 20
116.9980211421508
 30
0.000000000000000
 11
90.23473535739406
 21
117.0228471421508
 31
0.000000000000000
  0
LINE
  5
1ED
100
AcDbEntity
  8
A1
  6
CONTINUOUS
 62
7
100
AcDbLine
 10
90.23473535739407
 20
117.0228471421508
 30
0.000000000000000
 11
90.21386735739409
 21
117.0382829421508
 31
0.000000000000000
  0
LINE
  5
1EE
100
AcDbEntity
  8
A1
  6
CONTINUOUS
 62
7
100
AcDbLine
 10
90.21386735739404
 20
117.0382829421508
 30
0.000000000000000
 11
90.17084995739404
 21
117.0673265421508
 31
0.000000000000000
  0
LINE
  5
1EF
100
AcDbEntity
  8
A1
  6
CONTINUOUS
 62
7
100
AcDbLine
 10
90.17084995739405
 20
117.0673265421508
 30
0.000000000000000
 11
90.12511615739407
 21
117.0959307421508
 31
0.000000000000000
  0
LINE
  5
1F0
100
AcDbEntity
  8
A1
  6
CONTINUOUS
 62
7
100
AcDbLine
 10
90.12511615739412
 20
117.0959307421508
 30
0.000000000000000
 11
90.07844875739409
 21
117.1229723421509
 31
0.000000000000000
  0
LINE
  5
1F1
100
AcDbEntity
  8
A1
  6
CONTINUOUS
 62
7
100
AcDbLine
 10
90.07844875739407
 20
117.1229723421508
 30
0.000000000000000
 11
90.03449735739406
 21
117.1462235421508
 31
0.000000000000000
  0
LINE
  5
1F2
100
AcDbEntity
  8
A1
  6
CONTINUOUS
 62
7
100
AcDbLine
 10
90.03449735739405
 20
117.1462235421508
 30
0.000000000000000
 11
89.98944115739404
 21
117.1673387421508
 31
0.000000000000000
  0
LINE
  5
1F3
100
AcDbEntity
  8
A1
  6
CONTINUOUS
 62
7
100
AcDbLine
 10
89.98944115739408
 20
117.1673387421508
 30
0.000000000000000
 11
89.91990995739408
 21
117.1939623421507
 31
0.000000000000000
  0
LINE
  5
1F4
100
AcDbEntity
  8
A1
  6
CONTINUOUS
 62
7
100
AcDbLine
 10
89.91990995739403
 20
117.1939623421508
 30
0.000000000000000
 11
89.84812655739404
 21
117.2146409421508
 31
0.000000000000000
  0
ARC
  5
1F5
100
AcDbEntity
  8
A1
  6
CONTINUOUS
 62
7
100
AcDbCircle
 10
89.75330835739408
 20
116.8260423421508
 30
0.000000000000000
 40
0.4000000381469728
100
AcDbArc
 50
76.28763500000002
 51
140.1372990000000
  0
ARC
  5
1F6
100
AcDbEntity
  8
A1
  6
CONTINUOUS
 62
7
100
AcDbCircle
 10
86.83649315739407
 20
119.2616533421508
 30
0.000000000000000
 40
3.400000324249268
100
AcDbArc
 50
318.0445170000000
 51
320.1372970000000
  0
ARC
  5
1F7
100
AcDbEntity
  8
A1
  6
CONTINUOUS
 62
7
100
AcDbCircle
 10
89.66242095739409
 20
116.7211503421508
 30
0.000000000000000
 40
0.4000000381469728
100
AcDbArc
 50
138.0445150000000
 51
201.8941830000000
  0
LINE
  5
1F8
100
AcDbEntity
  8
A1
  6
CONTINUOUS
 62
7
100
AcDbLine
 10
89.84847435739410
 20
115.0227891421508
 30
0.000000000000000
 11
89.85029935739409
 21
115.1497453421508
 31
0.000000000000000
  0
LINE
  5
1F9
100
AcDbEntity
  8
A1
  6
CONTINUOUS
 62
7
100
AcDbLine
 10
89.85029935739406
 20
115.1497453421508
 30
0.000000000000000
 11
89.84644195739408
 21
115.2767015421508
 31
0.000000000000000
  0
LINE
  5
1FA
100
AcDbEntity
  8
A1
  6
CONTINUOUS
 62
7
100
AcDbLine
 10
89.84644195739408
 20
115.2767015421508
 30
0.000000000000000
 11
89.83745755739407
 21
115.3982591421508
 31
0.000000000000000
  0
LINE
  5
1FB
100
AcDbEntity
  8
A1
  6
CONTINUOUS
 62
7
100
AcDbLine
 10
89.83745755739413
 20
115.3982591421508
 30
0.000000000000000
 11
89.82282135739409
 21
115.5191941421508
 31
0.000000000000000
  0
LINE
  5
1FC
100
AcDbEntity
  8
A1
  6
CONTINUOUS
 62
7
100
AcDbLine
 10
89.82282135739410
 20
115.5191941421509
 30
0.000000000000000
 11
89.80299715739412
 21
115.6341233421509
 31
0.000000000000000
  0
LINE
  5
1FD
100
AcDbEntity
  8
A1
  6
CONTINUOUS
 62
7
100
AcDbLine
 10
89.80299715739406
 20
115.6341233421508
 30
0.000000000000000
 11
89.77728295739405
 21
115.7480607421508
 31
0.000000000000000
  0
LINE
  5
1FE
100
AcDbEntity
  8
A1
  6
CONTINUOUS
 62
7
100
AcDbLine
 10
89.77728295739408
 20
115.7480607421508
 30
0.000000000000000
 11
89.76283595739409
 21
115.8021013421508
 31
0.000000000000000
  0
LINE
  5
1FF
100
AcDbEntity
  8
A1
  6
CONTINUOUS
 62
7
100
AcDbLine
 10
89.76283595739403
 20
115.8021013421508
 30
0.000000000000000
 11
89.74674715739403
 21
115.8556475421508
 31
0.000000000000000
  0
LINE
  5
200
100
AcDbEntity
  8
A1
  6
CONTINUOUS
 62
7
100
AcDbLine
 10
89.74674715739408
 20
115.8556475421508
 30
0.000000000000000
 11
89.72872955739408
 21
115.9084397421508
 31
0.000000000000000
  0
LINE
  5
201
100
AcDbEntity
  8
A1
  6
CONTINUOUS
 62
7
100
AcDbLine
 10
89.72872955739400
 20
115.9084397421508
 30
0.000000000000000
 11
89.69429355739402
 21
115.9930039421508
 31
0.000000000000000
  0
LINE
  5
202
100
AcDbEntity
  8
A1
  6
CONTINUOUS
 62
7
100
AcDbLine
 10
89.69429355739403
 20
115.9930039421508
 30
0.000000000000000
 11
89.66427635739404
 21
116.0584397421508
 31
0.000000000000000
  0
LINE
  5
203
100
AcDbEntity
  8
A1
  6
CONTINUOUS
 62
7
100
AcDbLine
 10
89.66427635739409
 20
116.0584397421508
 30
0.000000000000000
 11
89.64388455739407
 21
116.1011919421508
 31
0.000000000000000
  0
LINE
  5
204
100
AcDbEntity
  8
A1
  6
CONTINUOUS
 62
7
100
AcDbLine
 10
89.64388455739407
 20
116.1011919421509
 30
0.000000000000000
 11
89.63228795739411
 21
116.1215653421508
 31
0.000000000000000
  0
LINE
  5
205
100
AcDbEntity
  8
A1
  6
CONTINUOUS
 62
7
100
AcDbLine
 10
89.63228795739407
 20
116.1215653421508
 30
0.000000000000000
 11
89.61149935739405
 21
116.1493395421508
 31
0.000000000000000
  0
LINE
  5
206
100
AcDbEntity
  8
A1
  6
CONTINUOUS
 62
7
100
AcDbLine
 10
89.61149935739411
 20
116.1493395421509
 30
0.000000000000000
 11
89.59683855739409
 21
116.1636949421509
 31
0.000000000000000
  0
LINE
  5
207
100
AcDbEntity
  8
A1
  6
CONTINUOUS
 62
7
100
AcDbLine
 10
89.59683855739402
 20
116.1636949421508
 30
0.000000000000000
 11
89.56499055739401
 21
116.1903397421508
 31
0.000000000000000
  0
LINE
  5
208
100
AcDbEntity
  8
A1
  6
CONTINUOUS
 62
7
100
AcDbLine
 10
89.56499055739411
 20
116.1903397421508
 30
0.000000000000000
 11
89.53613315739412
 21
116.2166155421508
 31
0.000000000000000
  0
LINE
  5
209
100
AcDbEntity
  8
A1
  6
CONTINUOUS
 62
7
100
AcDbLine
 10
89.53613315739406
 20
116.2166155421508
 30
0.000000000000000
 11
89.51788355739409
 21
116.2350725421508
 31
0.000000000000000
  0
LINE
  5
20A
100
AcDbEntity
  8
A1
  6
CONTINUOUS
 62
7
100
AcDbLine
 10
89.51788355739413
 20
116.2350725421508
 30
0.000000000000000
 11
89.48301415739407
 21
116.2735215421508
 31
0.000000000000000
  0
LINE
  5
20B
100
AcDbEntity
  8
A1
  6
CONTINUOUS
 62
7
100
AcDbLine
 10
89.48301415739405
 20
116.2735215421508
 30
0.000000000000000
 11
89.44819355739408
 21
116.3147173421508
 31
0.000000000000000
  0
LINE
  5
20C
100
AcDbEntity
  8
A1
  6
CONTINUOUS
 62
7
100
AcDbLine
 10
89.44819355739409
 20
116.3147173421508
 30
0.000000000000000
 11
89.41478295739410
 21
116.3570603421508
 31
0.000000000000000
  0
LINE
  5
20D
100
AcDbEntity
  8
A1
  6
CONTINUOUS
 62
7
100
AcDbLine
 10
89.41478295739401
 20
116.3570603421508
 30
0.000000000000000
 11
89.38551655739403
 21
116.3972581421508
 31
0.000000000000000
  0
LINE
  5
20E
100
AcDbEntity
  8
A1
  6
CONTINUOUS
 62
7
100
AcDbLine
 10
89.38551655739403
 20
116.3972581421508
 30
0.000000000000000
 11
89.35820335739403
 21
116.4388505421508
 31
0.000000000000000
  0
LINE
  5
20F
100
AcDbEntity
  8
A1
  6
CONTINUOUS
 62
7
100
AcDbLine
 10
89.35820335739410
 20
116.4388505421508
 30
0.000000000000000
 11
89.32195455739409
 21
116.5038835421508
 31
0.000000000000000
  0
LINE
  5
210
100
AcDbEntity
  8
A1
  6
CONTINUOUS
 62
7
100
AcDbLine
 10
89.32195455739406
 20
116.5038835421508
 30
0.000000000000000
 11
89.29126615739406
 21
116.5719957421508
 31
0.000000000000000
  0
ARC
  5
211
100
AcDbEntity
  8
A1
  6
CONTINUOUS
 62
7
100
AcDbCircle
 10
86.83649315739407
 20
119.2616533421508
 30
0.000000000000000
 40
5.200000495910646
100
AcDbArc
 50
300.0583510000000
 51
305.3961990000000
  0
LINE
  5
212
100
AcDbEntity
  8
A1
  6
CONTINUOUS
 62
7
100
AcDbLine
 10
89.44107695739406
 20
114.7609697421508
 30
0.000000000000000
 11
89.32483555739404
 21
114.8120531421508
 31
0.000000000000000
  0
LINE
  5
213
100
AcDbEntity
  8
A1
  6
CONTINUOUS
 62
7
100
AcDbLine
 10
89.32483555739412
 20
114.8120531421508
 30
0.000000000000000
 11
89.21095615739407
 21
114.8683001421508
 31
0.000000000000000
  0
LINE
  5
214
100
AcDbEntity
  8
A1
  6
CONTINUOUS
 62
7
100
AcDbLine
 10
89.21095615739405
 20
114.8683001421508
 30
0.000000000000000
 11
89.10411395739408
 21
114.9269669421508
 31
0.000000000000000
  0
LINE
  5
215
100
AcDbEntity
  8
A1
  6
CONTINUOUS
 62
7
100
AcDbLine
 10
89.10411395739412
 20
114.9269669421508
 30
0.000000000000000
 11
89.00018955739412
 21
114.9905199421508
 31
0.000000000000000
  0
LINE
  5
216
100
AcDbEntity
  8
A1
  6
CONTINUOUS
 62
7
100
AcDbLine
 10
89.00018955739405
 20
114.9905199421508
 30
0.000000000000000
 11
88.90388215739407
 21
115.0562975421508
 31
0.000000000000000
  0
LINE
  5
217
100
AcDbEntity
  8
A1
  6
CONTINUOUS
 62
7
100
AcDbLine
 10
88.90388215739407
 20
115.0562975421508
 30
0.000000000000000
 11
88.81091955739407
 21
115.1270159421508
 31
0.000000000000000
  0
LINE
  5
218
100
AcDbEntity
  8
A1
  6
CONTINUOUS
 62
7
100
AcDbLine
 10
88.81091955739410
 20
115.1270159421508
 30
0.000000000000000
 11
88.76776755739407
 21
115.1626055421509
 31
0.000000000000000
  0
LINE
  5
219
100
AcDbEntity
  8
A1
  6
CONTINUOUS
 62
7
100
AcDbLine
 10
88.76776755739404
 20
115.1626055421508
 30
0.000000000000000
 11
88.72574495739406
 21
115.1994859421508
 31
0.000000000000000
  0
LINE
  5
21A
100
AcDbEntity
  8
A1
  6
CONTINUOUS
 62
7
100
AcDbLine
 10
88.72574495739408
 20
115.1994859421508
 30
0.000000000000000
 11
88.68520535739410
 21
115.2378069421508
 31
0.000000000000000
  0
LINE
  5
21B
100
AcDbEntity
  8
A1
  6
CONTINUOUS
 62
7
100
AcDbLine
 10
88.68520535739407
 20
115.2378069421508
 30
0.000000000000000
 11
88.62258935739409
 21
115.3042619421508
 31
0.000000000000000
  0
LINE
  5
21C
100
AcDbEntity
  8
A1
  6
CONTINUOUS
 62
7
100
AcDbLine
 10
88.62258935739405
 20
115.3042619421508
 30
0.000000000000000
 11
88.57553735739404
 21
115.3587481421509
 31
0.000000000000000
  0
LINE
  5
21D
100
AcDbEntity
  8
A1
  6
CONTINUOUS
 62
7
100
AcDbLine
 10
88.57553735739407
 20
115.3587481421508
 30
0.000000000000000
 11
88.54511735739408
 21
115.3950579421508
 31
0.000000000000000
  0
LINE
  5
21E
100
AcDbEntity
  8
A1
  6
CONTINUOUS
 62
7
100
AcDbLine
 10
88.54511735739405
 20
115.3950579421508
 30
0.000000000000000
 11
88.53140275739405
 21
115.4140673421508
 31
0.000000000000000
  0
LINE
  5
21F
100
AcDbEntity
  8
A1
  6
CONTINUOUS
 62
7
100
AcDbLine
 10
88.53140275739403
 20
115.4140673421508
 30
0.000000000000000
 11
88.51477695739405
 21
115.4445147421508
 31
0.000000000000000
  0
LINE
  5
220
100
AcDbEntity
  8
A1
  6
CONTINUOUS
 62
7
100
AcDbLine
 10
88.51477695739410
 20
115.4445147421508
 30
0.000000000000000
 11
88.50780675739409
 21
115.4638139421508
 31
0.000000000000000
  0
LINE
  5
221
100
AcDbEntity
  8
A1
  6
CONTINUOUS
 62
7
100
AcDbLine
 10
88.50780675739406
 20
115.4638139421508
 30
0.000000000000000
 11
88.49680195739407
 21
115.5038529421508
 31
0.000000000000000
  0
LINE
  5
222
100
AcDbEntity
  8
A1
  6
CONTINUOUS
 62
7
100
AcDbLine
 10
88.49680195739410
 20
115.5038529421508
 30
0.000000000000000
 11
88.48488795739408
 21
115.5410203421508
 31
0.000000000000000
  0
LINE
  5
223
100
AcDbEntity
  8
A1
  6
CONTINUOUS
 62
7
100
AcDbLine
 10
88.48488795739411
 20
115.5410203421508
 30
0.000000000000000
 11
88.47567775739412
 21
115.5652909421508
 31
0.000000000000000
  0
LINE
  5
224
100
AcDbEntity
  8
A1
  6
CONTINUOUS
 62
7
100
AcDbLine
 10
88.47567775739412
 20
115.5652909421509
 30
0.000000000000000
 11
88.45518835739412
 21
115.6129777421509
 31
0.000000000000000
  0
LINE
  5
225
100
AcDbEntity
  8
A1
  6
CONTINUOUS
 62
7
100
AcDbLine
 10
88.45518835739402
 20
115.6129777421508
 30
0.000000000000000
 11
88.43217795739406
 21
115.6617693421508
 31
0.000000000000000
  0
LINE
  5
226
100
AcDbEntity
  8
A1
  6
CONTINUOUS
 62
7
100
AcDbLine
 10
88.43217795739407
 20
115.6617693421508
 30
0.000000000000000
 11
88.40754415739410
 21
115.7097459421508
 31
0.000000000000000
  0
LINE
  5
227
100
AcDbEntity
  8
A1
  6
CONTINUOUS
 62
7
100
AcDbLine
 10
88.40754415739403
 20
115.7097459421508
 30
0.000000000000000
 11
88.38313615739403
 21
115.7530687421508
 31
0.000000000000000
  0
LINE
  5
228
100
AcDbEntity
  8
A1
  6
CONTINUOUS
 62
7
100
AcDbLine
 10
88.38313615739406
 20
115.7530687421508
 30
0.000000000000000
 11
88.35664695739405
 21
115.7951921421508
 31
0.000000000000000
  0
LINE
  5
229
100
AcDbEntity
  8
A1
  6
CONTINUOUS
 62
7
100
AcDbLine
 10
88.35664695739405
 20
115.7951921421509
 30
0.000000000000000
 11
88.31255515739403
 21
115.8551805421508
 31
0.000000000000000
  0
LINE
  5
22A
100
AcDbEntity
  8
A1
  6
CONTINUOUS
 62
7
100
AcDbLine
 10
88.31255515739403
 20
115.8551805421507
 30
0.000000000000000
 11
88.26334255739405
 21
115.9113847421508
 31
0.000000000000000
  0
ARC
  5
22B
100
AcDbEntity
  8
A1
  6
CONTINUOUS
 62
7
100
AcDbCircle
 10
87.97348055739411
 20
115.6357377421508
 30
0.000000000000000
 40
0.4000000381469728
100
AcDbArc
 50
43.56036000000004
 51
107.4100240000000
  0
ARC
  5
22C
100
AcDbEntity
  8
A1
  6
CONTINUOUS
 62
7
100
AcDbCircle
 10
86.83649315739407
 20
119.2616533421508
 30
0.000000000000000
 40
3.400000324249268
100
AcDbArc
 50
285.3172470000000
 51
287.4100280000000
  0
ARC
  5
22D
100
AcDbEntity
  8
A1
  6
CONTINUOUS
 62
7
100
AcDbCircle
 10
87.84031395739410
 20
115.5966355421508
 30
0.000000000000000
 40
0.4000000381469728
100
AcDbArc
 50
105.3172410000000
 51
169.1669080000000
  0
LINE
  5
22E
100
AcDbEntity
  8
A1
  6
CONTINUOUS
 62
7
100
AcDbLine
 10
87.07863195739405
 20
114.0672929421508
 30
0.000000000000000
 11
87.14879795739401
 21
114.1731095421508
 31
0.000000000000000
  0
LINE
  5
22F
100
AcDbEntity
  8
A1
  6
CONTINUOUS
 62
7
100
AcDbLine
 10
87.14879795739404
 20
114.1731095421508
 30
0.000000000000000
 11
87.21419095739407
 21
114.2819993421508
 31
0.000000000000000
  0
LINE
  5
230
100
AcDbEntity
  8
A1
  6
CONTINUOUS
 62
7
100
AcDbLine
 10
87.21419095739405
 20
114.2819993421508
 30
0.000000000000000
 11
87.27235735739403
 21
114.3891129421508
 31
0.000000000000000
  0
LINE
  5
231
100
AcDbEntity
  8
A1
  6
CONTINUOUS
 62
7
100
AcDbLine
 10
87.27235735739406
 20
114.3891129421508
 30
0.000000000000000
 11
87.32542755739408
 21
114.4987657421508
 31
0.000000000000000
  0
LINE
  5
232
100
AcDbEntity
  8
A1
  6
CONTINUOUS
 62
7
100
AcDbLine
 10
87.32542755739402
 20
114.4987657421508
 30
0.000000000000000
 11
87.37088035739406
 21
114.6061693421508
 31
0.000000000000000
  0
LINE
  5
233
100
AcDbEntity
  8
A1
  6
CONTINUOUS
 62
7
100
AcDbLine
 10
87.37088035739403
 20
114.6061693421508
 30
0.000000000000000
 11
87.41085235739403
 21
114.7159197421508
 31
0.000000000000000
  0
LINE
  5
234
100
AcDbEntity
  8
A1
  6
CONTINUOUS
 62
7
100
AcDbLine
 10
87.41085235739402
 20
114.7159197421508
 30
0.000000000000000
 11
87.42791775739403
 21
114.7691911421508
 31
0.000000000000000
  0
LINE
  5
235
100
AcDbEntity
  8
A1
  6
CONTINUOUS
 62
7
100
AcDbLine
 10
87.42791775739411
 20
114.7691911421508
 30
0.000000000000000
 11
87.44332915739410
 21
114.8229357421508
 31
0.000000000000000
  0
LINE
  5
236
100
AcDbEntity
  8
A1
  6
CONTINUOUS
 62
7
100
AcDbLine
 10
87.44332915739407
 20
114.8229357421508
 30
0.000000000000000
 11
87.45671415739407
 21
114.8770891421508
 31
0.000000000000000
  0
LINE
  5
237
100
AcDbEntity
  8
A1
  6
CONTINUOUS
 62
7
100
AcDbLine
 10
87.45671415739403
 20
114.8770891421508
 30
0.000000000000000
 11
87.47346215739404
 21
114.9668473421508
 31
0.000000000000000
  0
LINE
  5
238
100
AcDbEntity
  8
A1
  6
CONTINUOUS
 62
7
100
AcDbLine
 10
87.47346215739411
 20
114.9668473421508
 30
0.000000000000000
 11
87.48358795739411
 21
115.0381243421508
 31
0.000000000000000
  0
LINE
  5
239
100
AcDbEntity
  8
A1
  6
CONTINUOUS
 62
7
100
AcDbLine
 10
87.48358795739405
 20
115.0381243421508
 30
0.000000000000000
 11
87.48954495739403
 21
115.0851151421508
 31
0.000000000000000
  0
LINE
  5
23A
100
AcDbEntity
  8
A1
  6
CONTINUOUS
 62
7
100
AcDbLine
 10
87.48954495739407
 20
115.0851151421508
 30
0.000000000000000
 11
87.49080835739407
 21
115.1085221421508
 31
0.000000000000000
  0
LINE
  5
23B
100
AcDbEntity
  8
A1
  6
CONTINUOUS
 62
7
100
AcDbLine
 10
87.49080835739413
 20
115.1085221421508
 30
0.000000000000000
 11
87.48833035739413
 21
115.1431261421508
 31
0.000000000000000
  0
LINE
  5
23C
100
AcDbEntity
  8
A1
  6
CONTINUOUS
 62
7
100
AcDbLine
 10
87.48833035739410
 20
115.1431261421508
 30
0.000000000000000
 11
87.48376495739409
 21
115.1631273421508
 31
0.000000000000000
  0
LINE
  5
23D
100
AcDbEntity
  8
A1
  6
CONTINUOUS
 62
7
100
AcDbLine
 10
87.48376495739404
 20
115.1631273421508
 30
0.000000000000000
 11
87.47137475739406
 21
115.2027605421508
 31
0.000000000000000
  0
LINE
  5
23E
100
AcDbEntity
  8
A1
  6
CONTINUOUS
 62
7
100
AcDbLine
 10
87.47137475739409
 20
115.2027605421508
 30
0.000000000000000
 11
87.46130395739407
 21
115.2404679421508
 31
0.000000000000000
  0
LINE
  5
23F
100
AcDbEntity
  8
A1
  6
CONTINUOUS
 62
7
100
AcDbLine
 10
87.46130395739409
 20
115.2404679421508
 30
0.000000000000000
 11
87.45592675739410
 21
115.2658647421508
 31
0.000000000000000
  0
LINE
  5
240
100
AcDbEntity
  8
A1
  6
CONTINUOUS
 62
7
100
AcDbLine
 10
87.45592675739411
 20
115.2658647421508
 30
0.000000000000000
 11
87.44738195739410
 21
115.3170609421508
 31
0.000000000000000
  0
LINE
  5
241
100
AcDbEntity
  8
A1
  6
CONTINUOUS
 62
7
100
AcDbLine
 10
87.44738195739406
 20
115.3170609421508
 30
0.000000000000000
 11
87.44036275739408
 21
115.3705431421508
 31
0.000000000000000
  0
LINE
  5
242
100
AcDbEntity
  8
A1
  6
CONTINUOUS
 62
7
100
AcDbLine
 10
87.44036275739408
 20
115.3705431421508
 30
0.000000000000000
 11
87.43515035739408
 21
115.4242235421508
 31
0.000000000000000
  0
LINE
  5
243
100
AcDbEntity
  8
A1
  6
CONTINUOUS
 62
7
100
AcDbLine
 10
87.43515035739406
 20
115.4242235421508
 30
0.000000000000000
 11
87.43225735739406
 21
115.4738665421508
 31
0.000000000000000
  0
LINE
  5
244
100
AcDbEntity
  8
A1
  6
CONTINUOUS
 62
7
100
AcDbLine
 10
87.43225735739408
 20
115.4738665421508
 30
0.000000000000000
 11
87.43176915739407
 21
115.5236223421508
 31
0.000000000000000
  0
LINE
  5
245
100
AcDbEntity
  8
A1
  6
CONTINUOUS
 62
7
100
AcDbLine
 10
87.43176915739409
 20
115.5236223421508
 30
0.000000000000000
 11
87.43643215739411
 21
115.5979265421508
 31
0.000000000000000
  0
LINE
  5
246
100
AcDbEntity
  8
A1
  6
CONTINUOUS
 62
7
100
AcDbLine
 10
87.43643215739408
 20
115.5979265421508
 30
0.000000000000000
 11
87.44744295739405
 21
115.6718157421509
 31
0.000000000000000
  0
ARC
  5
247
100
AcDbEntity
  8
A1
  6
CONTINUOUS
 62
7
100
AcDbCircle
 10
86.83649315739407
 20
119.2616533421508
 30
0.000000000000000
 40
5.200000495910646
100
AcDbArc
 50
267.3310740000000
 51
272.6689259999999
  0
LINE
  5
248
100
AcDbEntity
  8
A1
  6
CONTINUOUS
 62
7
100
AcDbLine
 10
86.59435455739407
 20
114.0672929421508
 30
0.000000000000000
 11
86.52418855739407
 21
114.1731095421508
 31
0.000000000000000
  0
LINE
  5
249
100
AcDbEntity
  8
A1
  6
CONTINUOUS
 62
7
100
AcDbLine
 10
86.52418855739408
 20
114.1731095421508
 30
0.000000000000000
 11
86.45879535739408
 21
114.2819993421508
 31
0.000000000000000
  0
LINE
  5
24A
100
AcDbEntity
  8
A1
  6
CONTINUOUS
 62
7
100
AcDbLine
 10
86.45879535739410
 20
114.2819993421508
 30
0.000000000000000
 11
86.40062895739412
 21
114.3891129421508
 31
0.000000000000000
  0
LINE
  5
24B
100
AcDbEntity
  8
A1
  6
CONTINUOUS
 62
7
100
AcDbLine
 10
86.40062895739410
 20
114.3891129421508
 30
0.000000000000000
 11
86.34755895739407
 21
114.4987657421508
 31
0.000000000000000
  0
LINE
  5
24C
100
AcDbEntity
  8
A1
  6
CONTINUOUS
 62
7
100
AcDbLine
 10
86.34755895739411
 20
114.4987657421509
 30
0.000000000000000
 11
86.30210595739413
 21
114.6061693421508
 31
0.000000000000000
  0
LINE
  5
24D
100
AcDbEntity
  8
A1
  6
CONTINUOUS
 62
7
100
AcDbLine
 10
86.30210595739413
 20
114.6061693421508
 30
0.000000000000000
 11
86.26213415739414
 21
114.7159197421508
 31
0.000000000000000
  0
LINE
  5
24E
100
AcDbEntity
  8
A1
  6
CONTINUOUS
 62
7
100
AcDbLine
 10
86.26213415739409
 20
114.7159197421508
 30
0.000000000000000
 11
86.24506855739406
 21
114.7691911421508
 31
0.000000000000000
  0
LINE
  5
24F
100
AcDbEntity
  8
A1
  6
CONTINUOUS
 62
7
100
AcDbLine
 10
86.24506855739412
 20
114.7691911421508
 30
0.000000000000000
 11
86.22965715739410
 21
114.8229357421508
 31
0.000000000000000
  0
LINE
  5
250
100
AcDbEntity
  8
A1
  6
CONTINUOUS
 62
7
100
AcDbLine
 10
86.22965715739407
 20
114.8229357421508
 30
0.000000000000000
 11
86.21627215739406
 21
114.8770891421508
 31
0.000000000000000
  0
LINE
  5
251
100
AcDbEntity
  8
A1
  6
CONTINUOUS
 62
7
100
AcDbLine
 10
86.21627215739406
 20
114.8770891421508
 30
0.000000000000000
 11
86.19952415739405
 21
114.9668473421508
 31
0.000000000000000
  0
LINE
  5
252
100
AcDbEntity
  8
A1
  6
CONTINUOUS
 62
7
100
AcDbLine
 10
86.19952415739408
 20
114.9668473421508
 30
0.000000000000000
 11
86.18939855739410
 21
115.0381243421508
 31
0.000000000000000
  0
LINE
  5
253
100
AcDbEntity
  8
A1
  6
CONTINUOUS
 62
7
100
AcDbLine
 10
86.18939855739404
 20
115.0381243421508
 30
0.000000000000000
 11
86.18344135739406
 21
115.0851151421508
 31
0.000000000000000
  0
LINE
  5
254
100
AcDbEntity
  8
A1
  6
CONTINUOUS
 62
7
100
AcDbLine
 10
86.18344135739406
 20
115.0851151421508
 30
0.000000000000000
 11
86.18217795739406
 21
115.1085221421508
 31
0.000000000000000
  0
LINE
  5
255
100
AcDbEntity
  8
A1
  6
CONTINUOUS
 62
7
100
AcDbLine
 10
86.18217795739410
 20
115.1085221421508
 30
0.000000000000000
 11
86.18465595739410
 21
115.1431261421508
 31
0.000000000000000
  0
LINE
  5
256
100
AcDbEntity
  8
A1
  6
CONTINUOUS
 62
7
100
AcDbLine
 10
86.18465595739410
 20
115.1431261421508
 30
0.000000000000000
 11
86.18922155739408
 21
115.1631273421508
 31
0.000000000000000
  0
LINE
  5
257
100
AcDbEntity
  8
A1
  6
CONTINUOUS
 62
7
100
AcDbLine
 10
86.18922155739406
 20
115.1631273421508
 30
0.000000000000000
 11
86.20161155739409
 21
115.2027605421508
 31
0.000000000000000
  0
LINE
  5
258
100
AcDbEntity
  8
A1
  6
CONTINUOUS
 62
7
100
AcDbLine
 10
86.20161155739407
 20
115.2027605421508
 30
0.000000000000000
 11
86.21168235739407
 21
115.2404679421508
 31
0.000000000000000
  0
LINE
  5
259
100
AcDbEntity
  8
A1
  6
CONTINUOUS
 62
7
100
AcDbLine
 10
86.21168235739408
 20
115.2404679421507
 30
0.000000000000000
 11
86.21705955739409
 21
115.2658647421508
 31
0.000000000000000
  0
LINE
  5
25A
100
AcDbEntity
  8
A1
  6
CONTINUOUS
 62
7
100
AcDbLine
 10
86.21705955739407
 20
115.2658647421508
 30
0.000000000000000
 11
86.22560455739406
 21
115.3170609421508
 31
0.000000000000000
  0
LINE
  5
25B
100
AcDbEntity
  8
A1
  6
CONTINUOUS
 62
7
100
AcDbLine
 10
86.22560455739409
 20
115.3170609421509
 30
0.000000000000000
 11
86.23262355739411
 21
115.3705431421509
 31
0.000000000000000
  0
LINE
  5
25C
100
AcDbEntity
  8
A1
  6
CONTINUOUS
 62
7
100
AcDbLine
 10
86.23262355739405
 20
115.3705431421508
 30
0.000000000000000
 11
86.23783595739403
 21
115.4242235421508
 31
0.000000000000000
  0
LINE
  5
25D
100
AcDbEntity
  8
A1
  6
CONTINUOUS
 62
7
100
AcDbLine
 10
86.23783595739408
 20
115.4242235421508
 30
0.000000000000000
 11
86.24072895739408
 21
115.4738665421508
 31
0.000000000000000
  0
LINE
  5
25E
100
AcDbEntity
  8
A1
  6
CONTINUOUS
 62
7
100
AcDbLine
 10
86.24072895739411
 20
115.4738665421508
 30
0.000000000000000
 11
86.24121735739411
 21
115.5236223421508
 31
0.000000000000000
  0
LINE
  5
25F
100
AcDbEntity
  8
A1
  6
CONTINUOUS
 62
7
100
AcDbLine
 10
86.24121735739404
 20
115.5236223421508
 30
0.000000000000000
 11
86.23655415739402
 21
115.5979265421508
 31
0.000000000000000
  0
LINE
  5
260
100
AcDbEntity
  8
A1
  6
CONTINUOUS
 62
7
100
AcDbLine
 10
86.23655415739408
 20
115.5979265421508
 30
0.000000000000000
 11
86.22554355739408
 21
115.6718157421508
 31
0.000000000000000
  0
ARC
  5
261
100
AcDbEntity
  8
A1
  6
CONTINUOUS
 62
7
100
AcDbCircle
 10
85.83267235739410
 20
115.5966355421508
 30
0.000000000000000
 40
0.4000000381469728
100
AcDbArc
 50
10.83309200000005
 51
74.68275899999998
  0
ARC
  5
262
100
AcDbEntity
  8
A1
  6
CONTINUOUS
 62
7
100
AcDbCircle
 10
86.83649315739407
 20
119.2616533421508
 30
0.000000000000000
 40
3.400000324249268
100
AcDbArc
 50
252.5899720000000
 51
254.6827530000000
  0
ARC
  5
263
100
AcDbEntity
  8
A1
  6
CONTINUOUS
 62
7
100
AcDbCircle
 10
85.69950595739408
 20
115.6357377421508
 30
0.000000000000000
 40
0.4000000381469728
100
AcDbArc
 50
72.58997600000002
 51
136.4396400000000
  0
LINE
  5
264
100
AcDbEntity
  8
A1
  6
CONTINUOUS
 62
7
100
AcDbLine
 10
84.23190935739407
 20
114.7609697421508
 30
0.000000000000000
 11
84.34815095739413
 21
114.8120531421508
 31
0.000000000000000
  0
LINE
  5
265
100
AcDbEntity
  8
A1
  6
CONTINUOUS
 62
7
100
AcDbLine
 10
84.34815095739403
 20
114.8120531421508
 30
0.000000000000000
 11
84.46203035739407
 21
114.8683001421508
 31
0.000000000000000
  0
LINE
  5
266
100
AcDbEntity
  8
A1
  6
CONTINUOUS
 62
7
100
AcDbLine
 10
84.46203035739407
 20
114.8683001421508
 30
0.000000000000000
 11
84.56887235739407
 21
114.9269669421508
 31
0.000000000000000
  0
LINE
  5
267
100
AcDbEntity
  8
A1
  6
CONTINUOUS
 62
7
100
AcDbLine
 10
84.56887235739408
 20
114.9269669421508
 30
0.000000000000000
 11
84.67279695739407
 21
114.9905199421508
 31
0.000000000000000
  0
LINE
  5
268
100
AcDbEntity
  8
A1
  6
CONTINUOUS
 62
7
100
AcDbLine
 10
84.67279695739407
 20
114.9905199421508
 30
0.000000000000000
 11
84.76910435739406
 21
115.0562975421508
 31
0.000000000000000
  0
LINE
  5
269
100
AcDbEntity
  8
A1
  6
CONTINUOUS
 62
7
100
AcDbLine
 10
84.76910435739406
 20
115.0562975421508
 30
0.000000000000000
 11
84.86206695739409
 21
115.1270159421508
 31
0.000000000000000
  0
LINE
  5
26A
100
AcDbEntity
  8
A1
  6
CONTINUOUS
 62
7
100
AcDbLine
 10
84.86206695739413
 20
115.1270159421508
 30
0.000000000000000
 11
84.90521875739412
 21
115.1626055421508
 31
0.000000000000000
  0
LINE
  5
26B
100
AcDbEntity
  8
A1
  6
CONTINUOUS
 62
7
100
AcDbLine
 10
84.90521875739404
 20
115.1626055421508
 30
0.000000000000000
 11
84.94724155739405
 21
115.1994859421508
 31
0.000000000000000
  0
LINE
  5
26C
100
AcDbEntity
  8
A1
  6
CONTINUOUS
 62
7
100
AcDbLine
 10
84.94724155739409
 20
115.1994859421508
 30
0.000000000000000
 11
84.98778095739407
 21
115.2378069421508
 31
0.000000000000000
  0
LINE
  5
26D
100
AcDbEntity
  8
A1
  6
CONTINUOUS
 62
7
100
AcDbLine
 10
84.98778095739408
 20
115.2378069421509
 30
0.000000000000000
 11
85.05039695739410
 21
115.3042619421509
 31
0.000000000000000
  0
LINE
  5
26E
100
AcDbEntity
  8
A1
  6
CONTINUOUS
 62
7
100
AcDbLine
 10
85.05039695739410
 20
115.3042619421508
 30
0.000000000000000
 11
85.09744895739411
 21
115.3587481421508
 31
0.000000000000000
  0
LINE
  5
26F
100
AcDbEntity
  8
A1
  6
CONTINUOUS
 62
7
100
AcDbLine
 10
85.09744895739412
 20
115.3587481421508
 30
0.000000000000000
 11
85.12786895739411
 21
115.3950579421508
 31
0.000000000000000
  0
LINE
  5
270
100
AcDbEntity
  8
A1
  6
CONTINUOUS
 62
7
100
AcDbLine
 10
85.12786895739404
 20
115.3950579421509
 30
0.000000000000000
 11
85.14158355739404
 21
115.4140673421508
 31
0.000000000000000
  0
LINE
  5
271
100
AcDbEntity
  8
A1
  6
CONTINUOUS
 62
7
100
AcDbLine
 10
85.14158355739406
 20
115.4140673421508
 30
0.000000000000000
 11
85.15820955739406
 21
115.4445147421508
 31
0.000000000000000
  0
LINE
  5
272
100
AcDbEntity
  8
A1
  6
CONTINUOUS
 62
7
100
AcDbLine
 10
85.15820955739403
 20
115.4445147421508
 30
0.000000000000000
 11
85.16517975739404
 21
115.4638139421508
 31
0.000000000000000
  0
LINE
  5
273
100
AcDbEntity
  8
A1
  6
CONTINUOUS
 62
7
100
AcDbLine
 10
85.16517975739406
 20
115.4638139421508
 30
0.000000000000000
 11
85.17618435739406
 21
115.5038529421507
 31
0.000000000000000
  0
LINE
  5
274
100
AcDbEntity
  8
A1
  6
CONTINUOUS
 62
7
100
AcDbLine
 10
85.17618435739411
 20
115.5038529421508
 30
0.000000000000000
 11
85.18809835739410
 21
115.5410203421508
 31
0.000000000000000
  0
LINE
  5
275
100
AcDbEntity
  8
A1
  6
CONTINUOUS
 62
7
100
AcDbLine
 10
85.18809835739410
 20
115.5410203421509
 30
0.000000000000000
 11
85.19730855739405
 21
115.5652909421508
 31
0.000000000000000
  0
LINE
  5
276
100
AcDbEntity
  8
A1
  6
CONTINUOUS
 62
7
100
AcDbLine
 10
85.19730855739404
 20
115.5652909421508
 30
0.000000000000000
 11
85.21779815739403
 21
115.6129777421508
 31
0.000000000000000
  0
LINE
  5
277
100
AcDbEntity
  8
A1
  6
CONTINUOUS
 62
7
100
AcDbLine
 10
85.21779815739406
 20
115.6129777421508
 30
0.000000000000000
 11
85.24080835739406
 21
115.6617693421508
 31
0.000000000000000
  0
LINE
  5
278
100
AcDbEntity
  8
A1
  6
CONTINUOUS
 62
7
100
AcDbLine
 10
85.24080835739409
 20
115.6617693421508
 30
0.000000000000000
 11
85.26544215739408
 21
115.7097459421508
 31
0.000000000000000
  0
LINE
  5
279
100
AcDbEntity
  8
A1
  6
CONTINUOUS
 62
7
100
AcDbLine
 10
85.26544215739408
 20
115.7097459421508
 30
0.000000000000000
 11
85.28985015739407
 21
115.7530687421508
 31
0.000000000000000
  0
LINE
  5
27A
100
AcDbEntity
  8
A1
  6
CONTINUOUS
 62
7
100
AcDbLine
 10
85.28985015739407
 20
115.7530687421508
 30
0.000000000000000
 11
85.31633935739409
 21
115.7951921421508
 31
0.000000000000000
  0
LINE
  5
27B
100
AcDbEntity
  8
A1
  6
CONTINUOUS
 62
7
100
AcDbLine
 10
85.31633935739403
 20
115.7951921421508
 30
0.000000000000000
 11
85.36043115739406
 21
115.8551805421508
 31
0.000000000000000
  0
LINE
  5
27C
100
AcDbEntity
  8
A1
  6
CONTINUOUS
 62
7
100
AcDbLine
 10
85.36043115739409
 20
115.8551805421508
 30
0.000000000000000
 11
85.40964375739406
 21
115.9113847421508
 31
0.000000000000000
  0
ARC
  5
27D
100
AcDbEntity
  8
A1
  6
CONTINUOUS
 62
7
100
AcDbCircle
 10
86.83649315739407
 20
119.2616533421508
 30
0.000000000000000
 40
5.200000495910646
100
AcDbArc
 50
234.6038010000000
 51
239.9416490000000
  0
LINE
  5
27E
100
AcDbEntity
  8
A1
  6
CONTINUOUS
 62
7
100
AcDbLine
 10
83.82451195739408
 20
115.0227891421508
 30
0.000000000000000
 11
83.82268695739405
 21
115.1497453421508
 31
0.000000000000000
  0
LINE
  5
27F
100
AcDbEntity
  8
A1
  6
CONTINUOUS
 62
7
100
AcDbLine
 10
83.82268695739404
 20
115.1497453421508
 30
0.000000000000000
 11
83.82654455739404
 21
115.2767015421508
 31
0.000000000000000
  0
LINE
  5
280
100
AcDbEntity
  8
A1
  6
CONTINUOUS
 62
7
100
AcDbLine
 10
83.82654455739410
 20
115.2767015421508
 30
0.000000000000000
 11
83.83552875739409
 21
115.3982591421508
 31
0.000000000000000
  0
LINE
  5
281
100
AcDbEntity
  8
A1
  6
CONTINUOUS
 62
7
100
AcDbLine
 10
83.83552875739406
 20
115.3982591421508
 30
0.000000000000000
 11
83.85016515739406
 21
115.5191941421508
 31
0.000000000000000
  0
LINE
  5
282
100
AcDbEntity
  8
A1
  6
CONTINUOUS
 62
7
100
AcDbLine
 10
83.85016515739406
 20
115.5191941421508
 30
0.000000000000000
 11
83.86998935739406
 21
115.6341233421508
 31
0.000000000000000
  0
LINE
  5
283
100
AcDbEntity
  8
A1
  6
CONTINUOUS
 62
7
100
AcDbLine
 10
83.86998935739408
 20
115.6341233421508
 30
0.000000000000000
 11
83.89570335739407
 21
115.7480607421509
 31
0.000000000000000
  0
LINE
  5
284
100
AcDbEntity
  8
A1
  6
CONTINUOUS
 62
7
100
AcDbLine
 10
83.89570335739405
 20
115.7480607421508
 30
0.000000000000000
 11
83.91015035739407
 21
115.8021013421509
 31
0.000000000000000
  0
LINE
  5
285
100
AcDbEntity
  8
A1
  6
CONTINUOUS
 62
7
100
AcDbLine
 10
83.91015035739406
 20
115.8021013421508
 30
0.000000000000000
 11
83.92623935739408
 21
115.8556475421508
 31
0.000000000000000
  0
LINE
  5
286
100
AcDbEntity
  8
A1
  6
CONTINUOUS
 62
7
100
AcDbLine
 10
83.92623935739408
 20
115.8556475421508
 30
0.000000000000000
 11
83.94425695739409
 21
115.9084397421508
 31
0.000000000000000
  0
LINE
  5
287
100
AcDbEntity
  8
A1
  6
CONTINUOUS
 62
7
100
AcDbLine
 10
83.94425695739409
 20
115.9084397421508
 30
0.000000000000000
 11
83.97869295739409
 21
115.9930039421507
 31
0.000000000000000
  0
LINE
  5
288
100
AcDbEntity
  8
A1
  6
CONTINUOUS
 62
7
100
AcDbLine
 10
83.97869295739400
 20
115.9930039421508
 30
0.000000000000000
 11
84.00870995739399
 21
116.0584397421508
 31
0.000000000000000
  0
LINE
  5
289
100
AcDbEntity
  8
A1
  6
CONTINUOUS
 62
7
100
AcDbLine
 10
84.00870995739402
 20
116.0584397421508
 30
0.000000000000000
 11
84.02910175739405
 21
116.1011919421508
 31
0.000000000000000
  0
LINE
  5
28A
100
AcDbEntity
  8
A1
  6
CONTINUOUS
 62
7
100
AcDbLine
 10
84.02910175739407
 20
116.1011919421508
 30
0.000000000000000
 11
84.04069855739409
 21
116.1215653421508
 31
0.000000000000000
  0
LINE
  5
28B
100
AcDbEntity
  8
A1
  6
CONTINUOUS
 62
7
100
AcDbLine
 10
84.04069855739408
 20
116.1215653421508
 30
0.000000000000000
 11
84.06148715739414
 21
116.1493395421509
 31
0.000000000000000
  0
LINE
  5
28C
100
AcDbEntity
  8
A1
  6
CONTINUOUS
 62
7
100
AcDbLine
 10
84.06148715739408
 20
116.1493395421508
 30
0.000000000000000
 11
84.07614775739410
 21
116.1636949421508
 31
0.000000000000000
  0
LINE
  5
28D
100
AcDbEntity
  8
A1
  6
CONTINUOUS
 62
7
100
AcDbLine
 10
84.07614775739408
 20
116.1636949421508
 30
0.000000000000000
 11
84.10799595739411
 21
116.1903397421508
 31
0.000000000000000
  0
LINE
  5
28E
100
AcDbEntity
  8
A1
  6
CONTINUOUS
 62
7
100
AcDbLine
 10
84.10799595739404
 20
116.1903397421508
 30
0.000000000000000
 11
84.13685335739403
 21
116.2166155421508
 31
0.000000000000000
  0
LINE
  5
28F
100
AcDbEntity
  8
A1
  6
CONTINUOUS
 62
7
100
AcDbLine
 10
84.13685335739409
 20
116.2166155421509
 30
0.000000000000000
 11
84.15510275739409
 21
116.2350725421509
 31
0.000000000000000
  0
LINE
  5
290
100
AcDbEntity
  8
A1
  6
CONTINUOUS
 62
7
100
AcDbLine
 10
84.15510275739408
 20
116.2350725421508
 30
0.000000000000000
 11
84.18997215739411
 21
116.2735215421508
 31
0.000000000000000
  0
LINE
  5
291
100
AcDbEntity
  8
A1
  6
CONTINUOUS
 62
7
100
AcDbLine
 10
84.18997215739404
 20
116.2735215421508
 30
0.000000000000000
 11
84.22479275739406
 21
116.3147173421508
 31
0.000000000000000
  0
LINE
  5
292
100
AcDbEntity
  8
A1
  6
CONTINUOUS
 62
7
100
AcDbLine
 10
84.22479275739406
 20
116.3147173421508
 30
0.000000000000000
 11
84.25820335739405
 21
116.3570603421508
 31
0.000000000000000
  0
LINE
  5
293
100
AcDbEntity
  8
A1
  6
CONTINUOUS
 62
7
100
AcDbLine
 10
84.25820335739408
 20
116.3570603421508
 30
0.000000000000000
 11
84.28746975739405
 21
116.3972581421507
 31
0.000000000000000
  0
LINE
  5
294
100
AcDbEntity
  8
A1
  6
CONTINUOUS
 62
7
100
AcDbLine
 10
84.28746975739409
 20
116.3972581421508
 30
0.000000000000000
 11
84.31478295739409
 21
116.4388505421508
 31
0.000000000000000
  0
LINE
  5
295
100
AcDbEntity
  8
A1
  6
CONTINUOUS
 62
7
100
AcDbLine
 10
84.31478295739397
 20
116.4388505421508
 30
0.000000000000000
 11
84.35103175739401
 21
116.5038835421508
 31
0.000000000000000
  0
LINE
  5
296
100
AcDbEntity
  8
A1
  6
CONTINUOUS
 62
7
100
AcDbLine
 10
84.35103175739407
 20
116.5038835421508
 30
0.000000000000000
 11
84.38172015739407
 21
116.5719957421508
 31
0.000000000000000
  0
ARC
  5
297
100
AcDbEntity
  8
A1
  6
CONTINUOUS
 62
7
100
AcDbCircle
 10
84.01056535739409
 20
116.7211503421508
 30
0.000000000000000
 40
0.4000000381469728
100
AcDbArc
 50
338.1058170000000
 51
401.9554850000000
  0
ARC
  5
298
100
AcDbEntity
  8
A1
  6
CONTINUOUS
 62
7
100
AcDbCircle
 10
86.83649315739407
 20
119.2616533421508
 30
0.000000000000000
 40
3.400000324249268
100
AcDbArc
 50
219.8627030000000
 51
221.9554830000000
  0
ARC
  5
299
100
AcDbEntity
  8
A1
  6
CONTINUOUS
 62
7
100
AcDbCircle
 10
83.91967795739410
 20
116.8260423421508
 30
0.000000000000000
 40
0.4000000381469728
100
AcDbArc
 50
39.86270099999998
 51
103.7123650000000
  0
LINE
  5
29A
100
AcDbEntity
  8
A1
  6
CONTINUOUS
 62
7
100
AcDbLine
 10
82.21212175739406
 20
116.8835833421508
 30
0.000000000000000
 11
82.33753075739408
 21
116.8637133421508
 31
0.000000000000000
  0
LINE
  5
29B
100
AcDbEntity
  8
A1
  6
CONTINUOUS
 62
7
100
AcDbLine
 10
82.33753075739406
 20
116.8637133421508
 30
0.000000000000000
 11
82.46373935739408
 21
116.8494615421507
 31
0.000000000000000
  0
LINE
  5
29C
100
AcDbEntity
  8
A1
  6
CONTINUOUS
 62
7
100
AcDbLine
 10
82.46373935739402
 20
116.8494615421508
 30
0.000000000000000
 11
82.58533955739402
 21
116.8410509421508
 31
0.000000000000000
  0
LINE
  5
29D
100
AcDbEntity
  8
A1
  6
CONTINUOUS
 62
7
100
AcDbLine
 10
82.58533955739404
 20
116.8410509421508
 30
0.000000000000000
 11
82.70712915739405
 21
116.8383287421508
 31
0.000000000000000
  0
LINE
  5
29E
100
AcDbEntity
  8
A1
  6
CONTINUOUS
 62
7
100
AcDbLine
 10
82.70712915739405
 20
116.8383287421508
 30
0.000000000000000
 11
82.82371235739410
 21
116.8415971421508
 31
0.000000000000000
  0
LINE
  5
29F
100
AcDbEntity
  8
A1
  6
CONTINUOUS
 62
7
100
AcDbLine
 10
82.82371235739406
 20
116.8415971421508
 30
0.000000000000000
 11
82.94014315739405
 21
116.8508317421508
 31
0.000000000000000
  0
LINE
  5
2A0
100
AcDbEntity
  8
A1
  6
CONTINUOUS
 62
7
100
AcDbLine
 10
82.94014315739408
 20
116.8508317421508
 30
0.000000000000000
 11
82.99569115739405
 21
116.8574387421508
 31
0.000000000000000
  0
LINE
  5
2A1
100
AcDbEntity
  8
A1
  6
CONTINUOUS
 62
7
100
AcDbLine
 10
82.99569115739405
 20
116.8574387421508
 30
0.000000000000000
 11
83.05098295739413
 21
116.8657487421508
 31
0.000000000000000
  0
LINE
  5
2A2
100
AcDbEntity
  8
A1
  6
CONTINUOUS
 62
7
100
AcDbLine
 10
83.05098295739403
 20
116.8657487421508
 30
0.000000000000000
 11
83.10580475739403
 21
116.8760637421508
 31
0.000000000000000
  0
LINE
  5
2A3
100
AcDbEntity
  8
A1
  6
CONTINUOUS
 62
7
100
AcDbLine
 10
83.10580475739414
 20
116.8760637421509
 30
0.000000000000000
 11
83.19440935739414
 21
116.8981217421509
 31
0.000000000000000
  0
LINE
  5
2A4
100
AcDbEntity
  8
A1
  6
CONTINUOUS
 62
7
100
AcDbLine
 10
83.19440935739405
 20
116.8981217421508
 30
0.000000000000000
 11
83.26344635739409
 21
116.9185197421508
 31
0.000000000000000
  0
LINE
  5
2A5
100
AcDbEntity
  8
A1
  6
CONTINUOUS
 62
7
100
AcDbLine
 10
83.26344635739403
 20
116.9185197421508
 30
0.000000000000000
 11
83.30866735739406
 21
116.9326189421508
 31
0.000000000000000
  0
LINE
  5
2A6
100
AcDbEntity
  8
A1
  6
CONTINUOUS
 62
7
100
AcDbLine
 10
83.30866735739404
 20
116.9326189421508
 30
0.000000000000000
 11
83.33048735739406
 21
116.9411943421508
 31
0.000000000000000
  0
LINE
  5
2A7
100
AcDbEntity
  8
A1
  6
CONTINUOUS
 62
7
100
AcDbLine
 10
83.33048735739409
 20
116.9411943421508
 30
0.000000000000000
 11
83.36093175739407
 21
116.9578203421508
 31
0.000000000000000
  0
LINE
  5
2A8
100
AcDbEntity
  8
A1
  6
CONTINUOUS
 62
7
100
AcDbLine
 10
83.36093175739408
 20
116.9578203421508
 30
0.000000000000000
 11
83.37722795739404
 21
116.9702867421508
 31
0.000000000000000
  0
LINE
  5
2A9
100
AcDbEntity
  8
A1
  6
CONTINUOUS
 62
7
100
AcDbLine
 10
83.37722795739400
 20
116.9702867421508
 30
0.000000000000000
 11
83.40813615739403
 21
116.9980211421508
 31
0.000000000000000
  0
LINE
  5
2AA
100
AcDbEntity
  8
A1
  6
CONTINUOUS
 62
7
100
AcDbLine
 10
83.40813615739410
 20
116.9980211421509
 30
0.000000000000000
 11
83.43825095739409
 21
117.0228471421509
 31
0.000000000000000
  0
LINE
  5
2AB
100
AcDbEntity
  8
A1
  6
CONTINUOUS
 62
7
100
AcDbLine
 10
83.43825095739410
 20
117.0228471421508
 30
0.000000000000000
 11
83.45911895739407
 21
117.0382829421508
 31
0.000000000000000
  0
LINE
  5
2AC
100
AcDbEntity
  8
A1
  6
CONTINUOUS
 62
7
100
AcDbLine
 10
83.45911895739408
 20
117.0382829421508
 30
0.000000000000000
 11
83.50213655739410
 21
117.0673265421508
 31
0.000000000000000
  0
LINE
  5
2AD
100
AcDbEntity
  8
A1
  6
CONTINUOUS
 62
7
100
AcDbLine
 10
83.50213655739408
 20
117.0673265421508
 30
0.000000000000000
 11
83.54787015739410
 21
117.0959307421508
 31
0.000000000000000
  0
LINE
  5
2AE
100
AcDbEntity
  8
A1
  6
CONTINUOUS
 62
7
100
AcDbLine
 10
83.54787015739406
 20
117.0959307421508
 30
0.000000000000000
 11
83.59453755739408
 21
117.1229723421508
 31
0.000000000000000
  0
LINE
  5
2AF
100
AcDbEntity
  8
A1
  6
CONTINUOUS
 62
7
100
AcDbLine
 10
83.59453755739409
 20
117.1229723421508
 30
0.000000000000000
 11
83.63848895739409
 21
117.1462235421508
 31
0.000000000000000
  0
LINE
  5
2B0
100
AcDbEntity
  8
A1
  6
CONTINUOUS
 62
7
100
AcDbLine
 10
83.63848895739412
 20
117.1462235421508
 30
0.000000000000000
 11
83.68354515739412
 21
117.1673387421508
 31
0.000000000000000
  0
LINE
  5
2B1
100
AcDbEntity
  8
A1
  6
CONTINUOUS
 62
7
100
AcDbLine
 10
83.68354515739409
 20
117.1673387421508
 30
0.000000000000000
 11
83.75307635739411
 21
117.1939623421508
 31
0.000000000000000
  0
LINE
  5
2B2
100
AcDbEntity
  8
A1
  6
CONTINUOUS
 62
7
100
AcDbLine
 10
83.75307635739404
 20
117.1939623421508
 30
0.000000000000000
 11
83.82485995739403
 21
117.2146409421508
 31
0.000000000000000
  0
ARC
  5
2B3
100
AcDbEntity
  8
A1
  6
CONTINUOUS
 62
7
100
AcDbCircle
 10
86.83649315739407
 20
119.2616533421508
 30
0.000000000000000
 40
5.200000495910646
100
AcDbArc
 50
201.8765270000000
 51
207.2143810000000
  0
LINE
  5
2B4
100
AcDbEntity
  8
A1
  6
CONTINUOUS
 62
7
100
AcDbLine
 10
82.01094995739406
 20
117.3240923421508
 30
0.000000000000000
 11
82.07805195739407
 21
117.4318803421508
 31
0.000000000000000
  0
LINE
  5
2B5
100
AcDbEntity
  8
A1
  6
CONTINUOUS
 62
7
100
AcDbLine
 10
82.07805195739405
 20
117.4318803421508
 30
0.000000000000000
 11
82.14993915739404
 21
117.5365983421508
 31
0.000000000000000
  0
LINE
  5
2B6
100
AcDbEntity
  8
A1
  6
CONTINUOUS
 62
7
100
AcDbLine
 10
82.14993915739400
 20
117.5365983421508
 30
0.000000000000000
 11
82.22321195739401
 21
117.6340043421508
 31
0.000000000000000
  0
LINE
  5
2B7
100
AcDbEntity
  8
A1
  6
CONTINUOUS
 62
7
100
AcDbLine
 10
82.22321195739406
 20
117.6340043421509
 30
0.000000000000000
 11
82.30090975739404
 21
117.7278275421508
 31
0.000000000000000
  0
LINE
  5
2B8
100
AcDbEntity
  8
A1
  6
CONTINUOUS
 62
7
100
AcDbLine
 10
82.30090975739411
 20
117.7278275421508
 30
0.000000000000000
 11
82.37972435739408
 21
117.8137925421508
 31
0.000000000000000
  0
LINE
  5
2B9
100
AcDbEntity
  8
A1
  6
CONTINUOUS
 62
7
100
AcDbLine
 10
82.37972435739410
 20
117.8137925421508
 30
0.000000000000000
 11
82.46295195739410
 21
117.8957415421508
 31
0.000000000000000
  0
LINE
  5
2BA
100
AcDbEntity
  8
A1
  6
CONTINUOUS
 62
7
100
AcDbLine
 10
82.46295195739401
 20
117.8957415421508
 30
0.000000000000000
 11
82.50432155739404
 21
117.9333939421508
 31
0.000000000000000
  0
LINE
  5
2BB
100
AcDbEntity
  8
A1
  6
CONTINUOUS
 62
7
100
AcDbLine
 10
82.50432155739409
 20
117.9333939421508
 30
0.000000000000000
 11
82.54680815739410
 21
117.9697405421508
 31
0.000000000000000
  0
LINE
  5
2BC
100
AcDbEntity
  8
A1
  6
CONTINUOUS
 62
7
100
AcDbLine
 10
82.54680815739403
 20
117.9697405421508
 30
0.000000000000000
 11
82.59050315739398
 21
118.0044145421508
 31
0.000000000000000
  0
LINE
  5
2BD
100
AcDbEntity
  8
A1
  6
CONTINUOUS
 62
7
100
AcDbLine
 10
82.59050315739405
 20
118.0044145421509
 30
0.000000000000000
 11
82.66519795739407
 21
118.0569323421509
 31
0.000000000000000
  0
LINE
  5
2BE
100
AcDbEntity
  8
A1
  6
CONTINUOUS
 62
7
100
AcDbLine
 10
82.66519795739410
 20
118.0569323421508
 30
0.000000000000000
 11
82.72582415739411
 21
118.0957537421508
 31
0.000000000000000
  0
LINE
  5
2BF
100
AcDbEntity
  8
A1
  6
CONTINUOUS
 62
7
100
AcDbLine
 10
82.72582415739409
 20
118.0957537421508
 30
0.000000000000000
 11
82.76609515739408
 21
118.1206941421508
 31
0.000000000000000
  0
LINE
  5
2C0
100
AcDbEntity
  8
A1
  6
CONTINUOUS
 62
7
100
AcDbLine
 10
82.76609515739409
 20
118.1206941421509
 30
0.000000000000000
 11
82.78685935739411
 21
118.1315659421509
 31
0.000000000000000
  0
LINE
  5
2C1
100
AcDbEntity
  8
A1
  6
CONTINUOUS
 62
7
100
AcDbLine
 10
82.78685935739408
 20
118.1315659421508
 30
0.000000000000000
 11
82.81936675739406
 21
118.1436891421508
 31
0.000000000000000
  0
LINE
  5
2C2
100
AcDbEntity
  8
A1
  6
CONTINUOUS
 62
7
100
AcDbLine
 10
82.81936675739405
 20
118.1436891421509
 30
0.000000000000000
 11
82.83945955739404
 21
118.1478411421508
 31
0.000000000000000
  0
LINE
  5
2C3
100
AcDbEntity
  8
A1
  6
CONTINUOUS
 62
7
100
AcDbLine
 10
82.83945955739409
 20
118.1478411421508
 30
0.000000000000000
 11
82.88065815739411
 21
118.1530367421508
 31
0.000000000000000
  0
LINE
  5
2C4
100
AcDbEntity
  8
A1
  6
CONTINUOUS
 62
7
100
AcDbLine
 10
82.88065815739407
 20
118.1530367421508
 30
0.000000000000000
 11
82.91914095739408
 21
118.1595385421508
 31
0.000000000000000
  0
LINE
  5
2C5
100
AcDbEntity
  8
A1
  6
CONTINUOUS
 62
7
100
AcDbLine
 10
82.91914095739406
 20
118.1595385421508
 30
0.000000000000000
 11
82.94447055739400
 21
118.1652009421508
 31
0.000000000000000
  0
LINE
  5
2C6
100
AcDbEntity
  8
A1
  6
CONTINUOUS
 62
7
100
AcDbLine
 10
82.94447055739407
 20
118.1652009421508
 30
0.000000000000000
 11
82.99459255739411
 21
118.1786943421508
 31
0.000000000000000
  0
LINE
  5
2C7
100
AcDbEntity
  8
A1
  6
CONTINUOUS
 62
7
100
AcDbLine
 10
82.99459255739407
 20
118.1786943421508
 30
0.000000000000000
 11
83.04616115739410
 21
118.1945253421508
 31
0.000000000000000
  0
LINE
  5
2C8
100
AcDbEntity
  8
A1
  6
CONTINUOUS
 62
7
100
AcDbLine
 10
83.04616115739412
 20
118.1945253421508
 30
0.000000000000000
 11
83.09715595739408
 21
118.2120835421508
 31
0.000000000000000
  0
LINE
  5
2C9
100
AcDbEntity
  8
A1
  6
CONTINUOUS
 62
7
100
AcDbLine
 10
83.09715595739408
 20
118.2120835421508
 30
0.000000000000000
 11
83.14351215739408
 21
118.2300753421508
 31
0.000000000000000
  0
LINE
  5
2CA
100
AcDbEntity
  8
A1
  6
CONTINUOUS
 62
7
100
AcDbLine
 10
83.14351215739413
 20
118.2300753421508
 30
0.000000000000000
 11
83.18897115739411
 21
118.2502993421508
 31
0.000000000000000
  0
LINE
  5
2CB
100
AcDbEntity
  8
A1
  6
CONTINUOUS
 62
7
100
AcDbLine
 10
83.18897115739404
 20
118.2502993421508
 30
0.000000000000000
 11
83.25462675739408
 21
118.2854097421508
 31
0.000000000000000
  0
LINE
  5
2CC
100
AcDbEntity
  8
A1
  6
CONTINUOUS
 62
7
100
AcDbLine
 10
83.25462675739409
 20
118.2854097421508
 30
0.000000000000000
 11
83.31726715739410
 21
118.3261201421508
 31
0.000000000000000
  0
ARC
  5
2CD
100
AcDbEntity
  8
A1
  6
CONTINUOUS
 62
7
100
AcDbCircle
 10
83.08567535739411
 20
118.6522585421508
 30
0.000000000000000
 40
0.4000000381469728
100
AcDbArc
 50
305.3785460000000
 51
369.2282100000000
  0
ARC
  5
2CE
100
AcDbEntity
  8
A1
  6
CONTINUOUS
 62
7
100
AcDbCircle
 10
86.83649315739407
 20
117.7616533421508
 30
0.000000000000000
 40
1.500000143051147
100
AcDbArc
 50
202.8853800000000
 51
337.1146200000000
  0
ARC
  5
2CF
100
AcDbEntity
  8
A1
  6
CONTINUOUS
 62
7
100
AcDbCircle
 10
86.83649315739407
 20
119.2616533421508
 30
0.000000000000000
 40
2.500000238418580
100
AcDbArc
 50
303.5573100000000
 51
596.4426900000000
  0
ARC
  5
2D0
100
AcDbEntity
  8
A1
  6
CONTINUOUS
 62
7
100
AcDbCircle
 10
86.83649315739407
 20
119.2616533421508
 30
0.000000000000000
 40
2.300000219345406
100
AcDbArc
 50
302.0239980000000
 51
597.9760020000000
  0
ARC
  5
2D1
100
AcDbEntity
  8
A1
  6
CONTINUOUS
 62
7
100
AcDbCircle
 10
86.83649315739407
 20
117.7616533421508
 30
0.000000000000000
 40
1.300000123977684
100
AcDbArc
 50
200.2522460000000
 51
339.7477540000000
  0
LINE
  5
2D2
100
AcDbEntity
  8
A1
  6
CONTINUOUS
 62
7
100
AcDbLine
 10
88.05612215739410
 20
117.3116533421508
 30
0.000000000000000
 11
88.21842075739407
 21
117.1783189421508
 31
0.000000000000000
  0
LINE
  5
2D3
100
AcDbEntity
  8
A1
  6
CONTINUOUS
 62
7
100
AcDbLine
 10
85.61686435739405
 20
117.3116533421508
 30
0.000000000000000
 11
85.45456575739408
 21
117.1783189421508
 31
0.000000000000000
  0
LINE
  5
2D4
100
AcDbEntity
  8
A4
  6
CENTER
 62
1
100
AcDbLine
 10
121.0528454198498
 20
119.2616533421508
 30
0.000000000000000
 11
129.5528454198499
 21
119.2616533421508
 31
0.000000000000000
  0
LINE
  5
2D5
100
AcDbEntity
  8
A1
  6
CONTINUOUS
 62
7
100
AcDbLine
 10
121.5528454198498
 20
124.4616533421508
 30
0.000000000000000
 11
121.5528454198499
 21
114.0616533421508
 31
0.000000000000000
  0
LINE
  5
2D6
100
AcDbEntity
  8
A1
  6
CONTINUOUS
 62
7
100
AcDbLine
 10
125.1528454198498
 20
124.4616533421508
 30
0.000000000000000
 11
125.1528454198499
 21
114.0616533421508
 31
0.000000000000000
  0
LINE
  5
2D7
100
AcDbEntity
  8
A1
  6
CONTINUOUS
 62
7
100
AcDbLine
 10
121.5528454198499
 20
114.0616533421508
 30
0.000000000000000
 11
125.1528454198499
 21
114.0616533421508
 31
0.000000000000000
  0
LINE
  5
2D8
100
AcDbEntity
  8
A1
  6
CONTINUOUS
 62
7
100
AcDbLine
 10
121.5528454198498
 20
124.4616533421508
 30
0.000000000000000
 11
125.1528454198498
 21
124.4616533421508
 31
0.000000000000000
  0
LINE
  5
2D9
100
AcDbEntity
  8
A4
  6
CENTER
 62
1
100
AcDbLine
 10
121.0580180198499
 20
114.8616533421508
 30
0.000000000000000
 11
125.3528454198499
 21
114.8616533421508
 31
0.000000000000000
  0
LINE
  5
2DA
100
AcDbEntity
  8
A1
  6
CONTINUOUS
 62
7
100
AcDbLine
 10
121.5528454198499
 20
115.8616533421508
 30
0.000000000000000
 11
125.1528454198499
 21
115.8616533421508
 31
0.000000000000000
  0
LINE
  5
2DB
100
AcDbEntity
  8
A1
  6
CONTINUOUS
 62
7
100
AcDbLine
 10
121.5528454198498
 20
122.6616533421508
 30
0.000000000000000
 11
125.1528454198498
 21
122.6616533421508
 31
0.000000000000000
  0
LINE
  5
2DC
100
AcDbEntity
  8
A4
  6
CENTER
 62
1
100
AcDbLine
 10
121.0750042198498
 20
123.6616533421508
 30
0.000000000000000
 11
125.3973736198499
 21
123.6616533421508
 31
0.000000000000000
  0
LINE
  5
2DD
100
AcDbEntity
  8
A1
  6
CONTINUOUS
 62
7
100
AcDbLine
 10
127.3528454198499
 20
122.8573441421508
 30
0.000000000000000
 11
127.3528454198499
 21
112.1802201421508
 31
0.000000000000000
  0
LINE
  5
2DE
100
AcDbEntity
  8
A1
  6
CONTINUOUS
 62
7
100
AcDbLine
 10
127.3528454198499
 20
126.3430467421508
 30
0.000000000000000
 11
127.3528454198499
 21
122.8573441421508
 31
0.000000000000000
  0
LINE
  5
2DF
100
AcDbEntity
  8
A1
  6
CONTINUOUS
 62
7
100
AcDbLine
 10
125.6528454198498
 20
122.5616533421508
 30
0.000000000000000
 11
125.6528454198498
 21
120.8437577421508
 31
0.000000000000000
  0
LINE
  5
2E0
100
AcDbEntity
  8
A1
  6
CONTINUOUS
 62
7
100
AcDbLine
 10
125.6528454198498
 20
120.8437577421508
 30
0.000000000000000
 11
125.6528454198499
 21
115.9616533421508
 31
0.000000000000000
  0
LINE
  5
2E1
100
AcDbEntity
  8
A1
  6
CONTINUOUS
 62
7
100
AcDbLine
 10
129.0528454198499
 20
131.2616549421508
 30
0.000000000000000
 11
127.0528454198498
 21
131.2616549421508
 31
0.000000000000000
  0
LINE
  5
2E2
100
AcDbEntity
  8
A1
  6
CONTINUOUS
 62
7
100
AcDbLine
 10
129.0528454198499
 20
130.2616533421508
 30
0.000000000000000
 11
127.0528454198498
 21
130.2616533421508
 31
0.000000000000000
  0
LINE
  5
2E3
100
AcDbEntity
  8
A1
  6
CONTINUOUS
 62
7
100
AcDbLine
 10
129.0528454198499
 20
108.2616533421508
 30
0.000000000000000
 11
127.0528454198499
 21
108.2616533421508
 31
0.000000000000000
  0
LINE
  5
2E4
100
AcDbEntity
  8
A1
  6
CONTINUOUS
 62
7
100
AcDbLine
 10
129.0528454198499
 20
107.2616533421508
 30
0.000000000000000
 11
127.0528454198499
 21
107.2616533421508
 31
0.000000000000000
  0
LINE
  5
2E5
100
AcDbEntity
  8
A1
  6
CONTINUOUS
 62
7
100
AcDbLine
 10
127.5528454198499
 20
112.7118883421508
 30
0.000000000000000
 11
129.0528454198499
 21
112.7118883421508
 31
0.000000000000000
  0
LINE
  5
2E6
100
AcDbEntity
  8
A1
  6
CONTINUOUS
 62
7
100
AcDbLine
 10
127.5528454198498
 20
125.8114183421508
 30
0.000000000000000
 11
129.0528454198499
 21
125.8114183421508
 31
0.000000000000000
  0
LINE
  5
2E7
100
AcDbEntity
  8
A1
  6
CONTINUOUS
 62
7
100
AcDbLine
 10
127.5528454198499
 20
126.8394975421508
 30
0.000000000000000
 11
127.0528454198499
 21
126.8487687421508
 31
0.000000000000000
  0
LINE
  5
2E8
100
AcDbEntity
  8
A1
  6
CONTINUOUS
 62
7
100
AcDbLine
 10
127.5528454198498
 20
126.0734087421508
 30
0.000000000000000
 11
129.0528454198499
 21
126.0734087421508
 31
0.000000000000000
  0
LINE
  5
2E9
100
AcDbEntity
  8
A1
  6
CONTINUOUS
 62
7
100
AcDbLine
 10
127.0528454198498
 20
126.3486817421508
 30
0.000000000000000
 11
127.0528454198498
 21
126.8487687421508
 31
0.000000000000000
  0
LINE
  5
2EA
100
AcDbEntity
  8
A1
  6
CONTINUOUS
 62
7
100
AcDbLine
 10
127.0528454198499
 20
111.6745377421508
 30
0.000000000000000
 11
127.5528454198499
 21
111.6838091421508
 31
0.000000000000000
  0
LINE
  5
2EB
100
AcDbEntity
  8
A1
  6
CONTINUOUS
 62
7
100
AcDbLine
 10
127.5528454198499
 20
112.4498979421508
 30
0.000000000000000
 11
129.0528454198499
 21
112.4498979421508
 31
0.000000000000000
  0
LINE
  5
2EC
100
AcDbEntity
  8
A1
  6
CONTINUOUS
 62
7
100
AcDbLine
 10
127.5528454198499
 20
112.4592577421508
 30
0.000000000000000
 11
127.5528454198499
 21
112.4498979421508
 31
0.000000000000000
  0
LINE
  5
2ED
100
AcDbEntity
  8
A1
  6
CONTINUOUS
 62
7
100
AcDbLine
 10
127.0528454198499
 20
112.1746233421508
 30
0.000000000000000
 11
127.0528454198499
 21
111.6745377421508
 31
0.000000000000000
  0
LINE
  5
2EE
100
AcDbEntity
  8
A1
  6
CONTINUOUS
 62
7
100
AcDbLine
 10
125.5637860198498
 20
120.6714647421508
 30
0.000000000000000
 11
125.5637860198498
 21
116.3210253421508
 31
0.000000000000000
  0
LINE
  5
2EF
100
AcDbEntity
  8
A1
  6
CONTINUOUS
 62
7
100
AcDbLine
 10
125.5637860198498
 20
122.2022799421508
 30
0.000000000000000
 11
125.5637860198498
 21
120.6714647421508
 31
0.000000000000000
  0
LINE
  5
2F0
100
AcDbEntity
  8
A1
  6
CONTINUOUS
 62
7
100
AcDbLine
 10
125.3528454198499
 20
122.0081345421508
 30
0.000000000000000
 11
125.3528454198499
 21
120.5783875421508
 31
0.000000000000000
  0
LINE
  5
2F1
100
AcDbEntity
  8
A1
  6
CONTINUOUS
 62
7
100
AcDbLine
 10
125.3528454198499
 20
120.5783875421508
 30
0.000000000000000
 11
125.3528454198499
 21
116.5151719421508
 31
0.000000000000000
  0
LINE
  5
2F2
100
AcDbEntity
  8
A1
  6
CONTINUOUS
 62
7
100
AcDbLine
 10
125.3973736198499
 20
122.0913407421508
 30
0.000000000000000
 11
125.3973736198499
 21
120.6182771421508
 31
0.000000000000000
  0
LINE
  5
2F3
100
AcDbEntity
  8
A1
  6
CONTINUOUS
 62
7
100
AcDbLine
 10
125.3973736198499
 20
120.6182771421508
 30
0.000000000000000
 11
125.3973736198499
 21
116.4319657421508
 31
0.000000000000000
  0
LINE
  5
2F4
100
AcDbEntity
  8
A1
  6
CONTINUOUS
 62
7
100
AcDbLine
 10
127.3528454198499
 20
126.2616533421508
 30
0.000000000000000
 11
127.4328288198499
 21
126.3416367421508
 31
0.000000000000000
  0
LINE
  5
2F5
100
AcDbEntity
  8
A1
  6
CONTINUOUS
 62
7
100
AcDbLine
 10
127.3528454198499
 20
112.2616533421508
 30
0.000000000000000
 11
127.4328288198499
 21
112.1816697421508
 31
0.000000000000000
  0
LINE
  5
2F6
100
AcDbEntity
  8
A1
  6
CONTINUOUS
 62
7
100
AcDbLine
 10
127.5527904198498
 20
126.3394121421508
 30
0.000000000000000
 11
127.0528454198498
 21
126.3486817421508
 31
0.000000000000000
  0
LINE
  5
2F7
100
AcDbEntity
  8
A1
  6
CONTINUOUS
 62
7
100
AcDbLine
 10
127.0528454198499
 20
112.1746233421508
 30
0.000000000000000
 11
127.5527904198498
 21
112.1838945421508
 31
0.000000000000000
  0
LINE
  5
2F8
100
AcDbEntity
  8
A1
  6
CONTINUOUS
 62
7
100
AcDbLine
 10
127.3528454198499
 20
126.3431199421508
 30
0.000000000000000
 11
127.4328288198499
 21
126.3416367421509
 31
0.000000000000000
  0
LINE
  5
2F9
100
AcDbEntity
  8
A1
  6
CONTINUOUS
 62
7
100
AcDbLine
 10
126.0528454198499
 20
111.7616533421508
 30
0.000000000000000
 11
127.0528484198499
 21
111.7616533421508
 31
0.000000000000000
  0
LINE
  5
2FA
100
AcDbEntity
  8
A1
  6
CONTINUOUS
 62
7
100
AcDbLine
 10
126.0528454198498
 20
126.7616533421508
 30
0.000000000000000
 11
127.0528484198499
 21
126.7616533421508
 31
0.000000000000000
  0
ARC
  5
2FB
100
AcDbEntity
  8
A1
  6
CONTINUOUS
 62
7
100
AcDbCircle
 10
126.0528454198499
 20
112.1616533421508
 30
0.000000000000000
 40
0.4000000450123212
100
AcDbArc
 50
179.9999970000000
 51
269.9999990000001
  0
ARC
  5
2FC
100
AcDbEntity
  8
A1
  6
CONTINUOUS
 62
7
100
AcDbCircle
 10
126.0528454198499
 20
126.3616533421508
 30
0.000000000000000
 40
0.4000000450123243
100
AcDbArc
 50
89.99999500000001
 51
179.9999970000000
  0
ARC
  5
2FD
100
AcDbEntity
  8
A1
  6
CONTINUOUS
 62
7
100
AcDbCircle
 10
125.4528454198499
 20
116.1546159421508
 30
0.000000000000000
 40
0.2000000136176240
100
AcDbArc
 50
2.999999986417573e-06
 51
56.30993300000003
  0
ARC
  5
2FE
100
AcDbEntity
  8
A1
  6
CONTINUOUS
 62
7
100
AcDbCircle
 10
125.4528454198499
 20
122.3686907421508
 30
0.000000000000000
 40
0.2000000136176232
100
AcDbArc
 50
303.6900650000000
 51
360.0000030000000
  0
LINE
  5
2FF
100
AcDbEntity
  8
A1
  6
CONTINUOUS
 62
7
100
AcDbLine
 10
125.3973736198499
 20
122.0913407421508
 30
0.000000000000000
 11
125.5637860198498
 21
122.2022799421508
 31
0.000000000000000
  0
LINE
  5
300
100
AcDbEntity
  8
A1
  6
CONTINUOUS
 62
7
100
AcDbLine
 10
125.3973736198499
 20
116.4319657421508
 30
0.000000000000000
 11
125.5637860198499
 21
116.3210253421508
 31
0.000000000000000
  0
ARC
  5
301
100
AcDbEntity
  8
A1
  6
CONTINUOUS
 62
7
100
AcDbCircle
 10
125.4528454198499
 20
116.5151719421508
 30
0.000000000000000
 40
0.1000000144963538
100
AcDbArc
 50
179.9999970000000
 51
236.3099310000000
  0
ARC
  5
302
100
AcDbEntity
  8
A1
  6
CONTINUOUS
 62
7
100
AcDbCircle
 10
125.4528454198499
 20
122.0081345421508
 30
0.000000000000000
 40
0.1000000144975149
100
AcDbArc
 50
123.6900670000000
 51
179.9999970000000
  0
LINE
  5
303
100
AcDbEntity
  8
A1
  6
CONTINUOUS
 62
7
100
AcDbLine
 10
125.1528454198498
 20
121.5116533421508
 30
0.000000000000000
 11
125.3528454198499
 21
121.5116533421508
 31
0.000000000000000
  0
LINE
  5
304
100
AcDbEntity
  8
A1
  6
CONTINUOUS
 62
7
100
AcDbLine
 10
125.1528454198498
 20
117.0116533421508
 30
0.000000000000000
 11
125.3528454198499
 21
117.0116533421508
 31
0.000000000000000
  0
LINE
  5
305
100
AcDbEntity
  8
A4
  6
CENTER
 62
1
100
AcDbLine
 10
85.28649305725826
 20
128.7616533421508
 30
0.000000000000000
 11
88.38649325752986
 21
128.7616533421508
 31
0.000000000000000
  0
LINE
  5
306
100
AcDbEntity
  8
A4
  6
CENTER
 62
1
100
AcDbLine
 10
78.83649244213832
 20
119.2616533421508
 30
0.000000000000000
 11
94.83649387264978
 21
119.2616533421508
 31
0.000000000000000
  0
LINE
  5
307
100
AcDbEntity
  8
A1
  6
CONTINUOUS
 62
7
100
AcDbLine
 10
129.0528454198499
 20
131.2616549421508
 30
0.000000000000000
 11
129.0528454198499
 21
107.2616533421508
 31
0.000000000000000
  0
LINE
  5
308
100
AcDbEntity
  8
A1
  6
CONTINUOUS
 62
7
100
AcDbLine
 10
127.5528454198498
 20
126.8394975421508
 30
0.000000000000000
 11
127.5528454198499
 21
111.6838091421508
 31
0.000000000000000
  0
LINE
  5
309
100
AcDbEntity
  8
A1
  6
CONTINUOUS
 62
7
100
AcDbLine
 10
126.0528454198498
 20
126.7616533421508
 30
0.000000000000000
 11
126.0528454198499
 21
111.7616533421508
 31
0.000000000000000
  0
LINE
  5
30A
100
AcDbEntity
  8
A1
  6
CONTINUOUS
 62
7
100
AcDbLine
 10
125.6528454198498
 20
126.3616533421508
 30
0.000000000000000
 11
125.6528454198499
 21
112.1616533421508
 31
0.000000000000000
  0
LINE
  5
30B
100
AcDbEntity
  8
A1
  6
CONTINUOUS
 62
7
100
AcDbLine
 10
127.0528454198498
 20
131.2616549421508
 30
0.000000000000000
 11
127.0528454198498
 21
126.8487687421508
 31
0.000000000000000
  0
LINE
  5
30C
100
AcDbEntity
  8
A1
  6
CONTINUOUS
 62
7
100
AcDbLine
 10
127.0528454198499
 20
111.6745377421508
 30
0.000000000000000
 11
127.0528454198499
 21
107.2616533421508
 31
0.000000000000000
  0
CIRCLE
  5
30D
100
AcDbEntity
  8
A1
  6
CONTINUOUS
 62
7
100
AcDbCircle
 10
163.0488683039408
 20
128.7616563250320
 30
0.000000000000000
 40
1.050000100135803
  0
ARC
  5
30E
100
AcDbEntity
  8
A1
  6
CONTINUOUS
 62
7
100
AcDbCircle
 10
160.5488683039408
 20
130.2616563250320
 30
0.000000000000000
 40
1.000000095367432
100
AcDbArc
 50
90.00000499999999
 51
180.0000000000049
  0
ARC
  5
30F
100
AcDbEntity
  8
A1
  6
CONTINUOUS
 62
7
100
AcDbCircle
 10
165.5488683039408
 20
108.2616563250319
 30
0.000000000000000
 40
1.000000095367432
100
AcDbArc
 50
270.0000000000000
 51
360.0000000000000
  0
ARC
  5
310
100
AcDbEntity
  8
A1
  6
CONTINUOUS
 62
7
100
AcDbCircle
 10
160.5488683039408
 20
108.2616563250319
 30
0.000000000000000
 40
1.000000095367433
100
AcDbArc
 50
179.9999970000000
 51
270.0000000000000
  0
ARC
  5
311
100
AcDbEntity
  8
A1
  6
CONTINUOUS
 62
7
100
AcDbCircle
 10
163.0488683039408
 20
119.2616563250319
 30
0.000000000000000
 40
7.500000715255737
100
AcDbArc
 50
299.1553624952957
 51
420.8446375047043
  0
ARC
  5
312
100
AcDbEntity
  8
A1
  6
CONTINUOUS
 62
7
100
AcDbCircle
 10
163.0488683039408
 20
119.2616563250319
 30
0.000000000000000
 40
7.500000715255738
100
AcDbArc
 50
119.1553624952956
 51
240.8446375047043
  0
ARC
  5
313
100
AcDbEntity
  8
A1
  6
CONTINUOUS
 62
7
100
AcDbCircle
 10
159.2488683039408
 20
126.0734116904271
 30
0.000000000000000
 40
0.3000000000000000
100
AcDbArc
 50
299.1553624952956
 51
360.0000000000000
  0
ARC
  5
314
100
AcDbEntity
  8
A1
  6
CONTINUOUS
 62
7
100
AcDbCircle
 10
165.5488683039408
 20
130.2616563250320
 30
0.000000000000000
 40
1.000000095367432
100
AcDbArc
 50
3.000000056500000e-06
 51
90.00000000000001
  0
ARC
  5
315
100
AcDbEntity
  8
A1
  6
CONTINUOUS
 62
7
100
AcDbCircle
 10
163.0488683039408
 20
109.7616563250319
 30
0.000000000000000
 40
1.300000123977661
100
AcDbArc
 50
36.12893153587828
 51
143.8710684641188
  0
ARC
  5
316
100
AcDbEntity
  8
A1
  6
CONTINUOUS
 62
7
100
AcDbCircle
 10
163.0488683039408
 20
109.7616563250319
 30
0.000000000000000
 40
1.300000123977661
100
AcDbArc
 50
216.1289290000000
 51
323.8710684641207
  0
ARC
  5
317
100
AcDbEntity
  8
A1
  6
CONTINUOUS
 62
7
100
AcDbCircle
 10
159.2488683039408
 20
112.4499009596367
 30
0.000000000000000
 40
0.3000000000000000
100
AcDbArc
 50
0.000000000000000
 51
60.84463750470438
  0
ARC
  5
318
100
AcDbEntity
  8
A1
  6
CONTINUOUS
 62
7
100
AcDbCircle
 10
166.8488683039409
 20
112.4499009596367
 30
0.000000000000000
 40
0.3000000000000000
100
AcDbArc
 50
119.1553624952956
 51
180.0000000000000
  0
ARC
  5
319
100
AcDbEntity
  8
A1
  6
CONTINUOUS
 62
7
100
AcDbCircle
 10
166.8488683039409
 20
126.0734116904271
 30
0.000000000000000
 40
0.3000000000000000
100
AcDbArc
 50
180.0000000000000
 51
240.8446375047044
  0
LINE
  5
31A
100
AcDbEntity
  8
A1
  6
CONTINUOUS
 62
7
100
AcDbLine
 10
159.5488683039408
 20
126.0734116904271
 30
0.000000000000000
 11
159.5488683039408
 21
130.2616563250319
 31
0.000000000000000
  0
LINE
  5
31B
100
AcDbEntity
  8
A1
  6
CONTINUOUS
 62
7
100
AcDbLine
 10
166.5488683993082
 20
130.2616563773919
 30
0.000000000000000
 11
166.5488683039408
 21
126.0734116904271
 31
0.000000000000000
  0
LINE
  5
31C
100
AcDbEntity
  8
A1
  6
CONTINUOUS
 62
7
100
AcDbLine
 10
166.5488683039408
 20
112.4499009596367
 30
0.000000000000000
 11
166.5488683039408
 21
108.2616563250319
 31
0.000000000000000
  0
LINE
  5
31D
100
AcDbEntity
  8
A1
  6
CONTINUOUS
 62
7
100
AcDbLine
 10
165.5488683039408
 20
107.2616562296644
 30
0.000000000000000
 11
160.5488683039408
 21
107.2616563250319
 31
0.000000000000000
  0
LINE
  5
31E
100
AcDbEntity
  8
A1
  6
CONTINUOUS
 62
7
100
AcDbLine
 10
159.5488682085734
 20
108.2616563773918
 30
0.000000000000000
 11
159.5488683039408
 21
112.4499009596367
 31
0.000000000000000
  0
LINE
  5
31F
100
AcDbEntity
  8
A1
  6
CONTINUOUS
 62
7
100
AcDbLine
 10
164.0988683039409
 20
110.5281419250319
 30
0.000000000000000
 11
164.0988683039409
 21
108.9951707250319
 31
0.000000000000000
  0
LINE
  5
320
100
AcDbEntity
  8
A1
  6
CONTINUOUS
 62
7
100
AcDbLine
 10
160.5488682166743
 20
131.2616564203994
 30
0.000000000000000
 11
165.5488683039408
 21
131.2616579250319
 31
0.000000000000000
  0
LINE
  5
321
100
AcDbEntity
  8
A1
  6
CONTINUOUS
 62
7
100
AcDbLine
 10
161.9988682242471
 20
108.9951707380932
 30
0.000000000000000
 11
161.9988683039410
 21
110.5281419250319
 31
0.000000000000000
  0
LINE
  5
322
100
AcDbEntity
  8
A4
  6
CENTER
 62
1
100
AcDbLine
 10
161.4988682038050
 20
128.7616563250319
 30
0.000000000000000
 11
164.5988684040766
 21
128.7616563250319
 31
0.000000000000000
  0
LINE
  5
323
100
AcDbEntity
  8
A4
  6
CENTER
 62
1
100
AcDbLine
 10
163.0488683039408
 20
131.7616579250319
 30
0.000000000000000
 11
163.0488683039408
 21
106.7616563250319
 31
0.000000000000000
  0
LINE
  5
324
100
AcDbEntity
  8
A4
  6
CENTER
 62
1
100
AcDbLine
 10
161.3588659039409
 20
109.7616563250319
 30
0.000000000000000
 11
164.7388707039409
 21
109.7616563250319
 31
0.000000000000000
  0
LINE
  5
325
100
AcDbEntity
  8
A4
  6
CENTER
 62
1
100
AcDbLine
 10
172.0488690191966
 20
119.2616563250319
 30
0.000000000000000
 11
161.5488683039408
 21
119.2616563250319
 31
0.000000000000000
  0
LINE
  5
326
100
AcDbEntity
  8
A4
  6
CENTER
 62
1
100
AcDbLine
 10
164.5488683039408
 20
119.2616563250319
 30
0.000000000000000
 11
154.0488675886851
 21
119.2616563250319
 31
0.000000000000000
  0
LINE
  5
327
100
AcDbEntity
  8
A4
  6
CENTER
 62
1
100
AcDbLine
 10
51.78902285657553
 20
119.2616533421508
 30
0.000000000000000
 11
43.28902285657553
 21
119.2616533421508
 31
0.000000000000000
  0
LINE
  5
328
100
AcDbEntity
  8
A1
  6
CONTINUOUS
 62
7
100
AcDbLine
 10
51.28902285657552
 20
124.4616533421508
 30
0.000000000000000
 11
51.28902285657554
 21
114.0616533421508
 31
0.000000000000000
  0
LINE
  5
329
100
AcDbEntity
  8
A1
  6
CONTINUOUS
 62
7
100
AcDbLine
 10
47.68902285657553
 20
124.4616533421508
 30
0.000000000000000
 11
47.68902285657554
 21
114.0616533421508
 31
0.000000000000000
  0
LINE
  5
32A
100
AcDbEntity
  8
A1
  6
CONTINUOUS
 62
7
100
AcDbLine
 10
51.28902285657554
 20
114.0616533421508
 30
0.000000000000000
 11
47.68902285657554
 21
114.0616533421508
 31
0.000000000000000
  0
LINE
  5
32B
100
AcDbEntity
  8
A1
  6
CONTINUOUS
 62
7
100
AcDbLine
 10
51.28902285657552
 20
124.4616533421508
 30
0.000000000000000
 11
47.68902285657553
 21
124.4616533421508
 31
0.000000000000000
  0
LINE
  5
32C
100
AcDbEntity
  8
A4
  6
CENTER
 62
1
100
AcDbLine
 10
51.78385025657553
 20
114.8616533421508
 30
0.000000000000000
 11
47.48902285657552
 21
114.8616533421508
 31
0.000000000000000
  0
LINE
  5
32D
100
AcDbEntity
  8
A1
  6
CONTINUOUS
 62
7
100
AcDbLine
 10
51.28902285657553
 20
115.8616533421508
 30
0.000000000000000
 11
47.68902285657553
 21
115.8616533421508
 31
0.000000000000000
  0
LINE
  5
32E
100
AcDbEntity
  8
A1
  6
CONTINUOUS
 62
7
100
AcDbLine
 10
51.28902285657552
 20
122.6616533421508
 30
0.000000000000000
 11
47.68902285657553
 21
122.6616533421508
 31
0.000000000000000
  0
LINE
  5
32F
100
AcDbEntity
  8
A4
  6
CENTER
 62
1
100
AcDbLine
 10
51.76686405657552
 20
123.6616533421508
 30
0.000000000000000
 11
47.44449465657551
 21
123.6616533421508
 31
0.000000000000000
  0
LINE
  5
330
100
AcDbEntity
  8
A1
  6
CONTINUOUS
 62
7
100
AcDbLine
 10
45.48902285657551
 20
122.8573441421508
 30
0.000000000000000
 11
45.48902285657552
 21
112.1802201421508
 31
0.000000000000000
  0
LINE
  5
331
100
AcDbEntity
  8
A1
  6
CONTINUOUS
 62
7
100
AcDbLine
 10
45.48902285657551
 20
126.3430467421507
 30
0.000000000000000
 11
45.48902285657551
 21
122.8573441421508
 31
0.000000000000000
  0
LINE
  5
332
100
AcDbEntity
  8
A1
  6
CONTINUOUS
 62
7
100
AcDbLine
 10
47.18902285657553
 20
122.5616533421508
 30
0.000000000000000
 11
47.18902285657553
 21
120.8437577421508
 31
0.000000000000000
  0
LINE
  5
333
100
AcDbEntity
  8
A1
  6
CONTINUOUS
 62
7
100
AcDbLine
 10
47.18902285657553
 20
120.8437577421508
 30
0.000000000000000
 11
47.18902285657553
 21
115.9616533421508
 31
0.000000000000000
  0
LINE
  5
334
100
AcDbEntity
  8
A1
  6
CONTINUOUS
 62
7
100
AcDbLine
 10
43.78902285657551
 20
131.2616549421508
 30
0.000000000000000
 11
45.78902285657551
 21
131.2616549421508
 31
0.000000000000000
  0
LINE
  5
335
100
AcDbEntity
  8
A1
  6
CONTINUOUS
 62
7
100
AcDbLine
 10
43.78902285657551
 20
130.2616533421508
 30
0.000000000000000
 11
45.78902285657551
 21
130.2616533421508
 31
0.000000000000000
  0
LINE
  5
336
100
AcDbEntity
  8
A1
  6
CONTINUOUS
 62
7
100
AcDbLine
 10
43.78902285657554
 20
108.2616533421508
 30
0.000000000000000
 11
45.78902285657554
 21
108.2616533421508
 31
0.000000000000000
  0
LINE
  5
337
100
AcDbEntity
  8
A1
  6
CONTINUOUS
 62
7
100
AcDbLine
 10
43.78902285657554
 20
107.2616533421508
 30
0.000000000000000
 11
45.78902285657554
 21
107.2616533421508
 31
0.000000000000000
  0
LINE
  5
338
100
AcDbEntity
  8
A1
  6
CONTINUOUS
 62
7
100
AcDbLine
 10
45.28902285657554
 20
112.7118883421507
 30
0.000000000000000
 11
43.78902285657554
 21
112.7118883421507
 31
0.000000000000000
  0
LINE
  5
339
100
AcDbEntity
  8
A1
  6
CONTINUOUS
 62
7
100
AcDbLine
 10
45.28902285657552
 20
125.8114183421508
 30
0.000000000000000
 11
43.78902285657552
 21
125.8114183421508
 31
0.000000000000000
  0
LINE
  5
33A
100
AcDbEntity
  8
A1
  6
CONTINUOUS
 62
7
100
AcDbLine
 10
45.28902285657550
 20
126.8394975421508
 30
0.000000000000000
 11
45.78902285657549
 21
126.8487687421508
 31
0.000000000000000
  0
LINE
  5
33B
100
AcDbEntity
  8
A1
  6
CONTINUOUS
 62
7
100
AcDbLine
 10
45.28902285657552
 20
126.0734087421508
 30
0.000000000000000
 11
43.78902285657552
 21
126.0734087421508
 31
0.000000000000000
  0
LINE
  5
33C
100
AcDbEntity
  8
A1
  6
CONTINUOUS
 62
7
100
AcDbLine
 10
45.78902285657552
 20
126.3486817421507
 30
0.000000000000000
 11
45.78902285657552
 21
126.8487687421508
 31
0.000000000000000
  0
LINE
  5
33D
100
AcDbEntity
  8
A1
  6
CONTINUOUS
 62
7
100
AcDbLine
 10
45.78902285657549
 20
111.6745377421508
 30
0.000000000000000
 11
45.28902285657551
 21
111.6838091421508
 31
0.000000000000000
  0
LINE
  5
33E
100
AcDbEntity
  8
A1
  6
CONTINUOUS
 62
7
100
AcDbLine
 10
45.28902285657554
 20
112.4498979421508
 30
0.000000000000000
 11
43.78902285657554
 21
112.4498979421508
 31
0.000000000000000
  0
LINE
  5
33F
100
AcDbEntity
  8
A1
  6
CONTINUOUS
 62
7
100
AcDbLine
 10
45.28902285657554
 20
112.4592577421507
 30
0.000000000000000
 11
45.28902285657554
 21
112.4498979421508
 31
0.000000000000000
  0
LINE
  5
340
100
AcDbEntity
  8
A1
  6
CONTINUOUS
 62
7
100
AcDbLine
 10
45.78902285657554
 20
112.1746233421508
 30
0.000000000000000
 11
45.78902285657554
 21
111.6745377421508
 31
0.000000000000000
  0
LINE
  5
341
100
AcDbEntity
  8
A1
  6
CONTINUOUS
 62
7
100
AcDbLine
 10
47.27808225657553
 20
120.6714647421508
 30
0.000000000000000
 11
47.27808225657553
 21
116.3210253421508
 31
0.000000000000000
  0
LINE
  5
342
100
AcDbEntity
  8
A1
  6
CONTINUOUS
 62
7
100
AcDbLine
 10
47.27808225657553
 20
122.2022799421508
 30
0.000000000000000
 11
47.27808225657553
 21
120.6714647421508
 31
0.000000000000000
  0
LINE
  5
343
100
AcDbEntity
  8
A1
  6
CONTINUOUS
 62
7
100
AcDbLine
 10
47.48902285657552
 20
122.0081345421508
 30
0.000000000000000
 11
47.48902285657552
 21
120.5783875421508
 31
0.000000000000000
  0
LINE
  5
344
100
AcDbEntity
  8
A1
  6
CONTINUOUS
 62
7
100
AcDbLine
 10
47.48902285657552
 20
120.5783875421508
 30
0.000000000000000
 11
47.48902285657552
 21
116.5151719421508
 31
0.000000000000000
  0
LINE
  5
345
100
AcDbEntity
  8
A1
  6
CONTINUOUS
 62
7
100
AcDbLine
 10
47.44449465657551
 20
122.0913407421507
 30
0.000000000000000
 11
47.44449465657551
 21
120.6182771421508
 31
0.000000000000000
  0
LINE
  5
346
100
AcDbEntity
  8
A1
  6
CONTINUOUS
 62
7
100
AcDbLine
 10
47.44449465657551
 20
120.6182771421508
 30
0.000000000000000
 11
47.44449465657551
 21
116.4319657421508
 31
0.000000000000000
  0
LINE
  5
347
100
AcDbEntity
  8
A1
  6
CONTINUOUS
 62
7
100
AcDbLine
 10
45.48902285657549
 20
126.2616533421508
 30
0.000000000000000
 11
45.40903945657548
 21
126.3416367421508
 31
0.000000000000000
  0
LINE
  5
348
100
AcDbEntity
  8
A1
  6
CONTINUOUS
 62
7
100
AcDbLine
 10
45.48902285657555
 20
112.2616533421508
 30
0.000000000000000
 11
45.40903945657553
 21
112.1816697421508
 31
0.000000000000000
  0
LINE
  5
349
100
AcDbEntity
  8
A1
  6
CONTINUOUS
 62
7
100
AcDbLine
 10
45.28907785657550
 20
126.3394121421508
 30
0.000000000000000
 11
45.78902285657550
 21
126.3486817421508
 31
0.000000000000000
  0
LINE
  5
34A
100
AcDbEntity
  8
A1
  6
CONTINUOUS
 62
7
100
AcDbLine
 10
45.78902285657546
 20
112.1746233421507
 30
0.000000000000000
 11
45.28907785657551
 21
112.1838945421507
 31
0.000000000000000
  0
LINE
  5
34B
100
AcDbEntity
  8
A1
  6
CONTINUOUS
 62
7
100
AcDbLine
 10
45.48902285657548
 20
126.3431199421508
 30
0.000000000000000
 11
45.40903945657547
 21
126.3416367421508
 31
0.000000000000000
  0
LINE
  5
34C
100
AcDbEntity
  8
A1
  6
CONTINUOUS
 62
7
100
AcDbLine
 10
46.78902285657554
 20
111.7616533421508
 30
0.000000000000000
 11
45.78901985657551
 21
111.7616533421508
 31
0.000000000000000
  0
LINE
  5
34D
100
AcDbEntity
  8
A1
  6
CONTINUOUS
 62
7
100
AcDbLine
 10
46.78902285657552
 20
126.7616533421508
 30
0.000000000000000
 11
45.78901985657550
 21
126.7616533421508
 31
0.000000000000000
  0
ARC
  5
34E
100
AcDbEntity
  8
A1
  6
CONTINUOUS
 62
7
100
AcDbCircle
 10
46.78902285657553
 20
112.1616533421508
 30
0.000000000000000
 40
0.4000000450123212
100
AcDbArc
 50
270.0000010000000
 51
360.0000030000000
  0
ARC
  5
34F
100
AcDbEntity
  8
A1
  6
CONTINUOUS
 62
7
100
AcDbCircle
 10
46.78902285657551
 20
126.3616533421508
 30
0.000000000000000
 40
0.4000000450123243
100
AcDbArc
 50
3.000000037306448e-06
 51
90.00000500000006
  0
ARC
  5
350
100
AcDbEntity
  8
A1
  6
CONTINUOUS
 62
7
100
AcDbCircle
 10
47.38902285657552
 20
116.1546159421507
 30
0.000000000000000
 40
0.2000000136176240
100
AcDbArc
 50
123.6900670000000
 51
179.9999970000001
  0
ARC
  5
351
100
AcDbEntity
  8
A1
  6
CONTINUOUS
 62
7
100
AcDbCircle
 10
47.38902285657551
 20
122.3686907421508
 30
0.000000000000000
 40
0.2000000136176232
100
AcDbArc
 50
179.9999970000001
 51
236.3099350000001
  0
LINE
  5
352
100
AcDbEntity
  8
A1
  6
CONTINUOUS
 62
7
100
AcDbLine
 10
47.44449465657549
 20
122.0913407421508
 30
0.000000000000000
 11
47.27808225657552
 21
122.2022799421508
 31
0.000000000000000
  0
LINE
  5
353
100
AcDbEntity
  8
A1
  6
CONTINUOUS
 62
7
100
AcDbLine
 10
47.44449465657550
 20
116.4319657421507
 30
0.000000000000000
 11
47.27808225657553
 21
116.3210253421507
 31
0.000000000000000
  0
ARC
  5
354
100
AcDbEntity
  8
A1
  6
CONTINUOUS
 62
7
100
AcDbCircle
 10
47.38902285657552
 20
116.5151719421508
 30
0.000000000000000
 40
0.1000000144963538
100
AcDbArc
 50
303.6900690000001
 51
360.0000030000000
  0
ARC
  5
355
100
AcDbEntity
  8
A1
  6
CONTINUOUS
 62
7
100
AcDbCircle
 10
47.38902285657551
 20
122.0081345421508
 30
0.000000000000000
 40
0.1000000144975149
100
AcDbArc
 50
3.000000037306448e-06
 51
56.30993300000007
  0
LINE
  5
356
100
AcDbEntity
  8
A1
  6
CONTINUOUS
 62
7
100
AcDbLine
 10
47.68902285657553
 20
121.5116533421508
 30
0.000000000000000
 11
47.48902285657552
 21
121.5116533421508
 31
0.000000000000000
  0
LINE
  5
357
100
AcDbEntity
  8
A1
  6
CONTINUOUS
 62
7
100
AcDbLine
 10
47.68902285657553
 20
117.0116533421508
 30
0.000000000000000
 11
47.48902285657552
 21
117.0116533421508
 31
0.000000000000000
  0
LINE
  5
358
100
AcDbEntity
  8
A1
  6
CONTINUOUS
 62
7
100
AcDbLine
 10
43.78902285657551
 20
131.2616549421508
 30
0.000000000000000
 11
43.78902285657554
 21
107.2616533421508
 31
0.000000000000000
  0
LINE
  5
359
100
AcDbEntity
  8
A1
  6
CONTINUOUS
 62
7
100
AcDbLine
 10
45.28902285657552
 20
126.8394975421508
 30
0.000000000000000
 11
45.28902285657554
 21
111.6838091421508
 31
0.000000000000000
  0
LINE
  5
35A
100
AcDbEntity
  8
A1
  6
CONTINUOUS
 62
7
100
AcDbLine
 10
46.78902285657552
 20
126.7616533421508
 30
0.000000000000000
 11
46.78902285657554
 21
111.7616533421508
 31
0.000000000000000
  0
LINE
  5
35B
100
AcDbEntity
  8
A1
  6
CONTINUOUS
 62
7
100
AcDbLine
 10
47.18902285657553
 20
126.3616533421508
 30
0.000000000000000
 11
47.18902285657554
 21
112.1616533421508
 31
0.000000000000000
  0
LINE
  5
35C
100
AcDbEntity
  8
A1
  6
CONTINUOUS
 62
7
100
AcDbLine
 10
45.78902285657551
 20
131.2616549421508
 30
0.000000000000000
 11
45.78902285657552
 21
126.8487687421508
 31
0.000000000000000
  0
LINE
  5
35D
100
AcDbEntity
  8
A1
  6
CONTINUOUS
 62
7
100
AcDbLine
 10
45.78902285657554
 20
111.6745377421508
 30
0.000000000000000
 11
45.78902285657554
 21
107.2616533421508
 31
0.000000000000000
  0
ARC
  5
35E
100
AcDbEntity
  8
A1
  6
CONTINUOUS
 62
7
100
AcDbCircle
 10
84.09001008496075
 20
150.3296808261975
 30
0.000000000000000
 40
0.1000000144975149
100
AcDbArc
 50
213.6900669999999
 51
269.9999970000000
  0
ARC
  5
35F
100
AcDbEntity
  8
A1
  6
CONTINUOUS
 62
7
100
AcDbCircle
 10
89.58297622982735
 20
150.3296808261975
 30
0.000000000000000
 40
0.1000000144975149
100
AcDbArc
 50
270.0000030000000
 51
326.3099330000002
  0
ARC
  5
360
100
AcDbEntity
  8
A1
  6
CONTINUOUS
 62
7
100
AcDbCircle
 10
83.72945576786596
 20
150.3296831598347
 30
0.000000000000000
 40
0.2000000136176232
100
AcDbArc
 50
33.69006499999997
 51
90.00000300000002
  0
ARC
  5
361
100
AcDbEntity
  8
A1
  6
CONTINUOUS
 62
7
100
AcDbCircle
 10
89.94353054692215
 20
150.3296831598347
 30
0.000000000000000
 40
0.2000000136176232
100
AcDbArc
 50
89.99999700000001
 51
146.3099349999999
  0
ARC
  5
362
100
AcDbEntity
  8
A1
  6
CONTINUOUS
 62
7
100
AcDbCircle
 10
79.73649317833805
 20
150.9296832184646
 30
0.000000000000000
 40
0.4000000450123243
100
AcDbArc
 50
179.9999950000001
 51
269.9999969999999
  0
ARC
  5
363
100
AcDbEntity
  8
A1
  6
CONTINUOUS
 62
7
100
AcDbCircle
 10
93.93649313645005
 20
150.9296832184646
 30
0.000000000000000
 40
0.4000000450123243
100
AcDbArc
 50
270.0000030000000
 51
360.0000050000000
  0
LINE
  5
364
100
AcDbEntity
  8
A1
  6
CONTINUOUS
 62
7
100
AcDbLine
 10
92.01244164302776
 20
146.4296831734524
 30
0.000000000000000
 11
91.94352241721946
 21
146.4296831734524
 31
0.000000000000000
  0
LINE
  5
365
100
AcDbEntity
  8
A1
  6
CONTINUOUS
 62
7
100
AcDbLine
 10
84.58649127972474
 20
150.2296808117000
 30
0.000000000000000
 11
84.58649127972474
 21
150.0296831734523
 31
0.000000000000000
  0
LINE
  5
366
100
AcDbEntity
  8
A1
  6
CONTINUOUS
 62
7
100
AcDbLine
 10
89.08649503506335
 20
150.0296831734523
 30
0.000000000000000
 11
89.08649503506335
 21
150.2296808117000
 31
0.000000000000000
  0
LINE
  5
367
100
AcDbEntity
  8
A1
  6
CONTINUOUS
 62
7
100
AcDbLine
 10
89.58297623506336
 20
150.2296808117000
 30
0.000000000000000
 11
84.09001007972476
 21
150.2296808117000
 31
0.000000000000000
  0
LINE
  5
368
100
AcDbEntity
  8
A1
  6
CONTINUOUS
 62
7
100
AcDbLine
 10
89.66618127183305
 20
150.2742107992971
 30
0.000000000000000
 11
89.77712047183304
 21
150.4406231992970
 31
0.000000000000000
  0
LINE
  5
369
100
AcDbEntity
  8
A1
  6
CONTINUOUS
 62
7
100
AcDbLine
 10
83.89586584295506
 20
150.4406231992970
 30
0.000000000000000
 11
84.00680504295505
 21
150.2742107992971
 31
0.000000000000000
  0
LINE
  5
36A
100
AcDbEntity
  8
A1
  6
CONTINUOUS
 62
7
100
AcDbLine
 10
89.66618127183305
 20
150.2742107992971
 30
0.000000000000000
 11
84.00680504295504
 21
150.2742107992970
 31
0.000000000000000
  0
LINE
  5
36B
100
AcDbEntity
  8
A1
  6
CONTINUOUS
 62
7
100
AcDbLine
 10
89.77712047183304
 20
150.4406231992970
 30
0.000000000000000
 11
83.89586584295503
 21
150.4406231992970
 31
0.000000000000000
  0
LINE
  5
36C
100
AcDbEntity
  8
A1
  6
CONTINUOUS
 62
7
100
AcDbLine
 10
79.33649244213835
 20
153.9296831734524
 30
0.000000000000000
 11
79.33649244213835
 21
150.9296832533712
 31
0.000000000000000
  0
LINE
  5
36D
100
AcDbEntity
  8
A1
  6
CONTINUOUS
 62
7
100
AcDbLine
 10
94.33649387264975
 20
150.9296832533712
 30
0.000000000000000
 11
94.33649387264975
 21
153.9296831734524
 31
0.000000000000000
  0
LINE
  5
36E
100
AcDbEntity
  8
A1
  6
CONTINUOUS
 62
7
100
AcDbLine
 10
93.93649315739405
 20
150.5296831734523
 30
0.000000000000000
 11
79.73649315739404
 21
150.5296831734523
 31
0.000000000000000
  0
LINE
  5
36F
100
AcDbEntity
  8
A1
  6
CONTINUOUS
 62
7
100
AcDbLine
 10
94.33649318146244
 20
150.9296832533712
 30
0.000000000000000
 11
79.33649313332576
 21
150.9296832533712
 31
0.000000000000000
  0
LINE
  5
370
100
AcDbEntity
  8
A1
  6
CONTINUOUS
 62
7
100
AcDbLine
 10
90.33649325276144
 20
151.9296831734524
 30
0.000000000000000
 11
89.33649324466055
 21
151.9296831734524
 31
0.000000000000000
  0
LINE
  5
371
100
AcDbEntity
  8
A1
  6
CONTINUOUS
 62
7
100
AcDbLine
 10
90.33649315739405
 20
153.9296831734524
 30
0.000000000000000
 11
90.33649315739405
 21
151.9296831734524
 31
0.000000000000000
  0
LINE
  5
372
100
AcDbEntity
  8
A1
  6
CONTINUOUS
 62
7
100
AcDbLine
 10
84.33649315739406
 20
151.9296831734524
 30
0.000000000000000
 11
83.33649306202666
 21
151.9296831734524
 31
0.000000000000000
  0
LINE
  5
373
100
AcDbEntity
  8
A1
  6
CONTINUOUS
 62
7
100
AcDbLine
 10
83.33649306202665
 20
153.9296831734524
 30
0.000000000000000
 11
83.33649315739405
 21
151.9296831734524
 31
0.000000000000000
  0
LINE
  5
374
100
AcDbEntity
  8
A1
  6
CONTINUOUS
 62
7
100
AcDbLine
 10
89.33649324466055
 20
151.9296831734524
 30
0.000000000000000
 11
84.33649315739406
 21
151.9296831734524
 31
0.000000000000000
  0
LINE
  5
375
100
AcDbEntity
  8
A1
  6
CONTINUOUS
 62
7
100
AcDbLine
 10
81.66054472417456
 20
146.4296831734524
 30
0.000000000000000
 11
81.66054472417456
 21
150.0296831734523
 31
0.000000000000000
  0
LINE
  5
376
100
AcDbEntity
  8
A1
  6
CONTINUOUS
 62
7
100
AcDbLine
 10
92.01244164302776
 20
146.4296831734524
 30
0.000000000000000
 11
92.01244164302776
 21
150.0296831734523
 31
0.000000000000000
  0
LINE
  5
377
100
AcDbEntity
  8
A1
  6
CONTINUOUS
 62
7
100
AcDbLine
 10
81.66054472417456
 20
150.0296831734523
 30
0.000000000000000
 11
92.01244164302203
 21
150.0296831734535
 31
0.000000000000000
  0
LINE
  5
378
100
AcDbEntity
  8
A1
  6
CONTINUOUS
 62
7
100
AcDbLine
 10
81.66054472417456
 20
146.4296831734524
 30
0.000000000000000
 11
92.01244164302776
 21
146.4296831734524
 31
0.000000000000000
  0
LINE
  5
379
100
AcDbEntity
  8
A4
  6
CENTER
 62
1
100
AcDbLine
 10
86.83649315739406
 20
144.9296831734524
 30
0.000000000000000
 11
86.83649315739406
 21
155.4296831734524
 31
0.000000000000000
  0
LINE
  5
37A
100
AcDbEntity
  8
A1
  6
CONTINUOUS
 62
7
100
AcDbLine
 10
83.43649315739405
 20
146.4296831734529
 30
0.000000000000000
 11
83.43649315739405
 21
150.0296831734529
 31
0.000000000000000
  0
LINE
  5
37B
100
AcDbEntity
  8
A1
  6
CONTINUOUS
 62
7
100
AcDbLine
 10
90.23649315739407
 20
146.4296831734529
 30
0.000000000000000
 11
90.23649315739407
 21
150.0296831734529
 31
0.000000000000000
  0
LINE
  5
37C
100
AcDbEntity
  8
A4
  6
CENTER
 62
1
100
AcDbLine
 10
91.23649315739407
 20
145.9348557734529
 30
0.000000000000000
 11
91.23649315739407
 21
150.2296831734529
 31
0.000000000000000
  0
LINE
  5
37D
100
AcDbEntity
  8
A4
  6
CENTER
 62
1
100
AcDbLine
 10
82.43649315739405
 20
145.9518419734529
 30
0.000000000000000
 11
82.43649315739405
 21
150.2742113734529
 31
0.000000000000000
  0
ARC
  5
37E
100
AcDbEntity
  8
A1
  6
CONTINUOUS
 62
7
100
AcDbCircle
 10
84.09001008496075
 20
88.19362585810413
 30
0.000000000000000
 40
0.1000000144975149
100
AcDbArc
 50
90.00000299999998
 51
146.3099330000001
  0
ARC
  5
37F
100
AcDbEntity
  8
A1
  6
CONTINUOUS
 62
7
100
AcDbCircle
 10
89.58297622982735
 20
88.19362585810413
 30
0.000000000000000
 40
0.1000000144975149
100
AcDbArc
 50
33.69006699999988
 51
89.99999700000001
  0
ARC
  5
380
100
AcDbEntity
  8
A1
  6
CONTINUOUS
 62
7
100
AcDbCircle
 10
83.72945576786596
 20
88.19362352446700
 30
0.000000000000000
 40
0.2000000136176232
100
AcDbArc
 50
269.9999970000000
 51
326.3099350000001
  0
ARC
  5
381
100
AcDbEntity
  8
A1
  6
CONTINUOUS
 62
7
100
AcDbCircle
 10
89.94353054692215
 20
88.19362352446700
 30
0.000000000000000
 40
0.2000000136176232
100
AcDbArc
 50
213.6900650000001
 51
270.0000030000000
  0
ARC
  5
382
100
AcDbEntity
  8
A1
  6
CONTINUOUS
 62
7
100
AcDbCircle
 10
79.73649317833805
 20
87.59362346583703
 30
0.000000000000000
 40
0.4000000450123243
100
AcDbArc
 50
90.00000300000009
 51
180.0000049999999
  0
ARC
  5
383
100
AcDbEntity
  8
A1
  6
CONTINUOUS
 62
7
100
AcDbCircle
 10
93.93649313645005
 20
87.59362346583703
 30
0.000000000000000
 40
0.4000000450123243
100
AcDbArc
 50
359.9999950000000
 51
449.9999969999999
  0
LINE
  5
384
100
AcDbEntity
  8
A1
  6
CONTINUOUS
 62
7
100
AcDbLine
 10
92.01244164302776
 20
92.09362351084923
 30
0.000000000000000
 11
91.94352241721946
 21
92.09362351084923
 31
0.000000000000000
  0
LINE
  5
385
100
AcDbEntity
  8
A1
  6
CONTINUOUS
 62
7
100
AcDbLine
 10
84.58649127972474
 20
88.29362587260164
 30
0.000000000000000
 11
84.58649127972474
 21
88.49362351084935
 31
0.000000000000000
  0
LINE
  5
386
100
AcDbEntity
  8
A1
  6
CONTINUOUS
 62
7
100
AcDbLine
 10
89.08649503506335
 20
88.49362351084935
 30
0.000000000000000
 11
89.08649503506335
 21
88.29362587260164
 31
0.000000000000000
  0
LINE
  5
387
100
AcDbEntity
  8
A1
  6
CONTINUOUS
 62
7
100
AcDbLine
 10
89.58297623506336
 20
88.29362587260164
 30
0.000000000000000
 11
84.09001007972476
 21
88.29362587260164
 31
0.000000000000000
  0
LINE
  5
388
100
AcDbEntity
  8
A1
  6
CONTINUOUS
 62
7
100
AcDbLine
 10
89.66618127183304
 20
88.24909588500461
 30
0.000000000000000
 11
89.77712047183303
 21
88.08268348500471
 31
0.000000000000000
  0
LINE
  5
389
100
AcDbEntity
  8
A1
  6
CONTINUOUS
 62
7
100
AcDbLine
 10
83.89586584295505
 20
88.08268348500471
 30
0.000000000000000
 11
84.00680504295505
 21
88.24909588500462
 31
0.000000000000000
  0
LINE
  5
38A
100
AcDbEntity
  8
A1
  6
CONTINUOUS
 62
7
100
AcDbLine
 10
89.66618127183307
 20
88.24909588500459
 30
0.000000000000000
 11
84.00680504295505
 21
88.24909588500461
 31
0.000000000000000
  0
LINE
  5
38B
100
AcDbEntity
  8
A1
  6
CONTINUOUS
 62
7
100
AcDbLine
 10
89.77712047183304
 20
88.08268348500469
 30
0.000000000000000
 11
83.89586584295503
 21
88.08268348500471
 31
0.000000000000000
  0
LINE
  5
38C
100
AcDbEntity
  8
A1
  6
CONTINUOUS
 62
7
100
AcDbLine
 10
79.33649244213835
 20
84.59362351084926
 30
0.000000000000000
 11
79.33649244213835
 21
87.59362343093051
 31
0.000000000000000
  0
LINE
  5
38D
100
AcDbEntity
  8
A1
  6
CONTINUOUS
 62
7
100
AcDbLine
 10
94.33649387264975
 20
87.59362343093051
 30
0.000000000000000
 11
94.33649387264975
 21
84.59362351084926
 31
0.000000000000000
  0
LINE
  5
38E
100
AcDbEntity
  8
A1
  6
CONTINUOUS
 62
7
100
AcDbLine
 10
93.93649315739405
 20
87.99362351084935
 30
0.000000000000000
 11
79.73649315739404
 21
87.99362351084935
 31
0.000000000000000
  0
LINE
  5
38F
100
AcDbEntity
  8
A1
  6
CONTINUOUS
 62
7
100
AcDbLine
 10
94.33649318146244
 20
87.59362343093045
 30
0.000000000000000
 11
79.33649313332576
 21
87.59362343093045
 31
0.000000000000000
  0
LINE
  5
390
100
AcDbEntity
  8
A1
  6
CONTINUOUS
 62
7
100
AcDbLine
 10
90.33649325276144
 20
86.59362351084926
 30
0.000000000000000
 11
89.33649324466055
 21
86.59362351084926
 31
0.000000000000000
  0
LINE
  5
391
100
AcDbEntity
  8
A1
  6
CONTINUOUS
 62
7
100
AcDbLine
 10
90.33649315739405
 20
84.59362351084926
 30
0.000000000000000
 11
90.33649315739405
 21
86.59362351084926
 31
0.000000000000000
  0
LINE
  5
392
100
AcDbEntity
  8
A1
  6
CONTINUOUS
 62
7
100
AcDbLine
 10
84.33649315739406
 20
86.59362351084926
 30
0.000000000000000
 11
83.33649306202666
 21
86.59362351084926
 31
0.000000000000000
  0
LINE
  5
393
100
AcDbEntity
  8
A1
  6
CONTINUOUS
 62
7
100
AcDbLine
 10
83.33649306202666
 20
84.59362351084928
 30
0.000000000000000
 11
83.33649315739406
 21
86.59362351084928
 31
0.000000000000000
  0
LINE
  5
394
100
AcDbEntity
  8
A1
  6
CONTINUOUS
 62
7
100
AcDbLine
 10
89.33649324466055
 20
86.59362351084926
 30
0.000000000000000
 11
84.33649315739406
 21
86.59362351084926
 31
0.000000000000000
  0
LINE
  5
395
100
AcDbEntity
  8
A1
  6
CONTINUOUS
 62
7
100
AcDbLine
 10
81.66054472417456
 20
92.09362351084923
 30
0.000000000000000
 11
81.66054472417456
 21
88.49362351084940
 31
0.000000000000000
  0
LINE
  5
396
100
AcDbEntity
  8
A1
  6
CONTINUOUS
 62
7
100
AcDbLine
 10
92.01244164302776
 20
92.09362351084923
 30
0.000000000000000
 11
92.01244164302776
 21
88.49362351084940
 31
0.000000000000000
  0
LINE
  5
397
100
AcDbEntity
  8
A1
  6
CONTINUOUS
 62
7
100
AcDbLine
 10
81.66054472417454
 20
88.49362351084940
 30
0.000000000000000
 11
92.01244164302202
 21
88.49362351084818
 31
0.000000000000000
  0
LINE
  5
398
100
AcDbEntity
  8
A1
  6
CONTINUOUS
 62
7
100
AcDbLine
 10
81.66054472417456
 20
92.09362351084923
 30
0.000000000000000
 11
92.01244164302776
 21
92.09362351084923
 31
0.000000000000000
  0
LINE
  5
399
100
AcDbEntity
  8
A4
  6
CENTER
 62
1
100
AcDbLine
 10
86.83649315739406
 20
93.59362351084923
 30
0.000000000000000
 11
86.83649315739406
 21
83.09362351084926
 31
0.000000000000000
  0
LINE
  5
39A
100
AcDbEntity
  8
A1
  6
CONTINUOUS
 62
7
100
AcDbLine
 10
83.43649315739405
 20
92.09362351084880
 30
0.000000000000000
 11
83.43649315739405
 21
88.49362351084881
 31
0.000000000000000
  0
LINE
  5
39B
100
AcDbEntity
  8
A1
  6
CONTINUOUS
 62
7
100
AcDbLine
 10
90.23649315739407
 20
92.09362351084880
 30
0.000000000000000
 11
90.23649315739407
 21
88.49362351084881
 31
0.000000000000000
  0
LINE
  5
39C
100
AcDbEntity
  8
A4
  6
CENTER
 62
1
100
AcDbLine
 10
91.23649315739407
 20
92.58845091084879
 30
0.000000000000000
 11
91.23649315739407
 21
88.29362351084879
 31
0.000000000000000
  0
LINE
  5
39D
100
AcDbEntity
  8
A4
  6
CENTER
 62
1
100
AcDbLine
 10
82.43649315739405
 20
92.57146471084880
 30
0.000000000000000
 11
82.43649315739405
 21
88.24909531084879
 31
0.000000000000000
  0
LINE
  5
39E
100
AcDbEntity
  8
A1
  6
CONTINUOUS
 62
7
100
AcDbLine
 10
79.33649244213835
 20
153.9296831734524
 30
0.000000000000000
 11
94.33649387264975
 21
153.9296831734524
 31
0.000000000000000
  0
LINE
  5
39F
100
AcDbEntity
  8
A1
  6
CONTINUOUS
 62
7
100
AcDbLine
 10
79.33649244213835
 20
84.59362351084926
 30
0.000000000000000
 11
94.33649387264975
 21
84.59362351084926
 31
0.000000000000000
  0
ENDSEC
  0
SECTION
  2
OBJECTS
  0
DICTIONARY
  5
3CD
100
AcDbDictionary
  3
ACAD_GROUP
350
3CE
  3
ACAD_LAYOUT
350
3CF
  3
ACAD_MLINESTYLE
350
3D0
  0
DICTIONARY
  5
3CE
102
{ACAD_REACTORS
330
3CD
102
}
330
3CD
100
AcDbDictionary
  0
DICTIONARY
  5
3CF
102
{ACAD_REACTORS
330
3CD
102
}
330
3CD
100
AcDbDictionary
  3
Model
350
3D1
  3
ﾚｲｱｳﾄ1
350
3D2
  3
ﾚｲｱｳﾄ2
350
3D3
  0
DICTIONARY
  5
3D0
102
{ACAD_REACTORS
330
3CD
102
}
330
3CD
100
AcDbDictionary
  3
STANDARD
350
3D4
  0
LAYOUT
  5
3D1
102
{ACAD_REACTORS
330
3CF
102
}
330
3CF
100
AcDbPlotSettings
 70
11952
  4
A3
 44
297.000000
 45
420.000000
 73
  1
 72
  1
100
AcDbLayout
  1
Model
 71
0
330
3C4
  0
LAYOUT
  5
3D2
102
{ACAD_REACTORS
330
3CF
102
}
330
3CF
100
AcDbPlotSettings
100
AcDbLayout
  1
ﾚｲｱｳﾄ1
 71
1
330
3C5
  0
LAYOUT
  5
3D3
102
{ACAD_REACTORS
330
3CF
102
}
330
3CF
100
AcDbPlotSettings
100
AcDbLayout
  1
ﾚｲｱｳﾄ2
 71
2
330
3C6
  0
MLINESTYLE
  5
3D4
102
{ACAD_REACTORS
330
3D0
102
}
330
3D0
100
AcDbMlineStyle
  2
STANDARD
 70
     0
  3

 62
   256
 51
90.00
 52
90.00
 71
     2
 49
0.50
 62
   256
  6
BYLAYER
 49
-0.50
 62
   256
  6
BYLAYER
  0
ENDSEC
  0
EOF
