  0
SECTION
  2
HEADER
  9
$ACADVER
  1
AC1015
  9
$ACADMAINTVER
 70
    20
  9
$DWGCODEPAGE
  3
ANSI_932
  9
$INSBASE
 10
0.0
 20
0.0
 30
0.0
  9
$EXTMIN
 10
9.99995
 20
9.999999999999998
 30
0.0
  9
$EXTMAX
 10
524.30957
 20
506.2171629999999
 30
0.0
  9
$LIMMIN
 10
0.000002
 20
0.0
  9
$LIMMAX
 10
792.0000019999997
 20
546.0
  9
$ORTHOMODE
 70
     1
  9
$REGENMODE
 70
     1
  9
$FILLMODE
 70
     1
  9
$QTEXTMODE
 70
     0
  9
$MIRRTEXT
 70
     1
  9
$LTSCALE
 40
1.0
  9
$ATTMODE
 70
     1
  9
$TEXTSIZE
 40
2.5
  9
$TRACEWID
 40
1.0
  9
$TEXTSTYLE
  7
STANDARD
  9
$CLAYER
  8
0
  9
$CELTYPE
  6
BYLAYER
  9
$CECOLOR
 62
   256
  9
$CELTSCALE
 40
1.0
  9
$DISPSILH
 70
     0
  9
$DIMSCALE
 40
1.0
  9
$DIMASZ
 40
3.0
  9
$DIMEXO
 40
1.0
  9
$DIMDLI
 40
10.0
  9
$DIMRND
 40
0.0
  9
$DIMDLE
 40
0.0
  9
$DIMEXE
 40
1.0
  9
$DIMTP
 40
0.0
  9
$DIMTM
 40
0.0
  9
$DIMTXT
 40
3.2
  9
$DIMCEN
 40
0.0
  9
$DIMTSZ
 40
0.0
  9
$DIMTOL
 70
     0
  9
$DIMLIM
 70
     0
  9
$DIMTIH
 70
     0
  9
$DIMTOH
 70
     0
  9
$DIMSE1
 70
     0
  9
$DIMSE2
 70
     0
  9
$DIMTAD
 70
     3
  9
$DIMZIN
 70
     8
  9
$DIMBLK
  1

  9
$DIMASO
 70
     1
  9
$DIMSHO
 70
     1
  9
$DIMPOST
  1

  9
$DIMAPOST
  1

  9
$DIMALT
 70
     0
  9
$DIMALTD
 70
     2
  9
$DIMALTF
 40
25.4
  9
$DIMLFAC
 40
1.0
  9
$DIMTOFL
 70
     1
  9
$DIMTVP
 40
0.0
  9
$DIMTIX
 70
     0
  9
$DIMSOXD
 70
     0
  9
$DIMSAH
 70
     1
  9
$DIMBLK1
  1
OPEN
  9
$DIMBLK2
  1
OPEN
  9
$DIMSTYLE
  2
STANDARD
  9
$DIMCLRD
 70
     0
  9
$DIMCLRE
 70
     0
  9
$DIMCLRT
 70
     0
  9
$DIMTFAC
 40
1.0
  9
$DIMGAP
 40
1.0
  9
$DIMJUST
 70
     0
  9
$DIMSD1
 70
     0
  9
$DIMSD2
 70
     0
  9
$DIMTOLJ
 70
     1
  9
$DIMTZIN
 70
     0
  9
$DIMALTZ
 70
     0
  9
$DIMALTTZ
 70
     0
  9
$DIMUPT
 70
     0
  9
$DIMDEC
 70
     4
  9
$DIMTDEC
 70
     4
  9
$DIMALTU
 70
     2
  9
$DIMALTTD
 70
     2
  9
$DIMTXSTY
  7
STANDARD
  9
$DIMAUNIT
 70
     0
  9
$DIMADEC
 70
     0
  9
$DIMALTRND
 40
0.0
  9
$DIMAZIN
 70
     0
  9
$DIMDSEP
 70
    46
  9
$DIMATFIT
 70
     3
  9
$DIMFRAC
 70
     0
  9
$DIMLDRBLK
  1
OPEN
  9
$DIMLUNIT
 70
     2
  9
$DIMLWD
 70
    -2
  9
$DIMLWE
 70
    -2
  9
$DIMTMOVE
 70
     0
  9
$LUNITS
 70
     2
  9
$LUPREC
 70
     4
  9
$SKETCHINC
 40
1.0
  9
$FILLETRAD
 40
1.0
  9
$AUNITS
 70
     0
  9
$AUPREC
 70
     0
  9
$MENU
  1
.
  9
$ELEVATION
 40
0.0
  9
$PELEVATION
 40
0.0
  9
$THICKNESS
 40
0.0
  9
$LIMCHECK
 70
     0
  9
$CHAMFERA
 40
10.0
  9
$CHAMFERB
 40
10.0
  9
$CHAMFERC
 40
0.0
  9
$CHAMFERD
 40
0.0
  9
$SKPOLY
 70
     0
  9
$TDCREATE
 40
2451640.671537002
  9
$TDUCREATE
 40
2451640.296537002
  9
$TDUPDATE
 40
2457192.622556586
  9
$TDUUPDATE
 40
2457192.247556586
  9
$TDINDWG
 40
0.0147253935
  9
$TDUSRTIMER
 40
0.0147247338
  9
$USRTIMER
 70
     1
  9
$ANGBASE
 50
0.0
  9
$ANGDIR
 70
     0
  9
$PDMODE
 70
     0
  9
$PDSIZE
 40
0.0
  9
$PLINEWID
 40
0.0
  9
$SPLFRAME
 70
     0
  9
$SPLINETYPE
 70
     6
  9
$SPLINESEGS
 70
     8
  9
$HANDSEED
  5
DC3
  9
$SURFTAB1
 70
     6
  9
$SURFTAB2
 70
     6
  9
$SURFTYPE
 70
     6
  9
$SURFU
 70
     6
  9
$SURFV
 70
     6
  9
$UCSBASE
  2

  9
$UCSNAME
  2

  9
$UCSORG
 10
0.0
 20
0.0
 30
0.0
  9
$UCSXDIR
 10
1.0
 20
0.0
 30
0.0
  9
$UCSYDIR
 10
0.0
 20
1.0
 30
0.0
  9
$UCSORTHOREF
  2

  9
$UCSORTHOVIEW
 70
     0
  9
$UCSORGTOP
 10
0.0
 20
0.0
 30
0.0
  9
$UCSORGBOTTOM
 10
0.0
 20
0.0
 30
0.0
  9
$UCSORGLEFT
 10
0.0
 20
0.0
 30
0.0
  9
$UCSORGRIGHT
 10
0.0
 20
0.0
 30
0.0
  9
$UCSORGFRONT
 10
0.0
 20
0.0
 30
0.0
  9
$UCSORGBACK
 10
0.0
 20
0.0
 30
0.0
  9
$PUCSBASE
  2

  9
$PUCSNAME
  2

  9
$PUCSORG
 10
0.0
 20
0.0
 30
0.0
  9
$PUCSXDIR
 10
1.0
 20
0.0
 30
0.0
  9
$PUCSYDIR
 10
0.0
 20
1.0
 30
0.0
  9
$PUCSORTHOREF
  2

  9
$PUCSORTHOVIEW
 70
     0
  9
$PUCSORGTOP
 10
0.0
 20
0.0
 30
0.0
  9
$PUCSORGBOTTOM
 10
0.0
 20
0.0
 30
0.0
  9
$PUCSORGLEFT
 10
0.0
 20
0.0
 30
0.0
  9
$PUCSORGRIGHT
 10
0.0
 20
0.0
 30
0.0
  9
$PUCSORGFRONT
 10
0.0
 20
0.0
 30
0.0
  9
$PUCSORGBACK
 10
0.0
 20
0.0
 30
0.0
  9
$USERI1
 70
     0
  9
$USERI2
 70
     0
  9
$USERI3
 70
     0
  9
$USERI4
 70
     0
  9
$USERI5
 70
     0
  9
$USERR1
 40
0.0
  9
$USERR2
 40
0.0
  9
$USERR3
 40
0.0
  9
$USERR4
 40
0.0
  9
$USERR5
 40
0.0
  9
$WORLDVIEW
 70
     1
  9
$SHADEDGE
 70
     3
  9
$SHADEDIF
 70
    70
  9
$TILEMODE
 70
     1
  9
$MAXACTVP
 70
    48
  9
$PINSBASE
 10
0.0
 20
0.0
 30
0.0
  9
$PLIMCHECK
 70
     0
  9
$PEXTMIN
 10
1.000000000000000E+20
 20
1.000000000000000E+20
 30
1.000000000000000E+20
  9
$PEXTMAX
 10
-1.000000000000000E+20
 20
-1.000000000000000E+20
 30
-1.000000000000000E+20
  9
$PLIMMIN
 10
0.0
 20
0.0
  9
$PLIMMAX
 10
420.0
 20
297.0
  9
$UNITMODE
 70
     0
  9
$VISRETAIN
 70
     1
  9
$PLINEGEN
 70
     0
  9
$PSLTSCALE
 70
     1
  9
$TREEDEPTH
 70
  3020
  9
$CMLSTYLE
  2
STANDARD
  9
$CMLJUST
 70
     0
  9
$CMLSCALE
 40
1.0
  9
$PROXYGRAPHICS
 70
     1
  9
$MEASUREMENT
 70
     0
  9
$CELWEIGHT
370
    -1
  9
$ENDCAPS
280
     0
  9
$JOINSTYLE
280
     0
  9
$LWDISPLAY
290
     0
  9
$INSUNITS
 70
     0
  9
$HYPERLINKBASE
  1

  9
$STYLESHEET
  1

  9
$XEDIT
290
     1
  9
$CEPSNTYPE
380
     0
  9
$PSTYLEMODE
290
     1
  9
$FINGERPRINTGUID
  2
{65FF8A84-ADC7-4239-B7A6-F5D59B53442F}
  9
$VERSIONGUID
  2
{B3B16DE0-D472-4AF7-A882-76873E7E3C93}
  9
$EXTNAMES
290
     1
  9
$PSVPSCALE
 40
0.0
  9
$OLESTARTUP
290
     0
  0
ENDSEC
  0
SECTION
  2
CLASSES
  0
CLASS
  1
ACDBDICTIONARYWDFLT
  2
AcDbDictionaryWithDefault
  3
ObjectDBX Classes
 90
        0
280
     0
281
     0
  0
CLASS
  1
ACDBPLACEHOLDER
  2
AcDbPlaceHolder
  3
ObjectDBX Classes
 90
        0
280
     0
281
     0
  0
CLASS
  1
LAYOUT
  2
AcDbLayout
  3
ObjectDBX Classes
 90
        0
280
     0
281
     0
  0
CLASS
  1
DICTIONARYVAR
  2
AcDbDictionaryVar
  3
ObjectDBX Classes
 90
        0
280
     0
281
     0
  0
CLASS
  1
MATERIAL
  2
AcDbMaterial
  3
ObjectDBX Classes
 90
     1153
280
     0
281
     0
  0
CLASS
  1
VISUALSTYLE
  2
AcDbVisualStyle
  3
ObjectDBX Classes
 90
     4095
280
     0
281
     0
  0
CLASS
  1
TABLESTYLE
  2
AcDbTableStyle
  3
ObjectDBX Classes
 90
     4095
280
     0
281
     0
  0
CLASS
  1
SCALE
  2
AcDbScale
  3
ObjectDBX Classes
 90
     1153
280
     0
281
     0
  0
CLASS
  1
MLEADERSTYLE
  2
AcDbMLeaderStyle
  3
ACDB_MLEADERSTYLE_CLASS
 90
     4095
280
     0
281
     0
  0
CLASS
  1
ACDBSECTIONVIEWSTYLE
  2
AcDbSectionViewStyle
  3
ObjectDBX Classes
 90
     1025
280
     0
281
     0
  0
CLASS
  1
ACDBDETAILVIEWSTYLE
  2
AcDbDetailViewStyle
  3
ObjectDBX Classes
 90
     1025
280
     0
281
     0
  0
CLASS
  1
CELLSTYLEMAP
  2
AcDbCellStyleMap
  3
ObjectDBX Classes
 90
     1152
280
     0
281
     0
  0
ENDSEC
  0
SECTION
  2
TABLES
  0
TABLE
  2
VPORT
  5
846
330
0
100
AcDbSymbolTable
 70
     1
  0
VPORT
  5
D0E
330
846
100
AcDbSymbolTableRecord
100
AcDbViewportTableRecord
  2
*ACTIVE
 70
     0
 10
0.0
 20
0.0
 11
1.0
 21
1.0
 12
471.3889347329581
 22
258.1078045986449
 13
0.0
 23
0.0
 14
10.0
 24
10.0
 15
10.0
 25
10.0
 16
0.0
 26
0.0
 36
1.0
 17
0.0
 27
0.0
 37
0.0
 40
500.1134545958366
 41
1.899603698811096
 42
50.0
 43
0.0
 44
0.0
 50
0.0
 51
0.0
 71
     0
 72
   100
 73
     1
 74
     0
 75
     0
 76
     0
 77
     0
 78
     0
281
     0
 65
     1
110
0.0
120
0.0
130
0.0
111
1.0
121
0.0
131
0.0
112
0.0
122
1.0
132
0.0
 79
     0
146
0.0
1001
ACAD_NAV_VCDISPLAY
1070
     3
  0
ENDTAB
  0
TABLE
  2
LTYPE
  5
843
330
0
100
AcDbSymbolTable
 70
     4
  0
LTYPE
  5
851
330
843
100
AcDbSymbolTableRecord
100
AcDbLinetypeTableRecord
  2
BYBLOCK
 70
     0
  3

 72
    65
 73
     0
 40
0.0
  0
LTYPE
  5
852
330
843
100
AcDbSymbolTableRecord
100
AcDbLinetypeTableRecord
  2
BYLAYER
 70
     0
  3

 72
    65
 73
     0
 40
0.0
  0
LTYPE
  5
853
330
843
100
AcDbSymbolTableRecord
100
AcDbLinetypeTableRecord
  2
CONTINUOUS
 70
     0
  3
Solid line
 72
    65
 73
     0
 40
0.0
  0
LTYPE
  5
861
330
843
100
AcDbSymbolTableRecord
100
AcDbLinetypeTableRecord
  2
DASHED
 70
     0
  3
Dashed __ __ __ __ __ __ __ __ __ __ __ __ __ _
 72
    65
 73
     2
 40
19.05
 49
12.7
 74
     0
 49
-6.349999999999997
 74
     0
  0
LTYPE
  5
862
330
843
100
AcDbSymbolTableRecord
100
AcDbLinetypeTableRecord
  2
CENTER
 70
     0
  3
Center ____ _ ____ _ ____ _ ____ _ ____ _ ____
 72
    65
 73
     4
 40
50.8
 49
31.75
 74
     0
 49
-6.349999999999997
 74
     0
 49
6.349999999999997
 74
     0
 49
-6.349999999999997
 74
     0
  0
LTYPE
  5
863
330
843
100
AcDbSymbolTableRecord
100
AcDbLinetypeTableRecord
  2
PHANTOM
 70
     0
  3
Phantom ______  __  __  ______  __  __  ______
 72
    65
 73
     6
 40
63.5
 49
31.75
 74
     0
 49
-6.349999999999997
 74
     0
 49
6.349999999999997
 74
     0
 49
-6.349999999999997
 74
     0
 49
6.349999999999997
 74
     0
 49
-6.349999999999997
 74
     0
  0
ENDTAB
  0
TABLE
  2
LAYER
  5
840
330
0
100
AcDbSymbolTable
 70
     8
  0
LAYER
  5
84E
102
{ACAD_XDICTIONARY
360
D67
102
}
330
840
100
AcDbSymbolTableRecord
100
AcDbLayerTableRecord
  2
0
 70
     0
 62
     7
  6
CONTINUOUS
370
    -3
390
D15
  0
LAYER
  5
864
102
{ACAD_XDICTIONARY
360
D69
102
}
330
840
100
AcDbSymbolTableRecord
100
AcDbLayerTableRecord
  2
4
 70
     0
 62
     1
  6
CENTER
370
    -3
390
D15
  0
LAYER
  5
865
102
{ACAD_XDICTIONARY
360
D6B
102
}
330
840
100
AcDbSymbolTableRecord
100
AcDbLayerTableRecord
  2
5
 70
     0
 62
     6
  6
PHANTOM
370
    -3
390
D15
  0
LAYER
  5
866
102
{ACAD_XDICTIONARY
360
D6D
102
}
330
840
100
AcDbSymbolTableRecord
100
AcDbLayerTableRecord
  2
1
 70
     0
 62
     7
  6
CONTINUOUS
370
    -3
390
D15
  0
LAYER
  5
867
102
{ACAD_XDICTIONARY
360
D6F
102
}
330
840
100
AcDbSymbolTableRecord
100
AcDbLayerTableRecord
  2
2
 70
     0
 62
     4
  6
CONTINUOUS
370
    -3
390
D15
  0
LAYER
  5
868
102
{ACAD_XDICTIONARY
360
D71
102
}
330
840
100
AcDbSymbolTableRecord
100
AcDbLayerTableRecord
  2
3
 70
     0
 62
     2
  6
DASHED
370
    -3
390
D15
  0
LAYER
  5
869
102
{ACAD_XDICTIONARY
360
D73
102
}
330
840
100
AcDbSymbolTableRecord
100
AcDbLayerTableRecord
  2
6
 70
     0
 62
     5
  6
CONTINUOUS
370
    -3
390
D15
  0
LAYER
  5
86A
102
{ACAD_XDICTIONARY
360
D75
102
}
330
840
100
AcDbSymbolTableRecord
100
AcDbLayerTableRecord
  2
7
 70
     0
 62
     3
  6
CONTINUOUS
370
    -3
390
D15
  0
ENDTAB
  0
TABLE
  2
STYLE
  5
841
330
0
100
AcDbSymbolTable
 70
     1
  0
STYLE
  5
84F
330
841
100
AcDbSymbolTableRecord
100
AcDbTextStyleTableRecord
  2
STANDARD
 70
     0
 40
0.0
 41
1.0
 50
0.0
 71
     0
 42
2.5
  3
txt
  4

  0
ENDTAB
  0
TABLE
  2
VIEW
  5
844
330
0
100
AcDbSymbolTable
 70
     0
  0
ENDTAB
  0
TABLE
  2
UCS
  5
845
330
0
100
AcDbSymbolTable
 70
     0
  0
ENDTAB
  0
TABLE
  2
APPID
  5
847
330
0
100
AcDbSymbolTable
 70
     7
  0
APPID
  5
850
330
847
100
AcDbSymbolTableRecord
100
AcDbRegAppTableRecord
  2
ACAD
 70
     0
  0
APPID
  5
86B
330
847
100
AcDbSymbolTableRecord
100
AcDbRegAppTableRecord
  2
CONTENTTABDATA
 70
     0
  0
APPID
  5
86C
330
847
100
AcDbSymbolTableRecord
100
AcDbRegAppTableRecord
  2
CONTENTCURRENTTAB
 70
     0
  0
APPID
  5
86D
330
847
100
AcDbSymbolTableRecord
100
AcDbRegAppTableRecord
  2
CONTENTBLOCKDESCRIPTION
 70
     0
  0
APPID
  5
86E
330
847
100
AcDbSymbolTableRecord
100
AcDbRegAppTableRecord
  2
CONTENTBLOCKICON
 70
     0
  0
APPID
  5
D81
330
847
100
AcDbSymbolTableRecord
100
AcDbRegAppTableRecord
  2
ACAD_NAV_VCDISPLAY
 70
     0
  0
APPID
  5
DBA
330
847
100
AcDbSymbolTableRecord
100
AcDbRegAppTableRecord
  2
ACAD_MLEADERVER
 70
     0
  0
ENDTAB
  0
TABLE
  2
DIMSTYLE
  5
848
330
0
100
AcDbSymbolTable
 70
     1
100
AcDbDimStyleTable
 71
     0
  0
DIMSTYLE
105
86F
330
848
100
AcDbSymbolTableRecord
100
AcDbDimStyleTableRecord
  2
STANDARD
 70
     0
 41
3.0
 42
1.0
 43
10.0
 44
1.0
 73
     0
 74
     0
 77
     3
 78
     8
140
3.2
141
0.0
147
1.0
172
     1
173
     1
284
     8
285
     8
286
     8
340
84F
  0
ENDTAB
  0
TABLE
  2
BLOCK_RECORD
  5
83F
330
0
100
AcDbSymbolTable
 70
     1
  0
BLOCK_RECORD
  5
85C
102
{ACAD_XDICTIONARY
360
A54
102
}
330
83F
100
AcDbSymbolTableRecord
100
AcDbBlockTableRecord
  2
*MODEL_SPACE
340
D63
  0
BLOCK_RECORD
  5
858
102
{ACAD_XDICTIONARY
360
A52
102
}
330
83F
100
AcDbSymbolTableRecord
100
AcDbBlockTableRecord
  2
*PAPER_SPACE
340
D64
  0
BLOCK_RECORD
  5
877
330
83F
100
AcDbSymbolTableRecord
100
AcDbBlockTableRecord
  2
_OPEN
340
0
  0
ENDTAB
  0
ENDSEC
  0
SECTION
  2
BLOCKS
  0
BLOCK
  5
85D
330
85C
100
AcDbEntity
  8
0
100
AcDbBlockBegin
  2
*MODEL_SPACE
 70
     0
 10
0.0
 20
0.0
 30
0.0
  3
*MODEL_SPACE
  1

  0
ENDBLK
  5
85E
330
85C
100
AcDbEntity
  8
0
100
AcDbBlockEnd
  0
BLOCK
  5
859
330
858
100
AcDbEntity
 67
     1
  8
0
100
AcDbBlockBegin
  2
*PAPER_SPACE
 70
     0
 10
0.0
 20
0.0
 30
0.0
  3
*PAPER_SPACE
  1

  0
ENDBLK
  5
85A
330
858
100
AcDbEntity
 67
     1
  8
0
100
AcDbBlockEnd
  0
BLOCK
  5
878
330
877
100
AcDbEntity
  8
0
100
AcDbBlockBegin
  2
_OPEN
 70
     0
 10
0.0
 20
0.0
 30
0.0
  3
_OPEN
  1

  0
LINE
  5
879
330
877
100
AcDbEntity
  8
0
  6
ByBlock
 62
     0
100
AcDbLine
 10
-1.0
 20
0.166667
 30
0.0
 11
0.0
 21
0.0
 31
0.0
  0
LINE
  5
87A
330
877
100
AcDbEntity
  8
0
  6
ByBlock
 62
     0
100
AcDbLine
 10
0.0
 20
0.0
 30
0.0
 11
-1.0
 21
-0.166667
 31
0.0
  0
LINE
  5
87B
330
877
100
AcDbEntity
  8
0
  6
ByBlock
 62
     0
100
AcDbLine
 10
0.0
 20
0.0
 30
0.0
 11
-1.0
 21
0.0
 31
0.0
  0
ENDBLK
  5
87C
330
877
100
AcDbEntity
  8
0
100
AcDbBlockEnd
  0
ENDSEC
  0
SECTION
  2
ENTITIES
  0
LINE
  5
87D
330
85C
100
AcDbEntity
  8
5
  6
PHANTOM
 48
0.2
100
AcDbLine
 10
38.599998
 20
387.554993
 30
0.0
 11
38.599998
 21
380.7640989999999
 31
0.0
  0
LINE
  5
87E
330
85C
100
AcDbEntity
  8
4
  6
CENTER
 48
0.2
100
AcDbLine
 10
50.59999799999999
 20
371.054993
 30
0.0
 11
36.599998
 21
371.054993
 31
0.0
  0
LINE
  5
87F
330
85C
100
AcDbEntity
  8
5
  6
PHANTOM
 48
0.2
100
AcDbLine
 10
48.599998
 20
387.554993
 30
0.0
 11
48.599998
 21
380.7640989999999
 31
0.0
  0
LINE
  5
880
330
85C
100
AcDbEntity
  8
1
  6
Continuous
100
AcDbLine
 10
178.3904419999998
 20
376.054993
 30
0.0
 11
181.3904419999999
 21
376.054993
 31
0.0
  0
LINE
  5
881
330
85C
100
AcDbEntity
  8
1
  6
Continuous
100
AcDbLine
 10
176.7904509999999
 20
148.0550079999999
 30
0.0
 11
181.3904419999999
 21
148.0550079999999
 31
0.0
  0
LINE
  5
882
330
85C
100
AcDbEntity
  8
1
  6
Continuous
100
AcDbLine
 10
178.3904419999998
 20
376.054993
 30
0.0
 11
178.3904419999998
 21
197.855002
 31
0.0
  0
LINE
  5
883
330
85C
100
AcDbEntity
  8
1
  6
Continuous
100
AcDbLine
 10
181.3904419999999
 20
376.054993
 30
0.0
 11
181.3904419999999
 21
197.855002
 31
0.0
  0
LINE
  5
884
330
85C
100
AcDbEntity
  8
1
  6
Continuous
100
AcDbLine
 10
516.2095339999998
 20
376.054993
 30
0.0
 11
516.2095339999998
 21
197.455008
 31
0.0
  0
LINE
  5
885
330
85C
100
AcDbEntity
  8
1
  6
Continuous
100
AcDbLine
 10
519.2095339999998
 20
376.054993
 30
0.0
 11
519.2095339999998
 21
197.455008
 31
0.0
  0
LINE
  5
886
330
85C
100
AcDbEntity
  8
1
  6
Continuous
100
AcDbLine
 10
520.80957
 20
148.0550079999999
 30
0.0
 11
516.2095339999998
 21
148.0550079999999
 31
0.0
  0
LINE
  5
887
330
85C
100
AcDbEntity
  8
1
  6
Continuous
100
AcDbLine
 10
178.3904419999998
 20
64.599998
 30
0.0
 11
181.3904419999999
 21
64.599998
 31
0.0
  0
LINE
  5
888
330
85C
100
AcDbEntity
  8
4
  6
CENTER
 48
0.1
100
AcDbLine
 10
176.3904419999998
 20
371.054993
 30
0.0
 11
186.4904479999999
 21
371.054993
 31
0.0
  0
LINE
  5
889
330
85C
100
AcDbEntity
  8
4
  6
CENTER
 48
0.2
100
AcDbLine
 10
522.209534
 20
371.054993
 30
0.0
 11
511.1095579999997
 21
371.054993
 31
0.0
  0
LINE
  5
88A
330
85C
100
AcDbEntity
  8
1
  6
Continuous
100
AcDbLine
 10
333.3808899999999
 20
154.455008
 30
0.0
 11
333.3808899999999
 21
148.0550079999999
 31
0.0
  0
LINE
  5
88B
330
85C
100
AcDbEntity
  8
1
  6
Continuous
100
AcDbLine
 10
343.3808899999998
 20
378.6549989999999
 30
0.0
 11
343.3808899999998
 21
197.3915
 31
0.0
  0
LINE
  5
88C
330
85C
100
AcDbEntity
  8
1
  6
Continuous
100
AcDbLine
 10
343.180878
 20
148.0550079999999
 30
0.0
 11
324.5809019999998
 21
148.0550079999999
 31
0.0
  0
LINE
  5
88D
330
85C
100
AcDbEntity
  8
1
  6
Continuous
100
AcDbLine
 10
333.3808899999999
 20
378.6549989999999
 30
0.0
 11
333.3808899999999
 21
196.0550079999999
 31
0.0
  0
LINE
  5
88E
330
85C
100
AcDbEntity
  8
1
  6
Continuous
100
AcDbLine
 10
181.8904419999999
 20
482.6171259999998
 30
0.0
 11
183.4904479999999
 21
482.6171259999998
 31
0.0
  0
LINE
  5
88F
330
85C
100
AcDbEntity
  8
4
  6
CENTER
 48
0.2
100
AcDbLine
 10
171.2904509999999
 20
487.6171259999998
 30
0.0
 11
186.4904479999999
 21
487.6171259999998
 31
0.0
  0
LINE
  5
890
330
85C
100
AcDbEntity
  8
1
  6
Continuous
100
AcDbLine
 10
177.3904419999998
 20
368.054993
 30
0.0
 11
177.3904419999998
 21
374.054993
 31
0.0
  0
LINE
  5
891
330
85C
100
AcDbEntity
  8
1
  6
Continuous
100
AcDbLine
 10
177.3904419999998
 20
368.054993
 30
0.0
 11
178.3904419999998
 21
368.054993
 31
0.0
  0
LINE
  5
892
330
85C
100
AcDbEntity
  8
1
  6
Continuous
100
AcDbLine
 10
177.3904419999998
 20
374.054993
 30
0.0
 11
178.3904419999998
 21
374.054993
 31
0.0
  0
LINE
  5
893
330
85C
100
AcDbEntity
  8
1
  6
Continuous
100
AcDbLine
 10
181.3904419999999
 20
367.054993
 30
0.0
 11
181.8904419999999
 21
367.054993
 31
0.0
  0
LINE
  5
894
330
85C
100
AcDbEntity
  8
1
  6
Continuous
100
AcDbLine
 10
181.3904419999999
 20
375.054993
 30
0.0
 11
181.8904419999999
 21
375.054993
 31
0.0
  0
LINE
  5
895
330
85C
100
AcDbEntity
  8
1
  6
Continuous
100
AcDbLine
 10
352.3808899999999
 20
377.054993
 30
0.0
 11
352.3808899999999
 21
378.6549989999999
 31
0.0
  0
LINE
  5
896
330
85C
100
AcDbEntity
  8
1
  6
Continuous
100
AcDbLine
 10
324.3808899999998
 20
377.054993
 30
0.0
 11
324.3808899999998
 21
378.6549989999999
 31
0.0
  0
LINE
  5
897
330
85C
100
AcDbEntity
  8
1
  6
Continuous
100
AcDbLine
 10
324.3808899999998
 20
378.6549989999999
 30
0.0
 11
352.3808899999999
 21
378.6549989999999
 31
0.0
  0
LINE
  5
898
330
85C
100
AcDbEntity
  8
1
  6
Continuous
100
AcDbLine
 10
324.3808899999998
 20
377.054993
 30
0.0
 11
333.3808899999999
 21
377.054993
 31
0.0
  0
LINE
  5
899
330
85C
100
AcDbEntity
  8
4
  6
CENTER
 48
0.5
100
AcDbLine
 10
338.3808899999999
 20
142.955002
 30
0.0
 11
338.3808899999999
 21
380.6549989999999
 31
0.0
  0
LINE
  5
89A
330
85C
100
AcDbEntity
  8
4
  6
CENTER
 48
0.5
100
AcDbLine
 10
78.0
 20
181.0550079999999
 30
0.0
 11
23.0
 21
181.0550079999999
 31
0.0
  0
LINE
  5
89B
330
85C
100
AcDbEntity
  8
1
  6
Continuous
100
AcDbLine
 10
67.0
 20
190.055008
 30
0.0
 11
65.69999799999999
 21
190.055008
 31
0.0
  0
LINE
  5
89C
330
85C
100
AcDbEntity
  8
1
  6
Continuous
100
AcDbLine
 10
67.0
 20
172.0550079999999
 30
0.0
 11
65.69999799999999
 21
172.0550079999999
 31
0.0
  0
LINE
  5
89D
330
85C
100
AcDbEntity
  8
1
  6
Continuous
100
AcDbLine
 10
187.0904419999997
 20
92.0
 30
0.0
 11
188.0904389999997
 21
92.0
 31
0.0
  0
LINE
  5
89E
330
85C
100
AcDbEntity
  8
1
  6
Continuous
100
AcDbLine
 10
187.0904419999997
 20
41.0
 30
0.0
 11
188.0904389999997
 21
41.0
 31
0.0
  0
LINE
  5
89F
330
85C
100
AcDbEntity
  8
1
  6
Continuous
100
AcDbLine
 10
184.5904389999999
 20
76.99999699999998
 30
0.0
 11
184.590439
 21
62.99999899999999
 31
0.0
  0
LINE
  5
8A0
330
85C
100
AcDbEntity
  8
4
  6
CENTER
 48
0.2
100
AcDbLine
 10
177.3904419999998
 20
70.0
 30
0.0
 11
187.6904419999998
 21
70.0
 31
0.0
  0
LINE
  5
8A1
330
85C
100
AcDbEntity
  8
1
  6
Continuous
100
AcDbLine
 10
185.590451
 20
77.0
 30
0.0
 11
187.0904389999998
 21
77.00000000000001
 31
0.0
  0
LINE
  5
8A2
330
85C
100
AcDbEntity
  8
1
  6
Continuous
100
AcDbLine
 10
185.590451
 20
63.0
 30
0.0
 11
187.0904389999997
 21
63.0
 31
0.0
  0
LINE
  5
8A3
330
85C
100
AcDbEntity
  8
1
  6
Continuous
100
AcDbLine
 10
187.0904419999997
 20
61.999999
 30
0.0
 11
187.0904419999997
 21
41.0
 31
0.0
  0
LINE
  5
8A4
330
85C
100
AcDbEntity
  8
1
  6
Continuous
100
AcDbLine
 10
185.590439
 20
61.99999899999999
 30
0.0
 11
187.0904419999997
 21
61.999999
 31
0.0
  0
LINE
  5
8A5
330
85C
100
AcDbEntity
  8
1
  6
Continuous
100
AcDbLine
 10
185.5904389999999
 20
77.99999699999998
 30
0.0
 11
187.0904419999997
 21
77.99999699999998
 31
0.0
  0
LINE
  5
8A6
330
85C
100
AcDbEntity
  8
1
  6
Continuous
100
AcDbLine
 10
185.590451
 20
77.0
 30
0.0
 11
185.590451
 21
63.0
 31
0.0
  0
LINE
  5
8A7
330
85C
100
AcDbEntity
  8
1
  6
Continuous
100
AcDbLine
 10
188.0904389999997
 20
62.0
 30
0.0
 11
188.0904389999997
 21
41.0
 31
0.0
  0
LINE
  5
8A8
330
85C
100
AcDbEntity
  8
1
  6
Continuous
100
AcDbLine
 10
187.0904419999997
 20
77.99999699999998
 30
0.0
 11
187.0904419999997
 21
92.0
 31
0.0
  0
LINE
  5
8A9
330
85C
100
AcDbEntity
  8
1
  6
Continuous
100
AcDbLine
 10
188.0904389999998
 20
78.00000000000001
 30
0.0
 11
188.0904389999997
 21
92.0
 31
0.0
  0
LINE
  5
8AA
330
85C
100
AcDbEntity
  8
4
  6
CENTER
 48
0.1
100
AcDbLine
 10
184.8904419999998
 20
47.0
 30
0.0
 11
190.0904389999998
 21
47.0
 31
0.0
  0
LINE
  5
8AB
330
85C
100
AcDbEntity
  8
4
  6
CENTER
 48
0.1
100
AcDbLine
 10
184.8904419999998
 20
86.0
 30
0.0
 11
190.0904389999998
 21
86.0
 31
0.0
  0
LINE
  5
8AC
330
85C
100
AcDbEntity
  8
1
  6
Continuous
100
AcDbLine
 10
184.590439
 20
190.055008
 30
0.0
 11
184.590439
 21
172.0550079999999
 31
0.0
  0
LINE
  5
8AD
330
85C
100
AcDbEntity
  8
1
  6
Continuous
100
AcDbLine
 10
184.590439
 20
190.055008
 30
0.0
 11
188.0904389999997
 21
190.055008
 31
0.0
  0
LINE
  5
8AE
330
85C
100
AcDbEntity
  8
1
  6
Continuous
100
AcDbLine
 10
184.590439
 20
172.0550079999999
 30
0.0
 11
188.0904389999997
 21
172.0550079999999
 31
0.0
  0
LINE
  5
8AF
330
85C
100
AcDbEntity
  8
1
  6
Continuous
100
AcDbLine
 10
188.0904389999997
 20
190.055008
 30
0.0
 11
188.0904389999997
 21
172.0550079999999
 31
0.0
  0
LINE
  5
8B0
330
85C
100
AcDbEntity
  8
1
  6
Continuous
100
AcDbLine
 10
187.0904419999997
 20
190.055008
 30
0.0
 11
187.0904419999997
 21
172.0550079999999
 31
0.0
  0
LINE
  5
8B1
330
85C
100
AcDbEntity
  8
1
  6
Continuous
100
AcDbLine
 10
314.8808959999998
 20
172.0550079999999
 30
0.0
 11
347.9808959999999
 21
172.0550079999999
 31
0.0
  0
LINE
  5
8B2
330
85C
100
AcDbEntity
  8
4
  6
CENTER
 48
0.5
100
AcDbLine
 10
303.9808959999998
 20
181.0550079999999
 30
0.0
 11
358.9808959999999
 21
181.0550079999999
 31
0.0
  0
LINE
  5
8B3
330
85C
100
AcDbEntity
  8
1
  6
Continuous
100
AcDbLine
 10
320.9808959999998
 20
190.055008
 30
0.0
 11
320.9808959999998
 21
172.0550079999999
 31
0.0
  0
LINE
  5
8B4
330
85C
100
AcDbEntity
  8
1
  6
Continuous
100
AcDbLine
 10
334.9808959999998
 20
190.055008
 30
0.0
 11
334.9808959999998
 21
172.0550079999999
 31
0.0
  0
LINE
  5
8B5
330
85C
100
AcDbEntity
  8
1
  6
Continuous
100
AcDbLine
 10
314.8808959999998
 20
190.055008
 30
0.0
 11
347.9808959999999
 21
190.055008
 31
0.0
  0
LINE
  5
8B6
330
85C
100
AcDbEntity
  8
1
  6
Continuous
100
AcDbLine
 10
513.009583
 20
190.055008
 30
0.0
 11
509.5095519999999
 21
190.055008
 31
0.0
  0
LINE
  5
8B7
330
85C
100
AcDbEntity
  8
1
  6
Continuous
100
AcDbLine
 10
509.5095519999999
 20
190.055008
 30
0.0
 11
509.5095519999999
 21
172.0550079999999
 31
0.0
  0
LINE
  5
8B8
330
85C
100
AcDbEntity
  8
1
  6
Continuous
100
AcDbLine
 10
510.5095639999998
 20
190.055008
 30
0.0
 11
510.5095639999998
 21
172.0550079999999
 31
0.0
  0
LINE
  5
8B9
330
85C
100
AcDbEntity
  8
1
  6
Continuous
100
AcDbLine
 10
513.009583
 20
172.0550079999999
 30
0.0
 11
509.5095519999999
 21
172.0550079999999
 31
0.0
  0
LINE
  5
8BA
330
85C
100
AcDbEntity
  8
1
  6
Continuous
100
AcDbLine
 10
513.009583
 20
190.055008
 30
0.0
 11
513.009583
 21
172.0550079999999
 31
0.0
  0
LINE
  5
8BB
330
85C
100
AcDbEntity
  8
1
  6
Continuous
100
AcDbLine
 10
344.8808899999999
 20
154.455008
 30
0.0
 11
344.8808899999999
 21
172.0550079999999
 31
0.0
  0
LINE
  5
8BC
330
85C
100
AcDbEntity
  8
1
  6
Continuous
100
AcDbLine
 10
344.8808899999999
 20
154.455008
 30
0.0
 11
316.3808959999999
 21
154.455008
 31
0.0
  0
LINE
  5
8BD
330
85C
100
AcDbEntity
  8
1
  6
Continuous
100
AcDbLine
 10
344.8808899999999
 20
197.455008
 30
0.0
 11
343.8808899999998
 21
197.455008
 31
0.0
  0
LINE
  5
8BE
330
85C
100
AcDbEntity
  8
1
  6
Continuous
100
AcDbLine
 10
316.3808959999999
 20
154.455008
 30
0.0
 11
316.3808959999999
 21
172.0550079999999
 31
0.0
  0
LINE
  5
8BF
330
85C
100
AcDbEntity
  8
1
  6
Continuous
100
AcDbLine
 10
341.8808899999999
 20
156.455008
 30
0.0
 11
341.8808899999999
 21
172.0550079999999
 31
0.0
  0
LINE
  5
8C0
330
85C
100
AcDbEntity
  8
1
  6
Continuous
100
AcDbLine
 10
344.4808959999999
 20
197.855002
 30
0.0
 11
343.3808899999998
 21
197.855002
 31
0.0
  0
LINE
  5
8C1
330
85C
100
AcDbEntity
  8
1
  6
Continuous
100
AcDbLine
 10
344.4808959999999
 20
197.455008
 30
0.0
 11
344.4808959999999
 21
197.855002
 31
0.0
  0
LINE
  5
8C2
330
85C
100
AcDbEntity
  8
1
  6
Continuous
100
AcDbLine
 10
316.7808899999998
 20
190.055008
 30
0.0
 11
316.7808899999998
 21
197.855002
 31
0.0
  0
LINE
  5
8C3
330
85C
100
AcDbEntity
  8
1
  6
Continuous
100
AcDbLine
 10
330.9808959999998
 20
193.855002
 30
0.0
 11
318.7808899999998
 21
193.855002
 31
0.0
  0
LINE
  5
8C4
330
85C
100
AcDbEntity
  8
1
  6
Continuous
100
AcDbLine
 10
332.9808959999998
 20
195.855002
 30
0.0
 11
332.9808959999998
 21
197.855002
 31
0.0
  0
LINE
  5
8C5
330
85C
100
AcDbEntity
  8
1
  6
Continuous
100
AcDbLine
 10
319.3808959999998
 20
156.455008
 30
0.0
 11
319.3808959999998
 21
172.0550079999999
 31
0.0
  0
LINE
  5
8C6
330
85C
100
AcDbEntity
  8
1
  6
Continuous
100
AcDbLine
 10
316.7808899999998
 20
197.455008
 30
0.0
 11
316.3808959999999
 21
197.455008
 31
0.0
  0
LINE
  5
8C7
330
85C
100
AcDbEntity
  8
1
  6
Continuous
100
AcDbLine
 10
183.9904479999999
 20
465.6171329999998
 30
0.0
 11
176.3904419999998
 21
465.6171329999998
 31
0.0
  0
LINE
  5
8C8
330
85C
100
AcDbEntity
  8
1
  6
Continuous
100
AcDbLine
 10
175.9904479999999
 20
478.0202639999997
 30
0.0
 11
175.9904479999999
 21
477.2140499999999
 31
0.0
  0
LINE
  5
8C9
330
85C
100
AcDbEntity
  8
1
  6
Continuous
100
AcDbLine
 10
183.9904479999999
 20
493.7171629999999
 30
0.0
 11
183.9904479999999
 21
491.1171259999998
 31
0.0
  0
LINE
  5
8CA
330
85C
100
AcDbEntity
  8
1
  6
Continuous
100
AcDbLine
 10
183.5904389999998
 20
494.1171259999999
 30
0.0
 11
181.8904419999999
 21
494.1171259999999
 31
0.0
  0
LINE
  5
8CB
330
85C
100
AcDbEntity
  8
1
  6
Continuous
100
AcDbLine
 10
183.5904389999998
 20
493.7171629999999
 30
0.0
 11
181.8904419999999
 21
493.7171629999999
 31
0.0
  0
LINE
  5
8CC
330
85C
100
AcDbEntity
  8
1
  6
Continuous
100
AcDbLine
 10
183.9904479999999
 20
491.1171259999998
 30
0.0
 11
183.5904389999998
 21
491.1171259999998
 31
0.0
  0
LINE
  5
8CD
330
85C
100
AcDbEntity
  8
1
  6
Continuous
100
AcDbLine
 10
183.9904479999999
 20
482.2171629999998
 30
0.0
 11
181.8904419999999
 21
482.2171629999998
 31
0.0
  0
LINE
  5
8CE
330
85C
100
AcDbEntity
  8
1
  6
Continuous
100
AcDbLine
 10
183.9904479999999
 20
482.2171629999998
 30
0.0
 11
183.9904479999999
 21
465.6171329999998
 31
0.0
  0
LINE
  5
8CF
330
85C
100
AcDbEntity
  8
1
  6
Continuous
100
AcDbLine
 10
183.9904479999999
 20
466.0171570000001
 30
0.0
 11
175.9904479999999
 21
466.0171570000001
 31
0.0
  0
LINE
  5
8D0
330
85C
100
AcDbEntity
  8
1
  6
Continuous
100
AcDbLine
 10
65.59999999999999
 20
154.455008
 30
0.0
 11
65.59999999999999
 21
197.455008
 31
0.0
  0
LINE
  5
8D1
330
85C
100
AcDbEntity
  8
1
  6
Continuous
100
AcDbLine
 10
37.099998
 20
154.455008
 30
0.0
 11
65.59999999999999
 21
154.455008
 31
0.0
  0
LINE
  5
8D2
330
85C
100
AcDbEntity
  8
1
  6
Continuous
100
AcDbLine
 10
37.099998
 20
154.455008
 30
0.0
 11
37.099998
 21
197.455008
 31
0.0
  0
LINE
  5
8D3
330
85C
100
AcDbEntity
  8
1
  6
Continuous
100
AcDbLine
 10
37.5
 20
197.855002
 30
0.0
 11
65.19999799999999
 21
197.855002
 31
0.0
  0
LINE
  5
8D4
330
85C
100
AcDbEntity
  8
1
  6
Continuous
100
AcDbLine
 10
37.5
 20
197.455008
 30
0.0
 11
37.5
 21
197.855002
 31
0.0
  0
LINE
  5
8D5
330
85C
100
AcDbEntity
  8
1
  6
Continuous
100
AcDbLine
 10
65.19999799999999
 20
197.455008
 30
0.0
 11
65.19999799999999
 21
197.855002
 31
0.0
  0
LINE
  5
8D6
330
85C
100
AcDbEntity
  8
1
  6
Continuous
100
AcDbLine
 10
65.19999799999999
 20
197.455008
 30
0.0
 11
65.59999999999999
 21
197.455008
 31
0.0
  0
LINE
  5
8D7
330
85C
100
AcDbEntity
  8
1
  6
Continuous
100
AcDbLine
 10
37.5
 20
197.455008
 30
0.0
 11
37.099998
 21
197.455008
 31
0.0
  0
LINE
  5
8D8
330
85C
100
AcDbEntity
  8
1
  6
Continuous
100
AcDbLine
 10
183.5904389999998
 20
53.5
 30
0.0
 11
183.5904389999998
 21
81.6
 31
0.0
  0
LINE
  5
8D9
330
85C
100
AcDbEntity
  8
1
  6
Continuous
100
AcDbLine
 10
176.590439
 20
53.599998
 30
0.0
 11
183.5904389999998
 21
53.599998
 31
0.0
  0
LINE
  5
8DA
330
85C
100
AcDbEntity
  8
1
  6
Continuous
100
AcDbLine
 10
176.590439
 20
64.800003
 30
0.0
 11
176.590439
 21
77.5
 31
0.0
  0
LINE
  5
8DB
330
85C
100
AcDbEntity
  8
1
  6
Continuous
100
AcDbLine
 10
176.3904419999998
 20
54.599998
 30
0.0
 11
182.5904389999998
 21
54.599998
 31
0.0
  0
LINE
  5
8DC
330
85C
100
AcDbEntity
  8
1
  6
Continuous
100
AcDbLine
 10
182.5904389999998
 20
54.599998
 30
0.0
 11
182.5904389999998
 21
64.800003
 31
0.0
  0
LINE
  5
8DD
330
85C
100
AcDbEntity
  8
1
  6
Continuous
100
AcDbLine
 10
179.590439
 20
64.800003
 30
0.0
 11
182.5904389999998
 21
64.800003
 31
0.0
  0
LINE
  5
8DE
330
85C
100
AcDbEntity
  8
1
  6
Continuous
100
AcDbLine
 10
179.590439
 20
65.800003
 30
0.0
 11
182.5904389999998
 21
65.800003
 31
0.0
  0
LINE
  5
8DF
330
85C
100
AcDbEntity
  8
1
  6
Continuous
100
AcDbLine
 10
179.590439
 20
64.800003
 30
0.0
 11
179.590439
 21
65.800003
 31
0.0
  0
LINE
  5
8E0
330
85C
100
AcDbEntity
  8
1
  6
Continuous
100
AcDbLine
 10
176.590439
 20
53.599998
 30
0.0
 11
176.590439
 21
54.599998
 31
0.0
  0
LINE
  5
8E1
330
85C
100
AcDbEntity
  8
1
  6
Continuous
100
AcDbLine
 10
183.5904389999998
 20
493.7171629999999
 30
0.0
 11
183.5904389999998
 21
489.1671139999998
 31
0.0
  0
LINE
  5
8E2
330
85C
100
AcDbEntity
  8
1
  6
Continuous
100
AcDbLine
 10
182.5904389999998
 20
482.6171259999998
 30
0.0
 11
182.5904389999998
 21
482.4171139999998
 31
0.0
  0
LINE
  5
8E3
330
85C
100
AcDbEntity
  8
1
  6
Continuous
100
AcDbLine
 10
181.8904419999999
 20
482.4171139999998
 30
0.0
 11
183.5904389999998
 21
482.4171139999998
 31
0.0
  0
LINE
  5
8E4
330
85C
100
AcDbEntity
  8
1
  6
Continuous
100
AcDbLine
 10
316.8808959999998
 20
195.2305049999999
 30
0.0
 11
316.8808959999998
 21
190.055008
 31
0.0
  0
LINE
  5
8E5
330
85C
100
AcDbEntity
  8
1
  6
Continuous
100
AcDbLine
 10
341.9730109999998
 20
196.0550079999999
 30
0.0
 11
333.180878
 21
196.0550079999999
 31
0.0
  0
LINE
  5
8E6
330
85C
100
AcDbEntity
  8
1
  6
Continuous
100
AcDbLine
 10
332.180878
 20
171.4550079999999
 30
0.0
 11
330.1808779999999
 21
171.4550079999999
 31
0.0
  0
LINE
  5
8E7
330
85C
100
AcDbEntity
  8
1
  6
Continuous
100
AcDbLine
 10
332.180878
 20
171.4550079999999
 30
0.0
 11
332.180878
 21
154.455008
 31
0.0
  0
LINE
  5
8E8
330
85C
100
AcDbEntity
  8
1
  6
Continuous
100
AcDbLine
 10
330.1808779999999
 20
171.4550079999999
 30
0.0
 11
330.1808779999999
 21
154.455008
 31
0.0
  0
LINE
  5
8E9
330
85C
100
AcDbEntity
  8
1
  6
Continuous
100
AcDbLine
 10
333.180878
 20
197.455008
 30
0.0
 11
333.180878
 21
196.0550079999999
 31
0.0
  0
LINE
  5
8EA
330
85C
100
AcDbEntity
  8
1
  6
Continuous
100
AcDbLine
 10
61.6
 20
154.054999
 30
0.0
 11
65.19999799999999
 21
154.054999
 31
0.0
  0
LINE
  5
8EB
330
85C
100
AcDbEntity
  8
1
  6
Continuous
100
AcDbLine
 10
61.6
 20
154.455008
 30
0.0
 11
61.6
 21
154.054999
 31
0.0
  0
LINE
  5
8EC
330
85C
100
AcDbEntity
  8
1
  6
Continuous
100
AcDbLine
 10
183.5904389999998
 20
197.855002
 30
0.0
 11
176.3904419999998
 21
197.855002
 31
0.0
  0
LINE
  5
8ED
330
85C
100
AcDbEntity
  8
1
  6
Continuous
100
AcDbLine
 10
183.9904479999999
 20
154.455008
 30
0.0
 11
183.9904479999999
 21
182.4550079999999
 31
0.0
  0
LINE
  5
8EE
330
85C
100
AcDbEntity
  8
1
  6
Continuous
100
AcDbLine
 10
175.9904479999999
 20
154.455008
 30
0.0
 11
175.9904479999999
 21
197.455008
 31
0.0
  0
LINE
  5
8EF
330
85C
100
AcDbEntity
  8
1
  6
Continuous
100
AcDbLine
 10
183.9904479999999
 20
154.455008
 30
0.0
 11
183.5904389999998
 21
154.455008
 31
0.0
  0
LINE
  5
8F0
330
85C
100
AcDbEntity
  8
1
  6
Continuous
100
AcDbLine
 10
183.5904389999998
 20
154.054999
 30
0.0
 11
183.5904389999998
 21
154.455008
 31
0.0
  0
LINE
  5
8F1
330
85C
100
AcDbEntity
  8
1
  6
Continuous
100
AcDbLine
 10
176.3904419999998
 20
154.054999
 30
0.0
 11
176.3904419999998
 21
154.455008
 31
0.0
  0
LINE
  5
8F2
330
85C
100
AcDbEntity
  8
1
  6
Continuous
100
AcDbLine
 10
176.3904419999998
 20
154.455008
 30
0.0
 11
175.9904479999999
 21
154.455008
 31
0.0
  0
LINE
  5
8F3
330
85C
100
AcDbEntity
  8
1
  6
Continuous
100
AcDbLine
 10
183.5904389999998
 20
197.455008
 30
0.0
 11
175.9904479999999
 21
197.455008
 31
0.0
  0
LINE
  5
8F4
330
85C
100
AcDbEntity
  8
1
  6
Continuous
100
AcDbLine
 10
183.5904389999998
 20
182.4550079999999
 30
0.0
 11
183.5904389999998
 21
197.455008
 31
0.0
  0
LINE
  5
8F5
330
85C
100
AcDbEntity
  8
1
  6
Continuous
100
AcDbLine
 10
183.9904479999999
 20
193.855002
 30
0.0
 11
183.5904389999998
 21
193.855002
 31
0.0
  0
LINE
  5
8F6
330
85C
100
AcDbEntity
  8
1
  6
Continuous
100
AcDbLine
 10
183.9904479999999
 20
182.4550079999999
 30
0.0
 11
183.5904389999998
 21
182.4550079999999
 31
0.0
  0
LINE
  5
8F7
330
85C
100
AcDbEntity
  8
1
  6
Continuous
100
AcDbLine
 10
176.3904419999998
 20
154.054999
 30
0.0
 11
183.5904389999998
 21
154.054999
 31
0.0
  0
LINE
  5
8F8
330
85C
100
AcDbEntity
  8
1
  6
Continuous
100
AcDbLine
 10
38.79999899999999
 20
148.055002
 30
0.0
 11
57.400002
 21
148.055002
 31
0.0
  0
LINE
  5
8F9
330
85C
100
AcDbEntity
  8
1
  6
Continuous
100
AcDbLine
 10
38.79999899999999
 20
148.055002
 30
0.0
 11
38.79999899999999
 21
154.455008
 31
0.0
  0
LINE
  5
8FA
330
85C
100
AcDbEntity
  8
1
  6
Continuous
100
AcDbLine
 10
57.400002
 20
148.055002
 30
0.0
 11
57.400002
 21
154.455008
 31
0.0
  0
LINE
  5
8FB
330
85C
100
AcDbEntity
  8
1
  6
Continuous
100
AcDbLine
 10
180.790451
 20
148.0550079999999
 30
0.0
 11
180.790451
 21
154.054999
 31
0.0
  0
LINE
  5
8FC
330
85C
100
AcDbEntity
  8
1
  6
Continuous
100
AcDbLine
 10
176.7904509999999
 20
148.0550079999999
 30
0.0
 11
176.7904509999999
 21
154.054999
 31
0.0
  0
LINE
  5
8FD
330
85C
100
AcDbEntity
  8
1
  6
Continuous
100
AcDbLine
 10
178.3904419999998
 20
73.400002
 30
0.0
 11
180.790451
 21
73.400002
 31
0.0
  0
LINE
  5
8FE
330
85C
100
AcDbEntity
  8
1
  6
Continuous
100
AcDbLine
 10
178.3904419999998
 20
54.799999
 30
0.0
 11
180.790451
 21
54.799999
 31
0.0
  0
LINE
  5
8FF
330
85C
100
AcDbEntity
  8
1
  6
Continuous
100
AcDbLine
 10
178.3904419999998
 20
56.400002
 30
0.0
 11
178.3904419999998
 21
71.800003
 31
0.0
  0
LINE
  5
900
330
85C
100
AcDbEntity
  8
1
  6
Continuous
100
AcDbLine
 10
180.790451
 20
54.799999
 30
0.0
 11
180.790451
 21
56.400002
 31
0.0
  0
LINE
  5
901
330
85C
100
AcDbEntity
  8
1
  6
Continuous
100
AcDbLine
 10
178.3904419999998
 20
71.800003
 30
0.0
 11
180.790451
 21
71.800003
 31
0.0
  0
LINE
  5
902
330
85C
100
AcDbEntity
  8
1
  6
Continuous
100
AcDbLine
 10
178.3904419999998
 20
56.400002
 30
0.0
 11
181.3904419999999
 21
56.400002
 31
0.0
  0
LINE
  5
903
330
85C
100
AcDbEntity
  8
1
  6
Continuous
100
AcDbLine
 10
180.790451
 20
71.800003
 30
0.0
 11
180.790451
 21
73.400002
 31
0.0
  0
LINE
  5
904
330
85C
100
AcDbEntity
  8
4
  6
CENTER
 48
0.1
100
AcDbLine
 10
174.9904479999999
 20
59.799999
 30
0.0
 11
178.9904479999999
 21
59.799999
 31
0.0
  0
LINE
  5
905
330
85C
100
AcDbEntity
  8
4
  6
CENTER
 48
0.2
100
AcDbLine
 10
173.9904479999999
 20
181.0550079999999
 30
0.0
 11
189.990448
 21
181.0550079999999
 31
0.0
  0
LINE
  5
906
330
85C
100
AcDbEntity
  8
1
  6
Continuous
100
AcDbLine
 10
183.5904389999998
 20
185.0550079999999
 30
0.0
 11
184.590439
 21
185.0550079999999
 31
0.0
  0
LINE
  5
907
330
85C
100
AcDbEntity
  8
1
  6
Continuous
100
AcDbLine
 10
183.9904479999999
 20
177.0550079999999
 30
0.0
 11
184.590439
 21
177.0550079999999
 31
0.0
  0
LINE
  5
908
330
85C
100
AcDbEntity
  8
1
  6
Continuous
100
AcDbLine
 10
183.9904479999999
 20
185.0550079999999
 30
0.0
 11
183.9904479999999
 21
197.455008
 31
0.0
  0
LINE
  5
909
330
85C
100
AcDbEntity
  8
1
  6
Continuous
100
AcDbLine
 10
183.9904479999999
 20
56.099998
 30
0.0
 11
183.5904389999998
 21
56.099998
 31
0.0
  0
LINE
  5
90A
330
85C
100
AcDbEntity
  8
1
  6
Continuous
100
AcDbLine
 10
183.5904389999998
 20
53.09999799999999
 30
0.0
 11
176.3904419999998
 21
53.09999799999999
 31
0.0
  0
LINE
  5
90B
330
85C
100
AcDbEntity
  8
1
  6
Continuous
100
AcDbLine
 10
175.9904479999999
 20
53.5
 30
0.0
 11
175.9904479999999
 21
81.199998
 31
0.0
  0
LINE
  5
90C
330
85C
100
AcDbEntity
  8
1
  6
Continuous
100
AcDbLine
 10
183.9904479999999
 20
53.5
 30
0.0
 11
183.9904479999999
 21
56.099998
 31
0.0
  0
LINE
  5
90D
330
85C
100
AcDbEntity
  8
1
  6
Continuous
100
AcDbLine
 10
183.9904479999999
 20
81.6
 30
0.0
 11
176.3904419999998
 21
81.6
 31
0.0
  0
LINE
  5
90E
330
85C
100
AcDbEntity
  8
1
  6
Continuous
100
AcDbLine
 10
176.3904419999998
 20
53.5
 30
0.0
 11
176.3904419999998
 21
81.199998
 31
0.0
  0
LINE
  5
90F
330
85C
100
AcDbEntity
  8
1
  6
Continuous
100
AcDbLine
 10
183.9904479999999
 20
78.59999999999998
 30
0.0
 11
183.9904479999999
 21
81.6
 31
0.0
  0
LINE
  5
910
330
85C
100
AcDbEntity
  8
1
  6
Continuous
100
AcDbLine
 10
183.5904389999998
 20
66.0
 30
0.0
 11
184.590439
 21
66.0
 31
0.0
  0
LINE
  5
911
330
85C
100
AcDbEntity
  8
1
  6
Continuous
100
AcDbLine
 10
183.5904389999998
 20
74.0
 30
0.0
 11
184.590439
 21
74.0
 31
0.0
  0
LINE
  5
912
330
85C
100
AcDbEntity
  8
1
  6
Continuous
100
AcDbLine
 10
514.0095829999998
 20
197.855002
 30
0.0
 11
516.2095339999998
 21
197.855002
 31
0.0
  0
LINE
  5
913
330
85C
100
AcDbEntity
  8
1
  6
Continuous
100
AcDbLine
 10
513.609558
 20
154.455008
 30
0.0
 11
513.609558
 21
197.455008
 31
0.0
  0
LINE
  5
914
330
85C
100
AcDbEntity
  8
1
  6
Continuous
100
AcDbLine
 10
521.609558
 20
154.455008
 30
0.0
 11
521.609558
 21
197.455008
 31
0.0
  0
LINE
  5
915
330
85C
100
AcDbEntity
  8
1
  6
Continuous
100
AcDbLine
 10
514.0095829999998
 20
154.054999
 30
0.0
 11
514.0095829999998
 21
154.455008
 31
0.0
  0
LINE
  5
916
330
85C
100
AcDbEntity
  8
1
  6
Continuous
100
AcDbLine
 10
521.2095339999998
 20
154.054999
 30
0.0
 11
521.2095339999998
 21
154.455008
 31
0.0
  0
LINE
  5
917
330
85C
100
AcDbEntity
  8
1
  6
Continuous
100
AcDbLine
 10
513.609558
 20
154.455008
 30
0.0
 11
521.609558
 21
154.455008
 31
0.0
  0
LINE
  5
918
330
85C
100
AcDbEntity
  8
1
  6
Continuous
100
AcDbLine
 10
513.609558
 20
197.455008
 30
0.0
 11
521.609558
 21
197.455008
 31
0.0
  0
LINE
  5
919
330
85C
100
AcDbEntity
  8
1
  6
Continuous
100
AcDbLine
 10
521.2095339999998
 20
154.054999
 30
0.0
 11
520.80957
 21
154.054999
 31
0.0
  0
LINE
  5
91A
330
85C
100
AcDbEntity
  8
1
  6
Continuous
100
AcDbLine
 10
320.3808959999999
 20
154.054999
 30
0.0
 11
316.7808899999998
 21
154.054999
 31
0.0
  0
LINE
  5
91B
330
85C
100
AcDbEntity
  8
1
  6
Continuous
100
AcDbLine
 10
320.3808959999999
 20
154.054999
 30
0.0
 11
320.3808959999999
 21
154.455008
 31
0.0
  0
LINE
  5
91C
330
85C
100
AcDbEntity
  8
1
  6
Continuous
100
AcDbLine
 10
344.8808899999999
 20
190.055008
 30
0.0
 11
344.8808899999999
 21
197.455008
 31
0.0
  0
LINE
  5
91D
330
85C
100
AcDbEntity
  8
1
  6
Continuous
100
AcDbLine
 10
341.8808899999999
 20
190.055008
 30
0.0
 11
341.8808899999999
 21
195.4550079999999
 31
0.0
  0
LINE
  5
91E
330
85C
100
AcDbEntity
  8
1
  6
Continuous
100
AcDbLine
 10
316.3808959999999
 20
190.055008
 30
0.0
 11
316.3808959999999
 21
197.455008
 31
0.0
  0
LINE
  5
91F
330
85C
100
AcDbEntity
  8
1
  6
Continuous
100
AcDbLine
 10
333.3808899999999
 20
197.855002
 30
0.0
 11
316.7808899999998
 21
197.855002
 31
0.0
  0
LINE
  5
920
330
85C
100
AcDbEntity
  8
1
  6
Continuous
100
AcDbLine
 10
333.3808899999999
 20
197.455008
 30
0.0
 11
332.9808959999998
 21
197.455008
 31
0.0
  0
LINE
  5
921
330
85C
100
AcDbEntity
  8
1
  6
Continuous
100
AcDbLine
 10
187.0904419999998
 20
469.2171509999998
 30
0.0
 11
187.0904419999997
 21
455.217133
 31
0.0
  0
LINE
  5
922
330
85C
100
AcDbEntity
  8
4
  6
CENTER
 48
0.1
100
AcDbLine
 10
182.5904389999998
 20
477.2171629999998
 30
0.0
 11
187.790451
 21
477.2171629999998
 31
0.0
  0
LINE
  5
923
330
85C
100
AcDbEntity
  8
1
  6
Continuous
100
AcDbLine
 10
185.590451
 20
470.2171329999996
 30
0.0
 11
187.0904389999997
 21
470.2171329999996
 31
0.0
  0
LINE
  5
924
330
85C
100
AcDbEntity
  8
1
  6
Continuous
100
AcDbLine
 10
188.0904389999998
 20
485.2171629999999
 30
0.0
 11
188.0904389999997
 21
506.2171629999999
 31
0.0
  0
LINE
  5
925
330
85C
100
AcDbEntity
  8
1
  6
Continuous
100
AcDbLine
 10
185.590451
 20
470.2171329999996
 30
0.0
 11
185.590451
 21
484.217163
 31
0.0
  0
LINE
  5
926
330
85C
100
AcDbEntity
  8
1
  6
Continuous
100
AcDbLine
 10
185.590439
 20
469.2171509999998
 30
0.0
 11
187.0904419999997
 21
469.2171509999998
 31
0.0
  0
LINE
  5
927
330
85C
100
AcDbEntity
  8
1
  6
Continuous
100
AcDbLine
 10
185.590451
 20
484.217163
 30
0.0
 11
187.0904389999998
 21
484.217163
 31
0.0
  0
LINE
  5
928
330
85C
100
AcDbEntity
  8
1
  6
Continuous
100
AcDbLine
 10
185.590439
 20
485.2171139999998
 30
0.0
 11
187.0904419999997
 21
485.217114
 31
0.0
  0
LINE
  5
929
330
85C
100
AcDbEntity
  8
1
  6
Continuous
100
AcDbLine
 10
187.0904419999997
 20
485.217114
 30
0.0
 11
187.0904419999997
 21
506.2171629999999
 31
0.0
  0
LINE
  5
92A
330
85C
100
AcDbEntity
  8
1
  6
Continuous
100
AcDbLine
 10
184.590439
 20
470.2171509999998
 30
0.0
 11
184.590439
 21
484.2171139999998
 31
0.0
  0
LINE
  5
92B
330
85C
100
AcDbEntity
  8
1
  6
Continuous
100
AcDbLine
 10
187.0904419999997
 20
506.2171629999999
 30
0.0
 11
188.0904389999997
 21
506.2171629999999
 31
0.0
  0
LINE
  5
92C
330
85C
100
AcDbEntity
  8
1
  6
Continuous
100
AcDbLine
 10
187.0904419999997
 20
455.217133
 30
0.0
 11
188.0904389999997
 21
455.217133
 31
0.0
  0
LINE
  5
92D
330
85C
100
AcDbEntity
  8
4
  6
CENTER
 48
0.1
100
AcDbLine
 10
184.8904419999998
 20
500.2171629999998
 30
0.0
 11
190.0904389999998
 21
500.2171629999998
 31
0.0
  0
LINE
  5
92E
330
85C
100
AcDbEntity
  8
1
  6
Continuous
100
AcDbLine
 10
188.0904389999997
 20
469.2171329999998
 30
0.0
 11
188.0904389999997
 21
455.217133
 31
0.0
  0
LINE
  5
92F
330
85C
100
AcDbEntity
  8
4
  6
CENTER
 48
0.1
100
AcDbLine
 10
184.8904419999998
 20
461.2171329999998
 30
0.0
 11
190.0904389999998
 21
461.2171329999998
 31
0.0
  0
LINE
  5
930
330
85C
100
AcDbEntity
  8
1
  6
Continuous
100
AcDbLine
 10
183.5904389999998
 20
486.0671389999998
 30
0.0
 11
183.5904389999998
 21
482.2171629999998
 31
0.0
  0
LINE
  5
931
330
85C
100
AcDbEntity
  8
1
  6
Continuous
100
AcDbLine
 10
516.80957
 20
148.0550079999999
 30
0.0
 11
516.80957
 21
154.455008
 31
0.0
  0
LINE
  5
932
330
85C
100
AcDbEntity
  8
1
  6
Continuous
100
AcDbLine
 10
520.80957
 20
148.0550079999999
 30
0.0
 11
520.80957
 21
154.455008
 31
0.0
  0
LINE
  5
933
330
85C
100
AcDbEntity
  8
1
  6
Continuous
100
AcDbLine
 10
179.3904419999998
 20
76.28555299999998
 30
0.0
 11
182.3904419999998
 21
76.28555299999998
 31
0.0
  0
LINE
  5
934
330
85C
100
AcDbEntity
  8
1
  6
Continuous
100
AcDbLine
 10
179.3904419999998
 20
64.599998
 30
0.0
 11
179.3904419999998
 21
71.800003
 31
0.0
  0
LINE
  5
935
330
85C
100
AcDbEntity
  8
1
  6
Continuous
100
AcDbLine
 10
182.3904419999998
 20
65.800003
 30
0.0
 11
182.3904419999998
 21
77.5
 31
0.0
  0
LINE
  5
936
330
85C
100
AcDbEntity
  8
1
  6
Continuous
100
AcDbLine
 10
332.180878
 20
156.855002
 30
0.0
 11
330.1808779999999
 21
156.855002
 31
0.0
  0
LINE
  5
937
330
85C
100
AcDbEntity
  8
1
  6
Continuous
100
AcDbLine
 10
343.180878
 20
148.0550079999999
 30
0.0
 11
343.180878
 21
154.455008
 31
0.0
  0
LINE
  5
938
330
85C
100
AcDbEntity
  8
1
  6
Continuous
100
AcDbLine
 10
324.5809019999998
 20
148.0550079999999
 30
0.0
 11
324.5809019999998
 21
154.455008
 31
0.0
  0
LINE
  5
939
330
85C
100
AcDbEntity
  8
1
  6
Continuous
100
AcDbLine
 10
341.5809019999998
 20
148.0550079999999
 30
0.0
 11
341.5809019999998
 21
154.455008
 31
0.0
  0
LINE
  5
93A
330
85C
100
AcDbEntity
  8
1
  6
Continuous
100
AcDbLine
 10
184.4904479999999
 20
489.617126
 30
0.0
 11
184.4904479999999
 21
485.6171259999999
 31
0.0
  0
LINE
  5
93B
330
85C
100
AcDbEntity
  8
1
  6
Continuous
100
AcDbLine
 10
184.4904629999998
 20
489.617126
 30
0.0
 11
183.4904479999999
 21
489.117126
 31
0.0
  0
LINE
  5
93C
330
85C
100
AcDbEntity
  8
1
  6
Continuous
100
AcDbLine
 10
183.490433
 20
486.1171259999998
 30
0.0
 11
184.490433
 21
485.6171259999999
 31
0.0
  0
LINE
  5
93D
330
85C
100
AcDbEntity
  8
1
  6
Continuous
100
AcDbLine
 10
182.5904389999998
 20
65.800003
 30
0.0
 11
182.5904389999998
 21
77.5
 31
0.0
  0
LINE
  5
93E
330
85C
100
AcDbEntity
  8
1
  6
Continuous
100
AcDbLine
 10
182.3904419999998
 20
75.0
 30
0.0
 11
182.5904389999998
 21
75.0
 31
0.0
  0
LINE
  5
93F
330
85C
100
AcDbEntity
  8
1
  6
Continuous
100
AcDbLine
 10
178.3904419999998
 20
67.0
 30
0.0
 11
179.090439
 21
67.0
 31
0.0
  0
LINE
  5
940
330
85C
100
AcDbEntity
  8
1
  6
Continuous
100
AcDbLine
 10
179.090439
 20
67.0
 30
0.0
 11
179.090439
 21
71.800003
 31
0.0
  0
LINE
  5
941
330
85C
100
AcDbEntity
  8
1
  6
Continuous
100
AcDbLine
 10
179.090439
 20
67.900002
 30
0.0
 11
179.3904419999998
 21
67.900002
 31
0.0
  0
LINE
  5
942
330
85C
100
AcDbEntity
  8
1
  6
Continuous
100
AcDbLine
 10
181.3904419999999
 20
54.599998
 30
0.0
 11
181.3904419999999
 21
64.800003
 31
0.0
  0
LINE
  5
943
330
85C
100
AcDbEntity
  8
1
  6
Continuous
100
AcDbLine
 10
176.7904509999999
 20
56.400002
 30
0.0
 11
176.7904509999999
 21
71.800003
 31
0.0
  0
LINE
  5
944
330
85C
100
AcDbEntity
  8
1
  6
Continuous
100
AcDbLine
 10
182.5904389999998
 20
67.80000300000001
 30
0.0
 11
183.5904389999998
 21
67.80000300000001
 31
0.0
  0
LINE
  5
945
330
85C
100
AcDbEntity
  8
1
  6
Continuous
100
AcDbLine
 10
176.590439
 20
64.800003
 30
0.0
 11
176.7904509999999
 21
64.800003
 31
0.0
  0
LINE
  5
946
330
85C
100
AcDbEntity
  8
1
  6
Continuous
100
AcDbLine
 10
176.3904419999998
 20
64.599998
 30
0.0
 11
176.7904509999999
 21
64.599998
 31
0.0
  0
LINE
  5
947
330
85C
100
AcDbEntity
  8
1
  6
Continuous
100
AcDbLine
 10
178.3904419999998
 20
54.599998
 30
0.0
 11
178.3904419999998
 21
54.799999
 31
0.0
  0
LINE
  5
948
330
85C
100
AcDbEntity
  8
1
  6
Continuous
100
AcDbLine
 10
178.3904419999998
 20
64.800003
 30
0.0
 11
179.3904419999998
 21
64.800003
 31
0.0
  0
LINE
  5
949
330
85C
100
AcDbEntity
  8
1
  6
Continuous
100
AcDbLine
 10
184.4904629999998
 20
373.054993
 30
0.0
 11
183.4904479999999
 21
372.554993
 31
0.0
  0
LINE
  5
94A
330
85C
100
AcDbEntity
  8
1
  6
Continuous
100
AcDbLine
 10
183.4904479999999
 20
369.554993
 30
0.0
 11
184.4904479999999
 21
369.054993
 31
0.0
  0
LINE
  5
94B
330
85C
100
AcDbEntity
  8
1
  6
Continuous
100
AcDbLine
 10
184.4904479999999
 20
373.054993
 30
0.0
 11
184.4904479999999
 21
369.054993
 31
0.0
  0
LINE
  5
94C
330
85C
100
AcDbEntity
  8
1
  6
Continuous
100
AcDbLine
 10
184.4904479999999
 20
61.600002
 30
0.0
 11
183.5904539999999
 21
61.150005
 31
0.0
  0
LINE
  5
94D
330
85C
100
AcDbEntity
  8
1
  6
Continuous
100
AcDbLine
 10
183.5904539999999
 20
58.04999200000001
 30
0.0
 11
184.4904479999999
 21
57.59999499999999
 31
0.0
  0
LINE
  5
94E
330
85C
100
AcDbEntity
  8
1
  6
Continuous
100
AcDbLine
 10
184.4904479999999
 20
61.599998
 30
0.0
 11
184.4904479999999
 21
57.599998
 31
0.0
  0
LINE
  5
94F
330
85C
100
AcDbEntity
  8
1
  6
Continuous
100
AcDbLine
 10
519.6095579999998
 20
197.455008
 30
0.0
 11
519.6095579999998
 21
197.855002
 31
0.0
  0
LINE
  5
950
330
85C
100
AcDbEntity
  8
1
  6
Continuous
100
AcDbLine
 10
184.590439
 20
473.2171629999998
 30
0.0
 11
183.9904479999999
 21
473.2171629999998
 31
0.0
  0
LINE
  5
951
330
85C
100
AcDbEntity
  8
1
  6
Continuous
100
AcDbLine
 10
184.590439
 20
481.2171629999999
 30
0.0
 11
183.9904479999999
 21
481.2171629999999
 31
0.0
  0
LINE
  5
952
330
85C
100
AcDbEntity
  8
1
  6
Continuous
100
AcDbLine
 10
513.009583
 20
185.0550079999999
 30
0.0
 11
513.609558
 21
185.0550079999999
 31
0.0
  0
LINE
  5
953
330
85C
100
AcDbEntity
  8
1
  6
Continuous
100
AcDbLine
 10
513.009583
 20
177.0550079999999
 30
0.0
 11
513.609558
 21
177.0550079999999
 31
0.0
  0
LINE
  5
954
330
85C
100
AcDbEntity
  8
1
  6
Continuous
100
AcDbLine
 10
186.5904509999999
 20
71.75
 30
0.0
 11
186.5904509999999
 21
68.25
 31
0.0
  0
LINE
  5
955
330
85C
100
AcDbEntity
  8
1
  6
Continuous
100
AcDbLine
 10
185.590451
 20
68.5
 30
0.0
 11
186.5904509999999
 21
68.25
 31
0.0
  0
LINE
  5
956
330
85C
100
AcDbEntity
  8
1
  6
Continuous
100
AcDbLine
 10
185.590451
 20
71.5
 30
0.0
 11
186.5904509999999
 21
71.75
 31
0.0
  0
LINE
  5
957
330
85C
100
AcDbEntity
  8
1
  6
Continuous
100
AcDbLine
 10
186.5904509999999
 20
475.4671629999998
 30
0.0
 11
186.5904509999999
 21
478.9671629999999
 31
0.0
  0
LINE
  5
958
330
85C
100
AcDbEntity
  8
1
  6
Continuous
100
AcDbLine
 10
186.5904509999999
 20
475.4671629999998
 30
0.0
 11
185.590451
 21
475.717163
 31
0.0
  0
LINE
  5
959
330
85C
100
AcDbEntity
  8
1
  6
Continuous
100
AcDbLine
 10
186.5904359999998
 20
478.9671019999998
 30
0.0
 11
185.590451
 21
478.7171019999998
 31
0.0
  0
LINE
  5
95A
330
85C
100
AcDbEntity
  8
1
  6
Continuous
100
AcDbLine
 10
513.109558
 20
369.054993
 30
0.0
 11
514.1095579999999
 21
369.554993
 31
0.0
  0
LINE
  5
95B
330
85C
100
AcDbEntity
  8
1
  6
Continuous
100
AcDbLine
 10
514.1095579999999
 20
372.554993
 30
0.0
 11
513.109558
 21
373.054993
 31
0.0
  0
LINE
  5
95C
330
85C
100
AcDbEntity
  8
1
  6
Continuous
100
AcDbLine
 10
513.109558
 20
369.054993
 30
0.0
 11
513.109558
 21
373.054993
 31
0.0
  0
LINE
  5
95D
330
85C
100
AcDbEntity
  8
1
  6
Continuous
100
AcDbLine
 10
179.3904419999998
 20
73.400002
 30
0.0
 11
179.3904419999998
 21
77.5
 31
0.0
  0
LINE
  5
95E
330
85C
100
AcDbEntity
  8
1
  6
Continuous
100
AcDbLine
 10
181.3904419999999
 20
154.054999
 30
0.0
 11
181.3904419999999
 21
148.0550079999999
 31
0.0
  0
LINE
  5
95F
330
85C
100
AcDbEntity
  8
1
  6
Continuous
100
AcDbLine
 10
519.2095339999998
 20
197.855002
 30
0.0
 11
521.2095339999998
 21
197.855002
 31
0.0
  0
LINE
  5
960
330
85C
100
AcDbEntity
  8
1
  6
Continuous
100
AcDbLine
 10
516.2095339999998
 20
154.455008
 30
0.0
 11
516.2095339999998
 21
148.0550079999999
 31
0.0
  0
LINE
  5
961
330
85C
100
AcDbEntity
  8
1
  6
Continuous
100
AcDbLine
 10
516.2095339999998
 20
154.054999
 30
0.0
 11
514.0095829999998
 21
154.054999
 31
0.0
  0
LINE
  5
962
330
85C
100
AcDbEntity
  8
1
  6
Continuous
100
AcDbLine
 10
37.099998
 20
190.055008
 30
0.0
 11
34.0
 21
190.055008
 31
0.0
  0
LINE
  5
963
330
85C
100
AcDbEntity
  8
1
  6
Continuous
100
AcDbLine
 10
37.099998
 20
172.0550079999999
 30
0.0
 11
34.0
 21
172.0550079999999
 31
0.0
  0
LINE
  5
964
330
85C
100
AcDbEntity
  8
4
  6
CENTER
 48
0.5
100
AcDbLine
 10
43.59999799999999
 20
393.4374419999999
 30
0.0
 11
43.59999799999999
 21
144.955002
 31
0.0
  0
LINE
  5
965
330
85C
100
AcDbEntity
  8
5
  6
PHANTOM
 48
0.2
100
AcDbLine
 10
29.6
 20
387.554993
 30
0.0
 11
29.6
 21
389.1549989999999
 31
0.0
  0
LINE
  5
966
330
85C
100
AcDbEntity
  8
5
  6
PHANTOM
 48
0.2
100
AcDbLine
 10
57.599998
 20
387.554993
 30
0.0
 11
57.599998
 21
389.1549989999999
 31
0.0
  0
LINE
  5
967
330
85C
100
AcDbEntity
  8
5
  6
PHANTOM
 48
0.2
100
AcDbLine
 10
57.599998
 20
389.1549989999999
 30
0.0
 11
29.6
 21
389.1549989999999
 31
0.0
  0
LINE
  5
968
330
85C
100
AcDbEntity
  8
5
  6
PHANTOM
 48
0.2
100
AcDbLine
 10
57.599998
 20
387.554993
 30
0.0
 11
29.6
 21
387.554993
 31
0.0
  0
LINE
  5
969
330
85C
100
AcDbEntity
  8
4
  6
CENTER
 48
0.2
100
AcDbLine
 10
50.59999799999999
 20
381.554993
 30
0.0
 11
36.599998
 21
381.554993
 31
0.0
  0
LINE
  5
96A
330
85C
100
AcDbEntity
  8
1
  6
Continuous
100
AcDbLine
 10
38.599998
 20
371.054993
 30
0.0
 11
38.599998
 21
197.855002
 31
0.0
  0
LINE
  5
96B
330
85C
100
AcDbEntity
  8
1
  6
Continuous
100
AcDbLine
 10
48.599998
 20
371.054993
 30
0.0
 11
48.599998
 21
197.855002
 31
0.0
  0
LINE
  5
96C
330
85C
100
AcDbEntity
  8
5
  6
PHANTOM
 48
0.2
100
AcDbLine
 10
29.6
 20
207.0550079999999
 30
0.0
 11
29.6
 21
208.6549989999999
 31
0.0
  0
LINE
  5
96D
330
85C
100
AcDbEntity
  8
5
  6
PHANTOM
 48
0.2
100
AcDbLine
 10
57.599998
 20
207.0550079999999
 30
0.0
 11
57.599998
 21
208.6549989999999
 31
0.0
  0
LINE
  5
96E
330
85C
100
AcDbEntity
  8
5
  6
PHANTOM
 48
0.2
100
AcDbLine
 10
57.599998
 20
208.6549989999999
 30
0.0
 11
29.6
 21
208.6549989999999
 31
0.0
  0
LINE
  5
96F
330
85C
100
AcDbEntity
  8
5
  6
PHANTOM
 48
0.2
100
AcDbLine
 10
57.599998
 20
207.0550079999999
 30
0.0
 11
29.6
 21
207.0550079999999
 31
0.0
  0
LINE
  5
970
330
85C
100
AcDbEntity
  8
4
  6
CENTER
 48
0.2
100
AcDbLine
 10
50.59999799999999
 20
201.0550079999999
 30
0.0
 11
34.0
 21
201.0550079999999
 31
0.0
  0
LINE
  5
971
330
85C
100
AcDbEntity
  8
1
  6
Continuous
100
AcDbLine
 10
183.5904389999998
 20
77.5
 30
0.0
 11
176.3904419999998
 21
77.5
 31
0.0
  0
LINE
  5
972
330
85C
100
AcDbEntity
  8
1
  6
Continuous
100
AcDbLine
 10
183.5904389999998
 20
53.5
 30
0.0
 11
176.3904419999998
 21
53.5
 31
0.0
  0
LINE
  5
973
330
85C
100
AcDbEntity
  8
4
  6
CENTER
 48
0.1
100
AcDbLine
 10
328.3808899999999
 20
375.054993
 30
0.0
 11
328.3808899999999
 21
380.6549989999999
 31
0.0
  0
LINE
  5
974
330
85C
100
AcDbEntity
  8
4
  6
CENTER
 48
0.1
100
AcDbLine
 10
348.3808899999999
 20
375.054993
 30
0.0
 11
348.3808899999999
 21
380.6549989999999
 31
0.0
  0
LINE
  5
975
330
85C
100
AcDbEntity
  8
1
  6
Continuous
100
AcDbLine
 10
183.9904479999999
 20
78.59999999999998
 30
0.0
 11
183.5904389999998
 21
78.59999999999998
 31
0.0
  0
LINE
  5
976
330
85C
100
AcDbEntity
  8
4
  6
CENTER
 48
0.1
100
AcDbLine
 10
334.3808899999999
 20
201.0550079999999
 30
0.0
 11
342.3808899999999
 21
201.0550079999999
 31
0.0
  0
LINE
  5
977
330
85C
100
AcDbEntity
  8
5
  6
PHANTOM
 48
0.2
100
AcDbLine
 10
352.3808899999999
 20
207.0550079999999
 30
0.0
 11
352.3808899999999
 21
208.6549989999999
 31
0.0
  0
LINE
  5
978
330
85C
100
AcDbEntity
  8
5
  6
PHANTOM
 48
0.2
100
AcDbLine
 10
324.3808899999998
 20
207.0550079999999
 30
0.0
 11
324.3808899999998
 21
208.6549989999999
 31
0.0
  0
LINE
  5
979
330
85C
100
AcDbEntity
  8
5
  6
PHANTOM
 48
0.2
100
AcDbLine
 10
324.3808899999998
 20
208.6549989999999
 30
0.0
 11
352.3808899999999
 21
208.6549989999999
 31
0.0
  0
LINE
  5
97A
330
85C
100
AcDbEntity
  8
5
  6
PHANTOM
 48
0.2
100
AcDbLine
 10
324.3808899999998
 20
207.0550079999999
 30
0.0
 11
352.3808899999999
 21
207.0550079999999
 31
0.0
  0
LINE
  5
97B
330
85C
100
AcDbEntity
  8
5
  6
PHANTOM
 48
0.2
100
AcDbLine
 10
173.290451
 20
208.6549989999999
 30
0.0
 11
181.8904419999999
 21
208.6549989999999
 31
0.0
  0
LINE
  5
97C
330
85C
100
AcDbEntity
  8
5
  6
PHANTOM
 48
0.2
100
AcDbLine
 10
173.290451
 20
207.0550079999999
 30
0.0
 11
181.8904419999999
 21
207.0550079999999
 31
0.0
  0
LINE
  5
97D
330
85C
100
AcDbEntity
  8
5
  6
PHANTOM
 48
0.2
100
AcDbLine
 10
173.290451
 20
207.0550079999999
 30
0.0
 11
173.290451
 21
208.6549989999999
 31
0.0
  0
LINE
  5
97E
330
85C
100
AcDbEntity
  8
5
  6
PHANTOM
 48
0.2
100
AcDbLine
 10
181.8904419999999
 20
197.855002
 30
0.0
 11
181.8904419999999
 21
208.6549989999999
 31
0.0
  0
LINE
  5
97F
330
85C
100
AcDbEntity
  8
5
  6
PHANTOM
 48
0.2
100
AcDbLine
 10
183.4904479999999
 20
197.855002
 30
0.0
 11
183.4904479999999
 21
207.0550079999999
 31
0.0
  0
LINE
  5
980
330
85C
100
AcDbEntity
  8
4
  6
CENTER
 48
0.2
100
AcDbLine
 10
511.1095579999997
 20
201.0550079999999
 30
0.0
 11
522.209534
 21
201.0550079999999
 31
0.0
  0
LINE
  5
981
330
85C
100
AcDbEntity
  8
5
  6
PHANTOM
 48
0.2
100
AcDbLine
 10
177.3904419999998
 20
198.055008
 30
0.0
 11
177.3904419999998
 21
204.055008
 31
0.0
  0
LINE
  5
982
330
85C
100
AcDbEntity
  8
5
  6
PHANTOM
 48
0.2
100
AcDbLine
 10
177.3904419999998
 20
198.055008
 30
0.0
 11
178.3904419999998
 21
198.055008
 31
0.0
  0
LINE
  5
983
330
85C
100
AcDbEntity
  8
5
  6
PHANTOM
 48
0.2
100
AcDbLine
 10
177.3904419999998
 20
204.055008
 30
0.0
 11
178.3904419999998
 21
204.055008
 31
0.0
  0
LINE
  5
984
330
85C
100
AcDbEntity
  8
5
  6
PHANTOM
 48
0.2
100
AcDbLine
 10
181.3904419999999
 20
205.0550079999999
 30
0.0
 11
181.8904419999999
 21
205.0550079999999
 31
0.0
  0
LINE
  5
985
330
85C
100
AcDbEntity
  8
5
  6
PHANTOM
 48
0.2
100
AcDbLine
 10
184.4904629999998
 20
203.0550079999999
 30
0.0
 11
183.4904479999999
 21
202.5550079999999
 31
0.0
  0
LINE
  5
986
330
85C
100
AcDbEntity
  8
5
  6
PHANTOM
 48
0.2
100
AcDbLine
 10
183.4904479999999
 20
199.555023
 30
0.0
 11
184.4904479999999
 21
199.055023
 31
0.0
  0
LINE
  5
987
330
85C
100
AcDbEntity
  8
5
  6
PHANTOM
 48
0.2
100
AcDbLine
 10
184.4904479999999
 20
203.0550079999999
 30
0.0
 11
184.4904479999999
 21
199.055008
 31
0.0
  0
LINE
  5
988
330
85C
100
AcDbEntity
  8
5
  6
PHANTOM
 48
0.2
100
AcDbLine
 10
524.30957
 20
207.0550079999999
 30
0.0
 11
524.30957
 21
208.6549989999999
 31
0.0
  0
LINE
  5
989
330
85C
100
AcDbEntity
  8
5
  6
PHANTOM
 48
0.2
100
AcDbLine
 10
514.1095579999999
 20
199.5550079999999
 30
0.0
 11
513.109558
 21
199.055008
 31
0.0
  0
LINE
  5
98A
330
85C
100
AcDbEntity
  8
5
  6
PHANTOM
 48
0.2
100
AcDbLine
 10
520.2095339999998
 20
198.055008
 30
0.0
 11
519.2095339999998
 21
198.055008
 31
0.0
  0
LINE
  5
98B
330
85C
100
AcDbEntity
  8
5
  6
PHANTOM
 48
0.2
100
AcDbLine
 10
516.2095339999998
 20
205.0550079999999
 30
0.0
 11
515.7095339999998
 21
205.0550079999999
 31
0.0
  0
LINE
  5
98C
330
85C
100
AcDbEntity
  8
5
  6
PHANTOM
 48
0.2
100
AcDbLine
 10
520.2095339999998
 20
204.055008
 30
0.0
 11
519.2095339999998
 21
204.055008
 31
0.0
  0
LINE
  5
98D
330
85C
100
AcDbEntity
  8
5
  6
PHANTOM
 48
0.2
100
AcDbLine
 10
513.109558
 20
203.0549929999998
 30
0.0
 11
514.1095579999999
 21
202.5549929999999
 31
0.0
  0
LINE
  5
98E
330
85C
100
AcDbEntity
  8
5
  6
PHANTOM
 48
0.2
100
AcDbLine
 10
515.7095339999998
 20
197.855002
 30
0.0
 11
515.7095339999998
 21
208.6549989999999
 31
0.0
  0
LINE
  5
98F
330
85C
100
AcDbEntity
  8
5
  6
PHANTOM
 48
0.2
100
AcDbLine
 10
524.30957
 20
207.0550079999999
 30
0.0
 11
515.7095339999998
 21
207.0550079999999
 31
0.0
  0
LINE
  5
990
330
85C
100
AcDbEntity
  8
5
  6
PHANTOM
 48
0.2
100
AcDbLine
 10
524.30957
 20
208.6549989999999
 30
0.0
 11
515.7095339999998
 21
208.6549989999999
 31
0.0
  0
LINE
  5
991
330
85C
100
AcDbEntity
  8
5
  6
PHANTOM
 48
0.2
100
AcDbLine
 10
514.1095579999999
 20
197.855002
 30
0.0
 11
514.1095579999999
 21
207.0550079999999
 31
0.0
  0
LINE
  5
992
330
85C
100
AcDbEntity
  8
5
  6
PHANTOM
 48
0.2
100
AcDbLine
 10
520.2095339999998
 20
198.055008
 30
0.0
 11
520.2095339999998
 21
204.055008
 31
0.0
  0
LINE
  5
993
330
85C
100
AcDbEntity
  8
5
  6
PHANTOM
 48
0.2
100
AcDbLine
 10
513.109558
 20
203.0550079999999
 30
0.0
 11
513.109558
 21
199.055008
 31
0.0
  0
LINE
  5
994
330
85C
100
AcDbEntity
  8
4
  6
CENTER
 48
0.2
100
AcDbLine
 10
175.3904419999997
 20
201.0550079999999
 30
0.0
 11
186.4904479999999
 21
201.0550079999999
 31
0.0
  0
LINE
  5
995
330
85C
100
AcDbEntity
  8
3
  6
DASHED
 48
0.2
100
AcDbLine
 10
48.599998
 20
163.955008
 30
0.0
 11
48.599998
 21
156.855002
 31
0.0
  0
LINE
  5
996
330
85C
100
AcDbEntity
  8
3
  6
DASHED
 48
0.2
100
AcDbLine
 10
45.59999799999999
 20
165.9550079999999
 30
0.0
 11
46.599998
 21
165.9550079999999
 31
0.0
  0
LINE
  5
997
330
85C
100
AcDbEntity
  8
3
  6
DASHED
 48
0.2
100
AcDbLine
 10
44.099998
 20
178.4550079999999
 30
0.0
 11
44.099998
 21
167.4550079999999
 31
0.0
  0
LINE
  5
998
330
85C
100
AcDbEntity
  8
3
  6
DASHED
 48
0.2
100
AcDbLine
 10
55.799999
 20
165.9550079999999
 30
0.0
 11
57.400002
 21
165.9550079999999
 31
0.0
  0
LINE
  5
999
330
85C
100
AcDbEntity
  8
3
  6
DASHED
 48
0.2
100
AcDbLine
 10
55.799999
 20
156.855002
 30
0.0
 11
55.799999
 21
165.9550079999999
 31
0.0
  0
LINE
  5
99A
330
85C
100
AcDbEntity
  8
3
  6
DASHED
 48
0.2
100
AcDbLine
 10
38.79999899999999
 20
156.855002
 30
0.0
 11
57.400002
 21
156.855002
 31
0.0
  0
LINE
  5
99B
330
85C
100
AcDbEntity
  8
3
  6
DASHED
 48
0.2
100
AcDbLine
 10
180.790451
 20
165.9550079999999
 30
0.0
 11
180.790451
 21
154.054999
 31
0.0
  0
LINE
  5
99C
330
85C
100
AcDbEntity
  8
3
  6
DASHED
 48
0.2
100
AcDbLine
 10
176.7904509999999
 20
155.255011
 30
0.0
 11
176.7904509999999
 21
154.054999
 31
0.0
  0
LINE
  5
99D
330
85C
100
AcDbEntity
  8
3
  6
DASHED
 48
0.2
100
AcDbLine
 10
178.3904419999998
 20
165.9550079999999
 30
0.0
 11
180.790451
 21
165.9550079999999
 31
0.0
  0
LINE
  5
99E
330
85C
100
AcDbEntity
  8
3
  6
DASHED
 48
0.2
100
AcDbLine
 10
178.3904419999998
 20
156.855002
 30
0.0
 11
176.7904359999997
 21
155.254996
 31
0.0
  0
LINE
  5
99F
330
85C
100
AcDbEntity
  8
3
  6
DASHED
 48
0.2
100
AcDbLine
 10
38.79999899999999
 20
155.255011
 30
0.0
 11
57.400002
 21
155.255011
 31
0.0
  0
LINE
  5
9A0
330
85C
100
AcDbEntity
  8
1
  6
Continuous
100
AcDbLine
 10
38.599998
 20
377.054993
 30
0.0
 11
38.599998
 21
371.054993
 31
0.0
  0
LINE
  5
9A1
330
85C
100
AcDbEntity
  8
1
  6
Continuous
100
AcDbLine
 10
48.599998
 20
377.054993
 30
0.0
 11
48.599998
 21
371.054993
 31
0.0
  0
LINE
  5
9A2
330
85C
100
AcDbEntity
  8
1
  6
Continuous
100
AcDbLine
 10
29.6
 20
377.054993
 30
0.0
 11
29.6
 21
378.6549989999999
 31
0.0
  0
LINE
  5
9A3
330
85C
100
AcDbEntity
  8
1
  6
Continuous
100
AcDbLine
 10
57.599998
 20
377.054993
 30
0.0
 11
57.599998
 21
378.6549989999999
 31
0.0
  0
LINE
  5
9A4
330
85C
100
AcDbEntity
  8
1
  6
Continuous
100
AcDbLine
 10
57.599998
 20
378.6549989999999
 30
0.0
 11
29.6
 21
378.6549989999999
 31
0.0
  0
LINE
  5
9A5
330
85C
100
AcDbEntity
  8
1
  6
Continuous
100
AcDbLine
 10
57.599998
 20
377.054993
 30
0.0
 11
29.6
 21
377.054993
 31
0.0
  0
LINE
  5
9A6
330
85C
100
AcDbEntity
  8
3
  6
DASHED
 48
0.2
100
AcDbLine
 10
178.3904419999998
 20
197.855002
 30
0.0
 11
178.3904419999998
 21
156.855002
 31
0.0
  0
LINE
  5
9A7
330
85C
100
AcDbEntity
  8
3
  6
DASHED
 48
0.2
100
AcDbLine
 10
343.3808899999998
 20
197.3915
 30
0.0
 11
343.3808899999998
 21
156.9550079999999
 31
0.0
  0
LINE
  5
9A8
330
85C
100
AcDbEntity
  8
3
  6
DASHED
 48
0.2
100
AcDbLine
 10
333.3808899999999
 20
196.0550079999999
 30
0.0
 11
333.3808899999999
 21
180.9550079999999
 31
0.0
  0
LINE
  5
9A9
330
85C
100
AcDbEntity
  8
3
  6
DASHED
 48
0.2
100
AcDbLine
 10
333.3808899999999
 20
163.955008
 30
0.0
 11
333.3808899999999
 21
154.455008
 31
0.0
  0
LINE
  5
9AA
330
85C
100
AcDbEntity
  8
3
  6
DASHED
 48
0.2
100
AcDbLine
 10
326.1808779999999
 20
165.9550079999999
 30
0.0
 11
324.5809019999998
 21
165.9550079999999
 31
0.0
  0
LINE
  5
9AB
330
85C
100
AcDbEntity
  8
3
  6
DASHED
 48
0.2
100
AcDbLine
 10
336.3808899999999
 20
165.9550079999999
 30
0.0
 11
335.3808899999999
 21
165.9550079999999
 31
0.0
  0
LINE
  5
9AC
330
85C
100
AcDbEntity
  8
3
  6
DASHED
 48
0.2
100
AcDbLine
 10
337.8808899999999
 20
178.4550079999999
 30
0.0
 11
337.8808899999999
 21
167.4550079999999
 31
0.0
  0
LINE
  5
9AD
330
85C
100
AcDbEntity
  8
3
  6
DASHED
 48
0.2
100
AcDbLine
 10
336.3808899999999
 20
179.9550079999999
 30
0.0
 11
334.3808899999999
 21
179.9550079999999
 31
0.0
  0
LINE
  5
9AE
330
85C
100
AcDbEntity
  8
1
  6
Continuous
100
AcDbLine
 10
326.1808779999999
 20
148.0550079999999
 30
0.0
 11
326.1808779999999
 21
154.455008
 31
0.0
  0
LINE
  5
9AF
330
85C
100
AcDbEntity
  8
3
  6
DASHED
 48
0.2
100
AcDbLine
 10
333.3808899999999
 20
156.855002
 30
0.0
 11
332.180878
 21
156.855002
 31
0.0
  0
LINE
  5
9B0
330
85C
100
AcDbEntity
  8
3
  6
DASHED
 48
0.2
100
AcDbLine
 10
38.599998
 20
197.855002
 30
0.0
 11
38.599998
 21
156.9550079999999
 31
0.0
  0
LINE
  5
9B1
330
85C
100
AcDbEntity
  8
3
  6
DASHED
 48
0.2
100
AcDbLine
 10
48.599998
 20
197.855002
 30
0.0
 11
48.599998
 21
180.9550079999999
 31
0.0
  0
LINE
  5
9B2
330
85C
100
AcDbEntity
  8
3
  6
DASHED
 48
0.2
100
AcDbLine
 10
38.79999899999999
 20
154.455008
 30
0.0
 11
38.79999899999999
 21
156.855002
 31
0.0
  0
LINE
  5
9B3
330
85C
100
AcDbEntity
  8
3
  6
DASHED
 48
0.2
100
AcDbLine
 10
57.400002
 20
154.455008
 30
0.0
 11
57.400002
 21
165.9550079999999
 31
0.0
  0
LINE
  5
9B4
330
85C
100
AcDbEntity
  8
3
  6
DASHED
 48
0.2
100
AcDbLine
 10
181.3904419999999
 20
197.855002
 30
0.0
 11
181.3904419999999
 21
154.054999
 31
0.0
  0
LINE
  5
9B5
330
85C
100
AcDbEntity
  8
3
  6
DASHED
 48
0.2
100
AcDbLine
 10
38.599998
 20
156.9550079999999
 30
0.0
 11
40.400002
 21
156.9550079999999
 31
0.0
  0
LINE
  5
9B6
330
85C
100
AcDbEntity
  8
3
  6
DASHED
 48
0.2
100
AcDbLine
 10
40.400002
 20
156.9550079999999
 30
0.0
 11
40.400002
 21
156.855002
 31
0.0
  0
LINE
  5
9B7
330
85C
100
AcDbEntity
  8
3
  6
DASHED
 48
0.2
100
AcDbLine
 10
343.3808899999998
 20
156.9550079999999
 30
0.0
 11
341.5809019999998
 21
156.9550079999999
 31
0.0
  0
LINE
  5
9B8
330
85C
100
AcDbEntity
  8
3
  6
DASHED
 48
0.2
100
AcDbLine
 10
330.1808779999999
 20
156.855002
 30
0.0
 11
326.1808779999999
 21
156.855002
 31
0.0
  0
LINE
  5
9B9
330
85C
100
AcDbEntity
  8
3
  6
DASHED
 48
0.2
100
AcDbLine
 10
324.5809019999998
 20
154.455008
 30
0.0
 11
324.5809019999998
 21
165.9550079999999
 31
0.0
  0
LINE
  5
9BA
330
85C
100
AcDbEntity
  8
3
  6
DASHED
 48
0.2
100
AcDbLine
 10
341.5809019999998
 20
154.455008
 30
0.0
 11
341.5809019999998
 21
156.9550079999999
 31
0.0
  0
LINE
  5
9BB
330
85C
100
AcDbEntity
  8
3
  6
DASHED
 48
0.2
100
AcDbLine
 10
516.80957
 20
165.9550079999999
 30
0.0
 11
516.80957
 21
154.455008
 31
0.0
  0
LINE
  5
9BC
330
85C
100
AcDbEntity
  8
3
  6
DASHED
 48
0.2
100
AcDbLine
 10
519.2095339999998
 20
165.9550079999999
 30
0.0
 11
516.80957
 21
165.9550079999999
 31
0.0
  0
LINE
  5
9BD
330
85C
100
AcDbEntity
  8
3
  6
DASHED
 48
0.2
100
AcDbLine
 10
516.2095339999998
 20
197.455008
 30
0.0
 11
516.2095339999998
 21
154.455008
 31
0.0
  0
LINE
  5
9BE
330
85C
100
AcDbEntity
  8
3
  6
DASHED
 48
0.2
100
AcDbLine
 10
519.2095339999998
 20
156.855002
 30
0.0
 11
520.80957
 21
155.255011
 31
0.0
  0
LINE
  5
9BF
330
85C
100
AcDbEntity
  8
3
  6
DASHED
 48
0.2
100
AcDbLine
 10
519.2095339999998
 20
197.455008
 30
0.0
 11
519.2095339999998
 21
156.855002
 31
0.0
  0
LINE
  5
9C0
330
85C
100
AcDbEntity
  8
4
  6
CENTER
 48
0.1
100
AcDbLine
 10
33.599998
 20
380.6549989999999
 30
0.0
 11
33.599998
 21
375.054993
 31
0.0
  0
LINE
  5
9C1
330
85C
100
AcDbEntity
  8
4
  6
CENTER
 48
0.1
100
AcDbLine
 10
53.599998
 20
380.6549989999999
 30
0.0
 11
53.599998
 21
375.054993
 31
0.0
  0
LINE
  5
9C2
330
85C
100
AcDbEntity
  8
1
  6
Continuous
100
AcDbLine
 10
173.290451
 20
378.6549989999999
 30
0.0
 11
181.8904419999999
 21
378.6549989999999
 31
0.0
  0
LINE
  5
9C3
330
85C
100
AcDbEntity
  8
1
  6
Continuous
100
AcDbLine
 10
181.8904419999999
 20
366.054993
 30
0.0
 11
183.4904479999999
 21
366.054993
 31
0.0
  0
LINE
  5
9C4
330
85C
100
AcDbEntity
  8
1
  6
Continuous
100
AcDbLine
 10
173.290451
 20
377.054993
 30
0.0
 11
181.8904419999999
 21
377.054993
 31
0.0
  0
LINE
  5
9C5
330
85C
100
AcDbEntity
  8
1
  6
Continuous
100
AcDbLine
 10
183.4904479999999
 20
366.054993
 30
0.0
 11
183.4904479999999
 21
377.054993
 31
0.0
  0
LINE
  5
9C6
330
85C
100
AcDbEntity
  8
1
  6
Continuous
100
AcDbLine
 10
181.8904419999999
 20
366.054993
 30
0.0
 11
181.8904419999999
 21
378.6549989999999
 31
0.0
  0
LINE
  5
9C7
330
85C
100
AcDbEntity
  8
1
  6
Continuous
100
AcDbLine
 10
173.290451
 20
377.054993
 30
0.0
 11
173.290451
 21
378.6549989999999
 31
0.0
  0
LINE
  5
9C8
330
85C
100
AcDbEntity
  8
4
  6
CENTER
 48
0.1
100
AcDbLine
 10
177.5904389999998
 20
376.054993
 30
0.0
 11
177.5904389999998
 21
379.6549989999999
 31
0.0
  0
LINE
  5
9C9
330
85C
100
AcDbEntity
  8
4
  6
CENTER
 48
0.2
100
AcDbLine
 10
185.4904479999999
 20
59.599998
 30
0.0
 11
171.2904509999999
 21
59.599998
 31
0.0
  0
LINE
  5
9CA
330
85C
100
AcDbEntity
  8
1
  6
Continuous
100
AcDbLine
 10
173.290451
 20
69.300003
 30
0.0
 11
173.290451
 21
49.900002
 31
0.0
  0
LINE
  5
9CB
330
85C
100
AcDbEntity
  8
1
  6
Continuous
100
AcDbLine
 10
181.8904419999999
 20
53.09999799999999
 30
0.0
 11
181.8904419999999
 21
49.900002
 31
0.0
  0
LINE
  5
9CC
330
85C
100
AcDbEntity
  8
4
  6
CENTER
 48
0.2
100
AcDbLine
 10
177.5904389999998
 20
75.59999799999999
 30
0.0
 11
177.5904389999998
 21
43.59999799999999
 31
0.0
  0
LINE
  5
9CD
330
85C
100
AcDbEntity
  8
4
  6
CENTER
 48
0.2
100
AcDbLine
 10
182.5904389999998
 20
69.599998
 30
0.0
 11
171.590439
 21
69.599998
 31
0.0
  0
LINE
  5
9CE
330
85C
100
AcDbEntity
  8
1
  6
Continuous
100
AcDbLine
 10
173.290451
 20
477.9171139999998
 30
0.0
 11
173.290451
 21
497.3171389999998
 31
0.0
  0
LINE
  5
9CF
330
85C
100
AcDbEntity
  8
1
  6
Continuous
100
AcDbLine
 10
181.8904419999999
 20
477.9171139999998
 30
0.0
 11
181.8904419999999
 21
482.6171259999998
 31
0.0
  0
LINE
  5
9D0
330
85C
100
AcDbEntity
  8
1
  6
Continuous
100
AcDbLine
 10
183.4904479999999
 20
482.6171259999998
 30
0.0
 11
183.4904479999999
 21
492.617126
 31
0.0
  0
LINE
  5
9D1
330
85C
100
AcDbEntity
  8
1
  6
Continuous
100
AcDbLine
 10
183.4904479999999
 20
492.617126
 30
0.0
 11
181.8904419999999
 21
492.617126
 31
0.0
  0
LINE
  5
9D2
330
85C
100
AcDbEntity
  8
4
  6
CENTER
 48
0.2
100
AcDbLine
 10
177.5904389999998
 20
471.617157
 30
0.0
 11
177.5904389999998
 21
503.6171259999998
 31
0.0
  0
LINE
  5
9D3
330
85C
100
AcDbEntity
  8
1
  6
Continuous
100
AcDbLine
 10
181.8904419999999
 20
492.617126
 30
0.0
 11
181.8904419999999
 21
497.3171389999998
 31
0.0
  0
LINE
  5
9D4
330
85C
100
AcDbEntity
  8
1
  6
Continuous
100
AcDbLine
 10
519.2095339999998
 20
376.054993
 30
0.0
 11
516.2095339999998
 21
376.054993
 31
0.0
  0
LINE
  5
9D5
330
85C
100
AcDbEntity
  8
1
  6
Continuous
100
AcDbLine
 10
520.2095339999998
 20
368.054993
 30
0.0
 11
520.2095339999998
 21
374.054993
 31
0.0
  0
LINE
  5
9D6
330
85C
100
AcDbEntity
  8
1
  6
Continuous
100
AcDbLine
 10
520.2095339999998
 20
368.054993
 30
0.0
 11
519.2095339999998
 21
368.054993
 31
0.0
  0
LINE
  5
9D7
330
85C
100
AcDbEntity
  8
1
  6
Continuous
100
AcDbLine
 10
520.2095339999998
 20
374.054993
 30
0.0
 11
519.2095339999998
 21
374.054993
 31
0.0
  0
LINE
  5
9D8
330
85C
100
AcDbEntity
  8
1
  6
Continuous
100
AcDbLine
 10
516.2095339999998
 20
367.054993
 30
0.0
 11
515.7095339999998
 21
367.054993
 31
0.0
  0
LINE
  5
9D9
330
85C
100
AcDbEntity
  8
1
  6
Continuous
100
AcDbLine
 10
516.2095339999998
 20
375.054993
 30
0.0
 11
515.7095339999998
 21
375.054993
 31
0.0
  0
LINE
  5
9DA
330
85C
100
AcDbEntity
  8
1
  6
Continuous
100
AcDbLine
 10
524.30957
 20
378.6549989999999
 30
0.0
 11
515.7095339999998
 21
378.6549989999999
 31
0.0
  0
LINE
  5
9DB
330
85C
100
AcDbEntity
  8
1
  6
Continuous
100
AcDbLine
 10
515.7095339999998
 20
366.054993
 30
0.0
 11
514.1095579999999
 21
366.054993
 31
0.0
  0
LINE
  5
9DC
330
85C
100
AcDbEntity
  8
1
  6
Continuous
100
AcDbLine
 10
524.30957
 20
377.054993
 30
0.0
 11
515.7095339999998
 21
377.054993
 31
0.0
  0
LINE
  5
9DD
330
85C
100
AcDbEntity
  8
1
  6
Continuous
100
AcDbLine
 10
514.1095579999999
 20
366.054993
 30
0.0
 11
514.1095579999999
 21
377.054993
 31
0.0
  0
LINE
  5
9DE
330
85C
100
AcDbEntity
  8
1
  6
Continuous
100
AcDbLine
 10
515.7095339999998
 20
366.054993
 30
0.0
 11
515.7095339999998
 21
378.6549989999999
 31
0.0
  0
LINE
  5
9DF
330
85C
100
AcDbEntity
  8
1
  6
Continuous
100
AcDbLine
 10
524.30957
 20
377.054993
 30
0.0
 11
524.30957
 21
378.6549989999999
 31
0.0
  0
LINE
  5
9E0
330
85C
100
AcDbEntity
  8
4
  6
CENTER
 48
0.1
100
AcDbLine
 10
520.009583
 20
376.054993
 30
0.0
 11
520.009583
 21
379.6549989999999
 31
0.0
  0
LINE
  5
9E1
330
85C
100
AcDbEntity
  8
1
  6
Continuous
100
AcDbLine
 10
181.8904419999999
 20
493.617126
 30
0.0
 11
182.5904389999998
 21
493.617126
 31
0.0
  0
LINE
  5
9E2
330
85C
100
AcDbEntity
  8
1
  6
Continuous
100
AcDbLine
 10
175.9904479999999
 20
473.925903
 30
0.0
 11
175.9904479999999
 21
466.0171570000001
 31
0.0
  0
LINE
  5
9E3
330
85C
100
AcDbEntity
  8
3
  6
DASHED
 48
0.2
100
AcDbLine
 10
45.59999799999999
 20
179.9550079999999
 30
0.0
 11
47.599998
 21
179.9550079999999
 31
0.0
  0
LINE
  5
9E4
330
85C
100
AcDbEntity
  8
3
  6
DASHED
 48
0.2
100
AcDbLine
 10
326.1808779999999
 20
165.9550079999999
 30
0.0
 11
326.1808779999999
 21
154.455008
 31
0.0
  0
LINE
  5
9E5
330
85C
100
AcDbEntity
  8
3
  6
DASHED
 48
0.2
100
AcDbLine
 10
520.80957
 20
155.255011
 30
0.0
 11
520.80957
 21
154.455008
 31
0.0
  0
LINE
  5
9E6
330
85C
100
AcDbEntity
  8
3
  6
DASHED
 48
0.2
100
AcDbLine
 10
343.180878
 20
154.455008
 30
0.0
 11
343.180878
 21
156.9550079999999
 31
0.0
  0
LINE
  5
9E7
330
85C
100
AcDbEntity
  8
1
  6
Continuous
100
AcDbLine
 10
343.3808899999998
 20
377.054993
 30
0.0
 11
352.3808899999999
 21
377.054993
 31
0.0
  0
LINE
  5
9E8
330
85C
100
AcDbEntity
  8
4
  6
CENTER
 48
0.2
100
AcDbLine
 10
31.0
 20
186.654999
 30
0.0
 11
31.0
 21
175.455002
 31
0.0
  0
LINE
  5
9E9
330
85C
100
AcDbEntity
  8
4
  6
CENTER
 48
0.2
100
AcDbLine
 10
70.0
 20
186.654999
 30
0.0
 11
70.0
 21
175.455002
 31
0.0
  0
LINE
  5
9EA
330
85C
100
AcDbEntity
  8
4
  6
CENTER
 48
0.2
100
AcDbLine
 10
171.590439
 20
49.599998
 30
0.0
 11
183.5904389999998
 21
49.599998
 31
0.0
  0
LINE
  5
9EB
330
85C
100
AcDbEntity
  8
4
  6
CENTER
 48
0.1
100
AcDbLine
 10
174.2904509999999
 20
497.617126
 30
0.0
 11
180.8904419999999
 21
497.617126
 31
0.0
  0
LINE
  5
9EC
330
85C
100
AcDbEntity
  8
4
  6
CENTER
 48
0.1
100
AcDbLine
 10
174.2904509999999
 20
477.6171259999999
 30
0.0
 11
180.8904419999999
 21
477.6171259999999
 31
0.0
  0
LINE
  5
9ED
330
85C
100
AcDbEntity
  8
4
  6
CENTER
 48
0.1
100
AcDbLine
 10
334.3808899999999
 20
371.054993
 30
0.0
 11
342.3808899999999
 21
371.054993
 31
0.0
  0
LINE
  5
9EE
330
85C
100
AcDbEntity
  8
4
  6
CENTER
 48
0.1
100
AcDbLine
 10
350.9808959999999
 20
184.255005
 30
0.0
 11
350.9808959999999
 21
177.8550109999999
 31
0.0
  0
LINE
  5
9EF
330
85C
100
AcDbEntity
  8
4
  6
CENTER
 48
0.1
100
AcDbLine
 10
311.9808959999998
 20
184.255005
 30
0.0
 11
311.9808959999998
 21
177.8550109999999
 31
0.0
  0
LINE
  5
9F0
330
85C
100
AcDbEntity
  8
4
  6
CENTER
 48
0.1
100
AcDbLine
 10
327.9808959999998
 20
184.5550079999999
 30
0.0
 11
327.9808959999998
 21
177.5550079999999
 31
0.0
  0
ARC
  5
9F1
330
85C
100
AcDbEntity
  8
1
  6
Continuous
100
AcDbCircle
 10
43.59999799999999
 20
371.054993
 30
0.0
 40
5.0
100
AcDbArc
 50
0.0
 51
180.000005
  0
CIRCLE
  5
9F2
330
85C
100
AcDbEntity
  8
1
  6
Continuous
100
AcDbCircle
 10
43.59999799999999
 20
371.054993
 30
0.0
 40
3.0
  0
ARC
  5
9F3
330
85C
100
AcDbEntity
  8
1
  6
Continuous
100
AcDbCircle
 10
338.3808899999999
 20
371.054993
 30
0.0
 40
5.0
100
AcDbArc
 50
179.9999909999999
 51
0.00001
  0
ARC
  5
9F4
330
85C
100
AcDbEntity
  8
1
  6
Continuous
100
AcDbCircle
 10
67.0
 20
181.0550079999999
 30
0.0
 40
9.0
100
AcDbArc
 50
269.9999969999999
 51
90.00000300000001
  0
CIRCLE
  5
9F5
330
85C
100
AcDbEntity
  8
1
  6
Continuous
100
AcDbCircle
 10
70.0
 20
181.0550079999999
 30
0.0
 40
2.799999999999998
  0
CIRCLE
  5
9F6
330
85C
100
AcDbEntity
  8
1
  6
Continuous
100
AcDbCircle
 10
70.0
 20
181.0550079999999
 30
0.0
 40
1.6
  0
ARC
  5
9F7
330
85C
100
AcDbEntity
  8
1
  6
Continuous
100
AcDbCircle
 10
34.0
 20
181.0550079999999
 30
0.0
 40
9.0
100
AcDbArc
 50
90.00000300000001
 51
270.000001
  0
CIRCLE
  5
9F8
330
85C
100
AcDbEntity
  8
1
  6
Continuous
100
AcDbCircle
 10
31.0
 20
181.0550079999999
 30
0.0
 40
2.799999999999998
  0
CIRCLE
  5
9F9
330
85C
100
AcDbEntity
  8
1
  6
Continuous
100
AcDbCircle
 10
31.0
 20
181.0550079999999
 30
0.0
 40
1.6
  0
ARC
  5
9FE
330
85C
100
AcDbEntity
  8
1
  6
Continuous
100
AcDbCircle
 10
314.8808959999998
 20
181.0550079999999
 30
0.0
 40
9.0
100
AcDbArc
 50
90.00000300000001
 51
270.000001
  0
CIRCLE
  5
9FF
330
85C
100
AcDbEntity
  8
1
  6
Continuous
100
AcDbCircle
 10
350.9808959999999
 20
181.0550079999999
 30
0.0
 40
1.6
  0
ARC
  5
A00
330
85C
100
AcDbEntity
  8
1
  6
Continuous
100
AcDbCircle
 10
347.9808959999999
 20
181.0550079999999
 30
0.0
 40
9.0
100
AcDbArc
 50
269.9999969999999
 51
90.00000300000001
  0
CIRCLE
  5
A01
330
85C
100
AcDbEntity
  8
1
  6
Continuous
100
AcDbCircle
 10
311.9808959999998
 20
181.0550079999999
 30
0.0
 40
1.6
  0
ARC
  5
A02
330
85C
100
AcDbEntity
  8
1
  6
Continuous
100
AcDbCircle
 10
318.7808899999998
 20
195.855002
 30
0.0
 40
2.0
100
AcDbArc
 50
179.9999909999999
 51
270.000001
  0
ARC
  5
A03
330
85C
100
AcDbEntity
  8
1
  6
Continuous
100
AcDbCircle
 10
330.9808959999998
 20
195.855002
 30
0.0
 40
2.0
100
AcDbArc
 50
269.9999969999999
 51
0.0
  0
ARC
  5
A04
330
85C
100
AcDbEntity
  8
1
  6
Continuous
100
AcDbCircle
 10
317.3808959999999
 20
156.455008
 30
0.0
 40
2.0
100
AcDbArc
 50
269.9999969999999
 51
0.0
  0
ARC
  5
A05
330
85C
100
AcDbEntity
  8
1
  6
Continuous
100
AcDbCircle
 10
343.8808899999998
 20
156.455008
 30
0.0
 40
2.0
100
AcDbArc
 50
179.9999909999999
 51
270.000001
  0
ARC
  5
A06
330
85C
100
AcDbEntity
  8
1
  6
Continuous
100
AcDbCircle
 10
343.8808899999998
 20
195.4550079999999
 30
0.0
 40
2.0
100
AcDbArc
 50
90.00000300000001
 51
180.000005
  0
ARC
  5
A07
330
85C
100
AcDbEntity
  8
1
  6
Continuous
100
AcDbCircle
 10
183.5904389999998
 20
493.7171629999999
 30
0.0
 40
0.4
100
AcDbArc
 50
0.0
 51
90.00000300000001
  0
ARC
  5
A08
330
85C
100
AcDbEntity
  8
1
  6
Continuous
100
AcDbCircle
 10
176.3904419999998
 20
466.0171570000001
 30
0.0
 40
0.4
100
AcDbArc
 50
179.9999909999999
 51
270.000001
  0
ARC
  5
A09
330
85C
100
AcDbEntity
  8
1
  6
Continuous
100
AcDbCircle
 10
182.5904389999998
 20
54.599998
 30
0.0
 40
1.0
100
AcDbArc
 50
269.9999969999999
 51
0.0
  0
ARC
  5
A0A
330
85C
100
AcDbEntity
  8
1
  6
Continuous
100
AcDbCircle
 10
182.5904389999998
 20
64.800003
 30
0.0
 40
1.0
100
AcDbArc
 50
0.0
 51
90.00000300000001
  0
ARC
  5
A0B
330
85C
100
AcDbEntity
  8
1
  6
Continuous
100
AcDbCircle
 10
182.5904389999998
 20
492.617126
 30
0.0
 40
1.0
100
AcDbArc
 50
0.0
 51
90.00000300000001
  0
ARC
  5
A0C
330
85C
100
AcDbEntity
  8
1
  6
Continuous
100
AcDbCircle
 10
65.19999799999999
 20
154.455008
 30
0.0
 40
0.4
100
AcDbArc
 50
269.9999969999999
 51
0.0
  0
ARC
  5
A0D
330
85C
100
AcDbEntity
  8
1
  6
Continuous
100
AcDbCircle
 10
183.5904389999998
 20
197.455008
 30
0.0
 40
0.4
100
AcDbArc
 50
0.0
 51
90.00000300000001
  0
ARC
  5
A0E
330
85C
100
AcDbEntity
  8
1
  6
Continuous
100
AcDbCircle
 10
176.3904419999998
 20
197.455008
 30
0.0
 40
0.4
100
AcDbArc
 50
90.00000300000001
 51
180.000005
  0
ARC
  5
A0F
330
85C
100
AcDbEntity
  8
1
  6
Continuous
100
AcDbCircle
 10
178.3904419999998
 20
56.400002
 30
0.0
 40
1.6
100
AcDbArc
 50
179.9999909999999
 51
270.000001
  0
ARC
  5
A10
330
85C
100
AcDbEntity
  8
1
  6
Continuous
100
AcDbCircle
 10
178.3904419999998
 20
71.800003
 30
0.0
 40
1.6
100
AcDbArc
 50
90.00000300000001
 51
180.000005
  0
ARC
  5
A11
330
85C
100
AcDbEntity
  8
1
  6
Continuous
100
AcDbCircle
 10
183.5904389999998
 20
53.5
 30
0.0
 40
0.4
100
AcDbArc
 50
269.9999969999999
 51
0.0
  0
ARC
  5
A12
330
85C
100
AcDbEntity
  8
1
  6
Continuous
100
AcDbCircle
 10
176.3904419999998
 20
53.5
 30
0.0
 40
0.4
100
AcDbArc
 50
179.9999909999999
 51
270.000001
  0
ARC
  5
A13
330
85C
100
AcDbEntity
  8
1
  6
Continuous
100
AcDbCircle
 10
176.3904419999998
 20
81.199998
 30
0.0
 40
0.4
100
AcDbArc
 50
90.00000300000001
 51
180.000005
  0
ARC
  5
A14
330
85C
100
AcDbEntity
  8
1
  6
Continuous
100
AcDbCircle
 10
521.2095339999998
 20
197.455008
 30
0.0
 40
0.4
100
AcDbArc
 50
0.0
 51
90.00000300000001
  0
ARC
  5
A15
330
85C
100
AcDbEntity
  8
1
  6
Continuous
100
AcDbCircle
 10
316.7808899999998
 20
154.455008
 30
0.0
 40
0.4
100
AcDbArc
 50
179.9999909999999
 51
270.000001
  0
CIRCLE
  5
A1A
330
85C
100
AcDbEntity
  8
1
  6
Continuous
100
AcDbCircle
 10
327.9808959999998
 20
181.0550079999999
 30
0.0
 40
1.75
  0
CIRCLE
  5
A1B
330
85C
100
AcDbEntity
  8
1
  6
Continuous
100
AcDbCircle
 10
338.3808899999999
 20
371.054993
 30
0.0
 40
2.0
  0
ARC
  5
A1C
330
85C
100
AcDbEntity
  8
1
  6
Continuous
100
AcDbCircle
 10
514.0095829999998
 20
197.455008
 30
0.0
 40
0.4
100
AcDbArc
 50
90.00000300000001
 51
180.000005
  0
ARC
  5
A1D
330
85C
100
AcDbEntity
  8
5
  6
PHANTOM
 48
0.2
100
AcDbCircle
 10
43.59999799999999
 20
381.554993
 30
0.0
 40
5.0
100
AcDbArc
 50
0.0
 51
180.000005
  0
ARC
  5
A1E
330
85C
100
AcDbEntity
  8
5
  6
PHANTOM
 48
0.2
100
AcDbCircle
 10
43.59999799999999
 20
381.554993
 30
0.0
 40
3.0
100
AcDbArc
 50
344.713994
 51
195.286009
  0
ARC
  5
A1F
330
85C
100
AcDbEntity
  8
5
  6
PHANTOM
 48
0.2
100
AcDbCircle
 10
43.59999799999999
 20
201.0550079999999
 30
0.0
 40
5.0
100
AcDbArc
 50
0.0
 51
180.000005
  0
CIRCLE
  5
A20
330
85C
100
AcDbEntity
  8
5
  6
PHANTOM
 48
0.2
100
AcDbCircle
 10
43.59999799999999
 20
201.0550079999999
 30
0.0
 40
3.0
  0
CIRCLE
  5
A21
330
85C
100
AcDbEntity
  8
5
  6
PHANTOM
 48
0.2
100
AcDbCircle
 10
338.3808899999999
 20
201.0550079999999
 30
0.0
 40
2.0
  0
ARC
  5
A22
330
85C
100
AcDbEntity
  8
5
  6
PHANTOM
 48
0.2
100
AcDbCircle
 10
338.3808899999999
 20
201.0550079999999
 30
0.0
 40
5.0
100
AcDbArc
 50
179.9999909999999
 51
0.00001
  0
ARC
  5
A23
330
85C
100
AcDbEntity
  8
5
  6
PHANTOM
 48
0.2
100
AcDbCircle
 10
181.8904419999999
 20
207.0550079999999
 30
0.0
 40
1.6
100
AcDbArc
 50
0.0
 51
90.00000300000001
  0
ARC
  5
A24
330
85C
100
AcDbEntity
  8
5
  6
PHANTOM
 48
0.2
100
AcDbCircle
 10
515.7095339999998
 20
207.0550079999999
 30
0.0
 40
1.6
100
AcDbArc
 50
90.00000300000001
 51
180.000005
  0
ARC
  5
A25
330
85C
100
AcDbEntity
  8
3
  6
DASHED
 48
0.2
100
AcDbCircle
 10
46.599998
 20
163.955008
 30
0.0
 40
2.0
100
AcDbArc
 50
0.0
 51
90.00000300000001
  0
ARC
  5
A26
330
85C
100
AcDbEntity
  8
3
  6
DASHED
 48
0.2
100
AcDbCircle
 10
45.59999799999999
 20
167.4550079999999
 30
0.0
 40
1.5
100
AcDbArc
 50
179.9999909999999
 51
270.000001
  0
ARC
  5
A27
330
85C
100
AcDbEntity
  8
3
  6
DASHED
 48
0.2
100
AcDbCircle
 10
45.59999799999999
 20
178.4550079999999
 30
0.0
 40
1.5
100
AcDbArc
 50
90.00000300000001
 51
180.000005
  0
ARC
  5
A28
330
85C
100
AcDbEntity
  8
3
  6
DASHED
 48
0.2
100
AcDbCircle
 10
47.599998
 20
180.9550079999999
 30
0.0
 40
1.0
100
AcDbArc
 50
269.9999969999999
 51
0.0
  0
ARC
  5
A29
330
85C
100
AcDbEntity
  8
3
  6
DASHED
 48
0.2
100
AcDbCircle
 10
336.3808899999999
 20
178.4550079999999
 30
0.0
 40
1.5
100
AcDbArc
 50
0.0
 51
90.00000300000001
  0
ARC
  5
A2A
330
85C
100
AcDbEntity
  8
3
  6
DASHED
 48
0.2
100
AcDbCircle
 10
335.3808899999999
 20
163.955008
 30
0.0
 40
2.0
100
AcDbArc
 50
90.00000300000001
 51
180.000005
  0
ARC
  5
A2B
330
85C
100
AcDbEntity
  8
3
  6
DASHED
 48
0.2
100
AcDbCircle
 10
336.3808899999999
 20
167.4550079999999
 30
0.0
 40
1.5
100
AcDbArc
 50
269.9999969999999
 51
0.0
  0
ARC
  5
A2C
330
85C
100
AcDbEntity
  8
3
  6
DASHED
 48
0.2
100
AcDbCircle
 10
334.3808899999999
 20
180.9550079999999
 30
0.0
 40
1.0
100
AcDbArc
 50
179.9999909999999
 51
270.000001
  0
ARC
  5
A2D
330
85C
100
AcDbEntity
  8
1
  6
Continuous
100
AcDbCircle
 10
181.8904419999999
 20
377.054993
 30
0.0
 40
1.6
100
AcDbArc
 50
0.0
 51
90.00000300000001
  0
ARC
  5
A2E
330
85C
100
AcDbEntity
  8
1
  6
Continuous
100
AcDbCircle
 10
177.5904389999998
 20
69.300003
 30
0.0
 40
4.299999999999998
100
AcDbArc
 50
111.844757
 51
180.000005
  0
CIRCLE
  5
A2F
330
85C
100
AcDbEntity
  8
1
  6
Continuous
100
AcDbCircle
 10
177.5904389999998
 20
49.599998
 30
0.0
 40
3.0
  0
CIRCLE
  5
A30
330
85C
100
AcDbEntity
  8
1
  6
Continuous
100
AcDbCircle
 10
177.5904389999998
 20
49.599998
 30
0.0
 40
1.649999999999999
  0
ARC
  5
A31
330
85C
100
AcDbEntity
  8
1
  6
Continuous
100
AcDbCircle
 10
177.5904389999998
 20
69.599998
 30
0.0
 40
3.0
100
AcDbArc
 50
122.2309479999999
 51
237.769048
  0
ARC
  5
A32
330
85C
100
AcDbEntity
  8
1
  6
Continuous
100
AcDbCircle
 10
177.5904389999998
 20
69.599998
 30
0.0
 40
1.649999999999999
100
AcDbArc
 50
165.8588909999997
 51
194.141106
  0
ARC
  5
A33
330
85C
100
AcDbEntity
  8
1
  6
Continuous
100
AcDbCircle
 10
177.5904389999998
 20
49.900002
 30
0.0
 40
4.299999999999998
100
AcDbArc
 50
179.9999909999999
 51
0.00001
  0
ARC
  5
A34
330
85C
100
AcDbEntity
  8
1
  6
Continuous
100
AcDbCircle
 10
177.5904389999998
 20
477.9171139999998
 30
0.0
 40
4.299999999999998
100
AcDbArc
 50
179.9999909999999
 51
0.00001
  0
CIRCLE
  5
A35
330
85C
100
AcDbEntity
  8
1
  6
Continuous
100
AcDbCircle
 10
177.5904389999998
 20
477.6171259999999
 30
0.0
 40
1.649999999999999
  0
CIRCLE
  5
A36
330
85C
100
AcDbEntity
  8
1
  6
Continuous
100
AcDbCircle
 10
177.5904389999998
 20
497.617126
 30
0.0
 40
1.649999999999999
  0
ARC
  5
A37
330
85C
100
AcDbEntity
  8
1
  6
Continuous
100
AcDbCircle
 10
177.5904389999998
 20
497.3171389999998
 30
0.0
 40
4.299999999999998
100
AcDbArc
 50
0.0
 51
180.000005
  0
ARC
  5
A38
330
85C
100
AcDbEntity
  8
1
  6
Continuous
100
AcDbCircle
 10
515.7095339999998
 20
377.054993
 30
0.0
 40
1.6
100
AcDbArc
 50
90.00000300000001
 51
180.000005
  0
TEXT
  5
A39
330
85C
100
AcDbEntity
  8
6
  6
Continuous
100
AcDbText
 10
27.97945
 20
10.0487
 30
0.0
 40
1.399999999999999
  1
6
 41
1.069393
100
AcDbText
  0
TEXT
  5
A3A
330
85C
100
AcDbEntity
  8
1
  6
Continuous
100
AcDbText
 10
17.97945
 20
10.0487
 30
0.0
 40
1.399999999999999
  1
1
 41
1.069393
100
AcDbText
  0
TEXT
  5
A3B
330
85C
100
AcDbEntity
  8
1
  6
Continuous
100
AcDbText
 10
9.99995
 20
10.0
 30
0.0
 40
1.399999999999999
  1
LAYER
 41
1.009912999999996
100
AcDbText
  0
TEXT
  5
A3C
330
85C
100
AcDbEntity
  8
2
  6
Continuous
100
AcDbText
 10
19.97944999999998
 20
10.0487
 30
0.0
 40
1.399999999999999
  1
2
 41
1.069393
100
AcDbText
  0
TEXT
  5
A3D
330
85C
100
AcDbEntity
  8
3
  6
DASHED
100
AcDbText
 10
21.97945
 20
10.0487
 30
0.0
 40
1.399999999999999
  1
3
 41
1.069393
100
AcDbText
  0
TEXT
  5
A3E
330
85C
100
AcDbEntity
  8
4
  6
CENTER
100
AcDbText
 10
23.97944999999999
 20
10.0487
 30
0.0
 40
1.399999999999999
  1
4
 41
1.069393
100
AcDbText
  0
TEXT
  5
A3F
330
85C
100
AcDbEntity
  8
5
  6
PHANTOM
100
AcDbText
 10
25.97945
 20
10.0487
 30
0.0
 40
1.399999999999999
  1
5
 41
1.069393
100
AcDbText
  0
TEXT
  5
A40
330
85C
100
AcDbEntity
  8
7
  6
Continuous
100
AcDbText
 10
10.00005
 20
26.0
 30
0.0
 40
3.0
  1
CODE No.5025
 41
1.003962999999999
100
AcDbText
  0
TEXT
  5
A41
330
85C
100
AcDbEntity
  8
7
  6
Continuous
100
AcDbText
 10
10.00005
 20
18.0
 30
0.0
 40
3.0
  1
TYPE No.TM-50-2
 41
1.003152
100
AcDbText
  0
TEXT
  5
A42
330
85C
100
AcDbEntity
  8
7
  6
Continuous
100
AcDbText
 10
29.97944999999999
 20
10.0487
 30
0.0
 40
1.399999999999999
  1
7
 41
1.069393
100
AcDbText
  0
LINE
  5
A43
330
85C
100
AcDbEntity
  8
4
  6
CENTER
 48
0.1
100
AcDbLine
 10
520.009583
 20
205.996775
 30
0.0
 11
520.009583
 21
209.5967809999999
 31
0.0
  0
LINE
  5
A44
330
85C
100
AcDbEntity
  8
4
  6
CENTER
 48
0.1
100
AcDbLine
 10
177.5904389999998
 20
205.9100009999999
 30
0.0
 11
177.5904389999998
 21
209.5100069999999
 31
0.0
  0
LINE
  5
A45
330
85C
100
AcDbEntity
  8
4
  6
CENTER
 48
0.2
100
AcDbLine
 10
507.429996
 20
181.0550079999999
 30
0.0
 11
523.4299959999998
 21
181.0550079999999
 31
0.0
  0
ARC
  5
A5E
330
85C
100
AcDbEntity
  8
1
  6
Continuous
100
AcDbCircle
 10
187.0904389999998
 20
485.2171629999999
 30
0.0
 40
1.0
100
AcDbArc
 50
270.0
 51
0.0
  0
ARC
  5
A5F
330
85C
100
AcDbEntity
  8
1
  6
Continuous
100
AcDbCircle
 10
185.590439
 20
484.2171139999998
 30
0.0
 40
1.0
100
AcDbArc
 50
90.0
 51
180.0
  0
ARC
  5
A60
330
85C
100
AcDbEntity
  8
1
  6
Continuous
100
AcDbCircle
 10
187.0904389999997
 20
469.2171329999998
 30
0.0
 40
1.0
100
AcDbArc
 50
0.0
 51
90.0
  0
ARC
  5
A61
330
85C
100
AcDbEntity
  8
1
  6
Continuous
100
AcDbCircle
 10
185.590439
 20
470.2171509999998
 30
0.0
 40
1.0
100
AcDbArc
 50
180.0
 51
270.0
  0
ARC
  5
A62
330
85C
100
AcDbEntity
  8
1
  6
Continuous
100
AcDbCircle
 10
185.5904389999999
 20
76.99999699999998
 30
0.0
 40
1.0
100
AcDbArc
 50
90.0
 51
180.0
  0
ARC
  5
A63
330
85C
100
AcDbEntity
  8
1
  6
Continuous
100
AcDbCircle
 10
187.0904389999998
 20
78.00000000000001
 30
0.0
 40
1.0
100
AcDbArc
 50
270.0
 51
0.0
  0
ARC
  5
A64
330
85C
100
AcDbEntity
  8
1
  6
Continuous
100
AcDbCircle
 10
187.0904389999997
 20
62.0
 30
0.0
 40
1.0
100
AcDbArc
 50
0.0
 51
90.0
  0
ARC
  5
A65
330
85C
100
AcDbEntity
  8
1
  6
Continuous
100
AcDbCircle
 10
185.590439
 20
62.99999899999999
 30
0.0
 40
1.0
100
AcDbArc
 50
180.0000000000001
 51
270.0
  0
ENDSEC
  0
SECTION
  2
OBJECTS
  0
DICTIONARY
  5
84A
330
0
100
AcDbDictionary
281
     1
  3
ACAD_CIP_PREVIOUS_PRODUCT_INFO
350
D66
  3
ACAD_COLOR
350
D48
  3
ACAD_DETAILVIEWSTYLE
350
D61
  3
ACAD_GROUP
350
84B
  3
ACAD_LAYOUT
350
857
  3
ACAD_MATERIAL
350
D16
  3
ACAD_MLEADERSTYLE
350
D5D
  3
ACAD_MLINESTYLE
350
854
  3
ACAD_PLOTSETTINGS
350
856
  3
ACAD_PLOTSTYLENAME
350
D14
  3
ACAD_SCALELIST
350
D4B
  3
ACAD_SECTIONVIEWSTYLE
350
D5F
  3
ACAD_TABLESTYLE
350
D49
  3
ACAD_VISUALSTYLE
350
D2F
  3
ACDB_RECOMPOSE_DATA
350
D84
  3
AcDbVariableDictionary
350
D77
  3
DWGPROPS
350
D85
  0
DICTIONARY
  5
D67
330
84E
100
AcDbDictionary
280
     1
281
     1
  3
ADSK_XREC_LAYER_RECONCILED
360
D68
  0
DICTIONARY
  5
D69
330
864
100
AcDbDictionary
280
     1
281
     1
  3
ADSK_XREC_LAYER_RECONCILED
360
D6A
  0
DICTIONARY
  5
D6B
330
865
100
AcDbDictionary
280
     1
281
     1
  3
ADSK_XREC_LAYER_RECONCILED
360
D6C
  0
DICTIONARY
  5
D6D
330
866
100
AcDbDictionary
280
     1
281
     1
  3
ADSK_XREC_LAYER_RECONCILED
360
D6E
  0
DICTIONARY
  5
D6F
330
867
100
AcDbDictionary
280
     1
281
     1
  3
ADSK_XREC_LAYER_RECONCILED
360
D70
  0
DICTIONARY
  5
D71
330
868
100
AcDbDictionary
280
     1
281
     1
  3
ADSK_XREC_LAYER_RECONCILED
360
D72
  0
DICTIONARY
  5
D73
330
869
100
AcDbDictionary
280
     1
281
     1
  3
ADSK_XREC_LAYER_RECONCILED
360
D74
  0
DICTIONARY
  5
D75
330
86A
100
AcDbDictionary
280
     1
281
     1
  3
ADSK_XREC_LAYER_RECONCILED
360
D76
  0
DICTIONARY
  5
A54
330
85C
100
AcDbDictionary
281
     1
  3
ACAD_LAYOUTSELFREF
350
D10
  0
DICTIONARY
  5
A52
330
858
100
AcDbDictionary
281
     1
  3
ACAD_LAYOUTSELFREF
350
D0F
  0
XRECORD
  5
D66
102
{ACAD_REACTORS
330
84A
102
}
330
84A
100
AcDbXrecord
280
     1
300
ACDLT
300
2014
300
ACDLT_F_S
  0
DICTIONARY
  5
D48
102
{ACAD_REACTORS
330
84A
102
}
330
84A
100
AcDbDictionary
281
     1
  0
DICTIONARY
  5
D61
102
{ACAD_REACTORS
330
84A
102
}
330
84A
100
AcDbDictionary
281
     1
  3
Imperial24
350
D62
  0
DICTIONARY
  5
84B
102
{ACAD_REACTORS
330
84A
102
}
330
84A
100
AcDbDictionary
281
     1
  0
DICTIONARY
  5
857
102
{ACAD_REACTORS
330
84A
102
}
330
84A
100
AcDbDictionary
281
     1
  3
Model
350
D63
  3
レイアウト1
350
D64
  0
DICTIONARY
  5
D16
102
{ACAD_REACTORS
330
84A
102
}
330
84A
100
AcDbDictionary
281
     1
  3
ByBlock
350
D1F
  3
ByLayer
350
D17
  3
Global
350
D27
  0
DICTIONARY
  5
D5D
102
{ACAD_REACTORS
330
84A
102
}
330
84A
100
AcDbDictionary
281
     1
  3
Standard
350
D5E
  0
DICTIONARY
  5
854
102
{ACAD_REACTORS
330
84A
102
}
330
84A
100
AcDbDictionary
281
     1
  3
STANDARD
350
855
  0
DICTIONARY
  5
856
102
{ACAD_REACTORS
330
84A
102
}
330
84A
100
AcDbDictionary
281
     1
  0
ACDBDICTIONARYWDFLT
  5
D14
102
{ACAD_REACTORS
330
84A
102
}
330
84A
100
AcDbDictionary
281
     1
  3
Normal
350
D15
100
AcDbDictionaryWithDefault
340
D15
  0
DICTIONARY
  5
D4B
102
{ACAD_REACTORS
330
84A
102
}
330
84A
100
AcDbDictionary
281
     1
  3
A0
350
D4C
  3
A1
350
D4D
  3
A2
350
D4E
  3
A3
350
D4F
  3
A4
350
D50
  3
A5
350
D51
  3
A6
350
D52
  3
A7
350
D53
  3
A8
350
D54
  3
A9
350
D55
  3
B0
350
D56
  3
B1
350
D57
  3
B2
350
D58
  3
B3
350
D59
  3
B4
350
D5A
  3
B5
350
D5B
  3
B6
350
D5C
  0
DICTIONARY
  5
D5F
102
{ACAD_REACTORS
330
84A
102
}
330
84A
100
AcDbDictionary
281
     1
  3
Imperial24
350
D60
  0
DICTIONARY
  5
D49
102
{ACAD_REACTORS
330
84A
102
}
330
84A
100
AcDbDictionary
281
     1
  3
Standard
350
D4A
  0
DICTIONARY
  5
D2F
102
{ACAD_REACTORS
330
84A
102
}
330
84A
100
AcDbDictionary
281
     1
  3
2dWireframe
350
D35
  3
Basic
350
D34
  3
Brighten
350
D3B
  3
ColorChange
350
D3F
  3
Conceptual
350
D38
  3
Dim
350
D3A
  3
EdgeColorOff
350
D47
  3
Facepattern
350
D3E
  3
Flat
350
D30
  3
FlatWithEdges
350
D31
  3
Gouraud
350
D32
  3
GouraudWithEdges
350
D33
  3
Hidden
350
D37
  3
JitterOff
350
D45
  3
Linepattern
350
D3D
  3
OverhangOff
350
D46
  3
Realistic
350
D39
  3
Shaded
350
D44
  3
Shaded with edges
350
D43
  3
Shades of Gray
350
D40
  3
Sketchy
350
D41
  3
Thicken
350
D3C
  3
Wireframe
350
D36
  3
X-Ray
350
D42
  0
XRECORD
  5
D84
102
{ACAD_REACTORS
330
84A
102
}
330
84A
100
AcDbXrecord
280
     1
 90
        1
330
D4A
  0
DICTIONARY
  5
D77
102
{ACAD_REACTORS
330
84A
102
}
330
84A
100
AcDbDictionary
281
     1
  3
CANNOSCALE
350
D7C
  3
CMLEADERSTYLE
350
D79
  3
CTABLESTYLE
350
D78
  3
CVIEWDETAILSTYLE
350
D7A
  3
CVIEWSECTIONSTYLE
350
D7B
  3
DIMASSOC
350
D7F
  3
INDEXCTL
350
D7E
  3
SORTENTS
350
D7D
  3
XCLIPFRAME
350
D80
  0
XRECORD
  5
D85
102
{ACAD_REACTORS
330
84A
102
}
330
84A
100
AcDbXrecord
280
     1
  1
DWGPROPS COOKIE
  2

  3

  4

  6

  7

  8
Yoshitsune
  9

300
=
301
=
302
=
303
=
304
=
305
=
306
=
307
=
308
=
309
=
 40
0.0147246759259259
 41
2451640.671537002
 42
2457192.622556586
  1

 90
        0
  0
XRECORD
  5
D68
102
{ACAD_REACTORS
330
D67
102
}
330
D67
100
AcDbXrecord
280
     1
290
     1
  0
XRECORD
  5
D6A
102
{ACAD_REACTORS
330
D69
102
}
330
D69
100
AcDbXrecord
280
     1
290
     1
  0
XRECORD
  5
D6C
102
{ACAD_REACTORS
330
D6B
102
}
330
D6B
100
AcDbXrecord
280
     1
290
     1
  0
XRECORD
  5
D6E
102
{ACAD_REACTORS
330
D6D
102
}
330
D6D
100
AcDbXrecord
280
     1
290
     1
  0
XRECORD
  5
D70
102
{ACAD_REACTORS
330
D6F
102
}
330
D6F
100
AcDbXrecord
280
     1
290
     1
  0
XRECORD
  5
D72
102
{ACAD_REACTORS
330
D71
102
}
330
D71
100
AcDbXrecord
280
     1
290
     1
  0
XRECORD
  5
D74
102
{ACAD_REACTORS
330
D73
102
}
330
D73
100
AcDbXrecord
280
     1
290
     1
  0
XRECORD
  5
D76
102
{ACAD_REACTORS
330
D75
102
}
330
D75
100
AcDbXrecord
280
     1
290
     1
  0
XRECORD
  5
D10
102
{ACAD_REACTORS
330
A54
102
}
330
A54
100
AcDbXrecord
280
     1
340
85C
  0
XRECORD
  5
D0F
102
{ACAD_REACTORS
330
A52
102
}
330
A52
100
AcDbXrecord
280
     1
340
858
  0
ACDBDETAILVIEWSTYLE
  5
D62
102
{ACAD_XDICTIONARY
360
DBD
102
}
102
{ACAD_REACTORS
330
D61
102
}
330
D61
100
AcDbModelDocViewStyle
 70
     0
  3
Imperial24
290
     0
100
AcDbDetailViewStyle
 70
     0
 71
     0
 90
        3
 71
     1
340
84F
 40
0.24
340
0
 40
0.24
300

 40
0.36
280
     3
 71
     2
340
853
 90
       25
 71
     3
340
84F
 40
0.24
 90
        1
 40
0.75
 90
        1
300
%<\AcVar ViewType \f "%tc1">% %<\AcVar ViewDetailId>%\PSCALE %<\AcVar ViewScale \f "%sn">%
 71
     4
340
853
 90
       25
340
853
 90
       25
280
     0
  0
LAYOUT
  5
D63
102
{ACAD_XDICTIONARY
360
DBF
102
}
102
{ACAD_REACTORS
330
857
102
}
330
857
100
AcDbPlotSettings
  1

  2
Canon LBP9100C
  4

  6

 40
0.0
 41
0.0
 42
0.0
 43
0.0
 44
0.0
 45
0.0
 46
0.0
 47
0.0
 48
0.0
 49
0.0
140
0.0
141
0.0
142
1.0
143
1.0
 70
  1712
 72
     0
 73
     0
 74
     0
  7

 75
     0
147
1.0
148
0.0
149
0.0
100
AcDbLayout
  1
Model
 70
     1
 71
     0
 10
0.0
 20
0.0
 11
12.0
 21
9.0
 12
0.0
 22
0.0
 32
0.0
 14
0.0
 24
0.0
 34
0.0
 15
0.0
 25
0.0
 35
0.0
146
0.0
 13
0.0
 23
0.0
 33
0.0
 16
1.0
 26
0.0
 36
0.0
 17
0.0
 27
1.0
 37
0.0
 76
     0
330
85C
331
D0E
  0
LAYOUT
  5
D64
102
{ACAD_XDICTIONARY
360
DC1
102
}
102
{ACAD_REACTORS
330
857
102
}
330
857
100
AcDbPlotSettings
  1

  2
Canon LBP9100C
  4

  6

 40
0.0
 41
0.0
 42
0.0
 43
0.0
 44
0.0
 45
0.0
 46
0.0
 47
0.0
 48
0.0
 49
0.0
140
0.0
141
0.0
142
1.0
143
1.0
 70
   688
 72
     0
 73
     0
 74
     5
  7

 75
    16
147
1.0
148
0.0
149
0.0
100
AcDbLayout
  1
レイアウト1
 70
     1
 71
     1
 10
0.0
 20
0.0
 11
420.0
 21
297.0
 12
0.0
 22
0.0
 32
0.0
 14
1.000000000000000E+20
 24
1.000000000000000E+20
 34
1.000000000000000E+20
 15
-1.000000000000000E+20
 25
-1.000000000000000E+20
 35
-1.000000000000000E+20
146
0.0
 13
0.0
 23
0.0
 33
0.0
 16
1.0
 26
0.0
 36
0.0
 17
0.0
 27
1.0
 37
0.0
 76
     0
330
858
  0
MATERIAL
  5
D1F
102
{ACAD_XDICTIONARY
360
D20
102
}
102
{ACAD_REACTORS
330
D16
102
}
330
D16
100
AcDbMaterial
  1
ByBlock
 72
     0
 43
0.0208333333333333
 43
0.0
 43
0.0
 43
0.0
 43
0.0
 43
0.0208333333333333
 43
0.0
 43
0.0
 43
0.0
 43
0.0
 43
1.0
 43
0.0
 43
0.0
 43
0.0
 43
0.0
 43
1.0
 77
     0
 47
0.0208333333333333
 47
0.0
 47
0.0
 47
0.0
 47
0.0
 47
0.0208333333333333
 47
0.0
 47
0.0
 47
0.0
 47
0.0
 47
1.0
 47
0.0
 47
0.0
 47
0.0
 47
0.0
 47
1.0
171
     0
 49
0.0208333333333333
 49
0.0
 49
0.0
 49
0.0
 49
0.0
 49
0.0208333333333333
 49
0.0
 49
0.0
 49
0.0
 49
0.0
 49
1.0
 49
0.0
 49
0.0
 49
0.0
 49
0.0
 49
1.0
175
     0
142
0.0208333333333333
142
0.0
142
0.0
142
0.0
142
0.0
142
0.0208333333333333
142
0.0
142
0.0
142
0.0
142
0.0
142
1.0
142
0.0
142
0.0
142
0.0
142
0.0
142
1.0
179
     0
144
0.0208333333333333
144
0.0
144
0.0
144
0.0
144
0.0
144
0.0208333333333333
144
0.0
144
0.0
144
0.0
144
0.0
144
1.0
144
0.0
144
0.0
144
0.0
144
0.0
144
1.0
147
0.0208333333333333
147
0.0
147
0.0
147
0.0
147
0.0
147
0.0208333333333333
147
0.0
147
0.0
147
0.0
147
0.0
147
1.0
147
0.0
147
0.0
147
0.0
147
0.0
147
1.0
  0
MATERIAL
  5
D17
102
{ACAD_XDICTIONARY
360
D18
102
}
102
{ACAD_REACTORS
330
D16
102
}
330
D16
100
AcDbMaterial
  1
ByLayer
 72
     0
 43
0.0208333333333333
 43
0.0
 43
0.0
 43
0.0
 43
0.0
 43
0.0208333333333333
 43
0.0
 43
0.0
 43
0.0
 43
0.0
 43
1.0
 43
0.0
 43
0.0
 43
0.0
 43
0.0
 43
1.0
 77
     0
 47
0.0208333333333333
 47
0.0
 47
0.0
 47
0.0
 47
0.0
 47
0.0208333333333333
 47
0.0
 47
0.0
 47
0.0
 47
0.0
 47
1.0
 47
0.0
 47
0.0
 47
0.0
 47
0.0
 47
1.0
171
     0
 49
0.0208333333333333
 49
0.0
 49
0.0
 49
0.0
 49
0.0
 49
0.0208333333333333
 49
0.0
 49
0.0
 49
0.0
 49
0.0
 49
1.0
 49
0.0
 49
0.0
 49
0.0
 49
0.0
 49
1.0
175
     0
142
0.0208333333333333
142
0.0
142
0.0
142
0.0
142
0.0
142
0.0208333333333333
142
0.0
142
0.0
142
0.0
142
0.0
142
1.0
142
0.0
142
0.0
142
0.0
142
0.0
142
1.0
179
     0
144
0.0208333333333333
144
0.0
144
0.0
144
0.0
144
0.0
144
0.0208333333333333
144
0.0
144
0.0
144
0.0
144
0.0
144
1.0
144
0.0
144
0.0
144
0.0
144
0.0
144
1.0
147
0.0208333333333333
147
0.0
147
0.0
147
0.0
147
0.0
147
0.0208333333333333
147
0.0
147
0.0
147
0.0
147
0.0
147
1.0
147
0.0
147
0.0
147
0.0
147
0.0
147
1.0
  0
MATERIAL
  5
D27
102
{ACAD_XDICTIONARY
360
D28
102
}
102
{ACAD_REACTORS
330
D16
102
}
330
D16
100
AcDbMaterial
  1
Global
 72
     0
 43
0.0208333333333333
 43
0.0
 43
0.0
 43
0.0
 43
0.0
 43
0.0208333333333333
 43
0.0
 43
0.0
 43
0.0
 43
0.0
 43
1.0
 43
0.0
 43
0.0
 43
0.0
 43
0.0
 43
1.0
 77
     0
 47
0.0208333333333333
 47
0.0
 47
0.0
 47
0.0
 47
0.0
 47
0.0208333333333333
 47
0.0
 47
0.0
 47
0.0
 47
0.0
 47
1.0
 47
0.0
 47
0.0
 47
0.0
 47
0.0
 47
1.0
171
     0
 49
0.0208333333333333
 49
0.0
 49
0.0
 49
0.0
 49
0.0
 49
0.0208333333333333
 49
0.0
 49
0.0
 49
0.0
 49
0.0
 49
1.0
 49
0.0
 49
0.0
 49
0.0
 49
0.0
 49
1.0
175
     0
142
0.0208333333333333
142
0.0
142
0.0
142
0.0
142
0.0
142
0.0208333333333333
142
0.0
142
0.0
142
0.0
142
0.0
142
1.0
142
0.0
142
0.0
142
0.0
142
0.0
142
1.0
179
     0
144
0.0208333333333333
144
0.0
144
0.0
144
0.0
144
0.0
144
0.0208333333333333
144
0.0
144
0.0
144
0.0
144
0.0
144
1.0
144
0.0
144
0.0
144
0.0
144
0.0
144
1.0
147
0.0208333333333333
147
0.0
147
0.0
147
0.0
147
0.0
147
0.0208333333333333
147
0.0
147
0.0
147
0.0
147
0.0
147
1.0
147
0.0
147
0.0
147
0.0
147
0.0
147
1.0
  0
MLEADERSTYLE
  5
D5E
102
{ACAD_REACTORS
330
D5D
102
}
330
D5D
100
AcDbMLeaderStyle
170
     2
171
     1
172
     0
 90
        2
 40
0.0
 41
0.0
173
     1
 91
-1056964608
340
851
 92
       -2
290
     1
 42
0.09
291
     1
 43
0.36
  3
Standard
 44
0.18
300

342
84F
174
     1
178
     6
175
     1
176
     0
 93
-1056964608
 45
0.18
292
     0
297
     0
 46
0.18
 94
-1056964608
 47
1.0
 49
1.0
140
1.0
293
     1
141
0.0
294
     1
177
     0
142
1.0
295
     0
296
     0
143
0.125
1001
ACAD_MLEADERVER
1070
     2
  0
MLINESTYLE
  5
855
102
{ACAD_REACTORS
330
854
102
}
330
854
100
AcDbMlineStyle
  2
STANDARD
 70
     0
  3

 62
   256
 51
90.0
 52
90.0
 71
     2
 49
0.5
 62
   256
  6
BYLAYER
 49
-0.5
 62
   256
  6
BYLAYER
  0
ACDBPLACEHOLDER
  5
D15
102
{ACAD_REACTORS
330
D14
102
}
330
D14
  0
SCALE
  5
D4C
102
{ACAD_REACTORS
330
D4B
102
}
330
D4B
100
AcDbScale
 70
     0
300
1:1
140
1.0
141
1.0
290
     1
  0
SCALE
  5
D4D
102
{ACAD_REACTORS
330
D4B
102
}
330
D4B
100
AcDbScale
 70
     0
300
1/128" = 1'-0"
140
0.0078125
141
12.0
290
     0
  0
SCALE
  5
D4E
102
{ACAD_REACTORS
330
D4B
102
}
330
D4B
100
AcDbScale
 70
     0
300
1/64" = 1'-0"
140
0.015625
141
12.0
290
     0
  0
SCALE
  5
D4F
102
{ACAD_REACTORS
330
D4B
102
}
330
D4B
100
AcDbScale
 70
     0
300
1/32" = 1'-0"
140
0.03125
141
12.0
290
     0
  0
SCALE
  5
D50
102
{ACAD_REACTORS
330
D4B
102
}
330
D4B
100
AcDbScale
 70
     0
300
1/16" = 1'-0"
140
0.0625
141
12.0
290
     0
  0
SCALE
  5
D51
102
{ACAD_REACTORS
330
D4B
102
}
330
D4B
100
AcDbScale
 70
     0
300
3/32" = 1'-0"
140
0.09375
141
12.0
290
     0
  0
SCALE
  5
D52
102
{ACAD_REACTORS
330
D4B
102
}
330
D4B
100
AcDbScale
 70
     0
300
1/8" = 1'-0"
140
0.125
141
12.0
290
     0
  0
SCALE
  5
D53
102
{ACAD_REACTORS
330
D4B
102
}
330
D4B
100
AcDbScale
 70
     0
300
3/16" = 1'-0"
140
0.1875
141
12.0
290
     0
  0
SCALE
  5
D54
102
{ACAD_REACTORS
330
D4B
102
}
330
D4B
100
AcDbScale
 70
     0
300
1/4" = 1'-0"
140
0.25
141
12.0
290
     0
  0
SCALE
  5
D55
102
{ACAD_REACTORS
330
D4B
102
}
330
D4B
100
AcDbScale
 70
     0
300
3/8" = 1'-0"
140
0.375
141
12.0
290
     0
  0
SCALE
  5
D56
102
{ACAD_REACTORS
330
D4B
102
}
330
D4B
100
AcDbScale
 70
     0
300
1/2" = 1'-0"
140
0.5
141
12.0
290
     0
  0
SCALE
  5
D57
102
{ACAD_REACTORS
330
D4B
102
}
330
D4B
100
AcDbScale
 70
     0
300
3/4" = 1'-0"
140
0.75
141
12.0
290
     0
  0
SCALE
  5
D58
102
{ACAD_REACTORS
330
D4B
102
}
330
D4B
100
AcDbScale
 70
     0
300
1" = 1'-0"
140
1.0
141
12.0
290
     0
  0
SCALE
  5
D59
102
{ACAD_REACTORS
330
D4B
102
}
330
D4B
100
AcDbScale
 70
     0
300
1-1/2" = 1'-0"
140
1.5
141
12.0
290
     0
  0
SCALE
  5
D5A
102
{ACAD_REACTORS
330
D4B
102
}
330
D4B
100
AcDbScale
 70
     0
300
3" = 1'-0"
140
3.0
141
12.0
290
     0
  0
SCALE
  5
D5B
102
{ACAD_REACTORS
330
D4B
102
}
330
D4B
100
AcDbScale
 70
     0
300
6" = 1'-0"
140
6.0
141
12.0
290
     0
  0
SCALE
  5
D5C
102
{ACAD_REACTORS
330
D4B
102
}
330
D4B
100
AcDbScale
 70
     0
300
1'-0" = 1'-0"
140
12.0
141
12.0
290
     0
  0
ACDBSECTIONVIEWSTYLE
  5
D60
102
{ACAD_XDICTIONARY
360
DBB
102
}
102
{ACAD_REACTORS
330
D5F
102
}
330
D5F
100
AcDbModelDocViewStyle
 70
     0
  3
Imperial24
290
     0
100
AcDbSectionViewStyle
 70
     0
 71
     0
 90
       78
 71
     1
340
84F
 40
0.24
340
0
340
0
 40
0.24
300
I, O, Q, S, X, Z
 40
0.48
 90
        3
 40
0.18
 90
        1
 71
     2
340
853
 90
       25
340
853
 90
       50
 40
0.24
 40
0.0
 40
0.24
 71
     3
340
84F
 40
0.24
 90
        1
 40
0.75
 90
        1
300
%<\AcVar ViewType \f "%tc1">% %<\AcVar ViewSectionStartId>%-%<\AcVar ViewSectionEndId>%\PSCALE %<\AcVar ViewScale \f "%sn">%
 71
     4
300
ANSI31
 40
1.0
 90
        0
290
     0
290
     0
 90
        6
 40
0.0
 40
1.570796326794896
 40
0.2617993877991494
 40
1.308996938995747
 40
-0.2617993877991494
 40
1.832595714594046
  0
TABLESTYLE
  5
D4A
102
{ACAD_XDICTIONARY
360
D82
102
}
102
{ACAD_REACTORS
330
D49
102
}
330
D49
100
AcDbTableStyle
  3
Standard
 70
     0
 71
     0
 40
0.06
 41
0.06
280
     0
281
     0
  7
STANDARD
140
0.18
170
     2
 62
     0
 63
     7
283
     0
274
    -2
284
     1
 64
     0
275
    -2
285
     1
 65
     0
276
    -2
286
     1
 66
     0
277
    -2
287
     1
 67
     0
278
    -2
288
     1
 68
     0
279
    -2
289
     1
 69
     0
  7
STANDARD
140
0.25
170
     5
 62
     0
 63
     7
283
     0
274
    -2
284
     1
 64
     0
275
    -2
285
     1
 65
     0
276
    -2
286
     1
 66
     0
277
    -2
287
     1
 67
     0
278
    -2
288
     1
 68
     0
279
    -2
289
     1
 69
     0
  7
STANDARD
140
0.18
170
     5
 62
     0
 63
     7
283
     0
274
    -2
284
     1
 64
     0
275
    -2
285
     1
 65
     0
276
    -2
286
     1
 66
     0
277
    -2
287
     1
 67
     0
278
    -2
288
     1
 68
     0
279
    -2
289
     1
 69
     0
  0
VISUALSTYLE
  5
D35
102
{ACAD_XDICTIONARY
360
D93
102
}
102
{ACAD_REACTORS
330
D2F
102
}
330
D2F
100
AcDbVisualStyle
  2
2dWireframe
 70
     4
 71
     0
 72
     2
 73
     0
 90
        0
 40
-0.6
 41
-30.0
 62
     5
 63
     7
 74
     1
 91
        4
 64
     7
 65
   257
 75
     1
175
     1
 42
1.0
 92
        0
 66
   257
 43
1.0
 76
     1
 77
     6
 78
     2
 67
     7
 79
     5
170
     0
171
     0
290
     0
174
     0
 93
        1
 44
0.0
173
     0
291
     0
 45
0.0
1001
ACAD
1000
AcDbSavedByObjectVersion
1070
     0
  0
VISUALSTYLE
  5
D34
102
{ACAD_XDICTIONARY
360
D91
102
}
102
{ACAD_REACTORS
330
D2F
102
}
330
D2F
100
AcDbVisualStyle
  2
Basic
 70
     7
 71
     1
 72
     0
 73
     1
 90
        0
 40
-0.6
 41
-30.0
 62
     5
 63
     7
 74
     0
 91
        4
 64
     7
 65
   257
 75
     1
175
     1
 42
1.0
 92
        8
 66
     7
 43
1.0
 76
     1
 77
     6
 78
     2
 67
     7
 79
     5
170
     0
171
     0
290
     0
174
     0
 93
        1
 44
0.0
173
     0
291
     1
 45
0.0
1001
ACAD
1000
AcDbSavedByObjectVersion
1070
     0
  0
VISUALSTYLE
  5
D3B
102
{ACAD_XDICTIONARY
360
D9F
102
}
102
{ACAD_REACTORS
330
D2F
102
}
330
D2F
100
AcDbVisualStyle
  2
Brighten
 70
    12
 71
     2
 72
     2
 73
     0
 90
        0
 40
-0.6
 41
-30.0
 62
     5
 63
     7
 74
     1
 91
        4
 64
     7
 65
   257
 75
     1
175
     1
 42
1.0
 92
        8
 66
     7
 43
1.0
 76
     1
 77
     6
 78
     2
 67
     7
 79
     5
170
     0
171
     0
290
     0
174
     0
 93
        1
 44
50.0
173
     0
291
     1
 45
0.0
1001
ACAD
1000
AcDbSavedByObjectVersion
1070
     0
  0
VISUALSTYLE
  5
D3F
102
{ACAD_XDICTIONARY
360
DA7
102
}
102
{ACAD_REACTORS
330
D2F
102
}
330
D2F
100
AcDbVisualStyle
  2
ColorChange
 70
    16
 71
     2
 72
     2
 73
     3
 90
        0
 40
-0.6
 41
-30.0
 62
     5
 63
     8
 74
     1
 91
        4
 64
     7
 65
   257
 75
     1
175
     1
 42
1.0
 92
        8
 66
     8
 43
1.0
 76
     1
 77
     6
 78
     2
 67
     7
 79
     5
170
     0
171
     0
290
     0
174
     0
 93
        1
 44
0.0
173
     0
291
     1
 45
0.0
1001
ACAD
1000
AcDbSavedByObjectVersion
1070
     0
  0
VISUALSTYLE
  5
D38
102
{ACAD_XDICTIONARY
360
D99
102
}
102
{ACAD_REACTORS
330
D2F
102
}
330
D2F
100
AcDbVisualStyle
  2
Conceptual
 70
     9
 71
     3
 72
     2
 73
     0
 90
        0
 40
-0.6
 41
-30.0
 62
     5
 63
     7
 74
     2
 91
        2
 64
     7
 65
   257
 75
     1
175
     1
 42
179.0
 92
        8
 66
     7
 43
1.0
 76
     1
 77
     6
 78
     2
 67
     7
 79
     3
170
     0
171
     0
290
     0
174
     0
 93
        1
 44
0.0
173
     0
291
     0
 45
0.0
1001
ACAD
1000
AcDbSavedByObjectVersion
1070
     0
  0
VISUALSTYLE
  5
D3A
102
{ACAD_XDICTIONARY
360
D9D
102
}
102
{ACAD_REACTORS
330
D2F
102
}
330
D2F
100
AcDbVisualStyle
  2
Dim
 70
    11
 71
     2
 72
     2
 73
     0
 90
        0
 40
-0.6
 41
-30.0
 62
     5
 63
     7
 74
     1
 91
        4
 64
     7
 65
   257
 75
     1
175
     1
 42
1.0
 92
        8
 66
     7
 43
1.0
 76
     1
 77
     6
 78
     2
 67
     7
 79
     5
170
     0
171
     0
290
     0
174
     0
 93
        1
 44
-50.0
173
     0
291
     1
 45
0.0
1001
ACAD
1000
AcDbSavedByObjectVersion
1070
     0
  0
VISUALSTYLE
  5
D47
102
{ACAD_XDICTIONARY
360
DB7
102
}
102
{ACAD_REACTORS
330
D2F
102
}
330
D2F
100
AcDbVisualStyle
  2
EdgeColorOff
 70
    22
 71
     2
 72
     2
 73
     0
 90
        0
 40
-0.6
 41
-30.0
 62
     5
 63
     7
 74
     1
 91
        4
 64
     7
 65
   257
 75
     1
175
     1
 42
1.0
 92
        8
 66
     7
 43
1.0
 76
     1
 77
     6
 78
     2
 67
     7
 79
     5
170
     0
171
     0
290
     0
174
     0
 93
        1
 44
0.0
173
     0
291
     1
 45
0.0
1001
ACAD
1000
AcDbSavedByObjectVersion
1070
     0
  0
VISUALSTYLE
  5
D3E
102
{ACAD_XDICTIONARY
360
DA5
102
}
102
{ACAD_REACTORS
330
D2F
102
}
330
D2F
100
AcDbVisualStyle
  2
Facepattern
 70
    15
 71
     2
 72
     2
 73
     0
 90
        0
 40
-0.6
 41
-30.0
 62
     5
 63
     7
 74
     1
 91
        4
 64
     7
 65
   257
 75
     1
175
     1
 42
1.0
 92
        8
 66
     7
 43
1.0
 76
     1
 77
     6
 78
     2
 67
     7
 79
     5
170
     0
171
     0
290
     0
174
     0
 93
        1
 44
0.0
173
     0
291
     1
 45
0.0
1001
ACAD
1000
AcDbSavedByObjectVersion
1070
     0
  0
VISUALSTYLE
  5
D30
102
{ACAD_XDICTIONARY
360
D89
102
}
102
{ACAD_REACTORS
330
D2F
102
}
330
D2F
100
AcDbVisualStyle
  2
Flat
 70
     0
 71
     2
 72
     1
 73
     1
 90
        2
 40
-0.6
 41
30.0
 62
     5
 63
     7
 74
     0
 91
        0
 64
     7
 65
   257
 75
     1
175
     1
 42
1.0
 92
        8
 66
     7
 43
1.0
 76
     1
 77
     6
 78
     2
 67
     7
 79
     5
170
     0
171
     0
290
     0
174
     0
 93
       13
 44
0.0
173
     0
291
     1
 45
0.0
1001
ACAD
1000
AcDbSavedByObjectVersion
1070
     0
  0
VISUALSTYLE
  5
D31
102
{ACAD_XDICTIONARY
360
D8B
102
}
102
{ACAD_REACTORS
330
D2F
102
}
330
D2F
100
AcDbVisualStyle
  2
FlatWithEdges
 70
     1
 71
     2
 72
     1
 73
     1
 90
        2
 40
-0.6
 41
30.0
 62
     5
 63
     7
 74
     1
 91
        0
 64
     7
 65
   257
 75
     1
175
     1
 42
1.0
 92
        0
 66
   257
 43
1.0
 76
     1
 77
     6
 78
     2
 67
     7
 79
     5
170
     0
171
     0
290
     0
174
     0
 93
       13
 44
0.0
173
     0
291
     1
 45
0.0
1001
ACAD
1000
AcDbSavedByObjectVersion
1070
     0
  0
VISUALSTYLE
  5
D32
102
{ACAD_XDICTIONARY
360
D8D
102
}
102
{ACAD_REACTORS
330
D2F
102
}
330
D2F
100
AcDbVisualStyle
  2
Gouraud
 70
     2
 71
     2
 72
     2
 73
     1
 90
        2
 40
-0.6
 41
30.0
 62
     5
 63
     7
 74
     0
 91
        0
 64
     7
 65
   257
 75
     1
175
     1
 42
1.0
 92
        0
 66
     7
 43
1.0
 76
     1
 77
     6
 78
     2
 67
     7
 79
     5
170
     0
171
     0
290
     0
174
     0
 93
       13
 44
0.0
173
     0
291
     1
 45
0.0
1001
ACAD
1000
AcDbSavedByObjectVersion
1070
     0
  0
VISUALSTYLE
  5
D33
102
{ACAD_XDICTIONARY
360
D8F
102
}
102
{ACAD_REACTORS
330
D2F
102
}
330
D2F
100
AcDbVisualStyle
  2
GouraudWithEdges
 70
     3
 71
     2
 72
     2
 73
     1
 90
        2
 40
-0.6
 41
30.0
 62
     5
 63
     7
 74
     1
 91
        0
 64
     7
 65
   257
 75
     1
175
     1
 42
1.0
 92
        0
 66
   257
 43
1.0
 76
     1
 77
     6
 78
     2
 67
     7
 79
     5
170
     0
171
     0
290
     0
174
     0
 93
       13
 44
0.0
173
     0
291
     1
 45
0.0
1001
ACAD
1000
AcDbSavedByObjectVersion
1070
     0
  0
VISUALSTYLE
  5
D37
102
{ACAD_XDICTIONARY
360
D97
102
}
102
{ACAD_REACTORS
330
D2F
102
}
330
D2F
100
AcDbVisualStyle
  2
Hidden
 70
     6
 71
     1
 72
     2
 73
     2
 90
        0
 40
-0.6
 41
-30.0
 62
     5
 63
     7
 74
     2
 91
        2
 64
     7
 65
   257
 75
     2
175
     1
 42
40.0
 92
        0
 66
   257
 43
1.0
 76
     1
 77
     6
 78
     2
 67
     7
 79
     3
170
     0
171
     0
290
     0
174
     0
 93
        1
 44
0.0
173
     0
291
     0
 45
0.0
1001
ACAD
1000
AcDbSavedByObjectVersion
1070
     0
  0
VISUALSTYLE
  5
D45
102
{ACAD_XDICTIONARY
360
DB3
102
}
102
{ACAD_REACTORS
330
D2F
102
}
330
D2F
100
AcDbVisualStyle
  2
JitterOff
 70
    20
 71
     2
 72
     2
 73
     0
 90
        0
 40
-0.6
 41
-30.0
 62
     5
 63
     7
 74
     1
 91
        4
 64
     7
 65
   257
 75
     1
175
     1
 42
1.0
 92
       10
 66
     7
 43
1.0
 76
     1
 77
     6
 78
     2
 67
     7
 79
     5
170
     0
171
     0
290
     0
174
     0
 93
        1
 44
0.0
173
     0
291
     1
 45
0.0
1001
ACAD
1000
AcDbSavedByObjectVersion
1070
     0
  0
VISUALSTYLE
  5
D3D
102
{ACAD_XDICTIONARY
360
DA3
102
}
102
{ACAD_REACTORS
330
D2F
102
}
330
D2F
100
AcDbVisualStyle
  2
Linepattern
 70
    14
 71
     2
 72
     2
 73
     0
 90
        0
 40
-0.6
 41
-30.0
 62
     5
 63
     7
 74
     1
 91
        4
 64
     7
 65
   257
 75
     7
175
     7
 42
1.0
 92
        8
 66
     7
 43
1.0
 76
     1
 77
     6
 78
     2
 67
     7
 79
     5
170
     0
171
     0
290
     0
174
     0
 93
        1
 44
0.0
173
     0
291
     1
 45
0.0
1001
ACAD
1000
AcDbSavedByObjectVersion
1070
     0
  0
VISUALSTYLE
  5
D46
102
{ACAD_XDICTIONARY
360
DB5
102
}
102
{ACAD_REACTORS
330
D2F
102
}
330
D2F
100
AcDbVisualStyle
  2
OverhangOff
 70
    21
 71
     2
 72
     2
 73
     0
 90
        0
 40
-0.6
 41
-30.0
 62
     5
 63
     7
 74
     1
 91
        4
 64
     7
 65
   257
 75
     1
175
     1
 42
1.0
 92
        9
 66
     7
 43
1.0
 76
     1
 77
     6
 78
     2
 67
     7
 79
     5
170
     0
171
     0
290
     0
174
     0
 93
        1
 44
0.0
173
     0
291
     1
 45
0.0
1001
ACAD
1000
AcDbSavedByObjectVersion
1070
     0
  0
VISUALSTYLE
  5
D39
102
{ACAD_XDICTIONARY
360
D9B
102
}
102
{ACAD_REACTORS
330
D2F
102
}
330
D2F
100
AcDbVisualStyle
  2
Realistic
 70
     8
 71
     2
 72
     3
 73
     0
 90
        2
 40
-0.6
 41
30.0
 62
     5
 63
     7
 74
     0
 91
        0
 64
     7
 65
   257
 75
     1
175
     1
 42
1.0
 92
        8
 66
   257
 43
1.0
 76
     1
 77
     6
 78
     2
 67
     7
 79
     3
170
     0
171
     0
290
     0
174
     0
 93
       13
 44
0.0
173
     0
291
     0
 45
0.0
1001
ACAD
1000
AcDbSavedByObjectVersion
1070
     0
  0
VISUALSTYLE
  5
D44
102
{ACAD_XDICTIONARY
360
DB1
102
}
102
{ACAD_REACTORS
330
D2F
102
}
330
D2F
100
AcDbVisualStyle
  2
Shaded
 70
    27
 71
     2
 72
     2
 73
     1
 90
        2
 40
-0.6
 41
30.0
 62
     5
 63
     7
 74
     0
 91
        4
 64
     7
 65
   257
 75
     1
175
     1
 42
1.0
 92
        8
 66
   257
 43
1.0
 76
     1
 77
     6
 78
     2
 67
     8
 79
     3
170
     0
171
     0
290
     0
174
     0
 93
        5
 44
0.0
173
     0
291
     0
 45
0.0
1001
ACAD
1000
AcDbSavedByObjectVersion
1070
     0
  0
VISUALSTYLE
  5
D43
102
{ACAD_XDICTIONARY
360
DAF
102
}
102
{ACAD_REACTORS
330
D2F
102
}
330
D2F
100
AcDbVisualStyle
  2
Shaded with edges
 70
    26
 71
     2
 72
     2
 73
     1
 90
        2
 40
-0.6
 41
30.0
 62
     5
 63
     7
 74
     1
 91
       10
 64
     7
 65
   257
 75
     2
175
     1
 42
1.0
 92
        8
 66
   257
 43
1.0
 76
     1
 77
     6
 78
     2
 67
     7
 79
     3
170
     0
171
     0
290
     0
174
     0
 93
        5
 44
0.0
173
     0
291
     0
 45
0.0
1001
ACAD
1000
AcDbSavedByObjectVersion
1070
     0
  0
VISUALSTYLE
  5
D40
102
{ACAD_XDICTIONARY
360
DA9
102
}
102
{ACAD_REACTORS
330
D2F
102
}
330
D2F
100
AcDbVisualStyle
  2
Shades of Gray
 70
    23
 71
     2
 72
     2
 73
     3
 90
        0
 40
-0.6
 41
-30.0
 62
     5
 63
     7
 74
     2
 91
        2
 64
     7
 65
     7
 75
     1
175
     1
 42
40.0
 92
        8
 66
     7
 43
1.0
 76
     1
 77
     6
 78
     2
 67
     7
 79
     3
170
     0
171
     0
290
     0
174
     0
 93
        1
 44
0.0
173
     0
291
     0
 45
0.0
1001
ACAD
1000
AcDbSavedByObjectVersion
1070
     0
  0
VISUALSTYLE
  5
D41
102
{ACAD_XDICTIONARY
360
DAB
102
}
102
{ACAD_REACTORS
330
D2F
102
}
330
D2F
100
AcDbVisualStyle
  2
Sketchy
 70
    24
 71
     1
 72
     2
 73
     2
 90
        0
 40
-0.6
 41
-30.0
 62
     5
 63
     7
 74
     2
 91
        2
 64
     7
 65
     7
 75
     1
175
     1
 42
40.0
 92
       11
 66
     7
 43
1.0
 76
     1
 77
     6
 78
     2
 67
     7
 79
     6
170
     0
171
     0
290
     0
174
     0
 93
        1
 44
0.0
173
     0
291
     0
 45
0.0
1001
ACAD
1000
AcDbSavedByObjectVersion
1070
     0
  0
VISUALSTYLE
  5
D3C
102
{ACAD_XDICTIONARY
360
DA1
102
}
102
{ACAD_REACTORS
330
D2F
102
}
330
D2F
100
AcDbVisualStyle
  2
Thicken
 70
    13
 71
     2
 72
     2
 73
     0
 90
        0
 40
-0.6
 41
-30.0
 62
     5
 63
     7
 74
     1
 91
        4
 64
     7
 65
   257
 75
     1
175
     1
 42
1.0
 92
       12
 66
     7
 43
1.0
 76
     1
 77
     6
 78
     2
 67
     7
 79
     5
170
     0
171
     0
290
     0
174
     0
 93
        1
 44
0.0
173
     0
291
     1
 45
0.0
1001
ACAD
1000
AcDbSavedByObjectVersion
1070
     0
  0
VISUALSTYLE
  5
D36
102
{ACAD_XDICTIONARY
360
D95
102
}
102
{ACAD_REACTORS
330
D2F
102
}
330
D2F
100
AcDbVisualStyle
  2
Wireframe
 70
     5
 71
     0
 72
     2
 73
     0
 90
        0
 40
-0.6
 41
-30.0
 62
     5
 63
     7
 74
     1
 91
        4
 64
     7
 65
   257
 75
     1
175
     1
 42
1.0
 92
        0
 66
   257
 43
1.0
 76
     1
 77
     6
 78
     2
 67
     7
 79
     3
170
     0
171
     0
290
     0
174
     0
 93
        1
 44
0.0
173
     0
291
     0
 45
0.0
1001
ACAD
1000
AcDbSavedByObjectVersion
1070
     0
  0
VISUALSTYLE
  5
D42
102
{ACAD_XDICTIONARY
360
DAD
102
}
102
{ACAD_REACTORS
330
D2F
102
}
330
D2F
100
AcDbVisualStyle
  2
X-Ray
 70
    25
 71
     2
 72
     2
 73
     1
 90
        1
 40
0.5
 41
-30.0
 62
     5
 63
     7
 74
     1
 91
        0
 64
     7
 65
   257
 75
     1
175
     1
 42
1.0
 92
        8
 66
     7
 43
1.0
 76
     1
 77
     6
 78
     2
 67
     7
 79
     3
170
     0
171
     0
290
     0
174
     0
 93
       13
 44
0.0
173
     0
291
     0
 45
0.0
1001
ACAD
1000
AcDbSavedByObjectVersion
1070
     0
  0
DICTIONARYVAR
  5
D7C
102
{ACAD_REACTORS
330
D77
102
}
330
D77
100
DictionaryVariables
280
     0
  1
1:1
  0
DICTIONARYVAR
  5
D79
102
{ACAD_REACTORS
330
D77
102
}
330
D77
100
DictionaryVariables
280
     0
  1
STANDARD
  0
DICTIONARYVAR
  5
D78
102
{ACAD_REACTORS
330
D77
102
}
330
D77
100
DictionaryVariables
280
     0
  1
STANDARD
  0
DICTIONARYVAR
  5
D7A
102
{ACAD_REACTORS
330
D77
102
}
330
D77
100
DictionaryVariables
280
     0
  1
Imperial24
  0
DICTIONARYVAR
  5
D7B
102
{ACAD_REACTORS
330
D77
102
}
330
D77
100
DictionaryVariables
280
     0
  1
Imperial24
  0
DICTIONARYVAR
  5
D7F
102
{ACAD_REACTORS
330
D77
102
}
330
D77
100
DictionaryVariables
280
     0
  1
1
  0
DICTIONARYVAR
  5
D7E
102
{ACAD_REACTORS
330
D77
102
}
330
D77
100
DictionaryVariables
280
     0
  1
0
  0
DICTIONARYVAR
  5
D7D
102
{ACAD_REACTORS
330
D77
102
}
330
D77
100
DictionaryVariables
280
     0
  1
127
  0
DICTIONARYVAR
  5
D80
102
{ACAD_REACTORS
330
D77
102
}
330
D77
100
DictionaryVariables
280
     0
  1
2
  0
DICTIONARY
  5
DBD
330
D62
100
AcDbDictionary
280
     1
281
     1
  3
ACAD_XREC_ROUNDTRIP
360
DBE
  0
DICTIONARY
  5
DBF
330
D63
100
AcDbDictionary
280
     1
281
     1
  3
ACAD_XREC_ROUNDTRIP
360
DC0
  0
DICTIONARY
  5
DC1
330
D64
100
AcDbDictionary
280
     1
281
     1
  3
ACAD_XREC_ROUNDTRIP
360
DC2
  0
DICTIONARY
  5
D20
330
D1F
100
AcDbDictionary
280
     1
281
     1
  3
ACAD_XREC_ROUNDTRIP
360
D87
  3
BUMPTILE
360
D22
  3
DIFFUSETILE
360
D21
  3
OPACITYTILE
360
D25
  3
REFLECTIONTILE
360
D24
  3
REFRACTIONTILE
360
D26
  3
SPECULARTILE
360
D23
  0
DICTIONARY
  5
D18
330
D17
100
AcDbDictionary
280
     1
281
     1
  3
ACAD_XREC_ROUNDTRIP
360
D86
  3
BUMPTILE
360
D1A
  3
DIFFUSETILE
360
D19
  3
OPACITYTILE
360
D1D
  3
REFLECTIONTILE
360
D1C
  3
REFRACTIONTILE
360
D1E
  3
SPECULARTILE
360
D1B
  0
DICTIONARY
  5
D28
330
D27
100
AcDbDictionary
280
     1
281
     1
  3
ACAD_XREC_ROUNDTRIP
360
D88
  3
BUMPTILE
360
D2A
  3
DIFFUSETILE
360
D29
  3
OPACITYTILE
360
D2D
  3
REFLECTIONTILE
360
D2C
  3
REFRACTIONTILE
360
D2E
  3
SPECULARTILE
360
D2B
  0
DICTIONARY
  5
DBB
330
D60
100
AcDbDictionary
280
     1
281
     1
  3
ACAD_XREC_ROUNDTRIP
360
DBC
  0
DICTIONARY
  5
D82
330
D4A
100
AcDbDictionary
280
     1
281
     1
  3
ACAD_ROUNDTRIP_2008_TABLESTYLE_CELLSTYLEMAP
360
D83
  3
ACAD_XREC_ROUNDTRIP
360
DB9
  0
DICTIONARY
  5
D93
330
D35
100
AcDbDictionary
280
     1
281
     1
  3
ACAD_XREC_ROUNDTRIP
360
D94
  0
DICTIONARY
  5
D91
330
D34
100
AcDbDictionary
280
     1
281
     1
  3
ACAD_XREC_ROUNDTRIP
360
D92
  0
DICTIONARY
  5
D9F
330
D3B
100
AcDbDictionary
280
     1
281
     1
  3
ACAD_XREC_ROUNDTRIP
360
DA0
  0
DICTIONARY
  5
DA7
330
D3F
100
AcDbDictionary
280
     1
281
     1
  3
ACAD_XREC_ROUNDTRIP
360
DA8
  0
DICTIONARY
  5
D99
330
D38
100
AcDbDictionary
280
     1
281
     1
  3
ACAD_XREC_ROUNDTRIP
360
D9A
  0
DICTIONARY
  5
D9D
330
D3A
100
AcDbDictionary
280
     1
281
     1
  3
ACAD_XREC_ROUNDTRIP
360
D9E
  0
DICTIONARY
  5
DB7
330
D47
100
AcDbDictionary
280
     1
281
     1
  3
ACAD_XREC_ROUNDTRIP
360
DB8
  0
DICTIONARY
  5
DA5
330
D3E
100
AcDbDictionary
280
     1
281
     1
  3
ACAD_XREC_ROUNDTRIP
360
DA6
  0
DICTIONARY
  5
D89
330
D30
100
AcDbDictionary
280
     1
281
     1
  3
ACAD_XREC_ROUNDTRIP
360
D8A
  0
DICTIONARY
  5
D8B
330
D31
100
AcDbDictionary
280
     1
281
     1
  3
ACAD_XREC_ROUNDTRIP
360
D8C
  0
DICTIONARY
  5
D8D
330
D32
100
AcDbDictionary
280
     1
281
     1
  3
ACAD_XREC_ROUNDTRIP
360
D8E
  0
DICTIONARY
  5
D8F
330
D33
100
AcDbDictionary
280
     1
281
     1
  3
ACAD_XREC_ROUNDTRIP
360
D90
  0
DICTIONARY
  5
D97
330
D37
100
AcDbDictionary
280
     1
281
     1
  3
ACAD_XREC_ROUNDTRIP
360
D98
  0
DICTIONARY
  5
DB3
330
D45
100
AcDbDictionary
280
     1
281
     1
  3
ACAD_XREC_ROUNDTRIP
360
DB4
  0
DICTIONARY
  5
DA3
330
D3D
100
AcDbDictionary
280
     1
281
     1
  3
ACAD_XREC_ROUNDTRIP
360
DA4
  0
DICTIONARY
  5
DB5
330
D46
100
AcDbDictionary
280
     1
281
     1
  3
ACAD_XREC_ROUNDTRIP
360
DB6
  0
DICTIONARY
  5
D9B
330
D39
100
AcDbDictionary
280
     1
281
     1
  3
ACAD_XREC_ROUNDTRIP
360
D9C
  0
DICTIONARY
  5
DB1
330
D44
100
AcDbDictionary
280
     1
281
     1
  3
ACAD_XREC_ROUNDTRIP
360
DB2
  0
DICTIONARY
  5
DAF
330
D43
100
AcDbDictionary
280
     1
281
     1
  3
ACAD_XREC_ROUNDTRIP
360
DB0
  0
DICTIONARY
  5
DA9
330
D40
100
AcDbDictionary
280
     1
281
     1
  3
ACAD_XREC_ROUNDTRIP
360
DAA
  0
DICTIONARY
  5
DAB
330
D41
100
AcDbDictionary
280
     1
281
     1
  3
ACAD_XREC_ROUNDTRIP
360
DAC
  0
DICTIONARY
  5
DA1
330
D3C
100
AcDbDictionary
280
     1
281
     1
  3
ACAD_XREC_ROUNDTRIP
360
DA2
  0
DICTIONARY
  5
D95
330
D36
100
AcDbDictionary
280
     1
281
     1
  3
ACAD_XREC_ROUNDTRIP
360
D96
  0
DICTIONARY
  5
DAD
330
D42
100
AcDbDictionary
280
     1
281
     1
  3
ACAD_XREC_ROUNDTRIP
360
DAE
  0
XRECORD
  5
DBE
102
{ACAD_REACTORS
330
DBD
102
}
330
DBD
100
AcDbXrecord
280
     1
102
DISPLAYNAME
  1
Imperial24
102
FLAGS
 90
        0
  0
XRECORD
  5
DC0
102
{ACAD_REACTORS
330
DBF
102
}
330
DBF
100
AcDbXrecord
280
     1
102
SHADEPLOT
 70
     0
102
SHADEPLOTRESLEVEL
 70
     2
102
SHADEPLOTCUSTOMDPI
 70
   300
  0
XRECORD
  5
DC2
102
{ACAD_REACTORS
330
DC1
102
}
330
DC1
100
AcDbXrecord
280
     1
102
SHADEPLOT
 70
     0
102
SHADEPLOTRESLEVEL
 70
     2
102
SHADEPLOTCUSTOMDPI
 70
   300
  0
XRECORD
  5
D87
102
{ACAD_REACTORS
330
D20
102
}
330
D20
100
AcDbXrecord
280
     1
102
MATERIAL
148
0.0
149
0.0
149
0.0
 93
        0
 94
      127
282
     0
 72
     0
 77
     0
171
     0
175
     0
179
     0
273
     0
  0
XRECORD
  5
D22
102
{ACAD_REACTORS
330
D20
102
}
330
D20
100
AcDbXrecord
280
     1
270
     1
271
     1
  0
XRECORD
  5
D21
102
{ACAD_REACTORS
330
D20
102
}
330
D20
100
AcDbXrecord
280
     1
270
     1
271
     1
  0
XRECORD
  5
D25
102
{ACAD_REACTORS
330
D20
102
}
330
D20
100
AcDbXrecord
280
     1
270
     1
271
     1
  0
XRECORD
  5
D24
102
{ACAD_REACTORS
330
D20
102
}
330
D20
100
AcDbXrecord
280
     1
270
     1
271
     1
  0
XRECORD
  5
D26
102
{ACAD_REACTORS
330
D20
102
}
330
D20
100
AcDbXrecord
280
     1
270
     1
271
     1
  0
XRECORD
  5
D23
102
{ACAD_REACTORS
330
D20
102
}
330
D20
100
AcDbXrecord
280
     1
270
     1
271
     1
  0
XRECORD
  5
D86
102
{ACAD_REACTORS
330
D18
102
}
330
D18
100
AcDbXrecord
280
     1
102
MATERIAL
148
0.0
149
0.0
149
0.0
 93
        0
 94
      127
282
     0
 72
     0
 77
     0
171
     0
175
     0
179
     0
273
     0
  0
XRECORD
  5
D1A
102
{ACAD_REACTORS
330
D18
102
}
330
D18
100
AcDbXrecord
280
     1
270
     1
271
     1
  0
XRECORD
  5
D19
102
{ACAD_REACTORS
330
D18
102
}
330
D18
100
AcDbXrecord
280
     1
270
     1
271
     1
  0
XRECORD
  5
D1D
102
{ACAD_REACTORS
330
D18
102
}
330
D18
100
AcDbXrecord
280
     1
270
     1
271
     1
  0
XRECORD
  5
D1C
102
{ACAD_REACTORS
330
D18
102
}
330
D18
100
AcDbXrecord
280
     1
270
     1
271
     1
  0
XRECORD
  5
D1E
102
{ACAD_REACTORS
330
D18
102
}
330
D18
100
AcDbXrecord
280
     1
270
     1
271
     1
  0
XRECORD
  5
D1B
102
{ACAD_REACTORS
330
D18
102
}
330
D18
100
AcDbXrecord
280
     1
270
     1
271
     1
  0
XRECORD
  5
D88
102
{ACAD_REACTORS
330
D28
102
}
330
D28
100
AcDbXrecord
280
     1
102
MATERIAL
148
0.0
149
0.0
149
0.0
 93
        0
 94
      127
282
     0
 72
     0
 77
     0
171
     0
175
     0
179
     0
273
     0
  0
XRECORD
  5
D2A
102
{ACAD_REACTORS
330
D28
102
}
330
D28
100
AcDbXrecord
280
     1
270
     1
271
     1
  0
XRECORD
  5
D29
102
{ACAD_REACTORS
330
D28
102
}
330
D28
100
AcDbXrecord
280
     1
270
     1
271
     1
  0
XRECORD
  5
D2D
102
{ACAD_REACTORS
330
D28
102
}
330
D28
100
AcDbXrecord
280
     1
270
     1
271
     1
  0
XRECORD
  5
D2C
102
{ACAD_REACTORS
330
D28
102
}
330
D28
100
AcDbXrecord
280
     1
270
     1
271
     1
  0
XRECORD
  5
D2E
102
{ACAD_REACTORS
330
D28
102
}
330
D28
100
AcDbXrecord
280
     1
270
     1
271
     1
  0
XRECORD
  5
D2B
102
{ACAD_REACTORS
330
D28
102
}
330
D28
100
AcDbXrecord
280
     1
270
     1
271
     1
  0
XRECORD
  5
DBC
102
{ACAD_REACTORS
330
DBB
102
}
330
DBB
100
AcDbXrecord
280
     1
102
DISPLAYNAME
  1
Imperial24
102
FLAGS
 90
        0
  0
CELLSTYLEMAP
  5
D83
102
{ACAD_REACTORS
330
D82
102
}
330
D82
100
AcDbCellStyleMap
 90
        3
300
CELLSTYLE
  1
TABLEFORMAT_BEGIN
 90
        5
170
     1
 91
        0
 92
    32768
 62
   257
 93
        1
300
CONTENTFORMAT
  1
CONTENTFORMAT_BEGIN
 90
        0
 91
        0
 92
      512
 93
        0
300

 40
0.0
140
1.0
 94
        5
 62
     0
340
84F
144
0.25
309
CONTENTFORMAT_END
171
     0
 94
        0
309
TABLEFORMAT_END
  1
CELLSTYLE_BEGIN
 90
        1
 91
        1
300
_TITLE
309
CELLSTYLE_END
300
CELLSTYLE
  1
TABLEFORMAT_BEGIN
 90
        5
170
     1
 91
        0
 92
        0
 62
   257
 93
        1
300
CONTENTFORMAT
  1
CONTENTFORMAT_BEGIN
 90
        0
 91
        0
 92
      512
 93
        0
300

 40
0.0
140
1.0
 94
        5
 62
     0
340
84F
144
0.18
309
CONTENTFORMAT_END
171
     0
 94
        0
309
TABLEFORMAT_END
  1
CELLSTYLE_BEGIN
 90
        2
 91
        1
300
_HEADER
309
CELLSTYLE_END
300
CELLSTYLE
  1
TABLEFORMAT_BEGIN
 90
        5
170
     1
 91
        0
 92
        0
 62
   257
 93
        1
300
CONTENTFORMAT
  1
CONTENTFORMAT_BEGIN
 90
        0
 91
        0
 92
      512
 93
        0
300

 40
0.0
140
1.0
 94
        2
 62
     0
340
84F
144
0.18
309
CONTENTFORMAT_END
171
     0
 94
        0
309
TABLEFORMAT_END
  1
CELLSTYLE_BEGIN
 90
        3
 91
        2
300
_DATA
309
CELLSTYLE_END
  0
XRECORD
  5
DB9
102
{ACAD_REACTORS
330
D82
102
}
330
D82
100
AcDbXrecord
280
     1
102
ACAD_ROUNDTRIP_PRE2007_TABLESTYLE
 90
      512
 91
        0
  1

 92
      512
 93
        0
  2

 94
      512
 95
        0
  3

  0
XRECORD
  5
D94
102
{ACAD_REACTORS
330
D93
102
}
330
D93
100
AcDbXrecord
280
     1
102
RTVSPost2010Prop28
280
     1
102
RTVSPost2010PropOp28
 70
     1
102
RTVSPost2010Prop29
280
     1
102
RTVSPost2010PropOp29
 70
     1
102
RTVSPost2010Prop30
280
     0
102
RTVSPost2010PropOp30
 70
     1
102
RTVSPost2010Prop31
280
     0
102
RTVSPost2010PropOp31
 70
     1
102
RTVSPost2010Prop32
280
     0
102
RTVSPost2010PropOp32
 70
     1
102
RTVSPost2010Prop33
280
     0
102
RTVSPost2010PropOp33
 70
     1
102
RTVSPost2010Prop34
280
     0
102
RTVSPost2010PropOp34
 70
     1
102
RTVSPost2010Prop35
280
     0
102
RTVSPost2010PropOp35
 70
     1
102
RTVSPost2010Prop36
280
     0
102
RTVSPost2010PropOp36
 70
     1
102
RTVSPost2010Prop37
 90
       50
102
RTVSPost2010PropOp37
 70
     1
102
RTVSPost2010Prop38
140
0.0
102
RTVSPost2010PropOp38
 70
     1
102
RTVSPost2010Prop39
140
1.0
102
RTVSPost2010PropOp39
 70
     1
102
RTVSPost2010Prop40
 90
        0
102
RTVSPost2010PropOp40
 70
     1
102
RTVSPost2010Prop41ColorIndex
 90
       18
102
RTVSPost2010Prop41ColorRGB
 90
        0
102
RTVSPost2010PropOp41
 70
     1
102
RTVSPost2010Prop42
 90
       50
102
RTVSPost2010PropOp42
 70
     1
102
RTVSPost2010Prop43
 90
        3
102
RTVSPost2010PropOp43
 70
     1
102
RTVSPost2010Prop44ColorIndex
 90
        5
102
RTVSPost2010Prop44ColorRGB
 90
      255
102
RTVSPost2010PropOp44
 70
     1
102
RTVSPost2010Prop45
280
     0
102
RTVSPost2010PropOp45
 70
     1
102
RTVSPost2010Prop46
 90
       50
102
RTVSPost2010PropOp46
 70
     1
102
RTVSPost2010Prop47
 90
       50
102
RTVSPost2010PropOp47
 70
     1
102
RTVSPost2010Prop48
 90
       50
102
RTVSPost2010PropOp48
 70
     1
102
RTVSPost2010Prop49
280
     0
102
RTVSPost2010PropOp49
 70
     1
102
RTVSPost2010Prop50
 90
       50
102
RTVSPost2010PropOp50
 70
     1
102
RTVSPost2010Prop51ColorIndex
 90
      256
102
RTVSPost2010Prop51ColorRGB
 90
-16777216
102
RTVSPost2010PropOp51
 70
     0
102
RTVSPost2010Prop52
140
1.0
102
RTVSPost2010PropOp52
 70
     0
102
RTVSPost2010Prop53
 90
        2
102
RTVSPost2010PropOp53
 70
     1
102
RTVSPost2010Prop54
  1
strokes_ogs.tif
102
RTVSPost2010PropOp54
 70
     1
102
RTVSPost2010Prop55
280
     0
102
RTVSPost2010PropOp55
 70
     1
102
RTVSPost2010Prop56
140
1.0
102
RTVSPost2010PropOp56
 70
     1
102
RTVSPost2010Prop57
140
1.0
102
RTVSPost2010PropOp57
 70
     1
102
RTVSPropertyOp0
 70
     1
102
RTVSPropertyOp1
 70
     1
102
RTVSPropertyOp2
 70
     1
102
RTVSPropertyOp3
 70
     1
102
RTVSPropertyOp4
 70
     1
102
RTVSPropertyOp5
 70
     1
102
RTVSPropertyOp6
 70
     1
102
RTVSPropertyOp7
 70
     1
102
RTVSPropertyOp8
 70
     1
102
RTVSPropertyOp9
 70
     1
102
RTVSPropertyOp10
 70
     1
102
RTVSPropertyOp11
 70
     1
102
RTVSPropertyOp12
 70
     1
102
RTVSPropertyOp13
 70
     1
102
RTVSPropertyOp14
 70
     1
102
RTVSPropertyOp15
 70
     1
102
RTVSPropertyOp16
 70
     1
102
RTVSPropertyOp17
 70
     1
102
RTVSPropertyOp18
 70
     1
102
RTVSPropertyOp19
 70
     1
102
RTVSPropertyOp20
 70
     1
102
RTVSPropertyOp21
 70
     1
102
RTVSPropertyOp22
 70
     1
102
RTVSPropertyOp23
 70
     1
102
RTVSPropertyOp24
 70
     1
102
RTVSPropertyOp25
 70
     1
102
RTVSPropertyOp26
 70
     1
102
RTVSPropertyOp27
 70
     1
102
RTVSPropertyOp28
 70
     1
102
RTVSPropertyOp29
 70
     1
102
RTVSPropertyOp30
 70
     1
102
RTVSPropertyOp31
 70
     1
102
RTVSPropertyOp32
 70
     1
102
RTVSPropertyOp33
 70
     1
102
RTVSPropertyOp34
 70
     1
102
RTVSPropertyOp35
 70
     1
102
RTVSPropertyOp36
 70
     1
102
RTVSPropertyOp37
 70
     1
102
RTVSPropertyOp38
 70
     1
102
RTVSPropertyOp39
 70
     1
102
RTVSPropertyOp40
 70
     1
102
RTVSPropertyOp41
 70
     1
102
RTVSPropertyOp42
 70
     1
102
RTVSPropertyOp43
 70
     1
102
RTVSPropertyOp44
 70
     1
102
RTVSPropertyOp45
 70
     1
102
RTVSPropertyOp46
 70
     1
102
RTVSPropertyOp47
 70
     1
102
RTVSPropertyOp48
 70
     1
102
RTVSPropertyOp49
 70
     1
102
RTVSPropertyOp50
 70
     1
102
RTVSPropertyOp51
 70
     0
102
RTVSPropertyOp52
 70
     0
102
RTVSPropertyOp53
 70
     1
102
RTVSPropertyOp54
 70
     1
102
RTVSPropertyOp55
 70
     1
102
RTVSPropertyOp56
 70
     1
102
RTVSPropertyOp57
 70
     1
102
RTVSPropertyOp58
 70
     1
102
RTVSPropertyOp59
 70
     1
102
RTVSPropertyOp60
 70
     1
102
RTVSPropertyOp61
 70
     1
102
RTVSPropertyOp62
 70
     1
  0
XRECORD
  5
D92
102
{ACAD_REACTORS
330
D91
102
}
330
D91
100
AcDbXrecord
280
     1
102
RTVSPost2010Prop28
280
     0
102
RTVSPost2010PropOp28
 70
     1
102
RTVSPost2010Prop29
280
     1
102
RTVSPost2010PropOp29
 70
     1
102
RTVSPost2010Prop30
280
     1
102
RTVSPost2010PropOp30
 70
     1
102
RTVSPost2010Prop31
280
     0
102
RTVSPost2010PropOp31
 70
     1
102
RTVSPost2010Prop32
280
     0
102
RTVSPost2010PropOp32
 70
     1
102
RTVSPost2010Prop33
280
     0
102
RTVSPost2010PropOp33
 70
     1
102
RTVSPost2010Prop34
280
     0
102
RTVSPost2010PropOp34
 70
     1
102
RTVSPost2010Prop35
280
     0
102
RTVSPost2010PropOp35
 70
     1
102
RTVSPost2010Prop36
280
     0
102
RTVSPost2010PropOp36
 70
     1
102
RTVSPost2010Prop37
 90
       50
102
RTVSPost2010PropOp37
 70
     1
102
RTVSPost2010Prop38
140
0.0
102
RTVSPost2010PropOp38
 70
     1
102
RTVSPost2010Prop39
140
1.0
102
RTVSPost2010PropOp39
 70
     1
102
RTVSPost2010Prop40
 90
        0
102
RTVSPost2010PropOp40
 70
     1
102
RTVSPost2010Prop41ColorIndex
 90
       18
102
RTVSPost2010Prop41ColorRGB
 90
        0
102
RTVSPost2010PropOp41
 70
     1
102
RTVSPost2010Prop42
 90
       50
102
RTVSPost2010PropOp42
 70
     1
102
RTVSPost2010Prop43
 90
        3
102
RTVSPost2010PropOp43
 70
     1
102
RTVSPost2010Prop44ColorIndex
 90
        5
102
RTVSPost2010Prop44ColorRGB
 90
      255
102
RTVSPost2010PropOp44
 70
     1
102
RTVSPost2010Prop45
280
     0
102
RTVSPost2010PropOp45
 70
     1
102
RTVSPost2010Prop46
 90
       50
102
RTVSPost2010PropOp46
 70
     1
102
RTVSPost2010Prop47
 90
       50
102
RTVSPost2010PropOp47
 70
     1
102
RTVSPost2010Prop48
 90
       50
102
RTVSPost2010PropOp48
 70
     1
102
RTVSPost2010Prop49
280
     0
102
RTVSPost2010PropOp49
 70
     1
102
RTVSPost2010Prop50
 90
       50
102
RTVSPost2010PropOp50
 70
     1
102
RTVSPost2010Prop51ColorIndex
 90
      256
102
RTVSPost2010Prop51ColorRGB
 90
-16777216
102
RTVSPost2010PropOp51
 70
     0
102
RTVSPost2010Prop52
140
1.0
102
RTVSPost2010PropOp52
 70
     0
102
RTVSPost2010Prop53
 90
        2
102
RTVSPost2010PropOp53
 70
     1
102
RTVSPost2010Prop54
  1
strokes_ogs.tif
102
RTVSPost2010PropOp54
 70
     1
102
RTVSPost2010Prop55
280
     0
102
RTVSPost2010PropOp55
 70
     1
102
RTVSPost2010Prop56
140
1.0
102
RTVSPost2010PropOp56
 70
     1
102
RTVSPost2010Prop57
140
1.0
102
RTVSPost2010PropOp57
 70
     1
102
RTVSPropertyOp0
 70
     1
102
RTVSPropertyOp1
 70
     1
102
RTVSPropertyOp2
 70
     1
102
RTVSPropertyOp3
 70
     1
102
RTVSPropertyOp4
 70
     1
102
RTVSPropertyOp5
 70
     1
102
RTVSPropertyOp6
 70
     1
102
RTVSPropertyOp7
 70
     1
102
RTVSPropertyOp8
 70
     1
102
RTVSPropertyOp9
 70
     1
102
RTVSPropertyOp10
 70
     1
102
RTVSPropertyOp11
 70
     1
102
RTVSPropertyOp12
 70
     1
102
RTVSPropertyOp13
 70
     1
102
RTVSPropertyOp14
 70
     1
102
RTVSPropertyOp15
 70
     1
102
RTVSPropertyOp16
 70
     1
102
RTVSPropertyOp17
 70
     1
102
RTVSPropertyOp18
 70
     1
102
RTVSPropertyOp19
 70
     1
102
RTVSPropertyOp20
 70
     1
102
RTVSPropertyOp21
 70
     1
102
RTVSPropertyOp22
 70
     1
102
RTVSPropertyOp23
 70
     1
102
RTVSPropertyOp24
 70
     1
102
RTVSPropertyOp25
 70
     1
102
RTVSPropertyOp26
 70
     1
102
RTVSPropertyOp27
 70
     1
102
RTVSPropertyOp28
 70
     1
102
RTVSPropertyOp29
 70
     1
102
RTVSPropertyOp30
 70
     1
102
RTVSPropertyOp31
 70
     1
102
RTVSPropertyOp32
 70
     1
102
RTVSPropertyOp33
 70
     1
102
RTVSPropertyOp34
 70
     1
102
RTVSPropertyOp35
 70
     1
102
RTVSPropertyOp36
 70
     1
102
RTVSPropertyOp37
 70
     1
102
RTVSPropertyOp38
 70
     1
102
RTVSPropertyOp39
 70
     1
102
RTVSPropertyOp40
 70
     1
102
RTVSPropertyOp41
 70
     1
102
RTVSPropertyOp42
 70
     1
102
RTVSPropertyOp43
 70
     1
102
RTVSPropertyOp44
 70
     1
102
RTVSPropertyOp45
 70
     1
102
RTVSPropertyOp46
 70
     1
102
RTVSPropertyOp47
 70
     1
102
RTVSPropertyOp48
 70
     1
102
RTVSPropertyOp49
 70
     1
102
RTVSPropertyOp50
 70
     1
102
RTVSPropertyOp51
 70
     0
102
RTVSPropertyOp52
 70
     0
102
RTVSPropertyOp53
 70
     1
102
RTVSPropertyOp54
 70
     1
102
RTVSPropertyOp55
 70
     1
102
RTVSPropertyOp56
 70
     1
102
RTVSPropertyOp57
 70
     1
102
RTVSPropertyOp58
 70
     1
102
RTVSPropertyOp59
 70
     1
102
RTVSPropertyOp60
 70
     1
102
RTVSPropertyOp61
 70
     1
102
RTVSPropertyOp62
 70
     1
  0
XRECORD
  5
DA0
102
{ACAD_REACTORS
330
D9F
102
}
330
D9F
100
AcDbXrecord
280
     1
102
RTVSPost2010Prop28
280
     0
102
RTVSPost2010PropOp28
 70
     1
102
RTVSPost2010Prop29
280
     1
102
RTVSPost2010PropOp29
 70
     1
102
RTVSPost2010Prop30
280
     1
102
RTVSPost2010PropOp30
 70
     1
102
RTVSPost2010Prop31
280
     0
102
RTVSPost2010PropOp31
 70
     1
102
RTVSPost2010Prop32
280
     0
102
RTVSPost2010PropOp32
 70
     1
102
RTVSPost2010Prop33
280
     0
102
RTVSPost2010PropOp33
 70
     1
102
RTVSPost2010Prop34
280
     0
102
RTVSPost2010PropOp34
 70
     1
102
RTVSPost2010Prop35
280
     0
102
RTVSPost2010PropOp35
 70
     1
102
RTVSPost2010Prop36
280
     0
102
RTVSPost2010PropOp36
 70
     1
102
RTVSPost2010Prop37
 90
       50
102
RTVSPost2010PropOp37
 70
     1
102
RTVSPost2010Prop38
140
0.0
102
RTVSPost2010PropOp38
 70
     1
102
RTVSPost2010Prop39
140
1.0
102
RTVSPost2010PropOp39
 70
     1
102
RTVSPost2010Prop40
 90
        0
102
RTVSPost2010PropOp40
 70
     1
102
RTVSPost2010Prop41ColorIndex
 90
       18
102
RTVSPost2010Prop41ColorRGB
 90
        0
102
RTVSPost2010PropOp41
 70
     1
102
RTVSPost2010Prop42
 90
       50
102
RTVSPost2010PropOp42
 70
     1
102
RTVSPost2010Prop43
 90
        3
102
RTVSPost2010PropOp43
 70
     1
102
RTVSPost2010Prop44ColorIndex
 90
        5
102
RTVSPost2010Prop44ColorRGB
 90
      255
102
RTVSPost2010PropOp44
 70
     1
102
RTVSPost2010Prop45
280
     0
102
RTVSPost2010PropOp45
 70
     1
102
RTVSPost2010Prop46
 90
       50
102
RTVSPost2010PropOp46
 70
     1
102
RTVSPost2010Prop47
 90
       50
102
RTVSPost2010PropOp47
 70
     1
102
RTVSPost2010Prop48
 90
       50
102
RTVSPost2010PropOp48
 70
     1
102
RTVSPost2010Prop49
280
     0
102
RTVSPost2010PropOp49
 70
     1
102
RTVSPost2010Prop50
 90
       50
102
RTVSPost2010PropOp50
 70
     1
102
RTVSPost2010Prop51ColorIndex
 90
      256
102
RTVSPost2010Prop51ColorRGB
 90
-16777216
102
RTVSPost2010PropOp51
 70
     0
102
RTVSPost2010Prop52
140
1.0
102
RTVSPost2010PropOp52
 70
     0
102
RTVSPost2010Prop53
 90
        2
102
RTVSPost2010PropOp53
 70
     1
102
RTVSPost2010Prop54
  1
strokes_ogs.tif
102
RTVSPost2010PropOp54
 70
     1
102
RTVSPost2010Prop55
280
     0
102
RTVSPost2010PropOp55
 70
     1
102
RTVSPost2010Prop56
140
1.0
102
RTVSPost2010PropOp56
 70
     1
102
RTVSPost2010Prop57
140
1.0
102
RTVSPost2010PropOp57
 70
     1
102
RTVSPropertyOp0
 70
     1
102
RTVSPropertyOp1
 70
     1
102
RTVSPropertyOp2
 70
     1
102
RTVSPropertyOp3
 70
     1
102
RTVSPropertyOp4
 70
     1
102
RTVSPropertyOp5
 70
     1
102
RTVSPropertyOp6
 70
     1
102
RTVSPropertyOp7
 70
     1
102
RTVSPropertyOp8
 70
     1
102
RTVSPropertyOp9
 70
     1
102
RTVSPropertyOp10
 70
     1
102
RTVSPropertyOp11
 70
     1
102
RTVSPropertyOp12
 70
     1
102
RTVSPropertyOp13
 70
     1
102
RTVSPropertyOp14
 70
     1
102
RTVSPropertyOp15
 70
     1
102
RTVSPropertyOp16
 70
     1
102
RTVSPropertyOp17
 70
     1
102
RTVSPropertyOp18
 70
     1
102
RTVSPropertyOp19
 70
     1
102
RTVSPropertyOp20
 70
     1
102
RTVSPropertyOp21
 70
     1
102
RTVSPropertyOp22
 70
     1
102
RTVSPropertyOp23
 70
     1
102
RTVSPropertyOp24
 70
     1
102
RTVSPropertyOp25
 70
     1
102
RTVSPropertyOp26
 70
     1
102
RTVSPropertyOp27
 70
     1
102
RTVSPropertyOp28
 70
     1
102
RTVSPropertyOp29
 70
     1
102
RTVSPropertyOp30
 70
     1
102
RTVSPropertyOp31
 70
     1
102
RTVSPropertyOp32
 70
     1
102
RTVSPropertyOp33
 70
     1
102
RTVSPropertyOp34
 70
     1
102
RTVSPropertyOp35
 70
     1
102
RTVSPropertyOp36
 70
     1
102
RTVSPropertyOp37
 70
     1
102
RTVSPropertyOp38
 70
     1
102
RTVSPropertyOp39
 70
     1
102
RTVSPropertyOp40
 70
     1
102
RTVSPropertyOp41
 70
     1
102
RTVSPropertyOp42
 70
     1
102
RTVSPropertyOp43
 70
     1
102
RTVSPropertyOp44
 70
     1
102
RTVSPropertyOp45
 70
     1
102
RTVSPropertyOp46
 70
     1
102
RTVSPropertyOp47
 70
     1
102
RTVSPropertyOp48
 70
     1
102
RTVSPropertyOp49
 70
     1
102
RTVSPropertyOp50
 70
     1
102
RTVSPropertyOp51
 70
     0
102
RTVSPropertyOp52
 70
     0
102
RTVSPropertyOp53
 70
     1
102
RTVSPropertyOp54
 70
     1
102
RTVSPropertyOp55
 70
     1
102
RTVSPropertyOp56
 70
     1
102
RTVSPropertyOp57
 70
     1
102
RTVSPropertyOp58
 70
     1
102
RTVSPropertyOp59
 70
     1
102
RTVSPropertyOp60
 70
     1
102
RTVSPropertyOp61
 70
     1
102
RTVSPropertyOp62
 70
     1
  0
XRECORD
  5
DA8
102
{ACAD_REACTORS
330
DA7
102
}
330
DA7
100
AcDbXrecord
280
     1
102
RTVSPost2010Prop28
280
     0
102
RTVSPost2010PropOp28
 70
     1
102
RTVSPost2010Prop29
280
     1
102
RTVSPost2010PropOp29
 70
     1
102
RTVSPost2010Prop30
280
     1
102
RTVSPost2010PropOp30
 70
     1
102
RTVSPost2010Prop31
280
     0
102
RTVSPost2010PropOp31
 70
     1
102
RTVSPost2010Prop32
280
     0
102
RTVSPost2010PropOp32
 70
     1
102
RTVSPost2010Prop33
280
     0
102
RTVSPost2010PropOp33
 70
     1
102
RTVSPost2010Prop34
280
     0
102
RTVSPost2010PropOp34
 70
     1
102
RTVSPost2010Prop35
280
     0
102
RTVSPost2010PropOp35
 70
     1
102
RTVSPost2010Prop36
280
     0
102
RTVSPost2010PropOp36
 70
     1
102
RTVSPost2010Prop37
 90
       50
102
RTVSPost2010PropOp37
 70
     1
102
RTVSPost2010Prop38
140
0.0
102
RTVSPost2010PropOp38
 70
     1
102
RTVSPost2010Prop39
140
1.0
102
RTVSPost2010PropOp39
 70
     1
102
RTVSPost2010Prop40
 90
        0
102
RTVSPost2010PropOp40
 70
     1
102
RTVSPost2010Prop41ColorIndex
 90
       18
102
RTVSPost2010Prop41ColorRGB
 90
        0
102
RTVSPost2010PropOp41
 70
     1
102
RTVSPost2010Prop42
 90
       50
102
RTVSPost2010PropOp42
 70
     1
102
RTVSPost2010Prop43
 90
        3
102
RTVSPost2010PropOp43
 70
     1
102
RTVSPost2010Prop44ColorIndex
 90
        5
102
RTVSPost2010Prop44ColorRGB
 90
      255
102
RTVSPost2010PropOp44
 70
     1
102
RTVSPost2010Prop45
280
     0
102
RTVSPost2010PropOp45
 70
     1
102
RTVSPost2010Prop46
 90
       50
102
RTVSPost2010PropOp46
 70
     1
102
RTVSPost2010Prop47
 90
       50
102
RTVSPost2010PropOp47
 70
     1
102
RTVSPost2010Prop48
 90
       50
102
RTVSPost2010PropOp48
 70
     1
102
RTVSPost2010Prop49
280
     0
102
RTVSPost2010PropOp49
 70
     1
102
RTVSPost2010Prop50
 90
       50
102
RTVSPost2010PropOp50
 70
     1
102
RTVSPost2010Prop51ColorIndex
 90
      256
102
RTVSPost2010Prop51ColorRGB
 90
-16777216
102
RTVSPost2010PropOp51
 70
     0
102
RTVSPost2010Prop52
140
1.0
102
RTVSPost2010PropOp52
 70
     0
102
RTVSPost2010Prop53
 90
        2
102
RTVSPost2010PropOp53
 70
     1
102
RTVSPost2010Prop54
  1
strokes_ogs.tif
102
RTVSPost2010PropOp54
 70
     1
102
RTVSPost2010Prop55
280
     0
102
RTVSPost2010PropOp55
 70
     1
102
RTVSPost2010Prop56
140
1.0
102
RTVSPost2010PropOp56
 70
     1
102
RTVSPost2010Prop57
140
1.0
102
RTVSPost2010PropOp57
 70
     1
102
RTVSPropertyOp0
 70
     1
102
RTVSPropertyOp1
 70
     1
102
RTVSPropertyOp2
 70
     1
102
RTVSPropertyOp3
 70
     1
102
RTVSPropertyOp4
 70
     1
102
RTVSPropertyOp5
 70
     1
102
RTVSPropertyOp6
 70
     1
102
RTVSPropertyOp7
 70
     1
102
RTVSPropertyOp8
 70
     1
102
RTVSPropertyOp9
 70
     1
102
RTVSPropertyOp10
 70
     1
102
RTVSPropertyOp11
 70
     1
102
RTVSPropertyOp12
 70
     1
102
RTVSPropertyOp13
 70
     1
102
RTVSPropertyOp14
 70
     1
102
RTVSPropertyOp15
 70
     1
102
RTVSPropertyOp16
 70
     1
102
RTVSPropertyOp17
 70
     1
102
RTVSPropertyOp18
 70
     1
102
RTVSPropertyOp19
 70
     1
102
RTVSPropertyOp20
 70
     1
102
RTVSPropertyOp21
 70
     1
102
RTVSPropertyOp22
 70
     1
102
RTVSPropertyOp23
 70
     1
102
RTVSPropertyOp24
 70
     1
102
RTVSPropertyOp25
 70
     1
102
RTVSPropertyOp26
 70
     1
102
RTVSPropertyOp27
 70
     1
102
RTVSPropertyOp28
 70
     1
102
RTVSPropertyOp29
 70
     1
102
RTVSPropertyOp30
 70
     1
102
RTVSPropertyOp31
 70
     1
102
RTVSPropertyOp32
 70
     1
102
RTVSPropertyOp33
 70
     1
102
RTVSPropertyOp34
 70
     1
102
RTVSPropertyOp35
 70
     1
102
RTVSPropertyOp36
 70
     1
102
RTVSPropertyOp37
 70
     1
102
RTVSPropertyOp38
 70
     1
102
RTVSPropertyOp39
 70
     1
102
RTVSPropertyOp40
 70
     1
102
RTVSPropertyOp41
 70
     1
102
RTVSPropertyOp42
 70
     1
102
RTVSPropertyOp43
 70
     1
102
RTVSPropertyOp44
 70
     1
102
RTVSPropertyOp45
 70
     1
102
RTVSPropertyOp46
 70
     1
102
RTVSPropertyOp47
 70
     1
102
RTVSPropertyOp48
 70
     1
102
RTVSPropertyOp49
 70
     1
102
RTVSPropertyOp50
 70
     1
102
RTVSPropertyOp51
 70
     0
102
RTVSPropertyOp52
 70
     0
102
RTVSPropertyOp53
 70
     1
102
RTVSPropertyOp54
 70
     1
102
RTVSPropertyOp55
 70
     1
102
RTVSPropertyOp56
 70
     1
102
RTVSPropertyOp57
 70
     1
102
RTVSPropertyOp58
 70
     1
102
RTVSPropertyOp59
 70
     1
102
RTVSPropertyOp60
 70
     1
102
RTVSPropertyOp61
 70
     1
102
RTVSPropertyOp62
 70
     1
  0
XRECORD
  5
D9A
102
{ACAD_REACTORS
330
D99
102
}
330
D99
100
AcDbXrecord
280
     1
102
RTVSPost2010Prop28
280
     0
102
RTVSPost2010PropOp28
 70
     1
102
RTVSPost2010Prop29
280
     1
102
RTVSPost2010PropOp29
 70
     1
102
RTVSPost2010Prop30
280
     1
102
RTVSPost2010PropOp30
 70
     1
102
RTVSPost2010Prop31
280
     0
102
RTVSPost2010PropOp31
 70
     1
102
RTVSPost2010Prop32
280
     0
102
RTVSPost2010PropOp32
 70
     1
102
RTVSPost2010Prop33
280
     0
102
RTVSPost2010PropOp33
 70
     1
102
RTVSPost2010Prop34
280
     0
102
RTVSPost2010PropOp34
 70
     1
102
RTVSPost2010Prop35
280
     0
102
RTVSPost2010PropOp35
 70
     1
102
RTVSPost2010Prop36
280
     0
102
RTVSPost2010PropOp36
 70
     1
102
RTVSPost2010Prop37
 90
       50
102
RTVSPost2010PropOp37
 70
     1
102
RTVSPost2010Prop38
140
0.0
102
RTVSPost2010PropOp38
 70
     1
102
RTVSPost2010Prop39
140
1.0
102
RTVSPost2010PropOp39
 70
     1
102
RTVSPost2010Prop40
 90
        0
102
RTVSPost2010PropOp40
 70
     1
102
RTVSPost2010Prop41ColorIndex
 90
       18
102
RTVSPost2010Prop41ColorRGB
 90
        0
102
RTVSPost2010PropOp41
 70
     1
102
RTVSPost2010Prop42
 90
       50
102
RTVSPost2010PropOp42
 70
     1
102
RTVSPost2010Prop43
 90
        3
102
RTVSPost2010PropOp43
 70
     1
102
RTVSPost2010Prop44ColorIndex
 90
        5
102
RTVSPost2010Prop44ColorRGB
 90
      255
102
RTVSPost2010PropOp44
 70
     1
102
RTVSPost2010Prop45
280
     0
102
RTVSPost2010PropOp45
 70
     1
102
RTVSPost2010Prop46
 90
       50
102
RTVSPost2010PropOp46
 70
     1
102
RTVSPost2010Prop47
 90
       50
102
RTVSPost2010PropOp47
 70
     1
102
RTVSPost2010Prop48
 90
       50
102
RTVSPost2010PropOp48
 70
     1
102
RTVSPost2010Prop49
280
     0
102
RTVSPost2010PropOp49
 70
     1
102
RTVSPost2010Prop50
 90
       50
102
RTVSPost2010PropOp50
 70
     1
102
RTVSPost2010Prop51ColorIndex
 90
      256
102
RTVSPost2010Prop51ColorRGB
 90
-16777216
102
RTVSPost2010PropOp51
 70
     0
102
RTVSPost2010Prop52
140
1.0
102
RTVSPost2010PropOp52
 70
     0
102
RTVSPost2010Prop53
 90
        2
102
RTVSPost2010PropOp53
 70
     1
102
RTVSPost2010Prop54
  1
strokes_ogs.tif
102
RTVSPost2010PropOp54
 70
     1
102
RTVSPost2010Prop55
280
     0
102
RTVSPost2010PropOp55
 70
     1
102
RTVSPost2010Prop56
140
1.0
102
RTVSPost2010PropOp56
 70
     1
102
RTVSPost2010Prop57
140
1.0
102
RTVSPost2010PropOp57
 70
     1
102
RTVSPropertyOp0
 70
     1
102
RTVSPropertyOp1
 70
     1
102
RTVSPropertyOp2
 70
     1
102
RTVSPropertyOp3
 70
     1
102
RTVSPropertyOp4
 70
     1
102
RTVSPropertyOp5
 70
     1
102
RTVSPropertyOp6
 70
     1
102
RTVSPropertyOp7
 70
     1
102
RTVSPropertyOp8
 70
     1
102
RTVSPropertyOp9
 70
     1
102
RTVSPropertyOp10
 70
     1
102
RTVSPropertyOp11
 70
     1
102
RTVSPropertyOp12
 70
     1
102
RTVSPropertyOp13
 70
     1
102
RTVSPropertyOp14
 70
     1
102
RTVSPropertyOp15
 70
     1
102
RTVSPropertyOp16
 70
     1
102
RTVSPropertyOp17
 70
     1
102
RTVSPropertyOp18
 70
     1
102
RTVSPropertyOp19
 70
     1
102
RTVSPropertyOp20
 70
     1
102
RTVSPropertyOp21
 70
     1
102
RTVSPropertyOp22
 70
     1
102
RTVSPropertyOp23
 70
     1
102
RTVSPropertyOp24
 70
     1
102
RTVSPropertyOp25
 70
     1
102
RTVSPropertyOp26
 70
     1
102
RTVSPropertyOp27
 70
     1
102
RTVSPropertyOp28
 70
     1
102
RTVSPropertyOp29
 70
     1
102
RTVSPropertyOp30
 70
     1
102
RTVSPropertyOp31
 70
     1
102
RTVSPropertyOp32
 70
     1
102
RTVSPropertyOp33
 70
     1
102
RTVSPropertyOp34
 70
     1
102
RTVSPropertyOp35
 70
     1
102
RTVSPropertyOp36
 70
     1
102
RTVSPropertyOp37
 70
     1
102
RTVSPropertyOp38
 70
     1
102
RTVSPropertyOp39
 70
     1
102
RTVSPropertyOp40
 70
     1
102
RTVSPropertyOp41
 70
     1
102
RTVSPropertyOp42
 70
     1
102
RTVSPropertyOp43
 70
     1
102
RTVSPropertyOp44
 70
     1
102
RTVSPropertyOp45
 70
     1
102
RTVSPropertyOp46
 70
     1
102
RTVSPropertyOp47
 70
     1
102
RTVSPropertyOp48
 70
     1
102
RTVSPropertyOp49
 70
     1
102
RTVSPropertyOp50
 70
     1
102
RTVSPropertyOp51
 70
     0
102
RTVSPropertyOp52
 70
     0
102
RTVSPropertyOp53
 70
     1
102
RTVSPropertyOp54
 70
     1
102
RTVSPropertyOp55
 70
     1
102
RTVSPropertyOp56
 70
     1
102
RTVSPropertyOp57
 70
     1
102
RTVSPropertyOp58
 70
     1
102
RTVSPropertyOp59
 70
     1
102
RTVSPropertyOp60
 70
     1
102
RTVSPropertyOp61
 70
     1
102
RTVSPropertyOp62
 70
     1
  0
XRECORD
  5
D9E
102
{ACAD_REACTORS
330
D9D
102
}
330
D9D
100
AcDbXrecord
280
     1
102
RTVSPost2010Prop28
280
     0
102
RTVSPost2010PropOp28
 70
     1
102
RTVSPost2010Prop29
280
     1
102
RTVSPost2010PropOp29
 70
     1
102
RTVSPost2010Prop30
280
     1
102
RTVSPost2010PropOp30
 70
     1
102
RTVSPost2010Prop31
280
     0
102
RTVSPost2010PropOp31
 70
     1
102
RTVSPost2010Prop32
280
     0
102
RTVSPost2010PropOp32
 70
     1
102
RTVSPost2010Prop33
280
     0
102
RTVSPost2010PropOp33
 70
     1
102
RTVSPost2010Prop34
280
     0
102
RTVSPost2010PropOp34
 70
     1
102
RTVSPost2010Prop35
280
     0
102
RTVSPost2010PropOp35
 70
     1
102
RTVSPost2010Prop36
280
     0
102
RTVSPost2010PropOp36
 70
     1
102
RTVSPost2010Prop37
 90
       50
102
RTVSPost2010PropOp37
 70
     1
102
RTVSPost2010Prop38
140
0.0
102
RTVSPost2010PropOp38
 70
     1
102
RTVSPost2010Prop39
140
1.0
102
RTVSPost2010PropOp39
 70
     1
102
RTVSPost2010Prop40
 90
        0
102
RTVSPost2010PropOp40
 70
     1
102
RTVSPost2010Prop41ColorIndex
 90
       18
102
RTVSPost2010Prop41ColorRGB
 90
        0
102
RTVSPost2010PropOp41
 70
     1
102
RTVSPost2010Prop42
 90
       50
102
RTVSPost2010PropOp42
 70
     1
102
RTVSPost2010Prop43
 90
        3
102
RTVSPost2010PropOp43
 70
     1
102
RTVSPost2010Prop44ColorIndex
 90
        5
102
RTVSPost2010Prop44ColorRGB
 90
      255
102
RTVSPost2010PropOp44
 70
     1
102
RTVSPost2010Prop45
280
     0
102
RTVSPost2010PropOp45
 70
     1
102
RTVSPost2010Prop46
 90
       50
102
RTVSPost2010PropOp46
 70
     1
102
RTVSPost2010Prop47
 90
       50
102
RTVSPost2010PropOp47
 70
     1
102
RTVSPost2010Prop48
 90
       50
102
RTVSPost2010PropOp48
 70
     1
102
RTVSPost2010Prop49
280
     0
102
RTVSPost2010PropOp49
 70
     1
102
RTVSPost2010Prop50
 90
       50
102
RTVSPost2010PropOp50
 70
     1
102
RTVSPost2010Prop51ColorIndex
 90
      256
102
RTVSPost2010Prop51ColorRGB
 90
-16777216
102
RTVSPost2010PropOp51
 70
     0
102
RTVSPost2010Prop52
140
1.0
102
RTVSPost2010PropOp52
 70
     0
102
RTVSPost2010Prop53
 90
        2
102
RTVSPost2010PropOp53
 70
     1
102
RTVSPost2010Prop54
  1
strokes_ogs.tif
102
RTVSPost2010PropOp54
 70
     1
102
RTVSPost2010Prop55
280
     0
102
RTVSPost2010PropOp55
 70
     1
102
RTVSPost2010Prop56
140
1.0
102
RTVSPost2010PropOp56
 70
     1
102
RTVSPost2010Prop57
140
1.0
102
RTVSPost2010PropOp57
 70
     1
102
RTVSPropertyOp0
 70
     1
102
RTVSPropertyOp1
 70
     1
102
RTVSPropertyOp2
 70
     1
102
RTVSPropertyOp3
 70
     1
102
RTVSPropertyOp4
 70
     1
102
RTVSPropertyOp5
 70
     1
102
RTVSPropertyOp6
 70
     1
102
RTVSPropertyOp7
 70
     1
102
RTVSPropertyOp8
 70
     1
102
RTVSPropertyOp9
 70
     1
102
RTVSPropertyOp10
 70
     1
102
RTVSPropertyOp11
 70
     1
102
RTVSPropertyOp12
 70
     1
102
RTVSPropertyOp13
 70
     1
102
RTVSPropertyOp14
 70
     1
102
RTVSPropertyOp15
 70
     1
102
RTVSPropertyOp16
 70
     1
102
RTVSPropertyOp17
 70
     1
102
RTVSPropertyOp18
 70
     1
102
RTVSPropertyOp19
 70
     1
102
RTVSPropertyOp20
 70
     1
102
RTVSPropertyOp21
 70
     1
102
RTVSPropertyOp22
 70
     1
102
RTVSPropertyOp23
 70
     1
102
RTVSPropertyOp24
 70
     1
102
RTVSPropertyOp25
 70
     1
102
RTVSPropertyOp26
 70
     1
102
RTVSPropertyOp27
 70
     1
102
RTVSPropertyOp28
 70
     1
102
RTVSPropertyOp29
 70
     1
102
RTVSPropertyOp30
 70
     1
102
RTVSPropertyOp31
 70
     1
102
RTVSPropertyOp32
 70
     1
102
RTVSPropertyOp33
 70
     1
102
RTVSPropertyOp34
 70
     1
102
RTVSPropertyOp35
 70
     1
102
RTVSPropertyOp36
 70
     1
102
RTVSPropertyOp37
 70
     1
102
RTVSPropertyOp38
 70
     1
102
RTVSPropertyOp39
 70
     1
102
RTVSPropertyOp40
 70
     1
102
RTVSPropertyOp41
 70
     1
102
RTVSPropertyOp42
 70
     1
102
RTVSPropertyOp43
 70
     1
102
RTVSPropertyOp44
 70
     1
102
RTVSPropertyOp45
 70
     1
102
RTVSPropertyOp46
 70
     1
102
RTVSPropertyOp47
 70
     1
102
RTVSPropertyOp48
 70
     1
102
RTVSPropertyOp49
 70
     1
102
RTVSPropertyOp50
 70
     1
102
RTVSPropertyOp51
 70
     0
102
RTVSPropertyOp52
 70
     0
102
RTVSPropertyOp53
 70
     1
102
RTVSPropertyOp54
 70
     1
102
RTVSPropertyOp55
 70
     1
102
RTVSPropertyOp56
 70
     1
102
RTVSPropertyOp57
 70
     1
102
RTVSPropertyOp58
 70
     1
102
RTVSPropertyOp59
 70
     1
102
RTVSPropertyOp60
 70
     1
102
RTVSPropertyOp61
 70
     1
102
RTVSPropertyOp62
 70
     1
  0
XRECORD
  5
DB8
102
{ACAD_REACTORS
330
DB7
102
}
330
DB7
100
AcDbXrecord
280
     1
102
RTVSPost2010Prop28
280
     0
102
RTVSPost2010PropOp28
 70
     1
102
RTVSPost2010Prop29
280
     1
102
RTVSPost2010PropOp29
 70
     1
102
RTVSPost2010Prop30
280
     1
102
RTVSPost2010PropOp30
 70
     1
102
RTVSPost2010Prop31
280
     0
102
RTVSPost2010PropOp31
 70
     1
102
RTVSPost2010Prop32
280
     0
102
RTVSPost2010PropOp32
 70
     1
102
RTVSPost2010Prop33
280
     0
102
RTVSPost2010PropOp33
 70
     1
102
RTVSPost2010Prop34
280
     0
102
RTVSPost2010PropOp34
 70
     1
102
RTVSPost2010Prop35
280
     0
102
RTVSPost2010PropOp35
 70
     1
102
RTVSPost2010Prop36
280
     0
102
RTVSPost2010PropOp36
 70
     1
102
RTVSPost2010Prop37
 90
       50
102
RTVSPost2010PropOp37
 70
     0
102
RTVSPost2010Prop38
140
0.0
102
RTVSPost2010PropOp38
 70
     0
102
RTVSPost2010Prop39
140
1.0
102
RTVSPost2010PropOp39
 70
     0
102
RTVSPost2010Prop40
 90
        0
102
RTVSPost2010PropOp40
 70
     0
102
RTVSPost2010Prop41ColorIndex
 90
       18
102
RTVSPost2010Prop41ColorRGB
 90
        0
102
RTVSPost2010PropOp41
 70
     0
102
RTVSPost2010Prop42
 90
       50
102
RTVSPost2010PropOp42
 70
     0
102
RTVSPost2010Prop43
 90
        3
102
RTVSPost2010PropOp43
 70
     0
102
RTVSPost2010Prop44ColorIndex
 90
        5
102
RTVSPost2010Prop44ColorRGB
 90
      255
102
RTVSPost2010PropOp44
 70
     0
102
RTVSPost2010Prop45
280
     0
102
RTVSPost2010PropOp45
 70
     1
102
RTVSPost2010Prop46
 90
       50
102
RTVSPost2010PropOp46
 70
     0
102
RTVSPost2010Prop47
 90
       50
102
RTVSPost2010PropOp47
 70
     0
102
RTVSPost2010Prop48
 90
       50
102
RTVSPost2010PropOp48
 70
     0
102
RTVSPost2010Prop49
280
     0
102
RTVSPost2010PropOp49
 70
     1
102
RTVSPost2010Prop50
 90
       50
102
RTVSPost2010PropOp50
 70
     0
102
RTVSPost2010Prop51ColorIndex
 90
      256
102
RTVSPost2010Prop51ColorRGB
 90
-16777216
102
RTVSPost2010PropOp51
 70
     0
102
RTVSPost2010Prop52
140
1.0
102
RTVSPost2010PropOp52
 70
     0
102
RTVSPost2010Prop53
 90
        2
102
RTVSPost2010PropOp53
 70
     0
102
RTVSPost2010Prop54
  1
strokes_ogs.tif
102
RTVSPost2010PropOp54
 70
     0
102
RTVSPost2010Prop55
280
     0
102
RTVSPost2010PropOp55
 70
     1
102
RTVSPost2010Prop56
140
1.0
102
RTVSPost2010PropOp56
 70
     0
102
RTVSPost2010Prop57
140
1.0
102
RTVSPost2010PropOp57
 70
     0
102
RTVSPropertyOp0
 70
     0
102
RTVSPropertyOp1
 70
     0
102
RTVSPropertyOp2
 70
     0
102
RTVSPropertyOp3
 70
     0
102
RTVSPropertyOp4
 70
     0
102
RTVSPropertyOp5
 70
     0
102
RTVSPropertyOp6
 70
     0
102
RTVSPropertyOp7
 70
     0
102
RTVSPropertyOp8
 70
     0
102
RTVSPropertyOp9
 70
     0
102
RTVSPropertyOp10
 70
     0
102
RTVSPropertyOp11
 70
     0
102
RTVSPropertyOp12
 70
     0
102
RTVSPropertyOp13
 70
     0
102
RTVSPropertyOp14
 70
     2
102
RTVSPropertyOp15
 70
     0
102
RTVSPropertyOp16
 70
     0
102
RTVSPropertyOp17
 70
     0
102
RTVSPropertyOp18
 70
     0
102
RTVSPropertyOp19
 70
     0
102
RTVSPropertyOp20
 70
     0
102
RTVSPropertyOp21
 70
     0
102
RTVSPropertyOp22
 70
     0
102
RTVSPropertyOp23
 70
     0
102
RTVSPropertyOp24
 70
     0
102
RTVSPropertyOp25
 70
     0
102
RTVSPropertyOp26
 70
     0
102
RTVSPropertyOp27
 70
     0
102
RTVSPropertyOp28
 70
     1
102
RTVSPropertyOp29
 70
     1
102
RTVSPropertyOp30
 70
     1
102
RTVSPropertyOp31
 70
     1
102
RTVSPropertyOp32
 70
     1
102
RTVSPropertyOp33
 70
     1
102
RTVSPropertyOp34
 70
     1
102
RTVSPropertyOp35
 70
     1
102
RTVSPropertyOp36
 70
     1
102
RTVSPropertyOp37
 70
     0
102
RTVSPropertyOp38
 70
     0
102
RTVSPropertyOp39
 70
     0
102
RTVSPropertyOp40
 70
     0
102
RTVSPropertyOp41
 70
     0
102
RTVSPropertyOp42
 70
     0
102
RTVSPropertyOp43
 70
     0
102
RTVSPropertyOp44
 70
     0
102
RTVSPropertyOp45
 70
     1
102
RTVSPropertyOp46
 70
     0
102
RTVSPropertyOp47
 70
     0
102
RTVSPropertyOp48
 70
     0
102
RTVSPropertyOp49
 70
     1
102
RTVSPropertyOp50
 70
     0
102
RTVSPropertyOp51
 70
     0
102
RTVSPropertyOp52
 70
     0
102
RTVSPropertyOp53
 70
     0
102
RTVSPropertyOp54
 70
     0
102
RTVSPropertyOp55
 70
     1
102
RTVSPropertyOp56
 70
     0
102
RTVSPropertyOp57
 70
     0
102
RTVSPropertyOp58
 70
     0
102
RTVSPropertyOp59
 70
     0
102
RTVSPropertyOp60
 70
     0
102
RTVSPropertyOp61
 70
     0
102
RTVSPropertyOp62
 70
     0
  0
XRECORD
  5
DA6
102
{ACAD_REACTORS
330
DA5
102
}
330
DA5
100
AcDbXrecord
280
     1
102
RTVSPost2010Prop28
280
     0
102
RTVSPost2010PropOp28
 70
     1
102
RTVSPost2010Prop29
280
     1
102
RTVSPost2010PropOp29
 70
     1
102
RTVSPost2010Prop30
280
     1
102
RTVSPost2010PropOp30
 70
     1
102
RTVSPost2010Prop31
280
     0
102
RTVSPost2010PropOp31
 70
     1
102
RTVSPost2010Prop32
280
     0
102
RTVSPost2010PropOp32
 70
     1
102
RTVSPost2010Prop33
280
     0
102
RTVSPost2010PropOp33
 70
     1
102
RTVSPost2010Prop34
280
     0
102
RTVSPost2010PropOp34
 70
     1
102
RTVSPost2010Prop35
280
     0
102
RTVSPost2010PropOp35
 70
     1
102
RTVSPost2010Prop36
280
     0
102
RTVSPost2010PropOp36
 70
     1
102
RTVSPost2010Prop37
 90
       50
102
RTVSPost2010PropOp37
 70
     1
102
RTVSPost2010Prop38
140
0.0
102
RTVSPost2010PropOp38
 70
     1
102
RTVSPost2010Prop39
140
1.0
102
RTVSPost2010PropOp39
 70
     1
102
RTVSPost2010Prop40
 90
        0
102
RTVSPost2010PropOp40
 70
     1
102
RTVSPost2010Prop41ColorIndex
 90
       18
102
RTVSPost2010Prop41ColorRGB
 90
        0
102
RTVSPost2010PropOp41
 70
     1
102
RTVSPost2010Prop42
 90
       50
102
RTVSPost2010PropOp42
 70
     1
102
RTVSPost2010Prop43
 90
        3
102
RTVSPost2010PropOp43
 70
     1
102
RTVSPost2010Prop44ColorIndex
 90
        5
102
RTVSPost2010Prop44ColorRGB
 90
      255
102
RTVSPost2010PropOp44
 70
     1
102
RTVSPost2010Prop45
280
     0
102
RTVSPost2010PropOp45
 70
     1
102
RTVSPost2010Prop46
 90
       50
102
RTVSPost2010PropOp46
 70
     1
102
RTVSPost2010Prop47
 90
       50
102
RTVSPost2010PropOp47
 70
     1
102
RTVSPost2010Prop48
 90
       50
102
RTVSPost2010PropOp48
 70
     1
102
RTVSPost2010Prop49
280
     0
102
RTVSPost2010PropOp49
 70
     1
102
RTVSPost2010Prop50
 90
       50
102
RTVSPost2010PropOp50
 70
     1
102
RTVSPost2010Prop51ColorIndex
 90
      256
102
RTVSPost2010Prop51ColorRGB
 90
-16777216
102
RTVSPost2010PropOp51
 70
     0
102
RTVSPost2010Prop52
140
1.0
102
RTVSPost2010PropOp52
 70
     0
102
RTVSPost2010Prop53
 90
        2
102
RTVSPost2010PropOp53
 70
     1
102
RTVSPost2010Prop54
  1
strokes_ogs.tif
102
RTVSPost2010PropOp54
 70
     1
102
RTVSPost2010Prop55
280
     0
102
RTVSPost2010PropOp55
 70
     1
102
RTVSPost2010Prop56
140
1.0
102
RTVSPost2010PropOp56
 70
     1
102
RTVSPost2010Prop57
140
1.0
102
RTVSPost2010PropOp57
 70
     1
102
RTVSPropertyOp0
 70
     1
102
RTVSPropertyOp1
 70
     1
102
RTVSPropertyOp2
 70
     1
102
RTVSPropertyOp3
 70
     1
102
RTVSPropertyOp4
 70
     1
102
RTVSPropertyOp5
 70
     1
102
RTVSPropertyOp6
 70
     1
102
RTVSPropertyOp7
 70
     1
102
RTVSPropertyOp8
 70
     1
102
RTVSPropertyOp9
 70
     1
102
RTVSPropertyOp10
 70
     1
102
RTVSPropertyOp11
 70
     1
102
RTVSPropertyOp12
 70
     1
102
RTVSPropertyOp13
 70
     1
102
RTVSPropertyOp14
 70
     1
102
RTVSPropertyOp15
 70
     1
102
RTVSPropertyOp16
 70
     1
102
RTVSPropertyOp17
 70
     1
102
RTVSPropertyOp18
 70
     1
102
RTVSPropertyOp19
 70
     1
102
RTVSPropertyOp20
 70
     1
102
RTVSPropertyOp21
 70
     1
102
RTVSPropertyOp22
 70
     1
102
RTVSPropertyOp23
 70
     1
102
RTVSPropertyOp24
 70
     1
102
RTVSPropertyOp25
 70
     1
102
RTVSPropertyOp26
 70
     1
102
RTVSPropertyOp27
 70
     1
102
RTVSPropertyOp28
 70
     1
102
RTVSPropertyOp29
 70
     1
102
RTVSPropertyOp30
 70
     1
102
RTVSPropertyOp31
 70
     1
102
RTVSPropertyOp32
 70
     1
102
RTVSPropertyOp33
 70
     1
102
RTVSPropertyOp34
 70
     1
102
RTVSPropertyOp35
 70
     1
102
RTVSPropertyOp36
 70
     1
102
RTVSPropertyOp37
 70
     1
102
RTVSPropertyOp38
 70
     1
102
RTVSPropertyOp39
 70
     1
102
RTVSPropertyOp40
 70
     1
102
RTVSPropertyOp41
 70
     1
102
RTVSPropertyOp42
 70
     1
102
RTVSPropertyOp43
 70
     1
102
RTVSPropertyOp44
 70
     1
102
RTVSPropertyOp45
 70
     1
102
RTVSPropertyOp46
 70
     1
102
RTVSPropertyOp47
 70
     1
102
RTVSPropertyOp48
 70
     1
102
RTVSPropertyOp49
 70
     1
102
RTVSPropertyOp50
 70
     1
102
RTVSPropertyOp51
 70
     0
102
RTVSPropertyOp52
 70
     0
102
RTVSPropertyOp53
 70
     1
102
RTVSPropertyOp54
 70
     1
102
RTVSPropertyOp55
 70
     1
102
RTVSPropertyOp56
 70
     1
102
RTVSPropertyOp57
 70
     1
102
RTVSPropertyOp58
 70
     1
102
RTVSPropertyOp59
 70
     1
102
RTVSPropertyOp60
 70
     1
102
RTVSPropertyOp61
 70
     1
102
RTVSPropertyOp62
 70
     1
  0
XRECORD
  5
D8A
102
{ACAD_REACTORS
330
D89
102
}
330
D89
100
AcDbXrecord
280
     1
102
RTVSPost2010Prop28
280
     0
102
RTVSPost2010PropOp28
 70
     1
102
RTVSPost2010Prop29
280
     1
102
RTVSPost2010PropOp29
 70
     1
102
RTVSPost2010Prop30
280
     1
102
RTVSPost2010PropOp30
 70
     1
102
RTVSPost2010Prop31
280
     0
102
RTVSPost2010PropOp31
 70
     1
102
RTVSPost2010Prop32
280
     0
102
RTVSPost2010PropOp32
 70
     1
102
RTVSPost2010Prop33
280
     0
102
RTVSPost2010PropOp33
 70
     1
102
RTVSPost2010Prop34
280
     0
102
RTVSPost2010PropOp34
 70
     1
102
RTVSPost2010Prop35
280
     0
102
RTVSPost2010PropOp35
 70
     1
102
RTVSPost2010Prop36
280
     0
102
RTVSPost2010PropOp36
 70
     1
102
RTVSPost2010Prop37
 90
       50
102
RTVSPost2010PropOp37
 70
     1
102
RTVSPost2010Prop38
140
0.0
102
RTVSPost2010PropOp38
 70
     1
102
RTVSPost2010Prop39
140
1.0
102
RTVSPost2010PropOp39
 70
     1
102
RTVSPost2010Prop40
 90
        0
102
RTVSPost2010PropOp40
 70
     1
102
RTVSPost2010Prop41ColorIndex
 90
       18
102
RTVSPost2010Prop41ColorRGB
 90
        0
102
RTVSPost2010PropOp41
 70
     1
102
RTVSPost2010Prop42
 90
       50
102
RTVSPost2010PropOp42
 70
     1
102
RTVSPost2010Prop43
 90
        3
102
RTVSPost2010PropOp43
 70
     1
102
RTVSPost2010Prop44ColorIndex
 90
        5
102
RTVSPost2010Prop44ColorRGB
 90
      255
102
RTVSPost2010PropOp44
 70
     1
102
RTVSPost2010Prop45
280
     0
102
RTVSPost2010PropOp45
 70
     1
102
RTVSPost2010Prop46
 90
       50
102
RTVSPost2010PropOp46
 70
     1
102
RTVSPost2010Prop47
 90
       50
102
RTVSPost2010PropOp47
 70
     1
102
RTVSPost2010Prop48
 90
       50
102
RTVSPost2010PropOp48
 70
     1
102
RTVSPost2010Prop49
280
     0
102
RTVSPost2010PropOp49
 70
     1
102
RTVSPost2010Prop50
 90
       50
102
RTVSPost2010PropOp50
 70
     1
102
RTVSPost2010Prop51ColorIndex
 90
      256
102
RTVSPost2010Prop51ColorRGB
 90
-16777216
102
RTVSPost2010PropOp51
 70
     0
102
RTVSPost2010Prop52
140
1.0
102
RTVSPost2010PropOp52
 70
     0
102
RTVSPost2010Prop53
 90
        2
102
RTVSPost2010PropOp53
 70
     1
102
RTVSPost2010Prop54
  1
strokes_ogs.tif
102
RTVSPost2010PropOp54
 70
     1
102
RTVSPost2010Prop55
280
     0
102
RTVSPost2010PropOp55
 70
     1
102
RTVSPost2010Prop56
140
1.0
102
RTVSPost2010PropOp56
 70
     1
102
RTVSPost2010Prop57
140
1.0
102
RTVSPost2010PropOp57
 70
     1
102
RTVSPropertyOp0
 70
     1
102
RTVSPropertyOp1
 70
     1
102
RTVSPropertyOp2
 70
     1
102
RTVSPropertyOp3
 70
     1
102
RTVSPropertyOp4
 70
     1
102
RTVSPropertyOp5
 70
     1
102
RTVSPropertyOp6
 70
     1
102
RTVSPropertyOp7
 70
     1
102
RTVSPropertyOp8
 70
     1
102
RTVSPropertyOp9
 70
     1
102
RTVSPropertyOp10
 70
     1
102
RTVSPropertyOp11
 70
     1
102
RTVSPropertyOp12
 70
     1
102
RTVSPropertyOp13
 70
     1
102
RTVSPropertyOp14
 70
     1
102
RTVSPropertyOp15
 70
     1
102
RTVSPropertyOp16
 70
     1
102
RTVSPropertyOp17
 70
     1
102
RTVSPropertyOp18
 70
     1
102
RTVSPropertyOp19
 70
     1
102
RTVSPropertyOp20
 70
     1
102
RTVSPropertyOp21
 70
     1
102
RTVSPropertyOp22
 70
     1
102
RTVSPropertyOp23
 70
     1
102
RTVSPropertyOp24
 70
     1
102
RTVSPropertyOp25
 70
     1
102
RTVSPropertyOp26
 70
     1
102
RTVSPropertyOp27
 70
     1
102
RTVSPropertyOp28
 70
     1
102
RTVSPropertyOp29
 70
     1
102
RTVSPropertyOp30
 70
     1
102
RTVSPropertyOp31
 70
     1
102
RTVSPropertyOp32
 70
     1
102
RTVSPropertyOp33
 70
     1
102
RTVSPropertyOp34
 70
     1
102
RTVSPropertyOp35
 70
     1
102
RTVSPropertyOp36
 70
     1
102
RTVSPropertyOp37
 70
     1
102
RTVSPropertyOp38
 70
     1
102
RTVSPropertyOp39
 70
     1
102
RTVSPropertyOp40
 70
     1
102
RTVSPropertyOp41
 70
     1
102
RTVSPropertyOp42
 70
     1
102
RTVSPropertyOp43
 70
     1
102
RTVSPropertyOp44
 70
     1
102
RTVSPropertyOp45
 70
     1
102
RTVSPropertyOp46
 70
     1
102
RTVSPropertyOp47
 70
     1
102
RTVSPropertyOp48
 70
     1
102
RTVSPropertyOp49
 70
     1
102
RTVSPropertyOp50
 70
     1
102
RTVSPropertyOp51
 70
     0
102
RTVSPropertyOp52
 70
     0
102
RTVSPropertyOp53
 70
     1
102
RTVSPropertyOp54
 70
     1
102
RTVSPropertyOp55
 70
     1
102
RTVSPropertyOp56
 70
     1
102
RTVSPropertyOp57
 70
     1
102
RTVSPropertyOp58
 70
     1
102
RTVSPropertyOp59
 70
     1
102
RTVSPropertyOp60
 70
     1
102
RTVSPropertyOp61
 70
     1
102
RTVSPropertyOp62
 70
     1
  0
XRECORD
  5
D8C
102
{ACAD_REACTORS
330
D8B
102
}
330
D8B
100
AcDbXrecord
280
     1
102
RTVSPost2010Prop28
280
     0
102
RTVSPost2010PropOp28
 70
     1
102
RTVSPost2010Prop29
280
     1
102
RTVSPost2010PropOp29
 70
     1
102
RTVSPost2010Prop30
280
     1
102
RTVSPost2010PropOp30
 70
     1
102
RTVSPost2010Prop31
280
     0
102
RTVSPost2010PropOp31
 70
     1
102
RTVSPost2010Prop32
280
     0
102
RTVSPost2010PropOp32
 70
     1
102
RTVSPost2010Prop33
280
     0
102
RTVSPost2010PropOp33
 70
     1
102
RTVSPost2010Prop34
280
     0
102
RTVSPost2010PropOp34
 70
     1
102
RTVSPost2010Prop35
280
     0
102
RTVSPost2010PropOp35
 70
     1
102
RTVSPost2010Prop36
280
     0
102
RTVSPost2010PropOp36
 70
     1
102
RTVSPost2010Prop37
 90
       50
102
RTVSPost2010PropOp37
 70
     1
102
RTVSPost2010Prop38
140
0.0
102
RTVSPost2010PropOp38
 70
     1
102
RTVSPost2010Prop39
140
1.0
102
RTVSPost2010PropOp39
 70
     1
102
RTVSPost2010Prop40
 90
        0
102
RTVSPost2010PropOp40
 70
     1
102
RTVSPost2010Prop41ColorIndex
 90
       18
102
RTVSPost2010Prop41ColorRGB
 90
        0
102
RTVSPost2010PropOp41
 70
     1
102
RTVSPost2010Prop42
 90
       50
102
RTVSPost2010PropOp42
 70
     1
102
RTVSPost2010Prop43
 90
        3
102
RTVSPost2010PropOp43
 70
     1
102
RTVSPost2010Prop44ColorIndex
 90
        5
102
RTVSPost2010Prop44ColorRGB
 90
      255
102
RTVSPost2010PropOp44
 70
     1
102
RTVSPost2010Prop45
280
     0
102
RTVSPost2010PropOp45
 70
     1
102
RTVSPost2010Prop46
 90
       50
102
RTVSPost2010PropOp46
 70
     1
102
RTVSPost2010Prop47
 90
       50
102
RTVSPost2010PropOp47
 70
     1
102
RTVSPost2010Prop48
 90
       50
102
RTVSPost2010PropOp48
 70
     1
102
RTVSPost2010Prop49
280
     0
102
RTVSPost2010PropOp49
 70
     1
102
RTVSPost2010Prop50
 90
       50
102
RTVSPost2010PropOp50
 70
     1
102
RTVSPost2010Prop51ColorIndex
 90
      256
102
RTVSPost2010Prop51ColorRGB
 90
-16777216
102
RTVSPost2010PropOp51
 70
     0
102
RTVSPost2010Prop52
140
1.0
102
RTVSPost2010PropOp52
 70
     0
102
RTVSPost2010Prop53
 90
        2
102
RTVSPost2010PropOp53
 70
     1
102
RTVSPost2010Prop54
  1
strokes_ogs.tif
102
RTVSPost2010PropOp54
 70
     1
102
RTVSPost2010Prop55
280
     0
102
RTVSPost2010PropOp55
 70
     1
102
RTVSPost2010Prop56
140
1.0
102
RTVSPost2010PropOp56
 70
     1
102
RTVSPost2010Prop57
140
1.0
102
RTVSPost2010PropOp57
 70
     1
102
RTVSPropertyOp0
 70
     1
102
RTVSPropertyOp1
 70
     1
102
RTVSPropertyOp2
 70
     1
102
RTVSPropertyOp3
 70
     1
102
RTVSPropertyOp4
 70
     1
102
RTVSPropertyOp5
 70
     1
102
RTVSPropertyOp6
 70
     1
102
RTVSPropertyOp7
 70
     1
102
RTVSPropertyOp8
 70
     1
102
RTVSPropertyOp9
 70
     1
102
RTVSPropertyOp10
 70
     1
102
RTVSPropertyOp11
 70
     1
102
RTVSPropertyOp12
 70
     1
102
RTVSPropertyOp13
 70
     1
102
RTVSPropertyOp14
 70
     1
102
RTVSPropertyOp15
 70
     1
102
RTVSPropertyOp16
 70
     1
102
RTVSPropertyOp17
 70
     1
102
RTVSPropertyOp18
 70
     1
102
RTVSPropertyOp19
 70
     1
102
RTVSPropertyOp20
 70
     1
102
RTVSPropertyOp21
 70
     1
102
RTVSPropertyOp22
 70
     1
102
RTVSPropertyOp23
 70
     1
102
RTVSPropertyOp24
 70
     1
102
RTVSPropertyOp25
 70
     1
102
RTVSPropertyOp26
 70
     1
102
RTVSPropertyOp27
 70
     1
102
RTVSPropertyOp28
 70
     1
102
RTVSPropertyOp29
 70
     1
102
RTVSPropertyOp30
 70
     1
102
RTVSPropertyOp31
 70
     1
102
RTVSPropertyOp32
 70
     1
102
RTVSPropertyOp33
 70
     1
102
RTVSPropertyOp34
 70
     1
102
RTVSPropertyOp35
 70
     1
102
RTVSPropertyOp36
 70
     1
102
RTVSPropertyOp37
 70
     1
102
RTVSPropertyOp38
 70
     1
102
RTVSPropertyOp39
 70
     1
102
RTVSPropertyOp40
 70
     1
102
RTVSPropertyOp41
 70
     1
102
RTVSPropertyOp42
 70
     1
102
RTVSPropertyOp43
 70
     1
102
RTVSPropertyOp44
 70
     1
102
RTVSPropertyOp45
 70
     1
102
RTVSPropertyOp46
 70
     1
102
RTVSPropertyOp47
 70
     1
102
RTVSPropertyOp48
 70
     1
102
RTVSPropertyOp49
 70
     1
102
RTVSPropertyOp50
 70
     1
102
RTVSPropertyOp51
 70
     0
102
RTVSPropertyOp52
 70
     0
102
RTVSPropertyOp53
 70
     1
102
RTVSPropertyOp54
 70
     1
102
RTVSPropertyOp55
 70
     1
102
RTVSPropertyOp56
 70
     1
102
RTVSPropertyOp57
 70
     1
102
RTVSPropertyOp58
 70
     1
102
RTVSPropertyOp59
 70
     1
102
RTVSPropertyOp60
 70
     1
102
RTVSPropertyOp61
 70
     1
102
RTVSPropertyOp62
 70
     1
  0
XRECORD
  5
D8E
102
{ACAD_REACTORS
330
D8D
102
}
330
D8D
100
AcDbXrecord
280
     1
102
RTVSPost2010Prop28
280
     0
102
RTVSPost2010PropOp28
 70
     1
102
RTVSPost2010Prop29
280
     1
102
RTVSPost2010PropOp29
 70
     1
102
RTVSPost2010Prop30
280
     1
102
RTVSPost2010PropOp30
 70
     1
102
RTVSPost2010Prop31
280
     0
102
RTVSPost2010PropOp31
 70
     1
102
RTVSPost2010Prop32
280
     0
102
RTVSPost2010PropOp32
 70
     1
102
RTVSPost2010Prop33
280
     0
102
RTVSPost2010PropOp33
 70
     1
102
RTVSPost2010Prop34
280
     0
102
RTVSPost2010PropOp34
 70
     1
102
RTVSPost2010Prop35
280
     0
102
RTVSPost2010PropOp35
 70
     1
102
RTVSPost2010Prop36
280
     0
102
RTVSPost2010PropOp36
 70
     1
102
RTVSPost2010Prop37
 90
       50
102
RTVSPost2010PropOp37
 70
     1
102
RTVSPost2010Prop38
140
0.0
102
RTVSPost2010PropOp38
 70
     1
102
RTVSPost2010Prop39
140
1.0
102
RTVSPost2010PropOp39
 70
     1
102
RTVSPost2010Prop40
 90
        0
102
RTVSPost2010PropOp40
 70
     1
102
RTVSPost2010Prop41ColorIndex
 90
       18
102
RTVSPost2010Prop41ColorRGB
 90
        0
102
RTVSPost2010PropOp41
 70
     1
102
RTVSPost2010Prop42
 90
       50
102
RTVSPost2010PropOp42
 70
     1
102
RTVSPost2010Prop43
 90
        3
102
RTVSPost2010PropOp43
 70
     1
102
RTVSPost2010Prop44ColorIndex
 90
        5
102
RTVSPost2010Prop44ColorRGB
 90
      255
102
RTVSPost2010PropOp44
 70
     1
102
RTVSPost2010Prop45
280
     0
102
RTVSPost2010PropOp45
 70
     1
102
RTVSPost2010Prop46
 90
       50
102
RTVSPost2010PropOp46
 70
     1
102
RTVSPost2010Prop47
 90
       50
102
RTVSPost2010PropOp47
 70
     1
102
RTVSPost2010Prop48
 90
       50
102
RTVSPost2010PropOp48
 70
     1
102
RTVSPost2010Prop49
280
     0
102
RTVSPost2010PropOp49
 70
     1
102
RTVSPost2010Prop50
 90
       50
102
RTVSPost2010PropOp50
 70
     1
102
RTVSPost2010Prop51ColorIndex
 90
      256
102
RTVSPost2010Prop51ColorRGB
 90
-16777216
102
RTVSPost2010PropOp51
 70
     0
102
RTVSPost2010Prop52
140
1.0
102
RTVSPost2010PropOp52
 70
     0
102
RTVSPost2010Prop53
 90
        2
102
RTVSPost2010PropOp53
 70
     1
102
RTVSPost2010Prop54
  1
strokes_ogs.tif
102
RTVSPost2010PropOp54
 70
     1
102
RTVSPost2010Prop55
280
     0
102
RTVSPost2010PropOp55
 70
     1
102
RTVSPost2010Prop56
140
1.0
102
RTVSPost2010PropOp56
 70
     1
102
RTVSPost2010Prop57
140
1.0
102
RTVSPost2010PropOp57
 70
     1
102
RTVSPropertyOp0
 70
     1
102
RTVSPropertyOp1
 70
     1
102
RTVSPropertyOp2
 70
     1
102
RTVSPropertyOp3
 70
     1
102
RTVSPropertyOp4
 70
     1
102
RTVSPropertyOp5
 70
     1
102
RTVSPropertyOp6
 70
     1
102
RTVSPropertyOp7
 70
     1
102
RTVSPropertyOp8
 70
     1
102
RTVSPropertyOp9
 70
     1
102
RTVSPropertyOp10
 70
     1
102
RTVSPropertyOp11
 70
     1
102
RTVSPropertyOp12
 70
     1
102
RTVSPropertyOp13
 70
     1
102
RTVSPropertyOp14
 70
     1
102
RTVSPropertyOp15
 70
     1
102
RTVSPropertyOp16
 70
     1
102
RTVSPropertyOp17
 70
     1
102
RTVSPropertyOp18
 70
     1
102
RTVSPropertyOp19
 70
     1
102
RTVSPropertyOp20
 70
     1
102
RTVSPropertyOp21
 70
     1
102
RTVSPropertyOp22
 70
     1
102
RTVSPropertyOp23
 70
     1
102
RTVSPropertyOp24
 70
     1
102
RTVSPropertyOp25
 70
     1
102
RTVSPropertyOp26
 70
     1
102
RTVSPropertyOp27
 70
     1
102
RTVSPropertyOp28
 70
     1
102
RTVSPropertyOp29
 70
     1
102
RTVSPropertyOp30
 70
     1
102
RTVSPropertyOp31
 70
     1
102
RTVSPropertyOp32
 70
     1
102
RTVSPropertyOp33
 70
     1
102
RTVSPropertyOp34
 70
     1
102
RTVSPropertyOp35
 70
     1
102
RTVSPropertyOp36
 70
     1
102
RTVSPropertyOp37
 70
     1
102
RTVSPropertyOp38
 70
     1
102
RTVSPropertyOp39
 70
     1
102
RTVSPropertyOp40
 70
     1
102
RTVSPropertyOp41
 70
     1
102
RTVSPropertyOp42
 70
     1
102
RTVSPropertyOp43
 70
     1
102
RTVSPropertyOp44
 70
     1
102
RTVSPropertyOp45
 70
     1
102
RTVSPropertyOp46
 70
     1
102
RTVSPropertyOp47
 70
     1
102
RTVSPropertyOp48
 70
     1
102
RTVSPropertyOp49
 70
     1
102
RTVSPropertyOp50
 70
     1
102
RTVSPropertyOp51
 70
     0
102
RTVSPropertyOp52
 70
     0
102
RTVSPropertyOp53
 70
     1
102
RTVSPropertyOp54
 70
     1
102
RTVSPropertyOp55
 70
     1
102
RTVSPropertyOp56
 70
     1
102
RTVSPropertyOp57
 70
     1
102
RTVSPropertyOp58
 70
     1
102
RTVSPropertyOp59
 70
     1
102
RTVSPropertyOp60
 70
     1
102
RTVSPropertyOp61
 70
     1
102
RTVSPropertyOp62
 70
     1
  0
XRECORD
  5
D90
102
{ACAD_REACTORS
330
D8F
102
}
330
D8F
100
AcDbXrecord
280
     1
102
RTVSPost2010Prop28
280
     0
102
RTVSPost2010PropOp28
 70
     1
102
RTVSPost2010Prop29
280
     1
102
RTVSPost2010PropOp29
 70
     1
102
RTVSPost2010Prop30
280
     1
102
RTVSPost2010PropOp30
 70
     1
102
RTVSPost2010Prop31
280
     0
102
RTVSPost2010PropOp31
 70
     1
102
RTVSPost2010Prop32
280
     0
102
RTVSPost2010PropOp32
 70
     1
102
RTVSPost2010Prop33
280
     0
102
RTVSPost2010PropOp33
 70
     1
102
RTVSPost2010Prop34
280
     0
102
RTVSPost2010PropOp34
 70
     1
102
RTVSPost2010Prop35
280
     0
102
RTVSPost2010PropOp35
 70
     1
102
RTVSPost2010Prop36
280
     0
102
RTVSPost2010PropOp36
 70
     1
102
RTVSPost2010Prop37
 90
       50
102
RTVSPost2010PropOp37
 70
     1
102
RTVSPost2010Prop38
140
0.0
102
RTVSPost2010PropOp38
 70
     1
102
RTVSPost2010Prop39
140
1.0
102
RTVSPost2010PropOp39
 70
     1
102
RTVSPost2010Prop40
 90
        0
102
RTVSPost2010PropOp40
 70
     1
102
RTVSPost2010Prop41ColorIndex
 90
       18
102
RTVSPost2010Prop41ColorRGB
 90
        0
102
RTVSPost2010PropOp41
 70
     1
102
RTVSPost2010Prop42
 90
       50
102
RTVSPost2010PropOp42
 70
     1
102
RTVSPost2010Prop43
 90
        3
102
RTVSPost2010PropOp43
 70
     1
102
RTVSPost2010Prop44ColorIndex
 90
        5
102
RTVSPost2010Prop44ColorRGB
 90
      255
102
RTVSPost2010PropOp44
 70
     1
102
RTVSPost2010Prop45
280
     0
102
RTVSPost2010PropOp45
 70
     1
102
RTVSPost2010Prop46
 90
       50
102
RTVSPost2010PropOp46
 70
     1
102
RTVSPost2010Prop47
 90
       50
102
RTVSPost2010PropOp47
 70
     1
102
RTVSPost2010Prop48
 90
       50
102
RTVSPost2010PropOp48
 70
     1
102
RTVSPost2010Prop49
280
     0
102
RTVSPost2010PropOp49
 70
     1
102
RTVSPost2010Prop50
 90
       50
102
RTVSPost2010PropOp50
 70
     1
102
RTVSPost2010Prop51ColorIndex
 90
      256
102
RTVSPost2010Prop51ColorRGB
 90
-16777216
102
RTVSPost2010PropOp51
 70
     0
102
RTVSPost2010Prop52
140
1.0
102
RTVSPost2010PropOp52
 70
     0
102
RTVSPost2010Prop53
 90
        2
102
RTVSPost2010PropOp53
 70
     1
102
RTVSPost2010Prop54
  1
strokes_ogs.tif
102
RTVSPost2010PropOp54
 70
     1
102
RTVSPost2010Prop55
280
     0
102
RTVSPost2010PropOp55
 70
     1
102
RTVSPost2010Prop56
140
1.0
102
RTVSPost2010PropOp56
 70
     1
102
RTVSPost2010Prop57
140
1.0
102
RTVSPost2010PropOp57
 70
     1
102
RTVSPropertyOp0
 70
     1
102
RTVSPropertyOp1
 70
     1
102
RTVSPropertyOp2
 70
     1
102
RTVSPropertyOp3
 70
     1
102
RTVSPropertyOp4
 70
     1
102
RTVSPropertyOp5
 70
     1
102
RTVSPropertyOp6
 70
     1
102
RTVSPropertyOp7
 70
     1
102
RTVSPropertyOp8
 70
     1
102
RTVSPropertyOp9
 70
     1
102
RTVSPropertyOp10
 70
     1
102
RTVSPropertyOp11
 70
     1
102
RTVSPropertyOp12
 70
     1
102
RTVSPropertyOp13
 70
     1
102
RTVSPropertyOp14
 70
     1
102
RTVSPropertyOp15
 70
     1
102
RTVSPropertyOp16
 70
     1
102
RTVSPropertyOp17
 70
     1
102
RTVSPropertyOp18
 70
     1
102
RTVSPropertyOp19
 70
     1
102
RTVSPropertyOp20
 70
     1
102
RTVSPropertyOp21
 70
     1
102
RTVSPropertyOp22
 70
     1
102
RTVSPropertyOp23
 70
     1
102
RTVSPropertyOp24
 70
     1
102
RTVSPropertyOp25
 70
     1
102
RTVSPropertyOp26
 70
     1
102
RTVSPropertyOp27
 70
     1
102
RTVSPropertyOp28
 70
     1
102
RTVSPropertyOp29
 70
     1
102
RTVSPropertyOp30
 70
     1
102
RTVSPropertyOp31
 70
     1
102
RTVSPropertyOp32
 70
     1
102
RTVSPropertyOp33
 70
     1
102
RTVSPropertyOp34
 70
     1
102
RTVSPropertyOp35
 70
     1
102
RTVSPropertyOp36
 70
     1
102
RTVSPropertyOp37
 70
     1
102
RTVSPropertyOp38
 70
     1
102
RTVSPropertyOp39
 70
     1
102
RTVSPropertyOp40
 70
     1
102
RTVSPropertyOp41
 70
     1
102
RTVSPropertyOp42
 70
     1
102
RTVSPropertyOp43
 70
     1
102
RTVSPropertyOp44
 70
     1
102
RTVSPropertyOp45
 70
     1
102
RTVSPropertyOp46
 70
     1
102
RTVSPropertyOp47
 70
     1
102
RTVSPropertyOp48
 70
     1
102
RTVSPropertyOp49
 70
     1
102
RTVSPropertyOp50
 70
     1
102
RTVSPropertyOp51
 70
     0
102
RTVSPropertyOp52
 70
     0
102
RTVSPropertyOp53
 70
     1
102
RTVSPropertyOp54
 70
     1
102
RTVSPropertyOp55
 70
     1
102
RTVSPropertyOp56
 70
     1
102
RTVSPropertyOp57
 70
     1
102
RTVSPropertyOp58
 70
     1
102
RTVSPropertyOp59
 70
     1
102
RTVSPropertyOp60
 70
     1
102
RTVSPropertyOp61
 70
     1
102
RTVSPropertyOp62
 70
     1
  0
XRECORD
  5
D98
102
{ACAD_REACTORS
330
D97
102
}
330
D97
100
AcDbXrecord
280
     1
102
RTVSPost2010Prop28
280
     0
102
RTVSPost2010PropOp28
 70
     1
102
RTVSPost2010Prop29
280
     1
102
RTVSPost2010PropOp29
 70
     1
102
RTVSPost2010Prop30
280
     1
102
RTVSPost2010PropOp30
 70
     1
102
RTVSPost2010Prop31
280
     0
102
RTVSPost2010PropOp31
 70
     1
102
RTVSPost2010Prop32
280
     0
102
RTVSPost2010PropOp32
 70
     1
102
RTVSPost2010Prop33
280
     0
102
RTVSPost2010PropOp33
 70
     1
102
RTVSPost2010Prop34
280
     0
102
RTVSPost2010PropOp34
 70
     1
102
RTVSPost2010Prop35
280
     0
102
RTVSPost2010PropOp35
 70
     1
102
RTVSPost2010Prop36
280
     0
102
RTVSPost2010PropOp36
 70
     1
102
RTVSPost2010Prop37
 90
       50
102
RTVSPost2010PropOp37
 70
     1
102
RTVSPost2010Prop38
140
0.0
102
RTVSPost2010PropOp38
 70
     1
102
RTVSPost2010Prop39
140
1.0
102
RTVSPost2010PropOp39
 70
     1
102
RTVSPost2010Prop40
 90
        0
102
RTVSPost2010PropOp40
 70
     1
102
RTVSPost2010Prop41ColorIndex
 90
       18
102
RTVSPost2010Prop41ColorRGB
 90
        0
102
RTVSPost2010PropOp41
 70
     1
102
RTVSPost2010Prop42
 90
       50
102
RTVSPost2010PropOp42
 70
     1
102
RTVSPost2010Prop43
 90
        3
102
RTVSPost2010PropOp43
 70
     1
102
RTVSPost2010Prop44ColorIndex
 90
        5
102
RTVSPost2010Prop44ColorRGB
 90
      255
102
RTVSPost2010PropOp44
 70
     1
102
RTVSPost2010Prop45
280
     0
102
RTVSPost2010PropOp45
 70
     1
102
RTVSPost2010Prop46
 90
       50
102
RTVSPost2010PropOp46
 70
     1
102
RTVSPost2010Prop47
 90
       50
102
RTVSPost2010PropOp47
 70
     1
102
RTVSPost2010Prop48
 90
       50
102
RTVSPost2010PropOp48
 70
     1
102
RTVSPost2010Prop49
280
     0
102
RTVSPost2010PropOp49
 70
     1
102
RTVSPost2010Prop50
 90
       50
102
RTVSPost2010PropOp50
 70
     1
102
RTVSPost2010Prop51ColorIndex
 90
      256
102
RTVSPost2010Prop51ColorRGB
 90
-16777216
102
RTVSPost2010PropOp51
 70
     0
102
RTVSPost2010Prop52
140
1.0
102
RTVSPost2010PropOp52
 70
     0
102
RTVSPost2010Prop53
 90
        2
102
RTVSPost2010PropOp53
 70
     1
102
RTVSPost2010Prop54
  1
strokes_ogs.tif
102
RTVSPost2010PropOp54
 70
     1
102
RTVSPost2010Prop55
280
     0
102
RTVSPost2010PropOp55
 70
     1
102
RTVSPost2010Prop56
140
1.0
102
RTVSPost2010PropOp56
 70
     1
102
RTVSPost2010Prop57
140
1.0
102
RTVSPost2010PropOp57
 70
     1
102
RTVSPropertyOp0
 70
     1
102
RTVSPropertyOp1
 70
     1
102
RTVSPropertyOp2
 70
     1
102
RTVSPropertyOp3
 70
     1
102
RTVSPropertyOp4
 70
     1
102
RTVSPropertyOp5
 70
     1
102
RTVSPropertyOp6
 70
     1
102
RTVSPropertyOp7
 70
     1
102
RTVSPropertyOp8
 70
     1
102
RTVSPropertyOp9
 70
     1
102
RTVSPropertyOp10
 70
     1
102
RTVSPropertyOp11
 70
     1
102
RTVSPropertyOp12
 70
     1
102
RTVSPropertyOp13
 70
     1
102
RTVSPropertyOp14
 70
     1
102
RTVSPropertyOp15
 70
     1
102
RTVSPropertyOp16
 70
     1
102
RTVSPropertyOp17
 70
     1
102
RTVSPropertyOp18
 70
     1
102
RTVSPropertyOp19
 70
     1
102
RTVSPropertyOp20
 70
     1
102
RTVSPropertyOp21
 70
     1
102
RTVSPropertyOp22
 70
     1
102
RTVSPropertyOp23
 70
     1
102
RTVSPropertyOp24
 70
     1
102
RTVSPropertyOp25
 70
     1
102
RTVSPropertyOp26
 70
     1
102
RTVSPropertyOp27
 70
     1
102
RTVSPropertyOp28
 70
     1
102
RTVSPropertyOp29
 70
     1
102
RTVSPropertyOp30
 70
     1
102
RTVSPropertyOp31
 70
     1
102
RTVSPropertyOp32
 70
     1
102
RTVSPropertyOp33
 70
     1
102
RTVSPropertyOp34
 70
     1
102
RTVSPropertyOp35
 70
     1
102
RTVSPropertyOp36
 70
     1
102
RTVSPropertyOp37
 70
     1
102
RTVSPropertyOp38
 70
     1
102
RTVSPropertyOp39
 70
     1
102
RTVSPropertyOp40
 70
     1
102
RTVSPropertyOp41
 70
     1
102
RTVSPropertyOp42
 70
     1
102
RTVSPropertyOp43
 70
     1
102
RTVSPropertyOp44
 70
     1
102
RTVSPropertyOp45
 70
     1
102
RTVSPropertyOp46
 70
     1
102
RTVSPropertyOp47
 70
     1
102
RTVSPropertyOp48
 70
     1
102
RTVSPropertyOp49
 70
     1
102
RTVSPropertyOp50
 70
     1
102
RTVSPropertyOp51
 70
     0
102
RTVSPropertyOp52
 70
     0
102
RTVSPropertyOp53
 70
     1
102
RTVSPropertyOp54
 70
     1
102
RTVSPropertyOp55
 70
     1
102
RTVSPropertyOp56
 70
     1
102
RTVSPropertyOp57
 70
     1
102
RTVSPropertyOp58
 70
     1
102
RTVSPropertyOp59
 70
     1
102
RTVSPropertyOp60
 70
     1
102
RTVSPropertyOp61
 70
     1
102
RTVSPropertyOp62
 70
     1
  0
XRECORD
  5
DB4
102
{ACAD_REACTORS
330
DB3
102
}
330
DB3
100
AcDbXrecord
280
     1
102
RTVSPost2010Prop28
280
     0
102
RTVSPost2010PropOp28
 70
     1
102
RTVSPost2010Prop29
280
     1
102
RTVSPost2010PropOp29
 70
     1
102
RTVSPost2010Prop30
280
     1
102
RTVSPost2010PropOp30
 70
     1
102
RTVSPost2010Prop31
280
     0
102
RTVSPost2010PropOp31
 70
     1
102
RTVSPost2010Prop32
280
     0
102
RTVSPost2010PropOp32
 70
     1
102
RTVSPost2010Prop33
280
     0
102
RTVSPost2010PropOp33
 70
     1
102
RTVSPost2010Prop34
280
     0
102
RTVSPost2010PropOp34
 70
     1
102
RTVSPost2010Prop35
280
     0
102
RTVSPost2010PropOp35
 70
     1
102
RTVSPost2010Prop36
280
     0
102
RTVSPost2010PropOp36
 70
     1
102
RTVSPost2010Prop37
 90
       50
102
RTVSPost2010PropOp37
 70
     0
102
RTVSPost2010Prop38
140
0.0
102
RTVSPost2010PropOp38
 70
     0
102
RTVSPost2010Prop39
140
1.0
102
RTVSPost2010PropOp39
 70
     0
102
RTVSPost2010Prop40
 90
        0
102
RTVSPost2010PropOp40
 70
     0
102
RTVSPost2010Prop41ColorIndex
 90
       18
102
RTVSPost2010Prop41ColorRGB
 90
        0
102
RTVSPost2010PropOp41
 70
     0
102
RTVSPost2010Prop42
 90
       50
102
RTVSPost2010PropOp42
 70
     0
102
RTVSPost2010Prop43
 90
        3
102
RTVSPost2010PropOp43
 70
     0
102
RTVSPost2010Prop44ColorIndex
 90
        5
102
RTVSPost2010Prop44ColorRGB
 90
      255
102
RTVSPost2010PropOp44
 70
     0
102
RTVSPost2010Prop45
280
     0
102
RTVSPost2010PropOp45
 70
     1
102
RTVSPost2010Prop46
 90
       50
102
RTVSPost2010PropOp46
 70
     0
102
RTVSPost2010Prop47
 90
       50
102
RTVSPost2010PropOp47
 70
     0
102
RTVSPost2010Prop48
 90
       50
102
RTVSPost2010PropOp48
 70
     0
102
RTVSPost2010Prop49
280
     0
102
RTVSPost2010PropOp49
 70
     1
102
RTVSPost2010Prop50
 90
       50
102
RTVSPost2010PropOp50
 70
     0
102
RTVSPost2010Prop51ColorIndex
 90
      256
102
RTVSPost2010Prop51ColorRGB
 90
-16777216
102
RTVSPost2010PropOp51
 70
     0
102
RTVSPost2010Prop52
140
1.0
102
RTVSPost2010PropOp52
 70
     0
102
RTVSPost2010Prop53
 90
        2
102
RTVSPost2010PropOp53
 70
     0
102
RTVSPost2010Prop54
  1
strokes_ogs.tif
102
RTVSPost2010PropOp54
 70
     0
102
RTVSPost2010Prop55
280
     0
102
RTVSPost2010PropOp55
 70
     1
102
RTVSPost2010Prop56
140
1.0
102
RTVSPost2010PropOp56
 70
     0
102
RTVSPost2010Prop57
140
1.0
102
RTVSPost2010PropOp57
 70
     0
102
RTVSPropertyOp0
 70
     0
102
RTVSPropertyOp1
 70
     0
102
RTVSPropertyOp2
 70
     0
102
RTVSPropertyOp3
 70
     0
102
RTVSPropertyOp4
 70
     0
102
RTVSPropertyOp5
 70
     0
102
RTVSPropertyOp6
 70
     0
102
RTVSPropertyOp7
 70
     0
102
RTVSPropertyOp8
 70
     0
102
RTVSPropertyOp9
 70
     0
102
RTVSPropertyOp10
 70
     0
102
RTVSPropertyOp11
 70
     0
102
RTVSPropertyOp12
 70
     0
102
RTVSPropertyOp13
 70
     0
102
RTVSPropertyOp14
 70
     2
102
RTVSPropertyOp15
 70
     0
102
RTVSPropertyOp16
 70
     0
102
RTVSPropertyOp17
 70
     0
102
RTVSPropertyOp18
 70
     0
102
RTVSPropertyOp19
 70
     0
102
RTVSPropertyOp20
 70
     0
102
RTVSPropertyOp21
 70
     0
102
RTVSPropertyOp22
 70
     0
102
RTVSPropertyOp23
 70
     0
102
RTVSPropertyOp24
 70
     0
102
RTVSPropertyOp25
 70
     0
102
RTVSPropertyOp26
 70
     0
102
RTVSPropertyOp27
 70
     0
102
RTVSPropertyOp28
 70
     1
102
RTVSPropertyOp29
 70
     1
102
RTVSPropertyOp30
 70
     1
102
RTVSPropertyOp31
 70
     1
102
RTVSPropertyOp32
 70
     1
102
RTVSPropertyOp33
 70
     1
102
RTVSPropertyOp34
 70
     1
102
RTVSPropertyOp35
 70
     1
102
RTVSPropertyOp36
 70
     1
102
RTVSPropertyOp37
 70
     0
102
RTVSPropertyOp38
 70
     0
102
RTVSPropertyOp39
 70
     0
102
RTVSPropertyOp40
 70
     0
102
RTVSPropertyOp41
 70
     0
102
RTVSPropertyOp42
 70
     0
102
RTVSPropertyOp43
 70
     0
102
RTVSPropertyOp44
 70
     0
102
RTVSPropertyOp45
 70
     1
102
RTVSPropertyOp46
 70
     0
102
RTVSPropertyOp47
 70
     0
102
RTVSPropertyOp48
 70
     0
102
RTVSPropertyOp49
 70
     1
102
RTVSPropertyOp50
 70
     0
102
RTVSPropertyOp51
 70
     0
102
RTVSPropertyOp52
 70
     0
102
RTVSPropertyOp53
 70
     0
102
RTVSPropertyOp54
 70
     0
102
RTVSPropertyOp55
 70
     1
102
RTVSPropertyOp56
 70
     0
102
RTVSPropertyOp57
 70
     0
102
RTVSPropertyOp58
 70
     0
102
RTVSPropertyOp59
 70
     0
102
RTVSPropertyOp60
 70
     0
102
RTVSPropertyOp61
 70
     0
102
RTVSPropertyOp62
 70
     0
  0
XRECORD
  5
DA4
102
{ACAD_REACTORS
330
DA3
102
}
330
DA3
100
AcDbXrecord
280
     1
102
RTVSPost2010Prop28
280
     0
102
RTVSPost2010PropOp28
 70
     1
102
RTVSPost2010Prop29
280
     1
102
RTVSPost2010PropOp29
 70
     1
102
RTVSPost2010Prop30
280
     1
102
RTVSPost2010PropOp30
 70
     1
102
RTVSPost2010Prop31
280
     0
102
RTVSPost2010PropOp31
 70
     1
102
RTVSPost2010Prop32
280
     0
102
RTVSPost2010PropOp32
 70
     1
102
RTVSPost2010Prop33
280
     0
102
RTVSPost2010PropOp33
 70
     1
102
RTVSPost2010Prop34
280
     0
102
RTVSPost2010PropOp34
 70
     1
102
RTVSPost2010Prop35
280
     0
102
RTVSPost2010PropOp35
 70
     1
102
RTVSPost2010Prop36
280
     0
102
RTVSPost2010PropOp36
 70
     1
102
RTVSPost2010Prop37
 90
       50
102
RTVSPost2010PropOp37
 70
     1
102
RTVSPost2010Prop38
140
0.0
102
RTVSPost2010PropOp38
 70
     1
102
RTVSPost2010Prop39
140
1.0
102
RTVSPost2010PropOp39
 70
     1
102
RTVSPost2010Prop40
 90
        0
102
RTVSPost2010PropOp40
 70
     1
102
RTVSPost2010Prop41ColorIndex
 90
       18
102
RTVSPost2010Prop41ColorRGB
 90
        0
102
RTVSPost2010PropOp41
 70
     1
102
RTVSPost2010Prop42
 90
       50
102
RTVSPost2010PropOp42
 70
     1
102
RTVSPost2010Prop43
 90
        3
102
RTVSPost2010PropOp43
 70
     1
102
RTVSPost2010Prop44ColorIndex
 90
        5
102
RTVSPost2010Prop44ColorRGB
 90
      255
102
RTVSPost2010PropOp44
 70
     1
102
RTVSPost2010Prop45
280
     0
102
RTVSPost2010PropOp45
 70
     1
102
RTVSPost2010Prop46
 90
       50
102
RTVSPost2010PropOp46
 70
     1
102
RTVSPost2010Prop47
 90
       50
102
RTVSPost2010PropOp47
 70
     1
102
RTVSPost2010Prop48
 90
       50
102
RTVSPost2010PropOp48
 70
     1
102
RTVSPost2010Prop49
280
     0
102
RTVSPost2010PropOp49
 70
     1
102
RTVSPost2010Prop50
 90
       50
102
RTVSPost2010PropOp50
 70
     1
102
RTVSPost2010Prop51ColorIndex
 90
      256
102
RTVSPost2010Prop51ColorRGB
 90
-16777216
102
RTVSPost2010PropOp51
 70
     0
102
RTVSPost2010Prop52
140
1.0
102
RTVSPost2010PropOp52
 70
     0
102
RTVSPost2010Prop53
 90
        2
102
RTVSPost2010PropOp53
 70
     1
102
RTVSPost2010Prop54
  1
strokes_ogs.tif
102
RTVSPost2010PropOp54
 70
     1
102
RTVSPost2010Prop55
280
     0
102
RTVSPost2010PropOp55
 70
     1
102
RTVSPost2010Prop56
140
1.0
102
RTVSPost2010PropOp56
 70
     1
102
RTVSPost2010Prop57
140
1.0
102
RTVSPost2010PropOp57
 70
     1
102
RTVSPropertyOp0
 70
     1
102
RTVSPropertyOp1
 70
     1
102
RTVSPropertyOp2
 70
     1
102
RTVSPropertyOp3
 70
     1
102
RTVSPropertyOp4
 70
     1
102
RTVSPropertyOp5
 70
     1
102
RTVSPropertyOp6
 70
     1
102
RTVSPropertyOp7
 70
     1
102
RTVSPropertyOp8
 70
     1
102
RTVSPropertyOp9
 70
     1
102
RTVSPropertyOp10
 70
     1
102
RTVSPropertyOp11
 70
     1
102
RTVSPropertyOp12
 70
     1
102
RTVSPropertyOp13
 70
     1
102
RTVSPropertyOp14
 70
     1
102
RTVSPropertyOp15
 70
     1
102
RTVSPropertyOp16
 70
     1
102
RTVSPropertyOp17
 70
     1
102
RTVSPropertyOp18
 70
     1
102
RTVSPropertyOp19
 70
     1
102
RTVSPropertyOp20
 70
     1
102
RTVSPropertyOp21
 70
     1
102
RTVSPropertyOp22
 70
     1
102
RTVSPropertyOp23
 70
     1
102
RTVSPropertyOp24
 70
     1
102
RTVSPropertyOp25
 70
     1
102
RTVSPropertyOp26
 70
     1
102
RTVSPropertyOp27
 70
     1
102
RTVSPropertyOp28
 70
     1
102
RTVSPropertyOp29
 70
     1
102
RTVSPropertyOp30
 70
     1
102
RTVSPropertyOp31
 70
     1
102
RTVSPropertyOp32
 70
     1
102
RTVSPropertyOp33
 70
     1
102
RTVSPropertyOp34
 70
     1
102
RTVSPropertyOp35
 70
     1
102
RTVSPropertyOp36
 70
     1
102
RTVSPropertyOp37
 70
     1
102
RTVSPropertyOp38
 70
     1
102
RTVSPropertyOp39
 70
     1
102
RTVSPropertyOp40
 70
     1
102
RTVSPropertyOp41
 70
     1
102
RTVSPropertyOp42
 70
     1
102
RTVSPropertyOp43
 70
     1
102
RTVSPropertyOp44
 70
     1
102
RTVSPropertyOp45
 70
     1
102
RTVSPropertyOp46
 70
     1
102
RTVSPropertyOp47
 70
     1
102
RTVSPropertyOp48
 70
     1
102
RTVSPropertyOp49
 70
     1
102
RTVSPropertyOp50
 70
     1
102
RTVSPropertyOp51
 70
     0
102
RTVSPropertyOp52
 70
     0
102
RTVSPropertyOp53
 70
     1
102
RTVSPropertyOp54
 70
     1
102
RTVSPropertyOp55
 70
     1
102
RTVSPropertyOp56
 70
     1
102
RTVSPropertyOp57
 70
     1
102
RTVSPropertyOp58
 70
     1
102
RTVSPropertyOp59
 70
     1
102
RTVSPropertyOp60
 70
     1
102
RTVSPropertyOp61
 70
     1
102
RTVSPropertyOp62
 70
     1
  0
XRECORD
  5
DB6
102
{ACAD_REACTORS
330
DB5
102
}
330
DB5
100
AcDbXrecord
280
     1
102
RTVSPost2010Prop28
280
     0
102
RTVSPost2010PropOp28
 70
     1
102
RTVSPost2010Prop29
280
     1
102
RTVSPost2010PropOp29
 70
     1
102
RTVSPost2010Prop30
280
     1
102
RTVSPost2010PropOp30
 70
     1
102
RTVSPost2010Prop31
280
     0
102
RTVSPost2010PropOp31
 70
     1
102
RTVSPost2010Prop32
280
     0
102
RTVSPost2010PropOp32
 70
     1
102
RTVSPost2010Prop33
280
     0
102
RTVSPost2010PropOp33
 70
     1
102
RTVSPost2010Prop34
280
     0
102
RTVSPost2010PropOp34
 70
     1
102
RTVSPost2010Prop35
280
     0
102
RTVSPost2010PropOp35
 70
     1
102
RTVSPost2010Prop36
280
     0
102
RTVSPost2010PropOp36
 70
     1
102
RTVSPost2010Prop37
 90
       50
102
RTVSPost2010PropOp37
 70
     0
102
RTVSPost2010Prop38
140
0.0
102
RTVSPost2010PropOp38
 70
     0
102
RTVSPost2010Prop39
140
1.0
102
RTVSPost2010PropOp39
 70
     0
102
RTVSPost2010Prop40
 90
        0
102
RTVSPost2010PropOp40
 70
     0
102
RTVSPost2010Prop41ColorIndex
 90
       18
102
RTVSPost2010Prop41ColorRGB
 90
        0
102
RTVSPost2010PropOp41
 70
     0
102
RTVSPost2010Prop42
 90
       50
102
RTVSPost2010PropOp42
 70
     0
102
RTVSPost2010Prop43
 90
        3
102
RTVSPost2010PropOp43
 70
     0
102
RTVSPost2010Prop44ColorIndex
 90
        5
102
RTVSPost2010Prop44ColorRGB
 90
      255
102
RTVSPost2010PropOp44
 70
     0
102
RTVSPost2010Prop45
280
     0
102
RTVSPost2010PropOp45
 70
     1
102
RTVSPost2010Prop46
 90
       50
102
RTVSPost2010PropOp46
 70
     0
102
RTVSPost2010Prop47
 90
       50
102
RTVSPost2010PropOp47
 70
     0
102
RTVSPost2010Prop48
 90
       50
102
RTVSPost2010PropOp48
 70
     0
102
RTVSPost2010Prop49
280
     0
102
RTVSPost2010PropOp49
 70
     1
102
RTVSPost2010Prop50
 90
       50
102
RTVSPost2010PropOp50
 70
     0
102
RTVSPost2010Prop51ColorIndex
 90
      256
102
RTVSPost2010Prop51ColorRGB
 90
-16777216
102
RTVSPost2010PropOp51
 70
     0
102
RTVSPost2010Prop52
140
1.0
102
RTVSPost2010PropOp52
 70
     0
102
RTVSPost2010Prop53
 90
        2
102
RTVSPost2010PropOp53
 70
     0
102
RTVSPost2010Prop54
  1
strokes_ogs.tif
102
RTVSPost2010PropOp54
 70
     0
102
RTVSPost2010Prop55
280
     0
102
RTVSPost2010PropOp55
 70
     1
102
RTVSPost2010Prop56
140
1.0
102
RTVSPost2010PropOp56
 70
     0
102
RTVSPost2010Prop57
140
1.0
102
RTVSPost2010PropOp57
 70
     0
102
RTVSPropertyOp0
 70
     0
102
RTVSPropertyOp1
 70
     0
102
RTVSPropertyOp2
 70
     0
102
RTVSPropertyOp3
 70
     0
102
RTVSPropertyOp4
 70
     0
102
RTVSPropertyOp5
 70
     0
102
RTVSPropertyOp6
 70
     0
102
RTVSPropertyOp7
 70
     0
102
RTVSPropertyOp8
 70
     0
102
RTVSPropertyOp9
 70
     0
102
RTVSPropertyOp10
 70
     0
102
RTVSPropertyOp11
 70
     0
102
RTVSPropertyOp12
 70
     0
102
RTVSPropertyOp13
 70
     0
102
RTVSPropertyOp14
 70
     2
102
RTVSPropertyOp15
 70
     0
102
RTVSPropertyOp16
 70
     0
102
RTVSPropertyOp17
 70
     0
102
RTVSPropertyOp18
 70
     0
102
RTVSPropertyOp19
 70
     0
102
RTVSPropertyOp20
 70
     0
102
RTVSPropertyOp21
 70
     0
102
RTVSPropertyOp22
 70
     0
102
RTVSPropertyOp23
 70
     0
102
RTVSPropertyOp24
 70
     0
102
RTVSPropertyOp25
 70
     0
102
RTVSPropertyOp26
 70
     0
102
RTVSPropertyOp27
 70
     0
102
RTVSPropertyOp28
 70
     1
102
RTVSPropertyOp29
 70
     1
102
RTVSPropertyOp30
 70
     1
102
RTVSPropertyOp31
 70
     1
102
RTVSPropertyOp32
 70
     1
102
RTVSPropertyOp33
 70
     1
102
RTVSPropertyOp34
 70
     1
102
RTVSPropertyOp35
 70
     1
102
RTVSPropertyOp36
 70
     1
102
RTVSPropertyOp37
 70
     0
102
RTVSPropertyOp38
 70
     0
102
RTVSPropertyOp39
 70
     0
102
RTVSPropertyOp40
 70
     0
102
RTVSPropertyOp41
 70
     0
102
RTVSPropertyOp42
 70
     0
102
RTVSPropertyOp43
 70
     0
102
RTVSPropertyOp44
 70
     0
102
RTVSPropertyOp45
 70
     1
102
RTVSPropertyOp46
 70
     0
102
RTVSPropertyOp47
 70
     0
102
RTVSPropertyOp48
 70
     0
102
RTVSPropertyOp49
 70
     1
102
RTVSPropertyOp50
 70
     0
102
RTVSPropertyOp51
 70
     0
102
RTVSPropertyOp52
 70
     0
102
RTVSPropertyOp53
 70
     0
102
RTVSPropertyOp54
 70
     0
102
RTVSPropertyOp55
 70
     1
102
RTVSPropertyOp56
 70
     0
102
RTVSPropertyOp57
 70
     0
102
RTVSPropertyOp58
 70
     0
102
RTVSPropertyOp59
 70
     0
102
RTVSPropertyOp60
 70
     0
102
RTVSPropertyOp61
 70
     0
102
RTVSPropertyOp62
 70
     0
  0
XRECORD
  5
D9C
102
{ACAD_REACTORS
330
D9B
102
}
330
D9B
100
AcDbXrecord
280
     1
102
RTVSPost2010Prop28
280
     0
102
RTVSPost2010PropOp28
 70
     1
102
RTVSPost2010Prop29
280
     1
102
RTVSPost2010PropOp29
 70
     1
102
RTVSPost2010Prop30
280
     1
102
RTVSPost2010PropOp30
 70
     1
102
RTVSPost2010Prop31
280
     0
102
RTVSPost2010PropOp31
 70
     1
102
RTVSPost2010Prop32
280
     0
102
RTVSPost2010PropOp32
 70
     1
102
RTVSPost2010Prop33
280
     0
102
RTVSPost2010PropOp33
 70
     1
102
RTVSPost2010Prop34
280
     0
102
RTVSPost2010PropOp34
 70
     1
102
RTVSPost2010Prop35
280
     0
102
RTVSPost2010PropOp35
 70
     1
102
RTVSPost2010Prop36
280
     0
102
RTVSPost2010PropOp36
 70
     1
102
RTVSPost2010Prop37
 90
       50
102
RTVSPost2010PropOp37
 70
     1
102
RTVSPost2010Prop38
140
0.0
102
RTVSPost2010PropOp38
 70
     1
102
RTVSPost2010Prop39
140
1.0
102
RTVSPost2010PropOp39
 70
     1
102
RTVSPost2010Prop40
 90
        0
102
RTVSPost2010PropOp40
 70
     1
102
RTVSPost2010Prop41ColorIndex
 90
       18
102
RTVSPost2010Prop41ColorRGB
 90
        0
102
RTVSPost2010PropOp41
 70
     1
102
RTVSPost2010Prop42
 90
       50
102
RTVSPost2010PropOp42
 70
     1
102
RTVSPost2010Prop43
 90
        3
102
RTVSPost2010PropOp43
 70
     1
102
RTVSPost2010Prop44ColorIndex
 90
        5
102
RTVSPost2010Prop44ColorRGB
 90
      255
102
RTVSPost2010PropOp44
 70
     1
102
RTVSPost2010Prop45
280
     0
102
RTVSPost2010PropOp45
 70
     1
102
RTVSPost2010Prop46
 90
       50
102
RTVSPost2010PropOp46
 70
     1
102
RTVSPost2010Prop47
 90
       50
102
RTVSPost2010PropOp47
 70
     1
102
RTVSPost2010Prop48
 90
       50
102
RTVSPost2010PropOp48
 70
     1
102
RTVSPost2010Prop49
280
     0
102
RTVSPost2010PropOp49
 70
     1
102
RTVSPost2010Prop50
 90
       50
102
RTVSPost2010PropOp50
 70
     1
102
RTVSPost2010Prop51ColorIndex
 90
      256
102
RTVSPost2010Prop51ColorRGB
 90
-16777216
102
RTVSPost2010PropOp51
 70
     0
102
RTVSPost2010Prop52
140
1.0
102
RTVSPost2010PropOp52
 70
     0
102
RTVSPost2010Prop53
 90
        2
102
RTVSPost2010PropOp53
 70
     1
102
RTVSPost2010Prop54
  1
strokes_ogs.tif
102
RTVSPost2010PropOp54
 70
     1
102
RTVSPost2010Prop55
280
     0
102
RTVSPost2010PropOp55
 70
     1
102
RTVSPost2010Prop56
140
1.0
102
RTVSPost2010PropOp56
 70
     1
102
RTVSPost2010Prop57
140
1.0
102
RTVSPost2010PropOp57
 70
     1
102
RTVSPropertyOp0
 70
     1
102
RTVSPropertyOp1
 70
     1
102
RTVSPropertyOp2
 70
     1
102
RTVSPropertyOp3
 70
     1
102
RTVSPropertyOp4
 70
     1
102
RTVSPropertyOp5
 70
     1
102
RTVSPropertyOp6
 70
     1
102
RTVSPropertyOp7
 70
     1
102
RTVSPropertyOp8
 70
     1
102
RTVSPropertyOp9
 70
     1
102
RTVSPropertyOp10
 70
     1
102
RTVSPropertyOp11
 70
     1
102
RTVSPropertyOp12
 70
     1
102
RTVSPropertyOp13
 70
     1
102
RTVSPropertyOp14
 70
     1
102
RTVSPropertyOp15
 70
     1
102
RTVSPropertyOp16
 70
     1
102
RTVSPropertyOp17
 70
     1
102
RTVSPropertyOp18
 70
     1
102
RTVSPropertyOp19
 70
     1
102
RTVSPropertyOp20
 70
     1
102
RTVSPropertyOp21
 70
     1
102
RTVSPropertyOp22
 70
     1
102
RTVSPropertyOp23
 70
     1
102
RTVSPropertyOp24
 70
     1
102
RTVSPropertyOp25
 70
     1
102
RTVSPropertyOp26
 70
     1
102
RTVSPropertyOp27
 70
     1
102
RTVSPropertyOp28
 70
     1
102
RTVSPropertyOp29
 70
     1
102
RTVSPropertyOp30
 70
     1
102
RTVSPropertyOp31
 70
     1
102
RTVSPropertyOp32
 70
     1
102
RTVSPropertyOp33
 70
     1
102
RTVSPropertyOp34
 70
     1
102
RTVSPropertyOp35
 70
     1
102
RTVSPropertyOp36
 70
     1
102
RTVSPropertyOp37
 70
     1
102
RTVSPropertyOp38
 70
     1
102
RTVSPropertyOp39
 70
     1
102
RTVSPropertyOp40
 70
     1
102
RTVSPropertyOp41
 70
     1
102
RTVSPropertyOp42
 70
     1
102
RTVSPropertyOp43
 70
     1
102
RTVSPropertyOp44
 70
     1
102
RTVSPropertyOp45
 70
     1
102
RTVSPropertyOp46
 70
     1
102
RTVSPropertyOp47
 70
     1
102
RTVSPropertyOp48
 70
     1
102
RTVSPropertyOp49
 70
     1
102
RTVSPropertyOp50
 70
     1
102
RTVSPropertyOp51
 70
     0
102
RTVSPropertyOp52
 70
     0
102
RTVSPropertyOp53
 70
     1
102
RTVSPropertyOp54
 70
     1
102
RTVSPropertyOp55
 70
     1
102
RTVSPropertyOp56
 70
     1
102
RTVSPropertyOp57
 70
     1
102
RTVSPropertyOp58
 70
     1
102
RTVSPropertyOp59
 70
     1
102
RTVSPropertyOp60
 70
     1
102
RTVSPropertyOp61
 70
     1
102
RTVSPropertyOp62
 70
     1
  0
XRECORD
  5
DB2
102
{ACAD_REACTORS
330
DB1
102
}
330
DB1
100
AcDbXrecord
280
     1
102
RTVSPost2010Prop28
280
     0
102
RTVSPost2010PropOp28
 70
     1
102
RTVSPost2010Prop29
280
     1
102
RTVSPost2010PropOp29
 70
     1
102
RTVSPost2010Prop30
280
     1
102
RTVSPost2010PropOp30
 70
     1
102
RTVSPost2010Prop31
280
     0
102
RTVSPost2010PropOp31
 70
     1
102
RTVSPost2010Prop32
280
     0
102
RTVSPost2010PropOp32
 70
     1
102
RTVSPost2010Prop33
280
     0
102
RTVSPost2010PropOp33
 70
     1
102
RTVSPost2010Prop34
280
     0
102
RTVSPost2010PropOp34
 70
     1
102
RTVSPost2010Prop35
280
     0
102
RTVSPost2010PropOp35
 70
     1
102
RTVSPost2010Prop36
280
     0
102
RTVSPost2010PropOp36
 70
     1
102
RTVSPost2010Prop37
 90
       50
102
RTVSPost2010PropOp37
 70
     1
102
RTVSPost2010Prop38
140
0.0
102
RTVSPost2010PropOp38
 70
     1
102
RTVSPost2010Prop39
140
1.0
102
RTVSPost2010PropOp39
 70
     1
102
RTVSPost2010Prop40
 90
        0
102
RTVSPost2010PropOp40
 70
     1
102
RTVSPost2010Prop41ColorIndex
 90
       18
102
RTVSPost2010Prop41ColorRGB
 90
        0
102
RTVSPost2010PropOp41
 70
     1
102
RTVSPost2010Prop42
 90
       50
102
RTVSPost2010PropOp42
 70
     1
102
RTVSPost2010Prop43
 90
        3
102
RTVSPost2010PropOp43
 70
     1
102
RTVSPost2010Prop44ColorIndex
 90
        5
102
RTVSPost2010Prop44ColorRGB
 90
      255
102
RTVSPost2010PropOp44
 70
     1
102
RTVSPost2010Prop45
280
     0
102
RTVSPost2010PropOp45
 70
     1
102
RTVSPost2010Prop46
 90
       50
102
RTVSPost2010PropOp46
 70
     1
102
RTVSPost2010Prop47
 90
       50
102
RTVSPost2010PropOp47
 70
     1
102
RTVSPost2010Prop48
 90
       50
102
RTVSPost2010PropOp48
 70
     1
102
RTVSPost2010Prop49
280
     0
102
RTVSPost2010PropOp49
 70
     1
102
RTVSPost2010Prop50
 90
       50
102
RTVSPost2010PropOp50
 70
     1
102
RTVSPost2010Prop51ColorIndex
 90
      256
102
RTVSPost2010Prop51ColorRGB
 90
-16777216
102
RTVSPost2010PropOp51
 70
     0
102
RTVSPost2010Prop52
140
1.0
102
RTVSPost2010PropOp52
 70
     0
102
RTVSPost2010Prop53
 90
        2
102
RTVSPost2010PropOp53
 70
     1
102
RTVSPost2010Prop54
  1
strokes_ogs.tif
102
RTVSPost2010PropOp54
 70
     1
102
RTVSPost2010Prop55
280
     0
102
RTVSPost2010PropOp55
 70
     1
102
RTVSPost2010Prop56
140
1.0
102
RTVSPost2010PropOp56
 70
     1
102
RTVSPost2010Prop57
140
1.0
102
RTVSPost2010PropOp57
 70
     1
102
RTVSPropertyOp0
 70
     1
102
RTVSPropertyOp1
 70
     1
102
RTVSPropertyOp2
 70
     1
102
RTVSPropertyOp3
 70
     1
102
RTVSPropertyOp4
 70
     1
102
RTVSPropertyOp5
 70
     1
102
RTVSPropertyOp6
 70
     1
102
RTVSPropertyOp7
 70
     1
102
RTVSPropertyOp8
 70
     1
102
RTVSPropertyOp9
 70
     1
102
RTVSPropertyOp10
 70
     1
102
RTVSPropertyOp11
 70
     1
102
RTVSPropertyOp12
 70
     1
102
RTVSPropertyOp13
 70
     1
102
RTVSPropertyOp14
 70
     1
102
RTVSPropertyOp15
 70
     1
102
RTVSPropertyOp16
 70
     1
102
RTVSPropertyOp17
 70
     1
102
RTVSPropertyOp18
 70
     1
102
RTVSPropertyOp19
 70
     1
102
RTVSPropertyOp20
 70
     1
102
RTVSPropertyOp21
 70
     1
102
RTVSPropertyOp22
 70
     1
102
RTVSPropertyOp23
 70
     1
102
RTVSPropertyOp24
 70
     1
102
RTVSPropertyOp25
 70
     1
102
RTVSPropertyOp26
 70
     1
102
RTVSPropertyOp27
 70
     1
102
RTVSPropertyOp28
 70
     1
102
RTVSPropertyOp29
 70
     1
102
RTVSPropertyOp30
 70
     1
102
RTVSPropertyOp31
 70
     1
102
RTVSPropertyOp32
 70
     1
102
RTVSPropertyOp33
 70
     1
102
RTVSPropertyOp34
 70
     1
102
RTVSPropertyOp35
 70
     1
102
RTVSPropertyOp36
 70
     1
102
RTVSPropertyOp37
 70
     1
102
RTVSPropertyOp38
 70
     1
102
RTVSPropertyOp39
 70
     1
102
RTVSPropertyOp40
 70
     1
102
RTVSPropertyOp41
 70
     1
102
RTVSPropertyOp42
 70
     1
102
RTVSPropertyOp43
 70
     1
102
RTVSPropertyOp44
 70
     1
102
RTVSPropertyOp45
 70
     1
102
RTVSPropertyOp46
 70
     1
102
RTVSPropertyOp47
 70
     1
102
RTVSPropertyOp48
 70
     1
102
RTVSPropertyOp49
 70
     1
102
RTVSPropertyOp50
 70
     1
102
RTVSPropertyOp51
 70
     0
102
RTVSPropertyOp52
 70
     0
102
RTVSPropertyOp53
 70
     1
102
RTVSPropertyOp54
 70
     1
102
RTVSPropertyOp55
 70
     1
102
RTVSPropertyOp56
 70
     1
102
RTVSPropertyOp57
 70
     1
102
RTVSPropertyOp58
 70
     1
102
RTVSPropertyOp59
 70
     1
102
RTVSPropertyOp60
 70
     1
102
RTVSPropertyOp61
 70
     1
102
RTVSPropertyOp62
 70
     1
  0
XRECORD
  5
DB0
102
{ACAD_REACTORS
330
DAF
102
}
330
DAF
100
AcDbXrecord
280
     1
102
RTVSPost2010Prop28
280
     0
102
RTVSPost2010PropOp28
 70
     1
102
RTVSPost2010Prop29
280
     1
102
RTVSPost2010PropOp29
 70
     1
102
RTVSPost2010Prop30
280
     1
102
RTVSPost2010PropOp30
 70
     1
102
RTVSPost2010Prop31
280
     0
102
RTVSPost2010PropOp31
 70
     1
102
RTVSPost2010Prop32
280
     0
102
RTVSPost2010PropOp32
 70
     1
102
RTVSPost2010Prop33
280
     0
102
RTVSPost2010PropOp33
 70
     1
102
RTVSPost2010Prop34
280
     0
102
RTVSPost2010PropOp34
 70
     1
102
RTVSPost2010Prop35
280
     0
102
RTVSPost2010PropOp35
 70
     1
102
RTVSPost2010Prop36
280
     0
102
RTVSPost2010PropOp36
 70
     1
102
RTVSPost2010Prop37
 90
       50
102
RTVSPost2010PropOp37
 70
     1
102
RTVSPost2010Prop38
140
0.0
102
RTVSPost2010PropOp38
 70
     1
102
RTVSPost2010Prop39
140
1.0
102
RTVSPost2010PropOp39
 70
     1
102
RTVSPost2010Prop40
 90
        0
102
RTVSPost2010PropOp40
 70
     1
102
RTVSPost2010Prop41ColorIndex
 90
       18
102
RTVSPost2010Prop41ColorRGB
 90
        0
102
RTVSPost2010PropOp41
 70
     1
102
RTVSPost2010Prop42
 90
       50
102
RTVSPost2010PropOp42
 70
     1
102
RTVSPost2010Prop43
 90
        3
102
RTVSPost2010PropOp43
 70
     1
102
RTVSPost2010Prop44ColorIndex
 90
        5
102
RTVSPost2010Prop44ColorRGB
 90
      255
102
RTVSPost2010PropOp44
 70
     1
102
RTVSPost2010Prop45
280
     0
102
RTVSPost2010PropOp45
 70
     1
102
RTVSPost2010Prop46
 90
       50
102
RTVSPost2010PropOp46
 70
     1
102
RTVSPost2010Prop47
 90
       50
102
RTVSPost2010PropOp47
 70
     1
102
RTVSPost2010Prop48
 90
       50
102
RTVSPost2010PropOp48
 70
     1
102
RTVSPost2010Prop49
280
     0
102
RTVSPost2010PropOp49
 70
     1
102
RTVSPost2010Prop50
 90
       50
102
RTVSPost2010PropOp50
 70
     1
102
RTVSPost2010Prop51ColorIndex
 90
      256
102
RTVSPost2010Prop51ColorRGB
 90
-16777216
102
RTVSPost2010PropOp51
 70
     0
102
RTVSPost2010Prop52
140
1.0
102
RTVSPost2010PropOp52
 70
     0
102
RTVSPost2010Prop53
 90
        2
102
RTVSPost2010PropOp53
 70
     1
102
RTVSPost2010Prop54
  1
strokes_ogs.tif
102
RTVSPost2010PropOp54
 70
     1
102
RTVSPost2010Prop55
280
     0
102
RTVSPost2010PropOp55
 70
     1
102
RTVSPost2010Prop56
140
1.0
102
RTVSPost2010PropOp56
 70
     1
102
RTVSPost2010Prop57
140
1.0
102
RTVSPost2010PropOp57
 70
     1
102
RTVSPropertyOp0
 70
     1
102
RTVSPropertyOp1
 70
     1
102
RTVSPropertyOp2
 70
     1
102
RTVSPropertyOp3
 70
     1
102
RTVSPropertyOp4
 70
     1
102
RTVSPropertyOp5
 70
     1
102
RTVSPropertyOp6
 70
     1
102
RTVSPropertyOp7
 70
     1
102
RTVSPropertyOp8
 70
     1
102
RTVSPropertyOp9
 70
     1
102
RTVSPropertyOp10
 70
     1
102
RTVSPropertyOp11
 70
     1
102
RTVSPropertyOp12
 70
     1
102
RTVSPropertyOp13
 70
     1
102
RTVSPropertyOp14
 70
     1
102
RTVSPropertyOp15
 70
     1
102
RTVSPropertyOp16
 70
     1
102
RTVSPropertyOp17
 70
     1
102
RTVSPropertyOp18
 70
     1
102
RTVSPropertyOp19
 70
     1
102
RTVSPropertyOp20
 70
     1
102
RTVSPropertyOp21
 70
     1
102
RTVSPropertyOp22
 70
     1
102
RTVSPropertyOp23
 70
     1
102
RTVSPropertyOp24
 70
     1
102
RTVSPropertyOp25
 70
     1
102
RTVSPropertyOp26
 70
     1
102
RTVSPropertyOp27
 70
     1
102
RTVSPropertyOp28
 70
     1
102
RTVSPropertyOp29
 70
     1
102
RTVSPropertyOp30
 70
     1
102
RTVSPropertyOp31
 70
     1
102
RTVSPropertyOp32
 70
     1
102
RTVSPropertyOp33
 70
     1
102
RTVSPropertyOp34
 70
     1
102
RTVSPropertyOp35
 70
     1
102
RTVSPropertyOp36
 70
     1
102
RTVSPropertyOp37
 70
     1
102
RTVSPropertyOp38
 70
     1
102
RTVSPropertyOp39
 70
     1
102
RTVSPropertyOp40
 70
     1
102
RTVSPropertyOp41
 70
     1
102
RTVSPropertyOp42
 70
     1
102
RTVSPropertyOp43
 70
     1
102
RTVSPropertyOp44
 70
     1
102
RTVSPropertyOp45
 70
     1
102
RTVSPropertyOp46
 70
     1
102
RTVSPropertyOp47
 70
     1
102
RTVSPropertyOp48
 70
     1
102
RTVSPropertyOp49
 70
     1
102
RTVSPropertyOp50
 70
     1
102
RTVSPropertyOp51
 70
     0
102
RTVSPropertyOp52
 70
     0
102
RTVSPropertyOp53
 70
     1
102
RTVSPropertyOp54
 70
     1
102
RTVSPropertyOp55
 70
     1
102
RTVSPropertyOp56
 70
     1
102
RTVSPropertyOp57
 70
     1
102
RTVSPropertyOp58
 70
     1
102
RTVSPropertyOp59
 70
     1
102
RTVSPropertyOp60
 70
     1
102
RTVSPropertyOp61
 70
     1
102
RTVSPropertyOp62
 70
     1
  0
XRECORD
  5
DAA
102
{ACAD_REACTORS
330
DA9
102
}
330
DA9
100
AcDbXrecord
280
     1
102
RTVSPost2010Prop28
280
     0
102
RTVSPost2010PropOp28
 70
     1
102
RTVSPost2010Prop29
280
     1
102
RTVSPost2010PropOp29
 70
     1
102
RTVSPost2010Prop30
280
     1
102
RTVSPost2010PropOp30
 70
     1
102
RTVSPost2010Prop31
280
     0
102
RTVSPost2010PropOp31
 70
     1
102
RTVSPost2010Prop32
280
     0
102
RTVSPost2010PropOp32
 70
     1
102
RTVSPost2010Prop33
280
     0
102
RTVSPost2010PropOp33
 70
     1
102
RTVSPost2010Prop34
280
     0
102
RTVSPost2010PropOp34
 70
     1
102
RTVSPost2010Prop35
280
     0
102
RTVSPost2010PropOp35
 70
     1
102
RTVSPost2010Prop36
280
     0
102
RTVSPost2010PropOp36
 70
     1
102
RTVSPost2010Prop37
 90
       50
102
RTVSPost2010PropOp37
 70
     1
102
RTVSPost2010Prop38
140
0.0
102
RTVSPost2010PropOp38
 70
     1
102
RTVSPost2010Prop39
140
1.0
102
RTVSPost2010PropOp39
 70
     1
102
RTVSPost2010Prop40
 90
        0
102
RTVSPost2010PropOp40
 70
     1
102
RTVSPost2010Prop41ColorIndex
 90
       18
102
RTVSPost2010Prop41ColorRGB
 90
        0
102
RTVSPost2010PropOp41
 70
     1
102
RTVSPost2010Prop42
 90
       50
102
RTVSPost2010PropOp42
 70
     1
102
RTVSPost2010Prop43
 90
        3
102
RTVSPost2010PropOp43
 70
     1
102
RTVSPost2010Prop44ColorIndex
 90
        5
102
RTVSPost2010Prop44ColorRGB
 90
      255
102
RTVSPost2010PropOp44
 70
     1
102
RTVSPost2010Prop45
280
     0
102
RTVSPost2010PropOp45
 70
     1
102
RTVSPost2010Prop46
 90
       50
102
RTVSPost2010PropOp46
 70
     1
102
RTVSPost2010Prop47
 90
       50
102
RTVSPost2010PropOp47
 70
     1
102
RTVSPost2010Prop48
 90
       50
102
RTVSPost2010PropOp48
 70
     1
102
RTVSPost2010Prop49
280
     0
102
RTVSPost2010PropOp49
 70
     1
102
RTVSPost2010Prop50
 90
       50
102
RTVSPost2010PropOp50
 70
     1
102
RTVSPost2010Prop51ColorIndex
 90
      256
102
RTVSPost2010Prop51ColorRGB
 90
-16777216
102
RTVSPost2010PropOp51
 70
     0
102
RTVSPost2010Prop52
140
1.0
102
RTVSPost2010PropOp52
 70
     0
102
RTVSPost2010Prop53
 90
        2
102
RTVSPost2010PropOp53
 70
     1
102
RTVSPost2010Prop54
  1
strokes_ogs.tif
102
RTVSPost2010PropOp54
 70
     1
102
RTVSPost2010Prop55
280
     0
102
RTVSPost2010PropOp55
 70
     1
102
RTVSPost2010Prop56
140
1.0
102
RTVSPost2010PropOp56
 70
     1
102
RTVSPost2010Prop57
140
1.0
102
RTVSPost2010PropOp57
 70
     1
102
RTVSPropertyOp0
 70
     1
102
RTVSPropertyOp1
 70
     1
102
RTVSPropertyOp2
 70
     1
102
RTVSPropertyOp3
 70
     1
102
RTVSPropertyOp4
 70
     1
102
RTVSPropertyOp5
 70
     1
102
RTVSPropertyOp6
 70
     1
102
RTVSPropertyOp7
 70
     1
102
RTVSPropertyOp8
 70
     1
102
RTVSPropertyOp9
 70
     1
102
RTVSPropertyOp10
 70
     1
102
RTVSPropertyOp11
 70
     1
102
RTVSPropertyOp12
 70
     1
102
RTVSPropertyOp13
 70
     1
102
RTVSPropertyOp14
 70
     1
102
RTVSPropertyOp15
 70
     1
102
RTVSPropertyOp16
 70
     1
102
RTVSPropertyOp17
 70
     1
102
RTVSPropertyOp18
 70
     1
102
RTVSPropertyOp19
 70
     1
102
RTVSPropertyOp20
 70
     1
102
RTVSPropertyOp21
 70
     1
102
RTVSPropertyOp22
 70
     1
102
RTVSPropertyOp23
 70
     1
102
RTVSPropertyOp24
 70
     1
102
RTVSPropertyOp25
 70
     1
102
RTVSPropertyOp26
 70
     1
102
RTVSPropertyOp27
 70
     1
102
RTVSPropertyOp28
 70
     1
102
RTVSPropertyOp29
 70
     1
102
RTVSPropertyOp30
 70
     1
102
RTVSPropertyOp31
 70
     1
102
RTVSPropertyOp32
 70
     1
102
RTVSPropertyOp33
 70
     1
102
RTVSPropertyOp34
 70
     1
102
RTVSPropertyOp35
 70
     1
102
RTVSPropertyOp36
 70
     1
102
RTVSPropertyOp37
 70
     1
102
RTVSPropertyOp38
 70
     1
102
RTVSPropertyOp39
 70
     1
102
RTVSPropertyOp40
 70
     1
102
RTVSPropertyOp41
 70
     1
102
RTVSPropertyOp42
 70
     1
102
RTVSPropertyOp43
 70
     1
102
RTVSPropertyOp44
 70
     1
102
RTVSPropertyOp45
 70
     1
102
RTVSPropertyOp46
 70
     1
102
RTVSPropertyOp47
 70
     1
102
RTVSPropertyOp48
 70
     1
102
RTVSPropertyOp49
 70
     1
102
RTVSPropertyOp50
 70
     1
102
RTVSPropertyOp51
 70
     0
102
RTVSPropertyOp52
 70
     0
102
RTVSPropertyOp53
 70
     1
102
RTVSPropertyOp54
 70
     1
102
RTVSPropertyOp55
 70
     1
102
RTVSPropertyOp56
 70
     1
102
RTVSPropertyOp57
 70
     1
102
RTVSPropertyOp58
 70
     1
102
RTVSPropertyOp59
 70
     1
102
RTVSPropertyOp60
 70
     1
102
RTVSPropertyOp61
 70
     1
102
RTVSPropertyOp62
 70
     1
  0
XRECORD
  5
DAC
102
{ACAD_REACTORS
330
DAB
102
}
330
DAB
100
AcDbXrecord
280
     1
102
RTVSPost2010Prop28
280
     0
102
RTVSPost2010PropOp28
 70
     1
102
RTVSPost2010Prop29
280
     1
102
RTVSPost2010PropOp29
 70
     1
102
RTVSPost2010Prop30
280
     1
102
RTVSPost2010PropOp30
 70
     1
102
RTVSPost2010Prop31
280
     0
102
RTVSPost2010PropOp31
 70
     1
102
RTVSPost2010Prop32
280
     0
102
RTVSPost2010PropOp32
 70
     1
102
RTVSPost2010Prop33
280
     0
102
RTVSPost2010PropOp33
 70
     1
102
RTVSPost2010Prop34
280
     0
102
RTVSPost2010PropOp34
 70
     1
102
RTVSPost2010Prop35
280
     0
102
RTVSPost2010PropOp35
 70
     1
102
RTVSPost2010Prop36
280
     0
102
RTVSPost2010PropOp36
 70
     1
102
RTVSPost2010Prop37
 90
       50
102
RTVSPost2010PropOp37
 70
     1
102
RTVSPost2010Prop38
140
0.0
102
RTVSPost2010PropOp38
 70
     1
102
RTVSPost2010Prop39
140
1.0
102
RTVSPost2010PropOp39
 70
     1
102
RTVSPost2010Prop40
 90
        0
102
RTVSPost2010PropOp40
 70
     1
102
RTVSPost2010Prop41ColorIndex
 90
       18
102
RTVSPost2010Prop41ColorRGB
 90
        0
102
RTVSPost2010PropOp41
 70
     1
102
RTVSPost2010Prop42
 90
       50
102
RTVSPost2010PropOp42
 70
     1
102
RTVSPost2010Prop43
 90
        3
102
RTVSPost2010PropOp43
 70
     1
102
RTVSPost2010Prop44ColorIndex
 90
        5
102
RTVSPost2010Prop44ColorRGB
 90
      255
102
RTVSPost2010PropOp44
 70
     1
102
RTVSPost2010Prop45
280
     0
102
RTVSPost2010PropOp45
 70
     1
102
RTVSPost2010Prop46
 90
       50
102
RTVSPost2010PropOp46
 70
     1
102
RTVSPost2010Prop47
 90
       50
102
RTVSPost2010PropOp47
 70
     1
102
RTVSPost2010Prop48
 90
       50
102
RTVSPost2010PropOp48
 70
     1
102
RTVSPost2010Prop49
280
     0
102
RTVSPost2010PropOp49
 70
     1
102
RTVSPost2010Prop50
 90
       50
102
RTVSPost2010PropOp50
 70
     1
102
RTVSPost2010Prop51ColorIndex
 90
      256
102
RTVSPost2010Prop51ColorRGB
 90
-16777216
102
RTVSPost2010PropOp51
 70
     0
102
RTVSPost2010Prop52
140
1.0
102
RTVSPost2010PropOp52
 70
     0
102
RTVSPost2010Prop53
 90
        2
102
RTVSPost2010PropOp53
 70
     1
102
RTVSPost2010Prop54
  1
strokes_ogs.tif
102
RTVSPost2010PropOp54
 70
     1
102
RTVSPost2010Prop55
280
     0
102
RTVSPost2010PropOp55
 70
     1
102
RTVSPost2010Prop56
140
1.0
102
RTVSPost2010PropOp56
 70
     1
102
RTVSPost2010Prop57
140
1.0
102
RTVSPost2010PropOp57
 70
     1
102
RTVSPropertyOp0
 70
     1
102
RTVSPropertyOp1
 70
     1
102
RTVSPropertyOp2
 70
     1
102
RTVSPropertyOp3
 70
     1
102
RTVSPropertyOp4
 70
     1
102
RTVSPropertyOp5
 70
     1
102
RTVSPropertyOp6
 70
     1
102
RTVSPropertyOp7
 70
     1
102
RTVSPropertyOp8
 70
     1
102
RTVSPropertyOp9
 70
     1
102
RTVSPropertyOp10
 70
     1
102
RTVSPropertyOp11
 70
     1
102
RTVSPropertyOp12
 70
     1
102
RTVSPropertyOp13
 70
     1
102
RTVSPropertyOp14
 70
     1
102
RTVSPropertyOp15
 70
     1
102
RTVSPropertyOp16
 70
     1
102
RTVSPropertyOp17
 70
     1
102
RTVSPropertyOp18
 70
     1
102
RTVSPropertyOp19
 70
     1
102
RTVSPropertyOp20
 70
     1
102
RTVSPropertyOp21
 70
     1
102
RTVSPropertyOp22
 70
     1
102
RTVSPropertyOp23
 70
     1
102
RTVSPropertyOp24
 70
     1
102
RTVSPropertyOp25
 70
     1
102
RTVSPropertyOp26
 70
     1
102
RTVSPropertyOp27
 70
     1
102
RTVSPropertyOp28
 70
     1
102
RTVSPropertyOp29
 70
     1
102
RTVSPropertyOp30
 70
     1
102
RTVSPropertyOp31
 70
     1
102
RTVSPropertyOp32
 70
     1
102
RTVSPropertyOp33
 70
     1
102
RTVSPropertyOp34
 70
     1
102
RTVSPropertyOp35
 70
     1
102
RTVSPropertyOp36
 70
     1
102
RTVSPropertyOp37
 70
     1
102
RTVSPropertyOp38
 70
     1
102
RTVSPropertyOp39
 70
     1
102
RTVSPropertyOp40
 70
     1
102
RTVSPropertyOp41
 70
     1
102
RTVSPropertyOp42
 70
     1
102
RTVSPropertyOp43
 70
     1
102
RTVSPropertyOp44
 70
     1
102
RTVSPropertyOp45
 70
     1
102
RTVSPropertyOp46
 70
     1
102
RTVSPropertyOp47
 70
     1
102
RTVSPropertyOp48
 70
     1
102
RTVSPropertyOp49
 70
     1
102
RTVSPropertyOp50
 70
     1
102
RTVSPropertyOp51
 70
     0
102
RTVSPropertyOp52
 70
     0
102
RTVSPropertyOp53
 70
     1
102
RTVSPropertyOp54
 70
     1
102
RTVSPropertyOp55
 70
     1
102
RTVSPropertyOp56
 70
     1
102
RTVSPropertyOp57
 70
     1
102
RTVSPropertyOp58
 70
     1
102
RTVSPropertyOp59
 70
     1
102
RTVSPropertyOp60
 70
     1
102
RTVSPropertyOp61
 70
     1
102
RTVSPropertyOp62
 70
     1
  0
XRECORD
  5
DA2
102
{ACAD_REACTORS
330
DA1
102
}
330
DA1
100
AcDbXrecord
280
     1
102
RTVSPost2010Prop28
280
     0
102
RTVSPost2010PropOp28
 70
     1
102
RTVSPost2010Prop29
280
     1
102
RTVSPost2010PropOp29
 70
     1
102
RTVSPost2010Prop30
280
     1
102
RTVSPost2010PropOp30
 70
     1
102
RTVSPost2010Prop31
280
     0
102
RTVSPost2010PropOp31
 70
     1
102
RTVSPost2010Prop32
280
     0
102
RTVSPost2010PropOp32
 70
     1
102
RTVSPost2010Prop33
280
     0
102
RTVSPost2010PropOp33
 70
     1
102
RTVSPost2010Prop34
280
     0
102
RTVSPost2010PropOp34
 70
     1
102
RTVSPost2010Prop35
280
     0
102
RTVSPost2010PropOp35
 70
     1
102
RTVSPost2010Prop36
280
     0
102
RTVSPost2010PropOp36
 70
     1
102
RTVSPost2010Prop37
 90
       50
102
RTVSPost2010PropOp37
 70
     1
102
RTVSPost2010Prop38
140
0.0
102
RTVSPost2010PropOp38
 70
     1
102
RTVSPost2010Prop39
140
1.0
102
RTVSPost2010PropOp39
 70
     1
102
RTVSPost2010Prop40
 90
        0
102
RTVSPost2010PropOp40
 70
     1
102
RTVSPost2010Prop41ColorIndex
 90
       18
102
RTVSPost2010Prop41ColorRGB
 90
        0
102
RTVSPost2010PropOp41
 70
     1
102
RTVSPost2010Prop42
 90
       50
102
RTVSPost2010PropOp42
 70
     1
102
RTVSPost2010Prop43
 90
        3
102
RTVSPost2010PropOp43
 70
     1
102
RTVSPost2010Prop44ColorIndex
 90
        5
102
RTVSPost2010Prop44ColorRGB
 90
      255
102
RTVSPost2010PropOp44
 70
     1
102
RTVSPost2010Prop45
280
     0
102
RTVSPost2010PropOp45
 70
     1
102
RTVSPost2010Prop46
 90
       50
102
RTVSPost2010PropOp46
 70
     1
102
RTVSPost2010Prop47
 90
       50
102
RTVSPost2010PropOp47
 70
     1
102
RTVSPost2010Prop48
 90
       50
102
RTVSPost2010PropOp48
 70
     1
102
RTVSPost2010Prop49
280
     0
102
RTVSPost2010PropOp49
 70
     1
102
RTVSPost2010Prop50
 90
       50
102
RTVSPost2010PropOp50
 70
     1
102
RTVSPost2010Prop51ColorIndex
 90
      256
102
RTVSPost2010Prop51ColorRGB
 90
-16777216
102
RTVSPost2010PropOp51
 70
     0
102
RTVSPost2010Prop52
140
1.0
102
RTVSPost2010PropOp52
 70
     0
102
RTVSPost2010Prop53
 90
        2
102
RTVSPost2010PropOp53
 70
     1
102
RTVSPost2010Prop54
  1
strokes_ogs.tif
102
RTVSPost2010PropOp54
 70
     1
102
RTVSPost2010Prop55
280
     0
102
RTVSPost2010PropOp55
 70
     1
102
RTVSPost2010Prop56
140
1.0
102
RTVSPost2010PropOp56
 70
     1
102
RTVSPost2010Prop57
140
1.0
102
RTVSPost2010PropOp57
 70
     1
102
RTVSPropertyOp0
 70
     1
102
RTVSPropertyOp1
 70
     1
102
RTVSPropertyOp2
 70
     1
102
RTVSPropertyOp3
 70
     1
102
RTVSPropertyOp4
 70
     1
102
RTVSPropertyOp5
 70
     1
102
RTVSPropertyOp6
 70
     1
102
RTVSPropertyOp7
 70
     1
102
RTVSPropertyOp8
 70
     1
102
RTVSPropertyOp9
 70
     1
102
RTVSPropertyOp10
 70
     1
102
RTVSPropertyOp11
 70
     1
102
RTVSPropertyOp12
 70
     1
102
RTVSPropertyOp13
 70
     1
102
RTVSPropertyOp14
 70
     1
102
RTVSPropertyOp15
 70
     1
102
RTVSPropertyOp16
 70
     1
102
RTVSPropertyOp17
 70
     1
102
RTVSPropertyOp18
 70
     1
102
RTVSPropertyOp19
 70
     1
102
RTVSPropertyOp20
 70
     1
102
RTVSPropertyOp21
 70
     1
102
RTVSPropertyOp22
 70
     1
102
RTVSPropertyOp23
 70
     1
102
RTVSPropertyOp24
 70
     1
102
RTVSPropertyOp25
 70
     1
102
RTVSPropertyOp26
 70
     1
102
RTVSPropertyOp27
 70
     1
102
RTVSPropertyOp28
 70
     1
102
RTVSPropertyOp29
 70
     1
102
RTVSPropertyOp30
 70
     1
102
RTVSPropertyOp31
 70
     1
102
RTVSPropertyOp32
 70
     1
102
RTVSPropertyOp33
 70
     1
102
RTVSPropertyOp34
 70
     1
102
RTVSPropertyOp35
 70
     1
102
RTVSPropertyOp36
 70
     1
102
RTVSPropertyOp37
 70
     1
102
RTVSPropertyOp38
 70
     1
102
RTVSPropertyOp39
 70
     1
102
RTVSPropertyOp40
 70
     1
102
RTVSPropertyOp41
 70
     1
102
RTVSPropertyOp42
 70
     1
102
RTVSPropertyOp43
 70
     1
102
RTVSPropertyOp44
 70
     1
102
RTVSPropertyOp45
 70
     1
102
RTVSPropertyOp46
 70
     1
102
RTVSPropertyOp47
 70
     1
102
RTVSPropertyOp48
 70
     1
102
RTVSPropertyOp49
 70
     1
102
RTVSPropertyOp50
 70
     1
102
RTVSPropertyOp51
 70
     0
102
RTVSPropertyOp52
 70
     0
102
RTVSPropertyOp53
 70
     1
102
RTVSPropertyOp54
 70
     1
102
RTVSPropertyOp55
 70
     1
102
RTVSPropertyOp56
 70
     1
102
RTVSPropertyOp57
 70
     1
102
RTVSPropertyOp58
 70
     1
102
RTVSPropertyOp59
 70
     1
102
RTVSPropertyOp60
 70
     1
102
RTVSPropertyOp61
 70
     1
102
RTVSPropertyOp62
 70
     1
  0
XRECORD
  5
D96
102
{ACAD_REACTORS
330
D95
102
}
330
D95
100
AcDbXrecord
280
     1
102
RTVSPost2010Prop28
280
     0
102
RTVSPost2010PropOp28
 70
     1
102
RTVSPost2010Prop29
280
     1
102
RTVSPost2010PropOp29
 70
     1
102
RTVSPost2010Prop30
280
     1
102
RTVSPost2010PropOp30
 70
     1
102
RTVSPost2010Prop31
280
     0
102
RTVSPost2010PropOp31
 70
     1
102
RTVSPost2010Prop32
280
     0
102
RTVSPost2010PropOp32
 70
     1
102
RTVSPost2010Prop33
280
     0
102
RTVSPost2010PropOp33
 70
     1
102
RTVSPost2010Prop34
280
     0
102
RTVSPost2010PropOp34
 70
     1
102
RTVSPost2010Prop35
280
     0
102
RTVSPost2010PropOp35
 70
     1
102
RTVSPost2010Prop36
280
     0
102
RTVSPost2010PropOp36
 70
     1
102
RTVSPost2010Prop37
 90
       50
102
RTVSPost2010PropOp37
 70
     1
102
RTVSPost2010Prop38
140
0.0
102
RTVSPost2010PropOp38
 70
     1
102
RTVSPost2010Prop39
140
1.0
102
RTVSPost2010PropOp39
 70
     1
102
RTVSPost2010Prop40
 90
        0
102
RTVSPost2010PropOp40
 70
     1
102
RTVSPost2010Prop41ColorIndex
 90
       18
102
RTVSPost2010Prop41ColorRGB
 90
        0
102
RTVSPost2010PropOp41
 70
     1
102
RTVSPost2010Prop42
 90
       50
102
RTVSPost2010PropOp42
 70
     1
102
RTVSPost2010Prop43
 90
        3
102
RTVSPost2010PropOp43
 70
     1
102
RTVSPost2010Prop44ColorIndex
 90
        5
102
RTVSPost2010Prop44ColorRGB
 90
      255
102
RTVSPost2010PropOp44
 70
     1
102
RTVSPost2010Prop45
280
     0
102
RTVSPost2010PropOp45
 70
     1
102
RTVSPost2010Prop46
 90
       50
102
RTVSPost2010PropOp46
 70
     1
102
RTVSPost2010Prop47
 90
       50
102
RTVSPost2010PropOp47
 70
     1
102
RTVSPost2010Prop48
 90
       50
102
RTVSPost2010PropOp48
 70
     1
102
RTVSPost2010Prop49
280
     0
102
RTVSPost2010PropOp49
 70
     1
102
RTVSPost2010Prop50
 90
       50
102
RTVSPost2010PropOp50
 70
     1
102
RTVSPost2010Prop51ColorIndex
 90
      256
102
RTVSPost2010Prop51ColorRGB
 90
-16777216
102
RTVSPost2010PropOp51
 70
     0
102
RTVSPost2010Prop52
140
1.0
102
RTVSPost2010PropOp52
 70
     0
102
RTVSPost2010Prop53
 90
        2
102
RTVSPost2010PropOp53
 70
     1
102
RTVSPost2010Prop54
  1
strokes_ogs.tif
102
RTVSPost2010PropOp54
 70
     1
102
RTVSPost2010Prop55
280
     0
102
RTVSPost2010PropOp55
 70
     1
102
RTVSPost2010Prop56
140
1.0
102
RTVSPost2010PropOp56
 70
     1
102
RTVSPost2010Prop57
140
1.0
102
RTVSPost2010PropOp57
 70
     1
102
RTVSPropertyOp0
 70
     1
102
RTVSPropertyOp1
 70
     1
102
RTVSPropertyOp2
 70
     1
102
RTVSPropertyOp3
 70
     1
102
RTVSPropertyOp4
 70
     1
102
RTVSPropertyOp5
 70
     1
102
RTVSPropertyOp6
 70
     1
102
RTVSPropertyOp7
 70
     1
102
RTVSPropertyOp8
 70
     1
102
RTVSPropertyOp9
 70
     1
102
RTVSPropertyOp10
 70
     1
102
RTVSPropertyOp11
 70
     1
102
RTVSPropertyOp12
 70
     1
102
RTVSPropertyOp13
 70
     1
102
RTVSPropertyOp14
 70
     1
102
RTVSPropertyOp15
 70
     1
102
RTVSPropertyOp16
 70
     1
102
RTVSPropertyOp17
 70
     1
102
RTVSPropertyOp18
 70
     1
102
RTVSPropertyOp19
 70
     1
102
RTVSPropertyOp20
 70
     1
102
RTVSPropertyOp21
 70
     1
102
RTVSPropertyOp22
 70
     1
102
RTVSPropertyOp23
 70
     1
102
RTVSPropertyOp24
 70
     1
102
RTVSPropertyOp25
 70
     1
102
RTVSPropertyOp26
 70
     1
102
RTVSPropertyOp27
 70
     1
102
RTVSPropertyOp28
 70
     1
102
RTVSPropertyOp29
 70
     1
102
RTVSPropertyOp30
 70
     1
102
RTVSPropertyOp31
 70
     1
102
RTVSPropertyOp32
 70
     1
102
RTVSPropertyOp33
 70
     1
102
RTVSPropertyOp34
 70
     1
102
RTVSPropertyOp35
 70
     1
102
RTVSPropertyOp36
 70
     1
102
RTVSPropertyOp37
 70
     1
102
RTVSPropertyOp38
 70
     1
102
RTVSPropertyOp39
 70
     1
102
RTVSPropertyOp40
 70
     1
102
RTVSPropertyOp41
 70
     1
102
RTVSPropertyOp42
 70
     1
102
RTVSPropertyOp43
 70
     1
102
RTVSPropertyOp44
 70
     1
102
RTVSPropertyOp45
 70
     1
102
RTVSPropertyOp46
 70
     1
102
RTVSPropertyOp47
 70
     1
102
RTVSPropertyOp48
 70
     1
102
RTVSPropertyOp49
 70
     1
102
RTVSPropertyOp50
 70
     1
102
RTVSPropertyOp51
 70
     0
102
RTVSPropertyOp52
 70
     0
102
RTVSPropertyOp53
 70
     1
102
RTVSPropertyOp54
 70
     1
102
RTVSPropertyOp55
 70
     1
102
RTVSPropertyOp56
 70
     1
102
RTVSPropertyOp57
 70
     1
102
RTVSPropertyOp58
 70
     1
102
RTVSPropertyOp59
 70
     1
102
RTVSPropertyOp60
 70
     1
102
RTVSPropertyOp61
 70
     1
102
RTVSPropertyOp62
 70
     1
  0
XRECORD
  5
DAE
102
{ACAD_REACTORS
330
DAD
102
}
330
DAD
100
AcDbXrecord
280
     1
102
RTVSPost2010Prop28
280
     0
102
RTVSPost2010PropOp28
 70
     1
102
RTVSPost2010Prop29
280
     1
102
RTVSPost2010PropOp29
 70
     1
102
RTVSPost2010Prop30
280
     1
102
RTVSPost2010PropOp30
 70
     1
102
RTVSPost2010Prop31
280
     0
102
RTVSPost2010PropOp31
 70
     1
102
RTVSPost2010Prop32
280
     0
102
RTVSPost2010PropOp32
 70
     1
102
RTVSPost2010Prop33
280
     0
102
RTVSPost2010PropOp33
 70
     1
102
RTVSPost2010Prop34
280
     0
102
RTVSPost2010PropOp34
 70
     1
102
RTVSPost2010Prop35
280
     0
102
RTVSPost2010PropOp35
 70
     1
102
RTVSPost2010Prop36
280
     0
102
RTVSPost2010PropOp36
 70
     1
102
RTVSPost2010Prop37
 90
       50
102
RTVSPost2010PropOp37
 70
     1
102
RTVSPost2010Prop38
140
0.0
102
RTVSPost2010PropOp38
 70
     1
102
RTVSPost2010Prop39
140
1.0
102
RTVSPost2010PropOp39
 70
     1
102
RTVSPost2010Prop40
 90
        0
102
RTVSPost2010PropOp40
 70
     1
102
RTVSPost2010Prop41ColorIndex
 90
       18
102
RTVSPost2010Prop41ColorRGB
 90
        0
102
RTVSPost2010PropOp41
 70
     1
102
RTVSPost2010Prop42
 90
       50
102
RTVSPost2010PropOp42
 70
     1
102
RTVSPost2010Prop43
 90
        3
102
RTVSPost2010PropOp43
 70
     1
102
RTVSPost2010Prop44ColorIndex
 90
        5
102
RTVSPost2010Prop44ColorRGB
 90
      255
102
RTVSPost2010PropOp44
 70
     1
102
RTVSPost2010Prop45
280
     0
102
RTVSPost2010PropOp45
 70
     1
102
RTVSPost2010Prop46
 90
       50
102
RTVSPost2010PropOp46
 70
     1
102
RTVSPost2010Prop47
 90
       50
102
RTVSPost2010PropOp47
 70
     1
102
RTVSPost2010Prop48
 90
       50
102
RTVSPost2010PropOp48
 70
     1
102
RTVSPost2010Prop49
280
     0
102
RTVSPost2010PropOp49
 70
     1
102
RTVSPost2010Prop50
 90
       50
102
RTVSPost2010PropOp50
 70
     1
102
RTVSPost2010Prop51ColorIndex
 90
      256
102
RTVSPost2010Prop51ColorRGB
 90
-16777216
102
RTVSPost2010PropOp51
 70
     0
102
RTVSPost2010Prop52
140
1.0
102
RTVSPost2010PropOp52
 70
     0
102
RTVSPost2010Prop53
 90
        2
102
RTVSPost2010PropOp53
 70
     1
102
RTVSPost2010Prop54
  1
strokes_ogs.tif
102
RTVSPost2010PropOp54
 70
     1
102
RTVSPost2010Prop55
280
     0
102
RTVSPost2010PropOp55
 70
     1
102
RTVSPost2010Prop56
140
1.0
102
RTVSPost2010PropOp56
 70
     1
102
RTVSPost2010Prop57
140
1.0
102
RTVSPost2010PropOp57
 70
     1
102
RTVSPropertyOp0
 70
     1
102
RTVSPropertyOp1
 70
     1
102
RTVSPropertyOp2
 70
     1
102
RTVSPropertyOp3
 70
     1
102
RTVSPropertyOp4
 70
     1
102
RTVSPropertyOp5
 70
     1
102
RTVSPropertyOp6
 70
     1
102
RTVSPropertyOp7
 70
     1
102
RTVSPropertyOp8
 70
     1
102
RTVSPropertyOp9
 70
     1
102
RTVSPropertyOp10
 70
     1
102
RTVSPropertyOp11
 70
     1
102
RTVSPropertyOp12
 70
     1
102
RTVSPropertyOp13
 70
     1
102
RTVSPropertyOp14
 70
     1
102
RTVSPropertyOp15
 70
     1
102
RTVSPropertyOp16
 70
     1
102
RTVSPropertyOp17
 70
     1
102
RTVSPropertyOp18
 70
     1
102
RTVSPropertyOp19
 70
     1
102
RTVSPropertyOp20
 70
     1
102
RTVSPropertyOp21
 70
     1
102
RTVSPropertyOp22
 70
     1
102
RTVSPropertyOp23
 70
     1
102
RTVSPropertyOp24
 70
     1
102
RTVSPropertyOp25
 70
     1
102
RTVSPropertyOp26
 70
     1
102
RTVSPropertyOp27
 70
     1
102
RTVSPropertyOp28
 70
     1
102
RTVSPropertyOp29
 70
     1
102
RTVSPropertyOp30
 70
     1
102
RTVSPropertyOp31
 70
     1
102
RTVSPropertyOp32
 70
     1
102
RTVSPropertyOp33
 70
     1
102
RTVSPropertyOp34
 70
     1
102
RTVSPropertyOp35
 70
     1
102
RTVSPropertyOp36
 70
     1
102
RTVSPropertyOp37
 70
     1
102
RTVSPropertyOp38
 70
     1
102
RTVSPropertyOp39
 70
     1
102
RTVSPropertyOp40
 70
     1
102
RTVSPropertyOp41
 70
     1
102
RTVSPropertyOp42
 70
     1
102
RTVSPropertyOp43
 70
     1
102
RTVSPropertyOp44
 70
     1
102
RTVSPropertyOp45
 70
     1
102
RTVSPropertyOp46
 70
     1
102
RTVSPropertyOp47
 70
     1
102
RTVSPropertyOp48
 70
     1
102
RTVSPropertyOp49
 70
     1
102
RTVSPropertyOp50
 70
     1
102
RTVSPropertyOp51
 70
     0
102
RTVSPropertyOp52
 70
     0
102
RTVSPropertyOp53
 70
     1
102
RTVSPropertyOp54
 70
     1
102
RTVSPropertyOp55
 70
     1
102
RTVSPropertyOp56
 70
     1
102
RTVSPropertyOp57
 70
     1
102
RTVSPropertyOp58
 70
     1
102
RTVSPropertyOp59
 70
     1
102
RTVSPropertyOp60
 70
     1
102
RTVSPropertyOp61
 70
     1
102
RTVSPropertyOp62
 70
     1
  0
ENDSEC
  0
EOF
