  0
SECTION
  2
HEADER
  9
$ACADVER
  1
AC1015
  9
$ACADMAINTVER
 70
    20
  9
$DWGCODEPAGE
  3
ANSI_932
  9
$INSBASE
 10
0.0
 20
0.0
 30
0.0
  9
$EXTMIN
 10
9.99995
 20
9.999999999999998
 30
0.0
  9
$EXTMAX
 10
337.279329
 20
329.047546
 30
0.0
  9
$LIMMIN
 10
0.0
 20
0.0
  9
$LIMMAX
 10
495.0
 20
341.25
  9
$ORTHOMODE
 70
     1
  9
$REGENMODE
 70
     1
  9
$FILLMODE
 70
     1
  9
$QTEXTMODE
 70
     0
  9
$MIRRTEXT
 70
     1
  9
$LTSCALE
 40
20.0
  9
$ATTMODE
 70
     1
  9
$TEXTSIZE
 40
5.0
  9
$TRACEWID
 40
1.0
  9
$TEXTSTYLE
  7
STANDARD
  9
$CLAYER
  8
0
  9
$CELTYPE
  6
BYLAYER
  9
$CECOLOR
 62
   256
  9
$CELTSCALE
 40
1.0
  9
$DISPSILH
 70
     0
  9
$DIMSCALE
 40
1.0
  9
$DIMASZ
 40
3.0
  9
$DIMEXO
 40
1.0
  9
$DIMDLI
 40
10.0
  9
$DIMRND
 40
0.0
  9
$DIMDLE
 40
0.0
  9
$DIMEXE
 40
1.0
  9
$DIMTP
 40
0.0
  9
$DIMTM
 40
0.0
  9
$DIMTXT
 40
3.2
  9
$DIMCEN
 40
0.0
  9
$DIMTSZ
 40
0.0
  9
$DIMTOL
 70
     0
  9
$DIMLIM
 70
     0
  9
$DIMTIH
 70
     0
  9
$DIMTOH
 70
     0
  9
$DIMSE1
 70
     0
  9
$DIMSE2
 70
     0
  9
$DIMTAD
 70
     3
  9
$DIMZIN
 70
     8
  9
$DIMBLK
  1

  9
$DIMASO
 70
     1
  9
$DIMSHO
 70
     1
  9
$DIMPOST
  1

  9
$DIMAPOST
  1

  9
$DIMALT
 70
     0
  9
$DIMALTD
 70
     2
  9
$DIMALTF
 40
25.4
  9
$DIMLFAC
 40
1.0
  9
$DIMTOFL
 70
     1
  9
$DIMTVP
 40
0.0
  9
$DIMTIX
 70
     0
  9
$DIMSOXD
 70
     0
  9
$DIMSAH
 70
     1
  9
$DIMBLK1
  1

  9
$DIMBLK2
  1

  9
$DIMSTYLE
  2
STANDARD
  9
$DIMCLRD
 70
     0
  9
$DIMCLRE
 70
     0
  9
$DIMCLRT
 70
     0
  9
$DIMTFAC
 40
1.0
  9
$DIMGAP
 40
1.0
  9
$DIMJUST
 70
     0
  9
$DIMSD1
 70
     0
  9
$DIMSD2
 70
     0
  9
$DIMTOLJ
 70
     1
  9
$DIMTZIN
 70
     0
  9
$DIMALTZ
 70
     0
  9
$DIMALTTZ
 70
     0
  9
$DIMUPT
 70
     0
  9
$DIMDEC
 70
     4
  9
$DIMTDEC
 70
     4
  9
$DIMALTU
 70
     2
  9
$DIMALTTD
 70
     2
  9
$DIMTXSTY
  7
STANDARD
  9
$DIMAUNIT
 70
     0
  9
$DIMADEC
 70
     0
  9
$DIMALTRND
 40
0.0
  9
$DIMAZIN
 70
     0
  9
$DIMDSEP
 70
    46
  9
$DIMATFIT
 70
     3
  9
$DIMFRAC
 70
     0
  9
$DIMLDRBLK
  1

  9
$DIMLUNIT
 70
     2
  9
$DIMLWD
 70
    -2
  9
$DIMLWE
 70
    -2
  9
$DIMTMOVE
 70
     0
  9
$LUNITS
 70
     2
  9
$LUPREC
 70
     4
  9
$SKETCHINC
 40
1.0
  9
$FILLETRAD
 40
2.5
  9
$AUNITS
 70
     0
  9
$AUPREC
 70
     2
  9
$MENU
  1
.
  9
$ELEVATION
 40
0.0
  9
$PELEVATION
 40
0.0
  9
$THICKNESS
 40
0.0
  9
$LIMCHECK
 70
     0
  9
$CHAMFERA
 40
10.0
  9
$CHAMFERB
 40
10.0
  9
$CHAMFERC
 40
0.0
  9
$CHAMFERD
 40
0.0
  9
$SKPOLY
 70
     0
  9
$TDCREATE
 40
2451073.575040625
  9
$TDUCREATE
 40
2451073.200040625
  9
$TDUPDATE
 40
2457192.622579861
  9
$TDUUPDATE
 40
2457192.247579861
  9
$TDINDWG
 40
0.0000141435
  9
$TDUSRTIMER
 40
0.0000138194
  9
$USRTIMER
 70
     1
  9
$ANGBASE
 50
0.0
  9
$ANGDIR
 70
     0
  9
$PDMODE
 70
     0
  9
$PDSIZE
 40
0.0
  9
$PLINEWID
 40
0.0
  9
$SPLFRAME
 70
     0
  9
$SPLINETYPE
 70
     6
  9
$SPLINESEGS
 70
     8
  9
$HANDSEED
  5
9E92
  9
$SURFTAB1
 70
     6
  9
$SURFTAB2
 70
     6
  9
$SURFTYPE
 70
     6
  9
$SURFU
 70
     6
  9
$SURFV
 70
     6
  9
$UCSBASE
  2

  9
$UCSNAME
  2

  9
$UCSORG
 10
0.0
 20
0.0
 30
0.0
  9
$UCSXDIR
 10
1.0
 20
0.0
 30
0.0
  9
$UCSYDIR
 10
0.0
 20
1.0
 30
0.0
  9
$UCSORTHOREF
  2

  9
$UCSORTHOVIEW
 70
     0
  9
$UCSORGTOP
 10
0.0
 20
0.0
 30
0.0
  9
$UCSORGBOTTOM
 10
0.0
 20
0.0
 30
0.0
  9
$UCSORGLEFT
 10
0.0
 20
0.0
 30
0.0
  9
$UCSORGRIGHT
 10
0.0
 20
0.0
 30
0.0
  9
$UCSORGFRONT
 10
0.0
 20
0.0
 30
0.0
  9
$UCSORGBACK
 10
0.0
 20
0.0
 30
0.0
  9
$PUCSBASE
  2

  9
$PUCSNAME
  2

  9
$PUCSORG
 10
0.0
 20
0.0
 30
0.0
  9
$PUCSXDIR
 10
1.0
 20
0.0
 30
0.0
  9
$PUCSYDIR
 10
0.0
 20
1.0
 30
0.0
  9
$PUCSORTHOREF
  2

  9
$PUCSORTHOVIEW
 70
     0
  9
$PUCSORGTOP
 10
0.0
 20
0.0
 30
0.0
  9
$PUCSORGBOTTOM
 10
0.0
 20
0.0
 30
0.0
  9
$PUCSORGLEFT
 10
0.0
 20
0.0
 30
0.0
  9
$PUCSORGRIGHT
 10
0.0
 20
0.0
 30
0.0
  9
$PUCSORGFRONT
 10
0.0
 20
0.0
 30
0.0
  9
$PUCSORGBACK
 10
0.0
 20
0.0
 30
0.0
  9
$USERI1
 70
     0
  9
$USERI2
 70
     0
  9
$USERI3
 70
     0
  9
$USERI4
 70
     0
  9
$USERI5
 70
     0
  9
$USERR1
 40
0.0
  9
$USERR2
 40
0.0
  9
$USERR3
 40
0.0
  9
$USERR4
 40
0.0
  9
$USERR5
 40
0.0
  9
$WORLDVIEW
 70
     1
  9
$SHADEDGE
 70
     3
  9
$SHADEDIF
 70
    70
  9
$TILEMODE
 70
     1
  9
$MAXACTVP
 70
    16
  9
$PINSBASE
 10
0.0
 20
0.0
 30
0.0
  9
$PLIMCHECK
 70
     0
  9
$PEXTMIN
 10
1.000000000000000E+20
 20
1.000000000000000E+20
 30
1.000000000000000E+20
  9
$PEXTMAX
 10
-1.000000000000000E+20
 20
-1.000000000000000E+20
 30
-1.000000000000000E+20
  9
$PLIMMIN
 10
0.0
 20
0.0
  9
$PLIMMAX
 10
420.0
 20
297.0
  9
$UNITMODE
 70
     0
  9
$VISRETAIN
 70
     0
  9
$PLINEGEN
 70
     0
  9
$PSLTSCALE
 70
     0
  9
$TREEDEPTH
 70
  3020
  9
$CMLSTYLE
  2
STANDARD
  9
$CMLJUST
 70
     0
  9
$CMLSCALE
 40
1.0
  9
$PROXYGRAPHICS
 70
     1
  9
$MEASUREMENT
 70
     0
  9
$CELWEIGHT
370
    -1
  9
$ENDCAPS
280
     0
  9
$JOINSTYLE
280
     0
  9
$LWDISPLAY
290
     0
  9
$INSUNITS
 70
     0
  9
$HYPERLINKBASE
  1

  9
$STYLESHEET
  1

  9
$XEDIT
290
     1
  9
$CEPSNTYPE
380
     0
  9
$PSTYLEMODE
290
     1
  9
$FINGERPRINTGUID
  2
{16D9BF22-E8F2-4C0A-800C-55B9E275976E}
  9
$VERSIONGUID
  2
{B673702A-D4B2-4DCB-9C4E-6655A1FC666C}
  9
$EXTNAMES
290
     1
  9
$PSVPSCALE
 40
0.0
  9
$OLESTARTUP
290
     0
  0
ENDSEC
  0
SECTION
  2
CLASSES
  0
CLASS
  1
ACDBDICTIONARYWDFLT
  2
AcDbDictionaryWithDefault
  3
ObjectDBX Classes
 90
        0
280
     0
281
     0
  0
CLASS
  1
ACDBPLACEHOLDER
  2
AcDbPlaceHolder
  3
ObjectDBX Classes
 90
        0
280
     0
281
     0
  0
CLASS
  1
LAYOUT
  2
AcDbLayout
  3
ObjectDBX Classes
 90
        0
280
     0
281
     0
  0
CLASS
  1
DICTIONARYVAR
  2
AcDbDictionaryVar
  3
ObjectDBX Classes
 90
        0
280
     0
281
     0
  0
CLASS
  1
MATERIAL
  2
AcDbMaterial
  3
ObjectDBX Classes
 90
     1153
280
     0
281
     0
  0
CLASS
  1
VISUALSTYLE
  2
AcDbVisualStyle
  3
ObjectDBX Classes
 90
     4095
280
     0
281
     0
  0
CLASS
  1
TABLESTYLE
  2
AcDbTableStyle
  3
ObjectDBX Classes
 90
     4095
280
     0
281
     0
  0
CLASS
  1
SCALE
  2
AcDbScale
  3
ObjectDBX Classes
 90
     1153
280
     0
281
     0
  0
CLASS
  1
MLEADERSTYLE
  2
AcDbMLeaderStyle
  3
ACDB_MLEADERSTYLE_CLASS
 90
     4095
280
     0
281
     0
  0
CLASS
  1
ACDBSECTIONVIEWSTYLE
  2
AcDbSectionViewStyle
  3
ObjectDBX Classes
 90
     1025
280
     0
281
     0
  0
CLASS
  1
ACDBDETAILVIEWSTYLE
  2
AcDbDetailViewStyle
  3
ObjectDBX Classes
 90
     1025
280
     0
281
     0
  0
CLASS
  1
CELLSTYLEMAP
  2
AcDbCellStyleMap
  3
ObjectDBX Classes
 90
     1152
280
     0
281
     0
  0
ENDSEC
  0
SECTION
  2
TABLES
  0
TABLE
  2
VPORT
  5
9C03
330
0
100
AcDbSymbolTable
 70
     1
  0
VPORT
  5
9DDB
330
9C03
100
AcDbSymbolTableRecord
100
AcDbViewportTableRecord
  2
*ACTIVE
 70
     0
 10
0.0
 20
0.0
 11
1.0
 21
1.0
 12
270.2878976479634
 22
169.518500167636
 13
0.0
 23
0.0
 14
10.0
 24
10.0
 15
10.0
 25
10.0
 16
0.0
 26
0.0
 36
1.0
 17
0.0
 27
0.0
 37
0.0
 40
322.6312403951512
 41
1.899603698811096
 42
50.0
 43
0.0
 44
0.0
 50
0.0
 51
0.0
 71
     0
 72
   100
 73
     1
 74
     0
 75
     0
 76
     0
 77
     0
 78
     0
281
     0
 65
     1
110
0.0
120
0.0
130
0.0
111
1.0
121
0.0
131
0.0
112
0.0
122
1.0
132
0.0
 79
     0
146
0.0
1001
ACAD_NAV_VCDISPLAY
1070
     3
  0
ENDTAB
  0
TABLE
  2
LTYPE
  5
9C00
330
0
100
AcDbSymbolTable
 70
     4
  0
LTYPE
  5
9C0E
330
9C00
100
AcDbSymbolTableRecord
100
AcDbLinetypeTableRecord
  2
BYBLOCK
 70
     0
  3

 72
    65
 73
     0
 40
0.0
  0
LTYPE
  5
9C0F
330
9C00
100
AcDbSymbolTableRecord
100
AcDbLinetypeTableRecord
  2
BYLAYER
 70
     0
  3

 72
    65
 73
     0
 40
0.0
  0
LTYPE
  5
9C10
330
9C00
100
AcDbSymbolTableRecord
100
AcDbLinetypeTableRecord
  2
CONTINUOUS
 70
     0
  3
Solid line
 72
    65
 73
     0
 40
0.0
  0
LTYPE
  5
9C1E
330
9C00
100
AcDbSymbolTableRecord
100
AcDbLinetypeTableRecord
  2
DASHED
 70
     0
  3
__ __ __ __ __ __ __ __ __ __ __ __ __ __ __ __
 72
    65
 73
     2
 40
0.75
 49
0.5
 74
     0
 49
-0.25
 74
     0
  0
LTYPE
  5
9C1F
330
9C00
100
AcDbSymbolTableRecord
100
AcDbLinetypeTableRecord
  2
CENTER
 70
     0
  3
____ _ ____ _ ____ _ ____ _ ____ _ ____ _ ____ 
 72
    65
 73
     4
 40
2.0
 49
1.25
 74
     0
 49
-0.25
 74
     0
 49
0.25
 74
     0
 49
-0.25
 74
     0
  0
LTYPE
  5
9C20
330
9C00
100
AcDbSymbolTableRecord
100
AcDbLinetypeTableRecord
  2
PHANTOM
 70
     0
  3
______  __  __  ______  __  __  ______  __  __ 
 72
    65
 73
     6
 40
2.5
 49
1.25
 74
     0
 49
-0.25
 74
     0
 49
0.25
 74
     0
 49
-0.25
 74
     0
 49
0.25
 74
     0
 49
-0.25
 74
     0
  0
ENDTAB
  0
TABLE
  2
LAYER
  5
9BFD
330
0
100
AcDbSymbolTable
 70
     8
  0
LAYER
  5
9C0B
102
{ACAD_XDICTIONARY
360
9E36
102
}
330
9BFD
100
AcDbSymbolTableRecord
100
AcDbLayerTableRecord
  2
0
 70
     0
 62
     7
  6
CONTINUOUS
370
    -3
390
9DE4
  0
LAYER
  5
9C21
102
{ACAD_XDICTIONARY
360
9E38
102
}
330
9BFD
100
AcDbSymbolTableRecord
100
AcDbLayerTableRecord
  2
4
 70
     0
 62
     1
  6
CENTER
370
    -3
390
9DE4
  0
LAYER
  5
9C22
102
{ACAD_XDICTIONARY
360
9E3A
102
}
330
9BFD
100
AcDbSymbolTableRecord
100
AcDbLayerTableRecord
  2
5
 70
     0
 62
     6
  6
PHANTOM
370
    -3
390
9DE4
  0
LAYER
  5
9C23
102
{ACAD_XDICTIONARY
360
9E3C
102
}
330
9BFD
100
AcDbSymbolTableRecord
100
AcDbLayerTableRecord
  2
1
 70
     0
 62
     7
  6
CONTINUOUS
370
    -3
390
9DE4
  0
LAYER
  5
9C24
102
{ACAD_XDICTIONARY
360
9E3E
102
}
330
9BFD
100
AcDbSymbolTableRecord
100
AcDbLayerTableRecord
  2
2
 70
     0
 62
     4
  6
CONTINUOUS
370
    -3
390
9DE4
  0
LAYER
  5
9C25
102
{ACAD_XDICTIONARY
360
9E40
102
}
330
9BFD
100
AcDbSymbolTableRecord
100
AcDbLayerTableRecord
  2
3
 70
     0
 62
     2
  6
DASHED
370
    -3
390
9DE4
  0
LAYER
  5
9C26
102
{ACAD_XDICTIONARY
360
9E42
102
}
330
9BFD
100
AcDbSymbolTableRecord
100
AcDbLayerTableRecord
  2
6
 70
     0
 62
     5
  6
CONTINUOUS
370
    -3
390
9DE4
  0
LAYER
  5
9C27
102
{ACAD_XDICTIONARY
360
9E44
102
}
330
9BFD
100
AcDbSymbolTableRecord
100
AcDbLayerTableRecord
  2
7
 70
     0
 62
     3
  6
CONTINUOUS
370
    -3
390
9DE4
  0
ENDTAB
  0
TABLE
  2
STYLE
  5
9BFE
330
0
100
AcDbSymbolTable
 70
     1
  0
STYLE
  5
9C0C
330
9BFE
100
AcDbSymbolTableRecord
100
AcDbTextStyleTableRecord
  2
STANDARD
 70
     0
 40
0.0
 41
1.0
 50
0.0
 71
     0
 42
5.0
  3
txt
  4

  0
ENDTAB
  0
TABLE
  2
VIEW
  5
9C01
330
0
100
AcDbSymbolTable
 70
     0
  0
ENDTAB
  0
TABLE
  2
UCS
  5
9C02
330
0
100
AcDbSymbolTable
 70
     0
  0
ENDTAB
  0
TABLE
  2
APPID
  5
9C04
330
0
100
AcDbSymbolTable
 70
     3
  0
APPID
  5
9C0D
330
9C04
100
AcDbSymbolTableRecord
100
AcDbRegAppTableRecord
  2
ACAD
 70
     0
  0
APPID
  5
9E50
330
9C04
100
AcDbSymbolTableRecord
100
AcDbRegAppTableRecord
  2
ACAD_NAV_VCDISPLAY
 70
     0
  0
APPID
  5
9E89
330
9C04
100
AcDbSymbolTableRecord
100
AcDbRegAppTableRecord
  2
ACAD_MLEADERVER
 70
     0
  0
ENDTAB
  0
TABLE
  2
DIMSTYLE
  5
9C05
330
0
100
AcDbSymbolTable
 70
     1
100
AcDbDimStyleTable
 71
     0
  0
DIMSTYLE
105
9C29
330
9C05
100
AcDbSymbolTableRecord
100
AcDbDimStyleTableRecord
  2
STANDARD
 70
     0
 41
3.0
 42
1.0
 43
10.0
 44
1.0
 73
     0
 74
     0
 77
     3
 78
     8
140
3.2
141
0.0
147
1.0
172
     1
173
     1
284
     8
285
     8
286
     8
340
9C0C
  0
ENDTAB
  0
TABLE
  2
BLOCK_RECORD
  5
9BFC
330
0
100
AcDbSymbolTable
 70
     0
  0
BLOCK_RECORD
  5
9C19
102
{ACAD_XDICTIONARY
360
9DDE
102
}
330
9BFC
100
AcDbSymbolTableRecord
100
AcDbBlockTableRecord
  2
*MODEL_SPACE
340
9E32
  0
BLOCK_RECORD
  5
9C15
102
{ACAD_XDICTIONARY
360
9DDC
102
}
330
9BFC
100
AcDbSymbolTableRecord
100
AcDbBlockTableRecord
  2
*PAPER_SPACE
340
9E33
  0
ENDTAB
  0
ENDSEC
  0
SECTION
  2
BLOCKS
  0
BLOCK
  5
9C1A
330
9C19
100
AcDbEntity
  8
0
100
AcDbBlockBegin
  2
*MODEL_SPACE
 70
     0
 10
0.0
 20
0.0
 30
0.0
  3
*MODEL_SPACE
  1

  0
ENDBLK
  5
9C1B
330
9C19
100
AcDbEntity
  8
0
100
AcDbBlockEnd
  0
BLOCK
  5
9C16
330
9C15
100
AcDbEntity
 67
     1
  8
0
100
AcDbBlockBegin
  2
*PAPER_SPACE
 70
     0
 10
0.0
 20
0.0
 30
0.0
  3
*PAPER_SPACE
  1

  0
ENDBLK
  5
9C17
330
9C15
100
AcDbEntity
 67
     1
  8
0
100
AcDbBlockEnd
  0
ENDSEC
  0
SECTION
  2
ENTITIES
  0
TEXT
  5
9C31
330
9C19
100
AcDbEntity
  8
6
  6
Continuous
100
AcDbText
 10
27.97945
 20
10.0487
 30
0.0
 40
1.399999999999999
  1
6
 41
1.069393
100
AcDbText
  0
TEXT
  5
9C32
330
9C19
100
AcDbEntity
  8
1
  6
Continuous
100
AcDbText
 10
17.97945
 20
10.0487
 30
0.0
 40
1.399999999999999
  1
1
 41
1.069393
100
AcDbText
  0
TEXT
  5
9C33
330
9C19
100
AcDbEntity
  8
1
  6
Continuous
100
AcDbText
 10
9.99995
 20
10.0
 30
0.0
 40
1.399999999999999
  1
LAYER
 41
1.009912999999997
100
AcDbText
  0
TEXT
  5
9C34
330
9C19
100
AcDbEntity
  8
2
  6
Continuous
100
AcDbText
 10
19.97944999999998
 20
10.0487
 30
0.0
 40
1.399999999999999
  1
2
 41
1.069393
100
AcDbText
  0
TEXT
  5
9C35
330
9C19
100
AcDbEntity
  8
3
  6
DASHED
100
AcDbText
 10
21.97945
 20
10.0487
 30
0.0
 40
1.399999999999999
  1
3
 41
1.069393
100
AcDbText
  0
TEXT
  5
9C36
330
9C19
100
AcDbEntity
  8
4
  6
CENTER
100
AcDbText
 10
23.97944999999999
 20
10.0487
 30
0.0
 40
1.399999999999999
  1
4
 41
1.069393
100
AcDbText
  0
TEXT
  5
9C37
330
9C19
100
AcDbEntity
  8
5
  6
PHANTOM
100
AcDbText
 10
25.97945
 20
10.0487
 30
0.0
 40
1.399999999999999
  1
5
 41
1.069393
100
AcDbText
  0
TEXT
  5
9C38
330
9C19
100
AcDbEntity
  8
7
  6
Continuous
100
AcDbText
 10
10.00005
 20
26.0
 30
0.0
 40
3.0
  1
CODE No.5030
 41
1.003962999999999
100
AcDbText
  0
TEXT
  5
9C39
330
9C19
100
AcDbEntity
  8
7
  6
Continuous
100
AcDbText
 10
10.00005
 20
18.0
 30
0.0
 40
3.0
  1
TYPE No.TM-53-L
 41
1.003152
100
AcDbText
  0
TEXT
  5
9C3A
330
9C19
100
AcDbEntity
  8
7
  6
Continuous
100
AcDbText
 10
29.97944999999999
 20
10.0487
 30
0.0
 40
1.399999999999999
  1
7
 41
1.069393
100
AcDbText
  0
LINE
  5
9C3B
330
9C19
100
AcDbEntity
  8
1
  6
Continuous
100
AcDbLine
 10
129.6082959999999
 20
254.2469169999999
 30
0.0
 11
129.6082959999999
 21
165.665161
 31
0.0
  0
LINE
  5
9C3C
330
9C19
100
AcDbEntity
  8
1
  6
Continuous
100
AcDbLine
 10
131.2082949999999
 20
254.2469169999999
 30
0.0
 11
131.2082949999999
 21
165.665161
 31
0.0
  0
LINE
  5
9C3D
330
9C19
100
AcDbEntity
  8
1
  6
Continuous
100
AcDbLine
 10
131.2082949999999
 20
165.665161
 30
0.0
 11
129.6082959999999
 21
165.665161
 31
0.0
  0
LINE
  5
9C3E
330
9C19
100
AcDbEntity
  8
1
  6
Continuous
100
AcDbLine
 10
131.5082979999999
 20
182.165161
 30
0.0
 11
131.5082979999999
 21
166.165161
 31
0.0
  0
LINE
  5
9C3F
330
9C19
100
AcDbEntity
  8
1
  6
Continuous
100
AcDbLine
 10
131.5082979999999
 20
166.165161
 30
0.0
 11
131.2082949999999
 21
166.165161
 31
0.0
  0
LINE
  5
9C40
330
9C19
100
AcDbEntity
  8
1
  6
Continuous
100
AcDbLine
 10
131.5082979999999
 20
182.165161
 30
0.0
 11
131.2082949999999
 21
182.165161
 31
0.0
  0
LINE
  5
9C41
330
9C19
100
AcDbEntity
  8
1
  6
Continuous
100
AcDbLine
 10
136.9082919999998
 20
104.2469319999999
 30
0.0
 11
135.308293
 21
104.2469319999999
 31
0.0
  0
LINE
  5
9C42
330
9C19
100
AcDbEntity
  8
1
  6
Continuous
100
AcDbLine
 10
145.5082899999998
 20
93.246932
 30
0.0
 11
136.9082919999998
 21
93.246932
 31
0.0
  0
LINE
  5
9C43
330
9C19
100
AcDbEntity
  8
1
  6
Continuous
100
AcDbLine
 10
145.5082899999998
 20
91.646926
 30
0.0
 11
136.9082919999998
 21
91.646926
 31
0.0
  0
LINE
  5
9C44
330
9C19
100
AcDbEntity
  8
1
  6
Continuous
100
AcDbLine
 10
134.8082929999999
 20
94.355468
 30
0.0
 11
134.8082929999999
 21
183.00351
 31
0.0
  0
LINE
  5
9C45
330
9C19
100
AcDbEntity
  8
1
  6
Continuous
100
AcDbLine
 10
133.208287
 20
94.355468
 30
0.0
 11
133.208287
 21
183.799387
 31
0.0
  0
LINE
  5
9C46
330
9C19
100
AcDbEntity
  8
1
  6
Continuous
100
AcDbLine
 10
133.2082949999999
 20
94.35548299999997
 30
0.0
 11
134.8082929999999
 21
94.35548299999997
 31
0.0
  0
LINE
  5
9C47
330
9C19
100
AcDbEntity
  8
1
  6
Continuous
100
AcDbLine
 10
135.308293
 20
93.246932
 30
0.0
 11
135.308293
 21
104.2469319999999
 31
0.0
  0
LINE
  5
9C48
330
9C19
100
AcDbEntity
  8
1
  6
Continuous
100
AcDbLine
 10
136.9082919999998
 20
91.646926
 30
0.0
 11
136.9082919999998
 21
104.2469319999999
 31
0.0
  0
LINE
  5
9C49
330
9C19
100
AcDbEntity
  8
1
  6
Continuous
100
AcDbLine
 10
138.4082919999999
 20
102.7467949999999
 30
0.0
 11
136.9082919999998
 21
102.7467949999999
 31
0.0
  0
LINE
  5
9C4A
330
9C19
100
AcDbEntity
  8
1
  6
Continuous
100
AcDbLine
 10
138.4082919999999
 20
95.746795
 30
0.0
 11
138.4082919999999
 21
102.7467949999999
 31
0.0
  0
LINE
  5
9C4B
330
9C19
100
AcDbEntity
  8
1
  6
Continuous
100
AcDbLine
 10
138.4082919999999
 20
95.746795
 30
0.0
 11
136.9082919999998
 21
95.746795
 31
0.0
  0
LINE
  5
9C4C
330
9C19
100
AcDbEntity
  8
1
  6
Continuous
100
AcDbLine
 10
135.308293
 20
95.24693199999999
 30
0.0
 11
134.808285
 21
95.24693199999999
 31
0.0
  0
LINE
  5
9C4D
330
9C19
100
AcDbEntity
  8
1
  6
Continuous
100
AcDbLine
 10
135.308293
 20
103.246932
 30
0.0
 11
134.808285
 21
103.246932
 31
0.0
  0
LINE
  5
9C4E
330
9C19
100
AcDbEntity
  8
4
  6
CENTER
100
AcDbLine
 10
141.208295
 20
88.64692599999997
 30
0.0
 11
141.208295
 21
96.24693200000001
 31
0.0
  0
LINE
  5
9C4F
330
9C19
100
AcDbEntity
  8
1
  6
Continuous
100
AcDbLine
 10
145.5082899999998
 20
91.646926
 30
0.0
 11
145.5082899999998
 21
93.246932
 31
0.0
  0
LINE
  5
9C50
330
9C19
100
AcDbEntity
  8
4
  6
CENTER
100
AcDbLine
 10
141.208295
 20
99.246932
 30
0.0
 11
129.2082949999999
 21
99.246932
 31
0.0
  0
LINE
  5
9C51
330
9C19
100
AcDbEntity
  8
1
  6
Continuous
100
AcDbLine
 10
133.208272
 20
101.2469709999999
 30
0.0
 11
132.208272
 21
100.746971
 31
0.0
  0
LINE
  5
9C52
330
9C19
100
AcDbEntity
  8
1
  6
Continuous
100
AcDbLine
 10
132.208287
 20
97.74693200000001
 30
0.0
 11
132.208287
 21
100.746932
 31
0.0
  0
LINE
  5
9C53
330
9C19
100
AcDbEntity
  8
1
  6
Continuous
100
AcDbLine
 10
133.2082949999999
 20
97.24694000000004
 30
0.0
 11
132.208287
 21
97.746948
 31
0.0
  0
LINE
  5
9C54
330
9C19
100
AcDbEntity
  8
4
  6
CENTER
100
AcDbLine
 10
73.30955199999998
 20
101.000745
 30
0.0
 11
51.30955199999998
 21
101.000745
 31
0.0
  0
LINE
  5
9C55
330
9C19
100
AcDbEntity
  8
4
  6
CENTER
100
AcDbLine
 10
62.309552
 20
117.000791
 30
0.0
 11
62.309552
 21
85.000791
 31
0.0
  0
LINE
  5
9C56
330
9C19
100
AcDbEntity
  8
4
  6
CENTER
100
AcDbLine
 10
68.309552
 20
111.00073
 30
0.0
 11
56.30955199999998
 21
111.00073
 31
0.0
  0
LINE
  5
9C57
330
9C19
100
AcDbEntity
  8
4
  6
CENTER
100
AcDbLine
 10
68.309552
 20
91.00074499999999
 30
0.0
 11
56.30955199999998
 21
91.00074499999999
 31
0.0
  0
LINE
  5
9C58
330
9C19
100
AcDbEntity
  8
1
  6
Continuous
100
AcDbLine
 10
35.309596
 20
93.24687100000002
 30
0.0
 11
35.309596
 21
91.64685
 31
0.0
  0
LINE
  5
9C59
330
9C19
100
AcDbEntity
  8
1
  6
Continuous
100
AcDbLine
 10
63.30958100000001
 20
93.246856
 30
0.0
 11
63.30958100000001
 21
91.646835
 31
0.0
  0
LINE
  5
9C5A
330
9C19
100
AcDbEntity
  8
4
  6
CENTER
100
AcDbLine
 10
39.30961099999999
 20
96.24685599999999
 30
0.0
 11
39.30961099999999
 21
88.64683499999998
 31
0.0
  0
LINE
  5
9C5B
330
9C19
100
AcDbEntity
  8
4
  6
CENTER
100
AcDbLine
 10
59.30958100000001
 20
96.24685599999999
 30
0.0
 11
59.30958100000001
 21
88.64684999999999
 31
0.0
  0
LINE
  5
9C5C
330
9C19
100
AcDbEntity
  8
1
  6
Continuous
100
AcDbLine
 10
35.30956599999999
 20
91.646926
 30
0.0
 11
63.309566
 21
91.646926
 31
0.0
  0
LINE
  5
9C5D
330
9C19
100
AcDbEntity
  8
1
  6
Continuous
100
AcDbLine
 10
35.30956599999999
 20
93.246917
 30
0.0
 11
44.309596
 21
93.246917
 31
0.0
  0
LINE
  5
9C5E
330
9C19
100
AcDbEntity
  8
1
  6
Continuous
100
AcDbLine
 10
44.309596
 20
99.24685600000001
 30
0.0
 11
44.309596
 21
91.646926
 31
0.0
  0
LINE
  5
9C5F
330
9C19
100
AcDbEntity
  8
1
  6
Continuous
100
AcDbLine
 10
54.309596
 20
99.01379300000002
 30
0.0
 11
54.309596
 21
91.646926
 31
0.0
  0
LINE
  5
9C60
330
9C19
100
AcDbEntity
  8
1
  6
Continuous
100
AcDbLine
 10
54.309596
 20
93.246917
 30
0.0
 11
63.30958100000001
 21
93.246917
 31
0.0
  0
LINE
  5
9C61
330
9C19
100
AcDbEntity
  8
1
  6
Continuous
100
AcDbLine
 10
42.309593
 20
172.22618
 30
0.0
 11
42.309593
 21
176.2676229999999
 31
0.0
  0
LINE
  5
9C62
330
9C19
100
AcDbEntity
  8
1
  6
Continuous
100
AcDbLine
 10
42.309609
 20
176.267639
 30
0.0
 11
45.80959299999999
 21
178.28836
 31
0.0
  0
LINE
  5
9C63
330
9C19
100
AcDbEntity
  8
1
  6
Continuous
100
AcDbLine
 10
49.309578
 20
176.2676229999999
 30
0.0
 11
49.309578
 21
172.22618
 31
0.0
  0
LINE
  5
9C64
330
9C19
100
AcDbEntity
  8
1
  6
Continuous
100
AcDbLine
 10
45.80959299999999
 20
178.28836
 30
0.0
 11
49.309578
 21
176.267639
 31
0.0
  0
LINE
  5
9C65
330
9C19
100
AcDbEntity
  8
1
  6
Continuous
100
AcDbLine
 10
49.309593
 20
172.22618
 30
0.0
 11
45.80959299999999
 21
170.2054589999999
 31
0.0
  0
LINE
  5
9C66
330
9C19
100
AcDbEntity
  8
1
  6
Continuous
100
AcDbLine
 10
45.809578
 20
170.2054589999999
 30
0.0
 11
42.309593
 21
172.22618
 31
0.0
  0
LINE
  5
9C67
330
9C19
100
AcDbEntity
  8
4
  6
CENTER
100
AcDbLine
 10
337.279329
 20
249.246917
 30
0.0
 11
321.5793169999999
 21
249.246917
 31
0.0
  0
LINE
  5
9C68
330
9C19
100
AcDbEntity
  8
1
  6
Continuous
100
AcDbLine
 10
328.779329
 20
254.2469169999999
 30
0.0
 11
328.779329
 21
165.7469169999999
 31
0.0
  0
LINE
  5
9C69
330
9C19
100
AcDbEntity
  8
1
  6
Continuous
100
AcDbLine
 10
327.179323
 20
254.2469169999999
 30
0.0
 11
328.779329
 21
254.2469169999999
 31
0.0
  0
LINE
  5
9C6A
330
9C19
100
AcDbEntity
  8
1
  6
Continuous
100
AcDbLine
 10
328.779329
 20
253.246917
 30
0.0
 11
329.279329
 21
253.246917
 31
0.0
  0
LINE
  5
9C6B
330
9C19
100
AcDbEntity
  8
1
  6
Continuous
100
AcDbLine
 10
328.779329
 20
245.246917
 30
0.0
 11
329.279329
 21
245.246917
 31
0.0
  0
LINE
  5
9C6C
330
9C19
100
AcDbEntity
  8
1
  6
Continuous
100
AcDbLine
 10
327.179323
 20
254.2469169999999
 30
0.0
 11
327.179323
 21
184.00351
 31
0.0
  0
LINE
  5
9C6D
330
9C19
100
AcDbEntity
  8
1
  6
Continuous
100
AcDbLine
 10
326.87932
 20
179.814392
 30
0.0
 11
326.87932
 21
166.165161
 31
0.0
  0
LINE
  5
9C6E
330
9C19
100
AcDbEntity
  8
1
  6
Continuous
100
AcDbLine
 10
326.87932
 20
166.165161
 30
0.0
 11
327.179323
 21
166.165161
 31
0.0
  0
LINE
  5
9C6F
330
9C19
100
AcDbEntity
  8
1
  6
Continuous
100
AcDbLine
 10
325.35924
 20
169.0969839999999
 30
0.0
 11
326.87932
 21
168.246917
 31
0.0
  0
LINE
  5
9C70
330
9C19
100
AcDbEntity
  8
1
  6
Continuous
100
AcDbLine
 10
321.4793259999999
 20
104.2469319999999
 30
0.0
 11
323.0793319999999
 21
104.2469319999999
 31
0.0
  0
LINE
  5
9C71
330
9C19
100
AcDbEntity
  8
1
  6
Continuous
100
AcDbLine
 10
312.879335
 20
93.246932
 30
0.0
 11
321.4793259999999
 21
93.246932
 31
0.0
  0
LINE
  5
9C72
330
9C19
100
AcDbEntity
  8
1
  6
Continuous
100
AcDbLine
 10
312.879335
 20
91.646926
 30
0.0
 11
321.4793259999999
 21
91.646926
 31
0.0
  0
LINE
  5
9C73
330
9C19
100
AcDbEntity
  8
1
  6
Continuous
100
AcDbLine
 10
323.5793319999999
 20
94.355468
 30
0.0
 11
323.5793319999999
 21
184.00351
 31
0.0
  0
LINE
  5
9C74
330
9C19
100
AcDbEntity
  8
1
  6
Continuous
100
AcDbLine
 10
325.1793379999999
 20
94.355468
 30
0.0
 11
325.1793379999999
 21
179.814392
 31
0.0
  0
LINE
  5
9C75
330
9C19
100
AcDbEntity
  8
1
  6
Continuous
100
AcDbLine
 10
325.179323
 20
94.35548299999997
 30
0.0
 11
323.5793319999999
 21
94.35548299999997
 31
0.0
  0
LINE
  5
9C76
330
9C19
100
AcDbEntity
  8
1
  6
Continuous
100
AcDbLine
 10
323.0793319999999
 20
93.246932
 30
0.0
 11
323.0793319999999
 21
104.2469319999999
 31
0.0
  0
LINE
  5
9C77
330
9C19
100
AcDbEntity
  8
1
  6
Continuous
100
AcDbLine
 10
321.4793259999999
 20
91.646926
 30
0.0
 11
321.4793259999999
 21
104.2469319999999
 31
0.0
  0
LINE
  5
9C78
330
9C19
100
AcDbEntity
  8
1
  6
Continuous
100
AcDbLine
 10
319.9793259999998
 20
102.7467949999999
 30
0.0
 11
321.4793259999999
 21
102.7467949999999
 31
0.0
  0
LINE
  5
9C79
330
9C19
100
AcDbEntity
  8
1
  6
Continuous
100
AcDbLine
 10
319.9793259999998
 20
95.746795
 30
0.0
 11
319.9793259999998
 21
102.7467949999999
 31
0.0
  0
LINE
  5
9C7A
330
9C19
100
AcDbEntity
  8
1
  6
Continuous
100
AcDbLine
 10
319.9793259999998
 20
95.746795
 30
0.0
 11
321.4793259999999
 21
95.746795
 31
0.0
  0
LINE
  5
9C7B
330
9C19
100
AcDbEntity
  8
1
  6
Continuous
100
AcDbLine
 10
323.0793319999999
 20
95.24693199999999
 30
0.0
 11
323.5793319999999
 21
95.24693199999999
 31
0.0
  0
LINE
  5
9C7C
330
9C19
100
AcDbEntity
  8
1
  6
Continuous
100
AcDbLine
 10
323.0793319999999
 20
103.246932
 30
0.0
 11
323.5793319999999
 21
103.246932
 31
0.0
  0
LINE
  5
9C7D
330
9C19
100
AcDbEntity
  8
4
  6
CENTER
100
AcDbLine
 10
317.179323
 20
88.64692599999997
 30
0.0
 11
317.179323
 21
96.24693200000001
 31
0.0
  0
LINE
  5
9C7E
330
9C19
100
AcDbEntity
  8
1
  6
Continuous
100
AcDbLine
 10
312.879335
 20
91.646926
 30
0.0
 11
312.879335
 21
93.246932
 31
0.0
  0
LINE
  5
9C7F
330
9C19
100
AcDbEntity
  8
4
  6
CENTER
100
AcDbLine
 10
317.179323
 20
99.246932
 30
0.0
 11
329.179323
 21
99.246932
 31
0.0
  0
LINE
  5
9C80
330
9C19
100
AcDbEntity
  8
1
  6
Continuous
100
AcDbLine
 10
325.1793539999998
 20
101.2469709999999
 30
0.0
 11
326.1793539999998
 21
100.746971
 31
0.0
  0
LINE
  5
9C81
330
9C19
100
AcDbEntity
  8
1
  6
Continuous
100
AcDbLine
 10
326.1793379999998
 20
97.74693200000001
 30
0.0
 11
326.1793379999998
 21
100.746932
 31
0.0
  0
LINE
  5
9C82
330
9C19
100
AcDbEntity
  8
1
  6
Continuous
100
AcDbLine
 10
325.179323
 20
97.24694000000004
 30
0.0
 11
326.1793379999998
 21
97.746948
 31
0.0
  0
LINE
  5
9C83
330
9C19
100
AcDbEntity
  8
4
  6
CENTER
100
AcDbLine
 10
318.5793319999999
 20
174.2469169999999
 30
0.0
 11
334.779329
 21
174.2469169999999
 31
0.0
  0
LINE
  5
9C84
330
9C19
100
AcDbEntity
  8
1
  6
Continuous
100
AcDbLine
 10
331.679323
 20
177.6469109999999
 30
0.0
 11
331.679323
 21
170.846908
 31
0.0
  0
LINE
  5
9C85
330
9C19
100
AcDbEntity
  8
1
  6
Continuous
100
AcDbLine
 10
331.304049
 20
170.1969139999999
 30
0.0
 11
329.6546039999999
 21
170.1969139999999
 31
0.0
  0
LINE
  5
9C86
330
9C19
100
AcDbEntity
  8
1
  6
Continuous
100
AcDbLine
 10
331.304049
 20
178.29692
 30
0.0
 11
329.6546039999999
 21
178.29692
 31
0.0
  0
LINE
  5
9C87
330
9C19
100
AcDbEntity
  8
1
  6
Continuous
100
AcDbLine
 10
331.304049
 20
172.209152
 30
0.0
 11
329.6546039999999
 21
172.209152
 31
0.0
  0
LINE
  5
9C88
330
9C19
100
AcDbEntity
  8
1
  6
Continuous
100
AcDbLine
 10
331.304049
 20
176.2846829999998
 30
0.0
 11
329.6546039999999
 21
176.2846829999998
 31
0.0
  0
LINE
  5
9C89
330
9C19
100
AcDbEntity
  8
1
  6
Continuous
100
AcDbLine
 10
331.679323
 20
177.6469109999999
 30
0.0
 11
331.304049
 21
178.296905
 31
0.0
  0
LINE
  5
9C8A
330
9C19
100
AcDbEntity
  8
1
  6
Continuous
100
AcDbLine
 10
331.679323
 20
170.846908
 30
0.0
 11
331.304049
 21
170.1969139999999
 31
0.0
  0
LINE
  5
9C8B
330
9C19
100
AcDbEntity
  8
1
  6
Continuous
100
AcDbLine
 10
329.279329
 20
177.6469109999999
 30
0.0
 11
329.6546039999999
 21
178.29692
 31
0.0
  0
LINE
  5
9C8C
330
9C19
100
AcDbEntity
  8
1
  6
Continuous
100
AcDbLine
 10
329.279329
 20
170.846923
 30
0.0
 11
329.6546039999999
 21
170.1969139999999
 31
0.0
  0
LINE
  5
9C8D
330
9C19
100
AcDbEntity
  8
1
  6
Continuous
100
AcDbLine
 10
332.279329
 20
172.246917
 30
0.0
 11
332.279329
 21
176.2469169999999
 31
0.0
  0
LINE
  5
9C8E
330
9C19
100
AcDbEntity
  8
1
  6
Continuous
100
AcDbLine
 10
329.279329
 20
178.2469169999999
 30
0.0
 11
329.279329
 21
170.246917
 31
0.0
  0
LINE
  5
9C8F
330
9C19
100
AcDbEntity
  8
1
  6
Continuous
100
AcDbLine
 10
328.779329
 20
178.2469169999999
 30
0.0
 11
329.279329
 21
178.2469169999999
 31
0.0
  0
LINE
  5
9C90
330
9C19
100
AcDbEntity
  8
1
  6
Continuous
100
AcDbLine
 10
328.779329
 20
170.246917
 30
0.0
 11
329.279329
 21
170.246917
 31
0.0
  0
LINE
  5
9C91
330
9C19
100
AcDbEntity
  8
1
  6
Continuous
100
AcDbLine
 10
332.279329
 20
172.246917
 30
0.0
 11
331.679323
 21
171.646911
 31
0.0
  0
LINE
  5
9C92
330
9C19
100
AcDbEntity
  8
1
  6
Continuous
100
AcDbLine
 10
332.279329
 20
176.2469169999999
 30
0.0
 11
331.679323
 21
176.846908
 31
0.0
  0
LINE
  5
9C93
330
9C19
100
AcDbEntity
  8
1
  6
Continuous
100
AcDbLine
 10
325.6793229999999
 20
245.7467949999999
 30
0.0
 11
327.179323
 21
245.7467949999999
 31
0.0
  0
LINE
  5
9C94
330
9C19
100
AcDbEntity
  8
1
  6
Continuous
100
AcDbLine
 10
325.6793229999999
 20
245.7467949999999
 30
0.0
 11
325.6793229999999
 21
252.746795
 31
0.0
  0
LINE
  5
9C95
330
9C19
100
AcDbEntity
  8
1
  6
Continuous
100
AcDbLine
 10
325.6793229999999
 20
252.746795
 30
0.0
 11
327.179323
 21
252.746795
 31
0.0
  0
LINE
  5
9C96
330
9C19
100
AcDbEntity
  8
1
  6
Continuous
100
AcDbLine
 10
322.079317
 20
179.2469169999999
 30
0.0
 11
323.5793319999999
 21
179.2469169999999
 31
0.0
  0
LINE
  5
9C97
330
9C19
100
AcDbEntity
  8
1
  6
Continuous
100
AcDbLine
 10
323.0793319999999
 20
169.246917
 30
0.0
 11
323.0793319999999
 21
179.2469169999999
 31
0.0
  0
LINE
  5
9C98
330
9C19
100
AcDbEntity
  8
1
  6
Continuous
100
AcDbLine
 10
322.0793319999998
 20
169.246917
 30
0.0
 11
322.0793319999998
 21
179.2469169999999
 31
0.0
  0
LINE
  5
9C99
330
9C19
100
AcDbEntity
  8
1
  6
Continuous
100
AcDbLine
 10
321.5793319999999
 20
178.746917
 30
0.0
 11
322.079317
 21
179.2469169999999
 31
0.0
  0
LINE
  5
9C9A
330
9C19
100
AcDbEntity
  8
1
  6
Continuous
100
AcDbLine
 10
321.5793319999999
 20
169.7469169999999
 30
0.0
 11
321.5793319999999
 21
178.746917
 31
0.0
  0
LINE
  5
9C9B
330
9C19
100
AcDbEntity
  8
1
  6
Continuous
100
AcDbLine
 10
322.0793319999998
 20
169.246917
 30
0.0
 11
323.5793319999999
 21
169.246917
 31
0.0
  0
LINE
  5
9C9C
330
9C19
100
AcDbEntity
  8
1
  6
Continuous
100
AcDbLine
 10
321.5793319999999
 20
169.7469169999999
 30
0.0
 11
322.0793319999998
 21
169.246917
 31
0.0
  0
LINE
  5
9C9D
330
9C19
100
AcDbEntity
  8
1
  6
Continuous
100
AcDbLine
 10
327.179323
 20
179.814392
 30
0.0
 11
327.179323
 21
165.7469169999999
 31
0.0
  0
LINE
  5
9C9E
330
9C19
100
AcDbEntity
  8
1
  6
Continuous
100
AcDbLine
 10
136.9082229999999
 20
318.0475149999999
 30
0.0
 11
136.8083159999999
 21
318.0475149999999
 31
0.0
  0
LINE
  5
9C9F
330
9C19
100
AcDbEntity
  8
4
  6
CENTER
100
AcDbLine
 10
150.3972339999999
 20
313.0475149999999
 30
0.0
 11
119.2649179999998
 21
313.0475149999999
 31
0.0
  0
LINE
  5
9CA0
330
9C19
100
AcDbEntity
  8
1
  6
Continuous
100
AcDbLine
 10
145.5082899999998
 20
324.599017
 30
0.0
 11
145.5082899999998
 21
301.4960439999999
 31
0.0
  0
LINE
  5
9CA1
330
9C19
100
AcDbEntity
  8
1
  6
Continuous
100
AcDbLine
 10
136.908299
 20
324.5989919999999
 30
0.0
 11
136.908299
 21
301.4960689999999
 31
0.0
  0
LINE
  5
9CA2
330
9C19
100
AcDbEntity
  8
4
  6
CENTER
100
AcDbLine
 10
141.208302
 20
329.047546
 30
0.0
 11
141.208302
 21
297.047546
 31
0.0
  0
LINE
  5
9CA3
330
9C19
100
AcDbEntity
  8
4
  6
CENTER
100
AcDbLine
 10
147.208226
 20
303.047515
 30
0.0
 11
135.2082259999999
 21
303.047515
 31
0.0
  0
LINE
  5
9CA4
330
9C19
100
AcDbEntity
  8
1
  6
Continuous
100
AcDbLine
 10
135.308308
 20
321.547518
 30
0.0
 11
135.308308
 21
308.0475149999998
 31
0.0
  0
LINE
  5
9CA5
330
9C19
100
AcDbEntity
  8
4
  6
CENTER
100
AcDbLine
 10
147.208226
 20
323.0475149999999
 30
0.0
 11
135.2082259999999
 21
323.0475149999999
 31
0.0
  0
LINE
  5
9CA6
330
9C19
100
AcDbEntity
  8
1
  6
Continuous
100
AcDbLine
 10
138.408299
 20
316.5475149999999
 30
0.0
 11
138.408299
 21
309.5475149999999
 31
0.0
  0
LINE
  5
9CA7
330
9C19
100
AcDbEntity
  8
1
  6
Continuous
100
AcDbLine
 10
138.408299
 20
316.5475149999999
 30
0.0
 11
136.908299
 21
316.5475149999999
 31
0.0
  0
LINE
  5
9CA8
330
9C19
100
AcDbEntity
  8
1
  6
Continuous
100
AcDbLine
 10
138.408299
 20
309.5475149999999
 30
0.0
 11
136.908299
 21
309.5475149999999
 31
0.0
  0
LINE
  5
9CA9
330
9C19
100
AcDbEntity
  8
1
  6
Continuous
100
AcDbLine
 10
240.3610839999998
 20
180.0185109999999
 30
0.0
 11
238.7731919999999
 21
179.814392
 31
0.0
  0
LINE
  5
9CAA
330
9C19
100
AcDbEntity
  8
1
  6
Continuous
100
AcDbLine
 10
239.2203939999999
 20
173.45446
 30
0.0
 11
232.2574049999999
 21
99.012258
 31
0.0
  0
LINE
  5
9CAB
330
9C19
100
AcDbEntity
  8
1
  6
Continuous
100
AcDbLine
 10
222.2574149999999
 20
174.246908
 30
0.0
 11
222.257454
 21
99.24691700000003
 31
0.0
  0
LINE
  5
9CAC
330
9C19
100
AcDbEntity
  8
4
  6
CENTER
100
AcDbLine
 10
203.257405
 20
101.000755
 30
0.0
 11
225.2574049999998
 21
101.000755
 31
0.0
  0
LINE
  5
9CAD
330
9C19
100
AcDbEntity
  8
4
  6
CENTER
100
AcDbLine
 10
214.2574049999999
 20
117.0008029999999
 30
0.0
 11
214.2574049999999
 21
85.00079699999998
 31
0.0
  0
LINE
  5
9CAE
330
9C19
100
AcDbEntity
  8
4
  6
CENTER
100
AcDbLine
 10
208.257405
 20
111.00075
 30
0.0
 11
220.2574049999999
 21
111.00075
 31
0.0
  0
LINE
  5
9CAF
330
9C19
100
AcDbEntity
  8
4
  6
CENTER
100
AcDbLine
 10
208.257405
 20
91.00076300000001
 30
0.0
 11
220.2574049999999
 21
91.00076300000001
 31
0.0
  0
LINE
  5
9CB0
330
9C19
100
AcDbEntity
  8
1
  6
Continuous
100
AcDbLine
 10
241.2574129999999
 20
93.24687100000002
 30
0.0
 11
241.2574129999999
 21
91.64685
 31
0.0
  0
LINE
  5
9CB1
330
9C19
100
AcDbEntity
  8
1
  6
Continuous
100
AcDbLine
 10
213.25742
 20
93.246856
 30
0.0
 11
213.25742
 21
91.646835
 31
0.0
  0
LINE
  5
9CB2
330
9C19
100
AcDbEntity
  8
4
  6
CENTER
100
AcDbLine
 10
237.2573899999999
 20
96.24685599999999
 30
0.0
 11
237.2573899999999
 21
88.64683499999998
 31
0.0
  0
LINE
  5
9CB3
330
9C19
100
AcDbEntity
  8
4
  6
CENTER
100
AcDbLine
 10
217.25742
 20
96.24685599999999
 30
0.0
 11
217.25742
 21
88.64684999999999
 31
0.0
  0
LINE
  5
9CB4
330
9C19
100
AcDbEntity
  8
1
  6
Continuous
100
AcDbLine
 10
241.2574429999999
 20
91.646926
 30
0.0
 11
213.257439
 21
91.646926
 31
0.0
  0
LINE
  5
9CB5
330
9C19
100
AcDbEntity
  8
1
  6
Continuous
100
AcDbLine
 10
241.2574349999999
 20
93.246917
 30
0.0
 11
213.2574239999999
 21
93.246917
 31
0.0
  0
LINE
  5
9CB6
330
9C19
100
AcDbEntity
  8
1
  6
Continuous
100
AcDbLine
 10
232.2574049999999
 20
99.24685600000001
 30
0.0
 11
232.2574049999999
 21
93.24687100000002
 31
0.0
  0
LINE
  5
9CB7
330
9C19
100
AcDbEntity
  8
1
  6
Continuous
100
AcDbLine
 10
222.2574049999999
 20
99.24685600000001
 30
0.0
 11
222.2574049999999
 21
93.246841
 31
0.0
  0
LINE
  5
9CB8
330
9C19
100
AcDbEntity
  8
4
  6
CENTER
100
AcDbLine
 10
235.2574349999999
 20
99.24691700000003
 30
0.0
 11
219.257435
 21
99.24691700000003
 31
0.0
  0
LINE
  5
9CB9
330
9C19
100
AcDbEntity
  8
4
  6
CENTER
100
AcDbLine
 10
227.2574049999998
 20
107.246871
 30
0.0
 11
227.2574049999998
 21
88.64684999999999
 31
0.0
  0
LINE
  5
9CBA
330
9C19
100
AcDbEntity
  8
1
  6
Continuous
100
AcDbLine
 10
239.988371
 20
184.00351
 30
0.0
 11
229.673641
 21
182.6775529999999
 31
0.0
  0
LINE
  5
9CBB
330
9C19
100
AcDbEntity
  8
5
  6
PHANTOM
100
AcDbLine
 10
219.078601
 20
99.67577400000001
 30
0.0
 11
238.9129019999999
 21
171.846631
 31
0.0
  0
LINE
  5
9CBC
330
9C19
100
AcDbEntity
  8
5
  6
PHANTOM
100
AcDbLine
 10
209.3336199999999
 20
101.870699
 30
0.0
 11
220.856192
 21
167.0613659999999
 31
0.0
  0
ARC
  5
9CBD
330
9C19
100
AcDbEntity
  8
1
  6
Continuous
100
AcDbCircle
 10
136.9082919999998
 20
93.246932
 30
0.0
 40
1.6
100
AcDbArc
 50
180.0000179999999
 51
270.0000029999998
  0
ARC
  5
9CBE
330
9C19
100
AcDbEntity
  8
5
  6
PHANTOM
100
AcDbCircle
 10
45.80959299999999
 20
174.2469169999999
 30
0.0
 40
8.5
100
AcDbArc
 50
9.349038999999999
 51
187.9490379999998
  0
ARC
  5
9CBF
330
9C19
100
AcDbEntity
  8
5
  6
PHANTOM
100
AcDbCircle
 10
62.309552
 20
111.0007909999998
 30
0.0
 40
4.0
100
AcDbArc
 50
43.60278799999998
 51
136.3971949999998
  0
ARC
  5
9CC0
330
9C19
100
AcDbEntity
  8
5
  6
PHANTOM
100
AcDbCircle
 10
72.80955199999998
 20
101.000791
 30
0.0
 40
18.5
100
AcDbArc
 50
136.777879
 51
223.602831
  0
ARC
  5
9CC1
330
9C19
100
AcDbEntity
  8
5
  6
PHANTOM
100
AcDbCircle
 10
62.309552
 20
91.000776
 30
0.0
 40
4.0
100
AcDbArc
 50
223.60282
 51
316.3972099999999
  0
ARC
  5
9CC2
330
9C19
100
AcDbEntity
  8
5
  6
PHANTOM
100
AcDbCircle
 10
62.309552
 20
101.000791
 30
0.0
 40
6.0
100
AcDbArc
 50
92.01508699999999
 51
90.00007300000001
  0
CIRCLE
  5
9CC3
330
9C19
100
AcDbEntity
  8
5
  6
PHANTOM
100
AcDbCircle
 10
62.309552
 20
91.000776
 30
0.0
 40
1.8
  0
CIRCLE
  5
9CC4
330
9C19
100
AcDbEntity
  8
5
  6
PHANTOM
100
AcDbCircle
 10
62.309552
 20
111.0007909999998
 30
0.0
 40
1.8
  0
ARC
  5
9CC5
330
9C19
100
AcDbEntity
  8
5
  6
PHANTOM
100
AcDbCircle
 10
51.80955199999999
 20
101.000776
 30
0.0
 40
18.5
100
AcDbArc
 50
316.3971969999999
 51
43.602802
  0
CIRCLE
  5
9CC6
330
9C19
100
AcDbEntity
  8
1
  6
Continuous
100
AcDbCircle
 10
49.309596
 20
99.24691700000003
 30
0.0
 40
1.5
  0
CIRCLE
  5
9CC7
330
9C19
100
AcDbEntity
  8
1
  6
Continuous
100
AcDbCircle
 10
49.309596
 20
99.24691700000003
 30
0.0
 40
2.0
  0
CIRCLE
  5
9CC8
330
9C19
100
AcDbEntity
  8
1
  6
Continuous
100
AcDbCircle
 10
45.80959299999999
 20
174.2469169999999
 30
0.0
 40
4.0
  0
CIRCLE
  5
9CC9
330
9C19
100
AcDbEntity
  8
1
  6
Continuous
100
AcDbCircle
 10
45.80959299999999
 20
174.2469169999999
 30
0.0
 40
3.499998999999998
  0
CIRCLE
  5
9CCA
330
9C19
100
AcDbEntity
  8
1
  6
Continuous
100
AcDbCircle
 10
45.80959299999999
 20
174.2469169999999
 30
0.0
 40
2.0
  0
CIRCLE
  5
9CCB
330
9C19
100
AcDbEntity
  8
1
  6
Continuous
100
AcDbCircle
 10
45.80959299999999
 20
174.2469169999999
 30
0.0
 40
2.6
  0
CIRCLE
  5
9CCC
330
9C19
100
AcDbEntity
  8
5
  6
PHANTOM
100
AcDbCircle
 10
62.309552
 20
101.000745
 30
0.0
 40
1.5
  0
CIRCLE
  5
9CCD
330
9C19
100
AcDbEntity
  8
5
  6
PHANTOM
100
AcDbCircle
 10
62.309552
 20
101.000745
 30
0.0
 40
2.0
  0
CIRCLE
  5
9CCE
330
9C19
100
AcDbEntity
  8
5
  6
PHANTOM
100
AcDbCircle
 10
62.309552
 20
101.000745
 30
0.0
 40
3.0
  0
ARC
  5
9CCF
330
9C19
100
AcDbEntity
  8
1
  6
Continuous
100
AcDbCircle
 10
334.9995289999998
 20
174.2469169999999
 30
0.0
 40
5.720210999999999
100
AcDbArc
 50
159.1305469999998
 51
200.869498
  0
ARC
  5
9CD0
330
9C19
100
AcDbEntity
  8
1
  6
Continuous
100
AcDbCircle
 10
330.646685
 20
177.2908009999999
 30
0.0
 40
1.412978
100
AcDbArc
 50
194.5978
 51
225.4022239999999
  0
ARC
  5
9CD1
330
9C19
100
AcDbEntity
  8
1
  6
Continuous
100
AcDbCircle
 10
330.646685
 20
171.203033
 30
0.0
 40
1.412978
100
AcDbArc
 50
134.59781
 51
165.4022379999998
  0
ARC
  5
9CD2
330
9C19
100
AcDbEntity
  8
1
  6
Continuous
100
AcDbCircle
 10
325.6793229999999
 20
169.4810939999999
 30
0.0
 40
0.5
100
AcDbArc
 50
180.0000179999999
 51
230.194387
  0
ARC
  5
9CD3
330
9C19
100
AcDbEntity
  8
1
  6
Continuous
100
AcDbCircle
 10
321.4793259999999
 20
93.246932
 30
0.0
 40
1.6
100
AcDbArc
 50
270.0000029999998
 51
359.999978
  0
ARC
  5
9CD4
330
9C19
100
AcDbEntity
  8
1
  6
Continuous
100
AcDbCircle
 10
330.3119529999999
 20
177.2908009999999
 30
0.0
 40
1.412978
100
AcDbArc
 50
314.5978109999999
 51
345.402265
  0
ARC
  5
9CD5
330
9C19
100
AcDbEntity
  8
1
  6
Continuous
100
AcDbCircle
 10
325.959108
 20
174.2469169999999
 30
0.0
 40
5.720209999999998
100
AcDbArc
 50
339.130557
 51
20.86946
  0
ARC
  5
9CD6
330
9C19
100
AcDbEntity
  8
1
  6
Continuous
100
AcDbCircle
 10
330.311968
 20
171.203033
 30
0.0
 40
1.412978
100
AcDbArc
 50
14.59773499999998
 51
45.402202
  0
CIRCLE
  5
9CD7
330
9C19
100
AcDbEntity
  8
1
  6
Continuous
100
AcDbCircle
 10
141.2082559999998
 20
303.047546
 30
0.0
 40
1.649999999999999
  0
CIRCLE
  5
9CD8
330
9C19
100
AcDbEntity
  8
1
  6
Continuous
100
AcDbCircle
 10
141.2082559999998
 20
323.0475149999999
 30
0.0
 40
1.649999999999999
  0
CIRCLE
  5
9CD9
330
9C19
100
AcDbEntity
  8
1
  6
Continuous
100
AcDbCircle
 10
141.208302
 20
323.0475149999999
 30
0.0
 40
3.0
  0
CIRCLE
  5
9CDA
330
9C19
100
AcDbEntity
  8
1
  6
Continuous
100
AcDbCircle
 10
141.208302
 20
303.047515
 30
0.0
 40
3.0
  0
ARC
  5
9CDB
330
9C19
100
AcDbEntity
  8
1
  6
Continuous
100
AcDbCircle
 10
230.757408
 20
174.2469169999999
 30
0.0
 40
8.5
100
AcDbArc
 50
97.325259
 51
180.00003
  0
ARC
  5
9CDC
330
9C19
100
AcDbEntity
  8
5
  6
PHANTOM
100
AcDbCircle
 10
214.2573609999999
 20
101.0007679999999
 30
0.0
 40
5.0
100
AcDbArc
 50
169.9803629999999
 51
344.633103
  0
CIRCLE
  5
9CDD
330
9C19
100
AcDbEntity
  8
1
  6
Continuous
100
AcDbCircle
 10
230.757408
 20
174.2469169999999
 30
0.0
 40
5.0
  0
CIRCLE
  5
9CDE
330
9C19
100
AcDbEntity
  8
1
  6
Continuous
100
AcDbCircle
 10
230.757408
 20
174.2469169999999
 30
0.0
 40
4.5
  0
ARC
  5
9CDF
330
9C19
100
AcDbEntity
  8
5
  6
PHANTOM
100
AcDbCircle
 10
214.2574049999999
 20
111.000803
 30
0.0
 40
4.0
100
AcDbArc
 50
134.5513589999999
 51
136.39721
  0
ARC
  5
9CE0
330
9C19
100
AcDbEntity
  8
5
  6
PHANTOM
100
AcDbCircle
 10
203.7574049999999
 20
101.000809
 30
0.0
 40
18.5
100
AcDbArc
 50
316.3971749999999
 51
19.79335899999998
  0
ARC
  5
9CE1
330
9C19
100
AcDbEntity
  8
5
  6
PHANTOM
100
AcDbCircle
 10
214.2574049999999
 20
91.00079400000002
 30
0.0
 40
4.0
100
AcDbArc
 50
223.6027879999999
 51
316.397181
  0
CIRCLE
  5
9CE2
330
9C19
100
AcDbEntity
  8
5
  6
PHANTOM
100
AcDbCircle
 10
214.257368
 20
101.0007649999999
 30
0.0
 40
3.5
  0
ARC
  5
9CE3
330
9C19
100
AcDbEntity
  8
5
  6
PHANTOM
100
AcDbCircle
 10
214.2574049999999
 20
101.0008009999999
 30
0.0
 40
6.0
100
AcDbArc
 50
136.419745
 51
18.19107199999999
  0
CIRCLE
  5
9CE4
330
9C19
100
AcDbEntity
  8
5
  6
PHANTOM
100
AcDbCircle
 10
214.2574049999999
 20
111.000803
 30
0.0
 40
2.799999999999998
  0
CIRCLE
  5
9CE5
330
9C19
100
AcDbEntity
  8
5
  6
PHANTOM
100
AcDbCircle
 10
214.2574049999999
 20
91.00079400000002
 30
0.0
 40
1.8
  0
CIRCLE
  5
9CE6
330
9C19
100
AcDbEntity
  8
5
  6
PHANTOM
100
AcDbCircle
 10
214.2574049999999
 20
91.00079400000002
 30
0.0
 40
2.799999999999998
  0
CIRCLE
  5
9CE7
330
9C19
100
AcDbEntity
  8
5
  6
PHANTOM
100
AcDbCircle
 10
214.2574049999999
 20
111.000803
 30
0.0
 40
1.8
  0
ARC
  5
9CE8
330
9C19
100
AcDbEntity
  8
5
  6
PHANTOM
100
AcDbCircle
 10
224.7574049999998
 20
101.0007939999999
 30
0.0
 40
18.5
100
AcDbArc
 50
136.397197
 51
223.602798
  0
CIRCLE
  5
9CE9
330
9C19
100
AcDbEntity
  8
1
  6
Continuous
100
AcDbCircle
 10
227.2574349999999
 20
99.24685600000001
 30
0.0
 40
3.5
  0
ARC
  5
9CEA
330
9C19
100
AcDbEntity
  8
1
  6
Continuous
100
AcDbCircle
 10
227.2574349999999
 20
99.24685600000001
 30
0.0
 40
5.0
100
AcDbArc
 50
359.9999809999998
 51
179.999263
  0
ARC
  5
9CEB
330
9C19
100
AcDbEntity
  8
1
  6
Continuous
100
AcDbCircle
 10
230.757408
 20
174.2469169999999
 30
0.0
 40
8.5
100
AcDbArc
 50
354.650529
 51
6.017811
  0
LINE
  5
9CEC
330
9C19
100
AcDbEntity
  8
4
  6
CENTER
100
AcDbLine
 10
230.757408
 20
186.857392
 30
0.0
 11
230.757408
 21
158.2469169999999
 31
0.0
  0
LINE
  5
9CED
330
9C19
100
AcDbEntity
  8
4
  6
CENTER
100
AcDbLine
 10
214.757408
 20
174.2469169999999
 30
0.0
 11
246.7574079999999
 21
174.2469169999999
 31
0.0
  0
LINE
  5
9CEE
330
9C19
100
AcDbEntity
  8
1
  6
Continuous
100
AcDbLine
 10
239.988371
 20
184.00351
 30
0.0
 11
240.3610839999998
 21
180.0185109999999
 31
0.0
  0
LINE
  5
9CEF
330
9C19
100
AcDbEntity
  8
1
  6
Continuous
100
AcDbLine
 10
238.7731919999999
 20
179.814392
 30
0.0
 11
239.2105669999998
 21
175.1380369999999
 31
0.0
  0
LINE
  5
9CF0
330
9C19
100
AcDbEntity
  8
4
  6
CENTER
100
AcDbLine
 10
45.80959299999999
 20
186.857392
 30
0.0
 11
45.80959299999999
 21
158.2469169999999
 31
0.0
  0
LINE
  5
9CF1
330
9C19
100
AcDbEntity
  8
1
  6
Continuous
100
AcDbLine
 10
54.309586
 20
174.246908
 30
0.0
 11
54.309547
 21
99.24691700000003
 31
0.0
  0
LINE
  5
9CF2
330
9C19
100
AcDbEntity
  8
1
  6
Continuous
100
AcDbLine
 10
37.346607
 20
173.45446
 30
0.0
 11
44.309596
 21
99.012258
 31
0.0
  0
LINE
  5
9CF3
330
9C19
100
AcDbEntity
  8
4
  6
CENTER
100
AcDbLine
 10
41.309566
 20
99.24691700000003
 30
0.0
 11
57.30956599999998
 21
99.24691700000003
 31
0.0
  0
LINE
  5
9CF4
330
9C19
100
AcDbEntity
  8
4
  6
CENTER
100
AcDbLine
 10
49.309596
 20
107.246871
 30
0.0
 11
49.309596
 21
88.64684999999999
 31
0.0
  0
LINE
  5
9CF5
330
9C19
100
AcDbEntity
  8
5
  6
PHANTOM
100
AcDbLine
 10
65.11575500000001
 20
113.8512689999999
 30
0.0
 11
54.196688
 21
175.6277289999999
 31
0.0
  0
LINE
  5
9CF6
330
9C19
100
AcDbEntity
  8
5
  6
PHANTOM
100
AcDbLine
 10
55.40253599999999
 20
107.265436
 30
0.0
 11
37.654098
 21
171.8466359999999
 31
0.0
  0
LINE
  5
9CF7
330
9C19
100
AcDbEntity
  8
4
  6
CENTER
100
AcDbLine
 10
61.80959300000001
 20
174.2469169999999
 30
0.0
 11
29.809593
 21
174.2469169999999
 31
0.0
  0
LINE
  5
9CF8
330
9C19
100
AcDbEntity
  8
1
  6
Continuous
100
AcDbLine
 10
36.57862999999998
 20
184.00351
 30
0.0
 11
38.166522
 21
183.799387
 31
0.0
  0
LINE
  5
9CF9
330
9C19
100
AcDbEntity
  8
1
  6
Continuous
100
AcDbLine
 10
36.57862999999998
 20
184.00351
 30
0.0
 11
36.205917
 21
180.0185109999999
 31
0.0
  0
LINE
  5
9CFA
330
9C19
100
AcDbEntity
  8
1
  6
Continuous
100
AcDbLine
 10
36.205917
 20
180.0185109999999
 30
0.0
 11
37.793809
 21
179.814392
 31
0.0
  0
ARC
  5
9CFB
330
9C19
100
AcDbEntity
  8
1
  6
Continuous
100
AcDbCircle
 10
49.309596
 20
99.24691700000003
 30
0.0
 40
5.0
100
AcDbArc
 50
180.0
 51
0.0
  0
LINE
  5
9CFC
330
9C19
100
AcDbEntity
  8
1
  6
Continuous
100
AcDbLine
 10
329.279329
 20
253.246917
 30
0.0
 11
329.279329
 21
245.246917
 31
0.0
  0
LINE
  5
9CFD
330
9C19
100
AcDbEntity
  8
1
  6
Continuous
100
AcDbLine
 10
333.279329
 20
257.246917
 30
0.0
 11
333.279329
 21
241.246917
 31
0.0
  0
LINE
  5
9CFE
330
9C19
100
AcDbEntity
  8
1
  6
Continuous
100
AcDbLine
 10
334.279329
 20
257.246917
 30
0.0
 11
334.279329
 21
241.246917
 31
0.0
  0
LINE
  5
9CFF
330
9C19
100
AcDbEntity
  8
1
  6
Continuous
100
AcDbLine
 10
334.279329
 20
257.246917
 30
0.0
 11
333.279329
 21
257.246917
 31
0.0
  0
LINE
  5
9D00
330
9C19
100
AcDbEntity
  8
1
  6
Continuous
100
AcDbLine
 10
334.279329
 20
241.246917
 30
0.0
 11
333.279329
 21
241.246917
 31
0.0
  0
ARC
  5
9D01
330
9C19
100
AcDbEntity
  8
1
  6
Continuous
100
AcDbCircle
 10
334.6954259999999
 20
248.9030479999999
 30
0.0
 40
6.5
100
AcDbArc
 50
102.5834359999999
 51
143.410503
  0
ARC
  5
9D02
330
9C19
100
AcDbEntity
  8
1
  6
Continuous
100
AcDbCircle
 10
334.6954259999999
 20
249.5907859999999
 30
0.0
 40
6.5
100
AcDbArc
 50
216.589497
 51
257.4165639999999
  0
ARC
  5
9D03
330
9C19
100
AcDbEntity
  8
1
  6
Continuous
100
AcDbCircle
 10
330.279329
 20
252.1814759999998
 30
0.0
 40
1.0
100
AcDbArc
 50
143.410503
 51
180.0
  0
ARC
  5
9D04
330
9C19
100
AcDbEntity
  8
1
  6
Continuous
100
AcDbCircle
 10
330.279329
 20
246.3123579999999
 30
0.0
 40
1.0
100
AcDbArc
 50
180.0
 51
216.589497
  0
LINE
  5
9D05
330
9C19
100
AcDbEntity
  8
4
  6
CENTER
100
AcDbLine
 10
121.1082879999999
 20
249.246917
 30
0.0
 11
136.808301
 21
249.246917
 31
0.0
  0
LINE
  5
9D06
330
9C19
100
AcDbEntity
  8
1
  6
Continuous
100
AcDbLine
 10
124.1082879999999
 20
241.246917
 30
0.0
 11
125.108288
 21
241.246917
 31
0.0
  0
LINE
  5
9D07
330
9C19
100
AcDbEntity
  8
1
  6
Continuous
100
AcDbLine
 10
124.1082879999999
 20
257.246917
 30
0.0
 11
125.108288
 21
257.246917
 31
0.0
  0
LINE
  5
9D08
330
9C19
100
AcDbEntity
  8
1
  6
Continuous
100
AcDbLine
 10
124.1082879999999
 20
257.246917
 30
0.0
 11
124.1082879999999
 21
241.246917
 31
0.0
  0
LINE
  5
9D09
330
9C19
100
AcDbEntity
  8
1
  6
Continuous
100
AcDbLine
 10
125.108288
 20
257.246917
 30
0.0
 11
125.108288
 21
241.246917
 31
0.0
  0
ARC
  5
9D0A
330
9C19
100
AcDbEntity
  8
1
  6
Continuous
100
AcDbCircle
 10
128.1082879999999
 20
246.3123579999999
 30
0.0
 40
1.0
100
AcDbArc
 50
323.410503
 51
0.0
  0
ARC
  5
9D0B
330
9C19
100
AcDbEntity
  8
1
  6
Continuous
100
AcDbCircle
 10
128.1082879999999
 20
252.1814759999998
 30
0.0
 40
1.0
100
AcDbArc
 50
0.0
 51
36.58949699999999
  0
LINE
  5
9D0C
330
9C19
100
AcDbEntity
  8
1
  6
Continuous
100
AcDbLine
 10
129.1082879999999
 20
253.246917
 30
0.0
 11
129.1082879999999
 21
245.246917
 31
0.0
  0
ARC
  5
9D0D
330
9C19
100
AcDbEntity
  8
1
  6
Continuous
100
AcDbCircle
 10
123.6921909999998
 20
249.5907859999999
 30
0.0
 40
6.5
100
AcDbArc
 50
282.5834359999999
 51
323.410503
  0
ARC
  5
9D0E
330
9C19
100
AcDbEntity
  8
1
  6
Continuous
100
AcDbCircle
 10
123.6921909999998
 20
248.9030479999999
 30
0.0
 40
6.5
100
AcDbArc
 50
36.58949699999999
 51
77.41656399999998
  0
LINE
  5
9D0F
330
9C19
100
AcDbEntity
  8
1
  6
Continuous
100
AcDbLine
 10
132.7082949999999
 20
245.7467949999999
 30
0.0
 11
132.7082949999999
 21
252.746795
 31
0.0
  0
LINE
  5
9D10
330
9C19
100
AcDbEntity
  8
1
  6
Continuous
100
AcDbLine
 10
129.6082879999999
 20
253.246917
 30
0.0
 11
129.1082879999999
 21
253.246917
 31
0.0
  0
LINE
  5
9D11
330
9C19
100
AcDbEntity
  8
1
  6
Continuous
100
AcDbLine
 10
129.6082879999999
 20
245.246917
 30
0.0
 11
129.1082879999999
 21
245.246917
 31
0.0
  0
LINE
  5
9D12
330
9C19
100
AcDbEntity
  8
1
  6
Continuous
100
AcDbLine
 10
131.2082949999999
 20
254.2469169999999
 30
0.0
 11
129.6082879999999
 21
254.2469169999999
 31
0.0
  0
LINE
  5
9D13
330
9C19
100
AcDbEntity
  8
1
  6
Continuous
100
AcDbLine
 10
132.7082949999999
 20
245.7467949999999
 30
0.0
 11
131.2082949999999
 21
245.7467949999999
 31
0.0
  0
LINE
  5
9D14
330
9C19
100
AcDbEntity
  8
1
  6
Continuous
100
AcDbLine
 10
132.7082949999999
 20
252.746795
 30
0.0
 11
131.2082949999999
 21
252.746795
 31
0.0
  0
LINE
  5
9D15
330
9C19
100
AcDbEntity
  8
1
  6
Continuous
100
AcDbLine
 10
328.779329
 20
165.7469169999999
 30
0.0
 11
327.179323
 21
165.7469169999999
 31
0.0
  0
LINE
  5
9D16
330
9C19
100
AcDbEntity
  8
1
  6
Continuous
100
AcDbLine
 10
328.779329
 20
184.00351
 30
0.0
 11
323.5793319999999
 21
184.00351
 31
0.0
  0
LINE
  5
9D17
330
9C19
100
AcDbEntity
  8
1
  6
Continuous
100
AcDbLine
 10
328.779329
 20
180.0185109999999
 30
0.0
 11
323.5793319999999
 21
180.0185109999999
 31
0.0
  0
LINE
  5
9D18
330
9C19
100
AcDbEntity
  8
1
  6
Continuous
100
AcDbLine
 10
328.779329
 20
179.814392
 30
0.0
 11
323.5793319999999
 21
179.814392
 31
0.0
  0
ARC
  5
9D19
330
9C19
100
AcDbEntity
  8
1
  6
Continuous
100
AcDbCircle
 10
132.708302
 20
169.4810939999999
 30
0.0
 40
0.5
100
AcDbArc
 50
309.8056129999998
 51
359.9999819999999
  0
LINE
  5
9D1A
330
9C19
100
AcDbEntity
  8
1
  6
Continuous
100
AcDbLine
 10
133.028386
 20
169.0969839999999
 30
0.0
 11
131.5082979999999
 21
168.246917
 31
0.0
  0
LINE
  5
9D1B
330
9C19
100
AcDbEntity
  8
1
  6
Continuous
100
AcDbLine
 10
129.1082959999999
 20
178.2469169999999
 30
0.0
 11
129.1082959999999
 21
170.246917
 31
0.0
  0
LINE
  5
9D1C
330
9C19
100
AcDbEntity
  8
1
  6
Continuous
100
AcDbLine
 10
129.1082959999999
 20
170.846923
 30
0.0
 11
128.733021
 21
170.1969139999999
 31
0.0
  0
LINE
  5
9D1D
330
9C19
100
AcDbEntity
  8
1
  6
Continuous
100
AcDbLine
 10
126.708302
 20
170.846908
 30
0.0
 11
127.083577
 21
170.1969139999999
 31
0.0
  0
LINE
  5
9D1E
330
9C19
100
AcDbEntity
  8
1
  6
Continuous
100
AcDbLine
 10
129.6082959999999
 20
170.246917
 30
0.0
 11
129.1082959999999
 21
170.246917
 31
0.0
  0
LINE
  5
9D1F
330
9C19
100
AcDbEntity
  8
1
  6
Continuous
100
AcDbLine
 10
127.083577
 20
170.1969139999999
 30
0.0
 11
128.733021
 21
170.1969139999999
 31
0.0
  0
ARC
  5
9D20
330
9C19
100
AcDbEntity
  8
1
  6
Continuous
100
AcDbCircle
 10
128.075658
 20
171.203033
 30
0.0
 40
1.412978
100
AcDbArc
 50
134.597798
 51
165.4022649999998
  0
ARC
  5
9D21
330
9C19
100
AcDbEntity
  8
1
  6
Continuous
100
AcDbCircle
 10
132.428517
 20
174.2469169999999
 30
0.0
 40
5.720209999999998
100
AcDbArc
 50
159.1305399999999
 51
200.8694429999999
  0
ARC
  5
9D22
330
9C19
100
AcDbEntity
  8
1
  6
Continuous
100
AcDbCircle
 10
128.075673
 20
177.2908009999999
 30
0.0
 40
1.412978
100
AcDbArc
 50
194.5977349999998
 51
225.402189
  0
ARC
  5
9D23
330
9C19
100
AcDbEntity
  8
1
  6
Continuous
100
AcDbCircle
 10
127.7409409999999
 20
171.203033
 30
0.0
 40
1.412978
100
AcDbArc
 50
14.597762
 51
45.40218999999999
  0
ARC
  5
9D24
330
9C19
100
AcDbEntity
  8
1
  6
Continuous
100
AcDbCircle
 10
127.7409409999999
 20
177.2908009999999
 30
0.0
 40
1.412978
100
AcDbArc
 50
314.597776
 51
345.4022
  0
ARC
  5
9D25
330
9C19
100
AcDbEntity
  8
1
  6
Continuous
100
AcDbCircle
 10
123.3880969999999
 20
174.2469169999999
 30
0.0
 40
5.720210999999999
100
AcDbArc
 50
339.1305019999999
 51
20.869453
  0
LINE
  5
9D26
330
9C19
100
AcDbEntity
  8
1
  6
Continuous
100
AcDbLine
 10
126.1082959999999
 20
176.2469169999999
 30
0.0
 11
126.708302
 21
176.846908
 31
0.0
  0
LINE
  5
9D27
330
9C19
100
AcDbEntity
  8
1
  6
Continuous
100
AcDbLine
 10
126.1082959999999
 20
172.246917
 30
0.0
 11
126.708302
 21
171.646911
 31
0.0
  0
LINE
  5
9D28
330
9C19
100
AcDbEntity
  8
1
  6
Continuous
100
AcDbLine
 10
129.6082959999999
 20
178.2469169999999
 30
0.0
 11
129.1082959999999
 21
178.2469169999999
 31
0.0
  0
LINE
  5
9D29
330
9C19
100
AcDbEntity
  8
1
  6
Continuous
100
AcDbLine
 10
126.1082959999999
 20
172.246917
 30
0.0
 11
126.1082959999999
 21
176.2469169999999
 31
0.0
  0
LINE
  5
9D2A
330
9C19
100
AcDbEntity
  8
1
  6
Continuous
100
AcDbLine
 10
129.1082959999999
 20
177.6469109999999
 30
0.0
 11
128.733021
 21
178.29692
 31
0.0
  0
LINE
  5
9D2B
330
9C19
100
AcDbEntity
  8
1
  6
Continuous
100
AcDbLine
 10
126.708302
 20
177.6469109999999
 30
0.0
 11
127.083577
 21
178.296905
 31
0.0
  0
LINE
  5
9D2C
330
9C19
100
AcDbEntity
  8
1
  6
Continuous
100
AcDbLine
 10
127.083577
 20
176.2846829999998
 30
0.0
 11
128.733021
 21
176.2846829999998
 31
0.0
  0
LINE
  5
9D2D
330
9C19
100
AcDbEntity
  8
1
  6
Continuous
100
AcDbLine
 10
127.083577
 20
172.209152
 30
0.0
 11
128.733021
 21
172.209152
 31
0.0
  0
LINE
  5
9D2E
330
9C19
100
AcDbEntity
  8
1
  6
Continuous
100
AcDbLine
 10
127.083577
 20
178.29692
 30
0.0
 11
128.733021
 21
178.29692
 31
0.0
  0
LINE
  5
9D2F
330
9C19
100
AcDbEntity
  8
1
  6
Continuous
100
AcDbLine
 10
126.708302
 20
177.6469109999999
 30
0.0
 11
126.708302
 21
170.846908
 31
0.0
  0
LINE
  5
9D30
330
9C19
100
AcDbEntity
  8
1
  6
Continuous
100
AcDbLine
 10
136.8082929999999
 20
169.7469169999999
 30
0.0
 11
136.8082929999999
 21
178.746917
 31
0.0
  0
LINE
  5
9D31
330
9C19
100
AcDbEntity
  8
1
  6
Continuous
100
AcDbLine
 10
136.308293
 20
169.246917
 30
0.0
 11
136.308293
 21
179.2469169999999
 31
0.0
  0
LINE
  5
9D32
330
9C19
100
AcDbEntity
  8
1
  6
Continuous
100
AcDbLine
 10
135.308293
 20
169.246917
 30
0.0
 11
135.308293
 21
179.2469169999999
 31
0.0
  0
LINE
  5
9D33
330
9C19
100
AcDbEntity
  8
1
  6
Continuous
100
AcDbLine
 10
136.8082929999999
 20
169.7469169999999
 30
0.0
 11
136.308293
 21
169.246917
 31
0.0
  0
LINE
  5
9D34
330
9C19
100
AcDbEntity
  8
1
  6
Continuous
100
AcDbLine
 10
136.308293
 20
169.246917
 30
0.0
 11
134.8082929999999
 21
169.246917
 31
0.0
  0
LINE
  5
9D35
330
9C19
100
AcDbEntity
  8
1
  6
Continuous
100
AcDbLine
 10
136.8082929999999
 20
178.746917
 30
0.0
 11
136.308308
 21
179.2469169999999
 31
0.0
  0
LINE
  5
9D36
330
9C19
100
AcDbEntity
  8
1
  6
Continuous
100
AcDbLine
 10
136.308308
 20
179.2469169999999
 30
0.0
 11
134.8082929999999
 21
179.2469169999999
 31
0.0
  0
LINE
  5
9D37
330
9C19
100
AcDbEntity
  8
4
  6
CENTER
100
AcDbLine
 10
139.405971
 20
174.2469169999999
 30
0.0
 11
123.2059739999999
 21
174.2469169999999
 31
0.0
  0
ARC
  5
9D38
330
9C19
100
AcDbEntity
  8
1
  6
Continuous
100
AcDbCircle
 10
132.708302
 20
179.0127399999998
 30
0.0
 40
0.5
100
AcDbArc
 50
0.000018
 51
50.194387
  0
LINE
  5
9D39
330
9C19
100
AcDbEntity
  8
1
  6
Continuous
100
AcDbLine
 10
133.028386
 20
179.39685
 30
0.0
 11
131.5082979999999
 21
180.2469169999999
 31
0.0
  0
LINE
  5
9D3A
330
9C19
100
AcDbEntity
  8
1
  6
Continuous
100
AcDbLine
 10
131.2082949999999
 20
184.00351
 30
0.0
 11
133.8082929999999
 21
184.00351
 31
0.0
  0
LINE
  5
9D3B
330
9C19
100
AcDbEntity
  8
1
  6
Continuous
100
AcDbLine
 10
131.2082949999999
 20
183.799387
 30
0.0
 11
133.208287
 21
183.799387
 31
0.0
  0
ARC
  5
9D3C
330
9C19
100
AcDbEntity
  8
1
  6
Continuous
100
AcDbCircle
 10
133.8082929999999
 20
183.00351
 30
0.0
 40
1.0
100
AcDbArc
 50
0.0
 51
90.0
  0
LINE
  5
9D3D
330
9C19
100
AcDbEntity
  8
1
  6
Continuous
100
AcDbLine
 10
132.2817369999999
 20
179.814392
 30
0.0
 11
133.208287
 21
179.814392
 31
0.0
  0
LINE
  5
9D3E
330
9C19
100
AcDbEntity
  8
4
  6
CENTER
100
AcDbLine
 10
121.0784489999999
 20
316.547518
 30
0.0
 11
139.9694169999999
 21
316.547518
 31
0.0
  0
LINE
  5
9D3F
330
9C19
100
AcDbEntity
  8
1
  6
Continuous
100
AcDbLine
 10
125.108304
 20
299.0475149999999
 30
0.0
 11
124.108304
 21
299.0475149999999
 31
0.0
  0
LINE
  5
9D40
330
9C19
100
AcDbEntity
  8
1
  6
Continuous
100
AcDbLine
 10
125.108304
 20
327.0475149999999
 30
0.0
 11
124.108304
 21
327.0475149999999
 31
0.0
  0
LINE
  5
9D41
330
9C19
100
AcDbEntity
  8
1
  6
Continuous
100
AcDbLine
 10
129.1083039999997
 20
309.0475149999999
 30
0.0
 11
129.1083039999997
 21
317.0475149999999
 31
0.0
  0
LINE
  5
9D42
330
9C19
100
AcDbEntity
  8
1
  6
Continuous
100
AcDbLine
 10
125.108304
 20
299.0475149999999
 30
0.0
 11
125.108304
 21
327.0475149999999
 31
0.0
  0
ARC
  5
9D43
330
9C19
100
AcDbEntity
  8
1
  6
Continuous
100
AcDbCircle
 10
123.692207
 20
313.3913839999999
 30
0.0
 40
6.5
100
AcDbArc
 50
282.5834359999999
 51
323.410503
  0
ARC
  5
9D44
330
9C19
100
AcDbEntity
  8
1
  6
Continuous
100
AcDbCircle
 10
128.108304
 20
310.1129569999999
 30
0.0
 40
1.0
100
AcDbArc
 50
323.410503
 51
0.0
  0
LINE
  5
9D45
330
9C19
100
AcDbEntity
  8
1
  6
Continuous
100
AcDbLine
 10
131.2083019999998
 20
308.0475149999998
 30
0.0
 11
129.608304
 21
308.0475149999998
 31
0.0
  0
LINE
  5
9D46
330
9C19
100
AcDbEntity
  8
1
  6
Continuous
100
AcDbLine
 10
132.70831
 20
309.547729
 30
0.0
 11
131.20831
 21
309.547729
 31
0.0
  0
LINE
  5
9D47
330
9C19
100
AcDbEntity
  8
1
  6
Continuous
100
AcDbLine
 10
129.608304
 20
309.0475149999999
 30
0.0
 11
129.1083039999997
 21
309.0475149999999
 31
0.0
  0
ARC
  5
9D48
330
9C19
100
AcDbEntity
  8
1
  6
Continuous
100
AcDbCircle
 10
128.108304
 20
315.982074
 30
0.0
 40
1.0
100
AcDbArc
 50
0.0
 51
36.58949699999999
  0
ARC
  5
9D49
330
9C19
100
AcDbEntity
  8
1
  6
Continuous
100
AcDbCircle
 10
123.692207
 20
312.7036470000001
 30
0.0
 40
6.5
100
AcDbArc
 50
36.58949699999999
 51
77.41656399999998
  0
LINE
  5
9D4A
330
9C19
100
AcDbEntity
  8
1
  6
Continuous
100
AcDbLine
 10
132.70831
 20
316.547729
 30
0.0
 11
131.20831
 21
316.547729
 31
0.0
  0
LINE
  5
9D4B
330
9C19
100
AcDbEntity
  8
1
  6
Continuous
100
AcDbLine
 10
129.608304
 20
317.0475149999999
 30
0.0
 11
129.1083039999997
 21
317.0475149999999
 31
0.0
  0
LINE
  5
9D4C
330
9C19
100
AcDbEntity
  8
1
  6
Continuous
100
AcDbLine
 10
124.108304
 20
299.0475149999999
 30
0.0
 11
124.108304
 21
327.0475149999999
 31
0.0
  0
LINE
  5
9D4D
330
9C19
100
AcDbEntity
  8
1
  6
Continuous
100
AcDbLine
 10
135.308308
 20
308.0475149999998
 30
0.0
 11
136.908299
 21
308.0475149999998
 31
0.0
  0
LINE
  5
9D4E
330
9C19
100
AcDbEntity
  8
1
  6
Continuous
100
AcDbLine
 10
131.2083019999998
 20
308.0475149999998
 30
0.0
 11
131.2083019999998
 21
324.1905899999999
 31
0.0
  0
LINE
  5
9D4F
330
9C19
100
AcDbEntity
  8
1
  6
Continuous
100
AcDbLine
 10
129.608304
 20
308.0475149999998
 30
0.0
 11
129.608304
 21
326.1511939999999
 31
0.0
  0
LINE
  5
9D50
330
9C19
100
AcDbEntity
  8
4
  6
CENTER
100
AcDbLine
 10
120.973809
 20
323.0474599999999
 30
0.0
 11
127.999527
 21
323.0474599999999
 31
0.0
  0
LINE
  5
9D51
330
9C19
100
AcDbEntity
  8
4
  6
CENTER
100
AcDbLine
 10
120.973809
 20
303.047475
 30
0.0
 11
127.999527
 21
303.047475
 31
0.0
  0
LINE
  5
9D52
330
9C19
100
AcDbEntity
  8
1
  6
Continuous
100
AcDbLine
 10
134.8083159999999
 20
324.551194
 30
0.0
 11
134.8083159999999
 21
308.0475149999998
 31
0.0
  0
LINE
  5
9D53
330
9C19
100
AcDbEntity
  8
1
  6
Continuous
100
AcDbLine
 10
133.20831
 20
324.1905899999999
 30
0.0
 11
133.20831
 21
308.0475149999998
 31
0.0
  0
LINE
  5
9D54
330
9C19
100
AcDbEntity
  8
1
  6
Continuous
100
AcDbLine
 10
131.5083129999998
 20
308.547637
 30
0.0
 11
131.5083129999998
 21
309.547729
 31
0.0
  0
LINE
  5
9D55
330
9C19
100
AcDbEntity
  8
1
  6
Continuous
100
AcDbLine
 10
131.5083129999998
 20
308.547637
 30
0.0
 11
131.20831
 21
308.547637
 31
0.0
  0
LINE
  5
9D56
330
9C19
100
AcDbEntity
  8
1
  6
Continuous
100
AcDbLine
 10
131.5083129999998
 20
316.547729
 30
0.0
 11
131.5083129999998
 21
324.1905899999999
 31
0.0
  0
LINE
  5
9D57
330
9C19
100
AcDbEntity
  8
1
  6
Continuous
100
AcDbLine
 10
134.8083159999999
 20
308.0475149999998
 30
0.0
 11
133.20831
 21
308.0475149999998
 31
0.0
  0
LINE
  5
9D58
330
9C19
100
AcDbEntity
  8
1
  6
Continuous
100
AcDbLine
 10
134.8083159999999
 20
309.0475149999999
 30
0.0
 11
135.308308
 21
309.0475149999999
 31
0.0
  0
LINE
  5
9D59
330
9C19
100
AcDbEntity
  8
1
  6
Continuous
100
AcDbLine
 10
129.608304
 20
324.1905899999999
 30
0.0
 11
133.20831
 21
324.1905899999999
 31
0.0
  0
LINE
  5
9D5A
330
9C19
100
AcDbEntity
  8
1
  6
Continuous
100
AcDbLine
 10
129.608304
 20
326.1511939999999
 30
0.0
 11
133.208316
 21
326.1511939999999
 31
0.0
  0
ARC
  5
9D5B
330
9C19
100
AcDbEntity
  8
1
  6
Continuous
100
AcDbCircle
 10
133.208316
 20
324.551194
 30
0.0
 40
1.6
100
AcDbArc
 50
0.0
 51
90.0
  0
ARC
  5
9D5C
330
9C19
100
AcDbEntity
  8
1
  6
Continuous
100
AcDbCircle
 10
325.6793229999999
 20
179.0127399999998
 30
0.0
 40
0.5
100
AcDbArc
 50
129.8056129999999
 51
179.999982
  0
LINE
  5
9D5D
330
9C19
100
AcDbEntity
  8
1
  6
Continuous
100
AcDbLine
 10
325.35924
 20
179.39685
 30
0.0
 11
326.105884
 21
179.814392
 31
0.0
  0
LINE
  5
9D5E
330
9C19
100
AcDbEntity
  8
1
  6
Continuous
100
AcDbLine
 10
132.70831
 20
316.547729
 30
0.0
 11
132.70831
 21
309.547729
 31
0.0
  0
LINE
  5
9D5F
330
9C19
100
AcDbEntity
  8
1
  6
Continuous
100
AcDbLine
 10
136.8083159999999
 20
312.0475180000001
 30
0.0
 11
136.8083159999999
 21
321.047518
 31
0.0
  0
LINE
  5
9D60
330
9C19
100
AcDbEntity
  8
1
  6
Continuous
100
AcDbLine
 10
136.3083159999999
 20
311.547518
 30
0.0
 11
136.3083159999999
 21
321.547518
 31
0.0
  0
LINE
  5
9D61
330
9C19
100
AcDbEntity
  8
1
  6
Continuous
100
AcDbLine
 10
136.8083159999999
 20
312.0475180000001
 30
0.0
 11
136.3083159999999
 21
311.547518
 31
0.0
  0
LINE
  5
9D62
330
9C19
100
AcDbEntity
  8
1
  6
Continuous
100
AcDbLine
 10
136.3083159999999
 20
311.547518
 30
0.0
 11
134.8083159999999
 21
311.547518
 31
0.0
  0
LINE
  5
9D63
330
9C19
100
AcDbEntity
  8
1
  6
Continuous
100
AcDbLine
 10
136.8083159999999
 20
321.047518
 30
0.0
 11
136.308331
 21
321.547518
 31
0.0
  0
LINE
  5
9D64
330
9C19
100
AcDbEntity
  8
1
  6
Continuous
100
AcDbLine
 10
136.308331
 20
321.547518
 30
0.0
 11
134.8083159999999
 21
321.547518
 31
0.0
  0
LINE
  5
9D65
330
9C19
100
AcDbEntity
  8
1
  6
Continuous
100
AcDbLine
 10
133.028409
 20
311.397585
 30
0.0
 11
132.70831
 21
311.2185789999998
 31
0.0
  0
ARC
  5
9D66
330
9C19
100
AcDbEntity
  8
1
  6
Continuous
100
AcDbCircle
 10
132.708325
 20
311.781695
 30
0.0
 40
0.5
100
AcDbArc
 50
309.8056129999998
 51
359.9999819999999
  0
LINE
  5
9D67
330
9C19
100
AcDbEntity
  8
1
  6
Continuous
100
AcDbLine
 10
133.028409
 20
321.697451
 30
0.0
 11
131.5083199999999
 21
322.547518
 31
0.0
  0
ARC
  5
9D68
330
9C19
100
AcDbEntity
  8
1
  6
Continuous
100
AcDbCircle
 10
132.708325
 20
321.3133409999999
 30
0.0
 40
0.5
100
AcDbArc
 50
0.000018
 51
50.194387
  0
LINE
  5
9D69
330
9C19
100
AcDbEntity
  8
4
  6
CENTER
100
AcDbLine
 10
150.3972339999999
 20
35.44631900000001
 30
0.0
 11
119.2649179999998
 21
35.44631900000001
 31
0.0
  0
LINE
  5
9D6A
330
9C19
100
AcDbEntity
  8
4
  6
CENTER
100
AcDbLine
 10
121.0784489999999
 20
31.94631599999999
 30
0.0
 11
139.9694169999999
 21
31.94631599999999
 31
0.0
  0
LINE
  5
9D6B
330
9C19
100
AcDbEntity
  8
4
  6
CENTER
100
AcDbLine
 10
120.973809
 20
45.446359
 30
0.0
 11
127.999527
 21
45.446359
 31
0.0
  0
LINE
  5
9D6C
330
9C19
100
AcDbEntity
  8
4
  6
CENTER
100
AcDbLine
 10
120.973809
 20
25.446374
 30
0.0
 11
127.999527
 21
25.446374
 31
0.0
  0
LINE
  5
9D6D
330
9C19
100
AcDbEntity
  8
1
  6
Continuous
100
AcDbLine
 10
125.108304
 20
21.44631899999998
 30
0.0
 11
124.108304
 21
21.44631899999998
 31
0.0
  0
LINE
  5
9D6E
330
9C19
100
AcDbEntity
  8
1
  6
Continuous
100
AcDbLine
 10
125.108304
 20
49.446319
 30
0.0
 11
124.108304
 21
49.446319
 31
0.0
  0
LINE
  5
9D6F
330
9C19
100
AcDbEntity
  8
4
  6
CENTER
100
AcDbLine
 10
141.208302
 20
19.446288
 30
0.0
 11
141.208302
 21
51.446288
 31
0.0
  0
LINE
  5
9D70
330
9C19
100
AcDbEntity
  8
1
  6
Continuous
100
AcDbLine
 10
135.308308
 20
26.94631599999999
 30
0.0
 11
135.308308
 21
40.446319
 31
0.0
  0
LINE
  5
9D71
330
9C19
100
AcDbEntity
  8
1
  6
Continuous
100
AcDbLine
 10
136.3083159999999
 20
30.446319
 30
0.0
 11
136.3083159999999
 21
26.94631599999999
 31
0.0
  0
LINE
  5
9D72
330
9C19
100
AcDbEntity
  8
1
  6
Continuous
100
AcDbLine
 10
136.8083159999999
 20
30.446319
 30
0.0
 11
136.8083159999999
 21
27.44631599999999
 31
0.0
  0
LINE
  5
9D73
330
9C19
100
AcDbEntity
  8
1
  6
Continuous
100
AcDbLine
 10
134.8083159999999
 20
23.94264
 30
0.0
 11
134.8083159999999
 21
40.446319
 31
0.0
  0
LINE
  5
9D74
330
9C19
100
AcDbEntity
  8
1
  6
Continuous
100
AcDbLine
 10
133.20831
 20
24.303245
 30
0.0
 11
133.20831
 21
40.446319
 31
0.0
  0
LINE
  5
9D75
330
9C19
100
AcDbEntity
  8
1
  6
Continuous
100
AcDbLine
 10
145.5082899999998
 20
23.894847
 30
0.0
 11
145.5082899999998
 21
46.997821
 31
0.0
  0
LINE
  5
9D76
330
9C19
100
AcDbEntity
  8
1
  6
Continuous
100
AcDbLine
 10
136.908299
 20
23.894873
 30
0.0
 11
136.908299
 21
30.446319
 31
0.0
  0
LINE
  5
9D77
330
9C19
100
AcDbEntity
  8
1
  6
Continuous
100
AcDbLine
 10
131.5083129999998
 20
39.94619699999999
 30
0.0
 11
131.5083129999998
 21
24.303245
 31
0.0
  0
LINE
  5
9D78
330
9C19
100
AcDbEntity
  8
1
  6
Continuous
100
AcDbLine
 10
129.608304
 20
40.446319
 30
0.0
 11
129.608304
 21
22.34264
 31
0.0
  0
LINE
  5
9D79
330
9C19
100
AcDbEntity
  8
1
  6
Continuous
100
AcDbLine
 10
131.2083019999998
 20
40.446319
 30
0.0
 11
131.2083019999998
 21
24.303245
 31
0.0
  0
ARC
  5
9D7A
330
9C19
100
AcDbEntity
  8
1
  6
Continuous
100
AcDbCircle
 10
123.692207
 20
35.790188
 30
0.0
 40
6.5
100
AcDbArc
 50
282.5834359999999
 51
323.7461099999998
  0
LINE
  5
9D7B
330
9C19
100
AcDbEntity
  8
1
  6
Continuous
100
AcDbLine
 10
125.108304
 20
49.446319
 30
0.0
 11
125.108304
 21
21.44631899999998
 31
0.0
  0
LINE
  5
9D7C
330
9C19
100
AcDbEntity
  8
4
  6
CENTER
100
AcDbLine
 10
147.208226
 20
45.446319
 30
0.0
 11
135.2082259999999
 21
45.446319
 31
0.0
  0
CIRCLE
  5
9D7D
330
9C19
100
AcDbEntity
  8
1
  6
Continuous
100
AcDbCircle
 10
141.2082559999998
 20
45.446288
 30
0.0
 40
1.649999999999999
  0
LINE
  5
9D7E
330
9C19
100
AcDbEntity
  8
1
  6
Continuous
100
AcDbLine
 10
136.908299
 20
30.446319
 30
0.0
 11
135.308308
 21
30.446319
 31
0.0
  0
LINE
  5
9D7F
330
9C19
100
AcDbEntity
  8
1
  6
Continuous
100
AcDbLine
 10
134.8083159999999
 20
40.446319
 30
0.0
 11
133.20831
 21
40.446319
 31
0.0
  0
LINE
  5
9D80
330
9C19
100
AcDbEntity
  8
1
  6
Continuous
100
AcDbLine
 10
135.308308
 20
40.446319
 30
0.0
 11
136.908299
 21
40.446319
 31
0.0
  0
LINE
  5
9D81
330
9C19
100
AcDbEntity
  8
1
  6
Continuous
100
AcDbLine
 10
134.8083159999999
 20
39.446319
 30
0.0
 11
135.308308
 21
39.446319
 31
0.0
  0
LINE
  5
9D82
330
9C19
100
AcDbEntity
  8
1
  6
Continuous
100
AcDbLine
 10
131.5083129999998
 20
39.94619699999999
 30
0.0
 11
131.20831
 21
39.94619699999999
 31
0.0
  0
LINE
  5
9D83
330
9C19
100
AcDbEntity
  8
1
  6
Continuous
100
AcDbLine
 10
129.608304
 20
31.446319
 30
0.0
 11
129.1083039999997
 21
31.446319
 31
0.0
  0
LINE
  5
9D84
330
9C19
100
AcDbEntity
  8
1
  6
Continuous
100
AcDbLine
 10
129.608304
 20
39.446319
 30
0.0
 11
129.1083039999997
 21
39.446319
 31
0.0
  0
LINE
  5
9D85
330
9C19
100
AcDbEntity
  8
1
  6
Continuous
100
AcDbLine
 10
132.70831
 20
38.94610499999997
 30
0.0
 11
131.5083129999998
 21
38.94610499999997
 31
0.0
  0
LINE
  5
9D86
330
9C19
100
AcDbEntity
  8
1
  6
Continuous
100
AcDbLine
 10
131.2083019999998
 20
40.446319
 30
0.0
 11
129.608304
 21
40.446319
 31
0.0
  0
ARC
  5
9D87
330
9C19
100
AcDbEntity
  8
1
  6
Continuous
100
AcDbCircle
 10
123.692207
 20
35.10244999999999
 30
0.0
 40
6.5
100
AcDbArc
 50
36.25389000000001
 51
77.41656399999998
  0
LINE
  5
9D88
330
9C19
100
AcDbEntity
  8
1
  6
Continuous
100
AcDbLine
 10
129.1083039999997
 20
39.446319
 30
0.0
 11
129.1083039999997
 21
31.446319
 31
0.0
  0
LINE
  5
9D89
330
9C19
100
AcDbEntity
  8
4
  6
CENTER
100
AcDbLine
 10
147.208226
 20
25.446319
 30
0.0
 11
135.2082259999999
 21
25.446319
 31
0.0
  0
CIRCLE
  5
9D8A
330
9C19
100
AcDbEntity
  8
1
  6
Continuous
100
AcDbCircle
 10
141.2082559999998
 20
25.446319
 30
0.0
 40
1.649999999999999
  0
ARC
  5
9D8B
330
9C19
100
AcDbEntity
  8
1
  6
Continuous
100
AcDbCircle
 10
132.708325
 20
27.180493
 30
0.0
 40
0.5
100
AcDbArc
 50
309.8056129999998
 51
359.9999819999999
  0
LINE
  5
9D8C
330
9C19
100
AcDbEntity
  8
1
  6
Continuous
100
AcDbLine
 10
133.028409
 20
26.79638300000001
 30
0.0
 11
131.5083199999999
 21
25.946316
 31
0.0
  0
LINE
  5
9D8D
330
9C19
100
AcDbEntity
  8
1
  6
Continuous
100
AcDbLine
 10
136.3083159999999
 20
26.94631599999999
 30
0.0
 11
134.8083159999999
 21
26.94631599999999
 31
0.0
  0
LINE
  5
9D8E
330
9C19
100
AcDbEntity
  8
1
  6
Continuous
100
AcDbLine
 10
136.8083159999999
 20
27.44631599999999
 30
0.0
 11
136.308331
 21
26.94631599999999
 31
0.0
  0
LINE
  5
9D8F
330
9C19
100
AcDbEntity
  8
1
  6
Continuous
100
AcDbLine
 10
129.608304
 20
24.303245
 30
0.0
 11
133.20831
 21
24.303245
 31
0.0
  0
LINE
  5
9D90
330
9C19
100
AcDbEntity
  8
1
  6
Continuous
100
AcDbLine
 10
129.608304
 20
22.34264
 30
0.0
 11
133.208316
 21
22.34264
 31
0.0
  0
ARC
  5
9D91
330
9C19
100
AcDbEntity
  8
1
  6
Continuous
100
AcDbCircle
 10
133.208316
 20
23.94264
 30
0.0
 40
1.6
100
AcDbArc
 50
270.0
 51
0.0
  0
LINE
  5
9D92
330
9C19
100
AcDbEntity
  8
1
  6
Continuous
100
AcDbLine
 10
124.108304
 20
49.446319
 30
0.0
 11
124.108304
 21
21.44631899999998
 31
0.0
  0
LINE
  5
9D93
330
9C19
100
AcDbEntity
  8
1
  6
Continuous
100
AcDbLine
 10
136.908299
 20
40.446319
 30
0.0
 11
136.908299
 21
46.997795
 31
0.0
  0
LINE
  5
9D94
330
9C19
100
AcDbEntity
  8
1
  6
Continuous
100
AcDbLine
 10
134.8083159999999
 20
31.446319
 30
0.0
 11
135.308308
 21
31.446319
 31
0.0
  0
LINE
  5
9D95
330
9C19
100
AcDbEntity
  8
1
  6
Continuous
100
AcDbLine
 10
132.20831
 20
33.946319
 30
0.0
 11
132.20831
 21
36.946319
 31
0.0
  0
LINE
  5
9D96
330
9C19
100
AcDbEntity
  8
1
  6
Continuous
100
AcDbLine
 10
133.2082949999999
 20
37.44635699999999
 30
0.0
 11
132.2082949999999
 21
36.946357
 31
0.0
  0
LINE
  5
9D97
330
9C19
100
AcDbEntity
  8
1
  6
Continuous
100
AcDbLine
 10
133.2083169999999
 20
33.446327
 30
0.0
 11
132.20831
 21
33.946334
 31
0.0
  0
LINE
  5
9D98
330
9C19
100
AcDbEntity
  8
1
  6
Continuous
100
AcDbLine
 10
132.70831
 20
37.275255
 30
0.0
 11
132.70831
 21
38.94610499999997
 31
0.0
  0
LINE
  5
9D99
330
9C19
100
AcDbEntity
  8
1
  6
Continuous
100
AcDbLine
 10
132.7827899999997
 20
37.233605
 30
0.0
 11
131.5083199999999
 21
37.94631599999997
 31
0.0
  0
LINE
  5
9D9A
330
9C19
100
AcDbEntity
  8
1
  6
Continuous
100
AcDbLine
 10
126.70831
 20
38.946319
 30
0.0
 11
126.70831
 21
31.946319
 31
0.0
  0
LINE
  5
9D9B
330
9C19
100
AcDbEntity
  8
1
  6
Continuous
100
AcDbLine
 10
126.108304
 20
33.446319
 30
0.0
 11
126.108304
 21
37.446319
 31
0.0
  0
LINE
  5
9D9C
330
9C19
100
AcDbEntity
  8
1
  6
Continuous
100
AcDbLine
 10
126.108304
 20
33.446319
 30
0.0
 11
126.70831
 21
32.846313
 31
0.0
  0
LINE
  5
9D9D
330
9C19
100
AcDbEntity
  8
1
  6
Continuous
100
AcDbLine
 10
126.108304
 20
37.446319
 30
0.0
 11
126.70831
 21
38.04631
 31
0.0
  0
LINE
  5
9D9E
330
9C19
100
AcDbEntity
  8
1
  6
Continuous
100
AcDbLine
 10
129.1083039999997
 20
38.946319
 30
0.0
 11
126.70831
 21
38.946319
 31
0.0
  0
ARC
  5
9D9F
330
9C19
100
AcDbEntity
  8
1
  6
Continuous
100
AcDbCircle
 10
130.976221
 20
37.196319
 30
0.0
 40
4.267911999999999
100
AcDbArc
 50
155.7928649999998
 51
204.207135
  0
LINE
  5
9DA0
330
9C19
100
AcDbEntity
  8
1
  6
Continuous
100
AcDbLine
 10
129.1083039999997
 20
35.44631900000001
 30
0.0
 11
126.70831
 21
35.44631900000001
 31
0.0
  0
ARC
  5
9DA1
330
9C19
100
AcDbEntity
  8
1
  6
Continuous
100
AcDbCircle
 10
124.8403919999998
 20
37.196319
 30
0.0
 40
4.267911999999999
100
AcDbArc
 50
335.792865
 51
24.207135
  0
ARC
  5
9DA2
330
9C19
100
AcDbEntity
  8
1
  6
Continuous
100
AcDbCircle
 10
124.8403919999998
 20
33.696319
 30
0.0
 40
4.267911999999999
100
AcDbArc
 50
335.792865
 51
24.207135
  0
ARC
  5
9DA3
330
9C19
100
AcDbEntity
  8
1
  6
Continuous
100
AcDbCircle
 10
130.976221
 20
33.696319
 30
0.0
 40
4.267911999999999
100
AcDbArc
 50
155.7928649999998
 51
204.207135
  0
LINE
  5
9DA4
330
9C19
100
AcDbEntity
  8
1
  6
Continuous
100
AcDbLine
 10
129.1083039999997
 20
31.946319
 30
0.0
 11
126.70831
 21
31.946319
 31
0.0
  0
ARC
  5
9DA5
330
9C19
100
AcDbEntity
  8
1
  6
Continuous
100
AcDbCircle
 10
141.208302
 20
322.047527
 30
0.0
 40
5.0
100
AcDbArc
 50
30.68369099999999
 51
149.316651
  0
ARC
  5
9DA6
330
9C19
100
AcDbEntity
  8
1
  6
Continuous
100
AcDbCircle
 10
141.208302
 20
304.0475339999999
 30
0.0
 40
5.0
100
AcDbArc
 50
210.683349
 51
329.316309
  0
LINE
  5
9DA7
330
9C19
100
AcDbEntity
  8
1
  6
Continuous
100
AcDbLine
 10
37.75810899999999
 20
91.646926
 30
0.0
 11
37.75810899999999
 21
93.246917
 31
0.0
  0
LINE
  5
9DA8
330
9C19
100
AcDbEntity
  8
1
  6
Continuous
100
AcDbLine
 10
60.86108299999999
 20
91.646926
 30
0.0
 11
60.86108299999999
 21
93.246917
 31
0.0
  0
LINE
  5
9DA9
330
9C19
100
AcDbEntity
  8
1
  6
Continuous
100
AcDbLine
 10
215.705918
 20
91.646926
 30
0.0
 11
215.705918
 21
93.246917
 31
0.0
  0
LINE
  5
9DAA
330
9C19
100
AcDbEntity
  8
1
  6
Continuous
100
AcDbLine
 10
238.8088919999999
 20
91.646926
 30
0.0
 11
238.8088919999999
 21
93.246917
 31
0.0
  0
ARC
  5
9DAB
330
9C19
100
AcDbEntity
  8
1
  6
Continuous
100
AcDbCircle
 10
141.208302
 20
44.44632999999998
 30
0.0
 40
5.0
100
AcDbArc
 50
30.68369099999999
 51
149.316651
  0
ARC
  5
9DAC
330
9C19
100
AcDbEntity
  8
1
  6
Continuous
100
AcDbCircle
 10
141.208302
 20
26.446338
 30
0.0
 40
5.0
100
AcDbArc
 50
210.683349
 51
329.316309
  0
LINE
  5
9DAD
330
9C19
100
AcDbEntity
  8
1
  6
Continuous
100
AcDbLine
 10
43.62329699999999
 20
242.1424839999999
 30
0.0
 11
37.356434
 21
175.1380369999999
 31
0.0
  0
LINE
  5
9DAE
330
9C19
100
AcDbEntity
  8
1
  6
Continuous
100
AcDbLine
 10
54.309587
 20
241.935403
 30
0.0
 11
54.30959099999999
 21
174.4001939999999
 31
0.0
  0
LINE
  5
9DAF
330
9C19
100
AcDbEntity
  8
4
  6
CENTER
100
AcDbLine
 10
33.30959099999999
 20
249.246917
 30
0.0
 11
65.309591
 21
249.246917
 31
0.0
  0
ARC
  5
9DB0
330
9C19
100
AcDbEntity
  8
1
  6
Continuous
100
AcDbCircle
 10
49.30959099999999
 20
259.746917
 30
0.0
 40
18.5
100
AcDbArc
 50
226.777879
 51
313.6028309999999
  0
LINE
  5
9DB1
330
9C19
100
AcDbEntity
  8
4
  6
CENTER
100
AcDbLine
 10
49.309636
 20
260.2469169999998
 30
0.0
 11
49.309636
 21
238.2469169999999
 31
0.0
  0
ARC
  5
9DB2
330
9C19
100
AcDbEntity
  8
1
  6
Continuous
100
AcDbCircle
 10
49.30959099999999
 20
249.246917
 30
0.0
 40
6.0
100
AcDbArc
 50
182.0150869999999
 51
180.0000729999999
  0
ARC
  5
9DB3
330
9C19
100
AcDbEntity
  8
1
  6
Continuous
100
AcDbCircle
 10
49.309606
 20
238.746917
 30
0.0
 40
18.5
100
AcDbArc
 50
46.39719699999999
 51
133.602802
  0
CIRCLE
  5
9DB4
330
9C19
100
AcDbEntity
  8
1
  6
Continuous
100
AcDbCircle
 10
49.309636
 20
249.246917
 30
0.0
 40
1.5
  0
CIRCLE
  5
9DB5
330
9C19
100
AcDbEntity
  8
1
  6
Continuous
100
AcDbCircle
 10
49.309636
 20
249.246917
 30
0.0
 40
2.0
  0
CIRCLE
  5
9DB6
330
9C19
100
AcDbEntity
  8
1
  6
Continuous
100
AcDbCircle
 10
49.309636
 20
249.246917
 30
0.0
 40
3.0
  0
LINE
  5
9DB7
330
9C19
100
AcDbEntity
  8
4
  6
CENTER
100
AcDbLine
 10
39.309652
 20
255.246917
 30
0.0
 11
39.309652
 21
243.246917
 31
0.0
  0
ARC
  5
9DB8
330
9C19
100
AcDbEntity
  8
1
  6
Continuous
100
AcDbCircle
 10
39.30959099999999
 20
249.246917
 30
0.0
 40
4.0
100
AcDbArc
 50
133.6027879999998
 51
226.397195
  0
CIRCLE
  5
9DB9
330
9C19
100
AcDbEntity
  8
1
  6
Continuous
100
AcDbCircle
 10
39.30959099999999
 20
249.246917
 30
0.0
 40
1.8
  0
LINE
  5
9DBA
330
9C19
100
AcDbEntity
  8
4
  6
CENTER
100
AcDbLine
 10
59.309636
 20
255.246917
 30
0.0
 11
59.309636
 21
243.246917
 31
0.0
  0
ARC
  5
9DBB
330
9C19
100
AcDbEntity
  8
1
  6
Continuous
100
AcDbCircle
 10
59.309606
 20
249.246917
 30
0.0
 40
4.0
100
AcDbArc
 50
313.60282
 51
46.39721
  0
CIRCLE
  5
9DBC
330
9C19
100
AcDbEntity
  8
1
  6
Continuous
100
AcDbCircle
 10
59.309606
 20
249.246917
 30
0.0
 40
1.8
  0
ARC
  5
9DBD
330
9C19
100
AcDbEntity
  8
1
  6
Continuous
100
AcDbCircle
 10
45.80959299999999
 20
174.2469169999999
 30
0.0
 40
8.5
100
AcDbArc
 50
173.9821889999998
 51
352.5821869999999
  0
LINE
  5
9DBE
330
9C19
100
AcDbEntity
  8
1
  6
Continuous
100
AcDbLine
 10
222.2574149999999
 20
249.246917
 30
0.0
 11
222.25741
 21
174.4001939999999
 31
0.0
  0
LINE
  5
9DBF
330
9C19
100
AcDbEntity
  8
1
  6
Continuous
100
AcDbLine
 10
232.2356529999999
 20
249.712872
 30
0.0
 11
238.400479
 21
183.799387
 31
0.0
  0
LINE
  5
9DC0
330
9C19
100
AcDbEntity
  8
4
  6
CENTER
100
AcDbLine
 10
243.2574129999999
 20
249.246917
 30
0.0
 11
211.2574069999999
 21
249.246917
 31
0.0
  0
ARC
  5
9DC1
330
9C19
100
AcDbEntity
  8
1
  6
Continuous
100
AcDbCircle
 10
227.2574109999999
 20
249.246916
 30
0.0
 40
5.0
100
AcDbArc
 50
5.347247999999998
 51
179.999989
  0
ARC
  5
9DC2
330
9C19
100
AcDbEntity
  8
1
  6
Continuous
100
AcDbCircle
 10
227.2574109999999
 20
249.246917
 30
0.0
 40
6.0
100
AcDbArc
 50
331.7859809999998
 51
213.5573759999998
  0
ARC
  5
9DC3
330
9C19
100
AcDbEntity
  8
1
  6
Continuous
100
AcDbCircle
 10
227.2574029999999
 20
238.746917
 30
0.0
 40
18.5
100
AcDbArc
 50
46.39719699999999
 51
133.602798
  0
ARC
  5
9DC4
330
9C19
100
AcDbEntity
  8
1
  6
Continuous
100
AcDbCircle
 10
227.257418
 20
259.746917
 30
0.0
 40
18.5
100
AcDbArc
 50
226.397175
 51
254.319637
  0
LINE
  5
9DC5
330
9C19
100
AcDbEntity
  8
4
  6
CENTER
100
AcDbLine
 10
217.257372
 20
255.246917
 30
0.0
 11
217.257372
 21
243.246917
 31
0.0
  0
ARC
  5
9DC6
330
9C19
100
AcDbEntity
  8
1
  6
Continuous
100
AcDbCircle
 10
217.2574029999999
 20
249.246917
 30
0.0
 40
4.0
100
AcDbArc
 50
133.6027879999998
 51
226.397181
  0
CIRCLE
  5
9DC7
330
9C19
100
AcDbEntity
  8
1
  6
Continuous
100
AcDbCircle
 10
217.2574029999999
 20
249.246917
 30
0.0
 40
1.8
  0
CIRCLE
  5
9DC8
330
9C19
100
AcDbEntity
  8
1
  6
Continuous
100
AcDbCircle
 10
217.2574029999999
 20
249.246917
 30
0.0
 40
2.799999999999998
  0
ARC
  5
9DC9
330
9C19
100
AcDbEntity
  8
1
  6
Continuous
100
AcDbCircle
 10
227.257418
 20
259.746917
 30
0.0
 40
18.5
100
AcDbArc
 50
287.900614
 51
313.6028029999998
  0
LINE
  5
9DCA
330
9C19
100
AcDbEntity
  8
4
  6
CENTER
100
AcDbLine
 10
227.257365
 20
260.2469169999998
 30
0.0
 11
227.257365
 21
238.2469169999999
 31
0.0
  0
CIRCLE
  5
9DCB
330
9C19
100
AcDbEntity
  8
1
  6
Continuous
100
AcDbCircle
 10
237.2574129999999
 20
249.246917
 30
0.0
 40
2.799999999999998
  0
LINE
  5
9DCC
330
9C19
100
AcDbEntity
  8
4
  6
CENTER
100
AcDbLine
 10
237.257359
 20
255.246917
 30
0.0
 11
237.257359
 21
243.246917
 31
0.0
  0
CIRCLE
  5
9DCD
330
9C19
100
AcDbEntity
  8
1
  6
Continuous
100
AcDbCircle
 10
237.2574129999999
 20
249.246917
 30
0.0
 40
1.8
  0
CIRCLE
  5
9DCE
330
9C19
100
AcDbEntity
  8
1
  6
Continuous
100
AcDbCircle
 10
227.2574029999999
 20
249.246917
 30
0.0
 40
3.5
  0
ARC
  5
9DCF
330
9C19
100
AcDbEntity
  8
1
  6
Continuous
100
AcDbCircle
 10
237.2574129999999
 20
249.246917
 30
0.0
 40
4.0
100
AcDbArc
 50
313.602807
 51
46.39721
  0
ENDSEC
  0
SECTION
  2
OBJECTS
  0
DICTIONARY
  5
9C07
330
0
100
AcDbDictionary
281
     1
  3
ACAD_CIP_PREVIOUS_PRODUCT_INFO
350
9E35
  3
ACAD_COLOR
350
9E17
  3
ACAD_DETAILVIEWSTYLE
350
9E30
  3
ACAD_GROUP
350
9C08
  3
ACAD_LAYOUT
350
9C14
  3
ACAD_MATERIAL
350
9DE5
  3
ACAD_MLEADERSTYLE
350
9E2C
  3
ACAD_MLINESTYLE
350
9C11
  3
ACAD_PLOTSETTINGS
350
9C13
  3
ACAD_PLOTSTYLENAME
350
9DE3
  3
ACAD_SCALELIST
350
9E1A
  3
ACAD_SECTIONVIEWSTYLE
350
9E2E
  3
ACAD_TABLESTYLE
350
9E18
  3
ACAD_VISUALSTYLE
350
9DFE
  3
ACDB_RECOMPOSE_DATA
350
9E53
  3
AcDbVariableDictionary
350
9E46
  3
DWGPROPS
350
9E54
  0
DICTIONARY
  5
9E36
330
9C0B
100
AcDbDictionary
280
     1
281
     1
  3
ADSK_XREC_LAYER_RECONCILED
360
9E37
  0
DICTIONARY
  5
9E38
330
9C21
100
AcDbDictionary
280
     1
281
     1
  3
ADSK_XREC_LAYER_RECONCILED
360
9E39
  0
DICTIONARY
  5
9E3A
330
9C22
100
AcDbDictionary
280
     1
281
     1
  3
ADSK_XREC_LAYER_RECONCILED
360
9E3B
  0
DICTIONARY
  5
9E3C
330
9C23
100
AcDbDictionary
280
     1
281
     1
  3
ADSK_XREC_LAYER_RECONCILED
360
9E3D
  0
DICTIONARY
  5
9E3E
330
9C24
100
AcDbDictionary
280
     1
281
     1
  3
ADSK_XREC_LAYER_RECONCILED
360
9E3F
  0
DICTIONARY
  5
9E40
330
9C25
100
AcDbDictionary
280
     1
281
     1
  3
ADSK_XREC_LAYER_RECONCILED
360
9E41
  0
DICTIONARY
  5
9E42
330
9C26
100
AcDbDictionary
280
     1
281
     1
  3
ADSK_XREC_LAYER_RECONCILED
360
9E43
  0
DICTIONARY
  5
9E44
330
9C27
100
AcDbDictionary
280
     1
281
     1
  3
ADSK_XREC_LAYER_RECONCILED
360
9E45
  0
DICTIONARY
  5
9DDE
330
9C19
100
AcDbDictionary
281
     1
  3
ACAD_LAYOUTSELFREF
350
9DDF
  0
DICTIONARY
  5
9DDC
330
9C15
100
AcDbDictionary
281
     1
  3
ACAD_LAYOUTSELFREF
350
9DDD
  0
XRECORD
  5
9E35
102
{ACAD_REACTORS
330
9C07
102
}
330
9C07
100
AcDbXrecord
280
     1
300
ACDLT
300
2014
300
ACDLT_F_S
  0
DICTIONARY
  5
9E17
102
{ACAD_REACTORS
330
9C07
102
}
330
9C07
100
AcDbDictionary
281
     1
  0
DICTIONARY
  5
9E30
102
{ACAD_REACTORS
330
9C07
102
}
330
9C07
100
AcDbDictionary
281
     1
  3
Imperial24
350
9E31
  0
DICTIONARY
  5
9C08
102
{ACAD_REACTORS
330
9C07
102
}
330
9C07
100
AcDbDictionary
281
     1
  0
DICTIONARY
  5
9C14
102
{ACAD_REACTORS
330
9C07
102
}
330
9C07
100
AcDbDictionary
281
     1
  3
Model
350
9E32
  3
レイアウト1
350
9E33
  0
DICTIONARY
  5
9DE5
102
{ACAD_REACTORS
330
9C07
102
}
330
9C07
100
AcDbDictionary
281
     1
  3
ByBlock
350
9DEE
  3
ByLayer
350
9DE6
  3
Global
350
9DF6
  0
DICTIONARY
  5
9E2C
102
{ACAD_REACTORS
330
9C07
102
}
330
9C07
100
AcDbDictionary
281
     1
  3
Standard
350
9E2D
  0
DICTIONARY
  5
9C11
102
{ACAD_REACTORS
330
9C07
102
}
330
9C07
100
AcDbDictionary
281
     1
  3
STANDARD
350
9C12
  0
DICTIONARY
  5
9C13
102
{ACAD_REACTORS
330
9C07
102
}
330
9C07
100
AcDbDictionary
281
     1
  0
ACDBDICTIONARYWDFLT
  5
9DE3
102
{ACAD_REACTORS
330
9C07
102
}
330
9C07
100
AcDbDictionary
281
     1
  3
Normal
350
9DE4
100
AcDbDictionaryWithDefault
340
9DE4
  0
DICTIONARY
  5
9E1A
102
{ACAD_REACTORS
330
9C07
102
}
330
9C07
100
AcDbDictionary
281
     1
  3
A0
350
9E1B
  3
A1
350
9E1C
  3
A2
350
9E1D
  3
A3
350
9E1E
  3
A4
350
9E1F
  3
A5
350
9E20
  3
A6
350
9E21
  3
A7
350
9E22
  3
A8
350
9E23
  3
A9
350
9E24
  3
B0
350
9E25
  3
B1
350
9E26
  3
B2
350
9E27
  3
B3
350
9E28
  3
B4
350
9E29
  3
B5
350
9E2A
  3
B6
350
9E2B
  0
DICTIONARY
  5
9E2E
102
{ACAD_REACTORS
330
9C07
102
}
330
9C07
100
AcDbDictionary
281
     1
  3
Imperial24
350
9E2F
  0
DICTIONARY
  5
9E18
102
{ACAD_REACTORS
330
9C07
102
}
330
9C07
100
AcDbDictionary
281
     1
  3
Standard
350
9E19
  0
DICTIONARY
  5
9DFE
102
{ACAD_REACTORS
330
9C07
102
}
330
9C07
100
AcDbDictionary
281
     1
  3
2dWireframe
350
9E04
  3
Basic
350
9E03
  3
Brighten
350
9E0A
  3
ColorChange
350
9E0E
  3
Conceptual
350
9E07
  3
Dim
350
9E09
  3
EdgeColorOff
350
9E16
  3
Facepattern
350
9E0D
  3
Flat
350
9DFF
  3
FlatWithEdges
350
9E00
  3
Gouraud
350
9E01
  3
GouraudWithEdges
350
9E02
  3
Hidden
350
9E06
  3
JitterOff
350
9E14
  3
Linepattern
350
9E0C
  3
OverhangOff
350
9E15
  3
Realistic
350
9E08
  3
Shaded
350
9E13
  3
Shaded with edges
350
9E12
  3
Shades of Gray
350
9E0F
  3
Sketchy
350
9E10
  3
Thicken
350
9E0B
  3
Wireframe
350
9E05
  3
X-Ray
350
9E11
  0
XRECORD
  5
9E53
102
{ACAD_REACTORS
330
9C07
102
}
330
9C07
100
AcDbXrecord
280
     1
 90
        1
330
9E19
  0
DICTIONARY
  5
9E46
102
{ACAD_REACTORS
330
9C07
102
}
330
9C07
100
AcDbDictionary
281
     1
  3
CANNOSCALE
350
9E4B
  3
CMLEADERSTYLE
350
9E48
  3
CTABLESTYLE
350
9E47
  3
CVIEWDETAILSTYLE
350
9E49
  3
CVIEWSECTIONSTYLE
350
9E4A
  3
DIMASSOC
350
9E4E
  3
INDEXCTL
350
9E4D
  3
SORTENTS
350
9E4C
  3
XCLIPFRAME
350
9E4F
  0
XRECORD
  5
9E54
102
{ACAD_REACTORS
330
9C07
102
}
330
9C07
100
AcDbXrecord
280
     1
  1
DWGPROPS COOKIE
  2

  3

  4

  6

  7

  8
Yoshitsune
  9

300
=
301
=
302
=
303
=
304
=
305
=
306
=
307
=
308
=
309
=
 40
0.0000134606481481
 41
2451073.575040625
 42
2457192.622579861
  1

 90
        0
  0
XRECORD
  5
9E37
102
{ACAD_REACTORS
330
9E36
102
}
330
9E36
100
AcDbXrecord
280
     1
290
     1
  0
XRECORD
  5
9E39
102
{ACAD_REACTORS
330
9E38
102
}
330
9E38
100
AcDbXrecord
280
     1
290
     1
  0
XRECORD
  5
9E3B
102
{ACAD_REACTORS
330
9E3A
102
}
330
9E3A
100
AcDbXrecord
280
     1
290
     1
  0
XRECORD
  5
9E3D
102
{ACAD_REACTORS
330
9E3C
102
}
330
9E3C
100
AcDbXrecord
280
     1
290
     1
  0
XRECORD
  5
9E3F
102
{ACAD_REACTORS
330
9E3E
102
}
330
9E3E
100
AcDbXrecord
280
     1
290
     1
  0
XRECORD
  5
9E41
102
{ACAD_REACTORS
330
9E40
102
}
330
9E40
100
AcDbXrecord
280
     1
290
     1
  0
XRECORD
  5
9E43
102
{ACAD_REACTORS
330
9E42
102
}
330
9E42
100
AcDbXrecord
280
     1
290
     1
  0
XRECORD
  5
9E45
102
{ACAD_REACTORS
330
9E44
102
}
330
9E44
100
AcDbXrecord
280
     1
290
     1
  0
XRECORD
  5
9DDF
102
{ACAD_REACTORS
330
9DDE
102
}
330
9DDE
100
AcDbXrecord
280
     1
340
9C19
  0
XRECORD
  5
9DDD
102
{ACAD_REACTORS
330
9DDC
102
}
330
9DDC
100
AcDbXrecord
280
     1
340
9C15
  0
ACDBDETAILVIEWSTYLE
  5
9E31
102
{ACAD_XDICTIONARY
360
9E8C
102
}
102
{ACAD_REACTORS
330
9E30
102
}
330
9E30
100
AcDbModelDocViewStyle
 70
     0
  3
Imperial24
290
     0
100
AcDbDetailViewStyle
 70
     0
 71
     0
 90
        3
 71
     1
340
9C0C
 40
0.24
340
0
 40
0.24
300

 40
0.36
280
     3
 71
     2
340
9C10
 90
       25
 71
     3
340
9C0C
 40
0.24
 90
        1
 40
0.75
 90
        1
300
%<\AcVar ViewType \f "%tc1">% %<\AcVar ViewDetailId>%\PSCALE %<\AcVar ViewScale \f "%sn">%
 71
     4
340
9C10
 90
       25
340
9C10
 90
       25
280
     0
  0
LAYOUT
  5
9E32
102
{ACAD_XDICTIONARY
360
9E8E
102
}
102
{ACAD_REACTORS
330
9C14
102
}
330
9C14
100
AcDbPlotSettings
  1

  2
Canon LBP9100C
  4

  6

 40
0.0
 41
0.0
 42
0.0
 43
0.0
 44
0.0
 45
0.0
 46
0.0
 47
0.0
 48
0.0
 49
0.0
140
0.0
141
0.0
142
1.0
143
1.0
 70
  1712
 72
     0
 73
     0
 74
     0
  7

 75
     0
147
1.0
148
0.0
149
0.0
100
AcDbLayout
  1
Model
 70
     1
 71
     0
 10
0.0
 20
0.0
 11
12.0
 21
9.0
 12
0.0
 22
0.0
 32
0.0
 14
0.0
 24
0.0
 34
0.0
 15
0.0
 25
0.0
 35
0.0
146
0.0
 13
0.0
 23
0.0
 33
0.0
 16
1.0
 26
0.0
 36
0.0
 17
0.0
 27
1.0
 37
0.0
 76
     0
330
9C19
331
9DDB
  0
LAYOUT
  5
9E33
102
{ACAD_XDICTIONARY
360
9E90
102
}
102
{ACAD_REACTORS
330
9C14
102
}
330
9C14
100
AcDbPlotSettings
  1

  2
Canon LBP9100C
  4

  6

 40
0.0
 41
0.0
 42
0.0
 43
0.0
 44
0.0
 45
0.0
 46
0.0
 47
0.0
 48
0.0
 49
0.0
140
0.0
141
0.0
142
1.0
143
1.0
 70
   688
 72
     0
 73
     0
 74
     5
  7

 75
    16
147
1.0
148
0.0
149
0.0
100
AcDbLayout
  1
レイアウト1
 70
     0
 71
     1
 10
0.0
 20
0.0
 11
420.0
 21
297.0
 12
0.0
 22
0.0
 32
0.0
 14
1.000000000000000E+20
 24
1.000000000000000E+20
 34
1.000000000000000E+20
 15
-1.000000000000000E+20
 25
-1.000000000000000E+20
 35
-1.000000000000000E+20
146
0.0
 13
0.0
 23
0.0
 33
0.0
 16
1.0
 26
0.0
 36
0.0
 17
0.0
 27
1.0
 37
0.0
 76
     0
330
9C15
  0
MATERIAL
  5
9DEE
102
{ACAD_XDICTIONARY
360
9DEF
102
}
102
{ACAD_REACTORS
330
9DE5
102
}
330
9DE5
100
AcDbMaterial
  1
ByBlock
 72
     0
 43
0.0208333333333333
 43
0.0
 43
0.0
 43
0.0
 43
0.0
 43
0.0208333333333333
 43
0.0
 43
0.0
 43
0.0
 43
0.0
 43
1.0
 43
0.0
 43
0.0
 43
0.0
 43
0.0
 43
1.0
 77
     0
 47
0.0208333333333333
 47
0.0
 47
0.0
 47
0.0
 47
0.0
 47
0.0208333333333333
 47
0.0
 47
0.0
 47
0.0
 47
0.0
 47
1.0
 47
0.0
 47
0.0
 47
0.0
 47
0.0
 47
1.0
171
     0
 49
0.0208333333333333
 49
0.0
 49
0.0
 49
0.0
 49
0.0
 49
0.0208333333333333
 49
0.0
 49
0.0
 49
0.0
 49
0.0
 49
1.0
 49
0.0
 49
0.0
 49
0.0
 49
0.0
 49
1.0
175
     0
142
0.0208333333333333
142
0.0
142
0.0
142
0.0
142
0.0
142
0.0208333333333333
142
0.0
142
0.0
142
0.0
142
0.0
142
1.0
142
0.0
142
0.0
142
0.0
142
0.0
142
1.0
179
     0
144
0.0208333333333333
144
0.0
144
0.0
144
0.0
144
0.0
144
0.0208333333333333
144
0.0
144
0.0
144
0.0
144
0.0
144
1.0
144
0.0
144
0.0
144
0.0
144
0.0
144
1.0
147
0.0208333333333333
147
0.0
147
0.0
147
0.0
147
0.0
147
0.0208333333333333
147
0.0
147
0.0
147
0.0
147
0.0
147
1.0
147
0.0
147
0.0
147
0.0
147
0.0
147
1.0
  0
MATERIAL
  5
9DE6
102
{ACAD_XDICTIONARY
360
9DE7
102
}
102
{ACAD_REACTORS
330
9DE5
102
}
330
9DE5
100
AcDbMaterial
  1
ByLayer
 72
     0
 43
0.0208333333333333
 43
0.0
 43
0.0
 43
0.0
 43
0.0
 43
0.0208333333333333
 43
0.0
 43
0.0
 43
0.0
 43
0.0
 43
1.0
 43
0.0
 43
0.0
 43
0.0
 43
0.0
 43
1.0
 77
     0
 47
0.0208333333333333
 47
0.0
 47
0.0
 47
0.0
 47
0.0
 47
0.0208333333333333
 47
0.0
 47
0.0
 47
0.0
 47
0.0
 47
1.0
 47
0.0
 47
0.0
 47
0.0
 47
0.0
 47
1.0
171
     0
 49
0.0208333333333333
 49
0.0
 49
0.0
 49
0.0
 49
0.0
 49
0.0208333333333333
 49
0.0
 49
0.0
 49
0.0
 49
0.0
 49
1.0
 49
0.0
 49
0.0
 49
0.0
 49
0.0
 49
1.0
175
     0
142
0.0208333333333333
142
0.0
142
0.0
142
0.0
142
0.0
142
0.0208333333333333
142
0.0
142
0.0
142
0.0
142
0.0
142
1.0
142
0.0
142
0.0
142
0.0
142
0.0
142
1.0
179
     0
144
0.0208333333333333
144
0.0
144
0.0
144
0.0
144
0.0
144
0.0208333333333333
144
0.0
144
0.0
144
0.0
144
0.0
144
1.0
144
0.0
144
0.0
144
0.0
144
0.0
144
1.0
147
0.0208333333333333
147
0.0
147
0.0
147
0.0
147
0.0
147
0.0208333333333333
147
0.0
147
0.0
147
0.0
147
0.0
147
1.0
147
0.0
147
0.0
147
0.0
147
0.0
147
1.0
  0
MATERIAL
  5
9DF6
102
{ACAD_XDICTIONARY
360
9DF7
102
}
102
{ACAD_REACTORS
330
9DE5
102
}
330
9DE5
100
AcDbMaterial
  1
Global
 72
     0
 43
0.0208333333333333
 43
0.0
 43
0.0
 43
0.0
 43
0.0
 43
0.0208333333333333
 43
0.0
 43
0.0
 43
0.0
 43
0.0
 43
1.0
 43
0.0
 43
0.0
 43
0.0
 43
0.0
 43
1.0
 77
     0
 47
0.0208333333333333
 47
0.0
 47
0.0
 47
0.0
 47
0.0
 47
0.0208333333333333
 47
0.0
 47
0.0
 47
0.0
 47
0.0
 47
1.0
 47
0.0
 47
0.0
 47
0.0
 47
0.0
 47
1.0
171
     0
 49
0.0208333333333333
 49
0.0
 49
0.0
 49
0.0
 49
0.0
 49
0.0208333333333333
 49
0.0
 49
0.0
 49
0.0
 49
0.0
 49
1.0
 49
0.0
 49
0.0
 49
0.0
 49
0.0
 49
1.0
175
     0
142
0.0208333333333333
142
0.0
142
0.0
142
0.0
142
0.0
142
0.0208333333333333
142
0.0
142
0.0
142
0.0
142
0.0
142
1.0
142
0.0
142
0.0
142
0.0
142
0.0
142
1.0
179
     0
144
0.0208333333333333
144
0.0
144
0.0
144
0.0
144
0.0
144
0.0208333333333333
144
0.0
144
0.0
144
0.0
144
0.0
144
1.0
144
0.0
144
0.0
144
0.0
144
0.0
144
1.0
147
0.0208333333333333
147
0.0
147
0.0
147
0.0
147
0.0
147
0.0208333333333333
147
0.0
147
0.0
147
0.0
147
0.0
147
1.0
147
0.0
147
0.0
147
0.0
147
0.0
147
1.0
  0
MLEADERSTYLE
  5
9E2D
102
{ACAD_REACTORS
330
9E2C
102
}
330
9E2C
100
AcDbMLeaderStyle
170
     2
171
     1
172
     0
 90
        2
 40
0.0
 41
0.0
173
     1
 91
-1056964608
340
9C0E
 92
       -2
290
     1
 42
0.09
291
     1
 43
0.36
  3
Standard
 44
0.18
300

342
9C0C
174
     1
178
     6
175
     1
176
     0
 93
-1056964608
 45
0.18
292
     0
297
     0
 46
0.18
 94
-1056964608
 47
1.0
 49
1.0
140
1.0
293
     1
141
0.0
294
     1
177
     0
142
1.0
295
     0
296
     0
143
0.125
1001
ACAD_MLEADERVER
1070
     2
  0
MLINESTYLE
  5
9C12
102
{ACAD_REACTORS
330
9C11
102
}
330
9C11
100
AcDbMlineStyle
  2
STANDARD
 70
     0
  3

 62
   256
 51
90.0
 52
90.0
 71
     2
 49
0.5
 62
   256
  6
BYLAYER
 49
-0.5
 62
   256
  6
BYLAYER
  0
ACDBPLACEHOLDER
  5
9DE4
102
{ACAD_REACTORS
330
9DE3
102
}
330
9DE3
  0
SCALE
  5
9E1B
102
{ACAD_REACTORS
330
9E1A
102
}
330
9E1A
100
AcDbScale
 70
     0
300
1:1
140
1.0
141
1.0
290
     1
  0
SCALE
  5
9E1C
102
{ACAD_REACTORS
330
9E1A
102
}
330
9E1A
100
AcDbScale
 70
     0
300
1/128" = 1'-0"
140
0.0078125
141
12.0
290
     0
  0
SCALE
  5
9E1D
102
{ACAD_REACTORS
330
9E1A
102
}
330
9E1A
100
AcDbScale
 70
     0
300
1/64" = 1'-0"
140
0.015625
141
12.0
290
     0
  0
SCALE
  5
9E1E
102
{ACAD_REACTORS
330
9E1A
102
}
330
9E1A
100
AcDbScale
 70
     0
300
1/32" = 1'-0"
140
0.03125
141
12.0
290
     0
  0
SCALE
  5
9E1F
102
{ACAD_REACTORS
330
9E1A
102
}
330
9E1A
100
AcDbScale
 70
     0
300
1/16" = 1'-0"
140
0.0625
141
12.0
290
     0
  0
SCALE
  5
9E20
102
{ACAD_REACTORS
330
9E1A
102
}
330
9E1A
100
AcDbScale
 70
     0
300
3/32" = 1'-0"
140
0.09375
141
12.0
290
     0
  0
SCALE
  5
9E21
102
{ACAD_REACTORS
330
9E1A
102
}
330
9E1A
100
AcDbScale
 70
     0
300
1/8" = 1'-0"
140
0.125
141
12.0
290
     0
  0
SCALE
  5
9E22
102
{ACAD_REACTORS
330
9E1A
102
}
330
9E1A
100
AcDbScale
 70
     0
300
3/16" = 1'-0"
140
0.1875
141
12.0
290
     0
  0
SCALE
  5
9E23
102
{ACAD_REACTORS
330
9E1A
102
}
330
9E1A
100
AcDbScale
 70
     0
300
1/4" = 1'-0"
140
0.25
141
12.0
290
     0
  0
SCALE
  5
9E24
102
{ACAD_REACTORS
330
9E1A
102
}
330
9E1A
100
AcDbScale
 70
     0
300
3/8" = 1'-0"
140
0.375
141
12.0
290
     0
  0
SCALE
  5
9E25
102
{ACAD_REACTORS
330
9E1A
102
}
330
9E1A
100
AcDbScale
 70
     0
300
1/2" = 1'-0"
140
0.5
141
12.0
290
     0
  0
SCALE
  5
9E26
102
{ACAD_REACTORS
330
9E1A
102
}
330
9E1A
100
AcDbScale
 70
     0
300
3/4" = 1'-0"
140
0.75
141
12.0
290
     0
  0
SCALE
  5
9E27
102
{ACAD_REACTORS
330
9E1A
102
}
330
9E1A
100
AcDbScale
 70
     0
300
1" = 1'-0"
140
1.0
141
12.0
290
     0
  0
SCALE
  5
9E28
102
{ACAD_REACTORS
330
9E1A
102
}
330
9E1A
100
AcDbScale
 70
     0
300
1-1/2" = 1'-0"
140
1.5
141
12.0
290
     0
  0
SCALE
  5
9E29
102
{ACAD_REACTORS
330
9E1A
102
}
330
9E1A
100
AcDbScale
 70
     0
300
3" = 1'-0"
140
3.0
141
12.0
290
     0
  0
SCALE
  5
9E2A
102
{ACAD_REACTORS
330
9E1A
102
}
330
9E1A
100
AcDbScale
 70
     0
300
6" = 1'-0"
140
6.0
141
12.0
290
     0
  0
SCALE
  5
9E2B
102
{ACAD_REACTORS
330
9E1A
102
}
330
9E1A
100
AcDbScale
 70
     0
300
1'-0" = 1'-0"
140
12.0
141
12.0
290
     0
  0
ACDBSECTIONVIEWSTYLE
  5
9E2F
102
{ACAD_XDICTIONARY
360
9E8A
102
}
102
{ACAD_REACTORS
330
9E2E
102
}
330
9E2E
100
AcDbModelDocViewStyle
 70
     0
  3
Imperial24
290
     0
100
AcDbSectionViewStyle
 70
     0
 71
     0
 90
       78
 71
     1
340
9C0C
 40
0.24
340
0
340
0
 40
0.24
300
I, O, Q, S, X, Z
 40
0.48
 90
        3
 40
0.18
 90
        1
 71
     2
340
9C10
 90
       25
340
9C10
 90
       50
 40
0.24
 40
0.0
 40
0.24
 71
     3
340
9C0C
 40
0.24
 90
        1
 40
0.75
 90
        1
300
%<\AcVar ViewType \f "%tc1">% %<\AcVar ViewSectionStartId>%-%<\AcVar ViewSectionEndId>%\PSCALE %<\AcVar ViewScale \f "%sn">%
 71
     4
300
ANSI31
 40
1.0
 90
        0
290
     0
290
     0
 90
        6
 40
0.0
 40
1.570796326794896
 40
0.2617993877991494
 40
1.308996938995747
 40
-0.2617993877991494
 40
1.832595714594046
  0
TABLESTYLE
  5
9E19
102
{ACAD_XDICTIONARY
360
9E51
102
}
102
{ACAD_REACTORS
330
9E18
102
}
330
9E18
100
AcDbTableStyle
  3
Standard
 70
     0
 71
     0
 40
0.06
 41
0.06
280
     0
281
     0
  7
STANDARD
140
0.18
170
     2
 62
     0
 63
     7
283
     0
274
    -2
284
     1
 64
     0
275
    -2
285
     1
 65
     0
276
    -2
286
     1
 66
     0
277
    -2
287
     1
 67
     0
278
    -2
288
     1
 68
     0
279
    -2
289
     1
 69
     0
  7
STANDARD
140
0.25
170
     5
 62
     0
 63
     7
283
     0
274
    -2
284
     1
 64
     0
275
    -2
285
     1
 65
     0
276
    -2
286
     1
 66
     0
277
    -2
287
     1
 67
     0
278
    -2
288
     1
 68
     0
279
    -2
289
     1
 69
     0
  7
STANDARD
140
0.18
170
     5
 62
     0
 63
     7
283
     0
274
    -2
284
     1
 64
     0
275
    -2
285
     1
 65
     0
276
    -2
286
     1
 66
     0
277
    -2
287
     1
 67
     0
278
    -2
288
     1
 68
     0
279
    -2
289
     1
 69
     0
  0
VISUALSTYLE
  5
9E04
102
{ACAD_XDICTIONARY
360
9E62
102
}
102
{ACAD_REACTORS
330
9DFE
102
}
330
9DFE
100
AcDbVisualStyle
  2
2dWireframe
 70
     4
 71
     0
 72
     2
 73
     0
 90
        0
 40
-0.6
 41
-30.0
 62
     5
 63
     7
 74
     1
 91
        4
 64
     7
 65
   257
 75
     1
175
     1
 42
1.0
 92
        0
 66
   257
 43
1.0
 76
     1
 77
     6
 78
     2
 67
     7
 79
     5
170
     0
171
     0
290
     0
174
     0
 93
        1
 44
0.0
173
     0
291
     0
 45
0.0
1001
ACAD
1000
AcDbSavedByObjectVersion
1070
     0
  0
VISUALSTYLE
  5
9E03
102
{ACAD_XDICTIONARY
360
9E60
102
}
102
{ACAD_REACTORS
330
9DFE
102
}
330
9DFE
100
AcDbVisualStyle
  2
Basic
 70
     7
 71
     1
 72
     0
 73
     1
 90
        0
 40
-0.6
 41
-30.0
 62
     5
 63
     7
 74
     0
 91
        4
 64
     7
 65
   257
 75
     1
175
     1
 42
1.0
 92
        8
 66
     7
 43
1.0
 76
     1
 77
     6
 78
     2
 67
     7
 79
     5
170
     0
171
     0
290
     0
174
     0
 93
        1
 44
0.0
173
     0
291
     1
 45
0.0
1001
ACAD
1000
AcDbSavedByObjectVersion
1070
     0
  0
VISUALSTYLE
  5
9E0A
102
{ACAD_XDICTIONARY
360
9E6E
102
}
102
{ACAD_REACTORS
330
9DFE
102
}
330
9DFE
100
AcDbVisualStyle
  2
Brighten
 70
    12
 71
     2
 72
     2
 73
     0
 90
        0
 40
-0.6
 41
-30.0
 62
     5
 63
     7
 74
     1
 91
        4
 64
     7
 65
   257
 75
     1
175
     1
 42
1.0
 92
        8
 66
     7
 43
1.0
 76
     1
 77
     6
 78
     2
 67
     7
 79
     5
170
     0
171
     0
290
     0
174
     0
 93
        1
 44
50.0
173
     0
291
     1
 45
0.0
1001
ACAD
1000
AcDbSavedByObjectVersion
1070
     0
  0
VISUALSTYLE
  5
9E0E
102
{ACAD_XDICTIONARY
360
9E76
102
}
102
{ACAD_REACTORS
330
9DFE
102
}
330
9DFE
100
AcDbVisualStyle
  2
ColorChange
 70
    16
 71
     2
 72
     2
 73
     3
 90
        0
 40
-0.6
 41
-30.0
 62
     5
 63
     8
 74
     1
 91
        4
 64
     7
 65
   257
 75
     1
175
     1
 42
1.0
 92
        8
 66
     8
 43
1.0
 76
     1
 77
     6
 78
     2
 67
     7
 79
     5
170
     0
171
     0
290
     0
174
     0
 93
        1
 44
0.0
173
     0
291
     1
 45
0.0
1001
ACAD
1000
AcDbSavedByObjectVersion
1070
     0
  0
VISUALSTYLE
  5
9E07
102
{ACAD_XDICTIONARY
360
9E68
102
}
102
{ACAD_REACTORS
330
9DFE
102
}
330
9DFE
100
AcDbVisualStyle
  2
Conceptual
 70
     9
 71
     3
 72
     2
 73
     0
 90
        0
 40
-0.6
 41
-30.0
 62
     5
 63
     7
 74
     2
 91
        2
 64
     7
 65
   257
 75
     1
175
     1
 42
179.0
 92
        8
 66
     7
 43
1.0
 76
     1
 77
     6
 78
     2
 67
     7
 79
     3
170
     0
171
     0
290
     0
174
     0
 93
        1
 44
0.0
173
     0
291
     0
 45
0.0
1001
ACAD
1000
AcDbSavedByObjectVersion
1070
     0
  0
VISUALSTYLE
  5
9E09
102
{ACAD_XDICTIONARY
360
9E6C
102
}
102
{ACAD_REACTORS
330
9DFE
102
}
330
9DFE
100
AcDbVisualStyle
  2
Dim
 70
    11
 71
     2
 72
     2
 73
     0
 90
        0
 40
-0.6
 41
-30.0
 62
     5
 63
     7
 74
     1
 91
        4
 64
     7
 65
   257
 75
     1
175
     1
 42
1.0
 92
        8
 66
     7
 43
1.0
 76
     1
 77
     6
 78
     2
 67
     7
 79
     5
170
     0
171
     0
290
     0
174
     0
 93
        1
 44
-50.0
173
     0
291
     1
 45
0.0
1001
ACAD
1000
AcDbSavedByObjectVersion
1070
     0
  0
VISUALSTYLE
  5
9E16
102
{ACAD_XDICTIONARY
360
9E86
102
}
102
{ACAD_REACTORS
330
9DFE
102
}
330
9DFE
100
AcDbVisualStyle
  2
EdgeColorOff
 70
    22
 71
     2
 72
     2
 73
     0
 90
        0
 40
-0.6
 41
-30.0
 62
     5
 63
     7
 74
     1
 91
        4
 64
     7
 65
   257
 75
     1
175
     1
 42
1.0
 92
        8
 66
     7
 43
1.0
 76
     1
 77
     6
 78
     2
 67
     7
 79
     5
170
     0
171
     0
290
     0
174
     0
 93
        1
 44
0.0
173
     0
291
     1
 45
0.0
1001
ACAD
1000
AcDbSavedByObjectVersion
1070
     0
  0
VISUALSTYLE
  5
9E0D
102
{ACAD_XDICTIONARY
360
9E74
102
}
102
{ACAD_REACTORS
330
9DFE
102
}
330
9DFE
100
AcDbVisualStyle
  2
Facepattern
 70
    15
 71
     2
 72
     2
 73
     0
 90
        0
 40
-0.6
 41
-30.0
 62
     5
 63
     7
 74
     1
 91
        4
 64
     7
 65
   257
 75
     1
175
     1
 42
1.0
 92
        8
 66
     7
 43
1.0
 76
     1
 77
     6
 78
     2
 67
     7
 79
     5
170
     0
171
     0
290
     0
174
     0
 93
        1
 44
0.0
173
     0
291
     1
 45
0.0
1001
ACAD
1000
AcDbSavedByObjectVersion
1070
     0
  0
VISUALSTYLE
  5
9DFF
102
{ACAD_XDICTIONARY
360
9E58
102
}
102
{ACAD_REACTORS
330
9DFE
102
}
330
9DFE
100
AcDbVisualStyle
  2
Flat
 70
     0
 71
     2
 72
     1
 73
     1
 90
        2
 40
-0.6
 41
30.0
 62
     5
 63
     7
 74
     0
 91
        0
 64
     7
 65
   257
 75
     1
175
     1
 42
1.0
 92
        8
 66
     7
 43
1.0
 76
     1
 77
     6
 78
     2
 67
     7
 79
     5
170
     0
171
     0
290
     0
174
     0
 93
       13
 44
0.0
173
     0
291
     1
 45
0.0
1001
ACAD
1000
AcDbSavedByObjectVersion
1070
     0
  0
VISUALSTYLE
  5
9E00
102
{ACAD_XDICTIONARY
360
9E5A
102
}
102
{ACAD_REACTORS
330
9DFE
102
}
330
9DFE
100
AcDbVisualStyle
  2
FlatWithEdges
 70
     1
 71
     2
 72
     1
 73
     1
 90
        2
 40
-0.6
 41
30.0
 62
     5
 63
     7
 74
     1
 91
        0
 64
     7
 65
   257
 75
     1
175
     1
 42
1.0
 92
        0
 66
   257
 43
1.0
 76
     1
 77
     6
 78
     2
 67
     7
 79
     5
170
     0
171
     0
290
     0
174
     0
 93
       13
 44
0.0
173
     0
291
     1
 45
0.0
1001
ACAD
1000
AcDbSavedByObjectVersion
1070
     0
  0
VISUALSTYLE
  5
9E01
102
{ACAD_XDICTIONARY
360
9E5C
102
}
102
{ACAD_REACTORS
330
9DFE
102
}
330
9DFE
100
AcDbVisualStyle
  2
Gouraud
 70
     2
 71
     2
 72
     2
 73
     1
 90
        2
 40
-0.6
 41
30.0
 62
     5
 63
     7
 74
     0
 91
        0
 64
     7
 65
   257
 75
     1
175
     1
 42
1.0
 92
        0
 66
     7
 43
1.0
 76
     1
 77
     6
 78
     2
 67
     7
 79
     5
170
     0
171
     0
290
     0
174
     0
 93
       13
 44
0.0
173
     0
291
     1
 45
0.0
1001
ACAD
1000
AcDbSavedByObjectVersion
1070
     0
  0
VISUALSTYLE
  5
9E02
102
{ACAD_XDICTIONARY
360
9E5E
102
}
102
{ACAD_REACTORS
330
9DFE
102
}
330
9DFE
100
AcDbVisualStyle
  2
GouraudWithEdges
 70
     3
 71
     2
 72
     2
 73
     1
 90
        2
 40
-0.6
 41
30.0
 62
     5
 63
     7
 74
     1
 91
        0
 64
     7
 65
   257
 75
     1
175
     1
 42
1.0
 92
        0
 66
   257
 43
1.0
 76
     1
 77
     6
 78
     2
 67
     7
 79
     5
170
     0
171
     0
290
     0
174
     0
 93
       13
 44
0.0
173
     0
291
     1
 45
0.0
1001
ACAD
1000
AcDbSavedByObjectVersion
1070
     0
  0
VISUALSTYLE
  5
9E06
102
{ACAD_XDICTIONARY
360
9E66
102
}
102
{ACAD_REACTORS
330
9DFE
102
}
330
9DFE
100
AcDbVisualStyle
  2
Hidden
 70
     6
 71
     1
 72
     2
 73
     2
 90
        0
 40
-0.6
 41
-30.0
 62
     5
 63
     7
 74
     2
 91
        2
 64
     7
 65
   257
 75
     2
175
     1
 42
40.0
 92
        0
 66
   257
 43
1.0
 76
     1
 77
     6
 78
     2
 67
     7
 79
     3
170
     0
171
     0
290
     0
174
     0
 93
        1
 44
0.0
173
     0
291
     0
 45
0.0
1001
ACAD
1000
AcDbSavedByObjectVersion
1070
     0
  0
VISUALSTYLE
  5
9E14
102
{ACAD_XDICTIONARY
360
9E82
102
}
102
{ACAD_REACTORS
330
9DFE
102
}
330
9DFE
100
AcDbVisualStyle
  2
JitterOff
 70
    20
 71
     2
 72
     2
 73
     0
 90
        0
 40
-0.6
 41
-30.0
 62
     5
 63
     7
 74
     1
 91
        4
 64
     7
 65
   257
 75
     1
175
     1
 42
1.0
 92
       10
 66
     7
 43
1.0
 76
     1
 77
     6
 78
     2
 67
     7
 79
     5
170
     0
171
     0
290
     0
174
     0
 93
        1
 44
0.0
173
     0
291
     1
 45
0.0
1001
ACAD
1000
AcDbSavedByObjectVersion
1070
     0
  0
VISUALSTYLE
  5
9E0C
102
{ACAD_XDICTIONARY
360
9E72
102
}
102
{ACAD_REACTORS
330
9DFE
102
}
330
9DFE
100
AcDbVisualStyle
  2
Linepattern
 70
    14
 71
     2
 72
     2
 73
     0
 90
        0
 40
-0.6
 41
-30.0
 62
     5
 63
     7
 74
     1
 91
        4
 64
     7
 65
   257
 75
     7
175
     7
 42
1.0
 92
        8
 66
     7
 43
1.0
 76
     1
 77
     6
 78
     2
 67
     7
 79
     5
170
     0
171
     0
290
     0
174
     0
 93
        1
 44
0.0
173
     0
291
     1
 45
0.0
1001
ACAD
1000
AcDbSavedByObjectVersion
1070
     0
  0
VISUALSTYLE
  5
9E15
102
{ACAD_XDICTIONARY
360
9E84
102
}
102
{ACAD_REACTORS
330
9DFE
102
}
330
9DFE
100
AcDbVisualStyle
  2
OverhangOff
 70
    21
 71
     2
 72
     2
 73
     0
 90
        0
 40
-0.6
 41
-30.0
 62
     5
 63
     7
 74
     1
 91
        4
 64
     7
 65
   257
 75
     1
175
     1
 42
1.0
 92
        9
 66
     7
 43
1.0
 76
     1
 77
     6
 78
     2
 67
     7
 79
     5
170
     0
171
     0
290
     0
174
     0
 93
        1
 44
0.0
173
     0
291
     1
 45
0.0
1001
ACAD
1000
AcDbSavedByObjectVersion
1070
     0
  0
VISUALSTYLE
  5
9E08
102
{ACAD_XDICTIONARY
360
9E6A
102
}
102
{ACAD_REACTORS
330
9DFE
102
}
330
9DFE
100
AcDbVisualStyle
  2
Realistic
 70
     8
 71
     2
 72
     3
 73
     0
 90
        2
 40
-0.6
 41
30.0
 62
     5
 63
     7
 74
     0
 91
        0
 64
     7
 65
   257
 75
     1
175
     1
 42
1.0
 92
        8
 66
   257
 43
1.0
 76
     1
 77
     6
 78
     2
 67
     7
 79
     3
170
     0
171
     0
290
     0
174
     0
 93
       13
 44
0.0
173
     0
291
     0
 45
0.0
1001
ACAD
1000
AcDbSavedByObjectVersion
1070
     0
  0
VISUALSTYLE
  5
9E13
102
{ACAD_XDICTIONARY
360
9E80
102
}
102
{ACAD_REACTORS
330
9DFE
102
}
330
9DFE
100
AcDbVisualStyle
  2
Shaded
 70
    27
 71
     2
 72
     2
 73
     1
 90
        2
 40
-0.6
 41
30.0
 62
     5
 63
     7
 74
     0
 91
        4
 64
     7
 65
   257
 75
     1
175
     1
 42
1.0
 92
        8
 66
   257
 43
1.0
 76
     1
 77
     6
 78
     2
 67
     8
 79
     3
170
     0
171
     0
290
     0
174
     0
 93
        5
 44
0.0
173
     0
291
     0
 45
0.0
1001
ACAD
1000
AcDbSavedByObjectVersion
1070
     0
  0
VISUALSTYLE
  5
9E12
102
{ACAD_XDICTIONARY
360
9E7E
102
}
102
{ACAD_REACTORS
330
9DFE
102
}
330
9DFE
100
AcDbVisualStyle
  2
Shaded with edges
 70
    26
 71
     2
 72
     2
 73
     1
 90
        2
 40
-0.6
 41
30.0
 62
     5
 63
     7
 74
     1
 91
       10
 64
     7
 65
   257
 75
     2
175
     1
 42
1.0
 92
        8
 66
   257
 43
1.0
 76
     1
 77
     6
 78
     2
 67
     7
 79
     3
170
     0
171
     0
290
     0
174
     0
 93
        5
 44
0.0
173
     0
291
     0
 45
0.0
1001
ACAD
1000
AcDbSavedByObjectVersion
1070
     0
  0
VISUALSTYLE
  5
9E0F
102
{ACAD_XDICTIONARY
360
9E78
102
}
102
{ACAD_REACTORS
330
9DFE
102
}
330
9DFE
100
AcDbVisualStyle
  2
Shades of Gray
 70
    23
 71
     2
 72
     2
 73
     3
 90
        0
 40
-0.6
 41
-30.0
 62
     5
 63
     7
 74
     2
 91
        2
 64
     7
 65
     7
 75
     1
175
     1
 42
40.0
 92
        8
 66
     7
 43
1.0
 76
     1
 77
     6
 78
     2
 67
     7
 79
     3
170
     0
171
     0
290
     0
174
     0
 93
        1
 44
0.0
173
     0
291
     0
 45
0.0
1001
ACAD
1000
AcDbSavedByObjectVersion
1070
     0
  0
VISUALSTYLE
  5
9E10
102
{ACAD_XDICTIONARY
360
9E7A
102
}
102
{ACAD_REACTORS
330
9DFE
102
}
330
9DFE
100
AcDbVisualStyle
  2
Sketchy
 70
    24
 71
     1
 72
     2
 73
     2
 90
        0
 40
-0.6
 41
-30.0
 62
     5
 63
     7
 74
     2
 91
        2
 64
     7
 65
     7
 75
     1
175
     1
 42
40.0
 92
       11
 66
     7
 43
1.0
 76
     1
 77
     6
 78
     2
 67
     7
 79
     6
170
     0
171
     0
290
     0
174
     0
 93
        1
 44
0.0
173
     0
291
     0
 45
0.0
1001
ACAD
1000
AcDbSavedByObjectVersion
1070
     0
  0
VISUALSTYLE
  5
9E0B
102
{ACAD_XDICTIONARY
360
9E70
102
}
102
{ACAD_REACTORS
330
9DFE
102
}
330
9DFE
100
AcDbVisualStyle
  2
Thicken
 70
    13
 71
     2
 72
     2
 73
     0
 90
        0
 40
-0.6
 41
-30.0
 62
     5
 63
     7
 74
     1
 91
        4
 64
     7
 65
   257
 75
     1
175
     1
 42
1.0
 92
       12
 66
     7
 43
1.0
 76
     1
 77
     6
 78
     2
 67
     7
 79
     5
170
     0
171
     0
290
     0
174
     0
 93
        1
 44
0.0
173
     0
291
     1
 45
0.0
1001
ACAD
1000
AcDbSavedByObjectVersion
1070
     0
  0
VISUALSTYLE
  5
9E05
102
{ACAD_XDICTIONARY
360
9E64
102
}
102
{ACAD_REACTORS
330
9DFE
102
}
330
9DFE
100
AcDbVisualStyle
  2
Wireframe
 70
     5
 71
     0
 72
     2
 73
     0
 90
        0
 40
-0.6
 41
-30.0
 62
     5
 63
     7
 74
     1
 91
        4
 64
     7
 65
   257
 75
     1
175
     1
 42
1.0
 92
        0
 66
   257
 43
1.0
 76
     1
 77
     6
 78
     2
 67
     7
 79
     3
170
     0
171
     0
290
     0
174
     0
 93
        1
 44
0.0
173
     0
291
     0
 45
0.0
1001
ACAD
1000
AcDbSavedByObjectVersion
1070
     0
  0
VISUALSTYLE
  5
9E11
102
{ACAD_XDICTIONARY
360
9E7C
102
}
102
{ACAD_REACTORS
330
9DFE
102
}
330
9DFE
100
AcDbVisualStyle
  2
X-Ray
 70
    25
 71
     2
 72
     2
 73
     1
 90
        1
 40
0.5
 41
-30.0
 62
     5
 63
     7
 74
     1
 91
        0
 64
     7
 65
   257
 75
     1
175
     1
 42
1.0
 92
        8
 66
     7
 43
1.0
 76
     1
 77
     6
 78
     2
 67
     7
 79
     3
170
     0
171
     0
290
     0
174
     0
 93
       13
 44
0.0
173
     0
291
     0
 45
0.0
1001
ACAD
1000
AcDbSavedByObjectVersion
1070
     0
  0
DICTIONARYVAR
  5
9E4B
102
{ACAD_REACTORS
330
9E46
102
}
330
9E46
100
DictionaryVariables
280
     0
  1
1:1
  0
DICTIONARYVAR
  5
9E48
102
{ACAD_REACTORS
330
9E46
102
}
330
9E46
100
DictionaryVariables
280
     0
  1
STANDARD
  0
DICTIONARYVAR
  5
9E47
102
{ACAD_REACTORS
330
9E46
102
}
330
9E46
100
DictionaryVariables
280
     0
  1
STANDARD
  0
DICTIONARYVAR
  5
9E49
102
{ACAD_REACTORS
330
9E46
102
}
330
9E46
100
DictionaryVariables
280
     0
  1
Imperial24
  0
DICTIONARYVAR
  5
9E4A
102
{ACAD_REACTORS
330
9E46
102
}
330
9E46
100
DictionaryVariables
280
     0
  1
Imperial24
  0
DICTIONARYVAR
  5
9E4E
102
{ACAD_REACTORS
330
9E46
102
}
330
9E46
100
DictionaryVariables
280
     0
  1
1
  0
DICTIONARYVAR
  5
9E4D
102
{ACAD_REACTORS
330
9E46
102
}
330
9E46
100
DictionaryVariables
280
     0
  1
0
  0
DICTIONARYVAR
  5
9E4C
102
{ACAD_REACTORS
330
9E46
102
}
330
9E46
100
DictionaryVariables
280
     0
  1
127
  0
DICTIONARYVAR
  5
9E4F
102
{ACAD_REACTORS
330
9E46
102
}
330
9E46
100
DictionaryVariables
280
     0
  1
2
  0
DICTIONARY
  5
9E8C
330
9E31
100
AcDbDictionary
280
     1
281
     1
  3
ACAD_XREC_ROUNDTRIP
360
9E8D
  0
DICTIONARY
  5
9E8E
330
9E32
100
AcDbDictionary
280
     1
281
     1
  3
ACAD_XREC_ROUNDTRIP
360
9E8F
  0
DICTIONARY
  5
9E90
330
9E33
100
AcDbDictionary
280
     1
281
     1
  3
ACAD_XREC_ROUNDTRIP
360
9E91
  0
DICTIONARY
  5
9DEF
330
9DEE
100
AcDbDictionary
280
     1
281
     1
  3
ACAD_XREC_ROUNDTRIP
360
9E56
  3
BUMPTILE
360
9DF1
  3
DIFFUSETILE
360
9DF0
  3
OPACITYTILE
360
9DF4
  3
REFLECTIONTILE
360
9DF3
  3
REFRACTIONTILE
360
9DF5
  3
SPECULARTILE
360
9DF2
  0
DICTIONARY
  5
9DE7
330
9DE6
100
AcDbDictionary
280
     1
281
     1
  3
ACAD_XREC_ROUNDTRIP
360
9E55
  3
BUMPTILE
360
9DE9
  3
DIFFUSETILE
360
9DE8
  3
OPACITYTILE
360
9DEC
  3
REFLECTIONTILE
360
9DEB
  3
REFRACTIONTILE
360
9DED
  3
SPECULARTILE
360
9DEA
  0
DICTIONARY
  5
9DF7
330
9DF6
100
AcDbDictionary
280
     1
281
     1
  3
ACAD_XREC_ROUNDTRIP
360
9E57
  3
BUMPTILE
360
9DF9
  3
DIFFUSETILE
360
9DF8
  3
OPACITYTILE
360
9DFC
  3
REFLECTIONTILE
360
9DFB
  3
REFRACTIONTILE
360
9DFD
  3
SPECULARTILE
360
9DFA
  0
DICTIONARY
  5
9E8A
330
9E2F
100
AcDbDictionary
280
     1
281
     1
  3
ACAD_XREC_ROUNDTRIP
360
9E8B
  0
DICTIONARY
  5
9E51
330
9E19
100
AcDbDictionary
280
     1
281
     1
  3
ACAD_ROUNDTRIP_2008_TABLESTYLE_CELLSTYLEMAP
360
9E52
  3
ACAD_XREC_ROUNDTRIP
360
9E88
  0
DICTIONARY
  5
9E62
330
9E04
100
AcDbDictionary
280
     1
281
     1
  3
ACAD_XREC_ROUNDTRIP
360
9E63
  0
DICTIONARY
  5
9E60
330
9E03
100
AcDbDictionary
280
     1
281
     1
  3
ACAD_XREC_ROUNDTRIP
360
9E61
  0
DICTIONARY
  5
9E6E
330
9E0A
100
AcDbDictionary
280
     1
281
     1
  3
ACAD_XREC_ROUNDTRIP
360
9E6F
  0
DICTIONARY
  5
9E76
330
9E0E
100
AcDbDictionary
280
     1
281
     1
  3
ACAD_XREC_ROUNDTRIP
360
9E77
  0
DICTIONARY
  5
9E68
330
9E07
100
AcDbDictionary
280
     1
281
     1
  3
ACAD_XREC_ROUNDTRIP
360
9E69
  0
DICTIONARY
  5
9E6C
330
9E09
100
AcDbDictionary
280
     1
281
     1
  3
ACAD_XREC_ROUNDTRIP
360
9E6D
  0
DICTIONARY
  5
9E86
330
9E16
100
AcDbDictionary
280
     1
281
     1
  3
ACAD_XREC_ROUNDTRIP
360
9E87
  0
DICTIONARY
  5
9E74
330
9E0D
100
AcDbDictionary
280
     1
281
     1
  3
ACAD_XREC_ROUNDTRIP
360
9E75
  0
DICTIONARY
  5
9E58
330
9DFF
100
AcDbDictionary
280
     1
281
     1
  3
ACAD_XREC_ROUNDTRIP
360
9E59
  0
DICTIONARY
  5
9E5A
330
9E00
100
AcDbDictionary
280
     1
281
     1
  3
ACAD_XREC_ROUNDTRIP
360
9E5B
  0
DICTIONARY
  5
9E5C
330
9E01
100
AcDbDictionary
280
     1
281
     1
  3
ACAD_XREC_ROUNDTRIP
360
9E5D
  0
DICTIONARY
  5
9E5E
330
9E02
100
AcDbDictionary
280
     1
281
     1
  3
ACAD_XREC_ROUNDTRIP
360
9E5F
  0
DICTIONARY
  5
9E66
330
9E06
100
AcDbDictionary
280
     1
281
     1
  3
ACAD_XREC_ROUNDTRIP
360
9E67
  0
DICTIONARY
  5
9E82
330
9E14
100
AcDbDictionary
280
     1
281
     1
  3
ACAD_XREC_ROUNDTRIP
360
9E83
  0
DICTIONARY
  5
9E72
330
9E0C
100
AcDbDictionary
280
     1
281
     1
  3
ACAD_XREC_ROUNDTRIP
360
9E73
  0
DICTIONARY
  5
9E84
330
9E15
100
AcDbDictionary
280
     1
281
     1
  3
ACAD_XREC_ROUNDTRIP
360
9E85
  0
DICTIONARY
  5
9E6A
330
9E08
100
AcDbDictionary
280
     1
281
     1
  3
ACAD_XREC_ROUNDTRIP
360
9E6B
  0
DICTIONARY
  5
9E80
330
9E13
100
AcDbDictionary
280
     1
281
     1
  3
ACAD_XREC_ROUNDTRIP
360
9E81
  0
DICTIONARY
  5
9E7E
330
9E12
100
AcDbDictionary
280
     1
281
     1
  3
ACAD_XREC_ROUNDTRIP
360
9E7F
  0
DICTIONARY
  5
9E78
330
9E0F
100
AcDbDictionary
280
     1
281
     1
  3
ACAD_XREC_ROUNDTRIP
360
9E79
  0
DICTIONARY
  5
9E7A
330
9E10
100
AcDbDictionary
280
     1
281
     1
  3
ACAD_XREC_ROUNDTRIP
360
9E7B
  0
DICTIONARY
  5
9E70
330
9E0B
100
AcDbDictionary
280
     1
281
     1
  3
ACAD_XREC_ROUNDTRIP
360
9E71
  0
DICTIONARY
  5
9E64
330
9E05
100
AcDbDictionary
280
     1
281
     1
  3
ACAD_XREC_ROUNDTRIP
360
9E65
  0
DICTIONARY
  5
9E7C
330
9E11
100
AcDbDictionary
280
     1
281
     1
  3
ACAD_XREC_ROUNDTRIP
360
9E7D
  0
XRECORD
  5
9E8D
102
{ACAD_REACTORS
330
9E8C
102
}
330
9E8C
100
AcDbXrecord
280
     1
102
DISPLAYNAME
  1
Imperial24
102
FLAGS
 90
        0
  0
XRECORD
  5
9E8F
102
{ACAD_REACTORS
330
9E8E
102
}
330
9E8E
100
AcDbXrecord
280
     1
102
SHADEPLOT
 70
     0
102
SHADEPLOTRESLEVEL
 70
     2
102
SHADEPLOTCUSTOMDPI
 70
   300
  0
XRECORD
  5
9E91
102
{ACAD_REACTORS
330
9E90
102
}
330
9E90
100
AcDbXrecord
280
     1
102
SHADEPLOT
 70
     0
102
SHADEPLOTRESLEVEL
 70
     2
102
SHADEPLOTCUSTOMDPI
 70
   300
  0
XRECORD
  5
9E56
102
{ACAD_REACTORS
330
9DEF
102
}
330
9DEF
100
AcDbXrecord
280
     1
102
MATERIAL
148
0.0
149
0.0
149
0.0
 93
        0
 94
      127
282
     0
 72
     0
 77
     0
171
     0
175
     0
179
     0
273
     0
  0
XRECORD
  5
9DF1
102
{ACAD_REACTORS
330
9DEF
102
}
330
9DEF
100
AcDbXrecord
280
     1
270
     1
271
     1
  0
XRECORD
  5
9DF0
102
{ACAD_REACTORS
330
9DEF
102
}
330
9DEF
100
AcDbXrecord
280
     1
270
     1
271
     1
  0
XRECORD
  5
9DF4
102
{ACAD_REACTORS
330
9DEF
102
}
330
9DEF
100
AcDbXrecord
280
     1
270
     1
271
     1
  0
XRECORD
  5
9DF3
102
{ACAD_REACTORS
330
9DEF
102
}
330
9DEF
100
AcDbXrecord
280
     1
270
     1
271
     1
  0
XRECORD
  5
9DF5
102
{ACAD_REACTORS
330
9DEF
102
}
330
9DEF
100
AcDbXrecord
280
     1
270
     1
271
     1
  0
XRECORD
  5
9DF2
102
{ACAD_REACTORS
330
9DEF
102
}
330
9DEF
100
AcDbXrecord
280
     1
270
     1
271
     1
  0
XRECORD
  5
9E55
102
{ACAD_REACTORS
330
9DE7
102
}
330
9DE7
100
AcDbXrecord
280
     1
102
MATERIAL
148
0.0
149
0.0
149
0.0
 93
        0
 94
      127
282
     0
 72
     0
 77
     0
171
     0
175
     0
179
     0
273
     0
  0
XRECORD
  5
9DE9
102
{ACAD_REACTORS
330
9DE7
102
}
330
9DE7
100
AcDbXrecord
280
     1
270
     1
271
     1
  0
XRECORD
  5
9DE8
102
{ACAD_REACTORS
330
9DE7
102
}
330
9DE7
100
AcDbXrecord
280
     1
270
     1
271
     1
  0
XRECORD
  5
9DEC
102
{ACAD_REACTORS
330
9DE7
102
}
330
9DE7
100
AcDbXrecord
280
     1
270
     1
271
     1
  0
XRECORD
  5
9DEB
102
{ACAD_REACTORS
330
9DE7
102
}
330
9DE7
100
AcDbXrecord
280
     1
270
     1
271
     1
  0
XRECORD
  5
9DED
102
{ACAD_REACTORS
330
9DE7
102
}
330
9DE7
100
AcDbXrecord
280
     1
270
     1
271
     1
  0
XRECORD
  5
9DEA
102
{ACAD_REACTORS
330
9DE7
102
}
330
9DE7
100
AcDbXrecord
280
     1
270
     1
271
     1
  0
XRECORD
  5
9E57
102
{ACAD_REACTORS
330
9DF7
102
}
330
9DF7
100
AcDbXrecord
280
     1
102
MATERIAL
148
0.0
149
0.0
149
0.0
 93
        0
 94
      127
282
     0
 72
     0
 77
     0
171
     0
175
     0
179
     0
273
     0
  0
XRECORD
  5
9DF9
102
{ACAD_REACTORS
330
9DF7
102
}
330
9DF7
100
AcDbXrecord
280
     1
270
     1
271
     1
  0
XRECORD
  5
9DF8
102
{ACAD_REACTORS
330
9DF7
102
}
330
9DF7
100
AcDbXrecord
280
     1
270
     1
271
     1
  0
XRECORD
  5
9DFC
102
{ACAD_REACTORS
330
9DF7
102
}
330
9DF7
100
AcDbXrecord
280
     1
270
     1
271
     1
  0
XRECORD
  5
9DFB
102
{ACAD_REACTORS
330
9DF7
102
}
330
9DF7
100
AcDbXrecord
280
     1
270
     1
271
     1
  0
XRECORD
  5
9DFD
102
{ACAD_REACTORS
330
9DF7
102
}
330
9DF7
100
AcDbXrecord
280
     1
270
     1
271
     1
  0
XRECORD
  5
9DFA
102
{ACAD_REACTORS
330
9DF7
102
}
330
9DF7
100
AcDbXrecord
280
     1
270
     1
271
     1
  0
XRECORD
  5
9E8B
102
{ACAD_REACTORS
330
9E8A
102
}
330
9E8A
100
AcDbXrecord
280
     1
102
DISPLAYNAME
  1
Imperial24
102
FLAGS
 90
        0
  0
CELLSTYLEMAP
  5
9E52
102
{ACAD_REACTORS
330
9E51
102
}
330
9E51
100
AcDbCellStyleMap
 90
        3
300
CELLSTYLE
  1
TABLEFORMAT_BEGIN
 90
        5
170
     1
 91
        0
 92
    32768
 62
   257
 93
        1
300
CONTENTFORMAT
  1
CONTENTFORMAT_BEGIN
 90
        0
 91
        0
 92
      512
 93
        0
300

 40
0.0
140
1.0
 94
        5
 62
     0
340
9C0C
144
0.25
309
CONTENTFORMAT_END
171
     0
 94
        0
309
TABLEFORMAT_END
  1
CELLSTYLE_BEGIN
 90
        1
 91
        1
300
_TITLE
309
CELLSTYLE_END
300
CELLSTYLE
  1
TABLEFORMAT_BEGIN
 90
        5
170
     1
 91
        0
 92
        0
 62
   257
 93
        1
300
CONTENTFORMAT
  1
CONTENTFORMAT_BEGIN
 90
        0
 91
        0
 92
      512
 93
        0
300

 40
0.0
140
1.0
 94
        5
 62
     0
340
9C0C
144
0.18
309
CONTENTFORMAT_END
171
     0
 94
        0
309
TABLEFORMAT_END
  1
CELLSTYLE_BEGIN
 90
        2
 91
        1
300
_HEADER
309
CELLSTYLE_END
300
CELLSTYLE
  1
TABLEFORMAT_BEGIN
 90
        5
170
     1
 91
        0
 92
        0
 62
   257
 93
        1
300
CONTENTFORMAT
  1
CONTENTFORMAT_BEGIN
 90
        0
 91
        0
 92
      512
 93
        0
300

 40
0.0
140
1.0
 94
        2
 62
     0
340
9C0C
144
0.18
309
CONTENTFORMAT_END
171
     0
 94
        0
309
TABLEFORMAT_END
  1
CELLSTYLE_BEGIN
 90
        3
 91
        2
300
_DATA
309
CELLSTYLE_END
  0
XRECORD
  5
9E88
102
{ACAD_REACTORS
330
9E51
102
}
330
9E51
100
AcDbXrecord
280
     1
102
ACAD_ROUNDTRIP_PRE2007_TABLESTYLE
 90
      512
 91
        0
  1

 92
      512
 93
        0
  2

 94
      512
 95
        0
  3

  0
XRECORD
  5
9E63
102
{ACAD_REACTORS
330
9E62
102
}
330
9E62
100
AcDbXrecord
280
     1
102
RTVSPost2010Prop28
280
     1
102
RTVSPost2010PropOp28
 70
     1
102
RTVSPost2010Prop29
280
     1
102
RTVSPost2010PropOp29
 70
     1
102
RTVSPost2010Prop30
280
     0
102
RTVSPost2010PropOp30
 70
     1
102
RTVSPost2010Prop31
280
     0
102
RTVSPost2010PropOp31
 70
     1
102
RTVSPost2010Prop32
280
     0
102
RTVSPost2010PropOp32
 70
     1
102
RTVSPost2010Prop33
280
     0
102
RTVSPost2010PropOp33
 70
     1
102
RTVSPost2010Prop34
280
     0
102
RTVSPost2010PropOp34
 70
     1
102
RTVSPost2010Prop35
280
     0
102
RTVSPost2010PropOp35
 70
     1
102
RTVSPost2010Prop36
280
     0
102
RTVSPost2010PropOp36
 70
     1
102
RTVSPost2010Prop37
 90
       50
102
RTVSPost2010PropOp37
 70
     1
102
RTVSPost2010Prop38
140
0.0
102
RTVSPost2010PropOp38
 70
     1
102
RTVSPost2010Prop39
140
1.0
102
RTVSPost2010PropOp39
 70
     1
102
RTVSPost2010Prop40
 90
        0
102
RTVSPost2010PropOp40
 70
     1
102
RTVSPost2010Prop41ColorIndex
 90
       18
102
RTVSPost2010Prop41ColorRGB
 90
        0
102
RTVSPost2010PropOp41
 70
     1
102
RTVSPost2010Prop42
 90
       50
102
RTVSPost2010PropOp42
 70
     1
102
RTVSPost2010Prop43
 90
        3
102
RTVSPost2010PropOp43
 70
     1
102
RTVSPost2010Prop44ColorIndex
 90
        5
102
RTVSPost2010Prop44ColorRGB
 90
      255
102
RTVSPost2010PropOp44
 70
     1
102
RTVSPost2010Prop45
280
     0
102
RTVSPost2010PropOp45
 70
     1
102
RTVSPost2010Prop46
 90
       50
102
RTVSPost2010PropOp46
 70
     1
102
RTVSPost2010Prop47
 90
       50
102
RTVSPost2010PropOp47
 70
     1
102
RTVSPost2010Prop48
 90
       50
102
RTVSPost2010PropOp48
 70
     1
102
RTVSPost2010Prop49
280
     0
102
RTVSPost2010PropOp49
 70
     1
102
RTVSPost2010Prop50
 90
       50
102
RTVSPost2010PropOp50
 70
     1
102
RTVSPost2010Prop51ColorIndex
 90
      256
102
RTVSPost2010Prop51ColorRGB
 90
-16777216
102
RTVSPost2010PropOp51
 70
     0
102
RTVSPost2010Prop52
140
1.0
102
RTVSPost2010PropOp52
 70
     0
102
RTVSPost2010Prop53
 90
        2
102
RTVSPost2010PropOp53
 70
     1
102
RTVSPost2010Prop54
  1
strokes_ogs.tif
102
RTVSPost2010PropOp54
 70
     1
102
RTVSPost2010Prop55
280
     0
102
RTVSPost2010PropOp55
 70
     1
102
RTVSPost2010Prop56
140
1.0
102
RTVSPost2010PropOp56
 70
     1
102
RTVSPost2010Prop57
140
1.0
102
RTVSPost2010PropOp57
 70
     1
102
RTVSPropertyOp0
 70
     1
102
RTVSPropertyOp1
 70
     1
102
RTVSPropertyOp2
 70
     1
102
RTVSPropertyOp3
 70
     1
102
RTVSPropertyOp4
 70
     1
102
RTVSPropertyOp5
 70
     1
102
RTVSPropertyOp6
 70
     1
102
RTVSPropertyOp7
 70
     1
102
RTVSPropertyOp8
 70
     1
102
RTVSPropertyOp9
 70
     1
102
RTVSPropertyOp10
 70
     1
102
RTVSPropertyOp11
 70
     1
102
RTVSPropertyOp12
 70
     1
102
RTVSPropertyOp13
 70
     1
102
RTVSPropertyOp14
 70
     1
102
RTVSPropertyOp15
 70
     1
102
RTVSPropertyOp16
 70
     1
102
RTVSPropertyOp17
 70
     1
102
RTVSPropertyOp18
 70
     1
102
RTVSPropertyOp19
 70
     1
102
RTVSPropertyOp20
 70
     1
102
RTVSPropertyOp21
 70
     1
102
RTVSPropertyOp22
 70
     1
102
RTVSPropertyOp23
 70
     1
102
RTVSPropertyOp24
 70
     1
102
RTVSPropertyOp25
 70
     1
102
RTVSPropertyOp26
 70
     1
102
RTVSPropertyOp27
 70
     1
102
RTVSPropertyOp28
 70
     1
102
RTVSPropertyOp29
 70
     1
102
RTVSPropertyOp30
 70
     1
102
RTVSPropertyOp31
 70
     1
102
RTVSPropertyOp32
 70
     1
102
RTVSPropertyOp33
 70
     1
102
RTVSPropertyOp34
 70
     1
102
RTVSPropertyOp35
 70
     1
102
RTVSPropertyOp36
 70
     1
102
RTVSPropertyOp37
 70
     1
102
RTVSPropertyOp38
 70
     1
102
RTVSPropertyOp39
 70
     1
102
RTVSPropertyOp40
 70
     1
102
RTVSPropertyOp41
 70
     1
102
RTVSPropertyOp42
 70
     1
102
RTVSPropertyOp43
 70
     1
102
RTVSPropertyOp44
 70
     1
102
RTVSPropertyOp45
 70
     1
102
RTVSPropertyOp46
 70
     1
102
RTVSPropertyOp47
 70
     1
102
RTVSPropertyOp48
 70
     1
102
RTVSPropertyOp49
 70
     1
102
RTVSPropertyOp50
 70
     1
102
RTVSPropertyOp51
 70
     0
102
RTVSPropertyOp52
 70
     0
102
RTVSPropertyOp53
 70
     1
102
RTVSPropertyOp54
 70
     1
102
RTVSPropertyOp55
 70
     1
102
RTVSPropertyOp56
 70
     1
102
RTVSPropertyOp57
 70
     1
102
RTVSPropertyOp58
 70
     1
102
RTVSPropertyOp59
 70
     1
102
RTVSPropertyOp60
 70
     1
102
RTVSPropertyOp61
 70
     1
102
RTVSPropertyOp62
 70
     1
  0
XRECORD
  5
9E61
102
{ACAD_REACTORS
330
9E60
102
}
330
9E60
100
AcDbXrecord
280
     1
102
RTVSPost2010Prop28
280
     0
102
RTVSPost2010PropOp28
 70
     1
102
RTVSPost2010Prop29
280
     1
102
RTVSPost2010PropOp29
 70
     1
102
RTVSPost2010Prop30
280
     1
102
RTVSPost2010PropOp30
 70
     1
102
RTVSPost2010Prop31
280
     0
102
RTVSPost2010PropOp31
 70
     1
102
RTVSPost2010Prop32
280
     0
102
RTVSPost2010PropOp32
 70
     1
102
RTVSPost2010Prop33
280
     0
102
RTVSPost2010PropOp33
 70
     1
102
RTVSPost2010Prop34
280
     0
102
RTVSPost2010PropOp34
 70
     1
102
RTVSPost2010Prop35
280
     0
102
RTVSPost2010PropOp35
 70
     1
102
RTVSPost2010Prop36
280
     0
102
RTVSPost2010PropOp36
 70
     1
102
RTVSPost2010Prop37
 90
       50
102
RTVSPost2010PropOp37
 70
     1
102
RTVSPost2010Prop38
140
0.0
102
RTVSPost2010PropOp38
 70
     1
102
RTVSPost2010Prop39
140
1.0
102
RTVSPost2010PropOp39
 70
     1
102
RTVSPost2010Prop40
 90
        0
102
RTVSPost2010PropOp40
 70
     1
102
RTVSPost2010Prop41ColorIndex
 90
       18
102
RTVSPost2010Prop41ColorRGB
 90
        0
102
RTVSPost2010PropOp41
 70
     1
102
RTVSPost2010Prop42
 90
       50
102
RTVSPost2010PropOp42
 70
     1
102
RTVSPost2010Prop43
 90
        3
102
RTVSPost2010PropOp43
 70
     1
102
RTVSPost2010Prop44ColorIndex
 90
        5
102
RTVSPost2010Prop44ColorRGB
 90
      255
102
RTVSPost2010PropOp44
 70
     1
102
RTVSPost2010Prop45
280
     0
102
RTVSPost2010PropOp45
 70
     1
102
RTVSPost2010Prop46
 90
       50
102
RTVSPost2010PropOp46
 70
     1
102
RTVSPost2010Prop47
 90
       50
102
RTVSPost2010PropOp47
 70
     1
102
RTVSPost2010Prop48
 90
       50
102
RTVSPost2010PropOp48
 70
     1
102
RTVSPost2010Prop49
280
     0
102
RTVSPost2010PropOp49
 70
     1
102
RTVSPost2010Prop50
 90
       50
102
RTVSPost2010PropOp50
 70
     1
102
RTVSPost2010Prop51ColorIndex
 90
      256
102
RTVSPost2010Prop51ColorRGB
 90
-16777216
102
RTVSPost2010PropOp51
 70
     0
102
RTVSPost2010Prop52
140
1.0
102
RTVSPost2010PropOp52
 70
     0
102
RTVSPost2010Prop53
 90
        2
102
RTVSPost2010PropOp53
 70
     1
102
RTVSPost2010Prop54
  1
strokes_ogs.tif
102
RTVSPost2010PropOp54
 70
     1
102
RTVSPost2010Prop55
280
     0
102
RTVSPost2010PropOp55
 70
     1
102
RTVSPost2010Prop56
140
1.0
102
RTVSPost2010PropOp56
 70
     1
102
RTVSPost2010Prop57
140
1.0
102
RTVSPost2010PropOp57
 70
     1
102
RTVSPropertyOp0
 70
     1
102
RTVSPropertyOp1
 70
     1
102
RTVSPropertyOp2
 70
     1
102
RTVSPropertyOp3
 70
     1
102
RTVSPropertyOp4
 70
     1
102
RTVSPropertyOp5
 70
     1
102
RTVSPropertyOp6
 70
     1
102
RTVSPropertyOp7
 70
     1
102
RTVSPropertyOp8
 70
     1
102
RTVSPropertyOp9
 70
     1
102
RTVSPropertyOp10
 70
     1
102
RTVSPropertyOp11
 70
     1
102
RTVSPropertyOp12
 70
     1
102
RTVSPropertyOp13
 70
     1
102
RTVSPropertyOp14
 70
     1
102
RTVSPropertyOp15
 70
     1
102
RTVSPropertyOp16
 70
     1
102
RTVSPropertyOp17
 70
     1
102
RTVSPropertyOp18
 70
     1
102
RTVSPropertyOp19
 70
     1
102
RTVSPropertyOp20
 70
     1
102
RTVSPropertyOp21
 70
     1
102
RTVSPropertyOp22
 70
     1
102
RTVSPropertyOp23
 70
     1
102
RTVSPropertyOp24
 70
     1
102
RTVSPropertyOp25
 70
     1
102
RTVSPropertyOp26
 70
     1
102
RTVSPropertyOp27
 70
     1
102
RTVSPropertyOp28
 70
     1
102
RTVSPropertyOp29
 70
     1
102
RTVSPropertyOp30
 70
     1
102
RTVSPropertyOp31
 70
     1
102
RTVSPropertyOp32
 70
     1
102
RTVSPropertyOp33
 70
     1
102
RTVSPropertyOp34
 70
     1
102
RTVSPropertyOp35
 70
     1
102
RTVSPropertyOp36
 70
     1
102
RTVSPropertyOp37
 70
     1
102
RTVSPropertyOp38
 70
     1
102
RTVSPropertyOp39
 70
     1
102
RTVSPropertyOp40
 70
     1
102
RTVSPropertyOp41
 70
     1
102
RTVSPropertyOp42
 70
     1
102
RTVSPropertyOp43
 70
     1
102
RTVSPropertyOp44
 70
     1
102
RTVSPropertyOp45
 70
     1
102
RTVSPropertyOp46
 70
     1
102
RTVSPropertyOp47
 70
     1
102
RTVSPropertyOp48
 70
     1
102
RTVSPropertyOp49
 70
     1
102
RTVSPropertyOp50
 70
     1
102
RTVSPropertyOp51
 70
     0
102
RTVSPropertyOp52
 70
     0
102
RTVSPropertyOp53
 70
     1
102
RTVSPropertyOp54
 70
     1
102
RTVSPropertyOp55
 70
     1
102
RTVSPropertyOp56
 70
     1
102
RTVSPropertyOp57
 70
     1
102
RTVSPropertyOp58
 70
     1
102
RTVSPropertyOp59
 70
     1
102
RTVSPropertyOp60
 70
     1
102
RTVSPropertyOp61
 70
     1
102
RTVSPropertyOp62
 70
     1
  0
XRECORD
  5
9E6F
102
{ACAD_REACTORS
330
9E6E
102
}
330
9E6E
100
AcDbXrecord
280
     1
102
RTVSPost2010Prop28
280
     0
102
RTVSPost2010PropOp28
 70
     1
102
RTVSPost2010Prop29
280
     1
102
RTVSPost2010PropOp29
 70
     1
102
RTVSPost2010Prop30
280
     1
102
RTVSPost2010PropOp30
 70
     1
102
RTVSPost2010Prop31
280
     0
102
RTVSPost2010PropOp31
 70
     1
102
RTVSPost2010Prop32
280
     0
102
RTVSPost2010PropOp32
 70
     1
102
RTVSPost2010Prop33
280
     0
102
RTVSPost2010PropOp33
 70
     1
102
RTVSPost2010Prop34
280
     0
102
RTVSPost2010PropOp34
 70
     1
102
RTVSPost2010Prop35
280
     0
102
RTVSPost2010PropOp35
 70
     1
102
RTVSPost2010Prop36
280
     0
102
RTVSPost2010PropOp36
 70
     1
102
RTVSPost2010Prop37
 90
       50
102
RTVSPost2010PropOp37
 70
     1
102
RTVSPost2010Prop38
140
0.0
102
RTVSPost2010PropOp38
 70
     1
102
RTVSPost2010Prop39
140
1.0
102
RTVSPost2010PropOp39
 70
     1
102
RTVSPost2010Prop40
 90
        0
102
RTVSPost2010PropOp40
 70
     1
102
RTVSPost2010Prop41ColorIndex
 90
       18
102
RTVSPost2010Prop41ColorRGB
 90
        0
102
RTVSPost2010PropOp41
 70
     1
102
RTVSPost2010Prop42
 90
       50
102
RTVSPost2010PropOp42
 70
     1
102
RTVSPost2010Prop43
 90
        3
102
RTVSPost2010PropOp43
 70
     1
102
RTVSPost2010Prop44ColorIndex
 90
        5
102
RTVSPost2010Prop44ColorRGB
 90
      255
102
RTVSPost2010PropOp44
 70
     1
102
RTVSPost2010Prop45
280
     0
102
RTVSPost2010PropOp45
 70
     1
102
RTVSPost2010Prop46
 90
       50
102
RTVSPost2010PropOp46
 70
     1
102
RTVSPost2010Prop47
 90
       50
102
RTVSPost2010PropOp47
 70
     1
102
RTVSPost2010Prop48
 90
       50
102
RTVSPost2010PropOp48
 70
     1
102
RTVSPost2010Prop49
280
     0
102
RTVSPost2010PropOp49
 70
     1
102
RTVSPost2010Prop50
 90
       50
102
RTVSPost2010PropOp50
 70
     1
102
RTVSPost2010Prop51ColorIndex
 90
      256
102
RTVSPost2010Prop51ColorRGB
 90
-16777216
102
RTVSPost2010PropOp51
 70
     0
102
RTVSPost2010Prop52
140
1.0
102
RTVSPost2010PropOp52
 70
     0
102
RTVSPost2010Prop53
 90
        2
102
RTVSPost2010PropOp53
 70
     1
102
RTVSPost2010Prop54
  1
strokes_ogs.tif
102
RTVSPost2010PropOp54
 70
     1
102
RTVSPost2010Prop55
280
     0
102
RTVSPost2010PropOp55
 70
     1
102
RTVSPost2010Prop56
140
1.0
102
RTVSPost2010PropOp56
 70
     1
102
RTVSPost2010Prop57
140
1.0
102
RTVSPost2010PropOp57
 70
     1
102
RTVSPropertyOp0
 70
     1
102
RTVSPropertyOp1
 70
     1
102
RTVSPropertyOp2
 70
     1
102
RTVSPropertyOp3
 70
     1
102
RTVSPropertyOp4
 70
     1
102
RTVSPropertyOp5
 70
     1
102
RTVSPropertyOp6
 70
     1
102
RTVSPropertyOp7
 70
     1
102
RTVSPropertyOp8
 70
     1
102
RTVSPropertyOp9
 70
     1
102
RTVSPropertyOp10
 70
     1
102
RTVSPropertyOp11
 70
     1
102
RTVSPropertyOp12
 70
     1
102
RTVSPropertyOp13
 70
     1
102
RTVSPropertyOp14
 70
     1
102
RTVSPropertyOp15
 70
     1
102
RTVSPropertyOp16
 70
     1
102
RTVSPropertyOp17
 70
     1
102
RTVSPropertyOp18
 70
     1
102
RTVSPropertyOp19
 70
     1
102
RTVSPropertyOp20
 70
     1
102
RTVSPropertyOp21
 70
     1
102
RTVSPropertyOp22
 70
     1
102
RTVSPropertyOp23
 70
     1
102
RTVSPropertyOp24
 70
     1
102
RTVSPropertyOp25
 70
     1
102
RTVSPropertyOp26
 70
     1
102
RTVSPropertyOp27
 70
     1
102
RTVSPropertyOp28
 70
     1
102
RTVSPropertyOp29
 70
     1
102
RTVSPropertyOp30
 70
     1
102
RTVSPropertyOp31
 70
     1
102
RTVSPropertyOp32
 70
     1
102
RTVSPropertyOp33
 70
     1
102
RTVSPropertyOp34
 70
     1
102
RTVSPropertyOp35
 70
     1
102
RTVSPropertyOp36
 70
     1
102
RTVSPropertyOp37
 70
     1
102
RTVSPropertyOp38
 70
     1
102
RTVSPropertyOp39
 70
     1
102
RTVSPropertyOp40
 70
     1
102
RTVSPropertyOp41
 70
     1
102
RTVSPropertyOp42
 70
     1
102
RTVSPropertyOp43
 70
     1
102
RTVSPropertyOp44
 70
     1
102
RTVSPropertyOp45
 70
     1
102
RTVSPropertyOp46
 70
     1
102
RTVSPropertyOp47
 70
     1
102
RTVSPropertyOp48
 70
     1
102
RTVSPropertyOp49
 70
     1
102
RTVSPropertyOp50
 70
     1
102
RTVSPropertyOp51
 70
     0
102
RTVSPropertyOp52
 70
     0
102
RTVSPropertyOp53
 70
     1
102
RTVSPropertyOp54
 70
     1
102
RTVSPropertyOp55
 70
     1
102
RTVSPropertyOp56
 70
     1
102
RTVSPropertyOp57
 70
     1
102
RTVSPropertyOp58
 70
     1
102
RTVSPropertyOp59
 70
     1
102
RTVSPropertyOp60
 70
     1
102
RTVSPropertyOp61
 70
     1
102
RTVSPropertyOp62
 70
     1
  0
XRECORD
  5
9E77
102
{ACAD_REACTORS
330
9E76
102
}
330
9E76
100
AcDbXrecord
280
     1
102
RTVSPost2010Prop28
280
     0
102
RTVSPost2010PropOp28
 70
     1
102
RTVSPost2010Prop29
280
     1
102
RTVSPost2010PropOp29
 70
     1
102
RTVSPost2010Prop30
280
     1
102
RTVSPost2010PropOp30
 70
     1
102
RTVSPost2010Prop31
280
     0
102
RTVSPost2010PropOp31
 70
     1
102
RTVSPost2010Prop32
280
     0
102
RTVSPost2010PropOp32
 70
     1
102
RTVSPost2010Prop33
280
     0
102
RTVSPost2010PropOp33
 70
     1
102
RTVSPost2010Prop34
280
     0
102
RTVSPost2010PropOp34
 70
     1
102
RTVSPost2010Prop35
280
     0
102
RTVSPost2010PropOp35
 70
     1
102
RTVSPost2010Prop36
280
     0
102
RTVSPost2010PropOp36
 70
     1
102
RTVSPost2010Prop37
 90
       50
102
RTVSPost2010PropOp37
 70
     1
102
RTVSPost2010Prop38
140
0.0
102
RTVSPost2010PropOp38
 70
     1
102
RTVSPost2010Prop39
140
1.0
102
RTVSPost2010PropOp39
 70
     1
102
RTVSPost2010Prop40
 90
        0
102
RTVSPost2010PropOp40
 70
     1
102
RTVSPost2010Prop41ColorIndex
 90
       18
102
RTVSPost2010Prop41ColorRGB
 90
        0
102
RTVSPost2010PropOp41
 70
     1
102
RTVSPost2010Prop42
 90
       50
102
RTVSPost2010PropOp42
 70
     1
102
RTVSPost2010Prop43
 90
        3
102
RTVSPost2010PropOp43
 70
     1
102
RTVSPost2010Prop44ColorIndex
 90
        5
102
RTVSPost2010Prop44ColorRGB
 90
      255
102
RTVSPost2010PropOp44
 70
     1
102
RTVSPost2010Prop45
280
     0
102
RTVSPost2010PropOp45
 70
     1
102
RTVSPost2010Prop46
 90
       50
102
RTVSPost2010PropOp46
 70
     1
102
RTVSPost2010Prop47
 90
       50
102
RTVSPost2010PropOp47
 70
     1
102
RTVSPost2010Prop48
 90
       50
102
RTVSPost2010PropOp48
 70
     1
102
RTVSPost2010Prop49
280
     0
102
RTVSPost2010PropOp49
 70
     1
102
RTVSPost2010Prop50
 90
       50
102
RTVSPost2010PropOp50
 70
     1
102
RTVSPost2010Prop51ColorIndex
 90
      256
102
RTVSPost2010Prop51ColorRGB
 90
-16777216
102
RTVSPost2010PropOp51
 70
     0
102
RTVSPost2010Prop52
140
1.0
102
RTVSPost2010PropOp52
 70
     0
102
RTVSPost2010Prop53
 90
        2
102
RTVSPost2010PropOp53
 70
     1
102
RTVSPost2010Prop54
  1
strokes_ogs.tif
102
RTVSPost2010PropOp54
 70
     1
102
RTVSPost2010Prop55
280
     0
102
RTVSPost2010PropOp55
 70
     1
102
RTVSPost2010Prop56
140
1.0
102
RTVSPost2010PropOp56
 70
     1
102
RTVSPost2010Prop57
140
1.0
102
RTVSPost2010PropOp57
 70
     1
102
RTVSPropertyOp0
 70
     1
102
RTVSPropertyOp1
 70
     1
102
RTVSPropertyOp2
 70
     1
102
RTVSPropertyOp3
 70
     1
102
RTVSPropertyOp4
 70
     1
102
RTVSPropertyOp5
 70
     1
102
RTVSPropertyOp6
 70
     1
102
RTVSPropertyOp7
 70
     1
102
RTVSPropertyOp8
 70
     1
102
RTVSPropertyOp9
 70
     1
102
RTVSPropertyOp10
 70
     1
102
RTVSPropertyOp11
 70
     1
102
RTVSPropertyOp12
 70
     1
102
RTVSPropertyOp13
 70
     1
102
RTVSPropertyOp14
 70
     1
102
RTVSPropertyOp15
 70
     1
102
RTVSPropertyOp16
 70
     1
102
RTVSPropertyOp17
 70
     1
102
RTVSPropertyOp18
 70
     1
102
RTVSPropertyOp19
 70
     1
102
RTVSPropertyOp20
 70
     1
102
RTVSPropertyOp21
 70
     1
102
RTVSPropertyOp22
 70
     1
102
RTVSPropertyOp23
 70
     1
102
RTVSPropertyOp24
 70
     1
102
RTVSPropertyOp25
 70
     1
102
RTVSPropertyOp26
 70
     1
102
RTVSPropertyOp27
 70
     1
102
RTVSPropertyOp28
 70
     1
102
RTVSPropertyOp29
 70
     1
102
RTVSPropertyOp30
 70
     1
102
RTVSPropertyOp31
 70
     1
102
RTVSPropertyOp32
 70
     1
102
RTVSPropertyOp33
 70
     1
102
RTVSPropertyOp34
 70
     1
102
RTVSPropertyOp35
 70
     1
102
RTVSPropertyOp36
 70
     1
102
RTVSPropertyOp37
 70
     1
102
RTVSPropertyOp38
 70
     1
102
RTVSPropertyOp39
 70
     1
102
RTVSPropertyOp40
 70
     1
102
RTVSPropertyOp41
 70
     1
102
RTVSPropertyOp42
 70
     1
102
RTVSPropertyOp43
 70
     1
102
RTVSPropertyOp44
 70
     1
102
RTVSPropertyOp45
 70
     1
102
RTVSPropertyOp46
 70
     1
102
RTVSPropertyOp47
 70
     1
102
RTVSPropertyOp48
 70
     1
102
RTVSPropertyOp49
 70
     1
102
RTVSPropertyOp50
 70
     1
102
RTVSPropertyOp51
 70
     0
102
RTVSPropertyOp52
 70
     0
102
RTVSPropertyOp53
 70
     1
102
RTVSPropertyOp54
 70
     1
102
RTVSPropertyOp55
 70
     1
102
RTVSPropertyOp56
 70
     1
102
RTVSPropertyOp57
 70
     1
102
RTVSPropertyOp58
 70
     1
102
RTVSPropertyOp59
 70
     1
102
RTVSPropertyOp60
 70
     1
102
RTVSPropertyOp61
 70
     1
102
RTVSPropertyOp62
 70
     1
  0
XRECORD
  5
9E69
102
{ACAD_REACTORS
330
9E68
102
}
330
9E68
100
AcDbXrecord
280
     1
102
RTVSPost2010Prop28
280
     0
102
RTVSPost2010PropOp28
 70
     1
102
RTVSPost2010Prop29
280
     1
102
RTVSPost2010PropOp29
 70
     1
102
RTVSPost2010Prop30
280
     1
102
RTVSPost2010PropOp30
 70
     1
102
RTVSPost2010Prop31
280
     0
102
RTVSPost2010PropOp31
 70
     1
102
RTVSPost2010Prop32
280
     0
102
RTVSPost2010PropOp32
 70
     1
102
RTVSPost2010Prop33
280
     0
102
RTVSPost2010PropOp33
 70
     1
102
RTVSPost2010Prop34
280
     0
102
RTVSPost2010PropOp34
 70
     1
102
RTVSPost2010Prop35
280
     0
102
RTVSPost2010PropOp35
 70
     1
102
RTVSPost2010Prop36
280
     0
102
RTVSPost2010PropOp36
 70
     1
102
RTVSPost2010Prop37
 90
       50
102
RTVSPost2010PropOp37
 70
     1
102
RTVSPost2010Prop38
140
0.0
102
RTVSPost2010PropOp38
 70
     1
102
RTVSPost2010Prop39
140
1.0
102
RTVSPost2010PropOp39
 70
     1
102
RTVSPost2010Prop40
 90
        0
102
RTVSPost2010PropOp40
 70
     1
102
RTVSPost2010Prop41ColorIndex
 90
       18
102
RTVSPost2010Prop41ColorRGB
 90
        0
102
RTVSPost2010PropOp41
 70
     1
102
RTVSPost2010Prop42
 90
       50
102
RTVSPost2010PropOp42
 70
     1
102
RTVSPost2010Prop43
 90
        3
102
RTVSPost2010PropOp43
 70
     1
102
RTVSPost2010Prop44ColorIndex
 90
        5
102
RTVSPost2010Prop44ColorRGB
 90
      255
102
RTVSPost2010PropOp44
 70
     1
102
RTVSPost2010Prop45
280
     0
102
RTVSPost2010PropOp45
 70
     1
102
RTVSPost2010Prop46
 90
       50
102
RTVSPost2010PropOp46
 70
     1
102
RTVSPost2010Prop47
 90
       50
102
RTVSPost2010PropOp47
 70
     1
102
RTVSPost2010Prop48
 90
       50
102
RTVSPost2010PropOp48
 70
     1
102
RTVSPost2010Prop49
280
     0
102
RTVSPost2010PropOp49
 70
     1
102
RTVSPost2010Prop50
 90
       50
102
RTVSPost2010PropOp50
 70
     1
102
RTVSPost2010Prop51ColorIndex
 90
      256
102
RTVSPost2010Prop51ColorRGB
 90
-16777216
102
RTVSPost2010PropOp51
 70
     0
102
RTVSPost2010Prop52
140
1.0
102
RTVSPost2010PropOp52
 70
     0
102
RTVSPost2010Prop53
 90
        2
102
RTVSPost2010PropOp53
 70
     1
102
RTVSPost2010Prop54
  1
strokes_ogs.tif
102
RTVSPost2010PropOp54
 70
     1
102
RTVSPost2010Prop55
280
     0
102
RTVSPost2010PropOp55
 70
     1
102
RTVSPost2010Prop56
140
1.0
102
RTVSPost2010PropOp56
 70
     1
102
RTVSPost2010Prop57
140
1.0
102
RTVSPost2010PropOp57
 70
     1
102
RTVSPropertyOp0
 70
     1
102
RTVSPropertyOp1
 70
     1
102
RTVSPropertyOp2
 70
     1
102
RTVSPropertyOp3
 70
     1
102
RTVSPropertyOp4
 70
     1
102
RTVSPropertyOp5
 70
     1
102
RTVSPropertyOp6
 70
     1
102
RTVSPropertyOp7
 70
     1
102
RTVSPropertyOp8
 70
     1
102
RTVSPropertyOp9
 70
     1
102
RTVSPropertyOp10
 70
     1
102
RTVSPropertyOp11
 70
     1
102
RTVSPropertyOp12
 70
     1
102
RTVSPropertyOp13
 70
     1
102
RTVSPropertyOp14
 70
     1
102
RTVSPropertyOp15
 70
     1
102
RTVSPropertyOp16
 70
     1
102
RTVSPropertyOp17
 70
     1
102
RTVSPropertyOp18
 70
     1
102
RTVSPropertyOp19
 70
     1
102
RTVSPropertyOp20
 70
     1
102
RTVSPropertyOp21
 70
     1
102
RTVSPropertyOp22
 70
     1
102
RTVSPropertyOp23
 70
     1
102
RTVSPropertyOp24
 70
     1
102
RTVSPropertyOp25
 70
     1
102
RTVSPropertyOp26
 70
     1
102
RTVSPropertyOp27
 70
     1
102
RTVSPropertyOp28
 70
     1
102
RTVSPropertyOp29
 70
     1
102
RTVSPropertyOp30
 70
     1
102
RTVSPropertyOp31
 70
     1
102
RTVSPropertyOp32
 70
     1
102
RTVSPropertyOp33
 70
     1
102
RTVSPropertyOp34
 70
     1
102
RTVSPropertyOp35
 70
     1
102
RTVSPropertyOp36
 70
     1
102
RTVSPropertyOp37
 70
     1
102
RTVSPropertyOp38
 70
     1
102
RTVSPropertyOp39
 70
     1
102
RTVSPropertyOp40
 70
     1
102
RTVSPropertyOp41
 70
     1
102
RTVSPropertyOp42
 70
     1
102
RTVSPropertyOp43
 70
     1
102
RTVSPropertyOp44
 70
     1
102
RTVSPropertyOp45
 70
     1
102
RTVSPropertyOp46
 70
     1
102
RTVSPropertyOp47
 70
     1
102
RTVSPropertyOp48
 70
     1
102
RTVSPropertyOp49
 70
     1
102
RTVSPropertyOp50
 70
     1
102
RTVSPropertyOp51
 70
     0
102
RTVSPropertyOp52
 70
     0
102
RTVSPropertyOp53
 70
     1
102
RTVSPropertyOp54
 70
     1
102
RTVSPropertyOp55
 70
     1
102
RTVSPropertyOp56
 70
     1
102
RTVSPropertyOp57
 70
     1
102
RTVSPropertyOp58
 70
     1
102
RTVSPropertyOp59
 70
     1
102
RTVSPropertyOp60
 70
     1
102
RTVSPropertyOp61
 70
     1
102
RTVSPropertyOp62
 70
     1
  0
XRECORD
  5
9E6D
102
{ACAD_REACTORS
330
9E6C
102
}
330
9E6C
100
AcDbXrecord
280
     1
102
RTVSPost2010Prop28
280
     0
102
RTVSPost2010PropOp28
 70
     1
102
RTVSPost2010Prop29
280
     1
102
RTVSPost2010PropOp29
 70
     1
102
RTVSPost2010Prop30
280
     1
102
RTVSPost2010PropOp30
 70
     1
102
RTVSPost2010Prop31
280
     0
102
RTVSPost2010PropOp31
 70
     1
102
RTVSPost2010Prop32
280
     0
102
RTVSPost2010PropOp32
 70
     1
102
RTVSPost2010Prop33
280
     0
102
RTVSPost2010PropOp33
 70
     1
102
RTVSPost2010Prop34
280
     0
102
RTVSPost2010PropOp34
 70
     1
102
RTVSPost2010Prop35
280
     0
102
RTVSPost2010PropOp35
 70
     1
102
RTVSPost2010Prop36
280
     0
102
RTVSPost2010PropOp36
 70
     1
102
RTVSPost2010Prop37
 90
       50
102
RTVSPost2010PropOp37
 70
     1
102
RTVSPost2010Prop38
140
0.0
102
RTVSPost2010PropOp38
 70
     1
102
RTVSPost2010Prop39
140
1.0
102
RTVSPost2010PropOp39
 70
     1
102
RTVSPost2010Prop40
 90
        0
102
RTVSPost2010PropOp40
 70
     1
102
RTVSPost2010Prop41ColorIndex
 90
       18
102
RTVSPost2010Prop41ColorRGB
 90
        0
102
RTVSPost2010PropOp41
 70
     1
102
RTVSPost2010Prop42
 90
       50
102
RTVSPost2010PropOp42
 70
     1
102
RTVSPost2010Prop43
 90
        3
102
RTVSPost2010PropOp43
 70
     1
102
RTVSPost2010Prop44ColorIndex
 90
        5
102
RTVSPost2010Prop44ColorRGB
 90
      255
102
RTVSPost2010PropOp44
 70
     1
102
RTVSPost2010Prop45
280
     0
102
RTVSPost2010PropOp45
 70
     1
102
RTVSPost2010Prop46
 90
       50
102
RTVSPost2010PropOp46
 70
     1
102
RTVSPost2010Prop47
 90
       50
102
RTVSPost2010PropOp47
 70
     1
102
RTVSPost2010Prop48
 90
       50
102
RTVSPost2010PropOp48
 70
     1
102
RTVSPost2010Prop49
280
     0
102
RTVSPost2010PropOp49
 70
     1
102
RTVSPost2010Prop50
 90
       50
102
RTVSPost2010PropOp50
 70
     1
102
RTVSPost2010Prop51ColorIndex
 90
      256
102
RTVSPost2010Prop51ColorRGB
 90
-16777216
102
RTVSPost2010PropOp51
 70
     0
102
RTVSPost2010Prop52
140
1.0
102
RTVSPost2010PropOp52
 70
     0
102
RTVSPost2010Prop53
 90
        2
102
RTVSPost2010PropOp53
 70
     1
102
RTVSPost2010Prop54
  1
strokes_ogs.tif
102
RTVSPost2010PropOp54
 70
     1
102
RTVSPost2010Prop55
280
     0
102
RTVSPost2010PropOp55
 70
     1
102
RTVSPost2010Prop56
140
1.0
102
RTVSPost2010PropOp56
 70
     1
102
RTVSPost2010Prop57
140
1.0
102
RTVSPost2010PropOp57
 70
     1
102
RTVSPropertyOp0
 70
     1
102
RTVSPropertyOp1
 70
     1
102
RTVSPropertyOp2
 70
     1
102
RTVSPropertyOp3
 70
     1
102
RTVSPropertyOp4
 70
     1
102
RTVSPropertyOp5
 70
     1
102
RTVSPropertyOp6
 70
     1
102
RTVSPropertyOp7
 70
     1
102
RTVSPropertyOp8
 70
     1
102
RTVSPropertyOp9
 70
     1
102
RTVSPropertyOp10
 70
     1
102
RTVSPropertyOp11
 70
     1
102
RTVSPropertyOp12
 70
     1
102
RTVSPropertyOp13
 70
     1
102
RTVSPropertyOp14
 70
     1
102
RTVSPropertyOp15
 70
     1
102
RTVSPropertyOp16
 70
     1
102
RTVSPropertyOp17
 70
     1
102
RTVSPropertyOp18
 70
     1
102
RTVSPropertyOp19
 70
     1
102
RTVSPropertyOp20
 70
     1
102
RTVSPropertyOp21
 70
     1
102
RTVSPropertyOp22
 70
     1
102
RTVSPropertyOp23
 70
     1
102
RTVSPropertyOp24
 70
     1
102
RTVSPropertyOp25
 70
     1
102
RTVSPropertyOp26
 70
     1
102
RTVSPropertyOp27
 70
     1
102
RTVSPropertyOp28
 70
     1
102
RTVSPropertyOp29
 70
     1
102
RTVSPropertyOp30
 70
     1
102
RTVSPropertyOp31
 70
     1
102
RTVSPropertyOp32
 70
     1
102
RTVSPropertyOp33
 70
     1
102
RTVSPropertyOp34
 70
     1
102
RTVSPropertyOp35
 70
     1
102
RTVSPropertyOp36
 70
     1
102
RTVSPropertyOp37
 70
     1
102
RTVSPropertyOp38
 70
     1
102
RTVSPropertyOp39
 70
     1
102
RTVSPropertyOp40
 70
     1
102
RTVSPropertyOp41
 70
     1
102
RTVSPropertyOp42
 70
     1
102
RTVSPropertyOp43
 70
     1
102
RTVSPropertyOp44
 70
     1
102
RTVSPropertyOp45
 70
     1
102
RTVSPropertyOp46
 70
     1
102
RTVSPropertyOp47
 70
     1
102
RTVSPropertyOp48
 70
     1
102
RTVSPropertyOp49
 70
     1
102
RTVSPropertyOp50
 70
     1
102
RTVSPropertyOp51
 70
     0
102
RTVSPropertyOp52
 70
     0
102
RTVSPropertyOp53
 70
     1
102
RTVSPropertyOp54
 70
     1
102
RTVSPropertyOp55
 70
     1
102
RTVSPropertyOp56
 70
     1
102
RTVSPropertyOp57
 70
     1
102
RTVSPropertyOp58
 70
     1
102
RTVSPropertyOp59
 70
     1
102
RTVSPropertyOp60
 70
     1
102
RTVSPropertyOp61
 70
     1
102
RTVSPropertyOp62
 70
     1
  0
XRECORD
  5
9E87
102
{ACAD_REACTORS
330
9E86
102
}
330
9E86
100
AcDbXrecord
280
     1
102
RTVSPost2010Prop28
280
     0
102
RTVSPost2010PropOp28
 70
     1
102
RTVSPost2010Prop29
280
     1
102
RTVSPost2010PropOp29
 70
     1
102
RTVSPost2010Prop30
280
     1
102
RTVSPost2010PropOp30
 70
     1
102
RTVSPost2010Prop31
280
     0
102
RTVSPost2010PropOp31
 70
     1
102
RTVSPost2010Prop32
280
     0
102
RTVSPost2010PropOp32
 70
     1
102
RTVSPost2010Prop33
280
     0
102
RTVSPost2010PropOp33
 70
     1
102
RTVSPost2010Prop34
280
     0
102
RTVSPost2010PropOp34
 70
     1
102
RTVSPost2010Prop35
280
     0
102
RTVSPost2010PropOp35
 70
     1
102
RTVSPost2010Prop36
280
     0
102
RTVSPost2010PropOp36
 70
     1
102
RTVSPost2010Prop37
 90
       50
102
RTVSPost2010PropOp37
 70
     0
102
RTVSPost2010Prop38
140
0.0
102
RTVSPost2010PropOp38
 70
     0
102
RTVSPost2010Prop39
140
1.0
102
RTVSPost2010PropOp39
 70
     0
102
RTVSPost2010Prop40
 90
        0
102
RTVSPost2010PropOp40
 70
     0
102
RTVSPost2010Prop41ColorIndex
 90
       18
102
RTVSPost2010Prop41ColorRGB
 90
        0
102
RTVSPost2010PropOp41
 70
     0
102
RTVSPost2010Prop42
 90
       50
102
RTVSPost2010PropOp42
 70
     0
102
RTVSPost2010Prop43
 90
        3
102
RTVSPost2010PropOp43
 70
     0
102
RTVSPost2010Prop44ColorIndex
 90
        5
102
RTVSPost2010Prop44ColorRGB
 90
      255
102
RTVSPost2010PropOp44
 70
     0
102
RTVSPost2010Prop45
280
     0
102
RTVSPost2010PropOp45
 70
     1
102
RTVSPost2010Prop46
 90
       50
102
RTVSPost2010PropOp46
 70
     0
102
RTVSPost2010Prop47
 90
       50
102
RTVSPost2010PropOp47
 70
     0
102
RTVSPost2010Prop48
 90
       50
102
RTVSPost2010PropOp48
 70
     0
102
RTVSPost2010Prop49
280
     0
102
RTVSPost2010PropOp49
 70
     1
102
RTVSPost2010Prop50
 90
       50
102
RTVSPost2010PropOp50
 70
     0
102
RTVSPost2010Prop51ColorIndex
 90
      256
102
RTVSPost2010Prop51ColorRGB
 90
-16777216
102
RTVSPost2010PropOp51
 70
     0
102
RTVSPost2010Prop52
140
1.0
102
RTVSPost2010PropOp52
 70
     0
102
RTVSPost2010Prop53
 90
        2
102
RTVSPost2010PropOp53
 70
     0
102
RTVSPost2010Prop54
  1
strokes_ogs.tif
102
RTVSPost2010PropOp54
 70
     0
102
RTVSPost2010Prop55
280
     0
102
RTVSPost2010PropOp55
 70
     1
102
RTVSPost2010Prop56
140
1.0
102
RTVSPost2010PropOp56
 70
     0
102
RTVSPost2010Prop57
140
1.0
102
RTVSPost2010PropOp57
 70
     0
102
RTVSPropertyOp0
 70
     0
102
RTVSPropertyOp1
 70
     0
102
RTVSPropertyOp2
 70
     0
102
RTVSPropertyOp3
 70
     0
102
RTVSPropertyOp4
 70
     0
102
RTVSPropertyOp5
 70
     0
102
RTVSPropertyOp6
 70
     0
102
RTVSPropertyOp7
 70
     0
102
RTVSPropertyOp8
 70
     0
102
RTVSPropertyOp9
 70
     0
102
RTVSPropertyOp10
 70
     0
102
RTVSPropertyOp11
 70
     0
102
RTVSPropertyOp12
 70
     0
102
RTVSPropertyOp13
 70
     0
102
RTVSPropertyOp14
 70
     2
102
RTVSPropertyOp15
 70
     0
102
RTVSPropertyOp16
 70
     0
102
RTVSPropertyOp17
 70
     0
102
RTVSPropertyOp18
 70
     0
102
RTVSPropertyOp19
 70
     0
102
RTVSPropertyOp20
 70
     0
102
RTVSPropertyOp21
 70
     0
102
RTVSPropertyOp22
 70
     0
102
RTVSPropertyOp23
 70
     0
102
RTVSPropertyOp24
 70
     0
102
RTVSPropertyOp25
 70
     0
102
RTVSPropertyOp26
 70
     0
102
RTVSPropertyOp27
 70
     0
102
RTVSPropertyOp28
 70
     1
102
RTVSPropertyOp29
 70
     1
102
RTVSPropertyOp30
 70
     1
102
RTVSPropertyOp31
 70
     1
102
RTVSPropertyOp32
 70
     1
102
RTVSPropertyOp33
 70
     1
102
RTVSPropertyOp34
 70
     1
102
RTVSPropertyOp35
 70
     1
102
RTVSPropertyOp36
 70
     1
102
RTVSPropertyOp37
 70
     0
102
RTVSPropertyOp38
 70
     0
102
RTVSPropertyOp39
 70
     0
102
RTVSPropertyOp40
 70
     0
102
RTVSPropertyOp41
 70
     0
102
RTVSPropertyOp42
 70
     0
102
RTVSPropertyOp43
 70
     0
102
RTVSPropertyOp44
 70
     0
102
RTVSPropertyOp45
 70
     1
102
RTVSPropertyOp46
 70
     0
102
RTVSPropertyOp47
 70
     0
102
RTVSPropertyOp48
 70
     0
102
RTVSPropertyOp49
 70
     1
102
RTVSPropertyOp50
 70
     0
102
RTVSPropertyOp51
 70
     0
102
RTVSPropertyOp52
 70
     0
102
RTVSPropertyOp53
 70
     0
102
RTVSPropertyOp54
 70
     0
102
RTVSPropertyOp55
 70
     1
102
RTVSPropertyOp56
 70
     0
102
RTVSPropertyOp57
 70
     0
102
RTVSPropertyOp58
 70
     0
102
RTVSPropertyOp59
 70
     0
102
RTVSPropertyOp60
 70
     0
102
RTVSPropertyOp61
 70
     0
102
RTVSPropertyOp62
 70
     0
  0
XRECORD
  5
9E75
102
{ACAD_REACTORS
330
9E74
102
}
330
9E74
100
AcDbXrecord
280
     1
102
RTVSPost2010Prop28
280
     0
102
RTVSPost2010PropOp28
 70
     1
102
RTVSPost2010Prop29
280
     1
102
RTVSPost2010PropOp29
 70
     1
102
RTVSPost2010Prop30
280
     1
102
RTVSPost2010PropOp30
 70
     1
102
RTVSPost2010Prop31
280
     0
102
RTVSPost2010PropOp31
 70
     1
102
RTVSPost2010Prop32
280
     0
102
RTVSPost2010PropOp32
 70
     1
102
RTVSPost2010Prop33
280
     0
102
RTVSPost2010PropOp33
 70
     1
102
RTVSPost2010Prop34
280
     0
102
RTVSPost2010PropOp34
 70
     1
102
RTVSPost2010Prop35
280
     0
102
RTVSPost2010PropOp35
 70
     1
102
RTVSPost2010Prop36
280
     0
102
RTVSPost2010PropOp36
 70
     1
102
RTVSPost2010Prop37
 90
       50
102
RTVSPost2010PropOp37
 70
     1
102
RTVSPost2010Prop38
140
0.0
102
RTVSPost2010PropOp38
 70
     1
102
RTVSPost2010Prop39
140
1.0
102
RTVSPost2010PropOp39
 70
     1
102
RTVSPost2010Prop40
 90
        0
102
RTVSPost2010PropOp40
 70
     1
102
RTVSPost2010Prop41ColorIndex
 90
       18
102
RTVSPost2010Prop41ColorRGB
 90
        0
102
RTVSPost2010PropOp41
 70
     1
102
RTVSPost2010Prop42
 90
       50
102
RTVSPost2010PropOp42
 70
     1
102
RTVSPost2010Prop43
 90
        3
102
RTVSPost2010PropOp43
 70
     1
102
RTVSPost2010Prop44ColorIndex
 90
        5
102
RTVSPost2010Prop44ColorRGB
 90
      255
102
RTVSPost2010PropOp44
 70
     1
102
RTVSPost2010Prop45
280
     0
102
RTVSPost2010PropOp45
 70
     1
102
RTVSPost2010Prop46
 90
       50
102
RTVSPost2010PropOp46
 70
     1
102
RTVSPost2010Prop47
 90
       50
102
RTVSPost2010PropOp47
 70
     1
102
RTVSPost2010Prop48
 90
       50
102
RTVSPost2010PropOp48
 70
     1
102
RTVSPost2010Prop49
280
     0
102
RTVSPost2010PropOp49
 70
     1
102
RTVSPost2010Prop50
 90
       50
102
RTVSPost2010PropOp50
 70
     1
102
RTVSPost2010Prop51ColorIndex
 90
      256
102
RTVSPost2010Prop51ColorRGB
 90
-16777216
102
RTVSPost2010PropOp51
 70
     0
102
RTVSPost2010Prop52
140
1.0
102
RTVSPost2010PropOp52
 70
     0
102
RTVSPost2010Prop53
 90
        2
102
RTVSPost2010PropOp53
 70
     1
102
RTVSPost2010Prop54
  1
strokes_ogs.tif
102
RTVSPost2010PropOp54
 70
     1
102
RTVSPost2010Prop55
280
     0
102
RTVSPost2010PropOp55
 70
     1
102
RTVSPost2010Prop56
140
1.0
102
RTVSPost2010PropOp56
 70
     1
102
RTVSPost2010Prop57
140
1.0
102
RTVSPost2010PropOp57
 70
     1
102
RTVSPropertyOp0
 70
     1
102
RTVSPropertyOp1
 70
     1
102
RTVSPropertyOp2
 70
     1
102
RTVSPropertyOp3
 70
     1
102
RTVSPropertyOp4
 70
     1
102
RTVSPropertyOp5
 70
     1
102
RTVSPropertyOp6
 70
     1
102
RTVSPropertyOp7
 70
     1
102
RTVSPropertyOp8
 70
     1
102
RTVSPropertyOp9
 70
     1
102
RTVSPropertyOp10
 70
     1
102
RTVSPropertyOp11
 70
     1
102
RTVSPropertyOp12
 70
     1
102
RTVSPropertyOp13
 70
     1
102
RTVSPropertyOp14
 70
     1
102
RTVSPropertyOp15
 70
     1
102
RTVSPropertyOp16
 70
     1
102
RTVSPropertyOp17
 70
     1
102
RTVSPropertyOp18
 70
     1
102
RTVSPropertyOp19
 70
     1
102
RTVSPropertyOp20
 70
     1
102
RTVSPropertyOp21
 70
     1
102
RTVSPropertyOp22
 70
     1
102
RTVSPropertyOp23
 70
     1
102
RTVSPropertyOp24
 70
     1
102
RTVSPropertyOp25
 70
     1
102
RTVSPropertyOp26
 70
     1
102
RTVSPropertyOp27
 70
     1
102
RTVSPropertyOp28
 70
     1
102
RTVSPropertyOp29
 70
     1
102
RTVSPropertyOp30
 70
     1
102
RTVSPropertyOp31
 70
     1
102
RTVSPropertyOp32
 70
     1
102
RTVSPropertyOp33
 70
     1
102
RTVSPropertyOp34
 70
     1
102
RTVSPropertyOp35
 70
     1
102
RTVSPropertyOp36
 70
     1
102
RTVSPropertyOp37
 70
     1
102
RTVSPropertyOp38
 70
     1
102
RTVSPropertyOp39
 70
     1
102
RTVSPropertyOp40
 70
     1
102
RTVSPropertyOp41
 70
     1
102
RTVSPropertyOp42
 70
     1
102
RTVSPropertyOp43
 70
     1
102
RTVSPropertyOp44
 70
     1
102
RTVSPropertyOp45
 70
     1
102
RTVSPropertyOp46
 70
     1
102
RTVSPropertyOp47
 70
     1
102
RTVSPropertyOp48
 70
     1
102
RTVSPropertyOp49
 70
     1
102
RTVSPropertyOp50
 70
     1
102
RTVSPropertyOp51
 70
     0
102
RTVSPropertyOp52
 70
     0
102
RTVSPropertyOp53
 70
     1
102
RTVSPropertyOp54
 70
     1
102
RTVSPropertyOp55
 70
     1
102
RTVSPropertyOp56
 70
     1
102
RTVSPropertyOp57
 70
     1
102
RTVSPropertyOp58
 70
     1
102
RTVSPropertyOp59
 70
     1
102
RTVSPropertyOp60
 70
     1
102
RTVSPropertyOp61
 70
     1
102
RTVSPropertyOp62
 70
     1
  0
XRECORD
  5
9E59
102
{ACAD_REACTORS
330
9E58
102
}
330
9E58
100
AcDbXrecord
280
     1
102
RTVSPost2010Prop28
280
     0
102
RTVSPost2010PropOp28
 70
     1
102
RTVSPost2010Prop29
280
     1
102
RTVSPost2010PropOp29
 70
     1
102
RTVSPost2010Prop30
280
     1
102
RTVSPost2010PropOp30
 70
     1
102
RTVSPost2010Prop31
280
     0
102
RTVSPost2010PropOp31
 70
     1
102
RTVSPost2010Prop32
280
     0
102
RTVSPost2010PropOp32
 70
     1
102
RTVSPost2010Prop33
280
     0
102
RTVSPost2010PropOp33
 70
     1
102
RTVSPost2010Prop34
280
     0
102
RTVSPost2010PropOp34
 70
     1
102
RTVSPost2010Prop35
280
     0
102
RTVSPost2010PropOp35
 70
     1
102
RTVSPost2010Prop36
280
     0
102
RTVSPost2010PropOp36
 70
     1
102
RTVSPost2010Prop37
 90
       50
102
RTVSPost2010PropOp37
 70
     1
102
RTVSPost2010Prop38
140
0.0
102
RTVSPost2010PropOp38
 70
     1
102
RTVSPost2010Prop39
140
1.0
102
RTVSPost2010PropOp39
 70
     1
102
RTVSPost2010Prop40
 90
        0
102
RTVSPost2010PropOp40
 70
     1
102
RTVSPost2010Prop41ColorIndex
 90
       18
102
RTVSPost2010Prop41ColorRGB
 90
        0
102
RTVSPost2010PropOp41
 70
     1
102
RTVSPost2010Prop42
 90
       50
102
RTVSPost2010PropOp42
 70
     1
102
RTVSPost2010Prop43
 90
        3
102
RTVSPost2010PropOp43
 70
     1
102
RTVSPost2010Prop44ColorIndex
 90
        5
102
RTVSPost2010Prop44ColorRGB
 90
      255
102
RTVSPost2010PropOp44
 70
     1
102
RTVSPost2010Prop45
280
     0
102
RTVSPost2010PropOp45
 70
     1
102
RTVSPost2010Prop46
 90
       50
102
RTVSPost2010PropOp46
 70
     1
102
RTVSPost2010Prop47
 90
       50
102
RTVSPost2010PropOp47
 70
     1
102
RTVSPost2010Prop48
 90
       50
102
RTVSPost2010PropOp48
 70
     1
102
RTVSPost2010Prop49
280
     0
102
RTVSPost2010PropOp49
 70
     1
102
RTVSPost2010Prop50
 90
       50
102
RTVSPost2010PropOp50
 70
     1
102
RTVSPost2010Prop51ColorIndex
 90
      256
102
RTVSPost2010Prop51ColorRGB
 90
-16777216
102
RTVSPost2010PropOp51
 70
     0
102
RTVSPost2010Prop52
140
1.0
102
RTVSPost2010PropOp52
 70
     0
102
RTVSPost2010Prop53
 90
        2
102
RTVSPost2010PropOp53
 70
     1
102
RTVSPost2010Prop54
  1
strokes_ogs.tif
102
RTVSPost2010PropOp54
 70
     1
102
RTVSPost2010Prop55
280
     0
102
RTVSPost2010PropOp55
 70
     1
102
RTVSPost2010Prop56
140
1.0
102
RTVSPost2010PropOp56
 70
     1
102
RTVSPost2010Prop57
140
1.0
102
RTVSPost2010PropOp57
 70
     1
102
RTVSPropertyOp0
 70
     1
102
RTVSPropertyOp1
 70
     1
102
RTVSPropertyOp2
 70
     1
102
RTVSPropertyOp3
 70
     1
102
RTVSPropertyOp4
 70
     1
102
RTVSPropertyOp5
 70
     1
102
RTVSPropertyOp6
 70
     1
102
RTVSPropertyOp7
 70
     1
102
RTVSPropertyOp8
 70
     1
102
RTVSPropertyOp9
 70
     1
102
RTVSPropertyOp10
 70
     1
102
RTVSPropertyOp11
 70
     1
102
RTVSPropertyOp12
 70
     1
102
RTVSPropertyOp13
 70
     1
102
RTVSPropertyOp14
 70
     1
102
RTVSPropertyOp15
 70
     1
102
RTVSPropertyOp16
 70
     1
102
RTVSPropertyOp17
 70
     1
102
RTVSPropertyOp18
 70
     1
102
RTVSPropertyOp19
 70
     1
102
RTVSPropertyOp20
 70
     1
102
RTVSPropertyOp21
 70
     1
102
RTVSPropertyOp22
 70
     1
102
RTVSPropertyOp23
 70
     1
102
RTVSPropertyOp24
 70
     1
102
RTVSPropertyOp25
 70
     1
102
RTVSPropertyOp26
 70
     1
102
RTVSPropertyOp27
 70
     1
102
RTVSPropertyOp28
 70
     1
102
RTVSPropertyOp29
 70
     1
102
RTVSPropertyOp30
 70
     1
102
RTVSPropertyOp31
 70
     1
102
RTVSPropertyOp32
 70
     1
102
RTVSPropertyOp33
 70
     1
102
RTVSPropertyOp34
 70
     1
102
RTVSPropertyOp35
 70
     1
102
RTVSPropertyOp36
 70
     1
102
RTVSPropertyOp37
 70
     1
102
RTVSPropertyOp38
 70
     1
102
RTVSPropertyOp39
 70
     1
102
RTVSPropertyOp40
 70
     1
102
RTVSPropertyOp41
 70
     1
102
RTVSPropertyOp42
 70
     1
102
RTVSPropertyOp43
 70
     1
102
RTVSPropertyOp44
 70
     1
102
RTVSPropertyOp45
 70
     1
102
RTVSPropertyOp46
 70
     1
102
RTVSPropertyOp47
 70
     1
102
RTVSPropertyOp48
 70
     1
102
RTVSPropertyOp49
 70
     1
102
RTVSPropertyOp50
 70
     1
102
RTVSPropertyOp51
 70
     0
102
RTVSPropertyOp52
 70
     0
102
RTVSPropertyOp53
 70
     1
102
RTVSPropertyOp54
 70
     1
102
RTVSPropertyOp55
 70
     1
102
RTVSPropertyOp56
 70
     1
102
RTVSPropertyOp57
 70
     1
102
RTVSPropertyOp58
 70
     1
102
RTVSPropertyOp59
 70
     1
102
RTVSPropertyOp60
 70
     1
102
RTVSPropertyOp61
 70
     1
102
RTVSPropertyOp62
 70
     1
  0
XRECORD
  5
9E5B
102
{ACAD_REACTORS
330
9E5A
102
}
330
9E5A
100
AcDbXrecord
280
     1
102
RTVSPost2010Prop28
280
     0
102
RTVSPost2010PropOp28
 70
     1
102
RTVSPost2010Prop29
280
     1
102
RTVSPost2010PropOp29
 70
     1
102
RTVSPost2010Prop30
280
     1
102
RTVSPost2010PropOp30
 70
     1
102
RTVSPost2010Prop31
280
     0
102
RTVSPost2010PropOp31
 70
     1
102
RTVSPost2010Prop32
280
     0
102
RTVSPost2010PropOp32
 70
     1
102
RTVSPost2010Prop33
280
     0
102
RTVSPost2010PropOp33
 70
     1
102
RTVSPost2010Prop34
280
     0
102
RTVSPost2010PropOp34
 70
     1
102
RTVSPost2010Prop35
280
     0
102
RTVSPost2010PropOp35
 70
     1
102
RTVSPost2010Prop36
280
     0
102
RTVSPost2010PropOp36
 70
     1
102
RTVSPost2010Prop37
 90
       50
102
RTVSPost2010PropOp37
 70
     1
102
RTVSPost2010Prop38
140
0.0
102
RTVSPost2010PropOp38
 70
     1
102
RTVSPost2010Prop39
140
1.0
102
RTVSPost2010PropOp39
 70
     1
102
RTVSPost2010Prop40
 90
        0
102
RTVSPost2010PropOp40
 70
     1
102
RTVSPost2010Prop41ColorIndex
 90
       18
102
RTVSPost2010Prop41ColorRGB
 90
        0
102
RTVSPost2010PropOp41
 70
     1
102
RTVSPost2010Prop42
 90
       50
102
RTVSPost2010PropOp42
 70
     1
102
RTVSPost2010Prop43
 90
        3
102
RTVSPost2010PropOp43
 70
     1
102
RTVSPost2010Prop44ColorIndex
 90
        5
102
RTVSPost2010Prop44ColorRGB
 90
      255
102
RTVSPost2010PropOp44
 70
     1
102
RTVSPost2010Prop45
280
     0
102
RTVSPost2010PropOp45
 70
     1
102
RTVSPost2010Prop46
 90
       50
102
RTVSPost2010PropOp46
 70
     1
102
RTVSPost2010Prop47
 90
       50
102
RTVSPost2010PropOp47
 70
     1
102
RTVSPost2010Prop48
 90
       50
102
RTVSPost2010PropOp48
 70
     1
102
RTVSPost2010Prop49
280
     0
102
RTVSPost2010PropOp49
 70
     1
102
RTVSPost2010Prop50
 90
       50
102
RTVSPost2010PropOp50
 70
     1
102
RTVSPost2010Prop51ColorIndex
 90
      256
102
RTVSPost2010Prop51ColorRGB
 90
-16777216
102
RTVSPost2010PropOp51
 70
     0
102
RTVSPost2010Prop52
140
1.0
102
RTVSPost2010PropOp52
 70
     0
102
RTVSPost2010Prop53
 90
        2
102
RTVSPost2010PropOp53
 70
     1
102
RTVSPost2010Prop54
  1
strokes_ogs.tif
102
RTVSPost2010PropOp54
 70
     1
102
RTVSPost2010Prop55
280
     0
102
RTVSPost2010PropOp55
 70
     1
102
RTVSPost2010Prop56
140
1.0
102
RTVSPost2010PropOp56
 70
     1
102
RTVSPost2010Prop57
140
1.0
102
RTVSPost2010PropOp57
 70
     1
102
RTVSPropertyOp0
 70
     1
102
RTVSPropertyOp1
 70
     1
102
RTVSPropertyOp2
 70
     1
102
RTVSPropertyOp3
 70
     1
102
RTVSPropertyOp4
 70
     1
102
RTVSPropertyOp5
 70
     1
102
RTVSPropertyOp6
 70
     1
102
RTVSPropertyOp7
 70
     1
102
RTVSPropertyOp8
 70
     1
102
RTVSPropertyOp9
 70
     1
102
RTVSPropertyOp10
 70
     1
102
RTVSPropertyOp11
 70
     1
102
RTVSPropertyOp12
 70
     1
102
RTVSPropertyOp13
 70
     1
102
RTVSPropertyOp14
 70
     1
102
RTVSPropertyOp15
 70
     1
102
RTVSPropertyOp16
 70
     1
102
RTVSPropertyOp17
 70
     1
102
RTVSPropertyOp18
 70
     1
102
RTVSPropertyOp19
 70
     1
102
RTVSPropertyOp20
 70
     1
102
RTVSPropertyOp21
 70
     1
102
RTVSPropertyOp22
 70
     1
102
RTVSPropertyOp23
 70
     1
102
RTVSPropertyOp24
 70
     1
102
RTVSPropertyOp25
 70
     1
102
RTVSPropertyOp26
 70
     1
102
RTVSPropertyOp27
 70
     1
102
RTVSPropertyOp28
 70
     1
102
RTVSPropertyOp29
 70
     1
102
RTVSPropertyOp30
 70
     1
102
RTVSPropertyOp31
 70
     1
102
RTVSPropertyOp32
 70
     1
102
RTVSPropertyOp33
 70
     1
102
RTVSPropertyOp34
 70
     1
102
RTVSPropertyOp35
 70
     1
102
RTVSPropertyOp36
 70
     1
102
RTVSPropertyOp37
 70
     1
102
RTVSPropertyOp38
 70
     1
102
RTVSPropertyOp39
 70
     1
102
RTVSPropertyOp40
 70
     1
102
RTVSPropertyOp41
 70
     1
102
RTVSPropertyOp42
 70
     1
102
RTVSPropertyOp43
 70
     1
102
RTVSPropertyOp44
 70
     1
102
RTVSPropertyOp45
 70
     1
102
RTVSPropertyOp46
 70
     1
102
RTVSPropertyOp47
 70
     1
102
RTVSPropertyOp48
 70
     1
102
RTVSPropertyOp49
 70
     1
102
RTVSPropertyOp50
 70
     1
102
RTVSPropertyOp51
 70
     0
102
RTVSPropertyOp52
 70
     0
102
RTVSPropertyOp53
 70
     1
102
RTVSPropertyOp54
 70
     1
102
RTVSPropertyOp55
 70
     1
102
RTVSPropertyOp56
 70
     1
102
RTVSPropertyOp57
 70
     1
102
RTVSPropertyOp58
 70
     1
102
RTVSPropertyOp59
 70
     1
102
RTVSPropertyOp60
 70
     1
102
RTVSPropertyOp61
 70
     1
102
RTVSPropertyOp62
 70
     1
  0
XRECORD
  5
9E5D
102
{ACAD_REACTORS
330
9E5C
102
}
330
9E5C
100
AcDbXrecord
280
     1
102
RTVSPost2010Prop28
280
     0
102
RTVSPost2010PropOp28
 70
     1
102
RTVSPost2010Prop29
280
     1
102
RTVSPost2010PropOp29
 70
     1
102
RTVSPost2010Prop30
280
     1
102
RTVSPost2010PropOp30
 70
     1
102
RTVSPost2010Prop31
280
     0
102
RTVSPost2010PropOp31
 70
     1
102
RTVSPost2010Prop32
280
     0
102
RTVSPost2010PropOp32
 70
     1
102
RTVSPost2010Prop33
280
     0
102
RTVSPost2010PropOp33
 70
     1
102
RTVSPost2010Prop34
280
     0
102
RTVSPost2010PropOp34
 70
     1
102
RTVSPost2010Prop35
280
     0
102
RTVSPost2010PropOp35
 70
     1
102
RTVSPost2010Prop36
280
     0
102
RTVSPost2010PropOp36
 70
     1
102
RTVSPost2010Prop37
 90
       50
102
RTVSPost2010PropOp37
 70
     1
102
RTVSPost2010Prop38
140
0.0
102
RTVSPost2010PropOp38
 70
     1
102
RTVSPost2010Prop39
140
1.0
102
RTVSPost2010PropOp39
 70
     1
102
RTVSPost2010Prop40
 90
        0
102
RTVSPost2010PropOp40
 70
     1
102
RTVSPost2010Prop41ColorIndex
 90
       18
102
RTVSPost2010Prop41ColorRGB
 90
        0
102
RTVSPost2010PropOp41
 70
     1
102
RTVSPost2010Prop42
 90
       50
102
RTVSPost2010PropOp42
 70
     1
102
RTVSPost2010Prop43
 90
        3
102
RTVSPost2010PropOp43
 70
     1
102
RTVSPost2010Prop44ColorIndex
 90
        5
102
RTVSPost2010Prop44ColorRGB
 90
      255
102
RTVSPost2010PropOp44
 70
     1
102
RTVSPost2010Prop45
280
     0
102
RTVSPost2010PropOp45
 70
     1
102
RTVSPost2010Prop46
 90
       50
102
RTVSPost2010PropOp46
 70
     1
102
RTVSPost2010Prop47
 90
       50
102
RTVSPost2010PropOp47
 70
     1
102
RTVSPost2010Prop48
 90
       50
102
RTVSPost2010PropOp48
 70
     1
102
RTVSPost2010Prop49
280
     0
102
RTVSPost2010PropOp49
 70
     1
102
RTVSPost2010Prop50
 90
       50
102
RTVSPost2010PropOp50
 70
     1
102
RTVSPost2010Prop51ColorIndex
 90
      256
102
RTVSPost2010Prop51ColorRGB
 90
-16777216
102
RTVSPost2010PropOp51
 70
     0
102
RTVSPost2010Prop52
140
1.0
102
RTVSPost2010PropOp52
 70
     0
102
RTVSPost2010Prop53
 90
        2
102
RTVSPost2010PropOp53
 70
     1
102
RTVSPost2010Prop54
  1
strokes_ogs.tif
102
RTVSPost2010PropOp54
 70
     1
102
RTVSPost2010Prop55
280
     0
102
RTVSPost2010PropOp55
 70
     1
102
RTVSPost2010Prop56
140
1.0
102
RTVSPost2010PropOp56
 70
     1
102
RTVSPost2010Prop57
140
1.0
102
RTVSPost2010PropOp57
 70
     1
102
RTVSPropertyOp0
 70
     1
102
RTVSPropertyOp1
 70
     1
102
RTVSPropertyOp2
 70
     1
102
RTVSPropertyOp3
 70
     1
102
RTVSPropertyOp4
 70
     1
102
RTVSPropertyOp5
 70
     1
102
RTVSPropertyOp6
 70
     1
102
RTVSPropertyOp7
 70
     1
102
RTVSPropertyOp8
 70
     1
102
RTVSPropertyOp9
 70
     1
102
RTVSPropertyOp10
 70
     1
102
RTVSPropertyOp11
 70
     1
102
RTVSPropertyOp12
 70
     1
102
RTVSPropertyOp13
 70
     1
102
RTVSPropertyOp14
 70
     1
102
RTVSPropertyOp15
 70
     1
102
RTVSPropertyOp16
 70
     1
102
RTVSPropertyOp17
 70
     1
102
RTVSPropertyOp18
 70
     1
102
RTVSPropertyOp19
 70
     1
102
RTVSPropertyOp20
 70
     1
102
RTVSPropertyOp21
 70
     1
102
RTVSPropertyOp22
 70
     1
102
RTVSPropertyOp23
 70
     1
102
RTVSPropertyOp24
 70
     1
102
RTVSPropertyOp25
 70
     1
102
RTVSPropertyOp26
 70
     1
102
RTVSPropertyOp27
 70
     1
102
RTVSPropertyOp28
 70
     1
102
RTVSPropertyOp29
 70
     1
102
RTVSPropertyOp30
 70
     1
102
RTVSPropertyOp31
 70
     1
102
RTVSPropertyOp32
 70
     1
102
RTVSPropertyOp33
 70
     1
102
RTVSPropertyOp34
 70
     1
102
RTVSPropertyOp35
 70
     1
102
RTVSPropertyOp36
 70
     1
102
RTVSPropertyOp37
 70
     1
102
RTVSPropertyOp38
 70
     1
102
RTVSPropertyOp39
 70
     1
102
RTVSPropertyOp40
 70
     1
102
RTVSPropertyOp41
 70
     1
102
RTVSPropertyOp42
 70
     1
102
RTVSPropertyOp43
 70
     1
102
RTVSPropertyOp44
 70
     1
102
RTVSPropertyOp45
 70
     1
102
RTVSPropertyOp46
 70
     1
102
RTVSPropertyOp47
 70
     1
102
RTVSPropertyOp48
 70
     1
102
RTVSPropertyOp49
 70
     1
102
RTVSPropertyOp50
 70
     1
102
RTVSPropertyOp51
 70
     0
102
RTVSPropertyOp52
 70
     0
102
RTVSPropertyOp53
 70
     1
102
RTVSPropertyOp54
 70
     1
102
RTVSPropertyOp55
 70
     1
102
RTVSPropertyOp56
 70
     1
102
RTVSPropertyOp57
 70
     1
102
RTVSPropertyOp58
 70
     1
102
RTVSPropertyOp59
 70
     1
102
RTVSPropertyOp60
 70
     1
102
RTVSPropertyOp61
 70
     1
102
RTVSPropertyOp62
 70
     1
  0
XRECORD
  5
9E5F
102
{ACAD_REACTORS
330
9E5E
102
}
330
9E5E
100
AcDbXrecord
280
     1
102
RTVSPost2010Prop28
280
     0
102
RTVSPost2010PropOp28
 70
     1
102
RTVSPost2010Prop29
280
     1
102
RTVSPost2010PropOp29
 70
     1
102
RTVSPost2010Prop30
280
     1
102
RTVSPost2010PropOp30
 70
     1
102
RTVSPost2010Prop31
280
     0
102
RTVSPost2010PropOp31
 70
     1
102
RTVSPost2010Prop32
280
     0
102
RTVSPost2010PropOp32
 70
     1
102
RTVSPost2010Prop33
280
     0
102
RTVSPost2010PropOp33
 70
     1
102
RTVSPost2010Prop34
280
     0
102
RTVSPost2010PropOp34
 70
     1
102
RTVSPost2010Prop35
280
     0
102
RTVSPost2010PropOp35
 70
     1
102
RTVSPost2010Prop36
280
     0
102
RTVSPost2010PropOp36
 70
     1
102
RTVSPost2010Prop37
 90
       50
102
RTVSPost2010PropOp37
 70
     1
102
RTVSPost2010Prop38
140
0.0
102
RTVSPost2010PropOp38
 70
     1
102
RTVSPost2010Prop39
140
1.0
102
RTVSPost2010PropOp39
 70
     1
102
RTVSPost2010Prop40
 90
        0
102
RTVSPost2010PropOp40
 70
     1
102
RTVSPost2010Prop41ColorIndex
 90
       18
102
RTVSPost2010Prop41ColorRGB
 90
        0
102
RTVSPost2010PropOp41
 70
     1
102
RTVSPost2010Prop42
 90
       50
102
RTVSPost2010PropOp42
 70
     1
102
RTVSPost2010Prop43
 90
        3
102
RTVSPost2010PropOp43
 70
     1
102
RTVSPost2010Prop44ColorIndex
 90
        5
102
RTVSPost2010Prop44ColorRGB
 90
      255
102
RTVSPost2010PropOp44
 70
     1
102
RTVSPost2010Prop45
280
     0
102
RTVSPost2010PropOp45
 70
     1
102
RTVSPost2010Prop46
 90
       50
102
RTVSPost2010PropOp46
 70
     1
102
RTVSPost2010Prop47
 90
       50
102
RTVSPost2010PropOp47
 70
     1
102
RTVSPost2010Prop48
 90
       50
102
RTVSPost2010PropOp48
 70
     1
102
RTVSPost2010Prop49
280
     0
102
RTVSPost2010PropOp49
 70
     1
102
RTVSPost2010Prop50
 90
       50
102
RTVSPost2010PropOp50
 70
     1
102
RTVSPost2010Prop51ColorIndex
 90
      256
102
RTVSPost2010Prop51ColorRGB
 90
-16777216
102
RTVSPost2010PropOp51
 70
     0
102
RTVSPost2010Prop52
140
1.0
102
RTVSPost2010PropOp52
 70
     0
102
RTVSPost2010Prop53
 90
        2
102
RTVSPost2010PropOp53
 70
     1
102
RTVSPost2010Prop54
  1
strokes_ogs.tif
102
RTVSPost2010PropOp54
 70
     1
102
RTVSPost2010Prop55
280
     0
102
RTVSPost2010PropOp55
 70
     1
102
RTVSPost2010Prop56
140
1.0
102
RTVSPost2010PropOp56
 70
     1
102
RTVSPost2010Prop57
140
1.0
102
RTVSPost2010PropOp57
 70
     1
102
RTVSPropertyOp0
 70
     1
102
RTVSPropertyOp1
 70
     1
102
RTVSPropertyOp2
 70
     1
102
RTVSPropertyOp3
 70
     1
102
RTVSPropertyOp4
 70
     1
102
RTVSPropertyOp5
 70
     1
102
RTVSPropertyOp6
 70
     1
102
RTVSPropertyOp7
 70
     1
102
RTVSPropertyOp8
 70
     1
102
RTVSPropertyOp9
 70
     1
102
RTVSPropertyOp10
 70
     1
102
RTVSPropertyOp11
 70
     1
102
RTVSPropertyOp12
 70
     1
102
RTVSPropertyOp13
 70
     1
102
RTVSPropertyOp14
 70
     1
102
RTVSPropertyOp15
 70
     1
102
RTVSPropertyOp16
 70
     1
102
RTVSPropertyOp17
 70
     1
102
RTVSPropertyOp18
 70
     1
102
RTVSPropertyOp19
 70
     1
102
RTVSPropertyOp20
 70
     1
102
RTVSPropertyOp21
 70
     1
102
RTVSPropertyOp22
 70
     1
102
RTVSPropertyOp23
 70
     1
102
RTVSPropertyOp24
 70
     1
102
RTVSPropertyOp25
 70
     1
102
RTVSPropertyOp26
 70
     1
102
RTVSPropertyOp27
 70
     1
102
RTVSPropertyOp28
 70
     1
102
RTVSPropertyOp29
 70
     1
102
RTVSPropertyOp30
 70
     1
102
RTVSPropertyOp31
 70
     1
102
RTVSPropertyOp32
 70
     1
102
RTVSPropertyOp33
 70
     1
102
RTVSPropertyOp34
 70
     1
102
RTVSPropertyOp35
 70
     1
102
RTVSPropertyOp36
 70
     1
102
RTVSPropertyOp37
 70
     1
102
RTVSPropertyOp38
 70
     1
102
RTVSPropertyOp39
 70
     1
102
RTVSPropertyOp40
 70
     1
102
RTVSPropertyOp41
 70
     1
102
RTVSPropertyOp42
 70
     1
102
RTVSPropertyOp43
 70
     1
102
RTVSPropertyOp44
 70
     1
102
RTVSPropertyOp45
 70
     1
102
RTVSPropertyOp46
 70
     1
102
RTVSPropertyOp47
 70
     1
102
RTVSPropertyOp48
 70
     1
102
RTVSPropertyOp49
 70
     1
102
RTVSPropertyOp50
 70
     1
102
RTVSPropertyOp51
 70
     0
102
RTVSPropertyOp52
 70
     0
102
RTVSPropertyOp53
 70
     1
102
RTVSPropertyOp54
 70
     1
102
RTVSPropertyOp55
 70
     1
102
RTVSPropertyOp56
 70
     1
102
RTVSPropertyOp57
 70
     1
102
RTVSPropertyOp58
 70
     1
102
RTVSPropertyOp59
 70
     1
102
RTVSPropertyOp60
 70
     1
102
RTVSPropertyOp61
 70
     1
102
RTVSPropertyOp62
 70
     1
  0
XRECORD
  5
9E67
102
{ACAD_REACTORS
330
9E66
102
}
330
9E66
100
AcDbXrecord
280
     1
102
RTVSPost2010Prop28
280
     0
102
RTVSPost2010PropOp28
 70
     1
102
RTVSPost2010Prop29
280
     1
102
RTVSPost2010PropOp29
 70
     1
102
RTVSPost2010Prop30
280
     1
102
RTVSPost2010PropOp30
 70
     1
102
RTVSPost2010Prop31
280
     0
102
RTVSPost2010PropOp31
 70
     1
102
RTVSPost2010Prop32
280
     0
102
RTVSPost2010PropOp32
 70
     1
102
RTVSPost2010Prop33
280
     0
102
RTVSPost2010PropOp33
 70
     1
102
RTVSPost2010Prop34
280
     0
102
RTVSPost2010PropOp34
 70
     1
102
RTVSPost2010Prop35
280
     0
102
RTVSPost2010PropOp35
 70
     1
102
RTVSPost2010Prop36
280
     0
102
RTVSPost2010PropOp36
 70
     1
102
RTVSPost2010Prop37
 90
       50
102
RTVSPost2010PropOp37
 70
     1
102
RTVSPost2010Prop38
140
0.0
102
RTVSPost2010PropOp38
 70
     1
102
RTVSPost2010Prop39
140
1.0
102
RTVSPost2010PropOp39
 70
     1
102
RTVSPost2010Prop40
 90
        0
102
RTVSPost2010PropOp40
 70
     1
102
RTVSPost2010Prop41ColorIndex
 90
       18
102
RTVSPost2010Prop41ColorRGB
 90
        0
102
RTVSPost2010PropOp41
 70
     1
102
RTVSPost2010Prop42
 90
       50
102
RTVSPost2010PropOp42
 70
     1
102
RTVSPost2010Prop43
 90
        3
102
RTVSPost2010PropOp43
 70
     1
102
RTVSPost2010Prop44ColorIndex
 90
        5
102
RTVSPost2010Prop44ColorRGB
 90
      255
102
RTVSPost2010PropOp44
 70
     1
102
RTVSPost2010Prop45
280
     0
102
RTVSPost2010PropOp45
 70
     1
102
RTVSPost2010Prop46
 90
       50
102
RTVSPost2010PropOp46
 70
     1
102
RTVSPost2010Prop47
 90
       50
102
RTVSPost2010PropOp47
 70
     1
102
RTVSPost2010Prop48
 90
       50
102
RTVSPost2010PropOp48
 70
     1
102
RTVSPost2010Prop49
280
     0
102
RTVSPost2010PropOp49
 70
     1
102
RTVSPost2010Prop50
 90
       50
102
RTVSPost2010PropOp50
 70
     1
102
RTVSPost2010Prop51ColorIndex
 90
      256
102
RTVSPost2010Prop51ColorRGB
 90
-16777216
102
RTVSPost2010PropOp51
 70
     0
102
RTVSPost2010Prop52
140
1.0
102
RTVSPost2010PropOp52
 70
     0
102
RTVSPost2010Prop53
 90
        2
102
RTVSPost2010PropOp53
 70
     1
102
RTVSPost2010Prop54
  1
strokes_ogs.tif
102
RTVSPost2010PropOp54
 70
     1
102
RTVSPost2010Prop55
280
     0
102
RTVSPost2010PropOp55
 70
     1
102
RTVSPost2010Prop56
140
1.0
102
RTVSPost2010PropOp56
 70
     1
102
RTVSPost2010Prop57
140
1.0
102
RTVSPost2010PropOp57
 70
     1
102
RTVSPropertyOp0
 70
     1
102
RTVSPropertyOp1
 70
     1
102
RTVSPropertyOp2
 70
     1
102
RTVSPropertyOp3
 70
     1
102
RTVSPropertyOp4
 70
     1
102
RTVSPropertyOp5
 70
     1
102
RTVSPropertyOp6
 70
     1
102
RTVSPropertyOp7
 70
     1
102
RTVSPropertyOp8
 70
     1
102
RTVSPropertyOp9
 70
     1
102
RTVSPropertyOp10
 70
     1
102
RTVSPropertyOp11
 70
     1
102
RTVSPropertyOp12
 70
     1
102
RTVSPropertyOp13
 70
     1
102
RTVSPropertyOp14
 70
     1
102
RTVSPropertyOp15
 70
     1
102
RTVSPropertyOp16
 70
     1
102
RTVSPropertyOp17
 70
     1
102
RTVSPropertyOp18
 70
     1
102
RTVSPropertyOp19
 70
     1
102
RTVSPropertyOp20
 70
     1
102
RTVSPropertyOp21
 70
     1
102
RTVSPropertyOp22
 70
     1
102
RTVSPropertyOp23
 70
     1
102
RTVSPropertyOp24
 70
     1
102
RTVSPropertyOp25
 70
     1
102
RTVSPropertyOp26
 70
     1
102
RTVSPropertyOp27
 70
     1
102
RTVSPropertyOp28
 70
     1
102
RTVSPropertyOp29
 70
     1
102
RTVSPropertyOp30
 70
     1
102
RTVSPropertyOp31
 70
     1
102
RTVSPropertyOp32
 70
     1
102
RTVSPropertyOp33
 70
     1
102
RTVSPropertyOp34
 70
     1
102
RTVSPropertyOp35
 70
     1
102
RTVSPropertyOp36
 70
     1
102
RTVSPropertyOp37
 70
     1
102
RTVSPropertyOp38
 70
     1
102
RTVSPropertyOp39
 70
     1
102
RTVSPropertyOp40
 70
     1
102
RTVSPropertyOp41
 70
     1
102
RTVSPropertyOp42
 70
     1
102
RTVSPropertyOp43
 70
     1
102
RTVSPropertyOp44
 70
     1
102
RTVSPropertyOp45
 70
     1
102
RTVSPropertyOp46
 70
     1
102
RTVSPropertyOp47
 70
     1
102
RTVSPropertyOp48
 70
     1
102
RTVSPropertyOp49
 70
     1
102
RTVSPropertyOp50
 70
     1
102
RTVSPropertyOp51
 70
     0
102
RTVSPropertyOp52
 70
     0
102
RTVSPropertyOp53
 70
     1
102
RTVSPropertyOp54
 70
     1
102
RTVSPropertyOp55
 70
     1
102
RTVSPropertyOp56
 70
     1
102
RTVSPropertyOp57
 70
     1
102
RTVSPropertyOp58
 70
     1
102
RTVSPropertyOp59
 70
     1
102
RTVSPropertyOp60
 70
     1
102
RTVSPropertyOp61
 70
     1
102
RTVSPropertyOp62
 70
     1
  0
XRECORD
  5
9E83
102
{ACAD_REACTORS
330
9E82
102
}
330
9E82
100
AcDbXrecord
280
     1
102
RTVSPost2010Prop28
280
     0
102
RTVSPost2010PropOp28
 70
     1
102
RTVSPost2010Prop29
280
     1
102
RTVSPost2010PropOp29
 70
     1
102
RTVSPost2010Prop30
280
     1
102
RTVSPost2010PropOp30
 70
     1
102
RTVSPost2010Prop31
280
     0
102
RTVSPost2010PropOp31
 70
     1
102
RTVSPost2010Prop32
280
     0
102
RTVSPost2010PropOp32
 70
     1
102
RTVSPost2010Prop33
280
     0
102
RTVSPost2010PropOp33
 70
     1
102
RTVSPost2010Prop34
280
     0
102
RTVSPost2010PropOp34
 70
     1
102
RTVSPost2010Prop35
280
     0
102
RTVSPost2010PropOp35
 70
     1
102
RTVSPost2010Prop36
280
     0
102
RTVSPost2010PropOp36
 70
     1
102
RTVSPost2010Prop37
 90
       50
102
RTVSPost2010PropOp37
 70
     0
102
RTVSPost2010Prop38
140
0.0
102
RTVSPost2010PropOp38
 70
     0
102
RTVSPost2010Prop39
140
1.0
102
RTVSPost2010PropOp39
 70
     0
102
RTVSPost2010Prop40
 90
        0
102
RTVSPost2010PropOp40
 70
     0
102
RTVSPost2010Prop41ColorIndex
 90
       18
102
RTVSPost2010Prop41ColorRGB
 90
        0
102
RTVSPost2010PropOp41
 70
     0
102
RTVSPost2010Prop42
 90
       50
102
RTVSPost2010PropOp42
 70
     0
102
RTVSPost2010Prop43
 90
        3
102
RTVSPost2010PropOp43
 70
     0
102
RTVSPost2010Prop44ColorIndex
 90
        5
102
RTVSPost2010Prop44ColorRGB
 90
      255
102
RTVSPost2010PropOp44
 70
     0
102
RTVSPost2010Prop45
280
     0
102
RTVSPost2010PropOp45
 70
     1
102
RTVSPost2010Prop46
 90
       50
102
RTVSPost2010PropOp46
 70
     0
102
RTVSPost2010Prop47
 90
       50
102
RTVSPost2010PropOp47
 70
     0
102
RTVSPost2010Prop48
 90
       50
102
RTVSPost2010PropOp48
 70
     0
102
RTVSPost2010Prop49
280
     0
102
RTVSPost2010PropOp49
 70
     1
102
RTVSPost2010Prop50
 90
       50
102
RTVSPost2010PropOp50
 70
     0
102
RTVSPost2010Prop51ColorIndex
 90
      256
102
RTVSPost2010Prop51ColorRGB
 90
-16777216
102
RTVSPost2010PropOp51
 70
     0
102
RTVSPost2010Prop52
140
1.0
102
RTVSPost2010PropOp52
 70
     0
102
RTVSPost2010Prop53
 90
        2
102
RTVSPost2010PropOp53
 70
     0
102
RTVSPost2010Prop54
  1
strokes_ogs.tif
102
RTVSPost2010PropOp54
 70
     0
102
RTVSPost2010Prop55
280
     0
102
RTVSPost2010PropOp55
 70
     1
102
RTVSPost2010Prop56
140
1.0
102
RTVSPost2010PropOp56
 70
     0
102
RTVSPost2010Prop57
140
1.0
102
RTVSPost2010PropOp57
 70
     0
102
RTVSPropertyOp0
 70
     0
102
RTVSPropertyOp1
 70
     0
102
RTVSPropertyOp2
 70
     0
102
RTVSPropertyOp3
 70
     0
102
RTVSPropertyOp4
 70
     0
102
RTVSPropertyOp5
 70
     0
102
RTVSPropertyOp6
 70
     0
102
RTVSPropertyOp7
 70
     0
102
RTVSPropertyOp8
 70
     0
102
RTVSPropertyOp9
 70
     0
102
RTVSPropertyOp10
 70
     0
102
RTVSPropertyOp11
 70
     0
102
RTVSPropertyOp12
 70
     0
102
RTVSPropertyOp13
 70
     0
102
RTVSPropertyOp14
 70
     2
102
RTVSPropertyOp15
 70
     0
102
RTVSPropertyOp16
 70
     0
102
RTVSPropertyOp17
 70
     0
102
RTVSPropertyOp18
 70
     0
102
RTVSPropertyOp19
 70
     0
102
RTVSPropertyOp20
 70
     0
102
RTVSPropertyOp21
 70
     0
102
RTVSPropertyOp22
 70
     0
102
RTVSPropertyOp23
 70
     0
102
RTVSPropertyOp24
 70
     0
102
RTVSPropertyOp25
 70
     0
102
RTVSPropertyOp26
 70
     0
102
RTVSPropertyOp27
 70
     0
102
RTVSPropertyOp28
 70
     1
102
RTVSPropertyOp29
 70
     1
102
RTVSPropertyOp30
 70
     1
102
RTVSPropertyOp31
 70
     1
102
RTVSPropertyOp32
 70
     1
102
RTVSPropertyOp33
 70
     1
102
RTVSPropertyOp34
 70
     1
102
RTVSPropertyOp35
 70
     1
102
RTVSPropertyOp36
 70
     1
102
RTVSPropertyOp37
 70
     0
102
RTVSPropertyOp38
 70
     0
102
RTVSPropertyOp39
 70
     0
102
RTVSPropertyOp40
 70
     0
102
RTVSPropertyOp41
 70
     0
102
RTVSPropertyOp42
 70
     0
102
RTVSPropertyOp43
 70
     0
102
RTVSPropertyOp44
 70
     0
102
RTVSPropertyOp45
 70
     1
102
RTVSPropertyOp46
 70
     0
102
RTVSPropertyOp47
 70
     0
102
RTVSPropertyOp48
 70
     0
102
RTVSPropertyOp49
 70
     1
102
RTVSPropertyOp50
 70
     0
102
RTVSPropertyOp51
 70
     0
102
RTVSPropertyOp52
 70
     0
102
RTVSPropertyOp53
 70
     0
102
RTVSPropertyOp54
 70
     0
102
RTVSPropertyOp55
 70
     1
102
RTVSPropertyOp56
 70
     0
102
RTVSPropertyOp57
 70
     0
102
RTVSPropertyOp58
 70
     0
102
RTVSPropertyOp59
 70
     0
102
RTVSPropertyOp60
 70
     0
102
RTVSPropertyOp61
 70
     0
102
RTVSPropertyOp62
 70
     0
  0
XRECORD
  5
9E73
102
{ACAD_REACTORS
330
9E72
102
}
330
9E72
100
AcDbXrecord
280
     1
102
RTVSPost2010Prop28
280
     0
102
RTVSPost2010PropOp28
 70
     1
102
RTVSPost2010Prop29
280
     1
102
RTVSPost2010PropOp29
 70
     1
102
RTVSPost2010Prop30
280
     1
102
RTVSPost2010PropOp30
 70
     1
102
RTVSPost2010Prop31
280
     0
102
RTVSPost2010PropOp31
 70
     1
102
RTVSPost2010Prop32
280
     0
102
RTVSPost2010PropOp32
 70
     1
102
RTVSPost2010Prop33
280
     0
102
RTVSPost2010PropOp33
 70
     1
102
RTVSPost2010Prop34
280
     0
102
RTVSPost2010PropOp34
 70
     1
102
RTVSPost2010Prop35
280
     0
102
RTVSPost2010PropOp35
 70
     1
102
RTVSPost2010Prop36
280
     0
102
RTVSPost2010PropOp36
 70
     1
102
RTVSPost2010Prop37
 90
       50
102
RTVSPost2010PropOp37
 70
     1
102
RTVSPost2010Prop38
140
0.0
102
RTVSPost2010PropOp38
 70
     1
102
RTVSPost2010Prop39
140
1.0
102
RTVSPost2010PropOp39
 70
     1
102
RTVSPost2010Prop40
 90
        0
102
RTVSPost2010PropOp40
 70
     1
102
RTVSPost2010Prop41ColorIndex
 90
       18
102
RTVSPost2010Prop41ColorRGB
 90
        0
102
RTVSPost2010PropOp41
 70
     1
102
RTVSPost2010Prop42
 90
       50
102
RTVSPost2010PropOp42
 70
     1
102
RTVSPost2010Prop43
 90
        3
102
RTVSPost2010PropOp43
 70
     1
102
RTVSPost2010Prop44ColorIndex
 90
        5
102
RTVSPost2010Prop44ColorRGB
 90
      255
102
RTVSPost2010PropOp44
 70
     1
102
RTVSPost2010Prop45
280
     0
102
RTVSPost2010PropOp45
 70
     1
102
RTVSPost2010Prop46
 90
       50
102
RTVSPost2010PropOp46
 70
     1
102
RTVSPost2010Prop47
 90
       50
102
RTVSPost2010PropOp47
 70
     1
102
RTVSPost2010Prop48
 90
       50
102
RTVSPost2010PropOp48
 70
     1
102
RTVSPost2010Prop49
280
     0
102
RTVSPost2010PropOp49
 70
     1
102
RTVSPost2010Prop50
 90
       50
102
RTVSPost2010PropOp50
 70
     1
102
RTVSPost2010Prop51ColorIndex
 90
      256
102
RTVSPost2010Prop51ColorRGB
 90
-16777216
102
RTVSPost2010PropOp51
 70
     0
102
RTVSPost2010Prop52
140
1.0
102
RTVSPost2010PropOp52
 70
     0
102
RTVSPost2010Prop53
 90
        2
102
RTVSPost2010PropOp53
 70
     1
102
RTVSPost2010Prop54
  1
strokes_ogs.tif
102
RTVSPost2010PropOp54
 70
     1
102
RTVSPost2010Prop55
280
     0
102
RTVSPost2010PropOp55
 70
     1
102
RTVSPost2010Prop56
140
1.0
102
RTVSPost2010PropOp56
 70
     1
102
RTVSPost2010Prop57
140
1.0
102
RTVSPost2010PropOp57
 70
     1
102
RTVSPropertyOp0
 70
     1
102
RTVSPropertyOp1
 70
     1
102
RTVSPropertyOp2
 70
     1
102
RTVSPropertyOp3
 70
     1
102
RTVSPropertyOp4
 70
     1
102
RTVSPropertyOp5
 70
     1
102
RTVSPropertyOp6
 70
     1
102
RTVSPropertyOp7
 70
     1
102
RTVSPropertyOp8
 70
     1
102
RTVSPropertyOp9
 70
     1
102
RTVSPropertyOp10
 70
     1
102
RTVSPropertyOp11
 70
     1
102
RTVSPropertyOp12
 70
     1
102
RTVSPropertyOp13
 70
     1
102
RTVSPropertyOp14
 70
     1
102
RTVSPropertyOp15
 70
     1
102
RTVSPropertyOp16
 70
     1
102
RTVSPropertyOp17
 70
     1
102
RTVSPropertyOp18
 70
     1
102
RTVSPropertyOp19
 70
     1
102
RTVSPropertyOp20
 70
     1
102
RTVSPropertyOp21
 70
     1
102
RTVSPropertyOp22
 70
     1
102
RTVSPropertyOp23
 70
     1
102
RTVSPropertyOp24
 70
     1
102
RTVSPropertyOp25
 70
     1
102
RTVSPropertyOp26
 70
     1
102
RTVSPropertyOp27
 70
     1
102
RTVSPropertyOp28
 70
     1
102
RTVSPropertyOp29
 70
     1
102
RTVSPropertyOp30
 70
     1
102
RTVSPropertyOp31
 70
     1
102
RTVSPropertyOp32
 70
     1
102
RTVSPropertyOp33
 70
     1
102
RTVSPropertyOp34
 70
     1
102
RTVSPropertyOp35
 70
     1
102
RTVSPropertyOp36
 70
     1
102
RTVSPropertyOp37
 70
     1
102
RTVSPropertyOp38
 70
     1
102
RTVSPropertyOp39
 70
     1
102
RTVSPropertyOp40
 70
     1
102
RTVSPropertyOp41
 70
     1
102
RTVSPropertyOp42
 70
     1
102
RTVSPropertyOp43
 70
     1
102
RTVSPropertyOp44
 70
     1
102
RTVSPropertyOp45
 70
     1
102
RTVSPropertyOp46
 70
     1
102
RTVSPropertyOp47
 70
     1
102
RTVSPropertyOp48
 70
     1
102
RTVSPropertyOp49
 70
     1
102
RTVSPropertyOp50
 70
     1
102
RTVSPropertyOp51
 70
     0
102
RTVSPropertyOp52
 70
     0
102
RTVSPropertyOp53
 70
     1
102
RTVSPropertyOp54
 70
     1
102
RTVSPropertyOp55
 70
     1
102
RTVSPropertyOp56
 70
     1
102
RTVSPropertyOp57
 70
     1
102
RTVSPropertyOp58
 70
     1
102
RTVSPropertyOp59
 70
     1
102
RTVSPropertyOp60
 70
     1
102
RTVSPropertyOp61
 70
     1
102
RTVSPropertyOp62
 70
     1
  0
XRECORD
  5
9E85
102
{ACAD_REACTORS
330
9E84
102
}
330
9E84
100
AcDbXrecord
280
     1
102
RTVSPost2010Prop28
280
     0
102
RTVSPost2010PropOp28
 70
     1
102
RTVSPost2010Prop29
280
     1
102
RTVSPost2010PropOp29
 70
     1
102
RTVSPost2010Prop30
280
     1
102
RTVSPost2010PropOp30
 70
     1
102
RTVSPost2010Prop31
280
     0
102
RTVSPost2010PropOp31
 70
     1
102
RTVSPost2010Prop32
280
     0
102
RTVSPost2010PropOp32
 70
     1
102
RTVSPost2010Prop33
280
     0
102
RTVSPost2010PropOp33
 70
     1
102
RTVSPost2010Prop34
280
     0
102
RTVSPost2010PropOp34
 70
     1
102
RTVSPost2010Prop35
280
     0
102
RTVSPost2010PropOp35
 70
     1
102
RTVSPost2010Prop36
280
     0
102
RTVSPost2010PropOp36
 70
     1
102
RTVSPost2010Prop37
 90
       50
102
RTVSPost2010PropOp37
 70
     0
102
RTVSPost2010Prop38
140
0.0
102
RTVSPost2010PropOp38
 70
     0
102
RTVSPost2010Prop39
140
1.0
102
RTVSPost2010PropOp39
 70
     0
102
RTVSPost2010Prop40
 90
        0
102
RTVSPost2010PropOp40
 70
     0
102
RTVSPost2010Prop41ColorIndex
 90
       18
102
RTVSPost2010Prop41ColorRGB
 90
        0
102
RTVSPost2010PropOp41
 70
     0
102
RTVSPost2010Prop42
 90
       50
102
RTVSPost2010PropOp42
 70
     0
102
RTVSPost2010Prop43
 90
        3
102
RTVSPost2010PropOp43
 70
     0
102
RTVSPost2010Prop44ColorIndex
 90
        5
102
RTVSPost2010Prop44ColorRGB
 90
      255
102
RTVSPost2010PropOp44
 70
     0
102
RTVSPost2010Prop45
280
     0
102
RTVSPost2010PropOp45
 70
     1
102
RTVSPost2010Prop46
 90
       50
102
RTVSPost2010PropOp46
 70
     0
102
RTVSPost2010Prop47
 90
       50
102
RTVSPost2010PropOp47
 70
     0
102
RTVSPost2010Prop48
 90
       50
102
RTVSPost2010PropOp48
 70
     0
102
RTVSPost2010Prop49
280
     0
102
RTVSPost2010PropOp49
 70
     1
102
RTVSPost2010Prop50
 90
       50
102
RTVSPost2010PropOp50
 70
     0
102
RTVSPost2010Prop51ColorIndex
 90
      256
102
RTVSPost2010Prop51ColorRGB
 90
-16777216
102
RTVSPost2010PropOp51
 70
     0
102
RTVSPost2010Prop52
140
1.0
102
RTVSPost2010PropOp52
 70
     0
102
RTVSPost2010Prop53
 90
        2
102
RTVSPost2010PropOp53
 70
     0
102
RTVSPost2010Prop54
  1
strokes_ogs.tif
102
RTVSPost2010PropOp54
 70
     0
102
RTVSPost2010Prop55
280
     0
102
RTVSPost2010PropOp55
 70
     1
102
RTVSPost2010Prop56
140
1.0
102
RTVSPost2010PropOp56
 70
     0
102
RTVSPost2010Prop57
140
1.0
102
RTVSPost2010PropOp57
 70
     0
102
RTVSPropertyOp0
 70
     0
102
RTVSPropertyOp1
 70
     0
102
RTVSPropertyOp2
 70
     0
102
RTVSPropertyOp3
 70
     0
102
RTVSPropertyOp4
 70
     0
102
RTVSPropertyOp5
 70
     0
102
RTVSPropertyOp6
 70
     0
102
RTVSPropertyOp7
 70
     0
102
RTVSPropertyOp8
 70
     0
102
RTVSPropertyOp9
 70
     0
102
RTVSPropertyOp10
 70
     0
102
RTVSPropertyOp11
 70
     0
102
RTVSPropertyOp12
 70
     0
102
RTVSPropertyOp13
 70
     0
102
RTVSPropertyOp14
 70
     2
102
RTVSPropertyOp15
 70
     0
102
RTVSPropertyOp16
 70
     0
102
RTVSPropertyOp17
 70
     0
102
RTVSPropertyOp18
 70
     0
102
RTVSPropertyOp19
 70
     0
102
RTVSPropertyOp20
 70
     0
102
RTVSPropertyOp21
 70
     0
102
RTVSPropertyOp22
 70
     0
102
RTVSPropertyOp23
 70
     0
102
RTVSPropertyOp24
 70
     0
102
RTVSPropertyOp25
 70
     0
102
RTVSPropertyOp26
 70
     0
102
RTVSPropertyOp27
 70
     0
102
RTVSPropertyOp28
 70
     1
102
RTVSPropertyOp29
 70
     1
102
RTVSPropertyOp30
 70
     1
102
RTVSPropertyOp31
 70
     1
102
RTVSPropertyOp32
 70
     1
102
RTVSPropertyOp33
 70
     1
102
RTVSPropertyOp34
 70
     1
102
RTVSPropertyOp35
 70
     1
102
RTVSPropertyOp36
 70
     1
102
RTVSPropertyOp37
 70
     0
102
RTVSPropertyOp38
 70
     0
102
RTVSPropertyOp39
 70
     0
102
RTVSPropertyOp40
 70
     0
102
RTVSPropertyOp41
 70
     0
102
RTVSPropertyOp42
 70
     0
102
RTVSPropertyOp43
 70
     0
102
RTVSPropertyOp44
 70
     0
102
RTVSPropertyOp45
 70
     1
102
RTVSPropertyOp46
 70
     0
102
RTVSPropertyOp47
 70
     0
102
RTVSPropertyOp48
 70
     0
102
RTVSPropertyOp49
 70
     1
102
RTVSPropertyOp50
 70
     0
102
RTVSPropertyOp51
 70
     0
102
RTVSPropertyOp52
 70
     0
102
RTVSPropertyOp53
 70
     0
102
RTVSPropertyOp54
 70
     0
102
RTVSPropertyOp55
 70
     1
102
RTVSPropertyOp56
 70
     0
102
RTVSPropertyOp57
 70
     0
102
RTVSPropertyOp58
 70
     0
102
RTVSPropertyOp59
 70
     0
102
RTVSPropertyOp60
 70
     0
102
RTVSPropertyOp61
 70
     0
102
RTVSPropertyOp62
 70
     0
  0
XRECORD
  5
9E6B
102
{ACAD_REACTORS
330
9E6A
102
}
330
9E6A
100
AcDbXrecord
280
     1
102
RTVSPost2010Prop28
280
     0
102
RTVSPost2010PropOp28
 70
     1
102
RTVSPost2010Prop29
280
     1
102
RTVSPost2010PropOp29
 70
     1
102
RTVSPost2010Prop30
280
     1
102
RTVSPost2010PropOp30
 70
     1
102
RTVSPost2010Prop31
280
     0
102
RTVSPost2010PropOp31
 70
     1
102
RTVSPost2010Prop32
280
     0
102
RTVSPost2010PropOp32
 70
     1
102
RTVSPost2010Prop33
280
     0
102
RTVSPost2010PropOp33
 70
     1
102
RTVSPost2010Prop34
280
     0
102
RTVSPost2010PropOp34
 70
     1
102
RTVSPost2010Prop35
280
     0
102
RTVSPost2010PropOp35
 70
     1
102
RTVSPost2010Prop36
280
     0
102
RTVSPost2010PropOp36
 70
     1
102
RTVSPost2010Prop37
 90
       50
102
RTVSPost2010PropOp37
 70
     1
102
RTVSPost2010Prop38
140
0.0
102
RTVSPost2010PropOp38
 70
     1
102
RTVSPost2010Prop39
140
1.0
102
RTVSPost2010PropOp39
 70
     1
102
RTVSPost2010Prop40
 90
        0
102
RTVSPost2010PropOp40
 70
     1
102
RTVSPost2010Prop41ColorIndex
 90
       18
102
RTVSPost2010Prop41ColorRGB
 90
        0
102
RTVSPost2010PropOp41
 70
     1
102
RTVSPost2010Prop42
 90
       50
102
RTVSPost2010PropOp42
 70
     1
102
RTVSPost2010Prop43
 90
        3
102
RTVSPost2010PropOp43
 70
     1
102
RTVSPost2010Prop44ColorIndex
 90
        5
102
RTVSPost2010Prop44ColorRGB
 90
      255
102
RTVSPost2010PropOp44
 70
     1
102
RTVSPost2010Prop45
280
     0
102
RTVSPost2010PropOp45
 70
     1
102
RTVSPost2010Prop46
 90
       50
102
RTVSPost2010PropOp46
 70
     1
102
RTVSPost2010Prop47
 90
       50
102
RTVSPost2010PropOp47
 70
     1
102
RTVSPost2010Prop48
 90
       50
102
RTVSPost2010PropOp48
 70
     1
102
RTVSPost2010Prop49
280
     0
102
RTVSPost2010PropOp49
 70
     1
102
RTVSPost2010Prop50
 90
       50
102
RTVSPost2010PropOp50
 70
     1
102
RTVSPost2010Prop51ColorIndex
 90
      256
102
RTVSPost2010Prop51ColorRGB
 90
-16777216
102
RTVSPost2010PropOp51
 70
     0
102
RTVSPost2010Prop52
140
1.0
102
RTVSPost2010PropOp52
 70
     0
102
RTVSPost2010Prop53
 90
        2
102
RTVSPost2010PropOp53
 70
     1
102
RTVSPost2010Prop54
  1
strokes_ogs.tif
102
RTVSPost2010PropOp54
 70
     1
102
RTVSPost2010Prop55
280
     0
102
RTVSPost2010PropOp55
 70
     1
102
RTVSPost2010Prop56
140
1.0
102
RTVSPost2010PropOp56
 70
     1
102
RTVSPost2010Prop57
140
1.0
102
RTVSPost2010PropOp57
 70
     1
102
RTVSPropertyOp0
 70
     1
102
RTVSPropertyOp1
 70
     1
102
RTVSPropertyOp2
 70
     1
102
RTVSPropertyOp3
 70
     1
102
RTVSPropertyOp4
 70
     1
102
RTVSPropertyOp5
 70
     1
102
RTVSPropertyOp6
 70
     1
102
RTVSPropertyOp7
 70
     1
102
RTVSPropertyOp8
 70
     1
102
RTVSPropertyOp9
 70
     1
102
RTVSPropertyOp10
 70
     1
102
RTVSPropertyOp11
 70
     1
102
RTVSPropertyOp12
 70
     1
102
RTVSPropertyOp13
 70
     1
102
RTVSPropertyOp14
 70
     1
102
RTVSPropertyOp15
 70
     1
102
RTVSPropertyOp16
 70
     1
102
RTVSPropertyOp17
 70
     1
102
RTVSPropertyOp18
 70
     1
102
RTVSPropertyOp19
 70
     1
102
RTVSPropertyOp20
 70
     1
102
RTVSPropertyOp21
 70
     1
102
RTVSPropertyOp22
 70
     1
102
RTVSPropertyOp23
 70
     1
102
RTVSPropertyOp24
 70
     1
102
RTVSPropertyOp25
 70
     1
102
RTVSPropertyOp26
 70
     1
102
RTVSPropertyOp27
 70
     1
102
RTVSPropertyOp28
 70
     1
102
RTVSPropertyOp29
 70
     1
102
RTVSPropertyOp30
 70
     1
102
RTVSPropertyOp31
 70
     1
102
RTVSPropertyOp32
 70
     1
102
RTVSPropertyOp33
 70
     1
102
RTVSPropertyOp34
 70
     1
102
RTVSPropertyOp35
 70
     1
102
RTVSPropertyOp36
 70
     1
102
RTVSPropertyOp37
 70
     1
102
RTVSPropertyOp38
 70
     1
102
RTVSPropertyOp39
 70
     1
102
RTVSPropertyOp40
 70
     1
102
RTVSPropertyOp41
 70
     1
102
RTVSPropertyOp42
 70
     1
102
RTVSPropertyOp43
 70
     1
102
RTVSPropertyOp44
 70
     1
102
RTVSPropertyOp45
 70
     1
102
RTVSPropertyOp46
 70
     1
102
RTVSPropertyOp47
 70
     1
102
RTVSPropertyOp48
 70
     1
102
RTVSPropertyOp49
 70
     1
102
RTVSPropertyOp50
 70
     1
102
RTVSPropertyOp51
 70
     0
102
RTVSPropertyOp52
 70
     0
102
RTVSPropertyOp53
 70
     1
102
RTVSPropertyOp54
 70
     1
102
RTVSPropertyOp55
 70
     1
102
RTVSPropertyOp56
 70
     1
102
RTVSPropertyOp57
 70
     1
102
RTVSPropertyOp58
 70
     1
102
RTVSPropertyOp59
 70
     1
102
RTVSPropertyOp60
 70
     1
102
RTVSPropertyOp61
 70
     1
102
RTVSPropertyOp62
 70
     1
  0
XRECORD
  5
9E81
102
{ACAD_REACTORS
330
9E80
102
}
330
9E80
100
AcDbXrecord
280
     1
102
RTVSPost2010Prop28
280
     0
102
RTVSPost2010PropOp28
 70
     1
102
RTVSPost2010Prop29
280
     1
102
RTVSPost2010PropOp29
 70
     1
102
RTVSPost2010Prop30
280
     1
102
RTVSPost2010PropOp30
 70
     1
102
RTVSPost2010Prop31
280
     0
102
RTVSPost2010PropOp31
 70
     1
102
RTVSPost2010Prop32
280
     0
102
RTVSPost2010PropOp32
 70
     1
102
RTVSPost2010Prop33
280
     0
102
RTVSPost2010PropOp33
 70
     1
102
RTVSPost2010Prop34
280
     0
102
RTVSPost2010PropOp34
 70
     1
102
RTVSPost2010Prop35
280
     0
102
RTVSPost2010PropOp35
 70
     1
102
RTVSPost2010Prop36
280
     0
102
RTVSPost2010PropOp36
 70
     1
102
RTVSPost2010Prop37
 90
       50
102
RTVSPost2010PropOp37
 70
     1
102
RTVSPost2010Prop38
140
0.0
102
RTVSPost2010PropOp38
 70
     1
102
RTVSPost2010Prop39
140
1.0
102
RTVSPost2010PropOp39
 70
     1
102
RTVSPost2010Prop40
 90
        0
102
RTVSPost2010PropOp40
 70
     1
102
RTVSPost2010Prop41ColorIndex
 90
       18
102
RTVSPost2010Prop41ColorRGB
 90
        0
102
RTVSPost2010PropOp41
 70
     1
102
RTVSPost2010Prop42
 90
       50
102
RTVSPost2010PropOp42
 70
     1
102
RTVSPost2010Prop43
 90
        3
102
RTVSPost2010PropOp43
 70
     1
102
RTVSPost2010Prop44ColorIndex
 90
        5
102
RTVSPost2010Prop44ColorRGB
 90
      255
102
RTVSPost2010PropOp44
 70
     1
102
RTVSPost2010Prop45
280
     0
102
RTVSPost2010PropOp45
 70
     1
102
RTVSPost2010Prop46
 90
       50
102
RTVSPost2010PropOp46
 70
     1
102
RTVSPost2010Prop47
 90
       50
102
RTVSPost2010PropOp47
 70
     1
102
RTVSPost2010Prop48
 90
       50
102
RTVSPost2010PropOp48
 70
     1
102
RTVSPost2010Prop49
280
     0
102
RTVSPost2010PropOp49
 70
     1
102
RTVSPost2010Prop50
 90
       50
102
RTVSPost2010PropOp50
 70
     1
102
RTVSPost2010Prop51ColorIndex
 90
      256
102
RTVSPost2010Prop51ColorRGB
 90
-16777216
102
RTVSPost2010PropOp51
 70
     0
102
RTVSPost2010Prop52
140
1.0
102
RTVSPost2010PropOp52
 70
     0
102
RTVSPost2010Prop53
 90
        2
102
RTVSPost2010PropOp53
 70
     1
102
RTVSPost2010Prop54
  1
strokes_ogs.tif
102
RTVSPost2010PropOp54
 70
     1
102
RTVSPost2010Prop55
280
     0
102
RTVSPost2010PropOp55
 70
     1
102
RTVSPost2010Prop56
140
1.0
102
RTVSPost2010PropOp56
 70
     1
102
RTVSPost2010Prop57
140
1.0
102
RTVSPost2010PropOp57
 70
     1
102
RTVSPropertyOp0
 70
     1
102
RTVSPropertyOp1
 70
     1
102
RTVSPropertyOp2
 70
     1
102
RTVSPropertyOp3
 70
     1
102
RTVSPropertyOp4
 70
     1
102
RTVSPropertyOp5
 70
     1
102
RTVSPropertyOp6
 70
     1
102
RTVSPropertyOp7
 70
     1
102
RTVSPropertyOp8
 70
     1
102
RTVSPropertyOp9
 70
     1
102
RTVSPropertyOp10
 70
     1
102
RTVSPropertyOp11
 70
     1
102
RTVSPropertyOp12
 70
     1
102
RTVSPropertyOp13
 70
     1
102
RTVSPropertyOp14
 70
     1
102
RTVSPropertyOp15
 70
     1
102
RTVSPropertyOp16
 70
     1
102
RTVSPropertyOp17
 70
     1
102
RTVSPropertyOp18
 70
     1
102
RTVSPropertyOp19
 70
     1
102
RTVSPropertyOp20
 70
     1
102
RTVSPropertyOp21
 70
     1
102
RTVSPropertyOp22
 70
     1
102
RTVSPropertyOp23
 70
     1
102
RTVSPropertyOp24
 70
     1
102
RTVSPropertyOp25
 70
     1
102
RTVSPropertyOp26
 70
     1
102
RTVSPropertyOp27
 70
     1
102
RTVSPropertyOp28
 70
     1
102
RTVSPropertyOp29
 70
     1
102
RTVSPropertyOp30
 70
     1
102
RTVSPropertyOp31
 70
     1
102
RTVSPropertyOp32
 70
     1
102
RTVSPropertyOp33
 70
     1
102
RTVSPropertyOp34
 70
     1
102
RTVSPropertyOp35
 70
     1
102
RTVSPropertyOp36
 70
     1
102
RTVSPropertyOp37
 70
     1
102
RTVSPropertyOp38
 70
     1
102
RTVSPropertyOp39
 70
     1
102
RTVSPropertyOp40
 70
     1
102
RTVSPropertyOp41
 70
     1
102
RTVSPropertyOp42
 70
     1
102
RTVSPropertyOp43
 70
     1
102
RTVSPropertyOp44
 70
     1
102
RTVSPropertyOp45
 70
     1
102
RTVSPropertyOp46
 70
     1
102
RTVSPropertyOp47
 70
     1
102
RTVSPropertyOp48
 70
     1
102
RTVSPropertyOp49
 70
     1
102
RTVSPropertyOp50
 70
     1
102
RTVSPropertyOp51
 70
     0
102
RTVSPropertyOp52
 70
     0
102
RTVSPropertyOp53
 70
     1
102
RTVSPropertyOp54
 70
     1
102
RTVSPropertyOp55
 70
     1
102
RTVSPropertyOp56
 70
     1
102
RTVSPropertyOp57
 70
     1
102
RTVSPropertyOp58
 70
     1
102
RTVSPropertyOp59
 70
     1
102
RTVSPropertyOp60
 70
     1
102
RTVSPropertyOp61
 70
     1
102
RTVSPropertyOp62
 70
     1
  0
XRECORD
  5
9E7F
102
{ACAD_REACTORS
330
9E7E
102
}
330
9E7E
100
AcDbXrecord
280
     1
102
RTVSPost2010Prop28
280
     0
102
RTVSPost2010PropOp28
 70
     1
102
RTVSPost2010Prop29
280
     1
102
RTVSPost2010PropOp29
 70
     1
102
RTVSPost2010Prop30
280
     1
102
RTVSPost2010PropOp30
 70
     1
102
RTVSPost2010Prop31
280
     0
102
RTVSPost2010PropOp31
 70
     1
102
RTVSPost2010Prop32
280
     0
102
RTVSPost2010PropOp32
 70
     1
102
RTVSPost2010Prop33
280
     0
102
RTVSPost2010PropOp33
 70
     1
102
RTVSPost2010Prop34
280
     0
102
RTVSPost2010PropOp34
 70
     1
102
RTVSPost2010Prop35
280
     0
102
RTVSPost2010PropOp35
 70
     1
102
RTVSPost2010Prop36
280
     0
102
RTVSPost2010PropOp36
 70
     1
102
RTVSPost2010Prop37
 90
       50
102
RTVSPost2010PropOp37
 70
     1
102
RTVSPost2010Prop38
140
0.0
102
RTVSPost2010PropOp38
 70
     1
102
RTVSPost2010Prop39
140
1.0
102
RTVSPost2010PropOp39
 70
     1
102
RTVSPost2010Prop40
 90
        0
102
RTVSPost2010PropOp40
 70
     1
102
RTVSPost2010Prop41ColorIndex
 90
       18
102
RTVSPost2010Prop41ColorRGB
 90
        0
102
RTVSPost2010PropOp41
 70
     1
102
RTVSPost2010Prop42
 90
       50
102
RTVSPost2010PropOp42
 70
     1
102
RTVSPost2010Prop43
 90
        3
102
RTVSPost2010PropOp43
 70
     1
102
RTVSPost2010Prop44ColorIndex
 90
        5
102
RTVSPost2010Prop44ColorRGB
 90
      255
102
RTVSPost2010PropOp44
 70
     1
102
RTVSPost2010Prop45
280
     0
102
RTVSPost2010PropOp45
 70
     1
102
RTVSPost2010Prop46
 90
       50
102
RTVSPost2010PropOp46
 70
     1
102
RTVSPost2010Prop47
 90
       50
102
RTVSPost2010PropOp47
 70
     1
102
RTVSPost2010Prop48
 90
       50
102
RTVSPost2010PropOp48
 70
     1
102
RTVSPost2010Prop49
280
     0
102
RTVSPost2010PropOp49
 70
     1
102
RTVSPost2010Prop50
 90
       50
102
RTVSPost2010PropOp50
 70
     1
102
RTVSPost2010Prop51ColorIndex
 90
      256
102
RTVSPost2010Prop51ColorRGB
 90
-16777216
102
RTVSPost2010PropOp51
 70
     0
102
RTVSPost2010Prop52
140
1.0
102
RTVSPost2010PropOp52
 70
     0
102
RTVSPost2010Prop53
 90
        2
102
RTVSPost2010PropOp53
 70
     1
102
RTVSPost2010Prop54
  1
strokes_ogs.tif
102
RTVSPost2010PropOp54
 70
     1
102
RTVSPost2010Prop55
280
     0
102
RTVSPost2010PropOp55
 70
     1
102
RTVSPost2010Prop56
140
1.0
102
RTVSPost2010PropOp56
 70
     1
102
RTVSPost2010Prop57
140
1.0
102
RTVSPost2010PropOp57
 70
     1
102
RTVSPropertyOp0
 70
     1
102
RTVSPropertyOp1
 70
     1
102
RTVSPropertyOp2
 70
     1
102
RTVSPropertyOp3
 70
     1
102
RTVSPropertyOp4
 70
     1
102
RTVSPropertyOp5
 70
     1
102
RTVSPropertyOp6
 70
     1
102
RTVSPropertyOp7
 70
     1
102
RTVSPropertyOp8
 70
     1
102
RTVSPropertyOp9
 70
     1
102
RTVSPropertyOp10
 70
     1
102
RTVSPropertyOp11
 70
     1
102
RTVSPropertyOp12
 70
     1
102
RTVSPropertyOp13
 70
     1
102
RTVSPropertyOp14
 70
     1
102
RTVSPropertyOp15
 70
     1
102
RTVSPropertyOp16
 70
     1
102
RTVSPropertyOp17
 70
     1
102
RTVSPropertyOp18
 70
     1
102
RTVSPropertyOp19
 70
     1
102
RTVSPropertyOp20
 70
     1
102
RTVSPropertyOp21
 70
     1
102
RTVSPropertyOp22
 70
     1
102
RTVSPropertyOp23
 70
     1
102
RTVSPropertyOp24
 70
     1
102
RTVSPropertyOp25
 70
     1
102
RTVSPropertyOp26
 70
     1
102
RTVSPropertyOp27
 70
     1
102
RTVSPropertyOp28
 70
     1
102
RTVSPropertyOp29
 70
     1
102
RTVSPropertyOp30
 70
     1
102
RTVSPropertyOp31
 70
     1
102
RTVSPropertyOp32
 70
     1
102
RTVSPropertyOp33
 70
     1
102
RTVSPropertyOp34
 70
     1
102
RTVSPropertyOp35
 70
     1
102
RTVSPropertyOp36
 70
     1
102
RTVSPropertyOp37
 70
     1
102
RTVSPropertyOp38
 70
     1
102
RTVSPropertyOp39
 70
     1
102
RTVSPropertyOp40
 70
     1
102
RTVSPropertyOp41
 70
     1
102
RTVSPropertyOp42
 70
     1
102
RTVSPropertyOp43
 70
     1
102
RTVSPropertyOp44
 70
     1
102
RTVSPropertyOp45
 70
     1
102
RTVSPropertyOp46
 70
     1
102
RTVSPropertyOp47
 70
     1
102
RTVSPropertyOp48
 70
     1
102
RTVSPropertyOp49
 70
     1
102
RTVSPropertyOp50
 70
     1
102
RTVSPropertyOp51
 70
     0
102
RTVSPropertyOp52
 70
     0
102
RTVSPropertyOp53
 70
     1
102
RTVSPropertyOp54
 70
     1
102
RTVSPropertyOp55
 70
     1
102
RTVSPropertyOp56
 70
     1
102
RTVSPropertyOp57
 70
     1
102
RTVSPropertyOp58
 70
     1
102
RTVSPropertyOp59
 70
     1
102
RTVSPropertyOp60
 70
     1
102
RTVSPropertyOp61
 70
     1
102
RTVSPropertyOp62
 70
     1
  0
XRECORD
  5
9E79
102
{ACAD_REACTORS
330
9E78
102
}
330
9E78
100
AcDbXrecord
280
     1
102
RTVSPost2010Prop28
280
     0
102
RTVSPost2010PropOp28
 70
     1
102
RTVSPost2010Prop29
280
     1
102
RTVSPost2010PropOp29
 70
     1
102
RTVSPost2010Prop30
280
     1
102
RTVSPost2010PropOp30
 70
     1
102
RTVSPost2010Prop31
280
     0
102
RTVSPost2010PropOp31
 70
     1
102
RTVSPost2010Prop32
280
     0
102
RTVSPost2010PropOp32
 70
     1
102
RTVSPost2010Prop33
280
     0
102
RTVSPost2010PropOp33
 70
     1
102
RTVSPost2010Prop34
280
     0
102
RTVSPost2010PropOp34
 70
     1
102
RTVSPost2010Prop35
280
     0
102
RTVSPost2010PropOp35
 70
     1
102
RTVSPost2010Prop36
280
     0
102
RTVSPost2010PropOp36
 70
     1
102
RTVSPost2010Prop37
 90
       50
102
RTVSPost2010PropOp37
 70
     1
102
RTVSPost2010Prop38
140
0.0
102
RTVSPost2010PropOp38
 70
     1
102
RTVSPost2010Prop39
140
1.0
102
RTVSPost2010PropOp39
 70
     1
102
RTVSPost2010Prop40
 90
        0
102
RTVSPost2010PropOp40
 70
     1
102
RTVSPost2010Prop41ColorIndex
 90
       18
102
RTVSPost2010Prop41ColorRGB
 90
        0
102
RTVSPost2010PropOp41
 70
     1
102
RTVSPost2010Prop42
 90
       50
102
RTVSPost2010PropOp42
 70
     1
102
RTVSPost2010Prop43
 90
        3
102
RTVSPost2010PropOp43
 70
     1
102
RTVSPost2010Prop44ColorIndex
 90
        5
102
RTVSPost2010Prop44ColorRGB
 90
      255
102
RTVSPost2010PropOp44
 70
     1
102
RTVSPost2010Prop45
280
     0
102
RTVSPost2010PropOp45
 70
     1
102
RTVSPost2010Prop46
 90
       50
102
RTVSPost2010PropOp46
 70
     1
102
RTVSPost2010Prop47
 90
       50
102
RTVSPost2010PropOp47
 70
     1
102
RTVSPost2010Prop48
 90
       50
102
RTVSPost2010PropOp48
 70
     1
102
RTVSPost2010Prop49
280
     0
102
RTVSPost2010PropOp49
 70
     1
102
RTVSPost2010Prop50
 90
       50
102
RTVSPost2010PropOp50
 70
     1
102
RTVSPost2010Prop51ColorIndex
 90
      256
102
RTVSPost2010Prop51ColorRGB
 90
-16777216
102
RTVSPost2010PropOp51
 70
     0
102
RTVSPost2010Prop52
140
1.0
102
RTVSPost2010PropOp52
 70
     0
102
RTVSPost2010Prop53
 90
        2
102
RTVSPost2010PropOp53
 70
     1
102
RTVSPost2010Prop54
  1
strokes_ogs.tif
102
RTVSPost2010PropOp54
 70
     1
102
RTVSPost2010Prop55
280
     0
102
RTVSPost2010PropOp55
 70
     1
102
RTVSPost2010Prop56
140
1.0
102
RTVSPost2010PropOp56
 70
     1
102
RTVSPost2010Prop57
140
1.0
102
RTVSPost2010PropOp57
 70
     1
102
RTVSPropertyOp0
 70
     1
102
RTVSPropertyOp1
 70
     1
102
RTVSPropertyOp2
 70
     1
102
RTVSPropertyOp3
 70
     1
102
RTVSPropertyOp4
 70
     1
102
RTVSPropertyOp5
 70
     1
102
RTVSPropertyOp6
 70
     1
102
RTVSPropertyOp7
 70
     1
102
RTVSPropertyOp8
 70
     1
102
RTVSPropertyOp9
 70
     1
102
RTVSPropertyOp10
 70
     1
102
RTVSPropertyOp11
 70
     1
102
RTVSPropertyOp12
 70
     1
102
RTVSPropertyOp13
 70
     1
102
RTVSPropertyOp14
 70
     1
102
RTVSPropertyOp15
 70
     1
102
RTVSPropertyOp16
 70
     1
102
RTVSPropertyOp17
 70
     1
102
RTVSPropertyOp18
 70
     1
102
RTVSPropertyOp19
 70
     1
102
RTVSPropertyOp20
 70
     1
102
RTVSPropertyOp21
 70
     1
102
RTVSPropertyOp22
 70
     1
102
RTVSPropertyOp23
 70
     1
102
RTVSPropertyOp24
 70
     1
102
RTVSPropertyOp25
 70
     1
102
RTVSPropertyOp26
 70
     1
102
RTVSPropertyOp27
 70
     1
102
RTVSPropertyOp28
 70
     1
102
RTVSPropertyOp29
 70
     1
102
RTVSPropertyOp30
 70
     1
102
RTVSPropertyOp31
 70
     1
102
RTVSPropertyOp32
 70
     1
102
RTVSPropertyOp33
 70
     1
102
RTVSPropertyOp34
 70
     1
102
RTVSPropertyOp35
 70
     1
102
RTVSPropertyOp36
 70
     1
102
RTVSPropertyOp37
 70
     1
102
RTVSPropertyOp38
 70
     1
102
RTVSPropertyOp39
 70
     1
102
RTVSPropertyOp40
 70
     1
102
RTVSPropertyOp41
 70
     1
102
RTVSPropertyOp42
 70
     1
102
RTVSPropertyOp43
 70
     1
102
RTVSPropertyOp44
 70
     1
102
RTVSPropertyOp45
 70
     1
102
RTVSPropertyOp46
 70
     1
102
RTVSPropertyOp47
 70
     1
102
RTVSPropertyOp48
 70
     1
102
RTVSPropertyOp49
 70
     1
102
RTVSPropertyOp50
 70
     1
102
RTVSPropertyOp51
 70
     0
102
RTVSPropertyOp52
 70
     0
102
RTVSPropertyOp53
 70
     1
102
RTVSPropertyOp54
 70
     1
102
RTVSPropertyOp55
 70
     1
102
RTVSPropertyOp56
 70
     1
102
RTVSPropertyOp57
 70
     1
102
RTVSPropertyOp58
 70
     1
102
RTVSPropertyOp59
 70
     1
102
RTVSPropertyOp60
 70
     1
102
RTVSPropertyOp61
 70
     1
102
RTVSPropertyOp62
 70
     1
  0
XRECORD
  5
9E7B
102
{ACAD_REACTORS
330
9E7A
102
}
330
9E7A
100
AcDbXrecord
280
     1
102
RTVSPost2010Prop28
280
     0
102
RTVSPost2010PropOp28
 70
     1
102
RTVSPost2010Prop29
280
     1
102
RTVSPost2010PropOp29
 70
     1
102
RTVSPost2010Prop30
280
     1
102
RTVSPost2010PropOp30
 70
     1
102
RTVSPost2010Prop31
280
     0
102
RTVSPost2010PropOp31
 70
     1
102
RTVSPost2010Prop32
280
     0
102
RTVSPost2010PropOp32
 70
     1
102
RTVSPost2010Prop33
280
     0
102
RTVSPost2010PropOp33
 70
     1
102
RTVSPost2010Prop34
280
     0
102
RTVSPost2010PropOp34
 70
     1
102
RTVSPost2010Prop35
280
     0
102
RTVSPost2010PropOp35
 70
     1
102
RTVSPost2010Prop36
280
     0
102
RTVSPost2010PropOp36
 70
     1
102
RTVSPost2010Prop37
 90
       50
102
RTVSPost2010PropOp37
 70
     1
102
RTVSPost2010Prop38
140
0.0
102
RTVSPost2010PropOp38
 70
     1
102
RTVSPost2010Prop39
140
1.0
102
RTVSPost2010PropOp39
 70
     1
102
RTVSPost2010Prop40
 90
        0
102
RTVSPost2010PropOp40
 70
     1
102
RTVSPost2010Prop41ColorIndex
 90
       18
102
RTVSPost2010Prop41ColorRGB
 90
        0
102
RTVSPost2010PropOp41
 70
     1
102
RTVSPost2010Prop42
 90
       50
102
RTVSPost2010PropOp42
 70
     1
102
RTVSPost2010Prop43
 90
        3
102
RTVSPost2010PropOp43
 70
     1
102
RTVSPost2010Prop44ColorIndex
 90
        5
102
RTVSPost2010Prop44ColorRGB
 90
      255
102
RTVSPost2010PropOp44
 70
     1
102
RTVSPost2010Prop45
280
     0
102
RTVSPost2010PropOp45
 70
     1
102
RTVSPost2010Prop46
 90
       50
102
RTVSPost2010PropOp46
 70
     1
102
RTVSPost2010Prop47
 90
       50
102
RTVSPost2010PropOp47
 70
     1
102
RTVSPost2010Prop48
 90
       50
102
RTVSPost2010PropOp48
 70
     1
102
RTVSPost2010Prop49
280
     0
102
RTVSPost2010PropOp49
 70
     1
102
RTVSPost2010Prop50
 90
       50
102
RTVSPost2010PropOp50
 70
     1
102
RTVSPost2010Prop51ColorIndex
 90
      256
102
RTVSPost2010Prop51ColorRGB
 90
-16777216
102
RTVSPost2010PropOp51
 70
     0
102
RTVSPost2010Prop52
140
1.0
102
RTVSPost2010PropOp52
 70
     0
102
RTVSPost2010Prop53
 90
        2
102
RTVSPost2010PropOp53
 70
     1
102
RTVSPost2010Prop54
  1
strokes_ogs.tif
102
RTVSPost2010PropOp54
 70
     1
102
RTVSPost2010Prop55
280
     0
102
RTVSPost2010PropOp55
 70
     1
102
RTVSPost2010Prop56
140
1.0
102
RTVSPost2010PropOp56
 70
     1
102
RTVSPost2010Prop57
140
1.0
102
RTVSPost2010PropOp57
 70
     1
102
RTVSPropertyOp0
 70
     1
102
RTVSPropertyOp1
 70
     1
102
RTVSPropertyOp2
 70
     1
102
RTVSPropertyOp3
 70
     1
102
RTVSPropertyOp4
 70
     1
102
RTVSPropertyOp5
 70
     1
102
RTVSPropertyOp6
 70
     1
102
RTVSPropertyOp7
 70
     1
102
RTVSPropertyOp8
 70
     1
102
RTVSPropertyOp9
 70
     1
102
RTVSPropertyOp10
 70
     1
102
RTVSPropertyOp11
 70
     1
102
RTVSPropertyOp12
 70
     1
102
RTVSPropertyOp13
 70
     1
102
RTVSPropertyOp14
 70
     1
102
RTVSPropertyOp15
 70
     1
102
RTVSPropertyOp16
 70
     1
102
RTVSPropertyOp17
 70
     1
102
RTVSPropertyOp18
 70
     1
102
RTVSPropertyOp19
 70
     1
102
RTVSPropertyOp20
 70
     1
102
RTVSPropertyOp21
 70
     1
102
RTVSPropertyOp22
 70
     1
102
RTVSPropertyOp23
 70
     1
102
RTVSPropertyOp24
 70
     1
102
RTVSPropertyOp25
 70
     1
102
RTVSPropertyOp26
 70
     1
102
RTVSPropertyOp27
 70
     1
102
RTVSPropertyOp28
 70
     1
102
RTVSPropertyOp29
 70
     1
102
RTVSPropertyOp30
 70
     1
102
RTVSPropertyOp31
 70
     1
102
RTVSPropertyOp32
 70
     1
102
RTVSPropertyOp33
 70
     1
102
RTVSPropertyOp34
 70
     1
102
RTVSPropertyOp35
 70
     1
102
RTVSPropertyOp36
 70
     1
102
RTVSPropertyOp37
 70
     1
102
RTVSPropertyOp38
 70
     1
102
RTVSPropertyOp39
 70
     1
102
RTVSPropertyOp40
 70
     1
102
RTVSPropertyOp41
 70
     1
102
RTVSPropertyOp42
 70
     1
102
RTVSPropertyOp43
 70
     1
102
RTVSPropertyOp44
 70
     1
102
RTVSPropertyOp45
 70
     1
102
RTVSPropertyOp46
 70
     1
102
RTVSPropertyOp47
 70
     1
102
RTVSPropertyOp48
 70
     1
102
RTVSPropertyOp49
 70
     1
102
RTVSPropertyOp50
 70
     1
102
RTVSPropertyOp51
 70
     0
102
RTVSPropertyOp52
 70
     0
102
RTVSPropertyOp53
 70
     1
102
RTVSPropertyOp54
 70
     1
102
RTVSPropertyOp55
 70
     1
102
RTVSPropertyOp56
 70
     1
102
RTVSPropertyOp57
 70
     1
102
RTVSPropertyOp58
 70
     1
102
RTVSPropertyOp59
 70
     1
102
RTVSPropertyOp60
 70
     1
102
RTVSPropertyOp61
 70
     1
102
RTVSPropertyOp62
 70
     1
  0
XRECORD
  5
9E71
102
{ACAD_REACTORS
330
9E70
102
}
330
9E70
100
AcDbXrecord
280
     1
102
RTVSPost2010Prop28
280
     0
102
RTVSPost2010PropOp28
 70
     1
102
RTVSPost2010Prop29
280
     1
102
RTVSPost2010PropOp29
 70
     1
102
RTVSPost2010Prop30
280
     1
102
RTVSPost2010PropOp30
 70
     1
102
RTVSPost2010Prop31
280
     0
102
RTVSPost2010PropOp31
 70
     1
102
RTVSPost2010Prop32
280
     0
102
RTVSPost2010PropOp32
 70
     1
102
RTVSPost2010Prop33
280
     0
102
RTVSPost2010PropOp33
 70
     1
102
RTVSPost2010Prop34
280
     0
102
RTVSPost2010PropOp34
 70
     1
102
RTVSPost2010Prop35
280
     0
102
RTVSPost2010PropOp35
 70
     1
102
RTVSPost2010Prop36
280
     0
102
RTVSPost2010PropOp36
 70
     1
102
RTVSPost2010Prop37
 90
       50
102
RTVSPost2010PropOp37
 70
     1
102
RTVSPost2010Prop38
140
0.0
102
RTVSPost2010PropOp38
 70
     1
102
RTVSPost2010Prop39
140
1.0
102
RTVSPost2010PropOp39
 70
     1
102
RTVSPost2010Prop40
 90
        0
102
RTVSPost2010PropOp40
 70
     1
102
RTVSPost2010Prop41ColorIndex
 90
       18
102
RTVSPost2010Prop41ColorRGB
 90
        0
102
RTVSPost2010PropOp41
 70
     1
102
RTVSPost2010Prop42
 90
       50
102
RTVSPost2010PropOp42
 70
     1
102
RTVSPost2010Prop43
 90
        3
102
RTVSPost2010PropOp43
 70
     1
102
RTVSPost2010Prop44ColorIndex
 90
        5
102
RTVSPost2010Prop44ColorRGB
 90
      255
102
RTVSPost2010PropOp44
 70
     1
102
RTVSPost2010Prop45
280
     0
102
RTVSPost2010PropOp45
 70
     1
102
RTVSPost2010Prop46
 90
       50
102
RTVSPost2010PropOp46
 70
     1
102
RTVSPost2010Prop47
 90
       50
102
RTVSPost2010PropOp47
 70
     1
102
RTVSPost2010Prop48
 90
       50
102
RTVSPost2010PropOp48
 70
     1
102
RTVSPost2010Prop49
280
     0
102
RTVSPost2010PropOp49
 70
     1
102
RTVSPost2010Prop50
 90
       50
102
RTVSPost2010PropOp50
 70
     1
102
RTVSPost2010Prop51ColorIndex
 90
      256
102
RTVSPost2010Prop51ColorRGB
 90
-16777216
102
RTVSPost2010PropOp51
 70
     0
102
RTVSPost2010Prop52
140
1.0
102
RTVSPost2010PropOp52
 70
     0
102
RTVSPost2010Prop53
 90
        2
102
RTVSPost2010PropOp53
 70
     1
102
RTVSPost2010Prop54
  1
strokes_ogs.tif
102
RTVSPost2010PropOp54
 70
     1
102
RTVSPost2010Prop55
280
     0
102
RTVSPost2010PropOp55
 70
     1
102
RTVSPost2010Prop56
140
1.0
102
RTVSPost2010PropOp56
 70
     1
102
RTVSPost2010Prop57
140
1.0
102
RTVSPost2010PropOp57
 70
     1
102
RTVSPropertyOp0
 70
     1
102
RTVSPropertyOp1
 70
     1
102
RTVSPropertyOp2
 70
     1
102
RTVSPropertyOp3
 70
     1
102
RTVSPropertyOp4
 70
     1
102
RTVSPropertyOp5
 70
     1
102
RTVSPropertyOp6
 70
     1
102
RTVSPropertyOp7
 70
     1
102
RTVSPropertyOp8
 70
     1
102
RTVSPropertyOp9
 70
     1
102
RTVSPropertyOp10
 70
     1
102
RTVSPropertyOp11
 70
     1
102
RTVSPropertyOp12
 70
     1
102
RTVSPropertyOp13
 70
     1
102
RTVSPropertyOp14
 70
     1
102
RTVSPropertyOp15
 70
     1
102
RTVSPropertyOp16
 70
     1
102
RTVSPropertyOp17
 70
     1
102
RTVSPropertyOp18
 70
     1
102
RTVSPropertyOp19
 70
     1
102
RTVSPropertyOp20
 70
     1
102
RTVSPropertyOp21
 70
     1
102
RTVSPropertyOp22
 70
     1
102
RTVSPropertyOp23
 70
     1
102
RTVSPropertyOp24
 70
     1
102
RTVSPropertyOp25
 70
     1
102
RTVSPropertyOp26
 70
     1
102
RTVSPropertyOp27
 70
     1
102
RTVSPropertyOp28
 70
     1
102
RTVSPropertyOp29
 70
     1
102
RTVSPropertyOp30
 70
     1
102
RTVSPropertyOp31
 70
     1
102
RTVSPropertyOp32
 70
     1
102
RTVSPropertyOp33
 70
     1
102
RTVSPropertyOp34
 70
     1
102
RTVSPropertyOp35
 70
     1
102
RTVSPropertyOp36
 70
     1
102
RTVSPropertyOp37
 70
     1
102
RTVSPropertyOp38
 70
     1
102
RTVSPropertyOp39
 70
     1
102
RTVSPropertyOp40
 70
     1
102
RTVSPropertyOp41
 70
     1
102
RTVSPropertyOp42
 70
     1
102
RTVSPropertyOp43
 70
     1
102
RTVSPropertyOp44
 70
     1
102
RTVSPropertyOp45
 70
     1
102
RTVSPropertyOp46
 70
     1
102
RTVSPropertyOp47
 70
     1
102
RTVSPropertyOp48
 70
     1
102
RTVSPropertyOp49
 70
     1
102
RTVSPropertyOp50
 70
     1
102
RTVSPropertyOp51
 70
     0
102
RTVSPropertyOp52
 70
     0
102
RTVSPropertyOp53
 70
     1
102
RTVSPropertyOp54
 70
     1
102
RTVSPropertyOp55
 70
     1
102
RTVSPropertyOp56
 70
     1
102
RTVSPropertyOp57
 70
     1
102
RTVSPropertyOp58
 70
     1
102
RTVSPropertyOp59
 70
     1
102
RTVSPropertyOp60
 70
     1
102
RTVSPropertyOp61
 70
     1
102
RTVSPropertyOp62
 70
     1
  0
XRECORD
  5
9E65
102
{ACAD_REACTORS
330
9E64
102
}
330
9E64
100
AcDbXrecord
280
     1
102
RTVSPost2010Prop28
280
     0
102
RTVSPost2010PropOp28
 70
     1
102
RTVSPost2010Prop29
280
     1
102
RTVSPost2010PropOp29
 70
     1
102
RTVSPost2010Prop30
280
     1
102
RTVSPost2010PropOp30
 70
     1
102
RTVSPost2010Prop31
280
     0
102
RTVSPost2010PropOp31
 70
     1
102
RTVSPost2010Prop32
280
     0
102
RTVSPost2010PropOp32
 70
     1
102
RTVSPost2010Prop33
280
     0
102
RTVSPost2010PropOp33
 70
     1
102
RTVSPost2010Prop34
280
     0
102
RTVSPost2010PropOp34
 70
     1
102
RTVSPost2010Prop35
280
     0
102
RTVSPost2010PropOp35
 70
     1
102
RTVSPost2010Prop36
280
     0
102
RTVSPost2010PropOp36
 70
     1
102
RTVSPost2010Prop37
 90
       50
102
RTVSPost2010PropOp37
 70
     1
102
RTVSPost2010Prop38
140
0.0
102
RTVSPost2010PropOp38
 70
     1
102
RTVSPost2010Prop39
140
1.0
102
RTVSPost2010PropOp39
 70
     1
102
RTVSPost2010Prop40
 90
        0
102
RTVSPost2010PropOp40
 70
     1
102
RTVSPost2010Prop41ColorIndex
 90
       18
102
RTVSPost2010Prop41ColorRGB
 90
        0
102
RTVSPost2010PropOp41
 70
     1
102
RTVSPost2010Prop42
 90
       50
102
RTVSPost2010PropOp42
 70
     1
102
RTVSPost2010Prop43
 90
        3
102
RTVSPost2010PropOp43
 70
     1
102
RTVSPost2010Prop44ColorIndex
 90
        5
102
RTVSPost2010Prop44ColorRGB
 90
      255
102
RTVSPost2010PropOp44
 70
     1
102
RTVSPost2010Prop45
280
     0
102
RTVSPost2010PropOp45
 70
     1
102
RTVSPost2010Prop46
 90
       50
102
RTVSPost2010PropOp46
 70
     1
102
RTVSPost2010Prop47
 90
       50
102
RTVSPost2010PropOp47
 70
     1
102
RTVSPost2010Prop48
 90
       50
102
RTVSPost2010PropOp48
 70
     1
102
RTVSPost2010Prop49
280
     0
102
RTVSPost2010PropOp49
 70
     1
102
RTVSPost2010Prop50
 90
       50
102
RTVSPost2010PropOp50
 70
     1
102
RTVSPost2010Prop51ColorIndex
 90
      256
102
RTVSPost2010Prop51ColorRGB
 90
-16777216
102
RTVSPost2010PropOp51
 70
     0
102
RTVSPost2010Prop52
140
1.0
102
RTVSPost2010PropOp52
 70
     0
102
RTVSPost2010Prop53
 90
        2
102
RTVSPost2010PropOp53
 70
     1
102
RTVSPost2010Prop54
  1
strokes_ogs.tif
102
RTVSPost2010PropOp54
 70
     1
102
RTVSPost2010Prop55
280
     0
102
RTVSPost2010PropOp55
 70
     1
102
RTVSPost2010Prop56
140
1.0
102
RTVSPost2010PropOp56
 70
     1
102
RTVSPost2010Prop57
140
1.0
102
RTVSPost2010PropOp57
 70
     1
102
RTVSPropertyOp0
 70
     1
102
RTVSPropertyOp1
 70
     1
102
RTVSPropertyOp2
 70
     1
102
RTVSPropertyOp3
 70
     1
102
RTVSPropertyOp4
 70
     1
102
RTVSPropertyOp5
 70
     1
102
RTVSPropertyOp6
 70
     1
102
RTVSPropertyOp7
 70
     1
102
RTVSPropertyOp8
 70
     1
102
RTVSPropertyOp9
 70
     1
102
RTVSPropertyOp10
 70
     1
102
RTVSPropertyOp11
 70
     1
102
RTVSPropertyOp12
 70
     1
102
RTVSPropertyOp13
 70
     1
102
RTVSPropertyOp14
 70
     1
102
RTVSPropertyOp15
 70
     1
102
RTVSPropertyOp16
 70
     1
102
RTVSPropertyOp17
 70
     1
102
RTVSPropertyOp18
 70
     1
102
RTVSPropertyOp19
 70
     1
102
RTVSPropertyOp20
 70
     1
102
RTVSPropertyOp21
 70
     1
102
RTVSPropertyOp22
 70
     1
102
RTVSPropertyOp23
 70
     1
102
RTVSPropertyOp24
 70
     1
102
RTVSPropertyOp25
 70
     1
102
RTVSPropertyOp26
 70
     1
102
RTVSPropertyOp27
 70
     1
102
RTVSPropertyOp28
 70
     1
102
RTVSPropertyOp29
 70
     1
102
RTVSPropertyOp30
 70
     1
102
RTVSPropertyOp31
 70
     1
102
RTVSPropertyOp32
 70
     1
102
RTVSPropertyOp33
 70
     1
102
RTVSPropertyOp34
 70
     1
102
RTVSPropertyOp35
 70
     1
102
RTVSPropertyOp36
 70
     1
102
RTVSPropertyOp37
 70
     1
102
RTVSPropertyOp38
 70
     1
102
RTVSPropertyOp39
 70
     1
102
RTVSPropertyOp40
 70
     1
102
RTVSPropertyOp41
 70
     1
102
RTVSPropertyOp42
 70
     1
102
RTVSPropertyOp43
 70
     1
102
RTVSPropertyOp44
 70
     1
102
RTVSPropertyOp45
 70
     1
102
RTVSPropertyOp46
 70
     1
102
RTVSPropertyOp47
 70
     1
102
RTVSPropertyOp48
 70
     1
102
RTVSPropertyOp49
 70
     1
102
RTVSPropertyOp50
 70
     1
102
RTVSPropertyOp51
 70
     0
102
RTVSPropertyOp52
 70
     0
102
RTVSPropertyOp53
 70
     1
102
RTVSPropertyOp54
 70
     1
102
RTVSPropertyOp55
 70
     1
102
RTVSPropertyOp56
 70
     1
102
RTVSPropertyOp57
 70
     1
102
RTVSPropertyOp58
 70
     1
102
RTVSPropertyOp59
 70
     1
102
RTVSPropertyOp60
 70
     1
102
RTVSPropertyOp61
 70
     1
102
RTVSPropertyOp62
 70
     1
  0
XRECORD
  5
9E7D
102
{ACAD_REACTORS
330
9E7C
102
}
330
9E7C
100
AcDbXrecord
280
     1
102
RTVSPost2010Prop28
280
     0
102
RTVSPost2010PropOp28
 70
     1
102
RTVSPost2010Prop29
280
     1
102
RTVSPost2010PropOp29
 70
     1
102
RTVSPost2010Prop30
280
     1
102
RTVSPost2010PropOp30
 70
     1
102
RTVSPost2010Prop31
280
     0
102
RTVSPost2010PropOp31
 70
     1
102
RTVSPost2010Prop32
280
     0
102
RTVSPost2010PropOp32
 70
     1
102
RTVSPost2010Prop33
280
     0
102
RTVSPost2010PropOp33
 70
     1
102
RTVSPost2010Prop34
280
     0
102
RTVSPost2010PropOp34
 70
     1
102
RTVSPost2010Prop35
280
     0
102
RTVSPost2010PropOp35
 70
     1
102
RTVSPost2010Prop36
280
     0
102
RTVSPost2010PropOp36
 70
     1
102
RTVSPost2010Prop37
 90
       50
102
RTVSPost2010PropOp37
 70
     1
102
RTVSPost2010Prop38
140
0.0
102
RTVSPost2010PropOp38
 70
     1
102
RTVSPost2010Prop39
140
1.0
102
RTVSPost2010PropOp39
 70
     1
102
RTVSPost2010Prop40
 90
        0
102
RTVSPost2010PropOp40
 70
     1
102
RTVSPost2010Prop41ColorIndex
 90
       18
102
RTVSPost2010Prop41ColorRGB
 90
        0
102
RTVSPost2010PropOp41
 70
     1
102
RTVSPost2010Prop42
 90
       50
102
RTVSPost2010PropOp42
 70
     1
102
RTVSPost2010Prop43
 90
        3
102
RTVSPost2010PropOp43
 70
     1
102
RTVSPost2010Prop44ColorIndex
 90
        5
102
RTVSPost2010Prop44ColorRGB
 90
      255
102
RTVSPost2010PropOp44
 70
     1
102
RTVSPost2010Prop45
280
     0
102
RTVSPost2010PropOp45
 70
     1
102
RTVSPost2010Prop46
 90
       50
102
RTVSPost2010PropOp46
 70
     1
102
RTVSPost2010Prop47
 90
       50
102
RTVSPost2010PropOp47
 70
     1
102
RTVSPost2010Prop48
 90
       50
102
RTVSPost2010PropOp48
 70
     1
102
RTVSPost2010Prop49
280
     0
102
RTVSPost2010PropOp49
 70
     1
102
RTVSPost2010Prop50
 90
       50
102
RTVSPost2010PropOp50
 70
     1
102
RTVSPost2010Prop51ColorIndex
 90
      256
102
RTVSPost2010Prop51ColorRGB
 90
-16777216
102
RTVSPost2010PropOp51
 70
     0
102
RTVSPost2010Prop52
140
1.0
102
RTVSPost2010PropOp52
 70
     0
102
RTVSPost2010Prop53
 90
        2
102
RTVSPost2010PropOp53
 70
     1
102
RTVSPost2010Prop54
  1
strokes_ogs.tif
102
RTVSPost2010PropOp54
 70
     1
102
RTVSPost2010Prop55
280
     0
102
RTVSPost2010PropOp55
 70
     1
102
RTVSPost2010Prop56
140
1.0
102
RTVSPost2010PropOp56
 70
     1
102
RTVSPost2010Prop57
140
1.0
102
RTVSPost2010PropOp57
 70
     1
102
RTVSPropertyOp0
 70
     1
102
RTVSPropertyOp1
 70
     1
102
RTVSPropertyOp2
 70
     1
102
RTVSPropertyOp3
 70
     1
102
RTVSPropertyOp4
 70
     1
102
RTVSPropertyOp5
 70
     1
102
RTVSPropertyOp6
 70
     1
102
RTVSPropertyOp7
 70
     1
102
RTVSPropertyOp8
 70
     1
102
RTVSPropertyOp9
 70
     1
102
RTVSPropertyOp10
 70
     1
102
RTVSPropertyOp11
 70
     1
102
RTVSPropertyOp12
 70
     1
102
RTVSPropertyOp13
 70
     1
102
RTVSPropertyOp14
 70
     1
102
RTVSPropertyOp15
 70
     1
102
RTVSPropertyOp16
 70
     1
102
RTVSPropertyOp17
 70
     1
102
RTVSPropertyOp18
 70
     1
102
RTVSPropertyOp19
 70
     1
102
RTVSPropertyOp20
 70
     1
102
RTVSPropertyOp21
 70
     1
102
RTVSPropertyOp22
 70
     1
102
RTVSPropertyOp23
 70
     1
102
RTVSPropertyOp24
 70
     1
102
RTVSPropertyOp25
 70
     1
102
RTVSPropertyOp26
 70
     1
102
RTVSPropertyOp27
 70
     1
102
RTVSPropertyOp28
 70
     1
102
RTVSPropertyOp29
 70
     1
102
RTVSPropertyOp30
 70
     1
102
RTVSPropertyOp31
 70
     1
102
RTVSPropertyOp32
 70
     1
102
RTVSPropertyOp33
 70
     1
102
RTVSPropertyOp34
 70
     1
102
RTVSPropertyOp35
 70
     1
102
RTVSPropertyOp36
 70
     1
102
RTVSPropertyOp37
 70
     1
102
RTVSPropertyOp38
 70
     1
102
RTVSPropertyOp39
 70
     1
102
RTVSPropertyOp40
 70
     1
102
RTVSPropertyOp41
 70
     1
102
RTVSPropertyOp42
 70
     1
102
RTVSPropertyOp43
 70
     1
102
RTVSPropertyOp44
 70
     1
102
RTVSPropertyOp45
 70
     1
102
RTVSPropertyOp46
 70
     1
102
RTVSPropertyOp47
 70
     1
102
RTVSPropertyOp48
 70
     1
102
RTVSPropertyOp49
 70
     1
102
RTVSPropertyOp50
 70
     1
102
RTVSPropertyOp51
 70
     0
102
RTVSPropertyOp52
 70
     0
102
RTVSPropertyOp53
 70
     1
102
RTVSPropertyOp54
 70
     1
102
RTVSPropertyOp55
 70
     1
102
RTVSPropertyOp56
 70
     1
102
RTVSPropertyOp57
 70
     1
102
RTVSPropertyOp58
 70
     1
102
RTVSPropertyOp59
 70
     1
102
RTVSPropertyOp60
 70
     1
102
RTVSPropertyOp61
 70
     1
102
RTVSPropertyOp62
 70
     1
  0
ENDSEC
  0
EOF
